  0
SECTION
  2
HEADER
  9
$ACADVER
  1
AC1021
  9
$ACADMAINTVER
 70
    25
  9
$DWGCODEPAGE
  3
ANSI_1252
  9
$INSBASE
 10
0.0
 20
0.0
 30
0.0
  9
$EXTMIN
 10
-187.461
 20
-61.1993
 30
0.0
  9
$EXTMAX
 10
196.32
 20
83.4298
 30
0.0
  9
$LIMMIN
 10
0.0
 20
0.0
  9
$LIMMAX
 10
12.0
 20
9.0
  9
$ORTHOMODE
 70
     0
  9
$REGENMODE
 70
     1
  9
$FILLMODE
 70
     1
  9
$QTEXTMODE
 70
     0
  9
$MIRRTEXT
 70
     1
  9
$LTSCALE
 40
1.0
  9
$ATTMODE
 70
     1
  9
$TEXTSIZE
 40
0.2
  9
$TRACEWID
 40
0.05
  9
$TEXTSTYLE
  7
Standard
  9
$CLAYER
  8
0
  9
$CELTYPE
  6
ByLayer
  9
$CECOLOR
 62
   256
  9
$CELTSCALE
 40
1.0
  9
$DISPSILH
 70
     0
  9
$DIMSCALE
 40
1.0
  9
$DIMASZ
 40
0.18
  9
$DIMEXO
 40
0.0625
  9
$DIMDLI
 40
0.38
  9
$DIMRND
 40
0.0
  9
$DIMDLE
 40
0.0
  9
$DIMEXE
 40
0.18
  9
$DIMTP
 40
0.0
  9
$DIMTM
 40
0.0
  9
$DIMTXT
 40
0.18
  9
$DIMCEN
 40
0.09
  9
$DIMTSZ
 40
0.0
  9
$DIMTOL
 70
     0
  9
$DIMLIM
 70
     0
  9
$DIMTIH
 70
     1
  9
$DIMTOH
 70
     1
  9
$DIMSE1
 70
     0
  9
$DIMSE2
 70
     0
  9
$DIMTAD
 70
     0
  9
$DIMZIN
 70
     0
  9
$DIMBLK
  1

  9
$DIMASO
 70
     1
  9
$DIMSHO
 70
     1
  9
$DIMPOST
  1

  9
$DIMAPOST
  1

  9
$DIMALT
 70
     0
  9
$DIMALTD
 70
     2
  9
$DIMALTF
 40
25.4
  9
$DIMLFAC
 40
1.0
  9
$DIMTOFL
 70
     0
  9
$DIMTVP
 40
0.0
  9
$DIMTIX
 70
     0
  9
$DIMSOXD
 70
     0
  9
$DIMSAH
 70
     0
  9
$DIMBLK1
  1

  9
$DIMBLK2
  1

  9
$DIMSTYLE
  2
Standard
  9
$DIMCLRD
 70
     0
  9
$DIMCLRE
 70
     0
  9
$DIMCLRT
 70
     0
  9
$DIMTFAC
 40
1.0
  9
$DIMGAP
 40
0.09
  9
$DIMJUST
 70
     0
  9
$DIMSD1
 70
     0
  9
$DIMSD2
 70
     0
  9
$DIMTOLJ
 70
     1
  9
$DIMTZIN
 70
     0
  9
$DIMALTZ
 70
     0
  9
$DIMALTTZ
 70
     0
  9
$DIMUPT
 70
     0
  9
$DIMDEC
 70
     4
  9
$DIMTDEC
 70
     4
  9
$DIMALTU
 70
     2
  9
$DIMALTTD
 70
     2
  9
$DIMTXSTY
  7
Standard
  9
$DIMAUNIT
 70
     0
  9
$DIMADEC
 70
     0
  9
$DIMALTRND
 40
0.0
  9
$DIMAZIN
 70
     0
  9
$DIMDSEP
 70
    46
  9
$DIMATFIT
 70
     3
  9
$DIMFRAC
 70
     0
  9
$DIMLDRBLK
  1

  9
$DIMLUNIT
 70
     2
  9
$DIMLWD
 70
    -2
  9
$DIMLWE
 70
    -2
  9
$DIMTMOVE
 70
     0
  9
$DIMFXL
 40
1.0
  9
$DIMFXLON
 70
     0
  9
$DIMJOGANG
 40
0.7853981633974483
  9
$DIMTFILL
 70
     0
  9
$DIMTFILLCLR
 70
     0
  9
$DIMARCSYM
 70
     0
  9
$DIMLTYPE
  6

  9
$DIMLTEX1
  6

  9
$DIMLTEX2
  6

  9
$LUNITS
 70
     2
  9
$LUPREC
 70
     4
  9
$SKETCHINC
 40
0.1
  9
$FILLETRAD
 40
0.5
  9
$AUNITS
 70
     0
  9
$AUPREC
 70
     0
  9
$MENU
  1
.
  9
$ELEVATION
 40
0.0
  9
$PELEVATION
 40
0.0
  9
$THICKNESS
 40
0.0
  9
$LIMCHECK
 70
     0
  9
$CHAMFERA
 40
0.5
  9
$CHAMFERB
 40
0.5
  9
$CHAMFERC
 40
1.0
  9
$CHAMFERD
 40
0.0
  9
$SKPOLY
 70
     0
  9
$TDCREATE
 40
2458493.668166782
  9
$TDUCREATE
 40
2458493.668166782
  9
$TDUPDATE
 40
2458493.668166944
  9
$TDUUPDATE
 40
2458493.668166944
  9
$TDINDWG
 40
0.0000000116
  9
$TDUSRTIMER
 40
0.0000000116
  9
$USRTIMER
 70
     1
  9
$ANGBASE
 50
0.0
  9
$ANGDIR
 70
     0
  9
$PDMODE
 70
     0
  9
$PDSIZE
 40
0.0
  9
$PLINEWID
 40
0.0
  9
$SPLFRAME
 70
     0
  9
$SPLINETYPE
 70
     6
  9
$SPLINESEGS
 70
     8
  9
$HANDSEED
  5
A5
  9
$SURFTAB1
 70
     6
  9
$SURFTAB2
 70
     6
  9
$SURFTYPE
 70
     6
  9
$SURFU
 70
     6
  9
$SURFV
 70
     6
  9
$UCSBASE
  2

  9
$UCSNAME
  2

  9
$UCSORG
 10
0.0
 20
0.0
 30
0.0
  9
$UCSXDIR
 10
1.0
 20
0.0
 30
0.0
  9
$UCSYDIR
 10
0.0
 20
1.0
 30
0.0
  9
$UCSORTHOREF
  2

  9
$UCSORTHOVIEW
 70
     0
  9
$UCSORGTOP
 10
0.0
 20
0.0
 30
0.0
  9
$UCSORGBOTTOM
 10
0.0
 20
0.0
 30
0.0
  9
$UCSORGLEFT
 10
0.0
 20
0.0
 30
0.0
  9
$UCSORGRIGHT
 10
0.0
 20
0.0
 30
0.0
  9
$UCSORGFRONT
 10
0.0
 20
0.0
 30
0.0
  9
$UCSORGBACK
 10
0.0
 20
0.0
 30
0.0
  9
$PUCSBASE
  2

  9
$PUCSNAME
  2

  9
$PUCSORG
 10
0.0
 20
0.0
 30
0.0
  9
$PUCSXDIR
 10
1.0
 20
0.0
 30
0.0
  9
$PUCSYDIR
 10
0.0
 20
1.0
 30
0.0
  9
$PUCSORTHOREF
  2

  9
$PUCSORTHOVIEW
 70
     0
  9
$PUCSORGTOP
 10
0.0
 20
0.0
 30
0.0
  9
$PUCSORGBOTTOM
 10
0.0
 20
0.0
 30
0.0
  9
$PUCSORGLEFT
 10
0.0
 20
0.0
 30
0.0
  9
$PUCSORGRIGHT
 10
0.0
 20
0.0
 30
0.0
  9
$PUCSORGFRONT
 10
0.0
 20
0.0
 30
0.0
  9
$PUCSORGBACK
 10
0.0
 20
0.0
 30
0.0
  9
$USERI1
 70
     0
  9
$USERI2
 70
     0
  9
$USERI3
 70
     0
  9
$USERI4
 70
     0
  9
$USERI5
 70
     0
  9
$USERR1
 40
0.0
  9
$USERR2
 40
0.0
  9
$USERR3
 40
0.0
  9
$USERR4
 40
0.0
  9
$USERR5
 40
0.0
  9
$WORLDVIEW
 70
     1
  9
$SHADEDGE
 70
     3
  9
$SHADEDIF
 70
    70
  9
$TILEMODE
 70
     1
  9
$MAXACTVP
 70
    64
  9
$PINSBASE
 10
0.0
 20
0.0
 30
0.0
  9
$PLIMCHECK
 70
     0
  9
$PEXTMIN
 10
1.000000000000000E+20
 20
1.000000000000000E+20
 30
1.000000000000000E+20
  9
$PEXTMAX
 10
-1.000000000000000E+20
 20
-1.000000000000000E+20
 30
-1.000000000000000E+20
  9
$PLIMMIN
 10
0.0
 20
0.0
  9
$PLIMMAX
 10
12.0
 20
9.0
  9
$UNITMODE
 70
     0
  9
$VISRETAIN
 70
     1
  9
$PLINEGEN
 70
     0
  9
$PSLTSCALE
 70
     1
  9
$TREEDEPTH
 70
  3020
  9
$CMLSTYLE
  2
Standard
  9
$CMLJUST
 70
     0
  9
$CMLSCALE
 40
1.0
  9
$PROXYGRAPHICS
 70
     1
  9
$MEASUREMENT
 70
     0
  9
$CELWEIGHT
370
    -1
  9
$ENDCAPS
280
     0
  9
$JOINSTYLE
280
     0
  9
$LWDISPLAY
290
     0
  9
$INSUNITS
 70
     4
  9
$HYPERLINKBASE
  1

  9
$STYLESHEET
  1

  9
$XEDIT
290
     1
  9
$CEPSNTYPE
380
     0
  9
$PSTYLEMODE
290
     1
  9
$FINGERPRINTGUID
  2
{E3E540C9-736F-4038-A438-CD9248348D5F}
  9
$VERSIONGUID
  2
{FAEB1C32-E019-11D5-929B-00C0DF256EC4}
  9
$EXTNAMES
290
     1
  9
$PSVPSCALE
 40
0.0
  9
$OLESTARTUP
290
     0
  9
$SORTENTS
280
   127
  9
$INDEXCTL
280
     0
  9
$HIDETEXT
280
     1
  9
$XCLIPFRAME
290
     0
  9
$HALOGAP
280
     0
  9
$OBSCOLOR
 70
   257
  9
$OBSLTYPE
280
     0
  9
$INTERSECTIONDISPLAY
280
     0
  9
$INTERSECTIONCOLOR
 70
   257
  9
$DIMASSOC
280
     2
  9
$PROJECTNAME
  1

  9
$CAMERADISPLAY
290
     0
  9
$LENSLENGTH
 40
50.0
  9
$CAMERAHEIGHT
 40
0.0
  9
$STEPSPERSEC
 40
2.0
  9
$STEPSIZE
 40
6.0
  9
$3DDWFPREC
 40
2.0
  9
$PSOLWIDTH
 40
0.25
  9
$PSOLHEIGHT
 40
4.0
  9
$LOFTANG1
 40
1.570796326794897
  9
$LOFTANG2
 40
1.570796326794897
  9
$LOFTMAG1
 40
0.0
  9
$LOFTMAG2
 40
0.0
  9
$LOFTPARAM
 70
     7
  9
$LOFTNORMALS
280
     1
  9
$LATITUDE
 40
37.795
  9
$LONGITUDE
 40
-122.394
  9
$NORTHDIRECTION
 40
0.0
  9
$TIMEZONE
 70
 -8000
  9
$LIGHTGLYPHDISPLAY
280
     1
  9
$TILEMODELIGHTSYNCH
280
     1
  9
$SOLIDHIST
280
     1
  9
$SHOWHIST
280
     1
  9
$DWFFRAME
280
     2
  9
$DGNFRAME
280
     2
  9
$REALWORLDSCALE
290
     1
  9
$INTERFERECOLOR
 62
   256
  9
$CSHADOW
280
     0
  9
$SHADOWPLANELOCATION
 40
0.0
  0
ENDSEC
  0
SECTION
  2
CLASSES
  0
CLASS
  1
ACDBDICTIONARYWDFLT
  2
AcDbDictionaryWithDefault
  3
ObjectDBX Classes
 90
        0
 91
        4
280
     0
281
     0
  0
CLASS
  1
VISUALSTYLE
  2
AcDbVisualStyle
  3
ObjectDBX Classes
 90
     4095
 91
        4
280
     0
281
     0
  0
CLASS
  1
MATERIAL
  2
AcDbMaterial
  3
ObjectDBX Classes
 90
     1153
 91
        4
280
     0
281
     0
  0
ENDSEC
  0
SECTION
  2
TABLES
  0
TABLE
  2
VPORT
  5
8
330
0
100
AcDbSymbolTable
 70
     1
  0
VPORT
  5
29
330
8
100
AcDbSymbolTableRecord
100
AcDbViewportTableRecord
  2
*Active
 70
     0
 10
0.0
 20
0.0
 11
1.0
 21
1.0
 12
10.42990654205607
 22
4.5
 13
0.0
 23
0.0
 14
0.5
 24
0.5
 15
0.5
 25
0.5
 16
0.0
 26
0.0
 36
1.0
 17
0.0
 27
0.0
 37
0.0
 40
9.0
 41
1.972972972850329
 42
50.0
 43
0.0
 44
0.0
 50
0.0
 51
0.0
 71
     0
 72
   100
 73
     1
 74
     3
 75
     0
 76
     0
 77
     0
 78
     0
281
     0
 65
     1
110
0.0
120
0.0
130
0.0
111
1.0
121
0.0
131
0.0
112
0.0
122
1.0
132
0.0
 79
     0
146
0.0
 60
     3
 61
     5
292
     1
282
     1
141
0.0
142
0.0
 63
   250
  0
ENDTAB
  0
TABLE
  2
LTYPE
  5
5
330
0
100
AcDbSymbolTable
 70
     1
  0
LTYPE
  5
14
330
5
100
AcDbSymbolTableRecord
100
AcDbLinetypeTableRecord
  2
ByBlock
 70
     0
  3

 72
    65
 73
     0
 40
0.0
  0
LTYPE
  5
15
330
5
100
AcDbSymbolTableRecord
100
AcDbLinetypeTableRecord
  2
ByLayer
 70
     0
  3

 72
    65
 73
     0
 40
0.0
  0
LTYPE
  5
16
330
5
100
AcDbSymbolTableRecord
100
AcDbLinetypeTableRecord
  2
Continuous
 70
     0
  3
Solid line
 72
    65
 73
     0
 40
0.0
  0
ENDTAB
  0
TABLE
  2
LAYER
  5
2
330
0
100
AcDbSymbolTable
 70
     3
  0
LAYER
  5
10
330
2
100
AcDbSymbolTableRecord
100
AcDbLayerTableRecord
  2
0
 70
     0
 62
     7
  6
Continuous
370
    -3
390
F
347
3E
  0
LAYER
  5
40
330
2
100
AcDbSymbolTableRecord
100
AcDbLayerTableRecord
  2
layer 1
 70
     0
 62
     7
  6
Continuous
370
    -3
390
F
347
3E
  0
LAYER
  5
82
330
2
100
AcDbSymbolTableRecord
100
AcDbLayerTableRecord
  2
Master Guides
 70
     0
 62
     7
  6
Continuous
370
    -3
390
F
347
3E
  0
ENDTAB
  0
TABLE
  2
STYLE
  5
3
330
0
100
AcDbSymbolTable
 70
     1
  0
STYLE
  5
11
330
3
100
AcDbSymbolTableRecord
100
AcDbTextStyleTableRecord
  2
Standard
 70
     0
 40
0.0
 41
1.0
 50
0.0
 71
     0
 42
0.2
  3
txt
  4

  0
ENDTAB
  0
TABLE
  2
VIEW
  5
6
330
0
100
AcDbSymbolTable
 70
     0
  0
ENDTAB
  0
TABLE
  2
UCS
  5
7
330
0
100
AcDbSymbolTable
 70
     0
  0
ENDTAB
  0
TABLE
  2
APPID
  5
9
330
0
100
AcDbSymbolTable
 70
     2
  0
APPID
  5
12
330
9
100
AcDbSymbolTableRecord
100
AcDbRegAppTableRecord
  2
ACAD
 70
     0
  0
APPID
  5
3F
330
9
100
AcDbSymbolTableRecord
100
AcDbRegAppTableRecord
  2
ODA
 70
     0
  0
ENDTAB
  0
TABLE
  2
DIMSTYLE
  5
A
330
0
100
AcDbSymbolTable
 70
     1
100
AcDbDimStyleTable
  0
DIMSTYLE
105
27
330
A
100
AcDbSymbolTableRecord
100
AcDbDimStyleTableRecord
  2
Standard
 70
     0
178
     0
340
11
  0
ENDTAB
  0
TABLE
  2
BLOCK_RECORD
  5
1
330
0
100
AcDbSymbolTable
 70
     1
  0
BLOCK_RECORD
  5
1F
330
1
100
AcDbSymbolTableRecord
100
AcDbBlockTableRecord
  2
*Model_Space
340
22
 70
     0
280
     1
281
     0
  0
BLOCK_RECORD
  5
1B
330
1
100
AcDbSymbolTableRecord
100
AcDbBlockTableRecord
  2
*Paper_Space
340
1E
 70
     0
280
     1
281
     0
  0
BLOCK_RECORD
  5
23
330
1
100
AcDbSymbolTableRecord
100
AcDbBlockTableRecord
  2
*Paper_Space0
340
26
 70
     0
280
     1
281
     0
  0
ENDTAB
  0
ENDSEC
  0
SECTION
  2
BLOCKS
  0
BLOCK
  5
20
330
1F
100
AcDbEntity
  8
0
100
AcDbBlockBegin
  2
*Model_Space
 70
     0
 10
0.0
 20
0.0
 30
0.0
  3
*Model_Space
  1

  0
ENDBLK
  5
21
330
1F
100
AcDbEntity
  8
0
100
AcDbBlockEnd
  0
BLOCK
  5
1C
330
1B
100
AcDbEntity
 67
     1
  8
0
100
AcDbBlockBegin
  2
*Paper_Space
 70
     0
 10
0.0
 20
0.0
 30
0.0
  3
*Paper_Space
  1

  0
ENDBLK
  5
1D
330
1B
100
AcDbEntity
 67
     1
  8
0
100
AcDbBlockEnd
  0
BLOCK
  5
24
330
23
100
AcDbEntity
  8
0
100
AcDbBlockBegin
  2
*Paper_Space0
 70
     0
 10
0.0
 20
0.0
 30
0.0
  3
*Paper_Space0
  1

  0
ENDBLK
  5
25
330
23
100
AcDbEntity
  8
0
100
AcDbBlockEnd
  0
ENDSEC
  0
SECTION
  2
ENTITIES
  0
SPLINE
  5
41
330
1F
100
AcDbEntity
  8
layer 1
 62
   250
100
AcDbSpline
210
0.0
220
0.0
230
1.0
 70
    11
 71
     3
 72
   100
 73
    96
 74
     0
 42
0.0000000001
 43
0.0000000001
 12
1.0
 22
0.0
 32
0.0
 13
1.0
 23
0.0
 33
0.0
 40
0.0
 40
0.0
 40
0.0
 40
0.0
 40
0.04
 40
0.04
 40
0.04
 40
0.04
 40
0.08
 40
0.08
 40
0.08
 40
0.08
 40
0.12
 40
0.12
 40
0.12
 40
0.12
 40
0.16
 40
0.16
 40
0.16
 40
0.16
 40
0.2
 40
0.2
 40
0.2
 40
0.2
 40
0.24
 40
0.24
 40
0.24
 40
0.24
 40
0.28
 40
0.28
 40
0.28
 40
0.28
 40
0.32
 40
0.32
 40
0.32
 40
0.32
 40
0.36
 40
0.36
 40
0.36
 40
0.36
 40
0.4
 40
0.4
 40
0.4
 40
0.4
 40
0.44
 40
0.44
 40
0.44
 40
0.44
 40
0.48
 40
0.48
 40
0.48
 40
0.48
 40
0.52
 40
0.52
 40
0.52
 40
0.52
 40
0.56
 40
0.56
 40
0.56
 40
0.56
 40
0.6
 40
0.6
 40
0.6
 40
0.6
 40
0.64
 40
0.64
 40
0.64
 40
0.64
 40
0.68
 40
0.68
 40
0.68
 40
0.68
 40
0.72
 40
0.72
 40
0.72
 40
0.72
 40
0.76
 40
0.76
 40
0.76
 40
0.76
 40
0.8
 40
0.8
 40
0.8
 40
0.8
 40
0.84
 40
0.84
 40
0.84
 40
0.84
 40
0.88
 40
0.88
 40
0.88
 40
0.88
 40
0.92
 40
0.92
 40
0.92
 40
0.92
 40
1.0
 40
1.0
 40
1.0
 40
1.0
 10
-79.1116
 20
-50.1922
 30
0.0
 10
-79.6998
 20
-51.09
 30
0.0
 10
-78.9089
 20
-54.4056
 30
0.0
 10
-78.6691
 20
-55.0299
 30
0.0
 10
-78.6691
 20
-55.0299
 30
0.0
 10
-81.6784
 20
-54.4948
 30
0.0
 10
-83.0826
 20
-50.6127
 30
0.0
 10
-83.113
 20
-48.6904
 30
0.0
 10
-83.113
 20
-48.6904
 30
0.0
 10
-85.5968
 20
-49.1439
 30
0.0
 10
-86.5706
 20
-47.8396
 30
0.0
 10
-86.7855
 20
-46.6938
 30
0.0
 10
-86.7855
 20
-46.6938
 30
0.0
 10
-83.3813
 20
-47.004
 30
0.0
 10
-81.1927
 20
-46.3784
 30
0.0
 10
-80.5153
 20
-45.1073
 30
0.0
 10
-80.5153
 20
-45.1073
 30
0.0
 10
-80.5182
 20
-44.8219
 30
0.0
 10
-86.7128
 20
-45.6594
 30
0.0
 10
-95.5383
 20
-45.5908
 30
0.0
 10
-95.5383
 20
-45.5908
 30
0.0
 10
-104.3638
 20
-45.6594
 30
0.0
 10
-110.5587
 20
-44.8217
 30
0.0
 10
-110.5613
 20
-45.1073
 30
0.0
 10
-110.5613
 20
-45.1073
 30
0.0
 10
-109.8839
 20
-46.3786
 30
0.0
 10
-107.6953
 20
-47.004
 30
0.0
 10
-104.2911
 20
-46.6938
 30
0.0
 10
-104.2911
 20
-46.6938
 30
0.0
 10
-104.5061
 20
-47.8398
 30
0.0
 10
-105.4798
 20
-49.1439
 30
0.0
 10
-107.9637
 20
-48.6904
 30
0.0
 10
-107.9637
 20
-48.6904
 30
0.0
 10
-107.994
 20
-50.6127
 30
0.0
 10
-109.3982
 20
-54.4951
 30
0.0
 10
-112.4075
 20
-55.0299
 30
0.0
 10
-112.4075
 20
-55.0299
 30
0.0
 10
-112.168
 20
-54.4053
 30
0.0
 10
-111.3768
 20
-51.0898
 30
0.0
 10
-111.965
 20
-50.1922
 30
0.0
 10
-111.965
 20
-50.1922
 30
0.0
 10
-114.7447
 20
-44.7372
 30
0.0
 10
-123.1585
 20
-51.9563
 30
0.0
 10
-123.6193
 20
-52.2134
 30
0.0
 10
-123.6193
 20
-52.2134
 30
0.0
 10
-135.3299
 20
-60.5189
 30
0.0
 10
-149.0159
 20
-57.025
 30
0.0
 10
-155.4221
 20
-46.1152
 30
0.0
 10
-155.4221
 20
-46.1152
 30
0.0
 10
-160.6652
 20
-63.4037
 30
0.0
 10
-180.4948
 20
-57.025
 30
0.0
 10
-182.2806
 20
-49.5901
 30
0.0
 10
-182.2806
 20
-49.5901
 30
0.0
 10
-182.2806
 20
-49.5901
 30
0.0
 10
-182.2806
 20
-57.025
 30
0.0
 10
-182.2806
 20
-57.025
 30
0.0
 10
-182.2806
 20
-57.025
 30
0.0
 10
-182.2806
 20
-57.025
 30
0.0
 10
-187.3708
 20
-60.0068
 30
0.0
 10
-187.3708
 20
-60.0068
 30
0.0
 10
-187.3708
 20
-60.0068
 30
0.0
 10
-187.3708
 20
-60.0068
 30
0.0
 10
-187.461
 20
83.3615
 30
0.0
 10
-187.461
 20
83.3615
 30
0.0
 10
-187.461
 20
83.3615
 30
0.0
 10
-187.461
 20
83.3615
 30
0.0
 10
-3.3897
 20
83.3615
 30
0.0
 10
-3.3897
 20
83.3615
 30
0.0
 10
-3.3897
 20
83.3615
 30
0.0
 10
-3.3897
 20
83.3615
 30
0.0
 10
-3.6708
 20
-59.2431
 30
0.0
 10
-3.6708
 20
-59.2431
 30
0.0
 10
-3.6708
 20
-59.2431
 30
0.0
 10
-3.6708
 20
-59.2431
 30
0.0
 10
-8.9223
 20
-56.3269
 30
0.0
 10
-8.9223
 20
-56.3269
 30
0.0
 10
-8.9223
 20
-56.3269
 30
0.0
 10
-8.9223
 20
-56.3269
 30
0.0
 10
-9.0136
 20
-48.6998
 30
0.0
 10
-9.0136
 20
-48.6998
 30
0.0
 10
-9.0136
 20
-48.6998
 30
0.0
 10
-14.7396
 20
-63.207
 30
0.0
 10
-34.378
 20
-57.025
 30
0.0
 10
-35.8565
 20
-45.5242
 30
0.0
 10
-35.8565
 20
-45.5242
 30
0.0
 10
-42.835
 20
-59.1108
 30
0.0
 10
-57.8245
 20
-59.7842
 30
0.0
 10
-66.5715
 20
-52.6148
 30
0.0
 10
-66.5715
 20
-52.6148
 30
0.0
 10
-70.8022
 20
-49.4185
 30
0.0
 10
-77.6431
 20
-45.8519
 30
0.0
 10
-79.1114
 20
-50.1924
 30
0.0
 10
-79.1114
 20
-50.1924
 30
0.0
 10
-79.1114
 20
-50.1924
 30
0.0
 10
-79.1116
 20
-50.1922
 30
0.0
 10
-79.1116
 20
-50.1922
 30
0.0
  0
SPLINE
  5
42
330
1F
100
AcDbEntity
  8
layer 1
 62
     7
100
AcDbSpline
210
0.0
220
0.0
230
1.0
 70
    11
 71
     3
 72
    92
 73
    88
 74
     0
 42
0.0000000001
 43
0.0000000001
 12
1.0
 22
0.0
 32
0.0
 13
1.0
 23
0.0
 33
0.0
 40
0.0
 40
0.0
 40
0.0
 40
0.0
 40
0.0434782608695652
 40
0.0434782608695652
 40
0.0434782608695652
 40
0.0434782608695652
 40
0.0869565217391304
 40
0.0869565217391304
 40
0.0869565217391304
 40
0.0869565217391304
 40
0.1304347826086956
 40
0.1304347826086956
 40
0.1304347826086956
 40
0.1304347826086956
 40
0.1739130434782609
 40
0.1739130434782609
 40
0.1739130434782609
 40
0.1739130434782609
 40
0.2173913043478261
 40
0.2173913043478261
 40
0.2173913043478261
 40
0.2173913043478261
 40
0.2608695652173913
 40
0.2608695652173913
 40
0.2608695652173913
 40
0.2608695652173913
 40
0.3043478260869565
 40
0.3043478260869565
 40
0.3043478260869565
 40
0.3043478260869565
 40
0.3478260869565217
 40
0.3478260869565217
 40
0.3478260869565217
 40
0.3478260869565217
 40
0.391304347826087
 40
0.391304347826087
 40
0.391304347826087
 40
0.391304347826087
 40
0.4347826086956522
 40
0.4347826086956522
 40
0.4347826086956522
 40
0.4347826086956522
 40
0.4782608695652174
 40
0.4782608695652174
 40
0.4782608695652174
 40
0.4782608695652174
 40
0.5217391304347826
 40
0.5217391304347826
 40
0.5217391304347826
 40
0.5217391304347826
 40
0.5652173913043478
 40
0.5652173913043478
 40
0.5652173913043478
 40
0.5652173913043478
 40
0.6086956521739131
 40
0.6086956521739131
 40
0.6086956521739131
 40
0.6086956521739131
 40
0.6521739130434783
 40
0.6521739130434783
 40
0.6521739130434783
 40
0.6521739130434783
 40
0.6956521739130435
 40
0.6956521739130435
 40
0.6956521739130435
 40
0.6956521739130435
 40
0.7391304347826086
 40
0.7391304347826086
 40
0.7391304347826086
 40
0.7391304347826086
 40
0.782608695652174
 40
0.782608695652174
 40
0.782608695652174
 40
0.782608695652174
 40
0.8260869565217391
 40
0.8260869565217391
 40
0.8260869565217391
 40
0.8260869565217391
 40
0.8695652173913043
 40
0.8695652173913043
 40
0.8695652173913043
 40
0.8695652173913043
 40
0.9130434782608695
 40
0.9130434782608695
 40
0.9130434782608695
 40
0.9130434782608695
 40
1.0
 40
1.0
 40
1.0
 40
1.0
 10
-106.8291
 20
8.6807
 30
0.0
 10
-112.0809
 20
8.125
 30
0.0
 10
-112.1256
 20
0.6749
 30
0.0
 10
-107.5496
 20
0.3972
 30
0.0
 10
-107.5496
 20
0.3972
 30
0.0
 10
-108.4227
 20
5.7789
 30
0.0
 10
-100.6891
 20
4.1885
 30
0.0
 10
-103.7615
 20
-0.4667
 30
0.0
 10
-103.7615
 20
-0.4667
 30
0.0
 10
-105.8606
 20
-3.5783
 30
0.0
 10
-112.1975
 20
-4.9974
 30
0.0
 10
-118.4089
 20
-3.2723
 30
0.0
 10
-118.4089
 20
-3.2723
 30
0.0
 10
-118.4089
 20
-3.2723
 30
0.0
 10
-120.9783
 20
-2.5588
 30
0.0
 10
-120.9783
 20
-2.5588
 30
0.0
 10
-120.9783
 20
-2.5588
 30
0.0
 10
-115.9825
 20
1.917
 30
0.0
 10
-118.8543
 20
7.0163
 30
0.0
 10
-123.4786
 20
7.1677
 30
0.0
 10
-123.4786
 20
7.1677
 30
0.0
 10
-126.1076
 20
7.1614
 30
0.0
 10
-127.9481
 20
5.6332
 30
0.0
 10
-127.9288
 20
3.1554
 30
0.0
 10
-127.9288
 20
3.1554
 30
0.0
 10
-123.3476
 20
4.6708
 30
0.0
 10
-123.4859
 20
-0.518
 30
0.0
 10
-127.1088
 20
0.4937
 30
0.0
 10
-127.1088
 20
0.4937
 30
0.0
 10
-128.6535
 20
0.779
 30
0.0
 10
-131.034
 20
1.6942
 30
0.0
 10
-134.3977
 20
3.266
 30
0.0
 10
-134.3977
 20
3.266
 30
0.0
 10
-144.4718
 20
7.9735
 30
0.0
 10
-151.1019
 20
9.3804
 30
0.0
 10
-163.0685
 20
9.3495
 30
0.0
 10
-163.0685
 20
9.3495
 30
0.0
 10
-170.308
 20
9.4261
 30
0.0
 10
-172.1974
 20
9.4321
 30
0.0
 10
-173.435
 20
9.5483
 30
0.0
 10
-173.435
 20
9.5483
 30
0.0
 10
-173.435
 20
9.5483
 30
0.0
 10
-173.4167
 20
12.0562
 30
0.0
 10
-173.4167
 20
12.0562
 30
0.0
 10
-173.4167
 20
12.0562
 30
0.0
 10
-170.3472
 20
12.0104
 30
0.0
 10
-168.7892
 20
11.9649
 30
0.0
 10
-163.0685
 20
11.8904
 30
0.0
 10
-163.0685
 20
11.8904
 30
0.0
 10
-151.103
 20
11.7342
 30
0.0
 10
-144.4718
 20
13.2664
 30
0.0
 10
-134.3977
 20
17.9739
 30
0.0
 10
-134.3977
 20
17.9739
 30
0.0
 10
-131.034
 20
19.5457
 30
0.0
 10
-128.6535
 20
20.4609
 30
0.0
 10
-127.1088
 20
20.7462
 30
0.0
 10
-127.1088
 20
20.7462
 30
0.0
 10
-123.4857
 20
21.7578
 30
0.0
 10
-123.3473
 20
16.5689
 30
0.0
 10
-127.9288
 20
18.0845
 30
0.0
 10
-127.9288
 20
18.0845
 30
0.0
 10
-127.9481
 20
15.6066
 30
0.0
 10
-126.1076
 20
14.0784
 30
0.0
 10
-123.4786
 20
14.0722
 30
0.0
 10
-123.4786
 20
14.0722
 30
0.0
 10
-118.8543
 20
14.2236
 30
0.0
 10
-115.9825
 20
19.3226
 30
0.0
 10
-120.9783
 20
23.7987
 30
0.0
 10
-120.9783
 20
23.7987
 30
0.0
 10
-120.9783
 20
23.7987
 30
0.0
 10
-118.4089
 20
24.5121
 30
0.0
 10
-118.4089
 20
24.5121
 30
0.0
 10
-118.4089
 20
24.5121
 30
0.0
 10
-112.1975
 20
26.2373
 30
0.0
 10
-105.8606
 20
24.8182
 30
0.0
 10
-103.7615
 20
21.7066
 30
0.0
 10
-103.7615
 20
21.7066
 30
0.0
 10
-100.6891
 20
17.0514
 30
0.0
 10
-108.4227
 20
15.461
 30
0.0
 10
-107.5496
 20
20.8427
 30
0.0
 10
-107.5496
 20
20.8427
 30
0.0
 10
-112.1258
 20
20.565
 30
0.0
 10
-112.0811
 20
13.1149
 30
0.0
 10
-106.8291
 20
12.5591
 30
0.0
 10
-106.8291
 20
12.5591
 30
0.0
 10
-106.8291
 20
12.5591
 30
0.0
 10
-106.8291
 20
8.6807
 30
0.0
 10
-106.8291
 20
8.6807
 30
0.0
  0
SPLINE
  5
43
330
1F
100
AcDbEntity
  8
layer 1
 62
     7
100
AcDbSpline
210
0.0
220
0.0
230
1.0
 70
    11
 71
     3
 72
    92
 73
    88
 74
     0
 42
0.0000000001
 43
0.0000000001
 12
1.0
 22
0.0
 32
0.0
 13
1.0
 23
0.0
 33
0.0
 40
0.0
 40
0.0
 40
0.0
 40
0.0
 40
0.0434782608695652
 40
0.0434782608695652
 40
0.0434782608695652
 40
0.0434782608695652
 40
0.0869565217391304
 40
0.0869565217391304
 40
0.0869565217391304
 40
0.0869565217391304
 40
0.1304347826086956
 40
0.1304347826086956
 40
0.1304347826086956
 40
0.1304347826086956
 40
0.1739130434782609
 40
0.1739130434782609
 40
0.1739130434782609
 40
0.1739130434782609
 40
0.2173913043478261
 40
0.2173913043478261
 40
0.2173913043478261
 40
0.2173913043478261
 40
0.2608695652173913
 40
0.2608695652173913
 40
0.2608695652173913
 40
0.2608695652173913
 40
0.3043478260869565
 40
0.3043478260869565
 40
0.3043478260869565
 40
0.3043478260869565
 40
0.3478260869565217
 40
0.3478260869565217
 40
0.3478260869565217
 40
0.3478260869565217
 40
0.391304347826087
 40
0.391304347826087
 40
0.391304347826087
 40
0.391304347826087
 40
0.4347826086956522
 40
0.4347826086956522
 40
0.4347826086956522
 40
0.4347826086956522
 40
0.4782608695652174
 40
0.4782608695652174
 40
0.4782608695652174
 40
0.4782608695652174
 40
0.5217391304347826
 40
0.5217391304347826
 40
0.5217391304347826
 40
0.5217391304347826
 40
0.5652173913043478
 40
0.5652173913043478
 40
0.5652173913043478
 40
0.5652173913043478
 40
0.6086956521739131
 40
0.6086956521739131
 40
0.6086956521739131
 40
0.6086956521739131
 40
0.6521739130434783
 40
0.6521739130434783
 40
0.6521739130434783
 40
0.6521739130434783
 40
0.6956521739130435
 40
0.6956521739130435
 40
0.6956521739130435
 40
0.6956521739130435
 40
0.7391304347826086
 40
0.7391304347826086
 40
0.7391304347826086
 40
0.7391304347826086
 40
0.782608695652174
 40
0.782608695652174
 40
0.782608695652174
 40
0.782608695652174
 40
0.8260869565217391
 40
0.8260869565217391
 40
0.8260869565217391
 40
0.8260869565217391
 40
0.8695652173913043
 40
0.8695652173913043
 40
0.8695652173913043
 40
0.8695652173913043
 40
0.9130434782608695
 40
0.9130434782608695
 40
0.9130434782608695
 40
0.9130434782608695
 40
1.0
 40
1.0
 40
1.0
 40
1.0
 10
-84.0056
 20
8.6807
 30
0.0
 10
-78.7538
 20
8.125
 30
0.0
 10
-78.7091
 20
0.6749
 30
0.0
 10
-83.2851
 20
0.3972
 30
0.0
 10
-83.2851
 20
0.3972
 30
0.0
 10
-82.412
 20
5.7789
 30
0.0
 10
-90.1456
 20
4.1885
 30
0.0
 10
-87.0732
 20
-0.4667
 30
0.0
 10
-87.0732
 20
-0.4667
 30
0.0
 10
-84.9741
 20
-3.5783
 30
0.0
 10
-78.6372
 20
-4.9974
 30
0.0
 10
-72.4258
 20
-3.2723
 30
0.0
 10
-72.4258
 20
-3.2723
 30
0.0
 10
-72.4258
 20
-3.2723
 30
0.0
 10
-69.8564
 20
-2.5588
 30
0.0
 10
-69.8564
 20
-2.5588
 30
0.0
 10
-69.8564
 20
-2.5588
 30
0.0
 10
-74.8522
 20
1.917
 30
0.0
 10
-71.9804
 20
7.0163
 30
0.0
 10
-67.3561
 20
7.1677
 30
0.0
 10
-67.3561
 20
7.1677
 30
0.0
 10
-64.7271
 20
7.1614
 30
0.0
 10
-62.8866
 20
5.6332
 30
0.0
 10
-62.906
 20
3.1554
 30
0.0
 10
-62.906
 20
3.1554
 30
0.0
 10
-67.4871
 20
4.6708
 30
0.0
 10
-67.3488
 20
-0.518
 30
0.0
 10
-63.7259
 20
0.4937
 30
0.0
 10
-63.7259
 20
0.4937
 30
0.0
 10
-62.1812
 20
0.779
 30
0.0
 10
-59.8007
 20
1.6942
 30
0.0
 10
-56.437
 20
3.266
 30
0.0
 10
-56.437
 20
3.266
 30
0.0
 10
-46.3629
 20
7.9735
 30
0.0
 10
-39.7328
 20
9.3804
 30
0.0
 10
-27.7662
 20
9.3495
 30
0.0
 10
-27.7662
 20
9.3495
 30
0.0
 10
-20.5267
 20
9.4261
 30
0.0
 10
-18.6373
 20
9.4321
 30
0.0
 10
-17.3997
 20
9.5483
 30
0.0
 10
-17.3997
 20
9.5483
 30
0.0
 10
-17.3997
 20
9.5483
 30
0.0
 10
-17.418
 20
12.0562
 30
0.0
 10
-17.418
 20
12.0562
 30
0.0
 10
-17.418
 20
12.0562
 30
0.0
 10
-20.4875
 20
12.0104
 30
0.0
 10
-22.0455
 20
11.9649
 30
0.0
 10
-27.7662
 20
11.8904
 30
0.0
 10
-27.7662
 20
11.8904
 30
0.0
 10
-39.7318
 20
11.7342
 30
0.0
 10
-46.3629
 20
13.2664
 30
0.0
 10
-56.437
 20
17.9739
 30
0.0
 10
-56.437
 20
17.9739
 30
0.0
 10
-59.8007
 20
19.5457
 30
0.0
 10
-62.1812
 20
20.4609
 30
0.0
 10
-63.7259
 20
20.7462
 30
0.0
 10
-63.7259
 20
20.7462
 30
0.0
 10
-67.349
 20
21.7578
 30
0.0
 10
-67.4874
 20
16.5689
 30
0.0
 10
-62.906
 20
18.0845
 30
0.0
 10
-62.906
 20
18.0845
 30
0.0
 10
-62.8866
 20
15.6066
 30
0.0
 10
-64.7271
 20
14.0784
 30
0.0
 10
-67.3561
 20
14.0722
 30
0.0
 10
-67.3561
 20
14.0722
 30
0.0
 10
-71.9804
 20
14.2236
 30
0.0
 10
-74.8522
 20
19.3226
 30
0.0
 10
-69.8564
 20
23.7987
 30
0.0
 10
-69.8564
 20
23.7987
 30
0.0
 10
-69.8564
 20
23.7987
 30
0.0
 10
-72.4258
 20
24.5121
 30
0.0
 10
-72.4258
 20
24.5121
 30
0.0
 10
-72.4258
 20
24.5121
 30
0.0
 10
-78.6372
 20
26.2373
 30
0.0
 10
-84.9741
 20
24.8182
 30
0.0
 10
-87.0732
 20
21.7066
 30
0.0
 10
-87.0732
 20
21.7066
 30
0.0
 10
-90.1456
 20
17.0514
 30
0.0
 10
-82.412
 20
15.461
 30
0.0
 10
-83.2851
 20
20.8427
 30
0.0
 10
-83.2851
 20
20.8427
 30
0.0
 10
-78.7089
 20
20.565
 30
0.0
 10
-78.7536
 20
13.1149
 30
0.0
 10
-84.0056
 20
12.5591
 30
0.0
 10
-84.0056
 20
12.5591
 30
0.0
 10
-84.0056
 20
12.5591
 30
0.0
 10
-84.0056
 20
8.6807
 30
0.0
 10
-84.0056
 20
8.6807
 30
0.0
  0
SPLINE
  5
44
330
1F
100
AcDbEntity
  8
layer 1
 62
     7
100
AcDbSpline
210
0.0
220
0.0
230
1.0
 70
    11
 71
     3
 72
    32
 73
    28
 74
     0
 42
0.0000000001
 43
0.0000000001
 12
1.0
 22
0.0
 32
0.0
 13
1.0
 23
0.0
 33
0.0
 40
0.0
 40
0.0
 40
0.0
 40
0.0
 40
0.125
 40
0.125
 40
0.125
 40
0.125
 40
0.25
 40
0.25
 40
0.25
 40
0.25
 40
0.375
 40
0.375
 40
0.375
 40
0.375
 40
0.5
 40
0.5
 40
0.5
 40
0.5
 40
0.625
 40
0.625
 40
0.625
 40
0.625
 40
0.75
 40
0.75
 40
0.75
 40
0.75
 40
1.0
 40
1.0
 40
1.0
 40
1.0
 10
-166.11
 20
16.935
 30
0.0
 10
-169.6691
 20
20.918
 30
0.0
 10
-165.6737
 20
25.6023
 30
0.0
 10
-161.0706
 20
23.4257
 30
0.0
 10
-161.0706
 20
23.4257
 30
0.0
 10
-163.9387
 20
22.3092
 30
0.0
 10
-162.3765
 20
16.9366
 30
0.0
 10
-157.6875
 20
17.3705
 30
0.0
 10
-157.6875
 20
17.3705
 30
0.0
 10
-151.5727
 20
17.6114
 30
0.0
 10
-148.3447
 20
19.048
 30
0.0
 10
-141.3451
 20
21.4301
 30
0.0
 10
-141.3451
 20
21.4301
 30
0.0
 10
-156.0134
 20
20.2087
 30
0.0
 10
-163.3852
 20
26.61
 30
0.0
 10
-162.575
 20
36.3056
 30
0.0
 10
-162.575
 20
36.3056
 30
0.0
 10
-167.5908
 20
31.7427
 30
0.0
 10
-172.018
 20
23.6182
 30
0.0
 10
-173.4821
 20
17.0998
 30
0.0
 10
-173.4821
 20
17.0998
 30
0.0
 10
-171.6042
 20
16.9408
 30
0.0
 10
-168.8685
 20
16.9463
 30
0.0
 10
-166.1102
 20
16.935
 30
0.0
 10
-166.1102
 20
16.935
 30
0.0
 10
-166.1102
 20
16.935
 30
0.0
 10
-166.11
 20
16.935
 30
0.0
 10
-166.11
 20
16.935
 30
0.0
  0
SPLINE
  5
45
330
1F
100
AcDbEntity
  8
layer 1
 62
     7
100
AcDbSpline
210
0.0
220
0.0
230
1.0
 70
    11
 71
     3
 72
    32
 73
    28
 74
     0
 42
0.0000000001
 43
0.0000000001
 12
1.0
 22
0.0
 32
0.0
 13
1.0
 23
0.0
 33
0.0
 40
0.0
 40
0.0
 40
0.0
 40
0.0
 40
0.125
 40
0.125
 40
0.125
 40
0.125
 40
0.25
 40
0.25
 40
0.25
 40
0.25
 40
0.375
 40
0.375
 40
0.375
 40
0.375
 40
0.5
 40
0.5
 40
0.5
 40
0.5
 40
0.625
 40
0.625
 40
0.625
 40
0.625
 40
0.75
 40
0.75
 40
0.75
 40
0.75
 40
1.0
 40
1.0
 40
1.0
 40
1.0
 10
-162.1246
 20
49.339
 30
0.0
 10
-158.3163
 20
57.4212
 30
0.0
 10
-158.5268
 20
69.8743
 30
0.0
 10
-165.8424
 20
72.9113
 30
0.0
 10
-165.8424
 20
72.9113
 30
0.0
 10
-173.5864
 20
76.3998
 30
0.0
 10
-178.6366
 20
67.7584
 30
0.0
 10
-173.9393
 20
64.2252
 30
0.0
 10
-173.9393
 20
64.2252
 30
0.0
 10
-170.0582
 20
61.5468
 30
0.0
 10
-167.8589
 20
66.6639
 30
0.0
 10
-170.6527
 20
68.7002
 30
0.0
 10
-170.6527
 20
68.7002
 30
0.0
 10
-165.1135
 20
69.8704
 30
0.0
 10
-162.3741
 20
63.7618
 30
0.0
 10
-165.3727
 20
59.7296
 30
0.0
 10
-165.3727
 20
59.7296
 30
0.0
 10
-170.7312
 20
53.3739
 30
0.0
 10
-179.5951
 20
55.2928
 30
0.0
 10
-181.9158
 20
62.9476
 30
0.0
 10
-181.9158
 20
62.9476
 30
0.0
 10
-181.9158
 20
62.9476
 30
0.0
 10
-181.8894
 20
17.9678
 30
0.0
 10
-181.8894
 20
17.9678
 30
0.0
 10
-181.8894
 20
17.9678
 30
0.0
 10
-179.0328
 20
32.0506
 30
0.0
 10
-172.9355
 20
40.6904
 30
0.0
 10
-162.1246
 20
49.339
 30
0.0
  0
SPLINE
  5
46
330
1F
100
AcDbEntity
  8
layer 1
 62
     7
100
AcDbSpline
210
0.0
220
0.0
230
1.0
 70
    11
 71
     3
 72
    76
 73
    72
 74
     0
 42
0.0000000001
 43
0.0000000001
 12
1.0
 22
0.0
 32
0.0
 13
1.0
 23
0.0
 33
0.0
 40
0.0
 40
0.0
 40
0.0
 40
0.0
 40
0.0526315789473684
 40
0.0526315789473684
 40
0.0526315789473684
 40
0.0526315789473684
 40
0.1052631578947368
 40
0.1052631578947368
 40
0.1052631578947368
 40
0.1052631578947368
 40
0.1578947368421053
 40
0.1578947368421053
 40
0.1578947368421053
 40
0.1578947368421053
 40
0.2105263157894737
 40
0.2105263157894737
 40
0.2105263157894737
 40
0.2105263157894737
 40
0.2631578947368421
 40
0.2631578947368421
 40
0.2631578947368421
 40
0.2631578947368421
 40
0.3157894736842105
 40
0.3157894736842105
 40
0.3157894736842105
 40
0.3157894736842105
 40
0.3684210526315789
 40
0.3684210526315789
 40
0.3684210526315789
 40
0.3684210526315789
 40
0.4210526315789473
 40
0.4210526315789473
 40
0.4210526315789473
 40
0.4210526315789473
 40
0.4736842105263158
 40
0.4736842105263158
 40
0.4736842105263158
 40
0.4736842105263158
 40
0.5263157894736842
 40
0.5263157894736842
 40
0.5263157894736842
 40
0.5263157894736842
 40
0.5789473684210527
 40
0.5789473684210527
 40
0.5789473684210527
 40
0.5789473684210527
 40
0.631578947368421
 40
0.631578947368421
 40
0.631578947368421
 40
0.631578947368421
 40
0.6842105263157895
 40
0.6842105263157895
 40
0.6842105263157895
 40
0.6842105263157895
 40
0.7368421052631579
 40
0.7368421052631579
 40
0.7368421052631579
 40
0.7368421052631579
 40
0.7894736842105263
 40
0.7894736842105263
 40
0.7894736842105263
 40
0.7894736842105263
 40
0.8421052631578947
 40
0.8421052631578947
 40
0.8421052631578947
 40
0.8421052631578947
 40
0.8947368421052632
 40
0.8947368421052632
 40
0.8947368421052632
 40
0.8947368421052632
 40
1.0
 40
1.0
 40
1.0
 40
1.0
 10
-100.9256
 20
26.4821
 30
0.0
 10
-95.5386
 20
28.7473
 30
0.0
 10
-96.556
 20
37.1831
 30
0.0
 10
-101.8292
 20
37.1525
 30
0.0
 10
-101.8292
 20
37.1525
 30
0.0
 10
-101.6615
 20
35.5299
 30
0.0
 10
-102.2563
 20
33.5466
 30
0.0
 10
-104.035
 20
32.7382
 30
0.0
 10
-104.035
 20
32.7382
 30
0.0
 10
-114.0134
 20
29.051
 30
0.0
 10
-123.2696
 20
45.4436
 30
0.0
 10
-107.6914
 20
55.0864
 30
0.0
 10
-107.6914
 20
55.0864
 30
0.0
 10
-104.2874
 20
56.8231
 30
0.0
 10
-99.5907
 20
56.9392
 30
0.0
 10
-98.1794
 20
55.6817
 30
0.0
 10
-98.1794
 20
55.6817
 30
0.0
 10
-95.5386
 20
52.6
 30
0.0
 10
-99.099
 20
48.9208
 30
0.0
 10
-102.9959
 20
52.2853
 30
0.0
 10
-102.9959
 20
52.2853
 30
0.0
 10
-104.3303
 20
49.4526
 30
0.0
 10
-100.7291
 20
46.6572
 30
0.0
 10
-98.5209
 20
46.2484
 30
0.0
 10
-98.5209
 20
46.2484
 30
0.0
 10
-98.477
 20
44.5808
 30
0.0
 10
-97.9197
 20
40.2936
 30
0.0
 10
-95.5386
 20
39.5796
 30
0.0
 10
-95.5386
 20
39.5796
 30
0.0
 10
-93.1578
 20
40.2939
 30
0.0
 10
-92.6002
 20
44.5811
 30
0.0
 10
-92.5562
 20
46.2484
 30
0.0
 10
-92.5562
 20
46.2484
 30
0.0
 10
-90.348
 20
46.6569
 30
0.0
 10
-86.7468
 20
49.4526
 30
0.0
 10
-88.0812
 20
52.2853
 30
0.0
 10
-88.0812
 20
52.2853
 30
0.0
 10
-91.9782
 20
48.9208
 30
0.0
 10
-95.5386
 20
52.6
 30
0.0
 10
-92.8978
 20
55.6817
 30
0.0
 10
-92.8978
 20
55.6817
 30
0.0
 10
-91.4865
 20
56.9392
 30
0.0
 10
-86.7897
 20
56.8231
 30
0.0
 10
-83.3858
 20
55.0864
 30
0.0
 10
-83.3858
 20
55.0864
 30
0.0
 10
-67.8078
 20
45.4436
 30
0.0
 10
-77.0638
 20
29.0507
 30
0.0
 10
-87.0421
 20
32.7382
 30
0.0
 10
-87.0421
 20
32.7382
 30
0.0
 10
-88.8209
 20
33.5466
 30
0.0
 10
-89.4156
 20
35.5299
 30
0.0
 10
-89.248
 20
37.1525
 30
0.0
 10
-89.248
 20
37.1525
 30
0.0
 10
-94.5212
 20
37.1828
 30
0.0
 10
-95.5386
 20
28.7473
 30
0.0
 10
-90.1516
 20
26.4821
 30
0.0
 10
-90.1516
 20
26.4821
 30
0.0
 10
-92.1948
 20
25.4103
 30
0.0
 10
-93.4347
 20
24.0594
 30
0.0
 10
-93.4763
 20
21.9166
 30
0.0
 10
-93.4763
 20
21.9166
 30
0.0
 10
-93.4763
 20
21.9166
 30
0.0
 10
-97.6756
 20
21.9289
 30
0.0
 10
-97.6756
 20
21.9289
 30
0.0
 10
-97.6756
 20
21.9289
 30
0.0
 10
-97.564
 20
23.4275
 30
0.0
 10
-98.8944
 20
25.998
 30
0.0
 10
-100.9253
 20
26.4821
 30
0.0
 10
-100.9253
 20
26.4821
 30
0.0
 10
-100.9253
 20
26.4821
 30
0.0
 10
-100.9256
 20
26.4821
 30
0.0
 10
-100.9256
 20
26.4821
 30
0.0
  0
SPLINE
  5
47
330
1F
100
AcDbEntity
  8
layer 1
 62
     7
100
AcDbSpline
210
0.0
220
0.0
230
1.0
 70
    11
 71
     3
 72
    20
 73
    16
 74
     0
 42
0.0000000001
 43
0.0000000001
 12
1.0
 22
0.0
 32
0.0
 13
1.0
 23
0.0
 33
0.0
 40
0.0
 40
0.0
 40
0.0
 40
0.0
 40
0.2
 40
0.2
 40
0.2
 40
0.2
 40
0.4
 40
0.4
 40
0.4
 40
0.4
 40
0.6
 40
0.6
 40
0.6
 40
0.6
 40
1.0
 40
1.0
 40
1.0
 40
1.0
 10
-114.9442
 20
30.7612
 30
0.0
 10
-117.7668
 20
32.825
 30
0.0
 10
-119.5081
 20
34.8888
 30
0.0
 10
-120.0584
 20
38.4542
 30
0.0
 10
-120.0584
 20
38.4542
 30
0.0
 10
-121.7788
 20
29.5861
 30
0.0
 10
-130.3899
 20
29.902
 30
0.0
 10
-132.6402
 20
31.4626
 30
0.0
 10
-132.6402
 20
31.4626
 30
0.0
 10
-132.777
 20
29.9389
 30
0.0
 10
-133.5169
 20
25.6862
 30
0.0
 10
-136.0792
 20
23.7602
 30
0.0
 10
-136.0792
 20
23.7602
 30
0.0
 10
-128.4968
 20
25.8782
 30
0.0
 10
-121.5746
 20
30.0971
 30
0.0
 10
-114.9442
 20
30.7612
 30
0.0
  0
SPLINE
  5
48
330
1F
100
AcDbEntity
  8
layer 1
 62
     7
100
AcDbSpline
210
0.0
220
0.0
230
1.0
 70
    11
 71
     3
 72
    40
 73
    36
 74
     0
 42
0.0000000001
 43
0.0000000001
 12
1.0
 22
0.0
 32
0.0
 13
1.0
 23
0.0
 33
0.0
 40
0.0
 40
0.0
 40
0.0
 40
0.0
 40
0.1
 40
0.1
 40
0.1
 40
0.1
 40
0.2
 40
0.2
 40
0.2
 40
0.2
 40
0.3
 40
0.3
 40
0.3
 40
0.3
 40
0.4
 40
0.4
 40
0.4
 40
0.4
 40
0.5
 40
0.5
 40
0.5
 40
0.5
 40
0.6
 40
0.6
 40
0.6
 40
0.6
 40
0.7
 40
0.7
 40
0.7
 40
0.7
 40
0.8
 40
0.8
 40
0.8
 40
0.8
 40
1.0
 40
1.0
 40
1.0
 40
1.0
 10
-142.4205
 20
35.3957
 30
0.0
 10
-141.8901
 20
27.5186
 30
0.0
 10
-152.5689
 20
30.9071
 30
0.0
 10
-149.7333
 20
37.911
 30
0.0
 10
-149.7333
 20
37.911
 30
0.0
 10
-146.7828
 20
44.1532
 30
0.0
 10
-139.5033
 20
43.7883
 30
0.0
 10
-134.8693
 20
39.0487
 30
0.0
 10
-134.8693
 20
39.0487
 30
0.0
 10
-135.2043
 20
42.8643
 30
0.0
 10
-130.8591
 20
45.4476
 30
0.0
 10
-128.3938
 20
41.9102
 30
0.0
 10
-128.3938
 20
41.9102
 30
0.0
 10
-131.8663
 20
39.7941
 30
0.0
 10
-129.7242
 20
35.7402
 30
0.0
 10
-126.8101
 20
38.7659
 30
0.0
 10
-126.8101
 20
38.7659
 30
0.0
 10
-122.4455
 20
47.8025
 30
0.0
 10
-118.2227
 20
52.646
 30
0.0
 10
-111.6875
 20
58.5406
 30
0.0
 10
-111.6875
 20
58.5406
 30
0.0
 10
-125.8291
 20
57.4863
 30
0.0
 10
-144.311
 20
52.3682
 30
0.0
 10
-155.7296
 20
42.8797
 30
0.0
 10
-155.7296
 20
42.8797
 30
0.0
 10
-157.0112
 20
36.2159
 30
0.0
 10
-155.1992
 20
30.0346
 30
0.0
 10
-150.0819
 20
27.2071
 30
0.0
 10
-150.0819
 20
27.2071
 30
0.0
 10
-140.9865
 20
22.5903
 30
0.0
 10
-134.9684
 20
33.3277
 30
0.0
 10
-142.4205
 20
35.396
 30
0.0
 10
-142.4205
 20
35.396
 30
0.0
 10
-142.4205
 20
35.396
 30
0.0
 10
-142.4205
 20
35.3957
 30
0.0
 10
-142.4205
 20
35.3957
 30
0.0
  0
SPLINE
  5
49
330
1F
100
AcDbEntity
  8
layer 1
 62
     7
100
AcDbSpline
210
0.0
220
0.0
230
1.0
 70
    11
 71
     3
 72
    36
 73
    32
 74
     0
 42
0.0000000001
 43
0.0000000001
 12
1.0
 22
0.0
 32
0.0
 13
1.0
 23
0.0
 33
0.0
 40
0.0
 40
0.0
 40
0.0
 40
0.0
 40
0.1111111111111111
 40
0.1111111111111111
 40
0.1111111111111111
 40
0.1111111111111111
 40
0.2222222222222222
 40
0.2222222222222222
 40
0.2222222222222222
 40
0.2222222222222222
 40
0.3333333333333333
 40
0.3333333333333333
 40
0.3333333333333333
 40
0.3333333333333333
 40
0.4444444444444444
 40
0.4444444444444444
 40
0.4444444444444444
 40
0.4444444444444444
 40
0.5555555555555556
 40
0.5555555555555556
 40
0.5555555555555556
 40
0.5555555555555556
 40
0.6666666666666666
 40
0.6666666666666666
 40
0.6666666666666666
 40
0.6666666666666666
 40
0.7777777777777778
 40
0.7777777777777778
 40
0.7777777777777778
 40
0.7777777777777778
 40
1.0
 40
1.0
 40
1.0
 40
1.0
 10
-132.1341
 20
63.1681
 30
0.0
 10
-135.7473
 20
63.4508
 30
0.0
 10
-137.1411
 20
66.5195
 30
0.0
 10
-136.3645
 20
68.1463
 30
0.0
 10
-136.3645
 20
68.1463
 30
0.0
 10
-134.3031
 20
67.018
 30
0.0
 10
-133.5995
 20
66.9748
 30
0.0
 10
-131.9392
 20
68.3001
 30
0.0
 10
-131.9392
 20
68.3001
 30
0.0
 10
-129.6693
 20
74.167
 30
0.0
 10
-139.9294
 20
74.1461
 30
0.0
 10
-142.7247
 20
70.8896
 30
0.0
 10
-142.7247
 20
70.8896
 30
0.0
 10
-137.2051
 20
67.7257
 30
0.0
 10
-140.9896
 20
62.2242
 30
0.0
 10
-145.3237
 20
61.501
 30
0.0
 10
-145.3237
 20
61.501
 30
0.0
 10
-144.2448
 20
64.7669
 30
0.0
 10
-146.2772
 20
66.4319
 30
0.0
 10
-148.8456
 20
64.6992
 30
0.0
 10
-148.8456
 20
64.6992
 30
0.0
 10
-151.3242
 20
63.4848
 30
0.0
 10
-153.982
 20
58.5132
 30
0.0
 10
-154.3573
 20
53.1162
 30
0.0
 10
-154.3573
 20
53.1162
 30
0.0
 10
-147.8855
 20
57.2347
 30
0.0
 10
-138.6732
 20
61.7218
 30
0.0
 10
-132.1338
 20
63.1681
 30
0.0
 10
-132.1338
 20
63.1681
 30
0.0
 10
-132.1338
 20
63.1681
 30
0.0
 10
-132.1341
 20
63.1681
 30
0.0
 10
-132.1341
 20
63.1681
 30
0.0
  0
SPLINE
  5
4A
330
1F
100
AcDbEntity
  8
layer 1
 62
     7
100
AcDbSpline
210
0.0
220
0.0
230
1.0
 70
    11
 71
     3
 72
    20
 73
    16
 74
     0
 42
0.0000000001
 43
0.0000000001
 12
1.0
 22
0.0
 32
0.0
 13
1.0
 23
0.0
 33
0.0
 40
0.0
 40
0.0
 40
0.0
 40
0.0
 40
0.2
 40
0.2
 40
0.2
 40
0.2
 40
0.4
 40
0.4
 40
0.4
 40
0.4
 40
0.6
 40
0.6
 40
0.6
 40
0.6
 40
1.0
 40
1.0
 40
1.0
 40
1.0
 10
-118.5742
 20
65.3718
 30
0.0
 10
-121.216
 20
65.9781
 30
0.0
 10
-122.7429
 20
66.9518
 30
0.0
 10
-124.6004
 20
68.9754
 30
0.0
 10
-124.6004
 20
68.9754
 30
0.0
 10
-124.5148
 20
67.3674
 30
0.0
 10
-124.9268
 20
66.0587
 30
0.0
 10
-125.5309
 20
64.355
 30
0.0
 10
-125.5309
 20
64.355
 30
0.0
 10
-123.7674
 20
64.7326
 30
0.0
 10
-122.0176
 20
65.0216
 30
0.0
 10
-118.5744
 20
65.3718
 30
0.0
 10
-118.5744
 20
65.3718
 30
0.0
 10
-118.5744
 20
65.3718
 30
0.0
 10
-118.5742
 20
65.3718
 30
0.0
 10
-118.5742
 20
65.3718
 30
0.0
  0
SPLINE
  5
4B
330
1F
100
AcDbEntity
  8
layer 1
 62
     7
100
AcDbSpline
210
0.0
220
0.0
230
1.0
 70
    11
 71
     3
 72
    16
 73
    12
 74
     0
 42
0.0000000001
 43
0.0000000001
 12
1.0
 22
0.0
 32
0.0
 13
1.0
 23
0.0
 33
0.0
 40
0.0
 40
0.0
 40
0.0
 40
0.0
 40
0.25
 40
0.25
 40
0.25
 40
0.25
 40
0.5
 40
0.5
 40
0.5
 40
0.5
 40
1.0
 40
1.0
 40
1.0
 40
1.0
 10
-140.6685
 20
78.0606
 30
0.0
 10
-140.6685
 20
78.0606
 30
0.0
 10
-164.0012
 20
78.0606
 30
0.0
 10
-164.0012
 20
78.0606
 30
0.0
 10
-164.0012
 20
78.0606
 30
0.0
 10
-159.4956
 20
75.8443
 30
0.0
 10
-156.6236
 20
72.4895
 30
0.0
 10
-155.1129
 20
67.51
 30
0.0
 10
-155.1129
 20
67.51
 30
0.0
 10
-151.5193
 20
73.7177
 30
0.0
 10
-148.2451
 20
76.495
 30
0.0
 10
-140.6685
 20
78.0606
 30
0.0
  0
SPLINE
  5
4C
330
1F
100
AcDbEntity
  8
layer 1
 62
     7
100
AcDbSpline
210
0.0
220
0.0
230
1.0
 70
    11
 71
     3
 72
    16
 73
    12
 74
     0
 42
0.0000000001
 43
0.0000000001
 12
1.0
 22
0.0
 32
0.0
 13
1.0
 23
0.0
 33
0.0
 40
0.0
 40
0.0
 40
0.0
 40
0.0
 40
0.25
 40
0.25
 40
0.25
 40
0.25
 40
0.5
 40
0.5
 40
0.5
 40
0.5
 40
1.0
 40
1.0
 40
1.0
 40
1.0
 10
-174.5204
 20
78.0606
 30
0.0
 10
-177.3927
 20
78.0606
 30
0.0
 10
-179.5462
 20
78.0606
 30
0.0
 10
-182.2814
 20
78.0606
 30
0.0
 10
-182.2814
 20
78.0606
 30
0.0
 10
-182.2814
 20
75.6926
 30
0.0
 10
-182.2814
 20
73.674
 30
0.0
 10
-182.2814
 20
70.9056
 30
0.0
 10
-182.2814
 20
70.9056
 30
0.0
 10
-181.1055
 20
74.9019
 30
0.0
 10
-178.6967
 20
76.9898
 30
0.0
 10
-174.5204
 20
78.0606
 30
0.0
  0
SPLINE
  5
4D
330
1F
100
AcDbEntity
  8
layer 1
 62
     7
100
AcDbSpline
210
0.0
220
0.0
230
1.0
 70
    11
 71
     3
 72
    32
 73
    28
 74
     0
 42
0.0000000001
 43
0.0000000001
 12
1.0
 22
0.0
 32
0.0
 13
1.0
 23
0.0
 33
0.0
 40
0.0
 40
0.0
 40
0.0
 40
0.0
 40
0.125
 40
0.125
 40
0.125
 40
0.125
 40
0.25
 40
0.25
 40
0.25
 40
0.25
 40
0.375
 40
0.375
 40
0.375
 40
0.375
 40
0.5
 40
0.5
 40
0.5
 40
0.5
 40
0.625
 40
0.625
 40
0.625
 40
0.625
 40
0.75
 40
0.75
 40
0.75
 40
0.75
 40
1.0
 40
1.0
 40
1.0
 40
1.0
 10
-24.9672
 20
16.935
 30
0.0
 10
-21.4081
 20
20.918
 30
0.0
 10
-25.4034
 20
25.6023
 30
0.0
 10
-30.0066
 20
23.4257
 30
0.0
 10
-30.0066
 20
23.4257
 30
0.0
 10
-27.1385
 20
22.3092
 30
0.0
 10
-28.7007
 20
16.9366
 30
0.0
 10
-33.3896
 20
17.3705
 30
0.0
 10
-33.3896
 20
17.3705
 30
0.0
 10
-39.5045
 20
17.6114
 30
0.0
 10
-42.7324
 20
19.048
 30
0.0
 10
-49.7321
 20
21.4301
 30
0.0
 10
-49.7321
 20
21.4301
 30
0.0
 10
-35.0637
 20
20.2087
 30
0.0
 10
-27.6919
 20
26.61
 30
0.0
 10
-28.5022
 20
36.3056
 30
0.0
 10
-28.5022
 20
36.3056
 30
0.0
 10
-23.4863
 20
31.7427
 30
0.0
 10
-19.0592
 20
23.6182
 30
0.0
 10
-17.5951
 20
17.0998
 30
0.0
 10
-17.5951
 20
17.0998
 30
0.0
 10
-19.473
 20
16.9408
 30
0.0
 10
-22.2087
 20
16.9463
 30
0.0
 10
-24.9669
 20
16.935
 30
0.0
 10
-24.9669
 20
16.935
 30
0.0
 10
-24.9669
 20
16.935
 30
0.0
 10
-24.9672
 20
16.935
 30
0.0
 10
-24.9672
 20
16.935
 30
0.0
  0
SPLINE
  5
4E
330
1F
100
AcDbEntity
  8
layer 1
 62
     7
100
AcDbSpline
210
0.0
220
0.0
230
1.0
 70
    11
 71
     3
 72
    32
 73
    28
 74
     0
 42
0.0000000001
 43
0.0000000001
 12
1.0
 22
0.0
 32
0.0
 13
1.0
 23
0.0
 33
0.0
 40
0.0
 40
0.0
 40
0.0
 40
0.0
 40
0.125
 40
0.125
 40
0.125
 40
0.125
 40
0.25
 40
0.25
 40
0.25
 40
0.25
 40
0.375
 40
0.375
 40
0.375
 40
0.375
 40
0.5
 40
0.5
 40
0.5
 40
0.5
 40
0.625
 40
0.625
 40
0.625
 40
0.625
 40
0.75
 40
0.75
 40
0.75
 40
0.75
 40
1.0
 40
1.0
 40
1.0
 40
1.0
 10
-28.9528
 20
49.339
 30
0.0
 10
-32.7611
 20
57.4212
 30
0.0
 10
-32.5506
 20
69.8743
 30
0.0
 10
-25.235
 20
72.9113
 30
0.0
 10
-25.235
 20
72.9113
 30
0.0
 10
-17.491
 20
76.3998
 30
0.0
 10
-12.4409
 20
67.7584
 30
0.0
 10
-17.1382
 20
64.2252
 30
0.0
 10
-17.1382
 20
64.2252
 30
0.0
 10
-21.0192
 20
61.5468
 30
0.0
 10
-23.2185
 20
66.6639
 30
0.0
 10
-20.4247
 20
68.7002
 30
0.0
 10
-20.4247
 20
68.7002
 30
0.0
 10
-25.9639
 20
69.8704
 30
0.0
 10
-28.7033
 20
63.7618
 30
0.0
 10
-25.7047
 20
59.7296
 30
0.0
 10
-25.7047
 20
59.7296
 30
0.0
 10
-20.3462
 20
53.3739
 30
0.0
 10
-11.4823
 20
55.2928
 30
0.0
 10
-9.1617
 20
62.9476
 30
0.0
 10
-9.1617
 20
62.9476
 30
0.0
 10
-9.1617
 20
62.9476
 30
0.0
 10
-9.1881
 20
17.9678
 30
0.0
 10
-9.1881
 20
17.9678
 30
0.0
 10
-9.1881
 20
17.9678
 30
0.0
 10
-12.5002
 20
34.2983
 30
0.0
 10
-22.295
 20
44.3499
 30
0.0
 10
-28.9528
 20
49.339
 30
0.0
  0
SPLINE
  5
4F
330
1F
100
AcDbEntity
  8
layer 1
 62
     7
100
AcDbSpline
210
0.0
220
0.0
230
1.0
 70
    11
 71
     3
 72
    20
 73
    16
 74
     0
 42
0.0000000001
 43
0.0000000001
 12
1.0
 22
0.0
 32
0.0
 13
1.0
 23
0.0
 33
0.0
 40
0.0
 40
0.0
 40
0.0
 40
0.0
 40
0.2
 40
0.2
 40
0.2
 40
0.2
 40
0.4
 40
0.4
 40
0.4
 40
0.4
 40
0.6
 40
0.6
 40
0.6
 40
0.6
 40
1.0
 40
1.0
 40
1.0
 40
1.0
 10
-76.1332
 20
30.7612
 30
0.0
 10
-73.3106
 20
32.825
 30
0.0
 10
-71.5693
 20
34.8888
 30
0.0
 10
-71.019
 20
38.4542
 30
0.0
 10
-71.019
 20
38.4542
 30
0.0
 10
-69.2986
 20
29.5861
 30
0.0
 10
-60.6876
 20
29.902
 30
0.0
 10
-58.4373
 20
31.4626
 30
0.0
 10
-58.4373
 20
31.4626
 30
0.0
 10
-58.3005
 20
29.9389
 30
0.0
 10
-57.5606
 20
25.6862
 30
0.0
 10
-54.9982
 20
23.7602
 30
0.0
 10
-54.9982
 20
23.7602
 30
0.0
 10
-62.5806
 20
25.8782
 30
0.0
 10
-69.5028
 20
30.0971
 30
0.0
 10
-76.1332
 20
30.7612
 30
0.0
  0
SPLINE
  5
50
330
1F
100
AcDbEntity
  8
layer 1
 62
     7
100
AcDbSpline
210
0.0
220
0.0
230
1.0
 70
    11
 71
     3
 72
    40
 73
    36
 74
     0
 42
0.0000000001
 43
0.0000000001
 12
1.0
 22
0.0
 32
0.0
 13
1.0
 23
0.0
 33
0.0
 40
0.0
 40
0.0
 40
0.0
 40
0.0
 40
0.1
 40
0.1
 40
0.1
 40
0.1
 40
0.2
 40
0.2
 40
0.2
 40
0.2
 40
0.3
 40
0.3
 40
0.3
 40
0.3
 40
0.4
 40
0.4
 40
0.4
 40
0.4
 40
0.5
 40
0.5
 40
0.5
 40
0.5
 40
0.6
 40
0.6
 40
0.6
 40
0.6
 40
0.7
 40
0.7
 40
0.7
 40
0.7
 40
0.8
 40
0.8
 40
0.8
 40
0.8
 40
1.0
 40
1.0
 40
1.0
 40
1.0
 10
-48.6569
 20
35.3957
 30
0.0
 10
-49.1873
 20
27.5186
 30
0.0
 10
-38.5085
 20
30.9071
 30
0.0
 10
-41.3442
 20
37.911
 30
0.0
 10
-41.3442
 20
37.911
 30
0.0
 10
-44.2946
 20
44.1532
 30
0.0
 10
-51.5741
 20
43.7883
 30
0.0
 10
-56.2081
 20
39.0487
 30
0.0
 10
-56.2081
 20
39.0487
 30
0.0
 10
-55.8731
 20
42.8643
 30
0.0
 10
-60.2184
 20
45.4476
 30
0.0
 10
-62.6836
 20
41.9102
 30
0.0
 10
-62.6836
 20
41.9102
 30
0.0
 10
-59.2112
 20
39.7941
 30
0.0
 10
-61.3532
 20
35.7402
 30
0.0
 10
-64.2673
 20
38.7659
 30
0.0
 10
-64.2673
 20
38.7659
 30
0.0
 10
-68.6319
 20
47.8025
 30
0.0
 10
-72.8548
 20
52.646
 30
0.0
 10
-79.3899
 20
58.5406
 30
0.0
 10
-79.3899
 20
58.5406
 30
0.0
 10
-65.2483
 20
57.4863
 30
0.0
 10
-46.7665
 20
52.3682
 30
0.0
 10
-35.3478
 20
42.8797
 30
0.0
 10
-35.3478
 20
42.8797
 30
0.0
 10
-34.0662
 20
36.2159
 30
0.0
 10
-35.8782
 20
30.0346
 30
0.0
 10
-40.9955
 20
27.2071
 30
0.0
 10
-40.9955
 20
27.2071
 30
0.0
 10
-50.0909
 20
22.5903
 30
0.0
 10
-56.109
 20
33.3277
 30
0.0
 10
-48.6569
 20
35.396
 30
0.0
 10
-48.6569
 20
35.396
 30
0.0
 10
-48.6569
 20
35.396
 30
0.0
 10
-48.6569
 20
35.3957
 30
0.0
 10
-48.6569
 20
35.3957
 30
0.0
  0
SPLINE
  5
51
330
1F
100
AcDbEntity
  8
layer 1
 62
     7
100
AcDbSpline
210
0.0
220
0.0
230
1.0
 70
    11
 71
     3
 72
    36
 73
    32
 74
     0
 42
0.0000000001
 43
0.0000000001
 12
1.0
 22
0.0
 32
0.0
 13
1.0
 23
0.0
 33
0.0
 40
0.0
 40
0.0
 40
0.0
 40
0.0
 40
0.1111111111111111
 40
0.1111111111111111
 40
0.1111111111111111
 40
0.1111111111111111
 40
0.2222222222222222
 40
0.2222222222222222
 40
0.2222222222222222
 40
0.2222222222222222
 40
0.3333333333333333
 40
0.3333333333333333
 40
0.3333333333333333
 40
0.3333333333333333
 40
0.4444444444444444
 40
0.4444444444444444
 40
0.4444444444444444
 40
0.4444444444444444
 40
0.5555555555555556
 40
0.5555555555555556
 40
0.5555555555555556
 40
0.5555555555555556
 40
0.6666666666666666
 40
0.6666666666666666
 40
0.6666666666666666
 40
0.6666666666666666
 40
0.7777777777777778
 40
0.7777777777777778
 40
0.7777777777777778
 40
0.7777777777777778
 40
1.0
 40
1.0
 40
1.0
 40
1.0
 10
-58.9431
 20
63.1681
 30
0.0
 10
-55.3299
 20
63.4508
 30
0.0
 10
-53.9361
 20
66.5195
 30
0.0
 10
-54.7126
 20
68.1463
 30
0.0
 10
-54.7126
 20
68.1463
 30
0.0
 10
-56.7741
 20
67.018
 30
0.0
 10
-57.4777
 20
66.9748
 30
0.0
 10
-59.1379
 20
68.3001
 30
0.0
 10
-59.1379
 20
68.3001
 30
0.0
 10
-61.4078
 20
74.167
 30
0.0
 10
-51.1478
 20
74.1461
 30
0.0
 10
-48.3524
 20
70.8896
 30
0.0
 10
-48.3524
 20
70.8896
 30
0.0
 10
-53.872
 20
67.7257
 30
0.0
 10
-50.0875
 20
62.2242
 30
0.0
 10
-45.7535
 20
61.501
 30
0.0
 10
-45.7535
 20
61.501
 30
0.0
 10
-46.8324
 20
64.7669
 30
0.0
 10
-44.7999
 20
66.4319
 30
0.0
 10
-42.2316
 20
64.6992
 30
0.0
 10
-42.2316
 20
64.6992
 30
0.0
 10
-39.7529
 20
63.4848
 30
0.0
 10
-37.0951
 20
58.5132
 30
0.0
 10
-36.7198
 20
53.1162
 30
0.0
 10
-36.7198
 20
53.1162
 30
0.0
 10
-43.1917
 20
57.2347
 30
0.0
 10
-52.404
 20
61.7218
 30
0.0
 10
-58.9433
 20
63.1681
 30
0.0
 10
-58.9433
 20
63.1681
 30
0.0
 10
-58.9433
 20
63.1681
 30
0.0
 10
-58.9431
 20
63.1681
 30
0.0
 10
-58.9431
 20
63.1681
 30
0.0
  0
SPLINE
  5
52
330
1F
100
AcDbEntity
  8
layer 1
 62
     7
100
AcDbSpline
210
0.0
220
0.0
230
1.0
 70
    11
 71
     3
 72
    20
 73
    16
 74
     0
 42
0.0000000001
 43
0.0000000001
 12
1.0
 22
0.0
 32
0.0
 13
1.0
 23
0.0
 33
0.0
 40
0.0
 40
0.0
 40
0.0
 40
0.0
 40
0.2
 40
0.2
 40
0.2
 40
0.2
 40
0.4
 40
0.4
 40
0.4
 40
0.4
 40
0.6
 40
0.6
 40
0.6
 40
0.6
 40
1.0
 40
1.0
 40
1.0
 40
1.0
 10
-72.5033
 20
65.3718
 30
0.0
 10
-69.8614
 20
65.9781
 30
0.0
 10
-68.3345
 20
66.9518
 30
0.0
 10
-66.4771
 20
68.9754
 30
0.0
 10
-66.4771
 20
68.9754
 30
0.0
 10
-66.5626
 20
67.3674
 30
0.0
 10
-66.1507
 20
66.0587
 30
0.0
 10
-65.5465
 20
64.355
 30
0.0
 10
-65.5465
 20
64.355
 30
0.0
 10
-67.3101
 20
64.7326
 30
0.0
 10
-69.0598
 20
65.0216
 30
0.0
 10
-72.503
 20
65.3718
 30
0.0
 10
-72.503
 20
65.3718
 30
0.0
 10
-72.503
 20
65.3718
 30
0.0
 10
-72.5033
 20
65.3718
 30
0.0
 10
-72.5033
 20
65.3718
 30
0.0
  0
SPLINE
  5
53
330
1F
100
AcDbEntity
  8
layer 1
 62
     7
100
AcDbSpline
210
0.0
220
0.0
230
1.0
 70
    11
 71
     3
 72
    64
 73
    60
 74
     0
 42
0.0000000001
 43
0.0000000001
 12
1.0
 22
0.0
 32
0.0
 13
1.0
 23
0.0
 33
0.0
 40
0.0
 40
0.0
 40
0.0
 40
0.0
 40
0.0625
 40
0.0625
 40
0.0625
 40
0.0625
 40
0.125
 40
0.125
 40
0.125
 40
0.125
 40
0.1875
 40
0.1875
 40
0.1875
 40
0.1875
 40
0.25
 40
0.25
 40
0.25
 40
0.25
 40
0.3125
 40
0.3125
 40
0.3125
 40
0.3125
 40
0.375
 40
0.375
 40
0.375
 40
0.375
 40
0.4375
 40
0.4375
 40
0.4375
 40
0.4375
 40
0.5
 40
0.5
 40
0.5
 40
0.5
 40
0.5625
 40
0.5625
 40
0.5625
 40
0.5625
 40
0.625
 40
0.625
 40
0.625
 40
0.625
 40
0.6875
 40
0.6875
 40
0.6875
 40
0.6875
 40
0.75
 40
0.75
 40
0.75
 40
0.75
 40
0.8125
 40
0.8125
 40
0.8125
 40
0.8125
 40
0.875
 40
0.875
 40
0.875
 40
0.875
 40
1.0
 40
1.0
 40
1.0
 40
1.0
 10
-60.7061
 20
77.809
 30
0.0
 10
-63.7411
 20
76.0689
 30
0.0
 10
-66.8552
 20
74.2028
 30
0.0
 10
-69.6645
 20
72.4068
 30
0.0
 10
-69.6645
 20
72.4068
 30
0.0
 10
-73.8923
 20
69.6978
 30
0.0
 10
-77.5712
 20
69.081
 30
0.0
 10
-79.1116
 20
71.4323
 30
0.0
 10
-79.1116
 20
71.4323
 30
0.0
 10
-79.6998
 20
72.3302
 30
0.0
 10
-78.9089
 20
75.6458
 30
0.0
 10
-78.6691
 20
76.2701
 30
0.0
 10
-78.6691
 20
76.2701
 30
0.0
 10
-81.6784
 20
75.7349
 30
0.0
 10
-83.0826
 20
71.8529
 30
0.0
 10
-83.113
 20
69.9305
 30
0.0
 10
-83.113
 20
69.9305
 30
0.0
 10
-85.5968
 20
70.384
 30
0.0
 10
-86.5706
 20
69.0797
 30
0.0
 10
-86.7855
 20
67.9339
 30
0.0
 10
-86.7855
 20
67.9339
 30
0.0
 10
-83.3813
 20
68.2441
 30
0.0
 10
-81.1927
 20
67.6185
 30
0.0
 10
-80.5153
 20
66.3474
 30
0.0
 10
-80.5153
 20
66.3474
 30
0.0
 10
-80.5182
 20
66.0621
 30
0.0
 10
-86.7128
 20
66.8995
 30
0.0
 10
-95.5383
 20
66.831
 30
0.0
 10
-95.5383
 20
66.831
 30
0.0
 10
-104.3638
 20
66.8995
 30
0.0
 10
-110.5587
 20
66.0618
 30
0.0
 10
-110.5613
 20
66.3474
 30
0.0
 10
-110.5613
 20
66.3474
 30
0.0
 10
-109.8839
 20
67.6188
 30
0.0
 10
-107.6953
 20
68.2441
 30
0.0
 10
-104.2911
 20
67.9339
 30
0.0
 10
-104.2911
 20
67.9339
 30
0.0
 10
-104.5061
 20
69.08
 30
0.0
 10
-105.4798
 20
70.384
 30
0.0
 10
-107.9637
 20
69.9305
 30
0.0
 10
-107.9637
 20
69.9305
 30
0.0
 10
-107.994
 20
71.8529
 30
0.0
 10
-109.3982
 20
75.7352
 30
0.0
 10
-112.4075
 20
76.2701
 30
0.0
 10
-112.4075
 20
76.2701
 30
0.0
 10
-112.168
 20
75.6455
 30
0.0
 10
-111.3768
 20
72.3299
 30
0.0
 10
-111.965
 20
71.4323
 30
0.0
 10
-111.965
 20
71.4323
 30
0.0
 10
-113.5055
 20
69.0813
 30
0.0
 10
-117.1843
 20
69.6978
 30
0.0
 10
-121.4122
 20
72.4068
 30
0.0
 10
-121.4122
 20
72.4068
 30
0.0
 10
-124.2214
 20
74.2028
 30
0.0
 10
-127.3356
 20
76.0689
 30
0.0
 10
-130.3705
 20
77.809
 30
0.0
 10
-130.3705
 20
77.809
 30
0.0
 10
-130.3705
 20
77.809
 30
0.0
 10
-60.7061
 20
77.809
 30
0.0
 10
-60.7061
 20
77.809
 30
0.0
  0
SPLINE
  5
54
330
1F
100
AcDbEntity
  8
layer 1
 62
     7
100
AcDbSpline
210
0.0
220
0.0
230
1.0
 70
    11
 71
     3
 72
    16
 73
    12
 74
     0
 42
0.0000000001
 43
0.0000000001
 12
1.0
 22
0.0
 32
0.0
 13
1.0
 23
0.0
 33
0.0
 40
0.0
 40
0.0
 40
0.0
 40
0.0
 40
0.25
 40
0.25
 40
0.25
 40
0.25
 40
0.5
 40
0.5
 40
0.5
 40
0.5
 40
1.0
 40
1.0
 40
1.0
 40
1.0
 10
-50.409
 20
78.0606
 30
0.0
 10
-50.409
 20
78.0606
 30
0.0
 10
-27.0762
 20
78.0606
 30
0.0
 10
-27.0762
 20
78.0606
 30
0.0
 10
-27.0762
 20
78.0606
 30
0.0
 10
-31.5818
 20
75.8443
 30
0.0
 10
-34.4538
 20
72.4895
 30
0.0
 10
-35.9645
 20
67.51
 30
0.0
 10
-35.9645
 20
67.51
 30
0.0
 10
-39.5581
 20
73.7177
 30
0.0
 10
-42.8323
 20
76.495
 30
0.0
 10
-50.409
 20
78.0606
 30
0.0
  0
SPLINE
  5
55
330
1F
100
AcDbEntity
  8
layer 1
 62
     7
100
AcDbSpline
210
0.0
220
0.0
230
1.0
 70
    11
 71
     3
 72
    16
 73
    12
 74
     0
 42
0.0000000001
 43
0.0000000001
 12
1.0
 22
0.0
 32
0.0
 13
1.0
 23
0.0
 33
0.0
 40
0.0
 40
0.0
 40
0.0
 40
0.0
 40
0.25
 40
0.25
 40
0.25
 40
0.25
 40
0.5
 40
0.5
 40
0.5
 40
0.5
 40
1.0
 40
1.0
 40
1.0
 40
1.0
 10
-16.557
 20
78.0606
 30
0.0
 10
-13.6848
 20
78.0606
 30
0.0
 10
-11.5312
 20
78.0606
 30
0.0
 10
-8.796
 20
78.0606
 30
0.0
 10
-8.796
 20
78.0606
 30
0.0
 10
-8.796
 20
75.6926
 30
0.0
 10
-8.796
 20
73.674
 30
0.0
 10
-8.796
 20
70.9056
 30
0.0
 10
-8.796
 20
70.9056
 30
0.0
 10
-9.9719
 20
74.9019
 30
0.0
 10
-12.3807
 20
76.9898
 30
0.0
 10
-16.557
 20
78.0606
 30
0.0
  0
SPLINE
  5
56
330
1F
100
AcDbEntity
  8
layer 1
 62
     7
100
AcDbSpline
210
0.0
220
0.0
230
1.0
 70
    11
 71
     3
 72
    40
 73
    36
 74
     0
 42
0.0000000001
 43
0.0000000001
 12
1.0
 22
0.0
 32
0.0
 13
1.0
 23
0.0
 33
0.0
 40
0.0
 40
0.0
 40
0.0
 40
0.0
 40
0.1
 40
0.1
 40
0.1
 40
0.1
 40
0.2
 40
0.2
 40
0.2
 40
0.2
 40
0.3
 40
0.3
 40
0.3
 40
0.3
 40
0.4
 40
0.4
 40
0.4
 40
0.4
 40
0.5
 40
0.5
 40
0.5
 40
0.5
 40
0.6
 40
0.6
 40
0.6
 40
0.6
 40
0.7
 40
0.7
 40
0.7
 40
0.7
 40
0.8
 40
0.8
 40
0.8
 40
0.8
 40
1.0
 40
1.0
 40
1.0
 40
1.0
 10
-90.1185
 20
11.1305
 30
0.0
 10
-90.1185
 20
11.1305
 30
0.0
 10
-90.1193
 20
12.6997
 30
0.0
 10
-90.1193
 20
12.6997
 30
0.0
 10
-90.1193
 20
12.6997
 30
0.0
 10
-91.7939
 20
13.0832
 30
0.0
 10
-93.8313
 20
14.8394
 30
0.0
 10
-93.6652
 20
16.7021
 30
0.0
 10
-93.6652
 20
16.7021
 30
0.0
 10
-93.6652
 20
16.7021
 30
0.0
 10
-97.4121
 20
16.7021
 30
0.0
 10
-97.4121
 20
16.7021
 30
0.0
 10
-97.4121
 20
16.7021
 30
0.0
 10
-97.246
 20
14.8391
 30
0.0
 10
-99.2834
 20
13.0829
 30
0.0
 10
-100.9581
 20
12.6997
 30
0.0
 10
-100.9581
 20
12.6997
 30
0.0
 10
-100.9581
 20
12.6997
 30
0.0
 10
-100.9581
 20
8.5404
 30
0.0
 10
-100.9581
 20
8.5404
 30
0.0
 10
-100.9581
 20
8.5404
 30
0.0
 10
-99.2834
 20
8.1573
 30
0.0
 10
-97.246
 20
6.401
 30
0.0
 10
-97.4121
 20
4.538
 30
0.0
 10
-97.4121
 20
4.538
 30
0.0
 10
-97.4121
 20
4.538
 30
0.0
 10
-93.6652
 20
4.538
 30
0.0
 10
-93.6652
 20
4.538
 30
0.0
 10
-93.6652
 20
4.538
 30
0.0
 10
-93.8313
 20
6.4007
 30
0.0
 10
-91.7939
 20
8.157
 30
0.0
 10
-90.1193
 20
8.5404
 30
0.0
 10
-90.1193
 20
8.5404
 30
0.0
 10
-90.1193
 20
8.5404
 30
0.0
 10
-90.1185
 20
11.1305
 30
0.0
 10
-90.1185
 20
11.1305
 30
0.0
  0
SPLINE
  5
57
330
1F
100
AcDbEntity
  8
layer 1
 62
     7
100
AcDbSpline
210
0.0
220
0.0
230
1.0
 70
    11
 71
     3
 72
    32
 73
    28
 74
     0
 42
0.0000000001
 43
0.0000000001
 12
1.0
 22
0.0
 32
0.0
 13
1.0
 23
0.0
 33
0.0
 40
0.0
 40
0.0
 40
0.0
 40
0.0
 40
0.125
 40
0.125
 40
0.125
 40
0.125
 40
0.25
 40
0.25
 40
0.25
 40
0.25
 40
0.375
 40
0.375
 40
0.375
 40
0.375
 40
0.5
 40
0.5
 40
0.5
 40
0.5
 40
0.625
 40
0.625
 40
0.625
 40
0.625
 40
0.75
 40
0.75
 40
0.75
 40
0.75
 40
1.0
 40
1.0
 40
1.0
 40
1.0
 10
-166.11
 20
4.3049
 30
0.0
 10
-169.6691
 20
0.3218
 30
0.0
 10
-165.6737
 20
-4.3624
 30
0.0
 10
-161.0706
 20
-2.1858
 30
0.0
 10
-161.0706
 20
-2.1858
 30
0.0
 10
-163.9387
 20
-1.0693
 30
0.0
 10
-162.3765
 20
4.3033
 30
0.0
 10
-157.6875
 20
3.8694
 30
0.0
 10
-157.6875
 20
3.8694
 30
0.0
 10
-151.5727
 20
3.6285
 30
0.0
 10
-148.3447
 20
2.1919
 30
0.0
 10
-141.3451
 20
-0.1903
 30
0.0
 10
-141.3451
 20
-0.1903
 30
0.0
 10
-156.0134
 20
1.0311
 30
0.0
 10
-163.3852
 20
-5.3701
 30
0.0
 10
-162.575
 20
-15.0657
 30
0.0
 10
-162.575
 20
-15.0657
 30
0.0
 10
-167.5908
 20
-10.5029
 30
0.0
 10
-172.018
 20
-2.3783
 30
0.0
 10
-173.4821
 20
4.1401
 30
0.0
 10
-173.4821
 20
4.1401
 30
0.0
 10
-171.6042
 20
4.2991
 30
0.0
 10
-168.8685
 20
4.2936
 30
0.0
 10
-166.1102
 20
4.3049
 30
0.0
 10
-166.1102
 20
4.3049
 30
0.0
 10
-166.1102
 20
4.3049
 30
0.0
 10
-166.11
 20
4.3049
 30
0.0
 10
-166.11
 20
4.3049
 30
0.0
  0
SPLINE
  5
58
330
1F
100
AcDbEntity
  8
layer 1
 62
     7
100
AcDbSpline
210
0.0
220
0.0
230
1.0
 70
    11
 71
     3
 72
    32
 73
    28
 74
     0
 42
0.0000000001
 43
0.0000000001
 12
1.0
 22
0.0
 32
0.0
 13
1.0
 23
0.0
 33
0.0
 40
0.0
 40
0.0
 40
0.0
 40
0.0
 40
0.125
 40
0.125
 40
0.125
 40
0.125
 40
0.25
 40
0.25
 40
0.25
 40
0.25
 40
0.375
 40
0.375
 40
0.375
 40
0.375
 40
0.5
 40
0.5
 40
0.5
 40
0.5
 40
0.625
 40
0.625
 40
0.625
 40
0.625
 40
0.75
 40
0.75
 40
0.75
 40
0.75
 40
1.0
 40
1.0
 40
1.0
 40
1.0
 10
-162.1246
 20
-28.0992
 30
0.0
 10
-158.3163
 20
-36.1813
 30
0.0
 10
-158.5268
 20
-48.6344
 30
0.0
 10
-165.8424
 20
-51.6714
 30
0.0
 10
-165.8424
 20
-51.6714
 30
0.0
 10
-173.5864
 20
-55.1599
 30
0.0
 10
-178.6366
 20
-46.5185
 30
0.0
 10
-173.9393
 20
-42.9854
 30
0.0
 10
-173.9393
 20
-42.9854
 30
0.0
 10
-170.0582
 20
-40.3069
 30
0.0
 10
-167.8589
 20
-45.424
 30
0.0
 10
-170.6527
 20
-47.4604
 30
0.0
 10
-170.6527
 20
-47.4604
 30
0.0
 10
-165.1135
 20
-48.6305
 30
0.0
 10
-162.3741
 20
-42.5219
 30
0.0
 10
-165.3727
 20
-38.4897
 30
0.0
 10
-165.3727
 20
-38.4897
 30
0.0
 10
-170.7312
 20
-32.134
 30
0.0
 10
-179.5951
 20
-34.0529
 30
0.0
 10
-181.9158
 20
-41.7077
 30
0.0
 10
-181.9158
 20
-41.7077
 30
0.0
 10
-181.9158
 20
-41.7077
 30
0.0
 10
-181.8894
 20
3.272
 30
0.0
 10
-181.8894
 20
3.272
 30
0.0
 10
-181.8894
 20
3.272
 30
0.0
 10
-179.106
 20
-10.4492
 30
0.0
 10
-172.8272
 20
-19.6754
 30
0.0
 10
-162.1246
 20
-28.0992
 30
0.0
  0
SPLINE
  5
59
330
1F
100
AcDbEntity
  8
layer 1
 62
     7
100
AcDbSpline
210
0.0
220
0.0
230
1.0
 70
    11
 71
     3
 72
    76
 73
    72
 74
     0
 42
0.0000000001
 43
0.0000000001
 12
1.0
 22
0.0
 32
0.0
 13
1.0
 23
0.0
 33
0.0
 40
0.0
 40
0.0
 40
0.0
 40
0.0
 40
0.0526315789473684
 40
0.0526315789473684
 40
0.0526315789473684
 40
0.0526315789473684
 40
0.1052631578947368
 40
0.1052631578947368
 40
0.1052631578947368
 40
0.1052631578947368
 40
0.1578947368421053
 40
0.1578947368421053
 40
0.1578947368421053
 40
0.1578947368421053
 40
0.2105263157894737
 40
0.2105263157894737
 40
0.2105263157894737
 40
0.2105263157894737
 40
0.2631578947368421
 40
0.2631578947368421
 40
0.2631578947368421
 40
0.2631578947368421
 40
0.3157894736842105
 40
0.3157894736842105
 40
0.3157894736842105
 40
0.3157894736842105
 40
0.3684210526315789
 40
0.3684210526315789
 40
0.3684210526315789
 40
0.3684210526315789
 40
0.4210526315789473
 40
0.4210526315789473
 40
0.4210526315789473
 40
0.4210526315789473
 40
0.4736842105263158
 40
0.4736842105263158
 40
0.4736842105263158
 40
0.4736842105263158
 40
0.5263157894736842
 40
0.5263157894736842
 40
0.5263157894736842
 40
0.5263157894736842
 40
0.5789473684210527
 40
0.5789473684210527
 40
0.5789473684210527
 40
0.5789473684210527
 40
0.631578947368421
 40
0.631578947368421
 40
0.631578947368421
 40
0.631578947368421
 40
0.6842105263157895
 40
0.6842105263157895
 40
0.6842105263157895
 40
0.6842105263157895
 40
0.7368421052631579
 40
0.7368421052631579
 40
0.7368421052631579
 40
0.7368421052631579
 40
0.7894736842105263
 40
0.7894736842105263
 40
0.7894736842105263
 40
0.7894736842105263
 40
0.8421052631578947
 40
0.8421052631578947
 40
0.8421052631578947
 40
0.8421052631578947
 40
0.8947368421052632
 40
0.8947368421052632
 40
0.8947368421052632
 40
0.8947368421052632
 40
1.0
 40
1.0
 40
1.0
 40
1.0
 10
-100.9256
 20
-5.2419
 30
0.0
 10
-95.5386
 20
-7.5072
 30
0.0
 10
-96.556
 20
-15.9429
 30
0.0
 10
-101.8292
 20
-15.9123
 30
0.0
 10
-101.8292
 20
-15.9123
 30
0.0
 10
-101.6615
 20
-14.2897
 30
0.0
 10
-102.2563
 20
-12.3065
 30
0.0
 10
-104.035
 20
-11.498
 30
0.0
 10
-104.035
 20
-11.498
 30
0.0
 10
-114.0134
 20
-7.8108
 30
0.0
 10
-123.2696
 20
-24.2035
 30
0.0
 10
-107.6914
 20
-33.8463
 30
0.0
 10
-107.6914
 20
-33.8463
 30
0.0
 10
-104.2874
 20
-35.5829
 30
0.0
 10
-99.5907
 20
-35.6991
 30
0.0
 10
-98.1794
 20
-34.4416
 30
0.0
 10
-98.1794
 20
-34.4416
 30
0.0
 10
-95.5386
 20
-31.3598
 30
0.0
 10
-99.099
 20
-27.6807
 30
0.0
 10
-102.9959
 20
-31.0452
 30
0.0
 10
-102.9959
 20
-31.0452
 30
0.0
 10
-104.3303
 20
-28.2124
 30
0.0
 10
-100.7291
 20
-25.417
 30
0.0
 10
-98.5209
 20
-25.0083
 30
0.0
 10
-98.5209
 20
-25.0083
 30
0.0
 10
-98.477
 20
-23.3407
 30
0.0
 10
-97.9197
 20
-19.0535
 30
0.0
 10
-95.5386
 20
-18.3395
 30
0.0
 10
-95.5386
 20
-18.3395
 30
0.0
 10
-93.1578
 20
-19.0537
 30
0.0
 10
-92.6002
 20
-23.3409
 30
0.0
 10
-92.5562
 20
-25.0083
 30
0.0
 10
-92.5562
 20
-25.0083
 30
0.0
 10
-90.348
 20
-25.4168
 30
0.0
 10
-86.7468
 20
-28.2124
 30
0.0
 10
-88.0812
 20
-31.0452
 30
0.0
 10
-88.0812
 20
-31.0452
 30
0.0
 10
-91.9782
 20
-27.6807
 30
0.0
 10
-95.5386
 20
-31.3598
 30
0.0
 10
-92.8978
 20
-34.4416
 30
0.0
 10
-92.8978
 20
-34.4416
 30
0.0
 10
-91.4865
 20
-35.6991
 30
0.0
 10
-86.7897
 20
-35.5829
 30
0.0
 10
-83.3858
 20
-33.8463
 30
0.0
 10
-83.3858
 20
-33.8463
 30
0.0
 10
-67.8078
 20
-24.2035
 30
0.0
 10
-77.0638
 20
-7.8105
 30
0.0
 10
-87.0421
 20
-11.498
 30
0.0
 10
-87.0421
 20
-11.498
 30
0.0
 10
-88.8209
 20
-12.3065
 30
0.0
 10
-89.4156
 20
-14.2897
 30
0.0
 10
-89.248
 20
-15.9123
 30
0.0
 10
-89.248
 20
-15.9123
 30
0.0
 10
-94.5212
 20
-15.9427
 30
0.0
 10
-95.5386
 20
-7.5072
 30
0.0
 10
-90.1516
 20
-5.2419
 30
0.0
 10
-90.1516
 20
-5.2419
 30
0.0
 10
-92.1948
 20
-4.1701
 30
0.0
 10
-93.4347
 20
-2.8193
 30
0.0
 10
-93.4763
 20
-0.6765
 30
0.0
 10
-93.4763
 20
-0.6765
 30
0.0
 10
-93.4763
 20
-0.6765
 30
0.0
 10
-97.6756
 20
-0.6888
 30
0.0
 10
-97.6756
 20
-0.6888
 30
0.0
 10
-97.6756
 20
-0.6888
 30
0.0
 10
-97.564
 20
-2.1871
 30
0.0
 10
-98.8944
 20
-4.7578
 30
0.0
 10
-100.9253
 20
-5.2419
 30
0.0
 10
-100.9253
 20
-5.2419
 30
0.0
 10
-100.9253
 20
-5.2419
 30
0.0
 10
-100.9256
 20
-5.2419
 30
0.0
 10
-100.9256
 20
-5.2419
 30
0.0
  0
SPLINE
  5
5A
330
1F
100
AcDbEntity
  8
layer 1
 62
     7
100
AcDbSpline
210
0.0
220
0.0
230
1.0
 70
    11
 71
     3
 72
    20
 73
    16
 74
     0
 42
0.0000000001
 43
0.0000000001
 12
1.0
 22
0.0
 32
0.0
 13
1.0
 23
0.0
 33
0.0
 40
0.0
 40
0.0
 40
0.0
 40
0.0
 40
0.2
 40
0.2
 40
0.2
 40
0.2
 40
0.4
 40
0.4
 40
0.4
 40
0.4
 40
0.6
 40
0.6
 40
0.6
 40
0.6
 40
1.0
 40
1.0
 40
1.0
 40
1.0
 10
-114.9442
 20
-9.5213
 30
0.0
 10
-117.7668
 20
-11.5851
 30
0.0
 10
-119.5081
 20
-13.649
 30
0.0
 10
-120.0584
 20
-17.2143
 30
0.0
 10
-120.0584
 20
-17.2143
 30
0.0
 10
-121.7788
 20
-8.3462
 30
0.0
 10
-130.3899
 20
-8.6621
 30
0.0
 10
-132.6402
 20
-10.2228
 30
0.0
 10
-132.6402
 20
-10.2228
 30
0.0
 10
-132.777
 20
-8.699
 30
0.0
 10
-133.5169
 20
-4.4463
 30
0.0
 10
-136.0792
 20
-2.5203
 30
0.0
 10
-136.0792
 20
-2.5203
 30
0.0
 10
-128.4968
 20
-4.6383
 30
0.0
 10
-121.5746
 20
-8.8572
 30
0.0
 10
-114.9442
 20
-9.5213
 30
0.0
  0
SPLINE
  5
5B
330
1F
100
AcDbEntity
  8
layer 1
 62
     7
100
AcDbSpline
210
0.0
220
0.0
230
1.0
 70
    11
 71
     3
 72
    40
 73
    36
 74
     0
 42
0.0000000001
 43
0.0000000001
 12
1.0
 22
0.0
 32
0.0
 13
1.0
 23
0.0
 33
0.0
 40
0.0
 40
0.0
 40
0.0
 40
0.0
 40
0.1
 40
0.1
 40
0.1
 40
0.1
 40
0.2
 40
0.2
 40
0.2
 40
0.2
 40
0.3
 40
0.3
 40
0.3
 40
0.3
 40
0.4
 40
0.4
 40
0.4
 40
0.4
 40
0.5
 40
0.5
 40
0.5
 40
0.5
 40
0.6
 40
0.6
 40
0.6
 40
0.6
 40
0.7
 40
0.7
 40
0.7
 40
0.7
 40
0.8
 40
0.8
 40
0.8
 40
0.8
 40
1.0
 40
1.0
 40
1.0
 40
1.0
 10
-142.4205
 20
-14.1558
 30
0.0
 10
-141.8901
 20
-6.2787
 30
0.0
 10
-152.5689
 20
-9.6672
 30
0.0
 10
-149.7333
 20
-16.6711
 30
0.0
 10
-149.7333
 20
-16.6711
 30
0.0
 10
-146.7828
 20
-22.9133
 30
0.0
 10
-139.5033
 20
-22.5485
 30
0.0
 10
-134.8693
 20
-17.8088
 30
0.0
 10
-134.8693
 20
-17.8088
 30
0.0
 10
-135.2043
 20
-21.6244
 30
0.0
 10
-130.8591
 20
-24.2077
 30
0.0
 10
-128.3938
 20
-20.6703
 30
0.0
 10
-128.3938
 20
-20.6703
 30
0.0
 10
-131.8663
 20
-18.5542
 30
0.0
 10
-129.7242
 20
-14.5003
 30
0.0
 10
-126.8101
 20
-17.5261
 30
0.0
 10
-126.8101
 20
-17.5261
 30
0.0
 10
-122.4455
 20
-26.5626
 30
0.0
 10
-118.2227
 20
-31.4061
 30
0.0
 10
-111.6875
 20
-37.3007
 30
0.0
 10
-111.6875
 20
-37.3007
 30
0.0
 10
-125.8291
 20
-36.2465
 30
0.0
 10
-144.311
 20
-31.1283
 30
0.0
 10
-155.7296
 20
-21.6399
 30
0.0
 10
-155.7296
 20
-21.6399
 30
0.0
 10
-157.0112
 20
-14.976
 30
0.0
 10
-155.1992
 20
-8.7947
 30
0.0
 10
-150.0819
 20
-5.9672
 30
0.0
 10
-150.0819
 20
-5.9672
 30
0.0
 10
-140.9865
 20
-1.3505
 30
0.0
 10
-134.9684
 20
-12.0878
 30
0.0
 10
-142.4205
 20
-14.1561
 30
0.0
 10
-142.4205
 20
-14.1561
 30
0.0
 10
-142.4205
 20
-14.1561
 30
0.0
 10
-142.4205
 20
-14.1558
 30
0.0
 10
-142.4205
 20
-14.1558
 30
0.0
  0
SPLINE
  5
5C
330
1F
100
AcDbEntity
  8
layer 1
 62
     7
100
AcDbSpline
210
0.0
220
0.0
230
1.0
 70
    11
 71
     3
 72
    36
 73
    32
 74
     0
 42
0.0000000001
 43
0.0000000001
 12
1.0
 22
0.0
 32
0.0
 13
1.0
 23
0.0
 33
0.0
 40
0.0
 40
0.0
 40
0.0
 40
0.0
 40
0.1111111111111111
 40
0.1111111111111111
 40
0.1111111111111111
 40
0.1111111111111111
 40
0.2222222222222222
 40
0.2222222222222222
 40
0.2222222222222222
 40
0.2222222222222222
 40
0.3333333333333333
 40
0.3333333333333333
 40
0.3333333333333333
 40
0.3333333333333333
 40
0.4444444444444444
 40
0.4444444444444444
 40
0.4444444444444444
 40
0.4444444444444444
 40
0.5555555555555556
 40
0.5555555555555556
 40
0.5555555555555556
 40
0.5555555555555556
 40
0.6666666666666666
 40
0.6666666666666666
 40
0.6666666666666666
 40
0.6666666666666666
 40
0.7777777777777778
 40
0.7777777777777778
 40
0.7777777777777778
 40
0.7777777777777778
 40
1.0
 40
1.0
 40
1.0
 40
1.0
 10
-132.1341
 20
-41.9282
 30
0.0
 10
-135.7473
 20
-42.2109
 30
0.0
 10
-137.1411
 20
-45.2796
 30
0.0
 10
-136.3645
 20
-46.9064
 30
0.0
 10
-136.3645
 20
-46.9064
 30
0.0
 10
-134.3031
 20
-45.7781
 30
0.0
 10
-133.5995
 20
-45.735
 30
0.0
 10
-131.9392
 20
-47.0602
 30
0.0
 10
-131.9392
 20
-47.0602
 30
0.0
 10
-129.6693
 20
-52.9271
 30
0.0
 10
-139.9294
 20
-52.9062
 30
0.0
 10
-142.7247
 20
-49.6497
 30
0.0
 10
-142.7247
 20
-49.6497
 30
0.0
 10
-137.2051
 20
-46.4858
 30
0.0
 10
-140.9896
 20
-40.9843
 30
0.0
 10
-145.3237
 20
-40.2611
 30
0.0
 10
-145.3237
 20
-40.2611
 30
0.0
 10
-144.2448
 20
-43.527
 30
0.0
 10
-146.2772
 20
-45.192
 30
0.0
 10
-148.8456
 20
-43.4593
 30
0.0
 10
-148.8456
 20
-43.4593
 30
0.0
 10
-151.3242
 20
-42.2449
 30
0.0
 10
-153.982
 20
-37.2733
 30
0.0
 10
-154.3573
 20
-31.8764
 30
0.0
 10
-154.3573
 20
-31.8764
 30
0.0
 10
-147.8855
 20
-35.9949
 30
0.0
 10
-138.6732
 20
-40.4819
 30
0.0
 10
-132.1338
 20
-41.9282
 30
0.0
 10
-132.1338
 20
-41.9282
 30
0.0
 10
-132.1338
 20
-41.9282
 30
0.0
 10
-132.1341
 20
-41.9282
 30
0.0
 10
-132.1341
 20
-41.9282
 30
0.0
  0
SPLINE
  5
5D
330
1F
100
AcDbEntity
  8
layer 1
 62
     7
100
AcDbSpline
210
0.0
220
0.0
230
1.0
 70
    11
 71
     3
 72
    20
 73
    16
 74
     0
 42
0.0000000001
 43
0.0000000001
 12
1.0
 22
0.0
 32
0.0
 13
1.0
 23
0.0
 33
0.0
 40
0.0
 40
0.0
 40
0.0
 40
0.0
 40
0.2
 40
0.2
 40
0.2
 40
0.2
 40
0.4
 40
0.4
 40
0.4
 40
0.4
 40
0.6
 40
0.6
 40
0.6
 40
0.6
 40
1.0
 40
1.0
 40
1.0
 40
1.0
 10
-118.5742
 20
-44.132
 30
0.0
 10
-121.216
 20
-44.7382
 30
0.0
 10
-122.7429
 20
-45.7119
 30
0.0
 10
-124.6004
 20
-47.7355
 30
0.0
 10
-124.6004
 20
-47.7355
 30
0.0
 10
-124.5148
 20
-46.1275
 30
0.0
 10
-124.9268
 20
-44.8188
 30
0.0
 10
-125.5309
 20
-43.1153
 30
0.0
 10
-125.5309
 20
-43.1153
 30
0.0
 10
-123.7674
 20
-43.493
 30
0.0
 10
-122.0176
 20
-43.782
 30
0.0
 10
-118.5744
 20
-44.1322
 30
0.0
 10
-118.5744
 20
-44.1322
 30
0.0
 10
-118.5744
 20
-44.1322
 30
0.0
 10
-118.5742
 20
-44.132
 30
0.0
 10
-118.5742
 20
-44.132
 30
0.0
  0
SPLINE
  5
5E
330
1F
100
AcDbEntity
  8
layer 1
 62
     7
100
AcDbSpline
210
0.0
220
0.0
230
1.0
 70
    11
 71
     3
 72
    32
 73
    28
 74
     0
 42
0.0000000001
 43
0.0000000001
 12
1.0
 22
0.0
 32
0.0
 13
1.0
 23
0.0
 33
0.0
 40
0.0
 40
0.0
 40
0.0
 40
0.0
 40
0.125
 40
0.125
 40
0.125
 40
0.125
 40
0.25
 40
0.25
 40
0.25
 40
0.25
 40
0.375
 40
0.375
 40
0.375
 40
0.375
 40
0.5
 40
0.5
 40
0.5
 40
0.5
 40
0.625
 40
0.625
 40
0.625
 40
0.625
 40
0.75
 40
0.75
 40
0.75
 40
0.75
 40
1.0
 40
1.0
 40
1.0
 40
1.0
 10
-24.9672
 20
4.3049
 30
0.0
 10
-21.4081
 20
0.3218
 30
0.0
 10
-25.4034
 20
-4.3624
 30
0.0
 10
-30.0066
 20
-2.1858
 30
0.0
 10
-30.0066
 20
-2.1858
 30
0.0
 10
-27.1385
 20
-1.0693
 30
0.0
 10
-28.7007
 20
4.3033
 30
0.0
 10
-33.3896
 20
3.8694
 30
0.0
 10
-33.3896
 20
3.8694
 30
0.0
 10
-39.5045
 20
3.6285
 30
0.0
 10
-42.7324
 20
2.1919
 30
0.0
 10
-49.7321
 20
-0.1903
 30
0.0
 10
-49.7321
 20
-0.1903
 30
0.0
 10
-35.0637
 20
1.0311
 30
0.0
 10
-27.6919
 20
-5.3701
 30
0.0
 10
-28.5022
 20
-15.0657
 30
0.0
 10
-28.5022
 20
-15.0657
 30
0.0
 10
-23.4863
 20
-10.5029
 30
0.0
 10
-19.0592
 20
-2.3783
 30
0.0
 10
-17.5951
 20
4.1401
 30
0.0
 10
-17.5951
 20
4.1401
 30
0.0
 10
-19.473
 20
4.2991
 30
0.0
 10
-22.2087
 20
4.2936
 30
0.0
 10
-24.9669
 20
4.3049
 30
0.0
 10
-24.9669
 20
4.3049
 30
0.0
 10
-24.9669
 20
4.3049
 30
0.0
 10
-24.9672
 20
4.3049
 30
0.0
 10
-24.9672
 20
4.3049
 30
0.0
  0
SPLINE
  5
5F
330
1F
100
AcDbEntity
  8
layer 1
 62
     7
100
AcDbSpline
210
0.0
220
0.0
230
1.0
 70
    11
 71
     3
 72
    32
 73
    28
 74
     0
 42
0.0000000001
 43
0.0000000001
 12
1.0
 22
0.0
 32
0.0
 13
1.0
 23
0.0
 33
0.0
 40
0.0
 40
0.0
 40
0.0
 40
0.0
 40
0.125
 40
0.125
 40
0.125
 40
0.125
 40
0.25
 40
0.25
 40
0.25
 40
0.25
 40
0.375
 40
0.375
 40
0.375
 40
0.375
 40
0.5
 40
0.5
 40
0.5
 40
0.5
 40
0.625
 40
0.625
 40
0.625
 40
0.625
 40
0.75
 40
0.75
 40
0.75
 40
0.75
 40
1.0
 40
1.0
 40
1.0
 40
1.0
 10
-28.9528
 20
-28.0992
 30
0.0
 10
-32.7611
 20
-36.1813
 30
0.0
 10
-32.5506
 20
-48.6344
 30
0.0
 10
-25.235
 20
-51.6714
 30
0.0
 10
-25.235
 20
-51.6714
 30
0.0
 10
-17.491
 20
-55.1599
 30
0.0
 10
-12.4409
 20
-46.5185
 30
0.0
 10
-17.1382
 20
-42.9854
 30
0.0
 10
-17.1382
 20
-42.9854
 30
0.0
 10
-21.0192
 20
-40.3069
 30
0.0
 10
-23.2185
 20
-45.424
 30
0.0
 10
-20.4247
 20
-47.4604
 30
0.0
 10
-20.4247
 20
-47.4604
 30
0.0
 10
-25.9639
 20
-48.6305
 30
0.0
 10
-28.7033
 20
-42.5219
 30
0.0
 10
-25.7047
 20
-38.4897
 30
0.0
 10
-25.7047
 20
-38.4897
 30
0.0
 10
-20.3462
 20
-32.134
 30
0.0
 10
-11.4823
 20
-34.0529
 30
0.0
 10
-9.1617
 20
-41.7077
 30
0.0
 10
-9.1617
 20
-41.7077
 30
0.0
 10
-9.1617
 20
-41.7077
 30
0.0
 10
-9.1881
 20
3.272
 30
0.0
 10
-9.1881
 20
3.272
 30
0.0
 10
-9.1881
 20
3.272
 30
0.0
 10
-11.9894
 20
-10.5376
 30
0.0
 10
-18.2212
 20
-19.6202
 30
0.0
 10
-28.9528
 20
-28.0992
 30
0.0
  0
SPLINE
  5
60
330
1F
100
AcDbEntity
  8
layer 1
 62
     7
100
AcDbSpline
210
0.0
220
0.0
230
1.0
 70
    11
 71
     3
 72
    20
 73
    16
 74
     0
 42
0.0000000001
 43
0.0000000001
 12
1.0
 22
0.0
 32
0.0
 13
1.0
 23
0.0
 33
0.0
 40
0.0
 40
0.0
 40
0.0
 40
0.0
 40
0.2
 40
0.2
 40
0.2
 40
0.2
 40
0.4
 40
0.4
 40
0.4
 40
0.4
 40
0.6
 40
0.6
 40
0.6
 40
0.6
 40
1.0
 40
1.0
 40
1.0
 40
1.0
 10
-76.1332
 20
-9.5213
 30
0.0
 10
-73.3106
 20
-11.5851
 30
0.0
 10
-71.5693
 20
-13.649
 30
0.0
 10
-71.019
 20
-17.2143
 30
0.0
 10
-71.019
 20
-17.2143
 30
0.0
 10
-69.2986
 20
-8.3462
 30
0.0
 10
-60.6876
 20
-8.6621
 30
0.0
 10
-58.4373
 20
-10.2228
 30
0.0
 10
-58.4373
 20
-10.2228
 30
0.0
 10
-58.3005
 20
-8.699
 30
0.0
 10
-57.5606
 20
-4.4463
 30
0.0
 10
-54.9982
 20
-2.5203
 30
0.0
 10
-54.9982
 20
-2.5203
 30
0.0
 10
-62.5806
 20
-4.6383
 30
0.0
 10
-69.5028
 20
-8.8572
 30
0.0
 10
-76.1332
 20
-9.5213
 30
0.0
  0
SPLINE
  5
61
330
1F
100
AcDbEntity
  8
layer 1
 62
     7
100
AcDbSpline
210
0.0
220
0.0
230
1.0
 70
    11
 71
     3
 72
    40
 73
    36
 74
     0
 42
0.0000000001
 43
0.0000000001
 12
1.0
 22
0.0
 32
0.0
 13
1.0
 23
0.0
 33
0.0
 40
0.0
 40
0.0
 40
0.0
 40
0.0
 40
0.1
 40
0.1
 40
0.1
 40
0.1
 40
0.2
 40
0.2
 40
0.2
 40
0.2
 40
0.3
 40
0.3
 40
0.3
 40
0.3
 40
0.4
 40
0.4
 40
0.4
 40
0.4
 40
0.5
 40
0.5
 40
0.5
 40
0.5
 40
0.6
 40
0.6
 40
0.6
 40
0.6
 40
0.7
 40
0.7
 40
0.7
 40
0.7
 40
0.8
 40
0.8
 40
0.8
 40
0.8
 40
1.0
 40
1.0
 40
1.0
 40
1.0
 10
-48.6569
 20
-14.1558
 30
0.0
 10
-49.1873
 20
-6.2787
 30
0.0
 10
-38.5085
 20
-9.6672
 30
0.0
 10
-41.3442
 20
-16.6711
 30
0.0
 10
-41.3442
 20
-16.6711
 30
0.0
 10
-44.2946
 20
-22.9133
 30
0.0
 10
-51.5741
 20
-22.5485
 30
0.0
 10
-56.2081
 20
-17.8088
 30
0.0
 10
-56.2081
 20
-17.8088
 30
0.0
 10
-55.8731
 20
-21.6244
 30
0.0
 10
-60.2184
 20
-24.2077
 30
0.0
 10
-62.6836
 20
-20.6703
 30
0.0
 10
-62.6836
 20
-20.6703
 30
0.0
 10
-59.2112
 20
-18.5542
 30
0.0
 10
-61.3532
 20
-14.5003
 30
0.0
 10
-64.2673
 20
-17.5261
 30
0.0
 10
-64.2673
 20
-17.5261
 30
0.0
 10
-68.6319
 20
-26.5626
 30
0.0
 10
-72.8548
 20
-31.4061
 30
0.0
 10
-79.3899
 20
-37.3007
 30
0.0
 10
-79.3899
 20
-37.3007
 30
0.0
 10
-65.2483
 20
-36.2465
 30
0.0
 10
-46.7665
 20
-31.1283
 30
0.0
 10
-35.3478
 20
-21.6399
 30
0.0
 10
-35.3478
 20
-21.6399
 30
0.0
 10
-34.0662
 20
-14.976
 30
0.0
 10
-35.8782
 20
-8.7947
 30
0.0
 10
-40.9955
 20
-5.9672
 30
0.0
 10
-40.9955
 20
-5.9672
 30
0.0
 10
-50.0909
 20
-1.3505
 30
0.0
 10
-56.109
 20
-12.0878
 30
0.0
 10
-48.6569
 20
-14.1561
 30
0.0
 10
-48.6569
 20
-14.1561
 30
0.0
 10
-48.6569
 20
-14.1561
 30
0.0
 10
-48.6569
 20
-14.1558
 30
0.0
 10
-48.6569
 20
-14.1558
 30
0.0
  0
SPLINE
  5
62
330
1F
100
AcDbEntity
  8
layer 1
 62
     7
100
AcDbSpline
210
0.0
220
0.0
230
1.0
 70
    11
 71
     3
 72
    36
 73
    32
 74
     0
 42
0.0000000001
 43
0.0000000001
 12
1.0
 22
0.0
 32
0.0
 13
1.0
 23
0.0
 33
0.0
 40
0.0
 40
0.0
 40
0.0
 40
0.0
 40
0.1111111111111111
 40
0.1111111111111111
 40
0.1111111111111111
 40
0.1111111111111111
 40
0.2222222222222222
 40
0.2222222222222222
 40
0.2222222222222222
 40
0.2222222222222222
 40
0.3333333333333333
 40
0.3333333333333333
 40
0.3333333333333333
 40
0.3333333333333333
 40
0.4444444444444444
 40
0.4444444444444444
 40
0.4444444444444444
 40
0.4444444444444444
 40
0.5555555555555556
 40
0.5555555555555556
 40
0.5555555555555556
 40
0.5555555555555556
 40
0.6666666666666666
 40
0.6666666666666666
 40
0.6666666666666666
 40
0.6666666666666666
 40
0.7777777777777778
 40
0.7777777777777778
 40
0.7777777777777778
 40
0.7777777777777778
 40
1.0
 40
1.0
 40
1.0
 40
1.0
 10
-58.9431
 20
-41.9282
 30
0.0
 10
-55.3299
 20
-42.2109
 30
0.0
 10
-53.9361
 20
-45.2796
 30
0.0
 10
-54.7126
 20
-46.9064
 30
0.0
 10
-54.7126
 20
-46.9064
 30
0.0
 10
-56.7741
 20
-45.7781
 30
0.0
 10
-57.4777
 20
-45.735
 30
0.0
 10
-59.1379
 20
-47.0602
 30
0.0
 10
-59.1379
 20
-47.0602
 30
0.0
 10
-61.4078
 20
-52.9271
 30
0.0
 10
-51.1478
 20
-52.9062
 30
0.0
 10
-48.3524
 20
-49.6497
 30
0.0
 10
-48.3524
 20
-49.6497
 30
0.0
 10
-53.872
 20
-46.4858
 30
0.0
 10
-50.0875
 20
-40.9843
 30
0.0
 10
-45.7535
 20
-40.2611
 30
0.0
 10
-45.7535
 20
-40.2611
 30
0.0
 10
-46.8324
 20
-43.527
 30
0.0
 10
-44.7999
 20
-45.192
 30
0.0
 10
-42.2316
 20
-43.4593
 30
0.0
 10
-42.2316
 20
-43.4593
 30
0.0
 10
-39.7529
 20
-42.2449
 30
0.0
 10
-37.0951
 20
-37.2733
 30
0.0
 10
-36.7198
 20
-31.8764
 30
0.0
 10
-36.7198
 20
-31.8764
 30
0.0
 10
-43.1917
 20
-35.9949
 30
0.0
 10
-52.404
 20
-40.4819
 30
0.0
 10
-58.9433
 20
-41.9282
 30
0.0
 10
-58.9433
 20
-41.9282
 30
0.0
 10
-58.9433
 20
-41.9282
 30
0.0
 10
-58.9431
 20
-41.9282
 30
0.0
 10
-58.9431
 20
-41.9282
 30
0.0
  0
SPLINE
  5
63
330
1F
100
AcDbEntity
  8
layer 1
 62
     7
100
AcDbSpline
210
0.0
220
0.0
230
1.0
 70
    11
 71
     3
 72
    20
 73
    16
 74
     0
 42
0.0000000001
 43
0.0000000001
 12
1.0
 22
0.0
 32
0.0
 13
1.0
 23
0.0
 33
0.0
 40
0.0
 40
0.0
 40
0.0
 40
0.0
 40
0.2
 40
0.2
 40
0.2
 40
0.2
 40
0.4
 40
0.4
 40
0.4
 40
0.4
 40
0.6
 40
0.6
 40
0.6
 40
0.6
 40
1.0
 40
1.0
 40
1.0
 40
1.0
 10
-72.5033
 20
-44.132
 30
0.0
 10
-69.8614
 20
-44.7382
 30
0.0
 10
-68.3345
 20
-45.7119
 30
0.0
 10
-66.4771
 20
-47.7355
 30
0.0
 10
-66.4771
 20
-47.7355
 30
0.0
 10
-66.5626
 20
-46.1275
 30
0.0
 10
-66.1507
 20
-44.8188
 30
0.0
 10
-65.5465
 20
-43.1153
 30
0.0
 10
-65.5465
 20
-43.1153
 30
0.0
 10
-67.3101
 20
-43.493
 30
0.0
 10
-69.0598
 20
-43.782
 30
0.0
 10
-72.503
 20
-44.1322
 30
0.0
 10
-72.503
 20
-44.1322
 30
0.0
 10
-72.503
 20
-44.1322
 30
0.0
 10
-72.5033
 20
-44.132
 30
0.0
 10
-72.5033
 20
-44.132
 30
0.0
  0
SPLINE
  5
64
330
1F
100
AcDbEntity
  8
layer 1
 62
   250
370
    25
100
AcDbSpline
210
0.0
220
0.0
230
1.0
 70
    11
 71
     3
 72
    44
 73
    40
 74
     0
 42
0.0000000001
 43
0.0000000001
 12
1.0
 22
0.0
 32
0.0
 13
1.0
 23
0.0
 33
0.0
 40
0.0
 40
0.0
 40
0.0
 40
0.0
 40
0.0909090909090909
 40
0.0909090909090909
 40
0.0909090909090909
 40
0.0909090909090909
 40
0.1818181818181818
 40
0.1818181818181818
 40
0.1818181818181818
 40
0.1818181818181818
 40
0.2727272727272727
 40
0.2727272727272727
 40
0.2727272727272727
 40
0.2727272727272727
 40
0.3636363636363636
 40
0.3636363636363636
 40
0.3636363636363636
 40
0.3636363636363636
 40
0.4545454545454545
 40
0.4545454545454545
 40
0.4545454545454545
 40
0.4545454545454545
 40
0.5454545454545454
 40
0.5454545454545454
 40
0.5454545454545454
 40
0.5454545454545454
 40
0.6363636363636364
 40
0.6363636363636364
 40
0.6363636363636364
 40
0.6363636363636364
 40
0.7272727272727273
 40
0.7272727272727273
 40
0.7272727272727273
 40
0.7272727272727273
 40
0.8181818181818182
 40
0.8181818181818182
 40
0.8181818181818182
 40
0.8181818181818182
 40
1.0
 40
1.0
 40
1.0
 40
1.0
 10
6.4632
 20
83.2975
 30
0.0
 10
6.4632
 20
83.2975
 30
0.0
 10
196.0531
 20
83.2975
 30
0.0
 10
196.0531
 20
83.2975
 30
0.0
 10
196.0531
 20
83.2975
 30
0.0
 10
196.0531
 20
83.2975
 30
0.0
 10
196.1875
 20
-60.982
 30
0.0
 10
196.1875
 20
-60.982
 30
0.0
 10
196.1875
 20
-60.982
 30
0.0
 10
192.5758
 20
-59.1165
 30
0.0
 10
190.4814
 20
-57.6616
 30
0.0
 10
187.8011
 20
-55.8681
 30
0.0
 10
187.8011
 20
-55.8681
 30
0.0
 10
187.8011
 20
-55.8681
 30
0.0
 10
188.0571
 20
-41.2822
 30
0.0
 10
188.0571
 20
-41.2822
 30
0.0
 10
188.0571
 20
-41.2822
 30
0.0
 10
180.9428
 20
-60.9707
 30
0.0
 10
154.729
 20
-59.9989
 30
0.0
 10
143.135
 20
-43.0698
 30
0.0
 10
143.135
 20
-43.0698
 30
0.0
 10
116.9765
 20
-62.991
 30
0.0
 10
79.7058
 20
-60.0649
 30
0.0
 10
58.6894
 20
-43.0956
 30
0.0
 10
58.6894
 20
-43.0956
 30
0.0
 10
46.8696
 20
-58.2655
 30
0.0
 10
22.5275
 20
-63.6357
 30
0.0
 10
13.8936
 20
-41.451
 30
0.0
 10
13.8936
 20
-41.451
 30
0.0
 10
13.8936
 20
-41.451
 30
0.0
 10
13.8936
 20
-55.8678
 30
0.0
 10
13.8936
 20
-55.8678
 30
0.0
 10
13.8936
 20
-55.8678
 30
0.0
 10
13.8936
 20
-55.8678
 30
0.0
 10
6.486
 20
-60.8317
 30
0.0
 10
6.486
 20
-60.8317
 30
0.0
 10
6.486
 20
-60.8317
 30
0.0
 10
6.486
 20
-60.8317
 30
0.0
 10
6.4632
 20
83.2975
 30
0.0
 10
6.4632
 20
83.2975
 30
0.0
  0
SPLINE
  5
65
330
1F
100
AcDbEntity
  8
layer 1
 62
     7
370
    25
100
AcDbSpline
210
0.0
220
0.0
230
1.0
 70
    11
 71
     3
 72
    68
 73
    64
 74
     0
 42
0.0000000001
 43
0.0000000001
 12
1.0
 22
0.0
 32
0.0
 13
1.0
 23
0.0
 33
0.0
 40
0.0
 40
0.0
 40
0.0
 40
0.0
 40
0.0588235294117647
 40
0.0588235294117647
 40
0.0588235294117647
 40
0.0588235294117647
 40
0.1176470588235294
 40
0.1176470588235294
 40
0.1176470588235294
 40
0.1176470588235294
 40
0.1764705882352941
 40
0.1764705882352941
 40
0.1764705882352941
 40
0.1764705882352941
 40
0.2352941176470588
 40
0.2352941176470588
 40
0.2352941176470588
 40
0.2352941176470588
 40
0.2941176470588235
 40
0.2941176470588235
 40
0.2941176470588235
 40
0.2941176470588235
 40
0.3529411764705883
 40
0.3529411764705883
 40
0.3529411764705883
 40
0.3529411764705883
 40
0.4117647058823529
 40
0.4117647058823529
 40
0.4117647058823529
 40
0.4117647058823529
 40
0.4705882352941176
 40
0.4705882352941176
 40
0.4705882352941176
 40
0.4705882352941176
 40
0.5294117647058824
 40
0.5294117647058824
 40
0.5294117647058824
 40
0.5294117647058824
 40
0.5882352941176471
 40
0.5882352941176471
 40
0.5882352941176471
 40
0.5882352941176471
 40
0.6470588235294118
 40
0.6470588235294118
 40
0.6470588235294118
 40
0.6470588235294118
 40
0.7058823529411765
 40
0.7058823529411765
 40
0.7058823529411765
 40
0.7058823529411765
 40
0.7647058823529411
 40
0.7647058823529411
 40
0.7647058823529411
 40
0.7647058823529411
 40
0.8235294117647058
 40
0.8235294117647058
 40
0.8235294117647058
 40
0.8235294117647058
 40
0.8823529411764706
 40
0.8823529411764706
 40
0.8823529411764706
 40
0.8823529411764706
 40
1.0
 40
1.0
 40
1.0
 40
1.0
 10
65.22
 20
24.0061
 30
0.0
 10
65.22
 20
24.0061
 30
0.0
 10
58.8509
 20
24.2567
 30
0.0
 10
58.8509
 20
24.2567
 30
0.0
 10
58.8509
 20
24.2567
 30
0.0
 10
47.5483
 20
25.1236
 30
0.0
 10
39.3511
 20
20.2212
 30
0.0
 10
43.4387
 20
13.4506
 30
0.0
 10
43.4387
 20
13.4506
 30
0.0
 10
46.2921
 20
9.823
 30
0.0
 10
51.9789
 20
11.9754
 30
0.0
 10
49.3725
 20
15.6964
 30
0.0
 10
49.3725
 20
15.6964
 30
0.0
 10
48.4232
 20
17.0517
 30
0.0
 10
48.4554
 20
17.2626
 30
0.0
 10
49.7147
 20
17.9365
 30
0.0
 10
49.7147
 20
17.9365
 30
0.0
 10
50.4793
 20
18.3458
 30
0.0
 10
52.4459
 20
18.6804
 30
0.0
 10
54.0854
 20
18.6804
 30
0.0
 10
54.0854
 20
18.6804
 30
0.0
 10
58.5198
 20
18.7126
 30
0.0
 10
59.0957
 20
15.2842
 30
0.0
 10
62.6653
 20
13.7099
 30
0.0
 10
62.6653
 20
13.7099
 30
0.0
 10
65.0888
 20
12.8095
 30
0.0
 10
71.9889
 20
11.722
 30
0.0
 10
71.7146
 20
9.1319
 30
0.0
 10
71.7146
 20
9.1319
 30
0.0
 10
71.9889
 20
6.5419
 30
0.0
 10
65.089
 20
5.4541
 30
0.0
 10
62.6653
 20
4.554
 30
0.0
 10
62.6653
 20
4.554
 30
0.0
 10
59.0957
 20
2.9797
 30
0.0
 10
58.5195
 20
-0.4488
 30
0.0
 10
54.0854
 20
-0.4166
 30
0.0
 10
54.0854
 20
-0.4166
 30
0.0
 10
52.4462
 20
-0.4166
 30
0.0
 10
50.4793
 20
-0.0819
 30
0.0
 10
49.7147
 20
0.3274
 30
0.0
 10
49.7147
 20
0.3274
 30
0.0
 10
48.4554
 20
1.0013
 30
0.0
 10
48.4232
 20
1.2122
 30
0.0
 10
49.3725
 20
2.5675
 30
0.0
 10
49.3725
 20
2.5675
 30
0.0
 10
51.9789
 20
6.2885
 30
0.0
 10
46.2921
 20
8.4409
 30
0.0
 10
43.4387
 20
4.8133
 30
0.0
 10
43.4387
 20
4.8133
 30
0.0
 10
39.3514
 20
-1.9573
 30
0.0
 10
47.5483
 20
-6.8597
 30
0.0
 10
58.8509
 20
-5.9928
 30
0.0
 10
58.8509
 20
-5.9928
 30
0.0
 10
58.8509
 20
-5.9928
 30
0.0
 10
65.22
 20
-5.7422
 30
0.0
 10
65.22
 20
-5.7422
 30
0.0
 10
65.22
 20
-5.7422
 30
0.0
 10
70.6471
 20
1.7755
 30
0.0
 10
77.3162
 20
7.5832
 30
0.0
 10
86.0587
 20
9.1319
 30
0.0
 10
86.0587
 20
9.1319
 30
0.0
 10
77.15
 20
10.6807
 30
0.0
 10
70.6471
 20
17.9824
 30
0.0
 10
65.22
 20
24.0061
 30
0.0
  0
SPLINE
  5
66
330
1F
100
AcDbEntity
  8
layer 1
 62
     7
370
    25
100
AcDbSpline
210
0.0
220
0.0
230
1.0
 70
    11
 71
     3
 72
    28
 73
    24
 74
     0
 42
0.0000000001
 43
0.0000000001
 12
1.0
 22
0.0
 32
0.0
 13
1.0
 23
0.0
 33
0.0
 40
0.0
 40
0.0
 40
0.0
 40
0.0
 40
0.1428571428571428
 40
0.1428571428571428
 40
0.1428571428571428
 40
0.1428571428571428
 40
0.2857142857142857
 40
0.2857142857142857
 40
0.2857142857142857
 40
0.2857142857142857
 40
0.4285714285714285
 40
0.4285714285714285
 40
0.4285714285714285
 40
0.4285714285714285
 40
0.5714285714285714
 40
0.5714285714285714
 40
0.5714285714285714
 40
0.5714285714285714
 40
0.7142857142857143
 40
0.7142857142857143
 40
0.7142857142857143
 40
0.7142857142857143
 40
1.0
 40
1.0
 40
1.0
 40
1.0
 10
25.6111
 20
20.4268
 30
0.0
 10
26.8776
 20
21.953
 30
0.0
 10
26.8033
 20
25.0299
 30
0.0
 10
22.3219
 20
31.1848
 30
0.0
 10
22.3219
 20
31.1848
 30
0.0
 10
19.2507
 20
35.6777
 30
0.0
 10
16.0876
 20
40.805
 30
0.0
 10
13.8931
 20
46.4545
 30
0.0
 10
13.8931
 20
46.4545
 30
0.0
 10
14.3107
 20
38.3488
 30
0.0
 10
13.9022
 20
30.2407
 30
0.0
 10
13.8931
 20
22.1282
 30
0.0
 10
13.8931
 20
22.1282
 30
0.0
 10
15.3249
 20
24.4569
 30
0.0
 10
17.9847
 20
25.5178
 30
0.0
 10
20.1264
 20
25.3828
 30
0.0
 10
20.1264
 20
25.3828
 30
0.0
 10
21.3955
 20
25.1338
 30
0.0
 10
22.0646
 20
24.8823
 30
0.0
 10
21.6668
 20
23.2978
 30
0.0
 10
21.6668
 20
23.2978
 30
0.0
 10
20.417
 20
20.1951
 30
0.0
 10
23.9115
 20
18.5302
 30
0.0
 10
25.6111
 20
20.4268
 30
0.0
  0
SPLINE
  5
67
330
1F
100
AcDbEntity
  8
layer 1
 62
     7
370
    25
100
AcDbSpline
210
0.0
220
0.0
230
1.0
 70
    11
 71
     3
 72
    16
 73
    12
 74
     0
 42
0.0000000001
 43
0.0000000001
 12
1.0
 22
0.0
 32
0.0
 13
1.0
 23
0.0
 33
0.0
 40
0.0
 40
0.0
 40
0.0
 40
0.0
 40
0.25
 40
0.25
 40
0.25
 40
0.25
 40
0.5
 40
0.5
 40
0.5
 40
0.5
 40
1.0
 40
1.0
 40
1.0
 40
1.0
 10
40.0424
 20
40.338
 30
0.0
 10
36.7879
 20
37.7334
 30
0.0
 10
32.8554
 20
36.7769
 30
0.0
 10
28.545
 20
37.7965
 30
0.0
 10
28.545
 20
37.7965
 30
0.0
 10
30.8927
 20
33.6192
 30
0.0
 10
32.4971
 20
31.6054
 30
0.0
 10
34.15
 20
25.4285
 30
0.0
 10
34.15
 20
25.4285
 30
0.0
 10
34.9031
 20
30.8939
 30
0.0
 10
37.6289
 20
37.0021
 30
0.0
 10
40.0424
 20
40.338
 30
0.0
  0
SPLINE
  5
68
330
1F
100
AcDbEntity
  8
layer 1
 62
     7
370
    25
100
AcDbSpline
210
0.0
220
0.0
230
1.0
 70
    11
 71
     3
 72
    20
 73
    16
 74
     0
 42
0.0000000001
 43
0.0000000001
 12
1.0
 22
0.0
 32
0.0
 13
1.0
 23
0.0
 33
0.0
 40
0.0
 40
0.0
 40
0.0
 40
0.0
 40
0.2
 40
0.2
 40
0.2
 40
0.2
 40
0.4
 40
0.4
 40
0.4
 40
0.4
 40
0.6
 40
0.6
 40
0.6
 40
0.6
 40
1.0
 40
1.0
 40
1.0
 40
1.0
 10
60.4003
 20
32.2755
 30
0.0
 10
57.1046
 20
36.8282
 30
0.0
 10
55.7963
 20
40.3071
 30
0.0
 10
53.755
 20
46.5603
 30
0.0
 10
53.755
 20
46.5603
 30
0.0
 10
49.5888
 20
41.7792
 30
0.0
 10
46.6517
 20
37.1231
 30
0.0
 10
43.6837
 20
30.4726
 30
0.0
 10
43.6837
 20
30.4726
 30
0.0
 10
49.9836
 20
33.0449
 30
0.0
 10
53.861
 20
33.4316
 30
0.0
 10
60.4
 20
32.2755
 30
0.0
 10
60.4
 20
32.2755
 30
0.0
 10
60.4
 20
32.2755
 30
0.0
 10
60.4003
 20
32.2755
 30
0.0
 10
60.4003
 20
32.2755
 30
0.0
  0
SPLINE
  5
69
330
1F
100
AcDbEntity
  8
layer 1
 62
     7
370
    25
100
AcDbSpline
210
0.0
220
0.0
230
1.0
 70
    11
 71
     3
 72
   136
 73
   132
 74
     0
 42
0.0000000001
 43
0.0000000001
 12
1.0
 22
0.0
 32
0.0
 13
1.0
 23
0.0
 33
0.0
 40
0.0
 40
0.0
 40
0.0
 40
0.0
 40
0.0294117647058824
 40
0.0294117647058824
 40
0.0294117647058824
 40
0.0294117647058824
 40
0.0588235294117647
 40
0.0588235294117647
 40
0.0588235294117647
 40
0.0588235294117647
 40
0.0882352941176471
 40
0.0882352941176471
 40
0.0882352941176471
 40
0.0882352941176471
 40
0.1176470588235294
 40
0.1176470588235294
 40
0.1176470588235294
 40
0.1176470588235294
 40
0.1470588235294118
 40
0.1470588235294118
 40
0.1470588235294118
 40
0.1470588235294118
 40
0.1764705882352941
 40
0.1764705882352941
 40
0.1764705882352941
 40
0.1764705882352941
 40
0.2058823529411765
 40
0.2058823529411765
 40
0.2058823529411765
 40
0.2058823529411765
 40
0.2352941176470588
 40
0.2352941176470588
 40
0.2352941176470588
 40
0.2352941176470588
 40
0.2647058823529412
 40
0.2647058823529412
 40
0.2647058823529412
 40
0.2647058823529412
 40
0.2941176470588235
 40
0.2941176470588235
 40
0.2941176470588235
 40
0.2941176470588235
 40
0.3235294117647059
 40
0.3235294117647059
 40
0.3235294117647059
 40
0.3235294117647059
 40
0.3529411764705883
 40
0.3529411764705883
 40
0.3529411764705883
 40
0.3529411764705883
 40
0.3823529411764706
 40
0.3823529411764706
 40
0.3823529411764706
 40
0.3823529411764706
 40
0.4117647058823529
 40
0.4117647058823529
 40
0.4117647058823529
 40
0.4117647058823529
 40
0.4411764705882353
 40
0.4411764705882353
 40
0.4411764705882353
 40
0.4411764705882353
 40
0.4705882352941176
 40
0.4705882352941176
 40
0.4705882352941176
 40
0.4705882352941176
 40
0.5
 40
0.5
 40
0.5
 40
0.5
 40
0.5294117647058824
 40
0.5294117647058824
 40
0.5294117647058824
 40
0.5294117647058824
 40
0.5588235294117647
 40
0.5588235294117647
 40
0.5588235294117647
 40
0.5588235294117647
 40
0.5882352941176471
 40
0.5882352941176471
 40
0.5882352941176471
 40
0.5882352941176471
 40
0.6176470588235294
 40
0.6176470588235294
 40
0.6176470588235294
 40
0.6176470588235294
 40
0.6470588235294118
 40
0.6470588235294118
 40
0.6470588235294118
 40
0.6470588235294118
 40
0.6764705882352942
 40
0.6764705882352942
 40
0.6764705882352942
 40
0.6764705882352942
 40
0.7058823529411765
 40
0.7058823529411765
 40
0.7058823529411765
 40
0.7058823529411765
 40
0.7352941176470589
 40
0.7352941176470589
 40
0.7352941176470589
 40
0.7352941176470589
 40
0.7647058823529411
 40
0.7647058823529411
 40
0.7647058823529411
 40
0.7647058823529411
 40
0.7941176470588235
 40
0.7941176470588235
 40
0.7941176470588235
 40
0.7941176470588235
 40
0.8235294117647058
 40
0.8235294117647058
 40
0.8235294117647058
 40
0.8235294117647058
 40
0.8529411764705882
 40
0.8529411764705882
 40
0.8529411764705882
 40
0.8529411764705882
 40
0.8823529411764706
 40
0.8823529411764706
 40
0.8823529411764706
 40
0.8823529411764706
 40
0.9117647058823529
 40
0.9117647058823529
 40
0.9117647058823529
 40
0.9117647058823529
 40
0.9411764705882353
 40
0.9411764705882353
 40
0.9411764705882353
 40
0.9411764705882353
 40
1.0
 40
1.0
 40
1.0
 40
1.0
 10
95.8796
 20
54.7443
 30
0.0
 10
92.5464
 20
56.8291
 30
0.0
 10
88.4671
 20
56.832
 30
0.0
 10
84.584
 20
53.585
 30
0.0
 10
84.584
 20
53.585
 30
0.0
 10
81.4027
 20
50.7574
 30
0.0
 10
80.9014
 20
44.7487
 30
0.0
 10
84.033
 20
40.5876
 30
0.0
 10
84.033
 20
40.5876
 30
0.0
 10
85.1237
 20
42.784
 30
0.0
 10
87.3987
 20
45.359
 30
0.0
 10
89.5543
 20
42.8001
 30
0.0
 10
89.5543
 20
42.8001
 30
0.0
 10
91.4638
 20
39.232
 30
0.0
 10
88.0396
 20
34.4603
 30
0.0
 10
81.9287
 20
32.174
 30
0.0
 10
81.9287
 20
32.174
 30
0.0
 10
81.9287
 20
32.174
 30
0.0
 10
81.9287
 20
32.174
 30
0.0
 10
81.9287
 20
32.174
 30
0.0
 10
81.9287
 20
32.174
 30
0.0
 10
79.8381
 20
31.3917
 30
0.0
 10
76.4083
 20
30.7519
 30
0.0
 10
74.3066
 20
30.7519
 30
0.0
 10
74.3066
 20
30.7519
 30
0.0
 10
70.7611
 20
30.7519
 30
0.0
 10
70.3832
 20
30.9183
 30
0.0
 10
69.0631
 20
33.0597
 30
0.0
 10
69.0631
 20
33.0597
 30
0.0
 10
68.2805
 20
34.3288
 30
0.0
 10
67.4212
 20
36.2461
 30
0.0
 10
67.1531
 20
37.3201
 30
0.0
 10
67.1531
 20
37.3201
 30
0.0
 10
66.7138
 20
39.0804
 30
0.0
 10
66.8506
 20
39.2728
 30
0.0
 10
68.5406
 20
39.2728
 30
0.0
 10
68.5406
 20
39.2728
 30
0.0
 10
73.0058
 20
39.3729
 30
0.0
 10
78.5126
 20
42.9866
 30
0.0
 10
77.9675
 20
48.1359
 30
0.0
 10
77.9675
 20
48.1359
 30
0.0
 10
77.5462
 20
51.7259
 30
0.0
 10
73.1612
 20
56.7169
 30
0.0
 10
67.7156
 20
54.3853
 30
0.0
 10
67.7156
 20
54.3853
 30
0.0
 10
66.0753
 20
53.3743
 30
0.0
 10
65.9698
 20
52.0542
 30
0.0
 10
67.7746
 20
52.0542
 30
0.0
 10
67.7746
 20
52.0542
 30
0.0
 10
70.376
 20
51.6886
 30
0.0
 10
71.9014
 20
50.2308
 30
0.0
 10
70.3811
 20
48.1622
 30
0.0
 10
70.3811
 20
48.1622
 30
0.0
 10
68.3503
 20
45.728
 30
0.0
 10
63.6889
 20
49.0988
 30
0.0
 10
61.3141
 20
53.7218
 30
0.0
 10
61.3141
 20
53.7218
 30
0.0
 10
70.4715
 20
61.4655
 30
0.0
 10
83.6173
 20
67.1038
 30
0.0
 10
100.9004
 20
67.5514
 30
0.0
 10
100.9004
 20
67.5514
 30
0.0
 10
118.1834
 20
67.1038
 30
0.0
 10
131.3292
 20
61.4655
 30
0.0
 10
140.4867
 20
53.7218
 30
0.0
 10
140.4867
 20
53.7218
 30
0.0
 10
138.1116
 20
49.0988
 30
0.0
 10
133.4502
 20
45.728
 30
0.0
 10
131.4196
 20
48.1622
 30
0.0
 10
131.4196
 20
48.1622
 30
0.0
 10
129.8993
 20
50.2308
 30
0.0
 10
131.4247
 20
51.6886
 30
0.0
 10
134.0261
 20
52.0542
 30
0.0
 10
134.0261
 20
52.0542
 30
0.0
 10
135.8309
 20
52.0542
 30
0.0
 10
135.7254
 20
53.374
 30
0.0
 10
134.0851
 20
54.3853
 30
0.0
 10
134.0851
 20
54.3853
 30
0.0
 10
128.6396
 20
56.7169
 30
0.0
 10
124.2543
 20
51.7262
 30
0.0
 10
123.8332
 20
48.1359
 30
0.0
 10
123.8332
 20
48.1359
 30
0.0
 10
123.2882
 20
42.9866
 30
0.0
 10
128.7949
 20
39.3729
 30
0.0
 10
133.2602
 20
39.2728
 30
0.0
 10
133.2602
 20
39.2728
 30
0.0
 10
134.9504
 20
39.2728
 30
0.0
 10
135.087
 20
39.0804
 30
0.0
 10
134.6477
 20
37.3201
 30
0.0
 10
134.6477
 20
37.3201
 30
0.0
 10
134.3796
 20
36.2461
 30
0.0
 10
133.5199
 20
34.3288
 30
0.0
 10
132.7376
 20
33.0597
 30
0.0
 10
132.7376
 20
33.0597
 30
0.0
 10
131.4175
 20
30.9183
 30
0.0
 10
131.0396
 20
30.7519
 30
0.0
 10
127.4941
 20
30.7519
 30
0.0
 10
127.4941
 20
30.7519
 30
0.0
 10
125.3928
 20
30.7519
 30
0.0
 10
121.9627
 20
31.392
 30
0.0
 10
119.872
 20
32.174
 30
0.0
 10
119.872
 20
32.174
 30
0.0
 10
119.872
 20
32.174
 30
0.0
 10
119.872
 20
32.174
 30
0.0
 10
119.872
 20
32.174
 30
0.0
 10
119.872
 20
32.174
 30
0.0
 10
113.7611
 20
34.4603
 30
0.0
 10
110.337
 20
39.232
 30
0.0
 10
112.2464
 20
42.8001
 30
0.0
 10
112.2464
 20
42.8001
 30
0.0
 10
114.402
 20
45.359
 30
0.0
 10
116.677
 20
42.784
 30
0.0
 10
117.7677
 20
40.5876
 30
0.0
 10
117.7677
 20
40.5876
 30
0.0
 10
120.8994
 20
44.7487
 30
0.0
 10
120.398
 20
50.7574
 30
0.0
 10
117.2167
 20
53.585
 30
0.0
 10
117.2167
 20
53.585
 30
0.0
 10
113.3336
 20
56.832
 30
0.0
 10
109.2541
 20
56.8291
 30
0.0
 10
105.9211
 20
54.7443
 30
0.0
 10
105.9211
 20
54.7443
 30
0.0
 10
105.868
 20
59.5923
 30
0.0
 10
103.4303
 20
64.0199
 30
0.0
 10
100.9006
 20
63.9826
 30
0.0
 10
100.9006
 20
63.9826
 30
0.0
 10
98.3709
 20
64.0199
 30
0.0
 10
95.9333
 20
59.5923
 30
0.0
 10
95.8802
 20
54.7443
 30
0.0
 10
95.8802
 20
54.7443
 30
0.0
 10
95.8802
 20
54.7443
 30
0.0
 10
95.8796
 20
54.7443
 30
0.0
 10
95.8796
 20
54.7443
 30
0.0
  0
SPLINE
  5
6A
330
1F
100
AcDbEntity
  8
layer 1
 62
     7
370
    25
100
AcDbSpline
210
0.0
220
0.0
230
1.0
 70
    11
 71
     3
 72
    32
 73
    28
 74
     0
 42
0.0000000001
 43
0.0000000001
 12
1.0
 22
0.0
 32
0.0
 13
1.0
 23
0.0
 33
0.0
 40
0.0
 40
0.0
 40
0.0
 40
0.0
 40
0.125
 40
0.125
 40
0.125
 40
0.125
 40
0.25
 40
0.25
 40
0.25
 40
0.25
 40
0.375
 40
0.375
 40
0.375
 40
0.375
 40
0.5
 40
0.5
 40
0.5
 40
0.5
 40
0.625
 40
0.625
 40
0.625
 40
0.625
 40
0.75
 40
0.75
 40
0.75
 40
0.75
 40
1.0
 40
1.0
 40
1.0
 40
1.0
 10
51.1977
 20
55.1909
 30
0.0
 10
47.4209
 20
64.1992
 30
0.0
 10
39.3071
 20
68.6829
 30
0.0
 10
32.1745
 20
66.9344
 30
0.0
 10
32.1745
 20
66.9344
 30
0.0
 10
23.0213
 20
66.1677
 30
0.0
 10
17.478
 20
55.3611
 30
0.0
 10
21.6803
 20
50.9739
 30
0.0
 10
21.6803
 20
50.9739
 30
0.0
 10
26.7115
 20
46.338
 30
0.0
 10
31.0272
 20
53.5707
 30
0.0
 10
27.7654
 20
57.0245
 30
0.0
 10
27.7654
 20
57.0245
 30
0.0
 10
25.7853
 20
59.0045
 30
0.0
 10
25.974
 20
59.632
 30
0.0
 10
28.833
 20
60.5756
 30
0.0
 10
28.833
 20
60.5756
 30
0.0
 10
40.8672
 20
62.5275
 30
0.0
 10
44.0232
 20
51.6215
 30
0.0
 10
42.5367
 20
44.2106
 30
0.0
 10
42.5367
 20
44.2106
 30
0.0
 10
45.0688
 20
48.9362
 30
0.0
 10
48.0781
 20
52.0644
 30
0.0
 10
51.198
 20
55.1906
 30
0.0
 10
51.198
 20
55.1906
 30
0.0
 10
51.198
 20
55.1906
 30
0.0
 10
51.1977
 20
55.1909
 30
0.0
 10
51.1977
 20
55.1909
 30
0.0
  0
SPLINE
  5
6B
330
1F
100
AcDbEntity
  8
layer 1
 62
     7
370
    25
100
AcDbSpline
210
0.0
220
0.0
230
1.0
 70
    11
 71
     3
 72
    16
 73
    12
 74
     0
 42
0.0000000001
 43
0.0000000001
 12
1.0
 22
0.0
 32
0.0
 13
1.0
 23
0.0
 33
0.0
 40
0.0
 40
0.0
 40
0.0
 40
0.0
 40
0.25
 40
0.25
 40
0.25
 40
0.25
 40
0.5
 40
0.5
 40
0.5
 40
0.5
 40
1.0
 40
1.0
 40
1.0
 40
1.0
 10
28.4615
 20
74.1615
 30
0.0
 10
22.0831
 20
74.1615
 30
0.0
 10
18.6221
 20
74.1615
 30
0.0
 10
13.8928
 20
74.1615
 30
0.0
 10
13.8928
 20
74.1615
 30
0.0
 10
13.8928
 20
69.5028
 30
0.0
 10
13.8928
 20
64.5991
 30
0.0
 10
13.8928
 20
59.808
 30
0.0
 10
13.8928
 20
59.808
 30
0.0
 10
16.1732
 20
67.6159
 30
0.0
 10
21.5745
 20
72.522
 30
0.0
 10
28.4615
 20
74.1615
 30
0.0
  0
SPLINE
  5
6C
330
1F
100
AcDbEntity
  8
layer 1
 62
     7
370
    25
100
AcDbSpline
210
0.0
220
0.0
230
1.0
 70
    11
 71
     3
 72
    16
 73
    12
 74
     0
 42
0.0000000001
 43
0.0000000001
 12
1.0
 22
0.0
 32
0.0
 13
1.0
 23
0.0
 33
0.0
 40
0.0
 40
0.0
 40
0.0
 40
0.0
 40
0.25
 40
0.25
 40
0.25
 40
0.25
 40
0.5
 40
0.5
 40
0.5
 40
0.5
 40
1.0
 40
1.0
 40
1.0
 40
1.0
 10
86.4049
 20
74.1615
 30
0.0
 10
74.9013
 20
74.1615
 30
0.0
 10
56.6741
 20
74.1615
 30
0.0
 10
42.0569
 20
74.1615
 30
0.0
 10
42.0569
 20
74.1615
 30
0.0
 10
48.1624
 20
72.3784
 30
0.0
 10
54.5875
 20
66.7651
 30
0.0
 10
58.4706
 20
61.1985
 30
0.0
 10
58.4706
 20
61.1985
 30
0.0
 10
67.2089
 20
67.9489
 30
0.0
 10
74.1687
 20
71.6672
 30
0.0
 10
86.4049
 20
74.1615
 30
0.0
  0
SPLINE
  5
6D
330
1F
100
AcDbEntity
  8
layer 1
 62
     7
370
    25
100
AcDbSpline
210
0.0
220
0.0
230
1.0
 70
    11
 71
     3
 72
    68
 73
    64
 74
     0
 42
0.0000000001
 43
0.0000000001
 12
1.0
 22
0.0
 32
0.0
 13
1.0
 23
0.0
 33
0.0
 40
0.0
 40
0.0
 40
0.0
 40
0.0
 40
0.0588235294117647
 40
0.0588235294117647
 40
0.0588235294117647
 40
0.0588235294117647
 40
0.1176470588235294
 40
0.1176470588235294
 40
0.1176470588235294
 40
0.1176470588235294
 40
0.1764705882352941
 40
0.1764705882352941
 40
0.1764705882352941
 40
0.1764705882352941
 40
0.2352941176470588
 40
0.2352941176470588
 40
0.2352941176470588
 40
0.2352941176470588
 40
0.2941176470588235
 40
0.2941176470588235
 40
0.2941176470588235
 40
0.2941176470588235
 40
0.3529411764705883
 40
0.3529411764705883
 40
0.3529411764705883
 40
0.3529411764705883
 40
0.4117647058823529
 40
0.4117647058823529
 40
0.4117647058823529
 40
0.4117647058823529
 40
0.4705882352941176
 40
0.4705882352941176
 40
0.4705882352941176
 40
0.4705882352941176
 40
0.5294117647058824
 40
0.5294117647058824
 40
0.5294117647058824
 40
0.5294117647058824
 40
0.5882352941176471
 40
0.5882352941176471
 40
0.5882352941176471
 40
0.5882352941176471
 40
0.6470588235294118
 40
0.6470588235294118
 40
0.6470588235294118
 40
0.6470588235294118
 40
0.7058823529411765
 40
0.7058823529411765
 40
0.7058823529411765
 40
0.7058823529411765
 40
0.7647058823529411
 40
0.7647058823529411
 40
0.7647058823529411
 40
0.7647058823529411
 40
0.8235294117647058
 40
0.8235294117647058
 40
0.8235294117647058
 40
0.8235294117647058
 40
0.8823529411764706
 40
0.8823529411764706
 40
0.8823529411764706
 40
0.8823529411764706
 40
1.0
 40
1.0
 40
1.0
 40
1.0
 10
139.1351
 20
13.7101
 30
0.0
 10
142.7048
 20
15.2844
 30
0.0
 10
143.281
 20
18.7129
 30
0.0
 10
147.7151
 20
18.6807
 30
0.0
 10
147.7151
 20
18.6807
 30
0.0
 10
149.3543
 20
18.6807
 30
0.0
 10
151.3212
 20
18.346
 30
0.0
 10
152.0858
 20
17.9368
 30
0.0
 10
152.0858
 20
17.9368
 30
0.0
 10
153.345
 20
17.2629
 30
0.0
 10
153.3772
 20
17.0519
 30
0.0
 10
152.428
 20
15.6967
 30
0.0
 10
152.428
 20
15.6967
 30
0.0
 10
149.8216
 20
11.9756
 30
0.0
 10
155.5084
 20
9.8233
 30
0.0
 10
158.3618
 20
13.4509
 30
0.0
 10
158.3618
 20
13.4509
 30
0.0
 10
162.4491
 20
20.2214
 30
0.0
 10
154.2521
 20
25.1238
 30
0.0
 10
142.9496
 20
24.257
 30
0.0
 10
142.9496
 20
24.257
 30
0.0
 10
142.9496
 20
24.257
 30
0.0
 10
136.5805
 20
24.0063
 30
0.0
 10
136.5805
 20
24.0063
 30
0.0
 10
136.5805
 20
24.0063
 30
0.0
 10
131.8176
 20
16.6545
 30
0.0
 10
123.9862
 20
9.8509
 30
0.0
 10
115.7417
 20
9.1322
 30
0.0
 10
115.7417
 20
9.1322
 30
0.0
 10
123.9862
 20
7.9157
 30
0.0
 10
130.9873
 20
1.9419
 30
0.0
 10
136.5805
 20
-5.7419
 30
0.0
 10
136.5805
 20
-5.7419
 30
0.0
 10
136.5805
 20
-5.7419
 30
0.0
 10
142.9496
 20
-5.9926
 30
0.0
 10
142.9496
 20
-5.9926
 30
0.0
 10
142.9496
 20
-5.9926
 30
0.0
 10
154.2521
 20
-6.8594
 30
0.0
 10
162.4494
 20
-1.957
 30
0.0
 10
158.3618
 20
4.8135
 30
0.0
 10
158.3618
 20
4.8135
 30
0.0
 10
155.5084
 20
8.4411
 30
0.0
 10
149.8216
 20
6.2888
 30
0.0
 10
152.428
 20
2.5678
 30
0.0
 10
152.428
 20
2.5678
 30
0.0
 10
153.3772
 20
1.2125
 30
0.0
 10
153.345
 20
1.0015
 30
0.0
 10
152.0858
 20
0.3277
 30
0.0
 10
152.0858
 20
0.3277
 30
0.0
 10
151.3212
 20
-0.0816
 30
0.0
 10
149.3546
 20
-0.4163
 30
0.0
 10
147.7151
 20
-0.4163
 30
0.0
 10
147.7151
 20
-0.4163
 30
0.0
 10
143.2807
 20
-0.4485
 30
0.0
 10
142.7048
 20
2.98
 30
0.0
 10
139.1351
 20
4.5543
 30
0.0
 10
139.1351
 20
4.5543
 30
0.0
 10
136.7117
 20
5.4547
 30
0.0
 10
129.8115
 20
6.5421
 30
0.0
 10
130.0858
 20
9.1322
 30
0.0
 10
130.0858
 20
9.1322
 30
0.0
 10
129.8115
 20
11.7223
 30
0.0
 10
136.7115
 20
12.81
 30
0.0
 10
139.1351
 20
13.7101
 30
0.0
  0
SPLINE
  5
6E
330
1F
100
AcDbEntity
  8
layer 1
 62
     7
370
    25
100
AcDbSpline
210
0.0
220
0.0
230
1.0
 70
    11
 71
     3
 72
    20
 73
    16
 74
     0
 42
0.0000000001
 43
0.0000000001
 12
1.0
 22
0.0
 32
0.0
 13
1.0
 23
0.0
 33
0.0
 40
0.0
 40
0.0
 40
0.0
 40
0.0
 40
0.2
 40
0.2
 40
0.2
 40
0.2
 40
0.4
 40
0.4
 40
0.4
 40
0.4
 40
0.6
 40
0.6
 40
0.6
 40
0.6
 40
1.0
 40
1.0
 40
1.0
 40
1.0
 10
100.9001
 20
14.1849
 30
0.0
 10
99.4546
 20
11.8782
 30
0.0
 10
96.1107
 20
9.724
 30
0.0
 10
92.1068
 20
9.1319
 30
0.0
 10
92.1068
 20
9.1319
 30
0.0
 10
96.111
 20
8.5399
 30
0.0
 10
99.4549
 20
6.3857
 30
0.0
 10
100.9004
 20
4.079
 30
0.0
 10
100.9004
 20
4.079
 30
0.0
 10
102.3458
 20
6.3857
 30
0.0
 10
105.6898
 20
8.5399
 30
0.0
 10
109.6937
 20
9.1319
 30
0.0
 10
109.6937
 20
9.1319
 30
0.0
 10
105.6895
 20
9.724
 30
0.0
 10
102.3456
 20
11.8782
 30
0.0
 10
100.9001
 20
14.1849
 30
0.0
  0
SPLINE
  5
6F
330
1F
100
AcDbEntity
  8
layer 1
 62
     7
370
    25
100
AcDbSpline
210
0.0
220
0.0
230
1.0
 70
    11
 71
     3
 72
    56
 73
    52
 74
     0
 42
0.0000000001
 43
0.0000000001
 12
1.0
 22
0.0
 32
0.0
 13
1.0
 23
0.0
 33
0.0
 40
0.0
 40
0.0
 40
0.0
 40
0.0
 40
0.0714285714285714
 40
0.0714285714285714
 40
0.0714285714285714
 40
0.0714285714285714
 40
0.1428571428571428
 40
0.1428571428571428
 40
0.1428571428571428
 40
0.1428571428571428
 40
0.2142857142857143
 40
0.2142857142857143
 40
0.2142857142857143
 40
0.2142857142857143
 40
0.2857142857142857
 40
0.2857142857142857
 40
0.2857142857142857
 40
0.2857142857142857
 40
0.3571428571428572
 40
0.3571428571428572
 40
0.3571428571428572
 40
0.3571428571428572
 40
0.4285714285714285
 40
0.4285714285714285
 40
0.4285714285714285
 40
0.4285714285714285
 40
0.5
 40
0.5
 40
0.5
 40
0.5
 40
0.5714285714285714
 40
0.5714285714285714
 40
0.5714285714285714
 40
0.5714285714285714
 40
0.6428571428571429
 40
0.6428571428571429
 40
0.6428571428571429
 40
0.6428571428571429
 40
0.7142857142857143
 40
0.7142857142857143
 40
0.7142857142857143
 40
0.7142857142857143
 40
0.7857142857142857
 40
0.7857142857142857
 40
0.7857142857142857
 40
0.7857142857142857
 40
0.8571428571428571
 40
0.8571428571428571
 40
0.8571428571428571
 40
0.8571428571428571
 40
1.0
 40
1.0
 40
1.0
 40
1.0
 10
107.5963
 20
26.1794
 30
0.0
 10
111.7132
 20
25.3597
 30
0.0
 10
114.0566
 20
21.1661
 30
0.0
 10
110.6679
 20
20.6828
 30
0.0
 10
110.6679
 20
20.6828
 30
0.0
 10
108.8418
 20
20.4222
 30
0.0
 10
108.1892
 20
18.386
 30
0.0
 10
109.4462
 20
16.8713
 30
0.0
 10
109.4462
 20
16.8713
 30
0.0
 10
112.3779
 20
13.8875
 30
0.0
 10
122.0995
 20
17.0493
 30
0.0
 10
125.1807
 20
22.811
 30
0.0
 10
125.1807
 20
22.811
 30
0.0
 10
115.4382
 20
23.7669
 30
0.0
 10
104.3662
 20
27.664
 30
0.0
 10
103.1104
 20
38.5826
 30
0.0
 10
103.1104
 20
38.5826
 30
0.0
 10
102.7546
 20
42.3017
 30
0.0
 10
102.1086
 20
43.708
 30
0.0
 10
100.8998
 20
43.7909
 30
0.0
 10
100.8998
 20
43.7909
 30
0.0
 10
99.6911
 20
43.708
 30
0.0
 10
99.0451
 20
42.3017
 30
0.0
 10
98.6892
 20
38.5826
 30
0.0
 10
98.6892
 20
38.5826
 30
0.0
 10
97.4335
 20
27.664
 30
0.0
 10
86.3617
 20
23.7669
 30
0.0
 10
76.6189
 20
22.811
 30
0.0
 10
76.6189
 20
22.811
 30
0.0
 10
79.7001
 20
17.0493
 30
0.0
 10
89.4215
 20
13.8873
 30
0.0
 10
92.3535
 20
16.8713
 30
0.0
 10
92.3535
 20
16.8713
 30
0.0
 10
93.6105
 20
18.386
 30
0.0
 10
92.9578
 20
20.4222
 30
0.0
 10
91.1318
 20
20.6828
 30
0.0
 10
91.1318
 20
20.6828
 30
0.0
 10
87.7433
 20
21.1661
 30
0.0
 10
90.0868
 20
25.3597
 30
0.0
 10
94.2034
 20
26.1794
 30
0.0
 10
94.2034
 20
26.1794
 30
0.0
 10
97.3063
 20
26.2974
 30
0.0
 10
99.2115
 20
25.4317
 30
0.0
 10
100.8996
 20
23.2321
 30
0.0
 10
100.8996
 20
23.2321
 30
0.0
 10
102.5876
 20
25.4317
 30
0.0
 10
104.4928
 20
26.2972
 30
0.0
 10
107.5958
 20
26.1794
 30
0.0
 10
107.5958
 20
26.1794
 30
0.0
 10
107.5958
 20
26.1794
 30
0.0
 10
107.5963
 20
26.1794
 30
0.0
 10
107.5963
 20
26.1794
 30
0.0
  0
SPLINE
  5
70
330
1F
100
AcDbEntity
  8
layer 1
 62
     7
370
    25
100
AcDbSpline
210
0.0
220
0.0
230
1.0
 70
    11
 71
     3
 72
    28
 73
    24
 74
     0
 42
0.0000000001
 43
0.0000000001
 12
1.0
 22
0.0
 32
0.0
 13
1.0
 23
0.0
 33
0.0
 40
0.0
 40
0.0
 40
0.0
 40
0.0
 40
0.1428571428571428
 40
0.1428571428571428
 40
0.1428571428571428
 40
0.1428571428571428
 40
0.2857142857142857
 40
0.2857142857142857
 40
0.2857142857142857
 40
0.2857142857142857
 40
0.4285714285714285
 40
0.4285714285714285
 40
0.4285714285714285
 40
0.4285714285714285
 40
0.5714285714285714
 40
0.5714285714285714
 40
0.5714285714285714
 40
0.5714285714285714
 40
0.7142857142857143
 40
0.7142857142857143
 40
0.7142857142857143
 40
0.7142857142857143
 40
1.0
 40
1.0
 40
1.0
 40
1.0
 10
176.1893
 20
20.4268
 30
0.0
 10
174.9229
 20
21.953
 30
0.0
 10
174.9972
 20
25.0299
 30
0.0
 10
179.4785
 20
31.1848
 30
0.0
 10
179.4785
 20
31.1848
 30
0.0
 10
182.5498
 20
35.6777
 30
0.0
 10
185.7129
 20
40.805
 30
0.0
 10
187.9074
 20
46.4545
 30
0.0
 10
187.9074
 20
46.4545
 30
0.0
 10
187.4898
 20
38.3488
 30
0.0
 10
187.8983
 20
30.2407
 30
0.0
 10
187.9074
 20
22.1282
 30
0.0
 10
187.9074
 20
22.1282
 30
0.0
 10
186.4756
 20
24.4569
 30
0.0
 10
183.8157
 20
25.5178
 30
0.0
 10
181.6741
 20
25.3828
 30
0.0
 10
181.6741
 20
25.3828
 30
0.0
 10
180.405
 20
25.1338
 30
0.0
 10
179.7359
 20
24.8823
 30
0.0
 10
180.1336
 20
23.2978
 30
0.0
 10
180.1336
 20
23.2978
 30
0.0
 10
181.3835
 20
20.1951
 30
0.0
 10
177.889
 20
18.5302
 30
0.0
 10
176.1893
 20
20.4268
 30
0.0
  0
SPLINE
  5
71
330
1F
100
AcDbEntity
  8
layer 1
 62
     7
370
    25
100
AcDbSpline
210
0.0
220
0.0
230
1.0
 70
    11
 71
     3
 72
    16
 73
    12
 74
     0
 42
0.0000000001
 43
0.0000000001
 12
1.0
 22
0.0
 32
0.0
 13
1.0
 23
0.0
 33
0.0
 40
0.0
 40
0.0
 40
0.0
 40
0.0
 40
0.25
 40
0.25
 40
0.25
 40
0.25
 40
0.5
 40
0.5
 40
0.5
 40
0.5
 40
1.0
 40
1.0
 40
1.0
 40
1.0
 10
161.7578
 20
40.338
 30
0.0
 10
165.1785
 20
37.5676
 30
0.0
 10
169.111
 20
36.6108
 30
0.0
 10
173.2552
 20
37.7965
 30
0.0
 10
173.2552
 20
37.7965
 30
0.0
 10
170.9075
 20
33.6192
 30
0.0
 10
169.3031
 20
31.6054
 30
0.0
 10
167.6502
 20
25.4285
 30
0.0
 10
167.6502
 20
25.4285
 30
0.0
 10
166.8971
 20
30.8939
 30
0.0
 10
164.1713
 20
37.0021
 30
0.0
 10
161.7578
 20
40.338
 30
0.0
  0
SPLINE
  5
72
330
1F
100
AcDbEntity
  8
layer 1
 62
     7
370
    25
100
AcDbSpline
210
0.0
220
0.0
230
1.0
 70
    11
 71
     3
 72
    20
 73
    16
 74
     0
 42
0.0000000001
 43
0.0000000001
 12
1.0
 22
0.0
 32
0.0
 13
1.0
 23
0.0
 33
0.0
 40
0.0
 40
0.0
 40
0.0
 40
0.0
 40
0.2
 40
0.2
 40
0.2
 40
0.2
 40
0.4
 40
0.4
 40
0.4
 40
0.4
 40
0.6
 40
0.6
 40
0.6
 40
0.6
 40
1.0
 40
1.0
 40
1.0
 40
1.0
 10
141.4
 20
32.2755
 30
0.0
 10
145.3598
 20
37.3263
 30
0.0
 10
146.17
 20
39.8093
 30
0.0
 10
148.0452
 20
46.5603
 30
0.0
 10
148.0452
 20
46.5603
 30
0.0
 10
152.2114
 20
41.7792
 30
0.0
 10
155.1485
 20
37.1231
 30
0.0
 10
158.1165
 20
30.4726
 30
0.0
 10
158.1165
 20
30.4726
 30
0.0
 10
151.7222
 20
33.1021
 30
0.0
 10
147.6214
 20
33.503
 30
0.0
 10
141.4002
 20
32.2755
 30
0.0
 10
141.4002
 20
32.2755
 30
0.0
 10
141.4002
 20
32.2755
 30
0.0
 10
141.4
 20
32.2755
 30
0.0
 10
141.4
 20
32.2755
 30
0.0
  0
SPLINE
  5
73
330
1F
100
AcDbEntity
  8
layer 1
 62
     7
370
    25
100
AcDbSpline
210
0.0
220
0.0
230
1.0
 70
    11
 71
     3
 72
    32
 73
    28
 74
     0
 42
0.0000000001
 43
0.0000000001
 12
1.0
 22
0.0
 32
0.0
 13
1.0
 23
0.0
 33
0.0
 40
0.0
 40
0.0
 40
0.0
 40
0.0
 40
0.125
 40
0.125
 40
0.125
 40
0.125
 40
0.25
 40
0.25
 40
0.25
 40
0.25
 40
0.375
 40
0.375
 40
0.375
 40
0.375
 40
0.5
 40
0.5
 40
0.5
 40
0.5
 40
0.625
 40
0.625
 40
0.625
 40
0.625
 40
0.75
 40
0.75
 40
0.75
 40
0.75
 40
1.0
 40
1.0
 40
1.0
 40
1.0
 10
150.6025
 20
55.1909
 30
0.0
 10
154.3794
 20
64.1992
 30
0.0
 10
162.4931
 20
68.6829
 30
0.0
 10
169.6257
 20
66.9344
 30
0.0
 10
169.6257
 20
66.9344
 30
0.0
 10
178.7789
 20
66.1677
 30
0.0
 10
184.3222
 20
55.3611
 30
0.0
 10
180.12
 20
50.9739
 30
0.0
 10
180.12
 20
50.9739
 30
0.0
 10
175.0887
 20
46.338
 30
0.0
 10
170.773
 20
53.5707
 30
0.0
 10
174.0348
 20
57.0245
 30
0.0
 10
174.0348
 20
57.0245
 30
0.0
 10
176.0149
 20
59.0045
 30
0.0
 10
175.8262
 20
59.632
 30
0.0
 10
172.9672
 20
60.5756
 30
0.0
 10
172.9672
 20
60.5756
 30
0.0
 10
160.9331
 20
62.5275
 30
0.0
 10
157.777
 20
51.6215
 30
0.0
 10
159.2635
 20
44.2106
 30
0.0
 10
159.2635
 20
44.2106
 30
0.0
 10
156.7314
 20
48.9362
 30
0.0
 10
153.7221
 20
52.0644
 30
0.0
 10
150.6023
 20
55.1906
 30
0.0
 10
150.6023
 20
55.1906
 30
0.0
 10
150.6023
 20
55.1906
 30
0.0
 10
150.6025
 20
55.1909
 30
0.0
 10
150.6025
 20
55.1909
 30
0.0
  0
SPLINE
  5
74
330
1F
100
AcDbEntity
  8
layer 1
 62
     7
370
    25
100
AcDbSpline
210
0.0
220
0.0
230
1.0
 70
    11
 71
     3
 72
    16
 73
    12
 74
     0
 42
0.0000000001
 43
0.0000000001
 12
1.0
 22
0.0
 32
0.0
 13
1.0
 23
0.0
 33
0.0
 40
0.0
 40
0.0
 40
0.0
 40
0.0
 40
0.25
 40
0.25
 40
0.25
 40
0.25
 40
0.5
 40
0.5
 40
0.5
 40
0.5
 40
1.0
 40
1.0
 40
1.0
 40
1.0
 10
173.3387
 20
74.1615
 30
0.0
 10
179.7171
 20
74.1615
 30
0.0
 10
183.1781
 20
74.1615
 30
0.0
 10
187.9074
 20
74.1615
 30
0.0
 10
187.9074
 20
74.1615
 30
0.0
 10
187.9074
 20
69.5028
 30
0.0
 10
187.9074
 20
64.5991
 30
0.0
 10
187.9074
 20
59.808
 30
0.0
 10
187.9074
 20
59.808
 30
0.0
 10
185.627
 20
67.6159
 30
0.0
 10
180.2257
 20
72.522
 30
0.0
 10
173.3387
 20
74.1615
 30
0.0
  0
SPLINE
  5
75
330
1F
100
AcDbEntity
  8
layer 1
 62
     7
370
    25
100
AcDbSpline
210
0.0
220
0.0
230
1.0
 70
    11
 71
     3
 72
    16
 73
    12
 74
     0
 42
0.0000000001
 43
0.0000000001
 12
1.0
 22
0.0
 32
0.0
 13
1.0
 23
0.0
 33
0.0
 40
0.0
 40
0.0
 40
0.0
 40
0.0
 40
0.25
 40
0.25
 40
0.25
 40
0.25
 40
0.5
 40
0.5
 40
0.5
 40
0.5
 40
1.0
 40
1.0
 40
1.0
 40
1.0
 10
115.3953
 20
74.1615
 30
0.0
 10
126.8989
 20
74.1615
 30
0.0
 10
145.1261
 20
74.1615
 30
0.0
 10
159.7434
 20
74.1615
 30
0.0
 10
159.7434
 20
74.1615
 30
0.0
 10
153.6378
 20
72.3784
 30
0.0
 10
147.2127
 20
66.7651
 30
0.0
 10
143.3296
 20
61.1985
 30
0.0
 10
143.3296
 20
61.1985
 30
0.0
 10
134.5913
 20
67.9489
 30
0.0
 10
127.6315
 20
71.6672
 30
0.0
 10
115.3953
 20
74.1615
 30
0.0
  0
SPLINE
  5
76
330
1F
100
AcDbEntity
  8
layer 1
 62
     7
370
    25
100
AcDbSpline
210
0.0
220
0.0
230
1.0
 70
    11
 71
     3
 72
    20
 73
    16
 74
     0
 42
0.0000000001
 43
0.0000000001
 12
1.0
 22
0.0
 32
0.0
 13
1.0
 23
0.0
 33
0.0
 40
0.0
 40
0.0
 40
0.0
 40
0.0
 40
0.2
 40
0.2
 40
0.2
 40
0.2
 40
0.4
 40
0.4
 40
0.4
 40
0.4
 40
0.6
 40
0.6
 40
0.6
 40
0.6
 40
1.0
 40
1.0
 40
1.0
 40
1.0
 10
13.8928
 20
2.7433
 30
0.0
 10
16.6257
 20
7.2681
 30
0.0
 10
26.267
 20
9.8265
 30
0.0
 10
31.3157
 20
5.2883
 30
0.0
 10
31.3157
 20
5.2883
 30
0.0
 10
31.3157
 20
5.2883
 30
0.0
 10
31.3157
 20
12.9756
 30
0.0
 10
31.3157
 20
12.9756
 30
0.0
 10
31.3157
 20
12.9756
 30
0.0
 10
26.267
 20
8.4374
 30
0.0
 10
16.6257
 20
10.9958
 30
0.0
 10
13.8928
 20
15.5206
 30
0.0
 10
13.8928
 20
15.5206
 30
0.0
 10
13.8928
 20
15.5206
 30
0.0
 10
13.8928
 20
2.7433
 30
0.0
 10
13.8928
 20
2.7433
 30
0.0
  0
SPLINE
  5
77
330
1F
100
AcDbEntity
  8
layer 1
 62
     7
370
    25
100
AcDbSpline
210
0.0
220
0.0
230
1.0
 70
    11
 71
     3
 72
    28
 73
    24
 74
     0
 42
0.0000000001
 43
0.0000000001
 12
1.0
 22
0.0
 32
0.0
 13
1.0
 23
0.0
 33
0.0
 40
0.0
 40
0.0
 40
0.0
 40
0.0
 40
0.1428571428571428
 40
0.1428571428571428
 40
0.1428571428571428
 40
0.1428571428571428
 40
0.2857142857142857
 40
0.2857142857142857
 40
0.2857142857142857
 40
0.2857142857142857
 40
0.4285714285714285
 40
0.4285714285714285
 40
0.4285714285714285
 40
0.4285714285714285
 40
0.5714285714285714
 40
0.5714285714285714
 40
0.5714285714285714
 40
0.5714285714285714
 40
0.7142857142857143
 40
0.7142857142857143
 40
0.7142857142857143
 40
0.7142857142857143
 40
1.0
 40
1.0
 40
1.0
 40
1.0
 10
25.6111
 20
-2.1626
 30
0.0
 10
26.8776
 20
-3.6888
 30
0.0
 10
26.8033
 20
-6.7658
 30
0.0
 10
22.3219
 20
-12.9207
 30
0.0
 10
22.3219
 20
-12.9207
 30
0.0
 10
19.2507
 20
-17.4135
 30
0.0
 10
16.0876
 20
-22.5408
 30
0.0
 10
13.8931
 20
-28.1904
 30
0.0
 10
13.8931
 20
-28.1904
 30
0.0
 10
14.3107
 20
-20.0846
 30
0.0
 10
13.9022
 20
-11.9765
 30
0.0
 10
13.8931
 20
-3.8641
 30
0.0
 10
13.8931
 20
-3.8641
 30
0.0
 10
15.3249
 20
-6.1928
 30
0.0
 10
17.9847
 20
-7.2537
 30
0.0
 10
20.1264
 20
-7.1187
 30
0.0
 10
20.1264
 20
-7.1187
 30
0.0
 10
21.3955
 20
-6.8696
 30
0.0
 10
22.0646
 20
-6.6181
 30
0.0
 10
21.6668
 20
-5.0337
 30
0.0
 10
21.6668
 20
-5.0337
 30
0.0
 10
20.417
 20
-1.931
 30
0.0
 10
23.9115
 20
-0.266
 30
0.0
 10
25.6111
 20
-2.1626
 30
0.0
  0
SPLINE
  5
78
330
1F
100
AcDbEntity
  8
layer 1
 62
     7
370
    25
100
AcDbSpline
210
0.0
220
0.0
230
1.0
 70
    11
 71
     3
 72
    16
 73
    12
 74
     0
 42
0.0000000001
 43
0.0000000001
 12
1.0
 22
0.0
 32
0.0
 13
1.0
 23
0.0
 33
0.0
 40
0.0
 40
0.0
 40
0.0
 40
0.0
 40
0.25
 40
0.25
 40
0.25
 40
0.25
 40
0.5
 40
0.5
 40
0.5
 40
0.5
 40
1.0
 40
1.0
 40
1.0
 40
1.0
 10
40.0427
 20
-22.0738
 30
0.0
 10
36.954
 20
-18.8053
 30
0.0
 10
32.6895
 20
-17.8485
 30
0.0
 10
28.5453
 20
-19.5323
 30
0.0
 10
28.5453
 20
-19.5323
 30
0.0
 10
30.893
 20
-15.3551
 30
0.0
 10
32.4974
 20
-13.3412
 30
0.0
 10
34.1503
 20
-7.1643
 30
0.0
 10
34.1503
 20
-7.1643
 30
0.0
 10
34.9033
 20
-12.6297
 30
0.0
 10
37.6292
 20
-18.7379
 30
0.0
 10
40.0427
 20
-22.0738
 30
0.0
  0
SPLINE
  5
79
330
1F
100
AcDbEntity
  8
layer 1
 62
     7
370
    25
100
AcDbSpline
210
0.0
220
0.0
230
1.0
 70
    11
 71
     3
 72
    20
 73
    16
 74
     0
 42
0.0000000001
 43
0.0000000001
 12
1.0
 22
0.0
 32
0.0
 13
1.0
 23
0.0
 33
0.0
 40
0.0
 40
0.0
 40
0.0
 40
0.0
 40
0.2
 40
0.2
 40
0.2
 40
0.2
 40
0.4
 40
0.4
 40
0.4
 40
0.4
 40
0.6
 40
0.6
 40
0.6
 40
0.6
 40
1.0
 40
1.0
 40
1.0
 40
1.0
 10
60.4003
 20
-14.0113
 30
0.0
 10
56.9385
 20
-18.3982
 30
0.0
 10
54.302
 20
-22.2091
 30
0.0
 10
53.755
 20
-28.2961
 30
0.0
 10
53.755
 20
-28.2961
 30
0.0
 10
49.5888
 20
-23.515
 30
0.0
 10
46.6517
 20
-18.859
 30
0.0
 10
43.6837
 20
-12.2084
 30
0.0
 10
43.6837
 20
-12.2084
 30
0.0
 10
49.6229
 20
-15.3218
 30
0.0
 10
54.0414
 20
-15.1675
 30
0.0
 10
60.4
 20
-14.0113
 30
0.0
 10
60.4
 20
-14.0113
 30
0.0
 10
60.4
 20
-14.0113
 30
0.0
 10
60.4003
 20
-14.0113
 30
0.0
 10
60.4003
 20
-14.0113
 30
0.0
  0
SPLINE
  5
7A
330
1F
100
AcDbEntity
  8
layer 1
 62
     7
370
    25
100
AcDbSpline
210
0.0
220
0.0
230
1.0
 70
    11
 71
     3
 72
   136
 73
   132
 74
     0
 42
0.0000000001
 43
0.0000000001
 12
1.0
 22
0.0
 32
0.0
 13
1.0
 23
0.0
 33
0.0
 40
0.0
 40
0.0
 40
0.0
 40
0.0
 40
0.0294117647058824
 40
0.0294117647058824
 40
0.0294117647058824
 40
0.0294117647058824
 40
0.0588235294117647
 40
0.0588235294117647
 40
0.0588235294117647
 40
0.0588235294117647
 40
0.0882352941176471
 40
0.0882352941176471
 40
0.0882352941176471
 40
0.0882352941176471
 40
0.1176470588235294
 40
0.1176470588235294
 40
0.1176470588235294
 40
0.1176470588235294
 40
0.1470588235294118
 40
0.1470588235294118
 40
0.1470588235294118
 40
0.1470588235294118
 40
0.1764705882352941
 40
0.1764705882352941
 40
0.1764705882352941
 40
0.1764705882352941
 40
0.2058823529411765
 40
0.2058823529411765
 40
0.2058823529411765
 40
0.2058823529411765
 40
0.2352941176470588
 40
0.2352941176470588
 40
0.2352941176470588
 40
0.2352941176470588
 40
0.2647058823529412
 40
0.2647058823529412
 40
0.2647058823529412
 40
0.2647058823529412
 40
0.2941176470588235
 40
0.2941176470588235
 40
0.2941176470588235
 40
0.2941176470588235
 40
0.3235294117647059
 40
0.3235294117647059
 40
0.3235294117647059
 40
0.3235294117647059
 40
0.3529411764705883
 40
0.3529411764705883
 40
0.3529411764705883
 40
0.3529411764705883
 40
0.3823529411764706
 40
0.3823529411764706
 40
0.3823529411764706
 40
0.3823529411764706
 40
0.4117647058823529
 40
0.4117647058823529
 40
0.4117647058823529
 40
0.4117647058823529
 40
0.4411764705882353
 40
0.4411764705882353
 40
0.4411764705882353
 40
0.4411764705882353
 40
0.4705882352941176
 40
0.4705882352941176
 40
0.4705882352941176
 40
0.4705882352941176
 40
0.5
 40
0.5
 40
0.5
 40
0.5
 40
0.5294117647058824
 40
0.5294117647058824
 40
0.5294117647058824
 40
0.5294117647058824
 40
0.5588235294117647
 40
0.5588235294117647
 40
0.5588235294117647
 40
0.5588235294117647
 40
0.5882352941176471
 40
0.5882352941176471
 40
0.5882352941176471
 40
0.5882352941176471
 40
0.6176470588235294
 40
0.6176470588235294
 40
0.6176470588235294
 40
0.6176470588235294
 40
0.6470588235294118
 40
0.6470588235294118
 40
0.6470588235294118
 40
0.6470588235294118
 40
0.6764705882352942
 40
0.6764705882352942
 40
0.6764705882352942
 40
0.6764705882352942
 40
0.7058823529411765
 40
0.7058823529411765
 40
0.7058823529411765
 40
0.7058823529411765
 40
0.7352941176470589
 40
0.7352941176470589
 40
0.7352941176470589
 40
0.7352941176470589
 40
0.7647058823529411
 40
0.7647058823529411
 40
0.7647058823529411
 40
0.7647058823529411
 40
0.7941176470588235
 40
0.7941176470588235
 40
0.7941176470588235
 40
0.7941176470588235
 40
0.8235294117647058
 40
0.8235294117647058
 40
0.8235294117647058
 40
0.8235294117647058
 40
0.8529411764705882
 40
0.8529411764705882
 40
0.8529411764705882
 40
0.8529411764705882
 40
0.8823529411764706
 40
0.8823529411764706
 40
0.8823529411764706
 40
0.8823529411764706
 40
0.9117647058823529
 40
0.9117647058823529
 40
0.9117647058823529
 40
0.9117647058823529
 40
0.9411764705882353
 40
0.9411764705882353
 40
0.9411764705882353
 40
0.9411764705882353
 40
1.0
 40
1.0
 40
1.0
 40
1.0
 10
95.8796
 20
-36.4805
 30
0.0
 10
92.5464
 20
-38.5652
 30
0.0
 10
88.4671
 20
-38.5681
 30
0.0
 10
84.584
 20
-35.3211
 30
0.0
 10
84.584
 20
-35.3211
 30
0.0
 10
81.4027
 20
-32.4935
 30
0.0
 10
80.9014
 20
-26.4848
 30
0.0
 10
84.033
 20
-22.3237
 30
0.0
 10
84.033
 20
-22.3237
 30
0.0
 10
85.1237
 20
-24.5201
 30
0.0
 10
87.3987
 20
-27.0951
 30
0.0
 10
89.5543
 20
-24.5362
 30
0.0
 10
89.5543
 20
-24.5362
 30
0.0
 10
91.4638
 20
-20.9681
 30
0.0
 10
88.0396
 20
-16.1964
 30
0.0
 10
81.9287
 20
-13.9102
 30
0.0
 10
81.9287
 20
-13.9102
 30
0.0
 10
81.9287
 20
-13.9102
 30
0.0
 10
81.9287
 20
-13.9102
 30
0.0
 10
81.9287
 20
-13.9102
 30
0.0
 10
81.9287
 20
-13.9102
 30
0.0
 10
79.8381
 20
-13.1278
 30
0.0
 10
76.4083
 20
-12.488
 30
0.0
 10
74.3066
 20
-12.488
 30
0.0
 10
74.3066
 20
-12.488
 30
0.0
 10
70.7611
 20
-12.488
 30
0.0
 10
70.3832
 20
-12.6544
 30
0.0
 10
69.0631
 20
-14.7958
 30
0.0
 10
69.0631
 20
-14.7958
 30
0.0
 10
68.2805
 20
-16.0649
 30
0.0
 10
67.4212
 20
-17.9822
 30
0.0
 10
67.1531
 20
-19.0562
 30
0.0
 10
67.1531
 20
-19.0562
 30
0.0
 10
66.7138
 20
-20.8165
 30
0.0
 10
66.8506
 20
-21.0089
 30
0.0
 10
68.5406
 20
-21.0089
 30
0.0
 10
68.5406
 20
-21.0089
 30
0.0
 10
73.0058
 20
-21.109
 30
0.0
 10
78.5126
 20
-24.7227
 30
0.0
 10
77.9675
 20
-29.872
 30
0.0
 10
77.9675
 20
-29.872
 30
0.0
 10
77.5462
 20
-33.462
 30
0.0
 10
73.1612
 20
-38.453
 30
0.0
 10
67.7156
 20
-36.1214
 30
0.0
 10
67.7156
 20
-36.1214
 30
0.0
 10
66.0753
 20
-35.1104
 30
0.0
 10
65.9698
 20
-33.7903
 30
0.0
 10
67.7746
 20
-33.7903
 30
0.0
 10
67.7746
 20
-33.7903
 30
0.0
 10
70.376
 20
-33.4247
 30
0.0
 10
71.9014
 20
-31.9669
 30
0.0
 10
70.3811
 20
-29.8983
 30
0.0
 10
70.3811
 20
-29.8983
 30
0.0
 10
68.3503
 20
-27.4641
 30
0.0
 10
63.6889
 20
-30.8349
 30
0.0
 10
61.3141
 20
-35.4579
 30
0.0
 10
61.3141
 20
-35.4579
 30
0.0
 10
70.4715
 20
-43.2016
 30
0.0
 10
83.6173
 20
-48.8399
 30
0.0
 10
100.9004
 20
-49.2876
 30
0.0
 10
100.9004
 20
-49.2876
 30
0.0
 10
118.1834
 20
-48.8399
 30
0.0
 10
131.3292
 20
-43.2016
 30
0.0
 10
140.4867
 20
-35.4579
 30
0.0
 10
140.4867
 20
-35.4579
 30
0.0
 10
138.1116
 20
-30.8349
 30
0.0
 10
133.4502
 20
-27.4641
 30
0.0
 10
131.4196
 20
-29.8983
 30
0.0
 10
131.4196
 20
-29.8983
 30
0.0
 10
129.8993
 20
-31.9669
 30
0.0
 10
131.4247
 20
-33.4247
 30
0.0
 10
134.0261
 20
-33.7903
 30
0.0
 10
134.0261
 20
-33.7903
 30
0.0
 10
135.8309
 20
-33.7903
 30
0.0
 10
135.7254
 20
-35.1101
 30
0.0
 10
134.0851
 20
-36.1214
 30
0.0
 10
134.0851
 20
-36.1214
 30
0.0
 10
128.6396
 20
-38.453
 30
0.0
 10
124.2543
 20
-33.4623
 30
0.0
 10
123.8332
 20
-29.872
 30
0.0
 10
123.8332
 20
-29.872
 30
0.0
 10
123.2882
 20
-24.7227
 30
0.0
 10
128.7949
 20
-21.109
 30
0.0
 10
133.2602
 20
-21.0089
 30
0.0
 10
133.2602
 20
-21.0089
 30
0.0
 10
134.9504
 20
-21.0089
 30
0.0
 10
135.087
 20
-20.8165
 30
0.0
 10
134.6477
 20
-19.0562
 30
0.0
 10
134.6477
 20
-19.0562
 30
0.0
 10
134.3796
 20
-17.9822
 30
0.0
 10
133.5199
 20
-16.0649
 30
0.0
 10
132.7376
 20
-14.7958
 30
0.0
 10
132.7376
 20
-14.7958
 30
0.0
 10
131.4175
 20
-12.6544
 30
0.0
 10
131.0396
 20
-12.488
 30
0.0
 10
127.4941
 20
-12.488
 30
0.0
 10
127.4941
 20
-12.488
 30
0.0
 10
125.3928
 20
-12.488
 30
0.0
 10
121.9627
 20
-13.1281
 30
0.0
 10
119.872
 20
-13.9102
 30
0.0
 10
119.872
 20
-13.9102
 30
0.0
 10
119.872
 20
-13.9102
 30
0.0
 10
119.872
 20
-13.9102
 30
0.0
 10
119.872
 20
-13.9102
 30
0.0
 10
119.872
 20
-13.9102
 30
0.0
 10
113.7611
 20
-16.1964
 30
0.0
 10
110.337
 20
-20.9681
 30
0.0
 10
112.2464
 20
-24.5362
 30
0.0
 10
112.2464
 20
-24.5362
 30
0.0
 10
114.402
 20
-27.0951
 30
0.0
 10
116.677
 20
-24.5201
 30
0.0
 10
117.7677
 20
-22.3237
 30
0.0
 10
117.7677
 20
-22.3237
 30
0.0
 10
120.8994
 20
-26.4848
 30
0.0
 10
120.398
 20
-32.4935
 30
0.0
 10
117.2167
 20
-35.3211
 30
0.0
 10
117.2167
 20
-35.3211
 30
0.0
 10
113.3336
 20
-38.5681
 30
0.0
 10
109.2541
 20
-38.5652
 30
0.0
 10
105.9211
 20
-36.4805
 30
0.0
 10
105.9211
 20
-36.4805
 30
0.0
 10
105.868
 20
-41.3284
 30
0.0
 10
103.4303
 20
-45.756
 30
0.0
 10
100.9006
 20
-45.7187
 30
0.0
 10
100.9006
 20
-45.7187
 30
0.0
 10
98.3709
 20
-45.756
 30
0.0
 10
95.9333
 20
-41.3284
 30
0.0
 10
95.8802
 20
-36.4805
 30
0.0
 10
95.8802
 20
-36.4805
 30
0.0
 10
95.8802
 20
-36.4805
 30
0.0
 10
95.8796
 20
-36.4805
 30
0.0
 10
95.8796
 20
-36.4805
 30
0.0
  0
SPLINE
  5
7B
330
1F
100
AcDbEntity
  8
layer 1
 62
     7
370
    25
100
AcDbSpline
210
0.0
220
0.0
230
1.0
 70
    11
 71
     3
 72
    32
 73
    28
 74
     0
 42
0.0000000001
 43
0.0000000001
 12
1.0
 22
0.0
 32
0.0
 13
1.0
 23
0.0
 33
0.0
 40
0.0
 40
0.0
 40
0.0
 40
0.0
 40
0.125
 40
0.125
 40
0.125
 40
0.125
 40
0.25
 40
0.25
 40
0.25
 40
0.25
 40
0.375
 40
0.375
 40
0.375
 40
0.375
 40
0.5
 40
0.5
 40
0.5
 40
0.5
 40
0.625
 40
0.625
 40
0.625
 40
0.625
 40
0.75
 40
0.75
 40
0.75
 40
0.75
 40
1.0
 40
1.0
 40
1.0
 40
1.0
 10
51.1977
 20
-36.9268
 30
0.0
 10
47.4209
 20
-45.935
 30
0.0
 10
39.3071
 20
-50.4187
 30
0.0
 10
32.1745
 20
-48.6703
 30
0.0
 10
32.1745
 20
-48.6703
 30
0.0
 10
23.0213
 20
-47.9035
 30
0.0
 10
17.478
 20
-37.0969
 30
0.0
 10
21.6803
 20
-32.7098
 30
0.0
 10
21.6803
 20
-32.7098
 30
0.0
 10
26.7115
 20
-28.0739
 30
0.0
 10
31.0272
 20
-35.3066
 30
0.0
 10
27.7654
 20
-38.7603
 30
0.0
 10
27.7654
 20
-38.7603
 30
0.0
 10
25.7853
 20
-40.7404
 30
0.0
 10
25.974
 20
-41.3678
 30
0.0
 10
28.833
 20
-42.3114
 30
0.0
 10
28.833
 20
-42.3114
 30
0.0
 10
40.8672
 20
-44.2633
 30
0.0
 10
44.0232
 20
-33.3574
 30
0.0
 10
42.5367
 20
-25.9465
 30
0.0
 10
42.5367
 20
-25.9465
 30
0.0
 10
45.0688
 20
-30.672
 30
0.0
 10
48.0781
 20
-33.8002
 30
0.0
 10
51.198
 20
-36.9265
 30
0.0
 10
51.198
 20
-36.9265
 30
0.0
 10
51.198
 20
-36.9265
 30
0.0
 10
51.1977
 20
-36.9268
 30
0.0
 10
51.1977
 20
-36.9268
 30
0.0
  0
SPLINE
  5
7C
330
1F
100
AcDbEntity
  8
layer 1
 62
     7
370
    25
100
AcDbSpline
210
0.0
220
0.0
230
1.0
 70
    11
 71
     3
 72
    20
 73
    16
 74
     0
 42
0.0000000001
 43
0.0000000001
 12
1.0
 22
0.0
 32
0.0
 13
1.0
 23
0.0
 33
0.0
 40
0.0
 40
0.0
 40
0.0
 40
0.0
 40
0.2
 40
0.2
 40
0.2
 40
0.2
 40
0.4
 40
0.4
 40
0.4
 40
0.4
 40
0.6
 40
0.6
 40
0.6
 40
0.6
 40
1.0
 40
1.0
 40
1.0
 40
1.0
 10
187.9074
 20
2.7433
 30
0.0
 10
185.1745
 20
7.2681
 30
0.0
 10
175.5332
 20
9.8265
 30
0.0
 10
170.4845
 20
5.2883
 30
0.0
 10
170.4845
 20
5.2883
 30
0.0
 10
170.4845
 20
5.2883
 30
0.0
 10
170.4845
 20
12.9756
 30
0.0
 10
170.4845
 20
12.9756
 30
0.0
 10
170.4845
 20
12.9756
 30
0.0
 10
175.5332
 20
8.4374
 30
0.0
 10
185.1745
 20
10.9958
 30
0.0
 10
187.9074
 20
15.5206
 30
0.0
 10
187.9074
 20
15.5206
 30
0.0
 10
187.9074
 20
15.5206
 30
0.0
 10
187.9074
 20
2.7433
 30
0.0
 10
187.9074
 20
2.7433
 30
0.0
  0
SPLINE
  5
7D
330
1F
100
AcDbEntity
  8
layer 1
 62
     7
370
    25
100
AcDbSpline
210
0.0
220
0.0
230
1.0
 70
    11
 71
     3
 72
    56
 73
    52
 74
     0
 42
0.0000000001
 43
0.0000000001
 12
1.0
 22
0.0
 32
0.0
 13
1.0
 23
0.0
 33
0.0
 40
0.0
 40
0.0
 40
0.0
 40
0.0
 40
0.0714285714285714
 40
0.0714285714285714
 40
0.0714285714285714
 40
0.0714285714285714
 40
0.1428571428571428
 40
0.1428571428571428
 40
0.1428571428571428
 40
0.1428571428571428
 40
0.2142857142857143
 40
0.2142857142857143
 40
0.2142857142857143
 40
0.2142857142857143
 40
0.2857142857142857
 40
0.2857142857142857
 40
0.2857142857142857
 40
0.2857142857142857
 40
0.3571428571428572
 40
0.3571428571428572
 40
0.3571428571428572
 40
0.3571428571428572
 40
0.4285714285714285
 40
0.4285714285714285
 40
0.4285714285714285
 40
0.4285714285714285
 40
0.5
 40
0.5
 40
0.5
 40
0.5
 40
0.5714285714285714
 40
0.5714285714285714
 40
0.5714285714285714
 40
0.5714285714285714
 40
0.6428571428571429
 40
0.6428571428571429
 40
0.6428571428571429
 40
0.6428571428571429
 40
0.7142857142857143
 40
0.7142857142857143
 40
0.7142857142857143
 40
0.7142857142857143
 40
0.7857142857142857
 40
0.7857142857142857
 40
0.7857142857142857
 40
0.7857142857142857
 40
0.8571428571428571
 40
0.8571428571428571
 40
0.8571428571428571
 40
0.8571428571428571
 40
1.0
 40
1.0
 40
1.0
 40
1.0
 10
107.5963
 20
-7.9152
 30
0.0
 10
111.7132
 20
-7.0956
 30
0.0
 10
114.0566
 20
-2.902
 30
0.0
 10
110.6679
 20
-2.4186
 30
0.0
 10
110.6679
 20
-2.4186
 30
0.0
 10
108.8418
 20
-2.158
 30
0.0
 10
108.1892
 20
-0.1219
 30
0.0
 10
109.4462
 20
1.3928
 30
0.0
 10
109.4462
 20
1.3928
 30
0.0
 10
112.3779
 20
4.3766
 30
0.0
 10
122.0995
 20
1.2149
 30
0.0
 10
125.1807
 20
-4.5468
 30
0.0
 10
125.1807
 20
-4.5468
 30
0.0
 10
115.4382
 20
-5.5028
 30
0.0
 10
104.3662
 20
-9.3999
 30
0.0
 10
103.1104
 20
-20.3184
 30
0.0
 10
103.1104
 20
-20.3184
 30
0.0
 10
102.7546
 20
-24.0375
 30
0.0
 10
102.1086
 20
-25.4438
 30
0.0
 10
100.8998
 20
-25.5267
 30
0.0
 10
100.8998
 20
-25.5267
 30
0.0
 10
99.6911
 20
-25.4438
 30
0.0
 10
99.0451
 20
-24.0375
 30
0.0
 10
98.6892
 20
-20.3184
 30
0.0
 10
98.6892
 20
-20.3184
 30
0.0
 10
97.4335
 20
-9.3999
 30
0.0
 10
86.3617
 20
-5.5028
 30
0.0
 10
76.6189
 20
-4.5468
 30
0.0
 10
76.6189
 20
-4.5468
 30
0.0
 10
79.7001
 20
1.2149
 30
0.0
 10
89.4215
 20
4.3766
 30
0.0
 10
92.3535
 20
1.3928
 30
0.0
 10
92.3535
 20
1.3928
 30
0.0
 10
93.6105
 20
-0.1219
 30
0.0
 10
92.9578
 20
-2.158
 30
0.0
 10
91.1318
 20
-2.4186
 30
0.0
 10
91.1318
 20
-2.4186
 30
0.0
 10
87.7433
 20
-2.902
 30
0.0
 10
90.0868
 20
-7.0956
 30
0.0
 10
94.2034
 20
-7.9152
 30
0.0
 10
94.2034
 20
-7.9152
 30
0.0
 10
97.3063
 20
-8.0333
 30
0.0
 10
99.2115
 20
-7.1675
 30
0.0
 10
100.8996
 20
-4.9679
 30
0.0
 10
100.8996
 20
-4.9679
 30
0.0
 10
102.5876
 20
-7.1675
 30
0.0
 10
104.4928
 20
-8.033
 30
0.0
 10
107.5958
 20
-7.9152
 30
0.0
 10
107.5958
 20
-7.9152
 30
0.0
 10
107.5958
 20
-7.9152
 30
0.0
 10
107.5963
 20
-7.9152
 30
0.0
 10
107.5963
 20
-7.9152
 30
0.0
  0
SPLINE
  5
7E
330
1F
100
AcDbEntity
  8
layer 1
 62
     7
370
    25
100
AcDbSpline
210
0.0
220
0.0
230
1.0
 70
    11
 71
     3
 72
    28
 73
    24
 74
     0
 42
0.0000000001
 43
0.0000000001
 12
1.0
 22
0.0
 32
0.0
 13
1.0
 23
0.0
 33
0.0
 40
0.0
 40
0.0
 40
0.0
 40
0.0
 40
0.1428571428571428
 40
0.1428571428571428
 40
0.1428571428571428
 40
0.1428571428571428
 40
0.2857142857142857
 40
0.2857142857142857
 40
0.2857142857142857
 40
0.2857142857142857
 40
0.4285714285714285
 40
0.4285714285714285
 40
0.4285714285714285
 40
0.4285714285714285
 40
0.5714285714285714
 40
0.5714285714285714
 40
0.5714285714285714
 40
0.5714285714285714
 40
0.7142857142857143
 40
0.7142857142857143
 40
0.7142857142857143
 40
0.7142857142857143
 40
1.0
 40
1.0
 40
1.0
 40
1.0
 10
176.1893
 20
-2.1626
 30
0.0
 10
174.9229
 20
-3.6888
 30
0.0
 10
174.9972
 20
-6.7658
 30
0.0
 10
179.4785
 20
-12.9207
 30
0.0
 10
179.4785
 20
-12.9207
 30
0.0
 10
182.5498
 20
-17.4135
 30
0.0
 10
185.7129
 20
-22.5408
 30
0.0
 10
187.9074
 20
-28.1904
 30
0.0
 10
187.9074
 20
-28.1904
 30
0.0
 10
187.4898
 20
-20.0846
 30
0.0
 10
187.8983
 20
-11.9765
 30
0.0
 10
187.9074
 20
-3.8641
 30
0.0
 10
187.9074
 20
-3.8641
 30
0.0
 10
186.4756
 20
-6.1928
 30
0.0
 10
183.8157
 20
-7.2537
 30
0.0
 10
181.6741
 20
-7.1187
 30
0.0
 10
181.6741
 20
-7.1187
 30
0.0
 10
180.405
 20
-6.8696
 30
0.0
 10
179.7359
 20
-6.6181
 30
0.0
 10
180.1336
 20
-5.0337
 30
0.0
 10
180.1336
 20
-5.0337
 30
0.0
 10
181.3835
 20
-1.931
 30
0.0
 10
177.889
 20
-0.266
 30
0.0
 10
176.1893
 20
-2.1626
 30
0.0
  0
SPLINE
  5
7F
330
1F
100
AcDbEntity
  8
layer 1
 62
     7
370
    25
100
AcDbSpline
210
0.0
220
0.0
230
1.0
 70
    11
 71
     3
 72
    16
 73
    12
 74
     0
 42
0.0000000001
 43
0.0000000001
 12
1.0
 22
0.0
 32
0.0
 13
1.0
 23
0.0
 33
0.0
 40
0.0
 40
0.0
 40
0.0
 40
0.0
 40
0.25
 40
0.25
 40
0.25
 40
0.25
 40
0.5
 40
0.5
 40
0.5
 40
0.5
 40
1.0
 40
1.0
 40
1.0
 40
1.0
 10
161.7578
 20
-22.0738
 30
0.0
 10
165.6766
 20
-18.4733
 30
0.0
 10
168.9448
 20
-18.5128
 30
0.0
 10
173.2552
 20
-19.5323
 30
0.0
 10
173.2552
 20
-19.5323
 30
0.0
 10
170.9075
 20
-15.3551
 30
0.0
 10
169.3031
 20
-13.3412
 30
0.0
 10
167.6502
 20
-7.1643
 30
0.0
 10
167.6502
 20
-7.1643
 30
0.0
 10
166.8971
 20
-12.6297
 30
0.0
 10
164.1713
 20
-18.7379
 30
0.0
 10
161.7578
 20
-22.0738
 30
0.0
  0
SPLINE
  5
80
330
1F
100
AcDbEntity
  8
layer 1
 62
     7
370
    25
100
AcDbSpline
210
0.0
220
0.0
230
1.0
 70
    11
 71
     3
 72
    20
 73
    16
 74
     0
 42
0.0000000001
 43
0.0000000001
 12
1.0
 22
0.0
 32
0.0
 13
1.0
 23
0.0
 33
0.0
 40
0.0
 40
0.0
 40
0.0
 40
0.0
 40
0.2
 40
0.2
 40
0.2
 40
0.2
 40
0.4
 40
0.4
 40
0.4
 40
0.4
 40
0.6
 40
0.6
 40
0.6
 40
0.6
 40
1.0
 40
1.0
 40
1.0
 40
1.0
 10
141.4
 20
-14.0113
 30
0.0
 10
144.3636
 20
-19.2283
 30
0.0
 10
145.8381
 20
-22.7072
 30
0.0
 10
148.0452
 20
-28.2961
 30
0.0
 10
148.0452
 20
-28.2961
 30
0.0
 10
152.2114
 20
-23.515
 30
0.0
 10
155.1485
 20
-18.859
 30
0.0
 10
158.1165
 20
-12.2084
 30
0.0
 10
158.1165
 20
-12.2084
 30
0.0
 10
152.2632
 20
-14.131
 30
0.0
 10
148.4802
 20
-14.489
 30
0.0
 10
141.4002
 20
-14.0113
 30
0.0
 10
141.4002
 20
-14.0113
 30
0.0
 10
141.4002
 20
-14.0113
 30
0.0
 10
141.4
 20
-14.0113
 30
0.0
 10
141.4
 20
-14.0113
 30
0.0
  0
SPLINE
  5
81
330
1F
100
AcDbEntity
  8
layer 1
 62
     7
370
    25
100
AcDbSpline
210
0.0
220
0.0
230
1.0
 70
    11
 71
     3
 72
    32
 73
    28
 74
     0
 42
0.0000000001
 43
0.0000000001
 12
1.0
 22
0.0
 32
0.0
 13
1.0
 23
0.0
 33
0.0
 40
0.0
 40
0.0
 40
0.0
 40
0.0
 40
0.125
 40
0.125
 40
0.125
 40
0.125
 40
0.25
 40
0.25
 40
0.25
 40
0.25
 40
0.375
 40
0.375
 40
0.375
 40
0.375
 40
0.5
 40
0.5
 40
0.5
 40
0.5
 40
0.625
 40
0.625
 40
0.625
 40
0.625
 40
0.75
 40
0.75
 40
0.75
 40
0.75
 40
1.0
 40
1.0
 40
1.0
 40
1.0
 10
150.6025
 20
-36.9268
 30
0.0
 10
154.3794
 20
-45.935
 30
0.0
 10
162.4931
 20
-50.4187
 30
0.0
 10
169.6257
 20
-48.6703
 30
0.0
 10
169.6257
 20
-48.6703
 30
0.0
 10
178.7789
 20
-47.9035
 30
0.0
 10
184.3222
 20
-37.0969
 30
0.0
 10
180.12
 20
-32.7098
 30
0.0
 10
180.12
 20
-32.7098
 30
0.0
 10
175.0887
 20
-28.0739
 30
0.0
 10
170.773
 20
-35.3066
 30
0.0
 10
174.0348
 20
-38.7603
 30
0.0
 10
174.0348
 20
-38.7603
 30
0.0
 10
176.0149
 20
-40.7404
 30
0.0
 10
175.8262
 20
-41.3678
 30
0.0
 10
172.9672
 20
-42.3114
 30
0.0
 10
172.9672
 20
-42.3114
 30
0.0
 10
160.9331
 20
-44.2633
 30
0.0
 10
157.777
 20
-33.3574
 30
0.0
 10
159.2635
 20
-25.9465
 30
0.0
 10
159.2635
 20
-25.9465
 30
0.0
 10
156.7314
 20
-30.672
 30
0.0
 10
153.7221
 20
-33.8002
 30
0.0
 10
150.6023
 20
-36.9265
 30
0.0
 10
150.6023
 20
-36.9265
 30
0.0
 10
150.6023
 20
-36.9265
 30
0.0
 10
150.6025
 20
-36.9268
 30
0.0
 10
150.6025
 20
-36.9268
 30
0.0
  0
ENDSEC
  0
SECTION
  2
OBJECTS
  0
DICTIONARY
  5
C
330
0
100
AcDbDictionary
281
     1
  3
ACAD_GROUP
350
D
  3
ACAD_LAYOUT
350
1A
  3
ACAD_MATERIAL
350
3B
  3
ACAD_MLEADERSTYLE
350
A4
  3
ACAD_MLINESTYLE
350
17
  3
ACAD_PLOTSETTINGS
350
19
  3
ACAD_PLOTSTYLENAME
350
E
  3
ACAD_TABLESTYLE
350
A3
  3
ACAD_VISUALSTYLE
350
2A
  0
DICTIONARY
  5
D
102
{ACAD_REACTORS
330
C
102
}
330
C
100
AcDbDictionary
281
     1
  0
DICTIONARY
  5
1A
102
{ACAD_REACTORS
330
C
102
}
330
C
100
AcDbDictionary
281
     1
  3
Layout1
350
1E
  3
Layout2
350
26
  3
Model
350
22
  0
DICTIONARY
  5
3B
102
{ACAD_REACTORS
330
C
102
}
330
C
100
AcDbDictionary
281
     1
  3
ByBlock
350
3D
  3
ByLayer
350
3C
  3
Global
350
3E
  0
DICTIONARY
  5
A4
102
{ACAD_REACTORS
330
C
102
}
330
C
100
AcDbDictionary
281
     1
  0
DICTIONARY
  5
17
102
{ACAD_REACTORS
330
C
102
}
330
C
100
AcDbDictionary
281
     1
  3
Standard
350
18
  0
DICTIONARY
  5
19
102
{ACAD_REACTORS
330
C
102
}
330
C
100
AcDbDictionary
281
     1
  0
ACDBDICTIONARYWDFLT
  5
E
102
{ACAD_REACTORS
330
C
102
}
330
C
100
AcDbDictionary
281
     1
  3
Normal
350
F
100
AcDbDictionaryWithDefault
340
F
  0
DICTIONARY
  5
A3
102
{ACAD_REACTORS
330
C
102
}
330
C
100
AcDbDictionary
281
     1
  0
DICTIONARY
  5
2A
102
{ACAD_REACTORS
330
C
102
}
330
C
100
AcDbDictionary
281
     1
  3
2dWireframe
350
2F
  3
3D Hidden
350
31
  3
3dWireframe
350
30
  3
Basic
350
32
  3
Brighten
350
36
  3
ColorChange
350
3A
  3
Conceptual
350
34
  3
Dim
350
35
  3
Facepattern
350
39
  3
Flat
350
2B
  3
FlatWithEdges
350
2C
  3
Gouraud
350
2D
  3
GouraudWithEdges
350
2E
  3
Linepattern
350
38
  3
Realistic
350
33
  3
Thicken
350
37
  0
LAYOUT
  5
1E
102
{ACAD_REACTORS
330
1A
102
}
330
1A
100
AcDbPlotSettings
  1

  2
none_device
  4

  6

 40
0.0
 41
0.0
 42
0.0
 43
0.0
 44
0.0
 45
0.0
 46
0.0
 47
0.0
 48
0.0
 49
0.0
140
0.0
141
0.0
142
1.0
143
1.0
 70
   688
 72
     0
 73
     0
 74
     5
  7

 75
    16
 76
     0
 77
     2
 78
   300
147
1.0
148
0.0
149
0.0
100
AcDbLayout
  1
Layout1
 70
     1
 71
     1
 10
0.0
 20
0.0
 11
12.0
 21
9.0
 12
0.0
 22
0.0
 32
0.0
 14
1.000000000000000E+20
 24
1.000000000000000E+20
 34
1.000000000000000E+20
 15
-1.000000000000000E+20
 25
-1.000000000000000E+20
 35
-1.000000000000000E+20
146
0.0
 13
0.0
 23
0.0
 33
0.0
 16
1.0
 26
0.0
 36
0.0
 17
0.0
 27
1.0
 37
0.0
 76
     0
330
1B
  0
LAYOUT
  5
26
102
{ACAD_REACTORS
330
1A
102
}
330
1A
100
AcDbPlotSettings
  1

  2
none_device
  4

  6

 40
0.0
 41
0.0
 42
0.0
 43
0.0
 44
0.0
 45
0.0
 46
0.0
 47
0.0
 48
0.0
 49
0.0
140
0.0
141
0.0
142
1.0
143
1.0
 70
   688
 72
     0
 73
     0
 74
     5
  7

 75
    16
 76
     0
 77
     2
 78
   300
147
1.0
148
0.0
149
0.0
100
AcDbLayout
  1
Layout2
 70
     1
 71
     2
 10
0.0
 20
0.0
 11
0.0
 21
0.0
 12
0.0
 22
0.0
 32
0.0
 14
0.0
 24
0.0
 34
0.0
 15
0.0
 25
0.0
 35
0.0
146
0.0
 13
0.0
 23
0.0
 33
0.0
 16
1.0
 26
0.0
 36
0.0
 17
0.0
 27
1.0
 37
0.0
 76
     0
330
23
  0
LAYOUT
  5
22
102
{ACAD_REACTORS
330
1A
102
}
330
1A
100
AcDbPlotSettings
  1

  2
none_device
  4

  6

 40
0.0
 41
0.0
 42
0.0
 43
0.0
 44
0.0
 45
0.0
 46
0.0
 47
0.0
 48
0.0
 49
0.0
140
0.0
141
0.0
142
1.0
143
1.0
 70
  1712
 72
     0
 73
     0
 74
     0
  7

 75
     0
 76
     0
 77
     2
 78
   300
147
1.0
148
0.0
149
0.0
100
AcDbLayout
  1
Model
 70
     1
 71
     0
 10
0.0
 20
0.0
 11
12.0
 21
9.0
 12
0.0
 22
0.0
 32
0.0
 14
-187.461
 24
-61.1993
 34
0.0
 15
196.32
 25
83.4298
 35
0.0
146
0.0
 13
0.0
 23
0.0
 33
0.0
 16
1.0
 26
0.0
 36
0.0
 17
0.0
 27
1.0
 37
0.0
 76
     0
330
1F
331
29
  0
MATERIAL
  5
3D
102
{ACAD_REACTORS
330
3B
102
}
330
3B
100
AcDbMaterial
  1
ByBlock
 72
     1
 94
      127
  0
MATERIAL
  5
3C
102
{ACAD_REACTORS
330
3B
102
}
330
3B
100
AcDbMaterial
  1
ByLayer
 72
     1
 94
      127
  0
MATERIAL
  5
3E
102
{ACAD_REACTORS
330
3B
102
}
330
3B
100
AcDbMaterial
  1
Global
 72
     1
 94
      127
  0
MLINESTYLE
  5
18
102
{ACAD_REACTORS
330
17
102
}
330
17
100
AcDbMlineStyle
  2
Standard
 70
     0
  3

 62
   256
 51
90.0
 52
90.0
 71
     2
 49
0.5
 62
   256
  6
BYLAYER
 49
-0.5
 62
   256
  6
BYLAYER
  0
ACDBPLACEHOLDER
  5
F
102
{ACAD_REACTORS
330
E
102
}
330
E
  0
VISUALSTYLE
  5
2F
102
{ACAD_REACTORS
330
2A
102
}
102
{ACAD_XDICTIONARY
360
8B
102
}
330
2A
100
AcDbVisualStyle
  2
2dWireframe
 70
     4
 71
     0
 72
     2
 73
     0
 90
        0
 40
-0.6
 41
-30.0
 62
     5
 63
     7
421
 16777215
 74
     1
 91
        4
 64
     7
 65
   257
 75
     1
175
     1
 42
1.0
 92
        0
 66
   257
 43
1.0
 76
     1
 77
     6
 78
     2
 67
     7
 79
     5
170
     0
171
     0
290
     0
174
     0
 93
        1
 44
0.0
173
     0
291
     0
 45
0.0
  0
VISUALSTYLE
  5
31
102
{ACAD_REACTORS
330
2A
102
}
102
{ACAD_XDICTIONARY
360
8F
102
}
330
2A
100
AcDbVisualStyle
  2
3D Hidden
 70
     6
 71
     1
 72
     2
 73
     2
 90
        0
 40
-0.6
 41
-30.0
 62
     5
 63
     7
421
 16777215
 74
     2
 91
        2
 64
     7
 65
   257
 75
     2
175
     1
 42
40.0
 92
        0
 66
   257
 43
1.0
 76
     1
 77
     6
 78
     2
 67
     7
 79
     3
170
     0
171
     0
290
     0
174
     0
 93
        1
 44
0.0
173
     0
291
     0
 45
0.0
  0
VISUALSTYLE
  5
30
102
{ACAD_REACTORS
330
2A
102
}
102
{ACAD_XDICTIONARY
360
8D
102
}
330
2A
100
AcDbVisualStyle
  2
3dWireframe
 70
     5
 71
     0
 72
     2
 73
     0
 90
        0
 40
-0.6
 41
-30.0
 62
     5
 63
     7
421
 16777215
 74
     1
 91
        4
 64
     7
 65
   257
 75
     1
175
     1
 42
1.0
 92
        0
 66
   257
 43
1.0
 76
     1
 77
     6
 78
     2
 67
     7
 79
     5
170
     0
171
     0
290
     0
174
     0
 93
        1
 44
0.0
173
     0
291
     0
 45
0.0
  0
VISUALSTYLE
  5
32
102
{ACAD_REACTORS
330
2A
102
}
102
{ACAD_XDICTIONARY
360
91
102
}
330
2A
100
AcDbVisualStyle
  2
Basic
 70
     7
 71
     1
 72
     0
 73
     1
 90
        0
 40
-0.6
 41
-30.0
 62
     5
 63
     7
421
 16777215
 74
     0
 91
        4
 64
     7
 65
   257
 75
     1
175
     1
 42
1.0
 92
        8
 66
     7
 43
1.0
 76
     1
 77
     6
 78
     2
 67
     7
 79
     5
170
     0
171
     0
290
     0
174
     0
 93
        1
 44
0.0
173
     0
291
     1
 45
0.0
  0
VISUALSTYLE
  5
36
102
{ACAD_REACTORS
330
2A
102
}
102
{ACAD_XDICTIONARY
360
99
102
}
330
2A
100
AcDbVisualStyle
  2
Brighten
 70
    12
 71
     2
 72
     2
 73
     0
 90
        0
 40
-0.6
 41
-30.0
 62
     5
 63
     7
421
 16777215
 74
     1
 91
        4
 64
     7
 65
   257
 75
     1
175
     1
 42
1.0
 92
        8
 66
     7
 43
1.0
 76
     1
 77
     6
 78
     2
 67
     7
 79
     5
170
     0
171
     0
290
     0
174
     0
 93
        1
 44
50.0
173
     0
291
     1
 45
0.0
  0
VISUALSTYLE
  5
3A
102
{ACAD_REACTORS
330
2A
102
}
102
{ACAD_XDICTIONARY
360
A1
102
}
330
2A
100
AcDbVisualStyle
  2
ColorChange
 70
    16
 71
     2
 72
     2
 73
     3
 90
        0
 40
-0.6
 41
-30.0
 62
     5
 63
     8
421
  8421504
 74
     1
 91
        4
 64
     7
 65
   257
 75
     1
175
     1
 42
1.0
 92
        8
 66
     8
424
  8421504
 43
1.0
 76
     1
 77
     6
 78
     2
 67
     7
 79
     5
170
     0
171
     0
290
     0
174
     0
 93
        1
 44
0.0
173
     0
291
     1
 45
0.0
  0
VISUALSTYLE
  5
34
102
{ACAD_REACTORS
330
2A
102
}
102
{ACAD_XDICTIONARY
360
95
102
}
330
2A
100
AcDbVisualStyle
  2
Conceptual
 70
     9
 71
     3
 72
     2
 73
     0
 90
        0
 40
-0.6
 41
-30.0
 62
     5
 63
     7
421
 16777215
 74
     2
 91
        2
 64
     7
 65
   257
 75
     1
175
     1
 42
40.0
 92
        8
 66
     7
 43
1.0
 76
     1
 77
     6
 78
     2
 67
     7
 79
     3
170
     0
171
     0
290
     0
174
     0
 93
        1
 44
0.0
173
     0
291
     0
 45
0.0
  0
VISUALSTYLE
  5
35
102
{ACAD_REACTORS
330
2A
102
}
102
{ACAD_XDICTIONARY
360
97
102
}
330
2A
100
AcDbVisualStyle
  2
Dim
 70
    11
 71
     2
 72
     2
 73
     0
 90
        0
 40
-0.6
 41
-30.0
 62
     5
 63
     7
421
 16777215
 74
     1
 91
        4
 64
     7
 65
   257
 75
     1
175
     1
 42
1.0
 92
        8
 66
     7
 43
1.0
 76
     1
 77
     6
 78
     2
 67
     7
 79
     5
170
     0
171
     0
290
     0
174
     0
 93
        1
 44
-50.0
173
     0
291
     1
 45
0.0
  0
VISUALSTYLE
  5
39
102
{ACAD_REACTORS
330
2A
102
}
102
{ACAD_XDICTIONARY
360
9F
102
}
330
2A
100
AcDbVisualStyle
  2
Facepattern
 70
    15
 71
     2
 72
     2
 73
     0
 90
        0
 40
-0.6
 41
-30.0
 62
     5
 63
     7
421
 16777215
 74
     1
 91
        4
 64
     7
 65
   257
 75
     1
175
     1
 42
1.0
 92
        8
 66
     7
 43
1.0
 76
     1
 77
     6
 78
     2
 67
     7
 79
     5
170
     0
171
     0
290
     0
174
     0
 93
        1
 44
0.0
173
     0
291
     1
 45
0.0
  0
VISUALSTYLE
  5
2B
102
{ACAD_REACTORS
330
2A
102
}
102
{ACAD_XDICTIONARY
360
83
102
}
330
2A
100
AcDbVisualStyle
  2
Flat
 70
     0
 71
     2
 72
     1
 73
     1
 90
        2
 40
-0.6
 41
30.0
 62
     5
 63
     7
421
 16777215
 74
     0
 91
        4
 64
     7
 65
   257
 75
     1
175
     1
 42
1.0
 92
        8
 66
     7
 43
1.0
 76
     1
 77
     6
 78
     2
 67
     7
 79
     5
170
     0
171
     0
290
     0
174
     0
 93
       13
 44
0.0
173
     0
291
     1
 45
0.0
  0
VISUALSTYLE
  5
2C
102
{ACAD_REACTORS
330
2A
102
}
102
{ACAD_XDICTIONARY
360
85
102
}
330
2A
100
AcDbVisualStyle
  2
FlatWithEdges
 70
     1
 71
     2
 72
     1
 73
     1
 90
        2
 40
-0.6
 41
30.0
 62
     5
 63
     7
421
 16777215
 74
     1
 91
        4
 64
     7
 65
   257
 75
     1
175
     1
 42
1.0
 92
        0
 66
   257
 43
1.0
 76
     1
 77
     6
 78
     2
 67
     7
 79
     5
170
     0
171
     0
290
     0
174
     0
 93
       13
 44
0.0
173
     0
291
     1
 45
0.0
  0
VISUALSTYLE
  5
2D
102
{ACAD_REACTORS
330
2A
102
}
102
{ACAD_XDICTIONARY
360
87
102
}
330
2A
100
AcDbVisualStyle
  2
Gouraud
 70
     2
 71
     2
 72
     2
 73
     1
 90
        2
 40
-0.6
 41
30.0
 62
     5
 63
     7
421
 16777215
 74
     0
 91
        4
 64
     7
 65
   257
 75
     1
175
     1
 42
1.0
 92
        0
 66
     7
 43
1.0
 76
     1
 77
     6
 78
     2
 67
     7
 79
     5
170
     0
171
     0
290
     0
174
     0
 93
       13
 44
0.0
173
     0
291
     1
 45
0.0
  0
VISUALSTYLE
  5
2E
102
{ACAD_REACTORS
330
2A
102
}
102
{ACAD_XDICTIONARY
360
89
102
}
330
2A
100
AcDbVisualStyle
  2
GouraudWithEdges
 70
     3
 71
     2
 72
     2
 73
     1
 90
        2
 40
-0.6
 41
30.0
 62
     5
 63
     7
421
 16777215
 74
     1
 91
        4
 64
     7
 65
   257
 75
     1
175
     1
 42
1.0
 92
        0
 66
   257
 43
1.0
 76
     1
 77
     6
 78
     2
 67
     7
 79
     5
170
     0
171
     0
290
     0
174
     0
 93
       13
 44
0.0
173
     0
291
     1
 45
0.0
  0
VISUALSTYLE
  5
38
102
{ACAD_REACTORS
330
2A
102
}
102
{ACAD_XDICTIONARY
360
9D
102
}
330
2A
100
AcDbVisualStyle
  2
Linepattern
 70
    14
 71
     2
 72
     2
 73
     0
 90
        0
 40
-0.6
 41
-30.0
 62
     5
 63
     7
421
 16777215
 74
     1
 91
        4
 64
     7
 65
   257
 75
     7
175
     7
 42
1.0
 92
        8
 66
     7
 43
1.0
 76
     1
 77
     6
 78
     2
 67
     7
 79
     5
170
     0
171
     0
290
     0
174
     0
 93
        1
 44
0.0
173
     0
291
     1
 45
0.0
  0
VISUALSTYLE
  5
33
102
{ACAD_REACTORS
330
2A
102
}
102
{ACAD_XDICTIONARY
360
93
102
}
330
2A
100
AcDbVisualStyle
  2
Realistic
 70
     8
 71
     2
 72
     2
 73
     0
 90
        0
 40
-0.6
 41
-30.0
 62
     5
 63
     7
421
 16777215
 74
     1
 91
        0
 64
     7
 65
   257
 75
     1
175
     1
 42
1.0
 92
        8
 66
     8
424
  7895160
 43
1.0
 76
     1
 77
     6
 78
     2
 67
     7
 79
     5
170
     0
171
     0
290
     0
174
     0
 93
       13
 44
0.0
173
     0
291
     0
 45
0.0
  0
VISUALSTYLE
  5
37
102
{ACAD_REACTORS
330
2A
102
}
102
{ACAD_XDICTIONARY
360
9B
102
}
330
2A
100
AcDbVisualStyle
  2
Thicken
 70
    13
 71
     2
 72
     2
 73
     0
 90
        0
 40
-0.6
 41
-30.0
 62
     5
 63
     7
421
 16777215
 74
     1
 91
        4
 64
     7
 65
   257
 75
     1
175
     1
 42
1.0
 92
       12
 66
     7
 43
1.0
 76
     1
 77
     6
 78
     2
 67
     7
 79
     5
170
     0
171
     0
290
     0
174
     0
 93
        1
 44
0.0
173
     0
291
     1
 45
0.0
  0
DICTIONARY
  5
8B
330
2F
100
AcDbDictionary
280
     1
281
     1
  3
ACAD_XREC_ROUNDTRIP
360
8C
  0
DICTIONARY
  5
8F
330
31
100
AcDbDictionary
280
     1
281
     1
  3
ACAD_XREC_ROUNDTRIP
360
90
  0
DICTIONARY
  5
8D
330
30
100
AcDbDictionary
280
     1
281
     1
  3
ACAD_XREC_ROUNDTRIP
360
8E
  0
DICTIONARY
  5
91
330
32
100
AcDbDictionary
280
     1
281
     1
  3
ACAD_XREC_ROUNDTRIP
360
92
  0
DICTIONARY
  5
99
330
36
100
AcDbDictionary
280
     1
281
     1
  3
ACAD_XREC_ROUNDTRIP
360
9A
  0
DICTIONARY
  5
A1
330
3A
100
AcDbDictionary
280
     1
281
     1
  3
ACAD_XREC_ROUNDTRIP
360
A2
  0
DICTIONARY
  5
95
330
34
100
AcDbDictionary
280
     1
281
     1
  3
ACAD_XREC_ROUNDTRIP
360
96
  0
DICTIONARY
  5
97
330
35
100
AcDbDictionary
280
     1
281
     1
  3
ACAD_XREC_ROUNDTRIP
360
98
  0
DICTIONARY
  5
9F
330
39
100
AcDbDictionary
280
     1
281
     1
  3
ACAD_XREC_ROUNDTRIP
360
A0
  0
DICTIONARY
  5
83
330
2B
100
AcDbDictionary
280
     1
281
     1
  3
ACAD_XREC_ROUNDTRIP
360
84
  0
DICTIONARY
  5
85
330
2C
100
AcDbDictionary
280
     1
281
     1
  3
ACAD_XREC_ROUNDTRIP
360
86
  0
DICTIONARY
  5
87
330
2D
100
AcDbDictionary
280
     1
281
     1
  3
ACAD_XREC_ROUNDTRIP
360
88
  0
DICTIONARY
  5
89
330
2E
100
AcDbDictionary
280
     1
281
     1
  3
ACAD_XREC_ROUNDTRIP
360
8A
  0
DICTIONARY
  5
9D
330
38
100
AcDbDictionary
280
     1
281
     1
  3
ACAD_XREC_ROUNDTRIP
360
9E
  0
DICTIONARY
  5
93
330
33
100
AcDbDictionary
280
     1
281
     1
  3
ACAD_XREC_ROUNDTRIP
360
94
  0
DICTIONARY
  5
9B
330
37
100
AcDbDictionary
280
     1
281
     1
  3
ACAD_XREC_ROUNDTRIP
360
9C
  0
XRECORD
  5
8C
102
{ACAD_REACTORS
330
8B
102
}
330
8B
100
AcDbXrecord
280
     1
102
RTVSPropertyOp0
 70
     1
102
RTVSPropertyOp1
 70
     1
102
RTVSPropertyOp2
 70
     1
102
RTVSPropertyOp3
 70
     1
102
RTVSPropertyOp4
 70
     1
102
RTVSPropertyOp5
 70
     1
102
RTVSPropertyOp6
 70
     1
102
RTVSPropertyOp7
 70
     1
102
RTVSPropertyOp8
 70
     1
102
RTVSPropertyOp9
 70
     1
102
RTVSPropertyOp10
 70
     1
102
RTVSPropertyOp11
 70
     1
102
RTVSPropertyOp12
 70
     1
102
RTVSPropertyOp13
 70
     1
102
RTVSPropertyOp14
 70
     1
102
RTVSPropertyOp15
 70
     1
102
RTVSPropertyOp16
 70
     1
102
RTVSPropertyOp17
 70
     1
102
RTVSPropertyOp18
 70
     1
102
RTVSPropertyOp19
 70
     1
102
RTVSPropertyOp20
 70
     1
102
RTVSPropertyOp21
 70
     1
102
RTVSPropertyOp22
 70
     1
102
RTVSPropertyOp23
 70
     1
102
RTVSPropertyOp24
 70
     1
102
RTVSPropertyOp25
 70
     1
102
RTVSPropertyOp26
 70
     1
102
RTVSPropertyOp27
 70
     1
102
RTVSPropertyOp28
 70
     1
102
RTVSPropertyOp29
 70
     1
102
RTVSPropertyOp30
 70
     1
102
RTVSPropertyOp31
 70
     1
102
RTVSPropertyOp32
 70
     1
  0
XRECORD
  5
90
102
{ACAD_REACTORS
330
8F
102
}
330
8F
100
AcDbXrecord
280
     1
102
RTVSPropertyOp0
 70
     1
102
RTVSPropertyOp1
 70
     1
102
RTVSPropertyOp2
 70
     1
102
RTVSPropertyOp3
 70
     1
102
RTVSPropertyOp4
 70
     1
102
RTVSPropertyOp5
 70
     1
102
RTVSPropertyOp6
 70
     1
102
RTVSPropertyOp7
 70
     1
102
RTVSPropertyOp8
 70
     1
102
RTVSPropertyOp9
 70
     1
102
RTVSPropertyOp10
 70
     1
102
RTVSPropertyOp11
 70
     1
102
RTVSPropertyOp12
 70
     1
102
RTVSPropertyOp13
 70
     1
102
RTVSPropertyOp14
 70
     1
102
RTVSPropertyOp15
 70
     1
102
RTVSPropertyOp16
 70
     1
102
RTVSPropertyOp17
 70
     1
102
RTVSPropertyOp18
 70
     1
102
RTVSPropertyOp19
 70
     1
102
RTVSPropertyOp20
 70
     1
102
RTVSPropertyOp21
 70
     1
102
RTVSPropertyOp22
 70
     1
102
RTVSPropertyOp23
 70
     1
102
RTVSPropertyOp24
 70
     1
102
RTVSPropertyOp25
 70
     1
102
RTVSPropertyOp26
 70
     1
102
RTVSPropertyOp27
 70
     1
102
RTVSPropertyOp28
 70
     1
102
RTVSPropertyOp29
 70
     1
102
RTVSPropertyOp30
 70
     1
102
RTVSPropertyOp31
 70
     1
102
RTVSPropertyOp32
 70
     1
  0
XRECORD
  5
8E
102
{ACAD_REACTORS
330
8D
102
}
330
8D
100
AcDbXrecord
280
     1
102
RTVSPropertyOp0
 70
     1
102
RTVSPropertyOp1
 70
     1
102
RTVSPropertyOp2
 70
     1
102
RTVSPropertyOp3
 70
     1
102
RTVSPropertyOp4
 70
     1
102
RTVSPropertyOp5
 70
     1
102
RTVSPropertyOp6
 70
     1
102
RTVSPropertyOp7
 70
     1
102
RTVSPropertyOp8
 70
     1
102
RTVSPropertyOp9
 70
     1
102
RTVSPropertyOp10
 70
     1
102
RTVSPropertyOp11
 70
     1
102
RTVSPropertyOp12
 70
     1
102
RTVSPropertyOp13
 70
     1
102
RTVSPropertyOp14
 70
     1
102
RTVSPropertyOp15
 70
     1
102
RTVSPropertyOp16
 70
     1
102
RTVSPropertyOp17
 70
     1
102
RTVSPropertyOp18
 70
     1
102
RTVSPropertyOp19
 70
     1
102
RTVSPropertyOp20
 70
     1
102
RTVSPropertyOp21
 70
     1
102
RTVSPropertyOp22
 70
     1
102
RTVSPropertyOp23
 70
     1
102
RTVSPropertyOp24
 70
     1
102
RTVSPropertyOp25
 70
     1
102
RTVSPropertyOp26
 70
     1
102
RTVSPropertyOp27
 70
     1
102
RTVSPropertyOp28
 70
     1
102
RTVSPropertyOp29
 70
     1
102
RTVSPropertyOp30
 70
     1
102
RTVSPropertyOp31
 70
     1
102
RTVSPropertyOp32
 70
     1
  0
XRECORD
  5
92
102
{ACAD_REACTORS
330
91
102
}
330
91
100
AcDbXrecord
280
     1
102
RTVSPropertyOp0
 70
     1
102
RTVSPropertyOp1
 70
     1
102
RTVSPropertyOp2
 70
     1
102
RTVSPropertyOp3
 70
     1
102
RTVSPropertyOp4
 70
     1
102
RTVSPropertyOp5
 70
     1
102
RTVSPropertyOp6
 70
     1
102
RTVSPropertyOp7
 70
     1
102
RTVSPropertyOp8
 70
     1
102
RTVSPropertyOp9
 70
     1
102
RTVSPropertyOp10
 70
     1
102
RTVSPropertyOp11
 70
     1
102
RTVSPropertyOp12
 70
     1
102
RTVSPropertyOp13
 70
     1
102
RTVSPropertyOp14
 70
     1
102
RTVSPropertyOp15
 70
     1
102
RTVSPropertyOp16
 70
     1
102
RTVSPropertyOp17
 70
     1
102
RTVSPropertyOp18
 70
     1
102
RTVSPropertyOp19
 70
     1
102
RTVSPropertyOp20
 70
     1
102
RTVSPropertyOp21
 70
     1
102
RTVSPropertyOp22
 70
     1
102
RTVSPropertyOp23
 70
     1
102
RTVSPropertyOp24
 70
     1
102
RTVSPropertyOp25
 70
     1
102
RTVSPropertyOp26
 70
     1
102
RTVSPropertyOp27
 70
     1
102
RTVSPropertyOp28
 70
     1
102
RTVSPropertyOp29
 70
     1
102
RTVSPropertyOp30
 70
     1
102
RTVSPropertyOp31
 70
     1
102
RTVSPropertyOp32
 70
     1
  0
XRECORD
  5
9A
102
{ACAD_REACTORS
330
99
102
}
330
99
100
AcDbXrecord
280
     1
102
RTVSPropertyOp0
 70
     1
102
RTVSPropertyOp1
 70
     1
102
RTVSPropertyOp2
 70
     1
102
RTVSPropertyOp3
 70
     1
102
RTVSPropertyOp4
 70
     1
102
RTVSPropertyOp5
 70
     1
102
RTVSPropertyOp6
 70
     1
102
RTVSPropertyOp7
 70
     1
102
RTVSPropertyOp8
 70
     1
102
RTVSPropertyOp9
 70
     1
102
RTVSPropertyOp10
 70
     1
102
RTVSPropertyOp11
 70
     1
102
RTVSPropertyOp12
 70
     1
102
RTVSPropertyOp13
 70
     1
102
RTVSPropertyOp14
 70
     1
102
RTVSPropertyOp15
 70
     1
102
RTVSPropertyOp16
 70
     1
102
RTVSPropertyOp17
 70
     1
102
RTVSPropertyOp18
 70
     1
102
RTVSPropertyOp19
 70
     1
102
RTVSPropertyOp20
 70
     1
102
RTVSPropertyOp21
 70
     1
102
RTVSPropertyOp22
 70
     1
102
RTVSPropertyOp23
 70
     1
102
RTVSPropertyOp24
 70
     1
102
RTVSPropertyOp25
 70
     1
102
RTVSPropertyOp26
 70
     1
102
RTVSPropertyOp27
 70
     1
102
RTVSPropertyOp28
 70
     1
102
RTVSPropertyOp29
 70
     1
102
RTVSPropertyOp30
 70
     1
102
RTVSPropertyOp31
 70
     1
102
RTVSPropertyOp32
 70
     1
  0
XRECORD
  5
A2
102
{ACAD_REACTORS
330
A1
102
}
330
A1
100
AcDbXrecord
280
     1
102
RTVSPropertyOp0
 70
     1
102
RTVSPropertyOp1
 70
     1
102
RTVSPropertyOp2
 70
     1
102
RTVSPropertyOp3
 70
     1
102
RTVSPropertyOp4
 70
     1
102
RTVSPropertyOp5
 70
     1
102
RTVSPropertyOp6
 70
     1
102
RTVSPropertyOp7
 70
     1
102
RTVSPropertyOp8
 70
     1
102
RTVSPropertyOp9
 70
     1
102
RTVSPropertyOp10
 70
     1
102
RTVSPropertyOp11
 70
     1
102
RTVSPropertyOp12
 70
     1
102
RTVSPropertyOp13
 70
     1
102
RTVSPropertyOp14
 70
     1
102
RTVSPropertyOp15
 70
     1
102
RTVSPropertyOp16
 70
     1
102
RTVSPropertyOp17
 70
     1
102
RTVSPropertyOp18
 70
     1
102
RTVSPropertyOp19
 70
     1
102
RTVSPropertyOp20
 70
     1
102
RTVSPropertyOp21
 70
     1
102
RTVSPropertyOp22
 70
     1
102
RTVSPropertyOp23
 70
     1
102
RTVSPropertyOp24
 70
     1
102
RTVSPropertyOp25
 70
     1
102
RTVSPropertyOp26
 70
     1
102
RTVSPropertyOp27
 70
     1
102
RTVSPropertyOp28
 70
     1
102
RTVSPropertyOp29
 70
     1
102
RTVSPropertyOp30
 70
     1
102
RTVSPropertyOp31
 70
     1
102
RTVSPropertyOp32
 70
     1
  0
XRECORD
  5
96
102
{ACAD_REACTORS
330
95
102
}
330
95
100
AcDbXrecord
280
     1
102
RTVSPropertyOp0
 70
     1
102
RTVSPropertyOp1
 70
     1
102
RTVSPropertyOp2
 70
     1
102
RTVSPropertyOp3
 70
     1
102
RTVSPropertyOp4
 70
     1
102
RTVSPropertyOp5
 70
     1
102
RTVSPropertyOp6
 70
     1
102
RTVSPropertyOp7
 70
     1
102
RTVSPropertyOp8
 70
     1
102
RTVSPropertyOp9
 70
     1
102
RTVSPropertyOp10
 70
     1
102
RTVSPropertyOp11
 70
     1
102
RTVSPropertyOp12
 70
     1
102
RTVSPropertyOp13
 70
     1
102
RTVSPropertyOp14
 70
     1
102
RTVSPropertyOp15
 70
     1
102
RTVSPropertyOp16
 70
     1
102
RTVSPropertyOp17
 70
     1
102
RTVSPropertyOp18
 70
     1
102
RTVSPropertyOp19
 70
     1
102
RTVSPropertyOp20
 70
     1
102
RTVSPropertyOp21
 70
     1
102
RTVSPropertyOp22
 70
     1
102
RTVSPropertyOp23
 70
     1
102
RTVSPropertyOp24
 70
     1
102
RTVSPropertyOp25
 70
     1
102
RTVSPropertyOp26
 70
     1
102
RTVSPropertyOp27
 70
     1
102
RTVSPropertyOp28
 70
     1
102
RTVSPropertyOp29
 70
     1
102
RTVSPropertyOp30
 70
     1
102
RTVSPropertyOp31
 70
     1
102
RTVSPropertyOp32
 70
     1
  0
XRECORD
  5
98
102
{ACAD_REACTORS
330
97
102
}
330
97
100
AcDbXrecord
280
     1
102
RTVSPropertyOp0
 70
     1
102
RTVSPropertyOp1
 70
     1
102
RTVSPropertyOp2
 70
     1
102
RTVSPropertyOp3
 70
     1
102
RTVSPropertyOp4
 70
     1
102
RTVSPropertyOp5
 70
     1
102
RTVSPropertyOp6
 70
     1
102
RTVSPropertyOp7
 70
     1
102
RTVSPropertyOp8
 70
     1
102
RTVSPropertyOp9
 70
     1
102
RTVSPropertyOp10
 70
     1
102
RTVSPropertyOp11
 70
     1
102
RTVSPropertyOp12
 70
     1
102
RTVSPropertyOp13
 70
     1
102
RTVSPropertyOp14
 70
     1
102
RTVSPropertyOp15
 70
     1
102
RTVSPropertyOp16
 70
     1
102
RTVSPropertyOp17
 70
     1
102
RTVSPropertyOp18
 70
     1
102
RTVSPropertyOp19
 70
     1
102
RTVSPropertyOp20
 70
     1
102
RTVSPropertyOp21
 70
     1
102
RTVSPropertyOp22
 70
     1
102
RTVSPropertyOp23
 70
     1
102
RTVSPropertyOp24
 70
     1
102
RTVSPropertyOp25
 70
     1
102
RTVSPropertyOp26
 70
     1
102
RTVSPropertyOp27
 70
     1
102
RTVSPropertyOp28
 70
     1
102
RTVSPropertyOp29
 70
     1
102
RTVSPropertyOp30
 70
     1
102
RTVSPropertyOp31
 70
     1
102
RTVSPropertyOp32
 70
     1
  0
XRECORD
  5
A0
102
{ACAD_REACTORS
330
9F
102
}
330
9F
100
AcDbXrecord
280
     1
102
RTVSPropertyOp0
 70
     1
102
RTVSPropertyOp1
 70
     1
102
RTVSPropertyOp2
 70
     1
102
RTVSPropertyOp3
 70
     1
102
RTVSPropertyOp4
 70
     1
102
RTVSPropertyOp5
 70
     1
102
RTVSPropertyOp6
 70
     1
102
RTVSPropertyOp7
 70
     1
102
RTVSPropertyOp8
 70
     1
102
RTVSPropertyOp9
 70
     1
102
RTVSPropertyOp10
 70
     1
102
RTVSPropertyOp11
 70
     1
102
RTVSPropertyOp12
 70
     1
102
RTVSPropertyOp13
 70
     1
102
RTVSPropertyOp14
 70
     1
102
RTVSPropertyOp15
 70
     1
102
RTVSPropertyOp16
 70
     1
102
RTVSPropertyOp17
 70
     1
102
RTVSPropertyOp18
 70
     1
102
RTVSPropertyOp19
 70
     1
102
RTVSPropertyOp20
 70
     1
102
RTVSPropertyOp21
 70
     1
102
RTVSPropertyOp22
 70
     1
102
RTVSPropertyOp23
 70
     1
102
RTVSPropertyOp24
 70
     1
102
RTVSPropertyOp25
 70
     1
102
RTVSPropertyOp26
 70
     1
102
RTVSPropertyOp27
 70
     1
102
RTVSPropertyOp28
 70
     1
102
RTVSPropertyOp29
 70
     1
102
RTVSPropertyOp30
 70
     1
102
RTVSPropertyOp31
 70
     1
102
RTVSPropertyOp32
 70
     1
  0
XRECORD
  5
84
102
{ACAD_REACTORS
330
83
102
}
330
83
100
AcDbXrecord
280
     1
102
RTVSPropertyOp0
 70
     1
102
RTVSPropertyOp1
 70
     1
102
RTVSPropertyOp2
 70
     1
102
RTVSPropertyOp3
 70
     1
102
RTVSPropertyOp4
 70
     1
102
RTVSPropertyOp5
 70
     1
102
RTVSPropertyOp6
 70
     1
102
RTVSPropertyOp7
 70
     1
102
RTVSPropertyOp8
 70
     1
102
RTVSPropertyOp9
 70
     1
102
RTVSPropertyOp10
 70
     1
102
RTVSPropertyOp11
 70
     1
102
RTVSPropertyOp12
 70
     1
102
RTVSPropertyOp13
 70
     1
102
RTVSPropertyOp14
 70
     1
102
RTVSPropertyOp15
 70
     1
102
RTVSPropertyOp16
 70
     1
102
RTVSPropertyOp17
 70
     1
102
RTVSPropertyOp18
 70
     1
102
RTVSPropertyOp19
 70
     1
102
RTVSPropertyOp20
 70
     1
102
RTVSPropertyOp21
 70
     1
102
RTVSPropertyOp22
 70
     1
102
RTVSPropertyOp23
 70
     1
102
RTVSPropertyOp24
 70
     1
102
RTVSPropertyOp25
 70
     1
102
RTVSPropertyOp26
 70
     1
102
RTVSPropertyOp27
 70
     1
102
RTVSPropertyOp28
 70
     1
102
RTVSPropertyOp29
 70
     1
102
RTVSPropertyOp30
 70
     1
102
RTVSPropertyOp31
 70
     1
102
RTVSPropertyOp32
 70
     1
  0
XRECORD
  5
86
102
{ACAD_REACTORS
330
85
102
}
330
85
100
AcDbXrecord
280
     1
102
RTVSPropertyOp0
 70
     1
102
RTVSPropertyOp1
 70
     1
102
RTVSPropertyOp2
 70
     1
102
RTVSPropertyOp3
 70
     1
102
RTVSPropertyOp4
 70
     1
102
RTVSPropertyOp5
 70
     1
102
RTVSPropertyOp6
 70
     1
102
RTVSPropertyOp7
 70
     1
102
RTVSPropertyOp8
 70
     1
102
RTVSPropertyOp9
 70
     1
102
RTVSPropertyOp10
 70
     1
102
RTVSPropertyOp11
 70
     1
102
RTVSPropertyOp12
 70
     1
102
RTVSPropertyOp13
 70
     1
102
RTVSPropertyOp14
 70
     1
102
RTVSPropertyOp15
 70
     1
102
RTVSPropertyOp16
 70
     1
102
RTVSPropertyOp17
 70
     1
102
RTVSPropertyOp18
 70
     1
102
RTVSPropertyOp19
 70
     1
102
RTVSPropertyOp20
 70
     1
102
RTVSPropertyOp21
 70
     1
102
RTVSPropertyOp22
 70
     1
102
RTVSPropertyOp23
 70
     1
102
RTVSPropertyOp24
 70
     1
102
RTVSPropertyOp25
 70
     1
102
RTVSPropertyOp26
 70
     1
102
RTVSPropertyOp27
 70
     1
102
RTVSPropertyOp28
 70
     1
102
RTVSPropertyOp29
 70
     1
102
RTVSPropertyOp30
 70
     1
102
RTVSPropertyOp31
 70
     1
102
RTVSPropertyOp32
 70
     1
  0
XRECORD
  5
88
102
{ACAD_REACTORS
330
87
102
}
330
87
100
AcDbXrecord
280
     1
102
RTVSPropertyOp0
 70
     1
102
RTVSPropertyOp1
 70
     1
102
RTVSPropertyOp2
 70
     1
102
RTVSPropertyOp3
 70
     1
102
RTVSPropertyOp4
 70
     1
102
RTVSPropertyOp5
 70
     1
102
RTVSPropertyOp6
 70
     1
102
RTVSPropertyOp7
 70
     1
102
RTVSPropertyOp8
 70
     1
102
RTVSPropertyOp9
 70
     1
102
RTVSPropertyOp10
 70
     1
102
RTVSPropertyOp11
 70
     1
102
RTVSPropertyOp12
 70
     1
102
RTVSPropertyOp13
 70
     1
102
RTVSPropertyOp14
 70
     1
102
RTVSPropertyOp15
 70
     1
102
RTVSPropertyOp16
 70
     1
102
RTVSPropertyOp17
 70
     1
102
RTVSPropertyOp18
 70
     1
102
RTVSPropertyOp19
 70
     1
102
RTVSPropertyOp20
 70
     1
102
RTVSPropertyOp21
 70
     1
102
RTVSPropertyOp22
 70
     1
102
RTVSPropertyOp23
 70
     1
102
RTVSPropertyOp24
 70
     1
102
RTVSPropertyOp25
 70
     1
102
RTVSPropertyOp26
 70
     1
102
RTVSPropertyOp27
 70
     1
102
RTVSPropertyOp28
 70
     1
102
RTVSPropertyOp29
 70
     1
102
RTVSPropertyOp30
 70
     1
102
RTVSPropertyOp31
 70
     1
102
RTVSPropertyOp32
 70
     1
  0
XRECORD
  5
8A
102
{ACAD_REACTORS
330
89
102
}
330
89
100
AcDbXrecord
280
     1
102
RTVSPropertyOp0
 70
     1
102
RTVSPropertyOp1
 70
     1
102
RTVSPropertyOp2
 70
     1
102
RTVSPropertyOp3
 70
     1
102
RTVSPropertyOp4
 70
     1
102
RTVSPropertyOp5
 70
     1
102
RTVSPropertyOp6
 70
     1
102
RTVSPropertyOp7
 70
     1
102
RTVSPropertyOp8
 70
     1
102
RTVSPropertyOp9
 70
     1
102
RTVSPropertyOp10
 70
     1
102
RTVSPropertyOp11
 70
     1
102
RTVSPropertyOp12
 70
     1
102
RTVSPropertyOp13
 70
     1
102
RTVSPropertyOp14
 70
     1
102
RTVSPropertyOp15
 70
     1
102
RTVSPropertyOp16
 70
     1
102
RTVSPropertyOp17
 70
     1
102
RTVSPropertyOp18
 70
     1
102
RTVSPropertyOp19
 70
     1
102
RTVSPropertyOp20
 70
     1
102
RTVSPropertyOp21
 70
     1
102
RTVSPropertyOp22
 70
     1
102
RTVSPropertyOp23
 70
     1
102
RTVSPropertyOp24
 70
     1
102
RTVSPropertyOp25
 70
     1
102
RTVSPropertyOp26
 70
     1
102
RTVSPropertyOp27
 70
     1
102
RTVSPropertyOp28
 70
     1
102
RTVSPropertyOp29
 70
     1
102
RTVSPropertyOp30
 70
     1
102
RTVSPropertyOp31
 70
     1
102
RTVSPropertyOp32
 70
     1
  0
XRECORD
  5
9E
102
{ACAD_REACTORS
330
9D
102
}
330
9D
100
AcDbXrecord
280
     1
102
RTVSPropertyOp0
 70
     1
102
RTVSPropertyOp1
 70
     1
102
RTVSPropertyOp2
 70
     1
102
RTVSPropertyOp3
 70
     1
102
RTVSPropertyOp4
 70
     1
102
RTVSPropertyOp5
 70
     1
102
RTVSPropertyOp6
 70
     1
102
RTVSPropertyOp7
 70
     1
102
RTVSPropertyOp8
 70
     1
102
RTVSPropertyOp9
 70
     1
102
RTVSPropertyOp10
 70
     1
102
RTVSPropertyOp11
 70
     1
102
RTVSPropertyOp12
 70
     1
102
RTVSPropertyOp13
 70
     1
102
RTVSPropertyOp14
 70
     1
102
RTVSPropertyOp15
 70
     1
102
RTVSPropertyOp16
 70
     1
102
RTVSPropertyOp17
 70
     1
102
RTVSPropertyOp18
 70
     1
102
RTVSPropertyOp19
 70
     1
102
RTVSPropertyOp20
 70
     1
102
RTVSPropertyOp21
 70
     1
102
RTVSPropertyOp22
 70
     1
102
RTVSPropertyOp23
 70
     1
102
RTVSPropertyOp24
 70
     1
102
RTVSPropertyOp25
 70
     1
102
RTVSPropertyOp26
 70
     1
102
RTVSPropertyOp27
 70
     1
102
RTVSPropertyOp28
 70
     1
102
RTVSPropertyOp29
 70
     1
102
RTVSPropertyOp30
 70
     1
102
RTVSPropertyOp31
 70
     1
102
RTVSPropertyOp32
 70
     1
  0
XRECORD
  5
94
102
{ACAD_REACTORS
330
93
102
}
330
93
100
AcDbXrecord
280
     1
102
RTVSPropertyOp0
 70
     1
102
RTVSPropertyOp1
 70
     1
102
RTVSPropertyOp2
 70
     1
102
RTVSPropertyOp3
 70
     1
102
RTVSPropertyOp4
 70
     1
102
RTVSPropertyOp5
 70
     1
102
RTVSPropertyOp6
 70
     1
102
RTVSPropertyOp7
 70
     1
102
RTVSPropertyOp8
 70
     1
102
RTVSPropertyOp9
 70
     1
102
RTVSPropertyOp10
 70
     1
102
RTVSPropertyOp11
 70
     1
102
RTVSPropertyOp12
 70
     1
102
RTVSPropertyOp13
 70
     1
102
RTVSPropertyOp14
 70
     1
102
RTVSPropertyOp15
 70
     1
102
RTVSPropertyOp16
 70
     1
102
RTVSPropertyOp17
 70
     1
102
RTVSPropertyOp18
 70
     1
102
RTVSPropertyOp19
 70
     1
102
RTVSPropertyOp20
 70
     1
102
RTVSPropertyOp21
 70
     1
102
RTVSPropertyOp22
 70
     1
102
RTVSPropertyOp23
 70
     1
102
RTVSPropertyOp24
 70
     1
102
RTVSPropertyOp25
 70
     1
102
RTVSPropertyOp26
 70
     1
102
RTVSPropertyOp27
 70
     1
102
RTVSPropertyOp28
 70
     1
102
RTVSPropertyOp29
 70
     1
102
RTVSPropertyOp30
 70
     1
102
RTVSPropertyOp31
 70
     1
102
RTVSPropertyOp32
 70
     1
  0
XRECORD
  5
9C
102
{ACAD_REACTORS
330
9B
102
}
330
9B
100
AcDbXrecord
280
     1
102
RTVSPropertyOp0
 70
     1
102
RTVSPropertyOp1
 70
     1
102
RTVSPropertyOp2
 70
     1
102
RTVSPropertyOp3
 70
     1
102
RTVSPropertyOp4
 70
     1
102
RTVSPropertyOp5
 70
     1
102
RTVSPropertyOp6
 70
     1
102
RTVSPropertyOp7
 70
     1
102
RTVSPropertyOp8
 70
     1
102
RTVSPropertyOp9
 70
     1
102
RTVSPropertyOp10
 70
     1
102
RTVSPropertyOp11
 70
     1
102
RTVSPropertyOp12
 70
     1
102
RTVSPropertyOp13
 70
     1
102
RTVSPropertyOp14
 70
     1
102
RTVSPropertyOp15
 70
     1
102
RTVSPropertyOp16
 70
     1
102
RTVSPropertyOp17
 70
     1
102
RTVSPropertyOp18
 70
     1
102
RTVSPropertyOp19
 70
     1
102
RTVSPropertyOp20
 70
     1
102
RTVSPropertyOp21
 70
     1
102
RTVSPropertyOp22
 70
     1
102
RTVSPropertyOp23
 70
     1
102
RTVSPropertyOp24
 70
     1
102
RTVSPropertyOp25
 70
     1
102
RTVSPropertyOp26
 70
     1
102
RTVSPropertyOp27
 70
     1
102
RTVSPropertyOp28
 70
     1
102
RTVSPropertyOp29
 70
     1
102
RTVSPropertyOp30
 70
     1
102
RTVSPropertyOp31
 70
     1
102
RTVSPropertyOp32
 70
     1
  0
ENDSEC
  0
EOF
