  0
SECTION
  2
HEADER
  9
$ACADVER
  1
AC1021
  9
$ACADMAINTVER
 70
    25
  9
$DWGCODEPAGE
  3
ANSI_1252
  9
$INSBASE
 10
0.0
 20
0.0
 30
0.0
  9
$EXTMIN
 10
108.0699
 20
-114.7416
 30
0.0
  9
$EXTMAX
 10
196.1641
 20
131.6758
 30
0.0
  9
$LIMMIN
 10
0.0
 20
0.0
  9
$LIMMAX
 10
12.0
 20
9.0
  9
$ORTHOMODE
 70
     0
  9
$REGENMODE
 70
     1
  9
$FILLMODE
 70
     1
  9
$QTEXTMODE
 70
     0
  9
$MIRRTEXT
 70
     1
  9
$LTSCALE
 40
1.0
  9
$ATTMODE
 70
     1
  9
$TEXTSIZE
 40
0.2
  9
$TRACEWID
 40
0.05
  9
$TEXTSTYLE
  7
Standard
  9
$CLAYER
  8
0
  9
$CELTYPE
  6
ByLayer
  9
$CECOLOR
 62
   256
  9
$CELTSCALE
 40
1.0
  9
$DISPSILH
 70
     0
  9
$DIMSCALE
 40
1.0
  9
$DIMASZ
 40
0.18
  9
$DIMEXO
 40
0.0625
  9
$DIMDLI
 40
0.38
  9
$DIMRND
 40
0.0
  9
$DIMDLE
 40
0.0
  9
$DIMEXE
 40
0.18
  9
$DIMTP
 40
0.0
  9
$DIMTM
 40
0.0
  9
$DIMTXT
 40
0.18
  9
$DIMCEN
 40
0.09
  9
$DIMTSZ
 40
0.0
  9
$DIMTOL
 70
     0
  9
$DIMLIM
 70
     0
  9
$DIMTIH
 70
     1
  9
$DIMTOH
 70
     1
  9
$DIMSE1
 70
     0
  9
$DIMSE2
 70
     0
  9
$DIMTAD
 70
     0
  9
$DIMZIN
 70
     0
  9
$DIMBLK
  1

  9
$DIMASO
 70
     1
  9
$DIMSHO
 70
     1
  9
$DIMPOST
  1

  9
$DIMAPOST
  1

  9
$DIMALT
 70
     0
  9
$DIMALTD
 70
     2
  9
$DIMALTF
 40
25.4
  9
$DIMLFAC
 40
1.0
  9
$DIMTOFL
 70
     0
  9
$DIMTVP
 40
0.0
  9
$DIMTIX
 70
     0
  9
$DIMSOXD
 70
     0
  9
$DIMSAH
 70
     0
  9
$DIMBLK1
  1

  9
$DIMBLK2
  1

  9
$DIMSTYLE
  2
Standard
  9
$DIMCLRD
 70
     0
  9
$DIMCLRE
 70
     0
  9
$DIMCLRT
 70
     0
  9
$DIMTFAC
 40
1.0
  9
$DIMGAP
 40
0.09
  9
$DIMJUST
 70
     0
  9
$DIMSD1
 70
     0
  9
$DIMSD2
 70
     0
  9
$DIMTOLJ
 70
     1
  9
$DIMTZIN
 70
     0
  9
$DIMALTZ
 70
     0
  9
$DIMALTTZ
 70
     0
  9
$DIMUPT
 70
     0
  9
$DIMDEC
 70
     4
  9
$DIMTDEC
 70
     4
  9
$DIMALTU
 70
     2
  9
$DIMALTTD
 70
     2
  9
$DIMTXSTY
  7
Standard
  9
$DIMAUNIT
 70
     0
  9
$DIMADEC
 70
     0
  9
$DIMALTRND
 40
0.0
  9
$DIMAZIN
 70
     0
  9
$DIMDSEP
 70
    46
  9
$DIMATFIT
 70
     3
  9
$DIMFRAC
 70
     0
  9
$DIMLDRBLK
  1

  9
$DIMLUNIT
 70
     2
  9
$DIMLWD
 70
    -2
  9
$DIMLWE
 70
    -2
  9
$DIMTMOVE
 70
     0
  9
$DIMFXL
 40
1.0
  9
$DIMFXLON
 70
     0
  9
$DIMJOGANG
 40
0.7853981633974483
  9
$DIMTFILL
 70
     0
  9
$DIMTFILLCLR
 70
     0
  9
$DIMARCSYM
 70
     0
  9
$DIMLTYPE
  6

  9
$DIMLTEX1
  6

  9
$DIMLTEX2
  6

  9
$LUNITS
 70
     2
  9
$LUPREC
 70
     4
  9
$SKETCHINC
 40
0.1
  9
$FILLETRAD
 40
0.5
  9
$AUNITS
 70
     0
  9
$AUPREC
 70
     0
  9
$MENU
  1
.
  9
$ELEVATION
 40
0.0
  9
$PELEVATION
 40
0.0
  9
$THICKNESS
 40
0.0
  9
$LIMCHECK
 70
     0
  9
$CHAMFERA
 40
0.5
  9
$CHAMFERB
 40
0.5
  9
$CHAMFERC
 40
1.0
  9
$CHAMFERD
 40
0.0
  9
$SKPOLY
 70
     0
  9
$TDCREATE
 40
2458493.664289456
  9
$TDUCREATE
 40
2458493.664289456
  9
$TDUPDATE
 40
2458493.664289699
  9
$TDUUPDATE
 40
2458493.664289699
  9
$TDINDWG
 40
0.0000000116
  9
$TDUSRTIMER
 40
0.0000000116
  9
$USRTIMER
 70
     1
  9
$ANGBASE
 50
0.0
  9
$ANGDIR
 70
     0
  9
$PDMODE
 70
     0
  9
$PDSIZE
 40
0.0
  9
$PLINEWID
 40
0.0
  9
$SPLFRAME
 70
     0
  9
$SPLINETYPE
 70
     6
  9
$SPLINESEGS
 70
     8
  9
$HANDSEED
  5
DD
  9
$SURFTAB1
 70
     6
  9
$SURFTAB2
 70
     6
  9
$SURFTYPE
 70
     6
  9
$SURFU
 70
     6
  9
$SURFV
 70
     6
  9
$UCSBASE
  2

  9
$UCSNAME
  2

  9
$UCSORG
 10
0.0
 20
0.0
 30
0.0
  9
$UCSXDIR
 10
1.0
 20
0.0
 30
0.0
  9
$UCSYDIR
 10
0.0
 20
1.0
 30
0.0
  9
$UCSORTHOREF
  2

  9
$UCSORTHOVIEW
 70
     0
  9
$UCSORGTOP
 10
0.0
 20
0.0
 30
0.0
  9
$UCSORGBOTTOM
 10
0.0
 20
0.0
 30
0.0
  9
$UCSORGLEFT
 10
0.0
 20
0.0
 30
0.0
  9
$UCSORGRIGHT
 10
0.0
 20
0.0
 30
0.0
  9
$UCSORGFRONT
 10
0.0
 20
0.0
 30
0.0
  9
$UCSORGBACK
 10
0.0
 20
0.0
 30
0.0
  9
$PUCSBASE
  2

  9
$PUCSNAME
  2

  9
$PUCSORG
 10
0.0
 20
0.0
 30
0.0
  9
$PUCSXDIR
 10
1.0
 20
0.0
 30
0.0
  9
$PUCSYDIR
 10
0.0
 20
1.0
 30
0.0
  9
$PUCSORTHOREF
  2

  9
$PUCSORTHOVIEW
 70
     0
  9
$PUCSORGTOP
 10
0.0
 20
0.0
 30
0.0
  9
$PUCSORGBOTTOM
 10
0.0
 20
0.0
 30
0.0
  9
$PUCSORGLEFT
 10
0.0
 20
0.0
 30
0.0
  9
$PUCSORGRIGHT
 10
0.0
 20
0.0
 30
0.0
  9
$PUCSORGFRONT
 10
0.0
 20
0.0
 30
0.0
  9
$PUCSORGBACK
 10
0.0
 20
0.0
 30
0.0
  9
$USERI1
 70
     0
  9
$USERI2
 70
     0
  9
$USERI3
 70
     0
  9
$USERI4
 70
     0
  9
$USERI5
 70
     0
  9
$USERR1
 40
0.0
  9
$USERR2
 40
0.0
  9
$USERR3
 40
0.0
  9
$USERR4
 40
0.0
  9
$USERR5
 40
0.0
  9
$WORLDVIEW
 70
     1
  9
$SHADEDGE
 70
     3
  9
$SHADEDIF
 70
    70
  9
$TILEMODE
 70
     1
  9
$MAXACTVP
 70
    64
  9
$PINSBASE
 10
0.0
 20
0.0
 30
0.0
  9
$PLIMCHECK
 70
     0
  9
$PEXTMIN
 10
1.000000000000000E+20
 20
1.000000000000000E+20
 30
1.000000000000000E+20
  9
$PEXTMAX
 10
-1.000000000000000E+20
 20
-1.000000000000000E+20
 30
-1.000000000000000E+20
  9
$PLIMMIN
 10
0.0
 20
0.0
  9
$PLIMMAX
 10
12.0
 20
9.0
  9
$UNITMODE
 70
     0
  9
$VISRETAIN
 70
     1
  9
$PLINEGEN
 70
     0
  9
$PSLTSCALE
 70
     1
  9
$TREEDEPTH
 70
  3020
  9
$CMLSTYLE
  2
Standard
  9
$CMLJUST
 70
     0
  9
$CMLSCALE
 40
1.0
  9
$PROXYGRAPHICS
 70
     1
  9
$MEASUREMENT
 70
     0
  9
$CELWEIGHT
370
    -1
  9
$ENDCAPS
280
     0
  9
$JOINSTYLE
280
     0
  9
$LWDISPLAY
290
     0
  9
$INSUNITS
 70
     4
  9
$HYPERLINKBASE
  1

  9
$STYLESHEET
  1

  9
$XEDIT
290
     1
  9
$CEPSNTYPE
380
     0
  9
$PSTYLEMODE
290
     1
  9
$FINGERPRINTGUID
  2
{75DC84A5-AC2D-415E-8959-C94F3F4D34BC}
  9
$VERSIONGUID
  2
{FAEB1C32-E019-11D5-929B-00C0DF256EC4}
  9
$EXTNAMES
290
     1
  9
$PSVPSCALE
 40
0.0
  9
$OLESTARTUP
290
     0
  9
$SORTENTS
280
   127
  9
$INDEXCTL
280
     0
  9
$HIDETEXT
280
     1
  9
$XCLIPFRAME
290
     0
  9
$HALOGAP
280
     0
  9
$OBSCOLOR
 70
   257
  9
$OBSLTYPE
280
     0
  9
$INTERSECTIONDISPLAY
280
     0
  9
$INTERSECTIONCOLOR
 70
   257
  9
$DIMASSOC
280
     2
  9
$PROJECTNAME
  1

  9
$CAMERADISPLAY
290
     0
  9
$LENSLENGTH
 40
50.0
  9
$CAMERAHEIGHT
 40
0.0
  9
$STEPSPERSEC
 40
2.0
  9
$STEPSIZE
 40
6.0
  9
$3DDWFPREC
 40
2.0
  9
$PSOLWIDTH
 40
0.25
  9
$PSOLHEIGHT
 40
4.0
  9
$LOFTANG1
 40
1.570796326794897
  9
$LOFTANG2
 40
1.570796326794897
  9
$LOFTMAG1
 40
0.0
  9
$LOFTMAG2
 40
0.0
  9
$LOFTPARAM
 70
     7
  9
$LOFTNORMALS
280
     1
  9
$LATITUDE
 40
37.795
  9
$LONGITUDE
 40
-122.394
  9
$NORTHDIRECTION
 40
0.0
  9
$TIMEZONE
 70
 -8000
  9
$LIGHTGLYPHDISPLAY
280
     1
  9
$TILEMODELIGHTSYNCH
280
     1
  9
$SOLIDHIST
280
     1
  9
$SHOWHIST
280
     1
  9
$DWFFRAME
280
     2
  9
$DGNFRAME
280
     2
  9
$REALWORLDSCALE
290
     1
  9
$INTERFERECOLOR
 62
   256
  9
$CSHADOW
280
     0
  9
$SHADOWPLANELOCATION
 40
0.0
  0
ENDSEC
  0
SECTION
  2
CLASSES
  0
CLASS
  1
ACDBDICTIONARYWDFLT
  2
AcDbDictionaryWithDefault
  3
ObjectDBX Classes
 90
        0
 91
        4
280
     0
281
     0
  0
CLASS
  1
VISUALSTYLE
  2
AcDbVisualStyle
  3
ObjectDBX Classes
 90
     4095
 91
        4
280
     0
281
     0
  0
CLASS
  1
MATERIAL
  2
AcDbMaterial
  3
ObjectDBX Classes
 90
     1153
 91
        4
280
     0
281
     0
  0
ENDSEC
  0
SECTION
  2
TABLES
  0
TABLE
  2
VPORT
  5
8
330
0
100
AcDbSymbolTable
 70
     1
  0
VPORT
  5
29
330
8
100
AcDbSymbolTableRecord
100
AcDbViewportTableRecord
  2
*Active
 70
     0
 10
0.0
 20
0.0
 11
1.0
 21
1.0
 12
10.42990654205607
 22
4.5
 13
0.0
 23
0.0
 14
0.5
 24
0.5
 15
0.5
 25
0.5
 16
0.0
 26
0.0
 36
1.0
 17
0.0
 27
0.0
 37
0.0
 40
9.0
 41
1.972972972850329
 42
50.0
 43
0.0
 44
0.0
 50
0.0
 51
0.0
 71
     0
 72
   100
 73
     1
 74
     3
 75
     0
 76
     0
 77
     0
 78
     0
281
     0
 65
     1
110
0.0
120
0.0
130
0.0
111
1.0
121
0.0
131
0.0
112
0.0
122
1.0
132
0.0
 79
     0
146
0.0
 60
     3
 61
     5
292
     1
282
     1
141
0.0
142
0.0
 63
   250
  0
ENDTAB
  0
TABLE
  2
LTYPE
  5
5
330
0
100
AcDbSymbolTable
 70
     1
  0
LTYPE
  5
14
330
5
100
AcDbSymbolTableRecord
100
AcDbLinetypeTableRecord
  2
ByBlock
 70
     0
  3

 72
    65
 73
     0
 40
0.0
  0
LTYPE
  5
15
330
5
100
AcDbSymbolTableRecord
100
AcDbLinetypeTableRecord
  2
ByLayer
 70
     0
  3

 72
    65
 73
     0
 40
0.0
  0
LTYPE
  5
16
330
5
100
AcDbSymbolTableRecord
100
AcDbLinetypeTableRecord
  2
Continuous
 70
     0
  3
Solid line
 72
    65
 73
     0
 40
0.0
  0
ENDTAB
  0
TABLE
  2
LAYER
  5
2
330
0
100
AcDbSymbolTable
 70
     3
  0
LAYER
  5
10
330
2
100
AcDbSymbolTableRecord
100
AcDbLayerTableRecord
  2
0
 70
     0
 62
     7
  6
Continuous
370
    -3
390
F
347
3E
  0
LAYER
  5
40
330
2
100
AcDbSymbolTableRecord
100
AcDbLayerTableRecord
  2
layer 1
 70
     0
 62
     7
  6
Continuous
370
    -3
390
F
347
3E
  0
LAYER
  5
BA
330
2
100
AcDbSymbolTableRecord
100
AcDbLayerTableRecord
  2
Master Guides
 70
     0
 62
     7
  6
Continuous
370
    -3
390
F
347
3E
  0
ENDTAB
  0
TABLE
  2
STYLE
  5
3
330
0
100
AcDbSymbolTable
 70
     1
  0
STYLE
  5
11
330
3
100
AcDbSymbolTableRecord
100
AcDbTextStyleTableRecord
  2
Standard
 70
     0
 40
0.0
 41
1.0
 50
0.0
 71
     0
 42
0.2
  3
txt
  4

  0
ENDTAB
  0
TABLE
  2
VIEW
  5
6
330
0
100
AcDbSymbolTable
 70
     0
  0
ENDTAB
  0
TABLE
  2
UCS
  5
7
330
0
100
AcDbSymbolTable
 70
     0
  0
ENDTAB
  0
TABLE
  2
APPID
  5
9
330
0
100
AcDbSymbolTable
 70
     2
  0
APPID
  5
12
330
9
100
AcDbSymbolTableRecord
100
AcDbRegAppTableRecord
  2
ACAD
 70
     0
  0
APPID
  5
3F
330
9
100
AcDbSymbolTableRecord
100
AcDbRegAppTableRecord
  2
ODA
 70
     0
  0
ENDTAB
  0
TABLE
  2
DIMSTYLE
  5
A
330
0
100
AcDbSymbolTable
 70
     1
100
AcDbDimStyleTable
  0
DIMSTYLE
105
27
330
A
100
AcDbSymbolTableRecord
100
AcDbDimStyleTableRecord
  2
Standard
 70
     0
178
     0
340
11
  0
ENDTAB
  0
TABLE
  2
BLOCK_RECORD
  5
1
330
0
100
AcDbSymbolTable
 70
     1
  0
BLOCK_RECORD
  5
1F
330
1
100
AcDbSymbolTableRecord
100
AcDbBlockTableRecord
  2
*Model_Space
340
22
 70
     0
280
     1
281
     0
  0
BLOCK_RECORD
  5
1B
330
1
100
AcDbSymbolTableRecord
100
AcDbBlockTableRecord
  2
*Paper_Space
340
1E
 70
     0
280
     1
281
     0
  0
BLOCK_RECORD
  5
23
330
1
100
AcDbSymbolTableRecord
100
AcDbBlockTableRecord
  2
*Paper_Space0
340
26
 70
     0
280
     1
281
     0
  0
ENDTAB
  0
ENDSEC
  0
SECTION
  2
BLOCKS
  0
BLOCK
  5
20
330
1F
100
AcDbEntity
  8
0
100
AcDbBlockBegin
  2
*Model_Space
 70
     0
 10
0.0
 20
0.0
 30
0.0
  3
*Model_Space
  1

  0
ENDBLK
  5
21
330
1F
100
AcDbEntity
  8
0
100
AcDbBlockEnd
  0
BLOCK
  5
1C
330
1B
100
AcDbEntity
 67
     1
  8
0
100
AcDbBlockBegin
  2
*Paper_Space
 70
     0
 10
0.0
 20
0.0
 30
0.0
  3
*Paper_Space
  1

  0
ENDBLK
  5
1D
330
1B
100
AcDbEntity
 67
     1
  8
0
100
AcDbBlockEnd
  0
BLOCK
  5
24
330
23
100
AcDbEntity
  8
0
100
AcDbBlockBegin
  2
*Paper_Space0
 70
     0
 10
0.0
 20
0.0
 30
0.0
  3
*Paper_Space0
  1

  0
ENDBLK
  5
25
330
23
100
AcDbEntity
  8
0
100
AcDbBlockEnd
  0
ENDSEC
  0
SECTION
  2
ENTITIES
  0
LWPOLYLINE
  5
41
330
1F
100
AcDbEntity
  8
layer 1
100
AcDbPolyline
 90
        5
 70
     1
 43
0.0
 10
108.0699
 20
-114.7416
 10
196.1641
 20
-114.7416
 10
196.1641
 20
131.6758
 10
108.0699
 20
131.6758
 10
108.0699
 20
-114.7416
  0
SPLINE
  5
42
330
1F
100
AcDbEntity
  8
layer 1
 62
     7
100
AcDbSpline
210
0.0
220
0.0
230
1.0
 70
    11
 71
     3
 72
    16
 73
    12
 74
     0
 42
0.0000000001
 43
0.0000000001
 12
1.0
 22
0.0
 32
0.0
 13
1.0
 23
0.0
 33
0.0
 40
0.0
 40
0.0
 40
0.0
 40
0.0
 40
0.25
 40
0.25
 40
0.25
 40
0.25
 40
0.5
 40
0.5
 40
0.5
 40
0.5
 40
1.0
 40
1.0
 40
1.0
 40
1.0
 10
191.7738
 20
73.7029
 30
0.0
 10
191.7738
 20
73.7029
 30
0.0
 10
191.7719
 20
60.6617
 30
0.0
 10
191.7719
 20
60.6617
 30
0.0
 10
191.7719
 20
60.6617
 30
0.0
 10
190.7329
 20
64.2191
 30
0.0
 10
188.272
 20
66.4544
 30
0.0
 10
185.1351
 20
67.1823
 30
0.0
 10
185.1351
 20
67.1823
 30
0.0
 10
188.2739
 20
67.9102
 30
0.0
 10
190.7349
 20
70.1456
 30
0.0
 10
191.7738
 20
73.7029
 30
0.0
  0
SPLINE
  5
43
330
1F
100
AcDbEntity
  8
layer 1
 62
     7
100
AcDbSpline
210
0.0
220
0.0
230
1.0
 70
    11
 71
     3
 72
    24
 73
    20
 74
     0
 42
0.0000000001
 43
0.0000000001
 12
1.0
 22
0.0
 32
0.0
 13
1.0
 23
0.0
 33
0.0
 40
0.0
 40
0.0
 40
0.0
 40
0.0
 40
0.1666666666666667
 40
0.1666666666666667
 40
0.1666666666666667
 40
0.1666666666666667
 40
0.3333333333333333
 40
0.3333333333333333
 40
0.3333333333333333
 40
0.3333333333333333
 40
0.5
 40
0.5
 40
0.5
 40
0.5
 40
0.6666666666666666
 40
0.6666666666666666
 40
0.6666666666666666
 40
0.6666666666666666
 40
1.0
 40
1.0
 40
1.0
 40
1.0
 10
171.4615
 20
61.2954
 30
0.0
 10
167.4802
 20
64.371
 30
0.0
 10
164.3093
 20
66.0651
 30
0.0
 10
158.7353
 20
67.1823
 30
0.0
 10
158.7353
 20
67.1823
 30
0.0
 10
164.3113
 20
68.2997
 30
0.0
 10
167.4823
 20
69.9937
 30
0.0
 10
171.4636
 20
73.0693
 30
0.0
 10
171.4636
 20
73.0693
 30
0.0
 10
173.2328
 20
70.533
 30
0.0
 10
176.1602
 20
67.9755
 30
0.0
 10
178.9255
 20
67.1513
 30
0.0
 10
178.9255
 20
67.1513
 30
0.0
 10
176.1272
 20
66.327
 30
0.0
 10
173.2307
 20
63.8314
 30
0.0
 10
171.4615
 20
61.2952
 30
0.0
 10
171.4615
 20
61.2952
 30
0.0
 10
171.4615
 20
61.2952
 30
0.0
 10
171.4615
 20
61.2954
 30
0.0
 10
171.4615
 20
61.2954
 30
0.0
  0
SPLINE
  5
44
330
1F
100
AcDbEntity
  8
layer 1
 62
     7
100
AcDbSpline
210
0.0
220
0.0
230
1.0
 70
    11
 71
     3
 72
    68
 73
    64
 74
     0
 42
0.0000000001
 43
0.0000000001
 12
1.0
 22
0.0
 32
0.0
 13
1.0
 23
0.0
 33
0.0
 40
0.0
 40
0.0
 40
0.0
 40
0.0
 40
0.0588235294117647
 40
0.0588235294117647
 40
0.0588235294117647
 40
0.0588235294117647
 40
0.1176470588235294
 40
0.1176470588235294
 40
0.1176470588235294
 40
0.1176470588235294
 40
0.1764705882352941
 40
0.1764705882352941
 40
0.1764705882352941
 40
0.1764705882352941
 40
0.2352941176470588
 40
0.2352941176470588
 40
0.2352941176470588
 40
0.2352941176470588
 40
0.2941176470588235
 40
0.2941176470588235
 40
0.2941176470588235
 40
0.2941176470588235
 40
0.3529411764705883
 40
0.3529411764705883
 40
0.3529411764705883
 40
0.3529411764705883
 40
0.4117647058823529
 40
0.4117647058823529
 40
0.4117647058823529
 40
0.4117647058823529
 40
0.4705882352941176
 40
0.4705882352941176
 40
0.4705882352941176
 40
0.4705882352941176
 40
0.5294117647058824
 40
0.5294117647058824
 40
0.5294117647058824
 40
0.5294117647058824
 40
0.5882352941176471
 40
0.5882352941176471
 40
0.5882352941176471
 40
0.5882352941176471
 40
0.6470588235294118
 40
0.6470588235294118
 40
0.6470588235294118
 40
0.6470588235294118
 40
0.7058823529411765
 40
0.7058823529411765
 40
0.7058823529411765
 40
0.7058823529411765
 40
0.7647058823529411
 40
0.7647058823529411
 40
0.7647058823529411
 40
0.7647058823529411
 40
0.8235294117647058
 40
0.8235294117647058
 40
0.8235294117647058
 40
0.8235294117647058
 40
0.8823529411764706
 40
0.8823529411764706
 40
0.8823529411764706
 40
0.8823529411764706
 40
1.0
 40
1.0
 40
1.0
 40
1.0
 10
135.8625
 20
103.5686
 30
0.0
 10
135.8625
 20
103.5686
 30
0.0
 10
132.9606
 20
103.6828
 30
0.0
 10
132.9606
 20
103.6828
 30
0.0
 10
132.9606
 20
103.6828
 30
0.0
 10
127.811
 20
104.0778
 30
0.0
 10
124.0762
 20
101.8441
 30
0.0
 10
125.9386
 20
98.7594
 30
0.0
 10
125.9386
 20
98.7594
 30
0.0
 10
127.2386
 20
97.1066
 30
0.0
 10
129.8296
 20
98.0872
 30
0.0
 10
128.6421
 20
99.7826
 30
0.0
 10
128.6421
 20
99.7826
 30
0.0
 10
128.2096
 20
100.4001
 30
0.0
 10
128.2243
 20
100.4962
 30
0.0
 10
128.798
 20
100.8032
 30
0.0
 10
128.798
 20
100.8032
 30
0.0
 10
129.1464
 20
100.9897
 30
0.0
 10
130.0424
 20
101.1422
 30
0.0
 10
130.7894
 20
101.1422
 30
0.0
 10
130.7894
 20
101.1422
 30
0.0
 10
132.8097
 20
101.1568
 30
0.0
 10
133.0721
 20
99.5948
 30
0.0
 10
134.6985
 20
98.8775
 30
0.0
 10
134.6985
 20
98.8775
 30
0.0
 10
135.8027
 20
98.4673
 30
0.0
 10
138.9465
 20
97.9718
 30
0.0
 10
138.8215
 20
96.7917
 30
0.0
 10
138.8215
 20
96.7917
 30
0.0
 10
138.9465
 20
95.6116
 30
0.0
 10
135.8028
 20
95.1161
 30
0.0
 10
134.6985
 20
94.7059
 30
0.0
 10
134.6985
 20
94.7059
 30
0.0
 10
133.0721
 20
93.9887
 30
0.0
 10
132.8096
 20
92.4266
 30
0.0
 10
130.7894
 20
92.4413
 30
0.0
 10
130.7894
 20
92.4413
 30
0.0
 10
130.0425
 20
92.4413
 30
0.0
 10
129.1464
 20
92.5938
 30
0.0
 10
128.798
 20
92.7802
 30
0.0
 10
128.798
 20
92.7802
 30
0.0
 10
128.2243
 20
93.0873
 30
0.0
 10
128.2096
 20
93.1834
 30
0.0
 10
128.6421
 20
93.8009
 30
0.0
 10
128.6421
 20
93.8009
 30
0.0
 10
129.8296
 20
95.4962
 30
0.0
 10
127.2386
 20
96.4769
 30
0.0
 10
125.9386
 20
94.8241
 30
0.0
 10
125.9386
 20
94.8241
 30
0.0
 10
124.0763
 20
91.7393
 30
0.0
 10
127.811
 20
89.5057
 30
0.0
 10
132.9606
 20
89.9006
 30
0.0
 10
132.9606
 20
89.9006
 30
0.0
 10
132.9606
 20
89.9006
 30
0.0
 10
135.8625
 20
90.0148
 30
0.0
 10
135.8625
 20
90.0148
 30
0.0
 10
135.8625
 20
90.0148
 30
0.0
 10
138.3351
 20
93.44
 30
0.0
 10
141.3737
 20
96.0861
 30
0.0
 10
145.3569
 20
96.7917
 30
0.0
 10
145.3569
 20
96.7917
 30
0.0
 10
141.298
 20
97.4974
 30
0.0
 10
138.3351
 20
100.8241
 30
0.0
 10
135.8625
 20
103.5686
 30
0.0
  0
SPLINE
  5
45
330
1F
100
AcDbEntity
  8
layer 1
 62
     7
100
AcDbSpline
210
0.0
220
0.0
230
1.0
 70
    11
 71
     3
 72
    28
 73
    24
 74
     0
 42
0.0000000001
 43
0.0000000001
 12
1.0
 22
0.0
 32
0.0
 13
1.0
 23
0.0
 33
0.0
 40
0.0
 40
0.0
 40
0.0
 40
0.0
 40
0.1428571428571428
 40
0.1428571428571428
 40
0.1428571428571428
 40
0.1428571428571428
 40
0.2857142857142857
 40
0.2857142857142857
 40
0.2857142857142857
 40
0.2857142857142857
 40
0.4285714285714285
 40
0.4285714285714285
 40
0.4285714285714285
 40
0.4285714285714285
 40
0.5714285714285714
 40
0.5714285714285714
 40
0.5714285714285714
 40
0.5714285714285714
 40
0.7142857142857143
 40
0.7142857142857143
 40
0.7142857142857143
 40
0.7142857142857143
 40
1.0
 40
1.0
 40
1.0
 40
1.0
 10
117.8161
 20
101.9377
 30
0.0
 10
118.3931
 20
102.6331
 30
0.0
 10
118.3592
 20
104.035
 30
0.0
 10
116.3175
 20
106.8392
 30
0.0
 10
116.3175
 20
106.8392
 30
0.0
 10
114.9181
 20
108.8862
 30
0.0
 10
113.477
 20
111.2223
 30
0.0
 10
112.4772
 20
113.7963
 30
0.0
 10
112.4772
 20
113.7963
 30
0.0
 10
112.6674
 20
110.1032
 30
0.0
 10
112.4813
 20
106.4091
 30
0.0
 10
112.4772
 20
102.7129
 30
0.0
 10
112.4772
 20
102.7129
 30
0.0
 10
113.1295
 20
103.7739
 30
0.0
 10
114.3414
 20
104.2573
 30
0.0
 10
115.3171
 20
104.1957
 30
0.0
 10
115.3171
 20
104.1957
 30
0.0
 10
115.8954
 20
104.0823
 30
0.0
 10
116.2002
 20
103.9677
 30
0.0
 10
116.019
 20
103.2458
 30
0.0
 10
116.019
 20
103.2458
 30
0.0
 10
115.4496
 20
101.8322
 30
0.0
 10
117.0417
 20
101.0736
 30
0.0
 10
117.8161
 20
101.9377
 30
0.0
  0
SPLINE
  5
46
330
1F
100
AcDbEntity
  8
layer 1
 62
     7
100
AcDbSpline
210
0.0
220
0.0
230
1.0
 70
    11
 71
     3
 72
    16
 73
    12
 74
     0
 42
0.0000000001
 43
0.0000000001
 12
1.0
 22
0.0
 32
0.0
 13
1.0
 23
0.0
 33
0.0
 40
0.0
 40
0.0
 40
0.0
 40
0.0
 40
0.25
 40
0.25
 40
0.25
 40
0.25
 40
0.5
 40
0.5
 40
0.5
 40
0.5
 40
1.0
 40
1.0
 40
1.0
 40
1.0
 10
124.3913
 20
111.0096
 30
0.0
 10
122.9085
 20
109.8229
 30
0.0
 10
121.1168
 20
109.3871
 30
0.0
 10
119.1529
 20
109.8516
 30
0.0
 10
119.1529
 20
109.8516
 30
0.0
 10
120.2226
 20
107.9484
 30
0.0
 10
120.9535
 20
107.0308
 30
0.0
 10
121.7066
 20
104.2165
 30
0.0
 10
121.7066
 20
104.2165
 30
0.0
 10
122.0497
 20
106.7067
 30
0.0
 10
123.2917
 20
109.4897
 30
0.0
 10
124.3913
 20
111.0096
 30
0.0
  0
SPLINE
  5
47
330
1F
100
AcDbEntity
  8
layer 1
 62
     7
100
AcDbSpline
210
0.0
220
0.0
230
1.0
 70
    11
 71
     3
 72
    20
 73
    16
 74
     0
 42
0.0000000001
 43
0.0000000001
 12
1.0
 22
0.0
 32
0.0
 13
1.0
 23
0.0
 33
0.0
 40
0.0
 40
0.0
 40
0.0
 40
0.0
 40
0.2
 40
0.2
 40
0.2
 40
0.2
 40
0.4
 40
0.4
 40
0.4
 40
0.4
 40
0.6
 40
0.6
 40
0.6
 40
0.6
 40
1.0
 40
1.0
 40
1.0
 40
1.0
 10
133.6665
 20
107.3363
 30
0.0
 10
132.165
 20
109.4106
 30
0.0
 10
131.5689
 20
110.9956
 30
0.0
 10
130.6389
 20
113.8446
 30
0.0
 10
130.6389
 20
113.8446
 30
0.0
 10
128.7407
 20
111.6663
 30
0.0
 10
127.4025
 20
109.5449
 30
0.0
 10
126.0502
 20
106.5148
 30
0.0
 10
126.0502
 20
106.5148
 30
0.0
 10
128.9205
 20
107.6868
 30
0.0
 10
130.6872
 20
107.863
 30
0.0
 10
133.6664
 20
107.3363
 30
0.0
 10
133.6664
 20
107.3363
 30
0.0
 10
133.6664
 20
107.3363
 30
0.0
 10
133.6665
 20
107.3363
 30
0.0
 10
133.6665
 20
107.3363
 30
0.0
  0
SPLINE
  5
48
330
1F
100
AcDbEntity
  8
layer 1
 62
     7
100
AcDbSpline
210
0.0
220
0.0
230
1.0
 70
    11
 71
     3
 72
   136
 73
   132
 74
     0
 42
0.0000000001
 43
0.0000000001
 12
1.0
 22
0.0
 32
0.0
 13
1.0
 23
0.0
 33
0.0
 40
0.0
 40
0.0
 40
0.0
 40
0.0
 40
0.0294117647058824
 40
0.0294117647058824
 40
0.0294117647058824
 40
0.0294117647058824
 40
0.0588235294117647
 40
0.0588235294117647
 40
0.0588235294117647
 40
0.0588235294117647
 40
0.0882352941176471
 40
0.0882352941176471
 40
0.0882352941176471
 40
0.0882352941176471
 40
0.1176470588235294
 40
0.1176470588235294
 40
0.1176470588235294
 40
0.1176470588235294
 40
0.1470588235294118
 40
0.1470588235294118
 40
0.1470588235294118
 40
0.1470588235294118
 40
0.1764705882352941
 40
0.1764705882352941
 40
0.1764705882352941
 40
0.1764705882352941
 40
0.2058823529411765
 40
0.2058823529411765
 40
0.2058823529411765
 40
0.2058823529411765
 40
0.2352941176470588
 40
0.2352941176470588
 40
0.2352941176470588
 40
0.2352941176470588
 40
0.2647058823529412
 40
0.2647058823529412
 40
0.2647058823529412
 40
0.2647058823529412
 40
0.2941176470588235
 40
0.2941176470588235
 40
0.2941176470588235
 40
0.2941176470588235
 40
0.3235294117647059
 40
0.3235294117647059
 40
0.3235294117647059
 40
0.3235294117647059
 40
0.3529411764705883
 40
0.3529411764705883
 40
0.3529411764705883
 40
0.3529411764705883
 40
0.3823529411764706
 40
0.3823529411764706
 40
0.3823529411764706
 40
0.3823529411764706
 40
0.4117647058823529
 40
0.4117647058823529
 40
0.4117647058823529
 40
0.4117647058823529
 40
0.4411764705882353
 40
0.4411764705882353
 40
0.4411764705882353
 40
0.4411764705882353
 40
0.4705882352941176
 40
0.4705882352941176
 40
0.4705882352941176
 40
0.4705882352941176
 40
0.5
 40
0.5
 40
0.5
 40
0.5
 40
0.5294117647058824
 40
0.5294117647058824
 40
0.5294117647058824
 40
0.5294117647058824
 40
0.5588235294117647
 40
0.5588235294117647
 40
0.5588235294117647
 40
0.5588235294117647
 40
0.5882352941176471
 40
0.5882352941176471
 40
0.5882352941176471
 40
0.5882352941176471
 40
0.6176470588235294
 40
0.6176470588235294
 40
0.6176470588235294
 40
0.6176470588235294
 40
0.6470588235294118
 40
0.6470588235294118
 40
0.6470588235294118
 40
0.6470588235294118
 40
0.6764705882352942
 40
0.6764705882352942
 40
0.6764705882352942
 40
0.6764705882352942
 40
0.7058823529411765
 40
0.7058823529411765
 40
0.7058823529411765
 40
0.7058823529411765
 40
0.7352941176470589
 40
0.7352941176470589
 40
0.7352941176470589
 40
0.7352941176470589
 40
0.7647058823529411
 40
0.7647058823529411
 40
0.7647058823529411
 40
0.7647058823529411
 40
0.7941176470588235
 40
0.7941176470588235
 40
0.7941176470588235
 40
0.7941176470588235
 40
0.8235294117647058
 40
0.8235294117647058
 40
0.8235294117647058
 40
0.8235294117647058
 40
0.8529411764705882
 40
0.8529411764705882
 40
0.8529411764705882
 40
0.8529411764705882
 40
0.8823529411764706
 40
0.8823529411764706
 40
0.8823529411764706
 40
0.8823529411764706
 40
0.9117647058823529
 40
0.9117647058823529
 40
0.9117647058823529
 40
0.9117647058823529
 40
0.9411764705882353
 40
0.9411764705882353
 40
0.9411764705882353
 40
0.9411764705882353
 40
1.0
 40
1.0
 40
1.0
 40
1.0
 10
149.8316
 20
117.5734
 30
0.0
 10
148.3129
 20
118.5233
 30
0.0
 10
146.4544
 20
118.5246
 30
0.0
 10
144.6851
 20
117.0452
 30
0.0
 10
144.6851
 20
117.0452
 30
0.0
 10
143.2357
 20
115.7569
 30
0.0
 10
143.0073
 20
113.0193
 30
0.0
 10
144.4341
 20
111.1234
 30
0.0
 10
144.4341
 20
111.1234
 30
0.0
 10
144.931
 20
112.1241
 30
0.0
 10
145.9676
 20
113.2973
 30
0.0
 10
146.9497
 20
112.1314
 30
0.0
 10
146.9497
 20
112.1314
 30
0.0
 10
147.8197
 20
110.5058
 30
0.0
 10
146.2596
 20
108.3317
 30
0.0
 10
143.4754
 20
107.2901
 30
0.0
 10
143.4754
 20
107.2901
 30
0.0
 10
143.4754
 20
107.2901
 30
0.0
 10
143.4754
 20
107.2901
 30
0.0
 10
143.4754
 20
107.2901
 30
0.0
 10
143.4754
 20
107.2901
 30
0.0
 10
142.5228
 20
106.9336
 30
0.0
 10
140.9601
 20
106.6421
 30
0.0
 10
140.0026
 20
106.6421
 30
0.0
 10
140.0026
 20
106.6421
 30
0.0
 10
138.3872
 20
106.6421
 30
0.0
 10
138.2151
 20
106.7179
 30
0.0
 10
137.6136
 20
107.6936
 30
0.0
 10
137.6136
 20
107.6936
 30
0.0
 10
137.257
 20
108.2718
 30
0.0
 10
136.8655
 20
109.1453
 30
0.0
 10
136.7433
 20
109.6347
 30
0.0
 10
136.7433
 20
109.6347
 30
0.0
 10
136.5432
 20
110.4367
 30
0.0
 10
136.6055
 20
110.5244
 30
0.0
 10
137.3755
 20
110.5244
 30
0.0
 10
137.3755
 20
110.5244
 30
0.0
 10
139.4099
 20
110.57
 30
0.0
 10
141.9189
 20
112.2164
 30
0.0
 10
141.6706
 20
114.5625
 30
0.0
 10
141.6706
 20
114.5625
 30
0.0
 10
141.4786
 20
116.1982
 30
0.0
 10
139.4807
 20
118.4722
 30
0.0
 10
136.9996
 20
117.4098
 30
0.0
 10
136.9996
 20
117.4098
 30
0.0
 10
136.2523
 20
116.9492
 30
0.0
 10
136.2042
 20
116.3477
 30
0.0
 10
137.0265
 20
116.3477
 30
0.0
 10
137.0265
 20
116.3477
 30
0.0
 10
138.2118
 20
116.1812
 30
0.0
 10
138.9068
 20
115.517
 30
0.0
 10
138.2141
 20
114.5745
 30
0.0
 10
138.2141
 20
114.5745
 30
0.0
 10
137.2888
 20
113.4655
 30
0.0
 10
135.165
 20
115.0012
 30
0.0
 10
134.083
 20
117.1076
 30
0.0
 10
134.083
 20
117.1076
 30
0.0
 10
138.2553
 20
120.6357
 30
0.0
 10
144.2447
 20
123.2046
 30
0.0
 10
152.1191
 20
123.4085
 30
0.0
 10
152.1191
 20
123.4085
 30
0.0
 10
159.9936
 20
123.2046
 30
0.0
 10
165.983
 20
120.6357
 30
0.0
 10
170.1553
 20
117.1076
 30
0.0
 10
170.1553
 20
117.1076
 30
0.0
 10
169.0731
 20
115.0012
 30
0.0
 10
166.9493
 20
113.4655
 30
0.0
 10
166.0242
 20
114.5745
 30
0.0
 10
166.0242
 20
114.5745
 30
0.0
 10
165.3315
 20
115.517
 30
0.0
 10
166.0265
 20
116.1812
 30
0.0
 10
167.2117
 20
116.3477
 30
0.0
 10
167.2117
 20
116.3477
 30
0.0
 10
168.034
 20
116.3477
 30
0.0
 10
167.986
 20
116.9491
 30
0.0
 10
167.2386
 20
117.4098
 30
0.0
 10
167.2386
 20
117.4098
 30
0.0
 10
164.7575
 20
118.4722
 30
0.0
 10
162.7596
 20
116.1983
 30
0.0
 10
162.5677
 20
114.5625
 30
0.0
 10
162.5677
 20
114.5625
 30
0.0
 10
162.3194
 20
112.2164
 30
0.0
 10
164.8283
 20
110.57
 30
0.0
 10
166.8628
 20
110.5244
 30
0.0
 10
166.8628
 20
110.5244
 30
0.0
 10
167.6328
 20
110.5244
 30
0.0
 10
167.6951
 20
110.4367
 30
0.0
 10
167.4949
 20
109.6347
 30
0.0
 10
167.4949
 20
109.6347
 30
0.0
 10
167.3728
 20
109.1453
 30
0.0
 10
166.9811
 20
108.2718
 30
0.0
 10
166.6247
 20
107.6936
 30
0.0
 10
166.6247
 20
107.6936
 30
0.0
 10
166.0232
 20
106.7179
 30
0.0
 10
165.851
 20
106.6421
 30
0.0
 10
164.2357
 20
106.6421
 30
0.0
 10
164.2357
 20
106.6421
 30
0.0
 10
163.2782
 20
106.6421
 30
0.0
 10
161.7154
 20
106.9337
 30
0.0
 10
160.7629
 20
107.2901
 30
0.0
 10
160.7629
 20
107.2901
 30
0.0
 10
160.7629
 20
107.2901
 30
0.0
 10
160.7629
 20
107.2901
 30
0.0
 10
160.7629
 20
107.2901
 30
0.0
 10
160.7629
 20
107.2901
 30
0.0
 10
157.9787
 20
108.3317
 30
0.0
 10
156.4186
 20
110.5058
 30
0.0
 10
157.2886
 20
112.1314
 30
0.0
 10
157.2886
 20
112.1314
 30
0.0
 10
158.2707
 20
113.2973
 30
0.0
 10
159.3072
 20
112.1241
 30
0.0
 10
159.8042
 20
111.1234
 30
0.0
 10
159.8042
 20
111.1234
 30
0.0
 10
161.231
 20
113.0193
 30
0.0
 10
161.0026
 20
115.7569
 30
0.0
 10
159.5531
 20
117.0452
 30
0.0
 10
159.5531
 20
117.0452
 30
0.0
 10
157.7839
 20
118.5246
 30
0.0
 10
155.9252
 20
118.5233
 30
0.0
 10
154.4067
 20
117.5734
 30
0.0
 10
154.4067
 20
117.5734
 30
0.0
 10
154.3825
 20
119.7822
 30
0.0
 10
153.2718
 20
121.7995
 30
0.0
 10
152.1193
 20
121.7825
 30
0.0
 10
152.1193
 20
121.7825
 30
0.0
 10
150.9667
 20
121.7995
 30
0.0
 10
149.8561
 20
119.7822
 30
0.0
 10
149.8318
 20
117.5734
 30
0.0
 10
149.8318
 20
117.5734
 30
0.0
 10
149.8318
 20
117.5734
 30
0.0
 10
149.8316
 20
117.5734
 30
0.0
 10
149.8316
 20
117.5734
 30
0.0
  0
SPLINE
  5
49
330
1F
100
AcDbEntity
  8
layer 1
 62
     7
100
AcDbSpline
210
0.0
220
0.0
230
1.0
 70
    11
 71
     3
 72
    32
 73
    28
 74
     0
 42
0.0000000001
 43
0.0000000001
 12
1.0
 22
0.0
 32
0.0
 13
1.0
 23
0.0
 33
0.0
 40
0.0
 40
0.0
 40
0.0
 40
0.0
 40
0.125
 40
0.125
 40
0.125
 40
0.125
 40
0.25
 40
0.25
 40
0.25
 40
0.25
 40
0.375
 40
0.375
 40
0.375
 40
0.375
 40
0.5
 40
0.5
 40
0.5
 40
0.5
 40
0.625
 40
0.625
 40
0.625
 40
0.625
 40
0.75
 40
0.75
 40
0.75
 40
0.75
 40
1.0
 40
1.0
 40
1.0
 40
1.0
 10
129.4738
 20
117.7769
 30
0.0
 10
127.753
 20
121.8812
 30
0.0
 10
124.0563
 20
123.9241
 30
0.0
 10
120.8066
 20
123.1274
 30
0.0
 10
120.8066
 20
123.1274
 30
0.0
 10
116.6362
 20
122.7781
 30
0.0
 10
114.1106
 20
117.8544
 30
0.0
 10
116.0252
 20
115.8556
 30
0.0
 10
116.0252
 20
115.8556
 30
0.0
 10
118.3175
 20
113.7434
 30
0.0
 10
120.2838
 20
117.0387
 30
0.0
 10
118.7977
 20
118.6123
 30
0.0
 10
118.7977
 20
118.6123
 30
0.0
 10
117.8956
 20
119.5144
 30
0.0
 10
117.9815
 20
119.8003
 30
0.0
 10
119.2841
 20
120.2302
 30
0.0
 10
119.2841
 20
120.2302
 30
0.0
 10
124.7671
 20
121.1195
 30
0.0
 10
126.205
 20
116.1506
 30
0.0
 10
125.5277
 20
112.7741
 30
0.0
 10
125.5277
 20
112.7741
 30
0.0
 10
126.6814
 20
114.9271
 30
0.0
 10
128.0525
 20
116.3524
 30
0.0
 10
129.4739
 20
117.7768
 30
0.0
 10
129.4739
 20
117.7768
 30
0.0
 10
129.4739
 20
117.7768
 30
0.0
 10
129.4738
 20
117.7769
 30
0.0
 10
129.4738
 20
117.7769
 30
0.0
  0
SPLINE
  5
4A
330
1F
100
AcDbEntity
  8
layer 1
 62
     7
100
AcDbSpline
210
0.0
220
0.0
230
1.0
 70
    11
 71
     3
 72
    16
 73
    12
 74
     0
 42
0.0000000001
 43
0.0000000001
 12
1.0
 22
0.0
 32
0.0
 13
1.0
 23
0.0
 33
0.0
 40
0.0
 40
0.0
 40
0.0
 40
0.0
 40
0.25
 40
0.25
 40
0.25
 40
0.25
 40
0.5
 40
0.5
 40
0.5
 40
0.5
 40
1.0
 40
1.0
 40
1.0
 40
1.0
 10
119.1149
 20
126.4202
 30
0.0
 10
116.2088
 20
126.4202
 30
0.0
 10
114.6319
 20
126.4202
 30
0.0
 10
112.4772
 20
126.4202
 30
0.0
 10
112.4772
 20
126.4202
 30
0.0
 10
112.4772
 20
124.2976
 30
0.0
 10
112.4772
 20
122.0634
 30
0.0
 10
112.4772
 20
119.8805
 30
0.0
 10
112.4772
 20
119.8805
 30
0.0
 10
113.5161
 20
123.4379
 30
0.0
 10
115.977
 20
125.6732
 30
0.0
 10
119.1149
 20
126.4202
 30
0.0
  0
SPLINE
  5
4B
330
1F
100
AcDbEntity
  8
layer 1
 62
     7
100
AcDbSpline
210
0.0
220
0.0
230
1.0
 70
    11
 71
     3
 72
    16
 73
    12
 74
     0
 42
0.0000000001
 43
0.0000000001
 12
1.0
 22
0.0
 32
0.0
 13
1.0
 23
0.0
 33
0.0
 40
0.0
 40
0.0
 40
0.0
 40
0.0
 40
0.25
 40
0.25
 40
0.25
 40
0.25
 40
0.5
 40
0.5
 40
0.5
 40
0.5
 40
1.0
 40
1.0
 40
1.0
 40
1.0
 10
145.5147
 20
126.4202
 30
0.0
 10
140.2734
 20
126.4202
 30
0.0
 10
131.9689
 20
126.4202
 30
0.0
 10
125.309
 20
126.4202
 30
0.0
 10
125.309
 20
126.4202
 30
0.0
 10
128.0908
 20
125.6078
 30
0.0
 10
131.0182
 20
123.0503
 30
0.0
 10
132.7874
 20
120.514
 30
0.0
 10
132.7874
 20
120.514
 30
0.0
 10
136.7687
 20
123.5896
 30
0.0
 10
139.9396
 20
125.2838
 30
0.0
 10
145.5147
 20
126.4202
 30
0.0
  0
SPLINE
  5
4C
330
1F
100
AcDbEntity
  8
layer 1
 62
     7
100
AcDbSpline
210
0.0
220
0.0
230
1.0
 70
    11
 71
     3
 72
    68
 73
    64
 74
     0
 42
0.0000000001
 43
0.0000000001
 12
1.0
 22
0.0
 32
0.0
 13
1.0
 23
0.0
 33
0.0
 40
0.0
 40
0.0
 40
0.0
 40
0.0
 40
0.0588235294117647
 40
0.0588235294117647
 40
0.0588235294117647
 40
0.0588235294117647
 40
0.1176470588235294
 40
0.1176470588235294
 40
0.1176470588235294
 40
0.1176470588235294
 40
0.1764705882352941
 40
0.1764705882352941
 40
0.1764705882352941
 40
0.1764705882352941
 40
0.2352941176470588
 40
0.2352941176470588
 40
0.2352941176470588
 40
0.2352941176470588
 40
0.2941176470588235
 40
0.2941176470588235
 40
0.2941176470588235
 40
0.2941176470588235
 40
0.3529411764705883
 40
0.3529411764705883
 40
0.3529411764705883
 40
0.3529411764705883
 40
0.4117647058823529
 40
0.4117647058823529
 40
0.4117647058823529
 40
0.4117647058823529
 40
0.4705882352941176
 40
0.4705882352941176
 40
0.4705882352941176
 40
0.4705882352941176
 40
0.5294117647058824
 40
0.5294117647058824
 40
0.5294117647058824
 40
0.5294117647058824
 40
0.5882352941176471
 40
0.5882352941176471
 40
0.5882352941176471
 40
0.5882352941176471
 40
0.6470588235294118
 40
0.6470588235294118
 40
0.6470588235294118
 40
0.6470588235294118
 40
0.7058823529411765
 40
0.7058823529411765
 40
0.7058823529411765
 40
0.7058823529411765
 40
0.7647058823529411
 40
0.7647058823529411
 40
0.7647058823529411
 40
0.7647058823529411
 40
0.8235294117647058
 40
0.8235294117647058
 40
0.8235294117647058
 40
0.8235294117647058
 40
0.8823529411764706
 40
0.8823529411764706
 40
0.8823529411764706
 40
0.8823529411764706
 40
1.0
 40
1.0
 40
1.0
 40
1.0
 10
169.5394
 20
98.8775
 30
0.0
 10
171.1657
 20
99.5948
 30
0.0
 10
171.4283
 20
101.1568
 30
0.0
 10
173.4485
 20
101.1422
 30
0.0
 10
173.4485
 20
101.1422
 30
0.0
 10
174.1954
 20
101.1422
 30
0.0
 10
175.0915
 20
100.9897
 30
0.0
 10
175.4399
 20
100.8032
 30
0.0
 10
175.4399
 20
100.8032
 30
0.0
 10
176.0136
 20
100.4962
 30
0.0
 10
176.0283
 20
100.4001
 30
0.0
 10
175.5958
 20
99.7826
 30
0.0
 10
175.5958
 20
99.7826
 30
0.0
 10
174.4083
 20
98.0872
 30
0.0
 10
176.9993
 20
97.1066
 30
0.0
 10
178.2993
 20
98.7594
 30
0.0
 10
178.2993
 20
98.7594
 30
0.0
 10
180.1616
 20
101.8441
 30
0.0
 10
176.4269
 20
104.0778
 30
0.0
 10
171.2773
 20
103.6828
 30
0.0
 10
171.2773
 20
103.6828
 30
0.0
 10
171.2773
 20
103.6828
 30
0.0
 10
168.3754
 20
103.5686
 30
0.0
 10
168.3754
 20
103.5686
 30
0.0
 10
168.3754
 20
103.5686
 30
0.0
 10
166.2054
 20
100.219
 30
0.0
 10
162.6373
 20
97.1192
 30
0.0
 10
158.881
 20
96.7917
 30
0.0
 10
158.881
 20
96.7917
 30
0.0
 10
162.6373
 20
96.2374
 30
0.0
 10
165.8271
 20
93.5157
 30
0.0
 10
168.3754
 20
90.0148
 30
0.0
 10
168.3754
 20
90.0148
 30
0.0
 10
168.3754
 20
90.0148
 30
0.0
 10
171.2773
 20
89.9006
 30
0.0
 10
171.2773
 20
89.9006
 30
0.0
 10
171.2773
 20
89.9006
 30
0.0
 10
176.4269
 20
89.5057
 30
0.0
 10
180.1617
 20
91.7393
 30
0.0
 10
178.2993
 20
94.8241
 30
0.0
 10
178.2993
 20
94.8241
 30
0.0
 10
176.9993
 20
96.4769
 30
0.0
 10
174.4083
 20
95.4962
 30
0.0
 10
175.5958
 20
93.8009
 30
0.0
 10
175.5958
 20
93.8009
 30
0.0
 10
176.0283
 20
93.1834
 30
0.0
 10
176.0136
 20
93.0873
 30
0.0
 10
175.4399
 20
92.7802
 30
0.0
 10
175.4399
 20
92.7802
 30
0.0
 10
175.0915
 20
92.5938
 30
0.0
 10
174.1955
 20
92.4413
 30
0.0
 10
173.4485
 20
92.4413
 30
0.0
 10
173.4485
 20
92.4413
 30
0.0
 10
171.4282
 20
92.4266
 30
0.0
 10
171.1657
 20
93.9887
 30
0.0
 10
169.5394
 20
94.7059
 30
0.0
 10
169.5394
 20
94.7059
 30
0.0
 10
168.4352
 20
95.1162
 30
0.0
 10
165.2914
 20
95.6116
 30
0.0
 10
165.4164
 20
96.7917
 30
0.0
 10
165.4164
 20
96.7917
 30
0.0
 10
165.2914
 20
97.9718
 30
0.0
 10
168.4351
 20
98.4674
 30
0.0
 10
169.5394
 20
98.8775
 30
0.0
  0
SPLINE
  5
4D
330
1F
100
AcDbEntity
  8
layer 1
 62
     7
100
AcDbSpline
210
0.0
220
0.0
230
1.0
 70
    11
 71
     3
 72
    20
 73
    16
 74
     0
 42
0.0000000001
 43
0.0000000001
 12
1.0
 22
0.0
 32
0.0
 13
1.0
 23
0.0
 33
0.0
 40
0.0
 40
0.0
 40
0.0
 40
0.0
 40
0.2
 40
0.2
 40
0.2
 40
0.2
 40
0.4
 40
0.4
 40
0.4
 40
0.4
 40
0.6
 40
0.6
 40
0.6
 40
0.6
 40
1.0
 40
1.0
 40
1.0
 40
1.0
 10
152.119
 20
99.0939
 30
0.0
 10
151.4604
 20
98.043
 30
0.0
 10
149.9369
 20
97.0615
 30
0.0
 10
148.1127
 20
96.7917
 30
0.0
 10
148.1127
 20
96.7917
 30
0.0
 10
149.937
 20
96.522
 30
0.0
 10
151.4606
 20
95.5405
 30
0.0
 10
152.1191
 20
94.4895
 30
0.0
 10
152.1191
 20
94.4895
 30
0.0
 10
152.7777
 20
95.5405
 30
0.0
 10
154.3013
 20
96.522
 30
0.0
 10
156.1255
 20
96.7917
 30
0.0
 10
156.1255
 20
96.7917
 30
0.0
 10
154.3011
 20
97.0615
 30
0.0
 10
152.7776
 20
98.043
 30
0.0
 10
152.119
 20
99.0939
 30
0.0
  0
SPLINE
  5
4E
330
1F
100
AcDbEntity
  8
layer 1
 62
     7
100
AcDbSpline
210
0.0
220
0.0
230
1.0
 70
    11
 71
     3
 72
    56
 73
    52
 74
     0
 42
0.0000000001
 43
0.0000000001
 12
1.0
 22
0.0
 32
0.0
 13
1.0
 23
0.0
 33
0.0
 40
0.0
 40
0.0
 40
0.0
 40
0.0
 40
0.0714285714285714
 40
0.0714285714285714
 40
0.0714285714285714
 40
0.0714285714285714
 40
0.1428571428571428
 40
0.1428571428571428
 40
0.1428571428571428
 40
0.1428571428571428
 40
0.2142857142857143
 40
0.2142857142857143
 40
0.2142857142857143
 40
0.2142857142857143
 40
0.2857142857142857
 40
0.2857142857142857
 40
0.2857142857142857
 40
0.2857142857142857
 40
0.3571428571428572
 40
0.3571428571428572
 40
0.3571428571428572
 40
0.3571428571428572
 40
0.4285714285714285
 40
0.4285714285714285
 40
0.4285714285714285
 40
0.4285714285714285
 40
0.5
 40
0.5
 40
0.5
 40
0.5
 40
0.5714285714285714
 40
0.5714285714285714
 40
0.5714285714285714
 40
0.5714285714285714
 40
0.6428571428571429
 40
0.6428571428571429
 40
0.6428571428571429
 40
0.6428571428571429
 40
0.7142857142857143
 40
0.7142857142857143
 40
0.7142857142857143
 40
0.7142857142857143
 40
0.7857142857142857
 40
0.7857142857142857
 40
0.7857142857142857
 40
0.7857142857142857
 40
0.8571428571428571
 40
0.8571428571428571
 40
0.8571428571428571
 40
0.8571428571428571
 40
1.0
 40
1.0
 40
1.0
 40
1.0
 10
155.1699
 20
104.5588
 30
0.0
 10
157.0456
 20
104.1854
 30
0.0
 10
158.1133
 20
102.2747
 30
0.0
 10
156.5694
 20
102.0545
 30
0.0
 10
156.5694
 20
102.0545
 30
0.0
 10
155.7374
 20
101.9357
 30
0.0
 10
155.44
 20
101.008
 30
0.0
 10
156.0128
 20
100.3179
 30
0.0
 10
156.0128
 20
100.3179
 30
0.0
 10
157.3485
 20
98.9584
 30
0.0
 10
161.7778
 20
100.399
 30
0.0
 10
163.1816
 20
103.0241
 30
0.0
 10
163.1816
 20
103.0241
 30
0.0
 10
158.7428
 20
103.4596
 30
0.0
 10
153.6982
 20
105.2352
 30
0.0
 10
153.1261
 20
110.2099
 30
0.0
 10
153.1261
 20
110.2099
 30
0.0
 10
152.9639
 20
111.9044
 30
0.0
 10
152.6696
 20
112.5451
 30
0.0
 10
152.1189
 20
112.5829
 30
0.0
 10
152.1189
 20
112.5829
 30
0.0
 10
151.5682
 20
112.5451
 30
0.0
 10
151.2738
 20
111.9044
 30
0.0
 10
151.1117
 20
110.2099
 30
0.0
 10
151.1117
 20
110.2099
 30
0.0
 10
150.5396
 20
105.2352
 30
0.0
 10
145.4951
 20
103.4596
 30
0.0
 10
141.0561
 20
103.0241
 30
0.0
 10
141.0561
 20
103.0241
 30
0.0
 10
142.46
 20
100.399
 30
0.0
 10
146.8892
 20
98.9583
 30
0.0
 10
148.225
 20
100.3179
 30
0.0
 10
148.225
 20
100.3179
 30
0.0
 10
148.7978
 20
101.008
 30
0.0
 10
148.5004
 20
101.9357
 30
0.0
 10
147.6684
 20
102.0545
 30
0.0
 10
147.6684
 20
102.0545
 30
0.0
 10
146.1246
 20
102.2747
 30
0.0
 10
147.1923
 20
104.1854
 30
0.0
 10
149.0679
 20
104.5588
 30
0.0
 10
149.0679
 20
104.5588
 30
0.0
 10
150.4816
 20
104.6126
 30
0.0
 10
151.3497
 20
104.2181
 30
0.0
 10
152.1188
 20
103.216
 30
0.0
 10
152.1188
 20
103.216
 30
0.0
 10
152.8879
 20
104.2181
 30
0.0
 10
153.7559
 20
104.6125
 30
0.0
 10
155.1697
 20
104.5588
 30
0.0
 10
155.1697
 20
104.5588
 30
0.0
 10
155.1697
 20
104.5588
 30
0.0
 10
155.1699
 20
104.5588
 30
0.0
 10
155.1699
 20
104.5588
 30
0.0
  0
SPLINE
  5
4F
330
1F
100
AcDbEntity
  8
layer 1
 62
     7
100
AcDbSpline
210
0.0
220
0.0
230
1.0
 70
    11
 71
     3
 72
    28
 73
    24
 74
     0
 42
0.0000000001
 43
0.0000000001
 12
1.0
 22
0.0
 32
0.0
 13
1.0
 23
0.0
 33
0.0
 40
0.0
 40
0.0
 40
0.0
 40
0.0
 40
0.1428571428571428
 40
0.1428571428571428
 40
0.1428571428571428
 40
0.1428571428571428
 40
0.2857142857142857
 40
0.2857142857142857
 40
0.2857142857142857
 40
0.2857142857142857
 40
0.4285714285714285
 40
0.4285714285714285
 40
0.4285714285714285
 40
0.4285714285714285
 40
0.5714285714285714
 40
0.5714285714285714
 40
0.5714285714285714
 40
0.5714285714285714
 40
0.7142857142857143
 40
0.7142857142857143
 40
0.7142857142857143
 40
0.7142857142857143
 40
1.0
 40
1.0
 40
1.0
 40
1.0
 10
186.4218
 20
101.9377
 30
0.0
 10
185.8448
 20
102.6331
 30
0.0
 10
185.8787
 20
104.035
 30
0.0
 10
187.9204
 20
106.8392
 30
0.0
 10
187.9204
 20
106.8392
 30
0.0
 10
189.3198
 20
108.8862
 30
0.0
 10
190.7609
 20
111.2223
 30
0.0
 10
191.7607
 20
113.7963
 30
0.0
 10
191.7607
 20
113.7963
 30
0.0
 10
191.5705
 20
110.1032
 30
0.0
 10
191.7566
 20
106.4091
 30
0.0
 10
191.7607
 20
102.7129
 30
0.0
 10
191.7607
 20
102.7129
 30
0.0
 10
191.1084
 20
103.7739
 30
0.0
 10
189.8965
 20
104.2573
 30
0.0
 10
188.9208
 20
104.1957
 30
0.0
 10
188.9208
 20
104.1957
 30
0.0
 10
188.3425
 20
104.0823
 30
0.0
 10
188.0377
 20
103.9677
 30
0.0
 10
188.2189
 20
103.2458
 30
0.0
 10
188.2189
 20
103.2458
 30
0.0
 10
188.7883
 20
101.8322
 30
0.0
 10
187.1962
 20
101.0736
 30
0.0
 10
186.4218
 20
101.9377
 30
0.0
  0
SPLINE
  5
50
330
1F
100
AcDbEntity
  8
layer 1
 62
     7
100
AcDbSpline
210
0.0
220
0.0
230
1.0
 70
    11
 71
     3
 72
    16
 73
    12
 74
     0
 42
0.0000000001
 43
0.0000000001
 12
1.0
 22
0.0
 32
0.0
 13
1.0
 23
0.0
 33
0.0
 40
0.0
 40
0.0
 40
0.0
 40
0.0
 40
0.25
 40
0.25
 40
0.25
 40
0.25
 40
0.5
 40
0.5
 40
0.5
 40
0.5
 40
1.0
 40
1.0
 40
1.0
 40
1.0
 10
179.8466
 20
111.0096
 30
0.0
 10
181.4051
 20
109.7473
 30
0.0
 10
183.1968
 20
109.3114
 30
0.0
 10
185.085
 20
109.8516
 30
0.0
 10
185.085
 20
109.8516
 30
0.0
 10
184.0153
 20
107.9484
 30
0.0
 10
183.2844
 20
107.0308
 30
0.0
 10
182.5313
 20
104.2165
 30
0.0
 10
182.5313
 20
104.2165
 30
0.0
 10
182.1882
 20
106.7067
 30
0.0
 10
180.9462
 20
109.4897
 30
0.0
 10
179.8466
 20
111.0096
 30
0.0
  0
SPLINE
  5
51
330
1F
100
AcDbEntity
  8
layer 1
 62
     7
100
AcDbSpline
210
0.0
220
0.0
230
1.0
 70
    11
 71
     3
 72
    20
 73
    16
 74
     0
 42
0.0000000001
 43
0.0000000001
 12
1.0
 22
0.0
 32
0.0
 13
1.0
 23
0.0
 33
0.0
 40
0.0
 40
0.0
 40
0.0
 40
0.0
 40
0.2
 40
0.2
 40
0.2
 40
0.2
 40
0.4
 40
0.4
 40
0.4
 40
0.4
 40
0.6
 40
0.6
 40
0.6
 40
0.6
 40
1.0
 40
1.0
 40
1.0
 40
1.0
 10
170.5714
 20
107.3363
 30
0.0
 10
172.3755
 20
109.6375
 30
0.0
 10
172.7447
 20
110.7688
 30
0.0
 10
173.599
 20
113.8446
 30
0.0
 10
173.599
 20
113.8446
 30
0.0
 10
175.4972
 20
111.6663
 30
0.0
 10
176.8354
 20
109.5449
 30
0.0
 10
178.1877
 20
106.5148
 30
0.0
 10
178.1877
 20
106.5148
 30
0.0
 10
175.2743
 20
107.7129
 30
0.0
 10
173.406
 20
107.8956
 30
0.0
 10
170.5715
 20
107.3363
 30
0.0
 10
170.5715
 20
107.3363
 30
0.0
 10
170.5715
 20
107.3363
 30
0.0
 10
170.5714
 20
107.3363
 30
0.0
 10
170.5714
 20
107.3363
 30
0.0
  0
SPLINE
  5
52
330
1F
100
AcDbEntity
  8
layer 1
 62
     7
100
AcDbSpline
210
0.0
220
0.0
230
1.0
 70
    11
 71
     3
 72
    32
 73
    28
 74
     0
 42
0.0000000001
 43
0.0000000001
 12
1.0
 22
0.0
 32
0.0
 13
1.0
 23
0.0
 33
0.0
 40
0.0
 40
0.0
 40
0.0
 40
0.0
 40
0.125
 40
0.125
 40
0.125
 40
0.125
 40
0.25
 40
0.25
 40
0.25
 40
0.25
 40
0.375
 40
0.375
 40
0.375
 40
0.375
 40
0.5
 40
0.5
 40
0.5
 40
0.5
 40
0.625
 40
0.625
 40
0.625
 40
0.625
 40
0.75
 40
0.75
 40
0.75
 40
0.75
 40
1.0
 40
1.0
 40
1.0
 40
1.0
 10
174.7641
 20
117.7769
 30
0.0
 10
176.4849
 20
121.8812
 30
0.0
 10
180.1816
 20
123.9241
 30
0.0
 10
183.4313
 20
123.1274
 30
0.0
 10
183.4313
 20
123.1274
 30
0.0
 10
187.6017
 20
122.7781
 30
0.0
 10
190.1273
 20
117.8544
 30
0.0
 10
188.2127
 20
115.8556
 30
0.0
 10
188.2127
 20
115.8556
 30
0.0
 10
185.9204
 20
113.7434
 30
0.0
 10
183.9541
 20
117.0387
 30
0.0
 10
185.4402
 20
118.6123
 30
0.0
 10
185.4402
 20
118.6123
 30
0.0
 10
186.3423
 20
119.5144
 30
0.0
 10
186.2564
 20
119.8003
 30
0.0
 10
184.9538
 20
120.2302
 30
0.0
 10
184.9538
 20
120.2302
 30
0.0
 10
179.4708
 20
121.1195
 30
0.0
 10
178.0329
 20
116.1506
 30
0.0
 10
178.7102
 20
112.7741
 30
0.0
 10
178.7102
 20
112.7741
 30
0.0
 10
177.5565
 20
114.9271
 30
0.0
 10
176.1854
 20
116.3524
 30
0.0
 10
174.764
 20
117.7768
 30
0.0
 10
174.764
 20
117.7768
 30
0.0
 10
174.764
 20
117.7768
 30
0.0
 10
174.7641
 20
117.7769
 30
0.0
 10
174.7641
 20
117.7769
 30
0.0
  0
SPLINE
  5
53
330
1F
100
AcDbEntity
  8
layer 1
 62
     7
100
AcDbSpline
210
0.0
220
0.0
230
1.0
 70
    11
 71
     3
 72
    16
 73
    12
 74
     0
 42
0.0000000001
 43
0.0000000001
 12
1.0
 22
0.0
 32
0.0
 13
1.0
 23
0.0
 33
0.0
 40
0.0
 40
0.0
 40
0.0
 40
0.0
 40
0.25
 40
0.25
 40
0.25
 40
0.25
 40
0.5
 40
0.5
 40
0.5
 40
0.5
 40
1.0
 40
1.0
 40
1.0
 40
1.0
 10
185.123
 20
126.4202
 30
0.0
 10
188.0291
 20
126.4202
 30
0.0
 10
189.606
 20
126.4202
 30
0.0
 10
191.7607
 20
126.4202
 30
0.0
 10
191.7607
 20
126.4202
 30
0.0
 10
191.7607
 20
124.2976
 30
0.0
 10
191.7607
 20
122.0634
 30
0.0
 10
191.7607
 20
119.8805
 30
0.0
 10
191.7607
 20
119.8805
 30
0.0
 10
190.7218
 20
123.4379
 30
0.0
 10
188.2608
 20
125.6732
 30
0.0
 10
185.123
 20
126.4202
 30
0.0
  0
SPLINE
  5
54
330
1F
100
AcDbEntity
  8
layer 1
 62
     7
100
AcDbSpline
210
0.0
220
0.0
230
1.0
 70
    11
 71
     3
 72
    16
 73
    12
 74
     0
 42
0.0000000001
 43
0.0000000001
 12
1.0
 22
0.0
 32
0.0
 13
1.0
 23
0.0
 33
0.0
 40
0.0
 40
0.0
 40
0.0
 40
0.0
 40
0.25
 40
0.25
 40
0.25
 40
0.25
 40
0.5
 40
0.5
 40
0.5
 40
0.5
 40
1.0
 40
1.0
 40
1.0
 40
1.0
 10
158.7232
 20
126.4202
 30
0.0
 10
163.9645
 20
126.4202
 30
0.0
 10
172.269
 20
126.4202
 30
0.0
 10
178.9289
 20
126.4202
 30
0.0
 10
178.9289
 20
126.4202
 30
0.0
 10
176.1471
 20
125.6078
 30
0.0
 10
173.2197
 20
123.0503
 30
0.0
 10
171.4505
 20
120.514
 30
0.0
 10
171.4505
 20
120.514
 30
0.0
 10
167.4692
 20
123.5896
 30
0.0
 10
164.2983
 20
125.2838
 30
0.0
 10
158.7232
 20
126.4202
 30
0.0
  0
SPLINE
  5
55
330
1F
100
AcDbEntity
  8
layer 1
 62
     7
100
AcDbSpline
210
0.0
220
0.0
230
1.0
 70
    11
 71
     3
 72
    20
 73
    16
 74
     0
 42
0.0000000001
 43
0.0000000001
 12
1.0
 22
0.0
 32
0.0
 13
1.0
 23
0.0
 33
0.0
 40
0.0
 40
0.0
 40
0.0
 40
0.0
 40
0.2
 40
0.2
 40
0.2
 40
0.2
 40
0.4
 40
0.4
 40
0.4
 40
0.4
 40
0.6
 40
0.6
 40
0.6
 40
0.6
 40
1.0
 40
1.0
 40
1.0
 40
1.0
 10
112.4772
 20
93.8809
 30
0.0
 10
113.7223
 20
95.9425
 30
0.0
 10
118.115
 20
97.1082
 30
0.0
 10
120.4153
 20
95.0405
 30
0.0
 10
120.4153
 20
95.0405
 30
0.0
 10
120.4153
 20
95.0405
 30
0.0
 10
120.4153
 20
98.5429
 30
0.0
 10
120.4153
 20
98.5429
 30
0.0
 10
120.4153
 20
98.5429
 30
0.0
 10
118.115
 20
96.4753
 30
0.0
 10
113.7223
 20
97.6409
 30
0.0
 10
112.4772
 20
99.7025
 30
0.0
 10
112.4772
 20
99.7025
 30
0.0
 10
112.4772
 20
99.7025
 30
0.0
 10
112.4772
 20
93.8809
 30
0.0
 10
112.4772
 20
93.8809
 30
0.0
  0
SPLINE
  5
56
330
1F
100
AcDbEntity
  8
layer 1
 62
     7
100
AcDbSpline
210
0.0
220
0.0
230
1.0
 70
    11
 71
     3
 72
    28
 73
    24
 74
     0
 42
0.0000000001
 43
0.0000000001
 12
1.0
 22
0.0
 32
0.0
 13
1.0
 23
0.0
 33
0.0
 40
0.0
 40
0.0
 40
0.0
 40
0.0
 40
0.1428571428571428
 40
0.1428571428571428
 40
0.1428571428571428
 40
0.1428571428571428
 40
0.2857142857142857
 40
0.2857142857142857
 40
0.2857142857142857
 40
0.2857142857142857
 40
0.4285714285714285
 40
0.4285714285714285
 40
0.4285714285714285
 40
0.4285714285714285
 40
0.5714285714285714
 40
0.5714285714285714
 40
0.5714285714285714
 40
0.5714285714285714
 40
0.7142857142857143
 40
0.7142857142857143
 40
0.7142857142857143
 40
0.7142857142857143
 40
1.0
 40
1.0
 40
1.0
 40
1.0
 10
117.8161
 20
91.6456
 30
0.0
 10
118.3931
 20
90.9502
 30
0.0
 10
118.3592
 20
89.5484
 30
0.0
 10
116.3175
 20
86.7441
 30
0.0
 10
116.3175
 20
86.7441
 30
0.0
 10
114.9181
 20
84.6971
 30
0.0
 10
113.477
 20
82.361
 30
0.0
 10
112.4772
 20
79.787
 30
0.0
 10
112.4772
 20
79.787
 30
0.0
 10
112.6674
 20
83.4801
 30
0.0
 10
112.4813
 20
87.1743
 30
0.0
 10
112.4772
 20
90.8704
 30
0.0
 10
112.4772
 20
90.8704
 30
0.0
 10
113.1295
 20
89.8094
 30
0.0
 10
114.3414
 20
89.3261
 30
0.0
 10
115.3171
 20
89.3876
 30
0.0
 10
115.3171
 20
89.3876
 30
0.0
 10
115.8954
 20
89.501
 30
0.0
 10
116.2002
 20
89.6156
 30
0.0
 10
116.019
 20
90.3375
 30
0.0
 10
116.019
 20
90.3375
 30
0.0
 10
115.4496
 20
91.7512
 30
0.0
 10
117.0417
 20
92.5098
 30
0.0
 10
117.8161
 20
91.6456
 30
0.0
  0
SPLINE
  5
57
330
1F
100
AcDbEntity
  8
layer 1
 62
     7
100
AcDbSpline
210
0.0
220
0.0
230
1.0
 70
    11
 71
     3
 72
    16
 73
    12
 74
     0
 42
0.0000000001
 43
0.0000000001
 12
1.0
 22
0.0
 32
0.0
 13
1.0
 23
0.0
 33
0.0
 40
0.0
 40
0.0
 40
0.0
 40
0.0
 40
0.25
 40
0.25
 40
0.25
 40
0.25
 40
0.5
 40
0.5
 40
0.5
 40
0.5
 40
1.0
 40
1.0
 40
1.0
 40
1.0
 10
124.3913
 20
82.5739
 30
0.0
 10
122.984
 20
84.0631
 30
0.0
 10
121.0411
 20
84.499
 30
0.0
 10
119.1529
 20
83.7318
 30
0.0
 10
119.1529
 20
83.7318
 30
0.0
 10
120.2226
 20
85.6351
 30
0.0
 10
120.9535
 20
86.5526
 30
0.0
 10
121.7066
 20
89.3669
 30
0.0
 10
121.7066
 20
89.3669
 30
0.0
 10
122.0497
 20
86.8768
 30
0.0
 10
123.2917
 20
84.0938
 30
0.0
 10
124.3913
 20
82.5739
 30
0.0
  0
SPLINE
  5
58
330
1F
100
AcDbEntity
  8
layer 1
 62
     7
100
AcDbSpline
210
0.0
220
0.0
230
1.0
 70
    11
 71
     3
 72
    20
 73
    16
 74
     0
 42
0.0000000001
 43
0.0000000001
 12
1.0
 22
0.0
 32
0.0
 13
1.0
 23
0.0
 33
0.0
 40
0.0
 40
0.0
 40
0.0
 40
0.0
 40
0.2
 40
0.2
 40
0.2
 40
0.2
 40
0.4
 40
0.4
 40
0.4
 40
0.4
 40
0.6
 40
0.6
 40
0.6
 40
0.6
 40
1.0
 40
1.0
 40
1.0
 40
1.0
 10
133.6665
 20
86.2472
 30
0.0
 10
132.0893
 20
84.2484
 30
0.0
 10
130.8881
 20
82.5121
 30
0.0
 10
130.6389
 20
79.7388
 30
0.0
 10
130.6389
 20
79.7388
 30
0.0
 10
128.7407
 20
81.9171
 30
0.0
 10
127.4025
 20
84.0385
 30
0.0
 10
126.0502
 20
87.0686
 30
0.0
 10
126.0502
 20
87.0686
 30
0.0
 10
128.7562
 20
85.6501
 30
0.0
 10
130.7693
 20
85.7204
 30
0.0
 10
133.6664
 20
86.2472
 30
0.0
 10
133.6664
 20
86.2472
 30
0.0
 10
133.6664
 20
86.2472
 30
0.0
 10
133.6665
 20
86.2472
 30
0.0
 10
133.6665
 20
86.2472
 30
0.0
  0
SPLINE
  5
59
330
1F
100
AcDbEntity
  8
layer 1
 62
     7
100
AcDbSpline
210
0.0
220
0.0
230
1.0
 70
    11
 71
     3
 72
   136
 73
   132
 74
     0
 42
0.0000000001
 43
0.0000000001
 12
1.0
 22
0.0
 32
0.0
 13
1.0
 23
0.0
 33
0.0
 40
0.0
 40
0.0
 40
0.0
 40
0.0
 40
0.0294117647058824
 40
0.0294117647058824
 40
0.0294117647058824
 40
0.0294117647058824
 40
0.0588235294117647
 40
0.0588235294117647
 40
0.0588235294117647
 40
0.0588235294117647
 40
0.0882352941176471
 40
0.0882352941176471
 40
0.0882352941176471
 40
0.0882352941176471
 40
0.1176470588235294
 40
0.1176470588235294
 40
0.1176470588235294
 40
0.1176470588235294
 40
0.1470588235294118
 40
0.1470588235294118
 40
0.1470588235294118
 40
0.1470588235294118
 40
0.1764705882352941
 40
0.1764705882352941
 40
0.1764705882352941
 40
0.1764705882352941
 40
0.2058823529411765
 40
0.2058823529411765
 40
0.2058823529411765
 40
0.2058823529411765
 40
0.2352941176470588
 40
0.2352941176470588
 40
0.2352941176470588
 40
0.2352941176470588
 40
0.2647058823529412
 40
0.2647058823529412
 40
0.2647058823529412
 40
0.2647058823529412
 40
0.2941176470588235
 40
0.2941176470588235
 40
0.2941176470588235
 40
0.2941176470588235
 40
0.3235294117647059
 40
0.3235294117647059
 40
0.3235294117647059
 40
0.3235294117647059
 40
0.3529411764705883
 40
0.3529411764705883
 40
0.3529411764705883
 40
0.3529411764705883
 40
0.3823529411764706
 40
0.3823529411764706
 40
0.3823529411764706
 40
0.3823529411764706
 40
0.4117647058823529
 40
0.4117647058823529
 40
0.4117647058823529
 40
0.4117647058823529
 40
0.4411764705882353
 40
0.4411764705882353
 40
0.4411764705882353
 40
0.4411764705882353
 40
0.4705882352941176
 40
0.4705882352941176
 40
0.4705882352941176
 40
0.4705882352941176
 40
0.5
 40
0.5
 40
0.5
 40
0.5
 40
0.5294117647058824
 40
0.5294117647058824
 40
0.5294117647058824
 40
0.5294117647058824
 40
0.5588235294117647
 40
0.5588235294117647
 40
0.5588235294117647
 40
0.5588235294117647
 40
0.5882352941176471
 40
0.5882352941176471
 40
0.5882352941176471
 40
0.5882352941176471
 40
0.6176470588235294
 40
0.6176470588235294
 40
0.6176470588235294
 40
0.6176470588235294
 40
0.6470588235294118
 40
0.6470588235294118
 40
0.6470588235294118
 40
0.6470588235294118
 40
0.6764705882352942
 40
0.6764705882352942
 40
0.6764705882352942
 40
0.6764705882352942
 40
0.7058823529411765
 40
0.7058823529411765
 40
0.7058823529411765
 40
0.7058823529411765
 40
0.7352941176470589
 40
0.7352941176470589
 40
0.7352941176470589
 40
0.7352941176470589
 40
0.7647058823529411
 40
0.7647058823529411
 40
0.7647058823529411
 40
0.7647058823529411
 40
0.7941176470588235
 40
0.7941176470588235
 40
0.7941176470588235
 40
0.7941176470588235
 40
0.8235294117647058
 40
0.8235294117647058
 40
0.8235294117647058
 40
0.8235294117647058
 40
0.8529411764705882
 40
0.8529411764705882
 40
0.8529411764705882
 40
0.8529411764705882
 40
0.8823529411764706
 40
0.8823529411764706
 40
0.8823529411764706
 40
0.8823529411764706
 40
0.9117647058823529
 40
0.9117647058823529
 40
0.9117647058823529
 40
0.9117647058823529
 40
0.9411764705882353
 40
0.9411764705882353
 40
0.9411764705882353
 40
0.9411764705882353
 40
1.0
 40
1.0
 40
1.0
 40
1.0
 10
149.8316
 20
76.01
 30
0.0
 10
148.3129
 20
75.0602
 30
0.0
 10
146.4544
 20
75.0588
 30
0.0
 10
144.6851
 20
76.5382
 30
0.0
 10
144.6851
 20
76.5382
 30
0.0
 10
143.2357
 20
77.8265
 30
0.0
 10
143.0073
 20
80.5642
 30
0.0
 10
144.4341
 20
82.46
 30
0.0
 10
144.4341
 20
82.46
 30
0.0
 10
144.931
 20
81.4593
 30
0.0
 10
145.9676
 20
80.2861
 30
0.0
 10
146.9497
 20
81.452
 30
0.0
 10
146.9497
 20
81.452
 30
0.0
 10
147.8197
 20
83.0777
 30
0.0
 10
146.2596
 20
85.2517
 30
0.0
 10
143.4754
 20
86.2934
 30
0.0
 10
143.4754
 20
86.2934
 30
0.0
 10
143.4754
 20
86.2934
 30
0.0
 10
143.4754
 20
86.2934
 30
0.0
 10
143.4754
 20
86.2934
 30
0.0
 10
143.4754
 20
86.2934
 30
0.0
 10
142.5228
 20
86.6498
 30
0.0
 10
140.9601
 20
86.9413
 30
0.0
 10
140.0026
 20
86.9413
 30
0.0
 10
140.0026
 20
86.9413
 30
0.0
 10
138.3872
 20
86.9413
 30
0.0
 10
138.2151
 20
86.8655
 30
0.0
 10
137.6136
 20
85.8899
 30
0.0
 10
137.6136
 20
85.8899
 30
0.0
 10
137.257
 20
85.3116
 30
0.0
 10
136.8655
 20
84.4381
 30
0.0
 10
136.7433
 20
83.9488
 30
0.0
 10
136.7433
 20
83.9488
 30
0.0
 10
136.5432
 20
83.1467
 30
0.0
 10
136.6055
 20
83.0591
 30
0.0
 10
137.3755
 20
83.0591
 30
0.0
 10
137.3755
 20
83.0591
 30
0.0
 10
139.4099
 20
83.0135
 30
0.0
 10
141.9189
 20
81.367
 30
0.0
 10
141.6706
 20
79.0209
 30
0.0
 10
141.6706
 20
79.0209
 30
0.0
 10
141.4786
 20
77.3852
 30
0.0
 10
139.4807
 20
75.1113
 30
0.0
 10
136.9996
 20
76.1736
 30
0.0
 10
136.9996
 20
76.1736
 30
0.0
 10
136.2523
 20
76.6342
 30
0.0
 10
136.2042
 20
77.2357
 30
0.0
 10
137.0265
 20
77.2357
 30
0.0
 10
137.0265
 20
77.2357
 30
0.0
 10
138.2118
 20
77.4022
 30
0.0
 10
138.9068
 20
78.0664
 30
0.0
 10
138.2141
 20
79.0089
 30
0.0
 10
138.2141
 20
79.0089
 30
0.0
 10
137.2888
 20
80.118
 30
0.0
 10
135.165
 20
78.5822
 30
0.0
 10
134.083
 20
76.4759
 30
0.0
 10
134.083
 20
76.4759
 30
0.0
 10
138.2553
 20
72.9477
 30
0.0
 10
144.2447
 20
70.3789
 30
0.0
 10
152.1191
 20
70.1749
 30
0.0
 10
152.1191
 20
70.1749
 30
0.0
 10
159.9936
 20
70.3789
 30
0.0
 10
165.983
 20
72.9477
 30
0.0
 10
170.1553
 20
76.4759
 30
0.0
 10
170.1553
 20
76.4759
 30
0.0
 10
169.0731
 20
78.5822
 30
0.0
 10
166.9493
 20
80.118
 30
0.0
 10
166.0242
 20
79.0089
 30
0.0
 10
166.0242
 20
79.0089
 30
0.0
 10
165.3315
 20
78.0664
 30
0.0
 10
166.0265
 20
77.4022
 30
0.0
 10
167.2117
 20
77.2357
 30
0.0
 10
167.2117
 20
77.2357
 30
0.0
 10
168.034
 20
77.2357
 30
0.0
 10
167.986
 20
76.6343
 30
0.0
 10
167.2386
 20
76.1736
 30
0.0
 10
167.2386
 20
76.1736
 30
0.0
 10
164.7575
 20
75.1113
 30
0.0
 10
162.7596
 20
77.3851
 30
0.0
 10
162.5677
 20
79.0209
 30
0.0
 10
162.5677
 20
79.0209
 30
0.0
 10
162.3194
 20
81.367
 30
0.0
 10
164.8283
 20
83.0135
 30
0.0
 10
166.8628
 20
83.0591
 30
0.0
 10
166.8628
 20
83.0591
 30
0.0
 10
167.6328
 20
83.0591
 30
0.0
 10
167.6951
 20
83.1467
 30
0.0
 10
167.4949
 20
83.9488
 30
0.0
 10
167.4949
 20
83.9488
 30
0.0
 10
167.3728
 20
84.4381
 30
0.0
 10
166.9811
 20
85.3116
 30
0.0
 10
166.6247
 20
85.8899
 30
0.0
 10
166.6247
 20
85.8899
 30
0.0
 10
166.0232
 20
86.8655
 30
0.0
 10
165.851
 20
86.9413
 30
0.0
 10
164.2357
 20
86.9413
 30
0.0
 10
164.2357
 20
86.9413
 30
0.0
 10
163.2782
 20
86.9413
 30
0.0
 10
161.7154
 20
86.6497
 30
0.0
 10
160.7629
 20
86.2934
 30
0.0
 10
160.7629
 20
86.2934
 30
0.0
 10
160.7629
 20
86.2934
 30
0.0
 10
160.7629
 20
86.2934
 30
0.0
 10
160.7629
 20
86.2934
 30
0.0
 10
160.7629
 20
86.2934
 30
0.0
 10
157.9787
 20
85.2517
 30
0.0
 10
156.4186
 20
83.0777
 30
0.0
 10
157.2886
 20
81.452
 30
0.0
 10
157.2886
 20
81.452
 30
0.0
 10
158.2707
 20
80.2861
 30
0.0
 10
159.3072
 20
81.4593
 30
0.0
 10
159.8042
 20
82.46
 30
0.0
 10
159.8042
 20
82.46
 30
0.0
 10
161.231
 20
80.5642
 30
0.0
 10
161.0026
 20
77.8265
 30
0.0
 10
159.5531
 20
76.5382
 30
0.0
 10
159.5531
 20
76.5382
 30
0.0
 10
157.7839
 20
75.0588
 30
0.0
 10
155.9252
 20
75.0602
 30
0.0
 10
154.4067
 20
76.01
 30
0.0
 10
154.4067
 20
76.01
 30
0.0
 10
154.3825
 20
73.8012
 30
0.0
 10
153.2718
 20
71.7839
 30
0.0
 10
152.1193
 20
71.8009
 30
0.0
 10
152.1193
 20
71.8009
 30
0.0
 10
150.9667
 20
71.7839
 30
0.0
 10
149.8561
 20
73.8012
 30
0.0
 10
149.8318
 20
76.01
 30
0.0
 10
149.8318
 20
76.01
 30
0.0
 10
149.8318
 20
76.01
 30
0.0
 10
149.8316
 20
76.01
 30
0.0
 10
149.8316
 20
76.01
 30
0.0
  0
SPLINE
  5
5A
330
1F
100
AcDbEntity
  8
layer 1
 62
     7
100
AcDbSpline
210
0.0
220
0.0
230
1.0
 70
    11
 71
     3
 72
    32
 73
    28
 74
     0
 42
0.0000000001
 43
0.0000000001
 12
1.0
 22
0.0
 32
0.0
 13
1.0
 23
0.0
 33
0.0
 40
0.0
 40
0.0
 40
0.0
 40
0.0
 40
0.125
 40
0.125
 40
0.125
 40
0.125
 40
0.25
 40
0.25
 40
0.25
 40
0.25
 40
0.375
 40
0.375
 40
0.375
 40
0.375
 40
0.5
 40
0.5
 40
0.5
 40
0.5
 40
0.625
 40
0.625
 40
0.625
 40
0.625
 40
0.75
 40
0.75
 40
0.75
 40
0.75
 40
1.0
 40
1.0
 40
1.0
 40
1.0
 10
129.4738
 20
75.8065
 30
0.0
 10
127.753
 20
71.7022
 30
0.0
 10
124.0563
 20
69.6594
 30
0.0
 10
120.8066
 20
70.456
 30
0.0
 10
120.8066
 20
70.456
 30
0.0
 10
116.6362
 20
70.8054
 30
0.0
 10
114.1106
 20
75.729
 30
0.0
 10
116.0252
 20
77.7279
 30
0.0
 10
116.0252
 20
77.7279
 30
0.0
 10
118.3175
 20
79.84
 30
0.0
 10
120.2838
 20
76.5447
 30
0.0
 10
118.7977
 20
74.9712
 30
0.0
 10
118.7977
 20
74.9712
 30
0.0
 10
117.8956
 20
74.069
 30
0.0
 10
117.9815
 20
73.7831
 30
0.0
 10
119.2841
 20
73.3532
 30
0.0
 10
119.2841
 20
73.3532
 30
0.0
 10
124.7671
 20
72.4639
 30
0.0
 10
126.205
 20
77.4328
 30
0.0
 10
125.5277
 20
80.8093
 30
0.0
 10
125.5277
 20
80.8093
 30
0.0
 10
126.6814
 20
78.6563
 30
0.0
 10
128.0525
 20
77.2311
 30
0.0
 10
129.4739
 20
75.8067
 30
0.0
 10
129.4739
 20
75.8067
 30
0.0
 10
129.4739
 20
75.8067
 30
0.0
 10
129.4738
 20
75.8065
 30
0.0
 10
129.4738
 20
75.8065
 30
0.0
  0
SPLINE
  5
5B
330
1F
100
AcDbEntity
  8
layer 1
 62
     7
100
AcDbSpline
210
0.0
220
0.0
230
1.0
 70
    11
 71
     3
 72
    16
 73
    12
 74
     0
 42
0.0000000001
 43
0.0000000001
 12
1.0
 22
0.0
 32
0.0
 13
1.0
 23
0.0
 33
0.0
 40
0.0
 40
0.0
 40
0.0
 40
0.0
 40
0.25
 40
0.25
 40
0.25
 40
0.25
 40
0.5
 40
0.5
 40
0.5
 40
0.5
 40
1.0
 40
1.0
 40
1.0
 40
1.0
 10
112.4772
 20
73.7029
 30
0.0
 10
112.4772
 20
73.7029
 30
0.0
 10
112.4791
 20
60.6617
 30
0.0
 10
112.4791
 20
60.6617
 30
0.0
 10
112.4791
 20
60.6617
 30
0.0
 10
113.5181
 20
64.2191
 30
0.0
 10
115.979
 20
66.4544
 30
0.0
 10
119.1159
 20
67.1823
 30
0.0
 10
119.1159
 20
67.1823
 30
0.0
 10
115.977
 20
67.9102
 30
0.0
 10
113.5161
 20
70.1456
 30
0.0
 10
112.4772
 20
73.7029
 30
0.0
  0
SPLINE
  5
5C
330
1F
100
AcDbEntity
  8
layer 1
 62
     7
100
AcDbSpline
210
0.0
220
0.0
230
1.0
 70
    11
 71
     3
 72
    20
 73
    16
 74
     0
 42
0.0000000001
 43
0.0000000001
 12
1.0
 22
0.0
 32
0.0
 13
1.0
 23
0.0
 33
0.0
 40
0.0
 40
0.0
 40
0.0
 40
0.0
 40
0.2
 40
0.2
 40
0.2
 40
0.2
 40
0.4
 40
0.4
 40
0.4
 40
0.4
 40
0.6
 40
0.6
 40
0.6
 40
0.6
 40
1.0
 40
1.0
 40
1.0
 40
1.0
 10
191.7607
 20
93.8809
 30
0.0
 10
190.5156
 20
95.9425
 30
0.0
 10
186.1229
 20
97.1082
 30
0.0
 10
183.8226
 20
95.0405
 30
0.0
 10
183.8226
 20
95.0405
 30
0.0
 10
183.8226
 20
95.0405
 30
0.0
 10
183.8226
 20
98.5429
 30
0.0
 10
183.8226
 20
98.5429
 30
0.0
 10
183.8226
 20
98.5429
 30
0.0
 10
186.1229
 20
96.4753
 30
0.0
 10
190.5156
 20
97.6409
 30
0.0
 10
191.7607
 20
99.7025
 30
0.0
 10
191.7607
 20
99.7025
 30
0.0
 10
191.7607
 20
99.7025
 30
0.0
 10
191.7607
 20
93.8809
 30
0.0
 10
191.7607
 20
93.8809
 30
0.0
  0
SPLINE
  5
5D
330
1F
100
AcDbEntity
  8
layer 1
 62
     7
100
AcDbSpline
210
0.0
220
0.0
230
1.0
 70
    11
 71
     3
 72
    56
 73
    52
 74
     0
 42
0.0000000001
 43
0.0000000001
 12
1.0
 22
0.0
 32
0.0
 13
1.0
 23
0.0
 33
0.0
 40
0.0
 40
0.0
 40
0.0
 40
0.0
 40
0.0714285714285714
 40
0.0714285714285714
 40
0.0714285714285714
 40
0.0714285714285714
 40
0.1428571428571428
 40
0.1428571428571428
 40
0.1428571428571428
 40
0.1428571428571428
 40
0.2142857142857143
 40
0.2142857142857143
 40
0.2142857142857143
 40
0.2142857142857143
 40
0.2857142857142857
 40
0.2857142857142857
 40
0.2857142857142857
 40
0.2857142857142857
 40
0.3571428571428572
 40
0.3571428571428572
 40
0.3571428571428572
 40
0.3571428571428572
 40
0.4285714285714285
 40
0.4285714285714285
 40
0.4285714285714285
 40
0.4285714285714285
 40
0.5
 40
0.5
 40
0.5
 40
0.5
 40
0.5714285714285714
 40
0.5714285714285714
 40
0.5714285714285714
 40
0.5714285714285714
 40
0.6428571428571429
 40
0.6428571428571429
 40
0.6428571428571429
 40
0.6428571428571429
 40
0.7142857142857143
 40
0.7142857142857143
 40
0.7142857142857143
 40
0.7142857142857143
 40
0.7857142857142857
 40
0.7857142857142857
 40
0.7857142857142857
 40
0.7857142857142857
 40
0.8571428571428571
 40
0.8571428571428571
 40
0.8571428571428571
 40
0.8571428571428571
 40
1.0
 40
1.0
 40
1.0
 40
1.0
 10
155.1699
 20
89.0247
 30
0.0
 10
157.0456
 20
89.3981
 30
0.0
 10
158.1133
 20
91.3088
 30
0.0
 10
156.5694
 20
91.529
 30
0.0
 10
156.5694
 20
91.529
 30
0.0
 10
155.7374
 20
91.6477
 30
0.0
 10
155.44
 20
92.5754
 30
0.0
 10
156.0128
 20
93.2655
 30
0.0
 10
156.0128
 20
93.2655
 30
0.0
 10
157.3485
 20
94.625
 30
0.0
 10
161.7778
 20
93.1845
 30
0.0
 10
163.1816
 20
90.5593
 30
0.0
 10
163.1816
 20
90.5593
 30
0.0
 10
158.7428
 20
90.1238
 30
0.0
 10
153.6982
 20
88.3482
 30
0.0
 10
153.1261
 20
83.3736
 30
0.0
 10
153.1261
 20
83.3736
 30
0.0
 10
152.9639
 20
81.6791
 30
0.0
 10
152.6696
 20
81.0383
 30
0.0
 10
152.1189
 20
81.0006
 30
0.0
 10
152.1189
 20
81.0006
 30
0.0
 10
151.5682
 20
81.0383
 30
0.0
 10
151.2738
 20
81.6791
 30
0.0
 10
151.1117
 20
83.3736
 30
0.0
 10
151.1117
 20
83.3736
 30
0.0
 10
150.5396
 20
88.3482
 30
0.0
 10
145.4951
 20
90.1238
 30
0.0
 10
141.0561
 20
90.5593
 30
0.0
 10
141.0561
 20
90.5593
 30
0.0
 10
142.46
 20
93.1845
 30
0.0
 10
146.8892
 20
94.625
 30
0.0
 10
148.225
 20
93.2655
 30
0.0
 10
148.225
 20
93.2655
 30
0.0
 10
148.7978
 20
92.5754
 30
0.0
 10
148.5004
 20
91.6477
 30
0.0
 10
147.6684
 20
91.529
 30
0.0
 10
147.6684
 20
91.529
 30
0.0
 10
146.1246
 20
91.3088
 30
0.0
 10
147.1923
 20
89.3981
 30
0.0
 10
149.0679
 20
89.0247
 30
0.0
 10
149.0679
 20
89.0247
 30
0.0
 10
150.4816
 20
88.9709
 30
0.0
 10
151.3497
 20
89.3653
 30
0.0
 10
152.1188
 20
90.3675
 30
0.0
 10
152.1188
 20
90.3675
 30
0.0
 10
152.8879
 20
89.3653
 30
0.0
 10
153.7559
 20
88.971
 30
0.0
 10
155.1697
 20
89.0247
 30
0.0
 10
155.1697
 20
89.0247
 30
0.0
 10
155.1697
 20
89.0247
 30
0.0
 10
155.1699
 20
89.0247
 30
0.0
 10
155.1699
 20
89.0247
 30
0.0
  0
SPLINE
  5
5E
330
1F
100
AcDbEntity
  8
layer 1
 62
     7
100
AcDbSpline
210
0.0
220
0.0
230
1.0
 70
    11
 71
     3
 72
    28
 73
    24
 74
     0
 42
0.0000000001
 43
0.0000000001
 12
1.0
 22
0.0
 32
0.0
 13
1.0
 23
0.0
 33
0.0
 40
0.0
 40
0.0
 40
0.0
 40
0.0
 40
0.1428571428571428
 40
0.1428571428571428
 40
0.1428571428571428
 40
0.1428571428571428
 40
0.2857142857142857
 40
0.2857142857142857
 40
0.2857142857142857
 40
0.2857142857142857
 40
0.4285714285714285
 40
0.4285714285714285
 40
0.4285714285714285
 40
0.4285714285714285
 40
0.5714285714285714
 40
0.5714285714285714
 40
0.5714285714285714
 40
0.5714285714285714
 40
0.7142857142857143
 40
0.7142857142857143
 40
0.7142857142857143
 40
0.7142857142857143
 40
1.0
 40
1.0
 40
1.0
 40
1.0
 10
186.4218
 20
91.6456
 30
0.0
 10
185.8448
 20
90.9502
 30
0.0
 10
185.8787
 20
89.5484
 30
0.0
 10
187.9204
 20
86.7441
 30
0.0
 10
187.9204
 20
86.7441
 30
0.0
 10
189.3198
 20
84.6971
 30
0.0
 10
190.7609
 20
82.361
 30
0.0
 10
191.7607
 20
79.787
 30
0.0
 10
191.7607
 20
79.787
 30
0.0
 10
191.5705
 20
83.4801
 30
0.0
 10
191.7566
 20
87.1743
 30
0.0
 10
191.7607
 20
90.8704
 30
0.0
 10
191.7607
 20
90.8704
 30
0.0
 10
191.1084
 20
89.8094
 30
0.0
 10
189.8965
 20
89.3261
 30
0.0
 10
188.9208
 20
89.3876
 30
0.0
 10
188.9208
 20
89.3876
 30
0.0
 10
188.3425
 20
89.501
 30
0.0
 10
188.0377
 20
89.6156
 30
0.0
 10
188.2189
 20
90.3375
 30
0.0
 10
188.2189
 20
90.3375
 30
0.0
 10
188.7883
 20
91.7512
 30
0.0
 10
187.1962
 20
92.5098
 30
0.0
 10
186.4218
 20
91.6456
 30
0.0
  0
SPLINE
  5
5F
330
1F
100
AcDbEntity
  8
layer 1
 62
     7
100
AcDbSpline
210
0.0
220
0.0
230
1.0
 70
    11
 71
     3
 72
    16
 73
    12
 74
     0
 42
0.0000000001
 43
0.0000000001
 12
1.0
 22
0.0
 32
0.0
 13
1.0
 23
0.0
 33
0.0
 40
0.0
 40
0.0
 40
0.0
 40
0.0
 40
0.25
 40
0.25
 40
0.25
 40
0.25
 40
0.5
 40
0.5
 40
0.5
 40
0.5
 40
1.0
 40
1.0
 40
1.0
 40
1.0
 10
179.8466
 20
82.5739
 30
0.0
 10
181.632
 20
84.2143
 30
0.0
 10
183.1211
 20
84.1964
 30
0.0
 10
185.085
 20
83.7318
 30
0.0
 10
185.085
 20
83.7318
 30
0.0
 10
184.0153
 20
85.6351
 30
0.0
 10
183.2844
 20
86.5526
 30
0.0
 10
182.5313
 20
89.3669
 30
0.0
 10
182.5313
 20
89.3669
 30
0.0
 10
182.1882
 20
86.8768
 30
0.0
 10
180.9462
 20
84.0938
 30
0.0
 10
179.8466
 20
82.5739
 30
0.0
  0
SPLINE
  5
60
330
1F
100
AcDbEntity
  8
layer 1
 62
     7
100
AcDbSpline
210
0.0
220
0.0
230
1.0
 70
    11
 71
     3
 72
    20
 73
    16
 74
     0
 42
0.0000000001
 43
0.0000000001
 12
1.0
 22
0.0
 32
0.0
 13
1.0
 23
0.0
 33
0.0
 40
0.0
 40
0.0
 40
0.0
 40
0.0
 40
0.2
 40
0.2
 40
0.2
 40
0.2
 40
0.4
 40
0.4
 40
0.4
 40
0.4
 40
0.6
 40
0.6
 40
0.6
 40
0.6
 40
1.0
 40
1.0
 40
1.0
 40
1.0
 10
170.5714
 20
86.2472
 30
0.0
 10
171.9217
 20
83.8702
 30
0.0
 10
172.5934
 20
82.2852
 30
0.0
 10
173.599
 20
79.7388
 30
0.0
 10
173.599
 20
79.7388
 30
0.0
 10
175.4972
 20
81.9171
 30
0.0
 10
176.8354
 20
84.0385
 30
0.0
 10
178.1877
 20
87.0686
 30
0.0
 10
178.1877
 20
87.0686
 30
0.0
 10
175.5208
 20
86.1926
 30
0.0
 10
173.7972
 20
86.0295
 30
0.0
 10
170.5715
 20
86.2472
 30
0.0
 10
170.5715
 20
86.2472
 30
0.0
 10
170.5715
 20
86.2472
 30
0.0
 10
170.5714
 20
86.2472
 30
0.0
 10
170.5714
 20
86.2472
 30
0.0
  0
SPLINE
  5
61
330
1F
100
AcDbEntity
  8
layer 1
 62
     7
100
AcDbSpline
210
0.0
220
0.0
230
1.0
 70
    11
 71
     3
 72
    32
 73
    28
 74
     0
 42
0.0000000001
 43
0.0000000001
 12
1.0
 22
0.0
 32
0.0
 13
1.0
 23
0.0
 33
0.0
 40
0.0
 40
0.0
 40
0.0
 40
0.0
 40
0.125
 40
0.125
 40
0.125
 40
0.125
 40
0.25
 40
0.25
 40
0.25
 40
0.25
 40
0.375
 40
0.375
 40
0.375
 40
0.375
 40
0.5
 40
0.5
 40
0.5
 40
0.5
 40
0.625
 40
0.625
 40
0.625
 40
0.625
 40
0.75
 40
0.75
 40
0.75
 40
0.75
 40
1.0
 40
1.0
 40
1.0
 40
1.0
 10
174.7641
 20
75.8065
 30
0.0
 10
176.4849
 20
71.7022
 30
0.0
 10
180.1816
 20
69.6594
 30
0.0
 10
183.4313
 20
70.456
 30
0.0
 10
183.4313
 20
70.456
 30
0.0
 10
187.6017
 20
70.8054
 30
0.0
 10
190.1273
 20
75.729
 30
0.0
 10
188.2127
 20
77.7279
 30
0.0
 10
188.2127
 20
77.7279
 30
0.0
 10
185.9204
 20
79.84
 30
0.0
 10
183.9541
 20
76.5447
 30
0.0
 10
185.4402
 20
74.9712
 30
0.0
 10
185.4402
 20
74.9712
 30
0.0
 10
186.3423
 20
74.069
 30
0.0
 10
186.2564
 20
73.7831
 30
0.0
 10
184.9538
 20
73.3532
 30
0.0
 10
184.9538
 20
73.3532
 30
0.0
 10
179.4708
 20
72.4639
 30
0.0
 10
178.0329
 20
77.4328
 30
0.0
 10
178.7102
 20
80.8093
 30
0.0
 10
178.7102
 20
80.8093
 30
0.0
 10
177.5565
 20
78.6563
 30
0.0
 10
176.1854
 20
77.2311
 30
0.0
 10
174.764
 20
75.8067
 30
0.0
 10
174.764
 20
75.8067
 30
0.0
 10
174.764
 20
75.8067
 30
0.0
 10
174.7641
 20
75.8065
 30
0.0
 10
174.7641
 20
75.8065
 30
0.0
  0
SPLINE
  5
62
330
1F
100
AcDbEntity
  8
layer 1
 62
     7
100
AcDbSpline
210
0.0
220
0.0
230
1.0
 70
    11
 71
     3
 72
    24
 73
    20
 74
     0
 42
0.0000000001
 43
0.0000000001
 12
1.0
 22
0.0
 32
0.0
 13
1.0
 23
0.0
 33
0.0
 40
0.0
 40
0.0
 40
0.0
 40
0.0
 40
0.1666666666666667
 40
0.1666666666666667
 40
0.1666666666666667
 40
0.1666666666666667
 40
0.3333333333333333
 40
0.3333333333333333
 40
0.3333333333333333
 40
0.3333333333333333
 40
0.5
 40
0.5
 40
0.5
 40
0.5
 40
0.6666666666666666
 40
0.6666666666666666
 40
0.6666666666666666
 40
0.6666666666666666
 40
1.0
 40
1.0
 40
1.0
 40
1.0
 10
132.7894
 20
61.2954
 30
0.0
 10
136.7707
 20
64.371
 30
0.0
 10
139.9417
 20
66.0651
 30
0.0
 10
145.5156
 20
67.1823
 30
0.0
 10
145.5156
 20
67.1823
 30
0.0
 10
139.9396
 20
68.2997
 30
0.0
 10
136.7687
 20
69.9937
 30
0.0
 10
132.7874
 20
73.0693
 30
0.0
 10
132.7874
 20
73.0693
 30
0.0
 10
131.0182
 20
70.533
 30
0.0
 10
128.0908
 20
67.9755
 30
0.0
 10
125.3255
 20
67.1513
 30
0.0
 10
125.3255
 20
67.1513
 30
0.0
 10
128.1238
 20
66.327
 30
0.0
 10
131.0202
 20
63.8314
 30
0.0
 10
132.7894
 20
61.2952
 30
0.0
 10
132.7894
 20
61.2952
 30
0.0
 10
132.7894
 20
61.2952
 30
0.0
 10
132.7894
 20
61.2954
 30
0.0
 10
132.7894
 20
61.2954
 30
0.0
  0
SPLINE
  5
63
330
1F
100
AcDbEntity
  8
layer 1
 62
     7
100
AcDbSpline
210
0.0
220
0.0
230
1.0
 70
    11
 71
     3
 72
    16
 73
    12
 74
     0
 42
0.0000000001
 43
0.0000000001
 12
1.0
 22
0.0
 32
0.0
 13
1.0
 23
0.0
 33
0.0
 40
0.0
 40
0.0
 40
0.0
 40
0.0
 40
0.25
 40
0.25
 40
0.25
 40
0.25
 40
0.5
 40
0.5
 40
0.5
 40
0.5
 40
1.0
 40
1.0
 40
1.0
 40
1.0
 10
191.7738
 20
14.582
 30
0.0
 10
191.7738
 20
14.582
 30
0.0
 10
191.7719
 20
1.5408
 30
0.0
 10
191.7719
 20
1.5408
 30
0.0
 10
191.7719
 20
1.5408
 30
0.0
 10
190.7329
 20
5.0981
 30
0.0
 10
188.272
 20
7.3335
 30
0.0
 10
185.1351
 20
8.0614
 30
0.0
 10
185.1351
 20
8.0614
 30
0.0
 10
188.2739
 20
8.7893
 30
0.0
 10
190.7349
 20
11.0246
 30
0.0
 10
191.7738
 20
14.582
 30
0.0
  0
SPLINE
  5
64
330
1F
100
AcDbEntity
  8
layer 1
 62
     7
100
AcDbSpline
210
0.0
220
0.0
230
1.0
 70
    11
 71
     3
 72
    24
 73
    20
 74
     0
 42
0.0000000001
 43
0.0000000001
 12
1.0
 22
0.0
 32
0.0
 13
1.0
 23
0.0
 33
0.0
 40
0.0
 40
0.0
 40
0.0
 40
0.0
 40
0.1666666666666667
 40
0.1666666666666667
 40
0.1666666666666667
 40
0.1666666666666667
 40
0.3333333333333333
 40
0.3333333333333333
 40
0.3333333333333333
 40
0.3333333333333333
 40
0.5
 40
0.5
 40
0.5
 40
0.5
 40
0.6666666666666666
 40
0.6666666666666666
 40
0.6666666666666666
 40
0.6666666666666666
 40
1.0
 40
1.0
 40
1.0
 40
1.0
 10
171.4615
 20
2.1743
 30
0.0
 10
167.4802
 20
5.2499
 30
0.0
 10
164.3093
 20
6.944
 30
0.0
 10
158.7353
 20
8.0612
 30
0.0
 10
158.7353
 20
8.0612
 30
0.0
 10
164.3113
 20
9.1786
 30
0.0
 10
167.4823
 20
10.8726
 30
0.0
 10
171.4636
 20
13.9482
 30
0.0
 10
171.4636
 20
13.9482
 30
0.0
 10
173.2328
 20
11.412
 30
0.0
 10
176.1602
 20
8.8544
 30
0.0
 10
178.9255
 20
8.0302
 30
0.0
 10
178.9255
 20
8.0302
 30
0.0
 10
176.1272
 20
7.2059
 30
0.0
 10
173.2307
 20
4.7103
 30
0.0
 10
171.4615
 20
2.1742
 30
0.0
 10
171.4615
 20
2.1742
 30
0.0
 10
171.4615
 20
2.1742
 30
0.0
 10
171.4615
 20
2.1743
 30
0.0
 10
171.4615
 20
2.1743
 30
0.0
  0
SPLINE
  5
65
330
1F
100
AcDbEntity
  8
layer 1
 62
     7
100
AcDbSpline
210
0.0
220
0.0
230
1.0
 70
    11
 71
     3
 72
    68
 73
    64
 74
     0
 42
0.0000000001
 43
0.0000000001
 12
1.0
 22
0.0
 32
0.0
 13
1.0
 23
0.0
 33
0.0
 40
0.0
 40
0.0
 40
0.0
 40
0.0
 40
0.0588235294117647
 40
0.0588235294117647
 40
0.0588235294117647
 40
0.0588235294117647
 40
0.1176470588235294
 40
0.1176470588235294
 40
0.1176470588235294
 40
0.1176470588235294
 40
0.1764705882352941
 40
0.1764705882352941
 40
0.1764705882352941
 40
0.1764705882352941
 40
0.2352941176470588
 40
0.2352941176470588
 40
0.2352941176470588
 40
0.2352941176470588
 40
0.2941176470588235
 40
0.2941176470588235
 40
0.2941176470588235
 40
0.2941176470588235
 40
0.3529411764705883
 40
0.3529411764705883
 40
0.3529411764705883
 40
0.3529411764705883
 40
0.4117647058823529
 40
0.4117647058823529
 40
0.4117647058823529
 40
0.4117647058823529
 40
0.4705882352941176
 40
0.4705882352941176
 40
0.4705882352941176
 40
0.4705882352941176
 40
0.5294117647058824
 40
0.5294117647058824
 40
0.5294117647058824
 40
0.5294117647058824
 40
0.5882352941176471
 40
0.5882352941176471
 40
0.5882352941176471
 40
0.5882352941176471
 40
0.6470588235294118
 40
0.6470588235294118
 40
0.6470588235294118
 40
0.6470588235294118
 40
0.7058823529411765
 40
0.7058823529411765
 40
0.7058823529411765
 40
0.7058823529411765
 40
0.7647058823529411
 40
0.7647058823529411
 40
0.7647058823529411
 40
0.7647058823529411
 40
0.8235294117647058
 40
0.8235294117647058
 40
0.8235294117647058
 40
0.8235294117647058
 40
0.8823529411764706
 40
0.8823529411764706
 40
0.8823529411764706
 40
0.8823529411764706
 40
1.0
 40
1.0
 40
1.0
 40
1.0
 10
135.8625
 20
44.4476
 30
0.0
 10
135.8625
 20
44.4476
 30
0.0
 10
132.9606
 20
44.5618
 30
0.0
 10
132.9606
 20
44.5618
 30
0.0
 10
132.9606
 20
44.5618
 30
0.0
 10
127.811
 20
44.9568
 30
0.0
 10
124.0762
 20
42.7232
 30
0.0
 10
125.9386
 20
39.6384
 30
0.0
 10
125.9386
 20
39.6384
 30
0.0
 10
127.2386
 20
37.9856
 30
0.0
 10
129.8296
 20
38.9663
 30
0.0
 10
128.6421
 20
40.6616
 30
0.0
 10
128.6421
 20
40.6616
 30
0.0
 10
128.2096
 20
41.2791
 30
0.0
 10
128.2243
 20
41.3752
 30
0.0
 10
128.798
 20
41.6823
 30
0.0
 10
128.798
 20
41.6823
 30
0.0
 10
129.1464
 20
41.8687
 30
0.0
 10
130.0424
 20
42.0212
 30
0.0
 10
130.7894
 20
42.0212
 30
0.0
 10
130.7894
 20
42.0212
 30
0.0
 10
132.8097
 20
42.0359
 30
0.0
 10
133.0721
 20
40.4738
 30
0.0
 10
134.6985
 20
39.7565
 30
0.0
 10
134.6985
 20
39.7565
 30
0.0
 10
135.8027
 20
39.3463
 30
0.0
 10
138.9465
 20
38.8508
 30
0.0
 10
138.8215
 20
37.6708
 30
0.0
 10
138.8215
 20
37.6708
 30
0.0
 10
138.9465
 20
36.4907
 30
0.0
 10
135.8028
 20
35.9951
 30
0.0
 10
134.6985
 20
35.585
 30
0.0
 10
134.6985
 20
35.585
 30
0.0
 10
133.0721
 20
34.8677
 30
0.0
 10
132.8096
 20
33.3056
 30
0.0
 10
130.7894
 20
33.3203
 30
0.0
 10
130.7894
 20
33.3203
 30
0.0
 10
130.0425
 20
33.3203
 30
0.0
 10
129.1464
 20
33.4728
 30
0.0
 10
128.798
 20
33.6593
 30
0.0
 10
128.798
 20
33.6593
 30
0.0
 10
128.2243
 20
33.9663
 30
0.0
 10
128.2096
 20
34.0624
 30
0.0
 10
128.6421
 20
34.6799
 30
0.0
 10
128.6421
 20
34.6799
 30
0.0
 10
129.8296
 20
36.3752
 30
0.0
 10
127.2386
 20
37.3559
 30
0.0
 10
125.9386
 20
35.7031
 30
0.0
 10
125.9386
 20
35.7031
 30
0.0
 10
124.0763
 20
32.6183
 30
0.0
 10
127.811
 20
30.3847
 30
0.0
 10
132.9606
 20
30.7797
 30
0.0
 10
132.9606
 20
30.7797
 30
0.0
 10
132.9606
 20
30.7797
 30
0.0
 10
135.8625
 20
30.8939
 30
0.0
 10
135.8625
 20
30.8939
 30
0.0
 10
135.8625
 20
30.8939
 30
0.0
 10
138.3351
 20
34.3191
 30
0.0
 10
141.3737
 20
36.9651
 30
0.0
 10
145.3569
 20
37.6708
 30
0.0
 10
145.3569
 20
37.6708
 30
0.0
 10
141.298
 20
38.3764
 30
0.0
 10
138.3351
 20
41.7032
 30
0.0
 10
135.8625
 20
44.4476
 30
0.0
  0
SPLINE
  5
66
330
1F
100
AcDbEntity
  8
layer 1
 62
     7
100
AcDbSpline
210
0.0
220
0.0
230
1.0
 70
    11
 71
     3
 72
    28
 73
    24
 74
     0
 42
0.0000000001
 43
0.0000000001
 12
1.0
 22
0.0
 32
0.0
 13
1.0
 23
0.0
 33
0.0
 40
0.0
 40
0.0
 40
0.0
 40
0.0
 40
0.1428571428571428
 40
0.1428571428571428
 40
0.1428571428571428
 40
0.1428571428571428
 40
0.2857142857142857
 40
0.2857142857142857
 40
0.2857142857142857
 40
0.2857142857142857
 40
0.4285714285714285
 40
0.4285714285714285
 40
0.4285714285714285
 40
0.4285714285714285
 40
0.5714285714285714
 40
0.5714285714285714
 40
0.5714285714285714
 40
0.5714285714285714
 40
0.7142857142857143
 40
0.7142857142857143
 40
0.7142857142857143
 40
0.7142857142857143
 40
1.0
 40
1.0
 40
1.0
 40
1.0
 10
117.8161
 20
42.8167
 30
0.0
 10
118.3931
 20
43.5121
 30
0.0
 10
118.3592
 20
44.914
 30
0.0
 10
116.3175
 20
47.7183
 30
0.0
 10
116.3175
 20
47.7183
 30
0.0
 10
114.9181
 20
49.7653
 30
0.0
 10
113.477
 20
52.1014
 30
0.0
 10
112.4772
 20
54.6754
 30
0.0
 10
112.4772
 20
54.6754
 30
0.0
 10
112.6674
 20
50.9823
 30
0.0
 10
112.4813
 20
47.2881
 30
0.0
 10
112.4772
 20
43.592
 30
0.0
 10
112.4772
 20
43.592
 30
0.0
 10
113.1295
 20
44.6529
 30
0.0
 10
114.3414
 20
45.1363
 30
0.0
 10
115.3171
 20
45.0748
 30
0.0
 10
115.3171
 20
45.0748
 30
0.0
 10
115.8954
 20
44.9613
 30
0.0
 10
116.2002
 20
44.8467
 30
0.0
 10
116.019
 20
44.1248
 30
0.0
 10
116.019
 20
44.1248
 30
0.0
 10
115.4496
 20
42.7112
 30
0.0
 10
117.0417
 20
41.9526
 30
0.0
 10
117.8161
 20
42.8167
 30
0.0
  0
SPLINE
  5
67
330
1F
100
AcDbEntity
  8
layer 1
 62
     7
100
AcDbSpline
210
0.0
220
0.0
230
1.0
 70
    11
 71
     3
 72
    16
 73
    12
 74
     0
 42
0.0000000001
 43
0.0000000001
 12
1.0
 22
0.0
 32
0.0
 13
1.0
 23
0.0
 33
0.0
 40
0.0
 40
0.0
 40
0.0
 40
0.0
 40
0.25
 40
0.25
 40
0.25
 40
0.25
 40
0.5
 40
0.5
 40
0.5
 40
0.5
 40
1.0
 40
1.0
 40
1.0
 40
1.0
 10
124.3913
 20
51.8886
 30
0.0
 10
122.9085
 20
50.7019
 30
0.0
 10
121.1168
 20
50.2661
 30
0.0
 10
119.1529
 20
50.7306
 30
0.0
 10
119.1529
 20
50.7306
 30
0.0
 10
120.2226
 20
48.8274
 30
0.0
 10
120.9535
 20
47.9099
 30
0.0
 10
121.7066
 20
45.0956
 30
0.0
 10
121.7066
 20
45.0956
 30
0.0
 10
122.0497
 20
47.5857
 30
0.0
 10
123.2917
 20
50.3687
 30
0.0
 10
124.3913
 20
51.8886
 30
0.0
  0
SPLINE
  5
68
330
1F
100
AcDbEntity
  8
layer 1
 62
     7
100
AcDbSpline
210
0.0
220
0.0
230
1.0
 70
    11
 71
     3
 72
    20
 73
    16
 74
     0
 42
0.0000000001
 43
0.0000000001
 12
1.0
 22
0.0
 32
0.0
 13
1.0
 23
0.0
 33
0.0
 40
0.0
 40
0.0
 40
0.0
 40
0.0
 40
0.2
 40
0.2
 40
0.2
 40
0.2
 40
0.4
 40
0.4
 40
0.4
 40
0.4
 40
0.6
 40
0.6
 40
0.6
 40
0.6
 40
1.0
 40
1.0
 40
1.0
 40
1.0
 10
133.6665
 20
48.2152
 30
0.0
 10
132.165
 20
50.2895
 30
0.0
 10
131.5689
 20
51.8745
 30
0.0
 10
130.6389
 20
54.7236
 30
0.0
 10
130.6389
 20
54.7236
 30
0.0
 10
128.7407
 20
52.5452
 30
0.0
 10
127.4025
 20
50.4239
 30
0.0
 10
126.0502
 20
47.3937
 30
0.0
 10
126.0502
 20
47.3937
 30
0.0
 10
128.9205
 20
48.5658
 30
0.0
 10
130.6872
 20
48.742
 30
0.0
 10
133.6664
 20
48.2152
 30
0.0
 10
133.6664
 20
48.2152
 30
0.0
 10
133.6664
 20
48.2152
 30
0.0
 10
133.6665
 20
48.2152
 30
0.0
 10
133.6665
 20
48.2152
 30
0.0
  0
SPLINE
  5
69
330
1F
100
AcDbEntity
  8
layer 1
 62
     7
100
AcDbSpline
210
0.0
220
0.0
230
1.0
 70
    11
 71
     3
 72
   136
 73
   132
 74
     0
 42
0.0000000001
 43
0.0000000001
 12
1.0
 22
0.0
 32
0.0
 13
1.0
 23
0.0
 33
0.0
 40
0.0
 40
0.0
 40
0.0
 40
0.0
 40
0.0294117647058824
 40
0.0294117647058824
 40
0.0294117647058824
 40
0.0294117647058824
 40
0.0588235294117647
 40
0.0588235294117647
 40
0.0588235294117647
 40
0.0588235294117647
 40
0.0882352941176471
 40
0.0882352941176471
 40
0.0882352941176471
 40
0.0882352941176471
 40
0.1176470588235294
 40
0.1176470588235294
 40
0.1176470588235294
 40
0.1176470588235294
 40
0.1470588235294118
 40
0.1470588235294118
 40
0.1470588235294118
 40
0.1470588235294118
 40
0.1764705882352941
 40
0.1764705882352941
 40
0.1764705882352941
 40
0.1764705882352941
 40
0.2058823529411765
 40
0.2058823529411765
 40
0.2058823529411765
 40
0.2058823529411765
 40
0.2352941176470588
 40
0.2352941176470588
 40
0.2352941176470588
 40
0.2352941176470588
 40
0.2647058823529412
 40
0.2647058823529412
 40
0.2647058823529412
 40
0.2647058823529412
 40
0.2941176470588235
 40
0.2941176470588235
 40
0.2941176470588235
 40
0.2941176470588235
 40
0.3235294117647059
 40
0.3235294117647059
 40
0.3235294117647059
 40
0.3235294117647059
 40
0.3529411764705883
 40
0.3529411764705883
 40
0.3529411764705883
 40
0.3529411764705883
 40
0.3823529411764706
 40
0.3823529411764706
 40
0.3823529411764706
 40
0.3823529411764706
 40
0.4117647058823529
 40
0.4117647058823529
 40
0.4117647058823529
 40
0.4117647058823529
 40
0.4411764705882353
 40
0.4411764705882353
 40
0.4411764705882353
 40
0.4411764705882353
 40
0.4705882352941176
 40
0.4705882352941176
 40
0.4705882352941176
 40
0.4705882352941176
 40
0.5
 40
0.5
 40
0.5
 40
0.5
 40
0.5294117647058824
 40
0.5294117647058824
 40
0.5294117647058824
 40
0.5294117647058824
 40
0.5588235294117647
 40
0.5588235294117647
 40
0.5588235294117647
 40
0.5588235294117647
 40
0.5882352941176471
 40
0.5882352941176471
 40
0.5882352941176471
 40
0.5882352941176471
 40
0.6176470588235294
 40
0.6176470588235294
 40
0.6176470588235294
 40
0.6176470588235294
 40
0.6470588235294118
 40
0.6470588235294118
 40
0.6470588235294118
 40
0.6470588235294118
 40
0.6764705882352942
 40
0.6764705882352942
 40
0.6764705882352942
 40
0.6764705882352942
 40
0.7058823529411765
 40
0.7058823529411765
 40
0.7058823529411765
 40
0.7058823529411765
 40
0.7352941176470589
 40
0.7352941176470589
 40
0.7352941176470589
 40
0.7352941176470589
 40
0.7647058823529411
 40
0.7647058823529411
 40
0.7647058823529411
 40
0.7647058823529411
 40
0.7941176470588235
 40
0.7941176470588235
 40
0.7941176470588235
 40
0.7941176470588235
 40
0.8235294117647058
 40
0.8235294117647058
 40
0.8235294117647058
 40
0.8235294117647058
 40
0.8529411764705882
 40
0.8529411764705882
 40
0.8529411764705882
 40
0.8529411764705882
 40
0.8823529411764706
 40
0.8823529411764706
 40
0.8823529411764706
 40
0.8823529411764706
 40
0.9117647058823529
 40
0.9117647058823529
 40
0.9117647058823529
 40
0.9117647058823529
 40
0.9411764705882353
 40
0.9411764705882353
 40
0.9411764705882353
 40
0.9411764705882353
 40
1.0
 40
1.0
 40
1.0
 40
1.0
 10
149.8316
 20
58.4525
 30
0.0
 10
148.3129
 20
59.4023
 30
0.0
 10
146.4544
 20
59.4036
 30
0.0
 10
144.6851
 20
57.9242
 30
0.0
 10
144.6851
 20
57.9242
 30
0.0
 10
143.2357
 20
56.6359
 30
0.0
 10
143.0073
 20
53.8983
 30
0.0
 10
144.4341
 20
52.0024
 30
0.0
 10
144.4341
 20
52.0024
 30
0.0
 10
144.931
 20
53.0031
 30
0.0
 10
145.9676
 20
54.1764
 30
0.0
 10
146.9497
 20
53.0105
 30
0.0
 10
146.9497
 20
53.0105
 30
0.0
 10
147.8197
 20
51.3848
 30
0.0
 10
146.2596
 20
49.2108
 30
0.0
 10
143.4754
 20
48.1691
 30
0.0
 10
143.4754
 20
48.1691
 30
0.0
 10
143.4754
 20
48.1691
 30
0.0
 10
143.4754
 20
48.1691
 30
0.0
 10
143.4754
 20
48.1691
 30
0.0
 10
143.4754
 20
48.1691
 30
0.0
 10
142.5228
 20
47.8127
 30
0.0
 10
140.9601
 20
47.5212
 30
0.0
 10
140.0026
 20
47.5212
 30
0.0
 10
140.0026
 20
47.5212
 30
0.0
 10
138.3872
 20
47.5212
 30
0.0
 10
138.2151
 20
47.597
 30
0.0
 10
137.6136
 20
48.5726
 30
0.0
 10
137.6136
 20
48.5726
 30
0.0
 10
137.257
 20
49.1508
 30
0.0
 10
136.8655
 20
50.0244
 30
0.0
 10
136.7433
 20
50.5137
 30
0.0
 10
136.7433
 20
50.5137
 30
0.0
 10
136.5432
 20
51.3157
 30
0.0
 10
136.6055
 20
51.4034
 30
0.0
 10
137.3755
 20
51.4034
 30
0.0
 10
137.3755
 20
51.4034
 30
0.0
 10
139.4099
 20
51.449
 30
0.0
 10
141.9189
 20
53.0955
 30
0.0
 10
141.6706
 20
55.4416
 30
0.0
 10
141.6706
 20
55.4416
 30
0.0
 10
141.4786
 20
57.0772
 30
0.0
 10
139.4807
 20
59.3512
 30
0.0
 10
136.9996
 20
58.2889
 30
0.0
 10
136.9996
 20
58.2889
 30
0.0
 10
136.2523
 20
57.8282
 30
0.0
 10
136.2042
 20
57.2268
 30
0.0
 10
137.0265
 20
57.2268
 30
0.0
 10
137.0265
 20
57.2268
 30
0.0
 10
138.2118
 20
57.0602
 30
0.0
 10
138.9068
 20
56.396
 30
0.0
 10
138.2141
 20
55.4535
 30
0.0
 10
138.2141
 20
55.4535
 30
0.0
 10
137.2888
 20
54.3445
 30
0.0
 10
135.165
 20
55.8803
 30
0.0
 10
134.083
 20
57.9866
 30
0.0
 10
134.083
 20
57.9866
 30
0.0
 10
138.2553
 20
61.5147
 30
0.0
 10
144.2447
 20
64.0836
 30
0.0
 10
152.1191
 20
64.2876
 30
0.0
 10
152.1191
 20
64.2876
 30
0.0
 10
159.9936
 20
64.0836
 30
0.0
 10
165.983
 20
61.5147
 30
0.0
 10
170.1553
 20
57.9866
 30
0.0
 10
170.1553
 20
57.9866
 30
0.0
 10
169.0731
 20
55.8803
 30
0.0
 10
166.9493
 20
54.3445
 30
0.0
 10
166.0242
 20
55.4535
 30
0.0
 10
166.0242
 20
55.4535
 30
0.0
 10
165.3315
 20
56.396
 30
0.0
 10
166.0265
 20
57.0602
 30
0.0
 10
167.2117
 20
57.2268
 30
0.0
 10
167.2117
 20
57.2268
 30
0.0
 10
168.034
 20
57.2268
 30
0.0
 10
167.986
 20
57.8281
 30
0.0
 10
167.2386
 20
58.2889
 30
0.0
 10
167.2386
 20
58.2889
 30
0.0
 10
164.7575
 20
59.3512
 30
0.0
 10
162.7596
 20
57.0774
 30
0.0
 10
162.5677
 20
55.4416
 30
0.0
 10
162.5677
 20
55.4416
 30
0.0
 10
162.3194
 20
53.0955
 30
0.0
 10
164.8283
 20
51.449
 30
0.0
 10
166.8628
 20
51.4034
 30
0.0
 10
166.8628
 20
51.4034
 30
0.0
 10
167.6328
 20
51.4034
 30
0.0
 10
167.6951
 20
51.3157
 30
0.0
 10
167.4949
 20
50.5137
 30
0.0
 10
167.4949
 20
50.5137
 30
0.0
 10
167.3728
 20
50.0244
 30
0.0
 10
166.9811
 20
49.1508
 30
0.0
 10
166.6247
 20
48.5726
 30
0.0
 10
166.6247
 20
48.5726
 30
0.0
 10
166.0232
 20
47.597
 30
0.0
 10
165.851
 20
47.5212
 30
0.0
 10
164.2357
 20
47.5212
 30
0.0
 10
164.2357
 20
47.5212
 30
0.0
 10
163.2782
 20
47.5212
 30
0.0
 10
161.7154
 20
47.8128
 30
0.0
 10
160.7629
 20
48.1691
 30
0.0
 10
160.7629
 20
48.1691
 30
0.0
 10
160.7629
 20
48.1691
 30
0.0
 10
160.7629
 20
48.1691
 30
0.0
 10
160.7629
 20
48.1691
 30
0.0
 10
160.7629
 20
48.1691
 30
0.0
 10
157.9787
 20
49.2108
 30
0.0
 10
156.4186
 20
51.3848
 30
0.0
 10
157.2886
 20
53.0105
 30
0.0
 10
157.2886
 20
53.0105
 30
0.0
 10
158.2707
 20
54.1764
 30
0.0
 10
159.3072
 20
53.0031
 30
0.0
 10
159.8042
 20
52.0024
 30
0.0
 10
159.8042
 20
52.0024
 30
0.0
 10
161.231
 20
53.8983
 30
0.0
 10
161.0026
 20
56.6359
 30
0.0
 10
159.5531
 20
57.9242
 30
0.0
 10
159.5531
 20
57.9242
 30
0.0
 10
157.7839
 20
59.4036
 30
0.0
 10
155.9252
 20
59.4023
 30
0.0
 10
154.4067
 20
58.4525
 30
0.0
 10
154.4067
 20
58.4525
 30
0.0
 10
154.3825
 20
60.6613
 30
0.0
 10
153.2718
 20
62.6786
 30
0.0
 10
152.1193
 20
62.6616
 30
0.0
 10
152.1193
 20
62.6616
 30
0.0
 10
150.9667
 20
62.6786
 30
0.0
 10
149.8561
 20
60.6613
 30
0.0
 10
149.8318
 20
58.4525
 30
0.0
 10
149.8318
 20
58.4525
 30
0.0
 10
149.8318
 20
58.4525
 30
0.0
 10
149.8316
 20
58.4525
 30
0.0
 10
149.8316
 20
58.4525
 30
0.0
  0
SPLINE
  5
6A
330
1F
100
AcDbEntity
  8
layer 1
 62
     7
100
AcDbSpline
210
0.0
220
0.0
230
1.0
 70
    11
 71
     3
 72
    32
 73
    28
 74
     0
 42
0.0000000001
 43
0.0000000001
 12
1.0
 22
0.0
 32
0.0
 13
1.0
 23
0.0
 33
0.0
 40
0.0
 40
0.0
 40
0.0
 40
0.0
 40
0.125
 40
0.125
 40
0.125
 40
0.125
 40
0.25
 40
0.25
 40
0.25
 40
0.25
 40
0.375
 40
0.375
 40
0.375
 40
0.375
 40
0.5
 40
0.5
 40
0.5
 40
0.5
 40
0.625
 40
0.625
 40
0.625
 40
0.625
 40
0.75
 40
0.75
 40
0.75
 40
0.75
 40
1.0
 40
1.0
 40
1.0
 40
1.0
 10
129.4738
 20
58.6559
 30
0.0
 10
127.753
 20
62.7602
 30
0.0
 10
124.0563
 20
64.8031
 30
0.0
 10
120.8066
 20
64.0065
 30
0.0
 10
120.8066
 20
64.0065
 30
0.0
 10
116.6362
 20
63.6571
 30
0.0
 10
114.1106
 20
58.7335
 30
0.0
 10
116.0252
 20
56.7346
 30
0.0
 10
116.0252
 20
56.7346
 30
0.0
 10
118.3175
 20
54.6224
 30
0.0
 10
120.2838
 20
57.9178
 30
0.0
 10
118.7977
 20
59.4913
 30
0.0
 10
118.7977
 20
59.4913
 30
0.0
 10
117.8956
 20
60.3935
 30
0.0
 10
117.9815
 20
60.6793
 30
0.0
 10
119.2841
 20
61.1093
 30
0.0
 10
119.2841
 20
61.1093
 30
0.0
 10
124.7671
 20
61.9986
 30
0.0
 10
126.205
 20
57.0297
 30
0.0
 10
125.5277
 20
53.6531
 30
0.0
 10
125.5277
 20
53.6531
 30
0.0
 10
126.6814
 20
55.8062
 30
0.0
 10
128.0525
 20
57.2314
 30
0.0
 10
129.4739
 20
58.6558
 30
0.0
 10
129.4739
 20
58.6558
 30
0.0
 10
129.4739
 20
58.6558
 30
0.0
 10
129.4738
 20
58.6559
 30
0.0
 10
129.4738
 20
58.6559
 30
0.0
  0
SPLINE
  5
6B
330
1F
100
AcDbEntity
  8
layer 1
 62
     7
100
AcDbSpline
210
0.0
220
0.0
230
1.0
 70
    11
 71
     3
 72
    68
 73
    64
 74
     0
 42
0.0000000001
 43
0.0000000001
 12
1.0
 22
0.0
 32
0.0
 13
1.0
 23
0.0
 33
0.0
 40
0.0
 40
0.0
 40
0.0
 40
0.0
 40
0.0588235294117647
 40
0.0588235294117647
 40
0.0588235294117647
 40
0.0588235294117647
 40
0.1176470588235294
 40
0.1176470588235294
 40
0.1176470588235294
 40
0.1176470588235294
 40
0.1764705882352941
 40
0.1764705882352941
 40
0.1764705882352941
 40
0.1764705882352941
 40
0.2352941176470588
 40
0.2352941176470588
 40
0.2352941176470588
 40
0.2352941176470588
 40
0.2941176470588235
 40
0.2941176470588235
 40
0.2941176470588235
 40
0.2941176470588235
 40
0.3529411764705883
 40
0.3529411764705883
 40
0.3529411764705883
 40
0.3529411764705883
 40
0.4117647058823529
 40
0.4117647058823529
 40
0.4117647058823529
 40
0.4117647058823529
 40
0.4705882352941176
 40
0.4705882352941176
 40
0.4705882352941176
 40
0.4705882352941176
 40
0.5294117647058824
 40
0.5294117647058824
 40
0.5294117647058824
 40
0.5294117647058824
 40
0.5882352941176471
 40
0.5882352941176471
 40
0.5882352941176471
 40
0.5882352941176471
 40
0.6470588235294118
 40
0.6470588235294118
 40
0.6470588235294118
 40
0.6470588235294118
 40
0.7058823529411765
 40
0.7058823529411765
 40
0.7058823529411765
 40
0.7058823529411765
 40
0.7647058823529411
 40
0.7647058823529411
 40
0.7647058823529411
 40
0.7647058823529411
 40
0.8235294117647058
 40
0.8235294117647058
 40
0.8235294117647058
 40
0.8235294117647058
 40
0.8823529411764706
 40
0.8823529411764706
 40
0.8823529411764706
 40
0.8823529411764706
 40
1.0
 40
1.0
 40
1.0
 40
1.0
 10
169.5394
 20
39.7565
 30
0.0
 10
171.1657
 20
40.4738
 30
0.0
 10
171.4283
 20
42.0359
 30
0.0
 10
173.4485
 20
42.0212
 30
0.0
 10
173.4485
 20
42.0212
 30
0.0
 10
174.1954
 20
42.0212
 30
0.0
 10
175.0915
 20
41.8687
 30
0.0
 10
175.4399
 20
41.6823
 30
0.0
 10
175.4399
 20
41.6823
 30
0.0
 10
176.0136
 20
41.3752
 30
0.0
 10
176.0283
 20
41.2791
 30
0.0
 10
175.5958
 20
40.6616
 30
0.0
 10
175.5958
 20
40.6616
 30
0.0
 10
174.4083
 20
38.9663
 30
0.0
 10
176.9993
 20
37.9856
 30
0.0
 10
178.2993
 20
39.6384
 30
0.0
 10
178.2993
 20
39.6384
 30
0.0
 10
180.1616
 20
42.7232
 30
0.0
 10
176.4269
 20
44.9568
 30
0.0
 10
171.2773
 20
44.5618
 30
0.0
 10
171.2773
 20
44.5618
 30
0.0
 10
171.2773
 20
44.5618
 30
0.0
 10
168.3754
 20
44.4476
 30
0.0
 10
168.3754
 20
44.4476
 30
0.0
 10
168.3754
 20
44.4476
 30
0.0
 10
166.2054
 20
41.098
 30
0.0
 10
162.6373
 20
37.9982
 30
0.0
 10
158.881
 20
37.6708
 30
0.0
 10
158.881
 20
37.6708
 30
0.0
 10
162.6373
 20
37.1165
 30
0.0
 10
165.8271
 20
34.3948
 30
0.0
 10
168.3754
 20
30.8939
 30
0.0
 10
168.3754
 20
30.8939
 30
0.0
 10
168.3754
 20
30.8939
 30
0.0
 10
171.2773
 20
30.7797
 30
0.0
 10
171.2773
 20
30.7797
 30
0.0
 10
171.2773
 20
30.7797
 30
0.0
 10
176.4269
 20
30.3847
 30
0.0
 10
180.1617
 20
32.6183
 30
0.0
 10
178.2993
 20
35.7031
 30
0.0
 10
178.2993
 20
35.7031
 30
0.0
 10
176.9993
 20
37.3559
 30
0.0
 10
174.4083
 20
36.3752
 30
0.0
 10
175.5958
 20
34.6799
 30
0.0
 10
175.5958
 20
34.6799
 30
0.0
 10
176.0283
 20
34.0624
 30
0.0
 10
176.0136
 20
33.9663
 30
0.0
 10
175.4399
 20
33.6593
 30
0.0
 10
175.4399
 20
33.6593
 30
0.0
 10
175.0915
 20
33.4728
 30
0.0
 10
174.1955
 20
33.3203
 30
0.0
 10
173.4485
 20
33.3203
 30
0.0
 10
173.4485
 20
33.3203
 30
0.0
 10
171.4282
 20
33.3056
 30
0.0
 10
171.1657
 20
34.8677
 30
0.0
 10
169.5394
 20
35.585
 30
0.0
 10
169.5394
 20
35.585
 30
0.0
 10
168.4352
 20
35.9952
 30
0.0
 10
165.2914
 20
36.4907
 30
0.0
 10
165.4164
 20
37.6708
 30
0.0
 10
165.4164
 20
37.6708
 30
0.0
 10
165.2914
 20
38.8508
 30
0.0
 10
168.4351
 20
39.3464
 30
0.0
 10
169.5394
 20
39.7565
 30
0.0
  0
SPLINE
  5
6C
330
1F
100
AcDbEntity
  8
layer 1
 62
     7
100
AcDbSpline
210
0.0
220
0.0
230
1.0
 70
    11
 71
     3
 72
    20
 73
    16
 74
     0
 42
0.0000000001
 43
0.0000000001
 12
1.0
 22
0.0
 32
0.0
 13
1.0
 23
0.0
 33
0.0
 40
0.0
 40
0.0
 40
0.0
 40
0.0
 40
0.2
 40
0.2
 40
0.2
 40
0.2
 40
0.4
 40
0.4
 40
0.4
 40
0.4
 40
0.6
 40
0.6
 40
0.6
 40
0.6
 40
1.0
 40
1.0
 40
1.0
 40
1.0
 10
152.119
 20
39.9728
 30
0.0
 10
151.4604
 20
38.9219
 30
0.0
 10
149.9369
 20
37.9404
 30
0.0
 10
148.1127
 20
37.6706
 30
0.0
 10
148.1127
 20
37.6706
 30
0.0
 10
149.937
 20
37.4009
 30
0.0
 10
151.4606
 20
36.4194
 30
0.0
 10
152.1191
 20
35.3684
 30
0.0
 10
152.1191
 20
35.3684
 30
0.0
 10
152.7777
 20
36.4194
 30
0.0
 10
154.3013
 20
37.4009
 30
0.0
 10
156.1255
 20
37.6706
 30
0.0
 10
156.1255
 20
37.6706
 30
0.0
 10
154.3011
 20
37.9404
 30
0.0
 10
152.7776
 20
38.9219
 30
0.0
 10
152.119
 20
39.9728
 30
0.0
  0
SPLINE
  5
6D
330
1F
100
AcDbEntity
  8
layer 1
 62
     7
100
AcDbSpline
210
0.0
220
0.0
230
1.0
 70
    11
 71
     3
 72
    56
 73
    52
 74
     0
 42
0.0000000001
 43
0.0000000001
 12
1.0
 22
0.0
 32
0.0
 13
1.0
 23
0.0
 33
0.0
 40
0.0
 40
0.0
 40
0.0
 40
0.0
 40
0.0714285714285714
 40
0.0714285714285714
 40
0.0714285714285714
 40
0.0714285714285714
 40
0.1428571428571428
 40
0.1428571428571428
 40
0.1428571428571428
 40
0.1428571428571428
 40
0.2142857142857143
 40
0.2142857142857143
 40
0.2142857142857143
 40
0.2142857142857143
 40
0.2857142857142857
 40
0.2857142857142857
 40
0.2857142857142857
 40
0.2857142857142857
 40
0.3571428571428572
 40
0.3571428571428572
 40
0.3571428571428572
 40
0.3571428571428572
 40
0.4285714285714285
 40
0.4285714285714285
 40
0.4285714285714285
 40
0.4285714285714285
 40
0.5
 40
0.5
 40
0.5
 40
0.5
 40
0.5714285714285714
 40
0.5714285714285714
 40
0.5714285714285714
 40
0.5714285714285714
 40
0.6428571428571429
 40
0.6428571428571429
 40
0.6428571428571429
 40
0.6428571428571429
 40
0.7142857142857143
 40
0.7142857142857143
 40
0.7142857142857143
 40
0.7142857142857143
 40
0.7857142857142857
 40
0.7857142857142857
 40
0.7857142857142857
 40
0.7857142857142857
 40
0.8571428571428571
 40
0.8571428571428571
 40
0.8571428571428571
 40
0.8571428571428571
 40
1.0
 40
1.0
 40
1.0
 40
1.0
 10
155.1699
 20
45.4377
 30
0.0
 10
157.0456
 20
45.0643
 30
0.0
 10
158.1133
 20
43.1536
 30
0.0
 10
156.5694
 20
42.9334
 30
0.0
 10
156.5694
 20
42.9334
 30
0.0
 10
155.7374
 20
42.8146
 30
0.0
 10
155.44
 20
41.8869
 30
0.0
 10
156.0128
 20
41.1968
 30
0.0
 10
156.0128
 20
41.1968
 30
0.0
 10
157.3485
 20
39.8374
 30
0.0
 10
161.7778
 20
41.2779
 30
0.0
 10
163.1816
 20
43.903
 30
0.0
 10
163.1816
 20
43.903
 30
0.0
 10
158.7428
 20
44.3386
 30
0.0
 10
153.6982
 20
46.1141
 30
0.0
 10
153.1261
 20
51.0888
 30
0.0
 10
153.1261
 20
51.0888
 30
0.0
 10
152.9639
 20
52.7833
 30
0.0
 10
152.6696
 20
53.424
 30
0.0
 10
152.1189
 20
53.4618
 30
0.0
 10
152.1189
 20
53.4618
 30
0.0
 10
151.5682
 20
53.424
 30
0.0
 10
151.2738
 20
52.7833
 30
0.0
 10
151.1117
 20
51.0888
 30
0.0
 10
151.1117
 20
51.0888
 30
0.0
 10
150.5396
 20
46.1141
 30
0.0
 10
145.4951
 20
44.3386
 30
0.0
 10
141.0561
 20
43.903
 30
0.0
 10
141.0561
 20
43.903
 30
0.0
 10
142.46
 20
41.2779
 30
0.0
 10
146.8892
 20
39.8372
 30
0.0
 10
148.225
 20
41.1968
 30
0.0
 10
148.225
 20
41.1968
 30
0.0
 10
148.7978
 20
41.8869
 30
0.0
 10
148.5004
 20
42.8146
 30
0.0
 10
147.6684
 20
42.9334
 30
0.0
 10
147.6684
 20
42.9334
 30
0.0
 10
146.1246
 20
43.1536
 30
0.0
 10
147.1923
 20
45.0643
 30
0.0
 10
149.0679
 20
45.4377
 30
0.0
 10
149.0679
 20
45.4377
 30
0.0
 10
150.4816
 20
45.4915
 30
0.0
 10
151.3497
 20
45.097
 30
0.0
 10
152.1188
 20
44.0949
 30
0.0
 10
152.1188
 20
44.0949
 30
0.0
 10
152.8879
 20
45.097
 30
0.0
 10
153.7559
 20
45.4914
 30
0.0
 10
155.1697
 20
45.4377
 30
0.0
 10
155.1697
 20
45.4377
 30
0.0
 10
155.1697
 20
45.4377
 30
0.0
 10
155.1699
 20
45.4377
 30
0.0
 10
155.1699
 20
45.4377
 30
0.0
  0
SPLINE
  5
6E
330
1F
100
AcDbEntity
  8
layer 1
 62
     7
100
AcDbSpline
210
0.0
220
0.0
230
1.0
 70
    11
 71
     3
 72
    28
 73
    24
 74
     0
 42
0.0000000001
 43
0.0000000001
 12
1.0
 22
0.0
 32
0.0
 13
1.0
 23
0.0
 33
0.0
 40
0.0
 40
0.0
 40
0.0
 40
0.0
 40
0.1428571428571428
 40
0.1428571428571428
 40
0.1428571428571428
 40
0.1428571428571428
 40
0.2857142857142857
 40
0.2857142857142857
 40
0.2857142857142857
 40
0.2857142857142857
 40
0.4285714285714285
 40
0.4285714285714285
 40
0.4285714285714285
 40
0.4285714285714285
 40
0.5714285714285714
 40
0.5714285714285714
 40
0.5714285714285714
 40
0.5714285714285714
 40
0.7142857142857143
 40
0.7142857142857143
 40
0.7142857142857143
 40
0.7142857142857143
 40
1.0
 40
1.0
 40
1.0
 40
1.0
 10
186.4218
 20
42.8167
 30
0.0
 10
185.8448
 20
43.5121
 30
0.0
 10
185.8787
 20
44.914
 30
0.0
 10
187.9204
 20
47.7183
 30
0.0
 10
187.9204
 20
47.7183
 30
0.0
 10
189.3198
 20
49.7653
 30
0.0
 10
190.7609
 20
52.1014
 30
0.0
 10
191.7607
 20
54.6754
 30
0.0
 10
191.7607
 20
54.6754
 30
0.0
 10
191.5705
 20
50.9823
 30
0.0
 10
191.7566
 20
47.2881
 30
0.0
 10
191.7607
 20
43.592
 30
0.0
 10
191.7607
 20
43.592
 30
0.0
 10
191.1084
 20
44.6529
 30
0.0
 10
189.8965
 20
45.1363
 30
0.0
 10
188.9208
 20
45.0748
 30
0.0
 10
188.9208
 20
45.0748
 30
0.0
 10
188.3425
 20
44.9613
 30
0.0
 10
188.0377
 20
44.8467
 30
0.0
 10
188.2189
 20
44.1248
 30
0.0
 10
188.2189
 20
44.1248
 30
0.0
 10
188.7883
 20
42.7112
 30
0.0
 10
187.1962
 20
41.9526
 30
0.0
 10
186.4218
 20
42.8167
 30
0.0
  0
SPLINE
  5
6F
330
1F
100
AcDbEntity
  8
layer 1
 62
     7
100
AcDbSpline
210
0.0
220
0.0
230
1.0
 70
    11
 71
     3
 72
    16
 73
    12
 74
     0
 42
0.0000000001
 43
0.0000000001
 12
1.0
 22
0.0
 32
0.0
 13
1.0
 23
0.0
 33
0.0
 40
0.0
 40
0.0
 40
0.0
 40
0.0
 40
0.25
 40
0.25
 40
0.25
 40
0.25
 40
0.5
 40
0.5
 40
0.5
 40
0.5
 40
1.0
 40
1.0
 40
1.0
 40
1.0
 10
179.8466
 20
51.8886
 30
0.0
 10
181.4051
 20
50.6263
 30
0.0
 10
183.1968
 20
50.1904
 30
0.0
 10
185.085
 20
50.7306
 30
0.0
 10
185.085
 20
50.7306
 30
0.0
 10
184.0153
 20
48.8274
 30
0.0
 10
183.2844
 20
47.9099
 30
0.0
 10
182.5313
 20
45.0956
 30
0.0
 10
182.5313
 20
45.0956
 30
0.0
 10
182.1882
 20
47.5857
 30
0.0
 10
180.9462
 20
50.3687
 30
0.0
 10
179.8466
 20
51.8886
 30
0.0
  0
SPLINE
  5
70
330
1F
100
AcDbEntity
  8
layer 1
 62
     7
100
AcDbSpline
210
0.0
220
0.0
230
1.0
 70
    11
 71
     3
 72
    20
 73
    16
 74
     0
 42
0.0000000001
 43
0.0000000001
 12
1.0
 22
0.0
 32
0.0
 13
1.0
 23
0.0
 33
0.0
 40
0.0
 40
0.0
 40
0.0
 40
0.0
 40
0.2
 40
0.2
 40
0.2
 40
0.2
 40
0.4
 40
0.4
 40
0.4
 40
0.4
 40
0.6
 40
0.6
 40
0.6
 40
0.6
 40
1.0
 40
1.0
 40
1.0
 40
1.0
 10
170.5714
 20
48.2152
 30
0.0
 10
172.3755
 20
50.5164
 30
0.0
 10
172.7447
 20
51.6477
 30
0.0
 10
173.599
 20
54.7236
 30
0.0
 10
173.599
 20
54.7236
 30
0.0
 10
175.4972
 20
52.5452
 30
0.0
 10
176.8354
 20
50.4239
 30
0.0
 10
178.1877
 20
47.3937
 30
0.0
 10
178.1877
 20
47.3937
 30
0.0
 10
175.2743
 20
48.5918
 30
0.0
 10
173.406
 20
48.7745
 30
0.0
 10
170.5715
 20
48.2152
 30
0.0
 10
170.5715
 20
48.2152
 30
0.0
 10
170.5715
 20
48.2152
 30
0.0
 10
170.5714
 20
48.2152
 30
0.0
 10
170.5714
 20
48.2152
 30
0.0
  0
SPLINE
  5
71
330
1F
100
AcDbEntity
  8
layer 1
 62
     7
100
AcDbSpline
210
0.0
220
0.0
230
1.0
 70
    11
 71
     3
 72
    32
 73
    28
 74
     0
 42
0.0000000001
 43
0.0000000001
 12
1.0
 22
0.0
 32
0.0
 13
1.0
 23
0.0
 33
0.0
 40
0.0
 40
0.0
 40
0.0
 40
0.0
 40
0.125
 40
0.125
 40
0.125
 40
0.125
 40
0.25
 40
0.25
 40
0.25
 40
0.25
 40
0.375
 40
0.375
 40
0.375
 40
0.375
 40
0.5
 40
0.5
 40
0.5
 40
0.5
 40
0.625
 40
0.625
 40
0.625
 40
0.625
 40
0.75
 40
0.75
 40
0.75
 40
0.75
 40
1.0
 40
1.0
 40
1.0
 40
1.0
 10
174.7641
 20
58.6559
 30
0.0
 10
176.4849
 20
62.7602
 30
0.0
 10
180.1816
 20
64.8031
 30
0.0
 10
183.4313
 20
64.0065
 30
0.0
 10
183.4313
 20
64.0065
 30
0.0
 10
187.6017
 20
63.6571
 30
0.0
 10
190.1273
 20
58.7335
 30
0.0
 10
188.2127
 20
56.7346
 30
0.0
 10
188.2127
 20
56.7346
 30
0.0
 10
185.9204
 20
54.6224
 30
0.0
 10
183.9541
 20
57.9178
 30
0.0
 10
185.4402
 20
59.4913
 30
0.0
 10
185.4402
 20
59.4913
 30
0.0
 10
186.3423
 20
60.3935
 30
0.0
 10
186.2564
 20
60.6793
 30
0.0
 10
184.9538
 20
61.1093
 30
0.0
 10
184.9538
 20
61.1093
 30
0.0
 10
179.4708
 20
61.9986
 30
0.0
 10
178.0329
 20
57.0297
 30
0.0
 10
178.7102
 20
53.6531
 30
0.0
 10
178.7102
 20
53.6531
 30
0.0
 10
177.5565
 20
55.8062
 30
0.0
 10
176.1854
 20
57.2314
 30
0.0
 10
174.764
 20
58.6558
 30
0.0
 10
174.764
 20
58.6558
 30
0.0
 10
174.764
 20
58.6558
 30
0.0
 10
174.7641
 20
58.6559
 30
0.0
 10
174.7641
 20
58.6559
 30
0.0
  0
SPLINE
  5
72
330
1F
100
AcDbEntity
  8
layer 1
 62
     7
100
AcDbSpline
210
0.0
220
0.0
230
1.0
 70
    11
 71
     3
 72
    20
 73
    16
 74
     0
 42
0.0000000001
 43
0.0000000001
 12
1.0
 22
0.0
 32
0.0
 13
1.0
 23
0.0
 33
0.0
 40
0.0
 40
0.0
 40
0.0
 40
0.0
 40
0.2
 40
0.2
 40
0.2
 40
0.2
 40
0.4
 40
0.4
 40
0.4
 40
0.4
 40
0.6
 40
0.6
 40
0.6
 40
0.6
 40
1.0
 40
1.0
 40
1.0
 40
1.0
 10
112.4772
 20
34.7599
 30
0.0
 10
113.7223
 20
36.8214
 30
0.0
 10
118.115
 20
37.9871
 30
0.0
 10
120.4153
 20
35.9194
 30
0.0
 10
120.4153
 20
35.9194
 30
0.0
 10
120.4153
 20
35.9194
 30
0.0
 10
120.4153
 20
39.4219
 30
0.0
 10
120.4153
 20
39.4219
 30
0.0
 10
120.4153
 20
39.4219
 30
0.0
 10
118.115
 20
37.3542
 30
0.0
 10
113.7223
 20
38.5198
 30
0.0
 10
112.4772
 20
40.5814
 30
0.0
 10
112.4772
 20
40.5814
 30
0.0
 10
112.4772
 20
40.5814
 30
0.0
 10
112.4772
 20
34.7599
 30
0.0
 10
112.4772
 20
34.7599
 30
0.0
  0
SPLINE
  5
73
330
1F
100
AcDbEntity
  8
layer 1
 62
     7
100
AcDbSpline
210
0.0
220
0.0
230
1.0
 70
    11
 71
     3
 72
    28
 73
    24
 74
     0
 42
0.0000000001
 43
0.0000000001
 12
1.0
 22
0.0
 32
0.0
 13
1.0
 23
0.0
 33
0.0
 40
0.0
 40
0.0
 40
0.0
 40
0.0
 40
0.1428571428571428
 40
0.1428571428571428
 40
0.1428571428571428
 40
0.1428571428571428
 40
0.2857142857142857
 40
0.2857142857142857
 40
0.2857142857142857
 40
0.2857142857142857
 40
0.4285714285714285
 40
0.4285714285714285
 40
0.4285714285714285
 40
0.4285714285714285
 40
0.5714285714285714
 40
0.5714285714285714
 40
0.5714285714285714
 40
0.5714285714285714
 40
0.7142857142857143
 40
0.7142857142857143
 40
0.7142857142857143
 40
0.7142857142857143
 40
1.0
 40
1.0
 40
1.0
 40
1.0
 10
117.8161
 20
32.5247
 30
0.0
 10
118.3931
 20
31.8293
 30
0.0
 10
118.3592
 20
30.4274
 30
0.0
 10
116.3175
 20
27.6231
 30
0.0
 10
116.3175
 20
27.6231
 30
0.0
 10
114.9181
 20
25.5761
 30
0.0
 10
113.477
 20
23.24
 30
0.0
 10
112.4772
 20
20.666
 30
0.0
 10
112.4772
 20
20.666
 30
0.0
 10
112.6674
 20
24.3591
 30
0.0
 10
112.4813
 20
28.0533
 30
0.0
 10
112.4772
 20
31.7494
 30
0.0
 10
112.4772
 20
31.7494
 30
0.0
 10
113.1295
 20
30.6885
 30
0.0
 10
114.3414
 20
30.2051
 30
0.0
 10
115.3171
 20
30.2666
 30
0.0
 10
115.3171
 20
30.2666
 30
0.0
 10
115.8954
 20
30.3801
 30
0.0
 10
116.2002
 20
30.4947
 30
0.0
 10
116.019
 20
31.2166
 30
0.0
 10
116.019
 20
31.2166
 30
0.0
 10
115.4496
 20
32.6302
 30
0.0
 10
117.0417
 20
33.3888
 30
0.0
 10
117.8161
 20
32.5247
 30
0.0
  0
SPLINE
  5
74
330
1F
100
AcDbEntity
  8
layer 1
 62
     7
100
AcDbSpline
210
0.0
220
0.0
230
1.0
 70
    11
 71
     3
 72
    16
 73
    12
 74
     0
 42
0.0000000001
 43
0.0000000001
 12
1.0
 22
0.0
 32
0.0
 13
1.0
 23
0.0
 33
0.0
 40
0.0
 40
0.0
 40
0.0
 40
0.0
 40
0.25
 40
0.25
 40
0.25
 40
0.25
 40
0.5
 40
0.5
 40
0.5
 40
0.5
 40
1.0
 40
1.0
 40
1.0
 40
1.0
 10
124.3913
 20
23.4528
 30
0.0
 10
122.984
 20
24.942
 30
0.0
 10
121.0411
 20
25.3779
 30
0.0
 10
119.1529
 20
24.6108
 30
0.0
 10
119.1529
 20
24.6108
 30
0.0
 10
120.2226
 20
26.514
 30
0.0
 10
120.9535
 20
27.4315
 30
0.0
 10
121.7066
 20
30.2458
 30
0.0
 10
121.7066
 20
30.2458
 30
0.0
 10
122.0497
 20
27.7557
 30
0.0
 10
123.2917
 20
24.9727
 30
0.0
 10
124.3913
 20
23.4528
 30
0.0
  0
SPLINE
  5
75
330
1F
100
AcDbEntity
  8
layer 1
 62
     7
100
AcDbSpline
210
0.0
220
0.0
230
1.0
 70
    11
 71
     3
 72
    20
 73
    16
 74
     0
 42
0.0000000001
 43
0.0000000001
 12
1.0
 22
0.0
 32
0.0
 13
1.0
 23
0.0
 33
0.0
 40
0.0
 40
0.0
 40
0.0
 40
0.0
 40
0.2
 40
0.2
 40
0.2
 40
0.2
 40
0.4
 40
0.4
 40
0.4
 40
0.4
 40
0.6
 40
0.6
 40
0.6
 40
0.6
 40
1.0
 40
1.0
 40
1.0
 40
1.0
 10
133.6665
 20
27.1262
 30
0.0
 10
132.0893
 20
25.1275
 30
0.0
 10
130.8881
 20
23.3912
 30
0.0
 10
130.6389
 20
20.6178
 30
0.0
 10
130.6389
 20
20.6178
 30
0.0
 10
128.7407
 20
22.7962
 30
0.0
 10
127.4025
 20
24.9175
 30
0.0
 10
126.0502
 20
27.9477
 30
0.0
 10
126.0502
 20
27.9477
 30
0.0
 10
128.7562
 20
26.5291
 30
0.0
 10
130.7693
 20
26.5994
 30
0.0
 10
133.6664
 20
27.1262
 30
0.0
 10
133.6664
 20
27.1262
 30
0.0
 10
133.6664
 20
27.1262
 30
0.0
 10
133.6665
 20
27.1262
 30
0.0
 10
133.6665
 20
27.1262
 30
0.0
  0
SPLINE
  5
76
330
1F
100
AcDbEntity
  8
layer 1
 62
     7
100
AcDbSpline
210
0.0
220
0.0
230
1.0
 70
    11
 71
     3
 72
   136
 73
   132
 74
     0
 42
0.0000000001
 43
0.0000000001
 12
1.0
 22
0.0
 32
0.0
 13
1.0
 23
0.0
 33
0.0
 40
0.0
 40
0.0
 40
0.0
 40
0.0
 40
0.0294117647058824
 40
0.0294117647058824
 40
0.0294117647058824
 40
0.0294117647058824
 40
0.0588235294117647
 40
0.0588235294117647
 40
0.0588235294117647
 40
0.0588235294117647
 40
0.0882352941176471
 40
0.0882352941176471
 40
0.0882352941176471
 40
0.0882352941176471
 40
0.1176470588235294
 40
0.1176470588235294
 40
0.1176470588235294
 40
0.1176470588235294
 40
0.1470588235294118
 40
0.1470588235294118
 40
0.1470588235294118
 40
0.1470588235294118
 40
0.1764705882352941
 40
0.1764705882352941
 40
0.1764705882352941
 40
0.1764705882352941
 40
0.2058823529411765
 40
0.2058823529411765
 40
0.2058823529411765
 40
0.2058823529411765
 40
0.2352941176470588
 40
0.2352941176470588
 40
0.2352941176470588
 40
0.2352941176470588
 40
0.2647058823529412
 40
0.2647058823529412
 40
0.2647058823529412
 40
0.2647058823529412
 40
0.2941176470588235
 40
0.2941176470588235
 40
0.2941176470588235
 40
0.2941176470588235
 40
0.3235294117647059
 40
0.3235294117647059
 40
0.3235294117647059
 40
0.3235294117647059
 40
0.3529411764705883
 40
0.3529411764705883
 40
0.3529411764705883
 40
0.3529411764705883
 40
0.3823529411764706
 40
0.3823529411764706
 40
0.3823529411764706
 40
0.3823529411764706
 40
0.4117647058823529
 40
0.4117647058823529
 40
0.4117647058823529
 40
0.4117647058823529
 40
0.4411764705882353
 40
0.4411764705882353
 40
0.4411764705882353
 40
0.4411764705882353
 40
0.4705882352941176
 40
0.4705882352941176
 40
0.4705882352941176
 40
0.4705882352941176
 40
0.5
 40
0.5
 40
0.5
 40
0.5
 40
0.5294117647058824
 40
0.5294117647058824
 40
0.5294117647058824
 40
0.5294117647058824
 40
0.5588235294117647
 40
0.5588235294117647
 40
0.5588235294117647
 40
0.5588235294117647
 40
0.5882352941176471
 40
0.5882352941176471
 40
0.5882352941176471
 40
0.5882352941176471
 40
0.6176470588235294
 40
0.6176470588235294
 40
0.6176470588235294
 40
0.6176470588235294
 40
0.6470588235294118
 40
0.6470588235294118
 40
0.6470588235294118
 40
0.6470588235294118
 40
0.6764705882352942
 40
0.6764705882352942
 40
0.6764705882352942
 40
0.6764705882352942
 40
0.7058823529411765
 40
0.7058823529411765
 40
0.7058823529411765
 40
0.7058823529411765
 40
0.7352941176470589
 40
0.7352941176470589
 40
0.7352941176470589
 40
0.7352941176470589
 40
0.7647058823529411
 40
0.7647058823529411
 40
0.7647058823529411
 40
0.7647058823529411
 40
0.7941176470588235
 40
0.7941176470588235
 40
0.7941176470588235
 40
0.7941176470588235
 40
0.8235294117647058
 40
0.8235294117647058
 40
0.8235294117647058
 40
0.8235294117647058
 40
0.8529411764705882
 40
0.8529411764705882
 40
0.8529411764705882
 40
0.8529411764705882
 40
0.8823529411764706
 40
0.8823529411764706
 40
0.8823529411764706
 40
0.8823529411764706
 40
0.9117647058823529
 40
0.9117647058823529
 40
0.9117647058823529
 40
0.9117647058823529
 40
0.9411764705882353
 40
0.9411764705882353
 40
0.9411764705882353
 40
0.9411764705882353
 40
1.0
 40
1.0
 40
1.0
 40
1.0
 10
149.8316
 20
16.8891
 30
0.0
 10
148.3129
 20
15.9392
 30
0.0
 10
146.4544
 20
15.9379
 30
0.0
 10
144.6851
 20
17.4173
 30
0.0
 10
144.6851
 20
17.4173
 30
0.0
 10
143.2357
 20
18.7056
 30
0.0
 10
143.0073
 20
21.4432
 30
0.0
 10
144.4341
 20
23.3391
 30
0.0
 10
144.4341
 20
23.3391
 30
0.0
 10
144.931
 20
22.3384
 30
0.0
 10
145.9676
 20
21.1651
 30
0.0
 10
146.9497
 20
22.331
 30
0.0
 10
146.9497
 20
22.331
 30
0.0
 10
147.8197
 20
23.9567
 30
0.0
 10
146.2596
 20
26.1308
 30
0.0
 10
143.4754
 20
27.1724
 30
0.0
 10
143.4754
 20
27.1724
 30
0.0
 10
143.4754
 20
27.1724
 30
0.0
 10
143.4754
 20
27.1724
 30
0.0
 10
143.4754
 20
27.1724
 30
0.0
 10
143.4754
 20
27.1724
 30
0.0
 10
142.5228
 20
27.5289
 30
0.0
 10
140.9601
 20
27.8204
 30
0.0
 10
140.0026
 20
27.8204
 30
0.0
 10
140.0026
 20
27.8204
 30
0.0
 10
138.3872
 20
27.8204
 30
0.0
 10
138.2151
 20
27.7446
 30
0.0
 10
137.6136
 20
26.7689
 30
0.0
 10
137.6136
 20
26.7689
 30
0.0
 10
137.257
 20
26.1907
 30
0.0
 10
136.8655
 20
25.3171
 30
0.0
 10
136.7433
 20
24.8278
 30
0.0
 10
136.7433
 20
24.8278
 30
0.0
 10
136.5432
 20
24.0258
 30
0.0
 10
136.6055
 20
23.9381
 30
0.0
 10
137.3755
 20
23.9381
 30
0.0
 10
137.3755
 20
23.9381
 30
0.0
 10
139.4099
 20
23.8925
 30
0.0
 10
141.9189
 20
22.2461
 30
0.0
 10
141.6706
 20
19.9
 30
0.0
 10
141.6706
 20
19.9
 30
0.0
 10
141.4786
 20
18.2643
 30
0.0
 10
139.4807
 20
15.9903
 30
0.0
 10
136.9996
 20
17.0527
 30
0.0
 10
136.9996
 20
17.0527
 30
0.0
 10
136.2523
 20
17.5133
 30
0.0
 10
136.2042
 20
18.1147
 30
0.0
 10
137.0265
 20
18.1147
 30
0.0
 10
137.0265
 20
18.1147
 30
0.0
 10
138.2118
 20
18.2813
 30
0.0
 10
138.9068
 20
18.9455
 30
0.0
 10
138.2141
 20
19.888
 30
0.0
 10
138.2141
 20
19.888
 30
0.0
 10
137.2888
 20
20.997
 30
0.0
 10
135.165
 20
19.4612
 30
0.0
 10
134.083
 20
17.3549
 30
0.0
 10
134.083
 20
17.3549
 30
0.0
 10
138.2553
 20
13.8268
 30
0.0
 10
144.2447
 20
11.2579
 30
0.0
 10
152.1191
 20
11.0539
 30
0.0
 10
152.1191
 20
11.0539
 30
0.0
 10
159.9936
 20
11.2579
 30
0.0
 10
165.983
 20
13.8268
 30
0.0
 10
170.1553
 20
17.3549
 30
0.0
 10
170.1553
 20
17.3549
 30
0.0
 10
169.0731
 20
19.4612
 30
0.0
 10
166.9493
 20
20.997
 30
0.0
 10
166.0242
 20
19.888
 30
0.0
 10
166.0242
 20
19.888
 30
0.0
 10
165.3315
 20
18.9455
 30
0.0
 10
166.0265
 20
18.2813
 30
0.0
 10
167.2117
 20
18.1147
 30
0.0
 10
167.2117
 20
18.1147
 30
0.0
 10
168.034
 20
18.1147
 30
0.0
 10
167.986
 20
17.5134
 30
0.0
 10
167.2386
 20
17.0527
 30
0.0
 10
167.2386
 20
17.0527
 30
0.0
 10
164.7575
 20
15.9903
 30
0.0
 10
162.7596
 20
18.2642
 30
0.0
 10
162.5677
 20
19.9
 30
0.0
 10
162.5677
 20
19.9
 30
0.0
 10
162.3194
 20
22.2461
 30
0.0
 10
164.8283
 20
23.8925
 30
0.0
 10
166.8628
 20
23.9381
 30
0.0
 10
166.8628
 20
23.9381
 30
0.0
 10
167.6328
 20
23.9381
 30
0.0
 10
167.6951
 20
24.0258
 30
0.0
 10
167.4949
 20
24.8278
 30
0.0
 10
167.4949
 20
24.8278
 30
0.0
 10
167.3728
 20
25.3171
 30
0.0
 10
166.9811
 20
26.1907
 30
0.0
 10
166.6247
 20
26.7689
 30
0.0
 10
166.6247
 20
26.7689
 30
0.0
 10
166.0232
 20
27.7446
 30
0.0
 10
165.851
 20
27.8204
 30
0.0
 10
164.2357
 20
27.8204
 30
0.0
 10
164.2357
 20
27.8204
 30
0.0
 10
163.2782
 20
27.8204
 30
0.0
 10
161.7154
 20
27.5287
 30
0.0
 10
160.7629
 20
27.1724
 30
0.0
 10
160.7629
 20
27.1724
 30
0.0
 10
160.7629
 20
27.1724
 30
0.0
 10
160.7629
 20
27.1724
 30
0.0
 10
160.7629
 20
27.1724
 30
0.0
 10
160.7629
 20
27.1724
 30
0.0
 10
157.9787
 20
26.1308
 30
0.0
 10
156.4186
 20
23.9567
 30
0.0
 10
157.2886
 20
22.331
 30
0.0
 10
157.2886
 20
22.331
 30
0.0
 10
158.2707
 20
21.1651
 30
0.0
 10
159.3072
 20
22.3384
 30
0.0
 10
159.8042
 20
23.3391
 30
0.0
 10
159.8042
 20
23.3391
 30
0.0
 10
161.231
 20
21.4432
 30
0.0
 10
161.0026
 20
18.7056
 30
0.0
 10
159.5531
 20
17.4173
 30
0.0
 10
159.5531
 20
17.4173
 30
0.0
 10
157.7839
 20
15.9379
 30
0.0
 10
155.9252
 20
15.9392
 30
0.0
 10
154.4067
 20
16.8891
 30
0.0
 10
154.4067
 20
16.8891
 30
0.0
 10
154.3825
 20
14.6803
 30
0.0
 10
153.2718
 20
12.663
 30
0.0
 10
152.1193
 20
12.68
 30
0.0
 10
152.1193
 20
12.68
 30
0.0
 10
150.9667
 20
12.663
 30
0.0
 10
149.8561
 20
14.6803
 30
0.0
 10
149.8318
 20
16.8891
 30
0.0
 10
149.8318
 20
16.8891
 30
0.0
 10
149.8318
 20
16.8891
 30
0.0
 10
149.8316
 20
16.8891
 30
0.0
 10
149.8316
 20
16.8891
 30
0.0
  0
SPLINE
  5
77
330
1F
100
AcDbEntity
  8
layer 1
 62
     7
100
AcDbSpline
210
0.0
220
0.0
230
1.0
 70
    11
 71
     3
 72
    32
 73
    28
 74
     0
 42
0.0000000001
 43
0.0000000001
 12
1.0
 22
0.0
 32
0.0
 13
1.0
 23
0.0
 33
0.0
 40
0.0
 40
0.0
 40
0.0
 40
0.0
 40
0.125
 40
0.125
 40
0.125
 40
0.125
 40
0.25
 40
0.25
 40
0.25
 40
0.25
 40
0.375
 40
0.375
 40
0.375
 40
0.375
 40
0.5
 40
0.5
 40
0.5
 40
0.5
 40
0.625
 40
0.625
 40
0.625
 40
0.625
 40
0.75
 40
0.75
 40
0.75
 40
0.75
 40
1.0
 40
1.0
 40
1.0
 40
1.0
 10
129.4738
 20
16.6856
 30
0.0
 10
127.753
 20
12.5813
 30
0.0
 10
124.0563
 20
10.5384
 30
0.0
 10
120.8066
 20
11.3351
 30
0.0
 10
120.8066
 20
11.3351
 30
0.0
 10
116.6362
 20
11.6844
 30
0.0
 10
114.1106
 20
16.6081
 30
0.0
 10
116.0252
 20
18.6069
 30
0.0
 10
116.0252
 20
18.6069
 30
0.0
 10
118.3175
 20
20.7191
 30
0.0
 10
120.2838
 20
17.4238
 30
0.0
 10
118.7977
 20
15.8502
 30
0.0
 10
118.7977
 20
15.8502
 30
0.0
 10
117.8956
 20
14.948
 30
0.0
 10
117.9815
 20
14.6622
 30
0.0
 10
119.2841
 20
14.2322
 30
0.0
 10
119.2841
 20
14.2322
 30
0.0
 10
124.7671
 20
13.3429
 30
0.0
 10
126.205
 20
18.3118
 30
0.0
 10
125.5277
 20
21.6884
 30
0.0
 10
125.5277
 20
21.6884
 30
0.0
 10
126.6814
 20
19.5353
 30
0.0
 10
128.0525
 20
18.1101
 30
0.0
 10
129.4739
 20
16.6857
 30
0.0
 10
129.4739
 20
16.6857
 30
0.0
 10
129.4739
 20
16.6857
 30
0.0
 10
129.4738
 20
16.6856
 30
0.0
 10
129.4738
 20
16.6856
 30
0.0
  0
SPLINE
  5
78
330
1F
100
AcDbEntity
  8
layer 1
 62
     7
100
AcDbSpline
210
0.0
220
0.0
230
1.0
 70
    11
 71
     3
 72
    16
 73
    12
 74
     0
 42
0.0000000001
 43
0.0000000001
 12
1.0
 22
0.0
 32
0.0
 13
1.0
 23
0.0
 33
0.0
 40
0.0
 40
0.0
 40
0.0
 40
0.0
 40
0.25
 40
0.25
 40
0.25
 40
0.25
 40
0.5
 40
0.5
 40
0.5
 40
0.5
 40
1.0
 40
1.0
 40
1.0
 40
1.0
 10
112.4772
 20
14.582
 30
0.0
 10
112.4772
 20
14.582
 30
0.0
 10
112.4791
 20
1.5408
 30
0.0
 10
112.4791
 20
1.5408
 30
0.0
 10
112.4791
 20
1.5408
 30
0.0
 10
113.5181
 20
5.0981
 30
0.0
 10
115.979
 20
7.3335
 30
0.0
 10
119.1159
 20
8.0614
 30
0.0
 10
119.1159
 20
8.0614
 30
0.0
 10
115.977
 20
8.7893
 30
0.0
 10
113.5161
 20
11.0246
 30
0.0
 10
112.4772
 20
14.582
 30
0.0
  0
SPLINE
  5
79
330
1F
100
AcDbEntity
  8
layer 1
 62
     7
100
AcDbSpline
210
0.0
220
0.0
230
1.0
 70
    11
 71
     3
 72
    20
 73
    16
 74
     0
 42
0.0000000001
 43
0.0000000001
 12
1.0
 22
0.0
 32
0.0
 13
1.0
 23
0.0
 33
0.0
 40
0.0
 40
0.0
 40
0.0
 40
0.0
 40
0.2
 40
0.2
 40
0.2
 40
0.2
 40
0.4
 40
0.4
 40
0.4
 40
0.4
 40
0.6
 40
0.6
 40
0.6
 40
0.6
 40
1.0
 40
1.0
 40
1.0
 40
1.0
 10
191.7607
 20
34.7599
 30
0.0
 10
190.5156
 20
36.8214
 30
0.0
 10
186.1229
 20
37.9871
 30
0.0
 10
183.8226
 20
35.9194
 30
0.0
 10
183.8226
 20
35.9194
 30
0.0
 10
183.8226
 20
35.9194
 30
0.0
 10
183.8226
 20
39.4219
 30
0.0
 10
183.8226
 20
39.4219
 30
0.0
 10
183.8226
 20
39.4219
 30
0.0
 10
186.1229
 20
37.3542
 30
0.0
 10
190.5156
 20
38.5198
 30
0.0
 10
191.7607
 20
40.5814
 30
0.0
 10
191.7607
 20
40.5814
 30
0.0
 10
191.7607
 20
40.5814
 30
0.0
 10
191.7607
 20
34.7599
 30
0.0
 10
191.7607
 20
34.7599
 30
0.0
  0
SPLINE
  5
7A
330
1F
100
AcDbEntity
  8
layer 1
 62
     7
100
AcDbSpline
210
0.0
220
0.0
230
1.0
 70
    11
 71
     3
 72
    56
 73
    52
 74
     0
 42
0.0000000001
 43
0.0000000001
 12
1.0
 22
0.0
 32
0.0
 13
1.0
 23
0.0
 33
0.0
 40
0.0
 40
0.0
 40
0.0
 40
0.0
 40
0.0714285714285714
 40
0.0714285714285714
 40
0.0714285714285714
 40
0.0714285714285714
 40
0.1428571428571428
 40
0.1428571428571428
 40
0.1428571428571428
 40
0.1428571428571428
 40
0.2142857142857143
 40
0.2142857142857143
 40
0.2142857142857143
 40
0.2142857142857143
 40
0.2857142857142857
 40
0.2857142857142857
 40
0.2857142857142857
 40
0.2857142857142857
 40
0.3571428571428572
 40
0.3571428571428572
 40
0.3571428571428572
 40
0.3571428571428572
 40
0.4285714285714285
 40
0.4285714285714285
 40
0.4285714285714285
 40
0.4285714285714285
 40
0.5
 40
0.5
 40
0.5
 40
0.5
 40
0.5714285714285714
 40
0.5714285714285714
 40
0.5714285714285714
 40
0.5714285714285714
 40
0.6428571428571429
 40
0.6428571428571429
 40
0.6428571428571429
 40
0.6428571428571429
 40
0.7142857142857143
 40
0.7142857142857143
 40
0.7142857142857143
 40
0.7142857142857143
 40
0.7857142857142857
 40
0.7857142857142857
 40
0.7857142857142857
 40
0.7857142857142857
 40
0.8571428571428571
 40
0.8571428571428571
 40
0.8571428571428571
 40
0.8571428571428571
 40
1.0
 40
1.0
 40
1.0
 40
1.0
 10
155.1699
 20
29.9037
 30
0.0
 10
157.0456
 20
30.2771
 30
0.0
 10
158.1133
 20
32.1878
 30
0.0
 10
156.5694
 20
32.408
 30
0.0
 10
156.5694
 20
32.408
 30
0.0
 10
155.7374
 20
32.5267
 30
0.0
 10
155.44
 20
33.4545
 30
0.0
 10
156.0128
 20
34.1446
 30
0.0
 10
156.0128
 20
34.1446
 30
0.0
 10
157.3485
 20
35.504
 30
0.0
 10
161.7778
 20
34.0635
 30
0.0
 10
163.1816
 20
31.4384
 30
0.0
 10
163.1816
 20
31.4384
 30
0.0
 10
158.7428
 20
31.0028
 30
0.0
 10
153.6982
 20
29.2273
 30
0.0
 10
153.1261
 20
24.2526
 30
0.0
 10
153.1261
 20
24.2526
 30
0.0
 10
152.9639
 20
22.5581
 30
0.0
 10
152.6696
 20
21.9174
 30
0.0
 10
152.1189
 20
21.8796
 30
0.0
 10
152.1189
 20
21.8796
 30
0.0
 10
151.5682
 20
21.9174
 30
0.0
 10
151.2738
 20
22.5581
 30
0.0
 10
151.1117
 20
24.2526
 30
0.0
 10
151.1117
 20
24.2526
 30
0.0
 10
150.5396
 20
29.2273
 30
0.0
 10
145.4951
 20
31.0028
 30
0.0
 10
141.0561
 20
31.4384
 30
0.0
 10
141.0561
 20
31.4384
 30
0.0
 10
142.46
 20
34.0635
 30
0.0
 10
146.8892
 20
35.504
 30
0.0
 10
148.225
 20
34.1446
 30
0.0
 10
148.225
 20
34.1446
 30
0.0
 10
148.7978
 20
33.4545
 30
0.0
 10
148.5004
 20
32.5267
 30
0.0
 10
147.6684
 20
32.408
 30
0.0
 10
147.6684
 20
32.408
 30
0.0
 10
146.1246
 20
32.1878
 30
0.0
 10
147.1923
 20
30.2771
 30
0.0
 10
149.0679
 20
29.9037
 30
0.0
 10
149.0679
 20
29.9037
 30
0.0
 10
150.4816
 20
29.8499
 30
0.0
 10
151.3497
 20
30.2444
 30
0.0
 10
152.1188
 20
31.2465
 30
0.0
 10
152.1188
 20
31.2465
 30
0.0
 10
152.8879
 20
30.2444
 30
0.0
 10
153.7559
 20
29.85
 30
0.0
 10
155.1697
 20
29.9037
 30
0.0
 10
155.1697
 20
29.9037
 30
0.0
 10
155.1697
 20
29.9037
 30
0.0
 10
155.1699
 20
29.9037
 30
0.0
 10
155.1699
 20
29.9037
 30
0.0
  0
SPLINE
  5
7B
330
1F
100
AcDbEntity
  8
layer 1
 62
     7
100
AcDbSpline
210
0.0
220
0.0
230
1.0
 70
    11
 71
     3
 72
    28
 73
    24
 74
     0
 42
0.0000000001
 43
0.0000000001
 12
1.0
 22
0.0
 32
0.0
 13
1.0
 23
0.0
 33
0.0
 40
0.0
 40
0.0
 40
0.0
 40
0.0
 40
0.1428571428571428
 40
0.1428571428571428
 40
0.1428571428571428
 40
0.1428571428571428
 40
0.2857142857142857
 40
0.2857142857142857
 40
0.2857142857142857
 40
0.2857142857142857
 40
0.4285714285714285
 40
0.4285714285714285
 40
0.4285714285714285
 40
0.4285714285714285
 40
0.5714285714285714
 40
0.5714285714285714
 40
0.5714285714285714
 40
0.5714285714285714
 40
0.7142857142857143
 40
0.7142857142857143
 40
0.7142857142857143
 40
0.7142857142857143
 40
1.0
 40
1.0
 40
1.0
 40
1.0
 10
186.4218
 20
32.5247
 30
0.0
 10
185.8448
 20
31.8293
 30
0.0
 10
185.8787
 20
30.4274
 30
0.0
 10
187.9204
 20
27.6231
 30
0.0
 10
187.9204
 20
27.6231
 30
0.0
 10
189.3198
 20
25.5761
 30
0.0
 10
190.7609
 20
23.24
 30
0.0
 10
191.7607
 20
20.666
 30
0.0
 10
191.7607
 20
20.666
 30
0.0
 10
191.5705
 20
24.3591
 30
0.0
 10
191.7566
 20
28.0533
 30
0.0
 10
191.7607
 20
31.7494
 30
0.0
 10
191.7607
 20
31.7494
 30
0.0
 10
191.1084
 20
30.6885
 30
0.0
 10
189.8965
 20
30.2051
 30
0.0
 10
188.9208
 20
30.2666
 30
0.0
 10
188.9208
 20
30.2666
 30
0.0
 10
188.3425
 20
30.3801
 30
0.0
 10
188.0377
 20
30.4947
 30
0.0
 10
188.2189
 20
31.2166
 30
0.0
 10
188.2189
 20
31.2166
 30
0.0
 10
188.7883
 20
32.6302
 30
0.0
 10
187.1962
 20
33.3888
 30
0.0
 10
186.4218
 20
32.5247
 30
0.0
  0
SPLINE
  5
7C
330
1F
100
AcDbEntity
  8
layer 1
 62
     7
100
AcDbSpline
210
0.0
220
0.0
230
1.0
 70
    11
 71
     3
 72
    16
 73
    12
 74
     0
 42
0.0000000001
 43
0.0000000001
 12
1.0
 22
0.0
 32
0.0
 13
1.0
 23
0.0
 33
0.0
 40
0.0
 40
0.0
 40
0.0
 40
0.0
 40
0.25
 40
0.25
 40
0.25
 40
0.25
 40
0.5
 40
0.5
 40
0.5
 40
0.5
 40
1.0
 40
1.0
 40
1.0
 40
1.0
 10
179.8466
 20
23.4528
 30
0.0
 10
181.632
 20
25.0933
 30
0.0
 10
183.1211
 20
25.0753
 30
0.0
 10
185.085
 20
24.6108
 30
0.0
 10
185.085
 20
24.6108
 30
0.0
 10
184.0153
 20
26.514
 30
0.0
 10
183.2844
 20
27.4315
 30
0.0
 10
182.5313
 20
30.2458
 30
0.0
 10
182.5313
 20
30.2458
 30
0.0
 10
182.1882
 20
27.7557
 30
0.0
 10
180.9462
 20
24.9727
 30
0.0
 10
179.8466
 20
23.4528
 30
0.0
  0
SPLINE
  5
7D
330
1F
100
AcDbEntity
  8
layer 1
 62
     7
100
AcDbSpline
210
0.0
220
0.0
230
1.0
 70
    11
 71
     3
 72
    20
 73
    16
 74
     0
 42
0.0000000001
 43
0.0000000001
 12
1.0
 22
0.0
 32
0.0
 13
1.0
 23
0.0
 33
0.0
 40
0.0
 40
0.0
 40
0.0
 40
0.0
 40
0.2
 40
0.2
 40
0.2
 40
0.2
 40
0.4
 40
0.4
 40
0.4
 40
0.4
 40
0.6
 40
0.6
 40
0.6
 40
0.6
 40
1.0
 40
1.0
 40
1.0
 40
1.0
 10
170.5714
 20
27.1262
 30
0.0
 10
171.9217
 20
24.7493
 30
0.0
 10
172.5934
 20
23.1642
 30
0.0
 10
173.599
 20
20.6178
 30
0.0
 10
173.599
 20
20.6178
 30
0.0
 10
175.4972
 20
22.7962
 30
0.0
 10
176.8354
 20
24.9175
 30
0.0
 10
178.1877
 20
27.9477
 30
0.0
 10
178.1877
 20
27.9477
 30
0.0
 10
175.5208
 20
27.0717
 30
0.0
 10
173.7972
 20
26.9086
 30
0.0
 10
170.5715
 20
27.1262
 30
0.0
 10
170.5715
 20
27.1262
 30
0.0
 10
170.5715
 20
27.1262
 30
0.0
 10
170.5714
 20
27.1262
 30
0.0
 10
170.5714
 20
27.1262
 30
0.0
  0
SPLINE
  5
7E
330
1F
100
AcDbEntity
  8
layer 1
 62
     7
100
AcDbSpline
210
0.0
220
0.0
230
1.0
 70
    11
 71
     3
 72
    32
 73
    28
 74
     0
 42
0.0000000001
 43
0.0000000001
 12
1.0
 22
0.0
 32
0.0
 13
1.0
 23
0.0
 33
0.0
 40
0.0
 40
0.0
 40
0.0
 40
0.0
 40
0.125
 40
0.125
 40
0.125
 40
0.125
 40
0.25
 40
0.25
 40
0.25
 40
0.25
 40
0.375
 40
0.375
 40
0.375
 40
0.375
 40
0.5
 40
0.5
 40
0.5
 40
0.5
 40
0.625
 40
0.625
 40
0.625
 40
0.625
 40
0.75
 40
0.75
 40
0.75
 40
0.75
 40
1.0
 40
1.0
 40
1.0
 40
1.0
 10
174.7641
 20
16.6856
 30
0.0
 10
176.4849
 20
12.5813
 30
0.0
 10
180.1816
 20
10.5384
 30
0.0
 10
183.4313
 20
11.3351
 30
0.0
 10
183.4313
 20
11.3351
 30
0.0
 10
187.6017
 20
11.6844
 30
0.0
 10
190.1273
 20
16.6081
 30
0.0
 10
188.2127
 20
18.6069
 30
0.0
 10
188.2127
 20
18.6069
 30
0.0
 10
185.9204
 20
20.7191
 30
0.0
 10
183.9541
 20
17.4238
 30
0.0
 10
185.4402
 20
15.8502
 30
0.0
 10
185.4402
 20
15.8502
 30
0.0
 10
186.3423
 20
14.948
 30
0.0
 10
186.2564
 20
14.6622
 30
0.0
 10
184.9538
 20
14.2322
 30
0.0
 10
184.9538
 20
14.2322
 30
0.0
 10
179.4708
 20
13.3429
 30
0.0
 10
178.0329
 20
18.3118
 30
0.0
 10
178.7102
 20
21.6884
 30
0.0
 10
178.7102
 20
21.6884
 30
0.0
 10
177.5565
 20
19.5353
 30
0.0
 10
176.1854
 20
18.1101
 30
0.0
 10
174.764
 20
16.6857
 30
0.0
 10
174.764
 20
16.6857
 30
0.0
 10
174.764
 20
16.6857
 30
0.0
 10
174.7641
 20
16.6856
 30
0.0
 10
174.7641
 20
16.6856
 30
0.0
  0
SPLINE
  5
7F
330
1F
100
AcDbEntity
  8
layer 1
 62
     7
100
AcDbSpline
210
0.0
220
0.0
230
1.0
 70
    11
 71
     3
 72
    24
 73
    20
 74
     0
 42
0.0000000001
 43
0.0000000001
 12
1.0
 22
0.0
 32
0.0
 13
1.0
 23
0.0
 33
0.0
 40
0.0
 40
0.0
 40
0.0
 40
0.0
 40
0.1666666666666667
 40
0.1666666666666667
 40
0.1666666666666667
 40
0.1666666666666667
 40
0.3333333333333333
 40
0.3333333333333333
 40
0.3333333333333333
 40
0.3333333333333333
 40
0.5
 40
0.5
 40
0.5
 40
0.5
 40
0.6666666666666666
 40
0.6666666666666666
 40
0.6666666666666666
 40
0.6666666666666666
 40
1.0
 40
1.0
 40
1.0
 40
1.0
 10
132.7894
 20
2.1743
 30
0.0
 10
136.7707
 20
5.2499
 30
0.0
 10
139.9417
 20
6.944
 30
0.0
 10
145.5156
 20
8.0612
 30
0.0
 10
145.5156
 20
8.0612
 30
0.0
 10
139.9396
 20
9.1786
 30
0.0
 10
136.7687
 20
10.8726
 30
0.0
 10
132.7874
 20
13.9482
 30
0.0
 10
132.7874
 20
13.9482
 30
0.0
 10
131.0182
 20
11.412
 30
0.0
 10
128.0908
 20
8.8544
 30
0.0
 10
125.3255
 20
8.0302
 30
0.0
 10
125.3255
 20
8.0302
 30
0.0
 10
128.1238
 20
7.2059
 30
0.0
 10
131.0202
 20
4.7103
 30
0.0
 10
132.7894
 20
2.1742
 30
0.0
 10
132.7894
 20
2.1742
 30
0.0
 10
132.7894
 20
2.1742
 30
0.0
 10
132.7894
 20
2.1743
 30
0.0
 10
132.7894
 20
2.1743
 30
0.0
  0
SPLINE
  5
80
330
1F
100
AcDbEntity
  8
layer 1
 62
     7
100
AcDbSpline
210
0.0
220
0.0
230
1.0
 70
    11
 71
     3
 72
    16
 73
    12
 74
     0
 42
0.0000000001
 43
0.0000000001
 12
1.0
 22
0.0
 32
0.0
 13
1.0
 23
0.0
 33
0.0
 40
0.0
 40
0.0
 40
0.0
 40
0.0
 40
0.25
 40
0.25
 40
0.25
 40
0.25
 40
0.5
 40
0.5
 40
0.5
 40
0.5
 40
1.0
 40
1.0
 40
1.0
 40
1.0
 10
191.7738
 20
-57.6174
 30
0.0
 10
191.7738
 20
-57.6174
 30
0.0
 10
191.7719
 20
-44.5762
 30
0.0
 10
191.7719
 20
-44.5762
 30
0.0
 10
191.7719
 20
-44.5762
 30
0.0
 10
190.7329
 20
-48.1335
 30
0.0
 10
188.272
 20
-50.3689
 30
0.0
 10
185.1351
 20
-51.0968
 30
0.0
 10
185.1351
 20
-51.0968
 30
0.0
 10
188.2739
 20
-51.8247
 30
0.0
 10
190.7349
 20
-54.06
 30
0.0
 10
191.7738
 20
-57.6174
 30
0.0
  0
SPLINE
  5
81
330
1F
100
AcDbEntity
  8
layer 1
 62
     7
100
AcDbSpline
210
0.0
220
0.0
230
1.0
 70
    11
 71
     3
 72
    24
 73
    20
 74
     0
 42
0.0000000001
 43
0.0000000001
 12
1.0
 22
0.0
 32
0.0
 13
1.0
 23
0.0
 33
0.0
 40
0.0
 40
0.0
 40
0.0
 40
0.0
 40
0.1666666666666667
 40
0.1666666666666667
 40
0.1666666666666667
 40
0.1666666666666667
 40
0.3333333333333333
 40
0.3333333333333333
 40
0.3333333333333333
 40
0.3333333333333333
 40
0.5
 40
0.5
 40
0.5
 40
0.5
 40
0.6666666666666666
 40
0.6666666666666666
 40
0.6666666666666666
 40
0.6666666666666666
 40
1.0
 40
1.0
 40
1.0
 40
1.0
 10
171.4615
 20
-45.2098
 30
0.0
 10
167.4802
 20
-48.2854
 30
0.0
 10
164.3093
 20
-49.9795
 30
0.0
 10
158.7353
 20
-51.0968
 30
0.0
 10
158.7353
 20
-51.0968
 30
0.0
 10
164.3113
 20
-52.2141
 30
0.0
 10
167.4823
 20
-53.9081
 30
0.0
 10
171.4636
 20
-56.9837
 30
0.0
 10
171.4636
 20
-56.9837
 30
0.0
 10
173.2328
 20
-54.4475
 30
0.0
 10
176.1602
 20
-51.89
 30
0.0
 10
178.9255
 20
-51.0657
 30
0.0
 10
178.9255
 20
-51.0657
 30
0.0
 10
176.1272
 20
-50.2414
 30
0.0
 10
173.2307
 20
-47.7458
 30
0.0
 10
171.4615
 20
-45.2097
 30
0.0
 10
171.4615
 20
-45.2097
 30
0.0
 10
171.4615
 20
-45.2097
 30
0.0
 10
171.4615
 20
-45.2098
 30
0.0
 10
171.4615
 20
-45.2098
 30
0.0
  0
SPLINE
  5
82
330
1F
100
AcDbEntity
  8
layer 1
 62
     7
100
AcDbSpline
210
0.0
220
0.0
230
1.0
 70
    11
 71
     3
 72
    68
 73
    64
 74
     0
 42
0.0000000001
 43
0.0000000001
 12
1.0
 22
0.0
 32
0.0
 13
1.0
 23
0.0
 33
0.0
 40
0.0
 40
0.0
 40
0.0
 40
0.0
 40
0.0588235294117647
 40
0.0588235294117647
 40
0.0588235294117647
 40
0.0588235294117647
 40
0.1176470588235294
 40
0.1176470588235294
 40
0.1176470588235294
 40
0.1176470588235294
 40
0.1764705882352941
 40
0.1764705882352941
 40
0.1764705882352941
 40
0.1764705882352941
 40
0.2352941176470588
 40
0.2352941176470588
 40
0.2352941176470588
 40
0.2352941176470588
 40
0.2941176470588235
 40
0.2941176470588235
 40
0.2941176470588235
 40
0.2941176470588235
 40
0.3529411764705883
 40
0.3529411764705883
 40
0.3529411764705883
 40
0.3529411764705883
 40
0.4117647058823529
 40
0.4117647058823529
 40
0.4117647058823529
 40
0.4117647058823529
 40
0.4705882352941176
 40
0.4705882352941176
 40
0.4705882352941176
 40
0.4705882352941176
 40
0.5294117647058824
 40
0.5294117647058824
 40
0.5294117647058824
 40
0.5294117647058824
 40
0.5882352941176471
 40
0.5882352941176471
 40
0.5882352941176471
 40
0.5882352941176471
 40
0.6470588235294118
 40
0.6470588235294118
 40
0.6470588235294118
 40
0.6470588235294118
 40
0.7058823529411765
 40
0.7058823529411765
 40
0.7058823529411765
 40
0.7058823529411765
 40
0.7647058823529411
 40
0.7647058823529411
 40
0.7647058823529411
 40
0.7647058823529411
 40
0.8235294117647058
 40
0.8235294117647058
 40
0.8235294117647058
 40
0.8235294117647058
 40
0.8823529411764706
 40
0.8823529411764706
 40
0.8823529411764706
 40
0.8823529411764706
 40
1.0
 40
1.0
 40
1.0
 40
1.0
 10
135.8625
 20
-87.483
 30
0.0
 10
135.8625
 20
-87.483
 30
0.0
 10
132.9606
 20
-87.5972
 30
0.0
 10
132.9606
 20
-87.5972
 30
0.0
 10
132.9606
 20
-87.5972
 30
0.0
 10
127.811
 20
-87.9922
 30
0.0
 10
124.0762
 20
-85.7586
 30
0.0
 10
125.9386
 20
-82.6738
 30
0.0
 10
125.9386
 20
-82.6738
 30
0.0
 10
127.2386
 20
-81.021
 30
0.0
 10
129.8296
 20
-82.0017
 30
0.0
 10
128.6421
 20
-83.697
 30
0.0
 10
128.6421
 20
-83.697
 30
0.0
 10
128.2096
 20
-84.3145
 30
0.0
 10
128.2243
 20
-84.4106
 30
0.0
 10
128.798
 20
-84.7176
 30
0.0
 10
128.798
 20
-84.7176
 30
0.0
 10
129.1464
 20
-84.9041
 30
0.0
 10
130.0424
 20
-85.0566
 30
0.0
 10
130.7894
 20
-85.0566
 30
0.0
 10
130.7894
 20
-85.0566
 30
0.0
 10
132.8097
 20
-85.0713
 30
0.0
 10
133.0721
 20
-83.5092
 30
0.0
 10
134.6985
 20
-82.7919
 30
0.0
 10
134.6985
 20
-82.7919
 30
0.0
 10
135.8027
 20
-82.3817
 30
0.0
 10
138.9465
 20
-81.8862
 30
0.0
 10
138.8215
 20
-80.7062
 30
0.0
 10
138.8215
 20
-80.7062
 30
0.0
 10
138.9465
 20
-79.5261
 30
0.0
 10
135.8028
 20
-79.0305
 30
0.0
 10
134.6985
 20
-78.6204
 30
0.0
 10
134.6985
 20
-78.6204
 30
0.0
 10
133.0721
 20
-77.9031
 30
0.0
 10
132.8096
 20
-76.341
 30
0.0
 10
130.7894
 20
-76.3557
 30
0.0
 10
130.7894
 20
-76.3557
 30
0.0
 10
130.0425
 20
-76.3557
 30
0.0
 10
129.1464
 20
-76.5082
 30
0.0
 10
128.798
 20
-76.6947
 30
0.0
 10
128.798
 20
-76.6947
 30
0.0
 10
128.2243
 20
-77.0017
 30
0.0
 10
128.2096
 20
-77.0978
 30
0.0
 10
128.6421
 20
-77.7153
 30
0.0
 10
128.6421
 20
-77.7153
 30
0.0
 10
129.8296
 20
-79.4106
 30
0.0
 10
127.2386
 20
-80.3913
 30
0.0
 10
125.9386
 20
-78.7385
 30
0.0
 10
125.9386
 20
-78.7385
 30
0.0
 10
124.0763
 20
-75.6537
 30
0.0
 10
127.811
 20
-73.4201
 30
0.0
 10
132.9606
 20
-73.8151
 30
0.0
 10
132.9606
 20
-73.8151
 30
0.0
 10
132.9606
 20
-73.8151
 30
0.0
 10
135.8625
 20
-73.9293
 30
0.0
 10
135.8625
 20
-73.9293
 30
0.0
 10
135.8625
 20
-73.9293
 30
0.0
 10
138.3351
 20
-77.3545
 30
0.0
 10
141.3737
 20
-80.0005
 30
0.0
 10
145.3569
 20
-80.7062
 30
0.0
 10
145.3569
 20
-80.7062
 30
0.0
 10
141.298
 20
-81.4118
 30
0.0
 10
138.3351
 20
-84.7386
 30
0.0
 10
135.8625
 20
-87.483
 30
0.0
  0
SPLINE
  5
83
330
1F
100
AcDbEntity
  8
layer 1
 62
     7
100
AcDbSpline
210
0.0
220
0.0
230
1.0
 70
    11
 71
     3
 72
    28
 73
    24
 74
     0
 42
0.0000000001
 43
0.0000000001
 12
1.0
 22
0.0
 32
0.0
 13
1.0
 23
0.0
 33
0.0
 40
0.0
 40
0.0
 40
0.0
 40
0.0
 40
0.1428571428571428
 40
0.1428571428571428
 40
0.1428571428571428
 40
0.1428571428571428
 40
0.2857142857142857
 40
0.2857142857142857
 40
0.2857142857142857
 40
0.2857142857142857
 40
0.4285714285714285
 40
0.4285714285714285
 40
0.4285714285714285
 40
0.4285714285714285
 40
0.5714285714285714
 40
0.5714285714285714
 40
0.5714285714285714
 40
0.5714285714285714
 40
0.7142857142857143
 40
0.7142857142857143
 40
0.7142857142857143
 40
0.7142857142857143
 40
1.0
 40
1.0
 40
1.0
 40
1.0
 10
117.8161
 20
-85.8521
 30
0.0
 10
118.3931
 20
-86.5475
 30
0.0
 10
118.3592
 20
-87.9494
 30
0.0
 10
116.3175
 20
-90.7537
 30
0.0
 10
116.3175
 20
-90.7537
 30
0.0
 10
114.9181
 20
-92.8007
 30
0.0
 10
113.477
 20
-95.1367
 30
0.0
 10
112.4772
 20
-97.7108
 30
0.0
 10
112.4772
 20
-97.7108
 30
0.0
 10
112.6674
 20
-94.0177
 30
0.0
 10
112.4813
 20
-90.3235
 30
0.0
 10
112.4772
 20
-86.6273
 30
0.0
 10
112.4772
 20
-86.6273
 30
0.0
 10
113.1295
 20
-87.6883
 30
0.0
 10
114.3414
 20
-88.1717
 30
0.0
 10
115.3171
 20
-88.1102
 30
0.0
 10
115.3171
 20
-88.1102
 30
0.0
 10
115.8954
 20
-87.9967
 30
0.0
 10
116.2002
 20
-87.8821
 30
0.0
 10
116.019
 20
-87.1602
 30
0.0
 10
116.019
 20
-87.1602
 30
0.0
 10
115.4496
 20
-85.7466
 30
0.0
 10
117.0417
 20
-84.988
 30
0.0
 10
117.8161
 20
-85.8521
 30
0.0
  0
SPLINE
  5
84
330
1F
100
AcDbEntity
  8
layer 1
 62
     7
100
AcDbSpline
210
0.0
220
0.0
230
1.0
 70
    11
 71
     3
 72
    16
 73
    12
 74
     0
 42
0.0000000001
 43
0.0000000001
 12
1.0
 22
0.0
 32
0.0
 13
1.0
 23
0.0
 33
0.0
 40
0.0
 40
0.0
 40
0.0
 40
0.0
 40
0.25
 40
0.25
 40
0.25
 40
0.25
 40
0.5
 40
0.5
 40
0.5
 40
0.5
 40
1.0
 40
1.0
 40
1.0
 40
1.0
 10
124.3913
 20
-94.924
 30
0.0
 10
122.9085
 20
-93.7373
 30
0.0
 10
121.1168
 20
-93.3015
 30
0.0
 10
119.1529
 20
-93.766
 30
0.0
 10
119.1529
 20
-93.766
 30
0.0
 10
120.2226
 20
-91.8628
 30
0.0
 10
120.9535
 20
-90.9453
 30
0.0
 10
121.7066
 20
-88.131
 30
0.0
 10
121.7066
 20
-88.131
 30
0.0
 10
122.0497
 20
-90.6211
 30
0.0
 10
123.2917
 20
-93.4041
 30
0.0
 10
124.3913
 20
-94.924
 30
0.0
  0
SPLINE
  5
85
330
1F
100
AcDbEntity
  8
layer 1
 62
     7
100
AcDbSpline
210
0.0
220
0.0
230
1.0
 70
    11
 71
     3
 72
    20
 73
    16
 74
     0
 42
0.0000000001
 43
0.0000000001
 12
1.0
 22
0.0
 32
0.0
 13
1.0
 23
0.0
 33
0.0
 40
0.0
 40
0.0
 40
0.0
 40
0.0
 40
0.2
 40
0.2
 40
0.2
 40
0.2
 40
0.4
 40
0.4
 40
0.4
 40
0.4
 40
0.6
 40
0.6
 40
0.6
 40
0.6
 40
1.0
 40
1.0
 40
1.0
 40
1.0
 10
133.6665
 20
-91.2507
 30
0.0
 10
132.165
 20
-93.325
 30
0.0
 10
131.5689
 20
-94.91
 30
0.0
 10
130.6389
 20
-97.7591
 30
0.0
 10
130.6389
 20
-97.7591
 30
0.0
 10
128.7407
 20
-95.5807
 30
0.0
 10
127.4025
 20
-93.4594
 30
0.0
 10
126.0502
 20
-90.4293
 30
0.0
 10
126.0502
 20
-90.4293
 30
0.0
 10
128.9205
 20
-91.6013
 30
0.0
 10
130.6872
 20
-91.7775
 30
0.0
 10
133.6664
 20
-91.2507
 30
0.0
 10
133.6664
 20
-91.2507
 30
0.0
 10
133.6664
 20
-91.2507
 30
0.0
 10
133.6665
 20
-91.2507
 30
0.0
 10
133.6665
 20
-91.2507
 30
0.0
  0
SPLINE
  5
86
330
1F
100
AcDbEntity
  8
layer 1
 62
     7
100
AcDbSpline
210
0.0
220
0.0
230
1.0
 70
    11
 71
     3
 72
   136
 73
   132
 74
     0
 42
0.0000000001
 43
0.0000000001
 12
1.0
 22
0.0
 32
0.0
 13
1.0
 23
0.0
 33
0.0
 40
0.0
 40
0.0
 40
0.0
 40
0.0
 40
0.0294117647058824
 40
0.0294117647058824
 40
0.0294117647058824
 40
0.0294117647058824
 40
0.0588235294117647
 40
0.0588235294117647
 40
0.0588235294117647
 40
0.0588235294117647
 40
0.0882352941176471
 40
0.0882352941176471
 40
0.0882352941176471
 40
0.0882352941176471
 40
0.1176470588235294
 40
0.1176470588235294
 40
0.1176470588235294
 40
0.1176470588235294
 40
0.1470588235294118
 40
0.1470588235294118
 40
0.1470588235294118
 40
0.1470588235294118
 40
0.1764705882352941
 40
0.1764705882352941
 40
0.1764705882352941
 40
0.1764705882352941
 40
0.2058823529411765
 40
0.2058823529411765
 40
0.2058823529411765
 40
0.2058823529411765
 40
0.2352941176470588
 40
0.2352941176470588
 40
0.2352941176470588
 40
0.2352941176470588
 40
0.2647058823529412
 40
0.2647058823529412
 40
0.2647058823529412
 40
0.2647058823529412
 40
0.2941176470588235
 40
0.2941176470588235
 40
0.2941176470588235
 40
0.2941176470588235
 40
0.3235294117647059
 40
0.3235294117647059
 40
0.3235294117647059
 40
0.3235294117647059
 40
0.3529411764705883
 40
0.3529411764705883
 40
0.3529411764705883
 40
0.3529411764705883
 40
0.3823529411764706
 40
0.3823529411764706
 40
0.3823529411764706
 40
0.3823529411764706
 40
0.4117647058823529
 40
0.4117647058823529
 40
0.4117647058823529
 40
0.4117647058823529
 40
0.4411764705882353
 40
0.4411764705882353
 40
0.4411764705882353
 40
0.4411764705882353
 40
0.4705882352941176
 40
0.4705882352941176
 40
0.4705882352941176
 40
0.4705882352941176
 40
0.5
 40
0.5
 40
0.5
 40
0.5
 40
0.5294117647058824
 40
0.5294117647058824
 40
0.5294117647058824
 40
0.5294117647058824
 40
0.5588235294117647
 40
0.5588235294117647
 40
0.5588235294117647
 40
0.5588235294117647
 40
0.5882352941176471
 40
0.5882352941176471
 40
0.5882352941176471
 40
0.5882352941176471
 40
0.6176470588235294
 40
0.6176470588235294
 40
0.6176470588235294
 40
0.6176470588235294
 40
0.6470588235294118
 40
0.6470588235294118
 40
0.6470588235294118
 40
0.6470588235294118
 40
0.6764705882352942
 40
0.6764705882352942
 40
0.6764705882352942
 40
0.6764705882352942
 40
0.7058823529411765
 40
0.7058823529411765
 40
0.7058823529411765
 40
0.7058823529411765
 40
0.7352941176470589
 40
0.7352941176470589
 40
0.7352941176470589
 40
0.7352941176470589
 40
0.7647058823529411
 40
0.7647058823529411
 40
0.7647058823529411
 40
0.7647058823529411
 40
0.7941176470588235
 40
0.7941176470588235
 40
0.7941176470588235
 40
0.7941176470588235
 40
0.8235294117647058
 40
0.8235294117647058
 40
0.8235294117647058
 40
0.8235294117647058
 40
0.8529411764705882
 40
0.8529411764705882
 40
0.8529411764705882
 40
0.8529411764705882
 40
0.8823529411764706
 40
0.8823529411764706
 40
0.8823529411764706
 40
0.8823529411764706
 40
0.9117647058823529
 40
0.9117647058823529
 40
0.9117647058823529
 40
0.9117647058823529
 40
0.9411764705882353
 40
0.9411764705882353
 40
0.9411764705882353
 40
0.9411764705882353
 40
1.0
 40
1.0
 40
1.0
 40
1.0
 10
149.8316
 20
-101.4879
 30
0.0
 10
148.3129
 20
-102.4377
 30
0.0
 10
146.4544
 20
-102.439
 30
0.0
 10
144.6851
 20
-100.9596
 30
0.0
 10
144.6851
 20
-100.9596
 30
0.0
 10
143.2357
 20
-99.6713
 30
0.0
 10
143.0073
 20
-96.9337
 30
0.0
 10
144.4341
 20
-95.0378
 30
0.0
 10
144.4341
 20
-95.0378
 30
0.0
 10
144.931
 20
-96.0385
 30
0.0
 10
145.9676
 20
-97.2118
 30
0.0
 10
146.9497
 20
-96.0459
 30
0.0
 10
146.9497
 20
-96.0459
 30
0.0
 10
147.8197
 20
-94.4202
 30
0.0
 10
146.2596
 20
-92.2462
 30
0.0
 10
143.4754
 20
-91.2045
 30
0.0
 10
143.4754
 20
-91.2045
 30
0.0
 10
143.4754
 20
-91.2045
 30
0.0
 10
143.4754
 20
-91.2045
 30
0.0
 10
143.4754
 20
-91.2045
 30
0.0
 10
143.4754
 20
-91.2045
 30
0.0
 10
142.5228
 20
-90.8481
 30
0.0
 10
140.9601
 20
-90.5566
 30
0.0
 10
140.0026
 20
-90.5566
 30
0.0
 10
140.0026
 20
-90.5566
 30
0.0
 10
138.3872
 20
-90.5566
 30
0.0
 10
138.2151
 20
-90.6324
 30
0.0
 10
137.6136
 20
-91.608
 30
0.0
 10
137.6136
 20
-91.608
 30
0.0
 10
137.257
 20
-92.1862
 30
0.0
 10
136.8655
 20
-93.0598
 30
0.0
 10
136.7433
 20
-93.5491
 30
0.0
 10
136.7433
 20
-93.5491
 30
0.0
 10
136.5432
 20
-94.3511
 30
0.0
 10
136.6055
 20
-94.4388
 30
0.0
 10
137.3755
 20
-94.4388
 30
0.0
 10
137.3755
 20
-94.4388
 30
0.0
 10
139.4099
 20
-94.4844
 30
0.0
 10
141.9189
 20
-96.1308
 30
0.0
 10
141.6706
 20
-98.4769
 30
0.0
 10
141.6706
 20
-98.4769
 30
0.0
 10
141.4786
 20
-100.1126
 30
0.0
 10
139.4807
 20
-102.3866
 30
0.0
 10
136.9996
 20
-101.3243
 30
0.0
 10
136.9996
 20
-101.3243
 30
0.0
 10
136.2523
 20
-100.8636
 30
0.0
 10
136.2042
 20
-100.2622
 30
0.0
 10
137.0265
 20
-100.2622
 30
0.0
 10
137.0265
 20
-100.2622
 30
0.0
 10
138.2118
 20
-100.0956
 30
0.0
 10
138.9068
 20
-99.4314
 30
0.0
 10
138.2141
 20
-98.4889
 30
0.0
 10
138.2141
 20
-98.4889
 30
0.0
 10
137.2888
 20
-97.3799
 30
0.0
 10
135.165
 20
-98.9157
 30
0.0
 10
134.083
 20
-101.022
 30
0.0
 10
134.083
 20
-101.022
 30
0.0
 10
138.2553
 20
-104.5501
 30
0.0
 10
144.2447
 20
-107.119
 30
0.0
 10
152.1191
 20
-107.323
 30
0.0
 10
152.1191
 20
-107.323
 30
0.0
 10
159.9936
 20
-107.119
 30
0.0
 10
165.983
 20
-104.5501
 30
0.0
 10
170.1553
 20
-101.022
 30
0.0
 10
170.1553
 20
-101.022
 30
0.0
 10
169.0731
 20
-98.9157
 30
0.0
 10
166.9493
 20
-97.3799
 30
0.0
 10
166.0242
 20
-98.4889
 30
0.0
 10
166.0242
 20
-98.4889
 30
0.0
 10
165.3315
 20
-99.4314
 30
0.0
 10
166.0265
 20
-100.0956
 30
0.0
 10
167.2117
 20
-100.2622
 30
0.0
 10
167.2117
 20
-100.2622
 30
0.0
 10
168.034
 20
-100.2622
 30
0.0
 10
167.986
 20
-100.8635
 30
0.0
 10
167.2386
 20
-101.3243
 30
0.0
 10
167.2386
 20
-101.3243
 30
0.0
 10
164.7575
 20
-102.3866
 30
0.0
 10
162.7596
 20
-100.1128
 30
0.0
 10
162.5677
 20
-98.4769
 30
0.0
 10
162.5677
 20
-98.4769
 30
0.0
 10
162.3194
 20
-96.1308
 30
0.0
 10
164.8283
 20
-94.4844
 30
0.0
 10
166.8628
 20
-94.4388
 30
0.0
 10
166.8628
 20
-94.4388
 30
0.0
 10
167.6328
 20
-94.4388
 30
0.0
 10
167.6951
 20
-94.3511
 30
0.0
 10
167.4949
 20
-93.5491
 30
0.0
 10
167.4949
 20
-93.5491
 30
0.0
 10
167.3728
 20
-93.0598
 30
0.0
 10
166.9811
 20
-92.1862
 30
0.0
 10
166.6247
 20
-91.608
 30
0.0
 10
166.6247
 20
-91.608
 30
0.0
 10
166.0232
 20
-90.6324
 30
0.0
 10
165.851
 20
-90.5566
 30
0.0
 10
164.2357
 20
-90.5566
 30
0.0
 10
164.2357
 20
-90.5566
 30
0.0
 10
163.2782
 20
-90.5566
 30
0.0
 10
161.7154
 20
-90.8482
 30
0.0
 10
160.7629
 20
-91.2045
 30
0.0
 10
160.7629
 20
-91.2045
 30
0.0
 10
160.7629
 20
-91.2045
 30
0.0
 10
160.7629
 20
-91.2045
 30
0.0
 10
160.7629
 20
-91.2045
 30
0.0
 10
160.7629
 20
-91.2045
 30
0.0
 10
157.9787
 20
-92.2462
 30
0.0
 10
156.4186
 20
-94.4202
 30
0.0
 10
157.2886
 20
-96.0459
 30
0.0
 10
157.2886
 20
-96.0459
 30
0.0
 10
158.2707
 20
-97.2118
 30
0.0
 10
159.3072
 20
-96.0385
 30
0.0
 10
159.8042
 20
-95.0378
 30
0.0
 10
159.8042
 20
-95.0378
 30
0.0
 10
161.231
 20
-96.9337
 30
0.0
 10
161.0026
 20
-99.6713
 30
0.0
 10
159.5531
 20
-100.9596
 30
0.0
 10
159.5531
 20
-100.9596
 30
0.0
 10
157.7839
 20
-102.439
 30
0.0
 10
155.9252
 20
-102.4377
 30
0.0
 10
154.4067
 20
-101.4879
 30
0.0
 10
154.4067
 20
-101.4879
 30
0.0
 10
154.3825
 20
-103.6966
 30
0.0
 10
153.2718
 20
-105.7139
 30
0.0
 10
152.1193
 20
-105.697
 30
0.0
 10
152.1193
 20
-105.697
 30
0.0
 10
150.9667
 20
-105.7139
 30
0.0
 10
149.8561
 20
-103.6966
 30
0.0
 10
149.8318
 20
-101.4879
 30
0.0
 10
149.8318
 20
-101.4879
 30
0.0
 10
149.8318
 20
-101.4879
 30
0.0
 10
149.8316
 20
-101.4879
 30
0.0
 10
149.8316
 20
-101.4879
 30
0.0
  0
SPLINE
  5
87
330
1F
100
AcDbEntity
  8
layer 1
 62
     7
100
AcDbSpline
210
0.0
220
0.0
230
1.0
 70
    11
 71
     3
 72
    32
 73
    28
 74
     0
 42
0.0000000001
 43
0.0000000001
 12
1.0
 22
0.0
 32
0.0
 13
1.0
 23
0.0
 33
0.0
 40
0.0
 40
0.0
 40
0.0
 40
0.0
 40
0.125
 40
0.125
 40
0.125
 40
0.125
 40
0.25
 40
0.25
 40
0.25
 40
0.25
 40
0.375
 40
0.375
 40
0.375
 40
0.375
 40
0.5
 40
0.5
 40
0.5
 40
0.5
 40
0.625
 40
0.625
 40
0.625
 40
0.625
 40
0.75
 40
0.75
 40
0.75
 40
0.75
 40
1.0
 40
1.0
 40
1.0
 40
1.0
 10
129.4738
 20
-101.6913
 30
0.0
 10
127.753
 20
-105.7956
 30
0.0
 10
124.0563
 20
-107.8385
 30
0.0
 10
120.8066
 20
-107.0419
 30
0.0
 10
120.8066
 20
-107.0419
 30
0.0
 10
116.6362
 20
-106.6925
 30
0.0
 10
114.1106
 20
-101.7689
 30
0.0
 10
116.0252
 20
-99.77
 30
0.0
 10
116.0252
 20
-99.77
 30
0.0
 10
118.3175
 20
-97.6578
 30
0.0
 10
120.2838
 20
-100.9532
 30
0.0
 10
118.7977
 20
-102.5267
 30
0.0
 10
118.7977
 20
-102.5267
 30
0.0
 10
117.8956
 20
-103.4289
 30
0.0
 10
117.9815
 20
-103.7147
 30
0.0
 10
119.2841
 20
-104.1447
 30
0.0
 10
119.2841
 20
-104.1447
 30
0.0
 10
124.7671
 20
-105.034
 30
0.0
 10
126.205
 20
-100.0651
 30
0.0
 10
125.5277
 20
-96.6885
 30
0.0
 10
125.5277
 20
-96.6885
 30
0.0
 10
126.6814
 20
-98.8416
 30
0.0
 10
128.0525
 20
-100.2668
 30
0.0
 10
129.4739
 20
-101.6912
 30
0.0
 10
129.4739
 20
-101.6912
 30
0.0
 10
129.4739
 20
-101.6912
 30
0.0
 10
129.4738
 20
-101.6913
 30
0.0
 10
129.4738
 20
-101.6913
 30
0.0
  0
SPLINE
  5
88
330
1F
100
AcDbEntity
  8
layer 1
 62
     7
100
AcDbSpline
210
0.0
220
0.0
230
1.0
 70
    11
 71
     3
 72
    16
 73
    12
 74
     0
 42
0.0000000001
 43
0.0000000001
 12
1.0
 22
0.0
 32
0.0
 13
1.0
 23
0.0
 33
0.0
 40
0.0
 40
0.0
 40
0.0
 40
0.0
 40
0.25
 40
0.25
 40
0.25
 40
0.25
 40
0.5
 40
0.5
 40
0.5
 40
0.5
 40
1.0
 40
1.0
 40
1.0
 40
1.0
 10
119.1149
 20
-110.3346
 30
0.0
 10
116.2088
 20
-110.3346
 30
0.0
 10
114.6319
 20
-110.3346
 30
0.0
 10
112.4772
 20
-110.3346
 30
0.0
 10
112.4772
 20
-110.3346
 30
0.0
 10
112.4772
 20
-108.212
 30
0.0
 10
112.4772
 20
-105.9778
 30
0.0
 10
112.4772
 20
-103.795
 30
0.0
 10
112.4772
 20
-103.795
 30
0.0
 10
113.5161
 20
-107.3523
 30
0.0
 10
115.977
 20
-109.5876
 30
0.0
 10
119.1149
 20
-110.3346
 30
0.0
  0
SPLINE
  5
89
330
1F
100
AcDbEntity
  8
layer 1
 62
     7
100
AcDbSpline
210
0.0
220
0.0
230
1.0
 70
    11
 71
     3
 72
    16
 73
    12
 74
     0
 42
0.0000000001
 43
0.0000000001
 12
1.0
 22
0.0
 32
0.0
 13
1.0
 23
0.0
 33
0.0
 40
0.0
 40
0.0
 40
0.0
 40
0.0
 40
0.25
 40
0.25
 40
0.25
 40
0.25
 40
0.5
 40
0.5
 40
0.5
 40
0.5
 40
1.0
 40
1.0
 40
1.0
 40
1.0
 10
145.5147
 20
-110.3346
 30
0.0
 10
140.2734
 20
-110.3346
 30
0.0
 10
131.9689
 20
-110.3346
 30
0.0
 10
125.309
 20
-110.3346
 30
0.0
 10
125.309
 20
-110.3346
 30
0.0
 10
128.0908
 20
-109.5222
 30
0.0
 10
131.0182
 20
-106.9647
 30
0.0
 10
132.7874
 20
-104.4285
 30
0.0
 10
132.7874
 20
-104.4285
 30
0.0
 10
136.7687
 20
-107.5041
 30
0.0
 10
139.9396
 20
-109.1982
 30
0.0
 10
145.5147
 20
-110.3346
 30
0.0
  0
SPLINE
  5
8A
330
1F
100
AcDbEntity
  8
layer 1
 62
     7
100
AcDbSpline
210
0.0
220
0.0
230
1.0
 70
    11
 71
     3
 72
    68
 73
    64
 74
     0
 42
0.0000000001
 43
0.0000000001
 12
1.0
 22
0.0
 32
0.0
 13
1.0
 23
0.0
 33
0.0
 40
0.0
 40
0.0
 40
0.0
 40
0.0
 40
0.0588235294117647
 40
0.0588235294117647
 40
0.0588235294117647
 40
0.0588235294117647
 40
0.1176470588235294
 40
0.1176470588235294
 40
0.1176470588235294
 40
0.1176470588235294
 40
0.1764705882352941
 40
0.1764705882352941
 40
0.1764705882352941
 40
0.1764705882352941
 40
0.2352941176470588
 40
0.2352941176470588
 40
0.2352941176470588
 40
0.2352941176470588
 40
0.2941176470588235
 40
0.2941176470588235
 40
0.2941176470588235
 40
0.2941176470588235
 40
0.3529411764705883
 40
0.3529411764705883
 40
0.3529411764705883
 40
0.3529411764705883
 40
0.4117647058823529
 40
0.4117647058823529
 40
0.4117647058823529
 40
0.4117647058823529
 40
0.4705882352941176
 40
0.4705882352941176
 40
0.4705882352941176
 40
0.4705882352941176
 40
0.5294117647058824
 40
0.5294117647058824
 40
0.5294117647058824
 40
0.5294117647058824
 40
0.5882352941176471
 40
0.5882352941176471
 40
0.5882352941176471
 40
0.5882352941176471
 40
0.6470588235294118
 40
0.6470588235294118
 40
0.6470588235294118
 40
0.6470588235294118
 40
0.7058823529411765
 40
0.7058823529411765
 40
0.7058823529411765
 40
0.7058823529411765
 40
0.7647058823529411
 40
0.7647058823529411
 40
0.7647058823529411
 40
0.7647058823529411
 40
0.8235294117647058
 40
0.8235294117647058
 40
0.8235294117647058
 40
0.8235294117647058
 40
0.8823529411764706
 40
0.8823529411764706
 40
0.8823529411764706
 40
0.8823529411764706
 40
1.0
 40
1.0
 40
1.0
 40
1.0
 10
169.5394
 20
-82.7919
 30
0.0
 10
171.1657
 20
-83.5092
 30
0.0
 10
171.4283
 20
-85.0713
 30
0.0
 10
173.4485
 20
-85.0566
 30
0.0
 10
173.4485
 20
-85.0566
 30
0.0
 10
174.1954
 20
-85.0566
 30
0.0
 10
175.0915
 20
-84.9041
 30
0.0
 10
175.4399
 20
-84.7176
 30
0.0
 10
175.4399
 20
-84.7176
 30
0.0
 10
176.0136
 20
-84.4106
 30
0.0
 10
176.0283
 20
-84.3145
 30
0.0
 10
175.5958
 20
-83.697
 30
0.0
 10
175.5958
 20
-83.697
 30
0.0
 10
174.4083
 20
-82.0017
 30
0.0
 10
176.9993
 20
-81.021
 30
0.0
 10
178.2993
 20
-82.6738
 30
0.0
 10
178.2993
 20
-82.6738
 30
0.0
 10
180.1616
 20
-85.7586
 30
0.0
 10
176.4269
 20
-87.9922
 30
0.0
 10
171.2773
 20
-87.5972
 30
0.0
 10
171.2773
 20
-87.5972
 30
0.0
 10
171.2773
 20
-87.5972
 30
0.0
 10
168.3754
 20
-87.483
 30
0.0
 10
168.3754
 20
-87.483
 30
0.0
 10
168.3754
 20
-87.483
 30
0.0
 10
166.2054
 20
-84.1334
 30
0.0
 10
162.6373
 20
-81.0336
 30
0.0
 10
158.881
 20
-80.7062
 30
0.0
 10
158.881
 20
-80.7062
 30
0.0
 10
162.6373
 20
-80.1519
 30
0.0
 10
165.8271
 20
-77.4301
 30
0.0
 10
168.3754
 20
-73.9293
 30
0.0
 10
168.3754
 20
-73.9293
 30
0.0
 10
168.3754
 20
-73.9293
 30
0.0
 10
171.2773
 20
-73.8151
 30
0.0
 10
171.2773
 20
-73.8151
 30
0.0
 10
171.2773
 20
-73.8151
 30
0.0
 10
176.4269
 20
-73.4201
 30
0.0
 10
180.1617
 20
-75.6537
 30
0.0
 10
178.2993
 20
-78.7385
 30
0.0
 10
178.2993
 20
-78.7385
 30
0.0
 10
176.9993
 20
-80.3913
 30
0.0
 10
174.4083
 20
-79.4106
 30
0.0
 10
175.5958
 20
-77.7153
 30
0.0
 10
175.5958
 20
-77.7153
 30
0.0
 10
176.0283
 20
-77.0978
 30
0.0
 10
176.0136
 20
-77.0017
 30
0.0
 10
175.4399
 20
-76.6947
 30
0.0
 10
175.4399
 20
-76.6947
 30
0.0
 10
175.0915
 20
-76.5082
 30
0.0
 10
174.1955
 20
-76.3557
 30
0.0
 10
173.4485
 20
-76.3557
 30
0.0
 10
173.4485
 20
-76.3557
 30
0.0
 10
171.4282
 20
-76.341
 30
0.0
 10
171.1657
 20
-77.9031
 30
0.0
 10
169.5394
 20
-78.6204
 30
0.0
 10
169.5394
 20
-78.6204
 30
0.0
 10
168.4352
 20
-79.0306
 30
0.0
 10
165.2914
 20
-79.5261
 30
0.0
 10
165.4164
 20
-80.7062
 30
0.0
 10
165.4164
 20
-80.7062
 30
0.0
 10
165.2914
 20
-81.8862
 30
0.0
 10
168.4351
 20
-82.3818
 30
0.0
 10
169.5394
 20
-82.7919
 30
0.0
  0
SPLINE
  5
8B
330
1F
100
AcDbEntity
  8
layer 1
 62
     7
100
AcDbSpline
210
0.0
220
0.0
230
1.0
 70
    11
 71
     3
 72
    20
 73
    16
 74
     0
 42
0.0000000001
 43
0.0000000001
 12
1.0
 22
0.0
 32
0.0
 13
1.0
 23
0.0
 33
0.0
 40
0.0
 40
0.0
 40
0.0
 40
0.0
 40
0.2
 40
0.2
 40
0.2
 40
0.2
 40
0.4
 40
0.4
 40
0.4
 40
0.4
 40
0.6
 40
0.6
 40
0.6
 40
0.6
 40
1.0
 40
1.0
 40
1.0
 40
1.0
 10
152.119
 20
-83.0082
 30
0.0
 10
151.4604
 20
-81.9573
 30
0.0
 10
149.9369
 20
-80.9758
 30
0.0
 10
148.1127
 20
-80.706
 30
0.0
 10
148.1127
 20
-80.706
 30
0.0
 10
149.937
 20
-80.4363
 30
0.0
 10
151.4606
 20
-79.4548
 30
0.0
 10
152.1191
 20
-78.4038
 30
0.0
 10
152.1191
 20
-78.4038
 30
0.0
 10
152.7777
 20
-79.4548
 30
0.0
 10
154.3013
 20
-80.4363
 30
0.0
 10
156.1255
 20
-80.706
 30
0.0
 10
156.1255
 20
-80.706
 30
0.0
 10
154.3011
 20
-80.9758
 30
0.0
 10
152.7776
 20
-81.9573
 30
0.0
 10
152.119
 20
-83.0082
 30
0.0
  0
SPLINE
  5
8C
330
1F
100
AcDbEntity
  8
layer 1
 62
     7
100
AcDbSpline
210
0.0
220
0.0
230
1.0
 70
    11
 71
     3
 72
    56
 73
    52
 74
     0
 42
0.0000000001
 43
0.0000000001
 12
1.0
 22
0.0
 32
0.0
 13
1.0
 23
0.0
 33
0.0
 40
0.0
 40
0.0
 40
0.0
 40
0.0
 40
0.0714285714285714
 40
0.0714285714285714
 40
0.0714285714285714
 40
0.0714285714285714
 40
0.1428571428571428
 40
0.1428571428571428
 40
0.1428571428571428
 40
0.1428571428571428
 40
0.2142857142857143
 40
0.2142857142857143
 40
0.2142857142857143
 40
0.2142857142857143
 40
0.2857142857142857
 40
0.2857142857142857
 40
0.2857142857142857
 40
0.2857142857142857
 40
0.3571428571428572
 40
0.3571428571428572
 40
0.3571428571428572
 40
0.3571428571428572
 40
0.4285714285714285
 40
0.4285714285714285
 40
0.4285714285714285
 40
0.4285714285714285
 40
0.5
 40
0.5
 40
0.5
 40
0.5
 40
0.5714285714285714
 40
0.5714285714285714
 40
0.5714285714285714
 40
0.5714285714285714
 40
0.6428571428571429
 40
0.6428571428571429
 40
0.6428571428571429
 40
0.6428571428571429
 40
0.7142857142857143
 40
0.7142857142857143
 40
0.7142857142857143
 40
0.7142857142857143
 40
0.7857142857142857
 40
0.7857142857142857
 40
0.7857142857142857
 40
0.7857142857142857
 40
0.8571428571428571
 40
0.8571428571428571
 40
0.8571428571428571
 40
0.8571428571428571
 40
1.0
 40
1.0
 40
1.0
 40
1.0
 10
155.1699
 20
-88.4732
 30
0.0
 10
157.0456
 20
-88.0998
 30
0.0
 10
158.1133
 20
-86.1891
 30
0.0
 10
156.5694
 20
-85.9689
 30
0.0
 10
156.5694
 20
-85.9689
 30
0.0
 10
155.7374
 20
-85.8502
 30
0.0
 10
155.44
 20
-84.9225
 30
0.0
 10
156.0128
 20
-84.2323
 30
0.0
 10
156.0128
 20
-84.2323
 30
0.0
 10
157.3485
 20
-82.8729
 30
0.0
 10
161.7778
 20
-84.3134
 30
0.0
 10
163.1816
 20
-86.9385
 30
0.0
 10
163.1816
 20
-86.9385
 30
0.0
 10
158.7428
 20
-87.3741
 30
0.0
 10
153.6982
 20
-89.1496
 30
0.0
 10
153.1261
 20
-94.1243
 30
0.0
 10
153.1261
 20
-94.1243
 30
0.0
 10
152.9639
 20
-95.8188
 30
0.0
 10
152.6696
 20
-96.4595
 30
0.0
 10
152.1189
 20
-96.4973
 30
0.0
 10
152.1189
 20
-96.4973
 30
0.0
 10
151.5682
 20
-96.4595
 30
0.0
 10
151.2738
 20
-95.8188
 30
0.0
 10
151.1117
 20
-94.1243
 30
0.0
 10
151.1117
 20
-94.1243
 30
0.0
 10
150.5396
 20
-89.1496
 30
0.0
 10
145.4951
 20
-87.3741
 30
0.0
 10
141.0561
 20
-86.9385
 30
0.0
 10
141.0561
 20
-86.9385
 30
0.0
 10
142.46
 20
-84.3134
 30
0.0
 10
146.8892
 20
-82.8728
 30
0.0
 10
148.225
 20
-84.2323
 30
0.0
 10
148.225
 20
-84.2323
 30
0.0
 10
148.7978
 20
-84.9225
 30
0.0
 10
148.5004
 20
-85.8502
 30
0.0
 10
147.6684
 20
-85.9689
 30
0.0
 10
147.6684
 20
-85.9689
 30
0.0
 10
146.1246
 20
-86.1891
 30
0.0
 10
147.1923
 20
-88.0998
 30
0.0
 10
149.0679
 20
-88.4732
 30
0.0
 10
149.0679
 20
-88.4732
 30
0.0
 10
150.4816
 20
-88.527
 30
0.0
 10
151.3497
 20
-88.1326
 30
0.0
 10
152.1188
 20
-87.1304
 30
0.0
 10
152.1188
 20
-87.1304
 30
0.0
 10
152.8879
 20
-88.1326
 30
0.0
 10
153.7559
 20
-88.5269
 30
0.0
 10
155.1697
 20
-88.4732
 30
0.0
 10
155.1697
 20
-88.4732
 30
0.0
 10
155.1697
 20
-88.4732
 30
0.0
 10
155.1699
 20
-88.4732
 30
0.0
 10
155.1699
 20
-88.4732
 30
0.0
  0
SPLINE
  5
8D
330
1F
100
AcDbEntity
  8
layer 1
 62
     7
100
AcDbSpline
210
0.0
220
0.0
230
1.0
 70
    11
 71
     3
 72
    28
 73
    24
 74
     0
 42
0.0000000001
 43
0.0000000001
 12
1.0
 22
0.0
 32
0.0
 13
1.0
 23
0.0
 33
0.0
 40
0.0
 40
0.0
 40
0.0
 40
0.0
 40
0.1428571428571428
 40
0.1428571428571428
 40
0.1428571428571428
 40
0.1428571428571428
 40
0.2857142857142857
 40
0.2857142857142857
 40
0.2857142857142857
 40
0.2857142857142857
 40
0.4285714285714285
 40
0.4285714285714285
 40
0.4285714285714285
 40
0.4285714285714285
 40
0.5714285714285714
 40
0.5714285714285714
 40
0.5714285714285714
 40
0.5714285714285714
 40
0.7142857142857143
 40
0.7142857142857143
 40
0.7142857142857143
 40
0.7142857142857143
 40
1.0
 40
1.0
 40
1.0
 40
1.0
 10
186.4218
 20
-85.8521
 30
0.0
 10
185.8448
 20
-86.5475
 30
0.0
 10
185.8787
 20
-87.9494
 30
0.0
 10
187.9204
 20
-90.7537
 30
0.0
 10
187.9204
 20
-90.7537
 30
0.0
 10
189.3198
 20
-92.8007
 30
0.0
 10
190.7609
 20
-95.1367
 30
0.0
 10
191.7607
 20
-97.7108
 30
0.0
 10
191.7607
 20
-97.7108
 30
0.0
 10
191.5705
 20
-94.0177
 30
0.0
 10
191.7566
 20
-90.3235
 30
0.0
 10
191.7607
 20
-86.6273
 30
0.0
 10
191.7607
 20
-86.6273
 30
0.0
 10
191.1084
 20
-87.6883
 30
0.0
 10
189.8965
 20
-88.1717
 30
0.0
 10
188.9208
 20
-88.1102
 30
0.0
 10
188.9208
 20
-88.1102
 30
0.0
 10
188.3425
 20
-87.9967
 30
0.0
 10
188.0377
 20
-87.8821
 30
0.0
 10
188.2189
 20
-87.1602
 30
0.0
 10
188.2189
 20
-87.1602
 30
0.0
 10
188.7883
 20
-85.7466
 30
0.0
 10
187.1962
 20
-84.988
 30
0.0
 10
186.4218
 20
-85.8521
 30
0.0
  0
SPLINE
  5
8E
330
1F
100
AcDbEntity
  8
layer 1
 62
     7
100
AcDbSpline
210
0.0
220
0.0
230
1.0
 70
    11
 71
     3
 72
    16
 73
    12
 74
     0
 42
0.0000000001
 43
0.0000000001
 12
1.0
 22
0.0
 32
0.0
 13
1.0
 23
0.0
 33
0.0
 40
0.0
 40
0.0
 40
0.0
 40
0.0
 40
0.25
 40
0.25
 40
0.25
 40
0.25
 40
0.5
 40
0.5
 40
0.5
 40
0.5
 40
1.0
 40
1.0
 40
1.0
 40
1.0
 10
179.8466
 20
-94.924
 30
0.0
 10
181.4051
 20
-93.6617
 30
0.0
 10
183.1968
 20
-93.2258
 30
0.0
 10
185.085
 20
-93.766
 30
0.0
 10
185.085
 20
-93.766
 30
0.0
 10
184.0153
 20
-91.8628
 30
0.0
 10
183.2844
 20
-90.9453
 30
0.0
 10
182.5313
 20
-88.131
 30
0.0
 10
182.5313
 20
-88.131
 30
0.0
 10
182.1882
 20
-90.6211
 30
0.0
 10
180.9462
 20
-93.4041
 30
0.0
 10
179.8466
 20
-94.924
 30
0.0
  0
SPLINE
  5
8F
330
1F
100
AcDbEntity
  8
layer 1
 62
     7
100
AcDbSpline
210
0.0
220
0.0
230
1.0
 70
    11
 71
     3
 72
    20
 73
    16
 74
     0
 42
0.0000000001
 43
0.0000000001
 12
1.0
 22
0.0
 32
0.0
 13
1.0
 23
0.0
 33
0.0
 40
0.0
 40
0.0
 40
0.0
 40
0.0
 40
0.2
 40
0.2
 40
0.2
 40
0.2
 40
0.4
 40
0.4
 40
0.4
 40
0.4
 40
0.6
 40
0.6
 40
0.6
 40
0.6
 40
1.0
 40
1.0
 40
1.0
 40
1.0
 10
170.5714
 20
-91.2507
 30
0.0
 10
172.3755
 20
-93.5519
 30
0.0
 10
172.7447
 20
-94.6832
 30
0.0
 10
173.599
 20
-97.7591
 30
0.0
 10
173.599
 20
-97.7591
 30
0.0
 10
175.4972
 20
-95.5807
 30
0.0
 10
176.8354
 20
-93.4594
 30
0.0
 10
178.1877
 20
-90.4293
 30
0.0
 10
178.1877
 20
-90.4293
 30
0.0
 10
175.2743
 20
-91.6273
 30
0.0
 10
173.406
 20
-91.81
 30
0.0
 10
170.5715
 20
-91.2507
 30
0.0
 10
170.5715
 20
-91.2507
 30
0.0
 10
170.5715
 20
-91.2507
 30
0.0
 10
170.5714
 20
-91.2507
 30
0.0
 10
170.5714
 20
-91.2507
 30
0.0
  0
SPLINE
  5
90
330
1F
100
AcDbEntity
  8
layer 1
 62
     7
100
AcDbSpline
210
0.0
220
0.0
230
1.0
 70
    11
 71
     3
 72
    32
 73
    28
 74
     0
 42
0.0000000001
 43
0.0000000001
 12
1.0
 22
0.0
 32
0.0
 13
1.0
 23
0.0
 33
0.0
 40
0.0
 40
0.0
 40
0.0
 40
0.0
 40
0.125
 40
0.125
 40
0.125
 40
0.125
 40
0.25
 40
0.25
 40
0.25
 40
0.25
 40
0.375
 40
0.375
 40
0.375
 40
0.375
 40
0.5
 40
0.5
 40
0.5
 40
0.5
 40
0.625
 40
0.625
 40
0.625
 40
0.625
 40
0.75
 40
0.75
 40
0.75
 40
0.75
 40
1.0
 40
1.0
 40
1.0
 40
1.0
 10
174.7641
 20
-101.6913
 30
0.0
 10
176.4849
 20
-105.7956
 30
0.0
 10
180.1816
 20
-107.8385
 30
0.0
 10
183.4313
 20
-107.0419
 30
0.0
 10
183.4313
 20
-107.0419
 30
0.0
 10
187.6017
 20
-106.6925
 30
0.0
 10
190.1273
 20
-101.7689
 30
0.0
 10
188.2127
 20
-99.77
 30
0.0
 10
188.2127
 20
-99.77
 30
0.0
 10
185.9204
 20
-97.6578
 30
0.0
 10
183.9541
 20
-100.9532
 30
0.0
 10
185.4402
 20
-102.5267
 30
0.0
 10
185.4402
 20
-102.5267
 30
0.0
 10
186.3423
 20
-103.4289
 30
0.0
 10
186.2564
 20
-103.7147
 30
0.0
 10
184.9538
 20
-104.1447
 30
0.0
 10
184.9538
 20
-104.1447
 30
0.0
 10
179.4708
 20
-105.034
 30
0.0
 10
178.0329
 20
-100.0651
 30
0.0
 10
178.7102
 20
-96.6885
 30
0.0
 10
178.7102
 20
-96.6885
 30
0.0
 10
177.5565
 20
-98.8416
 30
0.0
 10
176.1854
 20
-100.2668
 30
0.0
 10
174.764
 20
-101.6912
 30
0.0
 10
174.764
 20
-101.6912
 30
0.0
 10
174.764
 20
-101.6912
 30
0.0
 10
174.7641
 20
-101.6913
 30
0.0
 10
174.7641
 20
-101.6913
 30
0.0
  0
SPLINE
  5
91
330
1F
100
AcDbEntity
  8
layer 1
 62
     7
100
AcDbSpline
210
0.0
220
0.0
230
1.0
 70
    11
 71
     3
 72
    16
 73
    12
 74
     0
 42
0.0000000001
 43
0.0000000001
 12
1.0
 22
0.0
 32
0.0
 13
1.0
 23
0.0
 33
0.0
 40
0.0
 40
0.0
 40
0.0
 40
0.0
 40
0.25
 40
0.25
 40
0.25
 40
0.25
 40
0.5
 40
0.5
 40
0.5
 40
0.5
 40
1.0
 40
1.0
 40
1.0
 40
1.0
 10
185.123
 20
-110.3346
 30
0.0
 10
188.0291
 20
-110.3346
 30
0.0
 10
189.606
 20
-110.3346
 30
0.0
 10
191.7607
 20
-110.3346
 30
0.0
 10
191.7607
 20
-110.3346
 30
0.0
 10
191.7607
 20
-108.212
 30
0.0
 10
191.7607
 20
-105.9778
 30
0.0
 10
191.7607
 20
-103.795
 30
0.0
 10
191.7607
 20
-103.795
 30
0.0
 10
190.7218
 20
-107.3523
 30
0.0
 10
188.2608
 20
-109.5876
 30
0.0
 10
185.123
 20
-110.3346
 30
0.0
  0
SPLINE
  5
92
330
1F
100
AcDbEntity
  8
layer 1
 62
     7
100
AcDbSpline
210
0.0
220
0.0
230
1.0
 70
    11
 71
     3
 72
    16
 73
    12
 74
     0
 42
0.0000000001
 43
0.0000000001
 12
1.0
 22
0.0
 32
0.0
 13
1.0
 23
0.0
 33
0.0
 40
0.0
 40
0.0
 40
0.0
 40
0.0
 40
0.25
 40
0.25
 40
0.25
 40
0.25
 40
0.5
 40
0.5
 40
0.5
 40
0.5
 40
1.0
 40
1.0
 40
1.0
 40
1.0
 10
158.7232
 20
-110.3346
 30
0.0
 10
163.9645
 20
-110.3346
 30
0.0
 10
172.269
 20
-110.3346
 30
0.0
 10
178.9289
 20
-110.3346
 30
0.0
 10
178.9289
 20
-110.3346
 30
0.0
 10
176.1471
 20
-109.5222
 30
0.0
 10
173.2197
 20
-106.9647
 30
0.0
 10
171.4505
 20
-104.4285
 30
0.0
 10
171.4505
 20
-104.4285
 30
0.0
 10
167.4692
 20
-107.5041
 30
0.0
 10
164.2983
 20
-109.1982
 30
0.0
 10
158.7232
 20
-110.3346
 30
0.0
  0
SPLINE
  5
93
330
1F
100
AcDbEntity
  8
layer 1
 62
     7
100
AcDbSpline
210
0.0
220
0.0
230
1.0
 70
    11
 71
     3
 72
    20
 73
    16
 74
     0
 42
0.0000000001
 43
0.0000000001
 12
1.0
 22
0.0
 32
0.0
 13
1.0
 23
0.0
 33
0.0
 40
0.0
 40
0.0
 40
0.0
 40
0.0
 40
0.2
 40
0.2
 40
0.2
 40
0.2
 40
0.4
 40
0.4
 40
0.4
 40
0.4
 40
0.6
 40
0.6
 40
0.6
 40
0.6
 40
1.0
 40
1.0
 40
1.0
 40
1.0
 10
112.4772
 20
-77.7954
 30
0.0
 10
113.7223
 20
-79.857
 30
0.0
 10
118.115
 20
-81.0226
 30
0.0
 10
120.4153
 20
-78.9549
 30
0.0
 10
120.4153
 20
-78.9549
 30
0.0
 10
120.4153
 20
-78.9549
 30
0.0
 10
120.4153
 20
-82.4574
 30
0.0
 10
120.4153
 20
-82.4574
 30
0.0
 10
120.4153
 20
-82.4574
 30
0.0
 10
118.115
 20
-80.3897
 30
0.0
 10
113.7223
 20
-81.5554
 30
0.0
 10
112.4772
 20
-83.6169
 30
0.0
 10
112.4772
 20
-83.6169
 30
0.0
 10
112.4772
 20
-83.6169
 30
0.0
 10
112.4772
 20
-77.7954
 30
0.0
 10
112.4772
 20
-77.7954
 30
0.0
  0
SPLINE
  5
94
330
1F
100
AcDbEntity
  8
layer 1
 62
     7
100
AcDbSpline
210
0.0
220
0.0
230
1.0
 70
    11
 71
     3
 72
    28
 73
    24
 74
     0
 42
0.0000000001
 43
0.0000000001
 12
1.0
 22
0.0
 32
0.0
 13
1.0
 23
0.0
 33
0.0
 40
0.0
 40
0.0
 40
0.0
 40
0.0
 40
0.1428571428571428
 40
0.1428571428571428
 40
0.1428571428571428
 40
0.1428571428571428
 40
0.2857142857142857
 40
0.2857142857142857
 40
0.2857142857142857
 40
0.2857142857142857
 40
0.4285714285714285
 40
0.4285714285714285
 40
0.4285714285714285
 40
0.4285714285714285
 40
0.5714285714285714
 40
0.5714285714285714
 40
0.5714285714285714
 40
0.5714285714285714
 40
0.7142857142857143
 40
0.7142857142857143
 40
0.7142857142857143
 40
0.7142857142857143
 40
1.0
 40
1.0
 40
1.0
 40
1.0
 10
117.8161
 20
-75.5601
 30
0.0
 10
118.3931
 20
-74.8647
 30
0.0
 10
118.3592
 20
-73.4628
 30
0.0
 10
116.3175
 20
-70.6585
 30
0.0
 10
116.3175
 20
-70.6585
 30
0.0
 10
114.9181
 20
-68.6115
 30
0.0
 10
113.477
 20
-66.2754
 30
0.0
 10
112.4772
 20
-63.7014
 30
0.0
 10
112.4772
 20
-63.7014
 30
0.0
 10
112.6674
 20
-67.3945
 30
0.0
 10
112.4813
 20
-71.0887
 30
0.0
 10
112.4772
 20
-74.7848
 30
0.0
 10
112.4772
 20
-74.7848
 30
0.0
 10
113.1295
 20
-73.7239
 30
0.0
 10
114.3414
 20
-73.2405
 30
0.0
 10
115.3171
 20
-73.302
 30
0.0
 10
115.3171
 20
-73.302
 30
0.0
 10
115.8954
 20
-73.4155
 30
0.0
 10
116.2002
 20
-73.53
 30
0.0
 10
116.019
 20
-74.252
 30
0.0
 10
116.019
 20
-74.252
 30
0.0
 10
115.4496
 20
-75.6656
 30
0.0
 10
117.0417
 20
-76.4242
 30
0.0
 10
117.8161
 20
-75.5601
 30
0.0
  0
SPLINE
  5
95
330
1F
100
AcDbEntity
  8
layer 1
 62
     7
100
AcDbSpline
210
0.0
220
0.0
230
1.0
 70
    11
 71
     3
 72
    16
 73
    12
 74
     0
 42
0.0000000001
 43
0.0000000001
 12
1.0
 22
0.0
 32
0.0
 13
1.0
 23
0.0
 33
0.0
 40
0.0
 40
0.0
 40
0.0
 40
0.0
 40
0.25
 40
0.25
 40
0.25
 40
0.25
 40
0.5
 40
0.5
 40
0.5
 40
0.5
 40
1.0
 40
1.0
 40
1.0
 40
1.0
 10
124.3913
 20
-66.4883
 30
0.0
 10
122.984
 20
-67.9775
 30
0.0
 10
121.0411
 20
-68.4134
 30
0.0
 10
119.1529
 20
-67.6463
 30
0.0
 10
119.1529
 20
-67.6463
 30
0.0
 10
120.2226
 20
-69.5495
 30
0.0
 10
120.9535
 20
-70.467
 30
0.0
 10
121.7066
 20
-73.2813
 30
0.0
 10
121.7066
 20
-73.2813
 30
0.0
 10
122.0497
 20
-70.7912
 30
0.0
 10
123.2917
 20
-68.0082
 30
0.0
 10
124.3913
 20
-66.4883
 30
0.0
  0
SPLINE
  5
96
330
1F
100
AcDbEntity
  8
layer 1
 62
     7
100
AcDbSpline
210
0.0
220
0.0
230
1.0
 70
    11
 71
     3
 72
    20
 73
    16
 74
     0
 42
0.0000000001
 43
0.0000000001
 12
1.0
 22
0.0
 32
0.0
 13
1.0
 23
0.0
 33
0.0
 40
0.0
 40
0.0
 40
0.0
 40
0.0
 40
0.2
 40
0.2
 40
0.2
 40
0.2
 40
0.4
 40
0.4
 40
0.4
 40
0.4
 40
0.6
 40
0.6
 40
0.6
 40
0.6
 40
1.0
 40
1.0
 40
1.0
 40
1.0
 10
133.6665
 20
-70.1616
 30
0.0
 10
132.0893
 20
-68.1629
 30
0.0
 10
130.8881
 20
-66.4266
 30
0.0
 10
130.6389
 20
-63.6532
 30
0.0
 10
130.6389
 20
-63.6532
 30
0.0
 10
128.7407
 20
-65.8316
 30
0.0
 10
127.4025
 20
-67.9529
 30
0.0
 10
126.0502
 20
-70.983
 30
0.0
 10
126.0502
 20
-70.983
 30
0.0
 10
128.7562
 20
-69.5645
 30
0.0
 10
130.7693
 20
-69.6348
 30
0.0
 10
133.6664
 20
-70.1616
 30
0.0
 10
133.6664
 20
-70.1616
 30
0.0
 10
133.6664
 20
-70.1616
 30
0.0
 10
133.6665
 20
-70.1616
 30
0.0
 10
133.6665
 20
-70.1616
 30
0.0
  0
SPLINE
  5
97
330
1F
100
AcDbEntity
  8
layer 1
 62
     7
100
AcDbSpline
210
0.0
220
0.0
230
1.0
 70
    11
 71
     3
 72
   136
 73
   132
 74
     0
 42
0.0000000001
 43
0.0000000001
 12
1.0
 22
0.0
 32
0.0
 13
1.0
 23
0.0
 33
0.0
 40
0.0
 40
0.0
 40
0.0
 40
0.0
 40
0.0294117647058824
 40
0.0294117647058824
 40
0.0294117647058824
 40
0.0294117647058824
 40
0.0588235294117647
 40
0.0588235294117647
 40
0.0588235294117647
 40
0.0588235294117647
 40
0.0882352941176471
 40
0.0882352941176471
 40
0.0882352941176471
 40
0.0882352941176471
 40
0.1176470588235294
 40
0.1176470588235294
 40
0.1176470588235294
 40
0.1176470588235294
 40
0.1470588235294118
 40
0.1470588235294118
 40
0.1470588235294118
 40
0.1470588235294118
 40
0.1764705882352941
 40
0.1764705882352941
 40
0.1764705882352941
 40
0.1764705882352941
 40
0.2058823529411765
 40
0.2058823529411765
 40
0.2058823529411765
 40
0.2058823529411765
 40
0.2352941176470588
 40
0.2352941176470588
 40
0.2352941176470588
 40
0.2352941176470588
 40
0.2647058823529412
 40
0.2647058823529412
 40
0.2647058823529412
 40
0.2647058823529412
 40
0.2941176470588235
 40
0.2941176470588235
 40
0.2941176470588235
 40
0.2941176470588235
 40
0.3235294117647059
 40
0.3235294117647059
 40
0.3235294117647059
 40
0.3235294117647059
 40
0.3529411764705883
 40
0.3529411764705883
 40
0.3529411764705883
 40
0.3529411764705883
 40
0.3823529411764706
 40
0.3823529411764706
 40
0.3823529411764706
 40
0.3823529411764706
 40
0.4117647058823529
 40
0.4117647058823529
 40
0.4117647058823529
 40
0.4117647058823529
 40
0.4411764705882353
 40
0.4411764705882353
 40
0.4411764705882353
 40
0.4411764705882353
 40
0.4705882352941176
 40
0.4705882352941176
 40
0.4705882352941176
 40
0.4705882352941176
 40
0.5
 40
0.5
 40
0.5
 40
0.5
 40
0.5294117647058824
 40
0.5294117647058824
 40
0.5294117647058824
 40
0.5294117647058824
 40
0.5588235294117647
 40
0.5588235294117647
 40
0.5588235294117647
 40
0.5588235294117647
 40
0.5882352941176471
 40
0.5882352941176471
 40
0.5882352941176471
 40
0.5882352941176471
 40
0.6176470588235294
 40
0.6176470588235294
 40
0.6176470588235294
 40
0.6176470588235294
 40
0.6470588235294118
 40
0.6470588235294118
 40
0.6470588235294118
 40
0.6470588235294118
 40
0.6764705882352942
 40
0.6764705882352942
 40
0.6764705882352942
 40
0.6764705882352942
 40
0.7058823529411765
 40
0.7058823529411765
 40
0.7058823529411765
 40
0.7058823529411765
 40
0.7352941176470589
 40
0.7352941176470589
 40
0.7352941176470589
 40
0.7352941176470589
 40
0.7647058823529411
 40
0.7647058823529411
 40
0.7647058823529411
 40
0.7647058823529411
 40
0.7941176470588235
 40
0.7941176470588235
 40
0.7941176470588235
 40
0.7941176470588235
 40
0.8235294117647058
 40
0.8235294117647058
 40
0.8235294117647058
 40
0.8235294117647058
 40
0.8529411764705882
 40
0.8529411764705882
 40
0.8529411764705882
 40
0.8529411764705882
 40
0.8823529411764706
 40
0.8823529411764706
 40
0.8823529411764706
 40
0.8823529411764706
 40
0.9117647058823529
 40
0.9117647058823529
 40
0.9117647058823529
 40
0.9117647058823529
 40
0.9411764705882353
 40
0.9411764705882353
 40
0.9411764705882353
 40
0.9411764705882353
 40
1.0
 40
1.0
 40
1.0
 40
1.0
 10
149.8316
 20
-59.9244
 30
0.0
 10
148.3129
 20
-58.9746
 30
0.0
 10
146.4544
 20
-58.9733
 30
0.0
 10
144.6851
 20
-60.4527
 30
0.0
 10
144.6851
 20
-60.4527
 30
0.0
 10
143.2357
 20
-61.741
 30
0.0
 10
143.0073
 20
-64.4786
 30
0.0
 10
144.4341
 20
-66.3745
 30
0.0
 10
144.4341
 20
-66.3745
 30
0.0
 10
144.931
 20
-65.3738
 30
0.0
 10
145.9676
 20
-64.2005
 30
0.0
 10
146.9497
 20
-65.3664
 30
0.0
 10
146.9497
 20
-65.3664
 30
0.0
 10
147.8197
 20
-66.9921
 30
0.0
 10
146.2596
 20
-69.1662
 30
0.0
 10
143.4754
 20
-70.2078
 30
0.0
 10
143.4754
 20
-70.2078
 30
0.0
 10
143.4754
 20
-70.2078
 30
0.0
 10
143.4754
 20
-70.2078
 30
0.0
 10
143.4754
 20
-70.2078
 30
0.0
 10
143.4754
 20
-70.2078
 30
0.0
 10
142.5228
 20
-70.5643
 30
0.0
 10
140.9601
 20
-70.8558
 30
0.0
 10
140.0026
 20
-70.8558
 30
0.0
 10
140.0026
 20
-70.8558
 30
0.0
 10
138.3872
 20
-70.8558
 30
0.0
 10
138.2151
 20
-70.7799
 30
0.0
 10
137.6136
 20
-69.8043
 30
0.0
 10
137.6136
 20
-69.8043
 30
0.0
 10
137.257
 20
-69.2261
 30
0.0
 10
136.8655
 20
-68.3525
 30
0.0
 10
136.7433
 20
-67.8632
 30
0.0
 10
136.7433
 20
-67.8632
 30
0.0
 10
136.5432
 20
-67.0612
 30
0.0
 10
136.6055
 20
-66.9735
 30
0.0
 10
137.3755
 20
-66.9735
 30
0.0
 10
137.3755
 20
-66.9735
 30
0.0
 10
139.4099
 20
-66.9279
 30
0.0
 10
141.9189
 20
-65.2815
 30
0.0
 10
141.6706
 20
-62.9354
 30
0.0
 10
141.6706
 20
-62.9354
 30
0.0
 10
141.4786
 20
-61.2997
 30
0.0
 10
139.4807
 20
-59.0257
 30
0.0
 10
136.9996
 20
-60.0881
 30
0.0
 10
136.9996
 20
-60.0881
 30
0.0
 10
136.2523
 20
-60.5487
 30
0.0
 10
136.2042
 20
-61.1501
 30
0.0
 10
137.0265
 20
-61.1501
 30
0.0
 10
137.0265
 20
-61.1501
 30
0.0
 10
138.2118
 20
-61.3167
 30
0.0
 10
138.9068
 20
-61.9809
 30
0.0
 10
138.2141
 20
-62.9234
 30
0.0
 10
138.2141
 20
-62.9234
 30
0.0
 10
137.2888
 20
-64.0324
 30
0.0
 10
135.165
 20
-62.4966
 30
0.0
 10
134.083
 20
-60.3903
 30
0.0
 10
134.083
 20
-60.3903
 30
0.0
 10
138.2553
 20
-56.8622
 30
0.0
 10
144.2447
 20
-54.2933
 30
0.0
 10
152.1191
 20
-54.0893
 30
0.0
 10
152.1191
 20
-54.0893
 30
0.0
 10
159.9936
 20
-54.2933
 30
0.0
 10
165.983
 20
-56.8622
 30
0.0
 10
170.1553
 20
-60.3903
 30
0.0
 10
170.1553
 20
-60.3903
 30
0.0
 10
169.0731
 20
-62.4966
 30
0.0
 10
166.9493
 20
-64.0324
 30
0.0
 10
166.0242
 20
-62.9234
 30
0.0
 10
166.0242
 20
-62.9234
 30
0.0
 10
165.3315
 20
-61.9809
 30
0.0
 10
166.0265
 20
-61.3167
 30
0.0
 10
167.2117
 20
-61.1501
 30
0.0
 10
167.2117
 20
-61.1501
 30
0.0
 10
168.034
 20
-61.1501
 30
0.0
 10
167.986
 20
-60.5488
 30
0.0
 10
167.2386
 20
-60.0881
 30
0.0
 10
167.2386
 20
-60.0881
 30
0.0
 10
164.7575
 20
-59.0257
 30
0.0
 10
162.7596
 20
-61.2996
 30
0.0
 10
162.5677
 20
-62.9354
 30
0.0
 10
162.5677
 20
-62.9354
 30
0.0
 10
162.3194
 20
-65.2815
 30
0.0
 10
164.8283
 20
-66.9279
 30
0.0
 10
166.8628
 20
-66.9735
 30
0.0
 10
166.8628
 20
-66.9735
 30
0.0
 10
167.6328
 20
-66.9735
 30
0.0
 10
167.6951
 20
-67.0612
 30
0.0
 10
167.4949
 20
-67.8632
 30
0.0
 10
167.4949
 20
-67.8632
 30
0.0
 10
167.3728
 20
-68.3525
 30
0.0
 10
166.9811
 20
-69.2261
 30
0.0
 10
166.6247
 20
-69.8043
 30
0.0
 10
166.6247
 20
-69.8043
 30
0.0
 10
166.0232
 20
-70.7799
 30
0.0
 10
165.851
 20
-70.8558
 30
0.0
 10
164.2357
 20
-70.8558
 30
0.0
 10
164.2357
 20
-70.8558
 30
0.0
 10
163.2782
 20
-70.8558
 30
0.0
 10
161.7154
 20
-70.5641
 30
0.0
 10
160.7629
 20
-70.2078
 30
0.0
 10
160.7629
 20
-70.2078
 30
0.0
 10
160.7629
 20
-70.2078
 30
0.0
 10
160.7629
 20
-70.2078
 30
0.0
 10
160.7629
 20
-70.2078
 30
0.0
 10
160.7629
 20
-70.2078
 30
0.0
 10
157.9787
 20
-69.1662
 30
0.0
 10
156.4186
 20
-66.9921
 30
0.0
 10
157.2886
 20
-65.3664
 30
0.0
 10
157.2886
 20
-65.3664
 30
0.0
 10
158.2707
 20
-64.2005
 30
0.0
 10
159.3072
 20
-65.3738
 30
0.0
 10
159.8042
 20
-66.3745
 30
0.0
 10
159.8042
 20
-66.3745
 30
0.0
 10
161.231
 20
-64.4786
 30
0.0
 10
161.0026
 20
-61.741
 30
0.0
 10
159.5531
 20
-60.4527
 30
0.0
 10
159.5531
 20
-60.4527
 30
0.0
 10
157.7839
 20
-58.9733
 30
0.0
 10
155.9252
 20
-58.9746
 30
0.0
 10
154.4067
 20
-59.9244
 30
0.0
 10
154.4067
 20
-59.9244
 30
0.0
 10
154.3825
 20
-57.7157
 30
0.0
 10
153.2718
 20
-55.6984
 30
0.0
 10
152.1193
 20
-55.7154
 30
0.0
 10
152.1193
 20
-55.7154
 30
0.0
 10
150.9667
 20
-55.6984
 30
0.0
 10
149.8561
 20
-57.7157
 30
0.0
 10
149.8318
 20
-59.9244
 30
0.0
 10
149.8318
 20
-59.9244
 30
0.0
 10
149.8318
 20
-59.9244
 30
0.0
 10
149.8316
 20
-59.9244
 30
0.0
 10
149.8316
 20
-59.9244
 30
0.0
  0
SPLINE
  5
98
330
1F
100
AcDbEntity
  8
layer 1
 62
     7
100
AcDbSpline
210
0.0
220
0.0
230
1.0
 70
    11
 71
     3
 72
    32
 73
    28
 74
     0
 42
0.0000000001
 43
0.0000000001
 12
1.0
 22
0.0
 32
0.0
 13
1.0
 23
0.0
 33
0.0
 40
0.0
 40
0.0
 40
0.0
 40
0.0
 40
0.125
 40
0.125
 40
0.125
 40
0.125
 40
0.25
 40
0.25
 40
0.25
 40
0.25
 40
0.375
 40
0.375
 40
0.375
 40
0.375
 40
0.5
 40
0.5
 40
0.5
 40
0.5
 40
0.625
 40
0.625
 40
0.625
 40
0.625
 40
0.75
 40
0.75
 40
0.75
 40
0.75
 40
1.0
 40
1.0
 40
1.0
 40
1.0
 10
129.4738
 20
-59.721
 30
0.0
 10
127.753
 20
-55.6167
 30
0.0
 10
124.0563
 20
-53.5738
 30
0.0
 10
120.8066
 20
-54.3704
 30
0.0
 10
120.8066
 20
-54.3704
 30
0.0
 10
116.6362
 20
-54.7198
 30
0.0
 10
114.1106
 20
-59.6435
 30
0.0
 10
116.0252
 20
-61.6423
 30
0.0
 10
116.0252
 20
-61.6423
 30
0.0
 10
118.3175
 20
-63.7545
 30
0.0
 10
120.2838
 20
-60.4592
 30
0.0
 10
118.7977
 20
-58.8856
 30
0.0
 10
118.7977
 20
-58.8856
 30
0.0
 10
117.8956
 20
-57.9834
 30
0.0
 10
117.9815
 20
-57.6976
 30
0.0
 10
119.2841
 20
-57.2676
 30
0.0
 10
119.2841
 20
-57.2676
 30
0.0
 10
124.7671
 20
-56.3783
 30
0.0
 10
126.205
 20
-61.3472
 30
0.0
 10
125.5277
 20
-64.7238
 30
0.0
 10
125.5277
 20
-64.7238
 30
0.0
 10
126.6814
 20
-62.5707
 30
0.0
 10
128.0525
 20
-61.1455
 30
0.0
 10
129.4739
 20
-59.7211
 30
0.0
 10
129.4739
 20
-59.7211
 30
0.0
 10
129.4739
 20
-59.7211
 30
0.0
 10
129.4738
 20
-59.721
 30
0.0
 10
129.4738
 20
-59.721
 30
0.0
  0
SPLINE
  5
99
330
1F
100
AcDbEntity
  8
layer 1
 62
     7
100
AcDbSpline
210
0.0
220
0.0
230
1.0
 70
    11
 71
     3
 72
    16
 73
    12
 74
     0
 42
0.0000000001
 43
0.0000000001
 12
1.0
 22
0.0
 32
0.0
 13
1.0
 23
0.0
 33
0.0
 40
0.0
 40
0.0
 40
0.0
 40
0.0
 40
0.25
 40
0.25
 40
0.25
 40
0.25
 40
0.5
 40
0.5
 40
0.5
 40
0.5
 40
1.0
 40
1.0
 40
1.0
 40
1.0
 10
112.4772
 20
-57.6174
 30
0.0
 10
112.4772
 20
-57.6174
 30
0.0
 10
112.4791
 20
-44.5762
 30
0.0
 10
112.4791
 20
-44.5762
 30
0.0
 10
112.4791
 20
-44.5762
 30
0.0
 10
113.5181
 20
-48.1335
 30
0.0
 10
115.979
 20
-50.3689
 30
0.0
 10
119.1159
 20
-51.0968
 30
0.0
 10
119.1159
 20
-51.0968
 30
0.0
 10
115.977
 20
-51.8247
 30
0.0
 10
113.5161
 20
-54.06
 30
0.0
 10
112.4772
 20
-57.6174
 30
0.0
  0
SPLINE
  5
9A
330
1F
100
AcDbEntity
  8
layer 1
 62
     7
100
AcDbSpline
210
0.0
220
0.0
230
1.0
 70
    11
 71
     3
 72
    20
 73
    16
 74
     0
 42
0.0000000001
 43
0.0000000001
 12
1.0
 22
0.0
 32
0.0
 13
1.0
 23
0.0
 33
0.0
 40
0.0
 40
0.0
 40
0.0
 40
0.0
 40
0.2
 40
0.2
 40
0.2
 40
0.2
 40
0.4
 40
0.4
 40
0.4
 40
0.4
 40
0.6
 40
0.6
 40
0.6
 40
0.6
 40
1.0
 40
1.0
 40
1.0
 40
1.0
 10
191.7607
 20
-77.7954
 30
0.0
 10
190.5156
 20
-79.857
 30
0.0
 10
186.1229
 20
-81.0226
 30
0.0
 10
183.8226
 20
-78.9549
 30
0.0
 10
183.8226
 20
-78.9549
 30
0.0
 10
183.8226
 20
-78.9549
 30
0.0
 10
183.8226
 20
-82.4574
 30
0.0
 10
183.8226
 20
-82.4574
 30
0.0
 10
183.8226
 20
-82.4574
 30
0.0
 10
186.1229
 20
-80.3897
 30
0.0
 10
190.5156
 20
-81.5554
 30
0.0
 10
191.7607
 20
-83.6169
 30
0.0
 10
191.7607
 20
-83.6169
 30
0.0
 10
191.7607
 20
-83.6169
 30
0.0
 10
191.7607
 20
-77.7954
 30
0.0
 10
191.7607
 20
-77.7954
 30
0.0
  0
SPLINE
  5
9B
330
1F
100
AcDbEntity
  8
layer 1
 62
     7
100
AcDbSpline
210
0.0
220
0.0
230
1.0
 70
    11
 71
     3
 72
    56
 73
    52
 74
     0
 42
0.0000000001
 43
0.0000000001
 12
1.0
 22
0.0
 32
0.0
 13
1.0
 23
0.0
 33
0.0
 40
0.0
 40
0.0
 40
0.0
 40
0.0
 40
0.0714285714285714
 40
0.0714285714285714
 40
0.0714285714285714
 40
0.0714285714285714
 40
0.1428571428571428
 40
0.1428571428571428
 40
0.1428571428571428
 40
0.1428571428571428
 40
0.2142857142857143
 40
0.2142857142857143
 40
0.2142857142857143
 40
0.2142857142857143
 40
0.2857142857142857
 40
0.2857142857142857
 40
0.2857142857142857
 40
0.2857142857142857
 40
0.3571428571428572
 40
0.3571428571428572
 40
0.3571428571428572
 40
0.3571428571428572
 40
0.4285714285714285
 40
0.4285714285714285
 40
0.4285714285714285
 40
0.4285714285714285
 40
0.5
 40
0.5
 40
0.5
 40
0.5
 40
0.5714285714285714
 40
0.5714285714285714
 40
0.5714285714285714
 40
0.5714285714285714
 40
0.6428571428571429
 40
0.6428571428571429
 40
0.6428571428571429
 40
0.6428571428571429
 40
0.7142857142857143
 40
0.7142857142857143
 40
0.7142857142857143
 40
0.7142857142857143
 40
0.7857142857142857
 40
0.7857142857142857
 40
0.7857142857142857
 40
0.7857142857142857
 40
0.8571428571428571
 40
0.8571428571428571
 40
0.8571428571428571
 40
0.8571428571428571
 40
1.0
 40
1.0
 40
1.0
 40
1.0
 10
155.1699
 20
-72.9391
 30
0.0
 10
157.0456
 20
-73.3125
 30
0.0
 10
158.1133
 20
-75.2232
 30
0.0
 10
156.5694
 20
-75.4434
 30
0.0
 10
156.5694
 20
-75.4434
 30
0.0
 10
155.7374
 20
-75.5621
 30
0.0
 10
155.44
 20
-76.4898
 30
0.0
 10
156.0128
 20
-77.18
 30
0.0
 10
156.0128
 20
-77.18
 30
0.0
 10
157.3485
 20
-78.5394
 30
0.0
 10
161.7778
 20
-77.0989
 30
0.0
 10
163.1816
 20
-74.4738
 30
0.0
 10
163.1816
 20
-74.4738
 30
0.0
 10
158.7428
 20
-74.0382
 30
0.0
 10
153.6982
 20
-72.2627
 30
0.0
 10
153.1261
 20
-67.288
 30
0.0
 10
153.1261
 20
-67.288
 30
0.0
 10
152.9639
 20
-65.5935
 30
0.0
 10
152.6696
 20
-64.9528
 30
0.0
 10
152.1189
 20
-64.915
 30
0.0
 10
152.1189
 20
-64.915
 30
0.0
 10
151.5682
 20
-64.9528
 30
0.0
 10
151.2738
 20
-65.5935
 30
0.0
 10
151.1117
 20
-67.288
 30
0.0
 10
151.1117
 20
-67.288
 30
0.0
 10
150.5396
 20
-72.2627
 30
0.0
 10
145.4951
 20
-74.0382
 30
0.0
 10
141.0561
 20
-74.4738
 30
0.0
 10
141.0561
 20
-74.4738
 30
0.0
 10
142.46
 20
-77.0989
 30
0.0
 10
146.8892
 20
-78.5394
 30
0.0
 10
148.225
 20
-77.18
 30
0.0
 10
148.225
 20
-77.18
 30
0.0
 10
148.7978
 20
-76.4898
 30
0.0
 10
148.5004
 20
-75.5621
 30
0.0
 10
147.6684
 20
-75.4434
 30
0.0
 10
147.6684
 20
-75.4434
 30
0.0
 10
146.1246
 20
-75.2232
 30
0.0
 10
147.1923
 20
-73.3125
 30
0.0
 10
149.0679
 20
-72.9391
 30
0.0
 10
149.0679
 20
-72.9391
 30
0.0
 10
150.4816
 20
-72.8853
 30
0.0
 10
151.3497
 20
-73.2797
 30
0.0
 10
152.1188
 20
-74.2819
 30
0.0
 10
152.1188
 20
-74.2819
 30
0.0
 10
152.8879
 20
-73.2797
 30
0.0
 10
153.7559
 20
-72.8854
 30
0.0
 10
155.1697
 20
-72.9391
 30
0.0
 10
155.1697
 20
-72.9391
 30
0.0
 10
155.1697
 20
-72.9391
 30
0.0
 10
155.1699
 20
-72.9391
 30
0.0
 10
155.1699
 20
-72.9391
 30
0.0
  0
SPLINE
  5
9C
330
1F
100
AcDbEntity
  8
layer 1
 62
     7
100
AcDbSpline
210
0.0
220
0.0
230
1.0
 70
    11
 71
     3
 72
    28
 73
    24
 74
     0
 42
0.0000000001
 43
0.0000000001
 12
1.0
 22
0.0
 32
0.0
 13
1.0
 23
0.0
 33
0.0
 40
0.0
 40
0.0
 40
0.0
 40
0.0
 40
0.1428571428571428
 40
0.1428571428571428
 40
0.1428571428571428
 40
0.1428571428571428
 40
0.2857142857142857
 40
0.2857142857142857
 40
0.2857142857142857
 40
0.2857142857142857
 40
0.4285714285714285
 40
0.4285714285714285
 40
0.4285714285714285
 40
0.4285714285714285
 40
0.5714285714285714
 40
0.5714285714285714
 40
0.5714285714285714
 40
0.5714285714285714
 40
0.7142857142857143
 40
0.7142857142857143
 40
0.7142857142857143
 40
0.7142857142857143
 40
1.0
 40
1.0
 40
1.0
 40
1.0
 10
186.4218
 20
-75.5601
 30
0.0
 10
185.8448
 20
-74.8647
 30
0.0
 10
185.8787
 20
-73.4628
 30
0.0
 10
187.9204
 20
-70.6585
 30
0.0
 10
187.9204
 20
-70.6585
 30
0.0
 10
189.3198
 20
-68.6115
 30
0.0
 10
190.7609
 20
-66.2754
 30
0.0
 10
191.7607
 20
-63.7014
 30
0.0
 10
191.7607
 20
-63.7014
 30
0.0
 10
191.5705
 20
-67.3945
 30
0.0
 10
191.7566
 20
-71.0887
 30
0.0
 10
191.7607
 20
-74.7848
 30
0.0
 10
191.7607
 20
-74.7848
 30
0.0
 10
191.1084
 20
-73.7239
 30
0.0
 10
189.8965
 20
-73.2405
 30
0.0
 10
188.9208
 20
-73.302
 30
0.0
 10
188.9208
 20
-73.302
 30
0.0
 10
188.3425
 20
-73.4155
 30
0.0
 10
188.0377
 20
-73.53
 30
0.0
 10
188.2189
 20
-74.252
 30
0.0
 10
188.2189
 20
-74.252
 30
0.0
 10
188.7883
 20
-75.6656
 30
0.0
 10
187.1962
 20
-76.4242
 30
0.0
 10
186.4218
 20
-75.5601
 30
0.0
  0
SPLINE
  5
9D
330
1F
100
AcDbEntity
  8
layer 1
 62
     7
100
AcDbSpline
210
0.0
220
0.0
230
1.0
 70
    11
 71
     3
 72
    16
 73
    12
 74
     0
 42
0.0000000001
 43
0.0000000001
 12
1.0
 22
0.0
 32
0.0
 13
1.0
 23
0.0
 33
0.0
 40
0.0
 40
0.0
 40
0.0
 40
0.0
 40
0.25
 40
0.25
 40
0.25
 40
0.25
 40
0.5
 40
0.5
 40
0.5
 40
0.5
 40
1.0
 40
1.0
 40
1.0
 40
1.0
 10
179.8466
 20
-66.4883
 30
0.0
 10
181.632
 20
-68.1288
 30
0.0
 10
183.1211
 20
-68.1108
 30
0.0
 10
185.085
 20
-67.6463
 30
0.0
 10
185.085
 20
-67.6463
 30
0.0
 10
184.0153
 20
-69.5495
 30
0.0
 10
183.2844
 20
-70.467
 30
0.0
 10
182.5313
 20
-73.2813
 30
0.0
 10
182.5313
 20
-73.2813
 30
0.0
 10
182.1882
 20
-70.7912
 30
0.0
 10
180.9462
 20
-68.0082
 30
0.0
 10
179.8466
 20
-66.4883
 30
0.0
  0
SPLINE
  5
9E
330
1F
100
AcDbEntity
  8
layer 1
 62
     7
100
AcDbSpline
210
0.0
220
0.0
230
1.0
 70
    11
 71
     3
 72
    20
 73
    16
 74
     0
 42
0.0000000001
 43
0.0000000001
 12
1.0
 22
0.0
 32
0.0
 13
1.0
 23
0.0
 33
0.0
 40
0.0
 40
0.0
 40
0.0
 40
0.0
 40
0.2
 40
0.2
 40
0.2
 40
0.2
 40
0.4
 40
0.4
 40
0.4
 40
0.4
 40
0.6
 40
0.6
 40
0.6
 40
0.6
 40
1.0
 40
1.0
 40
1.0
 40
1.0
 10
170.5714
 20
-70.1616
 30
0.0
 10
171.9217
 20
-67.7847
 30
0.0
 10
172.5934
 20
-66.1996
 30
0.0
 10
173.599
 20
-63.6532
 30
0.0
 10
173.599
 20
-63.6532
 30
0.0
 10
175.4972
 20
-65.8316
 30
0.0
 10
176.8354
 20
-67.9529
 30
0.0
 10
178.1877
 20
-70.983
 30
0.0
 10
178.1877
 20
-70.983
 30
0.0
 10
175.5208
 20
-70.1071
 30
0.0
 10
173.7972
 20
-69.944
 30
0.0
 10
170.5715
 20
-70.1616
 30
0.0
 10
170.5715
 20
-70.1616
 30
0.0
 10
170.5715
 20
-70.1616
 30
0.0
 10
170.5714
 20
-70.1616
 30
0.0
 10
170.5714
 20
-70.1616
 30
0.0
  0
SPLINE
  5
9F
330
1F
100
AcDbEntity
  8
layer 1
 62
     7
100
AcDbSpline
210
0.0
220
0.0
230
1.0
 70
    11
 71
     3
 72
    32
 73
    28
 74
     0
 42
0.0000000001
 43
0.0000000001
 12
1.0
 22
0.0
 32
0.0
 13
1.0
 23
0.0
 33
0.0
 40
0.0
 40
0.0
 40
0.0
 40
0.0
 40
0.125
 40
0.125
 40
0.125
 40
0.125
 40
0.25
 40
0.25
 40
0.25
 40
0.25
 40
0.375
 40
0.375
 40
0.375
 40
0.375
 40
0.5
 40
0.5
 40
0.5
 40
0.5
 40
0.625
 40
0.625
 40
0.625
 40
0.625
 40
0.75
 40
0.75
 40
0.75
 40
0.75
 40
1.0
 40
1.0
 40
1.0
 40
1.0
 10
174.7641
 20
-59.721
 30
0.0
 10
176.4849
 20
-55.6167
 30
0.0
 10
180.1816
 20
-53.5738
 30
0.0
 10
183.4313
 20
-54.3704
 30
0.0
 10
183.4313
 20
-54.3704
 30
0.0
 10
187.6017
 20
-54.7198
 30
0.0
 10
190.1273
 20
-59.6435
 30
0.0
 10
188.2127
 20
-61.6423
 30
0.0
 10
188.2127
 20
-61.6423
 30
0.0
 10
185.9204
 20
-63.7545
 30
0.0
 10
183.9541
 20
-60.4592
 30
0.0
 10
185.4402
 20
-58.8856
 30
0.0
 10
185.4402
 20
-58.8856
 30
0.0
 10
186.3423
 20
-57.9834
 30
0.0
 10
186.2564
 20
-57.6976
 30
0.0
 10
184.9538
 20
-57.2676
 30
0.0
 10
184.9538
 20
-57.2676
 30
0.0
 10
179.4708
 20
-56.3783
 30
0.0
 10
178.0329
 20
-61.3472
 30
0.0
 10
178.7102
 20
-64.7238
 30
0.0
 10
178.7102
 20
-64.7238
 30
0.0
 10
177.5565
 20
-62.5707
 30
0.0
 10
176.1854
 20
-61.1455
 30
0.0
 10
174.764
 20
-59.7211
 30
0.0
 10
174.764
 20
-59.7211
 30
0.0
 10
174.764
 20
-59.7211
 30
0.0
 10
174.7641
 20
-59.721
 30
0.0
 10
174.7641
 20
-59.721
 30
0.0
  0
SPLINE
  5
A0
330
1F
100
AcDbEntity
  8
layer 1
 62
     7
100
AcDbSpline
210
0.0
220
0.0
230
1.0
 70
    11
 71
     3
 72
    24
 73
    20
 74
     0
 42
0.0000000001
 43
0.0000000001
 12
1.0
 22
0.0
 32
0.0
 13
1.0
 23
0.0
 33
0.0
 40
0.0
 40
0.0
 40
0.0
 40
0.0
 40
0.1666666666666667
 40
0.1666666666666667
 40
0.1666666666666667
 40
0.1666666666666667
 40
0.3333333333333333
 40
0.3333333333333333
 40
0.3333333333333333
 40
0.3333333333333333
 40
0.5
 40
0.5
 40
0.5
 40
0.5
 40
0.6666666666666666
 40
0.6666666666666666
 40
0.6666666666666666
 40
0.6666666666666666
 40
1.0
 40
1.0
 40
1.0
 40
1.0
 10
132.7894
 20
-45.2098
 30
0.0
 10
136.7707
 20
-48.2854
 30
0.0
 10
139.9417
 20
-49.9795
 30
0.0
 10
145.5156
 20
-51.0968
 30
0.0
 10
145.5156
 20
-51.0968
 30
0.0
 10
139.9396
 20
-52.2141
 30
0.0
 10
136.7687
 20
-53.9081
 30
0.0
 10
132.7874
 20
-56.9837
 30
0.0
 10
132.7874
 20
-56.9837
 30
0.0
 10
131.0182
 20
-54.4475
 30
0.0
 10
128.0908
 20
-51.89
 30
0.0
 10
125.3255
 20
-51.0657
 30
0.0
 10
125.3255
 20
-51.0657
 30
0.0
 10
128.1238
 20
-50.2414
 30
0.0
 10
131.0202
 20
-47.7458
 30
0.0
 10
132.7894
 20
-45.2097
 30
0.0
 10
132.7894
 20
-45.2097
 30
0.0
 10
132.7894
 20
-45.2097
 30
0.0
 10
132.7894
 20
-45.2098
 30
0.0
 10
132.7894
 20
-45.2098
 30
0.0
  0
SPLINE
  5
A1
330
1F
100
AcDbEntity
  8
layer 1
 62
     7
100
AcDbSpline
210
0.0
220
0.0
230
1.0
 70
    11
 71
     3
 72
    68
 73
    64
 74
     0
 42
0.0000000001
 43
0.0000000001
 12
1.0
 22
0.0
 32
0.0
 13
1.0
 23
0.0
 33
0.0
 40
0.0
 40
0.0
 40
0.0
 40
0.0
 40
0.0588235294117647
 40
0.0588235294117647
 40
0.0588235294117647
 40
0.0588235294117647
 40
0.1176470588235294
 40
0.1176470588235294
 40
0.1176470588235294
 40
0.1176470588235294
 40
0.1764705882352941
 40
0.1764705882352941
 40
0.1764705882352941
 40
0.1764705882352941
 40
0.2352941176470588
 40
0.2352941176470588
 40
0.2352941176470588
 40
0.2352941176470588
 40
0.2941176470588235
 40
0.2941176470588235
 40
0.2941176470588235
 40
0.2941176470588235
 40
0.3529411764705883
 40
0.3529411764705883
 40
0.3529411764705883
 40
0.3529411764705883
 40
0.4117647058823529
 40
0.4117647058823529
 40
0.4117647058823529
 40
0.4117647058823529
 40
0.4705882352941176
 40
0.4705882352941176
 40
0.4705882352941176
 40
0.4705882352941176
 40
0.5294117647058824
 40
0.5294117647058824
 40
0.5294117647058824
 40
0.5294117647058824
 40
0.5882352941176471
 40
0.5882352941176471
 40
0.5882352941176471
 40
0.5882352941176471
 40
0.6470588235294118
 40
0.6470588235294118
 40
0.6470588235294118
 40
0.6470588235294118
 40
0.7058823529411765
 40
0.7058823529411765
 40
0.7058823529411765
 40
0.7058823529411765
 40
0.7647058823529411
 40
0.7647058823529411
 40
0.7647058823529411
 40
0.7647058823529411
 40
0.8235294117647058
 40
0.8235294117647058
 40
0.8235294117647058
 40
0.8235294117647058
 40
0.8823529411764706
 40
0.8823529411764706
 40
0.8823529411764706
 40
0.8823529411764706
 40
1.0
 40
1.0
 40
1.0
 40
1.0
 10
135.8625
 20
-28.362
 30
0.0
 10
135.8625
 20
-28.362
 30
0.0
 10
132.9606
 20
-28.4762
 30
0.0
 10
132.9606
 20
-28.4762
 30
0.0
 10
132.9606
 20
-28.4762
 30
0.0
 10
127.811
 20
-28.8711
 30
0.0
 10
124.0762
 20
-26.6375
 30
0.0
 10
125.9386
 20
-23.5527
 30
0.0
 10
125.9386
 20
-23.5527
 30
0.0
 10
127.2386
 20
-21.8999
 30
0.0
 10
129.8296
 20
-22.8806
 30
0.0
 10
128.6421
 20
-24.5759
 30
0.0
 10
128.6421
 20
-24.5759
 30
0.0
 10
128.2096
 20
-25.1934
 30
0.0
 10
128.2243
 20
-25.2895
 30
0.0
 10
128.798
 20
-25.5966
 30
0.0
 10
128.798
 20
-25.5966
 30
0.0
 10
129.1464
 20
-25.783
 30
0.0
 10
130.0424
 20
-25.9355
 30
0.0
 10
130.7894
 20
-25.9355
 30
0.0
 10
130.7894
 20
-25.9355
 30
0.0
 10
132.8097
 20
-25.9502
 30
0.0
 10
133.0721
 20
-24.3881
 30
0.0
 10
134.6985
 20
-23.6708
 30
0.0
 10
134.6985
 20
-23.6708
 30
0.0
 10
135.8027
 20
-23.2606
 30
0.0
 10
138.9465
 20
-22.7652
 30
0.0
 10
138.8215
 20
-21.5851
 30
0.0
 10
138.8215
 20
-21.5851
 30
0.0
 10
138.9465
 20
-20.405
 30
0.0
 10
135.8028
 20
-19.9094
 30
0.0
 10
134.6985
 20
-19.4993
 30
0.0
 10
134.6985
 20
-19.4993
 30
0.0
 10
133.0721
 20
-18.782
 30
0.0
 10
132.8096
 20
-17.22
 30
0.0
 10
130.7894
 20
-17.2346
 30
0.0
 10
130.7894
 20
-17.2346
 30
0.0
 10
130.0425
 20
-17.2346
 30
0.0
 10
129.1464
 20
-17.3871
 30
0.0
 10
128.798
 20
-17.5736
 30
0.0
 10
128.798
 20
-17.5736
 30
0.0
 10
128.2243
 20
-17.8806
 30
0.0
 10
128.2096
 20
-17.9767
 30
0.0
 10
128.6421
 20
-18.5942
 30
0.0
 10
128.6421
 20
-18.5942
 30
0.0
 10
129.8296
 20
-20.2896
 30
0.0
 10
127.2386
 20
-21.2702
 30
0.0
 10
125.9386
 20
-19.6174
 30
0.0
 10
125.9386
 20
-19.6174
 30
0.0
 10
124.0763
 20
-16.5326
 30
0.0
 10
127.811
 20
-14.299
 30
0.0
 10
132.9606
 20
-14.694
 30
0.0
 10
132.9606
 20
-14.694
 30
0.0
 10
132.9606
 20
-14.694
 30
0.0
 10
135.8625
 20
-14.8082
 30
0.0
 10
135.8625
 20
-14.8082
 30
0.0
 10
135.8625
 20
-14.8082
 30
0.0
 10
138.3351
 20
-18.2334
 30
0.0
 10
141.3737
 20
-20.8794
 30
0.0
 10
145.3569
 20
-21.5851
 30
0.0
 10
145.3569
 20
-21.5851
 30
0.0
 10
141.298
 20
-22.2907
 30
0.0
 10
138.3351
 20
-25.6175
 30
0.0
 10
135.8625
 20
-28.362
 30
0.0
  0
SPLINE
  5
A2
330
1F
100
AcDbEntity
  8
layer 1
 62
     7
100
AcDbSpline
210
0.0
220
0.0
230
1.0
 70
    11
 71
     3
 72
    28
 73
    24
 74
     0
 42
0.0000000001
 43
0.0000000001
 12
1.0
 22
0.0
 32
0.0
 13
1.0
 23
0.0
 33
0.0
 40
0.0
 40
0.0
 40
0.0
 40
0.0
 40
0.1428571428571428
 40
0.1428571428571428
 40
0.1428571428571428
 40
0.1428571428571428
 40
0.2857142857142857
 40
0.2857142857142857
 40
0.2857142857142857
 40
0.2857142857142857
 40
0.4285714285714285
 40
0.4285714285714285
 40
0.4285714285714285
 40
0.4285714285714285
 40
0.5714285714285714
 40
0.5714285714285714
 40
0.5714285714285714
 40
0.5714285714285714
 40
0.7142857142857143
 40
0.7142857142857143
 40
0.7142857142857143
 40
0.7142857142857143
 40
1.0
 40
1.0
 40
1.0
 40
1.0
 10
117.8161
 20
-26.7312
 30
0.0
 10
118.3931
 20
-27.4265
 30
0.0
 10
118.3592
 20
-28.8284
 30
0.0
 10
116.3175
 20
-31.6327
 30
0.0
 10
116.3175
 20
-31.6327
 30
0.0
 10
114.9181
 20
-33.6797
 30
0.0
 10
113.477
 20
-36.0158
 30
0.0
 10
112.4772
 20
-38.5898
 30
0.0
 10
112.4772
 20
-38.5898
 30
0.0
 10
112.6674
 20
-34.8967
 30
0.0
 10
112.4813
 20
-31.2025
 30
0.0
 10
112.4772
 20
-27.5064
 30
0.0
 10
112.4772
 20
-27.5064
 30
0.0
 10
113.1295
 20
-28.5674
 30
0.0
 10
114.3414
 20
-29.0507
 30
0.0
 10
115.3171
 20
-28.9892
 30
0.0
 10
115.3171
 20
-28.9892
 30
0.0
 10
115.8954
 20
-28.8758
 30
0.0
 10
116.2002
 20
-28.7612
 30
0.0
 10
116.019
 20
-28.0393
 30
0.0
 10
116.019
 20
-28.0393
 30
0.0
 10
115.4496
 20
-26.6256
 30
0.0
 10
117.0417
 20
-25.867
 30
0.0
 10
117.8161
 20
-26.7312
 30
0.0
  0
SPLINE
  5
A3
330
1F
100
AcDbEntity
  8
layer 1
 62
     7
100
AcDbSpline
210
0.0
220
0.0
230
1.0
 70
    11
 71
     3
 72
    16
 73
    12
 74
     0
 42
0.0000000001
 43
0.0000000001
 12
1.0
 22
0.0
 32
0.0
 13
1.0
 23
0.0
 33
0.0
 40
0.0
 40
0.0
 40
0.0
 40
0.0
 40
0.25
 40
0.25
 40
0.25
 40
0.25
 40
0.5
 40
0.5
 40
0.5
 40
0.5
 40
1.0
 40
1.0
 40
1.0
 40
1.0
 10
124.3913
 20
-35.803
 30
0.0
 10
122.9085
 20
-34.6163
 30
0.0
 10
121.1168
 20
-34.1806
 30
0.0
 10
119.1529
 20
-34.6451
 30
0.0
 10
119.1529
 20
-34.6451
 30
0.0
 10
120.2226
 20
-32.7419
 30
0.0
 10
120.9535
 20
-31.8243
 30
0.0
 10
121.7066
 20
-29.01
 30
0.0
 10
121.7066
 20
-29.01
 30
0.0
 10
122.0497
 20
-31.5002
 30
0.0
 10
123.2917
 20
-34.2831
 30
0.0
 10
124.3913
 20
-35.803
 30
0.0
  0
SPLINE
  5
A4
330
1F
100
AcDbEntity
  8
layer 1
 62
     7
100
AcDbSpline
210
0.0
220
0.0
230
1.0
 70
    11
 71
     3
 72
    20
 73
    16
 74
     0
 42
0.0000000001
 43
0.0000000001
 12
1.0
 22
0.0
 32
0.0
 13
1.0
 23
0.0
 33
0.0
 40
0.0
 40
0.0
 40
0.0
 40
0.0
 40
0.2
 40
0.2
 40
0.2
 40
0.2
 40
0.4
 40
0.4
 40
0.4
 40
0.4
 40
0.6
 40
0.6
 40
0.6
 40
0.6
 40
1.0
 40
1.0
 40
1.0
 40
1.0
 10
133.6665
 20
-32.1296
 30
0.0
 10
132.165
 20
-34.2039
 30
0.0
 10
131.5689
 20
-35.789
 30
0.0
 10
130.6389
 20
-38.638
 30
0.0
 10
130.6389
 20
-38.638
 30
0.0
 10
128.7407
 20
-36.4596
 30
0.0
 10
127.4025
 20
-34.3383
 30
0.0
 10
126.0502
 20
-31.3082
 30
0.0
 10
126.0502
 20
-31.3082
 30
0.0
 10
128.9205
 20
-32.4802
 30
0.0
 10
130.6872
 20
-32.6564
 30
0.0
 10
133.6664
 20
-32.1296
 30
0.0
 10
133.6664
 20
-32.1296
 30
0.0
 10
133.6664
 20
-32.1296
 30
0.0
 10
133.6665
 20
-32.1296
 30
0.0
 10
133.6665
 20
-32.1296
 30
0.0
  0
SPLINE
  5
A5
330
1F
100
AcDbEntity
  8
layer 1
 62
     7
100
AcDbSpline
210
0.0
220
0.0
230
1.0
 70
    11
 71
     3
 72
   136
 73
   132
 74
     0
 42
0.0000000001
 43
0.0000000001
 12
1.0
 22
0.0
 32
0.0
 13
1.0
 23
0.0
 33
0.0
 40
0.0
 40
0.0
 40
0.0
 40
0.0
 40
0.0294117647058824
 40
0.0294117647058824
 40
0.0294117647058824
 40
0.0294117647058824
 40
0.0588235294117647
 40
0.0588235294117647
 40
0.0588235294117647
 40
0.0588235294117647
 40
0.0882352941176471
 40
0.0882352941176471
 40
0.0882352941176471
 40
0.0882352941176471
 40
0.1176470588235294
 40
0.1176470588235294
 40
0.1176470588235294
 40
0.1176470588235294
 40
0.1470588235294118
 40
0.1470588235294118
 40
0.1470588235294118
 40
0.1470588235294118
 40
0.1764705882352941
 40
0.1764705882352941
 40
0.1764705882352941
 40
0.1764705882352941
 40
0.2058823529411765
 40
0.2058823529411765
 40
0.2058823529411765
 40
0.2058823529411765
 40
0.2352941176470588
 40
0.2352941176470588
 40
0.2352941176470588
 40
0.2352941176470588
 40
0.2647058823529412
 40
0.2647058823529412
 40
0.2647058823529412
 40
0.2647058823529412
 40
0.2941176470588235
 40
0.2941176470588235
 40
0.2941176470588235
 40
0.2941176470588235
 40
0.3235294117647059
 40
0.3235294117647059
 40
0.3235294117647059
 40
0.3235294117647059
 40
0.3529411764705883
 40
0.3529411764705883
 40
0.3529411764705883
 40
0.3529411764705883
 40
0.3823529411764706
 40
0.3823529411764706
 40
0.3823529411764706
 40
0.3823529411764706
 40
0.4117647058823529
 40
0.4117647058823529
 40
0.4117647058823529
 40
0.4117647058823529
 40
0.4411764705882353
 40
0.4411764705882353
 40
0.4411764705882353
 40
0.4411764705882353
 40
0.4705882352941176
 40
0.4705882352941176
 40
0.4705882352941176
 40
0.4705882352941176
 40
0.5
 40
0.5
 40
0.5
 40
0.5
 40
0.5294117647058824
 40
0.5294117647058824
 40
0.5294117647058824
 40
0.5294117647058824
 40
0.5588235294117647
 40
0.5588235294117647
 40
0.5588235294117647
 40
0.5588235294117647
 40
0.5882352941176471
 40
0.5882352941176471
 40
0.5882352941176471
 40
0.5882352941176471
 40
0.6176470588235294
 40
0.6176470588235294
 40
0.6176470588235294
 40
0.6176470588235294
 40
0.6470588235294118
 40
0.6470588235294118
 40
0.6470588235294118
 40
0.6470588235294118
 40
0.6764705882352942
 40
0.6764705882352942
 40
0.6764705882352942
 40
0.6764705882352942
 40
0.7058823529411765
 40
0.7058823529411765
 40
0.7058823529411765
 40
0.7058823529411765
 40
0.7352941176470589
 40
0.7352941176470589
 40
0.7352941176470589
 40
0.7352941176470589
 40
0.7647058823529411
 40
0.7647058823529411
 40
0.7647058823529411
 40
0.7647058823529411
 40
0.7941176470588235
 40
0.7941176470588235
 40
0.7941176470588235
 40
0.7941176470588235
 40
0.8235294117647058
 40
0.8235294117647058
 40
0.8235294117647058
 40
0.8235294117647058
 40
0.8529411764705882
 40
0.8529411764705882
 40
0.8529411764705882
 40
0.8529411764705882
 40
0.8823529411764706
 40
0.8823529411764706
 40
0.8823529411764706
 40
0.8823529411764706
 40
0.9117647058823529
 40
0.9117647058823529
 40
0.9117647058823529
 40
0.9117647058823529
 40
0.9411764705882353
 40
0.9411764705882353
 40
0.9411764705882353
 40
0.9411764705882353
 40
1.0
 40
1.0
 40
1.0
 40
1.0
 10
149.8316
 20
-42.3668
 30
0.0
 10
148.3129
 20
-43.3166
 30
0.0
 10
146.4544
 20
-43.318
 30
0.0
 10
144.6851
 20
-41.8385
 30
0.0
 10
144.6851
 20
-41.8385
 30
0.0
 10
143.2357
 20
-40.5503
 30
0.0
 10
143.0073
 20
-37.8126
 30
0.0
 10
144.4341
 20
-35.9167
 30
0.0
 10
144.4341
 20
-35.9167
 30
0.0
 10
144.931
 20
-36.9174
 30
0.0
 10
145.9676
 20
-38.0907
 30
0.0
 10
146.9497
 20
-36.9248
 30
0.0
 10
146.9497
 20
-36.9248
 30
0.0
 10
147.8197
 20
-35.2991
 30
0.0
 10
146.2596
 20
-33.1251
 30
0.0
 10
143.4754
 20
-32.0834
 30
0.0
 10
143.4754
 20
-32.0834
 30
0.0
 10
143.4754
 20
-32.0834
 30
0.0
 10
143.4754
 20
-32.0834
 30
0.0
 10
143.4754
 20
-32.0834
 30
0.0
 10
143.4754
 20
-32.0834
 30
0.0
 10
142.5228
 20
-31.727
 30
0.0
 10
140.9601
 20
-31.4355
 30
0.0
 10
140.0026
 20
-31.4355
 30
0.0
 10
140.0026
 20
-31.4355
 30
0.0
 10
138.3872
 20
-31.4355
 30
0.0
 10
138.2151
 20
-31.5113
 30
0.0
 10
137.6136
 20
-32.4869
 30
0.0
 10
137.6136
 20
-32.4869
 30
0.0
 10
137.257
 20
-33.0652
 30
0.0
 10
136.8655
 20
-33.9387
 30
0.0
 10
136.7433
 20
-34.428
 30
0.0
 10
136.7433
 20
-34.428
 30
0.0
 10
136.5432
 20
-35.23
 30
0.0
 10
136.6055
 20
-35.3177
 30
0.0
 10
137.3755
 20
-35.3177
 30
0.0
 10
137.3755
 20
-35.3177
 30
0.0
 10
139.4099
 20
-35.3633
 30
0.0
 10
141.9189
 20
-37.0098
 30
0.0
 10
141.6706
 20
-39.3559
 30
0.0
 10
141.6706
 20
-39.3559
 30
0.0
 10
141.4786
 20
-40.9915
 30
0.0
 10
139.4807
 20
-43.2655
 30
0.0
 10
136.9996
 20
-42.2032
 30
0.0
 10
136.9996
 20
-42.2032
 30
0.0
 10
136.2523
 20
-41.7426
 30
0.0
 10
136.2042
 20
-41.1411
 30
0.0
 10
137.0265
 20
-41.1411
 30
0.0
 10
137.0265
 20
-41.1411
 30
0.0
 10
138.2118
 20
-40.9746
 30
0.0
 10
138.9068
 20
-40.3103
 30
0.0
 10
138.2141
 20
-39.3678
 30
0.0
 10
138.2141
 20
-39.3678
 30
0.0
 10
137.2888
 20
-38.2588
 30
0.0
 10
135.165
 20
-39.7946
 30
0.0
 10
134.083
 20
-41.9009
 30
0.0
 10
134.083
 20
-41.9009
 30
0.0
 10
138.2553
 20
-45.429
 30
0.0
 10
144.2447
 20
-47.9979
 30
0.0
 10
152.1191
 20
-48.2019
 30
0.0
 10
152.1191
 20
-48.2019
 30
0.0
 10
159.9936
 20
-47.9979
 30
0.0
 10
165.983
 20
-45.429
 30
0.0
 10
170.1553
 20
-41.9009
 30
0.0
 10
170.1553
 20
-41.9009
 30
0.0
 10
169.0731
 20
-39.7946
 30
0.0
 10
166.9493
 20
-38.2588
 30
0.0
 10
166.0242
 20
-39.3678
 30
0.0
 10
166.0242
 20
-39.3678
 30
0.0
 10
165.3315
 20
-40.3103
 30
0.0
 10
166.0265
 20
-40.9746
 30
0.0
 10
167.2117
 20
-41.1411
 30
0.0
 10
167.2117
 20
-41.1411
 30
0.0
 10
168.034
 20
-41.1411
 30
0.0
 10
167.986
 20
-41.7424
 30
0.0
 10
167.2386
 20
-42.2032
 30
0.0
 10
167.2386
 20
-42.2032
 30
0.0
 10
164.7575
 20
-43.2655
 30
0.0
 10
162.7596
 20
-40.9917
 30
0.0
 10
162.5677
 20
-39.3559
 30
0.0
 10
162.5677
 20
-39.3559
 30
0.0
 10
162.3194
 20
-37.0098
 30
0.0
 10
164.8283
 20
-35.3633
 30
0.0
 10
166.8628
 20
-35.3177
 30
0.0
 10
166.8628
 20
-35.3177
 30
0.0
 10
167.6328
 20
-35.3177
 30
0.0
 10
167.6951
 20
-35.23
 30
0.0
 10
167.4949
 20
-34.428
 30
0.0
 10
167.4949
 20
-34.428
 30
0.0
 10
167.3728
 20
-33.9387
 30
0.0
 10
166.9811
 20
-33.0652
 30
0.0
 10
166.6247
 20
-32.4869
 30
0.0
 10
166.6247
 20
-32.4869
 30
0.0
 10
166.0232
 20
-31.5113
 30
0.0
 10
165.851
 20
-31.4355
 30
0.0
 10
164.2357
 20
-31.4355
 30
0.0
 10
164.2357
 20
-31.4355
 30
0.0
 10
163.2782
 20
-31.4355
 30
0.0
 10
161.7154
 20
-31.7271
 30
0.0
 10
160.7629
 20
-32.0834
 30
0.0
 10
160.7629
 20
-32.0834
 30
0.0
 10
160.7629
 20
-32.0834
 30
0.0
 10
160.7629
 20
-32.0834
 30
0.0
 10
160.7629
 20
-32.0834
 30
0.0
 10
160.7629
 20
-32.0834
 30
0.0
 10
157.9787
 20
-33.1251
 30
0.0
 10
156.4186
 20
-35.2991
 30
0.0
 10
157.2886
 20
-36.9248
 30
0.0
 10
157.2886
 20
-36.9248
 30
0.0
 10
158.2707
 20
-38.0907
 30
0.0
 10
159.3072
 20
-36.9174
 30
0.0
 10
159.8042
 20
-35.9167
 30
0.0
 10
159.8042
 20
-35.9167
 30
0.0
 10
161.231
 20
-37.8126
 30
0.0
 10
161.0026
 20
-40.5503
 30
0.0
 10
159.5531
 20
-41.8385
 30
0.0
 10
159.5531
 20
-41.8385
 30
0.0
 10
157.7839
 20
-43.318
 30
0.0
 10
155.9252
 20
-43.3166
 30
0.0
 10
154.4067
 20
-42.3668
 30
0.0
 10
154.4067
 20
-42.3668
 30
0.0
 10
154.3825
 20
-44.5756
 30
0.0
 10
153.2718
 20
-46.5929
 30
0.0
 10
152.1193
 20
-46.5759
 30
0.0
 10
152.1193
 20
-46.5759
 30
0.0
 10
150.9667
 20
-46.5929
 30
0.0
 10
149.8561
 20
-44.5756
 30
0.0
 10
149.8318
 20
-42.3668
 30
0.0
 10
149.8318
 20
-42.3668
 30
0.0
 10
149.8318
 20
-42.3668
 30
0.0
 10
149.8316
 20
-42.3668
 30
0.0
 10
149.8316
 20
-42.3668
 30
0.0
  0
SPLINE
  5
A6
330
1F
100
AcDbEntity
  8
layer 1
 62
     7
100
AcDbSpline
210
0.0
220
0.0
230
1.0
 70
    11
 71
     3
 72
    32
 73
    28
 74
     0
 42
0.0000000001
 43
0.0000000001
 12
1.0
 22
0.0
 32
0.0
 13
1.0
 23
0.0
 33
0.0
 40
0.0
 40
0.0
 40
0.0
 40
0.0
 40
0.125
 40
0.125
 40
0.125
 40
0.125
 40
0.25
 40
0.25
 40
0.25
 40
0.25
 40
0.375
 40
0.375
 40
0.375
 40
0.375
 40
0.5
 40
0.5
 40
0.5
 40
0.5
 40
0.625
 40
0.625
 40
0.625
 40
0.625
 40
0.75
 40
0.75
 40
0.75
 40
0.75
 40
1.0
 40
1.0
 40
1.0
 40
1.0
 10
129.4738
 20
-42.5702
 30
0.0
 10
127.753
 20
-46.6745
 30
0.0
 10
124.0563
 20
-48.7174
 30
0.0
 10
120.8066
 20
-47.9208
 30
0.0
 10
120.8066
 20
-47.9208
 30
0.0
 10
116.6362
 20
-47.5714
 30
0.0
 10
114.1106
 20
-42.6478
 30
0.0
 10
116.0252
 20
-40.6489
 30
0.0
 10
116.0252
 20
-40.6489
 30
0.0
 10
118.3175
 20
-38.5367
 30
0.0
 10
120.2838
 20
-41.8321
 30
0.0
 10
118.7977
 20
-43.4056
 30
0.0
 10
118.7977
 20
-43.4056
 30
0.0
 10
117.8956
 20
-44.3078
 30
0.0
 10
117.9815
 20
-44.5937
 30
0.0
 10
119.2841
 20
-45.0236
 30
0.0
 10
119.2841
 20
-45.0236
 30
0.0
 10
124.7671
 20
-45.9129
 30
0.0
 10
126.205
 20
-40.944
 30
0.0
 10
125.5277
 20
-37.5675
 30
0.0
 10
125.5277
 20
-37.5675
 30
0.0
 10
126.6814
 20
-39.7205
 30
0.0
 10
128.0525
 20
-41.1457
 30
0.0
 10
129.4739
 20
-42.5701
 30
0.0
 10
129.4739
 20
-42.5701
 30
0.0
 10
129.4739
 20
-42.5701
 30
0.0
 10
129.4738
 20
-42.5702
 30
0.0
 10
129.4738
 20
-42.5702
 30
0.0
  0
SPLINE
  5
A7
330
1F
100
AcDbEntity
  8
layer 1
 62
     7
100
AcDbSpline
210
0.0
220
0.0
230
1.0
 70
    11
 71
     3
 72
    68
 73
    64
 74
     0
 42
0.0000000001
 43
0.0000000001
 12
1.0
 22
0.0
 32
0.0
 13
1.0
 23
0.0
 33
0.0
 40
0.0
 40
0.0
 40
0.0
 40
0.0
 40
0.0588235294117647
 40
0.0588235294117647
 40
0.0588235294117647
 40
0.0588235294117647
 40
0.1176470588235294
 40
0.1176470588235294
 40
0.1176470588235294
 40
0.1176470588235294
 40
0.1764705882352941
 40
0.1764705882352941
 40
0.1764705882352941
 40
0.1764705882352941
 40
0.2352941176470588
 40
0.2352941176470588
 40
0.2352941176470588
 40
0.2352941176470588
 40
0.2941176470588235
 40
0.2941176470588235
 40
0.2941176470588235
 40
0.2941176470588235
 40
0.3529411764705883
 40
0.3529411764705883
 40
0.3529411764705883
 40
0.3529411764705883
 40
0.4117647058823529
 40
0.4117647058823529
 40
0.4117647058823529
 40
0.4117647058823529
 40
0.4705882352941176
 40
0.4705882352941176
 40
0.4705882352941176
 40
0.4705882352941176
 40
0.5294117647058824
 40
0.5294117647058824
 40
0.5294117647058824
 40
0.5294117647058824
 40
0.5882352941176471
 40
0.5882352941176471
 40
0.5882352941176471
 40
0.5882352941176471
 40
0.6470588235294118
 40
0.6470588235294118
 40
0.6470588235294118
 40
0.6470588235294118
 40
0.7058823529411765
 40
0.7058823529411765
 40
0.7058823529411765
 40
0.7058823529411765
 40
0.7647058823529411
 40
0.7647058823529411
 40
0.7647058823529411
 40
0.7647058823529411
 40
0.8235294117647058
 40
0.8235294117647058
 40
0.8235294117647058
 40
0.8235294117647058
 40
0.8823529411764706
 40
0.8823529411764706
 40
0.8823529411764706
 40
0.8823529411764706
 40
1.0
 40
1.0
 40
1.0
 40
1.0
 10
169.5394
 20
-23.671
 30
0.0
 10
171.1657
 20
-24.3882
 30
0.0
 10
171.4283
 20
-25.9503
 30
0.0
 10
173.4485
 20
-25.9356
 30
0.0
 10
173.4485
 20
-25.9356
 30
0.0
 10
174.1954
 20
-25.9356
 30
0.0
 10
175.0915
 20
-25.7832
 30
0.0
 10
175.4399
 20
-25.5967
 30
0.0
 10
175.4399
 20
-25.5967
 30
0.0
 10
176.0136
 20
-25.2897
 30
0.0
 10
176.0283
 20
-25.1935
 30
0.0
 10
175.5958
 20
-24.5761
 30
0.0
 10
175.5958
 20
-24.5761
 30
0.0
 10
174.4083
 20
-22.8807
 30
0.0
 10
176.9993
 20
-21.9001
 30
0.0
 10
178.2993
 20
-23.5529
 30
0.0
 10
178.2993
 20
-23.5529
 30
0.0
 10
180.1616
 20
-26.6376
 30
0.0
 10
176.4269
 20
-28.8712
 30
0.0
 10
171.2773
 20
-28.4763
 30
0.0
 10
171.2773
 20
-28.4763
 30
0.0
 10
171.2773
 20
-28.4763
 30
0.0
 10
168.3754
 20
-28.3621
 30
0.0
 10
168.3754
 20
-28.3621
 30
0.0
 10
168.3754
 20
-28.3621
 30
0.0
 10
166.2054
 20
-25.0125
 30
0.0
 10
162.6373
 20
-21.9126
 30
0.0
 10
158.881
 20
-21.5852
 30
0.0
 10
158.881
 20
-21.5852
 30
0.0
 10
162.6373
 20
-21.0309
 30
0.0
 10
165.8271
 20
-18.3092
 30
0.0
 10
168.3754
 20
-14.8083
 30
0.0
 10
168.3754
 20
-14.8083
 30
0.0
 10
168.3754
 20
-14.8083
 30
0.0
 10
171.2773
 20
-14.6941
 30
0.0
 10
171.2773
 20
-14.6941
 30
0.0
 10
171.2773
 20
-14.6941
 30
0.0
 10
176.4269
 20
-14.2992
 30
0.0
 10
180.1617
 20
-16.5328
 30
0.0
 10
178.2993
 20
-19.6175
 30
0.0
 10
178.2993
 20
-19.6175
 30
0.0
 10
176.9993
 20
-21.2703
 30
0.0
 10
174.4083
 20
-20.2897
 30
0.0
 10
175.5958
 20
-18.5943
 30
0.0
 10
175.5958
 20
-18.5943
 30
0.0
 10
176.0283
 20
-17.9768
 30
0.0
 10
176.0136
 20
-17.8807
 30
0.0
 10
175.4399
 20
-17.5737
 30
0.0
 10
175.4399
 20
-17.5737
 30
0.0
 10
175.0915
 20
-17.3872
 30
0.0
 10
174.1955
 20
-17.2348
 30
0.0
 10
173.4485
 20
-17.2348
 30
0.0
 10
173.4485
 20
-17.2348
 30
0.0
 10
171.4282
 20
-17.2201
 30
0.0
 10
171.1657
 20
-18.7822
 30
0.0
 10
169.5394
 20
-19.4994
 30
0.0
 10
169.5394
 20
-19.4994
 30
0.0
 10
168.4352
 20
-19.9097
 30
0.0
 10
165.2914
 20
-20.4051
 30
0.0
 10
165.4164
 20
-21.5852
 30
0.0
 10
165.4164
 20
-21.5852
 30
0.0
 10
165.2914
 20
-22.7653
 30
0.0
 10
168.4351
 20
-23.2609
 30
0.0
 10
169.5394
 20
-23.671
 30
0.0
  0
SPLINE
  5
A8
330
1F
100
AcDbEntity
  8
layer 1
 62
     7
100
AcDbSpline
210
0.0
220
0.0
230
1.0
 70
    11
 71
     3
 72
    20
 73
    16
 74
     0
 42
0.0000000001
 43
0.0000000001
 12
1.0
 22
0.0
 32
0.0
 13
1.0
 23
0.0
 33
0.0
 40
0.0
 40
0.0
 40
0.0
 40
0.0
 40
0.2
 40
0.2
 40
0.2
 40
0.2
 40
0.4
 40
0.4
 40
0.4
 40
0.4
 40
0.6
 40
0.6
 40
0.6
 40
0.6
 40
1.0
 40
1.0
 40
1.0
 40
1.0
 10
152.119
 20
-23.8873
 30
0.0
 10
151.4604
 20
-22.8363
 30
0.0
 10
149.9369
 20
-21.8548
 30
0.0
 10
148.1127
 20
-21.5851
 30
0.0
 10
148.1127
 20
-21.5851
 30
0.0
 10
149.937
 20
-21.3153
 30
0.0
 10
151.4606
 20
-20.3338
 30
0.0
 10
152.1191
 20
-19.2829
 30
0.0
 10
152.1191
 20
-19.2829
 30
0.0
 10
152.7777
 20
-20.3338
 30
0.0
 10
154.3013
 20
-21.3153
 30
0.0
 10
156.1255
 20
-21.5851
 30
0.0
 10
156.1255
 20
-21.5851
 30
0.0
 10
154.3011
 20
-21.8548
 30
0.0
 10
152.7776
 20
-22.8363
 30
0.0
 10
152.119
 20
-23.8873
 30
0.0
  0
SPLINE
  5
A9
330
1F
100
AcDbEntity
  8
layer 1
 62
     7
100
AcDbSpline
210
0.0
220
0.0
230
1.0
 70
    11
 71
     3
 72
    56
 73
    52
 74
     0
 42
0.0000000001
 43
0.0000000001
 12
1.0
 22
0.0
 32
0.0
 13
1.0
 23
0.0
 33
0.0
 40
0.0
 40
0.0
 40
0.0
 40
0.0
 40
0.0714285714285714
 40
0.0714285714285714
 40
0.0714285714285714
 40
0.0714285714285714
 40
0.1428571428571428
 40
0.1428571428571428
 40
0.1428571428571428
 40
0.1428571428571428
 40
0.2142857142857143
 40
0.2142857142857143
 40
0.2142857142857143
 40
0.2142857142857143
 40
0.2857142857142857
 40
0.2857142857142857
 40
0.2857142857142857
 40
0.2857142857142857
 40
0.3571428571428572
 40
0.3571428571428572
 40
0.3571428571428572
 40
0.3571428571428572
 40
0.4285714285714285
 40
0.4285714285714285
 40
0.4285714285714285
 40
0.4285714285714285
 40
0.5
 40
0.5
 40
0.5
 40
0.5
 40
0.5714285714285714
 40
0.5714285714285714
 40
0.5714285714285714
 40
0.5714285714285714
 40
0.6428571428571429
 40
0.6428571428571429
 40
0.6428571428571429
 40
0.6428571428571429
 40
0.7142857142857143
 40
0.7142857142857143
 40
0.7142857142857143
 40
0.7142857142857143
 40
0.7857142857142857
 40
0.7857142857142857
 40
0.7857142857142857
 40
0.7857142857142857
 40
0.8571428571428571
 40
0.8571428571428571
 40
0.8571428571428571
 40
0.8571428571428571
 40
1.0
 40
1.0
 40
1.0
 40
1.0
 10
155.1699
 20
-29.3521
 30
0.0
 10
157.0456
 20
-28.9787
 30
0.0
 10
158.1133
 20
-27.068
 30
0.0
 10
156.5694
 20
-26.8478
 30
0.0
 10
156.5694
 20
-26.8478
 30
0.0
 10
155.7374
 20
-26.7291
 30
0.0
 10
155.44
 20
-25.8014
 30
0.0
 10
156.0128
 20
-25.1113
 30
0.0
 10
156.0128
 20
-25.1113
 30
0.0
 10
157.3485
 20
-23.7518
 30
0.0
 10
161.7778
 20
-25.1923
 30
0.0
 10
163.1816
 20
-27.8175
 30
0.0
 10
163.1816
 20
-27.8175
 30
0.0
 10
158.7428
 20
-28.253
 30
0.0
 10
153.6982
 20
-30.0286
 30
0.0
 10
153.1261
 20
-35.0032
 30
0.0
 10
153.1261
 20
-35.0032
 30
0.0
 10
152.9639
 20
-36.6977
 30
0.0
 10
152.6696
 20
-37.3384
 30
0.0
 10
152.1189
 20
-37.3762
 30
0.0
 10
152.1189
 20
-37.3762
 30
0.0
 10
151.5682
 20
-37.3384
 30
0.0
 10
151.2738
 20
-36.6977
 30
0.0
 10
151.1117
 20
-35.0032
 30
0.0
 10
151.1117
 20
-35.0032
 30
0.0
 10
150.5396
 20
-30.0286
 30
0.0
 10
145.4951
 20
-28.253
 30
0.0
 10
141.0561
 20
-27.8175
 30
0.0
 10
141.0561
 20
-27.8175
 30
0.0
 10
142.46
 20
-25.1923
 30
0.0
 10
146.8892
 20
-23.7517
 30
0.0
 10
148.225
 20
-25.1113
 30
0.0
 10
148.225
 20
-25.1113
 30
0.0
 10
148.7978
 20
-25.8014
 30
0.0
 10
148.5004
 20
-26.7291
 30
0.0
 10
147.6684
 20
-26.8478
 30
0.0
 10
147.6684
 20
-26.8478
 30
0.0
 10
146.1246
 20
-27.068
 30
0.0
 10
147.1923
 20
-28.9787
 30
0.0
 10
149.0679
 20
-29.3521
 30
0.0
 10
149.0679
 20
-29.3521
 30
0.0
 10
150.4816
 20
-29.4059
 30
0.0
 10
151.3497
 20
-29.0115
 30
0.0
 10
152.1188
 20
-28.0093
 30
0.0
 10
152.1188
 20
-28.0093
 30
0.0
 10
152.8879
 20
-29.0115
 30
0.0
 10
153.7559
 20
-29.4058
 30
0.0
 10
155.1697
 20
-29.3521
 30
0.0
 10
155.1697
 20
-29.3521
 30
0.0
 10
155.1697
 20
-29.3521
 30
0.0
 10
155.1699
 20
-29.3521
 30
0.0
 10
155.1699
 20
-29.3521
 30
0.0
  0
SPLINE
  5
AA
330
1F
100
AcDbEntity
  8
layer 1
 62
     7
100
AcDbSpline
210
0.0
220
0.0
230
1.0
 70
    11
 71
     3
 72
    28
 73
    24
 74
     0
 42
0.0000000001
 43
0.0000000001
 12
1.0
 22
0.0
 32
0.0
 13
1.0
 23
0.0
 33
0.0
 40
0.0
 40
0.0
 40
0.0
 40
0.0
 40
0.1428571428571428
 40
0.1428571428571428
 40
0.1428571428571428
 40
0.1428571428571428
 40
0.2857142857142857
 40
0.2857142857142857
 40
0.2857142857142857
 40
0.2857142857142857
 40
0.4285714285714285
 40
0.4285714285714285
 40
0.4285714285714285
 40
0.4285714285714285
 40
0.5714285714285714
 40
0.5714285714285714
 40
0.5714285714285714
 40
0.5714285714285714
 40
0.7142857142857143
 40
0.7142857142857143
 40
0.7142857142857143
 40
0.7142857142857143
 40
1.0
 40
1.0
 40
1.0
 40
1.0
 10
186.4218
 20
-26.7312
 30
0.0
 10
185.8448
 20
-27.4265
 30
0.0
 10
185.8787
 20
-28.8284
 30
0.0
 10
187.9204
 20
-31.6327
 30
0.0
 10
187.9204
 20
-31.6327
 30
0.0
 10
189.3198
 20
-33.6797
 30
0.0
 10
190.7609
 20
-36.0158
 30
0.0
 10
191.7607
 20
-38.5898
 30
0.0
 10
191.7607
 20
-38.5898
 30
0.0
 10
191.5705
 20
-34.8967
 30
0.0
 10
191.7566
 20
-31.2025
 30
0.0
 10
191.7607
 20
-27.5064
 30
0.0
 10
191.7607
 20
-27.5064
 30
0.0
 10
191.1084
 20
-28.5674
 30
0.0
 10
189.8965
 20
-29.0507
 30
0.0
 10
188.9208
 20
-28.9892
 30
0.0
 10
188.9208
 20
-28.9892
 30
0.0
 10
188.3425
 20
-28.8758
 30
0.0
 10
188.0377
 20
-28.7612
 30
0.0
 10
188.2189
 20
-28.0393
 30
0.0
 10
188.2189
 20
-28.0393
 30
0.0
 10
188.7883
 20
-26.6256
 30
0.0
 10
187.1962
 20
-25.867
 30
0.0
 10
186.4218
 20
-26.7312
 30
0.0
  0
SPLINE
  5
AB
330
1F
100
AcDbEntity
  8
layer 1
 62
     7
100
AcDbSpline
210
0.0
220
0.0
230
1.0
 70
    11
 71
     3
 72
    16
 73
    12
 74
     0
 42
0.0000000001
 43
0.0000000001
 12
1.0
 22
0.0
 32
0.0
 13
1.0
 23
0.0
 33
0.0
 40
0.0
 40
0.0
 40
0.0
 40
0.0
 40
0.25
 40
0.25
 40
0.25
 40
0.25
 40
0.5
 40
0.5
 40
0.5
 40
0.5
 40
1.0
 40
1.0
 40
1.0
 40
1.0
 10
179.8466
 20
-35.803
 30
0.0
 10
181.4051
 20
-34.5408
 30
0.0
 10
183.1968
 20
-34.1049
 30
0.0
 10
185.085
 20
-34.6451
 30
0.0
 10
185.085
 20
-34.6451
 30
0.0
 10
184.0153
 20
-32.7419
 30
0.0
 10
183.2844
 20
-31.8243
 30
0.0
 10
182.5313
 20
-29.01
 30
0.0
 10
182.5313
 20
-29.01
 30
0.0
 10
182.1882
 20
-31.5002
 30
0.0
 10
180.9462
 20
-34.2831
 30
0.0
 10
179.8466
 20
-35.803
 30
0.0
  0
SPLINE
  5
AC
330
1F
100
AcDbEntity
  8
layer 1
 62
     7
100
AcDbSpline
210
0.0
220
0.0
230
1.0
 70
    11
 71
     3
 72
    20
 73
    16
 74
     0
 42
0.0000000001
 43
0.0000000001
 12
1.0
 22
0.0
 32
0.0
 13
1.0
 23
0.0
 33
0.0
 40
0.0
 40
0.0
 40
0.0
 40
0.0
 40
0.2
 40
0.2
 40
0.2
 40
0.2
 40
0.4
 40
0.4
 40
0.4
 40
0.4
 40
0.6
 40
0.6
 40
0.6
 40
0.6
 40
1.0
 40
1.0
 40
1.0
 40
1.0
 10
170.5714
 20
-32.1296
 30
0.0
 10
172.3755
 20
-34.4309
 30
0.0
 10
172.7447
 20
-35.5621
 30
0.0
 10
173.599
 20
-38.638
 30
0.0
 10
173.599
 20
-38.638
 30
0.0
 10
175.4972
 20
-36.4596
 30
0.0
 10
176.8354
 20
-34.3383
 30
0.0
 10
178.1877
 20
-31.3082
 30
0.0
 10
178.1877
 20
-31.3082
 30
0.0
 10
175.2743
 20
-32.5062
 30
0.0
 10
173.406
 20
-32.6889
 30
0.0
 10
170.5715
 20
-32.1296
 30
0.0
 10
170.5715
 20
-32.1296
 30
0.0
 10
170.5715
 20
-32.1296
 30
0.0
 10
170.5714
 20
-32.1296
 30
0.0
 10
170.5714
 20
-32.1296
 30
0.0
  0
SPLINE
  5
AD
330
1F
100
AcDbEntity
  8
layer 1
 62
     7
100
AcDbSpline
210
0.0
220
0.0
230
1.0
 70
    11
 71
     3
 72
    32
 73
    28
 74
     0
 42
0.0000000001
 43
0.0000000001
 12
1.0
 22
0.0
 32
0.0
 13
1.0
 23
0.0
 33
0.0
 40
0.0
 40
0.0
 40
0.0
 40
0.0
 40
0.125
 40
0.125
 40
0.125
 40
0.125
 40
0.25
 40
0.25
 40
0.25
 40
0.25
 40
0.375
 40
0.375
 40
0.375
 40
0.375
 40
0.5
 40
0.5
 40
0.5
 40
0.5
 40
0.625
 40
0.625
 40
0.625
 40
0.625
 40
0.75
 40
0.75
 40
0.75
 40
0.75
 40
1.0
 40
1.0
 40
1.0
 40
1.0
 10
174.7641
 20
-42.5702
 30
0.0
 10
176.4849
 20
-46.6745
 30
0.0
 10
180.1816
 20
-48.7174
 30
0.0
 10
183.4313
 20
-47.9208
 30
0.0
 10
183.4313
 20
-47.9208
 30
0.0
 10
187.6017
 20
-47.5714
 30
0.0
 10
190.1273
 20
-42.6478
 30
0.0
 10
188.2127
 20
-40.6489
 30
0.0
 10
188.2127
 20
-40.6489
 30
0.0
 10
185.9204
 20
-38.5367
 30
0.0
 10
183.9541
 20
-41.8321
 30
0.0
 10
185.4402
 20
-43.4056
 30
0.0
 10
185.4402
 20
-43.4056
 30
0.0
 10
186.3423
 20
-44.3078
 30
0.0
 10
186.2564
 20
-44.5937
 30
0.0
 10
184.9538
 20
-45.0236
 30
0.0
 10
184.9538
 20
-45.0236
 30
0.0
 10
179.4708
 20
-45.9129
 30
0.0
 10
178.0329
 20
-40.944
 30
0.0
 10
178.7102
 20
-37.5675
 30
0.0
 10
178.7102
 20
-37.5675
 30
0.0
 10
177.5565
 20
-39.7205
 30
0.0
 10
176.1854
 20
-41.1457
 30
0.0
 10
174.764
 20
-42.5701
 30
0.0
 10
174.764
 20
-42.5701
 30
0.0
 10
174.764
 20
-42.5701
 30
0.0
 10
174.7641
 20
-42.5702
 30
0.0
 10
174.7641
 20
-42.5702
 30
0.0
  0
SPLINE
  5
AE
330
1F
100
AcDbEntity
  8
layer 1
 62
     7
100
AcDbSpline
210
0.0
220
0.0
230
1.0
 70
    11
 71
     3
 72
    20
 73
    16
 74
     0
 42
0.0000000001
 43
0.0000000001
 12
1.0
 22
0.0
 32
0.0
 13
1.0
 23
0.0
 33
0.0
 40
0.0
 40
0.0
 40
0.0
 40
0.0
 40
0.2
 40
0.2
 40
0.2
 40
0.2
 40
0.4
 40
0.4
 40
0.4
 40
0.4
 40
0.6
 40
0.6
 40
0.6
 40
0.6
 40
1.0
 40
1.0
 40
1.0
 40
1.0
 10
112.4772
 20
-18.6743
 30
0.0
 10
113.7223
 20
-20.7359
 30
0.0
 10
118.115
 20
-21.9015
 30
0.0
 10
120.4153
 20
-19.8338
 30
0.0
 10
120.4153
 20
-19.8338
 30
0.0
 10
120.4153
 20
-19.8338
 30
0.0
 10
120.4153
 20
-23.3363
 30
0.0
 10
120.4153
 20
-23.3363
 30
0.0
 10
120.4153
 20
-23.3363
 30
0.0
 10
118.115
 20
-21.2686
 30
0.0
 10
113.7223
 20
-22.4343
 30
0.0
 10
112.4772
 20
-24.4958
 30
0.0
 10
112.4772
 20
-24.4958
 30
0.0
 10
112.4772
 20
-24.4958
 30
0.0
 10
112.4772
 20
-18.6743
 30
0.0
 10
112.4772
 20
-18.6743
 30
0.0
  0
SPLINE
  5
AF
330
1F
100
AcDbEntity
  8
layer 1
 62
     7
100
AcDbSpline
210
0.0
220
0.0
230
1.0
 70
    11
 71
     3
 72
    28
 73
    24
 74
     0
 42
0.0000000001
 43
0.0000000001
 12
1.0
 22
0.0
 32
0.0
 13
1.0
 23
0.0
 33
0.0
 40
0.0
 40
0.0
 40
0.0
 40
0.0
 40
0.1428571428571428
 40
0.1428571428571428
 40
0.1428571428571428
 40
0.1428571428571428
 40
0.2857142857142857
 40
0.2857142857142857
 40
0.2857142857142857
 40
0.2857142857142857
 40
0.4285714285714285
 40
0.4285714285714285
 40
0.4285714285714285
 40
0.4285714285714285
 40
0.5714285714285714
 40
0.5714285714285714
 40
0.5714285714285714
 40
0.5714285714285714
 40
0.7142857142857143
 40
0.7142857142857143
 40
0.7142857142857143
 40
0.7142857142857143
 40
1.0
 40
1.0
 40
1.0
 40
1.0
 10
117.8161
 20
-16.4391
 30
0.0
 10
118.3931
 20
-15.7437
 30
0.0
 10
118.3592
 20
-14.3418
 30
0.0
 10
116.3175
 20
-11.5376
 30
0.0
 10
116.3175
 20
-11.5376
 30
0.0
 10
114.9181
 20
-9.4906
 30
0.0
 10
113.477
 20
-7.1545
 30
0.0
 10
112.4772
 20
-4.5805
 30
0.0
 10
112.4772
 20
-4.5805
 30
0.0
 10
112.6674
 20
-8.2735
 30
0.0
 10
112.4813
 20
-11.9677
 30
0.0
 10
112.4772
 20
-15.6639
 30
0.0
 10
112.4772
 20
-15.6639
 30
0.0
 10
113.1295
 20
-14.6029
 30
0.0
 10
114.3414
 20
-14.1195
 30
0.0
 10
115.3171
 20
-14.181
 30
0.0
 10
115.3171
 20
-14.181
 30
0.0
 10
115.8954
 20
-14.2945
 30
0.0
 10
116.2002
 20
-14.4091
 30
0.0
 10
116.019
 20
-15.131
 30
0.0
 10
116.019
 20
-15.131
 30
0.0
 10
115.4496
 20
-16.5446
 30
0.0
 10
117.0417
 20
-17.3032
 30
0.0
 10
117.8161
 20
-16.4391
 30
0.0
  0
SPLINE
  5
B0
330
1F
100
AcDbEntity
  8
layer 1
 62
     7
100
AcDbSpline
210
0.0
220
0.0
230
1.0
 70
    11
 71
     3
 72
    16
 73
    12
 74
     0
 42
0.0000000001
 43
0.0000000001
 12
1.0
 22
0.0
 32
0.0
 13
1.0
 23
0.0
 33
0.0
 40
0.0
 40
0.0
 40
0.0
 40
0.0
 40
0.25
 40
0.25
 40
0.25
 40
0.25
 40
0.5
 40
0.5
 40
0.5
 40
0.5
 40
1.0
 40
1.0
 40
1.0
 40
1.0
 10
124.3913
 20
-7.3672
 30
0.0
 10
122.984
 20
-8.8564
 30
0.0
 10
121.0411
 20
-9.2923
 30
0.0
 10
119.1529
 20
-8.5252
 30
0.0
 10
119.1529
 20
-8.5252
 30
0.0
 10
120.2226
 20
-10.4284
 30
0.0
 10
120.9535
 20
-11.346
 30
0.0
 10
121.7066
 20
-14.1603
 30
0.0
 10
121.7066
 20
-14.1603
 30
0.0
 10
122.0497
 20
-11.6701
 30
0.0
 10
123.2917
 20
-8.8871
 30
0.0
 10
124.3913
 20
-7.3672
 30
0.0
  0
SPLINE
  5
B1
330
1F
100
AcDbEntity
  8
layer 1
 62
     7
100
AcDbSpline
210
0.0
220
0.0
230
1.0
 70
    11
 71
     3
 72
    20
 73
    16
 74
     0
 42
0.0000000001
 43
0.0000000001
 12
1.0
 22
0.0
 32
0.0
 13
1.0
 23
0.0
 33
0.0
 40
0.0
 40
0.0
 40
0.0
 40
0.0
 40
0.2
 40
0.2
 40
0.2
 40
0.2
 40
0.4
 40
0.4
 40
0.4
 40
0.4
 40
0.6
 40
0.6
 40
0.6
 40
0.6
 40
1.0
 40
1.0
 40
1.0
 40
1.0
 10
133.6665
 20
-11.0406
 30
0.0
 10
132.0893
 20
-9.0419
 30
0.0
 10
130.8881
 20
-7.3056
 30
0.0
 10
130.6389
 20
-4.5323
 30
0.0
 10
130.6389
 20
-4.5323
 30
0.0
 10
128.7407
 20
-6.7106
 30
0.0
 10
127.4025
 20
-8.832
 30
0.0
 10
126.0502
 20
-11.8621
 30
0.0
 10
126.0502
 20
-11.8621
 30
0.0
 10
128.7562
 20
-10.4436
 30
0.0
 10
130.7693
 20
-10.5139
 30
0.0
 10
133.6664
 20
-11.0406
 30
0.0
 10
133.6664
 20
-11.0406
 30
0.0
 10
133.6664
 20
-11.0406
 30
0.0
 10
133.6665
 20
-11.0406
 30
0.0
 10
133.6665
 20
-11.0406
 30
0.0
  0
SPLINE
  5
B2
330
1F
100
AcDbEntity
  8
layer 1
 62
     7
100
AcDbSpline
210
0.0
220
0.0
230
1.0
 70
    11
 71
     3
 72
   136
 73
   132
 74
     0
 42
0.0000000001
 43
0.0000000001
 12
1.0
 22
0.0
 32
0.0
 13
1.0
 23
0.0
 33
0.0
 40
0.0
 40
0.0
 40
0.0
 40
0.0
 40
0.0294117647058824
 40
0.0294117647058824
 40
0.0294117647058824
 40
0.0294117647058824
 40
0.0588235294117647
 40
0.0588235294117647
 40
0.0588235294117647
 40
0.0588235294117647
 40
0.0882352941176471
 40
0.0882352941176471
 40
0.0882352941176471
 40
0.0882352941176471
 40
0.1176470588235294
 40
0.1176470588235294
 40
0.1176470588235294
 40
0.1176470588235294
 40
0.1470588235294118
 40
0.1470588235294118
 40
0.1470588235294118
 40
0.1470588235294118
 40
0.1764705882352941
 40
0.1764705882352941
 40
0.1764705882352941
 40
0.1764705882352941
 40
0.2058823529411765
 40
0.2058823529411765
 40
0.2058823529411765
 40
0.2058823529411765
 40
0.2352941176470588
 40
0.2352941176470588
 40
0.2352941176470588
 40
0.2352941176470588
 40
0.2647058823529412
 40
0.2647058823529412
 40
0.2647058823529412
 40
0.2647058823529412
 40
0.2941176470588235
 40
0.2941176470588235
 40
0.2941176470588235
 40
0.2941176470588235
 40
0.3235294117647059
 40
0.3235294117647059
 40
0.3235294117647059
 40
0.3235294117647059
 40
0.3529411764705883
 40
0.3529411764705883
 40
0.3529411764705883
 40
0.3529411764705883
 40
0.3823529411764706
 40
0.3823529411764706
 40
0.3823529411764706
 40
0.3823529411764706
 40
0.4117647058823529
 40
0.4117647058823529
 40
0.4117647058823529
 40
0.4117647058823529
 40
0.4411764705882353
 40
0.4411764705882353
 40
0.4411764705882353
 40
0.4411764705882353
 40
0.4705882352941176
 40
0.4705882352941176
 40
0.4705882352941176
 40
0.4705882352941176
 40
0.5
 40
0.5
 40
0.5
 40
0.5
 40
0.5294117647058824
 40
0.5294117647058824
 40
0.5294117647058824
 40
0.5294117647058824
 40
0.5588235294117647
 40
0.5588235294117647
 40
0.5588235294117647
 40
0.5588235294117647
 40
0.5882352941176471
 40
0.5882352941176471
 40
0.5882352941176471
 40
0.5882352941176471
 40
0.6176470588235294
 40
0.6176470588235294
 40
0.6176470588235294
 40
0.6176470588235294
 40
0.6470588235294118
 40
0.6470588235294118
 40
0.6470588235294118
 40
0.6470588235294118
 40
0.6764705882352942
 40
0.6764705882352942
 40
0.6764705882352942
 40
0.6764705882352942
 40
0.7058823529411765
 40
0.7058823529411765
 40
0.7058823529411765
 40
0.7058823529411765
 40
0.7352941176470589
 40
0.7352941176470589
 40
0.7352941176470589
 40
0.7352941176470589
 40
0.7647058823529411
 40
0.7647058823529411
 40
0.7647058823529411
 40
0.7647058823529411
 40
0.7941176470588235
 40
0.7941176470588235
 40
0.7941176470588235
 40
0.7941176470588235
 40
0.8235294117647058
 40
0.8235294117647058
 40
0.8235294117647058
 40
0.8235294117647058
 40
0.8529411764705882
 40
0.8529411764705882
 40
0.8529411764705882
 40
0.8529411764705882
 40
0.8823529411764706
 40
0.8823529411764706
 40
0.8823529411764706
 40
0.8823529411764706
 40
0.9117647058823529
 40
0.9117647058823529
 40
0.9117647058823529
 40
0.9117647058823529
 40
0.9411764705882353
 40
0.9411764705882353
 40
0.9411764705882353
 40
0.9411764705882353
 40
1.0
 40
1.0
 40
1.0
 40
1.0
 10
149.8316
 20
-0.8034
 30
0.0
 10
148.3129
 20
0.1465
 30
0.0
 10
146.4544
 20
0.1478
 30
0.0
 10
144.6851
 20
-1.3316
 30
0.0
 10
144.6851
 20
-1.3316
 30
0.0
 10
143.2357
 20
-2.6199
 30
0.0
 10
143.0073
 20
-5.3575
 30
0.0
 10
144.4341
 20
-7.2534
 30
0.0
 10
144.4341
 20
-7.2534
 30
0.0
 10
144.931
 20
-6.2527
 30
0.0
 10
145.9676
 20
-5.0795
 30
0.0
 10
146.9497
 20
-6.2454
 30
0.0
 10
146.9497
 20
-6.2454
 30
0.0
 10
147.8197
 20
-7.871
 30
0.0
 10
146.2596
 20
-10.0451
 30
0.0
 10
143.4754
 20
-11.0867
 30
0.0
 10
143.4754
 20
-11.0867
 30
0.0
 10
143.4754
 20
-11.0867
 30
0.0
 10
143.4754
 20
-11.0867
 30
0.0
 10
143.4754
 20
-11.0867
 30
0.0
 10
143.4754
 20
-11.0867
 30
0.0
 10
142.5228
 20
-11.4432
 30
0.0
 10
140.9601
 20
-11.7347
 30
0.0
 10
140.0026
 20
-11.7347
 30
0.0
 10
140.0026
 20
-11.7347
 30
0.0
 10
138.3872
 20
-11.7347
 30
0.0
 10
138.2151
 20
-11.6589
 30
0.0
 10
137.6136
 20
-10.6832
 30
0.0
 10
137.6136
 20
-10.6832
 30
0.0
 10
137.257
 20
-10.105
 30
0.0
 10
136.8655
 20
-9.2315
 30
0.0
 10
136.7433
 20
-8.7421
 30
0.0
 10
136.7433
 20
-8.7421
 30
0.0
 10
136.5432
 20
-7.9401
 30
0.0
 10
136.6055
 20
-7.8524
 30
0.0
 10
137.3755
 20
-7.8524
 30
0.0
 10
137.3755
 20
-7.8524
 30
0.0
 10
139.4099
 20
-7.8068
 30
0.0
 10
141.9189
 20
-6.1604
 30
0.0
 10
141.6706
 20
-3.8143
 30
0.0
 10
141.6706
 20
-3.8143
 30
0.0
 10
141.4786
 20
-2.1786
 30
0.0
 10
139.4807
 20
0.0954
 30
0.0
 10
136.9996
 20
-0.967
 30
0.0
 10
136.9996
 20
-0.967
 30
0.0
 10
136.2523
 20
-1.4276
 30
0.0
 10
136.2042
 20
-2.0291
 30
0.0
 10
137.0265
 20
-2.0291
 30
0.0
 10
137.0265
 20
-2.0291
 30
0.0
 10
138.2118
 20
-2.1956
 30
0.0
 10
138.9068
 20
-2.8598
 30
0.0
 10
138.2141
 20
-3.8023
 30
0.0
 10
138.2141
 20
-3.8023
 30
0.0
 10
137.2888
 20
-4.9113
 30
0.0
 10
135.165
 20
-3.3756
 30
0.0
 10
134.083
 20
-1.2692
 30
0.0
 10
134.083
 20
-1.2692
 30
0.0
 10
138.2553
 20
2.2589
 30
0.0
 10
144.2447
 20
4.8278
 30
0.0
 10
152.1191
 20
5.0317
 30
0.0
 10
152.1191
 20
5.0317
 30
0.0
 10
159.9936
 20
4.8278
 30
0.0
 10
165.983
 20
2.2589
 30
0.0
 10
170.1553
 20
-1.2692
 30
0.0
 10
170.1553
 20
-1.2692
 30
0.0
 10
169.0731
 20
-3.3756
 30
0.0
 10
166.9493
 20
-4.9113
 30
0.0
 10
166.0242
 20
-3.8023
 30
0.0
 10
166.0242
 20
-3.8023
 30
0.0
 10
165.3315
 20
-2.8598
 30
0.0
 10
166.0265
 20
-2.1956
 30
0.0
 10
167.2117
 20
-2.0291
 30
0.0
 10
167.2117
 20
-2.0291
 30
0.0
 10
168.034
 20
-2.0291
 30
0.0
 10
167.986
 20
-1.4277
 30
0.0
 10
167.2386
 20
-0.967
 30
0.0
 10
167.2386
 20
-0.967
 30
0.0
 10
164.7575
 20
0.0954
 30
0.0
 10
162.7596
 20
-2.1785
 30
0.0
 10
162.5677
 20
-3.8143
 30
0.0
 10
162.5677
 20
-3.8143
 30
0.0
 10
162.3194
 20
-6.1604
 30
0.0
 10
164.8283
 20
-7.8068
 30
0.0
 10
166.8628
 20
-7.8524
 30
0.0
 10
166.8628
 20
-7.8524
 30
0.0
 10
167.6328
 20
-7.8524
 30
0.0
 10
167.6951
 20
-7.9401
 30
0.0
 10
167.4949
 20
-8.7421
 30
0.0
 10
167.4949
 20
-8.7421
 30
0.0
 10
167.3728
 20
-9.2315
 30
0.0
 10
166.9811
 20
-10.105
 30
0.0
 10
166.6247
 20
-10.6832
 30
0.0
 10
166.6247
 20
-10.6832
 30
0.0
 10
166.0232
 20
-11.6589
 30
0.0
 10
165.851
 20
-11.7347
 30
0.0
 10
164.2357
 20
-11.7347
 30
0.0
 10
164.2357
 20
-11.7347
 30
0.0
 10
163.2782
 20
-11.7347
 30
0.0
 10
161.7154
 20
-11.443
 30
0.0
 10
160.7629
 20
-11.0867
 30
0.0
 10
160.7629
 20
-11.0867
 30
0.0
 10
160.7629
 20
-11.0867
 30
0.0
 10
160.7629
 20
-11.0867
 30
0.0
 10
160.7629
 20
-11.0867
 30
0.0
 10
160.7629
 20
-11.0867
 30
0.0
 10
157.9787
 20
-10.0451
 30
0.0
 10
156.4186
 20
-7.871
 30
0.0
 10
157.2886
 20
-6.2454
 30
0.0
 10
157.2886
 20
-6.2454
 30
0.0
 10
158.2707
 20
-5.0795
 30
0.0
 10
159.3072
 20
-6.2527
 30
0.0
 10
159.8042
 20
-7.2534
 30
0.0
 10
159.8042
 20
-7.2534
 30
0.0
 10
161.231
 20
-5.3575
 30
0.0
 10
161.0026
 20
-2.6199
 30
0.0
 10
159.5531
 20
-1.3316
 30
0.0
 10
159.5531
 20
-1.3316
 30
0.0
 10
157.7839
 20
0.1478
 30
0.0
 10
155.9252
 20
0.1465
 30
0.0
 10
154.4067
 20
-0.8034
 30
0.0
 10
154.4067
 20
-0.8034
 30
0.0
 10
154.3825
 20
1.4054
 30
0.0
 10
153.2718
 20
3.4227
 30
0.0
 10
152.1193
 20
3.4057
 30
0.0
 10
152.1193
 20
3.4057
 30
0.0
 10
150.9667
 20
3.4227
 30
0.0
 10
149.8561
 20
1.4054
 30
0.0
 10
149.8318
 20
-0.8034
 30
0.0
 10
149.8318
 20
-0.8034
 30
0.0
 10
149.8318
 20
-0.8034
 30
0.0
 10
149.8316
 20
-0.8034
 30
0.0
 10
149.8316
 20
-0.8034
 30
0.0
  0
SPLINE
  5
B3
330
1F
100
AcDbEntity
  8
layer 1
 62
     7
100
AcDbSpline
210
0.0
220
0.0
230
1.0
 70
    11
 71
     3
 72
    32
 73
    28
 74
     0
 42
0.0000000001
 43
0.0000000001
 12
1.0
 22
0.0
 32
0.0
 13
1.0
 23
0.0
 33
0.0
 40
0.0
 40
0.0
 40
0.0
 40
0.0
 40
0.125
 40
0.125
 40
0.125
 40
0.125
 40
0.25
 40
0.25
 40
0.25
 40
0.25
 40
0.375
 40
0.375
 40
0.375
 40
0.375
 40
0.5
 40
0.5
 40
0.5
 40
0.5
 40
0.625
 40
0.625
 40
0.625
 40
0.625
 40
0.75
 40
0.75
 40
0.75
 40
0.75
 40
1.0
 40
1.0
 40
1.0
 40
1.0
 10
129.4738
 20
-0.5999
 30
0.0
 10
127.753
 20
3.5044
 30
0.0
 10
124.0563
 20
5.5473
 30
0.0
 10
120.8066
 20
4.7506
 30
0.0
 10
120.8066
 20
4.7506
 30
0.0
 10
116.6362
 20
4.4013
 30
0.0
 10
114.1106
 20
-0.5224
 30
0.0
 10
116.0252
 20
-2.5212
 30
0.0
 10
116.0252
 20
-2.5212
 30
0.0
 10
118.3175
 20
-4.6334
 30
0.0
 10
120.2838
 20
-1.3381
 30
0.0
 10
118.7977
 20
0.2355
 30
0.0
 10
118.7977
 20
0.2355
 30
0.0
 10
117.8956
 20
1.1376
 30
0.0
 10
117.9815
 20
1.4235
 30
0.0
 10
119.2841
 20
1.8534
 30
0.0
 10
119.2841
 20
1.8534
 30
0.0
 10
124.7671
 20
2.7427
 30
0.0
 10
126.205
 20
-2.2262
 30
0.0
 10
125.5277
 20
-5.6027
 30
0.0
 10
125.5277
 20
-5.6027
 30
0.0
 10
126.6814
 20
-3.4497
 30
0.0
 10
128.0525
 20
-2.0244
 30
0.0
 10
129.4739
 20
-0.6
 30
0.0
 10
129.4739
 20
-0.6
 30
0.0
 10
129.4739
 20
-0.6
 30
0.0
 10
129.4738
 20
-0.5999
 30
0.0
 10
129.4738
 20
-0.5999
 30
0.0
  0
SPLINE
  5
B4
330
1F
100
AcDbEntity
  8
layer 1
 62
     7
100
AcDbSpline
210
0.0
220
0.0
230
1.0
 70
    11
 71
     3
 72
    20
 73
    16
 74
     0
 42
0.0000000001
 43
0.0000000001
 12
1.0
 22
0.0
 32
0.0
 13
1.0
 23
0.0
 33
0.0
 40
0.0
 40
0.0
 40
0.0
 40
0.0
 40
0.2
 40
0.2
 40
0.2
 40
0.2
 40
0.4
 40
0.4
 40
0.4
 40
0.4
 40
0.6
 40
0.6
 40
0.6
 40
0.6
 40
1.0
 40
1.0
 40
1.0
 40
1.0
 10
191.7607
 20
-18.6743
 30
0.0
 10
190.5156
 20
-20.7359
 30
0.0
 10
186.1229
 20
-21.9015
 30
0.0
 10
183.8226
 20
-19.8338
 30
0.0
 10
183.8226
 20
-19.8338
 30
0.0
 10
183.8226
 20
-19.8338
 30
0.0
 10
183.8226
 20
-23.3363
 30
0.0
 10
183.8226
 20
-23.3363
 30
0.0
 10
183.8226
 20
-23.3363
 30
0.0
 10
186.1229
 20
-21.2686
 30
0.0
 10
190.5156
 20
-22.4343
 30
0.0
 10
191.7607
 20
-24.4958
 30
0.0
 10
191.7607
 20
-24.4958
 30
0.0
 10
191.7607
 20
-24.4958
 30
0.0
 10
191.7607
 20
-18.6743
 30
0.0
 10
191.7607
 20
-18.6743
 30
0.0
  0
SPLINE
  5
B5
330
1F
100
AcDbEntity
  8
layer 1
 62
     7
100
AcDbSpline
210
0.0
220
0.0
230
1.0
 70
    11
 71
     3
 72
    56
 73
    52
 74
     0
 42
0.0000000001
 43
0.0000000001
 12
1.0
 22
0.0
 32
0.0
 13
1.0
 23
0.0
 33
0.0
 40
0.0
 40
0.0
 40
0.0
 40
0.0
 40
0.0714285714285714
 40
0.0714285714285714
 40
0.0714285714285714
 40
0.0714285714285714
 40
0.1428571428571428
 40
0.1428571428571428
 40
0.1428571428571428
 40
0.1428571428571428
 40
0.2142857142857143
 40
0.2142857142857143
 40
0.2142857142857143
 40
0.2142857142857143
 40
0.2857142857142857
 40
0.2857142857142857
 40
0.2857142857142857
 40
0.2857142857142857
 40
0.3571428571428572
 40
0.3571428571428572
 40
0.3571428571428572
 40
0.3571428571428572
 40
0.4285714285714285
 40
0.4285714285714285
 40
0.4285714285714285
 40
0.4285714285714285
 40
0.5
 40
0.5
 40
0.5
 40
0.5
 40
0.5714285714285714
 40
0.5714285714285714
 40
0.5714285714285714
 40
0.5714285714285714
 40
0.6428571428571429
 40
0.6428571428571429
 40
0.6428571428571429
 40
0.6428571428571429
 40
0.7142857142857143
 40
0.7142857142857143
 40
0.7142857142857143
 40
0.7142857142857143
 40
0.7857142857142857
 40
0.7857142857142857
 40
0.7857142857142857
 40
0.7857142857142857
 40
0.8571428571428571
 40
0.8571428571428571
 40
0.8571428571428571
 40
0.8571428571428571
 40
1.0
 40
1.0
 40
1.0
 40
1.0
 10
155.1699
 20
-13.8181
 30
0.0
 10
157.0456
 20
-14.1916
 30
0.0
 10
158.1133
 20
-16.1022
 30
0.0
 10
156.5694
 20
-16.3225
 30
0.0
 10
156.5694
 20
-16.3225
 30
0.0
 10
155.7374
 20
-16.4412
 30
0.0
 10
155.44
 20
-17.3689
 30
0.0
 10
156.0128
 20
-18.059
 30
0.0
 10
156.0128
 20
-18.059
 30
0.0
 10
157.3485
 20
-19.4185
 30
0.0
 10
161.7778
 20
-17.9779
 30
0.0
 10
163.1816
 20
-15.3528
 30
0.0
 10
163.1816
 20
-15.3528
 30
0.0
 10
158.7428
 20
-14.9173
 30
0.0
 10
153.6982
 20
-13.1417
 30
0.0
 10
153.1261
 20
-8.167
 30
0.0
 10
153.1261
 20
-8.167
 30
0.0
 10
152.9639
 20
-6.4725
 30
0.0
 10
152.6696
 20
-5.8318
 30
0.0
 10
152.1189
 20
-5.794
 30
0.0
 10
152.1189
 20
-5.794
 30
0.0
 10
151.5682
 20
-5.8318
 30
0.0
 10
151.2738
 20
-6.4725
 30
0.0
 10
151.1117
 20
-8.167
 30
0.0
 10
151.1117
 20
-8.167
 30
0.0
 10
150.5396
 20
-13.1417
 30
0.0
 10
145.4951
 20
-14.9173
 30
0.0
 10
141.0561
 20
-15.3528
 30
0.0
 10
141.0561
 20
-15.3528
 30
0.0
 10
142.46
 20
-17.9779
 30
0.0
 10
146.8892
 20
-19.4185
 30
0.0
 10
148.225
 20
-18.059
 30
0.0
 10
148.225
 20
-18.059
 30
0.0
 10
148.7978
 20
-17.3689
 30
0.0
 10
148.5004
 20
-16.4412
 30
0.0
 10
147.6684
 20
-16.3225
 30
0.0
 10
147.6684
 20
-16.3225
 30
0.0
 10
146.1246
 20
-16.1022
 30
0.0
 10
147.1923
 20
-14.1916
 30
0.0
 10
149.0679
 20
-13.8181
 30
0.0
 10
149.0679
 20
-13.8181
 30
0.0
 10
150.4816
 20
-13.7643
 30
0.0
 10
151.3497
 20
-14.1588
 30
0.0
 10
152.1188
 20
-15.161
 30
0.0
 10
152.1188
 20
-15.161
 30
0.0
 10
152.8879
 20
-14.1588
 30
0.0
 10
153.7559
 20
-13.7645
 30
0.0
 10
155.1697
 20
-13.8181
 30
0.0
 10
155.1697
 20
-13.8181
 30
0.0
 10
155.1697
 20
-13.8181
 30
0.0
 10
155.1699
 20
-13.8181
 30
0.0
 10
155.1699
 20
-13.8181
 30
0.0
  0
SPLINE
  5
B6
330
1F
100
AcDbEntity
  8
layer 1
 62
     7
100
AcDbSpline
210
0.0
220
0.0
230
1.0
 70
    11
 71
     3
 72
    28
 73
    24
 74
     0
 42
0.0000000001
 43
0.0000000001
 12
1.0
 22
0.0
 32
0.0
 13
1.0
 23
0.0
 33
0.0
 40
0.0
 40
0.0
 40
0.0
 40
0.0
 40
0.1428571428571428
 40
0.1428571428571428
 40
0.1428571428571428
 40
0.1428571428571428
 40
0.2857142857142857
 40
0.2857142857142857
 40
0.2857142857142857
 40
0.2857142857142857
 40
0.4285714285714285
 40
0.4285714285714285
 40
0.4285714285714285
 40
0.4285714285714285
 40
0.5714285714285714
 40
0.5714285714285714
 40
0.5714285714285714
 40
0.5714285714285714
 40
0.7142857142857143
 40
0.7142857142857143
 40
0.7142857142857143
 40
0.7142857142857143
 40
1.0
 40
1.0
 40
1.0
 40
1.0
 10
186.4218
 20
-16.4391
 30
0.0
 10
185.8448
 20
-15.7437
 30
0.0
 10
185.8787
 20
-14.3418
 30
0.0
 10
187.9204
 20
-11.5376
 30
0.0
 10
187.9204
 20
-11.5376
 30
0.0
 10
189.3198
 20
-9.4906
 30
0.0
 10
190.7609
 20
-7.1545
 30
0.0
 10
191.7607
 20
-4.5805
 30
0.0
 10
191.7607
 20
-4.5805
 30
0.0
 10
191.5705
 20
-8.2735
 30
0.0
 10
191.7566
 20
-11.9677
 30
0.0
 10
191.7607
 20
-15.6639
 30
0.0
 10
191.7607
 20
-15.6639
 30
0.0
 10
191.1084
 20
-14.6029
 30
0.0
 10
189.8965
 20
-14.1195
 30
0.0
 10
188.9208
 20
-14.181
 30
0.0
 10
188.9208
 20
-14.181
 30
0.0
 10
188.3425
 20
-14.2945
 30
0.0
 10
188.0377
 20
-14.4091
 30
0.0
 10
188.2189
 20
-15.131
 30
0.0
 10
188.2189
 20
-15.131
 30
0.0
 10
188.7883
 20
-16.5446
 30
0.0
 10
187.1962
 20
-17.3032
 30
0.0
 10
186.4218
 20
-16.4391
 30
0.0
  0
SPLINE
  5
B7
330
1F
100
AcDbEntity
  8
layer 1
 62
     7
100
AcDbSpline
210
0.0
220
0.0
230
1.0
 70
    11
 71
     3
 72
    16
 73
    12
 74
     0
 42
0.0000000001
 43
0.0000000001
 12
1.0
 22
0.0
 32
0.0
 13
1.0
 23
0.0
 33
0.0
 40
0.0
 40
0.0
 40
0.0
 40
0.0
 40
0.25
 40
0.25
 40
0.25
 40
0.25
 40
0.5
 40
0.5
 40
0.5
 40
0.5
 40
1.0
 40
1.0
 40
1.0
 40
1.0
 10
179.8466
 20
-7.3672
 30
0.0
 10
181.632
 20
-9.0077
 30
0.0
 10
183.1211
 20
-8.9897
 30
0.0
 10
185.085
 20
-8.5252
 30
0.0
 10
185.085
 20
-8.5252
 30
0.0
 10
184.0153
 20
-10.4284
 30
0.0
 10
183.2844
 20
-11.346
 30
0.0
 10
182.5313
 20
-14.1603
 30
0.0
 10
182.5313
 20
-14.1603
 30
0.0
 10
182.1882
 20
-11.6701
 30
0.0
 10
180.9462
 20
-8.8871
 30
0.0
 10
179.8466
 20
-7.3672
 30
0.0
  0
SPLINE
  5
B8
330
1F
100
AcDbEntity
  8
layer 1
 62
     7
100
AcDbSpline
210
0.0
220
0.0
230
1.0
 70
    11
 71
     3
 72
    20
 73
    16
 74
     0
 42
0.0000000001
 43
0.0000000001
 12
1.0
 22
0.0
 32
0.0
 13
1.0
 23
0.0
 33
0.0
 40
0.0
 40
0.0
 40
0.0
 40
0.0
 40
0.2
 40
0.2
 40
0.2
 40
0.2
 40
0.4
 40
0.4
 40
0.4
 40
0.4
 40
0.6
 40
0.6
 40
0.6
 40
0.6
 40
1.0
 40
1.0
 40
1.0
 40
1.0
 10
170.5714
 20
-11.0406
 30
0.0
 10
171.9217
 20
-8.6637
 30
0.0
 10
172.5934
 20
-7.0787
 30
0.0
 10
173.599
 20
-4.5323
 30
0.0
 10
173.599
 20
-4.5323
 30
0.0
 10
175.4972
 20
-6.7106
 30
0.0
 10
176.8354
 20
-8.832
 30
0.0
 10
178.1877
 20
-11.8621
 30
0.0
 10
178.1877
 20
-11.8621
 30
0.0
 10
175.5208
 20
-10.9861
 30
0.0
 10
173.7972
 20
-10.823
 30
0.0
 10
170.5715
 20
-11.0406
 30
0.0
 10
170.5715
 20
-11.0406
 30
0.0
 10
170.5715
 20
-11.0406
 30
0.0
 10
170.5714
 20
-11.0406
 30
0.0
 10
170.5714
 20
-11.0406
 30
0.0
  0
SPLINE
  5
B9
330
1F
100
AcDbEntity
  8
layer 1
 62
     7
100
AcDbSpline
210
0.0
220
0.0
230
1.0
 70
    11
 71
     3
 72
    32
 73
    28
 74
     0
 42
0.0000000001
 43
0.0000000001
 12
1.0
 22
0.0
 32
0.0
 13
1.0
 23
0.0
 33
0.0
 40
0.0
 40
0.0
 40
0.0
 40
0.0
 40
0.125
 40
0.125
 40
0.125
 40
0.125
 40
0.25
 40
0.25
 40
0.25
 40
0.25
 40
0.375
 40
0.375
 40
0.375
 40
0.375
 40
0.5
 40
0.5
 40
0.5
 40
0.5
 40
0.625
 40
0.625
 40
0.625
 40
0.625
 40
0.75
 40
0.75
 40
0.75
 40
0.75
 40
1.0
 40
1.0
 40
1.0
 40
1.0
 10
174.7641
 20
-0.5999
 30
0.0
 10
176.4849
 20
3.5044
 30
0.0
 10
180.1816
 20
5.5473
 30
0.0
 10
183.4313
 20
4.7506
 30
0.0
 10
183.4313
 20
4.7506
 30
0.0
 10
187.6017
 20
4.4013
 30
0.0
 10
190.1273
 20
-0.5224
 30
0.0
 10
188.2127
 20
-2.5212
 30
0.0
 10
188.2127
 20
-2.5212
 30
0.0
 10
185.9204
 20
-4.6334
 30
0.0
 10
183.9541
 20
-1.3381
 30
0.0
 10
185.4402
 20
0.2355
 30
0.0
 10
185.4402
 20
0.2355
 30
0.0
 10
186.3423
 20
1.1376
 30
0.0
 10
186.2564
 20
1.4235
 30
0.0
 10
184.9538
 20
1.8534
 30
0.0
 10
184.9538
 20
1.8534
 30
0.0
 10
179.4708
 20
2.7427
 30
0.0
 10
178.0329
 20
-2.2262
 30
0.0
 10
178.7102
 20
-5.6027
 30
0.0
 10
178.7102
 20
-5.6027
 30
0.0
 10
177.5565
 20
-3.4497
 30
0.0
 10
176.1854
 20
-2.0244
 30
0.0
 10
174.764
 20
-0.6
 30
0.0
 10
174.764
 20
-0.6
 30
0.0
 10
174.764
 20
-0.6
 30
0.0
 10
174.7641
 20
-0.5999
 30
0.0
 10
174.7641
 20
-0.5999
 30
0.0
  0
ENDSEC
  0
SECTION
  2
OBJECTS
  0
DICTIONARY
  5
C
330
0
100
AcDbDictionary
281
     1
  3
ACAD_GROUP
350
D
  3
ACAD_LAYOUT
350
1A
  3
ACAD_MATERIAL
350
3B
  3
ACAD_MLEADERSTYLE
350
DC
  3
ACAD_MLINESTYLE
350
17
  3
ACAD_PLOTSETTINGS
350
19
  3
ACAD_PLOTSTYLENAME
350
E
  3
ACAD_TABLESTYLE
350
DB
  3
ACAD_VISUALSTYLE
350
2A
  0
DICTIONARY
  5
D
102
{ACAD_REACTORS
330
C
102
}
330
C
100
AcDbDictionary
281
     1
  0
DICTIONARY
  5
1A
102
{ACAD_REACTORS
330
C
102
}
330
C
100
AcDbDictionary
281
     1
  3
Layout1
350
1E
  3
Layout2
350
26
  3
Model
350
22
  0
DICTIONARY
  5
3B
102
{ACAD_REACTORS
330
C
102
}
330
C
100
AcDbDictionary
281
     1
  3
ByBlock
350
3D
  3
ByLayer
350
3C
  3
Global
350
3E
  0
DICTIONARY
  5
DC
102
{ACAD_REACTORS
330
C
102
}
330
C
100
AcDbDictionary
281
     1
  0
DICTIONARY
  5
17
102
{ACAD_REACTORS
330
C
102
}
330
C
100
AcDbDictionary
281
     1
  3
Standard
350
18
  0
DICTIONARY
  5
19
102
{ACAD_REACTORS
330
C
102
}
330
C
100
AcDbDictionary
281
     1
  0
ACDBDICTIONARYWDFLT
  5
E
102
{ACAD_REACTORS
330
C
102
}
330
C
100
AcDbDictionary
281
     1
  3
Normal
350
F
100
AcDbDictionaryWithDefault
340
F
  0
DICTIONARY
  5
DB
102
{ACAD_REACTORS
330
C
102
}
330
C
100
AcDbDictionary
281
     1
  0
DICTIONARY
  5
2A
102
{ACAD_REACTORS
330
C
102
}
330
C
100
AcDbDictionary
281
     1
  3
2dWireframe
350
2F
  3
3D Hidden
350
31
  3
3dWireframe
350
30
  3
Basic
350
32
  3
Brighten
350
36
  3
ColorChange
350
3A
  3
Conceptual
350
34
  3
Dim
350
35
  3
Facepattern
350
39
  3
Flat
350
2B
  3
FlatWithEdges
350
2C
  3
Gouraud
350
2D
  3
GouraudWithEdges
350
2E
  3
Linepattern
350
38
  3
Realistic
350
33
  3
Thicken
350
37
  0
LAYOUT
  5
1E
102
{ACAD_REACTORS
330
1A
102
}
330
1A
100
AcDbPlotSettings
  1

  2
none_device
  4

  6

 40
0.0
 41
0.0
 42
0.0
 43
0.0
 44
0.0
 45
0.0
 46
0.0
 47
0.0
 48
0.0
 49
0.0
140
0.0
141
0.0
142
1.0
143
1.0
 70
   688
 72
     0
 73
     0
 74
     5
  7

 75
    16
 76
     0
 77
     2
 78
   300
147
1.0
148
0.0
149
0.0
100
AcDbLayout
  1
Layout1
 70
     1
 71
     1
 10
0.0
 20
0.0
 11
12.0
 21
9.0
 12
0.0
 22
0.0
 32
0.0
 14
1.000000000000000E+20
 24
1.000000000000000E+20
 34
1.000000000000000E+20
 15
-1.000000000000000E+20
 25
-1.000000000000000E+20
 35
-1.000000000000000E+20
146
0.0
 13
0.0
 23
0.0
 33
0.0
 16
1.0
 26
0.0
 36
0.0
 17
0.0
 27
1.0
 37
0.0
 76
     0
330
1B
  0
LAYOUT
  5
26
102
{ACAD_REACTORS
330
1A
102
}
330
1A
100
AcDbPlotSettings
  1

  2
none_device
  4

  6

 40
0.0
 41
0.0
 42
0.0
 43
0.0
 44
0.0
 45
0.0
 46
0.0
 47
0.0
 48
0.0
 49
0.0
140
0.0
141
0.0
142
1.0
143
1.0
 70
   688
 72
     0
 73
     0
 74
     5
  7

 75
    16
 76
     0
 77
     2
 78
   300
147
1.0
148
0.0
149
0.0
100
AcDbLayout
  1
Layout2
 70
     1
 71
     2
 10
0.0
 20
0.0
 11
0.0
 21
0.0
 12
0.0
 22
0.0
 32
0.0
 14
0.0
 24
0.0
 34
0.0
 15
0.0
 25
0.0
 35
0.0
146
0.0
 13
0.0
 23
0.0
 33
0.0
 16
1.0
 26
0.0
 36
0.0
 17
0.0
 27
1.0
 37
0.0
 76
     0
330
23
  0
LAYOUT
  5
22
102
{ACAD_REACTORS
330
1A
102
}
330
1A
100
AcDbPlotSettings
  1

  2
none_device
  4

  6

 40
0.0
 41
0.0
 42
0.0
 43
0.0
 44
0.0
 45
0.0
 46
0.0
 47
0.0
 48
0.0
 49
0.0
140
0.0
141
0.0
142
1.0
143
1.0
 70
  1712
 72
     0
 73
     0
 74
     0
  7

 75
     0
 76
     0
 77
     2
 78
   300
147
1.0
148
0.0
149
0.0
100
AcDbLayout
  1
Model
 70
     1
 71
     0
 10
0.0
 20
0.0
 11
12.0
 21
9.0
 12
0.0
 22
0.0
 32
0.0
 14
108.0699
 24
-114.7416
 34
0.0
 15
196.1641
 25
131.6758
 35
0.0
146
0.0
 13
0.0
 23
0.0
 33
0.0
 16
1.0
 26
0.0
 36
0.0
 17
0.0
 27
1.0
 37
0.0
 76
     0
330
1F
331
29
  0
MATERIAL
  5
3D
102
{ACAD_REACTORS
330
3B
102
}
330
3B
100
AcDbMaterial
  1
ByBlock
 72
     1
 94
      127
  0
MATERIAL
  5
3C
102
{ACAD_REACTORS
330
3B
102
}
330
3B
100
AcDbMaterial
  1
ByLayer
 72
     1
 94
      127
  0
MATERIAL
  5
3E
102
{ACAD_REACTORS
330
3B
102
}
330
3B
100
AcDbMaterial
  1
Global
 72
     1
 94
      127
  0
MLINESTYLE
  5
18
102
{ACAD_REACTORS
330
17
102
}
330
17
100
AcDbMlineStyle
  2
Standard
 70
     0
  3

 62
   256
 51
90.0
 52
90.0
 71
     2
 49
0.5
 62
   256
  6
BYLAYER
 49
-0.5
 62
   256
  6
BYLAYER
  0
ACDBPLACEHOLDER
  5
F
102
{ACAD_REACTORS
330
E
102
}
330
E
  0
VISUALSTYLE
  5
2F
102
{ACAD_REACTORS
330
2A
102
}
102
{ACAD_XDICTIONARY
360
C3
102
}
330
2A
100
AcDbVisualStyle
  2
2dWireframe
 70
     4
 71
     0
 72
     2
 73
     0
 90
        0
 40
-0.6
 41
-30.0
 62
     5
 63
     7
421
 16777215
 74
     1
 91
        4
 64
     7
 65
   257
 75
     1
175
     1
 42
1.0
 92
        0
 66
   257
 43
1.0
 76
     1
 77
     6
 78
     2
 67
     7
 79
     5
170
     0
171
     0
290
     0
174
     0
 93
        1
 44
0.0
173
     0
291
     0
 45
0.0
  0
VISUALSTYLE
  5
31
102
{ACAD_REACTORS
330
2A
102
}
102
{ACAD_XDICTIONARY
360
C7
102
}
330
2A
100
AcDbVisualStyle
  2
3D Hidden
 70
     6
 71
     1
 72
     2
 73
     2
 90
        0
 40
-0.6
 41
-30.0
 62
     5
 63
     7
421
 16777215
 74
     2
 91
        2
 64
     7
 65
   257
 75
     2
175
     1
 42
40.0
 92
        0
 66
   257
 43
1.0
 76
     1
 77
     6
 78
     2
 67
     7
 79
     3
170
     0
171
     0
290
     0
174
     0
 93
        1
 44
0.0
173
     0
291
     0
 45
0.0
  0
VISUALSTYLE
  5
30
102
{ACAD_REACTORS
330
2A
102
}
102
{ACAD_XDICTIONARY
360
C5
102
}
330
2A
100
AcDbVisualStyle
  2
3dWireframe
 70
     5
 71
     0
 72
     2
 73
     0
 90
        0
 40
-0.6
 41
-30.0
 62
     5
 63
     7
421
 16777215
 74
     1
 91
        4
 64
     7
 65
   257
 75
     1
175
     1
 42
1.0
 92
        0
 66
   257
 43
1.0
 76
     1
 77
     6
 78
     2
 67
     7
 79
     5
170
     0
171
     0
290
     0
174
     0
 93
        1
 44
0.0
173
     0
291
     0
 45
0.0
  0
VISUALSTYLE
  5
32
102
{ACAD_REACTORS
330
2A
102
}
102
{ACAD_XDICTIONARY
360
C9
102
}
330
2A
100
AcDbVisualStyle
  2
Basic
 70
     7
 71
     1
 72
     0
 73
     1
 90
        0
 40
-0.6
 41
-30.0
 62
     5
 63
     7
421
 16777215
 74
     0
 91
        4
 64
     7
 65
   257
 75
     1
175
     1
 42
1.0
 92
        8
 66
     7
 43
1.0
 76
     1
 77
     6
 78
     2
 67
     7
 79
     5
170
     0
171
     0
290
     0
174
     0
 93
        1
 44
0.0
173
     0
291
     1
 45
0.0
  0
VISUALSTYLE
  5
36
102
{ACAD_REACTORS
330
2A
102
}
102
{ACAD_XDICTIONARY
360
D1
102
}
330
2A
100
AcDbVisualStyle
  2
Brighten
 70
    12
 71
     2
 72
     2
 73
     0
 90
        0
 40
-0.6
 41
-30.0
 62
     5
 63
     7
421
 16777215
 74
     1
 91
        4
 64
     7
 65
   257
 75
     1
175
     1
 42
1.0
 92
        8
 66
     7
 43
1.0
 76
     1
 77
     6
 78
     2
 67
     7
 79
     5
170
     0
171
     0
290
     0
174
     0
 93
        1
 44
50.0
173
     0
291
     1
 45
0.0
  0
VISUALSTYLE
  5
3A
102
{ACAD_REACTORS
330
2A
102
}
102
{ACAD_XDICTIONARY
360
D9
102
}
330
2A
100
AcDbVisualStyle
  2
ColorChange
 70
    16
 71
     2
 72
     2
 73
     3
 90
        0
 40
-0.6
 41
-30.0
 62
     5
 63
     8
421
  8421504
 74
     1
 91
        4
 64
     7
 65
   257
 75
     1
175
     1
 42
1.0
 92
        8
 66
     8
424
  8421504
 43
1.0
 76
     1
 77
     6
 78
     2
 67
     7
 79
     5
170
     0
171
     0
290
     0
174
     0
 93
        1
 44
0.0
173
     0
291
     1
 45
0.0
  0
VISUALSTYLE
  5
34
102
{ACAD_REACTORS
330
2A
102
}
102
{ACAD_XDICTIONARY
360
CD
102
}
330
2A
100
AcDbVisualStyle
  2
Conceptual
 70
     9
 71
     3
 72
     2
 73
     0
 90
        0
 40
-0.6
 41
-30.0
 62
     5
 63
     7
421
 16777215
 74
     2
 91
        2
 64
     7
 65
   257
 75
     1
175
     1
 42
40.0
 92
        8
 66
     7
 43
1.0
 76
     1
 77
     6
 78
     2
 67
     7
 79
     3
170
     0
171
     0
290
     0
174
     0
 93
        1
 44
0.0
173
     0
291
     0
 45
0.0
  0
VISUALSTYLE
  5
35
102
{ACAD_REACTORS
330
2A
102
}
102
{ACAD_XDICTIONARY
360
CF
102
}
330
2A
100
AcDbVisualStyle
  2
Dim
 70
    11
 71
     2
 72
     2
 73
     0
 90
        0
 40
-0.6
 41
-30.0
 62
     5
 63
     7
421
 16777215
 74
     1
 91
        4
 64
     7
 65
   257
 75
     1
175
     1
 42
1.0
 92
        8
 66
     7
 43
1.0
 76
     1
 77
     6
 78
     2
 67
     7
 79
     5
170
     0
171
     0
290
     0
174
     0
 93
        1
 44
-50.0
173
     0
291
     1
 45
0.0
  0
VISUALSTYLE
  5
39
102
{ACAD_REACTORS
330
2A
102
}
102
{ACAD_XDICTIONARY
360
D7
102
}
330
2A
100
AcDbVisualStyle
  2
Facepattern
 70
    15
 71
     2
 72
     2
 73
     0
 90
        0
 40
-0.6
 41
-30.0
 62
     5
 63
     7
421
 16777215
 74
     1
 91
        4
 64
     7
 65
   257
 75
     1
175
     1
 42
1.0
 92
        8
 66
     7
 43
1.0
 76
     1
 77
     6
 78
     2
 67
     7
 79
     5
170
     0
171
     0
290
     0
174
     0
 93
        1
 44
0.0
173
     0
291
     1
 45
0.0
  0
VISUALSTYLE
  5
2B
102
{ACAD_REACTORS
330
2A
102
}
102
{ACAD_XDICTIONARY
360
BB
102
}
330
2A
100
AcDbVisualStyle
  2
Flat
 70
     0
 71
     2
 72
     1
 73
     1
 90
        2
 40
-0.6
 41
30.0
 62
     5
 63
     7
421
 16777215
 74
     0
 91
        4
 64
     7
 65
   257
 75
     1
175
     1
 42
1.0
 92
        8
 66
     7
 43
1.0
 76
     1
 77
     6
 78
     2
 67
     7
 79
     5
170
     0
171
     0
290
     0
174
     0
 93
       13
 44
0.0
173
     0
291
     1
 45
0.0
  0
VISUALSTYLE
  5
2C
102
{ACAD_REACTORS
330
2A
102
}
102
{ACAD_XDICTIONARY
360
BD
102
}
330
2A
100
AcDbVisualStyle
  2
FlatWithEdges
 70
     1
 71
     2
 72
     1
 73
     1
 90
        2
 40
-0.6
 41
30.0
 62
     5
 63
     7
421
 16777215
 74
     1
 91
        4
 64
     7
 65
   257
 75
     1
175
     1
 42
1.0
 92
        0
 66
   257
 43
1.0
 76
     1
 77
     6
 78
     2
 67
     7
 79
     5
170
     0
171
     0
290
     0
174
     0
 93
       13
 44
0.0
173
     0
291
     1
 45
0.0
  0
VISUALSTYLE
  5
2D
102
{ACAD_REACTORS
330
2A
102
}
102
{ACAD_XDICTIONARY
360
BF
102
}
330
2A
100
AcDbVisualStyle
  2
Gouraud
 70
     2
 71
     2
 72
     2
 73
     1
 90
        2
 40
-0.6
 41
30.0
 62
     5
 63
     7
421
 16777215
 74
     0
 91
        4
 64
     7
 65
   257
 75
     1
175
     1
 42
1.0
 92
        0
 66
     7
 43
1.0
 76
     1
 77
     6
 78
     2
 67
     7
 79
     5
170
     0
171
     0
290
     0
174
     0
 93
       13
 44
0.0
173
     0
291
     1
 45
0.0
  0
VISUALSTYLE
  5
2E
102
{ACAD_REACTORS
330
2A
102
}
102
{ACAD_XDICTIONARY
360
C1
102
}
330
2A
100
AcDbVisualStyle
  2
GouraudWithEdges
 70
     3
 71
     2
 72
     2
 73
     1
 90
        2
 40
-0.6
 41
30.0
 62
     5
 63
     7
421
 16777215
 74
     1
 91
        4
 64
     7
 65
   257
 75
     1
175
     1
 42
1.0
 92
        0
 66
   257
 43
1.0
 76
     1
 77
     6
 78
     2
 67
     7
 79
     5
170
     0
171
     0
290
     0
174
     0
 93
       13
 44
0.0
173
     0
291
     1
 45
0.0
  0
VISUALSTYLE
  5
38
102
{ACAD_REACTORS
330
2A
102
}
102
{ACAD_XDICTIONARY
360
D5
102
}
330
2A
100
AcDbVisualStyle
  2
Linepattern
 70
    14
 71
     2
 72
     2
 73
     0
 90
        0
 40
-0.6
 41
-30.0
 62
     5
 63
     7
421
 16777215
 74
     1
 91
        4
 64
     7
 65
   257
 75
     7
175
     7
 42
1.0
 92
        8
 66
     7
 43
1.0
 76
     1
 77
     6
 78
     2
 67
     7
 79
     5
170
     0
171
     0
290
     0
174
     0
 93
        1
 44
0.0
173
     0
291
     1
 45
0.0
  0
VISUALSTYLE
  5
33
102
{ACAD_REACTORS
330
2A
102
}
102
{ACAD_XDICTIONARY
360
CB
102
}
330
2A
100
AcDbVisualStyle
  2
Realistic
 70
     8
 71
     2
 72
     2
 73
     0
 90
        0
 40
-0.6
 41
-30.0
 62
     5
 63
     7
421
 16777215
 74
     1
 91
        0
 64
     7
 65
   257
 75
     1
175
     1
 42
1.0
 92
        8
 66
     8
424
  7895160
 43
1.0
 76
     1
 77
     6
 78
     2
 67
     7
 79
     5
170
     0
171
     0
290
     0
174
     0
 93
       13
 44
0.0
173
     0
291
     0
 45
0.0
  0
VISUALSTYLE
  5
37
102
{ACAD_REACTORS
330
2A
102
}
102
{ACAD_XDICTIONARY
360
D3
102
}
330
2A
100
AcDbVisualStyle
  2
Thicken
 70
    13
 71
     2
 72
     2
 73
     0
 90
        0
 40
-0.6
 41
-30.0
 62
     5
 63
     7
421
 16777215
 74
     1
 91
        4
 64
     7
 65
   257
 75
     1
175
     1
 42
1.0
 92
       12
 66
     7
 43
1.0
 76
     1
 77
     6
 78
     2
 67
     7
 79
     5
170
     0
171
     0
290
     0
174
     0
 93
        1
 44
0.0
173
     0
291
     1
 45
0.0
  0
DICTIONARY
  5
C3
330
2F
100
AcDbDictionary
280
     1
281
     1
  3
ACAD_XREC_ROUNDTRIP
360
C4
  0
DICTIONARY
  5
C7
330
31
100
AcDbDictionary
280
     1
281
     1
  3
ACAD_XREC_ROUNDTRIP
360
C8
  0
DICTIONARY
  5
C5
330
30
100
AcDbDictionary
280
     1
281
     1
  3
ACAD_XREC_ROUNDTRIP
360
C6
  0
DICTIONARY
  5
C9
330
32
100
AcDbDictionary
280
     1
281
     1
  3
ACAD_XREC_ROUNDTRIP
360
CA
  0
DICTIONARY
  5
D1
330
36
100
AcDbDictionary
280
     1
281
     1
  3
ACAD_XREC_ROUNDTRIP
360
D2
  0
DICTIONARY
  5
D9
330
3A
100
AcDbDictionary
280
     1
281
     1
  3
ACAD_XREC_ROUNDTRIP
360
DA
  0
DICTIONARY
  5
CD
330
34
100
AcDbDictionary
280
     1
281
     1
  3
ACAD_XREC_ROUNDTRIP
360
CE
  0
DICTIONARY
  5
CF
330
35
100
AcDbDictionary
280
     1
281
     1
  3
ACAD_XREC_ROUNDTRIP
360
D0
  0
DICTIONARY
  5
D7
330
39
100
AcDbDictionary
280
     1
281
     1
  3
ACAD_XREC_ROUNDTRIP
360
D8
  0
DICTIONARY
  5
BB
330
2B
100
AcDbDictionary
280
     1
281
     1
  3
ACAD_XREC_ROUNDTRIP
360
BC
  0
DICTIONARY
  5
BD
330
2C
100
AcDbDictionary
280
     1
281
     1
  3
ACAD_XREC_ROUNDTRIP
360
BE
  0
DICTIONARY
  5
BF
330
2D
100
AcDbDictionary
280
     1
281
     1
  3
ACAD_XREC_ROUNDTRIP
360
C0
  0
DICTIONARY
  5
C1
330
2E
100
AcDbDictionary
280
     1
281
     1
  3
ACAD_XREC_ROUNDTRIP
360
C2
  0
DICTIONARY
  5
D5
330
38
100
AcDbDictionary
280
     1
281
     1
  3
ACAD_XREC_ROUNDTRIP
360
D6
  0
DICTIONARY
  5
CB
330
33
100
AcDbDictionary
280
     1
281
     1
  3
ACAD_XREC_ROUNDTRIP
360
CC
  0
DICTIONARY
  5
D3
330
37
100
AcDbDictionary
280
     1
281
     1
  3
ACAD_XREC_ROUNDTRIP
360
D4
  0
XRECORD
  5
C4
102
{ACAD_REACTORS
330
C3
102
}
330
C3
100
AcDbXrecord
280
     1
102
RTVSPropertyOp0
 70
     1
102
RTVSPropertyOp1
 70
     1
102
RTVSPropertyOp2
 70
     1
102
RTVSPropertyOp3
 70
     1
102
RTVSPropertyOp4
 70
     1
102
RTVSPropertyOp5
 70
     1
102
RTVSPropertyOp6
 70
     1
102
RTVSPropertyOp7
 70
     1
102
RTVSPropertyOp8
 70
     1
102
RTVSPropertyOp9
 70
     1
102
RTVSPropertyOp10
 70
     1
102
RTVSPropertyOp11
 70
     1
102
RTVSPropertyOp12
 70
     1
102
RTVSPropertyOp13
 70
     1
102
RTVSPropertyOp14
 70
     1
102
RTVSPropertyOp15
 70
     1
102
RTVSPropertyOp16
 70
     1
102
RTVSPropertyOp17
 70
     1
102
RTVSPropertyOp18
 70
     1
102
RTVSPropertyOp19
 70
     1
102
RTVSPropertyOp20
 70
     1
102
RTVSPropertyOp21
 70
     1
102
RTVSPropertyOp22
 70
     1
102
RTVSPropertyOp23
 70
     1
102
RTVSPropertyOp24
 70
     1
102
RTVSPropertyOp25
 70
     1
102
RTVSPropertyOp26
 70
     1
102
RTVSPropertyOp27
 70
     1
102
RTVSPropertyOp28
 70
     1
102
RTVSPropertyOp29
 70
     1
102
RTVSPropertyOp30
 70
     1
102
RTVSPropertyOp31
 70
     1
102
RTVSPropertyOp32
 70
     1
  0
XRECORD
  5
C8
102
{ACAD_REACTORS
330
C7
102
}
330
C7
100
AcDbXrecord
280
     1
102
RTVSPropertyOp0
 70
     1
102
RTVSPropertyOp1
 70
     1
102
RTVSPropertyOp2
 70
     1
102
RTVSPropertyOp3
 70
     1
102
RTVSPropertyOp4
 70
     1
102
RTVSPropertyOp5
 70
     1
102
RTVSPropertyOp6
 70
     1
102
RTVSPropertyOp7
 70
     1
102
RTVSPropertyOp8
 70
     1
102
RTVSPropertyOp9
 70
     1
102
RTVSPropertyOp10
 70
     1
102
RTVSPropertyOp11
 70
     1
102
RTVSPropertyOp12
 70
     1
102
RTVSPropertyOp13
 70
     1
102
RTVSPropertyOp14
 70
     1
102
RTVSPropertyOp15
 70
     1
102
RTVSPropertyOp16
 70
     1
102
RTVSPropertyOp17
 70
     1
102
RTVSPropertyOp18
 70
     1
102
RTVSPropertyOp19
 70
     1
102
RTVSPropertyOp20
 70
     1
102
RTVSPropertyOp21
 70
     1
102
RTVSPropertyOp22
 70
     1
102
RTVSPropertyOp23
 70
     1
102
RTVSPropertyOp24
 70
     1
102
RTVSPropertyOp25
 70
     1
102
RTVSPropertyOp26
 70
     1
102
RTVSPropertyOp27
 70
     1
102
RTVSPropertyOp28
 70
     1
102
RTVSPropertyOp29
 70
     1
102
RTVSPropertyOp30
 70
     1
102
RTVSPropertyOp31
 70
     1
102
RTVSPropertyOp32
 70
     1
  0
XRECORD
  5
C6
102
{ACAD_REACTORS
330
C5
102
}
330
C5
100
AcDbXrecord
280
     1
102
RTVSPropertyOp0
 70
     1
102
RTVSPropertyOp1
 70
     1
102
RTVSPropertyOp2
 70
     1
102
RTVSPropertyOp3
 70
     1
102
RTVSPropertyOp4
 70
     1
102
RTVSPropertyOp5
 70
     1
102
RTVSPropertyOp6
 70
     1
102
RTVSPropertyOp7
 70
     1
102
RTVSPropertyOp8
 70
     1
102
RTVSPropertyOp9
 70
     1
102
RTVSPropertyOp10
 70
     1
102
RTVSPropertyOp11
 70
     1
102
RTVSPropertyOp12
 70
     1
102
RTVSPropertyOp13
 70
     1
102
RTVSPropertyOp14
 70
     1
102
RTVSPropertyOp15
 70
     1
102
RTVSPropertyOp16
 70
     1
102
RTVSPropertyOp17
 70
     1
102
RTVSPropertyOp18
 70
     1
102
RTVSPropertyOp19
 70
     1
102
RTVSPropertyOp20
 70
     1
102
RTVSPropertyOp21
 70
     1
102
RTVSPropertyOp22
 70
     1
102
RTVSPropertyOp23
 70
     1
102
RTVSPropertyOp24
 70
     1
102
RTVSPropertyOp25
 70
     1
102
RTVSPropertyOp26
 70
     1
102
RTVSPropertyOp27
 70
     1
102
RTVSPropertyOp28
 70
     1
102
RTVSPropertyOp29
 70
     1
102
RTVSPropertyOp30
 70
     1
102
RTVSPropertyOp31
 70
     1
102
RTVSPropertyOp32
 70
     1
  0
XRECORD
  5
CA
102
{ACAD_REACTORS
330
C9
102
}
330
C9
100
AcDbXrecord
280
     1
102
RTVSPropertyOp0
 70
     1
102
RTVSPropertyOp1
 70
     1
102
RTVSPropertyOp2
 70
     1
102
RTVSPropertyOp3
 70
     1
102
RTVSPropertyOp4
 70
     1
102
RTVSPropertyOp5
 70
     1
102
RTVSPropertyOp6
 70
     1
102
RTVSPropertyOp7
 70
     1
102
RTVSPropertyOp8
 70
     1
102
RTVSPropertyOp9
 70
     1
102
RTVSPropertyOp10
 70
     1
102
RTVSPropertyOp11
 70
     1
102
RTVSPropertyOp12
 70
     1
102
RTVSPropertyOp13
 70
     1
102
RTVSPropertyOp14
 70
     1
102
RTVSPropertyOp15
 70
     1
102
RTVSPropertyOp16
 70
     1
102
RTVSPropertyOp17
 70
     1
102
RTVSPropertyOp18
 70
     1
102
RTVSPropertyOp19
 70
     1
102
RTVSPropertyOp20
 70
     1
102
RTVSPropertyOp21
 70
     1
102
RTVSPropertyOp22
 70
     1
102
RTVSPropertyOp23
 70
     1
102
RTVSPropertyOp24
 70
     1
102
RTVSPropertyOp25
 70
     1
102
RTVSPropertyOp26
 70
     1
102
RTVSPropertyOp27
 70
     1
102
RTVSPropertyOp28
 70
     1
102
RTVSPropertyOp29
 70
     1
102
RTVSPropertyOp30
 70
     1
102
RTVSPropertyOp31
 70
     1
102
RTVSPropertyOp32
 70
     1
  0
XRECORD
  5
D2
102
{ACAD_REACTORS
330
D1
102
}
330
D1
100
AcDbXrecord
280
     1
102
RTVSPropertyOp0
 70
     1
102
RTVSPropertyOp1
 70
     1
102
RTVSPropertyOp2
 70
     1
102
RTVSPropertyOp3
 70
     1
102
RTVSPropertyOp4
 70
     1
102
RTVSPropertyOp5
 70
     1
102
RTVSPropertyOp6
 70
     1
102
RTVSPropertyOp7
 70
     1
102
RTVSPropertyOp8
 70
     1
102
RTVSPropertyOp9
 70
     1
102
RTVSPropertyOp10
 70
     1
102
RTVSPropertyOp11
 70
     1
102
RTVSPropertyOp12
 70
     1
102
RTVSPropertyOp13
 70
     1
102
RTVSPropertyOp14
 70
     1
102
RTVSPropertyOp15
 70
     1
102
RTVSPropertyOp16
 70
     1
102
RTVSPropertyOp17
 70
     1
102
RTVSPropertyOp18
 70
     1
102
RTVSPropertyOp19
 70
     1
102
RTVSPropertyOp20
 70
     1
102
RTVSPropertyOp21
 70
     1
102
RTVSPropertyOp22
 70
     1
102
RTVSPropertyOp23
 70
     1
102
RTVSPropertyOp24
 70
     1
102
RTVSPropertyOp25
 70
     1
102
RTVSPropertyOp26
 70
     1
102
RTVSPropertyOp27
 70
     1
102
RTVSPropertyOp28
 70
     1
102
RTVSPropertyOp29
 70
     1
102
RTVSPropertyOp30
 70
     1
102
RTVSPropertyOp31
 70
     1
102
RTVSPropertyOp32
 70
     1
  0
XRECORD
  5
DA
102
{ACAD_REACTORS
330
D9
102
}
330
D9
100
AcDbXrecord
280
     1
102
RTVSPropertyOp0
 70
     1
102
RTVSPropertyOp1
 70
     1
102
RTVSPropertyOp2
 70
     1
102
RTVSPropertyOp3
 70
     1
102
RTVSPropertyOp4
 70
     1
102
RTVSPropertyOp5
 70
     1
102
RTVSPropertyOp6
 70
     1
102
RTVSPropertyOp7
 70
     1
102
RTVSPropertyOp8
 70
     1
102
RTVSPropertyOp9
 70
     1
102
RTVSPropertyOp10
 70
     1
102
RTVSPropertyOp11
 70
     1
102
RTVSPropertyOp12
 70
     1
102
RTVSPropertyOp13
 70
     1
102
RTVSPropertyOp14
 70
     1
102
RTVSPropertyOp15
 70
     1
102
RTVSPropertyOp16
 70
     1
102
RTVSPropertyOp17
 70
     1
102
RTVSPropertyOp18
 70
     1
102
RTVSPropertyOp19
 70
     1
102
RTVSPropertyOp20
 70
     1
102
RTVSPropertyOp21
 70
     1
102
RTVSPropertyOp22
 70
     1
102
RTVSPropertyOp23
 70
     1
102
RTVSPropertyOp24
 70
     1
102
RTVSPropertyOp25
 70
     1
102
RTVSPropertyOp26
 70
     1
102
RTVSPropertyOp27
 70
     1
102
RTVSPropertyOp28
 70
     1
102
RTVSPropertyOp29
 70
     1
102
RTVSPropertyOp30
 70
     1
102
RTVSPropertyOp31
 70
     1
102
RTVSPropertyOp32
 70
     1
  0
XRECORD
  5
CE
102
{ACAD_REACTORS
330
CD
102
}
330
CD
100
AcDbXrecord
280
     1
102
RTVSPropertyOp0
 70
     1
102
RTVSPropertyOp1
 70
     1
102
RTVSPropertyOp2
 70
     1
102
RTVSPropertyOp3
 70
     1
102
RTVSPropertyOp4
 70
     1
102
RTVSPropertyOp5
 70
     1
102
RTVSPropertyOp6
 70
     1
102
RTVSPropertyOp7
 70
     1
102
RTVSPropertyOp8
 70
     1
102
RTVSPropertyOp9
 70
     1
102
RTVSPropertyOp10
 70
     1
102
RTVSPropertyOp11
 70
     1
102
RTVSPropertyOp12
 70
     1
102
RTVSPropertyOp13
 70
     1
102
RTVSPropertyOp14
 70
     1
102
RTVSPropertyOp15
 70
     1
102
RTVSPropertyOp16
 70
     1
102
RTVSPropertyOp17
 70
     1
102
RTVSPropertyOp18
 70
     1
102
RTVSPropertyOp19
 70
     1
102
RTVSPropertyOp20
 70
     1
102
RTVSPropertyOp21
 70
     1
102
RTVSPropertyOp22
 70
     1
102
RTVSPropertyOp23
 70
     1
102
RTVSPropertyOp24
 70
     1
102
RTVSPropertyOp25
 70
     1
102
RTVSPropertyOp26
 70
     1
102
RTVSPropertyOp27
 70
     1
102
RTVSPropertyOp28
 70
     1
102
RTVSPropertyOp29
 70
     1
102
RTVSPropertyOp30
 70
     1
102
RTVSPropertyOp31
 70
     1
102
RTVSPropertyOp32
 70
     1
  0
XRECORD
  5
D0
102
{ACAD_REACTORS
330
CF
102
}
330
CF
100
AcDbXrecord
280
     1
102
RTVSPropertyOp0
 70
     1
102
RTVSPropertyOp1
 70
     1
102
RTVSPropertyOp2
 70
     1
102
RTVSPropertyOp3
 70
     1
102
RTVSPropertyOp4
 70
     1
102
RTVSPropertyOp5
 70
     1
102
RTVSPropertyOp6
 70
     1
102
RTVSPropertyOp7
 70
     1
102
RTVSPropertyOp8
 70
     1
102
RTVSPropertyOp9
 70
     1
102
RTVSPropertyOp10
 70
     1
102
RTVSPropertyOp11
 70
     1
102
RTVSPropertyOp12
 70
     1
102
RTVSPropertyOp13
 70
     1
102
RTVSPropertyOp14
 70
     1
102
RTVSPropertyOp15
 70
     1
102
RTVSPropertyOp16
 70
     1
102
RTVSPropertyOp17
 70
     1
102
RTVSPropertyOp18
 70
     1
102
RTVSPropertyOp19
 70
     1
102
RTVSPropertyOp20
 70
     1
102
RTVSPropertyOp21
 70
     1
102
RTVSPropertyOp22
 70
     1
102
RTVSPropertyOp23
 70
     1
102
RTVSPropertyOp24
 70
     1
102
RTVSPropertyOp25
 70
     1
102
RTVSPropertyOp26
 70
     1
102
RTVSPropertyOp27
 70
     1
102
RTVSPropertyOp28
 70
     1
102
RTVSPropertyOp29
 70
     1
102
RTVSPropertyOp30
 70
     1
102
RTVSPropertyOp31
 70
     1
102
RTVSPropertyOp32
 70
     1
  0
XRECORD
  5
D8
102
{ACAD_REACTORS
330
D7
102
}
330
D7
100
AcDbXrecord
280
     1
102
RTVSPropertyOp0
 70
     1
102
RTVSPropertyOp1
 70
     1
102
RTVSPropertyOp2
 70
     1
102
RTVSPropertyOp3
 70
     1
102
RTVSPropertyOp4
 70
     1
102
RTVSPropertyOp5
 70
     1
102
RTVSPropertyOp6
 70
     1
102
RTVSPropertyOp7
 70
     1
102
RTVSPropertyOp8
 70
     1
102
RTVSPropertyOp9
 70
     1
102
RTVSPropertyOp10
 70
     1
102
RTVSPropertyOp11
 70
     1
102
RTVSPropertyOp12
 70
     1
102
RTVSPropertyOp13
 70
     1
102
RTVSPropertyOp14
 70
     1
102
RTVSPropertyOp15
 70
     1
102
RTVSPropertyOp16
 70
     1
102
RTVSPropertyOp17
 70
     1
102
RTVSPropertyOp18
 70
     1
102
RTVSPropertyOp19
 70
     1
102
RTVSPropertyOp20
 70
     1
102
RTVSPropertyOp21
 70
     1
102
RTVSPropertyOp22
 70
     1
102
RTVSPropertyOp23
 70
     1
102
RTVSPropertyOp24
 70
     1
102
RTVSPropertyOp25
 70
     1
102
RTVSPropertyOp26
 70
     1
102
RTVSPropertyOp27
 70
     1
102
RTVSPropertyOp28
 70
     1
102
RTVSPropertyOp29
 70
     1
102
RTVSPropertyOp30
 70
     1
102
RTVSPropertyOp31
 70
     1
102
RTVSPropertyOp32
 70
     1
  0
XRECORD
  5
BC
102
{ACAD_REACTORS
330
BB
102
}
330
BB
100
AcDbXrecord
280
     1
102
RTVSPropertyOp0
 70
     1
102
RTVSPropertyOp1
 70
     1
102
RTVSPropertyOp2
 70
     1
102
RTVSPropertyOp3
 70
     1
102
RTVSPropertyOp4
 70
     1
102
RTVSPropertyOp5
 70
     1
102
RTVSPropertyOp6
 70
     1
102
RTVSPropertyOp7
 70
     1
102
RTVSPropertyOp8
 70
     1
102
RTVSPropertyOp9
 70
     1
102
RTVSPropertyOp10
 70
     1
102
RTVSPropertyOp11
 70
     1
102
RTVSPropertyOp12
 70
     1
102
RTVSPropertyOp13
 70
     1
102
RTVSPropertyOp14
 70
     1
102
RTVSPropertyOp15
 70
     1
102
RTVSPropertyOp16
 70
     1
102
RTVSPropertyOp17
 70
     1
102
RTVSPropertyOp18
 70
     1
102
RTVSPropertyOp19
 70
     1
102
RTVSPropertyOp20
 70
     1
102
RTVSPropertyOp21
 70
     1
102
RTVSPropertyOp22
 70
     1
102
RTVSPropertyOp23
 70
     1
102
RTVSPropertyOp24
 70
     1
102
RTVSPropertyOp25
 70
     1
102
RTVSPropertyOp26
 70
     1
102
RTVSPropertyOp27
 70
     1
102
RTVSPropertyOp28
 70
     1
102
RTVSPropertyOp29
 70
     1
102
RTVSPropertyOp30
 70
     1
102
RTVSPropertyOp31
 70
     1
102
RTVSPropertyOp32
 70
     1
  0
XRECORD
  5
BE
102
{ACAD_REACTORS
330
BD
102
}
330
BD
100
AcDbXrecord
280
     1
102
RTVSPropertyOp0
 70
     1
102
RTVSPropertyOp1
 70
     1
102
RTVSPropertyOp2
 70
     1
102
RTVSPropertyOp3
 70
     1
102
RTVSPropertyOp4
 70
     1
102
RTVSPropertyOp5
 70
     1
102
RTVSPropertyOp6
 70
     1
102
RTVSPropertyOp7
 70
     1
102
RTVSPropertyOp8
 70
     1
102
RTVSPropertyOp9
 70
     1
102
RTVSPropertyOp10
 70
     1
102
RTVSPropertyOp11
 70
     1
102
RTVSPropertyOp12
 70
     1
102
RTVSPropertyOp13
 70
     1
102
RTVSPropertyOp14
 70
     1
102
RTVSPropertyOp15
 70
     1
102
RTVSPropertyOp16
 70
     1
102
RTVSPropertyOp17
 70
     1
102
RTVSPropertyOp18
 70
     1
102
RTVSPropertyOp19
 70
     1
102
RTVSPropertyOp20
 70
     1
102
RTVSPropertyOp21
 70
     1
102
RTVSPropertyOp22
 70
     1
102
RTVSPropertyOp23
 70
     1
102
RTVSPropertyOp24
 70
     1
102
RTVSPropertyOp25
 70
     1
102
RTVSPropertyOp26
 70
     1
102
RTVSPropertyOp27
 70
     1
102
RTVSPropertyOp28
 70
     1
102
RTVSPropertyOp29
 70
     1
102
RTVSPropertyOp30
 70
     1
102
RTVSPropertyOp31
 70
     1
102
RTVSPropertyOp32
 70
     1
  0
XRECORD
  5
C0
102
{ACAD_REACTORS
330
BF
102
}
330
BF
100
AcDbXrecord
280
     1
102
RTVSPropertyOp0
 70
     1
102
RTVSPropertyOp1
 70
     1
102
RTVSPropertyOp2
 70
     1
102
RTVSPropertyOp3
 70
     1
102
RTVSPropertyOp4
 70
     1
102
RTVSPropertyOp5
 70
     1
102
RTVSPropertyOp6
 70
     1
102
RTVSPropertyOp7
 70
     1
102
RTVSPropertyOp8
 70
     1
102
RTVSPropertyOp9
 70
     1
102
RTVSPropertyOp10
 70
     1
102
RTVSPropertyOp11
 70
     1
102
RTVSPropertyOp12
 70
     1
102
RTVSPropertyOp13
 70
     1
102
RTVSPropertyOp14
 70
     1
102
RTVSPropertyOp15
 70
     1
102
RTVSPropertyOp16
 70
     1
102
RTVSPropertyOp17
 70
     1
102
RTVSPropertyOp18
 70
     1
102
RTVSPropertyOp19
 70
     1
102
RTVSPropertyOp20
 70
     1
102
RTVSPropertyOp21
 70
     1
102
RTVSPropertyOp22
 70
     1
102
RTVSPropertyOp23
 70
     1
102
RTVSPropertyOp24
 70
     1
102
RTVSPropertyOp25
 70
     1
102
RTVSPropertyOp26
 70
     1
102
RTVSPropertyOp27
 70
     1
102
RTVSPropertyOp28
 70
     1
102
RTVSPropertyOp29
 70
     1
102
RTVSPropertyOp30
 70
     1
102
RTVSPropertyOp31
 70
     1
102
RTVSPropertyOp32
 70
     1
  0
XRECORD
  5
C2
102
{ACAD_REACTORS
330
C1
102
}
330
C1
100
AcDbXrecord
280
     1
102
RTVSPropertyOp0
 70
     1
102
RTVSPropertyOp1
 70
     1
102
RTVSPropertyOp2
 70
     1
102
RTVSPropertyOp3
 70
     1
102
RTVSPropertyOp4
 70
     1
102
RTVSPropertyOp5
 70
     1
102
RTVSPropertyOp6
 70
     1
102
RTVSPropertyOp7
 70
     1
102
RTVSPropertyOp8
 70
     1
102
RTVSPropertyOp9
 70
     1
102
RTVSPropertyOp10
 70
     1
102
RTVSPropertyOp11
 70
     1
102
RTVSPropertyOp12
 70
     1
102
RTVSPropertyOp13
 70
     1
102
RTVSPropertyOp14
 70
     1
102
RTVSPropertyOp15
 70
     1
102
RTVSPropertyOp16
 70
     1
102
RTVSPropertyOp17
 70
     1
102
RTVSPropertyOp18
 70
     1
102
RTVSPropertyOp19
 70
     1
102
RTVSPropertyOp20
 70
     1
102
RTVSPropertyOp21
 70
     1
102
RTVSPropertyOp22
 70
     1
102
RTVSPropertyOp23
 70
     1
102
RTVSPropertyOp24
 70
     1
102
RTVSPropertyOp25
 70
     1
102
RTVSPropertyOp26
 70
     1
102
RTVSPropertyOp27
 70
     1
102
RTVSPropertyOp28
 70
     1
102
RTVSPropertyOp29
 70
     1
102
RTVSPropertyOp30
 70
     1
102
RTVSPropertyOp31
 70
     1
102
RTVSPropertyOp32
 70
     1
  0
XRECORD
  5
D6
102
{ACAD_REACTORS
330
D5
102
}
330
D5
100
AcDbXrecord
280
     1
102
RTVSPropertyOp0
 70
     1
102
RTVSPropertyOp1
 70
     1
102
RTVSPropertyOp2
 70
     1
102
RTVSPropertyOp3
 70
     1
102
RTVSPropertyOp4
 70
     1
102
RTVSPropertyOp5
 70
     1
102
RTVSPropertyOp6
 70
     1
102
RTVSPropertyOp7
 70
     1
102
RTVSPropertyOp8
 70
     1
102
RTVSPropertyOp9
 70
     1
102
RTVSPropertyOp10
 70
     1
102
RTVSPropertyOp11
 70
     1
102
RTVSPropertyOp12
 70
     1
102
RTVSPropertyOp13
 70
     1
102
RTVSPropertyOp14
 70
     1
102
RTVSPropertyOp15
 70
     1
102
RTVSPropertyOp16
 70
     1
102
RTVSPropertyOp17
 70
     1
102
RTVSPropertyOp18
 70
     1
102
RTVSPropertyOp19
 70
     1
102
RTVSPropertyOp20
 70
     1
102
RTVSPropertyOp21
 70
     1
102
RTVSPropertyOp22
 70
     1
102
RTVSPropertyOp23
 70
     1
102
RTVSPropertyOp24
 70
     1
102
RTVSPropertyOp25
 70
     1
102
RTVSPropertyOp26
 70
     1
102
RTVSPropertyOp27
 70
     1
102
RTVSPropertyOp28
 70
     1
102
RTVSPropertyOp29
 70
     1
102
RTVSPropertyOp30
 70
     1
102
RTVSPropertyOp31
 70
     1
102
RTVSPropertyOp32
 70
     1
  0
XRECORD
  5
CC
102
{ACAD_REACTORS
330
CB
102
}
330
CB
100
AcDbXrecord
280
     1
102
RTVSPropertyOp0
 70
     1
102
RTVSPropertyOp1
 70
     1
102
RTVSPropertyOp2
 70
     1
102
RTVSPropertyOp3
 70
     1
102
RTVSPropertyOp4
 70
     1
102
RTVSPropertyOp5
 70
     1
102
RTVSPropertyOp6
 70
     1
102
RTVSPropertyOp7
 70
     1
102
RTVSPropertyOp8
 70
     1
102
RTVSPropertyOp9
 70
     1
102
RTVSPropertyOp10
 70
     1
102
RTVSPropertyOp11
 70
     1
102
RTVSPropertyOp12
 70
     1
102
RTVSPropertyOp13
 70
     1
102
RTVSPropertyOp14
 70
     1
102
RTVSPropertyOp15
 70
     1
102
RTVSPropertyOp16
 70
     1
102
RTVSPropertyOp17
 70
     1
102
RTVSPropertyOp18
 70
     1
102
RTVSPropertyOp19
 70
     1
102
RTVSPropertyOp20
 70
     1
102
RTVSPropertyOp21
 70
     1
102
RTVSPropertyOp22
 70
     1
102
RTVSPropertyOp23
 70
     1
102
RTVSPropertyOp24
 70
     1
102
RTVSPropertyOp25
 70
     1
102
RTVSPropertyOp26
 70
     1
102
RTVSPropertyOp27
 70
     1
102
RTVSPropertyOp28
 70
     1
102
RTVSPropertyOp29
 70
     1
102
RTVSPropertyOp30
 70
     1
102
RTVSPropertyOp31
 70
     1
102
RTVSPropertyOp32
 70
     1
  0
XRECORD
  5
D4
102
{ACAD_REACTORS
330
D3
102
}
330
D3
100
AcDbXrecord
280
     1
102
RTVSPropertyOp0
 70
     1
102
RTVSPropertyOp1
 70
     1
102
RTVSPropertyOp2
 70
     1
102
RTVSPropertyOp3
 70
     1
102
RTVSPropertyOp4
 70
     1
102
RTVSPropertyOp5
 70
     1
102
RTVSPropertyOp6
 70
     1
102
RTVSPropertyOp7
 70
     1
102
RTVSPropertyOp8
 70
     1
102
RTVSPropertyOp9
 70
     1
102
RTVSPropertyOp10
 70
     1
102
RTVSPropertyOp11
 70
     1
102
RTVSPropertyOp12
 70
     1
102
RTVSPropertyOp13
 70
     1
102
RTVSPropertyOp14
 70
     1
102
RTVSPropertyOp15
 70
     1
102
RTVSPropertyOp16
 70
     1
102
RTVSPropertyOp17
 70
     1
102
RTVSPropertyOp18
 70
     1
102
RTVSPropertyOp19
 70
     1
102
RTVSPropertyOp20
 70
     1
102
RTVSPropertyOp21
 70
     1
102
RTVSPropertyOp22
 70
     1
102
RTVSPropertyOp23
 70
     1
102
RTVSPropertyOp24
 70
     1
102
RTVSPropertyOp25
 70
     1
102
RTVSPropertyOp26
 70
     1
102
RTVSPropertyOp27
 70
     1
102
RTVSPropertyOp28
 70
     1
102
RTVSPropertyOp29
 70
     1
102
RTVSPropertyOp30
 70
     1
102
RTVSPropertyOp31
 70
     1
102
RTVSPropertyOp32
 70
     1
  0
ENDSEC
  0
EOF
