  0
SECTION
  2
HEADER
  9
$ACADVER
  1
AC1021
  9
$ACADMAINTVER
 70
    25
  9
$DWGCODEPAGE
  3
ANSI_1252
  9
$INSBASE
 10
0.0
 20
0.0
 30
0.0
  9
$EXTMIN
 10
-28.4743
 20
-114.9969
 30
0.0
  9
$EXTMAX
 10
72.4662
 20
131.7033
 30
0.0
  9
$LIMMIN
 10
0.0
 20
0.0
  9
$LIMMAX
 10
12.0
 20
9.0
  9
$ORTHOMODE
 70
     0
  9
$REGENMODE
 70
     1
  9
$FILLMODE
 70
     1
  9
$QTEXTMODE
 70
     0
  9
$MIRRTEXT
 70
     1
  9
$LTSCALE
 40
1.0
  9
$ATTMODE
 70
     1
  9
$TEXTSIZE
 40
0.2
  9
$TRACEWID
 40
0.05
  9
$TEXTSTYLE
  7
Standard
  9
$CLAYER
  8
0
  9
$CELTYPE
  6
ByLayer
  9
$CECOLOR
 62
   256
  9
$CELTSCALE
 40
1.0
  9
$DISPSILH
 70
     0
  9
$DIMSCALE
 40
1.0
  9
$DIMASZ
 40
0.18
  9
$DIMEXO
 40
0.0625
  9
$DIMDLI
 40
0.38
  9
$DIMRND
 40
0.0
  9
$DIMDLE
 40
0.0
  9
$DIMEXE
 40
0.18
  9
$DIMTP
 40
0.0
  9
$DIMTM
 40
0.0
  9
$DIMTXT
 40
0.18
  9
$DIMCEN
 40
0.09
  9
$DIMTSZ
 40
0.0
  9
$DIMTOL
 70
     0
  9
$DIMLIM
 70
     0
  9
$DIMTIH
 70
     1
  9
$DIMTOH
 70
     1
  9
$DIMSE1
 70
     0
  9
$DIMSE2
 70
     0
  9
$DIMTAD
 70
     0
  9
$DIMZIN
 70
     0
  9
$DIMBLK
  1

  9
$DIMASO
 70
     1
  9
$DIMSHO
 70
     1
  9
$DIMPOST
  1

  9
$DIMAPOST
  1

  9
$DIMALT
 70
     0
  9
$DIMALTD
 70
     2
  9
$DIMALTF
 40
25.4
  9
$DIMLFAC
 40
1.0
  9
$DIMTOFL
 70
     0
  9
$DIMTVP
 40
0.0
  9
$DIMTIX
 70
     0
  9
$DIMSOXD
 70
     0
  9
$DIMSAH
 70
     0
  9
$DIMBLK1
  1

  9
$DIMBLK2
  1

  9
$DIMSTYLE
  2
Standard
  9
$DIMCLRD
 70
     0
  9
$DIMCLRE
 70
     0
  9
$DIMCLRT
 70
     0
  9
$DIMTFAC
 40
1.0
  9
$DIMGAP
 40
0.09
  9
$DIMJUST
 70
     0
  9
$DIMSD1
 70
     0
  9
$DIMSD2
 70
     0
  9
$DIMTOLJ
 70
     1
  9
$DIMTZIN
 70
     0
  9
$DIMALTZ
 70
     0
  9
$DIMALTTZ
 70
     0
  9
$DIMUPT
 70
     0
  9
$DIMDEC
 70
     4
  9
$DIMTDEC
 70
     4
  9
$DIMALTU
 70
     2
  9
$DIMALTTD
 70
     2
  9
$DIMTXSTY
  7
Standard
  9
$DIMAUNIT
 70
     0
  9
$DIMADEC
 70
     0
  9
$DIMALTRND
 40
0.0
  9
$DIMAZIN
 70
     0
  9
$DIMDSEP
 70
    46
  9
$DIMATFIT
 70
     3
  9
$DIMFRAC
 70
     0
  9
$DIMLDRBLK
  1

  9
$DIMLUNIT
 70
     2
  9
$DIMLWD
 70
    -2
  9
$DIMLWE
 70
    -2
  9
$DIMTMOVE
 70
     0
  9
$DIMFXL
 40
1.0
  9
$DIMFXLON
 70
     0
  9
$DIMJOGANG
 40
0.7853981633974483
  9
$DIMTFILL
 70
     0
  9
$DIMTFILLCLR
 70
     0
  9
$DIMARCSYM
 70
     0
  9
$DIMLTYPE
  6

  9
$DIMLTEX1
  6

  9
$DIMLTEX2
  6

  9
$LUNITS
 70
     2
  9
$LUPREC
 70
     4
  9
$SKETCHINC
 40
0.1
  9
$FILLETRAD
 40
0.5
  9
$AUNITS
 70
     0
  9
$AUPREC
 70
     0
  9
$MENU
  1
.
  9
$ELEVATION
 40
0.0
  9
$PELEVATION
 40
0.0
  9
$THICKNESS
 40
0.0
  9
$LIMCHECK
 70
     0
  9
$CHAMFERA
 40
0.5
  9
$CHAMFERB
 40
0.5
  9
$CHAMFERC
 40
1.0
  9
$CHAMFERD
 40
0.0
  9
$SKPOLY
 70
     0
  9
$TDCREATE
 40
2458493.66413691
  9
$TDUCREATE
 40
2458493.66413691
  9
$TDUPDATE
 40
2458493.664137164
  9
$TDUUPDATE
 40
2458493.664137164
  9
$TDINDWG
 40
0.0000000116
  9
$TDUSRTIMER
 40
0.0000000116
  9
$USRTIMER
 70
     1
  9
$ANGBASE
 50
0.0
  9
$ANGDIR
 70
     0
  9
$PDMODE
 70
     0
  9
$PDSIZE
 40
0.0
  9
$PLINEWID
 40
0.0
  9
$SPLFRAME
 70
     0
  9
$SPLINETYPE
 70
     6
  9
$SPLINESEGS
 70
     8
  9
$HANDSEED
  5
A5
  9
$SURFTAB1
 70
     6
  9
$SURFTAB2
 70
     6
  9
$SURFTYPE
 70
     6
  9
$SURFU
 70
     6
  9
$SURFV
 70
     6
  9
$UCSBASE
  2

  9
$UCSNAME
  2

  9
$UCSORG
 10
0.0
 20
0.0
 30
0.0
  9
$UCSXDIR
 10
1.0
 20
0.0
 30
0.0
  9
$UCSYDIR
 10
0.0
 20
1.0
 30
0.0
  9
$UCSORTHOREF
  2

  9
$UCSORTHOVIEW
 70
     0
  9
$UCSORGTOP
 10
0.0
 20
0.0
 30
0.0
  9
$UCSORGBOTTOM
 10
0.0
 20
0.0
 30
0.0
  9
$UCSORGLEFT
 10
0.0
 20
0.0
 30
0.0
  9
$UCSORGRIGHT
 10
0.0
 20
0.0
 30
0.0
  9
$UCSORGFRONT
 10
0.0
 20
0.0
 30
0.0
  9
$UCSORGBACK
 10
0.0
 20
0.0
 30
0.0
  9
$PUCSBASE
  2

  9
$PUCSNAME
  2

  9
$PUCSORG
 10
0.0
 20
0.0
 30
0.0
  9
$PUCSXDIR
 10
1.0
 20
0.0
 30
0.0
  9
$PUCSYDIR
 10
0.0
 20
1.0
 30
0.0
  9
$PUCSORTHOREF
  2

  9
$PUCSORTHOVIEW
 70
     0
  9
$PUCSORGTOP
 10
0.0
 20
0.0
 30
0.0
  9
$PUCSORGBOTTOM
 10
0.0
 20
0.0
 30
0.0
  9
$PUCSORGLEFT
 10
0.0
 20
0.0
 30
0.0
  9
$PUCSORGRIGHT
 10
0.0
 20
0.0
 30
0.0
  9
$PUCSORGFRONT
 10
0.0
 20
0.0
 30
0.0
  9
$PUCSORGBACK
 10
0.0
 20
0.0
 30
0.0
  9
$USERI1
 70
     0
  9
$USERI2
 70
     0
  9
$USERI3
 70
     0
  9
$USERI4
 70
     0
  9
$USERI5
 70
     0
  9
$USERR1
 40
0.0
  9
$USERR2
 40
0.0
  9
$USERR3
 40
0.0
  9
$USERR4
 40
0.0
  9
$USERR5
 40
0.0
  9
$WORLDVIEW
 70
     1
  9
$SHADEDGE
 70
     3
  9
$SHADEDIF
 70
    70
  9
$TILEMODE
 70
     1
  9
$MAXACTVP
 70
    64
  9
$PINSBASE
 10
0.0
 20
0.0
 30
0.0
  9
$PLIMCHECK
 70
     0
  9
$PEXTMIN
 10
1.000000000000000E+20
 20
1.000000000000000E+20
 30
1.000000000000000E+20
  9
$PEXTMAX
 10
-1.000000000000000E+20
 20
-1.000000000000000E+20
 30
-1.000000000000000E+20
  9
$PLIMMIN
 10
0.0
 20
0.0
  9
$PLIMMAX
 10
12.0
 20
9.0
  9
$UNITMODE
 70
     0
  9
$VISRETAIN
 70
     1
  9
$PLINEGEN
 70
     0
  9
$PSLTSCALE
 70
     1
  9
$TREEDEPTH
 70
  3020
  9
$CMLSTYLE
  2
Standard
  9
$CMLJUST
 70
     0
  9
$CMLSCALE
 40
1.0
  9
$PROXYGRAPHICS
 70
     1
  9
$MEASUREMENT
 70
     0
  9
$CELWEIGHT
370
    -1
  9
$ENDCAPS
280
     0
  9
$JOINSTYLE
280
     0
  9
$LWDISPLAY
290
     0
  9
$INSUNITS
 70
     4
  9
$HYPERLINKBASE
  1

  9
$STYLESHEET
  1

  9
$XEDIT
290
     1
  9
$CEPSNTYPE
380
     0
  9
$PSTYLEMODE
290
     1
  9
$FINGERPRINTGUID
  2
{50EBA19C-4D29-422F-B19B-37292291F3CE}
  9
$VERSIONGUID
  2
{FAEB1C32-E019-11D5-929B-00C0DF256EC4}
  9
$EXTNAMES
290
     1
  9
$PSVPSCALE
 40
0.0
  9
$OLESTARTUP
290
     0
  9
$SORTENTS
280
   127
  9
$INDEXCTL
280
     0
  9
$HIDETEXT
280
     1
  9
$XCLIPFRAME
290
     0
  9
$HALOGAP
280
     0
  9
$OBSCOLOR
 70
   257
  9
$OBSLTYPE
280
     0
  9
$INTERSECTIONDISPLAY
280
     0
  9
$INTERSECTIONCOLOR
 70
   257
  9
$DIMASSOC
280
     2
  9
$PROJECTNAME
  1

  9
$CAMERADISPLAY
290
     0
  9
$LENSLENGTH
 40
50.0
  9
$CAMERAHEIGHT
 40
0.0
  9
$STEPSPERSEC
 40
2.0
  9
$STEPSIZE
 40
6.0
  9
$3DDWFPREC
 40
2.0
  9
$PSOLWIDTH
 40
0.25
  9
$PSOLHEIGHT
 40
4.0
  9
$LOFTANG1
 40
1.570796326794897
  9
$LOFTANG2
 40
1.570796326794897
  9
$LOFTMAG1
 40
0.0
  9
$LOFTMAG2
 40
0.0
  9
$LOFTPARAM
 70
     7
  9
$LOFTNORMALS
280
     1
  9
$LATITUDE
 40
37.795
  9
$LONGITUDE
 40
-122.394
  9
$NORTHDIRECTION
 40
0.0
  9
$TIMEZONE
 70
 -8000
  9
$LIGHTGLYPHDISPLAY
280
     1
  9
$TILEMODELIGHTSYNCH
280
     1
  9
$SOLIDHIST
280
     1
  9
$SHOWHIST
280
     1
  9
$DWFFRAME
280
     2
  9
$DGNFRAME
280
     2
  9
$REALWORLDSCALE
290
     1
  9
$INTERFERECOLOR
 62
   256
  9
$CSHADOW
280
     0
  9
$SHADOWPLANELOCATION
 40
0.0
  0
ENDSEC
  0
SECTION
  2
CLASSES
  0
CLASS
  1
ACDBDICTIONARYWDFLT
  2
AcDbDictionaryWithDefault
  3
ObjectDBX Classes
 90
        0
 91
        4
280
     0
281
     0
  0
CLASS
  1
VISUALSTYLE
  2
AcDbVisualStyle
  3
ObjectDBX Classes
 90
     4095
 91
        4
280
     0
281
     0
  0
CLASS
  1
MATERIAL
  2
AcDbMaterial
  3
ObjectDBX Classes
 90
     1153
 91
        4
280
     0
281
     0
  0
ENDSEC
  0
SECTION
  2
TABLES
  0
TABLE
  2
VPORT
  5
8
330
0
100
AcDbSymbolTable
 70
     1
  0
VPORT
  5
29
330
8
100
AcDbSymbolTableRecord
100
AcDbViewportTableRecord
  2
*Active
 70
     0
 10
0.0
 20
0.0
 11
1.0
 21
1.0
 12
10.42990654205607
 22
4.5
 13
0.0
 23
0.0
 14
0.5
 24
0.5
 15
0.5
 25
0.5
 16
0.0
 26
0.0
 36
1.0
 17
0.0
 27
0.0
 37
0.0
 40
9.0
 41
1.972972972850329
 42
50.0
 43
0.0
 44
0.0
 50
0.0
 51
0.0
 71
     0
 72
   100
 73
     1
 74
     3
 75
     0
 76
     0
 77
     0
 78
     0
281
     0
 65
     1
110
0.0
120
0.0
130
0.0
111
1.0
121
0.0
131
0.0
112
0.0
122
1.0
132
0.0
 79
     0
146
0.0
 60
     3
 61
     5
292
     1
282
     1
141
0.0
142
0.0
 63
   250
  0
ENDTAB
  0
TABLE
  2
LTYPE
  5
5
330
0
100
AcDbSymbolTable
 70
     1
  0
LTYPE
  5
14
330
5
100
AcDbSymbolTableRecord
100
AcDbLinetypeTableRecord
  2
ByBlock
 70
     0
  3

 72
    65
 73
     0
 40
0.0
  0
LTYPE
  5
15
330
5
100
AcDbSymbolTableRecord
100
AcDbLinetypeTableRecord
  2
ByLayer
 70
     0
  3

 72
    65
 73
     0
 40
0.0
  0
LTYPE
  5
16
330
5
100
AcDbSymbolTableRecord
100
AcDbLinetypeTableRecord
  2
Continuous
 70
     0
  3
Solid line
 72
    65
 73
     0
 40
0.0
  0
ENDTAB
  0
TABLE
  2
LAYER
  5
2
330
0
100
AcDbSymbolTable
 70
     3
  0
LAYER
  5
10
330
2
100
AcDbSymbolTableRecord
100
AcDbLayerTableRecord
  2
0
 70
     0
 62
     7
  6
Continuous
370
    -3
390
F
347
3E
  0
LAYER
  5
40
330
2
100
AcDbSymbolTableRecord
100
AcDbLayerTableRecord
  2
layer 1
 70
     0
 62
     7
  6
Continuous
370
    -3
390
F
347
3E
  0
LAYER
  5
82
330
2
100
AcDbSymbolTableRecord
100
AcDbLayerTableRecord
  2
Master Guides
 70
     0
 62
     7
  6
Continuous
370
    -3
390
F
347
3E
  0
ENDTAB
  0
TABLE
  2
STYLE
  5
3
330
0
100
AcDbSymbolTable
 70
     1
  0
STYLE
  5
11
330
3
100
AcDbSymbolTableRecord
100
AcDbTextStyleTableRecord
  2
Standard
 70
     0
 40
0.0
 41
1.0
 50
0.0
 71
     0
 42
0.2
  3
txt
  4

  0
ENDTAB
  0
TABLE
  2
VIEW
  5
6
330
0
100
AcDbSymbolTable
 70
     0
  0
ENDTAB
  0
TABLE
  2
UCS
  5
7
330
0
100
AcDbSymbolTable
 70
     0
  0
ENDTAB
  0
TABLE
  2
APPID
  5
9
330
0
100
AcDbSymbolTable
 70
     2
  0
APPID
  5
12
330
9
100
AcDbSymbolTableRecord
100
AcDbRegAppTableRecord
  2
ACAD
 70
     0
  0
APPID
  5
3F
330
9
100
AcDbSymbolTableRecord
100
AcDbRegAppTableRecord
  2
ODA
 70
     0
  0
ENDTAB
  0
TABLE
  2
DIMSTYLE
  5
A
330
0
100
AcDbSymbolTable
 70
     1
100
AcDbDimStyleTable
  0
DIMSTYLE
105
27
330
A
100
AcDbSymbolTableRecord
100
AcDbDimStyleTableRecord
  2
Standard
 70
     0
178
     0
340
11
  0
ENDTAB
  0
TABLE
  2
BLOCK_RECORD
  5
1
330
0
100
AcDbSymbolTable
 70
     1
  0
BLOCK_RECORD
  5
1F
330
1
100
AcDbSymbolTableRecord
100
AcDbBlockTableRecord
  2
*Model_Space
340
22
 70
     0
280
     1
281
     0
  0
BLOCK_RECORD
  5
1B
330
1
100
AcDbSymbolTableRecord
100
AcDbBlockTableRecord
  2
*Paper_Space
340
1E
 70
     0
280
     1
281
     0
  0
BLOCK_RECORD
  5
23
330
1
100
AcDbSymbolTableRecord
100
AcDbBlockTableRecord
  2
*Paper_Space0
340
26
 70
     0
280
     1
281
     0
  0
ENDTAB
  0
ENDSEC
  0
SECTION
  2
BLOCKS
  0
BLOCK
  5
20
330
1F
100
AcDbEntity
  8
0
100
AcDbBlockBegin
  2
*Model_Space
 70
     0
 10
0.0
 20
0.0
 30
0.0
  3
*Model_Space
  1

  0
ENDBLK
  5
21
330
1F
100
AcDbEntity
  8
0
100
AcDbBlockEnd
  0
BLOCK
  5
1C
330
1B
100
AcDbEntity
 67
     1
  8
0
100
AcDbBlockBegin
  2
*Paper_Space
 70
     0
 10
0.0
 20
0.0
 30
0.0
  3
*Paper_Space
  1

  0
ENDBLK
  5
1D
330
1B
100
AcDbEntity
 67
     1
  8
0
100
AcDbBlockEnd
  0
BLOCK
  5
24
330
23
100
AcDbEntity
  8
0
100
AcDbBlockBegin
  2
*Paper_Space0
 70
     0
 10
0.0
 20
0.0
 30
0.0
  3
*Paper_Space0
  1

  0
ENDBLK
  5
25
330
23
100
AcDbEntity
  8
0
100
AcDbBlockEnd
  0
ENDSEC
  0
SECTION
  2
ENTITIES
  0
SPLINE
  5
41
330
1F
100
AcDbEntity
  8
layer 1
100
AcDbSpline
210
0.0
220
0.0
230
1.0
 70
    11
 71
     3
 72
    20
 73
    16
 74
     0
 42
0.0000000001
 43
0.0000000001
 12
1.0
 22
0.0
 32
0.0
 13
1.0
 23
0.0
 33
0.0
 40
0.0
 40
0.0
 40
0.0
 40
0.0
 40
0.2
 40
0.2
 40
0.2
 40
0.2
 40
0.4
 40
0.4
 40
0.4
 40
0.4
 40
0.6
 40
0.6
 40
0.6
 40
0.6
 40
1.0
 40
1.0
 40
1.0
 40
1.0
 10
72.4662
 20
-114.9969
 30
0.0
 10
72.4662
 20
-114.9969
 30
0.0
 10
72.4662
 20
131.7033
 30
0.0
 10
72.4662
 20
131.7033
 30
0.0
 10
72.4662
 20
131.7033
 30
0.0
 10
72.4662
 20
131.7033
 30
0.0
 10
-28.4743
 20
131.7033
 30
0.0
 10
-28.4743
 20
131.7033
 30
0.0
 10
-28.4743
 20
131.7033
 30
0.0
 10
-28.4743
 20
131.7033
 30
0.0
 10
-28.4743
 20
-114.9969
 30
0.0
 10
-28.4743
 20
-114.9969
 30
0.0
 10
-28.4743
 20
-114.9969
 30
0.0
 10
-28.4743
 20
-114.9969
 30
0.0
 10
72.4662
 20
-114.9969
 30
0.0
 10
72.4662
 20
-114.9969
 30
0.0
  0
SPLINE
  5
42
330
1F
100
AcDbEntity
  8
layer 1
 62
     7
100
AcDbSpline
210
0.0
220
0.0
230
1.0
 70
    11
 71
     3
 72
    40
 73
    36
 74
     0
 42
0.0000000001
 43
0.0000000001
 12
1.0
 22
0.0
 32
0.0
 13
1.0
 23
0.0
 33
0.0
 40
0.0
 40
0.0
 40
0.0
 40
0.0
 40
0.1
 40
0.1
 40
0.1
 40
0.1
 40
0.2
 40
0.2
 40
0.2
 40
0.2
 40
0.3
 40
0.3
 40
0.3
 40
0.3
 40
0.4
 40
0.4
 40
0.4
 40
0.4
 40
0.5
 40
0.5
 40
0.5
 40
0.5
 40
0.6
 40
0.6
 40
0.6
 40
0.6
 40
0.7
 40
0.7
 40
0.7
 40
0.7
 40
0.8
 40
0.8
 40
0.8
 40
0.8
 40
1.0
 40
1.0
 40
1.0
 40
1.0
 10
55.554
 20
59.6126
 30
0.0
 10
50.5307
 20
58.5087
 30
0.0
 10
50.2458
 20
63.566
 30
0.0
 10
51.7627
 20
66.9873
 30
0.0
 10
51.7627
 20
66.9873
 30
0.0
 10
42.8048
 20
65.7904
 30
0.0
 10
37.8078
 20
72.0403
 30
0.0
 10
36.4922
 20
76.7064
 30
0.0
 10
36.4922
 20
76.7064
 30
0.0
 10
26.477
 20
82.1803
 30
0.0
 10
35.3519
 20
90.1395
 30
0.0
 10
38.1707
 20
94.474
 30
0.0
 10
38.1707
 20
94.474
 30
0.0
 10
38.1707
 20
94.474
 30
0.0
 10
30.4462
 20
89.5128
 30
0.0
 10
26.533
 20
72.5772
 30
0.0
 10
26.533
 20
72.5772
 30
0.0
 10
36.4869
 20
71.3834
 30
0.0
 10
46.3885
 20
63.1732
 30
0.0
 10
49.8654
 20
57.8547
 30
0.0
 10
49.8654
 20
57.8547
 30
0.0
 10
52.8952
 20
57.2348
 30
0.0
 10
56.3284
 20
57.507
 30
0.0
 10
58.097
 20
59.5572
 30
0.0
 10
58.097
 20
59.5572
 30
0.0
 10
60.7279
 20
63.753
 30
0.0
 10
55.8521
 20
65.3546
 30
0.0
 10
54.7971
 20
63.0928
 30
0.0
 10
54.7971
 20
63.0928
 30
0.0
 10
54.7311
 20
63.0497
 30
0.0
 10
53.9051
 20
61.8142
 30
0.0
 10
55.5538
 20
59.6124
 30
0.0
 10
55.5538
 20
59.6124
 30
0.0
 10
55.5538
 20
59.6124
 30
0.0
 10
55.554
 20
59.6126
 30
0.0
 10
55.554
 20
59.6126
 30
0.0
  0
SPLINE
  5
43
330
1F
100
AcDbEntity
  8
layer 1
 62
     7
100
AcDbSpline
210
0.0
220
0.0
230
1.0
 70
    11
 71
     3
 72
    24
 73
    20
 74
     0
 42
0.0000000001
 43
0.0000000001
 12
1.0
 22
0.0
 32
0.0
 13
1.0
 23
0.0
 33
0.0
 40
0.0
 40
0.0
 40
0.0
 40
0.0
 40
0.1666666666666667
 40
0.1666666666666667
 40
0.1666666666666667
 40
0.1666666666666667
 40
0.3333333333333333
 40
0.3333333333333333
 40
0.3333333333333333
 40
0.3333333333333333
 40
0.5
 40
0.5
 40
0.5
 40
0.5
 40
0.6666666666666666
 40
0.6666666666666666
 40
0.6666666666666666
 40
0.6666666666666666
 40
1.0
 40
1.0
 40
1.0
 40
1.0
 10
65.0194
 20
44.6395
 30
0.0
 10
65.0194
 20
44.6395
 30
0.0
 10
65.0194
 20
79.8065
 30
0.0
 10
65.0194
 20
79.8065
 30
0.0
 10
65.0194
 20
79.8065
 30
0.0
 10
64.4413
 20
76.223
 30
0.0
 10
62.1756
 20
71.8217
 30
0.0
 10
58.6623
 20
69.6285
 30
0.0
 10
58.6623
 20
69.6285
 30
0.0
 10
62.515
 20
68.9028
 30
0.0
 10
68.8783
 20
60.8189
 30
0.0
 10
57.3989
 20
54.8816
 30
0.0
 10
57.3989
 20
54.8816
 30
0.0
 10
60.9915
 20
53.3219
 30
0.0
 10
64.1891
 20
48.2462
 30
0.0
 10
65.0192
 20
44.6395
 30
0.0
 10
65.0192
 20
44.6395
 30
0.0
 10
65.0192
 20
44.6395
 30
0.0
 10
65.0194
 20
44.6395
 30
0.0
 10
65.0194
 20
44.6395
 30
0.0
  0
SPLINE
  5
44
330
1F
100
AcDbEntity
  8
layer 1
 62
     7
100
AcDbSpline
210
0.0
220
0.0
230
1.0
 70
    11
 71
     3
 72
    40
 73
    36
 74
     0
 42
0.0000000001
 43
0.0000000001
 12
1.0
 22
0.0
 32
0.0
 13
1.0
 23
0.0
 33
0.0
 40
0.0
 40
0.0
 40
0.0
 40
0.0
 40
0.1
 40
0.1
 40
0.1
 40
0.1
 40
0.2
 40
0.2
 40
0.2
 40
0.2
 40
0.3
 40
0.3
 40
0.3
 40
0.3
 40
0.4
 40
0.4
 40
0.4
 40
0.4
 40
0.5
 40
0.5
 40
0.5
 40
0.5
 40
0.6
 40
0.6
 40
0.6
 40
0.6
 40
0.7
 40
0.7
 40
0.7
 40
0.7
 40
0.8
 40
0.8
 40
0.8
 40
0.8
 40
1.0
 40
1.0
 40
1.0
 40
1.0
 10
-13.202
 20
59.6126
 30
0.0
 10
-8.1787
 20
58.5087
 30
0.0
 10
-7.8939
 20
63.566
 30
0.0
 10
-9.4107
 20
66.9873
 30
0.0
 10
-9.4107
 20
66.9873
 30
0.0
 10
-0.4529
 20
65.7904
 30
0.0
 10
4.5442
 20
72.0403
 30
0.0
 10
5.8598
 20
76.7064
 30
0.0
 10
5.8598
 20
76.7064
 30
0.0
 10
15.8749
 20
82.1803
 30
0.0
 10
7.0001
 20
90.1395
 30
0.0
 10
4.1813
 20
94.474
 30
0.0
 10
4.1813
 20
94.474
 30
0.0
 10
4.1813
 20
94.474
 30
0.0
 10
11.9057
 20
89.5128
 30
0.0
 10
15.819
 20
72.5772
 30
0.0
 10
15.819
 20
72.5772
 30
0.0
 10
5.8651
 20
71.3834
 30
0.0
 10
-4.0365
 20
63.1732
 30
0.0
 10
-7.5134
 20
57.8547
 30
0.0
 10
-7.5134
 20
57.8547
 30
0.0
 10
-10.5432
 20
57.2348
 30
0.0
 10
-13.9764
 20
57.507
 30
0.0
 10
-15.745
 20
59.5572
 30
0.0
 10
-15.745
 20
59.5572
 30
0.0
 10
-18.376
 20
63.753
 30
0.0
 10
-13.5001
 20
65.3546
 30
0.0
 10
-12.4452
 20
63.0928
 30
0.0
 10
-12.4452
 20
63.0928
 30
0.0
 10
-12.3791
 20
63.0497
 30
0.0
 10
-11.5531
 20
61.8142
 30
0.0
 10
-13.2018
 20
59.6124
 30
0.0
 10
-13.2018
 20
59.6124
 30
0.0
 10
-13.2018
 20
59.6124
 30
0.0
 10
-13.202
 20
59.6126
 30
0.0
 10
-13.202
 20
59.6126
 30
0.0
  0
SPLINE
  5
45
330
1F
100
AcDbEntity
  8
layer 1
 62
     7
100
AcDbSpline
210
0.0
220
0.0
230
1.0
 70
    11
 71
     3
 72
    24
 73
    20
 74
     0
 42
0.0000000001
 43
0.0000000001
 12
1.0
 22
0.0
 32
0.0
 13
1.0
 23
0.0
 33
0.0
 40
0.0
 40
0.0
 40
0.0
 40
0.0
 40
0.1666666666666667
 40
0.1666666666666667
 40
0.1666666666666667
 40
0.1666666666666667
 40
0.3333333333333333
 40
0.3333333333333333
 40
0.3333333333333333
 40
0.3333333333333333
 40
0.5
 40
0.5
 40
0.5
 40
0.5
 40
0.6666666666666666
 40
0.6666666666666666
 40
0.6666666666666666
 40
0.6666666666666666
 40
1.0
 40
1.0
 40
1.0
 40
1.0
 10
-22.6676
 20
44.6395
 30
0.0
 10
-22.6676
 20
44.6395
 30
0.0
 10
-22.6676
 20
79.8065
 30
0.0
 10
-22.6676
 20
79.8065
 30
0.0
 10
-22.6676
 20
79.8065
 30
0.0
 10
-22.0896
 20
76.223
 30
0.0
 10
-19.8239
 20
71.8217
 30
0.0
 10
-16.3105
 20
69.6285
 30
0.0
 10
-16.3105
 20
69.6285
 30
0.0
 10
-20.1632
 20
68.9028
 30
0.0
 10
-26.5265
 20
60.8189
 30
0.0
 10
-15.0471
 20
54.8816
 30
0.0
 10
-15.0471
 20
54.8816
 30
0.0
 10
-18.6398
 20
53.3219
 30
0.0
 10
-21.8373
 20
48.2462
 30
0.0
 10
-22.6674
 20
44.6395
 30
0.0
 10
-22.6674
 20
44.6395
 30
0.0
 10
-22.6674
 20
44.6395
 30
0.0
 10
-22.6676
 20
44.6395
 30
0.0
 10
-22.6676
 20
44.6395
 30
0.0
  0
SPLINE
  5
46
330
1F
100
AcDbEntity
  8
layer 1
 62
     7
100
AcDbSpline
210
0.0
220
0.0
230
1.0
 70
    11
 71
     3
 72
    40
 73
    36
 74
     0
 42
0.0000000001
 43
0.0000000001
 12
1.0
 22
0.0
 32
0.0
 13
1.0
 23
0.0
 33
0.0
 40
0.0
 40
0.0
 40
0.0
 40
0.0
 40
0.1
 40
0.1
 40
0.1
 40
0.1
 40
0.2
 40
0.2
 40
0.2
 40
0.2
 40
0.3
 40
0.3
 40
0.3
 40
0.3
 40
0.4
 40
0.4
 40
0.4
 40
0.4
 40
0.5
 40
0.5
 40
0.5
 40
0.5
 40
0.6
 40
0.6
 40
0.6
 40
0.6
 40
0.7
 40
0.7
 40
0.7
 40
0.7
 40
0.8
 40
0.8
 40
0.8
 40
0.8
 40
1.0
 40
1.0
 40
1.0
 40
1.0
 10
55.554
 20
-43.259
 30
0.0
 10
50.5307
 20
-42.1552
 30
0.0
 10
50.2458
 20
-47.2124
 30
0.0
 10
51.7627
 20
-50.6338
 30
0.0
 10
51.7627
 20
-50.6338
 30
0.0
 10
42.8048
 20
-49.4368
 30
0.0
 10
37.8078
 20
-55.6867
 30
0.0
 10
36.4922
 20
-60.3528
 30
0.0
 10
36.4922
 20
-60.3528
 30
0.0
 10
26.477
 20
-65.8268
 30
0.0
 10
35.3519
 20
-73.786
 30
0.0
 10
38.1707
 20
-78.1205
 30
0.0
 10
38.1707
 20
-78.1205
 30
0.0
 10
38.1707
 20
-78.1205
 30
0.0
 10
30.4462
 20
-73.1593
 30
0.0
 10
26.533
 20
-56.2237
 30
0.0
 10
26.533
 20
-56.2237
 30
0.0
 10
36.4869
 20
-55.0298
 30
0.0
 10
46.3885
 20
-46.8197
 30
0.0
 10
49.8654
 20
-41.5012
 30
0.0
 10
49.8654
 20
-41.5012
 30
0.0
 10
52.8952
 20
-40.8813
 30
0.0
 10
56.3284
 20
-41.1534
 30
0.0
 10
58.097
 20
-43.2037
 30
0.0
 10
58.097
 20
-43.2037
 30
0.0
 10
60.7279
 20
-47.3994
 30
0.0
 10
55.8521
 20
-49.001
 30
0.0
 10
54.7971
 20
-46.7392
 30
0.0
 10
54.7971
 20
-46.7392
 30
0.0
 10
54.7311
 20
-46.6961
 30
0.0
 10
53.9051
 20
-45.4606
 30
0.0
 10
55.5538
 20
-43.2588
 30
0.0
 10
55.5538
 20
-43.2588
 30
0.0
 10
55.5538
 20
-43.2588
 30
0.0
 10
55.554
 20
-43.259
 30
0.0
 10
55.554
 20
-43.259
 30
0.0
  0
SPLINE
  5
47
330
1F
100
AcDbEntity
  8
layer 1
 62
     7
100
AcDbSpline
210
0.0
220
0.0
230
1.0
 70
    11
 71
     3
 72
    24
 73
    20
 74
     0
 42
0.0000000001
 43
0.0000000001
 12
1.0
 22
0.0
 32
0.0
 13
1.0
 23
0.0
 33
0.0
 40
0.0
 40
0.0
 40
0.0
 40
0.0
 40
0.1666666666666667
 40
0.1666666666666667
 40
0.1666666666666667
 40
0.1666666666666667
 40
0.3333333333333333
 40
0.3333333333333333
 40
0.3333333333333333
 40
0.3333333333333333
 40
0.5
 40
0.5
 40
0.5
 40
0.5
 40
0.6666666666666666
 40
0.6666666666666666
 40
0.6666666666666666
 40
0.6666666666666666
 40
1.0
 40
1.0
 40
1.0
 40
1.0
 10
65.0194
 20
-28.286
 30
0.0
 10
65.0194
 20
-28.286
 30
0.0
 10
65.0194
 20
-63.4529
 30
0.0
 10
65.0194
 20
-63.4529
 30
0.0
 10
65.0194
 20
-63.4529
 30
0.0
 10
64.4413
 20
-59.8695
 30
0.0
 10
62.1756
 20
-55.4682
 30
0.0
 10
58.6623
 20
-53.2749
 30
0.0
 10
58.6623
 20
-53.2749
 30
0.0
 10
62.515
 20
-52.5492
 30
0.0
 10
68.8783
 20
-44.4653
 30
0.0
 10
57.3989
 20
-38.5281
 30
0.0
 10
57.3989
 20
-38.5281
 30
0.0
 10
60.9915
 20
-36.9684
 30
0.0
 10
64.1891
 20
-31.8926
 30
0.0
 10
65.0192
 20
-28.286
 30
0.0
 10
65.0192
 20
-28.286
 30
0.0
 10
65.0192
 20
-28.286
 30
0.0
 10
65.0194
 20
-28.286
 30
0.0
 10
65.0194
 20
-28.286
 30
0.0
  0
SPLINE
  5
48
330
1F
100
AcDbEntity
  8
layer 1
 62
     7
100
AcDbSpline
210
0.0
220
0.0
230
1.0
 70
    11
 71
     3
 72
    36
 73
    32
 74
     0
 42
0.0000000001
 43
0.0000000001
 12
1.0
 22
0.0
 32
0.0
 13
1.0
 23
0.0
 33
0.0
 40
0.0
 40
0.0
 40
0.0
 40
0.0
 40
0.1111111111111111
 40
0.1111111111111111
 40
0.1111111111111111
 40
0.1111111111111111
 40
0.2222222222222222
 40
0.2222222222222222
 40
0.2222222222222222
 40
0.2222222222222222
 40
0.3333333333333333
 40
0.3333333333333333
 40
0.3333333333333333
 40
0.3333333333333333
 40
0.4444444444444444
 40
0.4444444444444444
 40
0.4444444444444444
 40
0.4444444444444444
 40
0.5555555555555556
 40
0.5555555555555556
 40
0.5555555555555556
 40
0.5555555555555556
 40
0.6666666666666666
 40
0.6666666666666666
 40
0.6666666666666666
 40
0.6666666666666666
 40
0.7777777777777778
 40
0.7777777777777778
 40
0.7777777777777778
 40
0.7777777777777778
 40
1.0
 40
1.0
 40
1.0
 40
1.0
 10
45.1929
 20
-79.5214
 30
0.0
 10
54.962
 20
-80.5518
 30
0.0
 10
59.4344
 20
-71.0182
 30
0.0
 10
59.3177
 20
-67.7708
 30
0.0
 10
59.3177
 20
-67.7708
 30
0.0
 10
59.4137
 20
-61.264
 30
0.0
 10
56.9093
 20
-58.6154
 30
0.0
 10
53.7773
 20
-57.0822
 30
0.0
 10
53.7773
 20
-57.0822
 30
0.0
 10
44.0501
 20
-53.6057
 30
0.0
 10
43.1592
 20
-62.1104
 30
0.0
 10
43.9562
 20
-63.6425
 30
0.0
 10
43.9562
 20
-63.6425
 30
0.0
 10
45.3372
 20
-67.7367
 30
0.0
 10
49.4186
 20
-65.7286
 30
0.0
 10
46.5379
 20
-63.8346
 30
0.0
 10
46.5379
 20
-63.8346
 30
0.0
 10
53.1498
 20
-57.8276
 30
0.0
 10
58.3379
 20
-68.2536
 30
0.0
 10
53.4461
 20
-72.8207
 30
0.0
 10
53.4461
 20
-72.8207
 30
0.0
 10
52.841
 20
-73.7749
 30
0.0
 10
47.1379
 20
-78.0739
 30
0.0
 10
39.6104
 20
-72.8602
 30
0.0
 10
39.6104
 20
-72.8602
 30
0.0
 10
41.5021
 20
-75.7992
 30
0.0
 10
43.1019
 20
-77.9675
 30
0.0
 10
45.1929
 20
-79.5212
 30
0.0
 10
45.1929
 20
-79.5212
 30
0.0
 10
45.1929
 20
-79.5212
 30
0.0
 10
45.1929
 20
-79.5214
 30
0.0
 10
45.1929
 20
-79.5214
 30
0.0
  0
SPLINE
  5
49
330
1F
100
AcDbEntity
  8
layer 1
 62
     7
100
AcDbSpline
210
0.0
220
0.0
230
1.0
 70
    11
 71
     3
 72
    36
 73
    32
 74
     0
 42
0.0000000001
 43
0.0000000001
 12
1.0
 22
0.0
 32
0.0
 13
1.0
 23
0.0
 33
0.0
 40
0.0
 40
0.0
 40
0.0
 40
0.0
 40
0.1111111111111111
 40
0.1111111111111111
 40
0.1111111111111111
 40
0.1111111111111111
 40
0.2222222222222222
 40
0.2222222222222222
 40
0.2222222222222222
 40
0.2222222222222222
 40
0.3333333333333333
 40
0.3333333333333333
 40
0.3333333333333333
 40
0.3333333333333333
 40
0.4444444444444444
 40
0.4444444444444444
 40
0.4444444444444444
 40
0.4444444444444444
 40
0.5555555555555556
 40
0.5555555555555556
 40
0.5555555555555556
 40
0.5555555555555556
 40
0.6666666666666666
 40
0.6666666666666666
 40
0.6666666666666666
 40
0.6666666666666666
 40
0.7777777777777778
 40
0.7777777777777778
 40
0.7777777777777778
 40
0.7777777777777778
 40
1.0
 40
1.0
 40
1.0
 40
1.0
 10
35.0638
 20
-66.9734
 30
0.0
 10
34.8777
 20
-65.5168
 30
0.0
 10
36.1851
 20
-64.7975
 30
0.0
 10
36.4524
 20
-66.5482
 30
0.0
 10
36.4524
 20
-66.5482
 30
0.0
 10
39.4016
 20
-74.6379
 30
0.0
 10
47.856
 20
-77.6747
 30
0.0
 10
53.3021
 20
-72.6956
 30
0.0
 10
53.3021
 20
-72.6956
 30
0.0
 10
58.1938
 20
-68.1283
 30
0.0
 10
53.0058
 20
-57.7025
 30
0.0
 10
46.3939
 20
-63.7095
 30
0.0
 10
46.3939
 20
-63.7095
 30
0.0
 10
49.2747
 20
-65.6033
 30
0.0
 10
45.1933
 20
-67.6115
 30
0.0
 10
43.8122
 20
-63.5174
 30
0.0
 10
43.8122
 20
-63.5174
 30
0.0
 10
43.0152
 20
-61.9854
 30
0.0
 10
43.9061
 20
-53.4806
 30
0.0
 10
53.6333
 20
-56.9571
 30
0.0
 10
53.6333
 20
-56.9571
 30
0.0
 10
56.7654
 20
-58.4902
 30
0.0
 10
59.2696
 20
-61.1389
 30
0.0
 10
59.1737
 20
-67.6458
 30
0.0
 10
59.1737
 20
-67.6458
 30
0.0
 10
59.2904
 20
-70.893
 30
0.0
 10
54.818
 20
-80.4267
 30
0.0
 10
45.0489
 20
-79.3961
 30
0.0
 10
45.0489
 20
-79.3961
 30
0.0
 10
40.8528
 20
-76.7082
 30
0.0
 10
37.891
 20
-73.2423
 30
0.0
 10
35.0638
 20
-66.9734
 30
0.0
  0
SPLINE
  5
4A
330
1F
100
AcDbEntity
  8
layer 1
 62
     7
100
AcDbSpline
210
0.0
220
0.0
230
1.0
 70
    11
 71
     3
 72
    36
 73
    32
 74
     0
 42
0.0000000001
 43
0.0000000001
 12
1.0
 22
0.0
 32
0.0
 13
1.0
 23
0.0
 33
0.0
 40
0.0
 40
0.0
 40
0.0
 40
0.0
 40
0.1111111111111111
 40
0.1111111111111111
 40
0.1111111111111111
 40
0.1111111111111111
 40
0.2222222222222222
 40
0.2222222222222222
 40
0.2222222222222222
 40
0.2222222222222222
 40
0.3333333333333333
 40
0.3333333333333333
 40
0.3333333333333333
 40
0.3333333333333333
 40
0.4444444444444444
 40
0.4444444444444444
 40
0.4444444444444444
 40
0.4444444444444444
 40
0.5555555555555556
 40
0.5555555555555556
 40
0.5555555555555556
 40
0.5555555555555556
 40
0.6666666666666666
 40
0.6666666666666666
 40
0.6666666666666666
 40
0.6666666666666666
 40
0.7777777777777778
 40
0.7777777777777778
 40
0.7777777777777778
 40
0.7777777777777778
 40
1.0
 40
1.0
 40
1.0
 40
1.0
 10
7.131
 20
-67.0839
 30
0.0
 10
7.317
 20
-65.6273
 30
0.0
 10
6.0096
 20
-64.908
 30
0.0
 10
5.7423
 20
-66.6586
 30
0.0
 10
5.7423
 20
-66.6586
 30
0.0
 10
2.7932
 20
-74.7484
 30
0.0
 10
-5.6613
 20
-77.7852
 30
0.0
 10
-11.1074
 20
-72.8061
 30
0.0
 10
-11.1074
 20
-72.8061
 30
0.0
 10
-15.999
 20
-68.2388
 30
0.0
 10
-10.8111
 20
-57.813
 30
0.0
 10
-4.1992
 20
-63.8199
 30
0.0
 10
-4.1992
 20
-63.8199
 30
0.0
 10
-7.0799
 20
-65.7138
 30
0.0
 10
-2.9985
 20
-67.7219
 30
0.0
 10
-1.6175
 20
-63.6279
 30
0.0
 10
-1.6175
 20
-63.6279
 30
0.0
 10
-0.8205
 20
-62.0958
 30
0.0
 10
-1.7114
 20
-53.5911
 30
0.0
 10
-11.4386
 20
-57.0676
 30
0.0
 10
-11.4386
 20
-57.0676
 30
0.0
 10
-14.5706
 20
-58.6006
 30
0.0
 10
-17.0748
 20
-61.2493
 30
0.0
 10
-16.9789
 20
-67.7562
 30
0.0
 10
-16.9789
 20
-67.7562
 30
0.0
 10
-17.0956
 20
-71.0034
 30
0.0
 10
-12.6232
 20
-80.5372
 30
0.0
 10
-2.8542
 20
-79.5066
 30
0.0
 10
-2.8542
 20
-79.5066
 30
0.0
 10
1.342
 20
-76.8187
 30
0.0
 10
4.3038
 20
-73.3527
 30
0.0
 10
7.131
 20
-67.0839
 30
0.0
  0
SPLINE
  5
4B
330
1F
100
AcDbEntity
  8
layer 1
 62
     7
100
AcDbSpline
210
0.0
220
0.0
230
1.0
 70
    11
 71
     3
 72
    40
 73
    36
 74
     0
 42
0.0000000001
 43
0.0000000001
 12
1.0
 22
0.0
 32
0.0
 13
1.0
 23
0.0
 33
0.0
 40
0.0
 40
0.0
 40
0.0
 40
0.0
 40
0.1
 40
0.1
 40
0.1
 40
0.1
 40
0.2
 40
0.2
 40
0.2
 40
0.2
 40
0.3
 40
0.3
 40
0.3
 40
0.3
 40
0.4
 40
0.4
 40
0.4
 40
0.4
 40
0.5
 40
0.5
 40
0.5
 40
0.5
 40
0.6
 40
0.6
 40
0.6
 40
0.6
 40
0.7
 40
0.7
 40
0.7
 40
0.7
 40
0.8
 40
0.8
 40
0.8
 40
0.8
 40
1.0
 40
1.0
 40
1.0
 40
1.0
 10
35.0638
 20
83.3399
 30
0.0
 10
34.8777
 20
81.8832
 30
0.0
 10
36.1851
 20
81.164
 30
0.0
 10
36.4524
 20
82.9146
 30
0.0
 10
36.4524
 20
82.9146
 30
0.0
 10
39.4016
 20
91.0043
 30
0.0
 10
47.856
 20
94.0411
 30
0.0
 10
53.3021
 20
89.062
 30
0.0
 10
53.3021
 20
89.062
 30
0.0
 10
58.1938
 20
84.4947
 30
0.0
 10
53.0058
 20
74.0689
 30
0.0
 10
46.3939
 20
80.0759
 30
0.0
 10
46.3939
 20
80.0759
 30
0.0
 10
49.2747
 20
81.9697
 30
0.0
 10
45.1933
 20
83.9779
 30
0.0
 10
43.8122
 20
79.8838
 30
0.0
 10
43.8122
 20
79.8838
 30
0.0
 10
43.0152
 20
78.3518
 30
0.0
 10
43.9061
 20
69.8471
 30
0.0
 10
53.6333
 20
73.3236
 30
0.0
 10
53.6333
 20
73.3236
 30
0.0
 10
56.7654
 20
74.8566
 30
0.0
 10
59.2696
 20
77.5053
 30
0.0
 10
59.1737
 20
84.0122
 30
0.0
 10
59.1737
 20
84.0122
 30
0.0
 10
59.2904
 20
87.2594
 30
0.0
 10
54.818
 20
96.7931
 30
0.0
 10
45.0489
 20
95.7627
 30
0.0
 10
45.0489
 20
95.7627
 30
0.0
 10
40.8528
 20
93.0748
 30
0.0
 10
37.891
 20
89.6089
 30
0.0
 10
35.0638
 20
83.3401
 30
0.0
 10
35.0638
 20
83.3401
 30
0.0
 10
35.0638
 20
83.3401
 30
0.0
 10
35.0638
 20
83.3399
 30
0.0
 10
35.0638
 20
83.3399
 30
0.0
  0
SPLINE
  5
4C
330
1F
100
AcDbEntity
  8
layer 1
 62
     7
100
AcDbSpline
210
0.0
220
0.0
230
1.0
 70
    11
 71
     3
 72
    28
 73
    24
 74
     0
 42
0.0000000001
 43
0.0000000001
 12
1.0
 22
0.0
 32
0.0
 13
1.0
 23
0.0
 33
0.0
 40
0.0
 40
0.0
 40
0.0
 40
0.0
 40
0.1428571428571428
 40
0.1428571428571428
 40
0.1428571428571428
 40
0.1428571428571428
 40
0.2857142857142857
 40
0.2857142857142857
 40
0.2857142857142857
 40
0.2857142857142857
 40
0.4285714285714285
 40
0.4285714285714285
 40
0.4285714285714285
 40
0.4285714285714285
 40
0.5714285714285714
 40
0.5714285714285714
 40
0.5714285714285714
 40
0.5714285714285714
 40
0.7142857142857143
 40
0.7142857142857143
 40
0.7142857142857143
 40
0.7142857142857143
 40
1.0
 40
1.0
 40
1.0
 40
1.0
 10
16.5882
 20
-44.47
 30
0.0
 10
13.6213
 20
-47.121
 30
0.0
 10
10.1321
 20
-44.145
 30
0.0
 10
11.7534
 20
-40.7163
 30
0.0
 10
11.7534
 20
-40.7163
 30
0.0
 10
13.1576
 20
-42.0718
 30
0.0
 10
16.2227
 20
-40.6481
 30
0.0
 10
15.8993
 20
-37.1552
 30
0.0
 10
15.8993
 20
-37.1552
 30
0.0
 10
15.7199
 20
-32.6004
 30
0.0
 10
15.014
 20
-31.2369
 30
0.0
 10
13.2396
 20
-26.0232
 30
0.0
 10
13.2396
 20
-26.0232
 30
0.0
 10
14.1494
 20
-36.9493
 30
0.0
 10
8.7565
 20
-42.4924
 30
0.0
 10
1.5347
 20
-41.8889
 30
0.0
 10
1.5347
 20
-41.8889
 30
0.0
 10
4.9334
 20
-46.0414
 30
0.0
 10
11.5056
 20
-49.4953
 30
0.0
 10
16.4654
 20
-49.9611
 30
0.0
 10
16.4654
 20
-49.9611
 30
0.0
 10
16.5839
 20
-48.5623
 30
0.0
 10
16.5798
 20
-46.5245
 30
0.0
 10
16.5882
 20
-44.47
 30
0.0
  0
SPLINE
  5
4D
330
1F
100
AcDbEntity
  8
layer 1
 62
     7
100
AcDbSpline
210
0.0
220
0.0
230
1.0
 70
    11
 71
     3
 72
    40
 73
    36
 74
     0
 42
0.0000000001
 43
0.0000000001
 12
1.0
 22
0.0
 32
0.0
 13
1.0
 23
0.0
 33
0.0
 40
0.0
 40
0.0
 40
0.0
 40
0.0
 40
0.1
 40
0.1
 40
0.1
 40
0.1
 40
0.2
 40
0.2
 40
0.2
 40
0.2
 40
0.3
 40
0.3
 40
0.3
 40
0.3
 40
0.4
 40
0.4
 40
0.4
 40
0.4
 40
0.5
 40
0.5
 40
0.5
 40
0.5
 40
0.6
 40
0.6
 40
0.6
 40
0.6
 40
0.7
 40
0.7
 40
0.7
 40
0.7
 40
0.8
 40
0.8
 40
0.8
 40
0.8
 40
1.0
 40
1.0
 40
1.0
 40
1.0
 10
-13.202
 20
-43.259
 30
0.0
 10
-8.1787
 20
-42.1552
 30
0.0
 10
-7.8939
 20
-47.2124
 30
0.0
 10
-9.4107
 20
-50.6338
 30
0.0
 10
-9.4107
 20
-50.6338
 30
0.0
 10
-0.4529
 20
-49.4368
 30
0.0
 10
4.5442
 20
-55.6867
 30
0.0
 10
5.8598
 20
-60.3528
 30
0.0
 10
5.8598
 20
-60.3528
 30
0.0
 10
15.8749
 20
-65.8268
 30
0.0
 10
7.0001
 20
-73.786
 30
0.0
 10
4.1813
 20
-78.1205
 30
0.0
 10
4.1813
 20
-78.1205
 30
0.0
 10
4.1813
 20
-78.1205
 30
0.0
 10
11.9057
 20
-73.1593
 30
0.0
 10
15.819
 20
-56.2237
 30
0.0
 10
15.819
 20
-56.2237
 30
0.0
 10
5.8651
 20
-55.0298
 30
0.0
 10
-4.0365
 20
-46.8197
 30
0.0
 10
-7.5134
 20
-41.5012
 30
0.0
 10
-7.5134
 20
-41.5012
 30
0.0
 10
-10.5432
 20
-40.8813
 30
0.0
 10
-13.9764
 20
-41.1534
 30
0.0
 10
-15.745
 20
-43.2037
 30
0.0
 10
-15.745
 20
-43.2037
 30
0.0
 10
-18.376
 20
-47.3994
 30
0.0
 10
-13.5001
 20
-49.001
 30
0.0
 10
-12.4452
 20
-46.7392
 30
0.0
 10
-12.4452
 20
-46.7392
 30
0.0
 10
-12.3791
 20
-46.6961
 30
0.0
 10
-11.5531
 20
-45.4606
 30
0.0
 10
-13.2018
 20
-43.2588
 30
0.0
 10
-13.2018
 20
-43.2588
 30
0.0
 10
-13.2018
 20
-43.2588
 30
0.0
 10
-13.202
 20
-43.259
 30
0.0
 10
-13.202
 20
-43.259
 30
0.0
  0
SPLINE
  5
4E
330
1F
100
AcDbEntity
  8
layer 1
 62
     7
100
AcDbSpline
210
0.0
220
0.0
230
1.0
 70
    11
 71
     3
 72
    84
 73
    80
 74
     0
 42
0.0000000001
 43
0.0000000001
 12
1.0
 22
0.0
 32
0.0
 13
1.0
 23
0.0
 33
0.0
 40
0.0
 40
0.0
 40
0.0
 40
0.0
 40
0.0476190476190476
 40
0.0476190476190476
 40
0.0476190476190476
 40
0.0476190476190476
 40
0.0952380952380952
 40
0.0952380952380952
 40
0.0952380952380952
 40
0.0952380952380952
 40
0.1428571428571428
 40
0.1428571428571428
 40
0.1428571428571428
 40
0.1428571428571428
 40
0.1904761904761905
 40
0.1904761904761905
 40
0.1904761904761905
 40
0.1904761904761905
 40
0.2380952380952381
 40
0.2380952380952381
 40
0.2380952380952381
 40
0.2380952380952381
 40
0.2857142857142857
 40
0.2857142857142857
 40
0.2857142857142857
 40
0.2857142857142857
 40
0.3333333333333333
 40
0.3333333333333333
 40
0.3333333333333333
 40
0.3333333333333333
 40
0.3809523809523809
 40
0.3809523809523809
 40
0.3809523809523809
 40
0.3809523809523809
 40
0.4285714285714285
 40
0.4285714285714285
 40
0.4285714285714285
 40
0.4285714285714285
 40
0.4761904761904762
 40
0.4761904761904762
 40
0.4761904761904762
 40
0.4761904761904762
 40
0.5238095238095238
 40
0.5238095238095238
 40
0.5238095238095238
 40
0.5238095238095238
 40
0.5714285714285714
 40
0.5714285714285714
 40
0.5714285714285714
 40
0.5714285714285714
 40
0.6190476190476191
 40
0.6190476190476191
 40
0.6190476190476191
 40
0.6190476190476191
 40
0.6666666666666666
 40
0.6666666666666666
 40
0.6666666666666666
 40
0.6666666666666666
 40
0.7142857142857143
 40
0.7142857142857143
 40
0.7142857142857143
 40
0.7142857142857143
 40
0.7619047619047619
 40
0.7619047619047619
 40
0.7619047619047619
 40
0.7619047619047619
 40
0.8095238095238095
 40
0.8095238095238095
 40
0.8095238095238095
 40
0.8095238095238095
 40
0.8571428571428571
 40
0.8571428571428571
 40
0.8571428571428571
 40
0.8571428571428571
 40
0.9047619047619048
 40
0.9047619047619048
 40
0.9047619047619048
 40
0.9047619047619048
 40
1.0
 40
1.0
 40
1.0
 40
1.0
 10
13.4929
 20
6.8693
 30
0.0
 10
12.3766
 20
6.9525
 30
0.0
 10
9.8372
 20
5.5971
 30
0.0
 10
9.4768
 20
4.0844
 30
0.0
 10
9.4768
 20
4.0844
 30
0.0
 10
7.7895
 20
8.097
 30
0.0
 10
1.5058
 20
7.3392
 30
0.0
 10
1.5286
 20
3.4113
 30
0.0
 10
1.5286
 20
3.4113
 30
0.0
 10
2.7373
 20
3.5362
 30
0.0
 10
3.7982
 20
3.0931
 30
0.0
 10
4.4004
 20
1.7682
 30
0.0
 10
4.4004
 20
1.7682
 30
0.0
 10
5.9605
 20
-2.4533
 30
0.0
 10
1.9968
 20
-6.5534
 30
0.0
 10
-2.3155
 20
-7.1371
 30
0.0
 10
-2.3155
 20
-7.1371
 30
0.0
 10
-5.5956
 20
-7.5811
 30
0.0
 10
-8.987
 20
-6.0726
 30
0.0
 10
-12.0902
 20
-1.0596
 30
0.0
 10
-12.0902
 20
-1.0596
 30
0.0
 10
-13.3838
 20
1.476
 30
0.0
 10
-13.3663
 20
4.7664
 30
0.0
 10
-12.9499
 20
5.8176
 30
0.0
 10
-12.9499
 20
5.8176
 30
0.0
 10
-12.3201
 20
6.3793
 30
0.0
 10
-9.1633
 20
5.2369
 30
0.0
 10
-11.2009
 20
2.7505
 30
0.0
 10
-11.2009
 20
2.7505
 30
0.0
 10
-8.5183
 20
1.288
 30
0.0
 10
-6.0716
 20
3.3978
 30
0.0
 10
-6.4961
 20
5.4592
 30
0.0
 10
-6.4961
 20
5.4592
 30
0.0
 10
-5.2539
 20
5.4919
 30
0.0
 10
-2.2167
 20
6.0113
 30
0.0
 10
-0.2793
 20
8.1759
 30
0.0
 10
-0.2793
 20
8.1759
 30
0.0
 10
-2.2167
 20
10.3407
 30
0.0
 10
-5.2539
 20
10.8599
 30
0.0
 10
-6.4961
 20
10.8926
 30
0.0
 10
-6.4961
 20
10.8926
 30
0.0
 10
-6.0718
 20
12.954
 30
0.0
 10
-8.5183
 20
15.0638
 30
0.0
 10
-11.2009
 20
13.6014
 30
0.0
 10
-11.2009
 20
13.6014
 30
0.0
 10
-9.1631
 20
11.1149
 30
0.0
 10
-12.3201
 20
9.9725
 30
0.0
 10
-12.9499
 20
10.5342
 30
0.0
 10
-12.9499
 20
10.5342
 30
0.0
 10
-13.3663
 20
11.5854
 30
0.0
 10
-13.3838
 20
14.8756
 30
0.0
 10
-12.0902
 20
17.4114
 30
0.0
 10
-12.0902
 20
17.4114
 30
0.0
 10
-8.9872
 20
22.4246
 30
0.0
 10
-5.5958
 20
23.9329
 30
0.0
 10
-2.3155
 20
23.4889
 30
0.0
 10
-2.3155
 20
23.4889
 30
0.0
 10
1.9968
 20
22.9052
 30
0.0
 10
5.9605
 20
18.8051
 30
0.0
 10
4.4004
 20
14.5836
 30
0.0
 10
4.4004
 20
14.5836
 30
0.0
 10
3.7982
 20
13.2587
 30
0.0
 10
2.7373
 20
12.8157
 30
0.0
 10
1.5286
 20
12.9405
 30
0.0
 10
1.5286
 20
12.9405
 30
0.0
 10
1.506
 20
9.0126
 30
0.0
 10
7.7895
 20
8.2548
 30
0.0
 10
9.4768
 20
12.2674
 30
0.0
 10
9.4768
 20
12.2674
 30
0.0
 10
9.8372
 20
10.7547
 30
0.0
 10
12.3766
 20
9.3992
 30
0.0
 10
13.4929
 20
9.4825
 30
0.0
 10
13.4929
 20
9.4825
 30
0.0
 10
13.5007
 20
8.6115
 30
0.0
 10
13.4966
 20
7.7405
 30
0.0
 10
13.4929
 20
6.8695
 30
0.0
 10
13.4929
 20
6.8695
 30
0.0
 10
13.4929
 20
6.8695
 30
0.0
 10
13.4929
 20
6.8693
 30
0.0
 10
13.4929
 20
6.8693
 30
0.0
  0
SPLINE
  5
4F
330
1F
100
AcDbEntity
  8
layer 1
 62
     7
100
AcDbSpline
210
0.0
220
0.0
230
1.0
 70
    11
 71
     3
 72
    20
 73
    16
 74
     0
 42
0.0000000001
 43
0.0000000001
 12
1.0
 22
0.0
 32
0.0
 13
1.0
 23
0.0
 33
0.0
 40
0.0
 40
0.0
 40
0.0
 40
0.0
 40
0.2
 40
0.2
 40
0.2
 40
0.2
 40
0.4
 40
0.4
 40
0.4
 40
0.4
 40
0.6
 40
0.6
 40
0.6
 40
0.6
 40
1.0
 40
1.0
 40
1.0
 40
1.0
 10
6.2892
 20
-6.3578
 30
0.0
 10
4.7519
 20
-8.4603
 30
0.0
 10
3.2666
 20
-9.8614
 30
0.0
 10
0.6108
 20
-10.2715
 30
0.0
 10
0.6108
 20
-10.2715
 30
0.0
 10
8.8822
 20
-15.3527
 30
0.0
 10
6.9291
 20
-18.6957
 30
0.0
 10
5.7667
 20
-20.3719
 30
0.0
 10
5.7667
 20
-20.3719
 30
0.0
 10
6.9017
 20
-20.4738
 30
0.0
 10
8.1434
 20
-20.2962
 30
0.0
 10
9.5781
 20
-22.2048
 30
0.0
 10
9.5781
 20
-22.2048
 30
0.0
 10
11.2796
 20
-16.6089
 30
0.0
 10
6.107
 20
-11.2444
 30
0.0
 10
6.2892
 20
-6.3578
 30
0.0
  0
SPLINE
  5
50
330
1F
100
AcDbEntity
  8
layer 1
 62
     7
100
AcDbSpline
210
0.0
220
0.0
230
1.0
 70
    11
 71
     3
 72
    36
 73
    32
 74
     0
 42
0.0000000001
 43
0.0000000001
 12
1.0
 22
0.0
 32
0.0
 13
1.0
 23
0.0
 33
0.0
 40
0.0
 40
0.0
 40
0.0
 40
0.0
 40
0.1111111111111111
 40
0.1111111111111111
 40
0.1111111111111111
 40
0.1111111111111111
 40
0.2222222222222222
 40
0.2222222222222222
 40
0.2222222222222222
 40
0.2222222222222222
 40
0.3333333333333333
 40
0.3333333333333333
 40
0.3333333333333333
 40
0.3333333333333333
 40
0.4444444444444444
 40
0.4444444444444444
 40
0.4444444444444444
 40
0.4444444444444444
 40
0.5555555555555556
 40
0.5555555555555556
 40
0.5555555555555556
 40
0.5555555555555556
 40
0.6666666666666666
 40
0.6666666666666666
 40
0.6666666666666666
 40
0.6666666666666666
 40
0.7777777777777778
 40
0.7777777777777778
 40
0.7777777777777778
 40
0.7777777777777778
 40
1.0
 40
1.0
 40
1.0
 40
1.0
 10
3.4618
 20
-27.4488
 30
0.0
 10
9.3293
 20
-27.0538
 30
0.0
 10
6.597
 20
-35.3724
 30
0.0
 10
1.38
 20
-33.2602
 30
0.0
 10
1.38
 20
-33.2602
 30
0.0
 10
-3.2697
 20
-31.0625
 30
0.0
 10
-3.258
 20
-25.2759
 30
0.0
 10
0.2723
 20
-21.8241
 30
0.0
 10
0.2723
 20
-21.8241
 30
0.0
 10
-2.8302
 20
-21.6573
 30
0.0
 10
-4.0776
 20
-17.7439
 30
0.0
 10
-2.0155
 20
-16.3759
 30
0.0
 10
-2.0155
 20
-16.3759
 30
0.0
 10
-0.4392
 20
-18.9624
 30
0.0
 10
2.0599
 20
-16.6383
 30
0.0
 10
-0.1937
 20
-14.4676
 30
0.0
 10
-0.1937
 20
-14.4676
 30
0.0
 10
-6.9249
 20
-11.2165
 30
0.0
 10
-10.0121
 20
-8.7996
 30
0.0
 10
-14.4029
 20
-3.9318
 30
0.0
 10
-14.4029
 20
-3.9318
 30
0.0
 10
-13.6176
 20
-14.4655
 30
0.0
 10
-9.1806
 20
-29.3253
 30
0.0
 10
-2.1129
 20
-37.8308
 30
0.0
 10
-2.1129
 20
-37.8308
 30
0.0
 10
2.8509
 20
-38.7854
 30
0.0
 10
7.0386
 20
-36.9672
 30
0.0
 10
8.9367
 20
-32.5308
 30
0.0
 10
8.9367
 20
-32.5308
 30
0.0
 10
11.3345
 20
-26.4327
 30
0.0
 10
4.6899
 20
-23.6677
 30
0.0
 10
3.4618
 20
-27.4488
 30
0.0
  0
SPLINE
  5
51
330
1F
100
AcDbEntity
  8
layer 1
 62
     7
100
AcDbSpline
210
0.0
220
0.0
230
1.0
 70
    11
 71
     3
 72
    20
 73
    16
 74
     0
 42
0.0000000001
 43
0.0000000001
 12
1.0
 22
0.0
 32
0.0
 13
1.0
 23
0.0
 33
0.0
 40
0.0
 40
0.0
 40
0.0
 40
0.0
 40
0.2
 40
0.2
 40
0.2
 40
0.2
 40
0.4
 40
0.4
 40
0.4
 40
0.4
 40
0.6
 40
0.6
 40
0.6
 40
0.6
 40
1.0
 40
1.0
 40
1.0
 40
1.0
 10
-22.6676
 20
-70.4753
 30
0.0
 10
-22.6676
 20
-72.6147
 30
0.0
 10
-22.6676
 20
-94.0902
 30
0.0
 10
-22.6676
 20
-96.1276
 30
0.0
 10
-22.6676
 20
-96.1276
 30
0.0
 10
-20.2291
 20
-88.9036
 30
0.0
 10
-15.0616
 20
-86.5771
 30
0.0
 10
-7.3369
 20
-84.623
 30
0.0
 10
-7.3369
 20
-84.623
 30
0.0
 10
-17.9614
 20
-82.4399
 30
0.0
 10
-20.1704
 20
-76.3969
 30
0.0
 10
-22.6676
 20
-70.4751
 30
0.0
 10
-22.6676
 20
-70.4751
 30
0.0
 10
-22.6676
 20
-70.4751
 30
0.0
 10
-22.6676
 20
-70.4753
 30
0.0
 10
-22.6676
 20
-70.4753
 30
0.0
  0
SPLINE
  5
52
330
1F
100
AcDbEntity
  8
layer 1
 62
     7
100
AcDbSpline
210
0.0
220
0.0
230
1.0
 70
    11
 71
     3
 72
    16
 73
    12
 74
     0
 42
0.0000000001
 43
0.0000000001
 12
1.0
 22
0.0
 32
0.0
 13
1.0
 23
0.0
 33
0.0
 40
0.0
 40
0.0
 40
0.0
 40
0.0
 40
0.25
 40
0.25
 40
0.25
 40
0.25
 40
0.5
 40
0.5
 40
0.5
 40
0.5
 40
1.0
 40
1.0
 40
1.0
 40
1.0
 10
-16.3292
 20
-24.3978
 30
0.0
 10
-16.7808
 20
-26.3657
 30
0.0
 10
-17.427
 20
-27.8192
 30
0.0
 10
-16.0884
 20
-32.2858
 30
0.0
 10
-16.0884
 20
-32.2858
 30
0.0
 10
-13.4678
 20
-36.412
 30
0.0
 10
-12.0187
 20
-35.691
 30
0.0
 10
-10.7497
 20
-36.141
 30
0.0
 10
-10.7497
 20
-36.141
 30
0.0
 10
-13.0074
 20
-32.7718
 30
0.0
 10
-15.0409
 20
-28.5437
 30
0.0
 10
-16.3292
 20
-24.3978
 30
0.0
  0
SPLINE
  5
53
330
1F
100
AcDbEntity
  8
layer 1
 62
     7
100
AcDbSpline
210
0.0
220
0.0
230
1.0
 70
    11
 71
     3
 72
    24
 73
    20
 74
     0
 42
0.0000000001
 43
0.0000000001
 12
1.0
 22
0.0
 32
0.0
 13
1.0
 23
0.0
 33
0.0
 40
0.0
 40
0.0
 40
0.0
 40
0.0
 40
0.1666666666666667
 40
0.1666666666666667
 40
0.1666666666666667
 40
0.1666666666666667
 40
0.3333333333333333
 40
0.3333333333333333
 40
0.3333333333333333
 40
0.3333333333333333
 40
0.5
 40
0.5
 40
0.5
 40
0.5
 40
0.6666666666666666
 40
0.6666666666666666
 40
0.6666666666666666
 40
0.6666666666666666
 40
1.0
 40
1.0
 40
1.0
 40
1.0
 10
-22.6676
 20
-28.286
 30
0.0
 10
-22.6676
 20
-28.286
 30
0.0
 10
-22.6676
 20
-63.4529
 30
0.0
 10
-22.6676
 20
-63.4529
 30
0.0
 10
-22.6676
 20
-63.4529
 30
0.0
 10
-22.0896
 20
-59.8695
 30
0.0
 10
-19.8239
 20
-55.4682
 30
0.0
 10
-16.3105
 20
-53.2749
 30
0.0
 10
-16.3105
 20
-53.2749
 30
0.0
 10
-20.1632
 20
-52.5492
 30
0.0
 10
-26.5265
 20
-44.4653
 30
0.0
 10
-15.0471
 20
-38.5281
 30
0.0
 10
-15.0471
 20
-38.5281
 30
0.0
 10
-18.6398
 20
-36.9684
 30
0.0
 10
-21.8373
 20
-31.8926
 30
0.0
 10
-22.6674
 20
-28.286
 30
0.0
 10
-22.6674
 20
-28.286
 30
0.0
 10
-22.6674
 20
-28.286
 30
0.0
 10
-22.6676
 20
-28.286
 30
0.0
 10
-22.6676
 20
-28.286
 30
0.0
  0
SPLINE
  5
54
330
1F
100
AcDbEntity
  8
layer 1
 62
     7
100
AcDbSpline
210
0.0
220
0.0
230
1.0
 70
    11
 71
     3
 72
    40
 73
    36
 74
     0
 42
0.0000000001
 43
0.0000000001
 12
1.0
 22
0.0
 32
0.0
 13
1.0
 23
0.0
 33
0.0
 40
0.0
 40
0.0
 40
0.0
 40
0.0
 40
0.1
 40
0.1
 40
0.1
 40
0.1
 40
0.2
 40
0.2
 40
0.2
 40
0.2
 40
0.3
 40
0.3
 40
0.3
 40
0.3
 40
0.4
 40
0.4
 40
0.4
 40
0.4
 40
0.5
 40
0.5
 40
0.5
 40
0.5
 40
0.6
 40
0.6
 40
0.6
 40
0.6
 40
0.7
 40
0.7
 40
0.7
 40
0.7
 40
0.8
 40
0.8
 40
0.8
 40
0.8
 40
1.0
 40
1.0
 40
1.0
 40
1.0
 10
-22.6676
 20
-98.9051
 30
0.0
 10
-22.6676
 20
-101.0445
 30
0.0
 10
-22.6676
 20
-106.8974
 30
0.0
 10
-22.6676
 20
-108.9348
 30
0.0
 10
-22.6676
 20
-108.9348
 30
0.0
 10
-20.9037
 20
-108.9348
 30
0.0
 10
1.2555
 20
-108.9348
 30
0.0
 10
3.3178
 20
-108.9348
 30
0.0
 10
3.3178
 20
-108.9348
 30
0.0
 10
3.3825
 20
-108.5541
 30
0.0
 10
3.3488
 20
-108.0266
 30
0.0
 10
3.0001
 20
-107.5087
 30
0.0
 10
3.0001
 20
-107.5087
 30
0.0
 10
-5.3141
 20
-105.9699
 30
0.0
 10
-10.3412
 20
-96.3615
 30
0.0
 10
-7.3346
 20
-87.7366
 30
0.0
 10
-7.3346
 20
-87.7366
 30
0.0
 10
-12.714
 20
-90.292
 30
0.0
 10
-14.3291
 20
-91.4266
 30
0.0
 10
-15.8554
 20
-92.8634
 30
0.0
 10
-15.8554
 20
-92.8634
 30
0.0
 10
-18.1794
 20
-94.8125
 30
0.0
 10
-15.0801
 20
-97.8353
 30
0.0
 10
-14.5021
 20
-93.8652
 30
0.0
 10
-14.5021
 20
-93.8652
 30
0.0
 10
-4.5814
 20
-94.7962
 30
0.0
 10
-11.1738
 20
-109.3535
 30
0.0
 10
-20.5127
 20
-102.4153
 30
0.0
 10
-20.5127
 20
-102.4153
 30
0.0
 10
-21.5651
 20
-101.6335
 30
0.0
 10
-22.2004
 20
-100.6255
 30
0.0
 10
-22.6678
 20
-98.9051
 30
0.0
 10
-22.6678
 20
-98.9051
 30
0.0
 10
-22.6678
 20
-98.9051
 30
0.0
 10
-22.6676
 20
-98.9051
 30
0.0
 10
-22.6676
 20
-98.9051
 30
0.0
  0
SPLINE
  5
55
330
1F
100
AcDbEntity
  8
layer 1
 62
     7
100
AcDbSpline
210
0.0
220
0.0
230
1.0
 70
    11
 71
     3
 72
    32
 73
    28
 74
     0
 42
0.0000000001
 43
0.0000000001
 12
1.0
 22
0.0
 32
0.0
 13
1.0
 23
0.0
 33
0.0
 40
0.0
 40
0.0
 40
0.0
 40
0.0
 40
0.125
 40
0.125
 40
0.125
 40
0.125
 40
0.25
 40
0.25
 40
0.25
 40
0.25
 40
0.375
 40
0.375
 40
0.375
 40
0.375
 40
0.5
 40
0.5
 40
0.5
 40
0.5
 40
0.625
 40
0.625
 40
0.625
 40
0.625
 40
0.75
 40
0.75
 40
0.75
 40
0.75
 40
1.0
 40
1.0
 40
1.0
 40
1.0
 10
8.9856
 20
-108.935
 30
0.0
 10
8.9209
 20
-108.5543
 30
0.0
 10
8.9547
 20
-108.0268
 30
0.0
 10
9.3034
 20
-107.5089
 30
0.0
 10
9.3034
 20
-107.5089
 30
0.0
 10
13.5584
 20
-106.8736
 30
0.0
 10
17.8847
 20
-103.1856
 30
0.0
 10
19.7617
 20
-97.4459
 30
0.0
 10
19.7617
 20
-97.4459
 30
0.0
 10
19.7617
 20
-97.4459
 30
0.0
 10
22.5772
 20
-97.4459
 30
0.0
 10
22.5772
 20
-97.4459
 30
0.0
 10
22.5772
 20
-97.4459
 30
0.0
 10
24.4543
 20
-103.1858
 30
0.0
 10
28.7806
 20
-106.8736
 30
0.0
 10
33.0355
 20
-107.5089
 30
0.0
 10
33.0355
 20
-107.5089
 30
0.0
 10
33.3841
 20
-108.0268
 30
0.0
 10
33.418
 20
-108.5543
 30
0.0
 10
33.3533
 20
-108.935
 30
0.0
 10
33.3533
 20
-108.935
 30
0.0
 10
24.8429
 20
-108.935
 30
0.0
 10
17.8447
 20
-108.935
 30
0.0
 10
8.9858
 20
-108.935
 30
0.0
 10
8.9858
 20
-108.935
 30
0.0
 10
8.9858
 20
-108.935
 30
0.0
 10
8.9856
 20
-108.935
 30
0.0
 10
8.9856
 20
-108.935
 30
0.0
  0
SPLINE
  5
56
330
1F
100
AcDbEntity
  8
layer 1
 62
     7
100
AcDbSpline
210
0.0
220
0.0
230
1.0
 70
    11
 71
     3
 72
    20
 73
    16
 74
     0
 42
0.0000000001
 43
0.0000000001
 12
1.0
 22
0.0
 32
0.0
 13
1.0
 23
0.0
 33
0.0
 40
0.0
 40
0.0
 40
0.0
 40
0.0
 40
0.2
 40
0.2
 40
0.2
 40
0.2
 40
0.4
 40
0.4
 40
0.4
 40
0.4
 40
0.6
 40
0.6
 40
0.6
 40
0.6
 40
1.0
 40
1.0
 40
1.0
 40
1.0
 10
7.131
 20
-67.0987
 30
0.0
 10
7.317
 20
-65.6421
 30
0.0
 10
6.0096
 20
-64.9228
 30
0.0
 10
5.7423
 20
-66.6734
 30
0.0
 10
5.7423
 20
-66.6734
 30
0.0
 10
5.033
 20
-68.9103
 30
0.0
 10
4.8526
 20
-69.3938
 30
0.0
 10
3.5237
 20
-71.6623
 30
0.0
 10
3.5237
 20
-71.6623
 30
0.0
 10
4.8086
 20
-70.891
 30
0.0
 10
6.7898
 20
-68.9538
 30
0.0
 10
7.1312
 20
-67.0987
 30
0.0
 10
7.1312
 20
-67.0987
 30
0.0
 10
7.1312
 20
-67.0987
 30
0.0
 10
7.131
 20
-67.0987
 30
0.0
 10
7.131
 20
-67.0987
 30
0.0
  0
SPLINE
  5
57
330
1F
100
AcDbEntity
  8
layer 1
 62
     7
100
AcDbSpline
210
0.0
220
0.0
230
1.0
 70
    11
 71
     3
 72
    20
 73
    16
 74
     0
 42
0.0000000001
 43
0.0000000001
 12
1.0
 22
0.0
 32
0.0
 13
1.0
 23
0.0
 33
0.0
 40
0.0
 40
0.0
 40
0.0
 40
0.0
 40
0.2
 40
0.2
 40
0.2
 40
0.2
 40
0.4
 40
0.4
 40
0.4
 40
0.4
 40
0.6
 40
0.6
 40
0.6
 40
0.6
 40
1.0
 40
1.0
 40
1.0
 40
1.0
 10
-8.8148
 20
-69.4055
 30
0.0
 10
-9.3575
 20
-68.1273
 30
0.0
 10
-8.3256
 20
-67.7484
 30
0.0
 10
-7.4261
 20
-68.9802
 30
0.0
 10
-7.4261
 20
-68.9802
 30
0.0
 10
-5.598
 20
-70.8604
 30
0.0
 10
-3.4072
 20
-70.3225
 30
0.0
 10
-1.7217
 20
-70.2563
 30
0.0
 10
-1.7217
 20
-70.2563
 30
0.0
 10
-3.4119
 20
-72.3223
 30
0.0
 10
-7.9874
 20
-71.374
 30
0.0
 10
-8.815
 20
-69.4055
 30
0.0
 10
-8.815
 20
-69.4055
 30
0.0
 10
-8.815
 20
-69.4055
 30
0.0
 10
-8.8148
 20
-69.4055
 30
0.0
 10
-8.8148
 20
-69.4055
 30
0.0
  0
SPLINE
  5
58
330
1F
100
AcDbEntity
  8
layer 1
 62
     7
100
AcDbSpline
210
0.0
220
0.0
230
1.0
 70
    11
 71
     3
 72
    16
 73
    12
 74
     0
 42
0.0000000001
 43
0.0000000001
 12
1.0
 22
0.0
 32
0.0
 13
1.0
 23
0.0
 33
0.0
 40
0.0
 40
0.0
 40
0.0
 40
0.0
 40
0.25
 40
0.25
 40
0.25
 40
0.25
 40
0.5
 40
0.5
 40
0.5
 40
0.5
 40
1.0
 40
1.0
 40
1.0
 40
1.0
 10
-22.6676
 20
-16.0994
 30
0.0
 10
-22.6676
 20
-16.0994
 30
0.0
 10
-21.0983
 20
-17.0238
 30
0.0
 10
-21.0685
 20
-19.6079
 30
0.0
 10
-21.0685
 20
-19.6079
 30
0.0
 10
-20.9078
 20
-22.5212
 30
0.0
 10
-22.6676
 20
-23.2303
 30
0.0
 10
-22.6676
 20
-23.2303
 30
0.0
 10
-22.6676
 20
-23.2303
 30
0.0
 10
-22.6635
 20
-20.7563
 30
0.0
 10
-22.6234
 20
-17.4152
 30
0.0
 10
-22.6676
 20
-16.0994
 30
0.0
  0
SPLINE
  5
59
330
1F
100
AcDbEntity
  8
layer 1
 62
     7
100
AcDbSpline
210
0.0
220
0.0
230
1.0
 70
    11
 71
     3
 72
    32
 73
    28
 74
     0
 42
0.0000000001
 43
0.0000000001
 12
1.0
 22
0.0
 32
0.0
 13
1.0
 23
0.0
 33
0.0
 40
0.0
 40
0.0
 40
0.0
 40
0.0
 40
0.125
 40
0.125
 40
0.125
 40
0.125
 40
0.25
 40
0.25
 40
0.25
 40
0.25
 40
0.375
 40
0.375
 40
0.375
 40
0.375
 40
0.5
 40
0.5
 40
0.5
 40
0.5
 40
0.625
 40
0.625
 40
0.625
 40
0.625
 40
0.75
 40
0.75
 40
0.75
 40
0.75
 40
1.0
 40
1.0
 40
1.0
 40
1.0
 10
10.6326
 20
-89.9482
 30
0.0
 10
12.2073
 20
-90.2885
 30
0.0
 10
13.2969
 20
-91.9696
 30
0.0
 10
13.4448
 20
-92.6164
 30
0.0
 10
13.4448
 20
-92.6164
 30
0.0
 10
14.2802
 20
-96.2692
 30
0.0
 10
12.6965
 20
-99.3074
 30
0.0
 10
10.28
 20
-100.6533
 30
0.0
 10
10.28
 20
-100.6533
 30
0.0
 10
3.5206
 20
-104.4186
 30
0.0
 10
-0.8569
 20
-99.6052
 30
0.0
 10
-1.4285
 20
-98.9319
 30
0.0
 10
-1.4285
 20
-98.9319
 30
0.0
 10
-5.7834
 20
-93.404
 30
0.0
 10
-3.7912
 20
-83.9484
 30
0.0
 10
2.6837
 20
-84.3789
 30
0.0
 10
2.6837
 20
-84.3789
 30
0.0
 10
-5.1861
 20
-94.7447
 30
0.0
 10
8.3408
 20
-101.4803
 30
0.0
 10
10.1902
 20
-92.5353
 30
0.0
 10
10.1902
 20
-92.5353
 30
0.0
 10
7.2878
 20
-91.9148
 30
0.0
 10
7.6924
 20
-89.3939
 30
0.0
 10
10.6326
 20
-89.948
 30
0.0
 10
10.6326
 20
-89.948
 30
0.0
 10
10.6326
 20
-89.948
 30
0.0
 10
10.6326
 20
-89.9482
 30
0.0
 10
10.6326
 20
-89.9482
 30
0.0
  0
SPLINE
  5
5A
330
1F
100
AcDbEntity
  8
layer 1
 62
     7
100
AcDbSpline
210
0.0
220
0.0
230
1.0
 70
    11
 71
     3
 72
    96
 73
    92
 74
     0
 42
0.0000000001
 43
0.0000000001
 12
1.0
 22
0.0
 32
0.0
 13
1.0
 23
0.0
 33
0.0
 40
0.0
 40
0.0
 40
0.0
 40
0.0
 40
0.0416666666666667
 40
0.0416666666666667
 40
0.0416666666666667
 40
0.0416666666666667
 40
0.0833333333333333
 40
0.0833333333333333
 40
0.0833333333333333
 40
0.0833333333333333
 40
0.125
 40
0.125
 40
0.125
 40
0.125
 40
0.1666666666666667
 40
0.1666666666666667
 40
0.1666666666666667
 40
0.1666666666666667
 40
0.2083333333333333
 40
0.2083333333333333
 40
0.2083333333333333
 40
0.2083333333333333
 40
0.25
 40
0.25
 40
0.25
 40
0.25
 40
0.2916666666666667
 40
0.2916666666666667
 40
0.2916666666666667
 40
0.2916666666666667
 40
0.3333333333333333
 40
0.3333333333333333
 40
0.3333333333333333
 40
0.3333333333333333
 40
0.375
 40
0.375
 40
0.375
 40
0.375
 40
0.4166666666666667
 40
0.4166666666666667
 40
0.4166666666666667
 40
0.4166666666666667
 40
0.4583333333333333
 40
0.4583333333333333
 40
0.4583333333333333
 40
0.4583333333333333
 40
0.5
 40
0.5
 40
0.5
 40
0.5
 40
0.5416666666666666
 40
0.5416666666666666
 40
0.5416666666666666
 40
0.5416666666666666
 40
0.5833333333333334
 40
0.5833333333333334
 40
0.5833333333333334
 40
0.5833333333333334
 40
0.625
 40
0.625
 40
0.625
 40
0.625
 40
0.6666666666666666
 40
0.6666666666666666
 40
0.6666666666666666
 40
0.6666666666666666
 40
0.7083333333333334
 40
0.7083333333333334
 40
0.7083333333333334
 40
0.7083333333333334
 40
0.75
 40
0.75
 40
0.75
 40
0.75
 40
0.7916666666666666
 40
0.7916666666666666
 40
0.7916666666666666
 40
0.7916666666666666
 40
0.8333333333333334
 40
0.8333333333333334
 40
0.8333333333333334
 40
0.8333333333333334
 40
0.875
 40
0.875
 40
0.875
 40
0.875
 40
0.9166666666666666
 40
0.9166666666666666
 40
0.9166666666666666
 40
0.9166666666666666
 40
1.0
 40
1.0
 40
1.0
 40
1.0
 10
22.4913
 20
-0.3128
 30
0.0
 10
22.9053
 20
-4.2248
 30
0.0
 10
28.4546
 20
-3.6855
 30
0.0
 10
28.6615
 20
-0.8496
 30
0.0
 10
28.6615
 20
-0.8496
 30
0.0
 10
24.6528
 20
-1.4999
 30
0.0
 10
25.8375
 20
4.2607
 30
0.0
 10
29.305
 20
1.9722
 30
0.0
 10
29.305
 20
1.9722
 30
0.0
 10
31.6227
 20
0.4086
 30
0.0
 10
32.3987
 20
-4.2427
 30
0.0
 10
31.3948
 20
-8.9383
 30
0.0
 10
31.3948
 20
-8.9383
 30
0.0
 10
31.3948
 20
-8.9383
 30
0.0
 10
30.8633
 20
-11.4248
 30
0.0
 10
30.8633
 20
-11.4248
 30
0.0
 10
30.8633
 20
-11.4248
 30
0.0
 10
27.5294
 20
-7.7036
 30
0.0
 10
23.7311
 20
-10.2592
 30
0.0
 10
23.6183
 20
-12.7147
 30
0.0
 10
23.6183
 20
-12.7147
 30
0.0
 10
23.623
 20
-14.673
 30
0.0
 10
24.7613
 20
-16.0439
 30
0.0
 10
26.607
 20
-16.0295
 30
0.0
 10
26.607
 20
-16.0295
 30
0.0
 10
25.4782
 20
-12.6171
 30
0.0
 10
29.3432
 20
-12.7201
 30
0.0
 10
28.5896
 20
-15.4187
 30
0.0
 10
28.5896
 20
-15.4187
 30
0.0
 10
28.3771
 20
-16.5693
 30
0.0
 10
27.6954
 20
-18.3425
 30
0.0
 10
26.5246
 20
-20.8481
 30
0.0
 10
26.5246
 20
-20.8481
 30
0.0
 10
23.0181
 20
-28.352
 30
0.0
 10
21.8768
 20
-33.2914
 30
0.0
 10
21.9931
 20
-42.2043
 30
0.0
 10
21.9931
 20
-42.2043
 30
0.0
 10
22.0487
 20
-46.4655
 30
0.0
 10
22.0826
 20
-47.6258
 30
0.0
 10
22.1167
 20
-49.9124
 30
0.0
 10
22.1167
 20
-49.9124
 30
0.0
 10
21.4851
 20
-49.9241
 30
0.0
 10
20.8537
 20
-49.9176
 30
0.0
 10
20.2223
 20
-49.9124
 30
0.0
 10
20.2223
 20
-49.9124
 30
0.0
 10
20.2564
 20
-47.626
 30
0.0
 10
20.2903
 20
-46.4655
 30
0.0
 10
20.3458
 20
-42.2043
 30
0.0
 10
20.3458
 20
-42.2043
 30
0.0
 10
20.4621
 20
-33.2914
 30
0.0
 10
19.3208
 20
-28.352
 30
0.0
 10
15.8143
 20
-20.8481
 30
0.0
 10
15.8143
 20
-20.8481
 30
0.0
 10
14.6435
 20
-18.3425
 30
0.0
 10
13.9618
 20
-16.5693
 30
0.0
 10
13.7493
 20
-15.4187
 30
0.0
 10
13.7493
 20
-15.4187
 30
0.0
 10
12.9957
 20
-12.7199
 30
0.0
 10
16.8609
 20
-12.6169
 30
0.0
 10
15.7319
 20
-16.0295
 30
0.0
 10
15.7319
 20
-16.0295
 30
0.0
 10
17.5776
 20
-16.0439
 30
0.0
 10
18.7159
 20
-14.673
 30
0.0
 10
18.7206
 20
-12.7147
 30
0.0
 10
18.7206
 20
-12.7147
 30
0.0
 10
18.6078
 20
-10.2592
 30
0.0
 10
14.8097
 20
-7.7036
 30
0.0
 10
11.4756
 20
-11.4248
 30
0.0
 10
11.4756
 20
-11.4248
 30
0.0
 10
11.4756
 20
-11.4248
 30
0.0
 10
10.9441
 20
-8.9383
 30
0.0
 10
10.9441
 20
-8.9383
 30
0.0
 10
10.9441
 20
-8.9383
 30
0.0
 10
9.9402
 20
-4.2427
 30
0.0
 10
10.7162
 20
0.4086
 30
0.0
 10
13.0339
 20
1.9722
 30
0.0
 10
13.0339
 20
1.9722
 30
0.0
 10
16.5015
 20
4.2607
 30
0.0
 10
17.6861
 20
-1.4999
 30
0.0
 10
13.6774
 20
-0.8496
 30
0.0
 10
13.6774
 20
-0.8496
 30
0.0
 10
13.8843
 20
-3.6857
 30
0.0
 10
19.4336
 20
-4.225
 30
0.0
 10
19.8476
 20
-0.3128
 30
0.0
 10
19.8476
 20
-0.3128
 30
0.0
 10
20.729
 20
-0.2934
 30
0.0
 10
21.6101
 20
-0.3039
 30
0.0
 10
22.4915
 20
-0.3128
 30
0.0
 10
22.4915
 20
-0.3128
 30
0.0
 10
22.4915
 20
-0.3128
 30
0.0
 10
22.4913
 20
-0.3128
 30
0.0
 10
22.4913
 20
-0.3128
 30
0.0
  0
SPLINE
  5
5B
330
1F
100
AcDbEntity
  8
layer 1
 62
     7
100
AcDbSpline
210
0.0
220
0.0
230
1.0
 70
    11
 71
     3
 72
    28
 73
    24
 74
     0
 42
0.0000000001
 43
0.0000000001
 12
1.0
 22
0.0
 32
0.0
 13
1.0
 23
0.0
 33
0.0
 40
0.0
 40
0.0
 40
0.0
 40
0.0
 40
0.1428571428571428
 40
0.1428571428571428
 40
0.1428571428571428
 40
0.1428571428571428
 40
0.2857142857142857
 40
0.2857142857142857
 40
0.2857142857142857
 40
0.2857142857142857
 40
0.4285714285714285
 40
0.4285714285714285
 40
0.4285714285714285
 40
0.4285714285714285
 40
0.5714285714285714
 40
0.5714285714285714
 40
0.5714285714285714
 40
0.5714285714285714
 40
0.7142857142857143
 40
0.7142857142857143
 40
0.7142857142857143
 40
0.7142857142857143
 40
1.0
 40
1.0
 40
1.0
 40
1.0
 10
25.7506
 20
-44.47
 30
0.0
 10
28.7174
 20
-47.121
 30
0.0
 10
32.2066
 20
-44.145
 30
0.0
 10
30.5853
 20
-40.7163
 30
0.0
 10
30.5853
 20
-40.7163
 30
0.0
 10
29.1811
 20
-42.0718
 30
0.0
 10
26.116
 20
-40.6481
 30
0.0
 10
26.4394
 20
-37.1552
 30
0.0
 10
26.4394
 20
-37.1552
 30
0.0
 10
26.6189
 20
-32.6004
 30
0.0
 10
27.3247
 20
-31.2369
 30
0.0
 10
29.0991
 20
-26.0232
 30
0.0
 10
29.0991
 20
-26.0232
 30
0.0
 10
28.1893
 20
-36.9493
 30
0.0
 10
33.5822
 20
-42.4924
 30
0.0
 10
40.8041
 20
-41.8889
 30
0.0
 10
40.8041
 20
-41.8889
 30
0.0
 10
37.4053
 20
-46.0414
 30
0.0
 10
30.8331
 20
-49.4953
 30
0.0
 10
25.8733
 20
-49.9611
 30
0.0
 10
25.8733
 20
-49.9611
 30
0.0
 10
25.7549
 20
-48.5623
 30
0.0
 10
25.7589
 20
-46.5245
 30
0.0
 10
25.7506
 20
-44.47
 30
0.0
  0
SPLINE
  5
5C
330
1F
100
AcDbEntity
  8
layer 1
 62
     7
100
AcDbSpline
210
0.0
220
0.0
230
1.0
 70
    11
 71
     3
 72
    84
 73
    80
 74
     0
 42
0.0000000001
 43
0.0000000001
 12
1.0
 22
0.0
 32
0.0
 13
1.0
 23
0.0
 33
0.0
 40
0.0
 40
0.0
 40
0.0
 40
0.0
 40
0.0476190476190476
 40
0.0476190476190476
 40
0.0476190476190476
 40
0.0476190476190476
 40
0.0952380952380952
 40
0.0952380952380952
 40
0.0952380952380952
 40
0.0952380952380952
 40
0.1428571428571428
 40
0.1428571428571428
 40
0.1428571428571428
 40
0.1428571428571428
 40
0.1904761904761905
 40
0.1904761904761905
 40
0.1904761904761905
 40
0.1904761904761905
 40
0.2380952380952381
 40
0.2380952380952381
 40
0.2380952380952381
 40
0.2380952380952381
 40
0.2857142857142857
 40
0.2857142857142857
 40
0.2857142857142857
 40
0.2857142857142857
 40
0.3333333333333333
 40
0.3333333333333333
 40
0.3333333333333333
 40
0.3333333333333333
 40
0.3809523809523809
 40
0.3809523809523809
 40
0.3809523809523809
 40
0.3809523809523809
 40
0.4285714285714285
 40
0.4285714285714285
 40
0.4285714285714285
 40
0.4285714285714285
 40
0.4761904761904762
 40
0.4761904761904762
 40
0.4761904761904762
 40
0.4761904761904762
 40
0.5238095238095238
 40
0.5238095238095238
 40
0.5238095238095238
 40
0.5238095238095238
 40
0.5714285714285714
 40
0.5714285714285714
 40
0.5714285714285714
 40
0.5714285714285714
 40
0.6190476190476191
 40
0.6190476190476191
 40
0.6190476190476191
 40
0.6190476190476191
 40
0.6666666666666666
 40
0.6666666666666666
 40
0.6666666666666666
 40
0.6666666666666666
 40
0.7142857142857143
 40
0.7142857142857143
 40
0.7142857142857143
 40
0.7142857142857143
 40
0.7619047619047619
 40
0.7619047619047619
 40
0.7619047619047619
 40
0.7619047619047619
 40
0.8095238095238095
 40
0.8095238095238095
 40
0.8095238095238095
 40
0.8095238095238095
 40
0.8571428571428571
 40
0.8571428571428571
 40
0.8571428571428571
 40
0.8571428571428571
 40
0.9047619047619048
 40
0.9047619047619048
 40
0.9047619047619048
 40
0.9047619047619048
 40
1.0
 40
1.0
 40
1.0
 40
1.0
 10
48.8348
 20
5.4592
 30
0.0
 10
48.4105
 20
3.3978
 30
0.0
 10
50.857
 20
1.288
 30
0.0
 10
53.5396
 20
2.7505
 30
0.0
 10
53.5396
 20
2.7505
 30
0.0
 10
51.5018
 20
5.2369
 30
0.0
 10
54.6588
 20
6.3793
 30
0.0
 10
55.2887
 20
5.8176
 30
0.0
 10
55.2887
 20
5.8176
 30
0.0
 10
55.705
 20
4.7664
 30
0.0
 10
55.7225
 20
1.4762
 30
0.0
 10
54.4289
 20
-1.0596
 30
0.0
 10
54.4289
 20
-1.0596
 30
0.0
 10
51.3259
 20
-6.0728
 30
0.0
 10
47.9345
 20
-7.5811
 30
0.0
 10
44.6542
 20
-7.1371
 30
0.0
 10
44.6542
 20
-7.1371
 30
0.0
 10
40.3419
 20
-6.5534
 30
0.0
 10
36.3782
 20
-2.4533
 30
0.0
 10
37.9383
 20
1.7682
 30
0.0
 10
37.9383
 20
1.7682
 30
0.0
 10
38.5405
 20
3.0931
 30
0.0
 10
39.6014
 20
3.5362
 30
0.0
 10
40.8101
 20
3.4113
 30
0.0
 10
40.8101
 20
3.4113
 30
0.0
 10
40.8327
 20
7.3392
 30
0.0
 10
34.5493
 20
8.097
 30
0.0
 10
32.862
 20
4.0844
 30
0.0
 10
32.862
 20
4.0844
 30
0.0
 10
32.5016
 20
5.5971
 30
0.0
 10
29.9621
 20
6.9526
 30
0.0
 10
28.8458
 20
6.8693
 30
0.0
 10
28.8458
 20
6.8693
 30
0.0
 10
28.8458
 20
6.8693
 30
0.0
 10
28.8406
 20
8.1759
 30
0.0
 10
28.8406
 20
8.1759
 30
0.0
 10
28.8406
 20
8.1759
 30
0.0
 10
28.8406
 20
8.1759
 30
0.0
 10
28.8458
 20
9.4825
 30
0.0
 10
28.8458
 20
9.4825
 30
0.0
 10
28.8458
 20
9.4825
 30
0.0
 10
29.9621
 20
9.3994
 30
0.0
 10
32.5016
 20
10.7547
 30
0.0
 10
32.862
 20
12.2674
 30
0.0
 10
32.862
 20
12.2674
 30
0.0
 10
34.5493
 20
8.2548
 30
0.0
 10
40.8329
 20
9.0126
 30
0.0
 10
40.8101
 20
12.9405
 30
0.0
 10
40.8101
 20
12.9405
 30
0.0
 10
39.6014
 20
12.8157
 30
0.0
 10
38.5405
 20
13.2587
 30
0.0
 10
37.9383
 20
14.5836
 30
0.0
 10
37.9383
 20
14.5836
 30
0.0
 10
36.3782
 20
18.8051
 30
0.0
 10
40.3419
 20
22.9052
 30
0.0
 10
44.6542
 20
23.4889
 30
0.0
 10
44.6542
 20
23.4889
 30
0.0
 10
47.9343
 20
23.9329
 30
0.0
 10
51.3257
 20
22.4244
 30
0.0
 10
54.4289
 20
17.4114
 30
0.0
 10
54.4289
 20
17.4114
 30
0.0
 10
55.7225
 20
14.8758
 30
0.0
 10
55.705
 20
11.5854
 30
0.0
 10
55.2887
 20
10.5342
 30
0.0
 10
55.2887
 20
10.5342
 30
0.0
 10
54.6588
 20
9.9725
 30
0.0
 10
51.502
 20
11.1149
 30
0.0
 10
53.5396
 20
13.6014
 30
0.0
 10
53.5396
 20
13.6014
 30
0.0
 10
50.857
 20
15.0638
 30
0.0
 10
48.4103
 20
12.954
 30
0.0
 10
48.8348
 20
10.8926
 30
0.0
 10
48.8348
 20
10.8926
 30
0.0
 10
47.5926
 20
10.8599
 30
0.0
 10
44.5554
 20
10.3405
 30
0.0
 10
42.618
 20
8.1759
 30
0.0
 10
42.618
 20
8.1759
 30
0.0
 10
44.5554
 20
6.0111
 30
0.0
 10
47.5926
 20
5.4919
 30
0.0
 10
48.8348
 20
5.4592
 30
0.0
  0
SPLINE
  5
5D
330
1F
100
AcDbEntity
  8
layer 1
 62
     7
100
AcDbSpline
210
0.0
220
0.0
230
1.0
 70
    11
 71
     3
 72
    20
 73
    16
 74
     0
 42
0.0000000001
 43
0.0000000001
 12
1.0
 22
0.0
 32
0.0
 13
1.0
 23
0.0
 33
0.0
 40
0.0
 40
0.0
 40
0.0
 40
0.0
 40
0.2
 40
0.2
 40
0.2
 40
0.2
 40
0.4
 40
0.4
 40
0.4
 40
0.4
 40
0.6
 40
0.6
 40
0.6
 40
0.6
 40
1.0
 40
1.0
 40
1.0
 40
1.0
 10
36.0494
 20
-6.3578
 30
0.0
 10
37.5867
 20
-8.4603
 30
0.0
 10
39.0719
 20
-9.8614
 30
0.0
 10
41.7277
 20
-10.2715
 30
0.0
 10
41.7277
 20
-10.2715
 30
0.0
 10
33.4563
 20
-15.3527
 30
0.0
 10
35.4094
 20
-18.6957
 30
0.0
 10
36.5719
 20
-20.3719
 30
0.0
 10
36.5719
 20
-20.3719
 30
0.0
 10
35.4369
 20
-20.4738
 30
0.0
 10
34.1951
 20
-20.2962
 30
0.0
 10
32.7605
 20
-22.2048
 30
0.0
 10
32.7605
 20
-22.2048
 30
0.0
 10
31.0589
 20
-16.6089
 30
0.0
 10
36.2315
 20
-11.2444
 30
0.0
 10
36.0494
 20
-6.3578
 30
0.0
  0
SPLINE
  5
5E
330
1F
100
AcDbEntity
  8
layer 1
 62
     7
100
AcDbSpline
210
0.0
220
0.0
230
1.0
 70
    11
 71
     3
 72
    36
 73
    32
 74
     0
 42
0.0000000001
 43
0.0000000001
 12
1.0
 22
0.0
 32
0.0
 13
1.0
 23
0.0
 33
0.0
 40
0.0
 40
0.0
 40
0.0
 40
0.0
 40
0.1111111111111111
 40
0.1111111111111111
 40
0.1111111111111111
 40
0.1111111111111111
 40
0.2222222222222222
 40
0.2222222222222222
 40
0.2222222222222222
 40
0.2222222222222222
 40
0.3333333333333333
 40
0.3333333333333333
 40
0.3333333333333333
 40
0.3333333333333333
 40
0.4444444444444444
 40
0.4444444444444444
 40
0.4444444444444444
 40
0.4444444444444444
 40
0.5555555555555556
 40
0.5555555555555556
 40
0.5555555555555556
 40
0.5555555555555556
 40
0.6666666666666666
 40
0.6666666666666666
 40
0.6666666666666666
 40
0.6666666666666666
 40
0.7777777777777778
 40
0.7777777777777778
 40
0.7777777777777778
 40
0.7777777777777778
 40
1.0
 40
1.0
 40
1.0
 40
1.0
 10
38.8769
 20
-27.4488
 30
0.0
 10
33.0094
 20
-27.0538
 30
0.0
 10
35.7417
 20
-35.3724
 30
0.0
 10
40.9587
 20
-33.2602
 30
0.0
 10
40.9587
 20
-33.2602
 30
0.0
 10
45.6084
 20
-31.0625
 30
0.0
 10
45.5967
 20
-25.2759
 30
0.0
 10
42.0665
 20
-21.8241
 30
0.0
 10
42.0665
 20
-21.8241
 30
0.0
 10
45.1689
 20
-21.6573
 30
0.0
 10
46.4163
 20
-17.7439
 30
0.0
 10
44.3542
 20
-16.3759
 30
0.0
 10
44.3542
 20
-16.3759
 30
0.0
 10
42.7779
 20
-18.9624
 30
0.0
 10
40.2788
 20
-16.6383
 30
0.0
 10
42.5325
 20
-14.4676
 30
0.0
 10
42.5325
 20
-14.4676
 30
0.0
 10
49.2636
 20
-11.2165
 30
0.0
 10
52.3508
 20
-8.7996
 30
0.0
 10
56.7416
 20
-3.9318
 30
0.0
 10
56.7416
 20
-3.9318
 30
0.0
 10
55.9563
 20
-14.4655
 30
0.0
 10
51.5194
 20
-29.3253
 30
0.0
 10
44.4516
 20
-37.8308
 30
0.0
 10
44.4516
 20
-37.8308
 30
0.0
 10
39.4879
 20
-38.7854
 30
0.0
 10
35.3001
 20
-36.9672
 30
0.0
 10
33.402
 20
-32.5308
 30
0.0
 10
33.402
 20
-32.5308
 30
0.0
 10
31.0042
 20
-26.4327
 30
0.0
 10
37.6488
 20
-23.6677
 30
0.0
 10
38.8769
 20
-27.4488
 30
0.0
  0
SPLINE
  5
5F
330
1F
100
AcDbEntity
  8
layer 1
 62
     7
100
AcDbSpline
210
0.0
220
0.0
230
1.0
 70
    11
 71
     3
 72
    24
 73
    20
 74
     0
 42
0.0000000001
 43
0.0000000001
 12
1.0
 22
0.0
 32
0.0
 13
1.0
 23
0.0
 33
0.0
 40
0.0
 40
0.0
 40
0.0
 40
0.0
 40
0.1666666666666667
 40
0.1666666666666667
 40
0.1666666666666667
 40
0.1666666666666667
 40
0.3333333333333333
 40
0.3333333333333333
 40
0.3333333333333333
 40
0.3333333333333333
 40
0.5
 40
0.5
 40
0.5
 40
0.5
 40
0.6666666666666666
 40
0.6666666666666666
 40
0.6666666666666666
 40
0.6666666666666666
 40
1.0
 40
1.0
 40
1.0
 40
1.0
 10
65.0061
 20
-14.7421
 30
0.0
 10
65.0061
 20
-14.7421
 30
0.0
 10
62.9263
 20
-14.6607
 30
0.0
 10
61.1472
 20
-14.8325
 30
0.0
 10
61.1472
 20
-14.8325
 30
0.0
 10
63.3543
 20
1.2508
 30
0.0
 10
63.0759
 20
13.0613
 30
0.0
 10
61.1472
 20
31.1841
 30
0.0
 10
61.1472
 20
31.1841
 30
0.0
 10
62.9263
 20
31.0123
 30
0.0
 10
65.0061
 20
31.0937
 30
0.0
 10
65.0061
 20
31.0937
 30
0.0
 10
65.0061
 20
31.0937
 30
0.0
 10
65.0061
 20
31.0937
 30
0.0
 10
65.0061
 20
8.1757
 30
0.0
 10
65.0061
 20
8.1757
 30
0.0
 10
65.0061
 20
8.1757
 30
0.0
 10
65.0061
 20
8.1757
 30
0.0
 10
65.0061
 20
-14.7421
 30
0.0
 10
65.0061
 20
-14.7421
 30
0.0
  0
SPLINE
  5
60
330
1F
100
AcDbEntity
  8
layer 1
 62
     7
100
AcDbSpline
210
0.0
220
0.0
230
1.0
 70
    11
 71
     3
 72
    20
 73
    16
 74
     0
 42
0.0000000001
 43
0.0000000001
 12
1.0
 22
0.0
 32
0.0
 13
1.0
 23
0.0
 33
0.0
 40
0.0
 40
0.0
 40
0.0
 40
0.0
 40
0.2
 40
0.2
 40
0.2
 40
0.2
 40
0.4
 40
0.4
 40
0.4
 40
0.4
 40
0.6
 40
0.6
 40
0.6
 40
0.6
 40
1.0
 40
1.0
 40
1.0
 40
1.0
 10
65.0061
 20
-70.4753
 30
0.0
 10
65.0061
 20
-72.6147
 30
0.0
 10
65.0061
 20
-94.0902
 30
0.0
 10
65.0061
 20
-96.1276
 30
0.0
 10
65.0061
 20
-96.1276
 30
0.0
 10
62.5676
 20
-88.9036
 30
0.0
 10
57.4001
 20
-86.5771
 30
0.0
 10
49.6754
 20
-84.623
 30
0.0
 10
49.6754
 20
-84.623
 30
0.0
 10
60.2999
 20
-82.4399
 30
0.0
 10
62.509
 20
-76.3969
 30
0.0
 10
65.0061
 20
-70.4751
 30
0.0
 10
65.0061
 20
-70.4751
 30
0.0
 10
65.0061
 20
-70.4751
 30
0.0
 10
65.0061
 20
-70.4753
 30
0.0
 10
65.0061
 20
-70.4753
 30
0.0
  0
SPLINE
  5
61
330
1F
100
AcDbEntity
  8
layer 1
 62
     7
100
AcDbSpline
210
0.0
220
0.0
230
1.0
 70
    11
 71
     3
 72
    36
 73
    32
 74
     0
 42
0.0000000001
 43
0.0000000001
 12
1.0
 22
0.0
 32
0.0
 13
1.0
 23
0.0
 33
0.0
 40
0.0
 40
0.0
 40
0.0
 40
0.0
 40
0.1111111111111111
 40
0.1111111111111111
 40
0.1111111111111111
 40
0.1111111111111111
 40
0.2222222222222222
 40
0.2222222222222222
 40
0.2222222222222222
 40
0.2222222222222222
 40
0.3333333333333333
 40
0.3333333333333333
 40
0.3333333333333333
 40
0.3333333333333333
 40
0.4444444444444444
 40
0.4444444444444444
 40
0.4444444444444444
 40
0.4444444444444444
 40
0.5555555555555556
 40
0.5555555555555556
 40
0.5555555555555556
 40
0.5555555555555556
 40
0.6666666666666666
 40
0.6666666666666666
 40
0.6666666666666666
 40
0.6666666666666666
 40
0.7777777777777778
 40
0.7777777777777778
 40
0.7777777777777778
 40
0.7777777777777778
 40
1.0
 40
1.0
 40
1.0
 40
1.0
 10
22.5959
 20
12.2916
 30
0.0
 10
22.8815
 20
11.0442
 30
0.0
 10
24.1897
 20
9.5266
 30
0.0
 10
25.5774
 20
9.6503
 30
0.0
 10
25.5774
 20
9.6503
 30
0.0
 10
25.5774
 20
8.6672
 30
0.0
 10
25.5774
 20
7.6844
 30
0.0
 10
25.5774
 20
6.7013
 30
0.0
 10
25.5774
 20
6.7013
 30
0.0
 10
24.1897
 20
6.825
 30
0.0
 10
22.8815
 20
5.3074
 30
0.0
 10
22.5959
 20
4.06
 30
0.0
 10
22.5959
 20
4.06
 30
0.0
 10
21.6448
 20
4.0585
 30
0.0
 10
20.6939
 20
4.0594
 30
0.0
 10
19.7428
 20
4.06
 30
0.0
 10
19.7428
 20
4.06
 30
0.0
 10
19.4572
 20
5.3074
 30
0.0
 10
18.149
 20
6.825
 30
0.0
 10
16.7613
 20
6.7013
 30
0.0
 10
16.7613
 20
6.7013
 30
0.0
 10
16.7613
 20
7.6844
 30
0.0
 10
16.7613
 20
8.6672
 30
0.0
 10
16.7613
 20
9.6503
 30
0.0
 10
16.7613
 20
9.6503
 30
0.0
 10
18.149
 20
9.5266
 30
0.0
 10
19.4572
 20
11.0442
 30
0.0
 10
19.7428
 20
12.2916
 30
0.0
 10
19.7428
 20
12.2916
 30
0.0
 10
20.6939
 20
12.2932
 30
0.0
 10
21.6448
 20
12.2922
 30
0.0
 10
22.5959
 20
12.2916
 30
0.0
  0
SPLINE
  5
62
330
1F
100
AcDbEntity
  8
layer 1
 62
     7
100
AcDbSpline
210
0.0
220
0.0
230
1.0
 70
    11
 71
     3
 72
    16
 73
    12
 74
     0
 42
0.0000000001
 43
0.0000000001
 12
1.0
 22
0.0
 32
0.0
 13
1.0
 23
0.0
 33
0.0
 40
0.0
 40
0.0
 40
0.0
 40
0.0
 40
0.25
 40
0.25
 40
0.25
 40
0.25
 40
0.5
 40
0.5
 40
0.5
 40
0.5
 40
1.0
 40
1.0
 40
1.0
 40
1.0
 10
58.668
 20
-24.3978
 30
0.0
 10
59.1195
 20
-26.3657
 30
0.0
 10
59.7657
 20
-27.8192
 30
0.0
 10
58.4272
 20
-32.2858
 30
0.0
 10
58.4272
 20
-32.2858
 30
0.0
 10
55.8065
 20
-36.412
 30
0.0
 10
54.3574
 20
-35.691
 30
0.0
 10
53.0884
 20
-36.141
 30
0.0
 10
53.0884
 20
-36.141
 30
0.0
 10
55.3461
 20
-32.7718
 30
0.0
 10
57.3796
 20
-28.5437
 30
0.0
 10
58.668
 20
-24.3978
 30
0.0
  0
SPLINE
  5
63
330
1F
100
AcDbEntity
  8
layer 1
 62
     7
100
AcDbSpline
210
0.0
220
0.0
230
1.0
 70
    11
 71
     3
 72
    40
 73
    36
 74
     0
 42
0.0000000001
 43
0.0000000001
 12
1.0
 22
0.0
 32
0.0
 13
1.0
 23
0.0
 33
0.0
 40
0.0
 40
0.0
 40
0.0
 40
0.0
 40
0.1
 40
0.1
 40
0.1
 40
0.1
 40
0.2
 40
0.2
 40
0.2
 40
0.2
 40
0.3
 40
0.3
 40
0.3
 40
0.3
 40
0.4
 40
0.4
 40
0.4
 40
0.4
 40
0.5
 40
0.5
 40
0.5
 40
0.5
 40
0.6
 40
0.6
 40
0.6
 40
0.6
 40
0.7
 40
0.7
 40
0.7
 40
0.7
 40
0.8
 40
0.8
 40
0.8
 40
0.8
 40
1.0
 40
1.0
 40
1.0
 40
1.0
 10
65.0061
 20
-98.9051
 30
0.0
 10
65.0061
 20
-101.0445
 30
0.0
 10
65.0061
 20
-106.8974
 30
0.0
 10
65.0061
 20
-108.9348
 30
0.0
 10
65.0061
 20
-108.9348
 30
0.0
 10
63.2423
 20
-108.9348
 30
0.0
 10
41.083
 20
-108.9348
 30
0.0
 10
39.0207
 20
-108.9348
 30
0.0
 10
39.0207
 20
-108.9348
 30
0.0
 10
38.956
 20
-108.5541
 30
0.0
 10
38.9897
 20
-108.0266
 30
0.0
 10
39.3384
 20
-107.5087
 30
0.0
 10
39.3384
 20
-107.5087
 30
0.0
 10
47.6526
 20
-105.9699
 30
0.0
 10
52.6797
 20
-96.3615
 30
0.0
 10
49.6731
 20
-87.7366
 30
0.0
 10
49.6731
 20
-87.7366
 30
0.0
 10
55.0526
 20
-90.292
 30
0.0
 10
56.6676
 20
-91.4266
 30
0.0
 10
58.194
 20
-92.8634
 30
0.0
 10
58.194
 20
-92.8634
 30
0.0
 10
60.5179
 20
-94.8125
 30
0.0
 10
57.4186
 20
-97.8353
 30
0.0
 10
56.8406
 20
-93.8652
 30
0.0
 10
56.8406
 20
-93.8652
 30
0.0
 10
46.9199
 20
-94.7962
 30
0.0
 10
53.5123
 20
-109.3535
 30
0.0
 10
62.8513
 20
-102.4153
 30
0.0
 10
62.8513
 20
-102.4153
 30
0.0
 10
63.9037
 20
-101.6335
 30
0.0
 10
64.539
 20
-100.6255
 30
0.0
 10
65.0063
 20
-98.9051
 30
0.0
 10
65.0063
 20
-98.9051
 30
0.0
 10
65.0063
 20
-98.9051
 30
0.0
 10
65.0061
 20
-98.9051
 30
0.0
 10
65.0061
 20
-98.9051
 30
0.0
  0
SPLINE
  5
64
330
1F
100
AcDbEntity
  8
layer 1
 62
     7
100
AcDbSpline
210
0.0
220
0.0
230
1.0
 70
    11
 71
     3
 72
    48
 73
    44
 74
     0
 42
0.0000000001
 43
0.0000000001
 12
1.0
 22
0.0
 32
0.0
 13
1.0
 23
0.0
 33
0.0
 40
0.0
 40
0.0
 40
0.0
 40
0.0
 40
0.0833333333333333
 40
0.0833333333333333
 40
0.0833333333333333
 40
0.0833333333333333
 40
0.1666666666666667
 40
0.1666666666666667
 40
0.1666666666666667
 40
0.1666666666666667
 40
0.25
 40
0.25
 40
0.25
 40
0.25
 40
0.3333333333333333
 40
0.3333333333333333
 40
0.3333333333333333
 40
0.3333333333333333
 40
0.4166666666666667
 40
0.4166666666666667
 40
0.4166666666666667
 40
0.4166666666666667
 40
0.5
 40
0.5
 40
0.5
 40
0.5
 40
0.5833333333333334
 40
0.5833333333333334
 40
0.5833333333333334
 40
0.5833333333333334
 40
0.6666666666666666
 40
0.6666666666666666
 40
0.6666666666666666
 40
0.6666666666666666
 40
0.75
 40
0.75
 40
0.75
 40
0.75
 40
0.8333333333333334
 40
0.8333333333333334
 40
0.8333333333333334
 40
0.8333333333333334
 40
1.0
 40
1.0
 40
1.0
 40
1.0
 10
24.4767
 20
-76.5913
 30
0.0
 10
25.6623
 20
-76.8282
 30
0.0
 10
27.8369
 20
-76.2978
 30
0.0
 10
28.2553
 20
-74.4034
 30
0.0
 10
28.2553
 20
-74.4034
 30
0.0
 10
29.5458
 20
-76.1768
 30
0.0
 10
35.5569
 20
-80.4094
 30
0.0
 10
35.0412
 20
-82.4592
 30
0.0
 10
35.0412
 20
-82.4592
 30
0.0
 10
28.7806
 20
-82.1754
 30
0.0
 10
24.0642
 20
-86.114
 30
0.0
 10
22.5772
 20
-91.8815
 30
0.0
 10
22.5772
 20
-91.8815
 30
0.0
 10
22.5772
 20
-91.8815
 30
0.0
 10
21.1695
 20
-91.8807
 30
0.0
 10
21.1695
 20
-91.8807
 30
0.0
 10
21.1695
 20
-91.8807
 30
0.0
 10
21.1695
 20
-91.8807
 30
0.0
 10
19.7617
 20
-91.8815
 30
0.0
 10
19.7617
 20
-91.8815
 30
0.0
 10
19.7617
 20
-91.8815
 30
0.0
 10
18.2747
 20
-86.1138
 30
0.0
 10
13.5584
 20
-82.1752
 30
0.0
 10
7.2977
 20
-82.4592
 30
0.0
 10
7.2977
 20
-82.4592
 30
0.0
 10
6.7821
 20
-80.4094
 30
0.0
 10
12.7931
 20
-76.1768
 30
0.0
 10
14.0836
 20
-74.4034
 30
0.0
 10
14.0836
 20
-74.4034
 30
0.0
 10
14.5021
 20
-76.2976
 30
0.0
 10
16.6764
 20
-76.828
 30
0.0
 10
17.8623
 20
-76.5913
 30
0.0
 10
17.8623
 20
-76.5913
 30
0.0
 10
18.054
 20
-79.3235
 30
0.0
 10
18.3542
 20
-81.6463
 30
0.0
 10
21.1697
 20
-84.1255
 30
0.0
 10
21.1697
 20
-84.1255
 30
0.0
 10
23.9849
 20
-81.6463
 30
0.0
 10
24.2854
 20
-79.3235
 30
0.0
 10
24.4771
 20
-76.5913
 30
0.0
 10
24.4771
 20
-76.5913
 30
0.0
 10
24.4771
 20
-76.5913
 30
0.0
 10
24.4767
 20
-76.5913
 30
0.0
 10
24.4767
 20
-76.5913
 30
0.0
  0
SPLINE
  5
65
330
1F
100
AcDbEntity
  8
layer 1
 62
     7
100
AcDbSpline
210
0.0
220
0.0
230
1.0
 70
    11
 71
     3
 72
    20
 73
    16
 74
     0
 42
0.0000000001
 43
0.0000000001
 12
1.0
 22
0.0
 32
0.0
 13
1.0
 23
0.0
 33
0.0
 40
0.0
 40
0.0
 40
0.0
 40
0.0
 40
0.2
 40
0.2
 40
0.2
 40
0.2
 40
0.4
 40
0.4
 40
0.4
 40
0.4
 40
0.6
 40
0.6
 40
0.6
 40
0.6
 40
1.0
 40
1.0
 40
1.0
 40
1.0
 10
35.2077
 20
-67.0987
 30
0.0
 10
35.0217
 20
-65.6421
 30
0.0
 10
36.3291
 20
-64.9228
 30
0.0
 10
36.5964
 20
-66.6734
 30
0.0
 10
36.5964
 20
-66.6734
 30
0.0
 10
37.3057
 20
-68.9103
 30
0.0
 10
37.4861
 20
-69.3938
 30
0.0
 10
38.815
 20
-71.6623
 30
0.0
 10
38.815
 20
-71.6623
 30
0.0
 10
37.5302
 20
-70.891
 30
0.0
 10
35.5489
 20
-68.9538
 30
0.0
 10
35.2076
 20
-67.0987
 30
0.0
 10
35.2076
 20
-67.0987
 30
0.0
 10
35.2076
 20
-67.0987
 30
0.0
 10
35.2077
 20
-67.0987
 30
0.0
 10
35.2077
 20
-67.0987
 30
0.0
  0
SPLINE
  5
66
330
1F
100
AcDbEntity
  8
layer 1
 62
     7
100
AcDbSpline
210
0.0
220
0.0
230
1.0
 70
    11
 71
     3
 72
    20
 73
    16
 74
     0
 42
0.0000000001
 43
0.0000000001
 12
1.0
 22
0.0
 32
0.0
 13
1.0
 23
0.0
 33
0.0
 40
0.0
 40
0.0
 40
0.0
 40
0.0
 40
0.2
 40
0.2
 40
0.2
 40
0.2
 40
0.4
 40
0.4
 40
0.4
 40
0.4
 40
0.6
 40
0.6
 40
0.6
 40
0.6
 40
1.0
 40
1.0
 40
1.0
 40
1.0
 10
51.1535
 20
-69.4055
 30
0.0
 10
51.6962
 20
-68.1273
 30
0.0
 10
50.6643
 20
-67.7484
 30
0.0
 10
49.7648
 20
-68.9802
 30
0.0
 10
49.7648
 20
-68.9802
 30
0.0
 10
47.9367
 20
-70.8604
 30
0.0
 10
45.746
 20
-70.3225
 30
0.0
 10
44.0604
 20
-70.2563
 30
0.0
 10
44.0604
 20
-70.2563
 30
0.0
 10
45.7506
 20
-72.3223
 30
0.0
 10
50.3261
 20
-71.374
 30
0.0
 10
51.1537
 20
-69.4055
 30
0.0
 10
51.1537
 20
-69.4055
 30
0.0
 10
51.1537
 20
-69.4055
 30
0.0
 10
51.1535
 20
-69.4055
 30
0.0
 10
51.1535
 20
-69.4055
 30
0.0
  0
SPLINE
  5
67
330
1F
100
AcDbEntity
  8
layer 1
 62
     7
100
AcDbSpline
210
0.0
220
0.0
230
1.0
 70
    11
 71
     3
 72
    16
 73
    12
 74
     0
 42
0.0000000001
 43
0.0000000001
 12
1.0
 22
0.0
 32
0.0
 13
1.0
 23
0.0
 33
0.0
 40
0.0
 40
0.0
 40
0.0
 40
0.0
 40
0.25
 40
0.25
 40
0.25
 40
0.25
 40
0.5
 40
0.5
 40
0.5
 40
0.5
 40
1.0
 40
1.0
 40
1.0
 40
1.0
 10
65.0061
 20
-16.0994
 30
0.0
 10
65.0061
 20
-16.0994
 30
0.0
 10
63.4369
 20
-17.0238
 30
0.0
 10
63.4071
 20
-19.6079
 30
0.0
 10
63.4071
 20
-19.6079
 30
0.0
 10
63.2463
 20
-22.5212
 30
0.0
 10
65.0061
 20
-23.2303
 30
0.0
 10
65.0061
 20
-23.2303
 30
0.0
 10
65.0061
 20
-23.2303
 30
0.0
 10
65.002
 20
-20.7563
 30
0.0
 10
64.9619
 20
-17.4152
 30
0.0
 10
65.0061
 20
-16.0994
 30
0.0
  0
SPLINE
  5
68
330
1F
100
AcDbEntity
  8
layer 1
 62
     7
100
AcDbSpline
210
0.0
220
0.0
230
1.0
 70
    11
 71
     3
 72
    40
 73
    36
 74
     0
 42
0.0000000001
 43
0.0000000001
 12
1.0
 22
0.0
 32
0.0
 13
1.0
 23
0.0
 33
0.0
 40
0.0
 40
0.0
 40
0.0
 40
0.0
 40
0.1
 40
0.1
 40
0.1
 40
0.1
 40
0.2
 40
0.2
 40
0.2
 40
0.2
 40
0.3
 40
0.3
 40
0.3
 40
0.3
 40
0.4
 40
0.4
 40
0.4
 40
0.4
 40
0.5
 40
0.5
 40
0.5
 40
0.5
 40
0.6
 40
0.6
 40
0.6
 40
0.6
 40
0.7
 40
0.7
 40
0.7
 40
0.7
 40
0.8
 40
0.8
 40
0.8
 40
0.8
 40
1.0
 40
1.0
 40
1.0
 40
1.0
 10
22.9224
 20
-60.3705
 30
0.0
 10
23.202
 20
-65.0261
 30
0.0
 10
24.623
 20
-68.0143
 30
0.0
 10
24.508
 20
-70.0808
 30
0.0
 10
24.508
 20
-70.0808
 30
0.0
 10
24.4155
 20
-72.3389
 30
0.0
 10
23.1844
 20
-72.0211
 30
0.0
 10
22.7198
 20
-71.5277
 30
0.0
 10
22.7198
 20
-71.5277
 30
0.0
 10
22.2947
 20
-71.0763
 30
0.0
 10
22.7079
 20
-70.5242
 30
0.0
 10
21.1695
 20
-70.7073
 30
0.0
 10
21.1695
 20
-70.7073
 30
0.0
 10
19.631
 20
-70.5244
 30
0.0
 10
20.0442
 20
-71.0763
 30
0.0
 10
19.6191
 20
-71.5277
 30
0.0
 10
19.6191
 20
-71.5277
 30
0.0
 10
19.1545
 20
-72.0211
 30
0.0
 10
17.9232
 20
-72.3389
 30
0.0
 10
17.8309
 20
-70.0808
 30
0.0
 10
17.8309
 20
-70.0808
 30
0.0
 10
17.7161
 20
-68.0143
 30
0.0
 10
19.1369
 20
-65.0261
 30
0.0
 10
19.4165
 20
-60.3705
 30
0.0
 10
19.4165
 20
-60.3705
 30
0.0
 10
19.4822
 20
-57.4769
 30
0.0
 10
20.4954
 20
-57.4239
 30
0.0
 10
21.1697
 20
-57.3793
 30
0.0
 10
21.1697
 20
-57.3793
 30
0.0
 10
21.8439
 20
-57.4237
 30
0.0
 10
22.8572
 20
-57.4767
 30
0.0
 10
22.9228
 20
-60.3705
 30
0.0
 10
22.9228
 20
-60.3705
 30
0.0
 10
22.9228
 20
-60.3705
 30
0.0
 10
22.9224
 20
-60.3705
 30
0.0
 10
22.9224
 20
-60.3705
 30
0.0
  0
SPLINE
  5
69
330
1F
100
AcDbEntity
  8
layer 1
 62
     7
100
AcDbSpline
210
0.0
220
0.0
230
1.0
 70
    11
 71
     3
 72
    32
 73
    28
 74
     0
 42
0.0000000001
 43
0.0000000001
 12
1.0
 22
0.0
 32
0.0
 13
1.0
 23
0.0
 33
0.0
 40
0.0
 40
0.0
 40
0.0
 40
0.0
 40
0.125
 40
0.125
 40
0.125
 40
0.125
 40
0.25
 40
0.25
 40
0.25
 40
0.25
 40
0.375
 40
0.375
 40
0.375
 40
0.375
 40
0.5
 40
0.5
 40
0.5
 40
0.5
 40
0.625
 40
0.625
 40
0.625
 40
0.625
 40
0.75
 40
0.75
 40
0.75
 40
0.75
 40
1.0
 40
1.0
 40
1.0
 40
1.0
 10
31.7059
 20
-89.9482
 30
0.0
 10
30.1312
 20
-90.2885
 30
0.0
 10
29.0416
 20
-91.9696
 30
0.0
 10
28.8937
 20
-92.6164
 30
0.0
 10
28.8937
 20
-92.6164
 30
0.0
 10
28.0584
 20
-96.2692
 30
0.0
 10
29.642
 20
-99.3074
 30
0.0
 10
32.0585
 20
-100.6533
 30
0.0
 10
32.0585
 20
-100.6533
 30
0.0
 10
38.8179
 20
-104.4186
 30
0.0
 10
43.1954
 20
-99.6052
 30
0.0
 10
43.767
 20
-98.9319
 30
0.0
 10
43.767
 20
-98.9319
 30
0.0
 10
48.1219
 20
-93.404
 30
0.0
 10
46.1298
 20
-83.9484
 30
0.0
 10
39.6548
 20
-84.3789
 30
0.0
 10
39.6548
 20
-84.3789
 30
0.0
 10
47.5246
 20
-94.7447
 30
0.0
 10
33.9977
 20
-101.4803
 30
0.0
 10
32.1483
 20
-92.5353
 30
0.0
 10
32.1483
 20
-92.5353
 30
0.0
 10
35.0507
 20
-91.9148
 30
0.0
 10
34.6461
 20
-89.3939
 30
0.0
 10
31.7059
 20
-89.948
 30
0.0
 10
31.7059
 20
-89.948
 30
0.0
 10
31.7059
 20
-89.948
 30
0.0
 10
31.7059
 20
-89.9482
 30
0.0
 10
31.7059
 20
-89.9482
 30
0.0
  0
SPLINE
  5
6A
330
1F
100
AcDbEntity
  8
layer 1
 62
     7
100
AcDbSpline
210
0.0
220
0.0
230
1.0
 70
    11
 71
     3
 72
    96
 73
    92
 74
     0
 42
0.0000000001
 43
0.0000000001
 12
1.0
 22
0.0
 32
0.0
 13
1.0
 23
0.0
 33
0.0
 40
0.0
 40
0.0
 40
0.0
 40
0.0
 40
0.0416666666666667
 40
0.0416666666666667
 40
0.0416666666666667
 40
0.0416666666666667
 40
0.0833333333333333
 40
0.0833333333333333
 40
0.0833333333333333
 40
0.0833333333333333
 40
0.125
 40
0.125
 40
0.125
 40
0.125
 40
0.1666666666666667
 40
0.1666666666666667
 40
0.1666666666666667
 40
0.1666666666666667
 40
0.2083333333333333
 40
0.2083333333333333
 40
0.2083333333333333
 40
0.2083333333333333
 40
0.25
 40
0.25
 40
0.25
 40
0.25
 40
0.2916666666666667
 40
0.2916666666666667
 40
0.2916666666666667
 40
0.2916666666666667
 40
0.3333333333333333
 40
0.3333333333333333
 40
0.3333333333333333
 40
0.3333333333333333
 40
0.375
 40
0.375
 40
0.375
 40
0.375
 40
0.4166666666666667
 40
0.4166666666666667
 40
0.4166666666666667
 40
0.4166666666666667
 40
0.4583333333333333
 40
0.4583333333333333
 40
0.4583333333333333
 40
0.4583333333333333
 40
0.5
 40
0.5
 40
0.5
 40
0.5
 40
0.5416666666666666
 40
0.5416666666666666
 40
0.5416666666666666
 40
0.5416666666666666
 40
0.5833333333333334
 40
0.5833333333333334
 40
0.5833333333333334
 40
0.5833333333333334
 40
0.625
 40
0.625
 40
0.625
 40
0.625
 40
0.6666666666666666
 40
0.6666666666666666
 40
0.6666666666666666
 40
0.6666666666666666
 40
0.7083333333333334
 40
0.7083333333333334
 40
0.7083333333333334
 40
0.7083333333333334
 40
0.75
 40
0.75
 40
0.75
 40
0.75
 40
0.7916666666666666
 40
0.7916666666666666
 40
0.7916666666666666
 40
0.7916666666666666
 40
0.8333333333333334
 40
0.8333333333333334
 40
0.8333333333333334
 40
0.8333333333333334
 40
0.875
 40
0.875
 40
0.875
 40
0.875
 40
0.9166666666666666
 40
0.9166666666666666
 40
0.9166666666666666
 40
0.9166666666666666
 40
1.0
 40
1.0
 40
1.0
 40
1.0
 10
20.2221
 20
66.264
 30
0.0
 10
20.2562
 20
63.9776
 30
0.0
 10
20.2901
 20
62.8171
 30
0.0
 10
20.3456
 20
58.5559
 30
0.0
 10
20.3456
 20
58.5559
 30
0.0
 10
20.4619
 20
49.643
 30
0.0
 10
19.3206
 20
44.7036
 30
0.0
 10
15.8141
 20
37.1997
 30
0.0
 10
15.8141
 20
37.1997
 30
0.0
 10
14.6433
 20
34.6941
 30
0.0
 10
13.9616
 20
32.9209
 30
0.0
 10
13.7491
 20
31.7703
 30
0.0
 10
13.7491
 20
31.7703
 30
0.0
 10
12.9955
 20
29.0715
 30
0.0
 10
16.8607
 20
28.9685
 30
0.0
 10
15.7317
 20
32.3811
 30
0.0
 10
15.7317
 20
32.3811
 30
0.0
 10
17.5774
 20
32.3955
 30
0.0
 10
18.7157
 20
31.0246
 30
0.0
 10
18.7204
 20
29.0663
 30
0.0
 10
18.7204
 20
29.0663
 30
0.0
 10
18.6076
 20
26.6108
 30
0.0
 10
14.8095
 20
24.0552
 30
0.0
 10
11.4754
 20
27.7764
 30
0.0
 10
11.4754
 20
27.7764
 30
0.0
 10
11.4754
 20
27.7764
 30
0.0
 10
10.9439
 20
25.29
 30
0.0
 10
10.9439
 20
25.29
 30
0.0
 10
10.9439
 20
25.29
 30
0.0
 10
9.94
 20
20.5943
 30
0.0
 10
10.716
 20
15.943
 30
0.0
 10
13.0337
 20
14.3794
 30
0.0
 10
13.0337
 20
14.3794
 30
0.0
 10
16.5013
 20
12.0909
 30
0.0
 10
17.6859
 20
17.8515
 30
0.0
 10
13.6772
 20
17.2012
 30
0.0
 10
13.6772
 20
17.2012
 30
0.0
 10
13.8841
 20
20.0373
 30
0.0
 10
19.4334
 20
20.5766
 30
0.0
 10
19.8474
 20
16.6645
 30
0.0
 10
19.8474
 20
16.6645
 30
0.0
 10
20.7288
 20
16.645
 30
0.0
 10
21.6099
 20
16.6555
 30
0.0
 10
22.4913
 20
16.6645
 30
0.0
 10
22.4913
 20
16.6645
 30
0.0
 10
22.9053
 20
20.5764
 30
0.0
 10
28.4546
 20
20.0371
 30
0.0
 10
28.6615
 20
17.2012
 30
0.0
 10
28.6615
 20
17.2012
 30
0.0
 10
24.6528
 20
17.8515
 30
0.0
 10
25.8375
 20
12.0909
 30
0.0
 10
29.305
 20
14.3794
 30
0.0
 10
29.305
 20
14.3794
 30
0.0
 10
31.6227
 20
15.943
 30
0.0
 10
32.3987
 20
20.5943
 30
0.0
 10
31.3948
 20
25.29
 30
0.0
 10
31.3948
 20
25.29
 30
0.0
 10
31.3948
 20
25.29
 30
0.0
 10
30.8633
 20
27.7764
 30
0.0
 10
30.8633
 20
27.7764
 30
0.0
 10
30.8633
 20
27.7764
 30
0.0
 10
27.5294
 20
24.0552
 30
0.0
 10
23.7311
 20
26.6108
 30
0.0
 10
23.6183
 20
29.0663
 30
0.0
 10
23.6183
 20
29.0663
 30
0.0
 10
23.623
 20
31.0246
 30
0.0
 10
24.7613
 20
32.3955
 30
0.0
 10
26.607
 20
32.3811
 30
0.0
 10
26.607
 20
32.3811
 30
0.0
 10
25.4782
 20
28.9687
 30
0.0
 10
29.3432
 20
29.0717
 30
0.0
 10
28.5896
 20
31.7703
 30
0.0
 10
28.5896
 20
31.7703
 30
0.0
 10
28.3771
 20
32.9209
 30
0.0
 10
27.6954
 20
34.6941
 30
0.0
 10
26.5246
 20
37.1997
 30
0.0
 10
26.5246
 20
37.1997
 30
0.0
 10
23.0181
 20
44.7036
 30
0.0
 10
21.8768
 20
49.643
 30
0.0
 10
21.9931
 20
58.5559
 30
0.0
 10
21.9931
 20
58.5559
 30
0.0
 10
22.0487
 20
62.8171
 30
0.0
 10
22.0826
 20
63.9774
 30
0.0
 10
22.1167
 20
66.264
 30
0.0
 10
22.1167
 20
66.264
 30
0.0
 10
21.4851
 20
66.2757
 30
0.0
 10
20.8537
 20
66.2692
 30
0.0
 10
20.2223
 20
66.264
 30
0.0
 10
20.2223
 20
66.264
 30
0.0
 10
20.2223
 20
66.264
 30
0.0
 10
20.2221
 20
66.264
 30
0.0
 10
20.2221
 20
66.264
 30
0.0
  0
SPLINE
  5
6B
330
1F
100
AcDbEntity
  8
layer 1
 62
     7
100
AcDbSpline
210
0.0
220
0.0
230
1.0
 70
    11
 71
     3
 72
    28
 73
    24
 74
     0
 42
0.0000000001
 43
0.0000000001
 12
1.0
 22
0.0
 32
0.0
 13
1.0
 23
0.0
 33
0.0
 40
0.0
 40
0.0
 40
0.0
 40
0.0
 40
0.1428571428571428
 40
0.1428571428571428
 40
0.1428571428571428
 40
0.1428571428571428
 40
0.2857142857142857
 40
0.2857142857142857
 40
0.2857142857142857
 40
0.2857142857142857
 40
0.4285714285714285
 40
0.4285714285714285
 40
0.4285714285714285
 40
0.4285714285714285
 40
0.5714285714285714
 40
0.5714285714285714
 40
0.5714285714285714
 40
0.5714285714285714
 40
0.7142857142857143
 40
0.7142857142857143
 40
0.7142857142857143
 40
0.7142857142857143
 40
1.0
 40
1.0
 40
1.0
 40
1.0
 10
16.5882
 20
60.8218
 30
0.0
 10
13.6213
 20
63.4729
 30
0.0
 10
10.1321
 20
60.4968
 30
0.0
 10
11.7534
 20
57.0681
 30
0.0
 10
11.7534
 20
57.0681
 30
0.0
 10
13.1576
 20
58.4236
 30
0.0
 10
16.2227
 20
56.9999
 30
0.0
 10
15.8993
 20
53.507
 30
0.0
 10
15.8993
 20
53.507
 30
0.0
 10
15.7199
 20
48.9522
 30
0.0
 10
15.014
 20
47.5887
 30
0.0
 10
13.2396
 20
42.375
 30
0.0
 10
13.2396
 20
42.375
 30
0.0
 10
14.1494
 20
53.3011
 30
0.0
 10
8.7565
 20
58.8442
 30
0.0
 10
1.5347
 20
58.2407
 30
0.0
 10
1.5347
 20
58.2407
 30
0.0
 10
4.9334
 20
62.3932
 30
0.0
 10
11.5056
 20
65.8471
 30
0.0
 10
16.4654
 20
66.3129
 30
0.0
 10
16.4654
 20
66.3129
 30
0.0
 10
16.5839
 20
64.9141
 30
0.0
 10
16.5798
 20
62.8763
 30
0.0
 10
16.5882
 20
60.8218
 30
0.0
  0
SPLINE
  5
6C
330
1F
100
AcDbEntity
  8
layer 1
 62
     7
100
AcDbSpline
210
0.0
220
0.0
230
1.0
 70
    11
 71
     3
 72
    20
 73
    16
 74
     0
 42
0.0000000001
 43
0.0000000001
 12
1.0
 22
0.0
 32
0.0
 13
1.0
 23
0.0
 33
0.0
 40
0.0
 40
0.0
 40
0.0
 40
0.0
 40
0.2
 40
0.2
 40
0.2
 40
0.2
 40
0.4
 40
0.4
 40
0.4
 40
0.4
 40
0.6
 40
0.6
 40
0.6
 40
0.6
 40
1.0
 40
1.0
 40
1.0
 40
1.0
 10
6.2892
 20
22.7096
 30
0.0
 10
4.7519
 20
24.8121
 30
0.0
 10
3.2666
 20
26.2132
 30
0.0
 10
0.6108
 20
26.6233
 30
0.0
 10
0.6108
 20
26.6233
 30
0.0
 10
8.8822
 20
31.7045
 30
0.0
 10
6.9291
 20
35.0475
 30
0.0
 10
5.7667
 20
36.7237
 30
0.0
 10
5.7667
 20
36.7237
 30
0.0
 10
6.9017
 20
36.8256
 30
0.0
 10
8.1434
 20
36.648
 30
0.0
 10
9.5781
 20
38.5566
 30
0.0
 10
9.5781
 20
38.5566
 30
0.0
 10
11.2796
 20
32.9607
 30
0.0
 10
6.107
 20
27.5962
 30
0.0
 10
6.2892
 20
22.7096
 30
0.0
  0
SPLINE
  5
6D
330
1F
100
AcDbEntity
  8
layer 1
 62
     7
100
AcDbSpline
210
0.0
220
0.0
230
1.0
 70
    11
 71
     3
 72
    36
 73
    32
 74
     0
 42
0.0000000001
 43
0.0000000001
 12
1.0
 22
0.0
 32
0.0
 13
1.0
 23
0.0
 33
0.0
 40
0.0
 40
0.0
 40
0.0
 40
0.0
 40
0.1111111111111111
 40
0.1111111111111111
 40
0.1111111111111111
 40
0.1111111111111111
 40
0.2222222222222222
 40
0.2222222222222222
 40
0.2222222222222222
 40
0.2222222222222222
 40
0.3333333333333333
 40
0.3333333333333333
 40
0.3333333333333333
 40
0.3333333333333333
 40
0.4444444444444444
 40
0.4444444444444444
 40
0.4444444444444444
 40
0.4444444444444444
 40
0.5555555555555556
 40
0.5555555555555556
 40
0.5555555555555556
 40
0.5555555555555556
 40
0.6666666666666666
 40
0.6666666666666666
 40
0.6666666666666666
 40
0.6666666666666666
 40
0.7777777777777778
 40
0.7777777777777778
 40
0.7777777777777778
 40
0.7777777777777778
 40
1.0
 40
1.0
 40
1.0
 40
1.0
 10
3.4618
 20
43.8007
 30
0.0
 10
9.3293
 20
43.4056
 30
0.0
 10
6.597
 20
51.7242
 30
0.0
 10
1.38
 20
49.612
 30
0.0
 10
1.38
 20
49.612
 30
0.0
 10
-3.2697
 20
47.4143
 30
0.0
 10
-3.258
 20
41.6277
 30
0.0
 10
0.2723
 20
38.1759
 30
0.0
 10
0.2723
 20
38.1759
 30
0.0
 10
-2.8302
 20
38.0091
 30
0.0
 10
-4.0776
 20
34.0957
 30
0.0
 10
-2.0155
 20
32.7277
 30
0.0
 10
-2.0155
 20
32.7277
 30
0.0
 10
-0.4392
 20
35.3142
 30
0.0
 10
2.0599
 20
32.9901
 30
0.0
 10
-0.1937
 20
30.8194
 30
0.0
 10
-0.1937
 20
30.8194
 30
0.0
 10
-6.9249
 20
27.5683
 30
0.0
 10
-10.0121
 20
25.1514
 30
0.0
 10
-14.4029
 20
20.2836
 30
0.0
 10
-14.4029
 20
20.2836
 30
0.0
 10
-13.6176
 20
30.8173
 30
0.0
 10
-9.1806
 20
45.6771
 30
0.0
 10
-2.1129
 20
54.1826
 30
0.0
 10
-2.1129
 20
54.1826
 30
0.0
 10
2.8509
 20
55.1372
 30
0.0
 10
7.0386
 20
53.319
 30
0.0
 10
8.9367
 20
48.8826
 30
0.0
 10
8.9367
 20
48.8826
 30
0.0
 10
11.3345
 20
42.7845
 30
0.0
 10
4.6899
 20
40.0195
 30
0.0
 10
3.4618
 20
43.8007
 30
0.0
  0
SPLINE
  5
6E
330
1F
100
AcDbEntity
  8
layer 1
 62
     7
100
AcDbSpline
210
0.0
220
0.0
230
1.0
 70
    11
 71
     3
 72
    20
 73
    16
 74
     0
 42
0.0000000001
 43
0.0000000001
 12
1.0
 22
0.0
 32
0.0
 13
1.0
 23
0.0
 33
0.0
 40
0.0
 40
0.0
 40
0.0
 40
0.0
 40
0.2
 40
0.2
 40
0.2
 40
0.2
 40
0.4
 40
0.4
 40
0.4
 40
0.4
 40
0.6
 40
0.6
 40
0.6
 40
0.6
 40
1.0
 40
1.0
 40
1.0
 40
1.0
 10
-18.8087
 20
31.1841
 30
0.0
 10
-20.5877
 20
31.0123
 30
0.0
 10
-22.6676
 20
31.0937
 30
0.0
 10
-22.6676
 20
31.0937
 30
0.0
 10
-22.6676
 20
31.0937
 30
0.0
 10
-22.6676
 20
31.0937
 30
0.0
 10
-22.6676
 20
-14.7421
 30
0.0
 10
-22.6676
 20
-14.7421
 30
0.0
 10
-22.6676
 20
-14.7421
 30
0.0
 10
-22.6676
 20
-14.7421
 30
0.0
 10
-20.5877
 20
-14.6607
 30
0.0
 10
-18.8087
 20
-14.8325
 30
0.0
 10
-18.8087
 20
-14.8325
 30
0.0
 10
-21.2821
 20
-0.7467
 30
0.0
 10
-21.8026
 20
15.5914
 30
0.0
 10
-18.8087
 20
31.1841
 30
0.0
  0
SPLINE
  5
6F
330
1F
100
AcDbEntity
  8
layer 1
 62
     7
100
AcDbSpline
210
0.0
220
0.0
230
1.0
 70
    11
 71
     3
 72
    20
 73
    16
 74
     0
 42
0.0000000001
 43
0.0000000001
 12
1.0
 22
0.0
 32
0.0
 13
1.0
 23
0.0
 33
0.0
 40
0.0
 40
0.0
 40
0.0
 40
0.0
 40
0.2
 40
0.2
 40
0.2
 40
0.2
 40
0.4
 40
0.4
 40
0.4
 40
0.4
 40
0.6
 40
0.6
 40
0.6
 40
0.6
 40
1.0
 40
1.0
 40
1.0
 40
1.0
 10
-22.6676
 20
86.8271
 30
0.0
 10
-22.6676
 20
88.9666
 30
0.0
 10
-22.6676
 20
110.442
 30
0.0
 10
-22.6676
 20
112.4794
 30
0.0
 10
-22.6676
 20
112.4794
 30
0.0
 10
-20.2291
 20
105.2554
 30
0.0
 10
-15.0616
 20
102.9289
 30
0.0
 10
-7.3369
 20
100.9749
 30
0.0
 10
-7.3369
 20
100.9749
 30
0.0
 10
-17.9614
 20
98.7917
 30
0.0
 10
-20.1704
 20
92.7487
 30
0.0
 10
-22.6676
 20
86.8269
 30
0.0
 10
-22.6676
 20
86.8269
 30
0.0
 10
-22.6676
 20
86.8269
 30
0.0
 10
-22.6676
 20
86.8271
 30
0.0
 10
-22.6676
 20
86.8271
 30
0.0
  0
SPLINE
  5
70
330
1F
100
AcDbEntity
  8
layer 1
 62
     7
100
AcDbSpline
210
0.0
220
0.0
230
1.0
 70
    11
 71
     3
 72
    16
 73
    12
 74
     0
 42
0.0000000001
 43
0.0000000001
 12
1.0
 22
0.0
 32
0.0
 13
1.0
 23
0.0
 33
0.0
 40
0.0
 40
0.0
 40
0.0
 40
0.0
 40
0.25
 40
0.25
 40
0.25
 40
0.25
 40
0.5
 40
0.5
 40
0.5
 40
0.5
 40
1.0
 40
1.0
 40
1.0
 40
1.0
 10
-16.3292
 20
40.7496
 30
0.0
 10
-16.7808
 20
42.7175
 30
0.0
 10
-17.427
 20
44.171
 30
0.0
 10
-16.0884
 20
48.6376
 30
0.0
 10
-16.0884
 20
48.6376
 30
0.0
 10
-13.4678
 20
52.7638
 30
0.0
 10
-12.0187
 20
52.0428
 30
0.0
 10
-10.7497
 20
52.4928
 30
0.0
 10
-10.7497
 20
52.4928
 30
0.0
 10
-13.0074
 20
49.1236
 30
0.0
 10
-15.0409
 20
44.8955
 30
0.0
 10
-16.3292
 20
40.7496
 30
0.0
  0
SPLINE
  5
71
330
1F
100
AcDbEntity
  8
layer 1
 62
     7
100
AcDbSpline
210
0.0
220
0.0
230
1.0
 70
    11
 71
     3
 72
    40
 73
    36
 74
     0
 42
0.0000000001
 43
0.0000000001
 12
1.0
 22
0.0
 32
0.0
 13
1.0
 23
0.0
 33
0.0
 40
0.0
 40
0.0
 40
0.0
 40
0.0
 40
0.1
 40
0.1
 40
0.1
 40
0.1
 40
0.2
 40
0.2
 40
0.2
 40
0.2
 40
0.3
 40
0.3
 40
0.3
 40
0.3
 40
0.4
 40
0.4
 40
0.4
 40
0.4
 40
0.5
 40
0.5
 40
0.5
 40
0.5
 40
0.6
 40
0.6
 40
0.6
 40
0.6
 40
0.7
 40
0.7
 40
0.7
 40
0.7
 40
0.8
 40
0.8
 40
0.8
 40
0.8
 40
1.0
 40
1.0
 40
1.0
 40
1.0
 10
-22.6676
 20
115.2569
 30
0.0
 10
-22.6676
 20
117.3963
 30
0.0
 10
-22.6676
 20
123.2492
 30
0.0
 10
-22.6676
 20
125.2866
 30
0.0
 10
-22.6676
 20
125.2866
 30
0.0
 10
-20.9037
 20
125.2866
 30
0.0
 10
1.2555
 20
125.2866
 30
0.0
 10
3.3178
 20
125.2866
 30
0.0
 10
3.3178
 20
125.2866
 30
0.0
 10
3.3825
 20
124.9059
 30
0.0
 10
3.3488
 20
124.3784
 30
0.0
 10
3.0001
 20
123.8606
 30
0.0
 10
3.0001
 20
123.8606
 30
0.0
 10
-5.3141
 20
122.3217
 30
0.0
 10
-10.3412
 20
112.7133
 30
0.0
 10
-7.3346
 20
104.0884
 30
0.0
 10
-7.3346
 20
104.0884
 30
0.0
 10
-12.714
 20
106.6438
 30
0.0
 10
-14.3291
 20
107.7784
 30
0.0
 10
-15.8554
 20
109.2152
 30
0.0
 10
-15.8554
 20
109.2152
 30
0.0
 10
-18.1794
 20
111.1644
 30
0.0
 10
-15.0801
 20
114.1871
 30
0.0
 10
-14.5021
 20
110.217
 30
0.0
 10
-14.5021
 20
110.217
 30
0.0
 10
-4.5814
 20
111.148
 30
0.0
 10
-11.1738
 20
125.7053
 30
0.0
 10
-20.5127
 20
118.7671
 30
0.0
 10
-20.5127
 20
118.7671
 30
0.0
 10
-21.5651
 20
117.9853
 30
0.0
 10
-22.2004
 20
116.9773
 30
0.0
 10
-22.6678
 20
115.2569
 30
0.0
 10
-22.6678
 20
115.2569
 30
0.0
 10
-22.6678
 20
115.2569
 30
0.0
 10
-22.6676
 20
115.2569
 30
0.0
 10
-22.6676
 20
115.2569
 30
0.0
  0
SPLINE
  5
72
330
1F
100
AcDbEntity
  8
layer 1
 62
     7
100
AcDbSpline
210
0.0
220
0.0
230
1.0
 70
    11
 71
     3
 72
    28
 73
    24
 74
     0
 42
0.0000000001
 43
0.0000000001
 12
1.0
 22
0.0
 32
0.0
 13
1.0
 23
0.0
 33
0.0
 40
0.0
 40
0.0
 40
0.0
 40
0.0
 40
0.1428571428571428
 40
0.1428571428571428
 40
0.1428571428571428
 40
0.1428571428571428
 40
0.2857142857142857
 40
0.2857142857142857
 40
0.2857142857142857
 40
0.2857142857142857
 40
0.4285714285714285
 40
0.4285714285714285
 40
0.4285714285714285
 40
0.4285714285714285
 40
0.5714285714285714
 40
0.5714285714285714
 40
0.5714285714285714
 40
0.5714285714285714
 40
0.7142857142857143
 40
0.7142857142857143
 40
0.7142857142857143
 40
0.7142857142857143
 40
1.0
 40
1.0
 40
1.0
 40
1.0
 10
19.7615
 20
113.7977
 30
0.0
 10
17.8845
 20
119.5376
 30
0.0
 10
13.5582
 20
123.2254
 30
0.0
 10
9.3032
 20
123.8607
 30
0.0
 10
9.3032
 20
123.8607
 30
0.0
 10
8.9547
 20
124.3786
 30
0.0
 10
8.9208
 20
124.9061
 30
0.0
 10
8.9854
 20
125.2868
 30
0.0
 10
8.9854
 20
125.2868
 30
0.0
 10
8.9854
 20
125.2868
 30
0.0
 10
33.3529
 20
125.2868
 30
0.0
 10
33.3529
 20
125.2868
 30
0.0
 10
33.3529
 20
125.2868
 30
0.0
 10
33.4176
 20
124.9061
 30
0.0
 10
33.3839
 20
124.3786
 30
0.0
 10
33.0352
 20
123.8607
 30
0.0
 10
33.0352
 20
123.8607
 30
0.0
 10
28.7802
 20
123.2254
 30
0.0
 10
24.4539
 20
119.5374
 30
0.0
 10
22.5768
 20
113.7977
 30
0.0
 10
22.5768
 20
113.7977
 30
0.0
 10
22.5768
 20
113.7977
 30
0.0
 10
19.7615
 20
113.7977
 30
0.0
 10
19.7615
 20
113.7977
 30
0.0
  0
SPLINE
  5
73
330
1F
100
AcDbEntity
  8
layer 1
 62
     7
100
AcDbSpline
210
0.0
220
0.0
230
1.0
 70
    11
 71
     3
 72
    40
 73
    36
 74
     0
 42
0.0000000001
 43
0.0000000001
 12
1.0
 22
0.0
 32
0.0
 13
1.0
 23
0.0
 33
0.0
 40
0.0
 40
0.0
 40
0.0
 40
0.0
 40
0.1
 40
0.1
 40
0.1
 40
0.1
 40
0.2
 40
0.2
 40
0.2
 40
0.2
 40
0.3
 40
0.3
 40
0.3
 40
0.3
 40
0.4
 40
0.4
 40
0.4
 40
0.4
 40
0.5
 40
0.5
 40
0.5
 40
0.5
 40
0.6
 40
0.6
 40
0.6
 40
0.6
 40
0.7
 40
0.7
 40
0.7
 40
0.7
 40
0.8
 40
0.8
 40
0.8
 40
0.8
 40
1.0
 40
1.0
 40
1.0
 40
1.0
 10
7.131
 20
83.4505
 30
0.0
 10
7.317
 20
81.9939
 30
0.0
 10
6.0096
 20
81.2746
 30
0.0
 10
5.7423
 20
83.0252
 30
0.0
 10
5.7423
 20
83.0252
 30
0.0
 10
2.7932
 20
91.115
 30
0.0
 10
-5.6613
 20
94.1518
 30
0.0
 10
-11.1074
 20
89.1727
 30
0.0
 10
-11.1074
 20
89.1727
 30
0.0
 10
-15.999
 20
84.6054
 30
0.0
 10
-10.8111
 20
74.1796
 30
0.0
 10
-4.1992
 20
80.1866
 30
0.0
 10
-4.1992
 20
80.1866
 30
0.0
 10
-7.0799
 20
82.0804
 30
0.0
 10
-2.9985
 20
84.0885
 30
0.0
 10
-1.6175
 20
79.9945
 30
0.0
 10
-1.6175
 20
79.9945
 30
0.0
 10
-0.8205
 20
78.4624
 30
0.0
 10
-1.7114
 20
69.9577
 30
0.0
 10
-11.4386
 20
73.4342
 30
0.0
 10
-11.4386
 20
73.4342
 30
0.0
 10
-14.5706
 20
74.9672
 30
0.0
 10
-17.0748
 20
77.616
 30
0.0
 10
-16.9789
 20
84.1228
 30
0.0
 10
-16.9789
 20
84.1228
 30
0.0
 10
-17.0956
 20
87.37
 30
0.0
 10
-12.6232
 20
96.9038
 30
0.0
 10
-2.8542
 20
95.8734
 30
0.0
 10
-2.8542
 20
95.8734
 30
0.0
 10
1.342
 20
93.1855
 30
0.0
 10
4.3038
 20
89.7195
 30
0.0
 10
7.131
 20
83.4507
 30
0.0
 10
7.131
 20
83.4507
 30
0.0
 10
7.131
 20
83.4507
 30
0.0
 10
7.131
 20
83.4505
 30
0.0
 10
7.131
 20
83.4505
 30
0.0
  0
SPLINE
  5
74
330
1F
100
AcDbEntity
  8
layer 1
 62
     7
100
AcDbSpline
210
0.0
220
0.0
230
1.0
 70
    11
 71
     3
 72
    20
 73
    16
 74
     0
 42
0.0000000001
 43
0.0000000001
 12
1.0
 22
0.0
 32
0.0
 13
1.0
 23
0.0
 33
0.0
 40
0.0
 40
0.0
 40
0.0
 40
0.0
 40
0.2
 40
0.2
 40
0.2
 40
0.2
 40
0.4
 40
0.4
 40
0.4
 40
0.4
 40
0.6
 40
0.6
 40
0.6
 40
0.6
 40
1.0
 40
1.0
 40
1.0
 40
1.0
 10
-8.8148
 20
85.7573
 30
0.0
 10
-9.3575
 20
84.4791
 30
0.0
 10
-8.3256
 20
84.1002
 30
0.0
 10
-7.4261
 20
85.3321
 30
0.0
 10
-7.4261
 20
85.3321
 30
0.0
 10
-5.598
 20
87.2122
 30
0.0
 10
-3.4072
 20
86.6743
 30
0.0
 10
-1.7217
 20
86.6081
 30
0.0
 10
-1.7217
 20
86.6081
 30
0.0
 10
-3.4119
 20
88.6741
 30
0.0
 10
-7.9874
 20
87.7258
 30
0.0
 10
-8.815
 20
85.7573
 30
0.0
 10
-8.815
 20
85.7573
 30
0.0
 10
-8.815
 20
85.7573
 30
0.0
 10
-8.8148
 20
85.7573
 30
0.0
 10
-8.8148
 20
85.7573
 30
0.0
  0
SPLINE
  5
75
330
1F
100
AcDbEntity
  8
layer 1
 62
     7
100
AcDbSpline
210
0.0
220
0.0
230
1.0
 70
    11
 71
     3
 72
    16
 73
    12
 74
     0
 42
0.0000000001
 43
0.0000000001
 12
1.0
 22
0.0
 32
0.0
 13
1.0
 23
0.0
 33
0.0
 40
0.0
 40
0.0
 40
0.0
 40
0.0
 40
0.25
 40
0.25
 40
0.25
 40
0.25
 40
0.5
 40
0.5
 40
0.5
 40
0.5
 40
1.0
 40
1.0
 40
1.0
 40
1.0
 10
-22.6676
 20
32.4512
 30
0.0
 10
-22.6676
 20
32.4512
 30
0.0
 10
-21.0983
 20
33.3756
 30
0.0
 10
-21.0685
 20
35.9597
 30
0.0
 10
-21.0685
 20
35.9597
 30
0.0
 10
-20.9078
 20
38.873
 30
0.0
 10
-22.6676
 20
39.5821
 30
0.0
 10
-22.6676
 20
39.5821
 30
0.0
 10
-22.6676
 20
39.5821
 30
0.0
 10
-22.6635
 20
37.1081
 30
0.0
 10
-22.6234
 20
33.767
 30
0.0
 10
-22.6676
 20
32.4512
 30
0.0
  0
SPLINE
  5
76
330
1F
100
AcDbEntity
  8
layer 1
 62
     7
100
AcDbSpline
210
0.0
220
0.0
230
1.0
 70
    11
 71
     3
 72
    40
 73
    36
 74
     0
 42
0.0000000001
 43
0.0000000001
 12
1.0
 22
0.0
 32
0.0
 13
1.0
 23
0.0
 33
0.0
 40
0.0
 40
0.0
 40
0.0
 40
0.0
 40
0.1
 40
0.1
 40
0.1
 40
0.1
 40
0.2
 40
0.2
 40
0.2
 40
0.2
 40
0.3
 40
0.3
 40
0.3
 40
0.3
 40
0.4
 40
0.4
 40
0.4
 40
0.4
 40
0.5
 40
0.5
 40
0.5
 40
0.5
 40
0.6
 40
0.6
 40
0.6
 40
0.6
 40
0.7
 40
0.7
 40
0.7
 40
0.7
 40
0.8
 40
0.8
 40
0.8
 40
0.8
 40
1.0
 40
1.0
 40
1.0
 40
1.0
 10
19.4163
 20
76.7223
 30
0.0
 10
19.1367
 20
81.3779
 30
0.0
 10
17.7157
 20
84.3662
 30
0.0
 10
17.8307
 20
86.4326
 30
0.0
 10
17.8307
 20
86.4326
 30
0.0
 10
17.9232
 20
88.6907
 30
0.0
 10
19.1543
 20
88.3729
 30
0.0
 10
19.6189
 20
87.8795
 30
0.0
 10
19.6189
 20
87.8795
 30
0.0
 10
20.044
 20
87.4281
 30
0.0
 10
19.6308
 20
86.876
 30
0.0
 10
21.1693
 20
87.0591
 30
0.0
 10
21.1693
 20
87.0591
 30
0.0
 10
22.7077
 20
86.8762
 30
0.0
 10
22.2945
 20
87.4281
 30
0.0
 10
22.7196
 20
87.8795
 30
0.0
 10
22.7196
 20
87.8795
 30
0.0
 10
23.1843
 20
88.3729
 30
0.0
 10
24.4155
 20
88.6907
 30
0.0
 10
24.5078
 20
86.4326
 30
0.0
 10
24.5078
 20
86.4326
 30
0.0
 10
24.6226
 20
84.3662
 30
0.0
 10
23.2018
 20
81.3779
 30
0.0
 10
22.9222
 20
76.7223
 30
0.0
 10
22.9222
 20
76.7223
 30
0.0
 10
22.8566
 20
73.8287
 30
0.0
 10
21.8433
 20
73.7757
 30
0.0
 10
21.1691
 20
73.7311
 30
0.0
 10
21.1691
 20
73.7311
 30
0.0
 10
20.4948
 20
73.7755
 30
0.0
 10
19.4816
 20
73.8285
 30
0.0
 10
19.4159
 20
76.7223
 30
0.0
 10
19.4159
 20
76.7223
 30
0.0
 10
19.4159
 20
76.7223
 30
0.0
 10
19.4163
 20
76.7223
 30
0.0
 10
19.4163
 20
76.7223
 30
0.0
  0
SPLINE
  5
77
330
1F
100
AcDbEntity
  8
layer 1
 62
     7
100
AcDbSpline
210
0.0
220
0.0
230
1.0
 70
    11
 71
     3
 72
    32
 73
    28
 74
     0
 42
0.0000000001
 43
0.0000000001
 12
1.0
 22
0.0
 32
0.0
 13
1.0
 23
0.0
 33
0.0
 40
0.0
 40
0.0
 40
0.0
 40
0.0
 40
0.125
 40
0.125
 40
0.125
 40
0.125
 40
0.25
 40
0.25
 40
0.25
 40
0.25
 40
0.375
 40
0.375
 40
0.375
 40
0.375
 40
0.5
 40
0.5
 40
0.5
 40
0.5
 40
0.625
 40
0.625
 40
0.625
 40
0.625
 40
0.75
 40
0.75
 40
0.75
 40
0.75
 40
1.0
 40
1.0
 40
1.0
 40
1.0
 10
10.6326
 20
106.3
 30
0.0
 10
12.2073
 20
106.6403
 30
0.0
 10
13.2969
 20
108.3214
 30
0.0
 10
13.4448
 20
108.9682
 30
0.0
 10
13.4448
 20
108.9682
 30
0.0
 10
14.2802
 20
112.621
 30
0.0
 10
12.6965
 20
115.6592
 30
0.0
 10
10.28
 20
117.0051
 30
0.0
 10
10.28
 20
117.0051
 30
0.0
 10
3.5206
 20
120.7704
 30
0.0
 10
-0.8569
 20
115.957
 30
0.0
 10
-1.4285
 20
115.2837
 30
0.0
 10
-1.4285
 20
115.2837
 30
0.0
 10
-5.7834
 20
109.7558
 30
0.0
 10
-3.7912
 20
100.3002
 30
0.0
 10
2.6837
 20
100.7308
 30
0.0
 10
2.6837
 20
100.7308
 30
0.0
 10
-5.1861
 20
111.0966
 30
0.0
 10
8.3408
 20
117.8321
 30
0.0
 10
10.1902
 20
108.8871
 30
0.0
 10
10.1902
 20
108.8871
 30
0.0
 10
7.2878
 20
108.2666
 30
0.0
 10
7.6924
 20
105.7457
 30
0.0
 10
10.6326
 20
106.2998
 30
0.0
 10
10.6326
 20
106.2998
 30
0.0
 10
10.6326
 20
106.2998
 30
0.0
 10
10.6326
 20
106.3
 30
0.0
 10
10.6326
 20
106.3
 30
0.0
  0
SPLINE
  5
78
330
1F
100
AcDbEntity
  8
layer 1
 62
     7
100
AcDbSpline
210
0.0
220
0.0
230
1.0
 70
    11
 71
     3
 72
    28
 73
    24
 74
     0
 42
0.0000000001
 43
0.0000000001
 12
1.0
 22
0.0
 32
0.0
 13
1.0
 23
0.0
 33
0.0
 40
0.0
 40
0.0
 40
0.0
 40
0.0
 40
0.1428571428571428
 40
0.1428571428571428
 40
0.1428571428571428
 40
0.1428571428571428
 40
0.2857142857142857
 40
0.2857142857142857
 40
0.2857142857142857
 40
0.2857142857142857
 40
0.4285714285714285
 40
0.4285714285714285
 40
0.4285714285714285
 40
0.4285714285714285
 40
0.5714285714285714
 40
0.5714285714285714
 40
0.5714285714285714
 40
0.5714285714285714
 40
0.7142857142857143
 40
0.7142857142857143
 40
0.7142857142857143
 40
0.7142857142857143
 40
1.0
 40
1.0
 40
1.0
 40
1.0
 10
25.7506
 20
60.8218
 30
0.0
 10
28.7174
 20
63.4729
 30
0.0
 10
32.2066
 20
60.4968
 30
0.0
 10
30.5853
 20
57.0681
 30
0.0
 10
30.5853
 20
57.0681
 30
0.0
 10
29.1811
 20
58.4236
 30
0.0
 10
26.116
 20
56.9999
 30
0.0
 10
26.4394
 20
53.507
 30
0.0
 10
26.4394
 20
53.507
 30
0.0
 10
26.6189
 20
48.9522
 30
0.0
 10
27.3247
 20
47.5887
 30
0.0
 10
29.0991
 20
42.375
 30
0.0
 10
29.0991
 20
42.375
 30
0.0
 10
28.1893
 20
53.3011
 30
0.0
 10
33.5822
 20
58.8442
 30
0.0
 10
40.8041
 20
58.2407
 30
0.0
 10
40.8041
 20
58.2407
 30
0.0
 10
37.4053
 20
62.3932
 30
0.0
 10
30.8331
 20
65.8471
 30
0.0
 10
25.8733
 20
66.3129
 30
0.0
 10
25.8733
 20
66.3129
 30
0.0
 10
25.7549
 20
64.9141
 30
0.0
 10
25.7589
 20
62.8763
 30
0.0
 10
25.7506
 20
60.8218
 30
0.0
  0
SPLINE
  5
79
330
1F
100
AcDbEntity
  8
layer 1
 62
     7
100
AcDbSpline
210
0.0
220
0.0
230
1.0
 70
    11
 71
     3
 72
    20
 73
    16
 74
     0
 42
0.0000000001
 43
0.0000000001
 12
1.0
 22
0.0
 32
0.0
 13
1.0
 23
0.0
 33
0.0
 40
0.0
 40
0.0
 40
0.0
 40
0.0
 40
0.2
 40
0.2
 40
0.2
 40
0.2
 40
0.4
 40
0.4
 40
0.4
 40
0.4
 40
0.6
 40
0.6
 40
0.6
 40
0.6
 40
1.0
 40
1.0
 40
1.0
 40
1.0
 10
36.0494
 20
22.7096
 30
0.0
 10
37.5867
 20
24.8121
 30
0.0
 10
39.0719
 20
26.2132
 30
0.0
 10
41.7277
 20
26.6233
 30
0.0
 10
41.7277
 20
26.6233
 30
0.0
 10
33.4563
 20
31.7045
 30
0.0
 10
35.4094
 20
35.0475
 30
0.0
 10
36.5719
 20
36.7237
 30
0.0
 10
36.5719
 20
36.7237
 30
0.0
 10
35.4369
 20
36.8256
 30
0.0
 10
34.1951
 20
36.648
 30
0.0
 10
32.7605
 20
38.5566
 30
0.0
 10
32.7605
 20
38.5566
 30
0.0
 10
31.0589
 20
32.9607
 30
0.0
 10
36.2315
 20
27.5962
 30
0.0
 10
36.0494
 20
22.7096
 30
0.0
  0
SPLINE
  5
7A
330
1F
100
AcDbEntity
  8
layer 1
 62
     7
100
AcDbSpline
210
0.0
220
0.0
230
1.0
 70
    11
 71
     3
 72
    36
 73
    32
 74
     0
 42
0.0000000001
 43
0.0000000001
 12
1.0
 22
0.0
 32
0.0
 13
1.0
 23
0.0
 33
0.0
 40
0.0
 40
0.0
 40
0.0
 40
0.0
 40
0.1111111111111111
 40
0.1111111111111111
 40
0.1111111111111111
 40
0.1111111111111111
 40
0.2222222222222222
 40
0.2222222222222222
 40
0.2222222222222222
 40
0.2222222222222222
 40
0.3333333333333333
 40
0.3333333333333333
 40
0.3333333333333333
 40
0.3333333333333333
 40
0.4444444444444444
 40
0.4444444444444444
 40
0.4444444444444444
 40
0.4444444444444444
 40
0.5555555555555556
 40
0.5555555555555556
 40
0.5555555555555556
 40
0.5555555555555556
 40
0.6666666666666666
 40
0.6666666666666666
 40
0.6666666666666666
 40
0.6666666666666666
 40
0.7777777777777778
 40
0.7777777777777778
 40
0.7777777777777778
 40
0.7777777777777778
 40
1.0
 40
1.0
 40
1.0
 40
1.0
 10
38.8769
 20
43.8007
 30
0.0
 10
33.0094
 20
43.4056
 30
0.0
 10
35.7417
 20
51.7242
 30
0.0
 10
40.9587
 20
49.612
 30
0.0
 10
40.9587
 20
49.612
 30
0.0
 10
45.6084
 20
47.4143
 30
0.0
 10
45.5967
 20
41.6277
 30
0.0
 10
42.0665
 20
38.1759
 30
0.0
 10
42.0665
 20
38.1759
 30
0.0
 10
45.1689
 20
38.0091
 30
0.0
 10
46.4163
 20
34.0957
 30
0.0
 10
44.3542
 20
32.7277
 30
0.0
 10
44.3542
 20
32.7277
 30
0.0
 10
42.7779
 20
35.3142
 30
0.0
 10
40.2788
 20
32.9901
 30
0.0
 10
42.5325
 20
30.8194
 30
0.0
 10
42.5325
 20
30.8194
 30
0.0
 10
49.2636
 20
27.5683
 30
0.0
 10
52.3508
 20
25.1514
 30
0.0
 10
56.7416
 20
20.2836
 30
0.0
 10
56.7416
 20
20.2836
 30
0.0
 10
55.9563
 20
30.8173
 30
0.0
 10
51.5194
 20
45.6771
 30
0.0
 10
44.4516
 20
54.1826
 30
0.0
 10
44.4516
 20
54.1826
 30
0.0
 10
39.4879
 20
55.1372
 30
0.0
 10
35.3001
 20
53.319
 30
0.0
 10
33.402
 20
48.8826
 30
0.0
 10
33.402
 20
48.8826
 30
0.0
 10
31.0042
 20
42.7845
 30
0.0
 10
37.6488
 20
40.0195
 30
0.0
 10
38.8769
 20
43.8007
 30
0.0
  0
SPLINE
  5
7B
330
1F
100
AcDbEntity
  8
layer 1
 62
     7
100
AcDbSpline
210
0.0
220
0.0
230
1.0
 70
    11
 71
     3
 72
    20
 73
    16
 74
     0
 42
0.0000000001
 43
0.0000000001
 12
1.0
 22
0.0
 32
0.0
 13
1.0
 23
0.0
 33
0.0
 40
0.0
 40
0.0
 40
0.0
 40
0.0
 40
0.2
 40
0.2
 40
0.2
 40
0.2
 40
0.4
 40
0.4
 40
0.4
 40
0.4
 40
0.6
 40
0.6
 40
0.6
 40
0.6
 40
1.0
 40
1.0
 40
1.0
 40
1.0
 10
65.0061
 20
86.8271
 30
0.0
 10
65.0061
 20
88.9666
 30
0.0
 10
65.0061
 20
110.442
 30
0.0
 10
65.0061
 20
112.4794
 30
0.0
 10
65.0061
 20
112.4794
 30
0.0
 10
62.5676
 20
105.2554
 30
0.0
 10
57.4001
 20
102.9289
 30
0.0
 10
49.6754
 20
100.9749
 30
0.0
 10
49.6754
 20
100.9749
 30
0.0
 10
60.2999
 20
98.7917
 30
0.0
 10
62.509
 20
92.7487
 30
0.0
 10
65.0061
 20
86.8269
 30
0.0
 10
65.0061
 20
86.8269
 30
0.0
 10
65.0061
 20
86.8269
 30
0.0
 10
65.0061
 20
86.8271
 30
0.0
 10
65.0061
 20
86.8271
 30
0.0
  0
SPLINE
  5
7C
330
1F
100
AcDbEntity
  8
layer 1
 62
     7
100
AcDbSpline
210
0.0
220
0.0
230
1.0
 70
    11
 71
     3
 72
    16
 73
    12
 74
     0
 42
0.0000000001
 43
0.0000000001
 12
1.0
 22
0.0
 32
0.0
 13
1.0
 23
0.0
 33
0.0
 40
0.0
 40
0.0
 40
0.0
 40
0.0
 40
0.25
 40
0.25
 40
0.25
 40
0.25
 40
0.5
 40
0.5
 40
0.5
 40
0.5
 40
1.0
 40
1.0
 40
1.0
 40
1.0
 10
58.668
 20
40.7496
 30
0.0
 10
59.1195
 20
42.7175
 30
0.0
 10
59.7657
 20
44.171
 30
0.0
 10
58.4272
 20
48.6376
 30
0.0
 10
58.4272
 20
48.6376
 30
0.0
 10
55.8065
 20
52.7638
 30
0.0
 10
54.3574
 20
52.0428
 30
0.0
 10
53.0884
 20
52.4928
 30
0.0
 10
53.0884
 20
52.4928
 30
0.0
 10
55.3461
 20
49.1236
 30
0.0
 10
57.3796
 20
44.8955
 30
0.0
 10
58.668
 20
40.7496
 30
0.0
  0
SPLINE
  5
7D
330
1F
100
AcDbEntity
  8
layer 1
 62
     7
100
AcDbSpline
210
0.0
220
0.0
230
1.0
 70
    11
 71
     3
 72
    40
 73
    36
 74
     0
 42
0.0000000001
 43
0.0000000001
 12
1.0
 22
0.0
 32
0.0
 13
1.0
 23
0.0
 33
0.0
 40
0.0
 40
0.0
 40
0.0
 40
0.0
 40
0.1
 40
0.1
 40
0.1
 40
0.1
 40
0.2
 40
0.2
 40
0.2
 40
0.2
 40
0.3
 40
0.3
 40
0.3
 40
0.3
 40
0.4
 40
0.4
 40
0.4
 40
0.4
 40
0.5
 40
0.5
 40
0.5
 40
0.5
 40
0.6
 40
0.6
 40
0.6
 40
0.6
 40
0.7
 40
0.7
 40
0.7
 40
0.7
 40
0.8
 40
0.8
 40
0.8
 40
0.8
 40
1.0
 40
1.0
 40
1.0
 40
1.0
 10
65.0061
 20
115.2569
 30
0.0
 10
65.0061
 20
117.3963
 30
0.0
 10
65.0061
 20
123.2492
 30
0.0
 10
65.0061
 20
125.2866
 30
0.0
 10
65.0061
 20
125.2866
 30
0.0
 10
63.2423
 20
125.2866
 30
0.0
 10
41.083
 20
125.2866
 30
0.0
 10
39.0207
 20
125.2866
 30
0.0
 10
39.0207
 20
125.2866
 30
0.0
 10
38.956
 20
124.9059
 30
0.0
 10
38.9897
 20
124.3784
 30
0.0
 10
39.3384
 20
123.8606
 30
0.0
 10
39.3384
 20
123.8606
 30
0.0
 10
47.6526
 20
122.3217
 30
0.0
 10
52.6797
 20
112.7133
 30
0.0
 10
49.6731
 20
104.0884
 30
0.0
 10
49.6731
 20
104.0884
 30
0.0
 10
55.0526
 20
106.6438
 30
0.0
 10
56.6676
 20
107.7784
 30
0.0
 10
58.194
 20
109.2152
 30
0.0
 10
58.194
 20
109.2152
 30
0.0
 10
60.5179
 20
111.1644
 30
0.0
 10
57.4186
 20
114.1871
 30
0.0
 10
56.8406
 20
110.217
 30
0.0
 10
56.8406
 20
110.217
 30
0.0
 10
46.9199
 20
111.148
 30
0.0
 10
53.5123
 20
125.7053
 30
0.0
 10
62.8513
 20
118.7671
 30
0.0
 10
62.8513
 20
118.7671
 30
0.0
 10
63.9037
 20
117.9853
 30
0.0
 10
64.539
 20
116.9773
 30
0.0
 10
65.0063
 20
115.2569
 30
0.0
 10
65.0063
 20
115.2569
 30
0.0
 10
65.0063
 20
115.2569
 30
0.0
 10
65.0061
 20
115.2569
 30
0.0
 10
65.0061
 20
115.2569
 30
0.0
  0
SPLINE
  5
7E
330
1F
100
AcDbEntity
  8
layer 1
 62
     7
100
AcDbSpline
210
0.0
220
0.0
230
1.0
 70
    11
 71
     3
 72
    44
 73
    40
 74
     0
 42
0.0000000001
 43
0.0000000001
 12
1.0
 22
0.0
 32
0.0
 13
1.0
 23
0.0
 33
0.0
 40
0.0
 40
0.0
 40
0.0
 40
0.0
 40
0.0909090909090909
 40
0.0909090909090909
 40
0.0909090909090909
 40
0.0909090909090909
 40
0.1818181818181818
 40
0.1818181818181818
 40
0.1818181818181818
 40
0.1818181818181818
 40
0.2727272727272727
 40
0.2727272727272727
 40
0.2727272727272727
 40
0.2727272727272727
 40
0.3636363636363636
 40
0.3636363636363636
 40
0.3636363636363636
 40
0.3636363636363636
 40
0.4545454545454545
 40
0.4545454545454545
 40
0.4545454545454545
 40
0.4545454545454545
 40
0.5454545454545454
 40
0.5454545454545454
 40
0.5454545454545454
 40
0.5454545454545454
 40
0.6363636363636364
 40
0.6363636363636364
 40
0.6363636363636364
 40
0.6363636363636364
 40
0.7272727272727273
 40
0.7272727272727273
 40
0.7272727272727273
 40
0.7272727272727273
 40
0.8181818181818182
 40
0.8181818181818182
 40
0.8181818181818182
 40
0.8181818181818182
 40
1.0
 40
1.0
 40
1.0
 40
1.0
 10
24.4767
 20
92.9432
 30
0.0
 10
25.6623
 20
93.18
 30
0.0
 10
27.8369
 20
92.6496
 30
0.0
 10
28.2553
 20
90.7552
 30
0.0
 10
28.2553
 20
90.7552
 30
0.0
 10
29.5458
 20
92.5286
 30
0.0
 10
35.5569
 20
96.7612
 30
0.0
 10
35.0412
 20
98.811
 30
0.0
 10
35.0412
 20
98.811
 30
0.0
 10
28.7806
 20
98.5272
 30
0.0
 10
24.0642
 20
102.4658
 30
0.0
 10
22.5772
 20
108.2333
 30
0.0
 10
22.5772
 20
108.2333
 30
0.0
 10
22.5772
 20
108.2333
 30
0.0
 10
19.7617
 20
108.2333
 30
0.0
 10
19.7617
 20
108.2333
 30
0.0
 10
19.7617
 20
108.2333
 30
0.0
 10
18.2747
 20
102.4656
 30
0.0
 10
13.5584
 20
98.527
 30
0.0
 10
7.2977
 20
98.811
 30
0.0
 10
7.2977
 20
98.811
 30
0.0
 10
6.7821
 20
96.7612
 30
0.0
 10
12.7931
 20
92.5286
 30
0.0
 10
14.0836
 20
90.7552
 30
0.0
 10
14.0836
 20
90.7552
 30
0.0
 10
14.5021
 20
92.6494
 30
0.0
 10
16.6764
 20
93.1799
 30
0.0
 10
17.8623
 20
92.9432
 30
0.0
 10
17.8623
 20
92.9432
 30
0.0
 10
18.054
 20
95.6753
 30
0.0
 10
18.3542
 20
97.9981
 30
0.0
 10
21.1697
 20
100.4773
 30
0.0
 10
21.1697
 20
100.4773
 30
0.0
 10
23.9849
 20
97.9981
 30
0.0
 10
24.2854
 20
95.6753
 30
0.0
 10
24.4771
 20
92.9432
 30
0.0
 10
24.4771
 20
92.9432
 30
0.0
 10
24.4771
 20
92.9432
 30
0.0
 10
24.4767
 20
92.9432
 30
0.0
 10
24.4767
 20
92.9432
 30
0.0
  0
SPLINE
  5
7F
330
1F
100
AcDbEntity
  8
layer 1
 62
     7
100
AcDbSpline
210
0.0
220
0.0
230
1.0
 70
    11
 71
     3
 72
    20
 73
    16
 74
     0
 42
0.0000000001
 43
0.0000000001
 12
1.0
 22
0.0
 32
0.0
 13
1.0
 23
0.0
 33
0.0
 40
0.0
 40
0.0
 40
0.0
 40
0.0
 40
0.2
 40
0.2
 40
0.2
 40
0.2
 40
0.4
 40
0.4
 40
0.4
 40
0.4
 40
0.6
 40
0.6
 40
0.6
 40
0.6
 40
1.0
 40
1.0
 40
1.0
 40
1.0
 10
51.1535
 20
85.7573
 30
0.0
 10
51.6962
 20
84.4791
 30
0.0
 10
50.6643
 20
84.1002
 30
0.0
 10
49.7648
 20
85.3321
 30
0.0
 10
49.7648
 20
85.3321
 30
0.0
 10
47.9367
 20
87.2122
 30
0.0
 10
45.746
 20
86.6743
 30
0.0
 10
44.0604
 20
86.6081
 30
0.0
 10
44.0604
 20
86.6081
 30
0.0
 10
45.7506
 20
88.6741
 30
0.0
 10
50.3261
 20
87.7258
 30
0.0
 10
51.1537
 20
85.7573
 30
0.0
 10
51.1537
 20
85.7573
 30
0.0
 10
51.1537
 20
85.7573
 30
0.0
 10
51.1535
 20
85.7573
 30
0.0
 10
51.1535
 20
85.7573
 30
0.0
  0
SPLINE
  5
80
330
1F
100
AcDbEntity
  8
layer 1
 62
     7
100
AcDbSpline
210
0.0
220
0.0
230
1.0
 70
    11
 71
     3
 72
    16
 73
    12
 74
     0
 42
0.0000000001
 43
0.0000000001
 12
1.0
 22
0.0
 32
0.0
 13
1.0
 23
0.0
 33
0.0
 40
0.0
 40
0.0
 40
0.0
 40
0.0
 40
0.25
 40
0.25
 40
0.25
 40
0.25
 40
0.5
 40
0.5
 40
0.5
 40
0.5
 40
1.0
 40
1.0
 40
1.0
 40
1.0
 10
65.0061
 20
32.4512
 30
0.0
 10
65.0061
 20
32.4512
 30
0.0
 10
63.4369
 20
33.3756
 30
0.0
 10
63.4071
 20
35.9597
 30
0.0
 10
63.4071
 20
35.9597
 30
0.0
 10
63.2463
 20
38.873
 30
0.0
 10
65.0061
 20
39.5821
 30
0.0
 10
65.0061
 20
39.5821
 30
0.0
 10
65.0061
 20
39.5821
 30
0.0
 10
65.002
 20
37.1081
 30
0.0
 10
64.9619
 20
33.767
 30
0.0
 10
65.0061
 20
32.4512
 30
0.0
  0
SPLINE
  5
81
330
1F
100
AcDbEntity
  8
layer 1
 62
     7
100
AcDbSpline
210
0.0
220
0.0
230
1.0
 70
    11
 71
     3
 72
    32
 73
    28
 74
     0
 42
0.0000000001
 43
0.0000000001
 12
1.0
 22
0.0
 32
0.0
 13
1.0
 23
0.0
 33
0.0
 40
0.0
 40
0.0
 40
0.0
 40
0.0
 40
0.125
 40
0.125
 40
0.125
 40
0.125
 40
0.25
 40
0.25
 40
0.25
 40
0.25
 40
0.375
 40
0.375
 40
0.375
 40
0.375
 40
0.5
 40
0.5
 40
0.5
 40
0.5
 40
0.625
 40
0.625
 40
0.625
 40
0.625
 40
0.75
 40
0.75
 40
0.75
 40
0.75
 40
1.0
 40
1.0
 40
1.0
 40
1.0
 10
31.7059
 20
106.3
 30
0.0
 10
30.1312
 20
106.6403
 30
0.0
 10
29.0416
 20
108.3214
 30
0.0
 10
28.8937
 20
108.9682
 30
0.0
 10
28.8937
 20
108.9682
 30
0.0
 10
28.0584
 20
112.621
 30
0.0
 10
29.642
 20
115.6592
 30
0.0
 10
32.0585
 20
117.0051
 30
0.0
 10
32.0585
 20
117.0051
 30
0.0
 10
38.8179
 20
120.7704
 30
0.0
 10
43.1954
 20
115.957
 30
0.0
 10
43.767
 20
115.2837
 30
0.0
 10
43.767
 20
115.2837
 30
0.0
 10
48.1219
 20
109.7558
 30
0.0
 10
46.1298
 20
100.3002
 30
0.0
 10
39.6548
 20
100.7308
 30
0.0
 10
39.6548
 20
100.7308
 30
0.0
 10
47.5246
 20
111.0966
 30
0.0
 10
33.9977
 20
117.8321
 30
0.0
 10
32.1483
 20
108.8871
 30
0.0
 10
32.1483
 20
108.8871
 30
0.0
 10
35.0507
 20
108.2666
 30
0.0
 10
34.6461
 20
105.7457
 30
0.0
 10
31.7059
 20
106.2998
 30
0.0
 10
31.7059
 20
106.2998
 30
0.0
 10
31.7059
 20
106.2998
 30
0.0
 10
31.7059
 20
106.3
 30
0.0
 10
31.7059
 20
106.3
 30
0.0
  0
ENDSEC
  0
SECTION
  2
OBJECTS
  0
DICTIONARY
  5
C
330
0
100
AcDbDictionary
281
     1
  3
ACAD_GROUP
350
D
  3
ACAD_LAYOUT
350
1A
  3
ACAD_MATERIAL
350
3B
  3
ACAD_MLEADERSTYLE
350
A4
  3
ACAD_MLINESTYLE
350
17
  3
ACAD_PLOTSETTINGS
350
19
  3
ACAD_PLOTSTYLENAME
350
E
  3
ACAD_TABLESTYLE
350
A3
  3
ACAD_VISUALSTYLE
350
2A
  0
DICTIONARY
  5
D
102
{ACAD_REACTORS
330
C
102
}
330
C
100
AcDbDictionary
281
     1
  0
DICTIONARY
  5
1A
102
{ACAD_REACTORS
330
C
102
}
330
C
100
AcDbDictionary
281
     1
  3
Layout1
350
1E
  3
Layout2
350
26
  3
Model
350
22
  0
DICTIONARY
  5
3B
102
{ACAD_REACTORS
330
C
102
}
330
C
100
AcDbDictionary
281
     1
  3
ByBlock
350
3D
  3
ByLayer
350
3C
  3
Global
350
3E
  0
DICTIONARY
  5
A4
102
{ACAD_REACTORS
330
C
102
}
330
C
100
AcDbDictionary
281
     1
  0
DICTIONARY
  5
17
102
{ACAD_REACTORS
330
C
102
}
330
C
100
AcDbDictionary
281
     1
  3
Standard
350
18
  0
DICTIONARY
  5
19
102
{ACAD_REACTORS
330
C
102
}
330
C
100
AcDbDictionary
281
     1
  0
ACDBDICTIONARYWDFLT
  5
E
102
{ACAD_REACTORS
330
C
102
}
330
C
100
AcDbDictionary
281
     1
  3
Normal
350
F
100
AcDbDictionaryWithDefault
340
F
  0
DICTIONARY
  5
A3
102
{ACAD_REACTORS
330
C
102
}
330
C
100
AcDbDictionary
281
     1
  0
DICTIONARY
  5
2A
102
{ACAD_REACTORS
330
C
102
}
330
C
100
AcDbDictionary
281
     1
  3
2dWireframe
350
2F
  3
3D Hidden
350
31
  3
3dWireframe
350
30
  3
Basic
350
32
  3
Brighten
350
36
  3
ColorChange
350
3A
  3
Conceptual
350
34
  3
Dim
350
35
  3
Facepattern
350
39
  3
Flat
350
2B
  3
FlatWithEdges
350
2C
  3
Gouraud
350
2D
  3
GouraudWithEdges
350
2E
  3
Linepattern
350
38
  3
Realistic
350
33
  3
Thicken
350
37
  0
LAYOUT
  5
1E
102
{ACAD_REACTORS
330
1A
102
}
330
1A
100
AcDbPlotSettings
  1

  2
none_device
  4

  6

 40
0.0
 41
0.0
 42
0.0
 43
0.0
 44
0.0
 45
0.0
 46
0.0
 47
0.0
 48
0.0
 49
0.0
140
0.0
141
0.0
142
1.0
143
1.0
 70
   688
 72
     0
 73
     0
 74
     5
  7

 75
    16
 76
     0
 77
     2
 78
   300
147
1.0
148
0.0
149
0.0
100
AcDbLayout
  1
Layout1
 70
     1
 71
     1
 10
0.0
 20
0.0
 11
12.0
 21
9.0
 12
0.0
 22
0.0
 32
0.0
 14
1.000000000000000E+20
 24
1.000000000000000E+20
 34
1.000000000000000E+20
 15
-1.000000000000000E+20
 25
-1.000000000000000E+20
 35
-1.000000000000000E+20
146
0.0
 13
0.0
 23
0.0
 33
0.0
 16
1.0
 26
0.0
 36
0.0
 17
0.0
 27
1.0
 37
0.0
 76
     0
330
1B
  0
LAYOUT
  5
26
102
{ACAD_REACTORS
330
1A
102
}
330
1A
100
AcDbPlotSettings
  1

  2
none_device
  4

  6

 40
0.0
 41
0.0
 42
0.0
 43
0.0
 44
0.0
 45
0.0
 46
0.0
 47
0.0
 48
0.0
 49
0.0
140
0.0
141
0.0
142
1.0
143
1.0
 70
   688
 72
     0
 73
     0
 74
     5
  7

 75
    16
 76
     0
 77
     2
 78
   300
147
1.0
148
0.0
149
0.0
100
AcDbLayout
  1
Layout2
 70
     1
 71
     2
 10
0.0
 20
0.0
 11
0.0
 21
0.0
 12
0.0
 22
0.0
 32
0.0
 14
0.0
 24
0.0
 34
0.0
 15
0.0
 25
0.0
 35
0.0
146
0.0
 13
0.0
 23
0.0
 33
0.0
 16
1.0
 26
0.0
 36
0.0
 17
0.0
 27
1.0
 37
0.0
 76
     0
330
23
  0
LAYOUT
  5
22
102
{ACAD_REACTORS
330
1A
102
}
330
1A
100
AcDbPlotSettings
  1

  2
none_device
  4

  6

 40
0.0
 41
0.0
 42
0.0
 43
0.0
 44
0.0
 45
0.0
 46
0.0
 47
0.0
 48
0.0
 49
0.0
140
0.0
141
0.0
142
1.0
143
1.0
 70
  1712
 72
     0
 73
     0
 74
     0
  7

 75
     0
 76
     0
 77
     2
 78
   300
147
1.0
148
0.0
149
0.0
100
AcDbLayout
  1
Model
 70
     1
 71
     0
 10
0.0
 20
0.0
 11
12.0
 21
9.0
 12
0.0
 22
0.0
 32
0.0
 14
-28.4743
 24
-114.9969
 34
0.0
 15
72.4662
 25
131.7033
 35
0.0
146
0.0
 13
0.0
 23
0.0
 33
0.0
 16
1.0
 26
0.0
 36
0.0
 17
0.0
 27
1.0
 37
0.0
 76
     0
330
1F
331
29
  0
MATERIAL
  5
3D
102
{ACAD_REACTORS
330
3B
102
}
330
3B
100
AcDbMaterial
  1
ByBlock
 72
     1
 94
      127
  0
MATERIAL
  5
3C
102
{ACAD_REACTORS
330
3B
102
}
330
3B
100
AcDbMaterial
  1
ByLayer
 72
     1
 94
      127
  0
MATERIAL
  5
3E
102
{ACAD_REACTORS
330
3B
102
}
330
3B
100
AcDbMaterial
  1
Global
 72
     1
 94
      127
  0
MLINESTYLE
  5
18
102
{ACAD_REACTORS
330
17
102
}
330
17
100
AcDbMlineStyle
  2
Standard
 70
     0
  3

 62
   256
 51
90.0
 52
90.0
 71
     2
 49
0.5
 62
   256
  6
BYLAYER
 49
-0.5
 62
   256
  6
BYLAYER
  0
ACDBPLACEHOLDER
  5
F
102
{ACAD_REACTORS
330
E
102
}
330
E
  0
VISUALSTYLE
  5
2F
102
{ACAD_REACTORS
330
2A
102
}
102
{ACAD_XDICTIONARY
360
8B
102
}
330
2A
100
AcDbVisualStyle
  2
2dWireframe
 70
     4
 71
     0
 72
     2
 73
     0
 90
        0
 40
-0.6
 41
-30.0
 62
     5
 63
     7
421
 16777215
 74
     1
 91
        4
 64
     7
 65
   257
 75
     1
175
     1
 42
1.0
 92
        0
 66
   257
 43
1.0
 76
     1
 77
     6
 78
     2
 67
     7
 79
     5
170
     0
171
     0
290
     0
174
     0
 93
        1
 44
0.0
173
     0
291
     0
 45
0.0
  0
VISUALSTYLE
  5
31
102
{ACAD_REACTORS
330
2A
102
}
102
{ACAD_XDICTIONARY
360
8F
102
}
330
2A
100
AcDbVisualStyle
  2
3D Hidden
 70
     6
 71
     1
 72
     2
 73
     2
 90
        0
 40
-0.6
 41
-30.0
 62
     5
 63
     7
421
 16777215
 74
     2
 91
        2
 64
     7
 65
   257
 75
     2
175
     1
 42
40.0
 92
        0
 66
   257
 43
1.0
 76
     1
 77
     6
 78
     2
 67
     7
 79
     3
170
     0
171
     0
290
     0
174
     0
 93
        1
 44
0.0
173
     0
291
     0
 45
0.0
  0
VISUALSTYLE
  5
30
102
{ACAD_REACTORS
330
2A
102
}
102
{ACAD_XDICTIONARY
360
8D
102
}
330
2A
100
AcDbVisualStyle
  2
3dWireframe
 70
     5
 71
     0
 72
     2
 73
     0
 90
        0
 40
-0.6
 41
-30.0
 62
     5
 63
     7
421
 16777215
 74
     1
 91
        4
 64
     7
 65
   257
 75
     1
175
     1
 42
1.0
 92
        0
 66
   257
 43
1.0
 76
     1
 77
     6
 78
     2
 67
     7
 79
     5
170
     0
171
     0
290
     0
174
     0
 93
        1
 44
0.0
173
     0
291
     0
 45
0.0
  0
VISUALSTYLE
  5
32
102
{ACAD_REACTORS
330
2A
102
}
102
{ACAD_XDICTIONARY
360
91
102
}
330
2A
100
AcDbVisualStyle
  2
Basic
 70
     7
 71
     1
 72
     0
 73
     1
 90
        0
 40
-0.6
 41
-30.0
 62
     5
 63
     7
421
 16777215
 74
     0
 91
        4
 64
     7
 65
   257
 75
     1
175
     1
 42
1.0
 92
        8
 66
     7
 43
1.0
 76
     1
 77
     6
 78
     2
 67
     7
 79
     5
170
     0
171
     0
290
     0
174
     0
 93
        1
 44
0.0
173
     0
291
     1
 45
0.0
  0
VISUALSTYLE
  5
36
102
{ACAD_REACTORS
330
2A
102
}
102
{ACAD_XDICTIONARY
360
99
102
}
330
2A
100
AcDbVisualStyle
  2
Brighten
 70
    12
 71
     2
 72
     2
 73
     0
 90
        0
 40
-0.6
 41
-30.0
 62
     5
 63
     7
421
 16777215
 74
     1
 91
        4
 64
     7
 65
   257
 75
     1
175
     1
 42
1.0
 92
        8
 66
     7
 43
1.0
 76
     1
 77
     6
 78
     2
 67
     7
 79
     5
170
     0
171
     0
290
     0
174
     0
 93
        1
 44
50.0
173
     0
291
     1
 45
0.0
  0
VISUALSTYLE
  5
3A
102
{ACAD_REACTORS
330
2A
102
}
102
{ACAD_XDICTIONARY
360
A1
102
}
330
2A
100
AcDbVisualStyle
  2
ColorChange
 70
    16
 71
     2
 72
     2
 73
     3
 90
        0
 40
-0.6
 41
-30.0
 62
     5
 63
     8
421
  8421504
 74
     1
 91
        4
 64
     7
 65
   257
 75
     1
175
     1
 42
1.0
 92
        8
 66
     8
424
  8421504
 43
1.0
 76
     1
 77
     6
 78
     2
 67
     7
 79
     5
170
     0
171
     0
290
     0
174
     0
 93
        1
 44
0.0
173
     0
291
     1
 45
0.0
  0
VISUALSTYLE
  5
34
102
{ACAD_REACTORS
330
2A
102
}
102
{ACAD_XDICTIONARY
360
95
102
}
330
2A
100
AcDbVisualStyle
  2
Conceptual
 70
     9
 71
     3
 72
     2
 73
     0
 90
        0
 40
-0.6
 41
-30.0
 62
     5
 63
     7
421
 16777215
 74
     2
 91
        2
 64
     7
 65
   257
 75
     1
175
     1
 42
40.0
 92
        8
 66
     7
 43
1.0
 76
     1
 77
     6
 78
     2
 67
     7
 79
     3
170
     0
171
     0
290
     0
174
     0
 93
        1
 44
0.0
173
     0
291
     0
 45
0.0
  0
VISUALSTYLE
  5
35
102
{ACAD_REACTORS
330
2A
102
}
102
{ACAD_XDICTIONARY
360
97
102
}
330
2A
100
AcDbVisualStyle
  2
Dim
 70
    11
 71
     2
 72
     2
 73
     0
 90
        0
 40
-0.6
 41
-30.0
 62
     5
 63
     7
421
 16777215
 74
     1
 91
        4
 64
     7
 65
   257
 75
     1
175
     1
 42
1.0
 92
        8
 66
     7
 43
1.0
 76
     1
 77
     6
 78
     2
 67
     7
 79
     5
170
     0
171
     0
290
     0
174
     0
 93
        1
 44
-50.0
173
     0
291
     1
 45
0.0
  0
VISUALSTYLE
  5
39
102
{ACAD_REACTORS
330
2A
102
}
102
{ACAD_XDICTIONARY
360
9F
102
}
330
2A
100
AcDbVisualStyle
  2
Facepattern
 70
    15
 71
     2
 72
     2
 73
     0
 90
        0
 40
-0.6
 41
-30.0
 62
     5
 63
     7
421
 16777215
 74
     1
 91
        4
 64
     7
 65
   257
 75
     1
175
     1
 42
1.0
 92
        8
 66
     7
 43
1.0
 76
     1
 77
     6
 78
     2
 67
     7
 79
     5
170
     0
171
     0
290
     0
174
     0
 93
        1
 44
0.0
173
     0
291
     1
 45
0.0
  0
VISUALSTYLE
  5
2B
102
{ACAD_REACTORS
330
2A
102
}
102
{ACAD_XDICTIONARY
360
83
102
}
330
2A
100
AcDbVisualStyle
  2
Flat
 70
     0
 71
     2
 72
     1
 73
     1
 90
        2
 40
-0.6
 41
30.0
 62
     5
 63
     7
421
 16777215
 74
     0
 91
        4
 64
     7
 65
   257
 75
     1
175
     1
 42
1.0
 92
        8
 66
     7
 43
1.0
 76
     1
 77
     6
 78
     2
 67
     7
 79
     5
170
     0
171
     0
290
     0
174
     0
 93
       13
 44
0.0
173
     0
291
     1
 45
0.0
  0
VISUALSTYLE
  5
2C
102
{ACAD_REACTORS
330
2A
102
}
102
{ACAD_XDICTIONARY
360
85
102
}
330
2A
100
AcDbVisualStyle
  2
FlatWithEdges
 70
     1
 71
     2
 72
     1
 73
     1
 90
        2
 40
-0.6
 41
30.0
 62
     5
 63
     7
421
 16777215
 74
     1
 91
        4
 64
     7
 65
   257
 75
     1
175
     1
 42
1.0
 92
        0
 66
   257
 43
1.0
 76
     1
 77
     6
 78
     2
 67
     7
 79
     5
170
     0
171
     0
290
     0
174
     0
 93
       13
 44
0.0
173
     0
291
     1
 45
0.0
  0
VISUALSTYLE
  5
2D
102
{ACAD_REACTORS
330
2A
102
}
102
{ACAD_XDICTIONARY
360
87
102
}
330
2A
100
AcDbVisualStyle
  2
Gouraud
 70
     2
 71
     2
 72
     2
 73
     1
 90
        2
 40
-0.6
 41
30.0
 62
     5
 63
     7
421
 16777215
 74
     0
 91
        4
 64
     7
 65
   257
 75
     1
175
     1
 42
1.0
 92
        0
 66
     7
 43
1.0
 76
     1
 77
     6
 78
     2
 67
     7
 79
     5
170
     0
171
     0
290
     0
174
     0
 93
       13
 44
0.0
173
     0
291
     1
 45
0.0
  0
VISUALSTYLE
  5
2E
102
{ACAD_REACTORS
330
2A
102
}
102
{ACAD_XDICTIONARY
360
89
102
}
330
2A
100
AcDbVisualStyle
  2
GouraudWithEdges
 70
     3
 71
     2
 72
     2
 73
     1
 90
        2
 40
-0.6
 41
30.0
 62
     5
 63
     7
421
 16777215
 74
     1
 91
        4
 64
     7
 65
   257
 75
     1
175
     1
 42
1.0
 92
        0
 66
   257
 43
1.0
 76
     1
 77
     6
 78
     2
 67
     7
 79
     5
170
     0
171
     0
290
     0
174
     0
 93
       13
 44
0.0
173
     0
291
     1
 45
0.0
  0
VISUALSTYLE
  5
38
102
{ACAD_REACTORS
330
2A
102
}
102
{ACAD_XDICTIONARY
360
9D
102
}
330
2A
100
AcDbVisualStyle
  2
Linepattern
 70
    14
 71
     2
 72
     2
 73
     0
 90
        0
 40
-0.6
 41
-30.0
 62
     5
 63
     7
421
 16777215
 74
     1
 91
        4
 64
     7
 65
   257
 75
     7
175
     7
 42
1.0
 92
        8
 66
     7
 43
1.0
 76
     1
 77
     6
 78
     2
 67
     7
 79
     5
170
     0
171
     0
290
     0
174
     0
 93
        1
 44
0.0
173
     0
291
     1
 45
0.0
  0
VISUALSTYLE
  5
33
102
{ACAD_REACTORS
330
2A
102
}
102
{ACAD_XDICTIONARY
360
93
102
}
330
2A
100
AcDbVisualStyle
  2
Realistic
 70
     8
 71
     2
 72
     2
 73
     0
 90
        0
 40
-0.6
 41
-30.0
 62
     5
 63
     7
421
 16777215
 74
     1
 91
        0
 64
     7
 65
   257
 75
     1
175
     1
 42
1.0
 92
        8
 66
     8
424
  7895160
 43
1.0
 76
     1
 77
     6
 78
     2
 67
     7
 79
     5
170
     0
171
     0
290
     0
174
     0
 93
       13
 44
0.0
173
     0
291
     0
 45
0.0
  0
VISUALSTYLE
  5
37
102
{ACAD_REACTORS
330
2A
102
}
102
{ACAD_XDICTIONARY
360
9B
102
}
330
2A
100
AcDbVisualStyle
  2
Thicken
 70
    13
 71
     2
 72
     2
 73
     0
 90
        0
 40
-0.6
 41
-30.0
 62
     5
 63
     7
421
 16777215
 74
     1
 91
        4
 64
     7
 65
   257
 75
     1
175
     1
 42
1.0
 92
       12
 66
     7
 43
1.0
 76
     1
 77
     6
 78
     2
 67
     7
 79
     5
170
     0
171
     0
290
     0
174
     0
 93
        1
 44
0.0
173
     0
291
     1
 45
0.0
  0
DICTIONARY
  5
8B
330
2F
100
AcDbDictionary
280
     1
281
     1
  3
ACAD_XREC_ROUNDTRIP
360
8C
  0
DICTIONARY
  5
8F
330
31
100
AcDbDictionary
280
     1
281
     1
  3
ACAD_XREC_ROUNDTRIP
360
90
  0
DICTIONARY
  5
8D
330
30
100
AcDbDictionary
280
     1
281
     1
  3
ACAD_XREC_ROUNDTRIP
360
8E
  0
DICTIONARY
  5
91
330
32
100
AcDbDictionary
280
     1
281
     1
  3
ACAD_XREC_ROUNDTRIP
360
92
  0
DICTIONARY
  5
99
330
36
100
AcDbDictionary
280
     1
281
     1
  3
ACAD_XREC_ROUNDTRIP
360
9A
  0
DICTIONARY
  5
A1
330
3A
100
AcDbDictionary
280
     1
281
     1
  3
ACAD_XREC_ROUNDTRIP
360
A2
  0
DICTIONARY
  5
95
330
34
100
AcDbDictionary
280
     1
281
     1
  3
ACAD_XREC_ROUNDTRIP
360
96
  0
DICTIONARY
  5
97
330
35
100
AcDbDictionary
280
     1
281
     1
  3
ACAD_XREC_ROUNDTRIP
360
98
  0
DICTIONARY
  5
9F
330
39
100
AcDbDictionary
280
     1
281
     1
  3
ACAD_XREC_ROUNDTRIP
360
A0
  0
DICTIONARY
  5
83
330
2B
100
AcDbDictionary
280
     1
281
     1
  3
ACAD_XREC_ROUNDTRIP
360
84
  0
DICTIONARY
  5
85
330
2C
100
AcDbDictionary
280
     1
281
     1
  3
ACAD_XREC_ROUNDTRIP
360
86
  0
DICTIONARY
  5
87
330
2D
100
AcDbDictionary
280
     1
281
     1
  3
ACAD_XREC_ROUNDTRIP
360
88
  0
DICTIONARY
  5
89
330
2E
100
AcDbDictionary
280
     1
281
     1
  3
ACAD_XREC_ROUNDTRIP
360
8A
  0
DICTIONARY
  5
9D
330
38
100
AcDbDictionary
280
     1
281
     1
  3
ACAD_XREC_ROUNDTRIP
360
9E
  0
DICTIONARY
  5
93
330
33
100
AcDbDictionary
280
     1
281
     1
  3
ACAD_XREC_ROUNDTRIP
360
94
  0
DICTIONARY
  5
9B
330
37
100
AcDbDictionary
280
     1
281
     1
  3
ACAD_XREC_ROUNDTRIP
360
9C
  0
XRECORD
  5
8C
102
{ACAD_REACTORS
330
8B
102
}
330
8B
100
AcDbXrecord
280
     1
102
RTVSPropertyOp0
 70
     1
102
RTVSPropertyOp1
 70
     1
102
RTVSPropertyOp2
 70
     1
102
RTVSPropertyOp3
 70
     1
102
RTVSPropertyOp4
 70
     1
102
RTVSPropertyOp5
 70
     1
102
RTVSPropertyOp6
 70
     1
102
RTVSPropertyOp7
 70
     1
102
RTVSPropertyOp8
 70
     1
102
RTVSPropertyOp9
 70
     1
102
RTVSPropertyOp10
 70
     1
102
RTVSPropertyOp11
 70
     1
102
RTVSPropertyOp12
 70
     1
102
RTVSPropertyOp13
 70
     1
102
RTVSPropertyOp14
 70
     1
102
RTVSPropertyOp15
 70
     1
102
RTVSPropertyOp16
 70
     1
102
RTVSPropertyOp17
 70
     1
102
RTVSPropertyOp18
 70
     1
102
RTVSPropertyOp19
 70
     1
102
RTVSPropertyOp20
 70
     1
102
RTVSPropertyOp21
 70
     1
102
RTVSPropertyOp22
 70
     1
102
RTVSPropertyOp23
 70
     1
102
RTVSPropertyOp24
 70
     1
102
RTVSPropertyOp25
 70
     1
102
RTVSPropertyOp26
 70
     1
102
RTVSPropertyOp27
 70
     1
102
RTVSPropertyOp28
 70
     1
102
RTVSPropertyOp29
 70
     1
102
RTVSPropertyOp30
 70
     1
102
RTVSPropertyOp31
 70
     1
102
RTVSPropertyOp32
 70
     1
  0
XRECORD
  5
90
102
{ACAD_REACTORS
330
8F
102
}
330
8F
100
AcDbXrecord
280
     1
102
RTVSPropertyOp0
 70
     1
102
RTVSPropertyOp1
 70
     1
102
RTVSPropertyOp2
 70
     1
102
RTVSPropertyOp3
 70
     1
102
RTVSPropertyOp4
 70
     1
102
RTVSPropertyOp5
 70
     1
102
RTVSPropertyOp6
 70
     1
102
RTVSPropertyOp7
 70
     1
102
RTVSPropertyOp8
 70
     1
102
RTVSPropertyOp9
 70
     1
102
RTVSPropertyOp10
 70
     1
102
RTVSPropertyOp11
 70
     1
102
RTVSPropertyOp12
 70
     1
102
RTVSPropertyOp13
 70
     1
102
RTVSPropertyOp14
 70
     1
102
RTVSPropertyOp15
 70
     1
102
RTVSPropertyOp16
 70
     1
102
RTVSPropertyOp17
 70
     1
102
RTVSPropertyOp18
 70
     1
102
RTVSPropertyOp19
 70
     1
102
RTVSPropertyOp20
 70
     1
102
RTVSPropertyOp21
 70
     1
102
RTVSPropertyOp22
 70
     1
102
RTVSPropertyOp23
 70
     1
102
RTVSPropertyOp24
 70
     1
102
RTVSPropertyOp25
 70
     1
102
RTVSPropertyOp26
 70
     1
102
RTVSPropertyOp27
 70
     1
102
RTVSPropertyOp28
 70
     1
102
RTVSPropertyOp29
 70
     1
102
RTVSPropertyOp30
 70
     1
102
RTVSPropertyOp31
 70
     1
102
RTVSPropertyOp32
 70
     1
  0
XRECORD
  5
8E
102
{ACAD_REACTORS
330
8D
102
}
330
8D
100
AcDbXrecord
280
     1
102
RTVSPropertyOp0
 70
     1
102
RTVSPropertyOp1
 70
     1
102
RTVSPropertyOp2
 70
     1
102
RTVSPropertyOp3
 70
     1
102
RTVSPropertyOp4
 70
     1
102
RTVSPropertyOp5
 70
     1
102
RTVSPropertyOp6
 70
     1
102
RTVSPropertyOp7
 70
     1
102
RTVSPropertyOp8
 70
     1
102
RTVSPropertyOp9
 70
     1
102
RTVSPropertyOp10
 70
     1
102
RTVSPropertyOp11
 70
     1
102
RTVSPropertyOp12
 70
     1
102
RTVSPropertyOp13
 70
     1
102
RTVSPropertyOp14
 70
     1
102
RTVSPropertyOp15
 70
     1
102
RTVSPropertyOp16
 70
     1
102
RTVSPropertyOp17
 70
     1
102
RTVSPropertyOp18
 70
     1
102
RTVSPropertyOp19
 70
     1
102
RTVSPropertyOp20
 70
     1
102
RTVSPropertyOp21
 70
     1
102
RTVSPropertyOp22
 70
     1
102
RTVSPropertyOp23
 70
     1
102
RTVSPropertyOp24
 70
     1
102
RTVSPropertyOp25
 70
     1
102
RTVSPropertyOp26
 70
     1
102
RTVSPropertyOp27
 70
     1
102
RTVSPropertyOp28
 70
     1
102
RTVSPropertyOp29
 70
     1
102
RTVSPropertyOp30
 70
     1
102
RTVSPropertyOp31
 70
     1
102
RTVSPropertyOp32
 70
     1
  0
XRECORD
  5
92
102
{ACAD_REACTORS
330
91
102
}
330
91
100
AcDbXrecord
280
     1
102
RTVSPropertyOp0
 70
     1
102
RTVSPropertyOp1
 70
     1
102
RTVSPropertyOp2
 70
     1
102
RTVSPropertyOp3
 70
     1
102
RTVSPropertyOp4
 70
     1
102
RTVSPropertyOp5
 70
     1
102
RTVSPropertyOp6
 70
     1
102
RTVSPropertyOp7
 70
     1
102
RTVSPropertyOp8
 70
     1
102
RTVSPropertyOp9
 70
     1
102
RTVSPropertyOp10
 70
     1
102
RTVSPropertyOp11
 70
     1
102
RTVSPropertyOp12
 70
     1
102
RTVSPropertyOp13
 70
     1
102
RTVSPropertyOp14
 70
     1
102
RTVSPropertyOp15
 70
     1
102
RTVSPropertyOp16
 70
     1
102
RTVSPropertyOp17
 70
     1
102
RTVSPropertyOp18
 70
     1
102
RTVSPropertyOp19
 70
     1
102
RTVSPropertyOp20
 70
     1
102
RTVSPropertyOp21
 70
     1
102
RTVSPropertyOp22
 70
     1
102
RTVSPropertyOp23
 70
     1
102
RTVSPropertyOp24
 70
     1
102
RTVSPropertyOp25
 70
     1
102
RTVSPropertyOp26
 70
     1
102
RTVSPropertyOp27
 70
     1
102
RTVSPropertyOp28
 70
     1
102
RTVSPropertyOp29
 70
     1
102
RTVSPropertyOp30
 70
     1
102
RTVSPropertyOp31
 70
     1
102
RTVSPropertyOp32
 70
     1
  0
XRECORD
  5
9A
102
{ACAD_REACTORS
330
99
102
}
330
99
100
AcDbXrecord
280
     1
102
RTVSPropertyOp0
 70
     1
102
RTVSPropertyOp1
 70
     1
102
RTVSPropertyOp2
 70
     1
102
RTVSPropertyOp3
 70
     1
102
RTVSPropertyOp4
 70
     1
102
RTVSPropertyOp5
 70
     1
102
RTVSPropertyOp6
 70
     1
102
RTVSPropertyOp7
 70
     1
102
RTVSPropertyOp8
 70
     1
102
RTVSPropertyOp9
 70
     1
102
RTVSPropertyOp10
 70
     1
102
RTVSPropertyOp11
 70
     1
102
RTVSPropertyOp12
 70
     1
102
RTVSPropertyOp13
 70
     1
102
RTVSPropertyOp14
 70
     1
102
RTVSPropertyOp15
 70
     1
102
RTVSPropertyOp16
 70
     1
102
RTVSPropertyOp17
 70
     1
102
RTVSPropertyOp18
 70
     1
102
RTVSPropertyOp19
 70
     1
102
RTVSPropertyOp20
 70
     1
102
RTVSPropertyOp21
 70
     1
102
RTVSPropertyOp22
 70
     1
102
RTVSPropertyOp23
 70
     1
102
RTVSPropertyOp24
 70
     1
102
RTVSPropertyOp25
 70
     1
102
RTVSPropertyOp26
 70
     1
102
RTVSPropertyOp27
 70
     1
102
RTVSPropertyOp28
 70
     1
102
RTVSPropertyOp29
 70
     1
102
RTVSPropertyOp30
 70
     1
102
RTVSPropertyOp31
 70
     1
102
RTVSPropertyOp32
 70
     1
  0
XRECORD
  5
A2
102
{ACAD_REACTORS
330
A1
102
}
330
A1
100
AcDbXrecord
280
     1
102
RTVSPropertyOp0
 70
     1
102
RTVSPropertyOp1
 70
     1
102
RTVSPropertyOp2
 70
     1
102
RTVSPropertyOp3
 70
     1
102
RTVSPropertyOp4
 70
     1
102
RTVSPropertyOp5
 70
     1
102
RTVSPropertyOp6
 70
     1
102
RTVSPropertyOp7
 70
     1
102
RTVSPropertyOp8
 70
     1
102
RTVSPropertyOp9
 70
     1
102
RTVSPropertyOp10
 70
     1
102
RTVSPropertyOp11
 70
     1
102
RTVSPropertyOp12
 70
     1
102
RTVSPropertyOp13
 70
     1
102
RTVSPropertyOp14
 70
     1
102
RTVSPropertyOp15
 70
     1
102
RTVSPropertyOp16
 70
     1
102
RTVSPropertyOp17
 70
     1
102
RTVSPropertyOp18
 70
     1
102
RTVSPropertyOp19
 70
     1
102
RTVSPropertyOp20
 70
     1
102
RTVSPropertyOp21
 70
     1
102
RTVSPropertyOp22
 70
     1
102
RTVSPropertyOp23
 70
     1
102
RTVSPropertyOp24
 70
     1
102
RTVSPropertyOp25
 70
     1
102
RTVSPropertyOp26
 70
     1
102
RTVSPropertyOp27
 70
     1
102
RTVSPropertyOp28
 70
     1
102
RTVSPropertyOp29
 70
     1
102
RTVSPropertyOp30
 70
     1
102
RTVSPropertyOp31
 70
     1
102
RTVSPropertyOp32
 70
     1
  0
XRECORD
  5
96
102
{ACAD_REACTORS
330
95
102
}
330
95
100
AcDbXrecord
280
     1
102
RTVSPropertyOp0
 70
     1
102
RTVSPropertyOp1
 70
     1
102
RTVSPropertyOp2
 70
     1
102
RTVSPropertyOp3
 70
     1
102
RTVSPropertyOp4
 70
     1
102
RTVSPropertyOp5
 70
     1
102
RTVSPropertyOp6
 70
     1
102
RTVSPropertyOp7
 70
     1
102
RTVSPropertyOp8
 70
     1
102
RTVSPropertyOp9
 70
     1
102
RTVSPropertyOp10
 70
     1
102
RTVSPropertyOp11
 70
     1
102
RTVSPropertyOp12
 70
     1
102
RTVSPropertyOp13
 70
     1
102
RTVSPropertyOp14
 70
     1
102
RTVSPropertyOp15
 70
     1
102
RTVSPropertyOp16
 70
     1
102
RTVSPropertyOp17
 70
     1
102
RTVSPropertyOp18
 70
     1
102
RTVSPropertyOp19
 70
     1
102
RTVSPropertyOp20
 70
     1
102
RTVSPropertyOp21
 70
     1
102
RTVSPropertyOp22
 70
     1
102
RTVSPropertyOp23
 70
     1
102
RTVSPropertyOp24
 70
     1
102
RTVSPropertyOp25
 70
     1
102
RTVSPropertyOp26
 70
     1
102
RTVSPropertyOp27
 70
     1
102
RTVSPropertyOp28
 70
     1
102
RTVSPropertyOp29
 70
     1
102
RTVSPropertyOp30
 70
     1
102
RTVSPropertyOp31
 70
     1
102
RTVSPropertyOp32
 70
     1
  0
XRECORD
  5
98
102
{ACAD_REACTORS
330
97
102
}
330
97
100
AcDbXrecord
280
     1
102
RTVSPropertyOp0
 70
     1
102
RTVSPropertyOp1
 70
     1
102
RTVSPropertyOp2
 70
     1
102
RTVSPropertyOp3
 70
     1
102
RTVSPropertyOp4
 70
     1
102
RTVSPropertyOp5
 70
     1
102
RTVSPropertyOp6
 70
     1
102
RTVSPropertyOp7
 70
     1
102
RTVSPropertyOp8
 70
     1
102
RTVSPropertyOp9
 70
     1
102
RTVSPropertyOp10
 70
     1
102
RTVSPropertyOp11
 70
     1
102
RTVSPropertyOp12
 70
     1
102
RTVSPropertyOp13
 70
     1
102
RTVSPropertyOp14
 70
     1
102
RTVSPropertyOp15
 70
     1
102
RTVSPropertyOp16
 70
     1
102
RTVSPropertyOp17
 70
     1
102
RTVSPropertyOp18
 70
     1
102
RTVSPropertyOp19
 70
     1
102
RTVSPropertyOp20
 70
     1
102
RTVSPropertyOp21
 70
     1
102
RTVSPropertyOp22
 70
     1
102
RTVSPropertyOp23
 70
     1
102
RTVSPropertyOp24
 70
     1
102
RTVSPropertyOp25
 70
     1
102
RTVSPropertyOp26
 70
     1
102
RTVSPropertyOp27
 70
     1
102
RTVSPropertyOp28
 70
     1
102
RTVSPropertyOp29
 70
     1
102
RTVSPropertyOp30
 70
     1
102
RTVSPropertyOp31
 70
     1
102
RTVSPropertyOp32
 70
     1
  0
XRECORD
  5
A0
102
{ACAD_REACTORS
330
9F
102
}
330
9F
100
AcDbXrecord
280
     1
102
RTVSPropertyOp0
 70
     1
102
RTVSPropertyOp1
 70
     1
102
RTVSPropertyOp2
 70
     1
102
RTVSPropertyOp3
 70
     1
102
RTVSPropertyOp4
 70
     1
102
RTVSPropertyOp5
 70
     1
102
RTVSPropertyOp6
 70
     1
102
RTVSPropertyOp7
 70
     1
102
RTVSPropertyOp8
 70
     1
102
RTVSPropertyOp9
 70
     1
102
RTVSPropertyOp10
 70
     1
102
RTVSPropertyOp11
 70
     1
102
RTVSPropertyOp12
 70
     1
102
RTVSPropertyOp13
 70
     1
102
RTVSPropertyOp14
 70
     1
102
RTVSPropertyOp15
 70
     1
102
RTVSPropertyOp16
 70
     1
102
RTVSPropertyOp17
 70
     1
102
RTVSPropertyOp18
 70
     1
102
RTVSPropertyOp19
 70
     1
102
RTVSPropertyOp20
 70
     1
102
RTVSPropertyOp21
 70
     1
102
RTVSPropertyOp22
 70
     1
102
RTVSPropertyOp23
 70
     1
102
RTVSPropertyOp24
 70
     1
102
RTVSPropertyOp25
 70
     1
102
RTVSPropertyOp26
 70
     1
102
RTVSPropertyOp27
 70
     1
102
RTVSPropertyOp28
 70
     1
102
RTVSPropertyOp29
 70
     1
102
RTVSPropertyOp30
 70
     1
102
RTVSPropertyOp31
 70
     1
102
RTVSPropertyOp32
 70
     1
  0
XRECORD
  5
84
102
{ACAD_REACTORS
330
83
102
}
330
83
100
AcDbXrecord
280
     1
102
RTVSPropertyOp0
 70
     1
102
RTVSPropertyOp1
 70
     1
102
RTVSPropertyOp2
 70
     1
102
RTVSPropertyOp3
 70
     1
102
RTVSPropertyOp4
 70
     1
102
RTVSPropertyOp5
 70
     1
102
RTVSPropertyOp6
 70
     1
102
RTVSPropertyOp7
 70
     1
102
RTVSPropertyOp8
 70
     1
102
RTVSPropertyOp9
 70
     1
102
RTVSPropertyOp10
 70
     1
102
RTVSPropertyOp11
 70
     1
102
RTVSPropertyOp12
 70
     1
102
RTVSPropertyOp13
 70
     1
102
RTVSPropertyOp14
 70
     1
102
RTVSPropertyOp15
 70
     1
102
RTVSPropertyOp16
 70
     1
102
RTVSPropertyOp17
 70
     1
102
RTVSPropertyOp18
 70
     1
102
RTVSPropertyOp19
 70
     1
102
RTVSPropertyOp20
 70
     1
102
RTVSPropertyOp21
 70
     1
102
RTVSPropertyOp22
 70
     1
102
RTVSPropertyOp23
 70
     1
102
RTVSPropertyOp24
 70
     1
102
RTVSPropertyOp25
 70
     1
102
RTVSPropertyOp26
 70
     1
102
RTVSPropertyOp27
 70
     1
102
RTVSPropertyOp28
 70
     1
102
RTVSPropertyOp29
 70
     1
102
RTVSPropertyOp30
 70
     1
102
RTVSPropertyOp31
 70
     1
102
RTVSPropertyOp32
 70
     1
  0
XRECORD
  5
86
102
{ACAD_REACTORS
330
85
102
}
330
85
100
AcDbXrecord
280
     1
102
RTVSPropertyOp0
 70
     1
102
RTVSPropertyOp1
 70
     1
102
RTVSPropertyOp2
 70
     1
102
RTVSPropertyOp3
 70
     1
102
RTVSPropertyOp4
 70
     1
102
RTVSPropertyOp5
 70
     1
102
RTVSPropertyOp6
 70
     1
102
RTVSPropertyOp7
 70
     1
102
RTVSPropertyOp8
 70
     1
102
RTVSPropertyOp9
 70
     1
102
RTVSPropertyOp10
 70
     1
102
RTVSPropertyOp11
 70
     1
102
RTVSPropertyOp12
 70
     1
102
RTVSPropertyOp13
 70
     1
102
RTVSPropertyOp14
 70
     1
102
RTVSPropertyOp15
 70
     1
102
RTVSPropertyOp16
 70
     1
102
RTVSPropertyOp17
 70
     1
102
RTVSPropertyOp18
 70
     1
102
RTVSPropertyOp19
 70
     1
102
RTVSPropertyOp20
 70
     1
102
RTVSPropertyOp21
 70
     1
102
RTVSPropertyOp22
 70
     1
102
RTVSPropertyOp23
 70
     1
102
RTVSPropertyOp24
 70
     1
102
RTVSPropertyOp25
 70
     1
102
RTVSPropertyOp26
 70
     1
102
RTVSPropertyOp27
 70
     1
102
RTVSPropertyOp28
 70
     1
102
RTVSPropertyOp29
 70
     1
102
RTVSPropertyOp30
 70
     1
102
RTVSPropertyOp31
 70
     1
102
RTVSPropertyOp32
 70
     1
  0
XRECORD
  5
88
102
{ACAD_REACTORS
330
87
102
}
330
87
100
AcDbXrecord
280
     1
102
RTVSPropertyOp0
 70
     1
102
RTVSPropertyOp1
 70
     1
102
RTVSPropertyOp2
 70
     1
102
RTVSPropertyOp3
 70
     1
102
RTVSPropertyOp4
 70
     1
102
RTVSPropertyOp5
 70
     1
102
RTVSPropertyOp6
 70
     1
102
RTVSPropertyOp7
 70
     1
102
RTVSPropertyOp8
 70
     1
102
RTVSPropertyOp9
 70
     1
102
RTVSPropertyOp10
 70
     1
102
RTVSPropertyOp11
 70
     1
102
RTVSPropertyOp12
 70
     1
102
RTVSPropertyOp13
 70
     1
102
RTVSPropertyOp14
 70
     1
102
RTVSPropertyOp15
 70
     1
102
RTVSPropertyOp16
 70
     1
102
RTVSPropertyOp17
 70
     1
102
RTVSPropertyOp18
 70
     1
102
RTVSPropertyOp19
 70
     1
102
RTVSPropertyOp20
 70
     1
102
RTVSPropertyOp21
 70
     1
102
RTVSPropertyOp22
 70
     1
102
RTVSPropertyOp23
 70
     1
102
RTVSPropertyOp24
 70
     1
102
RTVSPropertyOp25
 70
     1
102
RTVSPropertyOp26
 70
     1
102
RTVSPropertyOp27
 70
     1
102
RTVSPropertyOp28
 70
     1
102
RTVSPropertyOp29
 70
     1
102
RTVSPropertyOp30
 70
     1
102
RTVSPropertyOp31
 70
     1
102
RTVSPropertyOp32
 70
     1
  0
XRECORD
  5
8A
102
{ACAD_REACTORS
330
89
102
}
330
89
100
AcDbXrecord
280
     1
102
RTVSPropertyOp0
 70
     1
102
RTVSPropertyOp1
 70
     1
102
RTVSPropertyOp2
 70
     1
102
RTVSPropertyOp3
 70
     1
102
RTVSPropertyOp4
 70
     1
102
RTVSPropertyOp5
 70
     1
102
RTVSPropertyOp6
 70
     1
102
RTVSPropertyOp7
 70
     1
102
RTVSPropertyOp8
 70
     1
102
RTVSPropertyOp9
 70
     1
102
RTVSPropertyOp10
 70
     1
102
RTVSPropertyOp11
 70
     1
102
RTVSPropertyOp12
 70
     1
102
RTVSPropertyOp13
 70
     1
102
RTVSPropertyOp14
 70
     1
102
RTVSPropertyOp15
 70
     1
102
RTVSPropertyOp16
 70
     1
102
RTVSPropertyOp17
 70
     1
102
RTVSPropertyOp18
 70
     1
102
RTVSPropertyOp19
 70
     1
102
RTVSPropertyOp20
 70
     1
102
RTVSPropertyOp21
 70
     1
102
RTVSPropertyOp22
 70
     1
102
RTVSPropertyOp23
 70
     1
102
RTVSPropertyOp24
 70
     1
102
RTVSPropertyOp25
 70
     1
102
RTVSPropertyOp26
 70
     1
102
RTVSPropertyOp27
 70
     1
102
RTVSPropertyOp28
 70
     1
102
RTVSPropertyOp29
 70
     1
102
RTVSPropertyOp30
 70
     1
102
RTVSPropertyOp31
 70
     1
102
RTVSPropertyOp32
 70
     1
  0
XRECORD
  5
9E
102
{ACAD_REACTORS
330
9D
102
}
330
9D
100
AcDbXrecord
280
     1
102
RTVSPropertyOp0
 70
     1
102
RTVSPropertyOp1
 70
     1
102
RTVSPropertyOp2
 70
     1
102
RTVSPropertyOp3
 70
     1
102
RTVSPropertyOp4
 70
     1
102
RTVSPropertyOp5
 70
     1
102
RTVSPropertyOp6
 70
     1
102
RTVSPropertyOp7
 70
     1
102
RTVSPropertyOp8
 70
     1
102
RTVSPropertyOp9
 70
     1
102
RTVSPropertyOp10
 70
     1
102
RTVSPropertyOp11
 70
     1
102
RTVSPropertyOp12
 70
     1
102
RTVSPropertyOp13
 70
     1
102
RTVSPropertyOp14
 70
     1
102
RTVSPropertyOp15
 70
     1
102
RTVSPropertyOp16
 70
     1
102
RTVSPropertyOp17
 70
     1
102
RTVSPropertyOp18
 70
     1
102
RTVSPropertyOp19
 70
     1
102
RTVSPropertyOp20
 70
     1
102
RTVSPropertyOp21
 70
     1
102
RTVSPropertyOp22
 70
     1
102
RTVSPropertyOp23
 70
     1
102
RTVSPropertyOp24
 70
     1
102
RTVSPropertyOp25
 70
     1
102
RTVSPropertyOp26
 70
     1
102
RTVSPropertyOp27
 70
     1
102
RTVSPropertyOp28
 70
     1
102
RTVSPropertyOp29
 70
     1
102
RTVSPropertyOp30
 70
     1
102
RTVSPropertyOp31
 70
     1
102
RTVSPropertyOp32
 70
     1
  0
XRECORD
  5
94
102
{ACAD_REACTORS
330
93
102
}
330
93
100
AcDbXrecord
280
     1
102
RTVSPropertyOp0
 70
     1
102
RTVSPropertyOp1
 70
     1
102
RTVSPropertyOp2
 70
     1
102
RTVSPropertyOp3
 70
     1
102
RTVSPropertyOp4
 70
     1
102
RTVSPropertyOp5
 70
     1
102
RTVSPropertyOp6
 70
     1
102
RTVSPropertyOp7
 70
     1
102
RTVSPropertyOp8
 70
     1
102
RTVSPropertyOp9
 70
     1
102
RTVSPropertyOp10
 70
     1
102
RTVSPropertyOp11
 70
     1
102
RTVSPropertyOp12
 70
     1
102
RTVSPropertyOp13
 70
     1
102
RTVSPropertyOp14
 70
     1
102
RTVSPropertyOp15
 70
     1
102
RTVSPropertyOp16
 70
     1
102
RTVSPropertyOp17
 70
     1
102
RTVSPropertyOp18
 70
     1
102
RTVSPropertyOp19
 70
     1
102
RTVSPropertyOp20
 70
     1
102
RTVSPropertyOp21
 70
     1
102
RTVSPropertyOp22
 70
     1
102
RTVSPropertyOp23
 70
     1
102
RTVSPropertyOp24
 70
     1
102
RTVSPropertyOp25
 70
     1
102
RTVSPropertyOp26
 70
     1
102
RTVSPropertyOp27
 70
     1
102
RTVSPropertyOp28
 70
     1
102
RTVSPropertyOp29
 70
     1
102
RTVSPropertyOp30
 70
     1
102
RTVSPropertyOp31
 70
     1
102
RTVSPropertyOp32
 70
     1
  0
XRECORD
  5
9C
102
{ACAD_REACTORS
330
9B
102
}
330
9B
100
AcDbXrecord
280
     1
102
RTVSPropertyOp0
 70
     1
102
RTVSPropertyOp1
 70
     1
102
RTVSPropertyOp2
 70
     1
102
RTVSPropertyOp3
 70
     1
102
RTVSPropertyOp4
 70
     1
102
RTVSPropertyOp5
 70
     1
102
RTVSPropertyOp6
 70
     1
102
RTVSPropertyOp7
 70
     1
102
RTVSPropertyOp8
 70
     1
102
RTVSPropertyOp9
 70
     1
102
RTVSPropertyOp10
 70
     1
102
RTVSPropertyOp11
 70
     1
102
RTVSPropertyOp12
 70
     1
102
RTVSPropertyOp13
 70
     1
102
RTVSPropertyOp14
 70
     1
102
RTVSPropertyOp15
 70
     1
102
RTVSPropertyOp16
 70
     1
102
RTVSPropertyOp17
 70
     1
102
RTVSPropertyOp18
 70
     1
102
RTVSPropertyOp19
 70
     1
102
RTVSPropertyOp20
 70
     1
102
RTVSPropertyOp21
 70
     1
102
RTVSPropertyOp22
 70
     1
102
RTVSPropertyOp23
 70
     1
102
RTVSPropertyOp24
 70
     1
102
RTVSPropertyOp25
 70
     1
102
RTVSPropertyOp26
 70
     1
102
RTVSPropertyOp27
 70
     1
102
RTVSPropertyOp28
 70
     1
102
RTVSPropertyOp29
 70
     1
102
RTVSPropertyOp30
 70
     1
102
RTVSPropertyOp31
 70
     1
102
RTVSPropertyOp32
 70
     1
  0
ENDSEC
  0
EOF
