  0
SECTION
  2
HEADER
  9
$ACADVER
  1
AC1021
  9
$ACADMAINTVER
 70
    25
  9
$DWGCODEPAGE
  3
ANSI_1252
  9
$INSBASE
 10
0.0
 20
0.0
 30
0.0
  9
$EXTMIN
 10
-187.5753
 20
-115.029
 30
0.0
  9
$EXTMAX
 10
5.0573
 20
131.8045
 30
0.0
  9
$LIMMIN
 10
0.0
 20
0.0
  9
$LIMMAX
 10
12.0
 20
9.0
  9
$ORTHOMODE
 70
     0
  9
$REGENMODE
 70
     1
  9
$FILLMODE
 70
     1
  9
$QTEXTMODE
 70
     0
  9
$MIRRTEXT
 70
     1
  9
$LTSCALE
 40
1.0
  9
$ATTMODE
 70
     1
  9
$TEXTSIZE
 40
0.2
  9
$TRACEWID
 40
0.05
  9
$TEXTSTYLE
  7
Standard
  9
$CLAYER
  8
0
  9
$CELTYPE
  6
ByLayer
  9
$CECOLOR
 62
   256
  9
$CELTSCALE
 40
1.0
  9
$DISPSILH
 70
     0
  9
$DIMSCALE
 40
1.0
  9
$DIMASZ
 40
0.18
  9
$DIMEXO
 40
0.0625
  9
$DIMDLI
 40
0.38
  9
$DIMRND
 40
0.0
  9
$DIMDLE
 40
0.0
  9
$DIMEXE
 40
0.18
  9
$DIMTP
 40
0.0
  9
$DIMTM
 40
0.0
  9
$DIMTXT
 40
0.18
  9
$DIMCEN
 40
0.09
  9
$DIMTSZ
 40
0.0
  9
$DIMTOL
 70
     0
  9
$DIMLIM
 70
     0
  9
$DIMTIH
 70
     1
  9
$DIMTOH
 70
     1
  9
$DIMSE1
 70
     0
  9
$DIMSE2
 70
     0
  9
$DIMTAD
 70
     0
  9
$DIMZIN
 70
     0
  9
$DIMBLK
  1

  9
$DIMASO
 70
     1
  9
$DIMSHO
 70
     1
  9
$DIMPOST
  1

  9
$DIMAPOST
  1

  9
$DIMALT
 70
     0
  9
$DIMALTD
 70
     2
  9
$DIMALTF
 40
25.4
  9
$DIMLFAC
 40
1.0
  9
$DIMTOFL
 70
     0
  9
$DIMTVP
 40
0.0
  9
$DIMTIX
 70
     0
  9
$DIMSOXD
 70
     0
  9
$DIMSAH
 70
     0
  9
$DIMBLK1
  1

  9
$DIMBLK2
  1

  9
$DIMSTYLE
  2
Standard
  9
$DIMCLRD
 70
     0
  9
$DIMCLRE
 70
     0
  9
$DIMCLRT
 70
     0
  9
$DIMTFAC
 40
1.0
  9
$DIMGAP
 40
0.09
  9
$DIMJUST
 70
     0
  9
$DIMSD1
 70
     0
  9
$DIMSD2
 70
     0
  9
$DIMTOLJ
 70
     1
  9
$DIMTZIN
 70
     0
  9
$DIMALTZ
 70
     0
  9
$DIMALTTZ
 70
     0
  9
$DIMUPT
 70
     0
  9
$DIMDEC
 70
     4
  9
$DIMTDEC
 70
     4
  9
$DIMALTU
 70
     2
  9
$DIMALTTD
 70
     2
  9
$DIMTXSTY
  7
Standard
  9
$DIMAUNIT
 70
     0
  9
$DIMADEC
 70
     0
  9
$DIMALTRND
 40
0.0
  9
$DIMAZIN
 70
     0
  9
$DIMDSEP
 70
    46
  9
$DIMATFIT
 70
     3
  9
$DIMFRAC
 70
     0
  9
$DIMLDRBLK
  1

  9
$DIMLUNIT
 70
     2
  9
$DIMLWD
 70
    -2
  9
$DIMLWE
 70
    -2
  9
$DIMTMOVE
 70
     0
  9
$DIMFXL
 40
1.0
  9
$DIMFXLON
 70
     0
  9
$DIMJOGANG
 40
0.7853981633974483
  9
$DIMTFILL
 70
     0
  9
$DIMTFILLCLR
 70
     0
  9
$DIMARCSYM
 70
     0
  9
$DIMLTYPE
  6

  9
$DIMLTEX1
  6

  9
$DIMLTEX2
  6

  9
$LUNITS
 70
     2
  9
$LUPREC
 70
     4
  9
$SKETCHINC
 40
0.1
  9
$FILLETRAD
 40
0.5
  9
$AUNITS
 70
     0
  9
$AUPREC
 70
     0
  9
$MENU
  1
.
  9
$ELEVATION
 40
0.0
  9
$PELEVATION
 40
0.0
  9
$THICKNESS
 40
0.0
  9
$LIMCHECK
 70
     0
  9
$CHAMFERA
 40
0.5
  9
$CHAMFERB
 40
0.5
  9
$CHAMFERC
 40
1.0
  9
$CHAMFERD
 40
0.0
  9
$SKPOLY
 70
     0
  9
$TDCREATE
 40
2458493.614877315
  9
$TDUCREATE
 40
2458493.614877315
  9
$TDUPDATE
 40
2458493.614877384
  9
$TDUUPDATE
 40
2458493.614877384
  9
$TDINDWG
 40
0.0000000116
  9
$TDUSRTIMER
 40
0.0000000116
  9
$USRTIMER
 70
     1
  9
$ANGBASE
 50
0.0
  9
$ANGDIR
 70
     0
  9
$PDMODE
 70
     0
  9
$PDSIZE
 40
0.0
  9
$PLINEWID
 40
0.0
  9
$SPLFRAME
 70
     0
  9
$SPLINETYPE
 70
     6
  9
$SPLINESEGS
 70
     8
  9
$HANDSEED
  5
9F
  9
$SURFTAB1
 70
     6
  9
$SURFTAB2
 70
     6
  9
$SURFTYPE
 70
     6
  9
$SURFU
 70
     6
  9
$SURFV
 70
     6
  9
$UCSBASE
  2

  9
$UCSNAME
  2

  9
$UCSORG
 10
0.0
 20
0.0
 30
0.0
  9
$UCSXDIR
 10
1.0
 20
0.0
 30
0.0
  9
$UCSYDIR
 10
0.0
 20
1.0
 30
0.0
  9
$UCSORTHOREF
  2

  9
$UCSORTHOVIEW
 70
     0
  9
$UCSORGTOP
 10
0.0
 20
0.0
 30
0.0
  9
$UCSORGBOTTOM
 10
0.0
 20
0.0
 30
0.0
  9
$UCSORGLEFT
 10
0.0
 20
0.0
 30
0.0
  9
$UCSORGRIGHT
 10
0.0
 20
0.0
 30
0.0
  9
$UCSORGFRONT
 10
0.0
 20
0.0
 30
0.0
  9
$UCSORGBACK
 10
0.0
 20
0.0
 30
0.0
  9
$PUCSBASE
  2

  9
$PUCSNAME
  2

  9
$PUCSORG
 10
0.0
 20
0.0
 30
0.0
  9
$PUCSXDIR
 10
1.0
 20
0.0
 30
0.0
  9
$PUCSYDIR
 10
0.0
 20
1.0
 30
0.0
  9
$PUCSORTHOREF
  2

  9
$PUCSORTHOVIEW
 70
     0
  9
$PUCSORGTOP
 10
0.0
 20
0.0
 30
0.0
  9
$PUCSORGBOTTOM
 10
0.0
 20
0.0
 30
0.0
  9
$PUCSORGLEFT
 10
0.0
 20
0.0
 30
0.0
  9
$PUCSORGRIGHT
 10
0.0
 20
0.0
 30
0.0
  9
$PUCSORGFRONT
 10
0.0
 20
0.0
 30
0.0
  9
$PUCSORGBACK
 10
0.0
 20
0.0
 30
0.0
  9
$USERI1
 70
     0
  9
$USERI2
 70
     0
  9
$USERI3
 70
     0
  9
$USERI4
 70
     0
  9
$USERI5
 70
     0
  9
$USERR1
 40
0.0
  9
$USERR2
 40
0.0
  9
$USERR3
 40
0.0
  9
$USERR4
 40
0.0
  9
$USERR5
 40
0.0
  9
$WORLDVIEW
 70
     1
  9
$SHADEDGE
 70
     3
  9
$SHADEDIF
 70
    70
  9
$TILEMODE
 70
     1
  9
$MAXACTVP
 70
    64
  9
$PINSBASE
 10
0.0
 20
0.0
 30
0.0
  9
$PLIMCHECK
 70
     0
  9
$PEXTMIN
 10
1.000000000000000E+20
 20
1.000000000000000E+20
 30
1.000000000000000E+20
  9
$PEXTMAX
 10
-1.000000000000000E+20
 20
-1.000000000000000E+20
 30
-1.000000000000000E+20
  9
$PLIMMIN
 10
0.0
 20
0.0
  9
$PLIMMAX
 10
12.0
 20
9.0
  9
$UNITMODE
 70
     0
  9
$VISRETAIN
 70
     1
  9
$PLINEGEN
 70
     0
  9
$PSLTSCALE
 70
     1
  9
$TREEDEPTH
 70
  3020
  9
$CMLSTYLE
  2
Standard
  9
$CMLJUST
 70
     0
  9
$CMLSCALE
 40
1.0
  9
$PROXYGRAPHICS
 70
     1
  9
$MEASUREMENT
 70
     0
  9
$CELWEIGHT
370
    -1
  9
$ENDCAPS
280
     0
  9
$JOINSTYLE
280
     0
  9
$LWDISPLAY
290
     0
  9
$INSUNITS
 70
     4
  9
$HYPERLINKBASE
  1

  9
$STYLESHEET
  1

  9
$XEDIT
290
     1
  9
$CEPSNTYPE
380
     0
  9
$PSTYLEMODE
290
     1
  9
$FINGERPRINTGUID
  2
{0BE4626A-38E1-4622-89EF-C98BA63CB56E}
  9
$VERSIONGUID
  2
{FAEB1C32-E019-11D5-929B-00C0DF256EC4}
  9
$EXTNAMES
290
     1
  9
$PSVPSCALE
 40
0.0
  9
$OLESTARTUP
290
     0
  9
$SORTENTS
280
   127
  9
$INDEXCTL
280
     0
  9
$HIDETEXT
280
     1
  9
$XCLIPFRAME
290
     0
  9
$HALOGAP
280
     0
  9
$OBSCOLOR
 70
   257
  9
$OBSLTYPE
280
     0
  9
$INTERSECTIONDISPLAY
280
     0
  9
$INTERSECTIONCOLOR
 70
   257
  9
$DIMASSOC
280
     2
  9
$PROJECTNAME
  1

  9
$CAMERADISPLAY
290
     0
  9
$LENSLENGTH
 40
50.0
  9
$CAMERAHEIGHT
 40
0.0
  9
$STEPSPERSEC
 40
2.0
  9
$STEPSIZE
 40
6.0
  9
$3DDWFPREC
 40
2.0
  9
$PSOLWIDTH
 40
0.25
  9
$PSOLHEIGHT
 40
4.0
  9
$LOFTANG1
 40
1.570796326794897
  9
$LOFTANG2
 40
1.570796326794897
  9
$LOFTMAG1
 40
0.0
  9
$LOFTMAG2
 40
0.0
  9
$LOFTPARAM
 70
     7
  9
$LOFTNORMALS
280
     1
  9
$LATITUDE
 40
37.795
  9
$LONGITUDE
 40
-122.394
  9
$NORTHDIRECTION
 40
0.0
  9
$TIMEZONE
 70
 -8000
  9
$LIGHTGLYPHDISPLAY
280
     1
  9
$TILEMODELIGHTSYNCH
280
     1
  9
$SOLIDHIST
280
     1
  9
$SHOWHIST
280
     1
  9
$DWFFRAME
280
     2
  9
$DGNFRAME
280
     2
  9
$REALWORLDSCALE
290
     1
  9
$INTERFERECOLOR
 62
   256
  9
$CSHADOW
280
     0
  9
$SHADOWPLANELOCATION
 40
0.0
  0
ENDSEC
  0
SECTION
  2
CLASSES
  0
CLASS
  1
ACDBDICTIONARYWDFLT
  2
AcDbDictionaryWithDefault
  3
ObjectDBX Classes
 90
        0
 91
        4
280
     0
281
     0
  0
CLASS
  1
VISUALSTYLE
  2
AcDbVisualStyle
  3
ObjectDBX Classes
 90
     4095
 91
        4
280
     0
281
     0
  0
CLASS
  1
MATERIAL
  2
AcDbMaterial
  3
ObjectDBX Classes
 90
     1153
 91
        4
280
     0
281
     0
  0
ENDSEC
  0
SECTION
  2
TABLES
  0
TABLE
  2
VPORT
  5
8
330
0
100
AcDbSymbolTable
 70
     1
  0
VPORT
  5
29
330
8
100
AcDbSymbolTableRecord
100
AcDbViewportTableRecord
  2
*Active
 70
     0
 10
0.0
 20
0.0
 11
1.0
 21
1.0
 12
10.42990654205607
 22
4.5
 13
0.0
 23
0.0
 14
0.5
 24
0.5
 15
0.5
 25
0.5
 16
0.0
 26
0.0
 36
1.0
 17
0.0
 27
0.0
 37
0.0
 40
9.0
 41
1.972972972850329
 42
50.0
 43
0.0
 44
0.0
 50
0.0
 51
0.0
 71
     0
 72
   100
 73
     1
 74
     3
 75
     0
 76
     0
 77
     0
 78
     0
281
     0
 65
     1
110
0.0
120
0.0
130
0.0
111
1.0
121
0.0
131
0.0
112
0.0
122
1.0
132
0.0
 79
     0
146
0.0
 60
     3
 61
     5
292
     1
282
     1
141
0.0
142
0.0
 63
   250
  0
ENDTAB
  0
TABLE
  2
LTYPE
  5
5
330
0
100
AcDbSymbolTable
 70
     1
  0
LTYPE
  5
14
330
5
100
AcDbSymbolTableRecord
100
AcDbLinetypeTableRecord
  2
ByBlock
 70
     0
  3

 72
    65
 73
     0
 40
0.0
  0
LTYPE
  5
15
330
5
100
AcDbSymbolTableRecord
100
AcDbLinetypeTableRecord
  2
ByLayer
 70
     0
  3

 72
    65
 73
     0
 40
0.0
  0
LTYPE
  5
16
330
5
100
AcDbSymbolTableRecord
100
AcDbLinetypeTableRecord
  2
Continuous
 70
     0
  3
Solid line
 72
    65
 73
     0
 40
0.0
  0
ENDTAB
  0
TABLE
  2
LAYER
  5
2
330
0
100
AcDbSymbolTable
 70
     3
  0
LAYER
  5
10
330
2
100
AcDbSymbolTableRecord
100
AcDbLayerTableRecord
  2
0
 70
     0
 62
     7
  6
Continuous
370
    -3
390
F
347
3E
  0
LAYER
  5
40
330
2
100
AcDbSymbolTableRecord
100
AcDbLayerTableRecord
  2
layer 1
 70
     0
 62
     7
  6
Continuous
370
    -3
390
F
347
3E
  0
LAYER
  5
7C
330
2
100
AcDbSymbolTableRecord
100
AcDbLayerTableRecord
  2
Master Guides
 70
     0
 62
     7
  6
Continuous
370
    -3
390
F
347
3E
  0
ENDTAB
  0
TABLE
  2
STYLE
  5
3
330
0
100
AcDbSymbolTable
 70
     1
  0
STYLE
  5
11
330
3
100
AcDbSymbolTableRecord
100
AcDbTextStyleTableRecord
  2
Standard
 70
     0
 40
0.0
 41
1.0
 50
0.0
 71
     0
 42
0.2
  3
txt
  4

  0
ENDTAB
  0
TABLE
  2
VIEW
  5
6
330
0
100
AcDbSymbolTable
 70
     0
  0
ENDTAB
  0
TABLE
  2
UCS
  5
7
330
0
100
AcDbSymbolTable
 70
     0
  0
ENDTAB
  0
TABLE
  2
APPID
  5
9
330
0
100
AcDbSymbolTable
 70
     2
  0
APPID
  5
12
330
9
100
AcDbSymbolTableRecord
100
AcDbRegAppTableRecord
  2
ACAD
 70
     0
  0
APPID
  5
3F
330
9
100
AcDbSymbolTableRecord
100
AcDbRegAppTableRecord
  2
ODA
 70
     0
  0
ENDTAB
  0
TABLE
  2
DIMSTYLE
  5
A
330
0
100
AcDbSymbolTable
 70
     1
100
AcDbDimStyleTable
  0
DIMSTYLE
105
27
330
A
100
AcDbSymbolTableRecord
100
AcDbDimStyleTableRecord
  2
Standard
 70
     0
178
     0
340
11
  0
ENDTAB
  0
TABLE
  2
BLOCK_RECORD
  5
1
330
0
100
AcDbSymbolTable
 70
     1
  0
BLOCK_RECORD
  5
1F
330
1
100
AcDbSymbolTableRecord
100
AcDbBlockTableRecord
  2
*Model_Space
340
22
 70
     0
280
     1
281
     0
  0
BLOCK_RECORD
  5
1B
330
1
100
AcDbSymbolTableRecord
100
AcDbBlockTableRecord
  2
*Paper_Space
340
1E
 70
     0
280
     1
281
     0
  0
BLOCK_RECORD
  5
23
330
1
100
AcDbSymbolTableRecord
100
AcDbBlockTableRecord
  2
*Paper_Space0
340
26
 70
     0
280
     1
281
     0
  0
ENDTAB
  0
ENDSEC
  0
SECTION
  2
BLOCKS
  0
BLOCK
  5
20
330
1F
100
AcDbEntity
  8
0
100
AcDbBlockBegin
  2
*Model_Space
 70
     0
 10
0.0
 20
0.0
 30
0.0
  3
*Model_Space
  1

  0
ENDBLK
  5
21
330
1F
100
AcDbEntity
  8
0
100
AcDbBlockEnd
  0
BLOCK
  5
1C
330
1B
100
AcDbEntity
 67
     1
  8
0
100
AcDbBlockBegin
  2
*Paper_Space
 70
     0
 10
0.0
 20
0.0
 30
0.0
  3
*Paper_Space
  1

  0
ENDBLK
  5
1D
330
1B
100
AcDbEntity
 67
     1
  8
0
100
AcDbBlockEnd
  0
BLOCK
  5
24
330
23
100
AcDbEntity
  8
0
100
AcDbBlockBegin
  2
*Paper_Space0
 70
     0
 10
0.0
 20
0.0
 30
0.0
  3
*Paper_Space0
  1

  0
ENDBLK
  5
25
330
23
100
AcDbEntity
  8
0
100
AcDbBlockEnd
  0
ENDSEC
  0
SECTION
  2
ENTITIES
  0
LWPOLYLINE
  5
41
330
1F
100
AcDbEntity
  8
layer 1
100
AcDbPolyline
 90
        5
 70
     1
 43
0.0
 10
-187.5753
 20
-115.029
 10
-95.3233
 20
-115.029
 10
-95.3233
 20
131.8044
 10
-187.5753
 20
131.8044
 10
-187.5753
 20
-115.029
  0
SPLINE
  5
42
330
1F
100
AcDbEntity
  8
layer 1
 62
     7
100
AcDbSpline
210
0.0
220
0.0
230
1.0
 70
    11
 71
     3
 72
    48
 73
    44
 74
     0
 42
0.0000000001
 43
0.0000000001
 12
1.0
 22
0.0
 32
0.0
 13
1.0
 23
0.0
 33
0.0
 40
0.0
 40
0.0
 40
0.0
 40
0.0
 40
0.0833333333333333
 40
0.0833333333333333
 40
0.0833333333333333
 40
0.0833333333333333
 40
0.1666666666666667
 40
0.1666666666666667
 40
0.1666666666666667
 40
0.1666666666666667
 40
0.25
 40
0.25
 40
0.25
 40
0.25
 40
0.3333333333333333
 40
0.3333333333333333
 40
0.3333333333333333
 40
0.3333333333333333
 40
0.4166666666666667
 40
0.4166666666666667
 40
0.4166666666666667
 40
0.4166666666666667
 40
0.5
 40
0.5
 40
0.5
 40
0.5
 40
0.5833333333333334
 40
0.5833333333333334
 40
0.5833333333333334
 40
0.5833333333333334
 40
0.6666666666666666
 40
0.6666666666666666
 40
0.6666666666666666
 40
0.6666666666666666
 40
0.75
 40
0.75
 40
0.75
 40
0.75
 40
0.8333333333333334
 40
0.8333333333333334
 40
0.8333333333333334
 40
0.8333333333333334
 40
1.0
 40
1.0
 40
1.0
 40
1.0
 10
-177.9834
 20
-107.9087
 30
0.0
 10
-173.01
 20
-105.2493
 30
0.0
 10
-168.3441
 20
-104.8984
 30
0.0
 10
-163.687
 20
-106.8334
 30
0.0
 10
-163.687
 20
-106.8334
 30
0.0
 10
-160.8796
 20
-108.0
 30
0.0
 10
-159.4845
 20
-108.1207
 30
0.0
 10
-158.1577
 20
-107.3116
 30
0.0
 10
-158.1577
 20
-107.3116
 30
0.0
 10
-156.9253
 20
-106.5602
 30
0.0
 10
-156.4665
 20
-105.5599
 30
0.0
 10
-156.0887
 20
-102.7996
 30
0.0
 10
-156.0887
 20
-102.7996
 30
0.0
 10
-154.7901
 20
-96.7139
 30
0.0
 10
-152.8066
 20
-93.8335
 30
0.0
 10
-148.3238
 20
-90.8747
 30
0.0
 10
-148.3238
 20
-90.8747
 30
0.0
 10
-146.3972
 20
-89.6096
 30
0.0
 10
-144.2402
 20
-88.4308
 30
0.0
 10
-143.7745
 20
-88.7742
 30
0.0
 10
-143.7745
 20
-88.7742
 30
0.0
 10
-143.6024
 20
-90.4807
 30
0.0
 10
-143.5311
 20
-92.3364
 30
0.0
 10
-143.6381
 20
-94.1271
 30
0.0
 10
-143.6381
 20
-94.1271
 30
0.0
 10
-143.9351
 20
-99.7948
 30
0.0
 10
-146.8067
 20
-103.7384
 30
0.0
 10
-150.19
 20
-106.4203
 30
0.0
 10
-150.19
 20
-106.4203
 30
0.0
 10
-152.2947
 20
-108.0741
 30
0.0
 10
-152.9535
 20
-109.0439
 30
0.0
 10
-152.9519
 20
-110.4859
 30
0.0
 10
-152.9519
 20
-110.4859
 30
0.0
 10
-152.9519
 20
-110.4859
 30
0.0
 10
-181.8655
 20
-110.4475
 30
0.0
 10
-181.8655
 20
-110.4475
 30
0.0
 10
-181.8655
 20
-110.4475
 30
0.0
 10
-180.6371
 20
-109.4155
 30
0.0
 10
-179.209
 20
-108.5681
 30
0.0
 10
-177.9835
 20
-107.9086
 30
0.0
 10
-177.9835
 20
-107.9086
 30
0.0
 10
-177.9835
 20
-107.9086
 30
0.0
 10
-177.9834
 20
-107.9087
 30
0.0
 10
-177.9834
 20
-107.9087
 30
0.0
  0
SPLINE
  5
43
330
1F
100
AcDbEntity
  8
layer 1
 62
     7
100
AcDbSpline
210
0.0
220
0.0
230
1.0
 70
    11
 71
     3
 72
    48
 73
    44
 74
     0
 42
0.0000000001
 43
0.0000000001
 12
1.0
 22
0.0
 32
0.0
 13
1.0
 23
0.0
 33
0.0
 40
0.0
 40
0.0
 40
0.0
 40
0.0
 40
0.0833333333333333
 40
0.0833333333333333
 40
0.0833333333333333
 40
0.0833333333333333
 40
0.1666666666666667
 40
0.1666666666666667
 40
0.1666666666666667
 40
0.1666666666666667
 40
0.25
 40
0.25
 40
0.25
 40
0.25
 40
0.3333333333333333
 40
0.3333333333333333
 40
0.3333333333333333
 40
0.3333333333333333
 40
0.4166666666666667
 40
0.4166666666666667
 40
0.4166666666666667
 40
0.4166666666666667
 40
0.5
 40
0.5
 40
0.5
 40
0.5
 40
0.5833333333333334
 40
0.5833333333333334
 40
0.5833333333333334
 40
0.5833333333333334
 40
0.6666666666666666
 40
0.6666666666666666
 40
0.6666666666666666
 40
0.6666666666666666
 40
0.75
 40
0.75
 40
0.75
 40
0.75
 40
0.8333333333333334
 40
0.8333333333333334
 40
0.8333333333333334
 40
0.8333333333333334
 40
1.0
 40
1.0
 40
1.0
 40
1.0
 10
-104.7212
 20
-107.9087
 30
0.0
 10
-109.6946
 20
-105.2493
 30
0.0
 10
-114.3604
 20
-104.8984
 30
0.0
 10
-119.0175
 20
-106.8334
 30
0.0
 10
-119.0175
 20
-106.8334
 30
0.0
 10
-121.825
 20
-108.0
 30
0.0
 10
-123.2201
 20
-108.1207
 30
0.0
 10
-124.5469
 20
-107.3116
 30
0.0
 10
-124.5469
 20
-107.3116
 30
0.0
 10
-125.7793
 20
-106.5602
 30
0.0
 10
-126.238
 20
-105.5599
 30
0.0
 10
-126.6159
 20
-102.7996
 30
0.0
 10
-126.6159
 20
-102.7996
 30
0.0
 10
-127.9144
 20
-96.7139
 30
0.0
 10
-129.898
 20
-93.8335
 30
0.0
 10
-134.3808
 20
-90.8747
 30
0.0
 10
-134.3808
 20
-90.8747
 30
0.0
 10
-136.3074
 20
-89.6096
 30
0.0
 10
-138.4644
 20
-88.4308
 30
0.0
 10
-138.9301
 20
-88.7742
 30
0.0
 10
-138.9301
 20
-88.7742
 30
0.0
 10
-139.1022
 20
-90.4807
 30
0.0
 10
-139.1734
 20
-92.3364
 30
0.0
 10
-139.0665
 20
-94.1271
 30
0.0
 10
-139.0665
 20
-94.1271
 30
0.0
 10
-138.7694
 20
-99.7948
 30
0.0
 10
-135.8979
 20
-103.7384
 30
0.0
 10
-132.5145
 20
-106.4203
 30
0.0
 10
-132.5145
 20
-106.4203
 30
0.0
 10
-130.4098
 20
-108.0741
 30
0.0
 10
-129.751
 20
-109.0439
 30
0.0
 10
-129.7527
 20
-110.4859
 30
0.0
 10
-129.7527
 20
-110.4859
 30
0.0
 10
-129.7527
 20
-110.4859
 30
0.0
 10
-100.839
 20
-110.4475
 30
0.0
 10
-100.839
 20
-110.4475
 30
0.0
 10
-100.839
 20
-110.4475
 30
0.0
 10
-102.0675
 20
-109.4155
 30
0.0
 10
-103.4956
 20
-108.5681
 30
0.0
 10
-104.7211
 20
-107.9086
 30
0.0
 10
-104.7211
 20
-107.9086
 30
0.0
 10
-104.7211
 20
-107.9086
 30
0.0
 10
-104.7212
 20
-107.9087
 30
0.0
 10
-104.7212
 20
-107.9087
 30
0.0
  0
SPLINE
  5
44
330
1F
100
AcDbEntity
  8
layer 1
 62
     7
100
AcDbSpline
210
0.0
220
0.0
230
1.0
 70
    11
 71
     3
 72
    80
 73
    76
 74
     0
 42
0.0000000001
 43
0.0000000001
 12
1.0
 22
0.0
 32
0.0
 13
1.0
 23
0.0
 33
0.0
 40
0.0
 40
0.0
 40
0.0
 40
0.0
 40
0.05
 40
0.05
 40
0.05
 40
0.05
 40
0.1
 40
0.1
 40
0.1
 40
0.1
 40
0.15
 40
0.15
 40
0.15
 40
0.15
 40
0.2
 40
0.2
 40
0.2
 40
0.2
 40
0.25
 40
0.25
 40
0.25
 40
0.25
 40
0.3
 40
0.3
 40
0.3
 40
0.3
 40
0.35
 40
0.35
 40
0.35
 40
0.35
 40
0.4
 40
0.4
 40
0.4
 40
0.4
 40
0.45
 40
0.45
 40
0.45
 40
0.45
 40
0.5
 40
0.5
 40
0.5
 40
0.5
 40
0.55
 40
0.55
 40
0.55
 40
0.55
 40
0.6
 40
0.6
 40
0.6
 40
0.6
 40
0.65
 40
0.65
 40
0.65
 40
0.65
 40
0.7
 40
0.7
 40
0.7
 40
0.7
 40
0.75
 40
0.75
 40
0.75
 40
0.75
 40
0.8
 40
0.8
 40
0.8
 40
0.8
 40
0.85
 40
0.85
 40
0.85
 40
0.85
 40
0.9
 40
0.9
 40
0.9
 40
0.9
 40
1.0
 40
1.0
 40
1.0
 40
1.0
 10
-101.4846
 20
-105.2054
 30
0.0
 10
-107.5569
 20
-101.6635
 30
0.0
 10
-109.5774
 20
-97.8825
 30
0.0
 10
-110.3241
 20
-92.7951
 30
0.0
 10
-110.3241
 20
-92.7951
 30
0.0
 10
-110.6781
 20
-90.735
 30
0.0
 10
-110.9281
 20
-88.691
 30
0.0
 10
-112.6117
 20
-87.6904
 30
0.0
 10
-112.6117
 20
-87.6904
 30
0.0
 10
-114.206
 20
-86.0152
 30
0.0
 10
-118.6327
 20
-88.4968
 30
0.0
 10
-119.7503
 20
-88.9036
 30
0.0
 10
-119.7503
 20
-88.9036
 30
0.0
 10
-124.4935
 20
-90.0677
 30
0.0
 10
-128.0138
 20
-89.3748
 30
0.0
 10
-131.9278
 20
-87.3554
 30
0.0
 10
-131.9278
 20
-87.3554
 30
0.0
 10
-133.4124
 20
-86.5841
 30
0.0
 10
-134.8131
 20
-85.6823
 30
0.0
 10
-136.1054
 20
-84.5929
 30
0.0
 10
-136.1054
 20
-84.5929
 30
0.0
 10
-134.919
 20
-83.563
 30
0.0
 10
-133.491
 20
-82.7157
 30
0.0
 10
-132.2655
 20
-82.0561
 30
0.0
 10
-132.2655
 20
-82.0561
 30
0.0
 10
-127.2921
 20
-79.3967
 30
0.0
 10
-122.6262
 20
-79.0458
 30
0.0
 10
-117.9691
 20
-80.9809
 30
0.0
 10
-117.9691
 20
-80.9809
 30
0.0
 10
-115.1617
 20
-82.1474
 30
0.0
 10
-113.7666
 20
-82.2681
 30
0.0
 10
-112.4398
 20
-81.4591
 30
0.0
 10
-112.4398
 20
-81.4591
 30
0.0
 10
-111.2074
 20
-80.7076
 30
0.0
 10
-110.7486
 20
-79.7074
 30
0.0
 10
-110.3708
 20
-76.947
 30
0.0
 10
-110.3708
 20
-76.947
 30
0.0
 10
-109.0722
 20
-70.8613
 30
0.0
 10
-107.0887
 20
-67.981
 30
0.0
 10
-102.6059
 20
-65.0221
 30
0.0
 10
-102.6059
 20
-65.0221
 30
0.0
 10
-100.6793
 20
-63.757
 30
0.0
 10
-98.5223
 20
-62.5782
 30
0.0
 10
-98.0566
 20
-62.9216
 30
0.0
 10
-98.0566
 20
-62.9216
 30
0.0
 10
-97.8845
 20
-64.6281
 30
0.0
 10
-97.8132
 20
-66.4839
 30
0.0
 10
-97.9202
 20
-68.2745
 30
0.0
 10
-97.9202
 20
-68.2745
 30
0.0
 10
-98.2172
 20
-73.9423
 30
0.0
 10
-101.0888
 20
-77.8858
 30
0.0
 10
-104.4721
 20
-80.5677
 30
0.0
 10
-104.4721
 20
-80.5677
 30
0.0
 10
-106.5768
 20
-82.2216
 30
0.0
 10
-107.2356
 20
-83.1914
 30
0.0
 10
-107.234
 20
-84.6333
 30
0.0
 10
-107.234
 20
-84.6333
 30
0.0
 10
-107.2326
 20
-85.9926
 30
0.0
 10
-106.4062
 20
-87.15
 30
0.0
 10
-104.155
 20
-88.9462
 30
0.0
 10
-104.155
 20
-88.9462
 30
0.0
 10
-99.4051
 20
-92.736
 30
0.0
 10
-97.7623
 20
-96.3895
 30
0.0
 10
-97.9109
 20
-102.8318
 30
0.0
 10
-97.9109
 20
-102.8318
 30
0.0
 10
-97.9567
 20
-104.8135
 30
0.0
 10
-98.1122
 20
-106.3284
 30
0.0
 10
-98.2752
 20
-106.3807
 30
0.0
 10
-98.2752
 20
-106.3807
 30
0.0
 10
-98.4316
 20
-106.4311
 30
0.0
 10
-100.6712
 20
-105.588
 30
0.0
 10
-101.4846
 20
-105.2052
 30
0.0
 10
-101.4846
 20
-105.2052
 30
0.0
 10
-101.4846
 20
-105.2052
 30
0.0
 10
-101.4846
 20
-105.2054
 30
0.0
 10
-101.4846
 20
-105.2054
 30
0.0
  0
SPLINE
  5
45
330
1F
100
AcDbEntity
  8
layer 1
 62
     7
100
AcDbSpline
210
0.0
220
0.0
230
1.0
 70
    11
 71
     3
 72
    80
 73
    76
 74
     0
 42
0.0000000001
 43
0.0000000001
 12
1.0
 22
0.0
 32
0.0
 13
1.0
 23
0.0
 33
0.0
 40
0.0
 40
0.0
 40
0.0
 40
0.0
 40
0.05
 40
0.05
 40
0.05
 40
0.05
 40
0.1
 40
0.1
 40
0.1
 40
0.1
 40
0.15
 40
0.15
 40
0.15
 40
0.15
 40
0.2
 40
0.2
 40
0.2
 40
0.2
 40
0.25
 40
0.25
 40
0.25
 40
0.25
 40
0.3
 40
0.3
 40
0.3
 40
0.3
 40
0.35
 40
0.35
 40
0.35
 40
0.35
 40
0.4
 40
0.4
 40
0.4
 40
0.4
 40
0.45
 40
0.45
 40
0.45
 40
0.45
 40
0.5
 40
0.5
 40
0.5
 40
0.5
 40
0.55
 40
0.55
 40
0.55
 40
0.55
 40
0.6
 40
0.6
 40
0.6
 40
0.6
 40
0.65
 40
0.65
 40
0.65
 40
0.65
 40
0.7
 40
0.7
 40
0.7
 40
0.7
 40
0.75
 40
0.75
 40
0.75
 40
0.75
 40
0.8
 40
0.8
 40
0.8
 40
0.8
 40
0.85
 40
0.85
 40
0.85
 40
0.85
 40
0.9
 40
0.9
 40
0.9
 40
0.9
 40
1.0
 40
1.0
 40
1.0
 40
1.0
 10
-181.2875
 20
-104.9333
 30
0.0
 10
-175.2151
 20
-101.3914
 30
0.0
 10
-173.1947
 20
-97.6105
 30
0.0
 10
-172.448
 20
-92.523
 30
0.0
 10
-172.448
 20
-92.523
 30
0.0
 10
-172.094
 20
-90.4629
 30
0.0
 10
-171.844
 20
-88.4189
 30
0.0
 10
-170.1604
 20
-87.4183
 30
0.0
 10
-170.1604
 20
-87.4183
 30
0.0
 10
-168.5661
 20
-85.7431
 30
0.0
 10
-164.1394
 20
-88.2247
 30
0.0
 10
-163.0218
 20
-88.6315
 30
0.0
 10
-163.0218
 20
-88.6315
 30
0.0
 10
-158.2786
 20
-89.7956
 30
0.0
 10
-154.7583
 20
-89.1027
 30
0.0
 10
-150.8443
 20
-87.0833
 30
0.0
 10
-150.8443
 20
-87.0833
 30
0.0
 10
-149.3597
 20
-86.312
 30
0.0
 10
-147.959
 20
-85.4103
 30
0.0
 10
-146.6667
 20
-84.3208
 30
0.0
 10
-146.6667
 20
-84.3208
 30
0.0
 10
-147.8531
 20
-83.2909
 30
0.0
 10
-149.2811
 20
-82.4436
 30
0.0
 10
-150.5066
 20
-81.784
 30
0.0
 10
-150.5066
 20
-81.784
 30
0.0
 10
-155.48
 20
-79.1246
 30
0.0
 10
-160.1459
 20
-78.7737
 30
0.0
 10
-164.8029
 20
-80.7088
 30
0.0
 10
-164.8029
 20
-80.7088
 30
0.0
 10
-167.6104
 20
-81.8753
 30
0.0
 10
-169.0055
 20
-81.996
 30
0.0
 10
-170.3323
 20
-81.187
 30
0.0
 10
-170.3323
 20
-81.187
 30
0.0
 10
-171.5647
 20
-80.4355
 30
0.0
 10
-172.0234
 20
-79.4353
 30
0.0
 10
-172.4013
 20
-76.6749
 30
0.0
 10
-172.4013
 20
-76.6749
 30
0.0
 10
-173.6999
 20
-70.5892
 30
0.0
 10
-175.6834
 20
-67.7089
 30
0.0
 10
-180.1662
 20
-64.75
 30
0.0
 10
-180.1662
 20
-64.75
 30
0.0
 10
-182.0928
 20
-63.4849
 30
0.0
 10
-184.2498
 20
-62.3061
 30
0.0
 10
-184.7155
 20
-62.6495
 30
0.0
 10
-184.7155
 20
-62.6495
 30
0.0
 10
-184.8876
 20
-64.356
 30
0.0
 10
-184.9589
 20
-66.2118
 30
0.0
 10
-184.8519
 20
-68.0025
 30
0.0
 10
-184.8519
 20
-68.0025
 30
0.0
 10
-184.5549
 20
-73.6702
 30
0.0
 10
-181.6833
 20
-77.6137
 30
0.0
 10
-178.3
 20
-80.2956
 30
0.0
 10
-178.3
 20
-80.2956
 30
0.0
 10
-176.1952
 20
-81.9495
 30
0.0
 10
-175.5365
 20
-82.9193
 30
0.0
 10
-175.5381
 20
-84.3612
 30
0.0
 10
-175.5381
 20
-84.3612
 30
0.0
 10
-175.5395
 20
-85.7205
 30
0.0
 10
-176.3659
 20
-86.8779
 30
0.0
 10
-178.6171
 20
-88.6741
 30
0.0
 10
-178.6171
 20
-88.6741
 30
0.0
 10
-183.3669
 20
-92.4639
 30
0.0
 10
-185.0098
 20
-96.1174
 30
0.0
 10
-184.8611
 20
-102.5597
 30
0.0
 10
-184.8611
 20
-102.5597
 30
0.0
 10
-184.8153
 20
-104.5415
 30
0.0
 10
-184.6599
 20
-106.0563
 30
0.0
 10
-184.4969
 20
-106.1086
 30
0.0
 10
-184.4969
 20
-106.1086
 30
0.0
 10
-184.3405
 20
-106.159
 30
0.0
 10
-182.1009
 20
-105.3159
 30
0.0
 10
-181.2875
 20
-104.9331
 30
0.0
 10
-181.2875
 20
-104.9331
 30
0.0
 10
-181.2875
 20
-104.9331
 30
0.0
 10
-181.2875
 20
-104.9333
 30
0.0
 10
-181.2875
 20
-104.9333
 30
0.0
  0
SPLINE
  5
46
330
1F
100
AcDbEntity
  8
layer 1
 62
     7
100
AcDbSpline
210
0.0
220
0.0
230
1.0
 70
    11
 71
     3
 72
    80
 73
    76
 74
     0
 42
0.0000000001
 43
0.0000000001
 12
1.0
 22
0.0
 32
0.0
 13
1.0
 23
0.0
 33
0.0
 40
0.0
 40
0.0
 40
0.0
 40
0.0
 40
0.05
 40
0.05
 40
0.05
 40
0.05
 40
0.1
 40
0.1
 40
0.1
 40
0.1
 40
0.15
 40
0.15
 40
0.15
 40
0.15
 40
0.2
 40
0.2
 40
0.2
 40
0.2
 40
0.25
 40
0.25
 40
0.25
 40
0.25
 40
0.3
 40
0.3
 40
0.3
 40
0.3
 40
0.35
 40
0.35
 40
0.35
 40
0.35
 40
0.4
 40
0.4
 40
0.4
 40
0.4
 40
0.45
 40
0.45
 40
0.45
 40
0.45
 40
0.5
 40
0.5
 40
0.5
 40
0.5
 40
0.55
 40
0.55
 40
0.55
 40
0.55
 40
0.6
 40
0.6
 40
0.6
 40
0.6
 40
0.65
 40
0.65
 40
0.65
 40
0.65
 40
0.7
 40
0.7
 40
0.7
 40
0.7
 40
0.75
 40
0.75
 40
0.75
 40
0.75
 40
0.8
 40
0.8
 40
0.8
 40
0.8
 40
0.85
 40
0.85
 40
0.85
 40
0.85
 40
0.9
 40
0.9
 40
0.9
 40
0.9
 40
1.0
 40
1.0
 40
1.0
 40
1.0
 10
-147.2024
 20
-78.5367
 30
0.0
 10
-153.2747
 20
-74.9947
 30
0.0
 10
-155.2952
 20
-71.2138
 30
0.0
 10
-156.0419
 20
-66.1264
 30
0.0
 10
-156.0419
 20
-66.1264
 30
0.0
 10
-156.3959
 20
-64.0663
 30
0.0
 10
-156.6459
 20
-62.0222
 30
0.0
 10
-158.3295
 20
-61.0217
 30
0.0
 10
-158.3295
 20
-61.0217
 30
0.0
 10
-159.9238
 20
-59.3464
 30
0.0
 10
-164.3505
 20
-61.8281
 30
0.0
 10
-165.4681
 20
-62.2349
 30
0.0
 10
-165.4681
 20
-62.2349
 30
0.0
 10
-170.2113
 20
-63.3989
 30
0.0
 10
-173.7316
 20
-62.7061
 30
0.0
 10
-177.6456
 20
-60.6867
 30
0.0
 10
-177.6456
 20
-60.6867
 30
0.0
 10
-179.1302
 20
-59.9154
 30
0.0
 10
-180.5309
 20
-59.0136
 30
0.0
 10
-181.8232
 20
-57.9242
 30
0.0
 10
-181.8232
 20
-57.9242
 30
0.0
 10
-180.6368
 20
-56.8943
 30
0.0
 10
-179.2088
 20
-56.0469
 30
0.0
 10
-177.9833
 20
-55.3874
 30
0.0
 10
-177.9833
 20
-55.3874
 30
0.0
 10
-173.0099
 20
-52.728
 30
0.0
 10
-168.344
 20
-52.3771
 30
0.0
 10
-163.6869
 20
-54.3121
 30
0.0
 10
-163.6869
 20
-54.3121
 30
0.0
 10
-160.8795
 20
-55.4787
 30
0.0
 10
-159.4844
 20
-55.5994
 30
0.0
 10
-158.1576
 20
-54.7903
 30
0.0
 10
-158.1576
 20
-54.7903
 30
0.0
 10
-156.9252
 20
-54.0389
 30
0.0
 10
-156.4664
 20
-53.0386
 30
0.0
 10
-156.0886
 20
-50.2783
 30
0.0
 10
-156.0886
 20
-50.2783
 30
0.0
 10
-154.79
 20
-44.1926
 30
0.0
 10
-152.8065
 20
-41.3122
 30
0.0
 10
-148.3237
 20
-38.3534
 30
0.0
 10
-148.3237
 20
-38.3534
 30
0.0
 10
-146.3971
 20
-37.0883
 30
0.0
 10
-144.2401
 20
-35.9095
 30
0.0
 10
-143.7744
 20
-36.2529
 30
0.0
 10
-143.7744
 20
-36.2529
 30
0.0
 10
-143.6023
 20
-37.9594
 30
0.0
 10
-143.531
 20
-39.8151
 30
0.0
 10
-143.638
 20
-41.6058
 30
0.0
 10
-143.638
 20
-41.6058
 30
0.0
 10
-143.935
 20
-47.2735
 30
0.0
 10
-146.8066
 20
-51.2171
 30
0.0
 10
-150.1899
 20
-53.899
 30
0.0
 10
-150.1899
 20
-53.899
 30
0.0
 10
-152.2946
 20
-55.5528
 30
0.0
 10
-152.9534
 20
-56.5226
 30
0.0
 10
-152.9518
 20
-57.9646
 30
0.0
 10
-152.9518
 20
-57.9646
 30
0.0
 10
-152.9504
 20
-59.3239
 30
0.0
 10
-152.124
 20
-60.4813
 30
0.0
 10
-149.8728
 20
-62.2774
 30
0.0
 10
-149.8728
 20
-62.2774
 30
0.0
 10
-145.1229
 20
-66.0673
 30
0.0
 10
-143.4801
 20
-69.7208
 30
0.0
 10
-143.6287
 20
-76.1631
 30
0.0
 10
-143.6287
 20
-76.1631
 30
0.0
 10
-143.6745
 20
-78.1448
 30
0.0
 10
-143.83
 20
-79.6597
 30
0.0
 10
-143.993
 20
-79.712
 30
0.0
 10
-143.993
 20
-79.712
 30
0.0
 10
-144.1494
 20
-79.7623
 30
0.0
 10
-146.389
 20
-78.9193
 30
0.0
 10
-147.2024
 20
-78.5364
 30
0.0
 10
-147.2024
 20
-78.5364
 30
0.0
 10
-147.2024
 20
-78.5364
 30
0.0
 10
-147.2024
 20
-78.5367
 30
0.0
 10
-147.2024
 20
-78.5367
 30
0.0
  0
SPLINE
  5
47
330
1F
100
AcDbEntity
  8
layer 1
 62
     7
100
AcDbSpline
210
0.0
220
0.0
230
1.0
 70
    11
 71
     3
 72
    80
 73
    76
 74
     0
 42
0.0000000001
 43
0.0000000001
 12
1.0
 22
0.0
 32
0.0
 13
1.0
 23
0.0
 33
0.0
 40
0.0
 40
0.0
 40
0.0
 40
0.0
 40
0.05
 40
0.05
 40
0.05
 40
0.05
 40
0.1
 40
0.1
 40
0.1
 40
0.1
 40
0.15
 40
0.15
 40
0.15
 40
0.15
 40
0.2
 40
0.2
 40
0.2
 40
0.2
 40
0.25
 40
0.25
 40
0.25
 40
0.25
 40
0.3
 40
0.3
 40
0.3
 40
0.3
 40
0.35
 40
0.35
 40
0.35
 40
0.35
 40
0.4
 40
0.4
 40
0.4
 40
0.4
 40
0.45
 40
0.45
 40
0.45
 40
0.45
 40
0.5
 40
0.5
 40
0.5
 40
0.5
 40
0.55
 40
0.55
 40
0.55
 40
0.55
 40
0.6
 40
0.6
 40
0.6
 40
0.6
 40
0.65
 40
0.65
 40
0.65
 40
0.65
 40
0.7
 40
0.7
 40
0.7
 40
0.7
 40
0.75
 40
0.75
 40
0.75
 40
0.75
 40
0.8
 40
0.8
 40
0.8
 40
0.8
 40
0.85
 40
0.85
 40
0.85
 40
0.85
 40
0.9
 40
0.9
 40
0.9
 40
0.9
 40
1.0
 40
1.0
 40
1.0
 40
1.0
 10
-135.2975
 20
-78.5367
 30
0.0
 10
-129.2251
 20
-74.9947
 30
0.0
 10
-127.2047
 20
-71.2138
 30
0.0
 10
-126.458
 20
-66.1264
 30
0.0
 10
-126.458
 20
-66.1264
 30
0.0
 10
-126.104
 20
-64.0663
 30
0.0
 10
-125.854
 20
-62.0222
 30
0.0
 10
-124.1704
 20
-61.0217
 30
0.0
 10
-124.1704
 20
-61.0217
 30
0.0
 10
-122.5761
 20
-59.3464
 30
0.0
 10
-118.1494
 20
-61.8281
 30
0.0
 10
-117.0318
 20
-62.2349
 30
0.0
 10
-117.0318
 20
-62.2349
 30
0.0
 10
-112.2886
 20
-63.3989
 30
0.0
 10
-108.7683
 20
-62.7061
 30
0.0
 10
-104.8543
 20
-60.6867
 30
0.0
 10
-104.8543
 20
-60.6867
 30
0.0
 10
-103.3697
 20
-59.9154
 30
0.0
 10
-101.969
 20
-59.0136
 30
0.0
 10
-100.6767
 20
-57.9242
 30
0.0
 10
-100.6767
 20
-57.9242
 30
0.0
 10
-101.8631
 20
-56.8943
 30
0.0
 10
-103.2911
 20
-56.0469
 30
0.0
 10
-104.5166
 20
-55.3874
 30
0.0
 10
-104.5166
 20
-55.3874
 30
0.0
 10
-109.49
 20
-52.728
 30
0.0
 10
-114.1559
 20
-52.3771
 30
0.0
 10
-118.8129
 20
-54.3121
 30
0.0
 10
-118.8129
 20
-54.3121
 30
0.0
 10
-121.6204
 20
-55.4787
 30
0.0
 10
-123.0155
 20
-55.5994
 30
0.0
 10
-124.3423
 20
-54.7903
 30
0.0
 10
-124.3423
 20
-54.7903
 30
0.0
 10
-125.5747
 20
-54.0389
 30
0.0
 10
-126.0334
 20
-53.0386
 30
0.0
 10
-126.4113
 20
-50.2783
 30
0.0
 10
-126.4113
 20
-50.2783
 30
0.0
 10
-127.7099
 20
-44.1926
 30
0.0
 10
-129.6934
 20
-41.3122
 30
0.0
 10
-134.1762
 20
-38.3534
 30
0.0
 10
-134.1762
 20
-38.3534
 30
0.0
 10
-136.1028
 20
-37.0883
 30
0.0
 10
-138.2598
 20
-35.9095
 30
0.0
 10
-138.7255
 20
-36.2529
 30
0.0
 10
-138.7255
 20
-36.2529
 30
0.0
 10
-138.8976
 20
-37.9594
 30
0.0
 10
-138.9689
 20
-39.8151
 30
0.0
 10
-138.8619
 20
-41.6058
 30
0.0
 10
-138.8619
 20
-41.6058
 30
0.0
 10
-138.5649
 20
-47.2735
 30
0.0
 10
-135.6933
 20
-51.2171
 30
0.0
 10
-132.31
 20
-53.899
 30
0.0
 10
-132.31
 20
-53.899
 30
0.0
 10
-130.2052
 20
-55.5528
 30
0.0
 10
-129.5465
 20
-56.5226
 30
0.0
 10
-129.5481
 20
-57.9646
 30
0.0
 10
-129.5481
 20
-57.9646
 30
0.0
 10
-129.5495
 20
-59.3239
 30
0.0
 10
-130.3759
 20
-60.4813
 30
0.0
 10
-132.6271
 20
-62.2774
 30
0.0
 10
-132.6271
 20
-62.2774
 30
0.0
 10
-137.3769
 20
-66.0673
 30
0.0
 10
-139.0198
 20
-69.7208
 30
0.0
 10
-138.8711
 20
-76.1631
 30
0.0
 10
-138.8711
 20
-76.1631
 30
0.0
 10
-138.8253
 20
-78.1448
 30
0.0
 10
-138.6699
 20
-79.6597
 30
0.0
 10
-138.5069
 20
-79.712
 30
0.0
 10
-138.5069
 20
-79.712
 30
0.0
 10
-138.3505
 20
-79.7623
 30
0.0
 10
-136.1109
 20
-78.9193
 30
0.0
 10
-135.2975
 20
-78.5364
 30
0.0
 10
-135.2975
 20
-78.5364
 30
0.0
 10
-135.2975
 20
-78.5364
 30
0.0
 10
-135.2975
 20
-78.5367
 30
0.0
 10
-135.2975
 20
-78.5367
 30
0.0
  0
SPLINE
  5
48
330
1F
100
AcDbEntity
  8
layer 1
 62
     7
100
AcDbSpline
210
0.0
220
0.0
230
1.0
 70
    11
 71
     3
 72
    80
 73
    76
 74
     0
 42
0.0000000001
 43
0.0000000001
 12
1.0
 22
0.0
 32
0.0
 13
1.0
 23
0.0
 33
0.0
 40
0.0
 40
0.0
 40
0.0
 40
0.0
 40
0.05
 40
0.05
 40
0.05
 40
0.05
 40
0.1
 40
0.1
 40
0.1
 40
0.1
 40
0.15
 40
0.15
 40
0.15
 40
0.15
 40
0.2
 40
0.2
 40
0.2
 40
0.2
 40
0.25
 40
0.25
 40
0.25
 40
0.25
 40
0.3
 40
0.3
 40
0.3
 40
0.3
 40
0.35
 40
0.35
 40
0.35
 40
0.35
 40
0.4
 40
0.4
 40
0.4
 40
0.4
 40
0.45
 40
0.45
 40
0.45
 40
0.45
 40
0.5
 40
0.5
 40
0.5
 40
0.5
 40
0.55
 40
0.55
 40
0.55
 40
0.55
 40
0.6
 40
0.6
 40
0.6
 40
0.6
 40
0.65
 40
0.65
 40
0.65
 40
0.65
 40
0.7
 40
0.7
 40
0.7
 40
0.7
 40
0.75
 40
0.75
 40
0.75
 40
0.75
 40
0.8
 40
0.8
 40
0.8
 40
0.8
 40
0.85
 40
0.85
 40
0.85
 40
0.85
 40
0.9
 40
0.9
 40
0.9
 40
0.9
 40
1.0
 40
1.0
 40
1.0
 40
1.0
 10
-147.2024
 20
-25.7434
 30
0.0
 10
-153.2747
 20
-22.2014
 30
0.0
 10
-155.2952
 20
-18.4205
 30
0.0
 10
-156.0419
 20
-13.3331
 30
0.0
 10
-156.0419
 20
-13.3331
 30
0.0
 10
-156.3959
 20
-11.273
 30
0.0
 10
-156.6459
 20
-9.2289
 30
0.0
 10
-158.3295
 20
-8.2284
 30
0.0
 10
-158.3295
 20
-8.2284
 30
0.0
 10
-159.9238
 20
-6.5532
 30
0.0
 10
-164.3505
 20
-9.0348
 30
0.0
 10
-165.4681
 20
-9.4416
 30
0.0
 10
-165.4681
 20
-9.4416
 30
0.0
 10
-170.2113
 20
-10.6056
 30
0.0
 10
-173.7316
 20
-9.9128
 30
0.0
 10
-177.6456
 20
-7.8934
 30
0.0
 10
-177.6456
 20
-7.8934
 30
0.0
 10
-179.1302
 20
-7.1221
 30
0.0
 10
-180.5309
 20
-6.2203
 30
0.0
 10
-181.8232
 20
-5.1309
 30
0.0
 10
-181.8232
 20
-5.1309
 30
0.0
 10
-180.6368
 20
-4.101
 30
0.0
 10
-179.2088
 20
-3.2536
 30
0.0
 10
-177.9833
 20
-2.5941
 30
0.0
 10
-177.9833
 20
-2.5941
 30
0.0
 10
-173.0099
 20
0.0653
 30
0.0
 10
-168.344
 20
0.4162
 30
0.0
 10
-163.6869
 20
-1.5189
 30
0.0
 10
-163.6869
 20
-1.5189
 30
0.0
 10
-160.8795
 20
-2.6854
 30
0.0
 10
-159.4844
 20
-2.8061
 30
0.0
 10
-158.1576
 20
-1.997
 30
0.0
 10
-158.1576
 20
-1.997
 30
0.0
 10
-156.9252
 20
-1.2456
 30
0.0
 10
-156.4664
 20
-0.2454
 30
0.0
 10
-156.0886
 20
2.515
 30
0.0
 10
-156.0886
 20
2.515
 30
0.0
 10
-154.79
 20
8.6007
 30
0.0
 10
-152.8065
 20
11.4811
 30
0.0
 10
-148.3237
 20
14.4399
 30
0.0
 10
-148.3237
 20
14.4399
 30
0.0
 10
-146.3971
 20
15.705
 30
0.0
 10
-144.2401
 20
16.8838
 30
0.0
 10
-143.7744
 20
16.5404
 30
0.0
 10
-143.7744
 20
16.5404
 30
0.0
 10
-143.6023
 20
14.8339
 30
0.0
 10
-143.531
 20
12.9782
 30
0.0
 10
-143.638
 20
11.1875
 30
0.0
 10
-143.638
 20
11.1875
 30
0.0
 10
-143.935
 20
5.5198
 30
0.0
 10
-146.8066
 20
1.5762
 30
0.0
 10
-150.1899
 20
-1.1057
 30
0.0
 10
-150.1899
 20
-1.1057
 30
0.0
 10
-152.2946
 20
-2.7596
 30
0.0
 10
-152.9534
 20
-3.7294
 30
0.0
 10
-152.9518
 20
-5.1713
 30
0.0
 10
-152.9518
 20
-5.1713
 30
0.0
 10
-152.9504
 20
-6.5306
 30
0.0
 10
-152.124
 20
-7.688
 30
0.0
 10
-149.8728
 20
-9.4842
 30
0.0
 10
-149.8728
 20
-9.4842
 30
0.0
 10
-145.1229
 20
-13.274
 30
0.0
 10
-143.4801
 20
-16.9275
 30
0.0
 10
-143.6287
 20
-23.3698
 30
0.0
 10
-143.6287
 20
-23.3698
 30
0.0
 10
-143.6745
 20
-25.3515
 30
0.0
 10
-143.83
 20
-26.8664
 30
0.0
 10
-143.993
 20
-26.9187
 30
0.0
 10
-143.993
 20
-26.9187
 30
0.0
 10
-144.1494
 20
-26.969
 30
0.0
 10
-146.389
 20
-26.126
 30
0.0
 10
-147.2024
 20
-25.7432
 30
0.0
 10
-147.2024
 20
-25.7432
 30
0.0
 10
-147.2024
 20
-25.7432
 30
0.0
 10
-147.2024
 20
-25.7434
 30
0.0
 10
-147.2024
 20
-25.7434
 30
0.0
  0
SPLINE
  5
49
330
1F
100
AcDbEntity
  8
layer 1
 62
     7
100
AcDbSpline
210
0.0
220
0.0
230
1.0
 70
    11
 71
     3
 72
    80
 73
    76
 74
     0
 42
0.0000000001
 43
0.0000000001
 12
1.0
 22
0.0
 32
0.0
 13
1.0
 23
0.0
 33
0.0
 40
0.0
 40
0.0
 40
0.0
 40
0.0
 40
0.05
 40
0.05
 40
0.05
 40
0.05
 40
0.1
 40
0.1
 40
0.1
 40
0.1
 40
0.15
 40
0.15
 40
0.15
 40
0.15
 40
0.2
 40
0.2
 40
0.2
 40
0.2
 40
0.25
 40
0.25
 40
0.25
 40
0.25
 40
0.3
 40
0.3
 40
0.3
 40
0.3
 40
0.35
 40
0.35
 40
0.35
 40
0.35
 40
0.4
 40
0.4
 40
0.4
 40
0.4
 40
0.45
 40
0.45
 40
0.45
 40
0.45
 40
0.5
 40
0.5
 40
0.5
 40
0.5
 40
0.55
 40
0.55
 40
0.55
 40
0.55
 40
0.6
 40
0.6
 40
0.6
 40
0.6
 40
0.65
 40
0.65
 40
0.65
 40
0.65
 40
0.7
 40
0.7
 40
0.7
 40
0.7
 40
0.75
 40
0.75
 40
0.75
 40
0.75
 40
0.8
 40
0.8
 40
0.8
 40
0.8
 40
0.85
 40
0.85
 40
0.85
 40
0.85
 40
0.9
 40
0.9
 40
0.9
 40
0.9
 40
1.0
 40
1.0
 40
1.0
 40
1.0
 10
-135.2975
 20
-25.7434
 30
0.0
 10
-129.2251
 20
-22.2014
 30
0.0
 10
-127.2047
 20
-18.4205
 30
0.0
 10
-126.458
 20
-13.3331
 30
0.0
 10
-126.458
 20
-13.3331
 30
0.0
 10
-126.104
 20
-11.273
 30
0.0
 10
-125.854
 20
-9.2289
 30
0.0
 10
-124.1704
 20
-8.2284
 30
0.0
 10
-124.1704
 20
-8.2284
 30
0.0
 10
-122.5761
 20
-6.5532
 30
0.0
 10
-118.1494
 20
-9.0348
 30
0.0
 10
-117.0318
 20
-9.4416
 30
0.0
 10
-117.0318
 20
-9.4416
 30
0.0
 10
-112.2886
 20
-10.6056
 30
0.0
 10
-108.7683
 20
-9.9128
 30
0.0
 10
-104.8543
 20
-7.8934
 30
0.0
 10
-104.8543
 20
-7.8934
 30
0.0
 10
-103.3697
 20
-7.1221
 30
0.0
 10
-101.969
 20
-6.2203
 30
0.0
 10
-100.6767
 20
-5.1309
 30
0.0
 10
-100.6767
 20
-5.1309
 30
0.0
 10
-101.8631
 20
-4.101
 30
0.0
 10
-103.2911
 20
-3.2536
 30
0.0
 10
-104.5166
 20
-2.5941
 30
0.0
 10
-104.5166
 20
-2.5941
 30
0.0
 10
-109.49
 20
0.0653
 30
0.0
 10
-114.1559
 20
0.4162
 30
0.0
 10
-118.8129
 20
-1.5189
 30
0.0
 10
-118.8129
 20
-1.5189
 30
0.0
 10
-121.6204
 20
-2.6854
 30
0.0
 10
-123.0155
 20
-2.8061
 30
0.0
 10
-124.3423
 20
-1.997
 30
0.0
 10
-124.3423
 20
-1.997
 30
0.0
 10
-125.5747
 20
-1.2456
 30
0.0
 10
-126.0334
 20
-0.2454
 30
0.0
 10
-126.4113
 20
2.515
 30
0.0
 10
-126.4113
 20
2.515
 30
0.0
 10
-127.7099
 20
8.6007
 30
0.0
 10
-129.6934
 20
11.4811
 30
0.0
 10
-134.1762
 20
14.4399
 30
0.0
 10
-134.1762
 20
14.4399
 30
0.0
 10
-136.1028
 20
15.705
 30
0.0
 10
-138.2598
 20
16.8838
 30
0.0
 10
-138.7255
 20
16.5404
 30
0.0
 10
-138.7255
 20
16.5404
 30
0.0
 10
-138.8976
 20
14.8339
 30
0.0
 10
-138.9689
 20
12.9782
 30
0.0
 10
-138.8619
 20
11.1875
 30
0.0
 10
-138.8619
 20
11.1875
 30
0.0
 10
-138.5649
 20
5.5198
 30
0.0
 10
-135.6933
 20
1.5762
 30
0.0
 10
-132.31
 20
-1.1057
 30
0.0
 10
-132.31
 20
-1.1057
 30
0.0
 10
-130.2052
 20
-2.7596
 30
0.0
 10
-129.5465
 20
-3.7294
 30
0.0
 10
-129.5481
 20
-5.1713
 30
0.0
 10
-129.5481
 20
-5.1713
 30
0.0
 10
-129.5495
 20
-6.5306
 30
0.0
 10
-130.3759
 20
-7.688
 30
0.0
 10
-132.6271
 20
-9.4842
 30
0.0
 10
-132.6271
 20
-9.4842
 30
0.0
 10
-137.3769
 20
-13.274
 30
0.0
 10
-139.0198
 20
-16.9275
 30
0.0
 10
-138.8711
 20
-23.3698
 30
0.0
 10
-138.8711
 20
-23.3698
 30
0.0
 10
-138.8253
 20
-25.3515
 30
0.0
 10
-138.6699
 20
-26.8664
 30
0.0
 10
-138.5069
 20
-26.9187
 30
0.0
 10
-138.5069
 20
-26.9187
 30
0.0
 10
-138.3505
 20
-26.969
 30
0.0
 10
-136.1109
 20
-26.126
 30
0.0
 10
-135.2975
 20
-25.7432
 30
0.0
 10
-135.2975
 20
-25.7432
 30
0.0
 10
-135.2975
 20
-25.7432
 30
0.0
 10
-135.2975
 20
-25.7434
 30
0.0
 10
-135.2975
 20
-25.7434
 30
0.0
  0
SPLINE
  5
4A
330
1F
100
AcDbEntity
  8
layer 1
 62
     7
100
AcDbSpline
210
0.0
220
0.0
230
1.0
 70
    11
 71
     3
 72
    80
 73
    76
 74
     0
 42
0.0000000001
 43
0.0000000001
 12
1.0
 22
0.0
 32
0.0
 13
1.0
 23
0.0
 33
0.0
 40
0.0
 40
0.0
 40
0.0
 40
0.0
 40
0.05
 40
0.05
 40
0.05
 40
0.05
 40
0.1
 40
0.1
 40
0.1
 40
0.1
 40
0.15
 40
0.15
 40
0.15
 40
0.15
 40
0.2
 40
0.2
 40
0.2
 40
0.2
 40
0.25
 40
0.25
 40
0.25
 40
0.25
 40
0.3
 40
0.3
 40
0.3
 40
0.3
 40
0.35
 40
0.35
 40
0.35
 40
0.35
 40
0.4
 40
0.4
 40
0.4
 40
0.4
 40
0.45
 40
0.45
 40
0.45
 40
0.45
 40
0.5
 40
0.5
 40
0.5
 40
0.5
 40
0.55
 40
0.55
 40
0.55
 40
0.55
 40
0.6
 40
0.6
 40
0.6
 40
0.6
 40
0.65
 40
0.65
 40
0.65
 40
0.65
 40
0.7
 40
0.7
 40
0.7
 40
0.7
 40
0.75
 40
0.75
 40
0.75
 40
0.75
 40
0.8
 40
0.8
 40
0.8
 40
0.8
 40
0.85
 40
0.85
 40
0.85
 40
0.85
 40
0.9
 40
0.9
 40
0.9
 40
0.9
 40
1.0
 40
1.0
 40
1.0
 40
1.0
 10
-101.4846
 20
-52.4122
 30
0.0
 10
-107.5569
 20
-48.8703
 30
0.0
 10
-109.5774
 20
-45.0894
 30
0.0
 10
-110.3241
 20
-40.002
 30
0.0
 10
-110.3241
 20
-40.002
 30
0.0
 10
-110.6781
 20
-37.9419
 30
0.0
 10
-110.9281
 20
-35.8978
 30
0.0
 10
-112.6117
 20
-34.8972
 30
0.0
 10
-112.6117
 20
-34.8972
 30
0.0
 10
-114.206
 20
-33.222
 30
0.0
 10
-118.6327
 20
-35.7036
 30
0.0
 10
-119.7503
 20
-36.1104
 30
0.0
 10
-119.7503
 20
-36.1104
 30
0.0
 10
-124.4935
 20
-37.2745
 30
0.0
 10
-128.0138
 20
-36.5816
 30
0.0
 10
-131.9278
 20
-34.5623
 30
0.0
 10
-131.9278
 20
-34.5623
 30
0.0
 10
-133.4124
 20
-33.7909
 30
0.0
 10
-134.8131
 20
-32.8892
 30
0.0
 10
-136.1054
 20
-31.7997
 30
0.0
 10
-136.1054
 20
-31.7997
 30
0.0
 10
-134.919
 20
-30.7698
 30
0.0
 10
-133.491
 20
-29.9225
 30
0.0
 10
-132.2655
 20
-29.263
 30
0.0
 10
-132.2655
 20
-29.263
 30
0.0
 10
-127.2921
 20
-26.6035
 30
0.0
 10
-122.6262
 20
-26.2526
 30
0.0
 10
-117.9691
 20
-28.1877
 30
0.0
 10
-117.9691
 20
-28.1877
 30
0.0
 10
-115.1617
 20
-29.3542
 30
0.0
 10
-113.7666
 20
-29.475
 30
0.0
 10
-112.4398
 20
-28.6659
 30
0.0
 10
-112.4398
 20
-28.6659
 30
0.0
 10
-111.2074
 20
-27.9144
 30
0.0
 10
-110.7486
 20
-26.9142
 30
0.0
 10
-110.3708
 20
-24.1538
 30
0.0
 10
-110.3708
 20
-24.1538
 30
0.0
 10
-109.0722
 20
-18.0681
 30
0.0
 10
-107.0887
 20
-15.1878
 30
0.0
 10
-102.6059
 20
-12.2289
 30
0.0
 10
-102.6059
 20
-12.2289
 30
0.0
 10
-100.6793
 20
-10.9638
 30
0.0
 10
-98.5223
 20
-9.7851
 30
0.0
 10
-98.0566
 20
-10.1284
 30
0.0
 10
-98.0566
 20
-10.1284
 30
0.0
 10
-97.8845
 20
-11.8349
 30
0.0
 10
-97.8132
 20
-13.6907
 30
0.0
 10
-97.9202
 20
-15.4814
 30
0.0
 10
-97.9202
 20
-15.4814
 30
0.0
 10
-98.2172
 20
-21.1491
 30
0.0
 10
-101.0888
 20
-25.0927
 30
0.0
 10
-104.4721
 20
-27.7746
 30
0.0
 10
-104.4721
 20
-27.7746
 30
0.0
 10
-106.5768
 20
-29.4284
 30
0.0
 10
-107.2356
 20
-30.3982
 30
0.0
 10
-107.234
 20
-31.8401
 30
0.0
 10
-107.234
 20
-31.8401
 30
0.0
 10
-107.2326
 20
-33.1994
 30
0.0
 10
-106.4062
 20
-34.3568
 30
0.0
 10
-104.155
 20
-36.153
 30
0.0
 10
-104.155
 20
-36.153
 30
0.0
 10
-99.4051
 20
-39.9428
 30
0.0
 10
-97.7623
 20
-43.5964
 30
0.0
 10
-97.9109
 20
-50.0386
 30
0.0
 10
-97.9109
 20
-50.0386
 30
0.0
 10
-97.9567
 20
-52.0204
 30
0.0
 10
-98.1122
 20
-53.5352
 30
0.0
 10
-98.2752
 20
-53.5876
 30
0.0
 10
-98.2752
 20
-53.5876
 30
0.0
 10
-98.4316
 20
-53.6379
 30
0.0
 10
-100.6712
 20
-52.7948
 30
0.0
 10
-101.4846
 20
-52.412
 30
0.0
 10
-101.4846
 20
-52.412
 30
0.0
 10
-101.4846
 20
-52.412
 30
0.0
 10
-101.4846
 20
-52.4122
 30
0.0
 10
-101.4846
 20
-52.4122
 30
0.0
  0
SPLINE
  5
4B
330
1F
100
AcDbEntity
  8
layer 1
 62
     7
100
AcDbSpline
210
0.0
220
0.0
230
1.0
 70
    11
 71
     3
 72
    80
 73
    76
 74
     0
 42
0.0000000001
 43
0.0000000001
 12
1.0
 22
0.0
 32
0.0
 13
1.0
 23
0.0
 33
0.0
 40
0.0
 40
0.0
 40
0.0
 40
0.0
 40
0.05
 40
0.05
 40
0.05
 40
0.05
 40
0.1
 40
0.1
 40
0.1
 40
0.1
 40
0.15
 40
0.15
 40
0.15
 40
0.15
 40
0.2
 40
0.2
 40
0.2
 40
0.2
 40
0.25
 40
0.25
 40
0.25
 40
0.25
 40
0.3
 40
0.3
 40
0.3
 40
0.3
 40
0.35
 40
0.35
 40
0.35
 40
0.35
 40
0.4
 40
0.4
 40
0.4
 40
0.4
 40
0.45
 40
0.45
 40
0.45
 40
0.45
 40
0.5
 40
0.5
 40
0.5
 40
0.5
 40
0.55
 40
0.55
 40
0.55
 40
0.55
 40
0.6
 40
0.6
 40
0.6
 40
0.6
 40
0.65
 40
0.65
 40
0.65
 40
0.65
 40
0.7
 40
0.7
 40
0.7
 40
0.7
 40
0.75
 40
0.75
 40
0.75
 40
0.75
 40
0.8
 40
0.8
 40
0.8
 40
0.8
 40
0.85
 40
0.85
 40
0.85
 40
0.85
 40
0.9
 40
0.9
 40
0.9
 40
0.9
 40
1.0
 40
1.0
 40
1.0
 40
1.0
 10
-181.2875
 20
-52.14
 30
0.0
 10
-175.2151
 20
-48.5981
 30
0.0
 10
-173.1947
 20
-44.8172
 30
0.0
 10
-172.448
 20
-39.7298
 30
0.0
 10
-172.448
 20
-39.7298
 30
0.0
 10
-172.094
 20
-37.6697
 30
0.0
 10
-171.844
 20
-35.6256
 30
0.0
 10
-170.1604
 20
-34.625
 30
0.0
 10
-170.1604
 20
-34.625
 30
0.0
 10
-168.5661
 20
-32.9498
 30
0.0
 10
-164.1394
 20
-35.4314
 30
0.0
 10
-163.0218
 20
-35.8382
 30
0.0
 10
-163.0218
 20
-35.8382
 30
0.0
 10
-158.2786
 20
-37.0023
 30
0.0
 10
-154.7583
 20
-36.3094
 30
0.0
 10
-150.8443
 20
-34.2901
 30
0.0
 10
-150.8443
 20
-34.2901
 30
0.0
 10
-149.3597
 20
-33.5187
 30
0.0
 10
-147.959
 20
-32.617
 30
0.0
 10
-146.6667
 20
-31.5275
 30
0.0
 10
-146.6667
 20
-31.5275
 30
0.0
 10
-147.8531
 20
-30.4976
 30
0.0
 10
-149.2811
 20
-29.6503
 30
0.0
 10
-150.5066
 20
-28.9908
 30
0.0
 10
-150.5066
 20
-28.9908
 30
0.0
 10
-155.48
 20
-26.3313
 30
0.0
 10
-160.1459
 20
-25.9804
 30
0.0
 10
-164.8029
 20
-27.9155
 30
0.0
 10
-164.8029
 20
-27.9155
 30
0.0
 10
-167.6104
 20
-29.082
 30
0.0
 10
-169.0055
 20
-29.2028
 30
0.0
 10
-170.3323
 20
-28.3937
 30
0.0
 10
-170.3323
 20
-28.3937
 30
0.0
 10
-171.5647
 20
-27.6422
 30
0.0
 10
-172.0234
 20
-26.642
 30
0.0
 10
-172.4013
 20
-23.8816
 30
0.0
 10
-172.4013
 20
-23.8816
 30
0.0
 10
-173.6999
 20
-17.7959
 30
0.0
 10
-175.6834
 20
-14.9156
 30
0.0
 10
-180.1662
 20
-11.9567
 30
0.0
 10
-180.1662
 20
-11.9567
 30
0.0
 10
-182.0928
 20
-10.6916
 30
0.0
 10
-184.2498
 20
-9.5129
 30
0.0
 10
-184.7155
 20
-9.8562
 30
0.0
 10
-184.7155
 20
-9.8562
 30
0.0
 10
-184.8876
 20
-11.5627
 30
0.0
 10
-184.9589
 20
-13.4185
 30
0.0
 10
-184.8519
 20
-15.2092
 30
0.0
 10
-184.8519
 20
-15.2092
 30
0.0
 10
-184.5549
 20
-20.8769
 30
0.0
 10
-181.6833
 20
-24.8205
 30
0.0
 10
-178.3
 20
-27.5024
 30
0.0
 10
-178.3
 20
-27.5024
 30
0.0
 10
-176.1952
 20
-29.1562
 30
0.0
 10
-175.5365
 20
-30.126
 30
0.0
 10
-175.5381
 20
-31.5679
 30
0.0
 10
-175.5381
 20
-31.5679
 30
0.0
 10
-175.5395
 20
-32.9272
 30
0.0
 10
-176.3659
 20
-34.0846
 30
0.0
 10
-178.6171
 20
-35.8808
 30
0.0
 10
-178.6171
 20
-35.8808
 30
0.0
 10
-183.3669
 20
-39.6706
 30
0.0
 10
-185.0098
 20
-43.3242
 30
0.0
 10
-184.8611
 20
-49.7664
 30
0.0
 10
-184.8611
 20
-49.7664
 30
0.0
 10
-184.8153
 20
-51.7482
 30
0.0
 10
-184.6599
 20
-53.263
 30
0.0
 10
-184.4969
 20
-53.3154
 30
0.0
 10
-184.4969
 20
-53.3154
 30
0.0
 10
-184.3405
 20
-53.3657
 30
0.0
 10
-182.1009
 20
-52.5226
 30
0.0
 10
-181.2875
 20
-52.1398
 30
0.0
 10
-181.2875
 20
-52.1398
 30
0.0
 10
-181.2875
 20
-52.1398
 30
0.0
 10
-181.2875
 20
-52.14
 30
0.0
 10
-181.2875
 20
-52.14
 30
0.0
  0
SPLINE
  5
4C
330
1F
100
AcDbEntity
  8
layer 1
 62
     7
100
AcDbSpline
210
0.0
220
0.0
230
1.0
 70
    11
 71
     3
 72
    80
 73
    76
 74
     0
 42
0.0000000001
 43
0.0000000001
 12
1.0
 22
0.0
 32
0.0
 13
1.0
 23
0.0
 33
0.0
 40
0.0
 40
0.0
 40
0.0
 40
0.0
 40
0.05
 40
0.05
 40
0.05
 40
0.05
 40
0.1
 40
0.1
 40
0.1
 40
0.1
 40
0.15
 40
0.15
 40
0.15
 40
0.15
 40
0.2
 40
0.2
 40
0.2
 40
0.2
 40
0.25
 40
0.25
 40
0.25
 40
0.25
 40
0.3
 40
0.3
 40
0.3
 40
0.3
 40
0.35
 40
0.35
 40
0.35
 40
0.35
 40
0.4
 40
0.4
 40
0.4
 40
0.4
 40
0.45
 40
0.45
 40
0.45
 40
0.45
 40
0.5
 40
0.5
 40
0.5
 40
0.5
 40
0.55
 40
0.55
 40
0.55
 40
0.55
 40
0.6
 40
0.6
 40
0.6
 40
0.6
 40
0.65
 40
0.65
 40
0.65
 40
0.65
 40
0.7
 40
0.7
 40
0.7
 40
0.7
 40
0.75
 40
0.75
 40
0.75
 40
0.75
 40
0.8
 40
0.8
 40
0.8
 40
0.8
 40
0.85
 40
0.85
 40
0.85
 40
0.85
 40
0.9
 40
0.9
 40
0.9
 40
0.9
 40
1.0
 40
1.0
 40
1.0
 40
1.0
 10
-181.2875
 20
0.6532
 30
0.0
 10
-175.2151
 20
4.1951
 30
0.0
 10
-173.1947
 20
7.976
 30
0.0
 10
-172.448
 20
13.0634
 30
0.0
 10
-172.448
 20
13.0634
 30
0.0
 10
-172.094
 20
15.1235
 30
0.0
 10
-171.844
 20
17.1676
 30
0.0
 10
-170.1604
 20
18.1681
 30
0.0
 10
-170.1604
 20
18.1681
 30
0.0
 10
-168.5661
 20
19.8434
 30
0.0
 10
-164.1394
 20
17.3618
 30
0.0
 10
-163.0218
 20
16.955
 30
0.0
 10
-163.0218
 20
16.955
 30
0.0
 10
-158.2786
 20
15.7909
 30
0.0
 10
-154.7583
 20
16.4838
 30
0.0
 10
-150.8443
 20
18.5031
 30
0.0
 10
-150.8443
 20
18.5031
 30
0.0
 10
-149.3597
 20
19.2745
 30
0.0
 10
-147.959
 20
20.1762
 30
0.0
 10
-146.6667
 20
21.2657
 30
0.0
 10
-146.6667
 20
21.2657
 30
0.0
 10
-147.8531
 20
22.2955
 30
0.0
 10
-149.2811
 20
23.1429
 30
0.0
 10
-150.5066
 20
23.8024
 30
0.0
 10
-150.5066
 20
23.8024
 30
0.0
 10
-155.48
 20
26.4619
 30
0.0
 10
-160.1459
 20
26.8128
 30
0.0
 10
-164.8029
 20
24.8777
 30
0.0
 10
-164.8029
 20
24.8777
 30
0.0
 10
-167.6104
 20
23.7112
 30
0.0
 10
-169.0055
 20
23.5904
 30
0.0
 10
-170.3323
 20
24.3995
 30
0.0
 10
-170.3323
 20
24.3995
 30
0.0
 10
-171.5647
 20
25.151
 30
0.0
 10
-172.0234
 20
26.1512
 30
0.0
 10
-172.4013
 20
28.9116
 30
0.0
 10
-172.4013
 20
28.9116
 30
0.0
 10
-173.6999
 20
34.9972
 30
0.0
 10
-175.6834
 20
37.8776
 30
0.0
 10
-180.1662
 20
40.8364
 30
0.0
 10
-180.1662
 20
40.8364
 30
0.0
 10
-182.0928
 20
42.1015
 30
0.0
 10
-184.2498
 20
43.2803
 30
0.0
 10
-184.7155
 20
42.937
 30
0.0
 10
-184.7155
 20
42.937
 30
0.0
 10
-184.8876
 20
41.2304
 30
0.0
 10
-184.9589
 20
39.3747
 30
0.0
 10
-184.8519
 20
37.584
 30
0.0
 10
-184.8519
 20
37.584
 30
0.0
 10
-184.5549
 20
31.9163
 30
0.0
 10
-181.6833
 20
27.9727
 30
0.0
 10
-178.3
 20
25.2908
 30
0.0
 10
-178.3
 20
25.2908
 30
0.0
 10
-176.1952
 20
23.637
 30
0.0
 10
-175.5365
 20
22.6672
 30
0.0
 10
-175.5381
 20
21.2252
 30
0.0
 10
-175.5381
 20
21.2252
 30
0.0
 10
-175.5395
 20
19.8659
 30
0.0
 10
-176.3659
 20
18.7086
 30
0.0
 10
-178.6171
 20
16.9124
 30
0.0
 10
-178.6171
 20
16.9124
 30
0.0
 10
-183.3669
 20
13.1225
 30
0.0
 10
-185.0098
 20
9.469
 30
0.0
 10
-184.8611
 20
3.0267
 30
0.0
 10
-184.8611
 20
3.0267
 30
0.0
 10
-184.8153
 20
1.045
 30
0.0
 10
-184.6599
 20
-0.4698
 30
0.0
 10
-184.4969
 20
-0.5222
 30
0.0
 10
-184.4969
 20
-0.5222
 30
0.0
 10
-184.3405
 20
-0.5725
 30
0.0
 10
-182.1009
 20
0.2705
 30
0.0
 10
-181.2875
 20
0.6534
 30
0.0
 10
-181.2875
 20
0.6534
 30
0.0
 10
-181.2875
 20
0.6534
 30
0.0
 10
-181.2875
 20
0.6532
 30
0.0
 10
-181.2875
 20
0.6532
 30
0.0
  0
SPLINE
  5
4D
330
1F
100
AcDbEntity
  8
layer 1
 62
     7
100
AcDbSpline
210
0.0
220
0.0
230
1.0
 70
    11
 71
     3
 72
    80
 73
    76
 74
     0
 42
0.0000000001
 43
0.0000000001
 12
1.0
 22
0.0
 32
0.0
 13
1.0
 23
0.0
 33
0.0
 40
0.0
 40
0.0
 40
0.0
 40
0.0
 40
0.05
 40
0.05
 40
0.05
 40
0.05
 40
0.1
 40
0.1
 40
0.1
 40
0.1
 40
0.15
 40
0.15
 40
0.15
 40
0.15
 40
0.2
 40
0.2
 40
0.2
 40
0.2
 40
0.25
 40
0.25
 40
0.25
 40
0.25
 40
0.3
 40
0.3
 40
0.3
 40
0.3
 40
0.35
 40
0.35
 40
0.35
 40
0.35
 40
0.4
 40
0.4
 40
0.4
 40
0.4
 40
0.45
 40
0.45
 40
0.45
 40
0.45
 40
0.5
 40
0.5
 40
0.5
 40
0.5
 40
0.55
 40
0.55
 40
0.55
 40
0.55
 40
0.6
 40
0.6
 40
0.6
 40
0.6
 40
0.65
 40
0.65
 40
0.65
 40
0.65
 40
0.7
 40
0.7
 40
0.7
 40
0.7
 40
0.75
 40
0.75
 40
0.75
 40
0.75
 40
0.8
 40
0.8
 40
0.8
 40
0.8
 40
0.85
 40
0.85
 40
0.85
 40
0.85
 40
0.9
 40
0.9
 40
0.9
 40
0.9
 40
1.0
 40
1.0
 40
1.0
 40
1.0
 10
-101.4846
 20
0.6532
 30
0.0
 10
-107.5569
 20
4.1951
 30
0.0
 10
-109.5774
 20
7.976
 30
0.0
 10
-110.3241
 20
13.0634
 30
0.0
 10
-110.3241
 20
13.0634
 30
0.0
 10
-110.6781
 20
15.1235
 30
0.0
 10
-110.9281
 20
17.1676
 30
0.0
 10
-112.6117
 20
18.1681
 30
0.0
 10
-112.6117
 20
18.1681
 30
0.0
 10
-114.206
 20
19.8434
 30
0.0
 10
-118.6327
 20
17.3618
 30
0.0
 10
-119.7503
 20
16.955
 30
0.0
 10
-119.7503
 20
16.955
 30
0.0
 10
-124.4935
 20
15.7909
 30
0.0
 10
-128.0138
 20
16.4838
 30
0.0
 10
-131.9278
 20
18.5031
 30
0.0
 10
-131.9278
 20
18.5031
 30
0.0
 10
-133.4124
 20
19.2745
 30
0.0
 10
-134.8131
 20
20.1762
 30
0.0
 10
-136.1054
 20
21.2657
 30
0.0
 10
-136.1054
 20
21.2657
 30
0.0
 10
-134.919
 20
22.2955
 30
0.0
 10
-133.491
 20
23.1429
 30
0.0
 10
-132.2655
 20
23.8024
 30
0.0
 10
-132.2655
 20
23.8024
 30
0.0
 10
-127.2921
 20
26.4619
 30
0.0
 10
-122.6262
 20
26.8128
 30
0.0
 10
-117.9691
 20
24.8777
 30
0.0
 10
-117.9691
 20
24.8777
 30
0.0
 10
-115.1617
 20
23.7112
 30
0.0
 10
-113.7666
 20
23.5904
 30
0.0
 10
-112.4398
 20
24.3995
 30
0.0
 10
-112.4398
 20
24.3995
 30
0.0
 10
-111.2074
 20
25.151
 30
0.0
 10
-110.7486
 20
26.1512
 30
0.0
 10
-110.3708
 20
28.9116
 30
0.0
 10
-110.3708
 20
28.9116
 30
0.0
 10
-109.0722
 20
34.9972
 30
0.0
 10
-107.0887
 20
37.8776
 30
0.0
 10
-102.6059
 20
40.8364
 30
0.0
 10
-102.6059
 20
40.8364
 30
0.0
 10
-100.6793
 20
42.1015
 30
0.0
 10
-98.5223
 20
43.2803
 30
0.0
 10
-98.0566
 20
42.937
 30
0.0
 10
-98.0566
 20
42.937
 30
0.0
 10
-97.8845
 20
41.2304
 30
0.0
 10
-97.8132
 20
39.3747
 30
0.0
 10
-97.9202
 20
37.584
 30
0.0
 10
-97.9202
 20
37.584
 30
0.0
 10
-98.2172
 20
31.9163
 30
0.0
 10
-101.0888
 20
27.9727
 30
0.0
 10
-104.4721
 20
25.2908
 30
0.0
 10
-104.4721
 20
25.2908
 30
0.0
 10
-106.5768
 20
23.637
 30
0.0
 10
-107.2356
 20
22.6672
 30
0.0
 10
-107.234
 20
21.2252
 30
0.0
 10
-107.234
 20
21.2252
 30
0.0
 10
-107.2326
 20
19.8659
 30
0.0
 10
-106.4062
 20
18.7086
 30
0.0
 10
-104.155
 20
16.9124
 30
0.0
 10
-104.155
 20
16.9124
 30
0.0
 10
-99.4051
 20
13.1225
 30
0.0
 10
-97.7623
 20
9.469
 30
0.0
 10
-97.9109
 20
3.0267
 30
0.0
 10
-97.9109
 20
3.0267
 30
0.0
 10
-97.9567
 20
1.045
 30
0.0
 10
-98.1122
 20
-0.4698
 30
0.0
 10
-98.2752
 20
-0.5222
 30
0.0
 10
-98.2752
 20
-0.5222
 30
0.0
 10
-98.4316
 20
-0.5725
 30
0.0
 10
-100.6712
 20
0.2705
 30
0.0
 10
-101.4846
 20
0.6534
 30
0.0
 10
-101.4846
 20
0.6534
 30
0.0
 10
-101.4846
 20
0.6534
 30
0.0
 10
-101.4846
 20
0.6532
 30
0.0
 10
-101.4846
 20
0.6532
 30
0.0
  0
SPLINE
  5
4E
330
1F
100
AcDbEntity
  8
layer 1
 62
     7
100
AcDbSpline
210
0.0
220
0.0
230
1.0
 70
    11
 71
     3
 72
    80
 73
    76
 74
     0
 42
0.0000000001
 43
0.0000000001
 12
1.0
 22
0.0
 32
0.0
 13
1.0
 23
0.0
 33
0.0
 40
0.0
 40
0.0
 40
0.0
 40
0.0
 40
0.05
 40
0.05
 40
0.05
 40
0.05
 40
0.1
 40
0.1
 40
0.1
 40
0.1
 40
0.15
 40
0.15
 40
0.15
 40
0.15
 40
0.2
 40
0.2
 40
0.2
 40
0.2
 40
0.25
 40
0.25
 40
0.25
 40
0.25
 40
0.3
 40
0.3
 40
0.3
 40
0.3
 40
0.35
 40
0.35
 40
0.35
 40
0.35
 40
0.4
 40
0.4
 40
0.4
 40
0.4
 40
0.45
 40
0.45
 40
0.45
 40
0.45
 40
0.5
 40
0.5
 40
0.5
 40
0.5
 40
0.55
 40
0.55
 40
0.55
 40
0.55
 40
0.6
 40
0.6
 40
0.6
 40
0.6
 40
0.65
 40
0.65
 40
0.65
 40
0.65
 40
0.7
 40
0.7
 40
0.7
 40
0.7
 40
0.75
 40
0.75
 40
0.75
 40
0.75
 40
0.8
 40
0.8
 40
0.8
 40
0.8
 40
0.85
 40
0.85
 40
0.85
 40
0.85
 40
0.9
 40
0.9
 40
0.9
 40
0.9
 40
1.0
 40
1.0
 40
1.0
 40
1.0
 10
-147.0793
 20
27.7625
 30
0.0
 10
-153.1517
 20
31.3045
 30
0.0
 10
-155.1721
 20
35.0854
 30
0.0
 10
-155.9188
 20
40.1728
 30
0.0
 10
-155.9188
 20
40.1728
 30
0.0
 10
-156.2728
 20
42.2329
 30
0.0
 10
-156.5228
 20
44.277
 30
0.0
 10
-158.2064
 20
45.2775
 30
0.0
 10
-158.2064
 20
45.2775
 30
0.0
 10
-159.8007
 20
46.9528
 30
0.0
 10
-164.2274
 20
44.4711
 30
0.0
 10
-165.345
 20
44.0643
 30
0.0
 10
-165.345
 20
44.0643
 30
0.0
 10
-170.0882
 20
42.9003
 30
0.0
 10
-173.6085
 20
43.5932
 30
0.0
 10
-177.5225
 20
45.6125
 30
0.0
 10
-177.5225
 20
45.6125
 30
0.0
 10
-179.0071
 20
46.3839
 30
0.0
 10
-180.4078
 20
47.2856
 30
0.0
 10
-181.7001
 20
48.375
 30
0.0
 10
-181.7001
 20
48.375
 30
0.0
 10
-180.5137
 20
49.4049
 30
0.0
 10
-179.0857
 20
50.2523
 30
0.0
 10
-177.8602
 20
50.9118
 30
0.0
 10
-177.8602
 20
50.9118
 30
0.0
 10
-172.8868
 20
53.5713
 30
0.0
 10
-168.2209
 20
53.9221
 30
0.0
 10
-163.5638
 20
51.9871
 30
0.0
 10
-163.5638
 20
51.9871
 30
0.0
 10
-160.7564
 20
50.8205
 30
0.0
 10
-159.3613
 20
50.6998
 30
0.0
 10
-158.0345
 20
51.5089
 30
0.0
 10
-158.0345
 20
51.5089
 30
0.0
 10
-156.8021
 20
52.2603
 30
0.0
 10
-156.3433
 20
53.2606
 30
0.0
 10
-155.9655
 20
56.0209
 30
0.0
 10
-155.9655
 20
56.0209
 30
0.0
 10
-154.6669
 20
62.1066
 30
0.0
 10
-152.6834
 20
64.987
 30
0.0
 10
-148.2006
 20
67.9458
 30
0.0
 10
-148.2006
 20
67.9458
 30
0.0
 10
-146.274
 20
69.2109
 30
0.0
 10
-144.117
 20
70.3897
 30
0.0
 10
-143.6513
 20
70.0463
 30
0.0
 10
-143.6513
 20
70.0463
 30
0.0
 10
-143.4792
 20
68.3398
 30
0.0
 10
-143.4079
 20
66.4841
 30
0.0
 10
-143.5149
 20
64.6934
 30
0.0
 10
-143.5149
 20
64.6934
 30
0.0
 10
-143.8119
 20
59.0257
 30
0.0
 10
-146.6835
 20
55.0821
 30
0.0
 10
-150.0668
 20
52.4002
 30
0.0
 10
-150.0668
 20
52.4002
 30
0.0
 10
-152.1715
 20
50.7464
 30
0.0
 10
-152.8303
 20
49.7766
 30
0.0
 10
-152.8287
 20
48.3346
 30
0.0
 10
-152.8287
 20
48.3346
 30
0.0
 10
-152.8273
 20
46.9753
 30
0.0
 10
-152.0009
 20
45.818
 30
0.0
 10
-149.7497
 20
44.0218
 30
0.0
 10
-149.7497
 20
44.0218
 30
0.0
 10
-144.9998
 20
40.2319
 30
0.0
 10
-143.357
 20
36.5784
 30
0.0
 10
-143.5056
 20
30.1361
 30
0.0
 10
-143.5056
 20
30.1361
 30
0.0
 10
-143.5514
 20
28.1544
 30
0.0
 10
-143.7069
 20
26.6396
 30
0.0
 10
-143.8699
 20
26.5872
 30
0.0
 10
-143.8699
 20
26.5872
 30
0.0
 10
-144.0263
 20
26.5369
 30
0.0
 10
-146.2659
 20
27.3799
 30
0.0
 10
-147.0793
 20
27.7628
 30
0.0
 10
-147.0793
 20
27.7628
 30
0.0
 10
-147.0793
 20
27.7628
 30
0.0
 10
-147.0793
 20
27.7625
 30
0.0
 10
-147.0793
 20
27.7625
 30
0.0
  0
SPLINE
  5
4F
330
1F
100
AcDbEntity
  8
layer 1
 62
     7
100
AcDbSpline
210
0.0
220
0.0
230
1.0
 70
    11
 71
     3
 72
    80
 73
    76
 74
     0
 42
0.0000000001
 43
0.0000000001
 12
1.0
 22
0.0
 32
0.0
 13
1.0
 23
0.0
 33
0.0
 40
0.0
 40
0.0
 40
0.0
 40
0.0
 40
0.05
 40
0.05
 40
0.05
 40
0.05
 40
0.1
 40
0.1
 40
0.1
 40
0.1
 40
0.15
 40
0.15
 40
0.15
 40
0.15
 40
0.2
 40
0.2
 40
0.2
 40
0.2
 40
0.25
 40
0.25
 40
0.25
 40
0.25
 40
0.3
 40
0.3
 40
0.3
 40
0.3
 40
0.35
 40
0.35
 40
0.35
 40
0.35
 40
0.4
 40
0.4
 40
0.4
 40
0.4
 40
0.45
 40
0.45
 40
0.45
 40
0.45
 40
0.5
 40
0.5
 40
0.5
 40
0.5
 40
0.55
 40
0.55
 40
0.55
 40
0.55
 40
0.6
 40
0.6
 40
0.6
 40
0.6
 40
0.65
 40
0.65
 40
0.65
 40
0.65
 40
0.7
 40
0.7
 40
0.7
 40
0.7
 40
0.75
 40
0.75
 40
0.75
 40
0.75
 40
0.8
 40
0.8
 40
0.8
 40
0.8
 40
0.85
 40
0.85
 40
0.85
 40
0.85
 40
0.9
 40
0.9
 40
0.9
 40
0.9
 40
1.0
 40
1.0
 40
1.0
 40
1.0
 10
-135.1744
 20
27.7625
 30
0.0
 10
-129.102
 20
31.3045
 30
0.0
 10
-127.0816
 20
35.0854
 30
0.0
 10
-126.3349
 20
40.1728
 30
0.0
 10
-126.3349
 20
40.1728
 30
0.0
 10
-125.9809
 20
42.2329
 30
0.0
 10
-125.7309
 20
44.277
 30
0.0
 10
-124.0473
 20
45.2775
 30
0.0
 10
-124.0473
 20
45.2775
 30
0.0
 10
-122.453
 20
46.9528
 30
0.0
 10
-118.0263
 20
44.4711
 30
0.0
 10
-116.9087
 20
44.0643
 30
0.0
 10
-116.9087
 20
44.0643
 30
0.0
 10
-112.1655
 20
42.9003
 30
0.0
 10
-108.6452
 20
43.5932
 30
0.0
 10
-104.7312
 20
45.6125
 30
0.0
 10
-104.7312
 20
45.6125
 30
0.0
 10
-103.2466
 20
46.3839
 30
0.0
 10
-101.8459
 20
47.2856
 30
0.0
 10
-100.5536
 20
48.375
 30
0.0
 10
-100.5536
 20
48.375
 30
0.0
 10
-101.74
 20
49.4049
 30
0.0
 10
-103.168
 20
50.2523
 30
0.0
 10
-104.3935
 20
50.9118
 30
0.0
 10
-104.3935
 20
50.9118
 30
0.0
 10
-109.3669
 20
53.5713
 30
0.0
 10
-114.0328
 20
53.9221
 30
0.0
 10
-118.6898
 20
51.9871
 30
0.0
 10
-118.6898
 20
51.9871
 30
0.0
 10
-121.4973
 20
50.8205
 30
0.0
 10
-122.8924
 20
50.6998
 30
0.0
 10
-124.2192
 20
51.5089
 30
0.0
 10
-124.2192
 20
51.5089
 30
0.0
 10
-125.4516
 20
52.2603
 30
0.0
 10
-125.9104
 20
53.2606
 30
0.0
 10
-126.2882
 20
56.0209
 30
0.0
 10
-126.2882
 20
56.0209
 30
0.0
 10
-127.5868
 20
62.1066
 30
0.0
 10
-129.5703
 20
64.987
 30
0.0
 10
-134.0531
 20
67.9458
 30
0.0
 10
-134.0531
 20
67.9458
 30
0.0
 10
-135.9797
 20
69.2109
 30
0.0
 10
-138.1367
 20
70.3897
 30
0.0
 10
-138.6024
 20
70.0463
 30
0.0
 10
-138.6024
 20
70.0463
 30
0.0
 10
-138.7745
 20
68.3398
 30
0.0
 10
-138.8458
 20
66.4841
 30
0.0
 10
-138.7388
 20
64.6934
 30
0.0
 10
-138.7388
 20
64.6934
 30
0.0
 10
-138.4418
 20
59.0257
 30
0.0
 10
-135.5702
 20
55.0821
 30
0.0
 10
-132.1869
 20
52.4002
 30
0.0
 10
-132.1869
 20
52.4002
 30
0.0
 10
-130.0822
 20
50.7464
 30
0.0
 10
-129.4234
 20
49.7766
 30
0.0
 10
-129.425
 20
48.3346
 30
0.0
 10
-129.425
 20
48.3346
 30
0.0
 10
-129.4264
 20
46.9753
 30
0.0
 10
-130.2528
 20
45.818
 30
0.0
 10
-132.504
 20
44.0218
 30
0.0
 10
-132.504
 20
44.0218
 30
0.0
 10
-137.2539
 20
40.2319
 30
0.0
 10
-138.8967
 20
36.5784
 30
0.0
 10
-138.7481
 20
30.1361
 30
0.0
 10
-138.7481
 20
30.1361
 30
0.0
 10
-138.7023
 20
28.1544
 30
0.0
 10
-138.5468
 20
26.6396
 30
0.0
 10
-138.3838
 20
26.5872
 30
0.0
 10
-138.3838
 20
26.5872
 30
0.0
 10
-138.2274
 20
26.5369
 30
0.0
 10
-135.9878
 20
27.3799
 30
0.0
 10
-135.1744
 20
27.7628
 30
0.0
 10
-135.1744
 20
27.7628
 30
0.0
 10
-135.1744
 20
27.7628
 30
0.0
 10
-135.1744
 20
27.7625
 30
0.0
 10
-135.1744
 20
27.7625
 30
0.0
  0
SPLINE
  5
50
330
1F
100
AcDbEntity
  8
layer 1
 62
     7
100
AcDbSpline
210
0.0
220
0.0
230
1.0
 70
    11
 71
     3
 72
    80
 73
    76
 74
     0
 42
0.0000000001
 43
0.0000000001
 12
1.0
 22
0.0
 32
0.0
 13
1.0
 23
0.0
 33
0.0
 40
0.0
 40
0.0
 40
0.0
 40
0.0
 40
0.05
 40
0.05
 40
0.05
 40
0.05
 40
0.1
 40
0.1
 40
0.1
 40
0.1
 40
0.15
 40
0.15
 40
0.15
 40
0.15
 40
0.2
 40
0.2
 40
0.2
 40
0.2
 40
0.25
 40
0.25
 40
0.25
 40
0.25
 40
0.3
 40
0.3
 40
0.3
 40
0.3
 40
0.35
 40
0.35
 40
0.35
 40
0.35
 40
0.4
 40
0.4
 40
0.4
 40
0.4
 40
0.45
 40
0.45
 40
0.45
 40
0.45
 40
0.5
 40
0.5
 40
0.5
 40
0.5
 40
0.55
 40
0.55
 40
0.55
 40
0.55
 40
0.6
 40
0.6
 40
0.6
 40
0.6
 40
0.65
 40
0.65
 40
0.65
 40
0.65
 40
0.7
 40
0.7
 40
0.7
 40
0.7
 40
0.75
 40
0.75
 40
0.75
 40
0.75
 40
0.8
 40
0.8
 40
0.8
 40
0.8
 40
0.85
 40
0.85
 40
0.85
 40
0.85
 40
0.9
 40
0.9
 40
0.9
 40
0.9
 40
1.0
 40
1.0
 40
1.0
 40
1.0
 10
-147.0793
 20
80.5557
 30
0.0
 10
-153.1517
 20
84.0977
 30
0.0
 10
-155.1721
 20
87.8786
 30
0.0
 10
-155.9188
 20
92.966
 30
0.0
 10
-155.9188
 20
92.966
 30
0.0
 10
-156.2728
 20
95.0261
 30
0.0
 10
-156.5228
 20
97.0702
 30
0.0
 10
-158.2064
 20
98.0707
 30
0.0
 10
-158.2064
 20
98.0707
 30
0.0
 10
-159.8007
 20
99.7459
 30
0.0
 10
-164.2274
 20
97.2643
 30
0.0
 10
-165.345
 20
96.8575
 30
0.0
 10
-165.345
 20
96.8575
 30
0.0
 10
-170.0882
 20
95.6935
 30
0.0
 10
-173.6085
 20
96.3863
 30
0.0
 10
-177.5225
 20
98.4057
 30
0.0
 10
-177.5225
 20
98.4057
 30
0.0
 10
-179.0071
 20
99.177
 30
0.0
 10
-180.4078
 20
100.0788
 30
0.0
 10
-181.7001
 20
101.1682
 30
0.0
 10
-181.7001
 20
101.1682
 30
0.0
 10
-180.5137
 20
102.1981
 30
0.0
 10
-179.0857
 20
103.0455
 30
0.0
 10
-177.8602
 20
103.705
 30
0.0
 10
-177.8602
 20
103.705
 30
0.0
 10
-172.8868
 20
106.3644
 30
0.0
 10
-168.2209
 20
106.7153
 30
0.0
 10
-163.5638
 20
104.7802
 30
0.0
 10
-163.5638
 20
104.7802
 30
0.0
 10
-160.7564
 20
103.6137
 30
0.0
 10
-159.3613
 20
103.493
 30
0.0
 10
-158.0345
 20
104.3021
 30
0.0
 10
-158.0345
 20
104.3021
 30
0.0
 10
-156.8021
 20
105.0535
 30
0.0
 10
-156.3433
 20
106.0537
 30
0.0
 10
-155.9655
 20
108.8141
 30
0.0
 10
-155.9655
 20
108.8141
 30
0.0
 10
-154.6669
 20
114.8998
 30
0.0
 10
-152.6834
 20
117.7802
 30
0.0
 10
-148.2006
 20
120.739
 30
0.0
 10
-148.2006
 20
120.739
 30
0.0
 10
-146.274
 20
122.0041
 30
0.0
 10
-144.117
 20
123.1829
 30
0.0
 10
-143.6513
 20
122.8395
 30
0.0
 10
-143.6513
 20
122.8395
 30
0.0
 10
-143.4792
 20
121.133
 30
0.0
 10
-143.4079
 20
119.2773
 30
0.0
 10
-143.5149
 20
117.4866
 30
0.0
 10
-143.5149
 20
117.4866
 30
0.0
 10
-143.8119
 20
111.8189
 30
0.0
 10
-146.6835
 20
107.8753
 30
0.0
 10
-150.0668
 20
105.1934
 30
0.0
 10
-150.0668
 20
105.1934
 30
0.0
 10
-152.1715
 20
103.5395
 30
0.0
 10
-152.8303
 20
102.5698
 30
0.0
 10
-152.8287
 20
101.1278
 30
0.0
 10
-152.8287
 20
101.1278
 30
0.0
 10
-152.8273
 20
99.7685
 30
0.0
 10
-152.0009
 20
98.6111
 30
0.0
 10
-149.7497
 20
96.815
 30
0.0
 10
-149.7497
 20
96.815
 30
0.0
 10
-144.9998
 20
93.0251
 30
0.0
 10
-143.357
 20
89.3716
 30
0.0
 10
-143.5056
 20
82.9293
 30
0.0
 10
-143.5056
 20
82.9293
 30
0.0
 10
-143.5514
 20
80.9476
 30
0.0
 10
-143.7069
 20
79.4327
 30
0.0
 10
-143.8699
 20
79.3804
 30
0.0
 10
-143.8699
 20
79.3804
 30
0.0
 10
-144.0263
 20
79.3301
 30
0.0
 10
-146.2659
 20
80.1731
 30
0.0
 10
-147.0793
 20
80.5559
 30
0.0
 10
-147.0793
 20
80.5559
 30
0.0
 10
-147.0793
 20
80.5559
 30
0.0
 10
-147.0793
 20
80.5557
 30
0.0
 10
-147.0793
 20
80.5557
 30
0.0
  0
SPLINE
  5
51
330
1F
100
AcDbEntity
  8
layer 1
 62
     7
100
AcDbSpline
210
0.0
220
0.0
230
1.0
 70
    11
 71
     3
 72
    80
 73
    76
 74
     0
 42
0.0000000001
 43
0.0000000001
 12
1.0
 22
0.0
 32
0.0
 13
1.0
 23
0.0
 33
0.0
 40
0.0
 40
0.0
 40
0.0
 40
0.0
 40
0.05
 40
0.05
 40
0.05
 40
0.05
 40
0.1
 40
0.1
 40
0.1
 40
0.1
 40
0.15
 40
0.15
 40
0.15
 40
0.15
 40
0.2
 40
0.2
 40
0.2
 40
0.2
 40
0.25
 40
0.25
 40
0.25
 40
0.25
 40
0.3
 40
0.3
 40
0.3
 40
0.3
 40
0.35
 40
0.35
 40
0.35
 40
0.35
 40
0.4
 40
0.4
 40
0.4
 40
0.4
 40
0.45
 40
0.45
 40
0.45
 40
0.45
 40
0.5
 40
0.5
 40
0.5
 40
0.5
 40
0.55
 40
0.55
 40
0.55
 40
0.55
 40
0.6
 40
0.6
 40
0.6
 40
0.6
 40
0.65
 40
0.65
 40
0.65
 40
0.65
 40
0.7
 40
0.7
 40
0.7
 40
0.7
 40
0.75
 40
0.75
 40
0.75
 40
0.75
 40
0.8
 40
0.8
 40
0.8
 40
0.8
 40
0.85
 40
0.85
 40
0.85
 40
0.85
 40
0.9
 40
0.9
 40
0.9
 40
0.9
 40
1.0
 40
1.0
 40
1.0
 40
1.0
 10
-135.1744
 20
80.5557
 30
0.0
 10
-129.102
 20
84.0977
 30
0.0
 10
-127.0816
 20
87.8786
 30
0.0
 10
-126.3349
 20
92.966
 30
0.0
 10
-126.3349
 20
92.966
 30
0.0
 10
-125.9809
 20
95.0261
 30
0.0
 10
-125.7309
 20
97.0702
 30
0.0
 10
-124.0473
 20
98.0707
 30
0.0
 10
-124.0473
 20
98.0707
 30
0.0
 10
-122.453
 20
99.7459
 30
0.0
 10
-118.0263
 20
97.2643
 30
0.0
 10
-116.9087
 20
96.8575
 30
0.0
 10
-116.9087
 20
96.8575
 30
0.0
 10
-112.1655
 20
95.6935
 30
0.0
 10
-108.6452
 20
96.3863
 30
0.0
 10
-104.7312
 20
98.4057
 30
0.0
 10
-104.7312
 20
98.4057
 30
0.0
 10
-103.2466
 20
99.177
 30
0.0
 10
-101.8459
 20
100.0788
 30
0.0
 10
-100.5536
 20
101.1682
 30
0.0
 10
-100.5536
 20
101.1682
 30
0.0
 10
-101.74
 20
102.1981
 30
0.0
 10
-103.168
 20
103.0455
 30
0.0
 10
-104.3935
 20
103.705
 30
0.0
 10
-104.3935
 20
103.705
 30
0.0
 10
-109.3669
 20
106.3644
 30
0.0
 10
-114.0328
 20
106.7153
 30
0.0
 10
-118.6898
 20
104.7802
 30
0.0
 10
-118.6898
 20
104.7802
 30
0.0
 10
-121.4973
 20
103.6137
 30
0.0
 10
-122.8924
 20
103.493
 30
0.0
 10
-124.2192
 20
104.3021
 30
0.0
 10
-124.2192
 20
104.3021
 30
0.0
 10
-125.4516
 20
105.0535
 30
0.0
 10
-125.9104
 20
106.0537
 30
0.0
 10
-126.2882
 20
108.8141
 30
0.0
 10
-126.2882
 20
108.8141
 30
0.0
 10
-127.5868
 20
114.8998
 30
0.0
 10
-129.5703
 20
117.7802
 30
0.0
 10
-134.0531
 20
120.739
 30
0.0
 10
-134.0531
 20
120.739
 30
0.0
 10
-135.9797
 20
122.0041
 30
0.0
 10
-138.1367
 20
123.1829
 30
0.0
 10
-138.6024
 20
122.8395
 30
0.0
 10
-138.6024
 20
122.8395
 30
0.0
 10
-138.7745
 20
121.133
 30
0.0
 10
-138.8458
 20
119.2773
 30
0.0
 10
-138.7388
 20
117.4866
 30
0.0
 10
-138.7388
 20
117.4866
 30
0.0
 10
-138.4418
 20
111.8189
 30
0.0
 10
-135.5702
 20
107.8753
 30
0.0
 10
-132.1869
 20
105.1934
 30
0.0
 10
-132.1869
 20
105.1934
 30
0.0
 10
-130.0822
 20
103.5395
 30
0.0
 10
-129.4234
 20
102.5698
 30
0.0
 10
-129.425
 20
101.1278
 30
0.0
 10
-129.425
 20
101.1278
 30
0.0
 10
-129.4264
 20
99.7685
 30
0.0
 10
-130.2528
 20
98.6111
 30
0.0
 10
-132.504
 20
96.815
 30
0.0
 10
-132.504
 20
96.815
 30
0.0
 10
-137.2539
 20
93.0251
 30
0.0
 10
-138.8967
 20
89.3716
 30
0.0
 10
-138.7481
 20
82.9293
 30
0.0
 10
-138.7481
 20
82.9293
 30
0.0
 10
-138.7023
 20
80.9476
 30
0.0
 10
-138.5468
 20
79.4327
 30
0.0
 10
-138.3838
 20
79.3804
 30
0.0
 10
-138.3838
 20
79.3804
 30
0.0
 10
-138.2274
 20
79.3301
 30
0.0
 10
-135.9878
 20
80.1731
 30
0.0
 10
-135.1744
 20
80.5559
 30
0.0
 10
-135.1744
 20
80.5559
 30
0.0
 10
-135.1744
 20
80.5559
 30
0.0
 10
-135.1744
 20
80.5557
 30
0.0
 10
-135.1744
 20
80.5557
 30
0.0
  0
SPLINE
  5
52
330
1F
100
AcDbEntity
  8
layer 1
 62
     7
100
AcDbSpline
210
0.0
220
0.0
230
1.0
 70
    11
 71
     3
 72
    80
 73
    76
 74
     0
 42
0.0000000001
 43
0.0000000001
 12
1.0
 22
0.0
 32
0.0
 13
1.0
 23
0.0
 33
0.0
 40
0.0
 40
0.0
 40
0.0
 40
0.0
 40
0.05
 40
0.05
 40
0.05
 40
0.05
 40
0.1
 40
0.1
 40
0.1
 40
0.1
 40
0.15
 40
0.15
 40
0.15
 40
0.15
 40
0.2
 40
0.2
 40
0.2
 40
0.2
 40
0.25
 40
0.25
 40
0.25
 40
0.25
 40
0.3
 40
0.3
 40
0.3
 40
0.3
 40
0.35
 40
0.35
 40
0.35
 40
0.35
 40
0.4
 40
0.4
 40
0.4
 40
0.4
 40
0.45
 40
0.45
 40
0.45
 40
0.45
 40
0.5
 40
0.5
 40
0.5
 40
0.5
 40
0.55
 40
0.55
 40
0.55
 40
0.55
 40
0.6
 40
0.6
 40
0.6
 40
0.6
 40
0.65
 40
0.65
 40
0.65
 40
0.65
 40
0.7
 40
0.7
 40
0.7
 40
0.7
 40
0.75
 40
0.75
 40
0.75
 40
0.75
 40
0.8
 40
0.8
 40
0.8
 40
0.8
 40
0.85
 40
0.85
 40
0.85
 40
0.85
 40
0.9
 40
0.9
 40
0.9
 40
0.9
 40
1.0
 40
1.0
 40
1.0
 40
1.0
 10
-101.3614
 20
53.887
 30
0.0
 10
-107.4337
 20
57.4289
 30
0.0
 10
-109.4542
 20
61.2098
 30
0.0
 10
-110.2009
 20
66.2973
 30
0.0
 10
-110.2009
 20
66.2973
 30
0.0
 10
-110.5549
 20
68.3574
 30
0.0
 10
-110.8049
 20
70.4014
 30
0.0
 10
-112.4885
 20
71.402
 30
0.0
 10
-112.4885
 20
71.402
 30
0.0
 10
-114.0828
 20
73.0772
 30
0.0
 10
-118.5095
 20
70.5956
 30
0.0
 10
-119.6271
 20
70.1888
 30
0.0
 10
-119.6271
 20
70.1888
 30
0.0
 10
-124.3703
 20
69.0247
 30
0.0
 10
-127.8906
 20
69.7176
 30
0.0
 10
-131.8046
 20
71.737
 30
0.0
 10
-131.8046
 20
71.737
 30
0.0
 10
-133.2892
 20
72.5083
 30
0.0
 10
-134.6899
 20
73.41
 30
0.0
 10
-135.9822
 20
74.4995
 30
0.0
 10
-135.9822
 20
74.4995
 30
0.0
 10
-134.7958
 20
75.5294
 30
0.0
 10
-133.3678
 20
76.3767
 30
0.0
 10
-132.1423
 20
77.0363
 30
0.0
 10
-132.1423
 20
77.0363
 30
0.0
 10
-127.1689
 20
79.6957
 30
0.0
 10
-122.503
 20
80.0466
 30
0.0
 10
-117.8459
 20
78.1115
 30
0.0
 10
-117.8459
 20
78.1115
 30
0.0
 10
-115.0385
 20
76.945
 30
0.0
 10
-113.6434
 20
76.8243
 30
0.0
 10
-112.3166
 20
77.6333
 30
0.0
 10
-112.3166
 20
77.6333
 30
0.0
 10
-111.0842
 20
78.3848
 30
0.0
 10
-110.6254
 20
79.385
 30
0.0
 10
-110.2476
 20
82.1454
 30
0.0
 10
-110.2476
 20
82.1454
 30
0.0
 10
-108.949
 20
88.2311
 30
0.0
 10
-106.9655
 20
91.1114
 30
0.0
 10
-102.4827
 20
94.0703
 30
0.0
 10
-102.4827
 20
94.0703
 30
0.0
 10
-100.5561
 20
95.3354
 30
0.0
 10
-98.3991
 20
96.5142
 30
0.0
 10
-97.9334
 20
96.1708
 30
0.0
 10
-97.9334
 20
96.1708
 30
0.0
 10
-97.7613
 20
94.4643
 30
0.0
 10
-97.69
 20
92.6085
 30
0.0
 10
-97.797
 20
90.8178
 30
0.0
 10
-97.797
 20
90.8178
 30
0.0
 10
-98.094
 20
85.1501
 30
0.0
 10
-100.9656
 20
81.2066
 30
0.0
 10
-104.3489
 20
78.5247
 30
0.0
 10
-104.3489
 20
78.5247
 30
0.0
 10
-106.4536
 20
76.8708
 30
0.0
 10
-107.1124
 20
75.901
 30
0.0
 10
-107.1108
 20
74.4591
 30
0.0
 10
-107.1108
 20
74.4591
 30
0.0
 10
-107.1094
 20
73.0998
 30
0.0
 10
-106.283
 20
71.9424
 30
0.0
 10
-104.0318
 20
70.1462
 30
0.0
 10
-104.0318
 20
70.1462
 30
0.0
 10
-99.2819
 20
66.3564
 30
0.0
 10
-97.6391
 20
62.7029
 30
0.0
 10
-97.7877
 20
56.2606
 30
0.0
 10
-97.7877
 20
56.2606
 30
0.0
 10
-97.8335
 20
54.2788
 30
0.0
 10
-97.989
 20
52.764
 30
0.0
 10
-98.152
 20
52.7116
 30
0.0
 10
-98.152
 20
52.7116
 30
0.0
 10
-98.3084
 20
52.6613
 30
0.0
 10
-100.548
 20
53.5044
 30
0.0
 10
-101.3614
 20
53.8872
 30
0.0
 10
-101.3614
 20
53.8872
 30
0.0
 10
-101.3614
 20
53.8872
 30
0.0
 10
-101.3614
 20
53.887
 30
0.0
 10
-101.3614
 20
53.887
 30
0.0
  0
SPLINE
  5
53
330
1F
100
AcDbEntity
  8
layer 1
 62
     7
100
AcDbSpline
210
0.0
220
0.0
230
1.0
 70
    11
 71
     3
 72
    80
 73
    76
 74
     0
 42
0.0000000001
 43
0.0000000001
 12
1.0
 22
0.0
 32
0.0
 13
1.0
 23
0.0
 33
0.0
 40
0.0
 40
0.0
 40
0.0
 40
0.0
 40
0.05
 40
0.05
 40
0.05
 40
0.05
 40
0.1
 40
0.1
 40
0.1
 40
0.1
 40
0.15
 40
0.15
 40
0.15
 40
0.15
 40
0.2
 40
0.2
 40
0.2
 40
0.2
 40
0.25
 40
0.25
 40
0.25
 40
0.25
 40
0.3
 40
0.3
 40
0.3
 40
0.3
 40
0.35
 40
0.35
 40
0.35
 40
0.35
 40
0.4
 40
0.4
 40
0.4
 40
0.4
 40
0.45
 40
0.45
 40
0.45
 40
0.45
 40
0.5
 40
0.5
 40
0.5
 40
0.5
 40
0.55
 40
0.55
 40
0.55
 40
0.55
 40
0.6
 40
0.6
 40
0.6
 40
0.6
 40
0.65
 40
0.65
 40
0.65
 40
0.65
 40
0.7
 40
0.7
 40
0.7
 40
0.7
 40
0.75
 40
0.75
 40
0.75
 40
0.75
 40
0.8
 40
0.8
 40
0.8
 40
0.8
 40
0.85
 40
0.85
 40
0.85
 40
0.85
 40
0.9
 40
0.9
 40
0.9
 40
0.9
 40
1.0
 40
1.0
 40
1.0
 40
1.0
 10
-181.1644
 20
54.1591
 30
0.0
 10
-175.092
 20
57.701
 30
0.0
 10
-173.0716
 20
61.4819
 30
0.0
 10
-172.3249
 20
66.5693
 30
0.0
 10
-172.3249
 20
66.5693
 30
0.0
 10
-171.9709
 20
68.6294
 30
0.0
 10
-171.7209
 20
70.6735
 30
0.0
 10
-170.0373
 20
71.6741
 30
0.0
 10
-170.0373
 20
71.6741
 30
0.0
 10
-168.443
 20
73.3493
 30
0.0
 10
-164.0163
 20
70.8677
 30
0.0
 10
-162.8987
 20
70.4609
 30
0.0
 10
-162.8987
 20
70.4609
 30
0.0
 10
-158.1555
 20
69.2968
 30
0.0
 10
-154.6352
 20
69.9897
 30
0.0
 10
-150.7212
 20
72.009
 30
0.0
 10
-150.7212
 20
72.009
 30
0.0
 10
-149.2366
 20
72.7804
 30
0.0
 10
-147.8359
 20
73.6821
 30
0.0
 10
-146.5436
 20
74.7716
 30
0.0
 10
-146.5436
 20
74.7716
 30
0.0
 10
-147.73
 20
75.8015
 30
0.0
 10
-149.158
 20
76.6488
 30
0.0
 10
-150.3835
 20
77.3084
 30
0.0
 10
-150.3835
 20
77.3084
 30
0.0
 10
-155.3569
 20
79.9678
 30
0.0
 10
-160.0228
 20
80.3187
 30
0.0
 10
-164.6798
 20
78.3836
 30
0.0
 10
-164.6798
 20
78.3836
 30
0.0
 10
-167.4873
 20
77.2171
 30
0.0
 10
-168.8824
 20
77.0964
 30
0.0
 10
-170.2092
 20
77.9054
 30
0.0
 10
-170.2092
 20
77.9054
 30
0.0
 10
-171.4416
 20
78.6569
 30
0.0
 10
-171.9004
 20
79.6571
 30
0.0
 10
-172.2782
 20
82.4175
 30
0.0
 10
-172.2782
 20
82.4175
 30
0.0
 10
-173.5768
 20
88.5032
 30
0.0
 10
-175.5603
 20
91.3835
 30
0.0
 10
-180.0431
 20
94.3424
 30
0.0
 10
-180.0431
 20
94.3424
 30
0.0
 10
-181.9697
 20
95.6075
 30
0.0
 10
-184.1267
 20
96.7863
 30
0.0
 10
-184.5924
 20
96.4429
 30
0.0
 10
-184.5924
 20
96.4429
 30
0.0
 10
-184.7645
 20
94.7364
 30
0.0
 10
-184.8358
 20
92.8806
 30
0.0
 10
-184.7288
 20
91.0899
 30
0.0
 10
-184.7288
 20
91.0899
 30
0.0
 10
-184.4318
 20
85.4222
 30
0.0
 10
-181.5602
 20
81.4786
 30
0.0
 10
-178.1769
 20
78.7967
 30
0.0
 10
-178.1769
 20
78.7967
 30
0.0
 10
-176.0722
 20
77.1429
 30
0.0
 10
-175.4134
 20
76.1731
 30
0.0
 10
-175.415
 20
74.7312
 30
0.0
 10
-175.415
 20
74.7312
 30
0.0
 10
-175.4164
 20
73.3719
 30
0.0
 10
-176.2428
 20
72.2145
 30
0.0
 10
-178.494
 20
70.4183
 30
0.0
 10
-178.494
 20
70.4183
 30
0.0
 10
-183.2439
 20
66.6285
 30
0.0
 10
-184.8867
 20
62.9749
 30
0.0
 10
-184.7381
 20
56.5327
 30
0.0
 10
-184.7381
 20
56.5327
 30
0.0
 10
-184.6923
 20
54.5509
 30
0.0
 10
-184.5368
 20
53.0361
 30
0.0
 10
-184.3738
 20
52.9837
 30
0.0
 10
-184.3738
 20
52.9837
 30
0.0
 10
-184.2174
 20
52.9334
 30
0.0
 10
-181.9778
 20
53.7765
 30
0.0
 10
-181.1644
 20
54.1593
 30
0.0
 10
-181.1644
 20
54.1593
 30
0.0
 10
-181.1644
 20
54.1593
 30
0.0
 10
-181.1644
 20
54.1591
 30
0.0
 10
-181.1644
 20
54.1591
 30
0.0
  0
SPLINE
  5
54
330
1F
100
AcDbEntity
  8
layer 1
 62
     7
100
AcDbSpline
210
0.0
220
0.0
230
1.0
 70
    11
 71
     3
 72
    48
 73
    44
 74
     0
 42
0.0000000001
 43
0.0000000001
 12
1.0
 22
0.0
 32
0.0
 13
1.0
 23
0.0
 33
0.0
 40
0.0
 40
0.0
 40
0.0
 40
0.0
 40
0.0833333333333333
 40
0.0833333333333333
 40
0.0833333333333333
 40
0.0833333333333333
 40
0.1666666666666667
 40
0.1666666666666667
 40
0.1666666666666667
 40
0.1666666666666667
 40
0.25
 40
0.25
 40
0.25
 40
0.25
 40
0.3333333333333333
 40
0.3333333333333333
 40
0.3333333333333333
 40
0.3333333333333333
 40
0.4166666666666667
 40
0.4166666666666667
 40
0.4166666666666667
 40
0.4166666666666667
 40
0.5
 40
0.5
 40
0.5
 40
0.5
 40
0.5833333333333334
 40
0.5833333333333334
 40
0.5833333333333334
 40
0.5833333333333334
 40
0.6666666666666666
 40
0.6666666666666666
 40
0.6666666666666666
 40
0.6666666666666666
 40
0.75
 40
0.75
 40
0.75
 40
0.75
 40
0.8333333333333334
 40
0.8333333333333334
 40
0.8333333333333334
 40
0.8333333333333334
 40
1.0
 40
1.0
 40
1.0
 40
1.0
 10
-150.3588
 20
125.3424
 30
0.0
 10
-155.3322
 20
122.683
 30
0.0
 10
-159.998
 20
122.3321
 30
0.0
 10
-164.6551
 20
124.2672
 30
0.0
 10
-164.6551
 20
124.2672
 30
0.0
 10
-167.4626
 20
125.4337
 30
0.0
 10
-168.8577
 20
125.5544
 30
0.0
 10
-170.1845
 20
124.7454
 30
0.0
 10
-170.1845
 20
124.7454
 30
0.0
 10
-171.4169
 20
123.9939
 30
0.0
 10
-171.8756
 20
122.9937
 30
0.0
 10
-172.2535
 20
120.2333
 30
0.0
 10
-172.2535
 20
120.2333
 30
0.0
 10
-173.552
 20
114.1476
 30
0.0
 10
-175.5356
 20
111.2673
 30
0.0
 10
-180.0184
 20
108.3084
 30
0.0
 10
-180.0184
 20
108.3084
 30
0.0
 10
-181.945
 20
107.0433
 30
0.0
 10
-184.102
 20
105.8645
 30
0.0
 10
-184.5677
 20
106.2079
 30
0.0
 10
-184.5677
 20
106.2079
 30
0.0
 10
-184.7398
 20
107.9144
 30
0.0
 10
-184.811
 20
109.7702
 30
0.0
 10
-184.7041
 20
111.5608
 30
0.0
 10
-184.7041
 20
111.5608
 30
0.0
 10
-184.407
 20
117.2286
 30
0.0
 10
-181.5355
 20
121.1721
 30
0.0
 10
-178.1521
 20
123.854
 30
0.0
 10
-178.1521
 20
123.854
 30
0.0
 10
-176.0474
 20
125.5079
 30
0.0
 10
-175.3886
 20
126.4777
 30
0.0
 10
-175.3903
 20
127.9196
 30
0.0
 10
-175.3903
 20
127.9196
 30
0.0
 10
-175.3903
 20
127.9196
 30
0.0
 10
-146.4766
 20
127.8812
 30
0.0
 10
-146.4766
 20
127.8812
 30
0.0
 10
-146.4766
 20
127.8812
 30
0.0
 10
-147.7051
 20
126.8492
 30
0.0
 10
-149.1332
 20
126.0019
 30
0.0
 10
-150.3587
 20
125.3423
 30
0.0
 10
-150.3587
 20
125.3423
 30
0.0
 10
-150.3587
 20
125.3423
 30
0.0
 10
-150.3588
 20
125.3424
 30
0.0
 10
-150.3588
 20
125.3424
 30
0.0
  0
SPLINE
  5
55
330
1F
100
AcDbEntity
  8
layer 1
 62
     7
100
AcDbSpline
210
0.0
220
0.0
230
1.0
 70
    11
 71
     3
 72
    48
 73
    44
 74
     0
 42
0.0000000001
 43
0.0000000001
 12
1.0
 22
0.0
 32
0.0
 13
1.0
 23
0.0
 33
0.0
 40
0.0
 40
0.0
 40
0.0
 40
0.0
 40
0.0833333333333333
 40
0.0833333333333333
 40
0.0833333333333333
 40
0.0833333333333333
 40
0.1666666666666667
 40
0.1666666666666667
 40
0.1666666666666667
 40
0.1666666666666667
 40
0.25
 40
0.25
 40
0.25
 40
0.25
 40
0.3333333333333333
 40
0.3333333333333333
 40
0.3333333333333333
 40
0.3333333333333333
 40
0.4166666666666667
 40
0.4166666666666667
 40
0.4166666666666667
 40
0.4166666666666667
 40
0.5
 40
0.5
 40
0.5
 40
0.5
 40
0.5833333333333334
 40
0.5833333333333334
 40
0.5833333333333334
 40
0.5833333333333334
 40
0.6666666666666666
 40
0.6666666666666666
 40
0.6666666666666666
 40
0.6666666666666666
 40
0.75
 40
0.75
 40
0.75
 40
0.75
 40
0.8333333333333334
 40
0.8333333333333334
 40
0.8333333333333334
 40
0.8333333333333334
 40
1.0
 40
1.0
 40
1.0
 40
1.0
 10
-132.4151
 20
125.3424
 30
0.0
 10
-127.4417
 20
122.683
 30
0.0
 10
-122.7759
 20
122.3321
 30
0.0
 10
-118.1188
 20
124.2672
 30
0.0
 10
-118.1188
 20
124.2672
 30
0.0
 10
-115.3113
 20
125.4337
 30
0.0
 10
-113.9162
 20
125.5544
 30
0.0
 10
-112.5894
 20
124.7454
 30
0.0
 10
-112.5894
 20
124.7454
 30
0.0
 10
-111.357
 20
123.9939
 30
0.0
 10
-110.8983
 20
122.9937
 30
0.0
 10
-110.5204
 20
120.2333
 30
0.0
 10
-110.5204
 20
120.2333
 30
0.0
 10
-109.2219
 20
114.1476
 30
0.0
 10
-107.2383
 20
111.2673
 30
0.0
 10
-102.7555
 20
108.3084
 30
0.0
 10
-102.7555
 20
108.3084
 30
0.0
 10
-100.8289
 20
107.0433
 30
0.0
 10
-98.672
 20
105.8645
 30
0.0
 10
-98.2062
 20
106.2079
 30
0.0
 10
-98.2062
 20
106.2079
 30
0.0
 10
-98.0341
 20
107.9144
 30
0.0
 10
-97.9629
 20
109.7702
 30
0.0
 10
-98.0698
 20
111.5608
 30
0.0
 10
-98.0698
 20
111.5608
 30
0.0
 10
-98.3669
 20
117.2286
 30
0.0
 10
-101.2384
 20
121.1721
 30
0.0
 10
-104.6218
 20
123.854
 30
0.0
 10
-104.6218
 20
123.854
 30
0.0
 10
-106.7265
 20
125.5079
 30
0.0
 10
-107.3853
 20
126.4777
 30
0.0
 10
-107.3837
 20
127.9196
 30
0.0
 10
-107.3837
 20
127.9196
 30
0.0
 10
-107.3837
 20
127.9196
 30
0.0
 10
-136.2973
 20
127.8812
 30
0.0
 10
-136.2973
 20
127.8812
 30
0.0
 10
-136.2973
 20
127.8812
 30
0.0
 10
-135.0688
 20
126.8492
 30
0.0
 10
-133.6408
 20
126.0019
 30
0.0
 10
-132.4152
 20
125.3423
 30
0.0
 10
-132.4152
 20
125.3423
 30
0.0
 10
-132.4152
 20
125.3423
 30
0.0
 10
-132.4151
 20
125.3424
 30
0.0
 10
-132.4151
 20
125.3424
 30
0.0
  0
LWPOLYLINE
  5
56
330
1F
100
AcDbEntity
  8
layer 1
100
AcDbPolyline
 90
        5
 70
     1
 43
0.0
 10
-89.4781
 20
-69.865
 10
5.0573
 20
-69.865
 10
5.0573
 20
90.3012
 10
-89.4781
 20
90.3012
 10
-89.4781
 20
-69.865
  0
SPLINE
  5
57
330
1F
100
AcDbEntity
  8
layer 1
 62
     7
100
AcDbSpline
210
0.0
220
0.0
230
1.0
 70
    11
 71
     3
 72
    20
 73
    16
 74
     0
 42
0.0000000001
 43
0.0000000001
 12
1.0
 22
0.0
 32
0.0
 13
1.0
 23
0.0
 33
0.0
 40
0.0
 40
0.0
 40
0.0
 40
0.0
 40
0.2
 40
0.2
 40
0.2
 40
0.2
 40
0.4
 40
0.4
 40
0.4
 40
0.4
 40
0.6
 40
0.6
 40
0.6
 40
0.6
 40
1.0
 40
1.0
 40
1.0
 40
1.0
 10
-33.1778
 20
58.9236
 30
0.0
 10
-33.1778
 20
53.9533
 30
0.0
 10
-37.2186
 20
49.9241
 30
0.0
 10
-42.2032
 20
49.9241
 30
0.0
 10
-42.2032
 20
49.9241
 30
0.0
 10
-47.1877
 20
49.9241
 30
0.0
 10
-51.2287
 20
53.9533
 30
0.0
 10
-51.2287
 20
58.9236
 30
0.0
 10
-51.2287
 20
58.9236
 30
0.0
 10
-51.2287
 20
63.8937
 30
0.0
 10
-47.1879
 20
67.9229
 30
0.0
 10
-42.2032
 20
67.9229
 30
0.0
 10
-42.2032
 20
67.9229
 30
0.0
 10
-37.2186
 20
67.9229
 30
0.0
 10
-33.1778
 20
63.8937
 30
0.0
 10
-33.1778
 20
58.9236
 30
0.0
  0
SPLINE
  5
58
330
1F
100
AcDbEntity
  8
layer 1
 62
     7
100
AcDbSpline
210
0.0
220
0.0
230
1.0
 70
    11
 71
     3
 72
    20
 73
    16
 74
     0
 42
0.0000000001
 43
0.0000000001
 12
1.0
 22
0.0
 32
0.0
 13
1.0
 23
0.0
 33
0.0
 40
0.0
 40
0.0
 40
0.0
 40
0.0
 40
0.2
 40
0.2
 40
0.2
 40
0.2
 40
0.4
 40
0.4
 40
0.4
 40
0.4
 40
0.6
 40
0.6
 40
0.6
 40
0.6
 40
1.0
 40
1.0
 40
1.0
 40
1.0
 10
-53.4665
 20
67.8418
 30
0.0
 10
-58.7528
 20
62.7992
 30
0.0
 10
-61.1356
 20
61.634
 30
0.0
 10
-65.0089
 20
58.9214
 30
0.0
 10
-65.0089
 20
58.9214
 30
0.0
 10
-61.1356
 20
56.2089
 30
0.0
 10
-58.7531
 20
55.0435
 30
0.0
 10
-53.4665
 20
50.001
 30
0.0
 10
-53.4665
 20
50.001
 30
0.0
 10
-55.5745
 20
52.4521
 30
0.0
 10
-56.7245
 20
55.6717
 30
0.0
 10
-56.7746
 20
58.9214
 30
0.0
 10
-56.7746
 20
58.9214
 30
0.0
 10
-56.7245
 20
62.1714
 30
0.0
 10
-55.5745
 20
65.3908
 30
0.0
 10
-53.4665
 20
67.8418
 30
0.0
  0
SPLINE
  5
59
330
1F
100
AcDbEntity
  8
layer 1
 62
     7
100
AcDbSpline
210
0.0
220
0.0
230
1.0
 70
    11
 71
     3
 72
    20
 73
    16
 74
     0
 42
0.0000000001
 43
0.0000000001
 12
1.0
 22
0.0
 32
0.0
 13
1.0
 23
0.0
 33
0.0
 40
0.0
 40
0.0
 40
0.0
 40
0.0
 40
0.2
 40
0.2
 40
0.2
 40
0.2
 40
0.4
 40
0.4
 40
0.4
 40
0.4
 40
0.6
 40
0.6
 40
0.6
 40
0.6
 40
1.0
 40
1.0
 40
1.0
 40
1.0
 10
-35.1968
 20
71.4858
 30
0.0
 10
-37.9713
 20
74.1066
 30
0.0
 10
-40.3398
 20
76.6947
 30
0.0
 10
-42.2118
 20
78.9281
 30
0.0
 10
-42.2118
 20
78.9281
 30
0.0
 10
-44.1714
 20
76.6655
 30
0.0
 10
-46.423
 20
74.1066
 30
0.0
 10
-49.1977
 20
71.4858
 30
0.0
 10
-49.1977
 20
71.4858
 30
0.0
 10
-44.6491
 20
74.1322
 30
0.0
 10
-38.9179
 20
73.8468
 30
0.0
 10
-35.197
 20
71.4858
 30
0.0
 10
-35.197
 20
71.4858
 30
0.0
 10
-35.197
 20
71.4858
 30
0.0
 10
-35.1968
 20
71.4858
 30
0.0
 10
-35.1968
 20
71.4858
 30
0.0
  0
SPLINE
  5
5A
330
1F
100
AcDbEntity
  8
layer 1
 62
     7
100
AcDbSpline
210
0.0
220
0.0
230
1.0
 70
    11
 71
     3
 72
    36
 73
    32
 74
     0
 42
0.0000000001
 43
0.0000000001
 12
1.0
 22
0.0
 32
0.0
 13
1.0
 23
0.0
 33
0.0
 40
0.0
 40
0.0
 40
0.0
 40
0.0
 40
0.1111111111111111
 40
0.1111111111111111
 40
0.1111111111111111
 40
0.1111111111111111
 40
0.2222222222222222
 40
0.2222222222222222
 40
0.2222222222222222
 40
0.2222222222222222
 40
0.3333333333333333
 40
0.3333333333333333
 40
0.3333333333333333
 40
0.3333333333333333
 40
0.4444444444444444
 40
0.4444444444444444
 40
0.4444444444444444
 40
0.4444444444444444
 40
0.5555555555555556
 40
0.5555555555555556
 40
0.5555555555555556
 40
0.5555555555555556
 40
0.6666666666666666
 40
0.6666666666666666
 40
0.6666666666666666
 40
0.6666666666666666
 40
0.7777777777777778
 40
0.7777777777777778
 40
0.7777777777777778
 40
0.7777777777777778
 40
1.0
 40
1.0
 40
1.0
 40
1.0
 10
-44.293
 20
83.5814
 30
0.0
 10
-47.8509
 20
79.4347
 30
0.0
 10
-60.9592
 20
67.0595
 30
0.0
 10
-66.5232
 20
64.7564
 30
0.0
 10
-66.5232
 20
64.7564
 30
0.0
 10
-67.3468
 20
68.5494
 30
0.0
 10
-73.3296
 20
68.2681
 30
0.0
 10
-73.9735
 20
64.3306
 30
0.0
 10
-73.9735
 20
64.3306
 30
0.0
 10
-86.3711
 20
68.7438
 30
0.0
 10
-76.1794
 20
85.0455
 30
0.0
 10
-71.8682
 20
78.6951
 30
0.0
 10
-71.8682
 20
78.6951
 30
0.0
 10
-78.5045
 20
74.1194
 30
0.0
 10
-71.349
 20
67.0163
 30
0.0
 10
-66.4385
 20
74.2536
 30
0.0
 10
-66.4385
 20
74.2536
 30
0.0
 10
-66.0347
 20
75.0272
 30
0.0
 10
-64.9682
 20
75.0234
 30
0.0
 10
-64.7376
 20
74.309
 30
0.0
 10
-64.7376
 20
74.309
 30
0.0
 10
-63.3
 20
70.1599
 30
0.0
 10
-56.6661
 20
72.7308
 30
0.0
 10
-58.4677
 20
79.2576
 30
0.0
 10
-58.4677
 20
79.2576
 30
0.0
 10
-55.1796
 20
78.9035
 30
0.0
 10
-51.5802
 20
80.5895
 30
0.0
 10
-49.7222
 20
83.5817
 30
0.0
 10
-49.7222
 20
83.5817
 30
0.0
 10
-49.7222
 20
83.5817
 30
0.0
 10
-44.293
 20
83.5814
 30
0.0
 10
-44.293
 20
83.5814
 30
0.0
  0
SPLINE
  5
5B
330
1F
100
AcDbEntity
  8
layer 1
 62
     7
100
AcDbSpline
210
0.0
220
0.0
230
1.0
 70
    11
 71
     3
 72
    36
 73
    32
 74
     0
 42
0.0000000001
 43
0.0000000001
 12
1.0
 22
0.0
 32
0.0
 13
1.0
 23
0.0
 33
0.0
 40
0.0
 40
0.0
 40
0.0
 40
0.0
 40
0.1111111111111111
 40
0.1111111111111111
 40
0.1111111111111111
 40
0.1111111111111111
 40
0.2222222222222222
 40
0.2222222222222222
 40
0.2222222222222222
 40
0.2222222222222222
 40
0.3333333333333333
 40
0.3333333333333333
 40
0.3333333333333333
 40
0.3333333333333333
 40
0.4444444444444444
 40
0.4444444444444444
 40
0.4444444444444444
 40
0.4444444444444444
 40
0.5555555555555556
 40
0.5555555555555556
 40
0.5555555555555556
 40
0.5555555555555556
 40
0.6666666666666666
 40
0.6666666666666666
 40
0.6666666666666666
 40
0.6666666666666666
 40
0.7777777777777778
 40
0.7777777777777778
 40
0.7777777777777778
 40
0.7777777777777778
 40
1.0
 40
1.0
 40
1.0
 40
1.0
 10
-40.788
 20
83.4123
 30
0.0
 10
-37.2302
 20
79.2656
 30
0.0
 10
-24.1218
 20
66.8904
 30
0.0
 10
-18.5578
 20
64.5872
 30
0.0
 10
-18.5578
 20
64.5872
 30
0.0
 10
-17.7342
 20
68.3803
 30
0.0
 10
-11.7515
 20
68.099
 30
0.0
 10
-11.1076
 20
64.1614
 30
0.0
 10
-11.1076
 20
64.1614
 30
0.0
 10
1.2901
 20
68.5747
 30
0.0
 10
-8.9017
 20
84.8764
 30
0.0
 10
-13.2129
 20
78.5259
 30
0.0
 10
-13.2129
 20
78.5259
 30
0.0
 10
-6.5766
 20
73.9503
 30
0.0
 10
-13.732
 20
66.8472
 30
0.0
 10
-18.6425
 20
74.0844
 30
0.0
 10
-18.6425
 20
74.0844
 30
0.0
 10
-19.0464
 20
74.8581
 30
0.0
 10
-20.1129
 20
74.8542
 30
0.0
 10
-20.3435
 20
74.1399
 30
0.0
 10
-20.3435
 20
74.1399
 30
0.0
 10
-21.7811
 20
69.9908
 30
0.0
 10
-28.415
 20
72.5617
 30
0.0
 10
-26.6134
 20
79.0885
 30
0.0
 10
-26.6134
 20
79.0885
 30
0.0
 10
-29.9015
 20
78.7344
 30
0.0
 10
-33.5008
 20
80.4204
 30
0.0
 10
-35.3589
 20
83.4125
 30
0.0
 10
-35.3589
 20
83.4125
 30
0.0
 10
-35.3589
 20
83.4125
 30
0.0
 10
-40.788
 20
83.4123
 30
0.0
 10
-40.788
 20
83.4123
 30
0.0
  0
SPLINE
  5
5C
330
1F
100
AcDbEntity
  8
layer 1
 62
     7
100
AcDbSpline
210
0.0
220
0.0
230
1.0
 70
    11
 71
     3
 72
    16
 73
    12
 74
     0
 42
0.0000000001
 43
0.0000000001
 12
1.0
 22
0.0
 32
0.0
 13
1.0
 23
0.0
 33
0.0
 40
0.0
 40
0.0
 40
0.0
 40
0.0
 40
0.25
 40
0.25
 40
0.25
 40
0.25
 40
0.5
 40
0.5
 40
0.5
 40
0.5
 40
1.0
 40
1.0
 40
1.0
 40
1.0
 10
-75.6154
 20
83.4123
 30
0.0
 10
-75.6154
 20
83.4123
 30
0.0
 10
-83.436
 20
83.4123
 30
0.0
 10
-83.436
 20
83.4123
 30
0.0
 10
-83.436
 20
83.4123
 30
0.0
 10
-83.436
 20
83.4123
 30
0.0
 10
-83.4924
 20
76.1121
 30
0.0
 10
-83.4924
 20
76.1121
 30
0.0
 10
-83.4924
 20
76.1121
 30
0.0
 10
-82.4802
 20
79.4325
 30
0.0
 10
-79.7194
 20
82.7344
 30
0.0
 10
-75.6154
 20
83.4123
 30
0.0
  0
SPLINE
  5
5D
330
1F
100
AcDbEntity
  8
layer 1
 62
     7
100
AcDbSpline
210
0.0
220
0.0
230
1.0
 70
    11
 71
     3
 72
    20
 73
    16
 74
     0
 42
0.0000000001
 43
0.0000000001
 12
1.0
 22
0.0
 32
0.0
 13
1.0
 23
0.0
 33
0.0
 40
0.0
 40
0.0
 40
0.0
 40
0.0
 40
0.2
 40
0.2
 40
0.2
 40
0.2
 40
0.4
 40
0.4
 40
0.4
 40
0.4
 40
0.6
 40
0.6
 40
0.6
 40
0.6
 40
1.0
 40
1.0
 40
1.0
 40
1.0
 10
-83.4924
 20
51.084
 30
0.0
 10
-83.4516
 20
56.3088
 30
0.0
 10
-83.4729
 20
61.5334
 30
0.0
 10
-83.4924
 20
66.7582
 30
0.0
 10
-83.4924
 20
66.7582
 30
0.0
 10
-82.525
 20
63.6167
 30
0.0
 10
-78.0141
 20
59.5764
 30
0.0
 10
-74.2244
 20
58.921
 30
0.0
 10
-74.2244
 20
58.921
 30
0.0
 10
-78.0141
 20
58.2655
 30
0.0
 10
-82.525
 20
54.2254
 30
0.0
 10
-83.4924
 20
51.0837
 30
0.0
 10
-83.4924
 20
51.0837
 30
0.0
 10
-83.4924
 20
51.0837
 30
0.0
 10
-83.4924
 20
51.084
 30
0.0
 10
-83.4924
 20
51.084
 30
0.0
  0
SPLINE
  5
5E
330
1F
100
AcDbEntity
  8
layer 1
 62
     7
100
AcDbSpline
210
0.0
220
0.0
230
1.0
 70
    11
 71
     3
 72
    16
 73
    12
 74
     0
 42
0.0000000001
 43
0.0000000001
 12
1.0
 22
0.0
 32
0.0
 13
1.0
 23
0.0
 33
0.0
 40
0.0
 40
0.0
 40
0.0
 40
0.0
 40
0.25
 40
0.25
 40
0.25
 40
0.25
 40
0.5
 40
0.5
 40
0.5
 40
0.5
 40
1.0
 40
1.0
 40
1.0
 40
1.0
 10
-8.6698
 20
83.4123
 30
0.0
 10
-8.6698
 20
83.4123
 30
0.0
 10
-0.8493
 20
83.4123
 30
0.0
 10
-0.8493
 20
83.4123
 30
0.0
 10
-0.8493
 20
83.4123
 30
0.0
 10
-0.8493
 20
83.4123
 30
0.0
 10
-0.7928
 20
76.1121
 30
0.0
 10
-0.7928
 20
76.1121
 30
0.0
 10
-0.7928
 20
76.1121
 30
0.0
 10
-1.8051
 20
79.4325
 30
0.0
 10
-4.5658
 20
82.7344
 30
0.0
 10
-8.6698
 20
83.4123
 30
0.0
  0
SPLINE
  5
5F
330
1F
100
AcDbEntity
  8
layer 1
 62
     7
100
AcDbSpline
210
0.0
220
0.0
230
1.0
 70
    11
 71
     3
 72
    20
 73
    16
 74
     0
 42
0.0000000001
 43
0.0000000001
 12
1.0
 22
0.0
 32
0.0
 13
1.0
 23
0.0
 33
0.0
 40
0.0
 40
0.0
 40
0.0
 40
0.0
 40
0.2
 40
0.2
 40
0.2
 40
0.2
 40
0.4
 40
0.4
 40
0.4
 40
0.4
 40
0.6
 40
0.6
 40
0.6
 40
0.6
 40
1.0
 40
1.0
 40
1.0
 40
1.0
 10
-0.8268
 20
51.084
 30
0.0
 10
-0.8676
 20
56.3088
 30
0.0
 10
-0.8464
 20
61.5334
 30
0.0
 10
-0.8268
 20
66.7582
 30
0.0
 10
-0.8268
 20
66.7582
 30
0.0
 10
-1.7942
 20
63.6167
 30
0.0
 10
-6.3052
 20
59.5764
 30
0.0
 10
-10.0948
 20
58.921
 30
0.0
 10
-10.0948
 20
58.921
 30
0.0
 10
-6.3049
 20
58.2655
 30
0.0
 10
-1.7942
 20
54.2254
 30
0.0
 10
-0.8268
 20
51.0837
 30
0.0
 10
-0.8268
 20
51.0837
 30
0.0
 10
-0.8268
 20
51.0837
 30
0.0
 10
-0.8268
 20
51.084
 30
0.0
 10
-0.8268
 20
51.084
 30
0.0
  0
SPLINE
  5
60
330
1F
100
AcDbEntity
  8
layer 1
 62
     7
100
AcDbSpline
210
0.0
220
0.0
230
1.0
 70
    11
 71
     3
 72
    20
 73
    16
 74
     0
 42
0.0000000001
 43
0.0000000001
 12
1.0
 22
0.0
 32
0.0
 13
1.0
 23
0.0
 33
0.0
 40
0.0
 40
0.0
 40
0.0
 40
0.0
 40
0.2
 40
0.2
 40
0.2
 40
0.2
 40
0.4
 40
0.4
 40
0.4
 40
0.4
 40
0.6
 40
0.6
 40
0.6
 40
0.6
 40
1.0
 40
1.0
 40
1.0
 40
1.0
 10
-30.8042
 20
67.8418
 30
0.0
 10
-25.5179
 20
62.7992
 30
0.0
 10
-23.1352
 20
61.634
 30
0.0
 10
-19.2618
 20
58.9214
 30
0.0
 10
-19.2618
 20
58.9214
 30
0.0
 10
-23.1352
 20
56.2089
 30
0.0
 10
-25.5177
 20
55.0435
 30
0.0
 10
-30.8042
 20
50.001
 30
0.0
 10
-30.8042
 20
50.001
 30
0.0
 10
-28.6963
 20
52.4521
 30
0.0
 10
-27.5463
 20
55.6717
 30
0.0
 10
-27.4961
 20
58.9214
 30
0.0
 10
-27.4961
 20
58.9214
 30
0.0
 10
-27.5463
 20
62.1714
 30
0.0
 10
-28.6963
 20
65.3908
 30
0.0
 10
-30.8042
 20
67.8418
 30
0.0
  0
SPLINE
  5
61
330
1F
100
AcDbEntity
  8
layer 1
 62
     7
100
AcDbSpline
210
0.0
220
0.0
230
1.0
 70
    11
 71
     3
 72
    20
 73
    16
 74
     0
 42
0.0000000001
 43
0.0000000001
 12
1.0
 22
0.0
 32
0.0
 13
1.0
 23
0.0
 33
0.0
 40
0.0
 40
0.0
 40
0.0
 40
0.0
 40
0.2
 40
0.2
 40
0.2
 40
0.2
 40
0.4
 40
0.4
 40
0.4
 40
0.4
 40
0.6
 40
0.6
 40
0.6
 40
0.6
 40
1.0
 40
1.0
 40
1.0
 40
1.0
 10
-35.1968
 20
46.421
 30
0.0
 10
-37.9713
 20
43.8002
 30
0.0
 10
-40.3398
 20
41.2121
 30
0.0
 10
-42.2118
 20
38.9787
 30
0.0
 10
-42.2118
 20
38.9787
 30
0.0
 10
-44.1714
 20
41.2413
 30
0.0
 10
-46.423
 20
43.8004
 30
0.0
 10
-49.1977
 20
46.421
 30
0.0
 10
-49.1977
 20
46.421
 30
0.0
 10
-44.6491
 20
43.7746
 30
0.0
 10
-38.9179
 20
44.06
 30
0.0
 10
-35.197
 20
46.421
 30
0.0
 10
-35.197
 20
46.421
 30
0.0
 10
-35.197
 20
46.421
 30
0.0
 10
-35.1968
 20
46.421
 30
0.0
 10
-35.1968
 20
46.421
 30
0.0
  0
SPLINE
  5
62
330
1F
100
AcDbEntity
  8
layer 1
 62
     7
100
AcDbSpline
210
0.0
220
0.0
230
1.0
 70
    11
 71
     3
 72
    64
 73
    60
 74
     0
 42
0.0000000001
 43
0.0000000001
 12
1.0
 22
0.0
 32
0.0
 13
1.0
 23
0.0
 33
0.0
 40
0.0
 40
0.0
 40
0.0
 40
0.0
 40
0.0625
 40
0.0625
 40
0.0625
 40
0.0625
 40
0.125
 40
0.125
 40
0.125
 40
0.125
 40
0.1875
 40
0.1875
 40
0.1875
 40
0.1875
 40
0.25
 40
0.25
 40
0.25
 40
0.25
 40
0.3125
 40
0.3125
 40
0.3125
 40
0.3125
 40
0.375
 40
0.375
 40
0.375
 40
0.375
 40
0.4375
 40
0.4375
 40
0.4375
 40
0.4375
 40
0.5
 40
0.5
 40
0.5
 40
0.5
 40
0.5625
 40
0.5625
 40
0.5625
 40
0.5625
 40
0.625
 40
0.625
 40
0.625
 40
0.625
 40
0.6875
 40
0.6875
 40
0.6875
 40
0.6875
 40
0.75
 40
0.75
 40
0.75
 40
0.75
 40
0.8125
 40
0.8125
 40
0.8125
 40
0.8125
 40
0.875
 40
0.875
 40
0.875
 40
0.875
 40
1.0
 40
1.0
 40
1.0
 40
1.0
 10
-66.0058
 20
16.1034
 30
0.0
 10
-66.8294
 20
19.8965
 30
0.0
 10
-72.8122
 20
19.6152
 30
0.0
 10
-73.456
 20
15.6776
 30
0.0
 10
-73.456
 20
15.6776
 30
0.0
 10
-85.8537
 20
20.0909
 30
0.0
 10
-75.6619
 20
36.3926
 30
0.0
 10
-71.3507
 20
30.0421
 30
0.0
 10
-71.3507
 20
30.0421
 30
0.0
 10
-77.987
 20
25.4665
 30
0.0
 10
-70.8316
 20
18.3634
 30
0.0
 10
-65.9211
 20
25.6006
 30
0.0
 10
-65.9211
 20
25.6006
 30
0.0
 10
-65.5172
 20
26.3743
 30
0.0
 10
-64.4507
 20
26.3704
 30
0.0
 10
-64.2201
 20
25.6561
 30
0.0
 10
-64.2201
 20
25.6561
 30
0.0
 10
-62.7825
 20
21.507
 30
0.0
 10
-56.1486
 20
24.0779
 30
0.0
 10
-57.9502
 20
30.6047
 30
0.0
 10
-57.9502
 20
30.6047
 30
0.0
 10
-54.6621
 20
30.2506
 30
0.0
 10
-51.0628
 20
31.9366
 30
0.0
 10
-49.2047
 20
34.88
 30
0.0
 10
-49.2047
 20
34.88
 30
0.0
 10
-51.0628
 20
37.8236
 30
0.0
 10
-54.6621
 20
39.5097
 30
0.0
 10
-57.9502
 20
39.1555
 30
0.0
 10
-57.9502
 20
39.1555
 30
0.0
 10
-56.1486
 20
45.6823
 30
0.0
 10
-62.7825
 20
48.2535
 30
0.0
 10
-64.2201
 20
44.1041
 30
0.0
 10
-64.2201
 20
44.1041
 30
0.0
 10
-64.4507
 20
43.3898
 30
0.0
 10
-65.5172
 20
43.3859
 30
0.0
 10
-65.9211
 20
44.1596
 30
0.0
 10
-65.9211
 20
44.1596
 30
0.0
 10
-70.8313
 20
51.3969
 30
0.0
 10
-77.987
 20
44.2937
 30
0.0
 10
-71.3507
 20
39.7181
 30
0.0
 10
-71.3507
 20
39.7181
 30
0.0
 10
-75.6622
 20
33.3677
 30
0.0
 10
-85.8537
 20
49.6696
 30
0.0
 10
-73.456
 20
54.0826
 30
0.0
 10
-73.456
 20
54.0826
 30
0.0
 10
-72.8119
 20
50.1448
 30
0.0
 10
-66.8294
 20
49.8638
 30
0.0
 10
-66.0058
 20
53.6568
 30
0.0
 10
-66.0058
 20
53.6568
 30
0.0
 10
-60.4418
 20
51.3539
 30
0.0
 10
-47.3334
 20
38.9785
 30
0.0
 10
-43.7756
 20
34.88
 30
0.0
 10
-43.7756
 20
34.88
 30
0.0
 10
-47.3334
 20
30.7815
 30
0.0
 10
-60.4418
 20
18.4061
 30
0.0
 10
-66.0058
 20
16.1032
 30
0.0
 10
-66.0058
 20
16.1032
 30
0.0
 10
-66.0058
 20
16.1032
 30
0.0
 10
-66.0058
 20
16.1034
 30
0.0
 10
-66.0058
 20
16.1034
 30
0.0
  0
SPLINE
  5
63
330
1F
100
AcDbEntity
  8
layer 1
 62
     7
100
AcDbSpline
210
0.0
220
0.0
230
1.0
 70
    11
 71
     3
 72
    64
 73
    60
 74
     0
 42
0.0000000001
 43
0.0000000001
 12
1.0
 22
0.0
 32
0.0
 13
1.0
 23
0.0
 33
0.0
 40
0.0
 40
0.0
 40
0.0
 40
0.0
 40
0.0625
 40
0.0625
 40
0.0625
 40
0.0625
 40
0.125
 40
0.125
 40
0.125
 40
0.125
 40
0.1875
 40
0.1875
 40
0.1875
 40
0.1875
 40
0.25
 40
0.25
 40
0.25
 40
0.25
 40
0.3125
 40
0.3125
 40
0.3125
 40
0.3125
 40
0.375
 40
0.375
 40
0.375
 40
0.375
 40
0.4375
 40
0.4375
 40
0.4375
 40
0.4375
 40
0.5
 40
0.5
 40
0.5
 40
0.5
 40
0.5625
 40
0.5625
 40
0.5625
 40
0.5625
 40
0.625
 40
0.625
 40
0.625
 40
0.625
 40
0.6875
 40
0.6875
 40
0.6875
 40
0.6875
 40
0.75
 40
0.75
 40
0.75
 40
0.75
 40
0.8125
 40
0.8125
 40
0.8125
 40
0.8125
 40
0.875
 40
0.875
 40
0.875
 40
0.875
 40
1.0
 40
1.0
 40
1.0
 40
1.0
 10
-26.6134
 20
30.6047
 30
0.0
 10
-28.415
 20
24.0779
 30
0.0
 10
-21.7811
 20
21.5068
 30
0.0
 10
-20.3435
 20
25.6561
 30
0.0
 10
-20.3435
 20
25.6561
 30
0.0
 10
-20.1129
 20
26.3704
 30
0.0
 10
-19.0464
 20
26.3743
 30
0.0
 10
-18.6425
 20
25.6006
 30
0.0
 10
-18.6425
 20
25.6006
 30
0.0
 10
-13.7323
 20
18.3634
 30
0.0
 10
-6.5766
 20
25.4665
 30
0.0
 10
-13.2129
 20
30.0421
 30
0.0
 10
-13.2129
 20
30.0421
 30
0.0
 10
-8.9014
 20
36.3926
 30
0.0
 10
1.2901
 20
20.0907
 30
0.0
 10
-11.1076
 20
15.6776
 30
0.0
 10
-11.1076
 20
15.6776
 30
0.0
 10
-11.7517
 20
19.6154
 30
0.0
 10
-17.7342
 20
19.8965
 30
0.0
 10
-18.5578
 20
16.1034
 30
0.0
 10
-18.5578
 20
16.1034
 30
0.0
 10
-24.1218
 20
18.4063
 30
0.0
 10
-37.2302
 20
30.7818
 30
0.0
 10
-40.788
 20
34.8802
 30
0.0
 10
-40.788
 20
34.8802
 30
0.0
 10
-37.2302
 20
38.9787
 30
0.0
 10
-24.1218
 20
51.3542
 30
0.0
 10
-18.5578
 20
53.6571
 30
0.0
 10
-18.5578
 20
53.6571
 30
0.0
 10
-17.7342
 20
49.864
 30
0.0
 10
-11.7515
 20
50.1453
 30
0.0
 10
-11.1076
 20
54.0829
 30
0.0
 10
-11.1076
 20
54.0829
 30
0.0
 10
1.2901
 20
49.6696
 30
0.0
 10
-8.9017
 20
33.3679
 30
0.0
 10
-13.2129
 20
39.7184
 30
0.0
 10
-13.2129
 20
39.7184
 30
0.0
 10
-6.5766
 20
44.294
 30
0.0
 10
-13.732
 20
51.3971
 30
0.0
 10
-18.6425
 20
44.1599
 30
0.0
 10
-18.6425
 20
44.1599
 30
0.0
 10
-19.0464
 20
43.3862
 30
0.0
 10
-20.1129
 20
43.39
 30
0.0
 10
-20.3435
 20
44.1044
 30
0.0
 10
-20.3435
 20
44.1044
 30
0.0
 10
-21.7811
 20
48.2535
 30
0.0
 10
-28.415
 20
45.6826
 30
0.0
 10
-26.6134
 20
39.1558
 30
0.0
 10
-26.6134
 20
39.1558
 30
0.0
 10
-29.9015
 20
39.5099
 30
0.0
 10
-33.5008
 20
37.8239
 30
0.0
 10
-35.3589
 20
34.8802
 30
0.0
 10
-35.3589
 20
34.8802
 30
0.0
 10
-33.5008
 20
31.9366
 30
0.0
 10
-29.9015
 20
30.2506
 30
0.0
 10
-26.6134
 20
30.605
 30
0.0
 10
-26.6134
 20
30.605
 30
0.0
 10
-26.6134
 20
30.605
 30
0.0
 10
-26.6134
 20
30.6047
 30
0.0
 10
-26.6134
 20
30.6047
 30
0.0
  0
SPLINE
  5
64
330
1F
100
AcDbEntity
  8
layer 1
 62
     7
100
AcDbSpline
210
0.0
220
0.0
230
1.0
 70
    11
 71
     3
 72
    20
 73
    16
 74
     0
 42
0.0000000001
 43
0.0000000001
 12
1.0
 22
0.0
 32
0.0
 13
1.0
 23
0.0
 33
0.0
 40
0.0
 40
0.0
 40
0.0
 40
0.0
 40
0.2
 40
0.2
 40
0.2
 40
0.2
 40
0.4
 40
0.4
 40
0.4
 40
0.4
 40
0.6
 40
0.6
 40
0.6
 40
0.6
 40
1.0
 40
1.0
 40
1.0
 40
1.0
 10
-33.1778
 20
10.1404
 30
0.0
 10
-33.1778
 20
5.1701
 30
0.0
 10
-37.2186
 20
1.1409
 30
0.0
 10
-42.2032
 20
1.1409
 30
0.0
 10
-42.2032
 20
1.1409
 30
0.0
 10
-47.1877
 20
1.1409
 30
0.0
 10
-51.2287
 20
5.1701
 30
0.0
 10
-51.2287
 20
10.1404
 30
0.0
 10
-51.2287
 20
10.1404
 30
0.0
 10
-51.2287
 20
15.1105
 30
0.0
 10
-47.1879
 20
19.1397
 30
0.0
 10
-42.2032
 20
19.1397
 30
0.0
 10
-42.2032
 20
19.1397
 30
0.0
 10
-37.2186
 20
19.1397
 30
0.0
 10
-33.1778
 20
15.1105
 30
0.0
 10
-33.1778
 20
10.1404
 30
0.0
  0
SPLINE
  5
65
330
1F
100
AcDbEntity
  8
layer 1
 62
     7
100
AcDbSpline
210
0.0
220
0.0
230
1.0
 70
    11
 71
     3
 72
    20
 73
    16
 74
     0
 42
0.0000000001
 43
0.0000000001
 12
1.0
 22
0.0
 32
0.0
 13
1.0
 23
0.0
 33
0.0
 40
0.0
 40
0.0
 40
0.0
 40
0.0
 40
0.2
 40
0.2
 40
0.2
 40
0.2
 40
0.4
 40
0.4
 40
0.4
 40
0.4
 40
0.6
 40
0.6
 40
0.6
 40
0.6
 40
1.0
 40
1.0
 40
1.0
 40
1.0
 10
-53.4665
 20
19.0586
 30
0.0
 10
-58.7528
 20
14.016
 30
0.0
 10
-61.1356
 20
12.8508
 30
0.0
 10
-65.0089
 20
10.1382
 30
0.0
 10
-65.0089
 20
10.1382
 30
0.0
 10
-61.1356
 20
7.4257
 30
0.0
 10
-58.7531
 20
6.2603
 30
0.0
 10
-53.4665
 20
1.2179
 30
0.0
 10
-53.4665
 20
1.2179
 30
0.0
 10
-55.5745
 20
3.6689
 30
0.0
 10
-56.7245
 20
6.8885
 30
0.0
 10
-56.7746
 20
10.1382
 30
0.0
 10
-56.7746
 20
10.1382
 30
0.0
 10
-56.7245
 20
13.3883
 30
0.0
 10
-55.5745
 20
16.6076
 30
0.0
 10
-53.4665
 20
19.0586
 30
0.0
  0
SPLINE
  5
66
330
1F
100
AcDbEntity
  8
layer 1
 62
     7
100
AcDbSpline
210
0.0
220
0.0
230
1.0
 70
    11
 71
     3
 72
    20
 73
    16
 74
     0
 42
0.0000000001
 43
0.0000000001
 12
1.0
 22
0.0
 32
0.0
 13
1.0
 23
0.0
 33
0.0
 40
0.0
 40
0.0
 40
0.0
 40
0.0
 40
0.2
 40
0.2
 40
0.2
 40
0.2
 40
0.4
 40
0.4
 40
0.4
 40
0.4
 40
0.6
 40
0.6
 40
0.6
 40
0.6
 40
1.0
 40
1.0
 40
1.0
 40
1.0
 10
-35.1968
 20
22.7026
 30
0.0
 10
-37.9713
 20
25.3235
 30
0.0
 10
-40.3398
 20
27.9115
 30
0.0
 10
-42.2118
 20
30.1449
 30
0.0
 10
-42.2118
 20
30.1449
 30
0.0
 10
-44.1714
 20
27.8823
 30
0.0
 10
-46.423
 20
25.3235
 30
0.0
 10
-49.1977
 20
22.7026
 30
0.0
 10
-49.1977
 20
22.7026
 30
0.0
 10
-44.6491
 20
25.349
 30
0.0
 10
-38.9179
 20
25.0636
 30
0.0
 10
-35.197
 20
22.7026
 30
0.0
 10
-35.197
 20
22.7026
 30
0.0
 10
-35.197
 20
22.7026
 30
0.0
 10
-35.1968
 20
22.7026
 30
0.0
 10
-35.1968
 20
22.7026
 30
0.0
  0
SPLINE
  5
67
330
1F
100
AcDbEntity
  8
layer 1
 62
     7
100
AcDbSpline
210
0.0
220
0.0
230
1.0
 70
    11
 71
     3
 72
    20
 73
    16
 74
     0
 42
0.0000000001
 43
0.0000000001
 12
1.0
 22
0.0
 32
0.0
 13
1.0
 23
0.0
 33
0.0
 40
0.0
 40
0.0
 40
0.0
 40
0.0
 40
0.2
 40
0.2
 40
0.2
 40
0.2
 40
0.4
 40
0.4
 40
0.4
 40
0.4
 40
0.6
 40
0.6
 40
0.6
 40
0.6
 40
1.0
 40
1.0
 40
1.0
 40
1.0
 10
-30.8042
 20
19.0586
 30
0.0
 10
-25.5179
 20
14.016
 30
0.0
 10
-23.1352
 20
12.8508
 30
0.0
 10
-19.2618
 20
10.1382
 30
0.0
 10
-19.2618
 20
10.1382
 30
0.0
 10
-23.1352
 20
7.4257
 30
0.0
 10
-25.5177
 20
6.2603
 30
0.0
 10
-30.8042
 20
1.2179
 30
0.0
 10
-30.8042
 20
1.2179
 30
0.0
 10
-28.6963
 20
3.6689
 30
0.0
 10
-27.5463
 20
6.8885
 30
0.0
 10
-27.4961
 20
10.1382
 30
0.0
 10
-27.4961
 20
10.1382
 30
0.0
 10
-27.5463
 20
13.3883
 30
0.0
 10
-28.6963
 20
16.6076
 30
0.0
 10
-30.8042
 20
19.0586
 30
0.0
  0
SPLINE
  5
68
330
1F
100
AcDbEntity
  8
layer 1
 62
     7
100
AcDbSpline
210
0.0
220
0.0
230
1.0
 70
    11
 71
     3
 72
    20
 73
    16
 74
     0
 42
0.0000000001
 43
0.0000000001
 12
1.0
 22
0.0
 32
0.0
 13
1.0
 23
0.0
 33
0.0
 40
0.0
 40
0.0
 40
0.0
 40
0.0
 40
0.2
 40
0.2
 40
0.2
 40
0.2
 40
0.4
 40
0.4
 40
0.4
 40
0.4
 40
0.6
 40
0.6
 40
0.6
 40
0.6
 40
1.0
 40
1.0
 40
1.0
 40
1.0
 10
-35.1968
 20
-2.3622
 30
0.0
 10
-37.9713
 20
-4.983
 30
0.0
 10
-40.3398
 20
-7.5711
 30
0.0
 10
-42.2118
 20
-9.8045
 30
0.0
 10
-42.2118
 20
-9.8045
 30
0.0
 10
-44.1714
 20
-7.5419
 30
0.0
 10
-46.423
 20
-4.9828
 30
0.0
 10
-49.1977
 20
-2.3622
 30
0.0
 10
-49.1977
 20
-2.3622
 30
0.0
 10
-44.6491
 20
-5.0086
 30
0.0
 10
-38.9179
 20
-4.7232
 30
0.0
 10
-35.197
 20
-2.3622
 30
0.0
 10
-35.197
 20
-2.3622
 30
0.0
 10
-35.197
 20
-2.3622
 30
0.0
 10
-35.1968
 20
-2.3622
 30
0.0
 10
-35.1968
 20
-2.3622
 30
0.0
  0
SPLINE
  5
69
330
1F
100
AcDbEntity
  8
layer 1
 62
     7
100
AcDbSpline
210
0.0
220
0.0
230
1.0
 70
    11
 71
     3
 72
    20
 73
    16
 74
     0
 42
0.0000000001
 43
0.0000000001
 12
1.0
 22
0.0
 32
0.0
 13
1.0
 23
0.0
 33
0.0
 40
0.0
 40
0.0
 40
0.0
 40
0.0
 40
0.2
 40
0.2
 40
0.2
 40
0.2
 40
0.4
 40
0.4
 40
0.4
 40
0.4
 40
0.6
 40
0.6
 40
0.6
 40
0.6
 40
1.0
 40
1.0
 40
1.0
 40
1.0
 10
-83.4924
 20
2.3008
 30
0.0
 10
-83.4516
 20
7.5256
 30
0.0
 10
-83.4729
 20
12.7502
 30
0.0
 10
-83.4924
 20
17.975
 30
0.0
 10
-83.4924
 20
17.975
 30
0.0
 10
-82.525
 20
14.8335
 30
0.0
 10
-78.0141
 20
10.7932
 30
0.0
 10
-74.2244
 20
10.1378
 30
0.0
 10
-74.2244
 20
10.1378
 30
0.0
 10
-78.0141
 20
9.4823
 30
0.0
 10
-82.525
 20
5.4422
 30
0.0
 10
-83.4924
 20
2.3005
 30
0.0
 10
-83.4924
 20
2.3005
 30
0.0
 10
-83.4924
 20
2.3005
 30
0.0
 10
-83.4924
 20
2.3008
 30
0.0
 10
-83.4924
 20
2.3008
 30
0.0
  0
SPLINE
  5
6A
330
1F
100
AcDbEntity
  8
layer 1
 62
     7
100
AcDbSpline
210
0.0
220
0.0
230
1.0
 70
    11
 71
     3
 72
    20
 73
    16
 74
     0
 42
0.0000000001
 43
0.0000000001
 12
1.0
 22
0.0
 32
0.0
 13
1.0
 23
0.0
 33
0.0
 40
0.0
 40
0.0
 40
0.0
 40
0.0
 40
0.2
 40
0.2
 40
0.2
 40
0.2
 40
0.4
 40
0.4
 40
0.4
 40
0.4
 40
0.6
 40
0.6
 40
0.6
 40
0.6
 40
1.0
 40
1.0
 40
1.0
 40
1.0
 10
-0.8268
 20
2.3008
 30
0.0
 10
-0.8676
 20
7.5256
 30
0.0
 10
-0.8464
 20
12.7502
 30
0.0
 10
-0.8268
 20
17.975
 30
0.0
 10
-0.8268
 20
17.975
 30
0.0
 10
-1.7942
 20
14.8335
 30
0.0
 10
-6.3052
 20
10.7932
 30
0.0
 10
-10.0948
 20
10.1378
 30
0.0
 10
-10.0948
 20
10.1378
 30
0.0
 10
-6.3049
 20
9.4823
 30
0.0
 10
-1.7942
 20
5.4422
 30
0.0
 10
-0.8268
 20
2.3005
 30
0.0
 10
-0.8268
 20
2.3005
 30
0.0
 10
-0.8268
 20
2.3005
 30
0.0
 10
-0.8268
 20
2.3008
 30
0.0
 10
-0.8268
 20
2.3008
 30
0.0
  0
SPLINE
  5
6B
330
1F
100
AcDbEntity
  8
layer 1
 62
     7
100
AcDbSpline
210
0.0
220
0.0
230
1.0
 70
    11
 71
     3
 72
    24
 73
    20
 74
     0
 42
0.0000000001
 43
0.0000000001
 12
1.0
 22
0.0
 32
0.0
 13
1.0
 23
0.0
 33
0.0
 40
0.0
 40
0.0
 40
0.0
 40
0.0
 40
0.1666666666666667
 40
0.1666666666666667
 40
0.1666666666666667
 40
0.1666666666666667
 40
0.3333333333333333
 40
0.3333333333333333
 40
0.3333333333333333
 40
0.3333333333333333
 40
0.5
 40
0.5
 40
0.5
 40
0.5
 40
0.6666666666666666
 40
0.6666666666666666
 40
0.6666666666666666
 40
0.6666666666666666
 40
1.0
 40
1.0
 40
1.0
 40
1.0
 10
-8.6698
 20
34.6291
 30
0.0
 10
-4.5658
 20
33.9512
 30
0.0
 10
-1.8051
 20
30.6496
 30
0.0
 10
-0.7928
 20
27.3289
 30
0.0
 10
-0.7928
 20
27.3289
 30
0.0
 10
-0.7928
 20
27.3289
 30
0.0
 10
-0.7928
 20
41.9638
 30
0.0
 10
-0.7928
 20
41.9638
 30
0.0
 10
-0.7928
 20
41.9638
 30
0.0
 10
-1.8051
 20
38.6434
 30
0.0
 10
-4.5658
 20
35.3415
 30
0.0
 10
-8.6698
 20
34.6636
 30
0.0
 10
-8.6698
 20
34.6636
 30
0.0
 10
-8.6698
 20
34.6636
 30
0.0
 10
-8.6698
 20
34.6465
 30
0.0
 10
-8.6698
 20
34.6465
 30
0.0
 10
-8.6698
 20
34.6465
 30
0.0
 10
-8.6698
 20
34.6465
 30
0.0
 10
-8.6698
 20
34.6291
 30
0.0
 10
-8.6698
 20
34.6291
 30
0.0
  0
SPLINE
  5
6C
330
1F
100
AcDbEntity
  8
layer 1
 62
     7
100
AcDbSpline
210
0.0
220
0.0
230
1.0
 70
    11
 71
     3
 72
    24
 73
    20
 74
     0
 42
0.0000000001
 43
0.0000000001
 12
1.0
 22
0.0
 32
0.0
 13
1.0
 23
0.0
 33
0.0
 40
0.0
 40
0.0
 40
0.0
 40
0.0
 40
0.1666666666666667
 40
0.1666666666666667
 40
0.1666666666666667
 40
0.1666666666666667
 40
0.3333333333333333
 40
0.3333333333333333
 40
0.3333333333333333
 40
0.3333333333333333
 40
0.5
 40
0.5
 40
0.5
 40
0.5
 40
0.6666666666666666
 40
0.6666666666666666
 40
0.6666666666666666
 40
0.6666666666666666
 40
1.0
 40
1.0
 40
1.0
 40
1.0
 10
-75.7507
 20
34.6291
 30
0.0
 10
-79.8547
 20
33.9512
 30
0.0
 10
-82.6155
 20
30.6496
 30
0.0
 10
-83.6277
 20
27.3289
 30
0.0
 10
-83.6277
 20
27.3289
 30
0.0
 10
-83.6277
 20
27.3289
 30
0.0
 10
-83.6277
 20
41.9638
 30
0.0
 10
-83.6277
 20
41.9638
 30
0.0
 10
-83.6277
 20
41.9638
 30
0.0
 10
-82.6155
 20
38.6434
 30
0.0
 10
-79.8547
 20
35.3415
 30
0.0
 10
-75.7507
 20
34.6636
 30
0.0
 10
-75.7507
 20
34.6636
 30
0.0
 10
-75.7507
 20
34.6636
 30
0.0
 10
-75.7507
 20
34.6465
 30
0.0
 10
-75.7507
 20
34.6465
 30
0.0
 10
-75.7507
 20
34.6465
 30
0.0
 10
-75.7507
 20
34.6465
 30
0.0
 10
-75.7507
 20
34.6291
 30
0.0
 10
-75.7507
 20
34.6291
 30
0.0
  0
SPLINE
  5
6D
330
1F
100
AcDbEntity
  8
layer 1
 62
     7
100
AcDbSpline
210
0.0
220
0.0
230
1.0
 70
    11
 71
     3
 72
    64
 73
    60
 74
     0
 42
0.0000000001
 43
0.0000000001
 12
1.0
 22
0.0
 32
0.0
 13
1.0
 23
0.0
 33
0.0
 40
0.0
 40
0.0
 40
0.0
 40
0.0
 40
0.0625
 40
0.0625
 40
0.0625
 40
0.0625
 40
0.125
 40
0.125
 40
0.125
 40
0.125
 40
0.1875
 40
0.1875
 40
0.1875
 40
0.1875
 40
0.25
 40
0.25
 40
0.25
 40
0.25
 40
0.3125
 40
0.3125
 40
0.3125
 40
0.3125
 40
0.375
 40
0.375
 40
0.375
 40
0.375
 40
0.4375
 40
0.4375
 40
0.4375
 40
0.4375
 40
0.5
 40
0.5
 40
0.5
 40
0.5
 40
0.5625
 40
0.5625
 40
0.5625
 40
0.5625
 40
0.625
 40
0.625
 40
0.625
 40
0.625
 40
0.6875
 40
0.6875
 40
0.6875
 40
0.6875
 40
0.75
 40
0.75
 40
0.75
 40
0.75
 40
0.8125
 40
0.8125
 40
0.8125
 40
0.8125
 40
0.875
 40
0.875
 40
0.875
 40
0.875
 40
1.0
 40
1.0
 40
1.0
 40
1.0
 10
-66.0058
 20
-32.8662
 30
0.0
 10
-66.8294
 20
-29.0732
 30
0.0
 10
-72.8122
 20
-29.3545
 30
0.0
 10
-73.456
 20
-33.292
 30
0.0
 10
-73.456
 20
-33.292
 30
0.0
 10
-85.8537
 20
-28.8787
 30
0.0
 10
-75.6619
 20
-12.5771
 30
0.0
 10
-71.3507
 20
-18.9275
 30
0.0
 10
-71.3507
 20
-18.9275
 30
0.0
 10
-77.987
 20
-23.5032
 30
0.0
 10
-70.8316
 20
-30.6063
 30
0.0
 10
-65.9211
 20
-23.369
 30
0.0
 10
-65.9211
 20
-23.369
 30
0.0
 10
-65.5172
 20
-22.5954
 30
0.0
 10
-64.4507
 20
-22.5992
 30
0.0
 10
-64.2201
 20
-23.3135
 30
0.0
 10
-64.2201
 20
-23.3135
 30
0.0
 10
-62.7825
 20
-27.4627
 30
0.0
 10
-56.1486
 20
-24.8917
 30
0.0
 10
-57.9502
 20
-18.3649
 30
0.0
 10
-57.9502
 20
-18.3649
 30
0.0
 10
-54.6621
 20
-18.7191
 30
0.0
 10
-51.0628
 20
-17.0331
 30
0.0
 10
-49.2047
 20
-14.0897
 30
0.0
 10
-49.2047
 20
-14.0897
 30
0.0
 10
-51.0628
 20
-11.146
 30
0.0
 10
-54.6621
 20
-9.46
 30
0.0
 10
-57.9502
 20
-9.8141
 30
0.0
 10
-57.9502
 20
-9.8141
 30
0.0
 10
-56.1486
 20
-3.2873
 30
0.0
 10
-62.7825
 20
-0.7162
 30
0.0
 10
-64.2201
 20
-4.8655
 30
0.0
 10
-64.2201
 20
-4.8655
 30
0.0
 10
-64.4507
 20
-5.5799
 30
0.0
 10
-65.5172
 20
-5.5837
 30
0.0
 10
-65.9211
 20
-4.8101
 30
0.0
 10
-65.9211
 20
-4.8101
 30
0.0
 10
-70.8313
 20
2.4272
 30
0.0
 10
-77.987
 20
-4.6759
 30
0.0
 10
-71.3507
 20
-9.2516
 30
0.0
 10
-71.3507
 20
-9.2516
 30
0.0
 10
-75.6622
 20
-15.602
 30
0.0
 10
-85.8537
 20
0.6999
 30
0.0
 10
-73.456
 20
5.1129
 30
0.0
 10
-73.456
 20
5.1129
 30
0.0
 10
-72.8119
 20
1.1752
 30
0.0
 10
-66.8294
 20
0.8941
 30
0.0
 10
-66.0058
 20
4.6872
 30
0.0
 10
-66.0058
 20
4.6872
 30
0.0
 10
-60.4418
 20
2.3843
 30
0.0
 10
-47.3334
 20
-9.9912
 30
0.0
 10
-43.7756
 20
-14.0897
 30
0.0
 10
-43.7756
 20
-14.0897
 30
0.0
 10
-47.3334
 20
-18.1881
 30
0.0
 10
-60.4418
 20
-30.5636
 30
0.0
 10
-66.0058
 20
-32.8665
 30
0.0
 10
-66.0058
 20
-32.8665
 30
0.0
 10
-66.0058
 20
-32.8665
 30
0.0
 10
-66.0058
 20
-32.8662
 30
0.0
 10
-66.0058
 20
-32.8662
 30
0.0
  0
SPLINE
  5
6E
330
1F
100
AcDbEntity
  8
layer 1
 62
     7
100
AcDbSpline
210
0.0
220
0.0
230
1.0
 70
    11
 71
     3
 72
    64
 73
    60
 74
     0
 42
0.0000000001
 43
0.0000000001
 12
1.0
 22
0.0
 32
0.0
 13
1.0
 23
0.0
 33
0.0
 40
0.0
 40
0.0
 40
0.0
 40
0.0
 40
0.0625
 40
0.0625
 40
0.0625
 40
0.0625
 40
0.125
 40
0.125
 40
0.125
 40
0.125
 40
0.1875
 40
0.1875
 40
0.1875
 40
0.1875
 40
0.25
 40
0.25
 40
0.25
 40
0.25
 40
0.3125
 40
0.3125
 40
0.3125
 40
0.3125
 40
0.375
 40
0.375
 40
0.375
 40
0.375
 40
0.4375
 40
0.4375
 40
0.4375
 40
0.4375
 40
0.5
 40
0.5
 40
0.5
 40
0.5
 40
0.5625
 40
0.5625
 40
0.5625
 40
0.5625
 40
0.625
 40
0.625
 40
0.625
 40
0.625
 40
0.6875
 40
0.6875
 40
0.6875
 40
0.6875
 40
0.75
 40
0.75
 40
0.75
 40
0.75
 40
0.8125
 40
0.8125
 40
0.8125
 40
0.8125
 40
0.875
 40
0.875
 40
0.875
 40
0.875
 40
1.0
 40
1.0
 40
1.0
 40
1.0
 10
-26.6134
 20
-18.3647
 30
0.0
 10
-28.415
 20
-24.8915
 30
0.0
 10
-21.7811
 20
-27.4627
 30
0.0
 10
-20.3435
 20
-23.3133
 30
0.0
 10
-20.3435
 20
-23.3133
 30
0.0
 10
-20.1129
 20
-22.599
 30
0.0
 10
-19.0464
 20
-22.5951
 30
0.0
 10
-18.6425
 20
-23.3688
 30
0.0
 10
-18.6425
 20
-23.3688
 30
0.0
 10
-13.7323
 20
-30.606
 30
0.0
 10
-6.5766
 20
-23.5029
 30
0.0
 10
-13.2129
 20
-18.9273
 30
0.0
 10
-13.2129
 20
-18.9273
 30
0.0
 10
-8.9014
 20
-12.5768
 30
0.0
 10
1.2901
 20
-28.8787
 30
0.0
 10
-11.1076
 20
-33.2918
 30
0.0
 10
-11.1076
 20
-33.2918
 30
0.0
 10
-11.7517
 20
-29.354
 30
0.0
 10
-17.7342
 20
-29.0729
 30
0.0
 10
-18.5578
 20
-32.866
 30
0.0
 10
-18.5578
 20
-32.866
 30
0.0
 10
-24.1218
 20
-30.5631
 30
0.0
 10
-37.2302
 20
-18.1876
 30
0.0
 10
-40.788
 20
-14.0892
 30
0.0
 10
-40.788
 20
-14.0892
 30
0.0
 10
-37.2302
 20
-9.9907
 30
0.0
 10
-24.1218
 20
2.3847
 30
0.0
 10
-18.5578
 20
4.6876
 30
0.0
 10
-18.5578
 20
4.6876
 30
0.0
 10
-17.7342
 20
0.8946
 30
0.0
 10
-11.7515
 20
1.1759
 30
0.0
 10
-11.1076
 20
5.1134
 30
0.0
 10
-11.1076
 20
5.1134
 30
0.0
 10
1.2901
 20
0.7001
 30
0.0
 10
-8.9017
 20
-15.6015
 30
0.0
 10
-13.2129
 20
-9.2511
 30
0.0
 10
-13.2129
 20
-9.2511
 30
0.0
 10
-6.5766
 20
-4.6754
 30
0.0
 10
-13.732
 20
2.4277
 30
0.0
 10
-18.6425
 20
-4.8096
 30
0.0
 10
-18.6425
 20
-4.8096
 30
0.0
 10
-19.0464
 20
-5.5832
 30
0.0
 10
-20.1129
 20
-5.5794
 30
0.0
 10
-20.3435
 20
-4.8651
 30
0.0
 10
-20.3435
 20
-4.8651
 30
0.0
 10
-21.7811
 20
-0.7159
 30
0.0
 10
-28.415
 20
-3.2869
 30
0.0
 10
-26.6134
 20
-9.8137
 30
0.0
 10
-26.6134
 20
-9.8137
 30
0.0
 10
-29.9015
 20
-9.4595
 30
0.0
 10
-33.5008
 20
-11.1455
 30
0.0
 10
-35.3589
 20
-14.0892
 30
0.0
 10
-35.3589
 20
-14.0892
 30
0.0
 10
-33.5008
 20
-17.0328
 30
0.0
 10
-29.9015
 20
-18.7188
 30
0.0
 10
-26.6134
 20
-18.3645
 30
0.0
 10
-26.6134
 20
-18.3645
 30
0.0
 10
-26.6134
 20
-18.3645
 30
0.0
 10
-26.6134
 20
-18.3647
 30
0.0
 10
-26.6134
 20
-18.3647
 30
0.0
  0
SPLINE
  5
6F
330
1F
100
AcDbEntity
  8
layer 1
 62
     7
100
AcDbSpline
210
0.0
220
0.0
230
1.0
 70
    11
 71
     3
 72
    24
 73
    20
 74
     0
 42
0.0000000001
 43
0.0000000001
 12
1.0
 22
0.0
 32
0.0
 13
1.0
 23
0.0
 33
0.0
 40
0.0
 40
0.0
 40
0.0
 40
0.0
 40
0.1666666666666667
 40
0.1666666666666667
 40
0.1666666666666667
 40
0.1666666666666667
 40
0.3333333333333333
 40
0.3333333333333333
 40
0.3333333333333333
 40
0.3333333333333333
 40
0.5
 40
0.5
 40
0.5
 40
0.5
 40
0.6666666666666666
 40
0.6666666666666666
 40
0.6666666666666666
 40
0.6666666666666666
 40
1.0
 40
1.0
 40
1.0
 40
1.0
 10
-8.6698
 20
-14.0841
 30
0.0
 10
-4.5658
 20
-14.762
 30
0.0
 10
-1.8051
 20
-18.0636
 30
0.0
 10
-0.7928
 20
-21.3843
 30
0.0
 10
-0.7928
 20
-21.3843
 30
0.0
 10
-0.7928
 20
-21.3843
 30
0.0
 10
-0.7928
 20
-6.7494
 30
0.0
 10
-0.7928
 20
-6.7494
 30
0.0
 10
-0.7928
 20
-6.7494
 30
0.0
 10
-1.8051
 20
-10.0698
 30
0.0
 10
-4.5658
 20
-13.3717
 30
0.0
 10
-8.6698
 20
-14.0496
 30
0.0
 10
-8.6698
 20
-14.0496
 30
0.0
 10
-8.6698
 20
-14.0496
 30
0.0
 10
-8.6698
 20
-14.0667
 30
0.0
 10
-8.6698
 20
-14.0667
 30
0.0
 10
-8.6698
 20
-14.0667
 30
0.0
 10
-8.6698
 20
-14.0667
 30
0.0
 10
-8.6698
 20
-14.0841
 30
0.0
 10
-8.6698
 20
-14.0841
 30
0.0
  0
SPLINE
  5
70
330
1F
100
AcDbEntity
  8
layer 1
 62
     7
100
AcDbSpline
210
0.0
220
0.0
230
1.0
 70
    11
 71
     3
 72
    24
 73
    20
 74
     0
 42
0.0000000001
 43
0.0000000001
 12
1.0
 22
0.0
 32
0.0
 13
1.0
 23
0.0
 33
0.0
 40
0.0
 40
0.0
 40
0.0
 40
0.0
 40
0.1666666666666667
 40
0.1666666666666667
 40
0.1666666666666667
 40
0.1666666666666667
 40
0.3333333333333333
 40
0.3333333333333333
 40
0.3333333333333333
 40
0.3333333333333333
 40
0.5
 40
0.5
 40
0.5
 40
0.5
 40
0.6666666666666666
 40
0.6666666666666666
 40
0.6666666666666666
 40
0.6666666666666666
 40
1.0
 40
1.0
 40
1.0
 40
1.0
 10
-75.7507
 20
-14.0841
 30
0.0
 10
-79.8547
 20
-14.762
 30
0.0
 10
-82.6155
 20
-18.0636
 30
0.0
 10
-83.6277
 20
-21.3843
 30
0.0
 10
-83.6277
 20
-21.3843
 30
0.0
 10
-83.6277
 20
-21.3843
 30
0.0
 10
-83.6277
 20
-6.7494
 30
0.0
 10
-83.6277
 20
-6.7494
 30
0.0
 10
-83.6277
 20
-6.7494
 30
0.0
 10
-82.6155
 20
-10.0698
 30
0.0
 10
-79.8547
 20
-13.3717
 30
0.0
 10
-75.7507
 20
-14.0496
 30
0.0
 10
-75.7507
 20
-14.0496
 30
0.0
 10
-75.7507
 20
-14.0496
 30
0.0
 10
-75.7507
 20
-14.0667
 30
0.0
 10
-75.7507
 20
-14.0667
 30
0.0
 10
-75.7507
 20
-14.0667
 30
0.0
 10
-75.7507
 20
-14.0667
 30
0.0
 10
-75.7507
 20
-14.0841
 30
0.0
 10
-75.7507
 20
-14.0841
 30
0.0
  0
SPLINE
  5
71
330
1F
100
AcDbEntity
  8
layer 1
 62
     7
100
AcDbSpline
210
0.0
220
0.0
230
1.0
 70
    11
 71
     3
 72
    36
 73
    32
 74
     0
 42
0.0000000001
 43
0.0000000001
 12
1.0
 22
0.0
 32
0.0
 13
1.0
 23
0.0
 33
0.0
 40
0.0
 40
0.0
 40
0.0
 40
0.0
 40
0.1111111111111111
 40
0.1111111111111111
 40
0.1111111111111111
 40
0.1111111111111111
 40
0.2222222222222222
 40
0.2222222222222222
 40
0.2222222222222222
 40
0.2222222222222222
 40
0.3333333333333333
 40
0.3333333333333333
 40
0.3333333333333333
 40
0.3333333333333333
 40
0.4444444444444444
 40
0.4444444444444444
 40
0.4444444444444444
 40
0.4444444444444444
 40
0.5555555555555556
 40
0.5555555555555556
 40
0.5555555555555556
 40
0.5555555555555556
 40
0.6666666666666666
 40
0.6666666666666666
 40
0.6666666666666666
 40
0.6666666666666666
 40
0.7777777777777778
 40
0.7777777777777778
 40
0.7777777777777778
 40
0.7777777777777778
 40
1.0
 40
1.0
 40
1.0
 40
1.0
 10
-44.293
 20
-63.4859
 30
0.0
 10
-47.8509
 20
-59.3392
 30
0.0
 10
-60.9592
 20
-46.964
 30
0.0
 10
-66.5232
 20
-44.6609
 30
0.0
 10
-66.5232
 20
-44.6609
 30
0.0
 10
-67.3468
 20
-48.4539
 30
0.0
 10
-73.3296
 20
-48.1726
 30
0.0
 10
-73.9735
 20
-44.2351
 30
0.0
 10
-73.9735
 20
-44.2351
 30
0.0
 10
-86.3711
 20
-48.6484
 30
0.0
 10
-76.1794
 20
-64.95
 30
0.0
 10
-71.8682
 20
-58.5996
 30
0.0
 10
-71.8682
 20
-58.5996
 30
0.0
 10
-78.5045
 20
-54.024
 30
0.0
 10
-71.349
 20
-46.9208
 30
0.0
 10
-66.4385
 20
-54.1581
 30
0.0
 10
-66.4385
 20
-54.1581
 30
0.0
 10
-66.0347
 20
-54.9318
 30
0.0
 10
-64.9682
 20
-54.9279
 30
0.0
 10
-64.7376
 20
-54.2136
 30
0.0
 10
-64.7376
 20
-54.2136
 30
0.0
 10
-63.3
 20
-50.0645
 30
0.0
 10
-56.6661
 20
-52.6354
 30
0.0
 10
-58.4677
 20
-59.1622
 30
0.0
 10
-58.4677
 20
-59.1622
 30
0.0
 10
-55.1796
 20
-58.808
 30
0.0
 10
-51.5802
 20
-60.4941
 30
0.0
 10
-49.7222
 20
-63.4862
 30
0.0
 10
-49.7222
 20
-63.4862
 30
0.0
 10
-49.7222
 20
-63.4862
 30
0.0
 10
-44.293
 20
-63.4859
 30
0.0
 10
-44.293
 20
-63.4859
 30
0.0
  0
SPLINE
  5
72
330
1F
100
AcDbEntity
  8
layer 1
 62
     7
100
AcDbSpline
210
0.0
220
0.0
230
1.0
 70
    11
 71
     3
 72
    36
 73
    32
 74
     0
 42
0.0000000001
 43
0.0000000001
 12
1.0
 22
0.0
 32
0.0
 13
1.0
 23
0.0
 33
0.0
 40
0.0
 40
0.0
 40
0.0
 40
0.0
 40
0.1111111111111111
 40
0.1111111111111111
 40
0.1111111111111111
 40
0.1111111111111111
 40
0.2222222222222222
 40
0.2222222222222222
 40
0.2222222222222222
 40
0.2222222222222222
 40
0.3333333333333333
 40
0.3333333333333333
 40
0.3333333333333333
 40
0.3333333333333333
 40
0.4444444444444444
 40
0.4444444444444444
 40
0.4444444444444444
 40
0.4444444444444444
 40
0.5555555555555556
 40
0.5555555555555556
 40
0.5555555555555556
 40
0.5555555555555556
 40
0.6666666666666666
 40
0.6666666666666666
 40
0.6666666666666666
 40
0.6666666666666666
 40
0.7777777777777778
 40
0.7777777777777778
 40
0.7777777777777778
 40
0.7777777777777778
 40
1.0
 40
1.0
 40
1.0
 40
1.0
 10
-40.788
 20
-63.3168
 30
0.0
 10
-37.2302
 20
-59.1701
 30
0.0
 10
-24.1218
 20
-46.7949
 30
0.0
 10
-18.5578
 20
-44.4918
 30
0.0
 10
-18.5578
 20
-44.4918
 30
0.0
 10
-17.7342
 20
-48.2848
 30
0.0
 10
-11.7515
 20
-48.0035
 30
0.0
 10
-11.1076
 20
-44.066
 30
0.0
 10
-11.1076
 20
-44.066
 30
0.0
 10
1.2901
 20
-48.4793
 30
0.0
 10
-8.9017
 20
-64.7809
 30
0.0
 10
-13.2129
 20
-58.4305
 30
0.0
 10
-13.2129
 20
-58.4305
 30
0.0
 10
-6.5766
 20
-53.8548
 30
0.0
 10
-13.732
 20
-46.7517
 30
0.0
 10
-18.6425
 20
-53.989
 30
0.0
 10
-18.6425
 20
-53.989
 30
0.0
 10
-19.0464
 20
-54.7626
 30
0.0
 10
-20.1129
 20
-54.7588
 30
0.0
 10
-20.3435
 20
-54.0445
 30
0.0
 10
-20.3435
 20
-54.0445
 30
0.0
 10
-21.7811
 20
-49.8953
 30
0.0
 10
-28.415
 20
-52.4663
 30
0.0
 10
-26.6134
 20
-58.9931
 30
0.0
 10
-26.6134
 20
-58.9931
 30
0.0
 10
-29.9015
 20
-58.6389
 30
0.0
 10
-33.5008
 20
-60.325
 30
0.0
 10
-35.3589
 20
-63.3171
 30
0.0
 10
-35.3589
 20
-63.3171
 30
0.0
 10
-35.3589
 20
-63.3171
 30
0.0
 10
-40.788
 20
-63.3168
 30
0.0
 10
-40.788
 20
-63.3168
 30
0.0
  0
SPLINE
  5
73
330
1F
100
AcDbEntity
  8
layer 1
 62
     7
100
AcDbSpline
210
0.0
220
0.0
230
1.0
 70
    11
 71
     3
 72
    20
 73
    16
 74
     0
 42
0.0000000001
 43
0.0000000001
 12
1.0
 22
0.0
 32
0.0
 13
1.0
 23
0.0
 33
0.0
 40
0.0
 40
0.0
 40
0.0
 40
0.0
 40
0.2
 40
0.2
 40
0.2
 40
0.2
 40
0.4
 40
0.4
 40
0.4
 40
0.4
 40
0.6
 40
0.6
 40
0.6
 40
0.6
 40
1.0
 40
1.0
 40
1.0
 40
1.0
 10
-83.4924
 20
-46.57
 30
0.0
 10
-83.4516
 20
-41.3452
 30
0.0
 10
-83.4729
 20
-36.1207
 30
0.0
 10
-83.4924
 20
-30.8958
 30
0.0
 10
-83.4924
 20
-30.8958
 30
0.0
 10
-82.525
 20
-34.0373
 30
0.0
 10
-78.0141
 20
-38.0776
 30
0.0
 10
-74.2244
 20
-38.7331
 30
0.0
 10
-74.2244
 20
-38.7331
 30
0.0
 10
-78.0141
 20
-39.3885
 30
0.0
 10
-82.525
 20
-43.4286
 30
0.0
 10
-83.4924
 20
-46.5703
 30
0.0
 10
-83.4924
 20
-46.5703
 30
0.0
 10
-83.4924
 20
-46.5703
 30
0.0
 10
-83.4924
 20
-46.57
 30
0.0
 10
-83.4924
 20
-46.57
 30
0.0
  0
SPLINE
  5
74
330
1F
100
AcDbEntity
  8
layer 1
 62
     7
100
AcDbSpline
210
0.0
220
0.0
230
1.0
 70
    11
 71
     3
 72
    20
 73
    16
 74
     0
 42
0.0000000001
 43
0.0000000001
 12
1.0
 22
0.0
 32
0.0
 13
1.0
 23
0.0
 33
0.0
 40
0.0
 40
0.0
 40
0.0
 40
0.0
 40
0.2
 40
0.2
 40
0.2
 40
0.2
 40
0.4
 40
0.4
 40
0.4
 40
0.4
 40
0.6
 40
0.6
 40
0.6
 40
0.6
 40
1.0
 40
1.0
 40
1.0
 40
1.0
 10
-0.8268
 20
-46.57
 30
0.0
 10
-0.8676
 20
-41.3452
 30
0.0
 10
-0.8464
 20
-36.1207
 30
0.0
 10
-0.8268
 20
-30.8958
 30
0.0
 10
-0.8268
 20
-30.8958
 30
0.0
 10
-1.7942
 20
-34.0373
 30
0.0
 10
-6.3052
 20
-38.0776
 30
0.0
 10
-10.0948
 20
-38.7331
 30
0.0
 10
-10.0948
 20
-38.7331
 30
0.0
 10
-6.3049
 20
-39.3885
 30
0.0
 10
-1.7942
 20
-43.4286
 30
0.0
 10
-0.8268
 20
-46.5703
 30
0.0
 10
-0.8268
 20
-46.5703
 30
0.0
 10
-0.8268
 20
-46.5703
 30
0.0
 10
-0.8268
 20
-46.57
 30
0.0
 10
-0.8268
 20
-46.57
 30
0.0
  0
SPLINE
  5
75
330
1F
100
AcDbEntity
  8
layer 1
 62
     7
100
AcDbSpline
210
0.0
220
0.0
230
1.0
 70
    11
 71
     3
 72
    20
 73
    16
 74
     0
 42
0.0000000001
 43
0.0000000001
 12
1.0
 22
0.0
 32
0.0
 13
1.0
 23
0.0
 33
0.0
 40
0.0
 40
0.0
 40
0.0
 40
0.0
 40
0.2
 40
0.2
 40
0.2
 40
0.2
 40
0.4
 40
0.4
 40
0.4
 40
0.4
 40
0.6
 40
0.6
 40
0.6
 40
0.6
 40
1.0
 40
1.0
 40
1.0
 40
1.0
 10
-33.1778
 20
-38.7563
 30
0.0
 10
-33.1778
 20
-43.7266
 30
0.0
 10
-37.2186
 20
-47.7558
 30
0.0
 10
-42.2032
 20
-47.7558
 30
0.0
 10
-42.2032
 20
-47.7558
 30
0.0
 10
-47.1877
 20
-47.7558
 30
0.0
 10
-51.2287
 20
-43.7266
 30
0.0
 10
-51.2287
 20
-38.7563
 30
0.0
 10
-51.2287
 20
-38.7563
 30
0.0
 10
-51.2287
 20
-33.7862
 30
0.0
 10
-47.1879
 20
-29.757
 30
0.0
 10
-42.2032
 20
-29.757
 30
0.0
 10
-42.2032
 20
-29.757
 30
0.0
 10
-37.2186
 20
-29.757
 30
0.0
 10
-33.1778
 20
-33.7862
 30
0.0
 10
-33.1778
 20
-38.7563
 30
0.0
  0
SPLINE
  5
76
330
1F
100
AcDbEntity
  8
layer 1
 62
     7
100
AcDbSpline
210
0.0
220
0.0
230
1.0
 70
    11
 71
     3
 72
    20
 73
    16
 74
     0
 42
0.0000000001
 43
0.0000000001
 12
1.0
 22
0.0
 32
0.0
 13
1.0
 23
0.0
 33
0.0
 40
0.0
 40
0.0
 40
0.0
 40
0.0
 40
0.2
 40
0.2
 40
0.2
 40
0.2
 40
0.4
 40
0.4
 40
0.4
 40
0.4
 40
0.6
 40
0.6
 40
0.6
 40
0.6
 40
1.0
 40
1.0
 40
1.0
 40
1.0
 10
-53.4665
 20
-29.838
 30
0.0
 10
-58.7528
 20
-34.8807
 30
0.0
 10
-61.1356
 20
-36.0459
 30
0.0
 10
-65.0089
 20
-38.7584
 30
0.0
 10
-65.0089
 20
-38.7584
 30
0.0
 10
-61.1356
 20
-41.4709
 30
0.0
 10
-58.7531
 20
-42.6364
 30
0.0
 10
-53.4665
 20
-47.6788
 30
0.0
 10
-53.4665
 20
-47.6788
 30
0.0
 10
-55.5745
 20
-45.2278
 30
0.0
 10
-56.7245
 20
-42.0082
 30
0.0
 10
-56.7746
 20
-38.7584
 30
0.0
 10
-56.7746
 20
-38.7584
 30
0.0
 10
-56.7245
 20
-35.5084
 30
0.0
 10
-55.5745
 20
-32.289
 30
0.0
 10
-53.4665
 20
-29.838
 30
0.0
  0
SPLINE
  5
77
330
1F
100
AcDbEntity
  8
layer 1
 62
     7
100
AcDbSpline
210
0.0
220
0.0
230
1.0
 70
    11
 71
     3
 72
    20
 73
    16
 74
     0
 42
0.0000000001
 43
0.0000000001
 12
1.0
 22
0.0
 32
0.0
 13
1.0
 23
0.0
 33
0.0
 40
0.0
 40
0.0
 40
0.0
 40
0.0
 40
0.2
 40
0.2
 40
0.2
 40
0.2
 40
0.4
 40
0.4
 40
0.4
 40
0.4
 40
0.6
 40
0.6
 40
0.6
 40
0.6
 40
1.0
 40
1.0
 40
1.0
 40
1.0
 10
-35.1968
 20
-25.8531
 30
0.0
 10
-37.9713
 20
-23.2322
 30
0.0
 10
-40.3398
 20
-20.6442
 30
0.0
 10
-42.2118
 20
-18.4108
 30
0.0
 10
-42.2118
 20
-18.4108
 30
0.0
 10
-44.1714
 20
-20.6734
 30
0.0
 10
-46.423
 20
-23.2322
 30
0.0
 10
-49.1977
 20
-25.8531
 30
0.0
 10
-49.1977
 20
-25.8531
 30
0.0
 10
-44.6491
 20
-23.2067
 30
0.0
 10
-38.9179
 20
-23.4921
 30
0.0
 10
-35.197
 20
-25.8531
 30
0.0
 10
-35.197
 20
-25.8531
 30
0.0
 10
-35.197
 20
-25.8531
 30
0.0
 10
-35.1968
 20
-25.8531
 30
0.0
 10
-35.1968
 20
-25.8531
 30
0.0
  0
SPLINE
  5
78
330
1F
100
AcDbEntity
  8
layer 1
 62
     7
100
AcDbSpline
210
0.0
220
0.0
230
1.0
 70
    11
 71
     3
 72
    20
 73
    16
 74
     0
 42
0.0000000001
 43
0.0000000001
 12
1.0
 22
0.0
 32
0.0
 13
1.0
 23
0.0
 33
0.0
 40
0.0
 40
0.0
 40
0.0
 40
0.0
 40
0.2
 40
0.2
 40
0.2
 40
0.2
 40
0.4
 40
0.4
 40
0.4
 40
0.4
 40
0.6
 40
0.6
 40
0.6
 40
0.6
 40
1.0
 40
1.0
 40
1.0
 40
1.0
 10
-30.8042
 20
-29.838
 30
0.0
 10
-25.5179
 20
-34.8807
 30
0.0
 10
-23.1352
 20
-36.0459
 30
0.0
 10
-19.2618
 20
-38.7584
 30
0.0
 10
-19.2618
 20
-38.7584
 30
0.0
 10
-23.1352
 20
-41.4709
 30
0.0
 10
-25.5177
 20
-42.6364
 30
0.0
 10
-30.8042
 20
-47.6788
 30
0.0
 10
-30.8042
 20
-47.6788
 30
0.0
 10
-28.6963
 20
-45.2278
 30
0.0
 10
-27.5463
 20
-42.0082
 30
0.0
 10
-27.4961
 20
-38.7584
 30
0.0
 10
-27.4961
 20
-38.7584
 30
0.0
 10
-27.5463
 20
-35.5084
 30
0.0
 10
-28.6963
 20
-32.289
 30
0.0
 10
-30.8042
 20
-29.838
 30
0.0
  0
SPLINE
  5
79
330
1F
100
AcDbEntity
  8
layer 1
 62
     7
100
AcDbSpline
210
0.0
220
0.0
230
1.0
 70
    11
 71
     3
 72
    20
 73
    16
 74
     0
 42
0.0000000001
 43
0.0000000001
 12
1.0
 22
0.0
 32
0.0
 13
1.0
 23
0.0
 33
0.0
 40
0.0
 40
0.0
 40
0.0
 40
0.0
 40
0.2
 40
0.2
 40
0.2
 40
0.2
 40
0.4
 40
0.4
 40
0.4
 40
0.4
 40
0.6
 40
0.6
 40
0.6
 40
0.6
 40
1.0
 40
1.0
 40
1.0
 40
1.0
 10
-35.1968
 20
-50.9179
 30
0.0
 10
-37.9713
 20
-53.5387
 30
0.0
 10
-40.3398
 20
-56.1268
 30
0.0
 10
-42.2118
 20
-58.3602
 30
0.0
 10
-42.2118
 20
-58.3602
 30
0.0
 10
-44.1714
 20
-56.0976
 30
0.0
 10
-46.423
 20
-53.5385
 30
0.0
 10
-49.1977
 20
-50.9179
 30
0.0
 10
-49.1977
 20
-50.9179
 30
0.0
 10
-44.6491
 20
-53.5643
 30
0.0
 10
-38.9179
 20
-53.2789
 30
0.0
 10
-35.197
 20
-50.9179
 30
0.0
 10
-35.197
 20
-50.9179
 30
0.0
 10
-35.197
 20
-50.9179
 30
0.0
 10
-35.1968
 20
-50.9179
 30
0.0
 10
-35.1968
 20
-50.9179
 30
0.0
  0
SPLINE
  5
7A
330
1F
100
AcDbEntity
  8
layer 1
 62
     7
100
AcDbSpline
210
0.0
220
0.0
230
1.0
 70
    11
 71
     3
 72
    16
 73
    12
 74
     0
 42
0.0000000001
 43
0.0000000001
 12
1.0
 22
0.0
 32
0.0
 13
1.0
 23
0.0
 33
0.0
 40
0.0
 40
0.0
 40
0.0
 40
0.0
 40
0.25
 40
0.25
 40
0.25
 40
0.25
 40
0.5
 40
0.5
 40
0.5
 40
0.5
 40
1.0
 40
1.0
 40
1.0
 40
1.0
 10
-75.6154
 20
-63.4864
 30
0.0
 10
-75.6154
 20
-63.4864
 30
0.0
 10
-83.436
 20
-63.4864
 30
0.0
 10
-83.436
 20
-63.4864
 30
0.0
 10
-83.436
 20
-63.4864
 30
0.0
 10
-83.436
 20
-63.4864
 30
0.0
 10
-83.4924
 20
-56.1862
 30
0.0
 10
-83.4924
 20
-56.1862
 30
0.0
 10
-83.4924
 20
-56.1862
 30
0.0
 10
-82.4802
 20
-59.5067
 30
0.0
 10
-79.7194
 20
-62.8085
 30
0.0
 10
-75.6154
 20
-63.4864
 30
0.0
  0
SPLINE
  5
7B
330
1F
100
AcDbEntity
  8
layer 1
 62
     7
100
AcDbSpline
210
0.0
220
0.0
230
1.0
 70
    11
 71
     3
 72
    16
 73
    12
 74
     0
 42
0.0000000001
 43
0.0000000001
 12
1.0
 22
0.0
 32
0.0
 13
1.0
 23
0.0
 33
0.0
 40
0.0
 40
0.0
 40
0.0
 40
0.0
 40
0.25
 40
0.25
 40
0.25
 40
0.25
 40
0.5
 40
0.5
 40
0.5
 40
0.5
 40
1.0
 40
1.0
 40
1.0
 40
1.0
 10
-8.6698
 20
-63.4864
 30
0.0
 10
-8.6698
 20
-63.4864
 30
0.0
 10
-0.8493
 20
-63.4864
 30
0.0
 10
-0.8493
 20
-63.4864
 30
0.0
 10
-0.8493
 20
-63.4864
 30
0.0
 10
-0.8493
 20
-63.4864
 30
0.0
 10
-0.7928
 20
-56.1862
 30
0.0
 10
-0.7928
 20
-56.1862
 30
0.0
 10
-0.7928
 20
-56.1862
 30
0.0
 10
-1.8051
 20
-59.5067
 30
0.0
 10
-4.5658
 20
-62.8085
 30
0.0
 10
-8.6698
 20
-63.4864
 30
0.0
  0
ENDSEC
  0
SECTION
  2
OBJECTS
  0
DICTIONARY
  5
C
330
0
100
AcDbDictionary
281
     1
  3
ACAD_GROUP
350
D
  3
ACAD_LAYOUT
350
1A
  3
ACAD_MATERIAL
350
3B
  3
ACAD_MLEADERSTYLE
350
9E
  3
ACAD_MLINESTYLE
350
17
  3
ACAD_PLOTSETTINGS
350
19
  3
ACAD_PLOTSTYLENAME
350
E
  3
ACAD_TABLESTYLE
350
9D
  3
ACAD_VISUALSTYLE
350
2A
  0
DICTIONARY
  5
D
102
{ACAD_REACTORS
330
C
102
}
330
C
100
AcDbDictionary
281
     1
  0
DICTIONARY
  5
1A
102
{ACAD_REACTORS
330
C
102
}
330
C
100
AcDbDictionary
281
     1
  3
Layout1
350
1E
  3
Layout2
350
26
  3
Model
350
22
  0
DICTIONARY
  5
3B
102
{ACAD_REACTORS
330
C
102
}
330
C
100
AcDbDictionary
281
     1
  3
ByBlock
350
3D
  3
ByLayer
350
3C
  3
Global
350
3E
  0
DICTIONARY
  5
9E
102
{ACAD_REACTORS
330
C
102
}
330
C
100
AcDbDictionary
281
     1
  0
DICTIONARY
  5
17
102
{ACAD_REACTORS
330
C
102
}
330
C
100
AcDbDictionary
281
     1
  3
Standard
350
18
  0
DICTIONARY
  5
19
102
{ACAD_REACTORS
330
C
102
}
330
C
100
AcDbDictionary
281
     1
  0
ACDBDICTIONARYWDFLT
  5
E
102
{ACAD_REACTORS
330
C
102
}
330
C
100
AcDbDictionary
281
     1
  3
Normal
350
F
100
AcDbDictionaryWithDefault
340
F
  0
DICTIONARY
  5
9D
102
{ACAD_REACTORS
330
C
102
}
330
C
100
AcDbDictionary
281
     1
  0
DICTIONARY
  5
2A
102
{ACAD_REACTORS
330
C
102
}
330
C
100
AcDbDictionary
281
     1
  3
2dWireframe
350
2F
  3
3D Hidden
350
31
  3
3dWireframe
350
30
  3
Basic
350
32
  3
Brighten
350
36
  3
ColorChange
350
3A
  3
Conceptual
350
34
  3
Dim
350
35
  3
Facepattern
350
39
  3
Flat
350
2B
  3
FlatWithEdges
350
2C
  3
Gouraud
350
2D
  3
GouraudWithEdges
350
2E
  3
Linepattern
350
38
  3
Realistic
350
33
  3
Thicken
350
37
  0
LAYOUT
  5
1E
102
{ACAD_REACTORS
330
1A
102
}
330
1A
100
AcDbPlotSettings
  1

  2
none_device
  4

  6

 40
0.0
 41
0.0
 42
0.0
 43
0.0
 44
0.0
 45
0.0
 46
0.0
 47
0.0
 48
0.0
 49
0.0
140
0.0
141
0.0
142
1.0
143
1.0
 70
   688
 72
     0
 73
     0
 74
     5
  7

 75
    16
 76
     0
 77
     2
 78
   300
147
1.0
148
0.0
149
0.0
100
AcDbLayout
  1
Layout1
 70
     1
 71
     1
 10
0.0
 20
0.0
 11
12.0
 21
9.0
 12
0.0
 22
0.0
 32
0.0
 14
1.000000000000000E+20
 24
1.000000000000000E+20
 34
1.000000000000000E+20
 15
-1.000000000000000E+20
 25
-1.000000000000000E+20
 35
-1.000000000000000E+20
146
0.0
 13
0.0
 23
0.0
 33
0.0
 16
1.0
 26
0.0
 36
0.0
 17
0.0
 27
1.0
 37
0.0
 76
     0
330
1B
  0
LAYOUT
  5
26
102
{ACAD_REACTORS
330
1A
102
}
330
1A
100
AcDbPlotSettings
  1

  2
none_device
  4

  6

 40
0.0
 41
0.0
 42
0.0
 43
0.0
 44
0.0
 45
0.0
 46
0.0
 47
0.0
 48
0.0
 49
0.0
140
0.0
141
0.0
142
1.0
143
1.0
 70
   688
 72
     0
 73
     0
 74
     5
  7

 75
    16
 76
     0
 77
     2
 78
   300
147
1.0
148
0.0
149
0.0
100
AcDbLayout
  1
Layout2
 70
     1
 71
     2
 10
0.0
 20
0.0
 11
0.0
 21
0.0
 12
0.0
 22
0.0
 32
0.0
 14
0.0
 24
0.0
 34
0.0
 15
0.0
 25
0.0
 35
0.0
146
0.0
 13
0.0
 23
0.0
 33
0.0
 16
1.0
 26
0.0
 36
0.0
 17
0.0
 27
1.0
 37
0.0
 76
     0
330
23
  0
LAYOUT
  5
22
102
{ACAD_REACTORS
330
1A
102
}
330
1A
100
AcDbPlotSettings
  1

  2
none_device
  4

  6

 40
0.0
 41
0.0
 42
0.0
 43
0.0
 44
0.0
 45
0.0
 46
0.0
 47
0.0
 48
0.0
 49
0.0
140
0.0
141
0.0
142
1.0
143
1.0
 70
  1712
 72
     0
 73
     0
 74
     0
  7

 75
     0
 76
     0
 77
     2
 78
   300
147
1.0
148
0.0
149
0.0
100
AcDbLayout
  1
Model
 70
     1
 71
     0
 10
0.0
 20
0.0
 11
12.0
 21
9.0
 12
0.0
 22
0.0
 32
0.0
 14
-187.5753
 24
-115.029
 34
0.0
 15
5.0573
 25
131.8045
 35
0.0
146
0.0
 13
0.0
 23
0.0
 33
0.0
 16
1.0
 26
0.0
 36
0.0
 17
0.0
 27
1.0
 37
0.0
 76
     0
330
1F
331
29
  0
MATERIAL
  5
3D
102
{ACAD_REACTORS
330
3B
102
}
330
3B
100
AcDbMaterial
  1
ByBlock
 72
     1
 94
      127
  0
MATERIAL
  5
3C
102
{ACAD_REACTORS
330
3B
102
}
330
3B
100
AcDbMaterial
  1
ByLayer
 72
     1
 94
      127
  0
MATERIAL
  5
3E
102
{ACAD_REACTORS
330
3B
102
}
330
3B
100
AcDbMaterial
  1
Global
 72
     1
 94
      127
  0
MLINESTYLE
  5
18
102
{ACAD_REACTORS
330
17
102
}
330
17
100
AcDbMlineStyle
  2
Standard
 70
     0
  3

 62
   256
 51
90.0
 52
90.0
 71
     2
 49
0.5
 62
   256
  6
BYLAYER
 49
-0.5
 62
   256
  6
BYLAYER
  0
ACDBPLACEHOLDER
  5
F
102
{ACAD_REACTORS
330
E
102
}
330
E
  0
VISUALSTYLE
  5
2F
102
{ACAD_REACTORS
330
2A
102
}
102
{ACAD_XDICTIONARY
360
85
102
}
330
2A
100
AcDbVisualStyle
  2
2dWireframe
 70
     4
 71
     0
 72
     2
 73
     0
 90
        0
 40
-0.6
 41
-30.0
 62
     5
 63
     7
421
 16777215
 74
     1
 91
        4
 64
     7
 65
   257
 75
     1
175
     1
 42
1.0
 92
        0
 66
   257
 43
1.0
 76
     1
 77
     6
 78
     2
 67
     7
 79
     5
170
     0
171
     0
290
     0
174
     0
 93
        1
 44
0.0
173
     0
291
     0
 45
0.0
  0
VISUALSTYLE
  5
31
102
{ACAD_REACTORS
330
2A
102
}
102
{ACAD_XDICTIONARY
360
89
102
}
330
2A
100
AcDbVisualStyle
  2
3D Hidden
 70
     6
 71
     1
 72
     2
 73
     2
 90
        0
 40
-0.6
 41
-30.0
 62
     5
 63
     7
421
 16777215
 74
     2
 91
        2
 64
     7
 65
   257
 75
     2
175
     1
 42
40.0
 92
        0
 66
   257
 43
1.0
 76
     1
 77
     6
 78
     2
 67
     7
 79
     3
170
     0
171
     0
290
     0
174
     0
 93
        1
 44
0.0
173
     0
291
     0
 45
0.0
  0
VISUALSTYLE
  5
30
102
{ACAD_REACTORS
330
2A
102
}
102
{ACAD_XDICTIONARY
360
87
102
}
330
2A
100
AcDbVisualStyle
  2
3dWireframe
 70
     5
 71
     0
 72
     2
 73
     0
 90
        0
 40
-0.6
 41
-30.0
 62
     5
 63
     7
421
 16777215
 74
     1
 91
        4
 64
     7
 65
   257
 75
     1
175
     1
 42
1.0
 92
        0
 66
   257
 43
1.0
 76
     1
 77
     6
 78
     2
 67
     7
 79
     5
170
     0
171
     0
290
     0
174
     0
 93
        1
 44
0.0
173
     0
291
     0
 45
0.0
  0
VISUALSTYLE
  5
32
102
{ACAD_REACTORS
330
2A
102
}
102
{ACAD_XDICTIONARY
360
8B
102
}
330
2A
100
AcDbVisualStyle
  2
Basic
 70
     7
 71
     1
 72
     0
 73
     1
 90
        0
 40
-0.6
 41
-30.0
 62
     5
 63
     7
421
 16777215
 74
     0
 91
        4
 64
     7
 65
   257
 75
     1
175
     1
 42
1.0
 92
        8
 66
     7
 43
1.0
 76
     1
 77
     6
 78
     2
 67
     7
 79
     5
170
     0
171
     0
290
     0
174
     0
 93
        1
 44
0.0
173
     0
291
     1
 45
0.0
  0
VISUALSTYLE
  5
36
102
{ACAD_REACTORS
330
2A
102
}
102
{ACAD_XDICTIONARY
360
93
102
}
330
2A
100
AcDbVisualStyle
  2
Brighten
 70
    12
 71
     2
 72
     2
 73
     0
 90
        0
 40
-0.6
 41
-30.0
 62
     5
 63
     7
421
 16777215
 74
     1
 91
        4
 64
     7
 65
   257
 75
     1
175
     1
 42
1.0
 92
        8
 66
     7
 43
1.0
 76
     1
 77
     6
 78
     2
 67
     7
 79
     5
170
     0
171
     0
290
     0
174
     0
 93
        1
 44
50.0
173
     0
291
     1
 45
0.0
  0
VISUALSTYLE
  5
3A
102
{ACAD_REACTORS
330
2A
102
}
102
{ACAD_XDICTIONARY
360
9B
102
}
330
2A
100
AcDbVisualStyle
  2
ColorChange
 70
    16
 71
     2
 72
     2
 73
     3
 90
        0
 40
-0.6
 41
-30.0
 62
     5
 63
     8
421
  8421504
 74
     1
 91
        4
 64
     7
 65
   257
 75
     1
175
     1
 42
1.0
 92
        8
 66
     8
424
  8421504
 43
1.0
 76
     1
 77
     6
 78
     2
 67
     7
 79
     5
170
     0
171
     0
290
     0
174
     0
 93
        1
 44
0.0
173
     0
291
     1
 45
0.0
  0
VISUALSTYLE
  5
34
102
{ACAD_REACTORS
330
2A
102
}
102
{ACAD_XDICTIONARY
360
8F
102
}
330
2A
100
AcDbVisualStyle
  2
Conceptual
 70
     9
 71
     3
 72
     2
 73
     0
 90
        0
 40
-0.6
 41
-30.0
 62
     5
 63
     7
421
 16777215
 74
     2
 91
        2
 64
     7
 65
   257
 75
     1
175
     1
 42
40.0
 92
        8
 66
     7
 43
1.0
 76
     1
 77
     6
 78
     2
 67
     7
 79
     3
170
     0
171
     0
290
     0
174
     0
 93
        1
 44
0.0
173
     0
291
     0
 45
0.0
  0
VISUALSTYLE
  5
35
102
{ACAD_REACTORS
330
2A
102
}
102
{ACAD_XDICTIONARY
360
91
102
}
330
2A
100
AcDbVisualStyle
  2
Dim
 70
    11
 71
     2
 72
     2
 73
     0
 90
        0
 40
-0.6
 41
-30.0
 62
     5
 63
     7
421
 16777215
 74
     1
 91
        4
 64
     7
 65
   257
 75
     1
175
     1
 42
1.0
 92
        8
 66
     7
 43
1.0
 76
     1
 77
     6
 78
     2
 67
     7
 79
     5
170
     0
171
     0
290
     0
174
     0
 93
        1
 44
-50.0
173
     0
291
     1
 45
0.0
  0
VISUALSTYLE
  5
39
102
{ACAD_REACTORS
330
2A
102
}
102
{ACAD_XDICTIONARY
360
99
102
}
330
2A
100
AcDbVisualStyle
  2
Facepattern
 70
    15
 71
     2
 72
     2
 73
     0
 90
        0
 40
-0.6
 41
-30.0
 62
     5
 63
     7
421
 16777215
 74
     1
 91
        4
 64
     7
 65
   257
 75
     1
175
     1
 42
1.0
 92
        8
 66
     7
 43
1.0
 76
     1
 77
     6
 78
     2
 67
     7
 79
     5
170
     0
171
     0
290
     0
174
     0
 93
        1
 44
0.0
173
     0
291
     1
 45
0.0
  0
VISUALSTYLE
  5
2B
102
{ACAD_REACTORS
330
2A
102
}
102
{ACAD_XDICTIONARY
360
7D
102
}
330
2A
100
AcDbVisualStyle
  2
Flat
 70
     0
 71
     2
 72
     1
 73
     1
 90
        2
 40
-0.6
 41
30.0
 62
     5
 63
     7
421
 16777215
 74
     0
 91
        4
 64
     7
 65
   257
 75
     1
175
     1
 42
1.0
 92
        8
 66
     7
 43
1.0
 76
     1
 77
     6
 78
     2
 67
     7
 79
     5
170
     0
171
     0
290
     0
174
     0
 93
       13
 44
0.0
173
     0
291
     1
 45
0.0
  0
VISUALSTYLE
  5
2C
102
{ACAD_REACTORS
330
2A
102
}
102
{ACAD_XDICTIONARY
360
7F
102
}
330
2A
100
AcDbVisualStyle
  2
FlatWithEdges
 70
     1
 71
     2
 72
     1
 73
     1
 90
        2
 40
-0.6
 41
30.0
 62
     5
 63
     7
421
 16777215
 74
     1
 91
        4
 64
     7
 65
   257
 75
     1
175
     1
 42
1.0
 92
        0
 66
   257
 43
1.0
 76
     1
 77
     6
 78
     2
 67
     7
 79
     5
170
     0
171
     0
290
     0
174
     0
 93
       13
 44
0.0
173
     0
291
     1
 45
0.0
  0
VISUALSTYLE
  5
2D
102
{ACAD_REACTORS
330
2A
102
}
102
{ACAD_XDICTIONARY
360
81
102
}
330
2A
100
AcDbVisualStyle
  2
Gouraud
 70
     2
 71
     2
 72
     2
 73
     1
 90
        2
 40
-0.6
 41
30.0
 62
     5
 63
     7
421
 16777215
 74
     0
 91
        4
 64
     7
 65
   257
 75
     1
175
     1
 42
1.0
 92
        0
 66
     7
 43
1.0
 76
     1
 77
     6
 78
     2
 67
     7
 79
     5
170
     0
171
     0
290
     0
174
     0
 93
       13
 44
0.0
173
     0
291
     1
 45
0.0
  0
VISUALSTYLE
  5
2E
102
{ACAD_REACTORS
330
2A
102
}
102
{ACAD_XDICTIONARY
360
83
102
}
330
2A
100
AcDbVisualStyle
  2
GouraudWithEdges
 70
     3
 71
     2
 72
     2
 73
     1
 90
        2
 40
-0.6
 41
30.0
 62
     5
 63
     7
421
 16777215
 74
     1
 91
        4
 64
     7
 65
   257
 75
     1
175
     1
 42
1.0
 92
        0
 66
   257
 43
1.0
 76
     1
 77
     6
 78
     2
 67
     7
 79
     5
170
     0
171
     0
290
     0
174
     0
 93
       13
 44
0.0
173
     0
291
     1
 45
0.0
  0
VISUALSTYLE
  5
38
102
{ACAD_REACTORS
330
2A
102
}
102
{ACAD_XDICTIONARY
360
97
102
}
330
2A
100
AcDbVisualStyle
  2
Linepattern
 70
    14
 71
     2
 72
     2
 73
     0
 90
        0
 40
-0.6
 41
-30.0
 62
     5
 63
     7
421
 16777215
 74
     1
 91
        4
 64
     7
 65
   257
 75
     7
175
     7
 42
1.0
 92
        8
 66
     7
 43
1.0
 76
     1
 77
     6
 78
     2
 67
     7
 79
     5
170
     0
171
     0
290
     0
174
     0
 93
        1
 44
0.0
173
     0
291
     1
 45
0.0
  0
VISUALSTYLE
  5
33
102
{ACAD_REACTORS
330
2A
102
}
102
{ACAD_XDICTIONARY
360
8D
102
}
330
2A
100
AcDbVisualStyle
  2
Realistic
 70
     8
 71
     2
 72
     2
 73
     0
 90
        0
 40
-0.6
 41
-30.0
 62
     5
 63
     7
421
 16777215
 74
     1
 91
        0
 64
     7
 65
   257
 75
     1
175
     1
 42
1.0
 92
        8
 66
     8
424
  7895160
 43
1.0
 76
     1
 77
     6
 78
     2
 67
     7
 79
     5
170
     0
171
     0
290
     0
174
     0
 93
       13
 44
0.0
173
     0
291
     0
 45
0.0
  0
VISUALSTYLE
  5
37
102
{ACAD_REACTORS
330
2A
102
}
102
{ACAD_XDICTIONARY
360
95
102
}
330
2A
100
AcDbVisualStyle
  2
Thicken
 70
    13
 71
     2
 72
     2
 73
     0
 90
        0
 40
-0.6
 41
-30.0
 62
     5
 63
     7
421
 16777215
 74
     1
 91
        4
 64
     7
 65
   257
 75
     1
175
     1
 42
1.0
 92
       12
 66
     7
 43
1.0
 76
     1
 77
     6
 78
     2
 67
     7
 79
     5
170
     0
171
     0
290
     0
174
     0
 93
        1
 44
0.0
173
     0
291
     1
 45
0.0
  0
DICTIONARY
  5
85
330
2F
100
AcDbDictionary
280
     1
281
     1
  3
ACAD_XREC_ROUNDTRIP
360
86
  0
DICTIONARY
  5
89
330
31
100
AcDbDictionary
280
     1
281
     1
  3
ACAD_XREC_ROUNDTRIP
360
8A
  0
DICTIONARY
  5
87
330
30
100
AcDbDictionary
280
     1
281
     1
  3
ACAD_XREC_ROUNDTRIP
360
88
  0
DICTIONARY
  5
8B
330
32
100
AcDbDictionary
280
     1
281
     1
  3
ACAD_XREC_ROUNDTRIP
360
8C
  0
DICTIONARY
  5
93
330
36
100
AcDbDictionary
280
     1
281
     1
  3
ACAD_XREC_ROUNDTRIP
360
94
  0
DICTIONARY
  5
9B
330
3A
100
AcDbDictionary
280
     1
281
     1
  3
ACAD_XREC_ROUNDTRIP
360
9C
  0
DICTIONARY
  5
8F
330
34
100
AcDbDictionary
280
     1
281
     1
  3
ACAD_XREC_ROUNDTRIP
360
90
  0
DICTIONARY
  5
91
330
35
100
AcDbDictionary
280
     1
281
     1
  3
ACAD_XREC_ROUNDTRIP
360
92
  0
DICTIONARY
  5
99
330
39
100
AcDbDictionary
280
     1
281
     1
  3
ACAD_XREC_ROUNDTRIP
360
9A
  0
DICTIONARY
  5
7D
330
2B
100
AcDbDictionary
280
     1
281
     1
  3
ACAD_XREC_ROUNDTRIP
360
7E
  0
DICTIONARY
  5
7F
330
2C
100
AcDbDictionary
280
     1
281
     1
  3
ACAD_XREC_ROUNDTRIP
360
80
  0
DICTIONARY
  5
81
330
2D
100
AcDbDictionary
280
     1
281
     1
  3
ACAD_XREC_ROUNDTRIP
360
82
  0
DICTIONARY
  5
83
330
2E
100
AcDbDictionary
280
     1
281
     1
  3
ACAD_XREC_ROUNDTRIP
360
84
  0
DICTIONARY
  5
97
330
38
100
AcDbDictionary
280
     1
281
     1
  3
ACAD_XREC_ROUNDTRIP
360
98
  0
DICTIONARY
  5
8D
330
33
100
AcDbDictionary
280
     1
281
     1
  3
ACAD_XREC_ROUNDTRIP
360
8E
  0
DICTIONARY
  5
95
330
37
100
AcDbDictionary
280
     1
281
     1
  3
ACAD_XREC_ROUNDTRIP
360
96
  0
XRECORD
  5
86
102
{ACAD_REACTORS
330
85
102
}
330
85
100
AcDbXrecord
280
     1
102
RTVSPropertyOp0
 70
     1
102
RTVSPropertyOp1
 70
     1
102
RTVSPropertyOp2
 70
     1
102
RTVSPropertyOp3
 70
     1
102
RTVSPropertyOp4
 70
     1
102
RTVSPropertyOp5
 70
     1
102
RTVSPropertyOp6
 70
     1
102
RTVSPropertyOp7
 70
     1
102
RTVSPropertyOp8
 70
     1
102
RTVSPropertyOp9
 70
     1
102
RTVSPropertyOp10
 70
     1
102
RTVSPropertyOp11
 70
     1
102
RTVSPropertyOp12
 70
     1
102
RTVSPropertyOp13
 70
     1
102
RTVSPropertyOp14
 70
     1
102
RTVSPropertyOp15
 70
     1
102
RTVSPropertyOp16
 70
     1
102
RTVSPropertyOp17
 70
     1
102
RTVSPropertyOp18
 70
     1
102
RTVSPropertyOp19
 70
     1
102
RTVSPropertyOp20
 70
     1
102
RTVSPropertyOp21
 70
     1
102
RTVSPropertyOp22
 70
     1
102
RTVSPropertyOp23
 70
     1
102
RTVSPropertyOp24
 70
     1
102
RTVSPropertyOp25
 70
     1
102
RTVSPropertyOp26
 70
     1
102
RTVSPropertyOp27
 70
     1
102
RTVSPropertyOp28
 70
     1
102
RTVSPropertyOp29
 70
     1
102
RTVSPropertyOp30
 70
     1
102
RTVSPropertyOp31
 70
     1
102
RTVSPropertyOp32
 70
     1
  0
XRECORD
  5
8A
102
{ACAD_REACTORS
330
89
102
}
330
89
100
AcDbXrecord
280
     1
102
RTVSPropertyOp0
 70
     1
102
RTVSPropertyOp1
 70
     1
102
RTVSPropertyOp2
 70
     1
102
RTVSPropertyOp3
 70
     1
102
RTVSPropertyOp4
 70
     1
102
RTVSPropertyOp5
 70
     1
102
RTVSPropertyOp6
 70
     1
102
RTVSPropertyOp7
 70
     1
102
RTVSPropertyOp8
 70
     1
102
RTVSPropertyOp9
 70
     1
102
RTVSPropertyOp10
 70
     1
102
RTVSPropertyOp11
 70
     1
102
RTVSPropertyOp12
 70
     1
102
RTVSPropertyOp13
 70
     1
102
RTVSPropertyOp14
 70
     1
102
RTVSPropertyOp15
 70
     1
102
RTVSPropertyOp16
 70
     1
102
RTVSPropertyOp17
 70
     1
102
RTVSPropertyOp18
 70
     1
102
RTVSPropertyOp19
 70
     1
102
RTVSPropertyOp20
 70
     1
102
RTVSPropertyOp21
 70
     1
102
RTVSPropertyOp22
 70
     1
102
RTVSPropertyOp23
 70
     1
102
RTVSPropertyOp24
 70
     1
102
RTVSPropertyOp25
 70
     1
102
RTVSPropertyOp26
 70
     1
102
RTVSPropertyOp27
 70
     1
102
RTVSPropertyOp28
 70
     1
102
RTVSPropertyOp29
 70
     1
102
RTVSPropertyOp30
 70
     1
102
RTVSPropertyOp31
 70
     1
102
RTVSPropertyOp32
 70
     1
  0
XRECORD
  5
88
102
{ACAD_REACTORS
330
87
102
}
330
87
100
AcDbXrecord
280
     1
102
RTVSPropertyOp0
 70
     1
102
RTVSPropertyOp1
 70
     1
102
RTVSPropertyOp2
 70
     1
102
RTVSPropertyOp3
 70
     1
102
RTVSPropertyOp4
 70
     1
102
RTVSPropertyOp5
 70
     1
102
RTVSPropertyOp6
 70
     1
102
RTVSPropertyOp7
 70
     1
102
RTVSPropertyOp8
 70
     1
102
RTVSPropertyOp9
 70
     1
102
RTVSPropertyOp10
 70
     1
102
RTVSPropertyOp11
 70
     1
102
RTVSPropertyOp12
 70
     1
102
RTVSPropertyOp13
 70
     1
102
RTVSPropertyOp14
 70
     1
102
RTVSPropertyOp15
 70
     1
102
RTVSPropertyOp16
 70
     1
102
RTVSPropertyOp17
 70
     1
102
RTVSPropertyOp18
 70
     1
102
RTVSPropertyOp19
 70
     1
102
RTVSPropertyOp20
 70
     1
102
RTVSPropertyOp21
 70
     1
102
RTVSPropertyOp22
 70
     1
102
RTVSPropertyOp23
 70
     1
102
RTVSPropertyOp24
 70
     1
102
RTVSPropertyOp25
 70
     1
102
RTVSPropertyOp26
 70
     1
102
RTVSPropertyOp27
 70
     1
102
RTVSPropertyOp28
 70
     1
102
RTVSPropertyOp29
 70
     1
102
RTVSPropertyOp30
 70
     1
102
RTVSPropertyOp31
 70
     1
102
RTVSPropertyOp32
 70
     1
  0
XRECORD
  5
8C
102
{ACAD_REACTORS
330
8B
102
}
330
8B
100
AcDbXrecord
280
     1
102
RTVSPropertyOp0
 70
     1
102
RTVSPropertyOp1
 70
     1
102
RTVSPropertyOp2
 70
     1
102
RTVSPropertyOp3
 70
     1
102
RTVSPropertyOp4
 70
     1
102
RTVSPropertyOp5
 70
     1
102
RTVSPropertyOp6
 70
     1
102
RTVSPropertyOp7
 70
     1
102
RTVSPropertyOp8
 70
     1
102
RTVSPropertyOp9
 70
     1
102
RTVSPropertyOp10
 70
     1
102
RTVSPropertyOp11
 70
     1
102
RTVSPropertyOp12
 70
     1
102
RTVSPropertyOp13
 70
     1
102
RTVSPropertyOp14
 70
     1
102
RTVSPropertyOp15
 70
     1
102
RTVSPropertyOp16
 70
     1
102
RTVSPropertyOp17
 70
     1
102
RTVSPropertyOp18
 70
     1
102
RTVSPropertyOp19
 70
     1
102
RTVSPropertyOp20
 70
     1
102
RTVSPropertyOp21
 70
     1
102
RTVSPropertyOp22
 70
     1
102
RTVSPropertyOp23
 70
     1
102
RTVSPropertyOp24
 70
     1
102
RTVSPropertyOp25
 70
     1
102
RTVSPropertyOp26
 70
     1
102
RTVSPropertyOp27
 70
     1
102
RTVSPropertyOp28
 70
     1
102
RTVSPropertyOp29
 70
     1
102
RTVSPropertyOp30
 70
     1
102
RTVSPropertyOp31
 70
     1
102
RTVSPropertyOp32
 70
     1
  0
XRECORD
  5
94
102
{ACAD_REACTORS
330
93
102
}
330
93
100
AcDbXrecord
280
     1
102
RTVSPropertyOp0
 70
     1
102
RTVSPropertyOp1
 70
     1
102
RTVSPropertyOp2
 70
     1
102
RTVSPropertyOp3
 70
     1
102
RTVSPropertyOp4
 70
     1
102
RTVSPropertyOp5
 70
     1
102
RTVSPropertyOp6
 70
     1
102
RTVSPropertyOp7
 70
     1
102
RTVSPropertyOp8
 70
     1
102
RTVSPropertyOp9
 70
     1
102
RTVSPropertyOp10
 70
     1
102
RTVSPropertyOp11
 70
     1
102
RTVSPropertyOp12
 70
     1
102
RTVSPropertyOp13
 70
     1
102
RTVSPropertyOp14
 70
     1
102
RTVSPropertyOp15
 70
     1
102
RTVSPropertyOp16
 70
     1
102
RTVSPropertyOp17
 70
     1
102
RTVSPropertyOp18
 70
     1
102
RTVSPropertyOp19
 70
     1
102
RTVSPropertyOp20
 70
     1
102
RTVSPropertyOp21
 70
     1
102
RTVSPropertyOp22
 70
     1
102
RTVSPropertyOp23
 70
     1
102
RTVSPropertyOp24
 70
     1
102
RTVSPropertyOp25
 70
     1
102
RTVSPropertyOp26
 70
     1
102
RTVSPropertyOp27
 70
     1
102
RTVSPropertyOp28
 70
     1
102
RTVSPropertyOp29
 70
     1
102
RTVSPropertyOp30
 70
     1
102
RTVSPropertyOp31
 70
     1
102
RTVSPropertyOp32
 70
     1
  0
XRECORD
  5
9C
102
{ACAD_REACTORS
330
9B
102
}
330
9B
100
AcDbXrecord
280
     1
102
RTVSPropertyOp0
 70
     1
102
RTVSPropertyOp1
 70
     1
102
RTVSPropertyOp2
 70
     1
102
RTVSPropertyOp3
 70
     1
102
RTVSPropertyOp4
 70
     1
102
RTVSPropertyOp5
 70
     1
102
RTVSPropertyOp6
 70
     1
102
RTVSPropertyOp7
 70
     1
102
RTVSPropertyOp8
 70
     1
102
RTVSPropertyOp9
 70
     1
102
RTVSPropertyOp10
 70
     1
102
RTVSPropertyOp11
 70
     1
102
RTVSPropertyOp12
 70
     1
102
RTVSPropertyOp13
 70
     1
102
RTVSPropertyOp14
 70
     1
102
RTVSPropertyOp15
 70
     1
102
RTVSPropertyOp16
 70
     1
102
RTVSPropertyOp17
 70
     1
102
RTVSPropertyOp18
 70
     1
102
RTVSPropertyOp19
 70
     1
102
RTVSPropertyOp20
 70
     1
102
RTVSPropertyOp21
 70
     1
102
RTVSPropertyOp22
 70
     1
102
RTVSPropertyOp23
 70
     1
102
RTVSPropertyOp24
 70
     1
102
RTVSPropertyOp25
 70
     1
102
RTVSPropertyOp26
 70
     1
102
RTVSPropertyOp27
 70
     1
102
RTVSPropertyOp28
 70
     1
102
RTVSPropertyOp29
 70
     1
102
RTVSPropertyOp30
 70
     1
102
RTVSPropertyOp31
 70
     1
102
RTVSPropertyOp32
 70
     1
  0
XRECORD
  5
90
102
{ACAD_REACTORS
330
8F
102
}
330
8F
100
AcDbXrecord
280
     1
102
RTVSPropertyOp0
 70
     1
102
RTVSPropertyOp1
 70
     1
102
RTVSPropertyOp2
 70
     1
102
RTVSPropertyOp3
 70
     1
102
RTVSPropertyOp4
 70
     1
102
RTVSPropertyOp5
 70
     1
102
RTVSPropertyOp6
 70
     1
102
RTVSPropertyOp7
 70
     1
102
RTVSPropertyOp8
 70
     1
102
RTVSPropertyOp9
 70
     1
102
RTVSPropertyOp10
 70
     1
102
RTVSPropertyOp11
 70
     1
102
RTVSPropertyOp12
 70
     1
102
RTVSPropertyOp13
 70
     1
102
RTVSPropertyOp14
 70
     1
102
RTVSPropertyOp15
 70
     1
102
RTVSPropertyOp16
 70
     1
102
RTVSPropertyOp17
 70
     1
102
RTVSPropertyOp18
 70
     1
102
RTVSPropertyOp19
 70
     1
102
RTVSPropertyOp20
 70
     1
102
RTVSPropertyOp21
 70
     1
102
RTVSPropertyOp22
 70
     1
102
RTVSPropertyOp23
 70
     1
102
RTVSPropertyOp24
 70
     1
102
RTVSPropertyOp25
 70
     1
102
RTVSPropertyOp26
 70
     1
102
RTVSPropertyOp27
 70
     1
102
RTVSPropertyOp28
 70
     1
102
RTVSPropertyOp29
 70
     1
102
RTVSPropertyOp30
 70
     1
102
RTVSPropertyOp31
 70
     1
102
RTVSPropertyOp32
 70
     1
  0
XRECORD
  5
92
102
{ACAD_REACTORS
330
91
102
}
330
91
100
AcDbXrecord
280
     1
102
RTVSPropertyOp0
 70
     1
102
RTVSPropertyOp1
 70
     1
102
RTVSPropertyOp2
 70
     1
102
RTVSPropertyOp3
 70
     1
102
RTVSPropertyOp4
 70
     1
102
RTVSPropertyOp5
 70
     1
102
RTVSPropertyOp6
 70
     1
102
RTVSPropertyOp7
 70
     1
102
RTVSPropertyOp8
 70
     1
102
RTVSPropertyOp9
 70
     1
102
RTVSPropertyOp10
 70
     1
102
RTVSPropertyOp11
 70
     1
102
RTVSPropertyOp12
 70
     1
102
RTVSPropertyOp13
 70
     1
102
RTVSPropertyOp14
 70
     1
102
RTVSPropertyOp15
 70
     1
102
RTVSPropertyOp16
 70
     1
102
RTVSPropertyOp17
 70
     1
102
RTVSPropertyOp18
 70
     1
102
RTVSPropertyOp19
 70
     1
102
RTVSPropertyOp20
 70
     1
102
RTVSPropertyOp21
 70
     1
102
RTVSPropertyOp22
 70
     1
102
RTVSPropertyOp23
 70
     1
102
RTVSPropertyOp24
 70
     1
102
RTVSPropertyOp25
 70
     1
102
RTVSPropertyOp26
 70
     1
102
RTVSPropertyOp27
 70
     1
102
RTVSPropertyOp28
 70
     1
102
RTVSPropertyOp29
 70
     1
102
RTVSPropertyOp30
 70
     1
102
RTVSPropertyOp31
 70
     1
102
RTVSPropertyOp32
 70
     1
  0
XRECORD
  5
9A
102
{ACAD_REACTORS
330
99
102
}
330
99
100
AcDbXrecord
280
     1
102
RTVSPropertyOp0
 70
     1
102
RTVSPropertyOp1
 70
     1
102
RTVSPropertyOp2
 70
     1
102
RTVSPropertyOp3
 70
     1
102
RTVSPropertyOp4
 70
     1
102
RTVSPropertyOp5
 70
     1
102
RTVSPropertyOp6
 70
     1
102
RTVSPropertyOp7
 70
     1
102
RTVSPropertyOp8
 70
     1
102
RTVSPropertyOp9
 70
     1
102
RTVSPropertyOp10
 70
     1
102
RTVSPropertyOp11
 70
     1
102
RTVSPropertyOp12
 70
     1
102
RTVSPropertyOp13
 70
     1
102
RTVSPropertyOp14
 70
     1
102
RTVSPropertyOp15
 70
     1
102
RTVSPropertyOp16
 70
     1
102
RTVSPropertyOp17
 70
     1
102
RTVSPropertyOp18
 70
     1
102
RTVSPropertyOp19
 70
     1
102
RTVSPropertyOp20
 70
     1
102
RTVSPropertyOp21
 70
     1
102
RTVSPropertyOp22
 70
     1
102
RTVSPropertyOp23
 70
     1
102
RTVSPropertyOp24
 70
     1
102
RTVSPropertyOp25
 70
     1
102
RTVSPropertyOp26
 70
     1
102
RTVSPropertyOp27
 70
     1
102
RTVSPropertyOp28
 70
     1
102
RTVSPropertyOp29
 70
     1
102
RTVSPropertyOp30
 70
     1
102
RTVSPropertyOp31
 70
     1
102
RTVSPropertyOp32
 70
     1
  0
XRECORD
  5
7E
102
{ACAD_REACTORS
330
7D
102
}
330
7D
100
AcDbXrecord
280
     1
102
RTVSPropertyOp0
 70
     1
102
RTVSPropertyOp1
 70
     1
102
RTVSPropertyOp2
 70
     1
102
RTVSPropertyOp3
 70
     1
102
RTVSPropertyOp4
 70
     1
102
RTVSPropertyOp5
 70
     1
102
RTVSPropertyOp6
 70
     1
102
RTVSPropertyOp7
 70
     1
102
RTVSPropertyOp8
 70
     1
102
RTVSPropertyOp9
 70
     1
102
RTVSPropertyOp10
 70
     1
102
RTVSPropertyOp11
 70
     1
102
RTVSPropertyOp12
 70
     1
102
RTVSPropertyOp13
 70
     1
102
RTVSPropertyOp14
 70
     1
102
RTVSPropertyOp15
 70
     1
102
RTVSPropertyOp16
 70
     1
102
RTVSPropertyOp17
 70
     1
102
RTVSPropertyOp18
 70
     1
102
RTVSPropertyOp19
 70
     1
102
RTVSPropertyOp20
 70
     1
102
RTVSPropertyOp21
 70
     1
102
RTVSPropertyOp22
 70
     1
102
RTVSPropertyOp23
 70
     1
102
RTVSPropertyOp24
 70
     1
102
RTVSPropertyOp25
 70
     1
102
RTVSPropertyOp26
 70
     1
102
RTVSPropertyOp27
 70
     1
102
RTVSPropertyOp28
 70
     1
102
RTVSPropertyOp29
 70
     1
102
RTVSPropertyOp30
 70
     1
102
RTVSPropertyOp31
 70
     1
102
RTVSPropertyOp32
 70
     1
  0
XRECORD
  5
80
102
{ACAD_REACTORS
330
7F
102
}
330
7F
100
AcDbXrecord
280
     1
102
RTVSPropertyOp0
 70
     1
102
RTVSPropertyOp1
 70
     1
102
RTVSPropertyOp2
 70
     1
102
RTVSPropertyOp3
 70
     1
102
RTVSPropertyOp4
 70
     1
102
RTVSPropertyOp5
 70
     1
102
RTVSPropertyOp6
 70
     1
102
RTVSPropertyOp7
 70
     1
102
RTVSPropertyOp8
 70
     1
102
RTVSPropertyOp9
 70
     1
102
RTVSPropertyOp10
 70
     1
102
RTVSPropertyOp11
 70
     1
102
RTVSPropertyOp12
 70
     1
102
RTVSPropertyOp13
 70
     1
102
RTVSPropertyOp14
 70
     1
102
RTVSPropertyOp15
 70
     1
102
RTVSPropertyOp16
 70
     1
102
RTVSPropertyOp17
 70
     1
102
RTVSPropertyOp18
 70
     1
102
RTVSPropertyOp19
 70
     1
102
RTVSPropertyOp20
 70
     1
102
RTVSPropertyOp21
 70
     1
102
RTVSPropertyOp22
 70
     1
102
RTVSPropertyOp23
 70
     1
102
RTVSPropertyOp24
 70
     1
102
RTVSPropertyOp25
 70
     1
102
RTVSPropertyOp26
 70
     1
102
RTVSPropertyOp27
 70
     1
102
RTVSPropertyOp28
 70
     1
102
RTVSPropertyOp29
 70
     1
102
RTVSPropertyOp30
 70
     1
102
RTVSPropertyOp31
 70
     1
102
RTVSPropertyOp32
 70
     1
  0
XRECORD
  5
82
102
{ACAD_REACTORS
330
81
102
}
330
81
100
AcDbXrecord
280
     1
102
RTVSPropertyOp0
 70
     1
102
RTVSPropertyOp1
 70
     1
102
RTVSPropertyOp2
 70
     1
102
RTVSPropertyOp3
 70
     1
102
RTVSPropertyOp4
 70
     1
102
RTVSPropertyOp5
 70
     1
102
RTVSPropertyOp6
 70
     1
102
RTVSPropertyOp7
 70
     1
102
RTVSPropertyOp8
 70
     1
102
RTVSPropertyOp9
 70
     1
102
RTVSPropertyOp10
 70
     1
102
RTVSPropertyOp11
 70
     1
102
RTVSPropertyOp12
 70
     1
102
RTVSPropertyOp13
 70
     1
102
RTVSPropertyOp14
 70
     1
102
RTVSPropertyOp15
 70
     1
102
RTVSPropertyOp16
 70
     1
102
RTVSPropertyOp17
 70
     1
102
RTVSPropertyOp18
 70
     1
102
RTVSPropertyOp19
 70
     1
102
RTVSPropertyOp20
 70
     1
102
RTVSPropertyOp21
 70
     1
102
RTVSPropertyOp22
 70
     1
102
RTVSPropertyOp23
 70
     1
102
RTVSPropertyOp24
 70
     1
102
RTVSPropertyOp25
 70
     1
102
RTVSPropertyOp26
 70
     1
102
RTVSPropertyOp27
 70
     1
102
RTVSPropertyOp28
 70
     1
102
RTVSPropertyOp29
 70
     1
102
RTVSPropertyOp30
 70
     1
102
RTVSPropertyOp31
 70
     1
102
RTVSPropertyOp32
 70
     1
  0
XRECORD
  5
84
102
{ACAD_REACTORS
330
83
102
}
330
83
100
AcDbXrecord
280
     1
102
RTVSPropertyOp0
 70
     1
102
RTVSPropertyOp1
 70
     1
102
RTVSPropertyOp2
 70
     1
102
RTVSPropertyOp3
 70
     1
102
RTVSPropertyOp4
 70
     1
102
RTVSPropertyOp5
 70
     1
102
RTVSPropertyOp6
 70
     1
102
RTVSPropertyOp7
 70
     1
102
RTVSPropertyOp8
 70
     1
102
RTVSPropertyOp9
 70
     1
102
RTVSPropertyOp10
 70
     1
102
RTVSPropertyOp11
 70
     1
102
RTVSPropertyOp12
 70
     1
102
RTVSPropertyOp13
 70
     1
102
RTVSPropertyOp14
 70
     1
102
RTVSPropertyOp15
 70
     1
102
RTVSPropertyOp16
 70
     1
102
RTVSPropertyOp17
 70
     1
102
RTVSPropertyOp18
 70
     1
102
RTVSPropertyOp19
 70
     1
102
RTVSPropertyOp20
 70
     1
102
RTVSPropertyOp21
 70
     1
102
RTVSPropertyOp22
 70
     1
102
RTVSPropertyOp23
 70
     1
102
RTVSPropertyOp24
 70
     1
102
RTVSPropertyOp25
 70
     1
102
RTVSPropertyOp26
 70
     1
102
RTVSPropertyOp27
 70
     1
102
RTVSPropertyOp28
 70
     1
102
RTVSPropertyOp29
 70
     1
102
RTVSPropertyOp30
 70
     1
102
RTVSPropertyOp31
 70
     1
102
RTVSPropertyOp32
 70
     1
  0
XRECORD
  5
98
102
{ACAD_REACTORS
330
97
102
}
330
97
100
AcDbXrecord
280
     1
102
RTVSPropertyOp0
 70
     1
102
RTVSPropertyOp1
 70
     1
102
RTVSPropertyOp2
 70
     1
102
RTVSPropertyOp3
 70
     1
102
RTVSPropertyOp4
 70
     1
102
RTVSPropertyOp5
 70
     1
102
RTVSPropertyOp6
 70
     1
102
RTVSPropertyOp7
 70
     1
102
RTVSPropertyOp8
 70
     1
102
RTVSPropertyOp9
 70
     1
102
RTVSPropertyOp10
 70
     1
102
RTVSPropertyOp11
 70
     1
102
RTVSPropertyOp12
 70
     1
102
RTVSPropertyOp13
 70
     1
102
RTVSPropertyOp14
 70
     1
102
RTVSPropertyOp15
 70
     1
102
RTVSPropertyOp16
 70
     1
102
RTVSPropertyOp17
 70
     1
102
RTVSPropertyOp18
 70
     1
102
RTVSPropertyOp19
 70
     1
102
RTVSPropertyOp20
 70
     1
102
RTVSPropertyOp21
 70
     1
102
RTVSPropertyOp22
 70
     1
102
RTVSPropertyOp23
 70
     1
102
RTVSPropertyOp24
 70
     1
102
RTVSPropertyOp25
 70
     1
102
RTVSPropertyOp26
 70
     1
102
RTVSPropertyOp27
 70
     1
102
RTVSPropertyOp28
 70
     1
102
RTVSPropertyOp29
 70
     1
102
RTVSPropertyOp30
 70
     1
102
RTVSPropertyOp31
 70
     1
102
RTVSPropertyOp32
 70
     1
  0
XRECORD
  5
8E
102
{ACAD_REACTORS
330
8D
102
}
330
8D
100
AcDbXrecord
280
     1
102
RTVSPropertyOp0
 70
     1
102
RTVSPropertyOp1
 70
     1
102
RTVSPropertyOp2
 70
     1
102
RTVSPropertyOp3
 70
     1
102
RTVSPropertyOp4
 70
     1
102
RTVSPropertyOp5
 70
     1
102
RTVSPropertyOp6
 70
     1
102
RTVSPropertyOp7
 70
     1
102
RTVSPropertyOp8
 70
     1
102
RTVSPropertyOp9
 70
     1
102
RTVSPropertyOp10
 70
     1
102
RTVSPropertyOp11
 70
     1
102
RTVSPropertyOp12
 70
     1
102
RTVSPropertyOp13
 70
     1
102
RTVSPropertyOp14
 70
     1
102
RTVSPropertyOp15
 70
     1
102
RTVSPropertyOp16
 70
     1
102
RTVSPropertyOp17
 70
     1
102
RTVSPropertyOp18
 70
     1
102
RTVSPropertyOp19
 70
     1
102
RTVSPropertyOp20
 70
     1
102
RTVSPropertyOp21
 70
     1
102
RTVSPropertyOp22
 70
     1
102
RTVSPropertyOp23
 70
     1
102
RTVSPropertyOp24
 70
     1
102
RTVSPropertyOp25
 70
     1
102
RTVSPropertyOp26
 70
     1
102
RTVSPropertyOp27
 70
     1
102
RTVSPropertyOp28
 70
     1
102
RTVSPropertyOp29
 70
     1
102
RTVSPropertyOp30
 70
     1
102
RTVSPropertyOp31
 70
     1
102
RTVSPropertyOp32
 70
     1
  0
XRECORD
  5
96
102
{ACAD_REACTORS
330
95
102
}
330
95
100
AcDbXrecord
280
     1
102
RTVSPropertyOp0
 70
     1
102
RTVSPropertyOp1
 70
     1
102
RTVSPropertyOp2
 70
     1
102
RTVSPropertyOp3
 70
     1
102
RTVSPropertyOp4
 70
     1
102
RTVSPropertyOp5
 70
     1
102
RTVSPropertyOp6
 70
     1
102
RTVSPropertyOp7
 70
     1
102
RTVSPropertyOp8
 70
     1
102
RTVSPropertyOp9
 70
     1
102
RTVSPropertyOp10
 70
     1
102
RTVSPropertyOp11
 70
     1
102
RTVSPropertyOp12
 70
     1
102
RTVSPropertyOp13
 70
     1
102
RTVSPropertyOp14
 70
     1
102
RTVSPropertyOp15
 70
     1
102
RTVSPropertyOp16
 70
     1
102
RTVSPropertyOp17
 70
     1
102
RTVSPropertyOp18
 70
     1
102
RTVSPropertyOp19
 70
     1
102
RTVSPropertyOp20
 70
     1
102
RTVSPropertyOp21
 70
     1
102
RTVSPropertyOp22
 70
     1
102
RTVSPropertyOp23
 70
     1
102
RTVSPropertyOp24
 70
     1
102
RTVSPropertyOp25
 70
     1
102
RTVSPropertyOp26
 70
     1
102
RTVSPropertyOp27
 70
     1
102
RTVSPropertyOp28
 70
     1
102
RTVSPropertyOp29
 70
     1
102
RTVSPropertyOp30
 70
     1
102
RTVSPropertyOp31
 70
     1
102
RTVSPropertyOp32
 70
     1
  0
ENDSEC
  0
EOF
