  0
SECTION
  2
HEADER
  9
$ACADVER
  1
AC1021
  9
$ACADMAINTVER
 70
    25
  9
$DWGCODEPAGE
  3
ANSI_1252
  9
$INSBASE
 10
0.0
 20
0.0
 30
0.0
  9
$EXTMIN
 10
-187.4881
 20
-115.0575
 30
0.0
  9
$EXTMAX
 10
-55.8191
 20
131.822
 30
0.0
  9
$LIMMIN
 10
0.0
 20
0.0
  9
$LIMMAX
 10
12.0
 20
9.0
  9
$ORTHOMODE
 70
     0
  9
$REGENMODE
 70
     1
  9
$FILLMODE
 70
     1
  9
$QTEXTMODE
 70
     0
  9
$MIRRTEXT
 70
     1
  9
$LTSCALE
 40
1.0
  9
$ATTMODE
 70
     1
  9
$TEXTSIZE
 40
0.2
  9
$TRACEWID
 40
0.05
  9
$TEXTSTYLE
  7
Standard
  9
$CLAYER
  8
0
  9
$CELTYPE
  6
ByLayer
  9
$CECOLOR
 62
   256
  9
$CELTSCALE
 40
1.0
  9
$DISPSILH
 70
     0
  9
$DIMSCALE
 40
1.0
  9
$DIMASZ
 40
0.18
  9
$DIMEXO
 40
0.0625
  9
$DIMDLI
 40
0.38
  9
$DIMRND
 40
0.0
  9
$DIMDLE
 40
0.0
  9
$DIMEXE
 40
0.18
  9
$DIMTP
 40
0.0
  9
$DIMTM
 40
0.0
  9
$DIMTXT
 40
0.18
  9
$DIMCEN
 40
0.09
  9
$DIMTSZ
 40
0.0
  9
$DIMTOL
 70
     0
  9
$DIMLIM
 70
     0
  9
$DIMTIH
 70
     1
  9
$DIMTOH
 70
     1
  9
$DIMSE1
 70
     0
  9
$DIMSE2
 70
     0
  9
$DIMTAD
 70
     0
  9
$DIMZIN
 70
     0
  9
$DIMBLK
  1

  9
$DIMASO
 70
     1
  9
$DIMSHO
 70
     1
  9
$DIMPOST
  1

  9
$DIMAPOST
  1

  9
$DIMALT
 70
     0
  9
$DIMALTD
 70
     2
  9
$DIMALTF
 40
25.4
  9
$DIMLFAC
 40
1.0
  9
$DIMTOFL
 70
     0
  9
$DIMTVP
 40
0.0
  9
$DIMTIX
 70
     0
  9
$DIMSOXD
 70
     0
  9
$DIMSAH
 70
     0
  9
$DIMBLK1
  1

  9
$DIMBLK2
  1

  9
$DIMSTYLE
  2
Standard
  9
$DIMCLRD
 70
     0
  9
$DIMCLRE
 70
     0
  9
$DIMCLRT
 70
     0
  9
$DIMTFAC
 40
1.0
  9
$DIMGAP
 40
0.09
  9
$DIMJUST
 70
     0
  9
$DIMSD1
 70
     0
  9
$DIMSD2
 70
     0
  9
$DIMTOLJ
 70
     1
  9
$DIMTZIN
 70
     0
  9
$DIMALTZ
 70
     0
  9
$DIMALTTZ
 70
     0
  9
$DIMUPT
 70
     0
  9
$DIMDEC
 70
     4
  9
$DIMTDEC
 70
     4
  9
$DIMALTU
 70
     2
  9
$DIMALTTD
 70
     2
  9
$DIMTXSTY
  7
Standard
  9
$DIMAUNIT
 70
     0
  9
$DIMADEC
 70
     0
  9
$DIMALTRND
 40
0.0
  9
$DIMAZIN
 70
     0
  9
$DIMDSEP
 70
    46
  9
$DIMATFIT
 70
     3
  9
$DIMFRAC
 70
     0
  9
$DIMLDRBLK
  1

  9
$DIMLUNIT
 70
     2
  9
$DIMLWD
 70
    -2
  9
$DIMLWE
 70
    -2
  9
$DIMTMOVE
 70
     0
  9
$DIMFXL
 40
1.0
  9
$DIMFXLON
 70
     0
  9
$DIMJOGANG
 40
0.7853981633974483
  9
$DIMTFILL
 70
     0
  9
$DIMTFILLCLR
 70
     0
  9
$DIMARCSYM
 70
     0
  9
$DIMLTYPE
  6

  9
$DIMLTEX1
  6

  9
$DIMLTEX2
  6

  9
$LUNITS
 70
     2
  9
$LUPREC
 70
     4
  9
$SKETCHINC
 40
0.1
  9
$FILLETRAD
 40
0.5
  9
$AUNITS
 70
     0
  9
$AUPREC
 70
     0
  9
$MENU
  1
.
  9
$ELEVATION
 40
0.0
  9
$PELEVATION
 40
0.0
  9
$THICKNESS
 40
0.0
  9
$LIMCHECK
 70
     0
  9
$CHAMFERA
 40
0.5
  9
$CHAMFERB
 40
0.5
  9
$CHAMFERC
 40
1.0
  9
$CHAMFERD
 40
0.0
  9
$SKPOLY
 70
     0
  9
$TDCREATE
 40
2458492.843078588
  9
$TDUCREATE
 40
2458492.843078588
  9
$TDUPDATE
 40
2458492.843078658
  9
$TDUUPDATE
 40
2458492.843078658
  9
$TDINDWG
 40
0.0000000116
  9
$TDUSRTIMER
 40
0.0000000116
  9
$USRTIMER
 70
     1
  9
$ANGBASE
 50
0.0
  9
$ANGDIR
 70
     0
  9
$PDMODE
 70
     0
  9
$PDSIZE
 40
0.0
  9
$PLINEWID
 40
0.0
  9
$SPLFRAME
 70
     0
  9
$SPLINETYPE
 70
     6
  9
$SPLINESEGS
 70
     8
  9
$HANDSEED
  5
106
  9
$SURFTAB1
 70
     6
  9
$SURFTAB2
 70
     6
  9
$SURFTYPE
 70
     6
  9
$SURFU
 70
     6
  9
$SURFV
 70
     6
  9
$UCSBASE
  2

  9
$UCSNAME
  2

  9
$UCSORG
 10
0.0
 20
0.0
 30
0.0
  9
$UCSXDIR
 10
1.0
 20
0.0
 30
0.0
  9
$UCSYDIR
 10
0.0
 20
1.0
 30
0.0
  9
$UCSORTHOREF
  2

  9
$UCSORTHOVIEW
 70
     0
  9
$UCSORGTOP
 10
0.0
 20
0.0
 30
0.0
  9
$UCSORGBOTTOM
 10
0.0
 20
0.0
 30
0.0
  9
$UCSORGLEFT
 10
0.0
 20
0.0
 30
0.0
  9
$UCSORGRIGHT
 10
0.0
 20
0.0
 30
0.0
  9
$UCSORGFRONT
 10
0.0
 20
0.0
 30
0.0
  9
$UCSORGBACK
 10
0.0
 20
0.0
 30
0.0
  9
$PUCSBASE
  2

  9
$PUCSNAME
  2

  9
$PUCSORG
 10
0.0
 20
0.0
 30
0.0
  9
$PUCSXDIR
 10
1.0
 20
0.0
 30
0.0
  9
$PUCSYDIR
 10
0.0
 20
1.0
 30
0.0
  9
$PUCSORTHOREF
  2

  9
$PUCSORTHOVIEW
 70
     0
  9
$PUCSORGTOP
 10
0.0
 20
0.0
 30
0.0
  9
$PUCSORGBOTTOM
 10
0.0
 20
0.0
 30
0.0
  9
$PUCSORGLEFT
 10
0.0
 20
0.0
 30
0.0
  9
$PUCSORGRIGHT
 10
0.0
 20
0.0
 30
0.0
  9
$PUCSORGFRONT
 10
0.0
 20
0.0
 30
0.0
  9
$PUCSORGBACK
 10
0.0
 20
0.0
 30
0.0
  9
$USERI1
 70
     0
  9
$USERI2
 70
     0
  9
$USERI3
 70
     0
  9
$USERI4
 70
     0
  9
$USERI5
 70
     0
  9
$USERR1
 40
0.0
  9
$USERR2
 40
0.0
  9
$USERR3
 40
0.0
  9
$USERR4
 40
0.0
  9
$USERR5
 40
0.0
  9
$WORLDVIEW
 70
     1
  9
$SHADEDGE
 70
     3
  9
$SHADEDIF
 70
    70
  9
$TILEMODE
 70
     1
  9
$MAXACTVP
 70
    64
  9
$PINSBASE
 10
0.0
 20
0.0
 30
0.0
  9
$PLIMCHECK
 70
     0
  9
$PEXTMIN
 10
1.000000000000000E+20
 20
1.000000000000000E+20
 30
1.000000000000000E+20
  9
$PEXTMAX
 10
-1.000000000000000E+20
 20
-1.000000000000000E+20
 30
-1.000000000000000E+20
  9
$PLIMMIN
 10
0.0
 20
0.0
  9
$PLIMMAX
 10
12.0
 20
9.0
  9
$UNITMODE
 70
     0
  9
$VISRETAIN
 70
     1
  9
$PLINEGEN
 70
     0
  9
$PSLTSCALE
 70
     1
  9
$TREEDEPTH
 70
  3020
  9
$CMLSTYLE
  2
Standard
  9
$CMLJUST
 70
     0
  9
$CMLSCALE
 40
1.0
  9
$PROXYGRAPHICS
 70
     1
  9
$MEASUREMENT
 70
     0
  9
$CELWEIGHT
370
    -1
  9
$ENDCAPS
280
     0
  9
$JOINSTYLE
280
     0
  9
$LWDISPLAY
290
     0
  9
$INSUNITS
 70
     4
  9
$HYPERLINKBASE
  1

  9
$STYLESHEET
  1

  9
$XEDIT
290
     1
  9
$CEPSNTYPE
380
     0
  9
$PSTYLEMODE
290
     1
  9
$FINGERPRINTGUID
  2
{530AFC0D-D267-4FCC-A8BC-D1E0ADB59D1F}
  9
$VERSIONGUID
  2
{FAEB1C32-E019-11D5-929B-00C0DF256EC4}
  9
$EXTNAMES
290
     1
  9
$PSVPSCALE
 40
0.0
  9
$OLESTARTUP
290
     0
  9
$SORTENTS
280
   127
  9
$INDEXCTL
280
     0
  9
$HIDETEXT
280
     1
  9
$XCLIPFRAME
290
     0
  9
$HALOGAP
280
     0
  9
$OBSCOLOR
 70
   257
  9
$OBSLTYPE
280
     0
  9
$INTERSECTIONDISPLAY
280
     0
  9
$INTERSECTIONCOLOR
 70
   257
  9
$DIMASSOC
280
     2
  9
$PROJECTNAME
  1

  9
$CAMERADISPLAY
290
     0
  9
$LENSLENGTH
 40
50.0
  9
$CAMERAHEIGHT
 40
0.0
  9
$STEPSPERSEC
 40
2.0
  9
$STEPSIZE
 40
6.0
  9
$3DDWFPREC
 40
2.0
  9
$PSOLWIDTH
 40
0.25
  9
$PSOLHEIGHT
 40
4.0
  9
$LOFTANG1
 40
1.570796326794897
  9
$LOFTANG2
 40
1.570796326794897
  9
$LOFTMAG1
 40
0.0
  9
$LOFTMAG2
 40
0.0
  9
$LOFTPARAM
 70
     7
  9
$LOFTNORMALS
280
     1
  9
$LATITUDE
 40
37.795
  9
$LONGITUDE
 40
-122.394
  9
$NORTHDIRECTION
 40
0.0
  9
$TIMEZONE
 70
 -8000
  9
$LIGHTGLYPHDISPLAY
280
     1
  9
$TILEMODELIGHTSYNCH
280
     1
  9
$SOLIDHIST
280
     1
  9
$SHOWHIST
280
     1
  9
$DWFFRAME
280
     2
  9
$DGNFRAME
280
     2
  9
$REALWORLDSCALE
290
     1
  9
$INTERFERECOLOR
 62
   256
  9
$CSHADOW
280
     0
  9
$SHADOWPLANELOCATION
 40
0.0
  0
ENDSEC
  0
SECTION
  2
CLASSES
  0
CLASS
  1
ACDBDICTIONARYWDFLT
  2
AcDbDictionaryWithDefault
  3
ObjectDBX Classes
 90
        0
 91
        4
280
     0
281
     0
  0
CLASS
  1
VISUALSTYLE
  2
AcDbVisualStyle
  3
ObjectDBX Classes
 90
     4095
 91
        4
280
     0
281
     0
  0
CLASS
  1
MATERIAL
  2
AcDbMaterial
  3
ObjectDBX Classes
 90
     1153
 91
        4
280
     0
281
     0
  0
ENDSEC
  0
SECTION
  2
TABLES
  0
TABLE
  2
VPORT
  5
8
330
0
100
AcDbSymbolTable
 70
     1
  0
VPORT
  5
29
330
8
100
AcDbSymbolTableRecord
100
AcDbViewportTableRecord
  2
*Active
 70
     0
 10
0.0
 20
0.0
 11
1.0
 21
1.0
 12
10.42990654205607
 22
4.5
 13
0.0
 23
0.0
 14
0.5
 24
0.5
 15
0.5
 25
0.5
 16
0.0
 26
0.0
 36
1.0
 17
0.0
 27
0.0
 37
0.0
 40
9.0
 41
1.972972972850329
 42
50.0
 43
0.0
 44
0.0
 50
0.0
 51
0.0
 71
     0
 72
   100
 73
     1
 74
     3
 75
     0
 76
     0
 77
     0
 78
     0
281
     0
 65
     1
110
0.0
120
0.0
130
0.0
111
1.0
121
0.0
131
0.0
112
0.0
122
1.0
132
0.0
 79
     0
146
0.0
 60
     3
 61
     5
292
     1
282
     1
141
0.0
142
0.0
 63
   250
  0
ENDTAB
  0
TABLE
  2
LTYPE
  5
5
330
0
100
AcDbSymbolTable
 70
     1
  0
LTYPE
  5
14
330
5
100
AcDbSymbolTableRecord
100
AcDbLinetypeTableRecord
  2
ByBlock
 70
     0
  3

 72
    65
 73
     0
 40
0.0
  0
LTYPE
  5
15
330
5
100
AcDbSymbolTableRecord
100
AcDbLinetypeTableRecord
  2
ByLayer
 70
     0
  3

 72
    65
 73
     0
 40
0.0
  0
LTYPE
  5
16
330
5
100
AcDbSymbolTableRecord
100
AcDbLinetypeTableRecord
  2
Continuous
 70
     0
  3
Solid line
 72
    65
 73
     0
 40
0.0
  0
ENDTAB
  0
TABLE
  2
LAYER
  5
2
330
0
100
AcDbSymbolTable
 70
     2
  0
LAYER
  5
10
330
2
100
AcDbSymbolTableRecord
100
AcDbLayerTableRecord
  2
0
 70
     0
 62
     7
  6
Continuous
370
    -3
390
F
347
3E
  0
LAYER
  5
40
330
2
100
AcDbSymbolTableRecord
100
AcDbLayerTableRecord
  2
layer 1
 70
     0
 62
     7
  6
Continuous
370
    -3
390
F
347
3E
  0
ENDTAB
  0
TABLE
  2
STYLE
  5
3
330
0
100
AcDbSymbolTable
 70
     1
  0
STYLE
  5
11
330
3
100
AcDbSymbolTableRecord
100
AcDbTextStyleTableRecord
  2
Standard
 70
     0
 40
0.0
 41
1.0
 50
0.0
 71
     0
 42
0.2
  3
txt
  4

  0
ENDTAB
  0
TABLE
  2
VIEW
  5
6
330
0
100
AcDbSymbolTable
 70
     0
  0
ENDTAB
  0
TABLE
  2
UCS
  5
7
330
0
100
AcDbSymbolTable
 70
     0
  0
ENDTAB
  0
TABLE
  2
APPID
  5
9
330
0
100
AcDbSymbolTable
 70
     2
  0
APPID
  5
12
330
9
100
AcDbSymbolTableRecord
100
AcDbRegAppTableRecord
  2
ACAD
 70
     0
  0
APPID
  5
3F
330
9
100
AcDbSymbolTableRecord
100
AcDbRegAppTableRecord
  2
ODA
 70
     0
  0
ENDTAB
  0
TABLE
  2
DIMSTYLE
  5
A
330
0
100
AcDbSymbolTable
 70
     1
100
AcDbDimStyleTable
  0
DIMSTYLE
105
27
330
A
100
AcDbSymbolTableRecord
100
AcDbDimStyleTableRecord
  2
Standard
 70
     0
178
     0
340
11
  0
ENDTAB
  0
TABLE
  2
BLOCK_RECORD
  5
1
330
0
100
AcDbSymbolTable
 70
     1
  0
BLOCK_RECORD
  5
1F
330
1
100
AcDbSymbolTableRecord
100
AcDbBlockTableRecord
  2
*Model_Space
340
22
 70
     0
280
     1
281
     0
  0
BLOCK_RECORD
  5
1B
330
1
100
AcDbSymbolTableRecord
100
AcDbBlockTableRecord
  2
*Paper_Space
340
1E
 70
     0
280
     1
281
     0
  0
BLOCK_RECORD
  5
23
330
1
100
AcDbSymbolTableRecord
100
AcDbBlockTableRecord
  2
*Paper_Space0
340
26
 70
     0
280
     1
281
     0
  0
ENDTAB
  0
ENDSEC
  0
SECTION
  2
BLOCKS
  0
BLOCK
  5
20
330
1F
100
AcDbEntity
  8
0
100
AcDbBlockBegin
  2
*Model_Space
 70
     0
 10
0.0
 20
0.0
 30
0.0
  3
*Model_Space
  1

  0
ENDBLK
  5
21
330
1F
100
AcDbEntity
  8
0
100
AcDbBlockEnd
  0
BLOCK
  5
1C
330
1B
100
AcDbEntity
 67
     1
  8
0
100
AcDbBlockBegin
  2
*Paper_Space
 70
     0
 10
0.0
 20
0.0
 30
0.0
  3
*Paper_Space
  1

  0
ENDBLK
  5
1D
330
1B
100
AcDbEntity
 67
     1
  8
0
100
AcDbBlockEnd
  0
BLOCK
  5
24
330
23
100
AcDbEntity
  8
0
100
AcDbBlockBegin
  2
*Paper_Space0
 70
     0
 10
0.0
 20
0.0
 30
0.0
  3
*Paper_Space0
  1

  0
ENDBLK
  5
25
330
23
100
AcDbEntity
  8
0
100
AcDbBlockEnd
  0
ENDSEC
  0
SECTION
  2
ENTITIES
  0
SPLINE
  5
41
330
1F
100
AcDbEntity
  8
layer 1
 62
   250
100
AcDbSpline
210
0.0
220
0.0
230
1.0
 70
    11
 71
     3
 72
    32
 73
    28
 74
     0
 42
0.0000000001
 43
0.0000000001
 12
1.0
 22
0.0
 32
0.0
 13
1.0
 23
0.0
 33
0.0
 40
0.0
 40
0.0
 40
0.0
 40
0.0
 40
0.125
 40
0.125
 40
0.125
 40
0.125
 40
0.25
 40
0.25
 40
0.25
 40
0.25
 40
0.375
 40
0.375
 40
0.375
 40
0.375
 40
0.5
 40
0.5
 40
0.5
 40
0.5
 40
0.625
 40
0.625
 40
0.625
 40
0.625
 40
0.75
 40
0.75
 40
0.75
 40
0.75
 40
1.0
 40
1.0
 40
1.0
 40
1.0
 10
-143.9413
 20
21.2977
 30
0.0
 10
-143.9413
 20
21.2977
 30
0.0
 10
-143.5984
 20
28.9555
 30
0.0
 10
-135.4834
 20
25.7552
 30
0.0
 10
-135.4834
 20
25.7552
 30
0.0
 10
-131.7116
 20
23.5836
 30
0.0
 10
-132.8546
 20
20.3833
 30
0.0
 10
-132.8546
 20
20.3833
 30
0.0
 10
-132.8546
 20
20.3833
 30
0.0
 10
-132.8546
 20
20.3833
 30
0.0
 10
-129.7686
 20
17.183
 30
0.0
 10
-129.7686
 20
17.183
 30
0.0
 10
-129.7686
 20
17.183
 30
0.0
 10
-129.7686
 20
17.183
 30
0.0
 10
-127.597
 20
25.641
 30
0.0
 10
-132.0545
 20
28.1555
 30
0.0
 10
-132.0545
 20
28.1555
 30
0.0
 10
-136.5121
 20
30.67
 30
0.0
 10
-139.7124
 20
31.47
 30
0.0
 10
-144.0556
 20
27.9269
 30
0.0
 10
-144.0556
 20
27.9269
 30
0.0
 10
-144.0556
 20
27.9269
 30
0.0
 10
-146.6844
 20
25.2981
 30
0.0
 10
-145.4272
 20
22.555
 30
0.0
 10
-145.4272
 20
22.555
 30
0.0
 10
-144.5128
 20
21.1262
 30
0.0
 10
-143.9413
 20
21.2977
 30
0.0
 10
-143.9413
 20
21.2977
 30
0.0
  0
SPLINE
  5
42
330
1F
100
AcDbEntity
  8
layer 1
 62
   250
100
AcDbSpline
210
0.0
220
0.0
230
1.0
 70
    11
 71
     3
 72
    24
 73
    20
 74
     0
 42
0.0000000001
 43
0.0000000001
 12
1.0
 22
0.0
 32
0.0
 13
1.0
 23
0.0
 33
0.0
 40
0.0
 40
0.0
 40
0.0
 40
0.0
 40
0.1666666666666667
 40
0.1666666666666667
 40
0.1666666666666667
 40
0.1666666666666667
 40
0.3333333333333333
 40
0.3333333333333333
 40
0.3333333333333333
 40
0.3333333333333333
 40
0.5
 40
0.5
 40
0.5
 40
0.5
 40
0.6666666666666666
 40
0.6666666666666666
 40
0.6666666666666666
 40
0.6666666666666666
 40
1.0
 40
1.0
 40
1.0
 40
1.0
 10
-133.2546
 20
18.9546
 30
0.0
 10
-133.2546
 20
18.9546
 30
0.0
 10
-135.7691
 20
14.7828
 30
0.0
 10
-138.8551
 20
13.8685
 30
0.0
 10
-138.8551
 20
13.8685
 30
0.0
 10
-136.2835
 20
13.3541
 30
0.0
 10
-133.8261
 20
10.7825
 30
0.0
 10
-134.9119
 20
7.525
 30
0.0
 10
-134.9119
 20
7.525
 30
0.0
 10
-133.026
 20
9.1823
 30
0.0
 10
-130.9687
 20
15.5258
 30
0.0
 10
-130.9687
 20
15.7544
 30
0.0
 10
-130.9687
 20
15.7544
 30
0.0
 10
-130.9687
 20
15.9829
 30
0.0
 10
-133.026
 20
19.0118
 30
0.0
 10
-133.026
 20
19.0118
 30
0.0
 10
-133.026
 20
19.0118
 30
0.0
 10
-133.026
 20
19.0118
 30
0.0
 10
-133.2546
 20
18.9546
 30
0.0
 10
-133.2546
 20
18.9546
 30
0.0
  0
SPLINE
  5
43
330
1F
100
AcDbEntity
  8
layer 1
 62
   250
100
AcDbSpline
210
0.0
220
0.0
230
1.0
 70
    11
 71
     3
 72
    20
 73
    16
 74
     0
 42
0.0000000001
 43
0.0000000001
 12
1.0
 22
0.0
 32
0.0
 13
1.0
 23
0.0
 33
0.0
 40
0.0
 40
0.0
 40
0.0
 40
0.0
 40
0.2
 40
0.2
 40
0.2
 40
0.2
 40
0.4
 40
0.4
 40
0.4
 40
0.4
 40
0.6
 40
0.6
 40
0.6
 40
0.6
 40
1.0
 40
1.0
 40
1.0
 40
1.0
 10
-156.5138
 20
36.842
 30
0.0
 10
-158.6855
 20
30.7843
 30
0.0
 10
-152.2849
 20
26.7839
 30
0.0
 10
-152.2849
 20
26.7839
 30
0.0
 10
-152.2849
 20
26.7839
 30
0.0
 10
-152.0563
 20
30.5557
 30
0.0
 10
-148.7418
 20
33.6416
 30
0.0
 10
-148.7418
 20
33.6416
 30
0.0
 10
-148.7418
 20
33.6416
 30
0.0
 10
-155.5995
 20
35.0132
 30
0.0
 10
-151.3706
 20
40.8423
 30
0.0
 10
-151.3706
 20
40.8423
 30
0.0
 10
-151.3706
 20
40.8423
 30
0.0
 10
-155.8281
 20
40.0423
 30
0.0
 10
-156.5138
 20
36.842
 30
0.0
 10
-156.5138
 20
36.842
 30
0.0
  0
SPLINE
  5
44
330
1F
100
AcDbEntity
  8
layer 1
 62
   250
100
AcDbSpline
210
0.0
220
0.0
230
1.0
 70
    11
 71
     3
 72
    24
 73
    20
 74
     0
 42
0.0000000001
 43
0.0000000001
 12
1.0
 22
0.0
 32
0.0
 13
1.0
 23
0.0
 33
0.0
 40
0.0
 40
0.0
 40
0.0
 40
0.0
 40
0.1666666666666667
 40
0.1666666666666667
 40
0.1666666666666667
 40
0.1666666666666667
 40
0.3333333333333333
 40
0.3333333333333333
 40
0.3333333333333333
 40
0.3333333333333333
 40
0.5
 40
0.5
 40
0.5
 40
0.5
 40
0.6666666666666666
 40
0.6666666666666666
 40
0.6666666666666666
 40
0.6666666666666666
 40
1.0
 40
1.0
 40
1.0
 40
1.0
 10
-158.7998
 20
23.0121
 30
0.0
 10
-147.3702
 20
17.8688
 30
0.0
 10
-150.3419
 20
10.5539
 30
0.0
 10
-149.3132
 20
11.8111
 30
0.0
 10
-149.3132
 20
11.8111
 30
0.0
 10
-148.2845
 20
13.0684
 30
0.0
 10
-144.6271
 20
14.5542
 30
0.0
 10
-144.6271
 20
14.5542
 30
0.0
 10
-144.6271
 20
14.5542
 30
0.0
 10
-152.5135
 20
16.8401
 30
0.0
 10
-152.6278
 20
24.9552
 30
0.0
 10
-152.6278
 20
24.9552
 30
0.0
 10
-152.6278
 20
24.9552
 30
0.0
 10
-152.6278
 20
24.9552
 30
0.0
 10
-159.1427
 20
27.1268
 30
0.0
 10
-160.3999
 20
32.7273
 30
0.0
 10
-160.3999
 20
32.7273
 30
0.0
 10
-160.6239
 20
33.7248
 30
0.0
 10
-164.5146
 20
28.1555
 30
0.0
 10
-158.7998
 20
23.0121
 30
0.0
  0
SPLINE
  5
45
330
1F
100
AcDbEntity
  8
layer 1
 62
   250
100
AcDbSpline
210
0.0
220
0.0
230
1.0
 70
    11
 71
     3
 72
    20
 73
    16
 74
     0
 42
0.0000000001
 43
0.0000000001
 12
1.0
 22
0.0
 32
0.0
 13
1.0
 23
0.0
 33
0.0
 40
0.0
 40
0.0
 40
0.0
 40
0.0
 40
0.2
 40
0.2
 40
0.2
 40
0.2
 40
0.4
 40
0.4
 40
0.4
 40
0.4
 40
0.6
 40
0.6
 40
0.6
 40
0.6
 40
1.0
 40
1.0
 40
1.0
 40
1.0
 10
-170.8009
 20
22.0978
 30
0.0
 10
-168.7436
 20
23.9265
 30
0.0
 10
-163.3716
 20
24.2694
 30
0.0
 10
-163.3716
 20
24.2694
 30
0.0
 10
-163.3716
 20
24.2694
 30
0.0
 10
-164.4003
 20
25.641
 30
0.0
 10
-163.9431
 20
28.727
 30
0.0
 10
-163.9431
 20
28.727
 30
0.0
 10
-163.9431
 20
28.727
 30
0.0
 10
-165.2004
 20
26.7839
 30
0.0
 10
-170.2294
 20
24.1551
 30
0.0
 10
-170.2294
 20
24.1551
 30
0.0
 10
-170.2294
 20
24.1551
 30
0.0
 10
-170.458
 20
23.0121
 30
0.0
 10
-170.8009
 20
22.0978
 30
0.0
 10
-170.8009
 20
22.0978
 30
0.0
  0
SPLINE
  5
46
330
1F
100
AcDbEntity
  8
layer 1
 62
   250
100
AcDbSpline
210
0.0
220
0.0
230
1.0
 70
    11
 71
     3
 72
    32
 73
    28
 74
     0
 42
0.0000000001
 43
0.0000000001
 12
1.0
 22
0.0
 32
0.0
 13
1.0
 23
0.0
 33
0.0
 40
0.0
 40
0.0
 40
0.0
 40
0.0
 40
0.125
 40
0.125
 40
0.125
 40
0.125
 40
0.25
 40
0.25
 40
0.25
 40
0.25
 40
0.375
 40
0.375
 40
0.375
 40
0.375
 40
0.5
 40
0.5
 40
0.5
 40
0.5
 40
0.625
 40
0.625
 40
0.625
 40
0.625
 40
0.75
 40
0.75
 40
0.75
 40
0.75
 40
1.0
 40
1.0
 40
1.0
 40
1.0
 10
-166.229
 20
6.0963
 30
0.0
 10
-162.5716
 20
5.6392
 30
0.0
 10
-161.8858
 20
8.0394
 30
0.0
 10
-161.8858
 20
8.0394
 30
0.0
 10
-161.8858
 20
8.0394
 30
0.0
 10
-163.3716
 20
6.7821
 30
0.0
 10
-164.4003
 20
7.4679
 30
0.0
 10
-164.4003
 20
7.4679
 30
0.0
 10
-164.4003
 20
7.4679
 30
0.0
 10
-164.4003
 20
7.4679
 30
0.0
 10
-171.3724
 20
9.4109
 30
0.0
 10
-168.5149
 20
15.3543
 30
0.0
 10
-168.5149
 20
15.3543
 30
0.0
 10
-162.2287
 20
21.8692
 30
0.0
 10
-154.5708
 20
15.9258
 30
0.0
 10
-154.5708
 20
15.9258
 30
0.0
 10
-154.5708
 20
15.9258
 30
0.0
 10
-157.5425
 20
22.555
 30
0.0
 10
-164.4003
 20
21.2977
 30
0.0
 10
-164.4003
 20
21.2977
 30
0.0
 10
-164.4003
 20
21.2977
 30
0.0
 10
-164.4003
 20
21.2977
 30
0.0
 10
-170.8009
 20
20.8405
 30
0.0
 10
-172.5153
 20
15.3543
 30
0.0
 10
-172.5153
 20
15.3543
 30
0.0
 10
-174.2298
 20
9.8681
 30
0.0
 10
-169.8865
 20
6.5535
 30
0.0
 10
-166.229
 20
6.0963
 30
0.0
  0
SPLINE
  5
47
330
1F
100
AcDbEntity
  8
layer 1
 62
   250
100
AcDbSpline
210
0.0
220
0.0
230
1.0
 70
    11
 71
     3
 72
    20
 73
    16
 74
     0
 42
0.0000000001
 43
0.0000000001
 12
1.0
 22
0.0
 32
0.0
 13
1.0
 23
0.0
 33
0.0
 40
0.0
 40
0.0
 40
0.0
 40
0.0
 40
0.2
 40
0.2
 40
0.2
 40
0.2
 40
0.4
 40
0.4
 40
0.4
 40
0.4
 40
0.6
 40
0.6
 40
0.6
 40
0.6
 40
1.0
 40
1.0
 40
1.0
 40
1.0
 10
-163.3716
 20
15.1257
 30
0.0
 10
-164.9497
 20
15.1257
 30
0.0
 10
-166.229
 20
13.8464
 30
0.0
 10
-166.229
 20
12.2683
 30
0.0
 10
-166.229
 20
12.2683
 30
0.0
 10
-166.229
 20
10.6902
 30
0.0
 10
-164.9497
 20
9.4109
 30
0.0
 10
-163.3716
 20
9.4109
 30
0.0
 10
-163.3716
 20
9.4109
 30
0.0
 10
-161.7935
 20
9.4109
 30
0.0
 10
-160.5143
 20
10.6902
 30
0.0
 10
-160.5143
 20
12.2683
 30
0.0
 10
-160.5143
 20
12.2683
 30
0.0
 10
-160.5143
 20
13.8464
 30
0.0
 10
-161.7935
 20
15.1257
 30
0.0
 10
-163.3716
 20
15.1257
 30
0.0
  0
SPLINE
  5
48
330
1F
100
AcDbEntity
  8
layer 1
 62
   250
100
AcDbSpline
210
0.0
220
0.0
230
1.0
 70
    11
 71
     3
 72
    20
 73
    16
 74
     0
 42
0.0000000001
 43
0.0000000001
 12
1.0
 22
0.0
 32
0.0
 13
1.0
 23
0.0
 33
0.0
 40
0.0
 40
0.0
 40
0.0
 40
0.0
 40
0.2
 40
0.2
 40
0.2
 40
0.2
 40
0.4
 40
0.4
 40
0.4
 40
0.4
 40
0.6
 40
0.6
 40
0.6
 40
0.6
 40
1.0
 40
1.0
 40
1.0
 40
1.0
 10
-157.9997
 20
8.3822
 30
0.0
 10
-157.9997
 20
8.3822
 30
0.0
 10
-160.7428
 20
1.9817
 30
0.0
 10
-167.9435
 20
3.5818
 30
0.0
 10
-167.9435
 20
3.5818
 30
0.0
 10
-167.9435
 20
3.5818
 30
0.0
 10
-169.7722
 20
1.7531
 30
0.0
 10
-170.458
 20
1.7531
 30
0.0
 10
-170.458
 20
1.7531
 30
0.0
 10
-170.458
 20
1.7531
 30
0.0
 10
-167.6006
 20
-2.0187
 30
0.0
 10
-168.9721
 20
-8.1907
 30
0.0
 10
-168.9721
 20
-8.1907
 30
0.0
 10
-168.9721
 20
-8.1907
 30
0.0
 10
-158.114
 20
-1.5615
 30
0.0
 10
-157.9997
 20
8.3822
 30
0.0
  0
SPLINE
  5
49
330
1F
100
AcDbEntity
  8
layer 1
 62
   250
100
AcDbSpline
210
0.0
220
0.0
230
1.0
 70
    11
 71
     3
 72
    28
 73
    24
 74
     0
 42
0.0000000001
 43
0.0000000001
 12
1.0
 22
0.0
 32
0.0
 13
1.0
 23
0.0
 33
0.0
 40
0.0
 40
0.0
 40
0.0
 40
0.0
 40
0.1428571428571428
 40
0.1428571428571428
 40
0.1428571428571428
 40
0.1428571428571428
 40
0.2857142857142857
 40
0.2857142857142857
 40
0.2857142857142857
 40
0.2857142857142857
 40
0.4285714285714285
 40
0.4285714285714285
 40
0.4285714285714285
 40
0.4285714285714285
 40
0.5714285714285714
 40
0.5714285714285714
 40
0.5714285714285714
 40
0.5714285714285714
 40
0.7142857142857143
 40
0.7142857142857143
 40
0.7142857142857143
 40
0.7142857142857143
 40
1.0
 40
1.0
 40
1.0
 40
1.0
 10
-158.5712
 20
15.3543
 30
0.0
 10
-158.5712
 20
15.3543
 30
0.0
 10
-148.6274
 20
4.1533
 30
0.0
 10
-163.7145
 20
-7.3906
 30
0.0
 10
-163.7145
 20
-7.3906
 30
0.0
 10
-179.1445
 20
-19.7346
 30
0.0
 10
-178.573
 20
-22.592
 30
0.0
 10
-179.4873
 20
-25.678
 30
0.0
 10
-179.4873
 20
-25.678
 30
0.0
 10
-179.4873
 20
-25.678
 30
0.0
 10
-180.516
 20
-33.9073
 30
0.0
 10
-176.0585
 20
-36.6504
 30
0.0
 10
-176.0585
 20
-36.6504
 30
0.0
 10
-176.0585
 20
-36.6504
 30
0.0
 10
-178.4587
 20
-28.5353
 30
0.0
 10
-175.0298
 20
-22.1348
 30
0.0
 10
-175.0298
 20
-22.1348
 30
0.0
 10
-171.6009
 20
-15.7342
 30
0.0
 10
-161.2145
 20
-9.8873
 30
0.0
 10
-158.6855
 20
-7.8478
 30
0.0
 10
-158.6855
 20
-7.8478
 30
0.0
 10
-155.1423
 20
-4.9904
 30
0.0
 10
-142.7983
 20
10.8968
 30
0.0
 10
-158.5712
 20
15.3543
 30
0.0
  0
SPLINE
  5
4A
330
1F
100
AcDbEntity
  8
layer 1
 62
   250
100
AcDbSpline
210
0.0
220
0.0
230
1.0
 70
    11
 71
     3
 72
    24
 73
    20
 74
     0
 42
0.0000000001
 43
0.0000000001
 12
1.0
 22
0.0
 32
0.0
 13
1.0
 23
0.0
 33
0.0
 40
0.0
 40
0.0
 40
0.0
 40
0.0
 40
0.1666666666666667
 40
0.1666666666666667
 40
0.1666666666666667
 40
0.1666666666666667
 40
0.3333333333333333
 40
0.3333333333333333
 40
0.3333333333333333
 40
0.3333333333333333
 40
0.5
 40
0.5
 40
0.5
 40
0.5
 40
0.6666666666666666
 40
0.6666666666666666
 40
0.6666666666666666
 40
0.6666666666666666
 40
1.0
 40
1.0
 40
1.0
 40
1.0
 10
-172.9725
 20
3.4675
 30
0.0
 10
-171.9438
 20
4.039
 30
0.0
 10
-171.1438
 20
5.2963
 30
0.0
 10
-171.1438
 20
5.2963
 30
0.0
 10
-171.1438
 20
5.2963
 30
0.0
 10
-175.2584
 20
6.8964
 30
0.0
 10
-175.2584
 20
13.1827
 30
0.0
 10
-175.2584
 20
13.1827
 30
0.0
 10
-175.2584
 20
13.1827
 30
0.0
 10
-177.4191
 20
9.5095
 30
0.0
 10
-183.1472
 20
7.2649
 30
0.0
 10
-184.2516
 20
4.3275
 30
0.0
 10
-184.2516
 20
4.3275
 30
0.0
 10
-184.2516
 20
4.3275
 30
0.0
 10
-184.2516
 20
3.8837
 30
0.0
 10
-184.2516
 20
3.8837
 30
0.0
 10
-184.2516
 20
3.8837
 30
0.0
 10
-178.1451
 20
6.9493
 30
0.0
 10
-172.9725
 20
3.4675
 30
0.0
 10
-172.9725
 20
3.4675
 30
0.0
  0
SPLINE
  5
4B
330
1F
100
AcDbEntity
  8
layer 1
 62
   250
100
AcDbSpline
210
0.0
220
0.0
230
1.0
 70
    11
 71
     3
 72
    32
 73
    28
 74
     0
 42
0.0000000001
 43
0.0000000001
 12
1.0
 22
0.0
 32
0.0
 13
1.0
 23
0.0
 33
0.0
 40
0.0
 40
0.0
 40
0.0
 40
0.0
 40
0.125
 40
0.125
 40
0.125
 40
0.125
 40
0.25
 40
0.25
 40
0.25
 40
0.25
 40
0.375
 40
0.375
 40
0.375
 40
0.375
 40
0.5
 40
0.5
 40
0.5
 40
0.5
 40
0.625
 40
0.625
 40
0.625
 40
0.625
 40
0.75
 40
0.75
 40
0.75
 40
0.75
 40
1.0
 40
1.0
 40
1.0
 40
1.0
 10
-175.2584
 20
-1.9044
 30
0.0
 10
-178.3444
 20
2.3246
 30
0.0
 10
-182.6877
 20
-0.5329
 30
0.0
 10
-182.6877
 20
-0.5329
 30
0.0
 10
-182.6877
 20
-0.5329
 30
0.0
 10
-182.6877
 20
-0.5329
 30
0.0
 10
-183.4878
 20
-1.7901
 30
0.0
 10
-182.2305
 20
-1.3329
 30
0.0
 10
-182.2305
 20
-1.3329
 30
0.0
 10
-177.3158
 20
0.2672
 30
0.0
 10
-177.3158
 20
-4.8761
 30
0.0
 10
-177.3158
 20
-4.8761
 30
0.0
 10
-177.3158
 20
-4.8761
 30
0.0
 10
-177.217
 20
-10.2075
 30
0.0
 10
-182.7436
 20
-10.1659
 30
0.0
 10
-184.2516
 20
-10.0558
 30
0.0
 10
-184.2516
 20
-10.0558
 30
0.0
 10
-184.2516
 20
-10.0558
 30
0.0
 10
-184.2516
 20
-19.7475
 30
0.0
 10
-184.2516
 20
-19.7475
 30
0.0
 10
-184.2516
 20
-19.7475
 30
0.0
 10
-182.772
 20
-16.1619
 30
0.0
 10
-180.7051
 20
-14.0682
 30
0.0
 10
-180.0589
 20
-12.9911
 30
0.0
 10
-180.0589
 20
-12.9911
 30
0.0
 10
-179.3731
 20
-11.8482
 30
0.0
 10
-172.1725
 20
-6.1334
 30
0.0
 10
-175.2584
 20
-1.9044
 30
0.0
  0
SPLINE
  5
4C
330
1F
100
AcDbEntity
  8
layer 1
 62
   250
100
AcDbSpline
210
0.0
220
0.0
230
1.0
 70
    11
 71
     3
 72
    28
 73
    24
 74
     0
 42
0.0000000001
 43
0.0000000001
 12
1.0
 22
0.0
 32
0.0
 13
1.0
 23
0.0
 33
0.0
 40
0.0
 40
0.0
 40
0.0
 40
0.0
 40
0.1428571428571428
 40
0.1428571428571428
 40
0.1428571428571428
 40
0.1428571428571428
 40
0.2857142857142857
 40
0.2857142857142857
 40
0.2857142857142857
 40
0.2857142857142857
 40
0.4285714285714285
 40
0.4285714285714285
 40
0.4285714285714285
 40
0.4285714285714285
 40
0.5714285714285714
 40
0.5714285714285714
 40
0.5714285714285714
 40
0.5714285714285714
 40
0.7142857142857143
 40
0.7142857142857143
 40
0.7142857142857143
 40
0.7142857142857143
 40
1.0
 40
1.0
 40
1.0
 40
1.0
 10
-162.8002
 20
-13.7912
 30
0.0
 10
-156.9711
 20
-13.334
 30
0.0
 10
-154.4565
 20
-15.277
 30
0.0
 10
-154.4565
 20
-15.277
 30
0.0
 10
-154.4565
 20
-15.277
 30
0.0
 10
-154.4565
 20
-15.277
 30
0.0
 10
-152.6278
 20
-15.6199
 30
0.0
 10
-153.7708
 20
-14.7056
 30
0.0
 10
-153.7708
 20
-14.7056
 30
0.0
 10
-154.9137
 20
-13.7912
 30
0.0
 10
-155.2566
 20
-11.5053
 30
0.0
 10
-153.6565
 20
-9.105
 30
0.0
 10
-153.6565
 20
-9.105
 30
0.0
 10
-152.0563
 20
-6.7048
 30
0.0
 10
-147.0273
 20
-7.2763
 30
0.0
 10
-147.0273
 20
-7.2763
 30
0.0
 10
-147.0273
 20
-7.2763
 30
0.0
 10
-147.8274
 20
-6.4762
 30
0.0
 10
-150.3419
 20
-2.3616
 30
0.0
 10
-150.3419
 20
-2.3616
 30
0.0
 10
-150.3419
 20
-2.3616
 30
0.0
 10
-153.085
 20
-7.3906
 30
0.0
 10
-157.9997
 20
-11.391
 30
0.0
 10
-162.8002
 20
-13.7912
 30
0.0
  0
SPLINE
  5
4D
330
1F
100
AcDbEntity
  8
layer 1
 62
   250
100
AcDbSpline
210
0.0
220
0.0
230
1.0
 70
    11
 71
     3
 72
    32
 73
    28
 74
     0
 42
0.0000000001
 43
0.0000000001
 12
1.0
 22
0.0
 32
0.0
 13
1.0
 23
0.0
 33
0.0
 40
0.0
 40
0.0
 40
0.0
 40
0.0
 40
0.125
 40
0.125
 40
0.125
 40
0.125
 40
0.25
 40
0.25
 40
0.25
 40
0.25
 40
0.375
 40
0.375
 40
0.375
 40
0.375
 40
0.5
 40
0.5
 40
0.5
 40
0.5
 40
0.625
 40
0.625
 40
0.625
 40
0.625
 40
0.75
 40
0.75
 40
0.75
 40
0.75
 40
1.0
 40
1.0
 40
1.0
 40
1.0
 10
-147.9417
 20
2.0959
 30
0.0
 10
-145.9986
 20
-5.3333
 30
0.0
 10
-140.9696
 20
-8.5336
 30
0.0
 10
-140.9696
 20
-8.5336
 30
0.0
 10
-140.9696
 20
-8.5336
 30
0.0
 10
-141.9983
 20
-0.9901
 30
0.0
 10
-136.5121
 20
3.2389
 30
0.0
 10
-136.5121
 20
3.2389
 30
0.0
 10
-136.5121
 20
3.2389
 30
0.0
 10
-136.0549
 20
4.3819
 30
0.0
 10
-137.5408
 20
3.4675
 30
0.0
 10
-137.5408
 20
3.4675
 30
0.0
 10
-137.5408
 20
3.4675
 30
0.0
 10
-137.5408
 20
3.4675
 30
0.0
 10
-142.6841
 20
1.4102
 30
0.0
 10
-144.1699
 20
5.6392
 30
0.0
 10
-144.1699
 20
5.6392
 30
0.0
 10
-144.2842
 20
10.3252
 30
0.0
 10
-140.1696
 20
9.6395
 30
0.0
 10
-140.1696
 20
9.6395
 30
0.0
 10
-140.1696
 20
9.6395
 30
0.0
 10
-140.1696
 20
9.6395
 30
0.0
 10
-139.3695
 20
10.211
 30
0.0
 10
-140.3981
 20
10.4396
 30
0.0
 10
-140.3981
 20
10.4396
 30
0.0
 10
-142.9126
 20
12.154
 30
0.0
 10
-149.8847
 20
9.5252
 30
0.0
 10
-147.9417
 20
2.0959
 30
0.0
  0
SPLINE
  5
4E
330
1F
100
AcDbEntity
  8
layer 1
 62
   250
100
AcDbSpline
210
0.0
220
0.0
230
1.0
 70
    11
 71
     3
 72
    20
 73
    16
 74
     0
 42
0.0000000001
 43
0.0000000001
 12
1.0
 22
0.0
 32
0.0
 13
1.0
 23
0.0
 33
0.0
 40
0.0
 40
0.0
 40
0.0
 40
0.0
 40
0.2
 40
0.2
 40
0.2
 40
0.2
 40
0.4
 40
0.4
 40
0.4
 40
0.4
 40
0.6
 40
0.6
 40
0.6
 40
0.6
 40
1.0
 40
1.0
 40
1.0
 40
1.0
 10
-135.3691
 20
-6.8191
 30
0.0
 10
-137.3121
 20
-14.9341
 30
0.0
 10
-133.1975
 20
-17.7915
 30
0.0
 10
-133.1975
 20
-17.7915
 30
0.0
 10
-133.1975
 20
-17.7915
 30
0.0
 10
-133.0832
 20
-10.5909
 30
0.0
 10
-131.483
 20
-10.0194
 30
0.0
 10
-129.8829
 20
-7.9621
 30
0.0
 10
-129.8829
 20
-7.9621
 30
0.0
 10
-133.3118
 20
-6.2476
 30
0.0
 10
-132.626
 20
-0.8757
 30
0.0
 10
-132.626
 20
-0.8757
 30
0.0
 10
-132.626
 20
-0.8757
 30
0.0
 10
-132.626
 20
-0.8757
 30
0.0
 10
-133.4261
 20
1.2959
 30
0.0
 10
-135.3691
 20
-6.8191
 30
0.0
  0
SPLINE
  5
4F
330
1F
100
AcDbEntity
  8
layer 1
 62
   250
100
AcDbSpline
210
0.0
220
0.0
230
1.0
 70
    11
 71
     3
 72
    32
 73
    28
 74
     0
 42
0.0000000001
 43
0.0000000001
 12
1.0
 22
0.0
 32
0.0
 13
1.0
 23
0.0
 33
0.0
 40
0.0
 40
0.0
 40
0.0
 40
0.0
 40
0.125
 40
0.125
 40
0.125
 40
0.125
 40
0.25
 40
0.25
 40
0.25
 40
0.25
 40
0.375
 40
0.375
 40
0.375
 40
0.375
 40
0.5
 40
0.5
 40
0.5
 40
0.5
 40
0.625
 40
0.625
 40
0.625
 40
0.625
 40
0.75
 40
0.75
 40
0.75
 40
0.75
 40
1.0
 40
1.0
 40
1.0
 40
1.0
 10
-76.0495
 20
28.1555
 30
0.0
 10
-80.507
 20
30.67
 30
0.0
 10
-83.7073
 20
31.47
 30
0.0
 10
-88.0505
 20
27.9269
 30
0.0
 10
-88.0505
 20
27.9269
 30
0.0
 10
-88.0505
 20
27.9269
 30
0.0
 10
-90.6793
 20
25.2981
 30
0.0
 10
-89.4221
 20
22.555
 30
0.0
 10
-89.4221
 20
22.555
 30
0.0
 10
-88.5078
 20
21.1262
 30
0.0
 10
-87.9362
 20
21.2977
 30
0.0
 10
-87.9362
 20
21.2977
 30
0.0
 10
-87.9362
 20
21.2977
 30
0.0
 10
-87.9362
 20
21.2977
 30
0.0
 10
-87.5934
 20
28.9555
 30
0.0
 10
-79.4784
 20
25.7552
 30
0.0
 10
-79.4784
 20
25.7552
 30
0.0
 10
-75.7066
 20
23.5836
 30
0.0
 10
-76.8496
 20
20.3833
 30
0.0
 10
-76.8496
 20
20.3833
 30
0.0
 10
-76.8496
 20
20.3833
 30
0.0
 10
-76.8496
 20
20.3833
 30
0.0
 10
-73.7636
 20
17.183
 30
0.0
 10
-73.7636
 20
17.183
 30
0.0
 10
-73.7636
 20
17.183
 30
0.0
 10
-73.7636
 20
17.183
 30
0.0
 10
-71.5919
 20
25.641
 30
0.0
 10
-76.0495
 20
28.1555
 30
0.0
  0
SPLINE
  5
50
330
1F
100
AcDbEntity
  8
layer 1
 62
   250
100
AcDbSpline
210
0.0
220
0.0
230
1.0
 70
    11
 71
     3
 72
    24
 73
    20
 74
     0
 42
0.0000000001
 43
0.0000000001
 12
1.0
 22
0.0
 32
0.0
 13
1.0
 23
0.0
 33
0.0
 40
0.0
 40
0.0
 40
0.0
 40
0.0
 40
0.1666666666666667
 40
0.1666666666666667
 40
0.1666666666666667
 40
0.1666666666666667
 40
0.3333333333333333
 40
0.3333333333333333
 40
0.3333333333333333
 40
0.3333333333333333
 40
0.5
 40
0.5
 40
0.5
 40
0.5
 40
0.6666666666666666
 40
0.6666666666666666
 40
0.6666666666666666
 40
0.6666666666666666
 40
1.0
 40
1.0
 40
1.0
 40
1.0
 10
-78.9069
 20
7.525
 30
0.0
 10
-77.021
 20
9.1823
 30
0.0
 10
-74.9637
 20
15.5258
 30
0.0
 10
-74.9637
 20
15.7544
 30
0.0
 10
-74.9637
 20
15.7544
 30
0.0
 10
-74.9637
 20
15.9829
 30
0.0
 10
-77.021
 20
19.0118
 30
0.0
 10
-77.021
 20
19.0118
 30
0.0
 10
-77.021
 20
19.0118
 30
0.0
 10
-77.021
 20
19.0118
 30
0.0
 10
-77.2496
 20
18.9546
 30
0.0
 10
-77.2496
 20
18.9546
 30
0.0
 10
-77.2496
 20
18.9546
 30
0.0
 10
-77.2496
 20
18.9546
 30
0.0
 10
-79.7641
 20
14.7828
 30
0.0
 10
-82.8501
 20
13.8685
 30
0.0
 10
-82.8501
 20
13.8685
 30
0.0
 10
-80.2785
 20
13.3541
 30
0.0
 10
-77.821
 20
10.7825
 30
0.0
 10
-78.9069
 20
7.525
 30
0.0
  0
SPLINE
  5
51
330
1F
100
AcDbEntity
  8
layer 1
 62
   250
100
AcDbSpline
210
0.0
220
0.0
230
1.0
 70
    11
 71
     3
 72
    20
 73
    16
 74
     0
 42
0.0000000001
 43
0.0000000001
 12
1.0
 22
0.0
 32
0.0
 13
1.0
 23
0.0
 33
0.0
 40
0.0
 40
0.0
 40
0.0
 40
0.0
 40
0.2
 40
0.2
 40
0.2
 40
0.2
 40
0.4
 40
0.4
 40
0.4
 40
0.4
 40
0.6
 40
0.6
 40
0.6
 40
0.6
 40
1.0
 40
1.0
 40
1.0
 40
1.0
 10
-100.5088
 20
36.842
 30
0.0
 10
-102.6804
 20
30.7843
 30
0.0
 10
-96.2799
 20
26.7839
 30
0.0
 10
-96.2799
 20
26.7839
 30
0.0
 10
-96.2799
 20
26.7839
 30
0.0
 10
-96.0513
 20
30.5557
 30
0.0
 10
-92.7367
 20
33.6416
 30
0.0
 10
-92.7367
 20
33.6416
 30
0.0
 10
-92.7367
 20
33.6416
 30
0.0
 10
-99.5944
 20
35.0132
 30
0.0
 10
-95.3655
 20
40.8423
 30
0.0
 10
-95.3655
 20
40.8423
 30
0.0
 10
-95.3655
 20
40.8423
 30
0.0
 10
-99.8231
 20
40.0423
 30
0.0
 10
-100.5088
 20
36.842
 30
0.0
 10
-100.5088
 20
36.842
 30
0.0
  0
SPLINE
  5
52
330
1F
100
AcDbEntity
  8
layer 1
 62
   250
100
AcDbSpline
210
0.0
220
0.0
230
1.0
 70
    11
 71
     3
 72
    24
 73
    20
 74
     0
 42
0.0000000001
 43
0.0000000001
 12
1.0
 22
0.0
 32
0.0
 13
1.0
 23
0.0
 33
0.0
 40
0.0
 40
0.0
 40
0.0
 40
0.0
 40
0.1666666666666667
 40
0.1666666666666667
 40
0.1666666666666667
 40
0.1666666666666667
 40
0.3333333333333333
 40
0.3333333333333333
 40
0.3333333333333333
 40
0.3333333333333333
 40
0.5
 40
0.5
 40
0.5
 40
0.5
 40
0.6666666666666666
 40
0.6666666666666666
 40
0.6666666666666666
 40
0.6666666666666666
 40
1.0
 40
1.0
 40
1.0
 40
1.0
 10
-96.6228
 20
24.9552
 30
0.0
 10
-96.6228
 20
24.9552
 30
0.0
 10
-103.1376
 20
27.1268
 30
0.0
 10
-104.3949
 20
32.7273
 30
0.0
 10
-104.3949
 20
32.7273
 30
0.0
 10
-104.6188
 20
33.7248
 30
0.0
 10
-108.5095
 20
28.1555
 30
0.0
 10
-102.7947
 20
23.0121
 30
0.0
 10
-102.7947
 20
23.0121
 30
0.0
 10
-91.3651
 20
17.8688
 30
0.0
 10
-94.3369
 20
10.5539
 30
0.0
 10
-93.3082
 20
11.8111
 30
0.0
 10
-93.3082
 20
11.8111
 30
0.0
 10
-92.2795
 20
13.0684
 30
0.0
 10
-88.622
 20
14.5542
 30
0.0
 10
-88.622
 20
14.5542
 30
0.0
 10
-88.622
 20
14.5542
 30
0.0
 10
-96.5085
 20
16.8401
 30
0.0
 10
-96.6228
 20
24.9552
 30
0.0
 10
-96.6228
 20
24.9552
 30
0.0
  0
SPLINE
  5
53
330
1F
100
AcDbEntity
  8
layer 1
 62
   250
100
AcDbSpline
210
0.0
220
0.0
230
1.0
 70
    11
 71
     3
 72
    20
 73
    16
 74
     0
 42
0.0000000001
 43
0.0000000001
 12
1.0
 22
0.0
 32
0.0
 13
1.0
 23
0.0
 33
0.0
 40
0.0
 40
0.0
 40
0.0
 40
0.0
 40
0.2
 40
0.2
 40
0.2
 40
0.2
 40
0.4
 40
0.4
 40
0.4
 40
0.4
 40
0.6
 40
0.6
 40
0.6
 40
0.6
 40
1.0
 40
1.0
 40
1.0
 40
1.0
 10
-114.7958
 20
22.0978
 30
0.0
 10
-112.7385
 20
23.9265
 30
0.0
 10
-107.3666
 20
24.2694
 30
0.0
 10
-107.3666
 20
24.2694
 30
0.0
 10
-107.3666
 20
24.2694
 30
0.0
 10
-108.3953
 20
25.641
 30
0.0
 10
-107.9381
 20
28.727
 30
0.0
 10
-107.9381
 20
28.727
 30
0.0
 10
-107.9381
 20
28.727
 30
0.0
 10
-109.1953
 20
26.7839
 30
0.0
 10
-114.2244
 20
24.1551
 30
0.0
 10
-114.2244
 20
24.1551
 30
0.0
 10
-114.2244
 20
24.1551
 30
0.0
 10
-114.4529
 20
23.0121
 30
0.0
 10
-114.7958
 20
22.0978
 30
0.0
 10
-114.7958
 20
22.0978
 30
0.0
  0
SPLINE
  5
54
330
1F
100
AcDbEntity
  8
layer 1
 62
   250
100
AcDbSpline
210
0.0
220
0.0
230
1.0
 70
    11
 71
     3
 72
    32
 73
    28
 74
     0
 42
0.0000000001
 43
0.0000000001
 12
1.0
 22
0.0
 32
0.0
 13
1.0
 23
0.0
 33
0.0
 40
0.0
 40
0.0
 40
0.0
 40
0.0
 40
0.125
 40
0.125
 40
0.125
 40
0.125
 40
0.25
 40
0.25
 40
0.25
 40
0.25
 40
0.375
 40
0.375
 40
0.375
 40
0.375
 40
0.5
 40
0.5
 40
0.5
 40
0.5
 40
0.625
 40
0.625
 40
0.625
 40
0.625
 40
0.75
 40
0.75
 40
0.75
 40
0.75
 40
1.0
 40
1.0
 40
1.0
 40
1.0
 10
-110.224
 20
6.0963
 30
0.0
 10
-106.5665
 20
5.6392
 30
0.0
 10
-105.8808
 20
8.0394
 30
0.0
 10
-105.8808
 20
8.0394
 30
0.0
 10
-105.8808
 20
8.0394
 30
0.0
 10
-107.3666
 20
6.7821
 30
0.0
 10
-108.3953
 20
7.4679
 30
0.0
 10
-108.3953
 20
7.4679
 30
0.0
 10
-108.3953
 20
7.4679
 30
0.0
 10
-108.3953
 20
7.4679
 30
0.0
 10
-115.3673
 20
9.4109
 30
0.0
 10
-112.5099
 20
15.3543
 30
0.0
 10
-112.5099
 20
15.3543
 30
0.0
 10
-106.2236
 20
21.8692
 30
0.0
 10
-98.5658
 20
15.9258
 30
0.0
 10
-98.5658
 20
15.9258
 30
0.0
 10
-98.5658
 20
15.9258
 30
0.0
 10
-101.5375
 20
22.555
 30
0.0
 10
-108.3953
 20
21.2977
 30
0.0
 10
-108.3953
 20
21.2977
 30
0.0
 10
-108.3953
 20
21.2977
 30
0.0
 10
-108.3953
 20
21.2977
 30
0.0
 10
-114.7958
 20
20.8405
 30
0.0
 10
-116.5103
 20
15.3543
 30
0.0
 10
-116.5103
 20
15.3543
 30
0.0
 10
-118.2247
 20
9.8681
 30
0.0
 10
-113.8815
 20
6.5535
 30
0.0
 10
-110.224
 20
6.0963
 30
0.0
  0
SPLINE
  5
55
330
1F
100
AcDbEntity
  8
layer 1
 62
   250
100
AcDbSpline
210
0.0
220
0.0
230
1.0
 70
    11
 71
     3
 72
    20
 73
    16
 74
     0
 42
0.0000000001
 43
0.0000000001
 12
1.0
 22
0.0
 32
0.0
 13
1.0
 23
0.0
 33
0.0
 40
0.0
 40
0.0
 40
0.0
 40
0.0
 40
0.2
 40
0.2
 40
0.2
 40
0.2
 40
0.4
 40
0.4
 40
0.4
 40
0.4
 40
0.6
 40
0.6
 40
0.6
 40
0.6
 40
1.0
 40
1.0
 40
1.0
 40
1.0
 10
-107.3666
 20
15.1257
 30
0.0
 10
-108.9447
 20
15.1257
 30
0.0
 10
-110.224
 20
13.8464
 30
0.0
 10
-110.224
 20
12.2683
 30
0.0
 10
-110.224
 20
12.2683
 30
0.0
 10
-110.224
 20
10.6902
 30
0.0
 10
-108.9447
 20
9.4109
 30
0.0
 10
-107.3666
 20
9.4109
 30
0.0
 10
-107.3666
 20
9.4109
 30
0.0
 10
-105.7885
 20
9.4109
 30
0.0
 10
-104.5092
 20
10.6902
 30
0.0
 10
-104.5092
 20
12.2683
 30
0.0
 10
-104.5092
 20
12.2683
 30
0.0
 10
-104.5092
 20
13.8464
 30
0.0
 10
-105.7885
 20
15.1257
 30
0.0
 10
-107.3666
 20
15.1257
 30
0.0
  0
SPLINE
  5
56
330
1F
100
AcDbEntity
  8
layer 1
 62
   250
100
AcDbSpline
210
0.0
220
0.0
230
1.0
 70
    11
 71
     3
 72
    20
 73
    16
 74
     0
 42
0.0000000001
 43
0.0000000001
 12
1.0
 22
0.0
 32
0.0
 13
1.0
 23
0.0
 33
0.0
 40
0.0
 40
0.0
 40
0.0
 40
0.0
 40
0.2
 40
0.2
 40
0.2
 40
0.2
 40
0.4
 40
0.4
 40
0.4
 40
0.4
 40
0.6
 40
0.6
 40
0.6
 40
0.6
 40
1.0
 40
1.0
 40
1.0
 40
1.0
 10
-101.9947
 20
8.3822
 30
0.0
 10
-101.9947
 20
8.3822
 30
0.0
 10
-104.7378
 20
1.9817
 30
0.0
 10
-111.9384
 20
3.5818
 30
0.0
 10
-111.9384
 20
3.5818
 30
0.0
 10
-111.9384
 20
3.5818
 30
0.0
 10
-113.7672
 20
1.7531
 30
0.0
 10
-114.4529
 20
1.7531
 30
0.0
 10
-114.4529
 20
1.7531
 30
0.0
 10
-114.4529
 20
1.7531
 30
0.0
 10
-111.5955
 20
-2.0187
 30
0.0
 10
-112.9671
 20
-8.1907
 30
0.0
 10
-112.9671
 20
-8.1907
 30
0.0
 10
-112.9671
 20
-8.1907
 30
0.0
 10
-102.109
 20
-1.5615
 30
0.0
 10
-101.9947
 20
8.3822
 30
0.0
  0
SPLINE
  5
57
330
1F
100
AcDbEntity
  8
layer 1
 62
   250
100
AcDbSpline
210
0.0
220
0.0
230
1.0
 70
    11
 71
     3
 72
    28
 73
    24
 74
     0
 42
0.0000000001
 43
0.0000000001
 12
1.0
 22
0.0
 32
0.0
 13
1.0
 23
0.0
 33
0.0
 40
0.0
 40
0.0
 40
0.0
 40
0.0
 40
0.1428571428571428
 40
0.1428571428571428
 40
0.1428571428571428
 40
0.1428571428571428
 40
0.2857142857142857
 40
0.2857142857142857
 40
0.2857142857142857
 40
0.2857142857142857
 40
0.4285714285714285
 40
0.4285714285714285
 40
0.4285714285714285
 40
0.4285714285714285
 40
0.5714285714285714
 40
0.5714285714285714
 40
0.5714285714285714
 40
0.5714285714285714
 40
0.7142857142857143
 40
0.7142857142857143
 40
0.7142857142857143
 40
0.7142857142857143
 40
1.0
 40
1.0
 40
1.0
 40
1.0
 10
-102.5662
 20
15.3543
 30
0.0
 10
-102.5662
 20
15.3543
 30
0.0
 10
-92.6224
 20
4.1533
 30
0.0
 10
-107.7095
 20
-7.3906
 30
0.0
 10
-107.7095
 20
-7.3906
 30
0.0
 10
-123.1394
 20
-19.7346
 30
0.0
 10
-122.5679
 20
-22.592
 30
0.0
 10
-123.4823
 20
-25.678
 30
0.0
 10
-123.4823
 20
-25.678
 30
0.0
 10
-123.4823
 20
-25.678
 30
0.0
 10
-124.511
 20
-33.9073
 30
0.0
 10
-120.0534
 20
-36.6504
 30
0.0
 10
-120.0534
 20
-36.6504
 30
0.0
 10
-120.0534
 20
-36.6504
 30
0.0
 10
-122.4537
 20
-28.5353
 30
0.0
 10
-119.0248
 20
-22.1348
 30
0.0
 10
-119.0248
 20
-22.1348
 30
0.0
 10
-115.5959
 20
-15.7342
 30
0.0
 10
-105.2094
 20
-9.8873
 30
0.0
 10
-102.6804
 20
-7.8478
 30
0.0
 10
-102.6804
 20
-7.8478
 30
0.0
 10
-99.1373
 20
-4.9904
 30
0.0
 10
-86.7933
 20
10.8968
 30
0.0
 10
-102.5662
 20
15.3543
 30
0.0
  0
SPLINE
  5
58
330
1F
100
AcDbEntity
  8
layer 1
 62
   250
100
AcDbSpline
210
0.0
220
0.0
230
1.0
 70
    11
 71
     3
 72
    20
 73
    16
 74
     0
 42
0.0000000001
 43
0.0000000001
 12
1.0
 22
0.0
 32
0.0
 13
1.0
 23
0.0
 33
0.0
 40
0.0
 40
0.0
 40
0.0
 40
0.0
 40
0.2
 40
0.2
 40
0.2
 40
0.2
 40
0.4
 40
0.4
 40
0.4
 40
0.4
 40
0.6
 40
0.6
 40
0.6
 40
0.6
 40
1.0
 40
1.0
 40
1.0
 40
1.0
 10
-119.2534
 20
13.1827
 30
0.0
 10
-121.5393
 20
9.2966
 30
0.0
 10
-127.8256
 20
7.0107
 30
0.0
 10
-128.3971
 20
3.8104
 30
0.0
 10
-128.3971
 20
3.8104
 30
0.0
 10
-122.225
 20
7.0107
 30
0.0
 10
-116.9675
 20
3.4675
 30
0.0
 10
-116.9675
 20
3.4675
 30
0.0
 10
-116.9675
 20
3.4675
 30
0.0
 10
-115.9388
 20
4.039
 30
0.0
 10
-115.1387
 20
5.2963
 30
0.0
 10
-115.1387
 20
5.2963
 30
0.0
 10
-115.1387
 20
5.2963
 30
0.0
 10
-119.2534
 20
6.8964
 30
0.0
 10
-119.2534
 20
13.1827
 30
0.0
 10
-119.2534
 20
13.1827
 30
0.0
  0
SPLINE
  5
59
330
1F
100
AcDbEntity
  8
layer 1
 62
   250
100
AcDbSpline
210
0.0
220
0.0
230
1.0
 70
    11
 71
     3
 72
    40
 73
    36
 74
     0
 42
0.0000000001
 43
0.0000000001
 12
1.0
 22
0.0
 32
0.0
 13
1.0
 23
0.0
 33
0.0
 40
0.0
 40
0.0
 40
0.0
 40
0.0
 40
0.1
 40
0.1
 40
0.1
 40
0.1
 40
0.2
 40
0.2
 40
0.2
 40
0.2
 40
0.3
 40
0.3
 40
0.3
 40
0.3
 40
0.4
 40
0.4
 40
0.4
 40
0.4
 40
0.5
 40
0.5
 40
0.5
 40
0.5
 40
0.6
 40
0.6
 40
0.6
 40
0.6
 40
0.7
 40
0.7
 40
0.7
 40
0.7
 40
0.8
 40
0.8
 40
0.8
 40
0.8
 40
1.0
 40
1.0
 40
1.0
 40
1.0
 10
-124.0538
 20
-12.9911
 30
0.0
 10
-123.368
 20
-11.8482
 30
0.0
 10
-116.1674
 20
-6.1334
 30
0.0
 10
-119.2534
 20
-1.9044
 30
0.0
 10
-119.2534
 20
-1.9044
 30
0.0
 10
-122.3394
 20
2.3246
 30
0.0
 10
-126.6826
 20
-0.5329
 30
0.0
 10
-126.6826
 20
-0.5329
 30
0.0
 10
-126.6826
 20
-0.5329
 30
0.0
 10
-126.6826
 20
-0.5329
 30
0.0
 10
-127.4827
 20
-1.7901
 30
0.0
 10
-126.2255
 20
-1.3329
 30
0.0
 10
-126.2255
 20
-1.3329
 30
0.0
 10
-121.3107
 20
0.2672
 30
0.0
 10
-121.3107
 20
-4.8761
 30
0.0
 10
-121.3107
 20
-4.8761
 30
0.0
 10
-121.3107
 20
-4.8761
 30
0.0
 10
-121.1964
 20
-11.0481
 30
0.0
 10
-128.6257
 20
-10.0194
 30
0.0
 10
-128.6257
 20
-10.0194
 30
0.0
 10
-128.6257
 20
-10.0194
 30
0.0
 10
-128.6257
 20
-10.0194
 30
0.0
 10
-129.7972
 20
-10.4766
 30
0.0
 10
-130.9973
 20
-14.8484
 30
0.0
 10
-130.9973
 20
-14.8484
 30
0.0
 10
-132.1974
 20
-20.4203
 30
0.0
 10
-128.3399
 20
-23.1635
 30
0.0
 10
-128.5971
 20
-22.2205
 30
0.0
 10
-128.5971
 20
-22.2205
 30
0.0
 10
-128.8543
 20
-21.2776
 30
0.0
 10
-128.5114
 20
-20.4203
 30
0.0
 10
-128.5114
 20
-20.4203
 30
0.0
 10
-128.5114
 20
-20.4203
 30
0.0
 10
-127.0255
 20
-16.42
 30
0.0
 10
-124.7396
 20
-14.1341
 30
0.0
 10
-124.0538
 20
-12.9911
 30
0.0
  0
SPLINE
  5
5A
330
1F
100
AcDbEntity
  8
layer 1
 62
   250
100
AcDbSpline
210
0.0
220
0.0
230
1.0
 70
    11
 71
     3
 72
    28
 73
    24
 74
     0
 42
0.0000000001
 43
0.0000000001
 12
1.0
 22
0.0
 32
0.0
 13
1.0
 23
0.0
 33
0.0
 40
0.0
 40
0.0
 40
0.0
 40
0.0
 40
0.1428571428571428
 40
0.1428571428571428
 40
0.1428571428571428
 40
0.1428571428571428
 40
0.2857142857142857
 40
0.2857142857142857
 40
0.2857142857142857
 40
0.2857142857142857
 40
0.4285714285714285
 40
0.4285714285714285
 40
0.4285714285714285
 40
0.4285714285714285
 40
0.5714285714285714
 40
0.5714285714285714
 40
0.5714285714285714
 40
0.5714285714285714
 40
0.7142857142857143
 40
0.7142857142857143
 40
0.7142857142857143
 40
0.7142857142857143
 40
1.0
 40
1.0
 40
1.0
 40
1.0
 10
-106.7951
 20
-13.7912
 30
0.0
 10
-100.966
 20
-13.334
 30
0.0
 10
-98.4515
 20
-15.277
 30
0.0
 10
-98.4515
 20
-15.277
 30
0.0
 10
-98.4515
 20
-15.277
 30
0.0
 10
-98.4515
 20
-15.277
 30
0.0
 10
-96.6228
 20
-15.6199
 30
0.0
 10
-97.7657
 20
-14.7056
 30
0.0
 10
-97.7657
 20
-14.7056
 30
0.0
 10
-98.9087
 20
-13.7912
 30
0.0
 10
-99.2515
 20
-11.5053
 30
0.0
 10
-97.6514
 20
-9.105
 30
0.0
 10
-97.6514
 20
-9.105
 30
0.0
 10
-96.0513
 20
-6.7048
 30
0.0
 10
-91.0222
 20
-7.2763
 30
0.0
 10
-91.0222
 20
-7.2763
 30
0.0
 10
-91.0222
 20
-7.2763
 30
0.0
 10
-91.8223
 20
-6.4762
 30
0.0
 10
-94.3369
 20
-2.3616
 30
0.0
 10
-94.3369
 20
-2.3616
 30
0.0
 10
-94.3369
 20
-2.3616
 30
0.0
 10
-97.0799
 20
-7.3906
 30
0.0
 10
-101.9947
 20
-11.391
 30
0.0
 10
-106.7951
 20
-13.7912
 30
0.0
  0
SPLINE
  5
5B
330
1F
100
AcDbEntity
  8
layer 1
 62
   250
100
AcDbSpline
210
0.0
220
0.0
230
1.0
 70
    11
 71
     3
 72
    32
 73
    28
 74
     0
 42
0.0000000001
 43
0.0000000001
 12
1.0
 22
0.0
 32
0.0
 13
1.0
 23
0.0
 33
0.0
 40
0.0
 40
0.0
 40
0.0
 40
0.0
 40
0.125
 40
0.125
 40
0.125
 40
0.125
 40
0.25
 40
0.25
 40
0.25
 40
0.25
 40
0.375
 40
0.375
 40
0.375
 40
0.375
 40
0.5
 40
0.5
 40
0.5
 40
0.5
 40
0.625
 40
0.625
 40
0.625
 40
0.625
 40
0.75
 40
0.75
 40
0.75
 40
0.75
 40
1.0
 40
1.0
 40
1.0
 40
1.0
 10
-80.507
 20
3.2389
 30
0.0
 10
-80.0498
 20
4.3819
 30
0.0
 10
-81.5357
 20
3.4675
 30
0.0
 10
-81.5357
 20
3.4675
 30
0.0
 10
-81.5357
 20
3.4675
 30
0.0
 10
-81.5357
 20
3.4675
 30
0.0
 10
-86.679
 20
1.4102
 30
0.0
 10
-88.1649
 20
5.6392
 30
0.0
 10
-88.1649
 20
5.6392
 30
0.0
 10
-88.2791
 20
10.3252
 30
0.0
 10
-84.1645
 20
9.6395
 30
0.0
 10
-84.1645
 20
9.6395
 30
0.0
 10
-84.1645
 20
9.6395
 30
0.0
 10
-84.1645
 20
9.6395
 30
0.0
 10
-83.3645
 20
10.211
 30
0.0
 10
-84.3931
 20
10.4396
 30
0.0
 10
-84.3931
 20
10.4396
 30
0.0
 10
-86.9076
 20
12.154
 30
0.0
 10
-93.8797
 20
9.5252
 30
0.0
 10
-91.9366
 20
2.0959
 30
0.0
 10
-91.9366
 20
2.0959
 30
0.0
 10
-89.9936
 20
-5.3333
 30
0.0
 10
-84.9646
 20
-8.5336
 30
0.0
 10
-84.9646
 20
-8.5336
 30
0.0
 10
-84.9646
 20
-8.5336
 30
0.0
 10
-85.9932
 20
-0.9901
 30
0.0
 10
-80.507
 20
3.2389
 30
0.0
 10
-80.507
 20
3.2389
 30
0.0
  0
SPLINE
  5
5C
330
1F
100
AcDbEntity
  8
layer 1
 62
   250
100
AcDbSpline
210
0.0
220
0.0
230
1.0
 70
    11
 71
     3
 72
    20
 73
    16
 74
     0
 42
0.0000000001
 43
0.0000000001
 12
1.0
 22
0.0
 32
0.0
 13
1.0
 23
0.0
 33
0.0
 40
0.0
 40
0.0
 40
0.0
 40
0.0
 40
0.2
 40
0.2
 40
0.2
 40
0.2
 40
0.4
 40
0.4
 40
0.4
 40
0.4
 40
0.6
 40
0.6
 40
0.6
 40
0.6
 40
1.0
 40
1.0
 40
1.0
 40
1.0
 10
-76.6209
 20
-0.8757
 30
0.0
 10
-76.6209
 20
-0.8757
 30
0.0
 10
-77.421
 20
1.2959
 30
0.0
 10
-79.364
 20
-6.8191
 30
0.0
 10
-79.364
 20
-6.8191
 30
0.0
 10
-81.3071
 20
-14.9341
 30
0.0
 10
-77.1924
 20
-17.7915
 30
0.0
 10
-77.1924
 20
-17.7915
 30
0.0
 10
-77.1924
 20
-17.7915
 30
0.0
 10
-77.0781
 20
-10.5909
 30
0.0
 10
-75.478
 20
-10.0194
 30
0.0
 10
-73.8779
 20
-7.9621
 30
0.0
 10
-73.8779
 20
-7.9621
 30
0.0
 10
-77.3067
 20
-6.2476
 30
0.0
 10
-76.6209
 20
-0.8757
 30
0.0
 10
-76.6209
 20
-0.8757
 30
0.0
  0
SPLINE
  5
5D
330
1F
100
AcDbEntity
  8
layer 1
 62
   250
100
AcDbSpline
210
0.0
220
0.0
230
1.0
 70
    11
 71
     3
 72
    16
 73
    12
 74
     0
 42
0.0000000001
 43
0.0000000001
 12
1.0
 22
0.0
 32
0.0
 13
1.0
 23
0.0
 33
0.0
 40
0.0
 40
0.0
 40
0.0
 40
0.0
 40
0.25
 40
0.25
 40
0.25
 40
0.25
 40
0.5
 40
0.5
 40
0.5
 40
0.5
 40
1.0
 40
1.0
 40
1.0
 40
1.0
 10
-59.0559
 20
8.7419
 30
0.0
 10
-59.0559
 20
8.7419
 30
0.0
 10
-59.0559
 20
17.7115
 30
0.0
 10
-59.0559
 20
17.7115
 30
0.0
 10
-59.0559
 20
17.7115
 30
0.0
 10
-59.5582
 20
17.0505
 30
0.0
 10
-59.9876
 20
16.2792
 30
0.0
 10
-60.2766
 20
15.3543
 30
0.0
 10
-60.2766
 20
15.3543
 30
0.0
 10
-61.1525
 20
12.5514
 30
0.0
 10
-60.443
 20
10.3197
 30
0.0
 10
-59.0559
 20
8.7419
 30
0.0
  0
SPLINE
  5
5E
330
1F
100
AcDbEntity
  8
layer 1
 62
   250
100
AcDbSpline
210
0.0
220
0.0
230
1.0
 70
    11
 71
     3
 72
    24
 73
    20
 74
     0
 42
0.0000000001
 43
0.0000000001
 12
1.0
 22
0.0
 32
0.0
 13
1.0
 23
0.0
 33
0.0
 40
0.0
 40
0.0
 40
0.0
 40
0.0
 40
0.1666666666666667
 40
0.1666666666666667
 40
0.1666666666666667
 40
0.1666666666666667
 40
0.3333333333333333
 40
0.3333333333333333
 40
0.3333333333333333
 40
0.3333333333333333
 40
0.5
 40
0.5
 40
0.5
 40
0.5
 40
0.6666666666666666
 40
0.6666666666666666
 40
0.6666666666666666
 40
0.6666666666666666
 40
1.0
 40
1.0
 40
1.0
 40
1.0
 10
-67.2488
 20
-25.678
 30
0.0
 10
-67.2488
 20
-25.678
 30
0.0
 10
-68.2774
 20
-33.9073
 30
0.0
 10
-63.8199
 20
-36.6504
 30
0.0
 10
-63.8199
 20
-36.6504
 30
0.0
 10
-63.8199
 20
-36.6504
 30
0.0
 10
-66.2201
 20
-28.5353
 30
0.0
 10
-62.7912
 20
-22.1348
 30
0.0
 10
-62.7912
 20
-22.1348
 30
0.0
 10
-61.9169
 20
-20.5029
 30
0.0
 10
-60.5892
 20
-18.9075
 30
0.0
 10
-59.0559
 20
-17.4015
 30
0.0
 10
-59.0559
 20
-17.4015
 30
0.0
 10
-59.0559
 20
-17.4015
 30
0.0
 10
-59.0559
 20
-13.8334
 30
0.0
 10
-59.0559
 20
-13.8334
 30
0.0
 10
-59.0559
 20
-13.8334
 30
0.0
 10
-66.7255
 20
-20.9035
 30
0.0
 10
-66.5207
 20
-23.2211
 30
0.0
 10
-67.2488
 20
-25.678
 30
0.0
  0
SPLINE
  5
5F
330
1F
100
AcDbEntity
  8
layer 1
 62
   250
100
AcDbSpline
210
0.0
220
0.0
230
1.0
 70
    11
 71
     3
 72
    24
 73
    20
 74
     0
 42
0.0000000001
 43
0.0000000001
 12
1.0
 22
0.0
 32
0.0
 13
1.0
 23
0.0
 33
0.0
 40
0.0
 40
0.0
 40
0.0
 40
0.0
 40
0.1666666666666667
 40
0.1666666666666667
 40
0.1666666666666667
 40
0.1666666666666667
 40
0.3333333333333333
 40
0.3333333333333333
 40
0.3333333333333333
 40
0.3333333333333333
 40
0.5
 40
0.5
 40
0.5
 40
0.5
 40
0.6666666666666666
 40
0.6666666666666666
 40
0.6666666666666666
 40
0.6666666666666666
 40
1.0
 40
1.0
 40
1.0
 40
1.0
 10
-63.0197
 20
13.1827
 30
0.0
 10
-65.3056
 20
9.2966
 30
0.0
 10
-71.5919
 20
7.0107
 30
0.0
 10
-72.1634
 20
3.8104
 30
0.0
 10
-72.1634
 20
3.8104
 30
0.0
 10
-65.9914
 20
7.0107
 30
0.0
 10
-60.7339
 20
3.4675
 30
0.0
 10
-60.7339
 20
3.4675
 30
0.0
 10
-60.7339
 20
3.4675
 30
0.0
 10
-59.9699
 20
3.8919
 30
0.0
 10
-59.3336
 20
4.6928
 30
0.0
 10
-59.0559
 20
5.0778
 30
0.0
 10
-59.0559
 20
5.0778
 30
0.0
 10
-59.0559
 20
5.0778
 30
0.0
 10
-59.0559
 20
5.3696
 30
0.0
 10
-59.0559
 20
5.3696
 30
0.0
 10
-59.0559
 20
5.3696
 30
0.0
 10
-63.012
 20
7.0675
 30
0.0
 10
-63.0197
 20
13.1827
 30
0.0
 10
-63.0197
 20
13.1827
 30
0.0
  0
SPLINE
  5
60
330
1F
100
AcDbEntity
  8
layer 1
 62
   250
100
AcDbSpline
210
0.0
220
0.0
230
1.0
 70
    11
 71
     3
 72
    40
 73
    36
 74
     0
 42
0.0000000001
 43
0.0000000001
 12
1.0
 22
0.0
 32
0.0
 13
1.0
 23
0.0
 33
0.0
 40
0.0
 40
0.0
 40
0.0
 40
0.0
 40
0.1
 40
0.1
 40
0.1
 40
0.1
 40
0.2
 40
0.2
 40
0.2
 40
0.2
 40
0.3
 40
0.3
 40
0.3
 40
0.3
 40
0.4
 40
0.4
 40
0.4
 40
0.4
 40
0.5
 40
0.5
 40
0.5
 40
0.5
 40
0.6
 40
0.6
 40
0.6
 40
0.6
 40
0.7
 40
0.7
 40
0.7
 40
0.7
 40
0.8
 40
0.8
 40
0.8
 40
0.8
 40
1.0
 40
1.0
 40
1.0
 40
1.0
 10
-74.7636
 20
-14.8484
 30
0.0
 10
-75.9637
 20
-20.4203
 30
0.0
 10
-72.1063
 20
-23.1635
 30
0.0
 10
-72.3634
 20
-22.2205
 30
0.0
 10
-72.3634
 20
-22.2205
 30
0.0
 10
-72.6206
 20
-21.2776
 30
0.0
 10
-72.2777
 20
-20.4203
 30
0.0
 10
-72.2777
 20
-20.4203
 30
0.0
 10
-72.2777
 20
-20.4203
 30
0.0
 10
-70.7919
 20
-16.42
 30
0.0
 10
-68.5059
 20
-14.1341
 30
0.0
 10
-67.8202
 20
-12.9911
 30
0.0
 10
-67.8202
 20
-12.9911
 30
0.0
 10
-67.1344
 20
-11.8482
 30
0.0
 10
-59.9338
 20
-6.1334
 30
0.0
 10
-63.0197
 20
-1.9044
 30
0.0
 10
-63.0197
 20
-1.9044
 30
0.0
 10
-66.1057
 20
2.3246
 30
0.0
 10
-70.449
 20
-0.5329
 30
0.0
 10
-70.449
 20
-0.5329
 30
0.0
 10
-70.449
 20
-0.5329
 30
0.0
 10
-70.449
 20
-0.5329
 30
0.0
 10
-71.2491
 20
-1.7901
 30
0.0
 10
-69.9919
 20
-1.3329
 30
0.0
 10
-69.9919
 20
-1.3329
 30
0.0
 10
-65.077
 20
0.2672
 30
0.0
 10
-65.077
 20
-4.8761
 30
0.0
 10
-65.077
 20
-4.8761
 30
0.0
 10
-65.077
 20
-4.8761
 30
0.0
 10
-64.9627
 20
-11.0481
 30
0.0
 10
-72.392
 20
-10.0194
 30
0.0
 10
-72.392
 20
-10.0194
 30
0.0
 10
-72.392
 20
-10.0194
 30
0.0
 10
-72.392
 20
-10.0194
 30
0.0
 10
-73.5636
 20
-10.4766
 30
0.0
 10
-74.7636
 20
-14.8484
 30
0.0
  0
SPLINE
  5
61
330
1F
100
AcDbEntity
  8
layer 1
 62
   250
100
AcDbSpline
210
0.0
220
0.0
230
1.0
 70
    11
 71
     3
 72
    32
 73
    28
 74
     0
 42
0.0000000001
 43
0.0000000001
 12
1.0
 22
0.0
 32
0.0
 13
1.0
 23
0.0
 33
0.0
 40
0.0
 40
0.0
 40
0.0
 40
0.0
 40
0.125
 40
0.125
 40
0.125
 40
0.125
 40
0.25
 40
0.25
 40
0.25
 40
0.25
 40
0.375
 40
0.375
 40
0.375
 40
0.375
 40
0.5
 40
0.5
 40
0.5
 40
0.5
 40
0.625
 40
0.625
 40
0.625
 40
0.625
 40
0.75
 40
0.75
 40
0.75
 40
0.75
 40
1.0
 40
1.0
 40
1.0
 40
1.0
 10
-145.4272
 20
123.7069
 30
0.0
 10
-144.5128
 20
122.2782
 30
0.0
 10
-143.9413
 20
122.4497
 30
0.0
 10
-143.9413
 20
122.4497
 30
0.0
 10
-143.9413
 20
122.4497
 30
0.0
 10
-143.9413
 20
122.4497
 30
0.0
 10
-143.5984
 20
130.1075
 30
0.0
 10
-135.4834
 20
126.9072
 30
0.0
 10
-135.4834
 20
126.9072
 30
0.0
 10
-131.7116
 20
124.7356
 30
0.0
 10
-132.8546
 20
121.5353
 30
0.0
 10
-132.8546
 20
121.5353
 30
0.0
 10
-132.8546
 20
121.5353
 30
0.0
 10
-132.8546
 20
121.5353
 30
0.0
 10
-129.7686
 20
118.335
 30
0.0
 10
-129.7686
 20
118.335
 30
0.0
 10
-129.7686
 20
118.335
 30
0.0
 10
-129.7686
 20
118.335
 30
0.0
 10
-127.9379
 20
125.4783
 30
0.0
 10
-131.1037
 20
128.586
 30
0.0
 10
-131.1037
 20
128.586
 30
0.0
 10
-131.1037
 20
128.586
 30
0.0
 10
-144.4763
 20
128.586
 30
0.0
 10
-144.4763
 20
128.586
 30
0.0
 10
-144.4763
 20
128.586
 30
0.0
 10
-145.162
 20
127.6997
 30
0.0
 10
-146.3572
 20
125.7362
 30
0.0
 10
-145.4272
 20
123.7069
 30
0.0
  0
SPLINE
  5
62
330
1F
100
AcDbEntity
  8
layer 1
 62
   250
100
AcDbSpline
210
0.0
220
0.0
230
1.0
 70
    11
 71
     3
 72
    24
 73
    20
 74
     0
 42
0.0000000001
 43
0.0000000001
 12
1.0
 22
0.0
 32
0.0
 13
1.0
 23
0.0
 33
0.0
 40
0.0
 40
0.0
 40
0.0
 40
0.0
 40
0.1666666666666667
 40
0.1666666666666667
 40
0.1666666666666667
 40
0.1666666666666667
 40
0.3333333333333333
 40
0.3333333333333333
 40
0.3333333333333333
 40
0.3333333333333333
 40
0.5
 40
0.5
 40
0.5
 40
0.5
 40
0.6666666666666666
 40
0.6666666666666666
 40
0.6666666666666666
 40
0.6666666666666666
 40
1.0
 40
1.0
 40
1.0
 40
1.0
 10
-134.9119
 20
108.677
 30
0.0
 10
-133.026
 20
110.3343
 30
0.0
 10
-130.9687
 20
116.6777
 30
0.0
 10
-130.9687
 20
116.9063
 30
0.0
 10
-130.9687
 20
116.9063
 30
0.0
 10
-130.9687
 20
117.1349
 30
0.0
 10
-133.026
 20
120.1638
 30
0.0
 10
-133.026
 20
120.1638
 30
0.0
 10
-133.026
 20
120.1638
 30
0.0
 10
-133.026
 20
120.1638
 30
0.0
 10
-133.2546
 20
120.1066
 30
0.0
 10
-133.2546
 20
120.1066
 30
0.0
 10
-133.2546
 20
120.1066
 30
0.0
 10
-133.2546
 20
120.1066
 30
0.0
 10
-135.7691
 20
115.9348
 30
0.0
 10
-138.8551
 20
115.0204
 30
0.0
 10
-138.8551
 20
115.0204
 30
0.0
 10
-136.2835
 20
114.5061
 30
0.0
 10
-133.8261
 20
111.9344
 30
0.0
 10
-134.9119
 20
108.677
 30
0.0
  0
SPLINE
  5
63
330
1F
100
AcDbEntity
  8
layer 1
 62
   250
100
AcDbSpline
210
0.0
220
0.0
230
1.0
 70
    11
 71
     3
 72
    16
 73
    12
 74
     0
 42
0.0000000001
 43
0.0000000001
 12
1.0
 22
0.0
 32
0.0
 13
1.0
 23
0.0
 33
0.0
 40
0.0
 40
0.0
 40
0.0
 40
0.0
 40
0.25
 40
0.25
 40
0.25
 40
0.25
 40
0.5
 40
0.5
 40
0.5
 40
0.5
 40
1.0
 40
1.0
 40
1.0
 40
1.0
 10
-152.2128
 20
128.586
 30
0.0
 10
-152.2128
 20
128.586
 30
0.0
 10
-153.1654
 20
128.586
 30
0.0
 10
-153.1654
 20
128.586
 30
0.0
 10
-153.1654
 20
128.586
 30
0.0
 10
-152.6461
 20
128.1629
 30
0.0
 10
-152.2849
 20
127.9359
 30
0.0
 10
-152.2849
 20
127.9359
 30
0.0
 10
-152.2849
 20
127.9359
 30
0.0
 10
-152.2716
 20
128.1553
 30
0.0
 10
-152.2457
 20
128.3717
 30
0.0
 10
-152.2128
 20
128.586
 30
0.0
  0
SPLINE
  5
64
330
1F
100
AcDbEntity
  8
layer 1
 62
   250
100
AcDbSpline
210
0.0
220
0.0
230
1.0
 70
    11
 71
     3
 72
    28
 73
    24
 74
     0
 42
0.0000000001
 43
0.0000000001
 12
1.0
 22
0.0
 32
0.0
 13
1.0
 23
0.0
 33
0.0
 40
0.0
 40
0.0
 40
0.0
 40
0.0
 40
0.1428571428571428
 40
0.1428571428571428
 40
0.1428571428571428
 40
0.1428571428571428
 40
0.2857142857142857
 40
0.2857142857142857
 40
0.2857142857142857
 40
0.2857142857142857
 40
0.4285714285714285
 40
0.4285714285714285
 40
0.4285714285714285
 40
0.4285714285714285
 40
0.5714285714285714
 40
0.5714285714285714
 40
0.5714285714285714
 40
0.5714285714285714
 40
0.7142857142857143
 40
0.7142857142857143
 40
0.7142857142857143
 40
0.7142857142857143
 40
1.0
 40
1.0
 40
1.0
 40
1.0
 10
-158.7998
 20
124.1641
 30
0.0
 10
-147.3702
 20
119.0208
 30
0.0
 10
-150.3419
 20
111.7059
 30
0.0
 10
-149.3132
 20
112.9631
 30
0.0
 10
-149.3132
 20
112.9631
 30
0.0
 10
-148.2845
 20
114.2203
 30
0.0
 10
-144.6271
 20
115.7062
 30
0.0
 10
-144.6271
 20
115.7062
 30
0.0
 10
-144.6271
 20
115.7062
 30
0.0
 10
-152.5135
 20
117.9921
 30
0.0
 10
-152.6278
 20
126.1072
 30
0.0
 10
-152.6278
 20
126.1072
 30
0.0
 10
-152.6278
 20
126.1072
 30
0.0
 10
-152.6278
 20
126.1072
 30
0.0
 10
-154.8476
 20
126.8551
 30
0.0
 10
-156.9462
 20
128.586
 30
0.0
 10
-156.9462
 20
128.586
 30
0.0
 10
-156.9462
 20
128.586
 30
0.0
 10
-161.6713
 20
128.586
 30
0.0
 10
-161.6713
 20
128.586
 30
0.0
 10
-161.6713
 20
128.586
 30
0.0
 10
-161.3076
 20
127.1902
 30
0.0
 10
-160.4616
 20
125.6597
 30
0.0
 10
-158.7998
 20
124.1641
 30
0.0
  0
SPLINE
  5
65
330
1F
100
AcDbEntity
  8
layer 1
 62
   250
100
AcDbSpline
210
0.0
220
0.0
230
1.0
 70
    11
 71
     3
 72
    24
 73
    20
 74
     0
 42
0.0000000001
 43
0.0000000001
 12
1.0
 22
0.0
 32
0.0
 13
1.0
 23
0.0
 33
0.0
 40
0.0
 40
0.0
 40
0.0
 40
0.0
 40
0.1666666666666667
 40
0.1666666666666667
 40
0.1666666666666667
 40
0.1666666666666667
 40
0.3333333333333333
 40
0.3333333333333333
 40
0.3333333333333333
 40
0.3333333333333333
 40
0.5
 40
0.5
 40
0.5
 40
0.5
 40
0.6666666666666666
 40
0.6666666666666666
 40
0.6666666666666666
 40
0.6666666666666666
 40
1.0
 40
1.0
 40
1.0
 40
1.0
 10
-170.8009
 20
123.2497
 30
0.0
 10
-168.7436
 20
125.0785
 30
0.0
 10
-163.3716
 20
125.4214
 30
0.0
 10
-163.3716
 20
125.4214
 30
0.0
 10
-163.3716
 20
125.4214
 30
0.0
 10
-163.9657
 20
126.2134
 30
0.0
 10
-164.0634
 20
127.5749
 30
0.0
 10
-164.0407
 20
128.586
 30
0.0
 10
-164.0407
 20
128.586
 30
0.0
 10
-164.0407
 20
128.586
 30
0.0
 10
-165.1684
 20
128.586
 30
0.0
 10
-165.1684
 20
128.586
 30
0.0
 10
-165.1684
 20
128.586
 30
0.0
 10
-167.1073
 20
126.9418
 30
0.0
 10
-170.2294
 20
125.3071
 30
0.0
 10
-170.2294
 20
125.3071
 30
0.0
 10
-170.2294
 20
125.3071
 30
0.0
 10
-170.458
 20
124.1641
 30
0.0
 10
-170.8009
 20
123.2497
 30
0.0
 10
-170.8009
 20
123.2497
 30
0.0
  0
SPLINE
  5
66
330
1F
100
AcDbEntity
  8
layer 1
 62
   250
100
AcDbSpline
210
0.0
220
0.0
230
1.0
 70
    11
 71
     3
 72
    32
 73
    28
 74
     0
 42
0.0000000001
 43
0.0000000001
 12
1.0
 22
0.0
 32
0.0
 13
1.0
 23
0.0
 33
0.0
 40
0.0
 40
0.0
 40
0.0
 40
0.0
 40
0.125
 40
0.125
 40
0.125
 40
0.125
 40
0.25
 40
0.25
 40
0.25
 40
0.25
 40
0.375
 40
0.375
 40
0.375
 40
0.375
 40
0.5
 40
0.5
 40
0.5
 40
0.5
 40
0.625
 40
0.625
 40
0.625
 40
0.625
 40
0.75
 40
0.75
 40
0.75
 40
0.75
 40
1.0
 40
1.0
 40
1.0
 40
1.0
 10
-166.229
 20
107.2483
 30
0.0
 10
-162.5716
 20
106.7911
 30
0.0
 10
-161.8858
 20
109.1913
 30
0.0
 10
-161.8858
 20
109.1913
 30
0.0
 10
-161.8858
 20
109.1913
 30
0.0
 10
-163.3716
 20
107.9341
 30
0.0
 10
-164.4003
 20
108.6199
 30
0.0
 10
-164.4003
 20
108.6199
 30
0.0
 10
-164.4003
 20
108.6199
 30
0.0
 10
-164.4003
 20
108.6199
 30
0.0
 10
-171.3724
 20
110.5629
 30
0.0
 10
-168.5149
 20
116.5063
 30
0.0
 10
-168.5149
 20
116.5063
 30
0.0
 10
-162.2287
 20
123.0212
 30
0.0
 10
-154.5708
 20
117.0778
 30
0.0
 10
-154.5708
 20
117.0778
 30
0.0
 10
-154.5708
 20
117.0778
 30
0.0
 10
-157.5425
 20
123.7069
 30
0.0
 10
-164.4003
 20
122.4497
 30
0.0
 10
-164.4003
 20
122.4497
 30
0.0
 10
-164.4003
 20
122.4497
 30
0.0
 10
-164.4003
 20
122.4497
 30
0.0
 10
-170.8009
 20
121.9925
 30
0.0
 10
-172.5153
 20
116.5063
 30
0.0
 10
-172.5153
 20
116.5063
 30
0.0
 10
-174.2298
 20
111.0201
 30
0.0
 10
-169.8865
 20
107.7055
 30
0.0
 10
-166.229
 20
107.2483
 30
0.0
  0
SPLINE
  5
67
330
1F
100
AcDbEntity
  8
layer 1
 62
   250
100
AcDbSpline
210
0.0
220
0.0
230
1.0
 70
    11
 71
     3
 72
    20
 73
    16
 74
     0
 42
0.0000000001
 43
0.0000000001
 12
1.0
 22
0.0
 32
0.0
 13
1.0
 23
0.0
 33
0.0
 40
0.0
 40
0.0
 40
0.0
 40
0.0
 40
0.2
 40
0.2
 40
0.2
 40
0.2
 40
0.4
 40
0.4
 40
0.4
 40
0.4
 40
0.6
 40
0.6
 40
0.6
 40
0.6
 40
1.0
 40
1.0
 40
1.0
 40
1.0
 10
-163.3716
 20
116.2777
 30
0.0
 10
-164.9497
 20
116.2777
 30
0.0
 10
-166.229
 20
114.9984
 30
0.0
 10
-166.229
 20
113.4203
 30
0.0
 10
-166.229
 20
113.4203
 30
0.0
 10
-166.229
 20
111.8422
 30
0.0
 10
-164.9497
 20
110.5629
 30
0.0
 10
-163.3716
 20
110.5629
 30
0.0
 10
-163.3716
 20
110.5629
 30
0.0
 10
-161.7935
 20
110.5629
 30
0.0
 10
-160.5143
 20
111.8422
 30
0.0
 10
-160.5143
 20
113.4203
 30
0.0
 10
-160.5143
 20
113.4203
 30
0.0
 10
-160.5143
 20
114.9984
 30
0.0
 10
-161.7935
 20
116.2777
 30
0.0
 10
-163.3716
 20
116.2777
 30
0.0
  0
SPLINE
  5
68
330
1F
100
AcDbEntity
  8
layer 1
 62
   250
100
AcDbSpline
210
0.0
220
0.0
230
1.0
 70
    11
 71
     3
 72
    20
 73
    16
 74
     0
 42
0.0000000001
 43
0.0000000001
 12
1.0
 22
0.0
 32
0.0
 13
1.0
 23
0.0
 33
0.0
 40
0.0
 40
0.0
 40
0.0
 40
0.0
 40
0.2
 40
0.2
 40
0.2
 40
0.2
 40
0.4
 40
0.4
 40
0.4
 40
0.4
 40
0.6
 40
0.6
 40
0.6
 40
0.6
 40
1.0
 40
1.0
 40
1.0
 40
1.0
 10
-157.9997
 20
109.5342
 30
0.0
 10
-157.9997
 20
109.5342
 30
0.0
 10
-160.7428
 20
103.1337
 30
0.0
 10
-167.9435
 20
104.7338
 30
0.0
 10
-167.9435
 20
104.7338
 30
0.0
 10
-167.9435
 20
104.7338
 30
0.0
 10
-169.7722
 20
102.905
 30
0.0
 10
-170.458
 20
102.905
 30
0.0
 10
-170.458
 20
102.905
 30
0.0
 10
-170.458
 20
102.905
 30
0.0
 10
-167.6006
 20
99.1333
 30
0.0
 10
-168.9721
 20
92.9613
 30
0.0
 10
-168.9721
 20
92.9613
 30
0.0
 10
-168.9721
 20
92.9613
 30
0.0
 10
-158.114
 20
99.5905
 30
0.0
 10
-157.9997
 20
109.5342
 30
0.0
  0
SPLINE
  5
69
330
1F
100
AcDbEntity
  8
layer 1
 62
   250
100
AcDbSpline
210
0.0
220
0.0
230
1.0
 70
    11
 71
     3
 72
    28
 73
    24
 74
     0
 42
0.0000000001
 43
0.0000000001
 12
1.0
 22
0.0
 32
0.0
 13
1.0
 23
0.0
 33
0.0
 40
0.0
 40
0.0
 40
0.0
 40
0.0
 40
0.1428571428571428
 40
0.1428571428571428
 40
0.1428571428571428
 40
0.1428571428571428
 40
0.2857142857142857
 40
0.2857142857142857
 40
0.2857142857142857
 40
0.2857142857142857
 40
0.4285714285714285
 40
0.4285714285714285
 40
0.4285714285714285
 40
0.4285714285714285
 40
0.5714285714285714
 40
0.5714285714285714
 40
0.5714285714285714
 40
0.5714285714285714
 40
0.7142857142857143
 40
0.7142857142857143
 40
0.7142857142857143
 40
0.7142857142857143
 40
1.0
 40
1.0
 40
1.0
 40
1.0
 10
-158.5712
 20
116.5063
 30
0.0
 10
-158.5712
 20
116.5063
 30
0.0
 10
-148.6274
 20
105.3053
 30
0.0
 10
-163.7145
 20
93.7614
 30
0.0
 10
-163.7145
 20
93.7614
 30
0.0
 10
-179.1445
 20
81.4174
 30
0.0
 10
-178.573
 20
78.56
 30
0.0
 10
-179.4873
 20
75.474
 30
0.0
 10
-179.4873
 20
75.474
 30
0.0
 10
-179.4873
 20
75.474
 30
0.0
 10
-180.516
 20
67.2447
 30
0.0
 10
-176.0585
 20
64.5016
 30
0.0
 10
-176.0585
 20
64.5016
 30
0.0
 10
-176.0585
 20
64.5016
 30
0.0
 10
-178.4587
 20
72.6166
 30
0.0
 10
-175.0298
 20
79.0172
 30
0.0
 10
-175.0298
 20
79.0172
 30
0.0
 10
-171.6009
 20
85.4178
 30
0.0
 10
-161.2145
 20
91.2647
 30
0.0
 10
-158.6855
 20
93.3042
 30
0.0
 10
-158.6855
 20
93.3042
 30
0.0
 10
-155.1423
 20
96.1616
 30
0.0
 10
-142.7983
 20
112.0487
 30
0.0
 10
-158.5712
 20
116.5063
 30
0.0
  0
SPLINE
  5
6A
330
1F
100
AcDbEntity
  8
layer 1
 62
   250
100
AcDbSpline
210
0.0
220
0.0
230
1.0
 70
    11
 71
     3
 72
    24
 73
    20
 74
     0
 42
0.0000000001
 43
0.0000000001
 12
1.0
 22
0.0
 32
0.0
 13
1.0
 23
0.0
 33
0.0
 40
0.0
 40
0.0
 40
0.0
 40
0.0
 40
0.1666666666666667
 40
0.1666666666666667
 40
0.1666666666666667
 40
0.1666666666666667
 40
0.3333333333333333
 40
0.3333333333333333
 40
0.3333333333333333
 40
0.3333333333333333
 40
0.5
 40
0.5
 40
0.5
 40
0.5
 40
0.6666666666666666
 40
0.6666666666666666
 40
0.6666666666666666
 40
0.6666666666666666
 40
1.0
 40
1.0
 40
1.0
 40
1.0
 10
-172.9725
 20
104.6195
 30
0.0
 10
-171.9438
 20
105.191
 30
0.0
 10
-171.1438
 20
106.4482
 30
0.0
 10
-171.1438
 20
106.4482
 30
0.0
 10
-171.1438
 20
106.4482
 30
0.0
 10
-175.2584
 20
108.0484
 30
0.0
 10
-175.2584
 20
114.3347
 30
0.0
 10
-175.2584
 20
114.3347
 30
0.0
 10
-175.2584
 20
114.3347
 30
0.0
 10
-177.4191
 20
110.6615
 30
0.0
 10
-183.1472
 20
108.4169
 30
0.0
 10
-184.2516
 20
105.4794
 30
0.0
 10
-184.2516
 20
105.4794
 30
0.0
 10
-184.2516
 20
105.4794
 30
0.0
 10
-184.2516
 20
105.0357
 30
0.0
 10
-184.2516
 20
105.0357
 30
0.0
 10
-184.2516
 20
105.0357
 30
0.0
 10
-178.1451
 20
108.1013
 30
0.0
 10
-172.9725
 20
104.6195
 30
0.0
 10
-172.9725
 20
104.6195
 30
0.0
  0
SPLINE
  5
6B
330
1F
100
AcDbEntity
  8
layer 1
 62
   250
100
AcDbSpline
210
0.0
220
0.0
230
1.0
 70
    11
 71
     3
 72
    32
 73
    28
 74
     0
 42
0.0000000001
 43
0.0000000001
 12
1.0
 22
0.0
 32
0.0
 13
1.0
 23
0.0
 33
0.0
 40
0.0
 40
0.0
 40
0.0
 40
0.0
 40
0.125
 40
0.125
 40
0.125
 40
0.125
 40
0.25
 40
0.25
 40
0.25
 40
0.25
 40
0.375
 40
0.375
 40
0.375
 40
0.375
 40
0.5
 40
0.5
 40
0.5
 40
0.5
 40
0.625
 40
0.625
 40
0.625
 40
0.625
 40
0.75
 40
0.75
 40
0.75
 40
0.75
 40
1.0
 40
1.0
 40
1.0
 40
1.0
 10
-175.2584
 20
99.2476
 30
0.0
 10
-178.3444
 20
103.4766
 30
0.0
 10
-182.6877
 20
100.6191
 30
0.0
 10
-182.6877
 20
100.6191
 30
0.0
 10
-182.6877
 20
100.6191
 30
0.0
 10
-182.6877
 20
100.6191
 30
0.0
 10
-183.4878
 20
99.3619
 30
0.0
 10
-182.2305
 20
99.819
 30
0.0
 10
-182.2305
 20
99.819
 30
0.0
 10
-177.3158
 20
101.4192
 30
0.0
 10
-177.3158
 20
96.2759
 30
0.0
 10
-177.3158
 20
96.2759
 30
0.0
 10
-177.3158
 20
96.2759
 30
0.0
 10
-177.217
 20
90.9444
 30
0.0
 10
-182.7436
 20
90.986
 30
0.0
 10
-184.2516
 20
91.0962
 30
0.0
 10
-184.2516
 20
91.0962
 30
0.0
 10
-184.2516
 20
91.0962
 30
0.0
 10
-184.2516
 20
81.4044
 30
0.0
 10
-184.2516
 20
81.4044
 30
0.0
 10
-184.2516
 20
81.4044
 30
0.0
 10
-182.772
 20
84.9901
 30
0.0
 10
-180.7051
 20
87.0837
 30
0.0
 10
-180.0589
 20
88.1609
 30
0.0
 10
-180.0589
 20
88.1609
 30
0.0
 10
-179.3731
 20
89.3038
 30
0.0
 10
-172.1725
 20
95.0186
 30
0.0
 10
-175.2584
 20
99.2476
 30
0.0
  0
SPLINE
  5
6C
330
1F
100
AcDbEntity
  8
layer 1
 62
   250
100
AcDbSpline
210
0.0
220
0.0
230
1.0
 70
    11
 71
     3
 72
    28
 73
    24
 74
     0
 42
0.0000000001
 43
0.0000000001
 12
1.0
 22
0.0
 32
0.0
 13
1.0
 23
0.0
 33
0.0
 40
0.0
 40
0.0
 40
0.0
 40
0.0
 40
0.1428571428571428
 40
0.1428571428571428
 40
0.1428571428571428
 40
0.1428571428571428
 40
0.2857142857142857
 40
0.2857142857142857
 40
0.2857142857142857
 40
0.2857142857142857
 40
0.4285714285714285
 40
0.4285714285714285
 40
0.4285714285714285
 40
0.4285714285714285
 40
0.5714285714285714
 40
0.5714285714285714
 40
0.5714285714285714
 40
0.5714285714285714
 40
0.7142857142857143
 40
0.7142857142857143
 40
0.7142857142857143
 40
0.7142857142857143
 40
1.0
 40
1.0
 40
1.0
 40
1.0
 10
-162.8002
 20
87.3608
 30
0.0
 10
-156.9711
 20
87.818
 30
0.0
 10
-154.4565
 20
85.875
 30
0.0
 10
-154.4565
 20
85.875
 30
0.0
 10
-154.4565
 20
85.875
 30
0.0
 10
-154.4565
 20
85.875
 30
0.0
 10
-152.6278
 20
85.5321
 30
0.0
 10
-153.7708
 20
86.4464
 30
0.0
 10
-153.7708
 20
86.4464
 30
0.0
 10
-154.9137
 20
87.3608
 30
0.0
 10
-155.2566
 20
89.6467
 30
0.0
 10
-153.6565
 20
92.0469
 30
0.0
 10
-153.6565
 20
92.0469
 30
0.0
 10
-152.0563
 20
94.4472
 30
0.0
 10
-147.0273
 20
93.8757
 30
0.0
 10
-147.0273
 20
93.8757
 30
0.0
 10
-147.0273
 20
93.8757
 30
0.0
 10
-147.8274
 20
94.6757
 30
0.0
 10
-150.3419
 20
98.7904
 30
0.0
 10
-150.3419
 20
98.7904
 30
0.0
 10
-150.3419
 20
98.7904
 30
0.0
 10
-153.085
 20
93.7614
 30
0.0
 10
-157.9997
 20
89.761
 30
0.0
 10
-162.8002
 20
87.3608
 30
0.0
  0
SPLINE
  5
6D
330
1F
100
AcDbEntity
  8
layer 1
 62
   250
100
AcDbSpline
210
0.0
220
0.0
230
1.0
 70
    11
 71
     3
 72
    32
 73
    28
 74
     0
 42
0.0000000001
 43
0.0000000001
 12
1.0
 22
0.0
 32
0.0
 13
1.0
 23
0.0
 33
0.0
 40
0.0
 40
0.0
 40
0.0
 40
0.0
 40
0.125
 40
0.125
 40
0.125
 40
0.125
 40
0.25
 40
0.25
 40
0.25
 40
0.25
 40
0.375
 40
0.375
 40
0.375
 40
0.375
 40
0.5
 40
0.5
 40
0.5
 40
0.5
 40
0.625
 40
0.625
 40
0.625
 40
0.625
 40
0.75
 40
0.75
 40
0.75
 40
0.75
 40
1.0
 40
1.0
 40
1.0
 40
1.0
 10
-140.9696
 20
92.6184
 30
0.0
 10
-141.9983
 20
100.1619
 30
0.0
 10
-136.5121
 20
104.3909
 30
0.0
 10
-136.5121
 20
104.3909
 30
0.0
 10
-136.5121
 20
104.3909
 30
0.0
 10
-136.0549
 20
105.5339
 30
0.0
 10
-137.5408
 20
104.6195
 30
0.0
 10
-137.5408
 20
104.6195
 30
0.0
 10
-137.5408
 20
104.6195
 30
0.0
 10
-137.5408
 20
104.6195
 30
0.0
 10
-142.6841
 20
102.5621
 30
0.0
 10
-144.1699
 20
106.7911
 30
0.0
 10
-144.1699
 20
106.7911
 30
0.0
 10
-144.2842
 20
111.4772
 30
0.0
 10
-140.1696
 20
110.7915
 30
0.0
 10
-140.1696
 20
110.7915
 30
0.0
 10
-140.1696
 20
110.7915
 30
0.0
 10
-140.1696
 20
110.7915
 30
0.0
 10
-139.3695
 20
111.363
 30
0.0
 10
-140.3981
 20
111.5915
 30
0.0
 10
-140.3981
 20
111.5915
 30
0.0
 10
-142.9126
 20
113.306
 30
0.0
 10
-149.8847
 20
110.6772
 30
0.0
 10
-147.9417
 20
103.2479
 30
0.0
 10
-147.9417
 20
103.2479
 30
0.0
 10
-145.9986
 20
95.8187
 30
0.0
 10
-140.9696
 20
92.6184
 30
0.0
 10
-140.9696
 20
92.6184
 30
0.0
  0
SPLINE
  5
6E
330
1F
100
AcDbEntity
  8
layer 1
 62
   250
100
AcDbSpline
210
0.0
220
0.0
230
1.0
 70
    11
 71
     3
 72
    20
 73
    16
 74
     0
 42
0.0000000001
 43
0.0000000001
 12
1.0
 22
0.0
 32
0.0
 13
1.0
 23
0.0
 33
0.0
 40
0.0
 40
0.0
 40
0.0
 40
0.0
 40
0.2
 40
0.2
 40
0.2
 40
0.2
 40
0.4
 40
0.4
 40
0.4
 40
0.4
 40
0.6
 40
0.6
 40
0.6
 40
0.6
 40
1.0
 40
1.0
 40
1.0
 40
1.0
 10
-132.626
 20
100.2762
 30
0.0
 10
-132.626
 20
100.2762
 30
0.0
 10
-133.4261
 20
102.4479
 30
0.0
 10
-135.3691
 20
94.3328
 30
0.0
 10
-135.3691
 20
94.3328
 30
0.0
 10
-137.3121
 20
86.2178
 30
0.0
 10
-133.1975
 20
83.3604
 30
0.0
 10
-133.1975
 20
83.3604
 30
0.0
 10
-133.1975
 20
83.3604
 30
0.0
 10
-133.0832
 20
90.5611
 30
0.0
 10
-131.483
 20
91.1326
 30
0.0
 10
-129.8829
 20
93.1899
 30
0.0
 10
-129.8829
 20
93.1899
 30
0.0
 10
-133.3118
 20
94.9044
 30
0.0
 10
-132.626
 20
100.2762
 30
0.0
 10
-132.626
 20
100.2762
 30
0.0
  0
SPLINE
  5
6F
330
1F
100
AcDbEntity
  8
layer 1
 62
   250
100
AcDbSpline
210
0.0
220
0.0
230
1.0
 70
    11
 71
     3
 72
    32
 73
    28
 74
     0
 42
0.0000000001
 43
0.0000000001
 12
1.0
 22
0.0
 32
0.0
 13
1.0
 23
0.0
 33
0.0
 40
0.0
 40
0.0
 40
0.0
 40
0.0
 40
0.125
 40
0.125
 40
0.125
 40
0.125
 40
0.25
 40
0.25
 40
0.25
 40
0.25
 40
0.375
 40
0.375
 40
0.375
 40
0.375
 40
0.5
 40
0.5
 40
0.5
 40
0.5
 40
0.625
 40
0.625
 40
0.625
 40
0.625
 40
0.75
 40
0.75
 40
0.75
 40
0.75
 40
1.0
 40
1.0
 40
1.0
 40
1.0
 10
-89.4221
 20
123.7069
 30
0.0
 10
-88.5078
 20
122.2782
 30
0.0
 10
-87.9362
 20
122.4497
 30
0.0
 10
-87.9362
 20
122.4497
 30
0.0
 10
-87.9362
 20
122.4497
 30
0.0
 10
-87.9362
 20
122.4497
 30
0.0
 10
-87.5934
 20
130.1075
 30
0.0
 10
-79.4784
 20
126.9072
 30
0.0
 10
-79.4784
 20
126.9072
 30
0.0
 10
-75.7066
 20
124.7356
 30
0.0
 10
-76.8496
 20
121.5353
 30
0.0
 10
-76.8496
 20
121.5353
 30
0.0
 10
-76.8496
 20
121.5353
 30
0.0
 10
-76.8496
 20
121.5353
 30
0.0
 10
-73.7636
 20
118.335
 30
0.0
 10
-73.7636
 20
118.335
 30
0.0
 10
-73.7636
 20
118.335
 30
0.0
 10
-73.7636
 20
118.335
 30
0.0
 10
-71.9328
 20
125.4783
 30
0.0
 10
-75.0987
 20
128.586
 30
0.0
 10
-75.0987
 20
128.586
 30
0.0
 10
-75.0987
 20
128.586
 30
0.0
 10
-88.4712
 20
128.586
 30
0.0
 10
-88.4712
 20
128.586
 30
0.0
 10
-88.4712
 20
128.586
 30
0.0
 10
-89.157
 20
127.6997
 30
0.0
 10
-90.3522
 20
125.7362
 30
0.0
 10
-89.4221
 20
123.7069
 30
0.0
  0
SPLINE
  5
70
330
1F
100
AcDbEntity
  8
layer 1
 62
   250
100
AcDbSpline
210
0.0
220
0.0
230
1.0
 70
    11
 71
     3
 72
    24
 73
    20
 74
     0
 42
0.0000000001
 43
0.0000000001
 12
1.0
 22
0.0
 32
0.0
 13
1.0
 23
0.0
 33
0.0
 40
0.0
 40
0.0
 40
0.0
 40
0.0
 40
0.1666666666666667
 40
0.1666666666666667
 40
0.1666666666666667
 40
0.1666666666666667
 40
0.3333333333333333
 40
0.3333333333333333
 40
0.3333333333333333
 40
0.3333333333333333
 40
0.5
 40
0.5
 40
0.5
 40
0.5
 40
0.6666666666666666
 40
0.6666666666666666
 40
0.6666666666666666
 40
0.6666666666666666
 40
1.0
 40
1.0
 40
1.0
 40
1.0
 10
-78.9069
 20
108.677
 30
0.0
 10
-77.021
 20
110.3343
 30
0.0
 10
-74.9637
 20
116.6777
 30
0.0
 10
-74.9637
 20
116.9063
 30
0.0
 10
-74.9637
 20
116.9063
 30
0.0
 10
-74.9637
 20
117.1349
 30
0.0
 10
-77.021
 20
120.1638
 30
0.0
 10
-77.021
 20
120.1638
 30
0.0
 10
-77.021
 20
120.1638
 30
0.0
 10
-77.021
 20
120.1638
 30
0.0
 10
-77.2496
 20
120.1066
 30
0.0
 10
-77.2496
 20
120.1066
 30
0.0
 10
-77.2496
 20
120.1066
 30
0.0
 10
-77.2496
 20
120.1066
 30
0.0
 10
-79.7641
 20
115.9348
 30
0.0
 10
-82.8501
 20
115.0204
 30
0.0
 10
-82.8501
 20
115.0204
 30
0.0
 10
-80.2785
 20
114.5061
 30
0.0
 10
-77.821
 20
111.9344
 30
0.0
 10
-78.9069
 20
108.677
 30
0.0
  0
SPLINE
  5
71
330
1F
100
AcDbEntity
  8
layer 1
 62
   250
100
AcDbSpline
210
0.0
220
0.0
230
1.0
 70
    11
 71
     3
 72
    16
 73
    12
 74
     0
 42
0.0000000001
 43
0.0000000001
 12
1.0
 22
0.0
 32
0.0
 13
1.0
 23
0.0
 33
0.0
 40
0.0
 40
0.0
 40
0.0
 40
0.0
 40
0.25
 40
0.25
 40
0.25
 40
0.25
 40
0.5
 40
0.5
 40
0.5
 40
0.5
 40
1.0
 40
1.0
 40
1.0
 40
1.0
 10
-96.2078
 20
128.586
 30
0.0
 10
-96.2078
 20
128.586
 30
0.0
 10
-97.1603
 20
128.586
 30
0.0
 10
-97.1603
 20
128.586
 30
0.0
 10
-97.1603
 20
128.586
 30
0.0
 10
-96.641
 20
128.1629
 30
0.0
 10
-96.2799
 20
127.9359
 30
0.0
 10
-96.2799
 20
127.9359
 30
0.0
 10
-96.2799
 20
127.9359
 30
0.0
 10
-96.2666
 20
128.1553
 30
0.0
 10
-96.2407
 20
128.3717
 30
0.0
 10
-96.2078
 20
128.586
 30
0.0
  0
SPLINE
  5
72
330
1F
100
AcDbEntity
  8
layer 1
 62
   250
100
AcDbSpline
210
0.0
220
0.0
230
1.0
 70
    11
 71
     3
 72
    28
 73
    24
 74
     0
 42
0.0000000001
 43
0.0000000001
 12
1.0
 22
0.0
 32
0.0
 13
1.0
 23
0.0
 33
0.0
 40
0.0
 40
0.0
 40
0.0
 40
0.0
 40
0.1428571428571428
 40
0.1428571428571428
 40
0.1428571428571428
 40
0.1428571428571428
 40
0.2857142857142857
 40
0.2857142857142857
 40
0.2857142857142857
 40
0.2857142857142857
 40
0.4285714285714285
 40
0.4285714285714285
 40
0.4285714285714285
 40
0.4285714285714285
 40
0.5714285714285714
 40
0.5714285714285714
 40
0.5714285714285714
 40
0.5714285714285714
 40
0.7142857142857143
 40
0.7142857142857143
 40
0.7142857142857143
 40
0.7142857142857143
 40
1.0
 40
1.0
 40
1.0
 40
1.0
 10
-102.7947
 20
124.1641
 30
0.0
 10
-91.3651
 20
119.0208
 30
0.0
 10
-94.3369
 20
111.7059
 30
0.0
 10
-93.3082
 20
112.9631
 30
0.0
 10
-93.3082
 20
112.9631
 30
0.0
 10
-92.2795
 20
114.2203
 30
0.0
 10
-88.622
 20
115.7062
 30
0.0
 10
-88.622
 20
115.7062
 30
0.0
 10
-88.622
 20
115.7062
 30
0.0
 10
-96.5085
 20
117.9921
 30
0.0
 10
-96.6228
 20
126.1072
 30
0.0
 10
-96.6228
 20
126.1072
 30
0.0
 10
-96.6228
 20
126.1072
 30
0.0
 10
-96.6228
 20
126.1072
 30
0.0
 10
-98.8425
 20
126.8551
 30
0.0
 10
-100.9411
 20
128.586
 30
0.0
 10
-100.9411
 20
128.586
 30
0.0
 10
-100.9411
 20
128.586
 30
0.0
 10
-105.6663
 20
128.586
 30
0.0
 10
-105.6663
 20
128.586
 30
0.0
 10
-105.6663
 20
128.586
 30
0.0
 10
-105.3025
 20
127.1902
 30
0.0
 10
-104.4565
 20
125.6597
 30
0.0
 10
-102.7947
 20
124.1641
 30
0.0
  0
SPLINE
  5
73
330
1F
100
AcDbEntity
  8
layer 1
 62
   250
100
AcDbSpline
210
0.0
220
0.0
230
1.0
 70
    11
 71
     3
 72
    24
 73
    20
 74
     0
 42
0.0000000001
 43
0.0000000001
 12
1.0
 22
0.0
 32
0.0
 13
1.0
 23
0.0
 33
0.0
 40
0.0
 40
0.0
 40
0.0
 40
0.0
 40
0.1666666666666667
 40
0.1666666666666667
 40
0.1666666666666667
 40
0.1666666666666667
 40
0.3333333333333333
 40
0.3333333333333333
 40
0.3333333333333333
 40
0.3333333333333333
 40
0.5
 40
0.5
 40
0.5
 40
0.5
 40
0.6666666666666666
 40
0.6666666666666666
 40
0.6666666666666666
 40
0.6666666666666666
 40
1.0
 40
1.0
 40
1.0
 40
1.0
 10
-114.7958
 20
123.2497
 30
0.0
 10
-112.7385
 20
125.0785
 30
0.0
 10
-107.3666
 20
125.4214
 30
0.0
 10
-107.3666
 20
125.4214
 30
0.0
 10
-107.3666
 20
125.4214
 30
0.0
 10
-107.9606
 20
126.2134
 30
0.0
 10
-108.0585
 20
127.5749
 30
0.0
 10
-108.0356
 20
128.586
 30
0.0
 10
-108.0356
 20
128.586
 30
0.0
 10
-108.0356
 20
128.586
 30
0.0
 10
-109.1633
 20
128.586
 30
0.0
 10
-109.1633
 20
128.586
 30
0.0
 10
-109.1633
 20
128.586
 30
0.0
 10
-111.1022
 20
126.9418
 30
0.0
 10
-114.2244
 20
125.3071
 30
0.0
 10
-114.2244
 20
125.3071
 30
0.0
 10
-114.2244
 20
125.3071
 30
0.0
 10
-114.4529
 20
124.1641
 30
0.0
 10
-114.7958
 20
123.2497
 30
0.0
 10
-114.7958
 20
123.2497
 30
0.0
  0
SPLINE
  5
74
330
1F
100
AcDbEntity
  8
layer 1
 62
   250
100
AcDbSpline
210
0.0
220
0.0
230
1.0
 70
    11
 71
     3
 72
    32
 73
    28
 74
     0
 42
0.0000000001
 43
0.0000000001
 12
1.0
 22
0.0
 32
0.0
 13
1.0
 23
0.0
 33
0.0
 40
0.0
 40
0.0
 40
0.0
 40
0.0
 40
0.125
 40
0.125
 40
0.125
 40
0.125
 40
0.25
 40
0.25
 40
0.25
 40
0.25
 40
0.375
 40
0.375
 40
0.375
 40
0.375
 40
0.5
 40
0.5
 40
0.5
 40
0.5
 40
0.625
 40
0.625
 40
0.625
 40
0.625
 40
0.75
 40
0.75
 40
0.75
 40
0.75
 40
1.0
 40
1.0
 40
1.0
 40
1.0
 10
-110.224
 20
107.2483
 30
0.0
 10
-106.5665
 20
106.7911
 30
0.0
 10
-105.8808
 20
109.1913
 30
0.0
 10
-105.8808
 20
109.1913
 30
0.0
 10
-105.8808
 20
109.1913
 30
0.0
 10
-107.3666
 20
107.9341
 30
0.0
 10
-108.3953
 20
108.6199
 30
0.0
 10
-108.3953
 20
108.6199
 30
0.0
 10
-108.3953
 20
108.6199
 30
0.0
 10
-108.3953
 20
108.6199
 30
0.0
 10
-115.3673
 20
110.5629
 30
0.0
 10
-112.5099
 20
116.5063
 30
0.0
 10
-112.5099
 20
116.5063
 30
0.0
 10
-106.2236
 20
123.0212
 30
0.0
 10
-98.5658
 20
117.0778
 30
0.0
 10
-98.5658
 20
117.0778
 30
0.0
 10
-98.5658
 20
117.0778
 30
0.0
 10
-101.5375
 20
123.7069
 30
0.0
 10
-108.3953
 20
122.4497
 30
0.0
 10
-108.3953
 20
122.4497
 30
0.0
 10
-108.3953
 20
122.4497
 30
0.0
 10
-108.3953
 20
122.4497
 30
0.0
 10
-114.7958
 20
121.9925
 30
0.0
 10
-116.5103
 20
116.5063
 30
0.0
 10
-116.5103
 20
116.5063
 30
0.0
 10
-118.2247
 20
111.0201
 30
0.0
 10
-113.8815
 20
107.7055
 30
0.0
 10
-110.224
 20
107.2483
 30
0.0
  0
SPLINE
  5
75
330
1F
100
AcDbEntity
  8
layer 1
 62
   250
100
AcDbSpline
210
0.0
220
0.0
230
1.0
 70
    11
 71
     3
 72
    20
 73
    16
 74
     0
 42
0.0000000001
 43
0.0000000001
 12
1.0
 22
0.0
 32
0.0
 13
1.0
 23
0.0
 33
0.0
 40
0.0
 40
0.0
 40
0.0
 40
0.0
 40
0.2
 40
0.2
 40
0.2
 40
0.2
 40
0.4
 40
0.4
 40
0.4
 40
0.4
 40
0.6
 40
0.6
 40
0.6
 40
0.6
 40
1.0
 40
1.0
 40
1.0
 40
1.0
 10
-107.3666
 20
116.2777
 30
0.0
 10
-108.9447
 20
116.2777
 30
0.0
 10
-110.224
 20
114.9984
 30
0.0
 10
-110.224
 20
113.4203
 30
0.0
 10
-110.224
 20
113.4203
 30
0.0
 10
-110.224
 20
111.8422
 30
0.0
 10
-108.9447
 20
110.5629
 30
0.0
 10
-107.3666
 20
110.5629
 30
0.0
 10
-107.3666
 20
110.5629
 30
0.0
 10
-105.7885
 20
110.5629
 30
0.0
 10
-104.5092
 20
111.8422
 30
0.0
 10
-104.5092
 20
113.4203
 30
0.0
 10
-104.5092
 20
113.4203
 30
0.0
 10
-104.5092
 20
114.9984
 30
0.0
 10
-105.7885
 20
116.2777
 30
0.0
 10
-107.3666
 20
116.2777
 30
0.0
  0
SPLINE
  5
76
330
1F
100
AcDbEntity
  8
layer 1
 62
   250
100
AcDbSpline
210
0.0
220
0.0
230
1.0
 70
    11
 71
     3
 72
    20
 73
    16
 74
     0
 42
0.0000000001
 43
0.0000000001
 12
1.0
 22
0.0
 32
0.0
 13
1.0
 23
0.0
 33
0.0
 40
0.0
 40
0.0
 40
0.0
 40
0.0
 40
0.2
 40
0.2
 40
0.2
 40
0.2
 40
0.4
 40
0.4
 40
0.4
 40
0.4
 40
0.6
 40
0.6
 40
0.6
 40
0.6
 40
1.0
 40
1.0
 40
1.0
 40
1.0
 10
-111.9384
 20
104.7338
 30
0.0
 10
-111.9384
 20
104.7338
 30
0.0
 10
-113.7672
 20
102.905
 30
0.0
 10
-114.4529
 20
102.905
 30
0.0
 10
-114.4529
 20
102.905
 30
0.0
 10
-114.4529
 20
102.905
 30
0.0
 10
-111.5955
 20
99.1333
 30
0.0
 10
-112.9671
 20
92.9613
 30
0.0
 10
-112.9671
 20
92.9613
 30
0.0
 10
-112.9671
 20
92.9613
 30
0.0
 10
-102.109
 20
99.5905
 30
0.0
 10
-101.9947
 20
109.5342
 30
0.0
 10
-101.9947
 20
109.5342
 30
0.0
 10
-101.9947
 20
109.5342
 30
0.0
 10
-104.7378
 20
103.1337
 30
0.0
 10
-111.9384
 20
104.7338
 30
0.0
  0
SPLINE
  5
77
330
1F
100
AcDbEntity
  8
layer 1
 62
   250
100
AcDbSpline
210
0.0
220
0.0
230
1.0
 70
    11
 71
     3
 72
    28
 73
    24
 74
     0
 42
0.0000000001
 43
0.0000000001
 12
1.0
 22
0.0
 32
0.0
 13
1.0
 23
0.0
 33
0.0
 40
0.0
 40
0.0
 40
0.0
 40
0.0
 40
0.1428571428571428
 40
0.1428571428571428
 40
0.1428571428571428
 40
0.1428571428571428
 40
0.2857142857142857
 40
0.2857142857142857
 40
0.2857142857142857
 40
0.2857142857142857
 40
0.4285714285714285
 40
0.4285714285714285
 40
0.4285714285714285
 40
0.4285714285714285
 40
0.5714285714285714
 40
0.5714285714285714
 40
0.5714285714285714
 40
0.5714285714285714
 40
0.7142857142857143
 40
0.7142857142857143
 40
0.7142857142857143
 40
0.7142857142857143
 40
1.0
 40
1.0
 40
1.0
 40
1.0
 10
-107.7095
 20
93.7614
 30
0.0
 10
-123.1394
 20
81.4174
 30
0.0
 10
-122.5679
 20
78.56
 30
0.0
 10
-123.4823
 20
75.474
 30
0.0
 10
-123.4823
 20
75.474
 30
0.0
 10
-123.4823
 20
75.474
 30
0.0
 10
-124.511
 20
67.2447
 30
0.0
 10
-120.0534
 20
64.5016
 30
0.0
 10
-120.0534
 20
64.5016
 30
0.0
 10
-120.0534
 20
64.5016
 30
0.0
 10
-122.4537
 20
72.6166
 30
0.0
 10
-119.0248
 20
79.0172
 30
0.0
 10
-119.0248
 20
79.0172
 30
0.0
 10
-115.5959
 20
85.4178
 30
0.0
 10
-105.2094
 20
91.2647
 30
0.0
 10
-102.6804
 20
93.3042
 30
0.0
 10
-102.6804
 20
93.3042
 30
0.0
 10
-99.1373
 20
96.1616
 30
0.0
 10
-86.7933
 20
112.0487
 30
0.0
 10
-102.5662
 20
116.5063
 30
0.0
 10
-102.5662
 20
116.5063
 30
0.0
 10
-102.5662
 20
116.5063
 30
0.0
 10
-92.6224
 20
105.3053
 30
0.0
 10
-107.7095
 20
93.7614
 30
0.0
  0
SPLINE
  5
78
330
1F
100
AcDbEntity
  8
layer 1
 62
   250
100
AcDbSpline
210
0.0
220
0.0
230
1.0
 70
    11
 71
     3
 72
    20
 73
    16
 74
     0
 42
0.0000000001
 43
0.0000000001
 12
1.0
 22
0.0
 32
0.0
 13
1.0
 23
0.0
 33
0.0
 40
0.0
 40
0.0
 40
0.0
 40
0.0
 40
0.2
 40
0.2
 40
0.2
 40
0.2
 40
0.4
 40
0.4
 40
0.4
 40
0.4
 40
0.6
 40
0.6
 40
0.6
 40
0.6
 40
1.0
 40
1.0
 40
1.0
 40
1.0
 10
-116.9675
 20
104.6195
 30
0.0
 10
-115.9388
 20
105.191
 30
0.0
 10
-115.1387
 20
106.4482
 30
0.0
 10
-115.1387
 20
106.4482
 30
0.0
 10
-115.1387
 20
106.4482
 30
0.0
 10
-119.2534
 20
108.0484
 30
0.0
 10
-119.2534
 20
114.3347
 30
0.0
 10
-119.2534
 20
114.3347
 30
0.0
 10
-119.2534
 20
114.3347
 30
0.0
 10
-121.5393
 20
110.4486
 30
0.0
 10
-127.8256
 20
108.1627
 30
0.0
 10
-128.3971
 20
104.9624
 30
0.0
 10
-128.3971
 20
104.9624
 30
0.0
 10
-122.225
 20
108.1627
 30
0.0
 10
-116.9675
 20
104.6195
 30
0.0
 10
-116.9675
 20
104.6195
 30
0.0
  0
SPLINE
  5
79
330
1F
100
AcDbEntity
  8
layer 1
 62
   250
100
AcDbSpline
210
0.0
220
0.0
230
1.0
 70
    11
 71
     3
 72
    40
 73
    36
 74
     0
 42
0.0000000001
 43
0.0000000001
 12
1.0
 22
0.0
 32
0.0
 13
1.0
 23
0.0
 33
0.0
 40
0.0
 40
0.0
 40
0.0
 40
0.0
 40
0.1
 40
0.1
 40
0.1
 40
0.1
 40
0.2
 40
0.2
 40
0.2
 40
0.2
 40
0.3
 40
0.3
 40
0.3
 40
0.3
 40
0.4
 40
0.4
 40
0.4
 40
0.4
 40
0.5
 40
0.5
 40
0.5
 40
0.5
 40
0.6
 40
0.6
 40
0.6
 40
0.6
 40
0.7
 40
0.7
 40
0.7
 40
0.7
 40
0.8
 40
0.8
 40
0.8
 40
0.8
 40
1.0
 40
1.0
 40
1.0
 40
1.0
 10
-128.5971
 20
78.9315
 30
0.0
 10
-128.8543
 20
79.8744
 30
0.0
 10
-128.5114
 20
80.7316
 30
0.0
 10
-128.5114
 20
80.7316
 30
0.0
 10
-128.5114
 20
80.7316
 30
0.0
 10
-127.0255
 20
84.732
 30
0.0
 10
-124.7396
 20
87.0179
 30
0.0
 10
-124.0538
 20
88.1609
 30
0.0
 10
-124.0538
 20
88.1609
 30
0.0
 10
-123.368
 20
89.3038
 30
0.0
 10
-116.1674
 20
95.0186
 30
0.0
 10
-119.2534
 20
99.2476
 30
0.0
 10
-119.2534
 20
99.2476
 30
0.0
 10
-122.3394
 20
103.4766
 30
0.0
 10
-126.6826
 20
100.6191
 30
0.0
 10
-126.6826
 20
100.6191
 30
0.0
 10
-126.6826
 20
100.6191
 30
0.0
 10
-126.6826
 20
100.6191
 30
0.0
 10
-127.4827
 20
99.3619
 30
0.0
 10
-126.2255
 20
99.819
 30
0.0
 10
-126.2255
 20
99.819
 30
0.0
 10
-121.3107
 20
101.4192
 30
0.0
 10
-121.3107
 20
96.2759
 30
0.0
 10
-121.3107
 20
96.2759
 30
0.0
 10
-121.3107
 20
96.2759
 30
0.0
 10
-121.1964
 20
90.1039
 30
0.0
 10
-128.6257
 20
91.1326
 30
0.0
 10
-128.6257
 20
91.1326
 30
0.0
 10
-128.6257
 20
91.1326
 30
0.0
 10
-128.6257
 20
91.1326
 30
0.0
 10
-129.7972
 20
90.6754
 30
0.0
 10
-130.9973
 20
86.3036
 30
0.0
 10
-130.9973
 20
86.3036
 30
0.0
 10
-132.1974
 20
80.7316
 30
0.0
 10
-128.3399
 20
77.9885
 30
0.0
 10
-128.5971
 20
78.9315
 30
0.0
  0
SPLINE
  5
7A
330
1F
100
AcDbEntity
  8
layer 1
 62
   250
100
AcDbSpline
210
0.0
220
0.0
230
1.0
 70
    11
 71
     3
 72
    28
 73
    24
 74
     0
 42
0.0000000001
 43
0.0000000001
 12
1.0
 22
0.0
 32
0.0
 13
1.0
 23
0.0
 33
0.0
 40
0.0
 40
0.0
 40
0.0
 40
0.0
 40
0.1428571428571428
 40
0.1428571428571428
 40
0.1428571428571428
 40
0.1428571428571428
 40
0.2857142857142857
 40
0.2857142857142857
 40
0.2857142857142857
 40
0.2857142857142857
 40
0.4285714285714285
 40
0.4285714285714285
 40
0.4285714285714285
 40
0.4285714285714285
 40
0.5714285714285714
 40
0.5714285714285714
 40
0.5714285714285714
 40
0.5714285714285714
 40
0.7142857142857143
 40
0.7142857142857143
 40
0.7142857142857143
 40
0.7142857142857143
 40
1.0
 40
1.0
 40
1.0
 40
1.0
 10
-106.7951
 20
87.3608
 30
0.0
 10
-100.966
 20
87.818
 30
0.0
 10
-98.4515
 20
85.875
 30
0.0
 10
-98.4515
 20
85.875
 30
0.0
 10
-98.4515
 20
85.875
 30
0.0
 10
-98.4515
 20
85.875
 30
0.0
 10
-96.6228
 20
85.5321
 30
0.0
 10
-97.7657
 20
86.4464
 30
0.0
 10
-97.7657
 20
86.4464
 30
0.0
 10
-98.9087
 20
87.3608
 30
0.0
 10
-99.2515
 20
89.6467
 30
0.0
 10
-97.6514
 20
92.0469
 30
0.0
 10
-97.6514
 20
92.0469
 30
0.0
 10
-96.0513
 20
94.4472
 30
0.0
 10
-91.0222
 20
93.8757
 30
0.0
 10
-91.0222
 20
93.8757
 30
0.0
 10
-91.0222
 20
93.8757
 30
0.0
 10
-91.8223
 20
94.6757
 30
0.0
 10
-94.3369
 20
98.7904
 30
0.0
 10
-94.3369
 20
98.7904
 30
0.0
 10
-94.3369
 20
98.7904
 30
0.0
 10
-97.0799
 20
93.7614
 30
0.0
 10
-101.9947
 20
89.761
 30
0.0
 10
-106.7951
 20
87.3608
 30
0.0
  0
SPLINE
  5
7B
330
1F
100
AcDbEntity
  8
layer 1
 62
   250
100
AcDbSpline
210
0.0
220
0.0
230
1.0
 70
    11
 71
     3
 72
    32
 73
    28
 74
     0
 42
0.0000000001
 43
0.0000000001
 12
1.0
 22
0.0
 32
0.0
 13
1.0
 23
0.0
 33
0.0
 40
0.0
 40
0.0
 40
0.0
 40
0.0
 40
0.125
 40
0.125
 40
0.125
 40
0.125
 40
0.25
 40
0.25
 40
0.25
 40
0.25
 40
0.375
 40
0.375
 40
0.375
 40
0.375
 40
0.5
 40
0.5
 40
0.5
 40
0.5
 40
0.625
 40
0.625
 40
0.625
 40
0.625
 40
0.75
 40
0.75
 40
0.75
 40
0.75
 40
1.0
 40
1.0
 40
1.0
 40
1.0
 10
-84.9646
 20
92.6184
 30
0.0
 10
-85.9932
 20
100.1619
 30
0.0
 10
-80.507
 20
104.3909
 30
0.0
 10
-80.507
 20
104.3909
 30
0.0
 10
-80.507
 20
104.3909
 30
0.0
 10
-80.0498
 20
105.5339
 30
0.0
 10
-81.5357
 20
104.6195
 30
0.0
 10
-81.5357
 20
104.6195
 30
0.0
 10
-81.5357
 20
104.6195
 30
0.0
 10
-81.5357
 20
104.6195
 30
0.0
 10
-86.679
 20
102.5621
 30
0.0
 10
-88.1649
 20
106.7911
 30
0.0
 10
-88.1649
 20
106.7911
 30
0.0
 10
-88.2791
 20
111.4772
 30
0.0
 10
-84.1645
 20
110.7915
 30
0.0
 10
-84.1645
 20
110.7915
 30
0.0
 10
-84.1645
 20
110.7915
 30
0.0
 10
-84.1645
 20
110.7915
 30
0.0
 10
-83.3645
 20
111.363
 30
0.0
 10
-84.3931
 20
111.5915
 30
0.0
 10
-84.3931
 20
111.5915
 30
0.0
 10
-86.9076
 20
113.306
 30
0.0
 10
-93.8797
 20
110.6772
 30
0.0
 10
-91.9366
 20
103.2479
 30
0.0
 10
-91.9366
 20
103.2479
 30
0.0
 10
-89.9936
 20
95.8187
 30
0.0
 10
-84.9646
 20
92.6184
 30
0.0
 10
-84.9646
 20
92.6184
 30
0.0
  0
SPLINE
  5
7C
330
1F
100
AcDbEntity
  8
layer 1
 62
   250
100
AcDbSpline
210
0.0
220
0.0
230
1.0
 70
    11
 71
     3
 72
    20
 73
    16
 74
     0
 42
0.0000000001
 43
0.0000000001
 12
1.0
 22
0.0
 32
0.0
 13
1.0
 23
0.0
 33
0.0
 40
0.0
 40
0.0
 40
0.0
 40
0.0
 40
0.2
 40
0.2
 40
0.2
 40
0.2
 40
0.4
 40
0.4
 40
0.4
 40
0.4
 40
0.6
 40
0.6
 40
0.6
 40
0.6
 40
1.0
 40
1.0
 40
1.0
 40
1.0
 10
-76.6209
 20
100.2762
 30
0.0
 10
-76.6209
 20
100.2762
 30
0.0
 10
-77.421
 20
102.4479
 30
0.0
 10
-79.364
 20
94.3328
 30
0.0
 10
-79.364
 20
94.3328
 30
0.0
 10
-81.3071
 20
86.2178
 30
0.0
 10
-77.1924
 20
83.3604
 30
0.0
 10
-77.1924
 20
83.3604
 30
0.0
 10
-77.1924
 20
83.3604
 30
0.0
 10
-77.0781
 20
90.5611
 30
0.0
 10
-75.478
 20
91.1326
 30
0.0
 10
-73.8779
 20
93.1899
 30
0.0
 10
-73.8779
 20
93.1899
 30
0.0
 10
-77.3067
 20
94.9044
 30
0.0
 10
-76.6209
 20
100.2762
 30
0.0
 10
-76.6209
 20
100.2762
 30
0.0
  0
SPLINE
  5
7D
330
1F
100
AcDbEntity
  8
layer 1
 62
   250
100
AcDbSpline
210
0.0
220
0.0
230
1.0
 70
    11
 71
     3
 72
    16
 73
    12
 74
     0
 42
0.0000000001
 43
0.0000000001
 12
1.0
 22
0.0
 32
0.0
 13
1.0
 23
0.0
 33
0.0
 40
0.0
 40
0.0
 40
0.0
 40
0.0
 40
0.25
 40
0.25
 40
0.25
 40
0.25
 40
0.5
 40
0.5
 40
0.5
 40
0.5
 40
1.0
 40
1.0
 40
1.0
 40
1.0
 10
-59.0559
 20
109.8939
 30
0.0
 10
-59.0559
 20
109.8939
 30
0.0
 10
-59.0559
 20
118.8634
 30
0.0
 10
-59.0559
 20
118.8634
 30
0.0
 10
-59.0559
 20
118.8634
 30
0.0
 10
-59.5582
 20
118.2025
 30
0.0
 10
-59.9876
 20
117.4312
 30
0.0
 10
-60.2766
 20
116.5063
 30
0.0
 10
-60.2766
 20
116.5063
 30
0.0
 10
-61.1525
 20
113.7034
 30
0.0
 10
-60.443
 20
111.4716
 30
0.0
 10
-59.0559
 20
109.8939
 30
0.0
  0
SPLINE
  5
7E
330
1F
100
AcDbEntity
  8
layer 1
 62
   250
100
AcDbSpline
210
0.0
220
0.0
230
1.0
 70
    11
 71
     3
 72
    24
 73
    20
 74
     0
 42
0.0000000001
 43
0.0000000001
 12
1.0
 22
0.0
 32
0.0
 13
1.0
 23
0.0
 33
0.0
 40
0.0
 40
0.0
 40
0.0
 40
0.0
 40
0.1666666666666667
 40
0.1666666666666667
 40
0.1666666666666667
 40
0.1666666666666667
 40
0.3333333333333333
 40
0.3333333333333333
 40
0.3333333333333333
 40
0.3333333333333333
 40
0.5
 40
0.5
 40
0.5
 40
0.5
 40
0.6666666666666666
 40
0.6666666666666666
 40
0.6666666666666666
 40
0.6666666666666666
 40
1.0
 40
1.0
 40
1.0
 40
1.0
 10
-67.2488
 20
75.474
 30
0.0
 10
-67.2488
 20
75.474
 30
0.0
 10
-68.2774
 20
67.2447
 30
0.0
 10
-63.8199
 20
64.5016
 30
0.0
 10
-63.8199
 20
64.5016
 30
0.0
 10
-63.8199
 20
64.5016
 30
0.0
 10
-66.2201
 20
72.6166
 30
0.0
 10
-62.7912
 20
79.0172
 30
0.0
 10
-62.7912
 20
79.0172
 30
0.0
 10
-61.9169
 20
80.6491
 30
0.0
 10
-60.5892
 20
82.2445
 30
0.0
 10
-59.0559
 20
83.7504
 30
0.0
 10
-59.0559
 20
83.7504
 30
0.0
 10
-59.0559
 20
83.7504
 30
0.0
 10
-59.0559
 20
87.3185
 30
0.0
 10
-59.0559
 20
87.3185
 30
0.0
 10
-59.0559
 20
87.3185
 30
0.0
 10
-66.7255
 20
80.2484
 30
0.0
 10
-66.5207
 20
77.9309
 30
0.0
 10
-67.2488
 20
75.474
 30
0.0
  0
SPLINE
  5
7F
330
1F
100
AcDbEntity
  8
layer 1
 62
   250
100
AcDbSpline
210
0.0
220
0.0
230
1.0
 70
    11
 71
     3
 72
    24
 73
    20
 74
     0
 42
0.0000000001
 43
0.0000000001
 12
1.0
 22
0.0
 32
0.0
 13
1.0
 23
0.0
 33
0.0
 40
0.0
 40
0.0
 40
0.0
 40
0.0
 40
0.1666666666666667
 40
0.1666666666666667
 40
0.1666666666666667
 40
0.1666666666666667
 40
0.3333333333333333
 40
0.3333333333333333
 40
0.3333333333333333
 40
0.3333333333333333
 40
0.5
 40
0.5
 40
0.5
 40
0.5
 40
0.6666666666666666
 40
0.6666666666666666
 40
0.6666666666666666
 40
0.6666666666666666
 40
1.0
 40
1.0
 40
1.0
 40
1.0
 10
-63.0197
 20
114.3347
 30
0.0
 10
-65.3056
 20
110.4486
 30
0.0
 10
-71.5919
 20
108.1627
 30
0.0
 10
-72.1634
 20
104.9624
 30
0.0
 10
-72.1634
 20
104.9624
 30
0.0
 10
-65.9914
 20
108.1627
 30
0.0
 10
-60.7339
 20
104.6195
 30
0.0
 10
-60.7339
 20
104.6195
 30
0.0
 10
-60.7339
 20
104.6195
 30
0.0
 10
-59.9699
 20
105.0439
 30
0.0
 10
-59.3336
 20
105.8448
 30
0.0
 10
-59.0559
 20
106.2298
 30
0.0
 10
-59.0559
 20
106.2298
 30
0.0
 10
-59.0559
 20
106.2298
 30
0.0
 10
-59.0559
 20
106.5216
 30
0.0
 10
-59.0559
 20
106.5216
 30
0.0
 10
-59.0559
 20
106.5216
 30
0.0
 10
-63.012
 20
108.2195
 30
0.0
 10
-63.0197
 20
114.3347
 30
0.0
 10
-63.0197
 20
114.3347
 30
0.0
  0
SPLINE
  5
80
330
1F
100
AcDbEntity
  8
layer 1
 62
   250
100
AcDbSpline
210
0.0
220
0.0
230
1.0
 70
    11
 71
     3
 72
    40
 73
    36
 74
     0
 42
0.0000000001
 43
0.0000000001
 12
1.0
 22
0.0
 32
0.0
 13
1.0
 23
0.0
 33
0.0
 40
0.0
 40
0.0
 40
0.0
 40
0.0
 40
0.1
 40
0.1
 40
0.1
 40
0.1
 40
0.2
 40
0.2
 40
0.2
 40
0.2
 40
0.3
 40
0.3
 40
0.3
 40
0.3
 40
0.4
 40
0.4
 40
0.4
 40
0.4
 40
0.5
 40
0.5
 40
0.5
 40
0.5
 40
0.6
 40
0.6
 40
0.6
 40
0.6
 40
0.7
 40
0.7
 40
0.7
 40
0.7
 40
0.8
 40
0.8
 40
0.8
 40
0.8
 40
1.0
 40
1.0
 40
1.0
 40
1.0
 10
-72.3634
 20
78.9315
 30
0.0
 10
-72.6206
 20
79.8744
 30
0.0
 10
-72.2777
 20
80.7316
 30
0.0
 10
-72.2777
 20
80.7316
 30
0.0
 10
-72.2777
 20
80.7316
 30
0.0
 10
-70.7919
 20
84.732
 30
0.0
 10
-68.5059
 20
87.0179
 30
0.0
 10
-67.8202
 20
88.1609
 30
0.0
 10
-67.8202
 20
88.1609
 30
0.0
 10
-67.1344
 20
89.3038
 30
0.0
 10
-59.9338
 20
95.0186
 30
0.0
 10
-63.0197
 20
99.2476
 30
0.0
 10
-63.0197
 20
99.2476
 30
0.0
 10
-66.1057
 20
103.4766
 30
0.0
 10
-70.449
 20
100.6191
 30
0.0
 10
-70.449
 20
100.6191
 30
0.0
 10
-70.449
 20
100.6191
 30
0.0
 10
-70.449
 20
100.6191
 30
0.0
 10
-71.2491
 20
99.3619
 30
0.0
 10
-69.9919
 20
99.819
 30
0.0
 10
-69.9919
 20
99.819
 30
0.0
 10
-65.077
 20
101.4192
 30
0.0
 10
-65.077
 20
96.2759
 30
0.0
 10
-65.077
 20
96.2759
 30
0.0
 10
-65.077
 20
96.2759
 30
0.0
 10
-64.9627
 20
90.1039
 30
0.0
 10
-72.392
 20
91.1326
 30
0.0
 10
-72.392
 20
91.1326
 30
0.0
 10
-72.392
 20
91.1326
 30
0.0
 10
-72.392
 20
91.1326
 30
0.0
 10
-73.5636
 20
90.6754
 30
0.0
 10
-74.7636
 20
86.3036
 30
0.0
 10
-74.7636
 20
86.3036
 30
0.0
 10
-75.9637
 20
80.7316
 30
0.0
 10
-72.1063
 20
77.9885
 30
0.0
 10
-72.3634
 20
78.9315
 30
0.0
  0
SPLINE
  5
81
330
1F
100
AcDbEntity
  8
layer 1
 62
   250
100
AcDbSpline
210
0.0
220
0.0
230
1.0
 70
    11
 71
     3
 72
    32
 73
    28
 74
     0
 42
0.0000000001
 43
0.0000000001
 12
1.0
 22
0.0
 32
0.0
 13
1.0
 23
0.0
 33
0.0
 40
0.0
 40
0.0
 40
0.0
 40
0.0
 40
0.125
 40
0.125
 40
0.125
 40
0.125
 40
0.25
 40
0.25
 40
0.25
 40
0.25
 40
0.375
 40
0.375
 40
0.375
 40
0.375
 40
0.5
 40
0.5
 40
0.5
 40
0.5
 40
0.625
 40
0.625
 40
0.625
 40
0.625
 40
0.75
 40
0.75
 40
0.75
 40
0.75
 40
1.0
 40
1.0
 40
1.0
 40
1.0
 10
-132.0545
 20
-74.3681
 30
0.0
 10
-136.5121
 20
-71.8536
 30
0.0
 10
-139.7124
 20
-71.0535
 30
0.0
 10
-144.0556
 20
-74.5967
 30
0.0
 10
-144.0556
 20
-74.5967
 30
0.0
 10
-144.0556
 20
-74.5967
 30
0.0
 10
-146.6844
 20
-77.2255
 30
0.0
 10
-145.4272
 20
-79.9686
 30
0.0
 10
-145.4272
 20
-79.9686
 30
0.0
 10
-144.5128
 20
-81.3973
 30
0.0
 10
-143.9413
 20
-81.2259
 30
0.0
 10
-143.9413
 20
-81.2259
 30
0.0
 10
-143.9413
 20
-81.2259
 30
0.0
 10
-143.9413
 20
-81.2259
 30
0.0
 10
-143.5984
 20
-73.568
 30
0.0
 10
-135.4834
 20
-76.7683
 30
0.0
 10
-135.4834
 20
-76.7683
 30
0.0
 10
-131.7116
 20
-78.9399
 30
0.0
 10
-132.8546
 20
-82.1402
 30
0.0
 10
-132.8546
 20
-82.1402
 30
0.0
 10
-132.8546
 20
-82.1402
 30
0.0
 10
-132.8546
 20
-82.1402
 30
0.0
 10
-129.7686
 20
-85.3405
 30
0.0
 10
-129.7686
 20
-85.3405
 30
0.0
 10
-129.7686
 20
-85.3405
 30
0.0
 10
-129.7686
 20
-85.3405
 30
0.0
 10
-127.597
 20
-76.8826
 30
0.0
 10
-132.0545
 20
-74.3681
 30
0.0
  0
SPLINE
  5
82
330
1F
100
AcDbEntity
  8
layer 1
 62
   250
100
AcDbSpline
210
0.0
220
0.0
230
1.0
 70
    11
 71
     3
 72
    24
 73
    20
 74
     0
 42
0.0000000001
 43
0.0000000001
 12
1.0
 22
0.0
 32
0.0
 13
1.0
 23
0.0
 33
0.0
 40
0.0
 40
0.0
 40
0.0
 40
0.0
 40
0.1666666666666667
 40
0.1666666666666667
 40
0.1666666666666667
 40
0.1666666666666667
 40
0.3333333333333333
 40
0.3333333333333333
 40
0.3333333333333333
 40
0.3333333333333333
 40
0.5
 40
0.5
 40
0.5
 40
0.5
 40
0.6666666666666666
 40
0.6666666666666666
 40
0.6666666666666666
 40
0.6666666666666666
 40
1.0
 40
1.0
 40
1.0
 40
1.0
 10
-133.2546
 20
-83.5689
 30
0.0
 10
-133.2546
 20
-83.5689
 30
0.0
 10
-135.7691
 20
-87.7407
 30
0.0
 10
-138.8551
 20
-88.6551
 30
0.0
 10
-138.8551
 20
-88.6551
 30
0.0
 10
-136.2835
 20
-89.1694
 30
0.0
 10
-133.8261
 20
-91.7411
 30
0.0
 10
-134.9119
 20
-94.9985
 30
0.0
 10
-134.9119
 20
-94.9985
 30
0.0
 10
-133.026
 20
-93.3412
 30
0.0
 10
-130.9687
 20
-86.9978
 30
0.0
 10
-130.9687
 20
-86.7692
 30
0.0
 10
-130.9687
 20
-86.7692
 30
0.0
 10
-130.9687
 20
-86.5406
 30
0.0
 10
-133.026
 20
-83.5117
 30
0.0
 10
-133.026
 20
-83.5117
 30
0.0
 10
-133.026
 20
-83.5117
 30
0.0
 10
-133.026
 20
-83.5117
 30
0.0
 10
-133.2546
 20
-83.5689
 30
0.0
 10
-133.2546
 20
-83.5689
 30
0.0
  0
SPLINE
  5
83
330
1F
100
AcDbEntity
  8
layer 1
 62
   250
100
AcDbSpline
210
0.0
220
0.0
230
1.0
 70
    11
 71
     3
 72
    20
 73
    16
 74
     0
 42
0.0000000001
 43
0.0000000001
 12
1.0
 22
0.0
 32
0.0
 13
1.0
 23
0.0
 33
0.0
 40
0.0
 40
0.0
 40
0.0
 40
0.0
 40
0.2
 40
0.2
 40
0.2
 40
0.2
 40
0.4
 40
0.4
 40
0.4
 40
0.4
 40
0.6
 40
0.6
 40
0.6
 40
0.6
 40
1.0
 40
1.0
 40
1.0
 40
1.0
 10
-152.2849
 20
-75.7396
 30
0.0
 10
-152.0563
 20
-71.9678
 30
0.0
 10
-148.7418
 20
-68.8819
 30
0.0
 10
-148.7418
 20
-68.8819
 30
0.0
 10
-148.7418
 20
-68.8819
 30
0.0
 10
-155.5995
 20
-67.5103
 30
0.0
 10
-151.3706
 20
-61.6812
 30
0.0
 10
-151.3706
 20
-61.6812
 30
0.0
 10
-151.3706
 20
-61.6812
 30
0.0
 10
-155.8281
 20
-62.4813
 30
0.0
 10
-156.5138
 20
-65.6816
 30
0.0
 10
-156.5138
 20
-65.6816
 30
0.0
 10
-156.5138
 20
-65.6816
 30
0.0
 10
-158.6855
 20
-71.7393
 30
0.0
 10
-152.2849
 20
-75.7396
 30
0.0
 10
-152.2849
 20
-75.7396
 30
0.0
  0
SPLINE
  5
84
330
1F
100
AcDbEntity
  8
layer 1
 62
   250
100
AcDbSpline
210
0.0
220
0.0
230
1.0
 70
    11
 71
     3
 72
    24
 73
    20
 74
     0
 42
0.0000000001
 43
0.0000000001
 12
1.0
 22
0.0
 32
0.0
 13
1.0
 23
0.0
 33
0.0
 40
0.0
 40
0.0
 40
0.0
 40
0.0
 40
0.1666666666666667
 40
0.1666666666666667
 40
0.1666666666666667
 40
0.1666666666666667
 40
0.3333333333333333
 40
0.3333333333333333
 40
0.3333333333333333
 40
0.3333333333333333
 40
0.5
 40
0.5
 40
0.5
 40
0.5
 40
0.6666666666666666
 40
0.6666666666666666
 40
0.6666666666666666
 40
0.6666666666666666
 40
1.0
 40
1.0
 40
1.0
 40
1.0
 10
-152.6278
 20
-77.5683
 30
0.0
 10
-152.6278
 20
-77.5683
 30
0.0
 10
-159.1427
 20
-75.3967
 30
0.0
 10
-160.3999
 20
-69.7962
 30
0.0
 10
-160.3999
 20
-69.7962
 30
0.0
 10
-160.6239
 20
-68.7987
 30
0.0
 10
-164.5146
 20
-74.3681
 30
0.0
 10
-158.7998
 20
-79.5114
 30
0.0
 10
-158.7998
 20
-79.5114
 30
0.0
 10
-147.3702
 20
-84.6547
 30
0.0
 10
-150.3419
 20
-91.9697
 30
0.0
 10
-149.3132
 20
-90.7124
 30
0.0
 10
-149.3132
 20
-90.7124
 30
0.0
 10
-148.2845
 20
-89.4552
 30
0.0
 10
-144.6271
 20
-87.9693
 30
0.0
 10
-144.6271
 20
-87.9693
 30
0.0
 10
-144.6271
 20
-87.9693
 30
0.0
 10
-152.5135
 20
-85.6834
 30
0.0
 10
-152.6278
 20
-77.5683
 30
0.0
 10
-152.6278
 20
-77.5683
 30
0.0
  0
SPLINE
  5
85
330
1F
100
AcDbEntity
  8
layer 1
 62
   250
100
AcDbSpline
210
0.0
220
0.0
230
1.0
 70
    11
 71
     3
 72
    20
 73
    16
 74
     0
 42
0.0000000001
 43
0.0000000001
 12
1.0
 22
0.0
 32
0.0
 13
1.0
 23
0.0
 33
0.0
 40
0.0
 40
0.0
 40
0.0
 40
0.0
 40
0.2
 40
0.2
 40
0.2
 40
0.2
 40
0.4
 40
0.4
 40
0.4
 40
0.4
 40
0.6
 40
0.6
 40
0.6
 40
0.6
 40
1.0
 40
1.0
 40
1.0
 40
1.0
 10
-170.8009
 20
-80.4258
 30
0.0
 10
-168.7436
 20
-78.597
 30
0.0
 10
-163.3716
 20
-78.2541
 30
0.0
 10
-163.3716
 20
-78.2541
 30
0.0
 10
-163.3716
 20
-78.2541
 30
0.0
 10
-164.4003
 20
-76.8826
 30
0.0
 10
-163.9431
 20
-73.7966
 30
0.0
 10
-163.9431
 20
-73.7966
 30
0.0
 10
-163.9431
 20
-73.7966
 30
0.0
 10
-165.2004
 20
-75.7396
 30
0.0
 10
-170.2294
 20
-78.3684
 30
0.0
 10
-170.2294
 20
-78.3684
 30
0.0
 10
-170.2294
 20
-78.3684
 30
0.0
 10
-170.458
 20
-79.5114
 30
0.0
 10
-170.8009
 20
-80.4258
 30
0.0
 10
-170.8009
 20
-80.4258
 30
0.0
  0
SPLINE
  5
86
330
1F
100
AcDbEntity
  8
layer 1
 62
   250
100
AcDbSpline
210
0.0
220
0.0
230
1.0
 70
    11
 71
     3
 72
    32
 73
    28
 74
     0
 42
0.0000000001
 43
0.0000000001
 12
1.0
 22
0.0
 32
0.0
 13
1.0
 23
0.0
 33
0.0
 40
0.0
 40
0.0
 40
0.0
 40
0.0
 40
0.125
 40
0.125
 40
0.125
 40
0.125
 40
0.25
 40
0.25
 40
0.25
 40
0.25
 40
0.375
 40
0.375
 40
0.375
 40
0.375
 40
0.5
 40
0.5
 40
0.5
 40
0.5
 40
0.625
 40
0.625
 40
0.625
 40
0.625
 40
0.75
 40
0.75
 40
0.75
 40
0.75
 40
1.0
 40
1.0
 40
1.0
 40
1.0
 10
-164.4003
 20
-81.2259
 30
0.0
 10
-164.4003
 20
-81.2259
 30
0.0
 10
-170.8009
 20
-81.683
 30
0.0
 10
-172.5153
 20
-87.1692
 30
0.0
 10
-172.5153
 20
-87.1692
 30
0.0
 10
-174.2298
 20
-92.6554
 30
0.0
 10
-169.8865
 20
-95.97
 30
0.0
 10
-166.229
 20
-96.4272
 30
0.0
 10
-166.229
 20
-96.4272
 30
0.0
 10
-162.5716
 20
-96.8844
 30
0.0
 10
-161.8858
 20
-94.4842
 30
0.0
 10
-161.8858
 20
-94.4842
 30
0.0
 10
-161.8858
 20
-94.4842
 30
0.0
 10
-163.3716
 20
-95.7414
 30
0.0
 10
-164.4003
 20
-95.0556
 30
0.0
 10
-164.4003
 20
-95.0556
 30
0.0
 10
-164.4003
 20
-95.0556
 30
0.0
 10
-164.4003
 20
-95.0556
 30
0.0
 10
-171.3724
 20
-93.1126
 30
0.0
 10
-168.5149
 20
-87.1692
 30
0.0
 10
-168.5149
 20
-87.1692
 30
0.0
 10
-162.2287
 20
-80.6543
 30
0.0
 10
-154.5708
 20
-86.5977
 30
0.0
 10
-154.5708
 20
-86.5977
 30
0.0
 10
-154.5708
 20
-86.5977
 30
0.0
 10
-157.5425
 20
-79.9686
 30
0.0
 10
-164.4003
 20
-81.2259
 30
0.0
 10
-164.4003
 20
-81.2259
 30
0.0
  0
SPLINE
  5
87
330
1F
100
AcDbEntity
  8
layer 1
 62
   250
100
AcDbSpline
210
0.0
220
0.0
230
1.0
 70
    11
 71
     3
 72
    20
 73
    16
 74
     0
 42
0.0000000001
 43
0.0000000001
 12
1.0
 22
0.0
 32
0.0
 13
1.0
 23
0.0
 33
0.0
 40
0.0
 40
0.0
 40
0.0
 40
0.0
 40
0.2
 40
0.2
 40
0.2
 40
0.2
 40
0.4
 40
0.4
 40
0.4
 40
0.4
 40
0.6
 40
0.6
 40
0.6
 40
0.6
 40
1.0
 40
1.0
 40
1.0
 40
1.0
 10
-163.3716
 20
-87.3978
 30
0.0
 10
-164.9497
 20
-87.3978
 30
0.0
 10
-166.229
 20
-88.6771
 30
0.0
 10
-166.229
 20
-90.2552
 30
0.0
 10
-166.229
 20
-90.2552
 30
0.0
 10
-166.229
 20
-91.8333
 30
0.0
 10
-164.9497
 20
-93.1126
 30
0.0
 10
-163.3716
 20
-93.1126
 30
0.0
 10
-163.3716
 20
-93.1126
 30
0.0
 10
-161.7935
 20
-93.1126
 30
0.0
 10
-160.5143
 20
-91.8333
 30
0.0
 10
-160.5143
 20
-90.2552
 30
0.0
 10
-160.5143
 20
-90.2552
 30
0.0
 10
-160.5143
 20
-88.6771
 30
0.0
 10
-161.7935
 20
-87.3978
 30
0.0
 10
-163.3716
 20
-87.3978
 30
0.0
  0
SPLINE
  5
88
330
1F
100
AcDbEntity
  8
layer 1
 62
   250
100
AcDbSpline
210
0.0
220
0.0
230
1.0
 70
    11
 71
     3
 72
    20
 73
    16
 74
     0
 42
0.0000000001
 43
0.0000000001
 12
1.0
 22
0.0
 32
0.0
 13
1.0
 23
0.0
 33
0.0
 40
0.0
 40
0.0
 40
0.0
 40
0.0
 40
0.2
 40
0.2
 40
0.2
 40
0.2
 40
0.4
 40
0.4
 40
0.4
 40
0.4
 40
0.6
 40
0.6
 40
0.6
 40
0.6
 40
1.0
 40
1.0
 40
1.0
 40
1.0
 10
-167.9435
 20
-98.9417
 30
0.0
 10
-167.9435
 20
-98.9417
 30
0.0
 10
-169.7722
 20
-100.7705
 30
0.0
 10
-170.458
 20
-100.7705
 30
0.0
 10
-170.458
 20
-100.7705
 30
0.0
 10
-170.458
 20
-100.7705
 30
0.0
 10
-167.6006
 20
-104.5422
 30
0.0
 10
-168.9721
 20
-110.7142
 30
0.0
 10
-168.9721
 20
-110.7142
 30
0.0
 10
-168.9721
 20
-110.7142
 30
0.0
 10
-158.114
 20
-104.0851
 30
0.0
 10
-157.9997
 20
-94.1413
 30
0.0
 10
-157.9997
 20
-94.1413
 30
0.0
 10
-157.9997
 20
-94.1413
 30
0.0
 10
-160.7428
 20
-100.5418
 30
0.0
 10
-167.9435
 20
-98.9417
 30
0.0
  0
SPLINE
  5
89
330
1F
100
AcDbEntity
  8
layer 1
 62
   250
100
AcDbSpline
210
0.0
220
0.0
230
1.0
 70
    11
 71
     3
 72
    24
 73
    20
 74
     0
 42
0.0000000001
 43
0.0000000001
 12
1.0
 22
0.0
 32
0.0
 13
1.0
 23
0.0
 33
0.0
 40
0.0
 40
0.0
 40
0.0
 40
0.0
 40
0.1666666666666667
 40
0.1666666666666667
 40
0.1666666666666667
 40
0.1666666666666667
 40
0.3333333333333333
 40
0.3333333333333333
 40
0.3333333333333333
 40
0.3333333333333333
 40
0.5
 40
0.5
 40
0.5
 40
0.5
 40
0.6666666666666666
 40
0.6666666666666666
 40
0.6666666666666666
 40
0.6666666666666666
 40
1.0
 40
1.0
 40
1.0
 40
1.0
 10
-158.5712
 20
-87.1692
 30
0.0
 10
-158.5712
 20
-87.1692
 30
0.0
 10
-148.6274
 20
-98.3702
 30
0.0
 10
-163.7145
 20
-109.9141
 30
0.0
 10
-163.7145
 20
-109.9141
 30
0.0
 10
-164.5448
 20
-110.5784
 30
0.0
 10
-165.32
 20
-111.2099
 30
0.0
 10
-166.0604
 20
-111.8208
 30
0.0
 10
-166.0604
 20
-111.8208
 30
0.0
 10
-166.0604
 20
-111.8208
 30
0.0
 10
-160.7244
 20
-111.8208
 30
0.0
 10
-160.7244
 20
-111.8208
 30
0.0
 10
-160.7244
 20
-111.8208
 30
0.0
 10
-159.8496
 20
-111.2281
 30
0.0
 10
-159.1395
 20
-110.7375
 30
0.0
 10
-158.6855
 20
-110.3713
 30
0.0
 10
-158.6855
 20
-110.3713
 30
0.0
 10
-155.1423
 20
-107.5139
 30
0.0
 10
-142.7983
 20
-91.6268
 30
0.0
 10
-158.5712
 20
-87.1692
 30
0.0
  0
SPLINE
  5
8A
330
1F
100
AcDbEntity
  8
layer 1
 62
   250
100
AcDbSpline
210
0.0
220
0.0
230
1.0
 70
    11
 71
     3
 72
    24
 73
    20
 74
     0
 42
0.0000000001
 43
0.0000000001
 12
1.0
 22
0.0
 32
0.0
 13
1.0
 23
0.0
 33
0.0
 40
0.0
 40
0.0
 40
0.0
 40
0.0
 40
0.1666666666666667
 40
0.1666666666666667
 40
0.1666666666666667
 40
0.1666666666666667
 40
0.3333333333333333
 40
0.3333333333333333
 40
0.3333333333333333
 40
0.3333333333333333
 40
0.5
 40
0.5
 40
0.5
 40
0.5
 40
0.6666666666666666
 40
0.6666666666666666
 40
0.6666666666666666
 40
0.6666666666666666
 40
1.0
 40
1.0
 40
1.0
 40
1.0
 10
-172.9725
 20
-99.056
 30
0.0
 10
-171.9438
 20
-98.4845
 30
0.0
 10
-171.1438
 20
-97.2273
 30
0.0
 10
-171.1438
 20
-97.2273
 30
0.0
 10
-171.1438
 20
-97.2273
 30
0.0
 10
-175.2584
 20
-95.6271
 30
0.0
 10
-175.2584
 20
-89.3409
 30
0.0
 10
-175.2584
 20
-89.3409
 30
0.0
 10
-175.2584
 20
-89.3409
 30
0.0
 10
-177.4191
 20
-93.014
 30
0.0
 10
-183.1472
 20
-95.2586
 30
0.0
 10
-184.2516
 20
-98.1961
 30
0.0
 10
-184.2516
 20
-98.1961
 30
0.0
 10
-184.2516
 20
-98.1961
 30
0.0
 10
-184.2516
 20
-98.6398
 30
0.0
 10
-184.2516
 20
-98.6398
 30
0.0
 10
-184.2516
 20
-98.6398
 30
0.0
 10
-178.1451
 20
-95.5742
 30
0.0
 10
-172.9725
 20
-99.056
 30
0.0
 10
-172.9725
 20
-99.056
 30
0.0
  0
SPLINE
  5
8B
330
1F
100
AcDbEntity
  8
layer 1
 62
   250
100
AcDbSpline
210
0.0
220
0.0
230
1.0
 70
    11
 71
     3
 72
    28
 73
    24
 74
     0
 42
0.0000000001
 43
0.0000000001
 12
1.0
 22
0.0
 32
0.0
 13
1.0
 23
0.0
 33
0.0
 40
0.0
 40
0.0
 40
0.0
 40
0.0
 40
0.1428571428571428
 40
0.1428571428571428
 40
0.1428571428571428
 40
0.1428571428571428
 40
0.2857142857142857
 40
0.2857142857142857
 40
0.2857142857142857
 40
0.2857142857142857
 40
0.4285714285714285
 40
0.4285714285714285
 40
0.4285714285714285
 40
0.4285714285714285
 40
0.5714285714285714
 40
0.5714285714285714
 40
0.5714285714285714
 40
0.5714285714285714
 40
0.7142857142857143
 40
0.7142857142857143
 40
0.7142857142857143
 40
0.7142857142857143
 40
1.0
 40
1.0
 40
1.0
 40
1.0
 10
-175.2584
 20
-104.4279
 30
0.0
 10
-178.3444
 20
-100.199
 30
0.0
 10
-182.6877
 20
-103.0564
 30
0.0
 10
-182.6877
 20
-103.0564
 30
0.0
 10
-182.6877
 20
-103.0564
 30
0.0
 10
-182.6877
 20
-103.0564
 30
0.0
 10
-183.4878
 20
-104.3136
 30
0.0
 10
-182.2305
 20
-103.8565
 30
0.0
 10
-182.2305
 20
-103.8565
 30
0.0
 10
-177.3158
 20
-102.2563
 30
0.0
 10
-177.3158
 20
-107.3996
 30
0.0
 10
-177.3158
 20
-107.3996
 30
0.0
 10
-177.3158
 20
-107.3996
 30
0.0
 10
-177.2712
 20
-109.8071
 30
0.0
 10
-178.3756
 20
-111.1161
 30
0.0
 10
-179.7379
 20
-111.8208
 30
0.0
 10
-179.7379
 20
-111.8208
 30
0.0
 10
-179.7379
 20
-111.8208
 30
0.0
 10
-176.766
 20
-111.8208
 30
0.0
 10
-176.766
 20
-111.8208
 30
0.0
 10
-176.766
 20
-111.8208
 30
0.0
 10
-175.0086
 20
-109.5915
 30
0.0
 10
-173.5419
 20
-106.7803
 30
0.0
 10
-175.2584
 20
-104.4279
 30
0.0
  0
SPLINE
  5
8C
330
1F
100
AcDbEntity
  8
layer 1
 62
   250
100
AcDbSpline
210
0.0
220
0.0
230
1.0
 70
    11
 71
     3
 72
    24
 73
    20
 74
     0
 42
0.0000000001
 43
0.0000000001
 12
1.0
 22
0.0
 32
0.0
 13
1.0
 23
0.0
 33
0.0
 40
0.0
 40
0.0
 40
0.0
 40
0.0
 40
0.1666666666666667
 40
0.1666666666666667
 40
0.1666666666666667
 40
0.1666666666666667
 40
0.3333333333333333
 40
0.3333333333333333
 40
0.3333333333333333
 40
0.3333333333333333
 40
0.5
 40
0.5
 40
0.5
 40
0.5
 40
0.6666666666666666
 40
0.6666666666666666
 40
0.6666666666666666
 40
0.6666666666666666
 40
1.0
 40
1.0
 40
1.0
 40
1.0
 10
-147.0273
 20
-109.7998
 30
0.0
 10
-147.8274
 20
-108.9998
 30
0.0
 10
-150.3419
 20
-104.8851
 30
0.0
 10
-150.3419
 20
-104.8851
 30
0.0
 10
-150.3419
 20
-104.8851
 30
0.0
 10
-151.7703
 20
-107.504
 30
0.0
 10
-153.7903
 20
-109.8405
 30
0.0
 10
-156.0738
 20
-111.8208
 30
0.0
 10
-156.0738
 20
-111.8208
 30
0.0
 10
-156.0738
 20
-111.8208
 30
0.0
 10
-153.7754
 20
-111.8208
 30
0.0
 10
-153.7754
 20
-111.8208
 30
0.0
 10
-153.7754
 20
-111.8208
 30
0.0
 10
-153.7353
 20
-111.7567
 30
0.0
 10
-153.6994
 20
-111.6929
 30
0.0
 10
-153.6565
 20
-111.6286
 30
0.0
 10
-153.6565
 20
-111.6286
 30
0.0
 10
-152.0563
 20
-109.2283
 30
0.0
 10
-147.0273
 20
-109.7998
 30
0.0
 10
-147.0273
 20
-109.7998
 30
0.0
  0
SPLINE
  5
8D
330
1F
100
AcDbEntity
  8
layer 1
 62
   250
100
AcDbSpline
210
0.0
220
0.0
230
1.0
 70
    11
 71
     3
 72
    32
 73
    28
 74
     0
 42
0.0000000001
 43
0.0000000001
 12
1.0
 22
0.0
 32
0.0
 13
1.0
 23
0.0
 33
0.0
 40
0.0
 40
0.0
 40
0.0
 40
0.0
 40
0.125
 40
0.125
 40
0.125
 40
0.125
 40
0.25
 40
0.25
 40
0.25
 40
0.25
 40
0.375
 40
0.375
 40
0.375
 40
0.375
 40
0.5
 40
0.5
 40
0.5
 40
0.5
 40
0.625
 40
0.625
 40
0.625
 40
0.625
 40
0.75
 40
0.75
 40
0.75
 40
0.75
 40
1.0
 40
1.0
 40
1.0
 40
1.0
 10
-137.5408
 20
-99.056
 30
0.0
 10
-137.5408
 20
-99.056
 30
0.0
 10
-142.6841
 20
-101.1134
 30
0.0
 10
-144.1699
 20
-96.8844
 30
0.0
 10
-144.1699
 20
-96.8844
 30
0.0
 10
-144.2842
 20
-92.1983
 30
0.0
 10
-140.1696
 20
-92.884
 30
0.0
 10
-140.1696
 20
-92.884
 30
0.0
 10
-140.1696
 20
-92.884
 30
0.0
 10
-140.1696
 20
-92.884
 30
0.0
 10
-139.3695
 20
-92.3125
 30
0.0
 10
-140.3981
 20
-92.084
 30
0.0
 10
-140.3981
 20
-92.084
 30
0.0
 10
-142.9126
 20
-90.3695
 30
0.0
 10
-149.8847
 20
-92.9983
 30
0.0
 10
-147.9417
 20
-100.4276
 30
0.0
 10
-147.9417
 20
-100.4276
 30
0.0
 10
-145.9986
 20
-107.8568
 30
0.0
 10
-140.9696
 20
-111.0571
 30
0.0
 10
-140.9696
 20
-111.0571
 30
0.0
 10
-140.9696
 20
-111.0571
 30
0.0
 10
-141.9983
 20
-103.5136
 30
0.0
 10
-136.5121
 20
-99.2846
 30
0.0
 10
-136.5121
 20
-99.2846
 30
0.0
 10
-136.5121
 20
-99.2846
 30
0.0
 10
-136.0549
 20
-98.1416
 30
0.0
 10
-137.5408
 20
-99.056
 30
0.0
 10
-137.5408
 20
-99.056
 30
0.0
  0
SPLINE
  5
8E
330
1F
100
AcDbEntity
  8
layer 1
 62
   250
100
AcDbSpline
210
0.0
220
0.0
230
1.0
 70
    11
 71
     3
 72
    24
 73
    20
 74
     0
 42
0.0000000001
 43
0.0000000001
 12
1.0
 22
0.0
 32
0.0
 13
1.0
 23
0.0
 33
0.0
 40
0.0
 40
0.0
 40
0.0
 40
0.0
 40
0.1666666666666667
 40
0.1666666666666667
 40
0.1666666666666667
 40
0.1666666666666667
 40
0.3333333333333333
 40
0.3333333333333333
 40
0.3333333333333333
 40
0.3333333333333333
 40
0.5
 40
0.5
 40
0.5
 40
0.5
 40
0.6666666666666666
 40
0.6666666666666666
 40
0.6666666666666666
 40
0.6666666666666666
 40
1.0
 40
1.0
 40
1.0
 40
1.0
 10
-132.626
 20
-103.3993
 30
0.0
 10
-132.626
 20
-103.3993
 30
0.0
 10
-133.4261
 20
-101.2276
 30
0.0
 10
-135.3691
 20
-109.3427
 30
0.0
 10
-135.3691
 20
-109.3427
 30
0.0
 10
-135.5827
 20
-110.2348
 30
0.0
 10
-135.7123
 20
-111.0525
 30
0.0
 10
-135.793
 20
-111.8208
 30
0.0
 10
-135.793
 20
-111.8208
 30
0.0
 10
-135.793
 20
-111.8208
 30
0.0
 10
-131.0122
 20
-111.8208
 30
0.0
 10
-131.0122
 20
-111.8208
 30
0.0
 10
-131.0122
 20
-111.8208
 30
0.0
 10
-130.6492
 20
-111.3868
 30
0.0
 10
-130.2663
 20
-110.9786
 30
0.0
 10
-129.8829
 20
-110.4856
 30
0.0
 10
-129.8829
 20
-110.4856
 30
0.0
 10
-133.3118
 20
-108.7711
 30
0.0
 10
-132.626
 20
-103.3993
 30
0.0
 10
-132.626
 20
-103.3993
 30
0.0
  0
SPLINE
  5
8F
330
1F
100
AcDbEntity
  8
layer 1
 62
   250
100
AcDbSpline
210
0.0
220
0.0
230
1.0
 70
    11
 71
     3
 72
    32
 73
    28
 74
     0
 42
0.0000000001
 43
0.0000000001
 12
1.0
 22
0.0
 32
0.0
 13
1.0
 23
0.0
 33
0.0
 40
0.0
 40
0.0
 40
0.0
 40
0.0
 40
0.125
 40
0.125
 40
0.125
 40
0.125
 40
0.25
 40
0.25
 40
0.25
 40
0.25
 40
0.375
 40
0.375
 40
0.375
 40
0.375
 40
0.5
 40
0.5
 40
0.5
 40
0.5
 40
0.625
 40
0.625
 40
0.625
 40
0.625
 40
0.75
 40
0.75
 40
0.75
 40
0.75
 40
1.0
 40
1.0
 40
1.0
 40
1.0
 10
-76.0495
 20
-74.3681
 30
0.0
 10
-80.507
 20
-71.8536
 30
0.0
 10
-83.7073
 20
-71.0535
 30
0.0
 10
-88.0505
 20
-74.5967
 30
0.0
 10
-88.0505
 20
-74.5967
 30
0.0
 10
-88.0505
 20
-74.5967
 30
0.0
 10
-90.6793
 20
-77.2255
 30
0.0
 10
-89.4221
 20
-79.9686
 30
0.0
 10
-89.4221
 20
-79.9686
 30
0.0
 10
-88.5078
 20
-81.3973
 30
0.0
 10
-87.9362
 20
-81.2259
 30
0.0
 10
-87.9362
 20
-81.2259
 30
0.0
 10
-87.9362
 20
-81.2259
 30
0.0
 10
-87.9362
 20
-81.2259
 30
0.0
 10
-87.5934
 20
-73.568
 30
0.0
 10
-79.4784
 20
-76.7683
 30
0.0
 10
-79.4784
 20
-76.7683
 30
0.0
 10
-75.7066
 20
-78.9399
 30
0.0
 10
-76.8496
 20
-82.1402
 30
0.0
 10
-76.8496
 20
-82.1402
 30
0.0
 10
-76.8496
 20
-82.1402
 30
0.0
 10
-76.8496
 20
-82.1402
 30
0.0
 10
-73.7636
 20
-85.3405
 30
0.0
 10
-73.7636
 20
-85.3405
 30
0.0
 10
-73.7636
 20
-85.3405
 30
0.0
 10
-73.7636
 20
-85.3405
 30
0.0
 10
-71.5919
 20
-76.8826
 30
0.0
 10
-76.0495
 20
-74.3681
 30
0.0
  0
SPLINE
  5
90
330
1F
100
AcDbEntity
  8
layer 1
 62
   250
100
AcDbSpline
210
0.0
220
0.0
230
1.0
 70
    11
 71
     3
 72
    24
 73
    20
 74
     0
 42
0.0000000001
 43
0.0000000001
 12
1.0
 22
0.0
 32
0.0
 13
1.0
 23
0.0
 33
0.0
 40
0.0
 40
0.0
 40
0.0
 40
0.0
 40
0.1666666666666667
 40
0.1666666666666667
 40
0.1666666666666667
 40
0.1666666666666667
 40
0.3333333333333333
 40
0.3333333333333333
 40
0.3333333333333333
 40
0.3333333333333333
 40
0.5
 40
0.5
 40
0.5
 40
0.5
 40
0.6666666666666666
 40
0.6666666666666666
 40
0.6666666666666666
 40
0.6666666666666666
 40
1.0
 40
1.0
 40
1.0
 40
1.0
 10
-77.2496
 20
-83.5689
 30
0.0
 10
-77.2496
 20
-83.5689
 30
0.0
 10
-79.7641
 20
-87.7407
 30
0.0
 10
-82.8501
 20
-88.6551
 30
0.0
 10
-82.8501
 20
-88.6551
 30
0.0
 10
-80.2785
 20
-89.1694
 30
0.0
 10
-77.821
 20
-91.7411
 30
0.0
 10
-78.9069
 20
-94.9985
 30
0.0
 10
-78.9069
 20
-94.9985
 30
0.0
 10
-77.021
 20
-93.3412
 30
0.0
 10
-74.9637
 20
-86.9978
 30
0.0
 10
-74.9637
 20
-86.7692
 30
0.0
 10
-74.9637
 20
-86.7692
 30
0.0
 10
-74.9637
 20
-86.5406
 30
0.0
 10
-77.021
 20
-83.5117
 30
0.0
 10
-77.021
 20
-83.5117
 30
0.0
 10
-77.021
 20
-83.5117
 30
0.0
 10
-77.021
 20
-83.5117
 30
0.0
 10
-77.2496
 20
-83.5689
 30
0.0
 10
-77.2496
 20
-83.5689
 30
0.0
  0
SPLINE
  5
91
330
1F
100
AcDbEntity
  8
layer 1
 62
   250
100
AcDbSpline
210
0.0
220
0.0
230
1.0
 70
    11
 71
     3
 72
    20
 73
    16
 74
     0
 42
0.0000000001
 43
0.0000000001
 12
1.0
 22
0.0
 32
0.0
 13
1.0
 23
0.0
 33
0.0
 40
0.0
 40
0.0
 40
0.0
 40
0.0
 40
0.2
 40
0.2
 40
0.2
 40
0.2
 40
0.4
 40
0.4
 40
0.4
 40
0.4
 40
0.6
 40
0.6
 40
0.6
 40
0.6
 40
1.0
 40
1.0
 40
1.0
 40
1.0
 10
-96.2799
 20
-75.7396
 30
0.0
 10
-96.0513
 20
-71.9678
 30
0.0
 10
-92.7367
 20
-68.8819
 30
0.0
 10
-92.7367
 20
-68.8819
 30
0.0
 10
-92.7367
 20
-68.8819
 30
0.0
 10
-99.5944
 20
-67.5103
 30
0.0
 10
-95.3655
 20
-61.6812
 30
0.0
 10
-95.3655
 20
-61.6812
 30
0.0
 10
-95.3655
 20
-61.6812
 30
0.0
 10
-99.8231
 20
-62.4813
 30
0.0
 10
-100.5088
 20
-65.6816
 30
0.0
 10
-100.5088
 20
-65.6816
 30
0.0
 10
-100.5088
 20
-65.6816
 30
0.0
 10
-102.6804
 20
-71.7393
 30
0.0
 10
-96.2799
 20
-75.7396
 30
0.0
 10
-96.2799
 20
-75.7396
 30
0.0
  0
SPLINE
  5
92
330
1F
100
AcDbEntity
  8
layer 1
 62
   250
100
AcDbSpline
210
0.0
220
0.0
230
1.0
 70
    11
 71
     3
 72
    24
 73
    20
 74
     0
 42
0.0000000001
 43
0.0000000001
 12
1.0
 22
0.0
 32
0.0
 13
1.0
 23
0.0
 33
0.0
 40
0.0
 40
0.0
 40
0.0
 40
0.0
 40
0.1666666666666667
 40
0.1666666666666667
 40
0.1666666666666667
 40
0.1666666666666667
 40
0.3333333333333333
 40
0.3333333333333333
 40
0.3333333333333333
 40
0.3333333333333333
 40
0.5
 40
0.5
 40
0.5
 40
0.5
 40
0.6666666666666666
 40
0.6666666666666666
 40
0.6666666666666666
 40
0.6666666666666666
 40
1.0
 40
1.0
 40
1.0
 40
1.0
 10
-96.6228
 20
-77.5683
 30
0.0
 10
-96.6228
 20
-77.5683
 30
0.0
 10
-103.1376
 20
-75.3967
 30
0.0
 10
-104.3949
 20
-69.7962
 30
0.0
 10
-104.3949
 20
-69.7962
 30
0.0
 10
-104.6188
 20
-68.7987
 30
0.0
 10
-108.5095
 20
-74.3681
 30
0.0
 10
-102.7947
 20
-79.5114
 30
0.0
 10
-102.7947
 20
-79.5114
 30
0.0
 10
-91.3651
 20
-84.6547
 30
0.0
 10
-94.3369
 20
-91.9697
 30
0.0
 10
-93.3082
 20
-90.7124
 30
0.0
 10
-93.3082
 20
-90.7124
 30
0.0
 10
-92.2795
 20
-89.4552
 30
0.0
 10
-88.622
 20
-87.9693
 30
0.0
 10
-88.622
 20
-87.9693
 30
0.0
 10
-88.622
 20
-87.9693
 30
0.0
 10
-96.5085
 20
-85.6834
 30
0.0
 10
-96.6228
 20
-77.5683
 30
0.0
 10
-96.6228
 20
-77.5683
 30
0.0
  0
SPLINE
  5
93
330
1F
100
AcDbEntity
  8
layer 1
 62
   250
100
AcDbSpline
210
0.0
220
0.0
230
1.0
 70
    11
 71
     3
 72
    20
 73
    16
 74
     0
 42
0.0000000001
 43
0.0000000001
 12
1.0
 22
0.0
 32
0.0
 13
1.0
 23
0.0
 33
0.0
 40
0.0
 40
0.0
 40
0.0
 40
0.0
 40
0.2
 40
0.2
 40
0.2
 40
0.2
 40
0.4
 40
0.4
 40
0.4
 40
0.4
 40
0.6
 40
0.6
 40
0.6
 40
0.6
 40
1.0
 40
1.0
 40
1.0
 40
1.0
 10
-107.9381
 20
-73.7966
 30
0.0
 10
-109.1953
 20
-75.7396
 30
0.0
 10
-114.2244
 20
-78.3684
 30
0.0
 10
-114.2244
 20
-78.3684
 30
0.0
 10
-114.2244
 20
-78.3684
 30
0.0
 10
-114.4529
 20
-79.5114
 30
0.0
 10
-114.7958
 20
-80.4258
 30
0.0
 10
-114.7958
 20
-80.4258
 30
0.0
 10
-114.7958
 20
-80.4258
 30
0.0
 10
-112.7385
 20
-78.597
 30
0.0
 10
-107.3666
 20
-78.2541
 30
0.0
 10
-107.3666
 20
-78.2541
 30
0.0
 10
-107.3666
 20
-78.2541
 30
0.0
 10
-108.3953
 20
-76.8826
 30
0.0
 10
-107.9381
 20
-73.7966
 30
0.0
 10
-107.9381
 20
-73.7966
 30
0.0
  0
SPLINE
  5
94
330
1F
100
AcDbEntity
  8
layer 1
 62
   250
100
AcDbSpline
210
0.0
220
0.0
230
1.0
 70
    11
 71
     3
 72
    32
 73
    28
 74
     0
 42
0.0000000001
 43
0.0000000001
 12
1.0
 22
0.0
 32
0.0
 13
1.0
 23
0.0
 33
0.0
 40
0.0
 40
0.0
 40
0.0
 40
0.0
 40
0.125
 40
0.125
 40
0.125
 40
0.125
 40
0.25
 40
0.25
 40
0.25
 40
0.25
 40
0.375
 40
0.375
 40
0.375
 40
0.375
 40
0.5
 40
0.5
 40
0.5
 40
0.5
 40
0.625
 40
0.625
 40
0.625
 40
0.625
 40
0.75
 40
0.75
 40
0.75
 40
0.75
 40
1.0
 40
1.0
 40
1.0
 40
1.0
 10
-108.3953
 20
-81.2259
 30
0.0
 10
-108.3953
 20
-81.2259
 30
0.0
 10
-114.7958
 20
-81.683
 30
0.0
 10
-116.5103
 20
-87.1692
 30
0.0
 10
-116.5103
 20
-87.1692
 30
0.0
 10
-118.2247
 20
-92.6554
 30
0.0
 10
-113.8815
 20
-95.97
 30
0.0
 10
-110.224
 20
-96.4272
 30
0.0
 10
-110.224
 20
-96.4272
 30
0.0
 10
-106.5665
 20
-96.8844
 30
0.0
 10
-105.8808
 20
-94.4842
 30
0.0
 10
-105.8808
 20
-94.4842
 30
0.0
 10
-105.8808
 20
-94.4842
 30
0.0
 10
-107.3666
 20
-95.7414
 30
0.0
 10
-108.3953
 20
-95.0556
 30
0.0
 10
-108.3953
 20
-95.0556
 30
0.0
 10
-108.3953
 20
-95.0556
 30
0.0
 10
-108.3953
 20
-95.0556
 30
0.0
 10
-115.3673
 20
-93.1126
 30
0.0
 10
-112.5099
 20
-87.1692
 30
0.0
 10
-112.5099
 20
-87.1692
 30
0.0
 10
-106.2236
 20
-80.6543
 30
0.0
 10
-98.5658
 20
-86.5977
 30
0.0
 10
-98.5658
 20
-86.5977
 30
0.0
 10
-98.5658
 20
-86.5977
 30
0.0
 10
-101.5375
 20
-79.9686
 30
0.0
 10
-108.3953
 20
-81.2259
 30
0.0
 10
-108.3953
 20
-81.2259
 30
0.0
  0
SPLINE
  5
95
330
1F
100
AcDbEntity
  8
layer 1
 62
   250
100
AcDbSpline
210
0.0
220
0.0
230
1.0
 70
    11
 71
     3
 72
    20
 73
    16
 74
     0
 42
0.0000000001
 43
0.0000000001
 12
1.0
 22
0.0
 32
0.0
 13
1.0
 23
0.0
 33
0.0
 40
0.0
 40
0.0
 40
0.0
 40
0.0
 40
0.2
 40
0.2
 40
0.2
 40
0.2
 40
0.4
 40
0.4
 40
0.4
 40
0.4
 40
0.6
 40
0.6
 40
0.6
 40
0.6
 40
1.0
 40
1.0
 40
1.0
 40
1.0
 10
-107.3666
 20
-87.3978
 30
0.0
 10
-108.9447
 20
-87.3978
 30
0.0
 10
-110.224
 20
-88.6771
 30
0.0
 10
-110.224
 20
-90.2552
 30
0.0
 10
-110.224
 20
-90.2552
 30
0.0
 10
-110.224
 20
-91.8333
 30
0.0
 10
-108.9447
 20
-93.1126
 30
0.0
 10
-107.3666
 20
-93.1126
 30
0.0
 10
-107.3666
 20
-93.1126
 30
0.0
 10
-105.7885
 20
-93.1126
 30
0.0
 10
-104.5092
 20
-91.8333
 30
0.0
 10
-104.5092
 20
-90.2552
 30
0.0
 10
-104.5092
 20
-90.2552
 30
0.0
 10
-104.5092
 20
-88.6771
 30
0.0
 10
-105.7885
 20
-87.3978
 30
0.0
 10
-107.3666
 20
-87.3978
 30
0.0
  0
SPLINE
  5
96
330
1F
100
AcDbEntity
  8
layer 1
 62
   250
100
AcDbSpline
210
0.0
220
0.0
230
1.0
 70
    11
 71
     3
 72
    20
 73
    16
 74
     0
 42
0.0000000001
 43
0.0000000001
 12
1.0
 22
0.0
 32
0.0
 13
1.0
 23
0.0
 33
0.0
 40
0.0
 40
0.0
 40
0.0
 40
0.0
 40
0.2
 40
0.2
 40
0.2
 40
0.2
 40
0.4
 40
0.4
 40
0.4
 40
0.4
 40
0.6
 40
0.6
 40
0.6
 40
0.6
 40
1.0
 40
1.0
 40
1.0
 40
1.0
 10
-111.9384
 20
-98.9417
 30
0.0
 10
-111.9384
 20
-98.9417
 30
0.0
 10
-113.7672
 20
-100.7705
 30
0.0
 10
-114.4529
 20
-100.7705
 30
0.0
 10
-114.4529
 20
-100.7705
 30
0.0
 10
-114.4529
 20
-100.7705
 30
0.0
 10
-111.5955
 20
-104.5422
 30
0.0
 10
-112.9671
 20
-110.7142
 30
0.0
 10
-112.9671
 20
-110.7142
 30
0.0
 10
-112.9671
 20
-110.7142
 30
0.0
 10
-102.109
 20
-104.0851
 30
0.0
 10
-101.9947
 20
-94.1413
 30
0.0
 10
-101.9947
 20
-94.1413
 30
0.0
 10
-101.9947
 20
-94.1413
 30
0.0
 10
-104.7378
 20
-100.5418
 30
0.0
 10
-111.9384
 20
-98.9417
 30
0.0
  0
SPLINE
  5
97
330
1F
100
AcDbEntity
  8
layer 1
 62
   250
100
AcDbSpline
210
0.0
220
0.0
230
1.0
 70
    11
 71
     3
 72
    24
 73
    20
 74
     0
 42
0.0000000001
 43
0.0000000001
 12
1.0
 22
0.0
 32
0.0
 13
1.0
 23
0.0
 33
0.0
 40
0.0
 40
0.0
 40
0.0
 40
0.0
 40
0.1666666666666667
 40
0.1666666666666667
 40
0.1666666666666667
 40
0.1666666666666667
 40
0.3333333333333333
 40
0.3333333333333333
 40
0.3333333333333333
 40
0.3333333333333333
 40
0.5
 40
0.5
 40
0.5
 40
0.5
 40
0.6666666666666666
 40
0.6666666666666666
 40
0.6666666666666666
 40
0.6666666666666666
 40
1.0
 40
1.0
 40
1.0
 40
1.0
 10
-102.5662
 20
-87.1692
 30
0.0
 10
-102.5662
 20
-87.1692
 30
0.0
 10
-92.6224
 20
-98.3702
 30
0.0
 10
-107.7095
 20
-109.9141
 30
0.0
 10
-107.7095
 20
-109.9141
 30
0.0
 10
-108.5398
 20
-110.5784
 30
0.0
 10
-109.3149
 20
-111.2099
 30
0.0
 10
-110.0554
 20
-111.8208
 30
0.0
 10
-110.0554
 20
-111.8208
 30
0.0
 10
-110.0554
 20
-111.8208
 30
0.0
 10
-104.7193
 20
-111.8208
 30
0.0
 10
-104.7193
 20
-111.8208
 30
0.0
 10
-104.7193
 20
-111.8208
 30
0.0
 10
-103.8446
 20
-111.2281
 30
0.0
 10
-103.1344
 20
-110.7375
 30
0.0
 10
-102.6804
 20
-110.3713
 30
0.0
 10
-102.6804
 20
-110.3713
 30
0.0
 10
-99.1373
 20
-107.5139
 30
0.0
 10
-86.7933
 20
-91.6268
 30
0.0
 10
-102.5662
 20
-87.1692
 30
0.0
  0
SPLINE
  5
98
330
1F
100
AcDbEntity
  8
layer 1
 62
   250
100
AcDbSpline
210
0.0
220
0.0
230
1.0
 70
    11
 71
     3
 72
    20
 73
    16
 74
     0
 42
0.0000000001
 43
0.0000000001
 12
1.0
 22
0.0
 32
0.0
 13
1.0
 23
0.0
 33
0.0
 40
0.0
 40
0.0
 40
0.0
 40
0.0
 40
0.2
 40
0.2
 40
0.2
 40
0.2
 40
0.4
 40
0.4
 40
0.4
 40
0.4
 40
0.6
 40
0.6
 40
0.6
 40
0.6
 40
1.0
 40
1.0
 40
1.0
 40
1.0
 10
-119.2534
 20
-89.3409
 30
0.0
 10
-121.5393
 20
-93.2269
 30
0.0
 10
-127.8256
 20
-95.5128
 30
0.0
 10
-128.3971
 20
-98.7131
 30
0.0
 10
-128.3971
 20
-98.7131
 30
0.0
 10
-122.225
 20
-95.5128
 30
0.0
 10
-116.9675
 20
-99.056
 30
0.0
 10
-116.9675
 20
-99.056
 30
0.0
 10
-116.9675
 20
-99.056
 30
0.0
 10
-115.9388
 20
-98.4845
 30
0.0
 10
-115.1387
 20
-97.2273
 30
0.0
 10
-115.1387
 20
-97.2273
 30
0.0
 10
-115.1387
 20
-97.2273
 30
0.0
 10
-119.2534
 20
-95.6271
 30
0.0
 10
-119.2534
 20
-89.3409
 30
0.0
 10
-119.2534
 20
-89.3409
 30
0.0
  0
SPLINE
  5
99
330
1F
100
AcDbEntity
  8
layer 1
 62
   250
100
AcDbSpline
210
0.0
220
0.0
230
1.0
 70
    11
 71
     3
 72
    28
 73
    24
 74
     0
 42
0.0000000001
 43
0.0000000001
 12
1.0
 22
0.0
 32
0.0
 13
1.0
 23
0.0
 33
0.0
 40
0.0
 40
0.0
 40
0.0
 40
0.0
 40
0.1428571428571428
 40
0.1428571428571428
 40
0.1428571428571428
 40
0.1428571428571428
 40
0.2857142857142857
 40
0.2857142857142857
 40
0.2857142857142857
 40
0.2857142857142857
 40
0.4285714285714285
 40
0.4285714285714285
 40
0.4285714285714285
 40
0.4285714285714285
 40
0.5714285714285714
 40
0.5714285714285714
 40
0.5714285714285714
 40
0.5714285714285714
 40
0.7142857142857143
 40
0.7142857142857143
 40
0.7142857142857143
 40
0.7142857142857143
 40
1.0
 40
1.0
 40
1.0
 40
1.0
 10
-119.2534
 20
-104.4279
 30
0.0
 10
-122.3394
 20
-100.199
 30
0.0
 10
-126.6826
 20
-103.0564
 30
0.0
 10
-126.6826
 20
-103.0564
 30
0.0
 10
-126.6826
 20
-103.0564
 30
0.0
 10
-126.6826
 20
-103.0564
 30
0.0
 10
-127.4827
 20
-104.3136
 30
0.0
 10
-126.2255
 20
-103.8565
 30
0.0
 10
-126.2255
 20
-103.8565
 30
0.0
 10
-121.3107
 20
-102.2563
 30
0.0
 10
-121.3107
 20
-107.3996
 30
0.0
 10
-121.3107
 20
-107.3996
 30
0.0
 10
-121.3107
 20
-107.3996
 30
0.0
 10
-121.2661
 20
-109.8071
 30
0.0
 10
-122.3705
 20
-111.1161
 30
0.0
 10
-123.7329
 20
-111.8208
 30
0.0
 10
-123.7329
 20
-111.8208
 30
0.0
 10
-123.7329
 20
-111.8208
 30
0.0
 10
-120.7609
 20
-111.8208
 30
0.0
 10
-120.7609
 20
-111.8208
 30
0.0
 10
-120.7609
 20
-111.8208
 30
0.0
 10
-119.0035
 20
-109.5915
 30
0.0
 10
-117.5368
 20
-106.7803
 30
0.0
 10
-119.2534
 20
-104.4279
 30
0.0
  0
SPLINE
  5
9A
330
1F
100
AcDbEntity
  8
layer 1
 62
   250
100
AcDbSpline
210
0.0
220
0.0
230
1.0
 70
    11
 71
     3
 72
    24
 73
    20
 74
     0
 42
0.0000000001
 43
0.0000000001
 12
1.0
 22
0.0
 32
0.0
 13
1.0
 23
0.0
 33
0.0
 40
0.0
 40
0.0
 40
0.0
 40
0.0
 40
0.1666666666666667
 40
0.1666666666666667
 40
0.1666666666666667
 40
0.1666666666666667
 40
0.3333333333333333
 40
0.3333333333333333
 40
0.3333333333333333
 40
0.3333333333333333
 40
0.5
 40
0.5
 40
0.5
 40
0.5
 40
0.6666666666666666
 40
0.6666666666666666
 40
0.6666666666666666
 40
0.6666666666666666
 40
1.0
 40
1.0
 40
1.0
 40
1.0
 10
-91.0222
 20
-109.7998
 30
0.0
 10
-91.8223
 20
-108.9998
 30
0.0
 10
-94.3369
 20
-104.8851
 30
0.0
 10
-94.3369
 20
-104.8851
 30
0.0
 10
-94.3369
 20
-104.8851
 30
0.0
 10
-95.7653
 20
-107.504
 30
0.0
 10
-97.7853
 20
-109.8405
 30
0.0
 10
-100.0688
 20
-111.8208
 30
0.0
 10
-100.0688
 20
-111.8208
 30
0.0
 10
-100.0688
 20
-111.8208
 30
0.0
 10
-97.7704
 20
-111.8208
 30
0.0
 10
-97.7704
 20
-111.8208
 30
0.0
 10
-97.7704
 20
-111.8208
 30
0.0
 10
-97.7303
 20
-111.7567
 30
0.0
 10
-97.6943
 20
-111.6929
 30
0.0
 10
-97.6514
 20
-111.6286
 30
0.0
 10
-97.6514
 20
-111.6286
 30
0.0
 10
-96.0513
 20
-109.2283
 30
0.0
 10
-91.0222
 20
-109.7998
 30
0.0
 10
-91.0222
 20
-109.7998
 30
0.0
  0
SPLINE
  5
9B
330
1F
100
AcDbEntity
  8
layer 1
 62
   250
100
AcDbSpline
210
0.0
220
0.0
230
1.0
 70
    11
 71
     3
 72
    32
 73
    28
 74
     0
 42
0.0000000001
 43
0.0000000001
 12
1.0
 22
0.0
 32
0.0
 13
1.0
 23
0.0
 33
0.0
 40
0.0
 40
0.0
 40
0.0
 40
0.0
 40
0.125
 40
0.125
 40
0.125
 40
0.125
 40
0.25
 40
0.25
 40
0.25
 40
0.25
 40
0.375
 40
0.375
 40
0.375
 40
0.375
 40
0.5
 40
0.5
 40
0.5
 40
0.5
 40
0.625
 40
0.625
 40
0.625
 40
0.625
 40
0.75
 40
0.75
 40
0.75
 40
0.75
 40
1.0
 40
1.0
 40
1.0
 40
1.0
 10
-81.5357
 20
-99.056
 30
0.0
 10
-81.5357
 20
-99.056
 30
0.0
 10
-86.679
 20
-101.1134
 30
0.0
 10
-88.1649
 20
-96.8844
 30
0.0
 10
-88.1649
 20
-96.8844
 30
0.0
 10
-88.2791
 20
-92.1983
 30
0.0
 10
-84.1645
 20
-92.884
 30
0.0
 10
-84.1645
 20
-92.884
 30
0.0
 10
-84.1645
 20
-92.884
 30
0.0
 10
-84.1645
 20
-92.884
 30
0.0
 10
-83.3645
 20
-92.3125
 30
0.0
 10
-84.3931
 20
-92.084
 30
0.0
 10
-84.3931
 20
-92.084
 30
0.0
 10
-86.9076
 20
-90.3695
 30
0.0
 10
-93.8797
 20
-92.9983
 30
0.0
 10
-91.9366
 20
-100.4276
 30
0.0
 10
-91.9366
 20
-100.4276
 30
0.0
 10
-89.9936
 20
-107.8568
 30
0.0
 10
-84.9646
 20
-111.0571
 30
0.0
 10
-84.9646
 20
-111.0571
 30
0.0
 10
-84.9646
 20
-111.0571
 30
0.0
 10
-85.9932
 20
-103.5136
 30
0.0
 10
-80.507
 20
-99.2846
 30
0.0
 10
-80.507
 20
-99.2846
 30
0.0
 10
-80.507
 20
-99.2846
 30
0.0
 10
-80.0498
 20
-98.1416
 30
0.0
 10
-81.5357
 20
-99.056
 30
0.0
 10
-81.5357
 20
-99.056
 30
0.0
  0
SPLINE
  5
9C
330
1F
100
AcDbEntity
  8
layer 1
 62
   250
100
AcDbSpline
210
0.0
220
0.0
230
1.0
 70
    11
 71
     3
 72
    24
 73
    20
 74
     0
 42
0.0000000001
 43
0.0000000001
 12
1.0
 22
0.0
 32
0.0
 13
1.0
 23
0.0
 33
0.0
 40
0.0
 40
0.0
 40
0.0
 40
0.0
 40
0.1666666666666667
 40
0.1666666666666667
 40
0.1666666666666667
 40
0.1666666666666667
 40
0.3333333333333333
 40
0.3333333333333333
 40
0.3333333333333333
 40
0.3333333333333333
 40
0.5
 40
0.5
 40
0.5
 40
0.5
 40
0.6666666666666666
 40
0.6666666666666666
 40
0.6666666666666666
 40
0.6666666666666666
 40
1.0
 40
1.0
 40
1.0
 40
1.0
 10
-76.6209
 20
-103.3993
 30
0.0
 10
-76.6209
 20
-103.3993
 30
0.0
 10
-77.421
 20
-101.2276
 30
0.0
 10
-79.364
 20
-109.3427
 30
0.0
 10
-79.364
 20
-109.3427
 30
0.0
 10
-79.5776
 20
-110.2348
 30
0.0
 10
-79.7072
 20
-111.0525
 30
0.0
 10
-79.7879
 20
-111.8208
 30
0.0
 10
-79.7879
 20
-111.8208
 30
0.0
 10
-79.7879
 20
-111.8208
 30
0.0
 10
-75.0071
 20
-111.8208
 30
0.0
 10
-75.0071
 20
-111.8208
 30
0.0
 10
-75.0071
 20
-111.8208
 30
0.0
 10
-74.6441
 20
-111.3868
 30
0.0
 10
-74.2613
 20
-110.9786
 30
0.0
 10
-73.8779
 20
-110.4856
 30
0.0
 10
-73.8779
 20
-110.4856
 30
0.0
 10
-77.3067
 20
-108.7711
 30
0.0
 10
-76.6209
 20
-103.3993
 30
0.0
 10
-76.6209
 20
-103.3993
 30
0.0
  0
SPLINE
  5
9D
330
1F
100
AcDbEntity
  8
layer 1
 62
   250
100
AcDbSpline
210
0.0
220
0.0
230
1.0
 70
    11
 71
     3
 72
    16
 73
    12
 74
     0
 42
0.0000000001
 43
0.0000000001
 12
1.0
 22
0.0
 32
0.0
 13
1.0
 23
0.0
 33
0.0
 40
0.0
 40
0.0
 40
0.0
 40
0.0
 40
0.25
 40
0.25
 40
0.25
 40
0.25
 40
0.5
 40
0.5
 40
0.5
 40
0.5
 40
1.0
 40
1.0
 40
1.0
 40
1.0
 10
-59.0559
 20
-93.7816
 30
0.0
 10
-59.0559
 20
-93.7816
 30
0.0
 10
-59.0559
 20
-84.8121
 30
0.0
 10
-59.0559
 20
-84.8121
 30
0.0
 10
-59.0559
 20
-84.8121
 30
0.0
 10
-59.5582
 20
-85.473
 30
0.0
 10
-59.9876
 20
-86.2443
 30
0.0
 10
-60.2766
 20
-87.1692
 30
0.0
 10
-60.2766
 20
-87.1692
 30
0.0
 10
-61.1525
 20
-89.9721
 30
0.0
 10
-60.443
 20
-92.2039
 30
0.0
 10
-59.0559
 20
-93.7816
 30
0.0
  0
SPLINE
  5
9E
330
1F
100
AcDbEntity
  8
layer 1
 62
   250
100
AcDbSpline
210
0.0
220
0.0
230
1.0
 70
    11
 71
     3
 72
    24
 73
    20
 74
     0
 42
0.0000000001
 43
0.0000000001
 12
1.0
 22
0.0
 32
0.0
 13
1.0
 23
0.0
 33
0.0
 40
0.0
 40
0.0
 40
0.0
 40
0.0
 40
0.1666666666666667
 40
0.1666666666666667
 40
0.1666666666666667
 40
0.1666666666666667
 40
0.3333333333333333
 40
0.3333333333333333
 40
0.3333333333333333
 40
0.3333333333333333
 40
0.5
 40
0.5
 40
0.5
 40
0.5
 40
0.6666666666666666
 40
0.6666666666666666
 40
0.6666666666666666
 40
0.6666666666666666
 40
1.0
 40
1.0
 40
1.0
 40
1.0
 10
-63.0197
 20
-89.3409
 30
0.0
 10
-65.3056
 20
-93.2269
 30
0.0
 10
-71.5919
 20
-95.5128
 30
0.0
 10
-72.1634
 20
-98.7131
 30
0.0
 10
-72.1634
 20
-98.7131
 30
0.0
 10
-65.9914
 20
-95.5128
 30
0.0
 10
-60.7339
 20
-99.056
 30
0.0
 10
-60.7339
 20
-99.056
 30
0.0
 10
-60.7339
 20
-99.056
 30
0.0
 10
-59.9699
 20
-98.6316
 30
0.0
 10
-59.3336
 20
-97.8307
 30
0.0
 10
-59.0559
 20
-97.4457
 30
0.0
 10
-59.0559
 20
-97.4457
 30
0.0
 10
-59.0559
 20
-97.4457
 30
0.0
 10
-59.0559
 20
-97.1539
 30
0.0
 10
-59.0559
 20
-97.1539
 30
0.0
 10
-59.0559
 20
-97.1539
 30
0.0
 10
-63.012
 20
-95.456
 30
0.0
 10
-63.0197
 20
-89.3409
 30
0.0
 10
-63.0197
 20
-89.3409
 30
0.0
  0
SPLINE
  5
9F
330
1F
100
AcDbEntity
  8
layer 1
 62
   250
100
AcDbSpline
210
0.0
220
0.0
230
1.0
 70
    11
 71
     3
 72
    28
 73
    24
 74
     0
 42
0.0000000001
 43
0.0000000001
 12
1.0
 22
0.0
 32
0.0
 13
1.0
 23
0.0
 33
0.0
 40
0.0
 40
0.0
 40
0.0
 40
0.0
 40
0.1428571428571428
 40
0.1428571428571428
 40
0.1428571428571428
 40
0.1428571428571428
 40
0.2857142857142857
 40
0.2857142857142857
 40
0.2857142857142857
 40
0.2857142857142857
 40
0.4285714285714285
 40
0.4285714285714285
 40
0.4285714285714285
 40
0.4285714285714285
 40
0.5714285714285714
 40
0.5714285714285714
 40
0.5714285714285714
 40
0.5714285714285714
 40
0.7142857142857143
 40
0.7142857142857143
 40
0.7142857142857143
 40
0.7142857142857143
 40
1.0
 40
1.0
 40
1.0
 40
1.0
 10
-63.0197
 20
-104.4279
 30
0.0
 10
-66.1057
 20
-100.199
 30
0.0
 10
-70.449
 20
-103.0564
 30
0.0
 10
-70.449
 20
-103.0564
 30
0.0
 10
-70.449
 20
-103.0564
 30
0.0
 10
-70.449
 20
-103.0564
 30
0.0
 10
-71.2491
 20
-104.3136
 30
0.0
 10
-69.9919
 20
-103.8565
 30
0.0
 10
-69.9919
 20
-103.8565
 30
0.0
 10
-65.077
 20
-102.2563
 30
0.0
 10
-65.077
 20
-107.3996
 30
0.0
 10
-65.077
 20
-107.3996
 30
0.0
 10
-65.077
 20
-107.3996
 30
0.0
 10
-65.0325
 20
-109.8071
 30
0.0
 10
-66.1369
 20
-111.1161
 30
0.0
 10
-67.4992
 20
-111.8208
 30
0.0
 10
-67.4992
 20
-111.8208
 30
0.0
 10
-67.4992
 20
-111.8208
 30
0.0
 10
-64.5273
 20
-111.8208
 30
0.0
 10
-64.5273
 20
-111.8208
 30
0.0
 10
-64.5273
 20
-111.8208
 30
0.0
 10
-62.7699
 20
-109.5915
 30
0.0
 10
-61.3031
 20
-106.7803
 30
0.0
 10
-63.0197
 20
-104.4279
 30
0.0
  0
SPLINE
  5
A0
330
1F
100
AcDbEntity
  8
layer 1
 62
   250
100
AcDbSpline
210
0.0
220
0.0
230
1.0
 70
    11
 71
     3
 72
    32
 73
    28
 74
     0
 42
0.0000000001
 43
0.0000000001
 12
1.0
 22
0.0
 32
0.0
 13
1.0
 23
0.0
 33
0.0
 40
0.0
 40
0.0
 40
0.0
 40
0.0
 40
0.125
 40
0.125
 40
0.125
 40
0.125
 40
0.25
 40
0.25
 40
0.25
 40
0.25
 40
0.375
 40
0.375
 40
0.375
 40
0.375
 40
0.5
 40
0.5
 40
0.5
 40
0.5
 40
0.625
 40
0.625
 40
0.625
 40
0.625
 40
0.75
 40
0.75
 40
0.75
 40
0.75
 40
1.0
 40
1.0
 40
1.0
 40
1.0
 10
-107.9381
 20
-24.5346
 30
0.0
 10
-99.823
 20
-21.3343
 30
0.0
 10
-99.4801
 20
-28.9921
 30
0.0
 10
-99.4801
 20
-28.9921
 30
0.0
 10
-99.4801
 20
-28.9921
 30
0.0
 10
-99.4801
 20
-28.9921
 30
0.0
 10
-98.9087
 20
-29.1636
 30
0.0
 10
-97.9943
 20
-27.7348
 30
0.0
 10
-97.9943
 20
-27.7348
 30
0.0
 10
-96.737
 20
-24.9918
 30
0.0
 10
-99.3659
 20
-22.363
 30
0.0
 10
-99.3659
 20
-22.363
 30
0.0
 10
-99.3659
 20
-22.363
 30
0.0
 10
-103.7091
 20
-18.8198
 30
0.0
 10
-106.9094
 20
-19.6198
 30
0.0
 10
-111.3669
 20
-22.1344
 30
0.0
 10
-111.3669
 20
-22.1344
 30
0.0
 10
-115.8245
 20
-24.6489
 30
0.0
 10
-113.6528
 20
-33.1068
 30
0.0
 10
-113.6528
 20
-33.1068
 30
0.0
 10
-113.6528
 20
-33.1068
 30
0.0
 10
-113.6528
 20
-33.1068
 30
0.0
 10
-110.5668
 20
-29.9065
 30
0.0
 10
-110.5668
 20
-29.9065
 30
0.0
 10
-110.5668
 20
-29.9065
 30
0.0
 10
-110.5668
 20
-29.9065
 30
0.0
 10
-111.7098
 20
-26.7062
 30
0.0
 10
-107.9381
 20
-24.5346
 30
0.0
  0
SPLINE
  5
A1
330
1F
100
AcDbEntity
  8
layer 1
 62
   250
100
AcDbSpline
210
0.0
220
0.0
230
1.0
 70
    11
 71
     3
 72
    24
 73
    20
 74
     0
 42
0.0000000001
 43
0.0000000001
 12
1.0
 22
0.0
 32
0.0
 13
1.0
 23
0.0
 33
0.0
 40
0.0
 40
0.0
 40
0.0
 40
0.0
 40
0.1666666666666667
 40
0.1666666666666667
 40
0.1666666666666667
 40
0.1666666666666667
 40
0.3333333333333333
 40
0.3333333333333333
 40
0.3333333333333333
 40
0.3333333333333333
 40
0.5
 40
0.5
 40
0.5
 40
0.5
 40
0.6666666666666666
 40
0.6666666666666666
 40
0.6666666666666666
 40
0.6666666666666666
 40
1.0
 40
1.0
 40
1.0
 40
1.0
 10
-104.5663
 20
-36.4214
 30
0.0
 10
-107.6523
 20
-35.507
 30
0.0
 10
-110.1668
 20
-31.3352
 30
0.0
 10
-110.1668
 20
-31.3352
 30
0.0
 10
-110.1668
 20
-31.3352
 30
0.0
 10
-110.1668
 20
-31.3352
 30
0.0
 10
-110.3954
 20
-31.278
 30
0.0
 10
-110.3954
 20
-31.278
 30
0.0
 10
-110.3954
 20
-31.278
 30
0.0
 10
-110.3954
 20
-31.278
 30
0.0
 10
-112.4527
 20
-34.3069
 30
0.0
 10
-112.4527
 20
-34.5355
 30
0.0
 10
-112.4527
 20
-34.5355
 30
0.0
 10
-112.4527
 20
-34.7641
 30
0.0
 10
-110.3954
 20
-41.1075
 30
0.0
 10
-108.5095
 20
-42.7648
 30
0.0
 10
-108.5095
 20
-42.7648
 30
0.0
 10
-109.5953
 20
-39.5073
 30
0.0
 10
-107.138
 20
-36.9357
 30
0.0
 10
-104.5663
 20
-36.4214
 30
0.0
  0
SPLINE
  5
A2
330
1F
100
AcDbEntity
  8
layer 1
 62
   250
100
AcDbSpline
210
0.0
220
0.0
230
1.0
 70
    11
 71
     3
 72
    20
 73
    16
 74
     0
 42
0.0000000001
 43
0.0000000001
 12
1.0
 22
0.0
 32
0.0
 13
1.0
 23
0.0
 33
0.0
 40
0.0
 40
0.0
 40
0.0
 40
0.0
 40
0.2
 40
0.2
 40
0.2
 40
0.2
 40
0.4
 40
0.4
 40
0.4
 40
0.4
 40
0.6
 40
0.6
 40
0.6
 40
0.6
 40
1.0
 40
1.0
 40
1.0
 40
1.0
 10
-94.6797
 20
-16.6482
 30
0.0
 10
-94.6797
 20
-16.6482
 30
0.0
 10
-91.3651
 20
-19.7342
 30
0.0
 10
-91.1366
 20
-23.5059
 30
0.0
 10
-91.1366
 20
-23.5059
 30
0.0
 10
-91.1366
 20
-23.5059
 30
0.0
 10
-84.736
 20
-19.5055
 30
0.0
 10
-86.9076
 20
-13.4479
 30
0.0
 10
-86.9076
 20
-13.4479
 30
0.0
 10
-86.9076
 20
-13.4479
 30
0.0
 10
-87.5934
 20
-10.2476
 30
0.0
 10
-92.0509
 20
-9.4475
 30
0.0
 10
-92.0509
 20
-9.4475
 30
0.0
 10
-92.0509
 20
-9.4475
 30
0.0
 10
-87.8219
 20
-15.2766
 30
0.0
 10
-94.6797
 20
-16.6482
 30
0.0
  0
SPLINE
  5
A3
330
1F
100
AcDbEntity
  8
layer 1
 62
   250
100
AcDbSpline
210
0.0
220
0.0
230
1.0
 70
    11
 71
     3
 72
    24
 73
    20
 74
     0
 42
0.0000000001
 43
0.0000000001
 12
1.0
 22
0.0
 32
0.0
 13
1.0
 23
0.0
 33
0.0
 40
0.0
 40
0.0
 40
0.0
 40
0.0
 40
0.1666666666666667
 40
0.1666666666666667
 40
0.1666666666666667
 40
0.1666666666666667
 40
0.3333333333333333
 40
0.3333333333333333
 40
0.3333333333333333
 40
0.3333333333333333
 40
0.5
 40
0.5
 40
0.5
 40
0.5
 40
0.6666666666666666
 40
0.6666666666666666
 40
0.6666666666666666
 40
0.6666666666666666
 40
1.0
 40
1.0
 40
1.0
 40
1.0
 10
-94.1082
 20
-38.4787
 30
0.0
 10
-93.0796
 20
-39.7359
 30
0.0
 10
-96.0513
 20
-32.421
 30
0.0
 10
-84.6217
 20
-27.2777
 30
0.0
 10
-84.6217
 20
-27.2777
 30
0.0
 10
-78.9068
 20
-22.1344
 30
0.0
 10
-82.7976
 20
-16.565
 30
0.0
 10
-83.0215
 20
-17.5625
 30
0.0
 10
-83.0215
 20
-17.5625
 30
0.0
 10
-84.2788
 20
-23.163
 30
0.0
 10
-90.7937
 20
-25.3346
 30
0.0
 10
-90.7937
 20
-25.3346
 30
0.0
 10
-90.7937
 20
-25.3346
 30
0.0
 10
-90.7937
 20
-25.3346
 30
0.0
 10
-90.9079
 20
-33.4497
 30
0.0
 10
-98.7944
 20
-35.7356
 30
0.0
 10
-98.7944
 20
-35.7356
 30
0.0
 10
-98.7944
 20
-35.7356
 30
0.0
 10
-95.1369
 20
-37.2214
 30
0.0
 10
-94.1082
 20
-38.4787
 30
0.0
  0
SPLINE
  5
A4
330
1F
100
AcDbEntity
  8
layer 1
 62
   250
100
AcDbSpline
210
0.0
220
0.0
230
1.0
 70
    11
 71
     3
 72
    20
 73
    16
 74
     0
 42
0.0000000001
 43
0.0000000001
 12
1.0
 22
0.0
 32
0.0
 13
1.0
 23
0.0
 33
0.0
 40
0.0
 40
0.0
 40
0.0
 40
0.0
 40
0.2
 40
0.2
 40
0.2
 40
0.2
 40
0.4
 40
0.4
 40
0.4
 40
0.4
 40
0.6
 40
0.6
 40
0.6
 40
0.6
 40
1.0
 40
1.0
 40
1.0
 40
1.0
 10
-72.6206
 20
-28.192
 30
0.0
 10
-72.6206
 20
-28.192
 30
0.0
 10
-72.9635
 20
-27.2777
 30
0.0
 10
-73.1921
 20
-26.1347
 30
0.0
 10
-73.1921
 20
-26.1347
 30
0.0
 10
-73.1921
 20
-26.1347
 30
0.0
 10
-78.2211
 20
-23.5059
 30
0.0
 10
-79.4784
 20
-21.5629
 30
0.0
 10
-79.4784
 20
-21.5629
 30
0.0
 10
-79.4784
 20
-21.5629
 30
0.0
 10
-79.0212
 20
-24.6489
 30
0.0
 10
-80.0498
 20
-26.0204
 30
0.0
 10
-80.0498
 20
-26.0204
 30
0.0
 10
-80.0498
 20
-26.0204
 30
0.0
 10
-74.6779
 20
-26.3633
 30
0.0
 10
-72.6206
 20
-28.192
 30
0.0
  0
SPLINE
  5
A5
330
1F
100
AcDbEntity
  8
layer 1
 62
   250
100
AcDbSpline
210
0.0
220
0.0
230
1.0
 70
    11
 71
     3
 72
    32
 73
    28
 74
     0
 42
0.0000000001
 43
0.0000000001
 12
1.0
 22
0.0
 32
0.0
 13
1.0
 23
0.0
 33
0.0
 40
0.0
 40
0.0
 40
0.0
 40
0.0
 40
0.125
 40
0.125
 40
0.125
 40
0.125
 40
0.25
 40
0.25
 40
0.25
 40
0.25
 40
0.375
 40
0.375
 40
0.375
 40
0.375
 40
0.5
 40
0.5
 40
0.5
 40
0.5
 40
0.625
 40
0.625
 40
0.625
 40
0.625
 40
0.75
 40
0.75
 40
0.75
 40
0.75
 40
1.0
 40
1.0
 40
1.0
 40
1.0
 10
-79.0212
 20
-28.9921
 30
0.0
 10
-79.0212
 20
-28.9921
 30
0.0
 10
-85.8789
 20
-27.7348
 30
0.0
 10
-88.8506
 20
-34.364
 30
0.0
 10
-88.8506
 20
-34.364
 30
0.0
 10
-88.8506
 20
-34.364
 30
0.0
 10
-81.1928
 20
-28.4206
 30
0.0
 10
-74.9065
 20
-34.9355
 30
0.0
 10
-74.9065
 20
-34.9355
 30
0.0
 10
-72.0491
 20
-40.8789
 30
0.0
 10
-79.0212
 20
-42.8219
 30
0.0
 10
-79.0212
 20
-42.8219
 30
0.0
 10
-79.0212
 20
-42.8219
 30
0.0
 10
-79.0212
 20
-42.8219
 30
0.0
 10
-80.0498
 20
-43.5077
 30
0.0
 10
-81.5357
 20
-42.2505
 30
0.0
 10
-81.5357
 20
-42.2505
 30
0.0
 10
-81.5357
 20
-42.2505
 30
0.0
 10
-80.8499
 20
-44.6507
 30
0.0
 10
-77.1924
 20
-44.1935
 30
0.0
 10
-77.1924
 20
-44.1935
 30
0.0
 10
-73.535
 20
-43.7363
 30
0.0
 10
-69.1917
 20
-40.4217
 30
0.0
 10
-70.9062
 20
-34.9355
 30
0.0
 10
-70.9062
 20
-34.9355
 30
0.0
 10
-72.6206
 20
-29.4493
 30
0.0
 10
-79.0212
 20
-28.9921
 30
0.0
 10
-79.0212
 20
-28.9921
 30
0.0
  0
SPLINE
  5
A6
330
1F
100
AcDbEntity
  8
layer 1
 62
   250
100
AcDbSpline
210
0.0
220
0.0
230
1.0
 70
    11
 71
     3
 72
    20
 73
    16
 74
     0
 42
0.0000000001
 43
0.0000000001
 12
1.0
 22
0.0
 32
0.0
 13
1.0
 23
0.0
 33
0.0
 40
0.0
 40
0.0
 40
0.0
 40
0.0
 40
0.2
 40
0.2
 40
0.2
 40
0.2
 40
0.4
 40
0.4
 40
0.4
 40
0.4
 40
0.6
 40
0.6
 40
0.6
 40
0.6
 40
1.0
 40
1.0
 40
1.0
 40
1.0
 10
-77.1924
 20
-38.0215
 30
0.0
 10
-77.1924
 20
-36.4434
 30
0.0
 10
-78.4717
 20
-35.1641
 30
0.0
 10
-80.0498
 20
-35.1641
 30
0.0
 10
-80.0498
 20
-35.1641
 30
0.0
 10
-81.6279
 20
-35.1641
 30
0.0
 10
-82.9073
 20
-36.4434
 30
0.0
 10
-82.9073
 20
-38.0215
 30
0.0
 10
-82.9073
 20
-38.0215
 30
0.0
 10
-82.9073
 20
-39.5996
 30
0.0
 10
-81.6279
 20
-40.8789
 30
0.0
 10
-80.0498
 20
-40.8789
 30
0.0
 10
-80.0498
 20
-40.8789
 30
0.0
 10
-78.4717
 20
-40.8789
 30
0.0
 10
-77.1924
 20
-39.5996
 30
0.0
 10
-77.1924
 20
-38.0215
 30
0.0
  0
SPLINE
  5
A7
330
1F
100
AcDbEntity
  8
layer 1
 62
   250
100
AcDbSpline
210
0.0
220
0.0
230
1.0
 70
    11
 71
     3
 72
    20
 73
    16
 74
     0
 42
0.0000000001
 43
0.0000000001
 12
1.0
 22
0.0
 32
0.0
 13
1.0
 23
0.0
 33
0.0
 40
0.0
 40
0.0
 40
0.0
 40
0.0
 40
0.2
 40
0.2
 40
0.2
 40
0.2
 40
0.4
 40
0.4
 40
0.4
 40
0.4
 40
0.6
 40
0.6
 40
0.6
 40
0.6
 40
1.0
 40
1.0
 40
1.0
 40
1.0
 10
-85.4217
 20
-41.9076
 30
0.0
 10
-85.3075
 20
-51.8513
 30
0.0
 10
-74.4493
 20
-58.4805
 30
0.0
 10
-74.4493
 20
-58.4805
 30
0.0
 10
-74.4493
 20
-58.4805
 30
0.0
 10
-75.8209
 20
-52.3085
 30
0.0
 10
-72.9635
 20
-48.5367
 30
0.0
 10
-72.9635
 20
-48.5367
 30
0.0
 10
-72.9635
 20
-48.5367
 30
0.0
 10
-73.6493
 20
-48.5367
 30
0.0
 10
-75.478
 20
-46.708
 30
0.0
 10
-75.478
 20
-46.708
 30
0.0
 10
-75.478
 20
-46.708
 30
0.0
 10
-82.6786
 20
-48.3081
 30
0.0
 10
-85.4217
 20
-41.9076
 30
0.0
 10
-85.4217
 20
-41.9076
 30
0.0
  0
SPLINE
  5
A8
330
1F
100
AcDbEntity
  8
layer 1
 62
   250
100
AcDbSpline
210
0.0
220
0.0
230
1.0
 70
    11
 71
     3
 72
    28
 73
    24
 74
     0
 42
0.0000000001
 43
0.0000000001
 12
1.0
 22
0.0
 32
0.0
 13
1.0
 23
0.0
 33
0.0
 40
0.0
 40
0.0
 40
0.0
 40
0.0
 40
0.1428571428571428
 40
0.1428571428571428
 40
0.1428571428571428
 40
0.1428571428571428
 40
0.2857142857142857
 40
0.2857142857142857
 40
0.2857142857142857
 40
0.2857142857142857
 40
0.4285714285714285
 40
0.4285714285714285
 40
0.4285714285714285
 40
0.4285714285714285
 40
0.5714285714285714
 40
0.5714285714285714
 40
0.5714285714285714
 40
0.5714285714285714
 40
0.7142857142857143
 40
0.7142857142857143
 40
0.7142857142857143
 40
0.7142857142857143
 40
1.0
 40
1.0
 40
1.0
 40
1.0
 10
-84.8503
 20
-34.9355
 30
0.0
 10
-100.6231
 20
-39.393
 30
0.0
 10
-88.2791
 20
-55.2802
 30
0.0
 10
-84.736
 20
-58.1376
 30
0.0
 10
-84.736
 20
-58.1376
 30
0.0
 10
-82.207
 20
-60.1771
 30
0.0
 10
-71.8205
 20
-66.0241
 30
0.0
 10
-68.3916
 20
-72.4246
 30
0.0
 10
-68.3916
 20
-72.4246
 30
0.0
 10
-64.9627
 20
-78.8252
 30
0.0
 10
-67.3629
 20
-86.9402
 30
0.0
 10
-67.3629
 20
-86.9402
 30
0.0
 10
-67.3629
 20
-86.9402
 30
0.0
 10
-62.9054
 20
-84.1971
 30
0.0
 10
-63.9341
 20
-75.9678
 30
0.0
 10
-63.9341
 20
-75.9678
 30
0.0
 10
-63.9341
 20
-75.9678
 30
0.0
 10
-64.8484
 20
-72.8818
 30
0.0
 10
-64.2769
 20
-70.0244
 30
0.0
 10
-79.7069
 20
-57.6804
 30
0.0
 10
-79.7069
 20
-57.6804
 30
0.0
 10
-94.794
 20
-46.1365
 30
0.0
 10
-84.8503
 20
-34.9355
 30
0.0
 10
-84.8503
 20
-34.9355
 30
0.0
  0
SPLINE
  5
A9
330
1F
100
AcDbEntity
  8
layer 1
 62
   250
100
AcDbSpline
210
0.0
220
0.0
230
1.0
 70
    11
 71
     3
 72
    24
 73
    20
 74
     0
 42
0.0000000001
 43
0.0000000001
 12
1.0
 22
0.0
 32
0.0
 13
1.0
 23
0.0
 33
0.0
 40
0.0
 40
0.0
 40
0.0
 40
0.0
 40
0.1666666666666667
 40
0.1666666666666667
 40
0.1666666666666667
 40
0.1666666666666667
 40
0.3333333333333333
 40
0.3333333333333333
 40
0.3333333333333333
 40
0.3333333333333333
 40
0.5
 40
0.5
 40
0.5
 40
0.5
 40
0.6666666666666666
 40
0.6666666666666666
 40
0.6666666666666666
 40
0.6666666666666666
 40
1.0
 40
1.0
 40
1.0
 40
1.0
 10
-68.1631
 20
-37.1071
 30
0.0
 10
-68.1631
 20
-37.1071
 30
0.0
 10
-68.1631
 20
-43.3934
 30
0.0
 10
-72.2777
 20
-44.9936
 30
0.0
 10
-72.2777
 20
-44.9936
 30
0.0
 10
-72.2777
 20
-44.9936
 30
0.0
 10
-71.4776
 20
-46.2508
 30
0.0
 10
-70.449
 20
-46.8223
 30
0.0
 10
-70.449
 20
-46.8223
 30
0.0
 10
-70.449
 20
-46.8223
 30
0.0
 10
-65.212
 20
-43.2944
 30
0.0
 10
-59.0559
 20
-46.4616
 30
0.0
 10
-59.0559
 20
-46.4616
 30
0.0
 10
-59.0559
 20
-46.4616
 30
0.0
 10
-59.0559
 20
-46.3538
 30
0.0
 10
-59.0559
 20
-46.3538
 30
0.0
 10
-59.0559
 20
-46.3538
 30
0.0
 10
-59.7682
 20
-43.2196
 30
0.0
 10
-65.9075
 20
-40.9415
 30
0.0
 10
-68.1631
 20
-37.1071
 30
0.0
  0
SPLINE
  5
AA
330
1F
100
AcDbEntity
  8
layer 1
 62
   250
100
AcDbSpline
210
0.0
220
0.0
230
1.0
 70
    11
 71
     3
 72
    32
 73
    28
 74
     0
 42
0.0000000001
 43
0.0000000001
 12
1.0
 22
0.0
 32
0.0
 13
1.0
 23
0.0
 33
0.0
 40
0.0
 40
0.0
 40
0.0
 40
0.0
 40
0.125
 40
0.125
 40
0.125
 40
0.125
 40
0.25
 40
0.25
 40
0.25
 40
0.25
 40
0.375
 40
0.375
 40
0.375
 40
0.375
 40
0.5
 40
0.5
 40
0.5
 40
0.5
 40
0.625
 40
0.625
 40
0.625
 40
0.625
 40
0.75
 40
0.75
 40
0.75
 40
0.75
 40
1.0
 40
1.0
 40
1.0
 40
1.0
 10
-66.1057
 20
-55.1659
 30
0.0
 10
-66.1057
 20
-55.1659
 30
0.0
 10
-66.1057
 20
-50.0226
 30
0.0
 10
-61.1909
 20
-51.6227
 30
0.0
 10
-61.1909
 20
-51.6227
 30
0.0
 10
-59.9338
 20
-52.0799
 30
0.0
 10
-60.7338
 20
-50.8226
 30
0.0
 10
-60.7338
 20
-50.8226
 30
0.0
 10
-60.7338
 20
-50.8226
 30
0.0
 10
-60.7338
 20
-50.8226
 30
0.0
 10
-65.077
 20
-47.9653
 30
0.0
 10
-68.1631
 20
-52.1942
 30
0.0
 10
-68.1631
 20
-52.1942
 30
0.0
 10
-71.2491
 20
-56.4232
 30
0.0
 10
-64.0484
 20
-62.138
 30
0.0
 10
-63.3626
 20
-63.2809
 30
0.0
 10
-63.3626
 20
-63.2809
 30
0.0
 10
-62.6994
 20
-64.3864
 30
0.0
 10
-60.5413
 20
-66.566
 30
0.0
 10
-59.0559
 20
-70.3269
 30
0.0
 10
-59.0559
 20
-70.3269
 30
0.0
 10
-59.0559
 20
-70.3269
 30
0.0
 10
-59.0559
 20
-60.3367
 30
0.0
 10
-59.0559
 20
-60.3367
 30
0.0
 10
-59.0559
 20
-60.3367
 30
0.0
 10
-60.3719
 20
-60.4497
 30
0.0
 10
-66.2072
 20
-60.643
 30
0.0
 10
-66.1057
 20
-55.1659
 30
0.0
  0
SPLINE
  5
AB
330
1F
100
AcDbEntity
  8
layer 1
 62
   250
100
AcDbSpline
210
0.0
220
0.0
230
1.0
 70
    11
 71
     3
 72
    28
 73
    24
 74
     0
 42
0.0000000001
 43
0.0000000001
 12
1.0
 22
0.0
 32
0.0
 13
1.0
 23
0.0
 33
0.0
 40
0.0
 40
0.0
 40
0.0
 40
0.0
 40
0.1428571428571428
 40
0.1428571428571428
 40
0.1428571428571428
 40
0.1428571428571428
 40
0.2857142857142857
 40
0.2857142857142857
 40
0.2857142857142857
 40
0.2857142857142857
 40
0.4285714285714285
 40
0.4285714285714285
 40
0.4285714285714285
 40
0.4285714285714285
 40
0.5714285714285714
 40
0.5714285714285714
 40
0.5714285714285714
 40
0.5714285714285714
 40
0.7142857142857143
 40
0.7142857142857143
 40
0.7142857142857143
 40
0.7142857142857143
 40
1.0
 40
1.0
 40
1.0
 40
1.0
 10
-89.6507
 20
-64.9954
 30
0.0
 10
-90.7937
 20
-65.9097
 30
0.0
 10
-88.9649
 20
-65.5668
 30
0.0
 10
-88.9649
 20
-65.5668
 30
0.0
 10
-88.9649
 20
-65.5668
 30
0.0
 10
-88.9649
 20
-65.5668
 30
0.0
 10
-86.4504
 20
-63.6238
 30
0.0
 10
-80.6213
 20
-64.081
 30
0.0
 10
-80.6213
 20
-64.081
 30
0.0
 10
-85.4217
 20
-61.6807
 30
0.0
 10
-90.3365
 20
-57.6804
 30
0.0
 10
-93.0796
 20
-52.6514
 30
0.0
 10
-93.0796
 20
-52.6514
 30
0.0
 10
-93.0796
 20
-52.6514
 30
0.0
 10
-95.5941
 20
-56.7661
 30
0.0
 10
-96.3942
 20
-57.5661
 30
0.0
 10
-96.3942
 20
-57.5661
 30
0.0
 10
-96.3942
 20
-57.5661
 30
0.0
 10
-91.3651
 20
-56.9947
 30
0.0
 10
-89.765
 20
-59.3949
 30
0.0
 10
-89.765
 20
-59.3949
 30
0.0
 10
-88.1648
 20
-61.7951
 30
0.0
 10
-88.5077
 20
-64.081
 30
0.0
 10
-89.6507
 20
-64.9954
 30
0.0
  0
SPLINE
  5
AC
330
1F
100
AcDbEntity
  8
layer 1
 62
   250
100
AcDbSpline
210
0.0
220
0.0
230
1.0
 70
    11
 71
     3
 72
    32
 73
    28
 74
     0
 42
0.0000000001
 43
0.0000000001
 12
1.0
 22
0.0
 32
0.0
 13
1.0
 23
0.0
 33
0.0
 40
0.0
 40
0.0
 40
0.0
 40
0.0
 40
0.125
 40
0.125
 40
0.125
 40
0.125
 40
0.25
 40
0.25
 40
0.25
 40
0.25
 40
0.375
 40
0.375
 40
0.375
 40
0.375
 40
0.5
 40
0.5
 40
0.5
 40
0.5
 40
0.625
 40
0.625
 40
0.625
 40
0.625
 40
0.75
 40
0.75
 40
0.75
 40
0.75
 40
1.0
 40
1.0
 40
1.0
 40
1.0
 10
-95.4798
 20
-48.1938
 30
0.0
 10
-93.5368
 20
-40.7646
 30
0.0
 10
-100.5088
 20
-38.1358
 30
0.0
 10
-103.0233
 20
-39.8502
 30
0.0
 10
-103.0233
 20
-39.8502
 30
0.0
 10
-104.052
 20
-40.0788
 30
0.0
 10
-103.2519
 20
-40.6503
 30
0.0
 10
-103.2519
 20
-40.6503
 30
0.0
 10
-103.2519
 20
-40.6503
 30
0.0
 10
-103.2519
 20
-40.6503
 30
0.0
 10
-99.1372
 20
-39.9645
 30
0.0
 10
-99.2515
 20
-44.6507
 30
0.0
 10
-99.2515
 20
-44.6507
 30
0.0
 10
-100.7374
 20
-48.8796
 30
0.0
 10
-105.8808
 20
-46.8223
 30
0.0
 10
-105.8808
 20
-46.8223
 30
0.0
 10
-105.8808
 20
-46.8223
 30
0.0
 10
-105.8808
 20
-46.8223
 30
0.0
 10
-107.3666
 20
-45.9079
 30
0.0
 10
-106.9094
 20
-47.0509
 30
0.0
 10
-106.9094
 20
-47.0509
 30
0.0
 10
-106.9094
 20
-47.0509
 30
0.0
 10
-101.4232
 20
-51.2799
 30
0.0
 10
-102.4519
 20
-58.8234
 30
0.0
 10
-102.4519
 20
-58.8234
 30
0.0
 10
-102.4519
 20
-58.8234
 30
0.0
 10
-97.4228
 20
-55.6231
 30
0.0
 10
-95.4798
 20
-48.1938
 30
0.0
  0
SPLINE
  5
AD
330
1F
100
AcDbEntity
  8
layer 1
 62
   250
100
AcDbSpline
210
0.0
220
0.0
230
1.0
 70
    11
 71
     3
 72
    20
 73
    16
 74
     0
 42
0.0000000001
 43
0.0000000001
 12
1.0
 22
0.0
 32
0.0
 13
1.0
 23
0.0
 33
0.0
 40
0.0
 40
0.0
 40
0.0
 40
0.0
 40
0.2
 40
0.2
 40
0.2
 40
0.2
 40
0.4
 40
0.4
 40
0.4
 40
0.4
 40
0.6
 40
0.6
 40
0.6
 40
0.6
 40
1.0
 40
1.0
 40
1.0
 40
1.0
 10
-113.5385
 20
-58.2519
 30
0.0
 10
-111.9384
 20
-60.3092
 30
0.0
 10
-110.3383
 20
-60.8807
 30
0.0
 10
-110.224
 20
-68.0814
 30
0.0
 10
-110.224
 20
-68.0814
 30
0.0
 10
-110.224
 20
-68.0814
 30
0.0
 10
-106.1093
 20
-65.224
 30
0.0
 10
-108.0524
 20
-57.109
 30
0.0
 10
-108.0524
 20
-57.109
 30
0.0
 10
-109.9954
 20
-48.9939
 30
0.0
 10
-110.7954
 20
-51.1655
 30
0.0
 10
-110.7954
 20
-51.1655
 30
0.0
 10
-110.7954
 20
-51.1655
 30
0.0
 10
-110.7954
 20
-51.1655
 30
0.0
 10
-110.1097
 20
-56.5375
 30
0.0
 10
-113.5385
 20
-58.2519
 30
0.0
  0
SPLINE
  5
AE
330
1F
100
AcDbEntity
  8
layer 1
 62
   250
100
AcDbSpline
210
0.0
220
0.0
230
1.0
 70
    11
 71
     3
 72
    32
 73
    28
 74
     0
 42
0.0000000001
 43
0.0000000001
 12
1.0
 22
0.0
 32
0.0
 13
1.0
 23
0.0
 33
0.0
 40
0.0
 40
0.0
 40
0.0
 40
0.0
 40
0.125
 40
0.125
 40
0.125
 40
0.125
 40
0.25
 40
0.25
 40
0.25
 40
0.25
 40
0.375
 40
0.375
 40
0.375
 40
0.375
 40
0.5
 40
0.5
 40
0.5
 40
0.5
 40
0.625
 40
0.625
 40
0.625
 40
0.625
 40
0.75
 40
0.75
 40
0.75
 40
0.75
 40
1.0
 40
1.0
 40
1.0
 40
1.0
 10
-169.6579
 20
-33.1068
 30
0.0
 10
-169.6579
 20
-33.1068
 30
0.0
 10
-166.5719
 20
-29.9065
 30
0.0
 10
-166.5719
 20
-29.9065
 30
0.0
 10
-166.5719
 20
-29.9065
 30
0.0
 10
-166.5719
 20
-29.9065
 30
0.0
 10
-167.7149
 20
-26.7062
 30
0.0
 10
-163.9431
 20
-24.5346
 30
0.0
 10
-163.9431
 20
-24.5346
 30
0.0
 10
-155.8281
 20
-21.3343
 30
0.0
 10
-155.4852
 20
-28.9921
 30
0.0
 10
-155.4852
 20
-28.9921
 30
0.0
 10
-155.4852
 20
-28.9921
 30
0.0
 10
-155.4852
 20
-28.9921
 30
0.0
 10
-154.9137
 20
-29.1636
 30
0.0
 10
-153.9994
 20
-27.7348
 30
0.0
 10
-153.9994
 20
-27.7348
 30
0.0
 10
-152.7421
 20
-24.9918
 30
0.0
 10
-155.3709
 20
-22.363
 30
0.0
 10
-155.3709
 20
-22.363
 30
0.0
 10
-155.3709
 20
-22.363
 30
0.0
 10
-159.7142
 20
-18.8198
 30
0.0
 10
-162.9144
 20
-19.6198
 30
0.0
 10
-167.372
 20
-22.1344
 30
0.0
 10
-167.372
 20
-22.1344
 30
0.0
 10
-171.8295
 20
-24.6489
 30
0.0
 10
-169.6579
 20
-33.1068
 30
0.0
 10
-169.6579
 20
-33.1068
 30
0.0
  0
SPLINE
  5
AF
330
1F
100
AcDbEntity
  8
layer 1
 62
   250
100
AcDbSpline
210
0.0
220
0.0
230
1.0
 70
    11
 71
     3
 72
    24
 73
    20
 74
     0
 42
0.0000000001
 43
0.0000000001
 12
1.0
 22
0.0
 32
0.0
 13
1.0
 23
0.0
 33
0.0
 40
0.0
 40
0.0
 40
0.0
 40
0.0
 40
0.1666666666666667
 40
0.1666666666666667
 40
0.1666666666666667
 40
0.1666666666666667
 40
0.3333333333333333
 40
0.3333333333333333
 40
0.3333333333333333
 40
0.3333333333333333
 40
0.5
 40
0.5
 40
0.5
 40
0.5
 40
0.6666666666666666
 40
0.6666666666666666
 40
0.6666666666666666
 40
0.6666666666666666
 40
1.0
 40
1.0
 40
1.0
 40
1.0
 10
-160.5714
 20
-36.4214
 30
0.0
 10
-163.6574
 20
-35.507
 30
0.0
 10
-166.1719
 20
-31.3352
 30
0.0
 10
-166.1719
 20
-31.3352
 30
0.0
 10
-166.1719
 20
-31.3352
 30
0.0
 10
-166.1719
 20
-31.3352
 30
0.0
 10
-166.4005
 20
-31.278
 30
0.0
 10
-166.4005
 20
-31.278
 30
0.0
 10
-166.4005
 20
-31.278
 30
0.0
 10
-166.4005
 20
-31.278
 30
0.0
 10
-168.4578
 20
-34.3069
 30
0.0
 10
-168.4578
 20
-34.5355
 30
0.0
 10
-168.4578
 20
-34.5355
 30
0.0
 10
-168.4578
 20
-34.7641
 30
0.0
 10
-166.4005
 20
-41.1075
 30
0.0
 10
-164.5146
 20
-42.7648
 30
0.0
 10
-164.5146
 20
-42.7648
 30
0.0
 10
-165.6004
 20
-39.5073
 30
0.0
 10
-163.1431
 20
-36.9357
 30
0.0
 10
-160.5714
 20
-36.4214
 30
0.0
  0
SPLINE
  5
B0
330
1F
100
AcDbEntity
  8
layer 1
 62
   250
100
AcDbSpline
210
0.0
220
0.0
230
1.0
 70
    11
 71
     3
 72
    20
 73
    16
 74
     0
 42
0.0000000001
 43
0.0000000001
 12
1.0
 22
0.0
 32
0.0
 13
1.0
 23
0.0
 33
0.0
 40
0.0
 40
0.0
 40
0.0
 40
0.0
 40
0.2
 40
0.2
 40
0.2
 40
0.2
 40
0.4
 40
0.4
 40
0.4
 40
0.4
 40
0.6
 40
0.6
 40
0.6
 40
0.6
 40
1.0
 40
1.0
 40
1.0
 40
1.0
 10
-150.6848
 20
-16.6482
 30
0.0
 10
-150.6848
 20
-16.6482
 30
0.0
 10
-147.3702
 20
-19.7342
 30
0.0
 10
-147.1416
 20
-23.5059
 30
0.0
 10
-147.1416
 20
-23.5059
 30
0.0
 10
-147.1416
 20
-23.5059
 30
0.0
 10
-140.741
 20
-19.5055
 30
0.0
 10
-142.9126
 20
-13.4479
 30
0.0
 10
-142.9126
 20
-13.4479
 30
0.0
 10
-142.9126
 20
-13.4479
 30
0.0
 10
-143.5984
 20
-10.2476
 30
0.0
 10
-148.056
 20
-9.4475
 30
0.0
 10
-148.056
 20
-9.4475
 30
0.0
 10
-148.056
 20
-9.4475
 30
0.0
 10
-143.827
 20
-15.2766
 30
0.0
 10
-150.6848
 20
-16.6482
 30
0.0
  0
SPLINE
  5
B1
330
1F
100
AcDbEntity
  8
layer 1
 62
   250
100
AcDbSpline
210
0.0
220
0.0
230
1.0
 70
    11
 71
     3
 72
    24
 73
    20
 74
     0
 42
0.0000000001
 43
0.0000000001
 12
1.0
 22
0.0
 32
0.0
 13
1.0
 23
0.0
 33
0.0
 40
0.0
 40
0.0
 40
0.0
 40
0.0
 40
0.1666666666666667
 40
0.1666666666666667
 40
0.1666666666666667
 40
0.1666666666666667
 40
0.3333333333333333
 40
0.3333333333333333
 40
0.3333333333333333
 40
0.3333333333333333
 40
0.5
 40
0.5
 40
0.5
 40
0.5
 40
0.6666666666666666
 40
0.6666666666666666
 40
0.6666666666666666
 40
0.6666666666666666
 40
1.0
 40
1.0
 40
1.0
 40
1.0
 10
-150.1133
 20
-38.4787
 30
0.0
 10
-149.0846
 20
-39.7359
 30
0.0
 10
-152.0563
 20
-32.421
 30
0.0
 10
-140.6267
 20
-27.2777
 30
0.0
 10
-140.6267
 20
-27.2777
 30
0.0
 10
-134.9119
 20
-22.1344
 30
0.0
 10
-138.8027
 20
-16.565
 30
0.0
 10
-139.0266
 20
-17.5625
 30
0.0
 10
-139.0266
 20
-17.5625
 30
0.0
 10
-140.2838
 20
-23.163
 30
0.0
 10
-146.7987
 20
-25.3346
 30
0.0
 10
-146.7987
 20
-25.3346
 30
0.0
 10
-146.7987
 20
-25.3346
 30
0.0
 10
-146.7987
 20
-25.3346
 30
0.0
 10
-146.913
 20
-33.4497
 30
0.0
 10
-154.7994
 20
-35.7356
 30
0.0
 10
-154.7994
 20
-35.7356
 30
0.0
 10
-154.7994
 20
-35.7356
 30
0.0
 10
-151.142
 20
-37.2214
 30
0.0
 10
-150.1133
 20
-38.4787
 30
0.0
  0
SPLINE
  5
B2
330
1F
100
AcDbEntity
  8
layer 1
 62
   250
100
AcDbSpline
210
0.0
220
0.0
230
1.0
 70
    11
 71
     3
 72
    20
 73
    16
 74
     0
 42
0.0000000001
 43
0.0000000001
 12
1.0
 22
0.0
 32
0.0
 13
1.0
 23
0.0
 33
0.0
 40
0.0
 40
0.0
 40
0.0
 40
0.0
 40
0.2
 40
0.2
 40
0.2
 40
0.2
 40
0.4
 40
0.4
 40
0.4
 40
0.4
 40
0.6
 40
0.6
 40
0.6
 40
0.6
 40
1.0
 40
1.0
 40
1.0
 40
1.0
 10
-129.1971
 20
-26.1347
 30
0.0
 10
-129.1971
 20
-26.1347
 30
0.0
 10
-134.2261
 20
-23.5059
 30
0.0
 10
-135.4834
 20
-21.5629
 30
0.0
 10
-135.4834
 20
-21.5629
 30
0.0
 10
-135.4834
 20
-21.5629
 30
0.0
 10
-135.0262
 20
-24.6489
 30
0.0
 10
-136.0549
 20
-26.0204
 30
0.0
 10
-136.0549
 20
-26.0204
 30
0.0
 10
-136.0549
 20
-26.0204
 30
0.0
 10
-130.683
 20
-26.3633
 30
0.0
 10
-128.6256
 20
-28.192
 30
0.0
 10
-128.6256
 20
-28.192
 30
0.0
 10
-128.6256
 20
-28.192
 30
0.0
 10
-128.9685
 20
-27.2777
 30
0.0
 10
-129.1971
 20
-26.1347
 30
0.0
  0
SPLINE
  5
B3
330
1F
100
AcDbEntity
  8
layer 1
 62
   250
100
AcDbSpline
210
0.0
220
0.0
230
1.0
 70
    11
 71
     3
 72
    32
 73
    28
 74
     0
 42
0.0000000001
 43
0.0000000001
 12
1.0
 22
0.0
 32
0.0
 13
1.0
 23
0.0
 33
0.0
 40
0.0
 40
0.0
 40
0.0
 40
0.0
 40
0.125
 40
0.125
 40
0.125
 40
0.125
 40
0.25
 40
0.25
 40
0.25
 40
0.25
 40
0.375
 40
0.375
 40
0.375
 40
0.375
 40
0.5
 40
0.5
 40
0.5
 40
0.5
 40
0.625
 40
0.625
 40
0.625
 40
0.625
 40
0.75
 40
0.75
 40
0.75
 40
0.75
 40
1.0
 40
1.0
 40
1.0
 40
1.0
 10
-126.9112
 20
-34.9355
 30
0.0
 10
-128.6256
 20
-29.4493
 30
0.0
 10
-135.0262
 20
-28.9921
 30
0.0
 10
-135.0262
 20
-28.9921
 30
0.0
 10
-135.0262
 20
-28.9921
 30
0.0
 10
-135.0262
 20
-28.9921
 30
0.0
 10
-141.884
 20
-27.7348
 30
0.0
 10
-144.8557
 20
-34.364
 30
0.0
 10
-144.8557
 20
-34.364
 30
0.0
 10
-144.8557
 20
-34.364
 30
0.0
 10
-137.1978
 20
-28.4206
 30
0.0
 10
-130.9116
 20
-34.9355
 30
0.0
 10
-130.9116
 20
-34.9355
 30
0.0
 10
-128.0542
 20
-40.8789
 30
0.0
 10
-135.0262
 20
-42.8219
 30
0.0
 10
-135.0262
 20
-42.8219
 30
0.0
 10
-135.0262
 20
-42.8219
 30
0.0
 10
-135.0262
 20
-42.8219
 30
0.0
 10
-136.0549
 20
-43.5077
 30
0.0
 10
-137.5407
 20
-42.2505
 30
0.0
 10
-137.5407
 20
-42.2505
 30
0.0
 10
-137.5407
 20
-42.2505
 30
0.0
 10
-136.8549
 20
-44.6507
 30
0.0
 10
-133.1975
 20
-44.1935
 30
0.0
 10
-133.1975
 20
-44.1935
 30
0.0
 10
-129.54
 20
-43.7363
 30
0.0
 10
-125.1967
 20
-40.4217
 30
0.0
 10
-126.9112
 20
-34.9355
 30
0.0
  0
SPLINE
  5
B4
330
1F
100
AcDbEntity
  8
layer 1
 62
   250
100
AcDbSpline
210
0.0
220
0.0
230
1.0
 70
    11
 71
     3
 72
    20
 73
    16
 74
     0
 42
0.0000000001
 43
0.0000000001
 12
1.0
 22
0.0
 32
0.0
 13
1.0
 23
0.0
 33
0.0
 40
0.0
 40
0.0
 40
0.0
 40
0.0
 40
0.2
 40
0.2
 40
0.2
 40
0.2
 40
0.4
 40
0.4
 40
0.4
 40
0.4
 40
0.6
 40
0.6
 40
0.6
 40
0.6
 40
1.0
 40
1.0
 40
1.0
 40
1.0
 10
-133.1975
 20
-38.0215
 30
0.0
 10
-133.1975
 20
-36.4434
 30
0.0
 10
-134.4768
 20
-35.1641
 30
0.0
 10
-136.0549
 20
-35.1641
 30
0.0
 10
-136.0549
 20
-35.1641
 30
0.0
 10
-137.633
 20
-35.1641
 30
0.0
 10
-138.9123
 20
-36.4434
 30
0.0
 10
-138.9123
 20
-38.0215
 30
0.0
 10
-138.9123
 20
-38.0215
 30
0.0
 10
-138.9123
 20
-39.5996
 30
0.0
 10
-137.633
 20
-40.8789
 30
0.0
 10
-136.0549
 20
-40.8789
 30
0.0
 10
-136.0549
 20
-40.8789
 30
0.0
 10
-134.4768
 20
-40.8789
 30
0.0
 10
-133.1975
 20
-39.5996
 30
0.0
 10
-133.1975
 20
-38.0215
 30
0.0
  0
SPLINE
  5
B5
330
1F
100
AcDbEntity
  8
layer 1
 62
   250
100
AcDbSpline
210
0.0
220
0.0
230
1.0
 70
    11
 71
     3
 72
    20
 73
    16
 74
     0
 42
0.0000000001
 43
0.0000000001
 12
1.0
 22
0.0
 32
0.0
 13
1.0
 23
0.0
 33
0.0
 40
0.0
 40
0.0
 40
0.0
 40
0.0
 40
0.2
 40
0.2
 40
0.2
 40
0.2
 40
0.4
 40
0.4
 40
0.4
 40
0.4
 40
0.6
 40
0.6
 40
0.6
 40
0.6
 40
1.0
 40
1.0
 40
1.0
 40
1.0
 10
-131.483
 20
-46.708
 30
0.0
 10
-138.6837
 20
-48.3081
 30
0.0
 10
-141.4268
 20
-41.9076
 30
0.0
 10
-141.4268
 20
-41.9076
 30
0.0
 10
-141.4268
 20
-41.9076
 30
0.0
 10
-141.3125
 20
-51.8513
 30
0.0
 10
-130.4544
 20
-58.4805
 30
0.0
 10
-130.4544
 20
-58.4805
 30
0.0
 10
-130.4544
 20
-58.4805
 30
0.0
 10
-131.8259
 20
-52.3085
 30
0.0
 10
-128.9685
 20
-48.5367
 30
0.0
 10
-128.9685
 20
-48.5367
 30
0.0
 10
-128.9685
 20
-48.5367
 30
0.0
 10
-129.6543
 20
-48.5367
 30
0.0
 10
-131.483
 20
-46.708
 30
0.0
 10
-131.483
 20
-46.708
 30
0.0
  0
SPLINE
  5
B6
330
1F
100
AcDbEntity
  8
layer 1
 62
   250
100
AcDbSpline
210
0.0
220
0.0
230
1.0
 70
    11
 71
     3
 72
    28
 73
    24
 74
     0
 42
0.0000000001
 43
0.0000000001
 12
1.0
 22
0.0
 32
0.0
 13
1.0
 23
0.0
 33
0.0
 40
0.0
 40
0.0
 40
0.0
 40
0.0
 40
0.1428571428571428
 40
0.1428571428571428
 40
0.1428571428571428
 40
0.1428571428571428
 40
0.2857142857142857
 40
0.2857142857142857
 40
0.2857142857142857
 40
0.2857142857142857
 40
0.4285714285714285
 40
0.4285714285714285
 40
0.4285714285714285
 40
0.4285714285714285
 40
0.5714285714285714
 40
0.5714285714285714
 40
0.5714285714285714
 40
0.5714285714285714
 40
0.7142857142857143
 40
0.7142857142857143
 40
0.7142857142857143
 40
0.7142857142857143
 40
1.0
 40
1.0
 40
1.0
 40
1.0
 10
-119.9391
 20
-75.9678
 30
0.0
 10
-120.8535
 20
-72.8818
 30
0.0
 10
-120.282
 20
-70.0244
 30
0.0
 10
-135.712
 20
-57.6804
 30
0.0
 10
-135.712
 20
-57.6804
 30
0.0
 10
-150.7991
 20
-46.1365
 30
0.0
 10
-140.8553
 20
-34.9355
 30
0.0
 10
-140.8553
 20
-34.9355
 30
0.0
 10
-140.8553
 20
-34.9355
 30
0.0
 10
-156.6282
 20
-39.393
 30
0.0
 10
-144.2842
 20
-55.2802
 30
0.0
 10
-140.741
 20
-58.1376
 30
0.0
 10
-140.741
 20
-58.1376
 30
0.0
 10
-138.212
 20
-60.1771
 30
0.0
 10
-127.8256
 20
-66.0241
 30
0.0
 10
-124.3967
 20
-72.4246
 30
0.0
 10
-124.3967
 20
-72.4246
 30
0.0
 10
-120.9678
 20
-78.8252
 30
0.0
 10
-123.368
 20
-86.9402
 30
0.0
 10
-123.368
 20
-86.9402
 30
0.0
 10
-123.368
 20
-86.9402
 30
0.0
 10
-118.9105
 20
-84.1971
 30
0.0
 10
-119.9391
 20
-75.9678
 30
0.0
 10
-119.9391
 20
-75.9678
 30
0.0
  0
SPLINE
  5
B7
330
1F
100
AcDbEntity
  8
layer 1
 62
   250
100
AcDbSpline
210
0.0
220
0.0
230
1.0
 70
    11
 71
     3
 72
    20
 73
    16
 74
     0
 42
0.0000000001
 43
0.0000000001
 12
1.0
 22
0.0
 32
0.0
 13
1.0
 23
0.0
 33
0.0
 40
0.0
 40
0.0
 40
0.0
 40
0.0
 40
0.2
 40
0.2
 40
0.2
 40
0.2
 40
0.4
 40
0.4
 40
0.4
 40
0.4
 40
0.6
 40
0.6
 40
0.6
 40
0.6
 40
1.0
 40
1.0
 40
1.0
 40
1.0
 10
-126.454
 20
-46.8223
 30
0.0
 10
-126.454
 20
-46.8223
 30
0.0
 10
-121.1964
 20
-43.2791
 30
0.0
 10
-115.0244
 20
-46.4794
 30
0.0
 10
-115.0244
 20
-46.4794
 30
0.0
 10
-115.5959
 20
-43.2791
 30
0.0
 10
-121.8822
 20
-40.9932
 30
0.0
 10
-124.1681
 20
-37.1071
 30
0.0
 10
-124.1681
 20
-37.1071
 30
0.0
 10
-124.1681
 20
-37.1071
 30
0.0
 10
-124.1681
 20
-43.3934
 30
0.0
 10
-128.2827
 20
-44.9936
 30
0.0
 10
-128.2827
 20
-44.9936
 30
0.0
 10
-128.2827
 20
-44.9936
 30
0.0
 10
-127.4827
 20
-46.2508
 30
0.0
 10
-126.454
 20
-46.8223
 30
0.0
  0
SPLINE
  5
B8
330
1F
100
AcDbEntity
  8
layer 1
 62
   250
100
AcDbSpline
210
0.0
220
0.0
230
1.0
 70
    11
 71
     3
 72
    40
 73
    36
 74
     0
 42
0.0000000001
 43
0.0000000001
 12
1.0
 22
0.0
 32
0.0
 13
1.0
 23
0.0
 33
0.0
 40
0.0
 40
0.0
 40
0.0
 40
0.0
 40
0.1
 40
0.1
 40
0.1
 40
0.1
 40
0.2
 40
0.2
 40
0.2
 40
0.2
 40
0.3
 40
0.3
 40
0.3
 40
0.3
 40
0.4
 40
0.4
 40
0.4
 40
0.4
 40
0.5
 40
0.5
 40
0.5
 40
0.5
 40
0.6
 40
0.6
 40
0.6
 40
0.6
 40
0.7
 40
0.7
 40
0.7
 40
0.7
 40
0.8
 40
0.8
 40
0.8
 40
0.8
 40
1.0
 40
1.0
 40
1.0
 40
1.0
 10
-112.4241
 20
-65.1382
 30
0.0
 10
-113.6243
 20
-60.7664
 30
0.0
 10
-114.7958
 20
-60.3092
 30
0.0
 10
-114.7958
 20
-60.3092
 30
0.0
 10
-114.7958
 20
-60.3092
 30
0.0
 10
-114.7958
 20
-60.3092
 30
0.0
 10
-122.225
 20
-61.3379
 30
0.0
 10
-122.1107
 20
-55.1659
 30
0.0
 10
-122.1107
 20
-55.1659
 30
0.0
 10
-122.1107
 20
-55.1659
 30
0.0
 10
-122.1107
 20
-50.0226
 30
0.0
 10
-117.1961
 20
-51.6227
 30
0.0
 10
-117.1961
 20
-51.6227
 30
0.0
 10
-115.9388
 20
-52.0799
 30
0.0
 10
-116.7389
 20
-50.8226
 30
0.0
 10
-116.7389
 20
-50.8226
 30
0.0
 10
-116.7389
 20
-50.8226
 30
0.0
 10
-116.7389
 20
-50.8226
 30
0.0
 10
-121.0821
 20
-47.9653
 30
0.0
 10
-124.1681
 20
-52.1942
 30
0.0
 10
-124.1681
 20
-52.1942
 30
0.0
 10
-127.2541
 20
-56.4232
 30
0.0
 10
-120.0534
 20
-62.138
 30
0.0
 10
-119.3677
 20
-63.2809
 30
0.0
 10
-119.3677
 20
-63.2809
 30
0.0
 10
-118.6819
 20
-64.4239
 30
0.0
 10
-116.396
 20
-66.7098
 30
0.0
 10
-114.9101
 20
-70.7102
 30
0.0
 10
-114.9101
 20
-70.7102
 30
0.0
 10
-114.9101
 20
-70.7102
 30
0.0
 10
-114.5672
 20
-71.5674
 30
0.0
 10
-114.8244
 20
-72.5103
 30
0.0
 10
-114.8244
 20
-72.5103
 30
0.0
 10
-115.0815
 20
-73.4533
 30
0.0
 10
-111.224
 20
-70.7102
 30
0.0
 10
-112.4241
 20
-65.1382
 30
0.0
  0
SPLINE
  5
B9
330
1F
100
AcDbEntity
  8
layer 1
 62
   250
100
AcDbSpline
210
0.0
220
0.0
230
1.0
 70
    11
 71
     3
 72
    28
 73
    24
 74
     0
 42
0.0000000001
 43
0.0000000001
 12
1.0
 22
0.0
 32
0.0
 13
1.0
 23
0.0
 33
0.0
 40
0.0
 40
0.0
 40
0.0
 40
0.0
 40
0.1428571428571428
 40
0.1428571428571428
 40
0.1428571428571428
 40
0.1428571428571428
 40
0.2857142857142857
 40
0.2857142857142857
 40
0.2857142857142857
 40
0.2857142857142857
 40
0.4285714285714285
 40
0.4285714285714285
 40
0.4285714285714285
 40
0.4285714285714285
 40
0.5714285714285714
 40
0.5714285714285714
 40
0.5714285714285714
 40
0.5714285714285714
 40
0.7142857142857143
 40
0.7142857142857143
 40
0.7142857142857143
 40
0.7142857142857143
 40
1.0
 40
1.0
 40
1.0
 40
1.0
 10
-145.6557
 20
-64.9954
 30
0.0
 10
-146.7987
 20
-65.9097
 30
0.0
 10
-144.97
 20
-65.5668
 30
0.0
 10
-144.97
 20
-65.5668
 30
0.0
 10
-144.97
 20
-65.5668
 30
0.0
 10
-144.97
 20
-65.5668
 30
0.0
 10
-142.4555
 20
-63.6238
 30
0.0
 10
-136.6264
 20
-64.081
 30
0.0
 10
-136.6264
 20
-64.081
 30
0.0
 10
-141.4268
 20
-61.6807
 30
0.0
 10
-146.3415
 20
-57.6804
 30
0.0
 10
-149.0846
 20
-52.6514
 30
0.0
 10
-149.0846
 20
-52.6514
 30
0.0
 10
-149.0846
 20
-52.6514
 30
0.0
 10
-151.5991
 20
-56.7661
 30
0.0
 10
-152.3992
 20
-57.5661
 30
0.0
 10
-152.3992
 20
-57.5661
 30
0.0
 10
-152.3992
 20
-57.5661
 30
0.0
 10
-147.3702
 20
-56.9947
 30
0.0
 10
-145.77
 20
-59.3949
 30
0.0
 10
-145.77
 20
-59.3949
 30
0.0
 10
-144.1699
 20
-61.7951
 30
0.0
 10
-144.5128
 20
-64.081
 30
0.0
 10
-145.6557
 20
-64.9954
 30
0.0
  0
SPLINE
  5
BA
330
1F
100
AcDbEntity
  8
layer 1
 62
   250
100
AcDbSpline
210
0.0
220
0.0
230
1.0
 70
    11
 71
     3
 72
    32
 73
    28
 74
     0
 42
0.0000000001
 43
0.0000000001
 12
1.0
 22
0.0
 32
0.0
 13
1.0
 23
0.0
 33
0.0
 40
0.0
 40
0.0
 40
0.0
 40
0.0
 40
0.125
 40
0.125
 40
0.125
 40
0.125
 40
0.25
 40
0.25
 40
0.25
 40
0.25
 40
0.375
 40
0.375
 40
0.375
 40
0.375
 40
0.5
 40
0.5
 40
0.5
 40
0.5
 40
0.625
 40
0.625
 40
0.625
 40
0.625
 40
0.75
 40
0.75
 40
0.75
 40
0.75
 40
1.0
 40
1.0
 40
1.0
 40
1.0
 10
-151.4849
 20
-48.1938
 30
0.0
 10
-149.5418
 20
-40.7646
 30
0.0
 10
-156.5138
 20
-38.1358
 30
0.0
 10
-159.0284
 20
-39.8502
 30
0.0
 10
-159.0284
 20
-39.8502
 30
0.0
 10
-160.0571
 20
-40.0788
 30
0.0
 10
-159.257
 20
-40.6503
 30
0.0
 10
-159.257
 20
-40.6503
 30
0.0
 10
-159.257
 20
-40.6503
 30
0.0
 10
-159.257
 20
-40.6503
 30
0.0
 10
-155.1423
 20
-39.9645
 30
0.0
 10
-155.2566
 20
-44.6507
 30
0.0
 10
-155.2566
 20
-44.6507
 30
0.0
 10
-156.7424
 20
-48.8796
 30
0.0
 10
-161.8858
 20
-46.8223
 30
0.0
 10
-161.8858
 20
-46.8223
 30
0.0
 10
-161.8858
 20
-46.8223
 30
0.0
 10
-161.8858
 20
-46.8223
 30
0.0
 10
-163.3716
 20
-45.9079
 30
0.0
 10
-162.9144
 20
-47.0509
 30
0.0
 10
-162.9144
 20
-47.0509
 30
0.0
 10
-162.9144
 20
-47.0509
 30
0.0
 10
-157.4282
 20
-51.2799
 30
0.0
 10
-158.4569
 20
-58.8234
 30
0.0
 10
-158.4569
 20
-58.8234
 30
0.0
 10
-158.4569
 20
-58.8234
 30
0.0
 10
-153.4279
 20
-55.6231
 30
0.0
 10
-151.4849
 20
-48.1938
 30
0.0
  0
SPLINE
  5
BB
330
1F
100
AcDbEntity
  8
layer 1
 62
   250
100
AcDbSpline
210
0.0
220
0.0
230
1.0
 70
    11
 71
     3
 72
    20
 73
    16
 74
     0
 42
0.0000000001
 43
0.0000000001
 12
1.0
 22
0.0
 32
0.0
 13
1.0
 23
0.0
 33
0.0
 40
0.0
 40
0.0
 40
0.0
 40
0.0
 40
0.2
 40
0.2
 40
0.2
 40
0.2
 40
0.4
 40
0.4
 40
0.4
 40
0.4
 40
0.6
 40
0.6
 40
0.6
 40
0.6
 40
1.0
 40
1.0
 40
1.0
 40
1.0
 10
-169.5436
 20
-58.2519
 30
0.0
 10
-167.9435
 20
-60.3092
 30
0.0
 10
-166.3433
 20
-60.8807
 30
0.0
 10
-166.229
 20
-68.0814
 30
0.0
 10
-166.229
 20
-68.0814
 30
0.0
 10
-166.229
 20
-68.0814
 30
0.0
 10
-162.1144
 20
-65.224
 30
0.0
 10
-164.0574
 20
-57.109
 30
0.0
 10
-164.0574
 20
-57.109
 30
0.0
 10
-166.0004
 20
-48.9939
 30
0.0
 10
-166.8005
 20
-51.1655
 30
0.0
 10
-166.8005
 20
-51.1655
 30
0.0
 10
-166.8005
 20
-51.1655
 30
0.0
 10
-166.8005
 20
-51.1655
 30
0.0
 10
-166.1147
 20
-56.5375
 30
0.0
 10
-169.5436
 20
-58.2519
 30
0.0
  0
SPLINE
  5
BC
330
1F
100
AcDbEntity
  8
layer 1
 62
   250
100
AcDbSpline
210
0.0
220
0.0
230
1.0
 70
    11
 71
     3
 72
    16
 73
    12
 74
     0
 42
0.0000000001
 43
0.0000000001
 12
1.0
 22
0.0
 32
0.0
 13
1.0
 23
0.0
 33
0.0
 40
0.0
 40
0.0
 40
0.0
 40
0.0
 40
0.25
 40
0.25
 40
0.25
 40
0.25
 40
0.5
 40
0.5
 40
0.5
 40
0.5
 40
1.0
 40
1.0
 40
1.0
 40
1.0
 10
-183.1448
 20
-34.9355
 30
0.0
 10
-183.4115
 20
-34.0824
 30
0.0
 10
-183.8
 20
-33.3635
 30
0.0
 10
-184.2516
 20
-32.7364
 30
0.0
 10
-184.2516
 20
-32.7364
 30
0.0
 10
-184.2516
 20
-32.7364
 30
0.0
 10
-184.2516
 20
-41.4212
 30
0.0
 10
-184.2516
 20
-41.4212
 30
0.0
 10
-184.2516
 20
-41.4212
 30
0.0
 10
-182.9386
 20
-39.8515
 30
0.0
 10
-182.2927
 20
-37.6624
 30
0.0
 10
-183.1448
 20
-34.9355
 30
0.0
  0
SPLINE
  5
BD
330
1F
100
AcDbEntity
  8
layer 1
 62
   250
100
AcDbSpline
210
0.0
220
0.0
230
1.0
 70
    11
 71
     3
 72
    24
 73
    20
 74
     0
 42
0.0000000001
 43
0.0000000001
 12
1.0
 22
0.0
 32
0.0
 13
1.0
 23
0.0
 33
0.0
 40
0.0
 40
0.0
 40
0.0
 40
0.0
 40
0.1666666666666667
 40
0.1666666666666667
 40
0.1666666666666667
 40
0.1666666666666667
 40
0.3333333333333333
 40
0.3333333333333333
 40
0.3333333333333333
 40
0.3333333333333333
 40
0.5
 40
0.5
 40
0.5
 40
0.5
 40
0.6666666666666666
 40
0.6666666666666666
 40
0.6666666666666666
 40
0.6666666666666666
 40
1.0
 40
1.0
 40
1.0
 40
1.0
 10
-179.6017
 20
-86.9402
 30
0.0
 10
-175.1441
 20
-84.1971
 30
0.0
 10
-176.1728
 20
-75.9678
 30
0.0
 10
-176.1728
 20
-75.9678
 30
0.0
 10
-176.1728
 20
-75.9678
 30
0.0
 10
-176.8972
 20
-73.523
 30
0.0
 10
-176.6973
 20
-71.2167
 30
0.0
 10
-184.2516
 20
-64.2282
 30
0.0
 10
-184.2516
 20
-64.2282
 30
0.0
 10
-184.2516
 20
-64.2282
 30
0.0
 10
-184.2516
 20
-67.8027
 30
0.0
 10
-184.2516
 20
-67.8027
 30
0.0
 10
-184.2516
 20
-67.8027
 30
0.0
 10
-182.7663
 20
-69.2758
 30
0.0
 10
-181.483
 20
-70.833
 30
0.0
 10
-180.6303
 20
-72.4246
 30
0.0
 10
-180.6303
 20
-72.4246
 30
0.0
 10
-177.2014
 20
-78.8252
 30
0.0
 10
-179.6017
 20
-86.9402
 30
0.0
 10
-179.6017
 20
-86.9402
 30
0.0
  0
SPLINE
  5
BE
330
1F
100
AcDbEntity
  8
layer 1
 62
   250
100
AcDbSpline
210
0.0
220
0.0
230
1.0
 70
    11
 71
     3
 72
    24
 73
    20
 74
     0
 42
0.0000000001
 43
0.0000000001
 12
1.0
 22
0.0
 32
0.0
 13
1.0
 23
0.0
 33
0.0
 40
0.0
 40
0.0
 40
0.0
 40
0.0
 40
0.1666666666666667
 40
0.1666666666666667
 40
0.1666666666666667
 40
0.1666666666666667
 40
0.3333333333333333
 40
0.3333333333333333
 40
0.3333333333333333
 40
0.3333333333333333
 40
0.5
 40
0.5
 40
0.5
 40
0.5
 40
0.6666666666666666
 40
0.6666666666666666
 40
0.6666666666666666
 40
0.6666666666666666
 40
1.0
 40
1.0
 40
1.0
 40
1.0
 10
-182.6877
 20
-46.8223
 30
0.0
 10
-182.6877
 20
-46.8223
 30
0.0
 10
-177.43
 20
-43.2791
 30
0.0
 10
-171.258
 20
-46.4794
 30
0.0
 10
-171.258
 20
-46.4794
 30
0.0
 10
-171.8295
 20
-43.2791
 30
0.0
 10
-178.1158
 20
-40.9932
 30
0.0
 10
-180.4017
 20
-37.1071
 30
0.0
 10
-180.4017
 20
-37.1071
 30
0.0
 10
-180.4017
 20
-37.1071
 30
0.0
 10
-180.4126
 20
-43.0975
 30
0.0
 10
-184.2516
 20
-44.8648
 30
0.0
 10
-184.2516
 20
-44.8648
 30
0.0
 10
-184.2516
 20
-44.8648
 30
0.0
 10
-184.2516
 20
-45.3645
 30
0.0
 10
-184.2516
 20
-45.3645
 30
0.0
 10
-184.2516
 20
-45.3645
 30
0.0
 10
-183.9352
 20
-45.7809
 30
0.0
 10
-183.3635
 20
-46.4468
 30
0.0
 10
-182.6877
 20
-46.8223
 30
0.0
  0
SPLINE
  5
BF
330
1F
100
AcDbEntity
  8
layer 1
 62
   250
100
AcDbSpline
210
0.0
220
0.0
230
1.0
 70
    11
 71
     3
 72
    40
 73
    36
 74
     0
 42
0.0000000001
 43
0.0000000001
 12
1.0
 22
0.0
 32
0.0
 13
1.0
 23
0.0
 33
0.0
 40
0.0
 40
0.0
 40
0.0
 40
0.0
 40
0.1
 40
0.1
 40
0.1
 40
0.1
 40
0.2
 40
0.2
 40
0.2
 40
0.2
 40
0.3
 40
0.3
 40
0.3
 40
0.3
 40
0.4
 40
0.4
 40
0.4
 40
0.4
 40
0.5
 40
0.5
 40
0.5
 40
0.5
 40
0.6
 40
0.6
 40
0.6
 40
0.6
 40
0.7
 40
0.7
 40
0.7
 40
0.7
 40
0.8
 40
0.8
 40
0.8
 40
0.8
 40
1.0
 40
1.0
 40
1.0
 40
1.0
 10
-171.058
 20
-72.5103
 30
0.0
 10
-171.3152
 20
-73.4533
 30
0.0
 10
-167.4577
 20
-70.7102
 30
0.0
 10
-168.6578
 20
-65.1382
 30
0.0
 10
-168.6578
 20
-65.1382
 30
0.0
 10
-169.8579
 20
-60.7664
 30
0.0
 10
-171.0295
 20
-60.3092
 30
0.0
 10
-171.0295
 20
-60.3092
 30
0.0
 10
-171.0295
 20
-60.3092
 30
0.0
 10
-171.0295
 20
-60.3092
 30
0.0
 10
-178.4587
 20
-61.3379
 30
0.0
 10
-178.3444
 20
-55.1659
 30
0.0
 10
-178.3444
 20
-55.1659
 30
0.0
 10
-178.3444
 20
-55.1659
 30
0.0
 10
-178.3444
 20
-50.0226
 30
0.0
 10
-173.4297
 20
-51.6227
 30
0.0
 10
-173.4297
 20
-51.6227
 30
0.0
 10
-172.1724
 20
-52.0799
 30
0.0
 10
-172.9725
 20
-50.8226
 30
0.0
 10
-172.9725
 20
-50.8226
 30
0.0
 10
-172.9725
 20
-50.8226
 30
0.0
 10
-172.9725
 20
-50.8226
 30
0.0
 10
-177.3157
 20
-47.9653
 30
0.0
 10
-180.4017
 20
-52.1942
 30
0.0
 10
-180.4017
 20
-52.1942
 30
0.0
 10
-183.4877
 20
-56.4232
 30
0.0
 10
-176.2871
 20
-62.138
 30
0.0
 10
-175.6013
 20
-63.2809
 30
0.0
 10
-175.6013
 20
-63.2809
 30
0.0
 10
-174.9155
 20
-64.4239
 30
0.0
 10
-172.6296
 20
-66.7098
 30
0.0
 10
-171.1437
 20
-70.7102
 30
0.0
 10
-171.1437
 20
-70.7102
 30
0.0
 10
-171.1437
 20
-70.7102
 30
0.0
 10
-170.8008
 20
-71.5674
 30
0.0
 10
-171.058
 20
-72.5103
 30
0.0
  0
SPLINE
  5
C0
330
1F
100
AcDbEntity
  8
layer 1
 62
   250
100
AcDbSpline
210
0.0
220
0.0
230
1.0
 70
    11
 71
     3
 72
    32
 73
    28
 74
     0
 42
0.0000000001
 43
0.0000000001
 12
1.0
 22
0.0
 32
0.0
 13
1.0
 23
0.0
 33
0.0
 40
0.0
 40
0.0
 40
0.0
 40
0.0
 40
0.125
 40
0.125
 40
0.125
 40
0.125
 40
0.25
 40
0.25
 40
0.25
 40
0.25
 40
0.375
 40
0.375
 40
0.375
 40
0.375
 40
0.5
 40
0.5
 40
0.5
 40
0.5
 40
0.625
 40
0.625
 40
0.625
 40
0.625
 40
0.75
 40
0.75
 40
0.75
 40
0.75
 40
1.0
 40
1.0
 40
1.0
 40
1.0
 10
-111.3669
 20
80.0463
 30
0.0
 10
-115.8245
 20
77.5318
 30
0.0
 10
-113.6528
 20
69.0738
 30
0.0
 10
-113.6528
 20
69.0738
 30
0.0
 10
-113.6528
 20
69.0738
 30
0.0
 10
-113.6528
 20
69.0738
 30
0.0
 10
-110.5668
 20
72.2742
 30
0.0
 10
-110.5668
 20
72.2742
 30
0.0
 10
-110.5668
 20
72.2742
 30
0.0
 10
-110.5668
 20
72.2742
 30
0.0
 10
-111.7098
 20
75.4745
 30
0.0
 10
-107.9381
 20
77.6461
 30
0.0
 10
-107.9381
 20
77.6461
 30
0.0
 10
-99.823
 20
80.8463
 30
0.0
 10
-99.4801
 20
73.1885
 30
0.0
 10
-99.4801
 20
73.1885
 30
0.0
 10
-99.4801
 20
73.1885
 30
0.0
 10
-99.4801
 20
73.1885
 30
0.0
 10
-98.9087
 20
73.0171
 30
0.0
 10
-97.9943
 20
74.4458
 30
0.0
 10
-97.9943
 20
74.4458
 30
0.0
 10
-96.737
 20
77.1889
 30
0.0
 10
-99.3659
 20
79.8177
 30
0.0
 10
-99.3659
 20
79.8177
 30
0.0
 10
-99.3659
 20
79.8177
 30
0.0
 10
-103.7091
 20
83.3609
 30
0.0
 10
-106.9094
 20
82.5608
 30
0.0
 10
-111.3669
 20
80.0463
 30
0.0
  0
SPLINE
  5
C1
330
1F
100
AcDbEntity
  8
layer 1
 62
   250
100
AcDbSpline
210
0.0
220
0.0
230
1.0
 70
    11
 71
     3
 72
    24
 73
    20
 74
     0
 42
0.0000000001
 43
0.0000000001
 12
1.0
 22
0.0
 32
0.0
 13
1.0
 23
0.0
 33
0.0
 40
0.0
 40
0.0
 40
0.0
 40
0.0
 40
0.1666666666666667
 40
0.1666666666666667
 40
0.1666666666666667
 40
0.1666666666666667
 40
0.3333333333333333
 40
0.3333333333333333
 40
0.3333333333333333
 40
0.3333333333333333
 40
0.5
 40
0.5
 40
0.5
 40
0.5
 40
0.6666666666666666
 40
0.6666666666666666
 40
0.6666666666666666
 40
0.6666666666666666
 40
1.0
 40
1.0
 40
1.0
 40
1.0
 10
-110.1668
 20
70.8455
 30
0.0
 10
-110.1668
 20
70.8455
 30
0.0
 10
-110.3954
 20
70.9026
 30
0.0
 10
-110.3954
 20
70.9026
 30
0.0
 10
-110.3954
 20
70.9026
 30
0.0
 10
-110.3954
 20
70.9026
 30
0.0
 10
-112.4527
 20
67.8737
 30
0.0
 10
-112.4527
 20
67.6451
 30
0.0
 10
-112.4527
 20
67.6451
 30
0.0
 10
-112.4527
 20
67.4166
 30
0.0
 10
-110.3954
 20
61.0732
 30
0.0
 10
-108.5095
 20
59.4158
 30
0.0
 10
-108.5095
 20
59.4158
 30
0.0
 10
-109.5953
 20
62.6733
 30
0.0
 10
-107.138
 20
65.245
 30
0.0
 10
-104.5663
 20
65.7593
 30
0.0
 10
-104.5663
 20
65.7593
 30
0.0
 10
-107.6523
 20
66.6736
 30
0.0
 10
-110.1668
 20
70.8455
 30
0.0
 10
-110.1668
 20
70.8455
 30
0.0
  0
SPLINE
  5
C2
330
1F
100
AcDbEntity
  8
layer 1
 62
   250
100
AcDbSpline
210
0.0
220
0.0
230
1.0
 70
    11
 71
     3
 72
    20
 73
    16
 74
     0
 42
0.0000000001
 43
0.0000000001
 12
1.0
 22
0.0
 32
0.0
 13
1.0
 23
0.0
 33
0.0
 40
0.0
 40
0.0
 40
0.0
 40
0.0
 40
0.2
 40
0.2
 40
0.2
 40
0.2
 40
0.4
 40
0.4
 40
0.4
 40
0.4
 40
0.6
 40
0.6
 40
0.6
 40
0.6
 40
1.0
 40
1.0
 40
1.0
 40
1.0
 10
-94.6797
 20
85.5325
 30
0.0
 10
-94.6797
 20
85.5325
 30
0.0
 10
-91.3651
 20
82.4465
 30
0.0
 10
-91.1366
 20
78.6747
 30
0.0
 10
-91.1366
 20
78.6747
 30
0.0
 10
-91.1366
 20
78.6747
 30
0.0
 10
-84.736
 20
82.6751
 30
0.0
 10
-86.9076
 20
88.7328
 30
0.0
 10
-86.9076
 20
88.7328
 30
0.0
 10
-86.9076
 20
88.7328
 30
0.0
 10
-87.5934
 20
91.9331
 30
0.0
 10
-92.0509
 20
92.7331
 30
0.0
 10
-92.0509
 20
92.7331
 30
0.0
 10
-92.0509
 20
92.7331
 30
0.0
 10
-87.8219
 20
86.904
 30
0.0
 10
-94.6797
 20
85.5325
 30
0.0
  0
SPLINE
  5
C3
330
1F
100
AcDbEntity
  8
layer 1
 62
   250
100
AcDbSpline
210
0.0
220
0.0
230
1.0
 70
    11
 71
     3
 72
    24
 73
    20
 74
     0
 42
0.0000000001
 43
0.0000000001
 12
1.0
 22
0.0
 32
0.0
 13
1.0
 23
0.0
 33
0.0
 40
0.0
 40
0.0
 40
0.0
 40
0.0
 40
0.1666666666666667
 40
0.1666666666666667
 40
0.1666666666666667
 40
0.1666666666666667
 40
0.3333333333333333
 40
0.3333333333333333
 40
0.3333333333333333
 40
0.3333333333333333
 40
0.5
 40
0.5
 40
0.5
 40
0.5
 40
0.6666666666666666
 40
0.6666666666666666
 40
0.6666666666666666
 40
0.6666666666666666
 40
1.0
 40
1.0
 40
1.0
 40
1.0
 10
-94.1082
 20
63.702
 30
0.0
 10
-93.0796
 20
62.4447
 30
0.0
 10
-96.0513
 20
69.7596
 30
0.0
 10
-84.6217
 20
74.903
 30
0.0
 10
-84.6217
 20
74.903
 30
0.0
 10
-78.9068
 20
80.0463
 30
0.0
 10
-82.7976
 20
85.6156
 30
0.0
 10
-83.0215
 20
84.6181
 30
0.0
 10
-83.0215
 20
84.6181
 30
0.0
 10
-84.2788
 20
79.0176
 30
0.0
 10
-90.7937
 20
76.846
 30
0.0
 10
-90.7937
 20
76.846
 30
0.0
 10
-90.7937
 20
76.846
 30
0.0
 10
-90.7937
 20
76.846
 30
0.0
 10
-90.9079
 20
68.7309
 30
0.0
 10
-98.7944
 20
66.445
 30
0.0
 10
-98.7944
 20
66.445
 30
0.0
 10
-98.7944
 20
66.445
 30
0.0
 10
-95.1369
 20
64.9592
 30
0.0
 10
-94.1082
 20
63.702
 30
0.0
  0
SPLINE
  5
C4
330
1F
100
AcDbEntity
  8
layer 1
 62
   250
100
AcDbSpline
210
0.0
220
0.0
230
1.0
 70
    11
 71
     3
 72
    20
 73
    16
 74
     0
 42
0.0000000001
 43
0.0000000001
 12
1.0
 22
0.0
 32
0.0
 13
1.0
 23
0.0
 33
0.0
 40
0.0
 40
0.0
 40
0.0
 40
0.0
 40
0.2
 40
0.2
 40
0.2
 40
0.2
 40
0.4
 40
0.4
 40
0.4
 40
0.4
 40
0.6
 40
0.6
 40
0.6
 40
0.6
 40
1.0
 40
1.0
 40
1.0
 40
1.0
 10
-72.6206
 20
73.9886
 30
0.0
 10
-72.6206
 20
73.9886
 30
0.0
 10
-72.9635
 20
74.903
 30
0.0
 10
-73.1921
 20
76.0459
 30
0.0
 10
-73.1921
 20
76.0459
 30
0.0
 10
-73.1921
 20
76.0459
 30
0.0
 10
-78.2211
 20
78.6747
 30
0.0
 10
-79.4784
 20
80.6178
 30
0.0
 10
-79.4784
 20
80.6178
 30
0.0
 10
-79.4784
 20
80.6178
 30
0.0
 10
-79.0212
 20
77.5318
 30
0.0
 10
-80.0498
 20
76.1602
 30
0.0
 10
-80.0498
 20
76.1602
 30
0.0
 10
-80.0498
 20
76.1602
 30
0.0
 10
-74.6779
 20
75.8173
 30
0.0
 10
-72.6206
 20
73.9886
 30
0.0
  0
SPLINE
  5
C5
330
1F
100
AcDbEntity
  8
layer 1
 62
   250
100
AcDbSpline
210
0.0
220
0.0
230
1.0
 70
    11
 71
     3
 72
    32
 73
    28
 74
     0
 42
0.0000000001
 43
0.0000000001
 12
1.0
 22
0.0
 32
0.0
 13
1.0
 23
0.0
 33
0.0
 40
0.0
 40
0.0
 40
0.0
 40
0.0
 40
0.125
 40
0.125
 40
0.125
 40
0.125
 40
0.25
 40
0.25
 40
0.25
 40
0.25
 40
0.375
 40
0.375
 40
0.375
 40
0.375
 40
0.5
 40
0.5
 40
0.5
 40
0.5
 40
0.625
 40
0.625
 40
0.625
 40
0.625
 40
0.75
 40
0.75
 40
0.75
 40
0.75
 40
1.0
 40
1.0
 40
1.0
 40
1.0
 10
-79.0212
 20
73.1885
 30
0.0
 10
-79.0212
 20
73.1885
 30
0.0
 10
-85.8789
 20
74.4458
 30
0.0
 10
-88.8506
 20
67.8166
 30
0.0
 10
-88.8506
 20
67.8166
 30
0.0
 10
-88.8506
 20
67.8166
 30
0.0
 10
-81.1928
 20
73.76
 30
0.0
 10
-74.9065
 20
67.2451
 30
0.0
 10
-74.9065
 20
67.2451
 30
0.0
 10
-72.0491
 20
61.3017
 30
0.0
 10
-79.0212
 20
59.3587
 30
0.0
 10
-79.0212
 20
59.3587
 30
0.0
 10
-79.0212
 20
59.3587
 30
0.0
 10
-79.0212
 20
59.3587
 30
0.0
 10
-80.0498
 20
58.6729
 30
0.0
 10
-81.5357
 20
59.9302
 30
0.0
 10
-81.5357
 20
59.9302
 30
0.0
 10
-81.5357
 20
59.9302
 30
0.0
 10
-80.8499
 20
57.53
 30
0.0
 10
-77.1924
 20
57.9872
 30
0.0
 10
-77.1924
 20
57.9872
 30
0.0
 10
-73.535
 20
58.4443
 30
0.0
 10
-69.1917
 20
61.7589
 30
0.0
 10
-70.9062
 20
67.2451
 30
0.0
 10
-70.9062
 20
67.2451
 30
0.0
 10
-72.6206
 20
72.7314
 30
0.0
 10
-79.0212
 20
73.1885
 30
0.0
 10
-79.0212
 20
73.1885
 30
0.0
  0
SPLINE
  5
C6
330
1F
100
AcDbEntity
  8
layer 1
 62
   250
100
AcDbSpline
210
0.0
220
0.0
230
1.0
 70
    11
 71
     3
 72
    20
 73
    16
 74
     0
 42
0.0000000001
 43
0.0000000001
 12
1.0
 22
0.0
 32
0.0
 13
1.0
 23
0.0
 33
0.0
 40
0.0
 40
0.0
 40
0.0
 40
0.0
 40
0.2
 40
0.2
 40
0.2
 40
0.2
 40
0.4
 40
0.4
 40
0.4
 40
0.4
 40
0.6
 40
0.6
 40
0.6
 40
0.6
 40
1.0
 40
1.0
 40
1.0
 40
1.0
 10
-77.1924
 20
64.1592
 30
0.0
 10
-77.1924
 20
65.7372
 30
0.0
 10
-78.4717
 20
67.0165
 30
0.0
 10
-80.0498
 20
67.0165
 30
0.0
 10
-80.0498
 20
67.0165
 30
0.0
 10
-81.6279
 20
67.0165
 30
0.0
 10
-82.9073
 20
65.7372
 30
0.0
 10
-82.9073
 20
64.1592
 30
0.0
 10
-82.9073
 20
64.1592
 30
0.0
 10
-82.9073
 20
62.581
 30
0.0
 10
-81.6279
 20
61.3017
 30
0.0
 10
-80.0498
 20
61.3017
 30
0.0
 10
-80.0498
 20
61.3017
 30
0.0
 10
-78.4717
 20
61.3017
 30
0.0
 10
-77.1924
 20
62.581
 30
0.0
 10
-77.1924
 20
64.1592
 30
0.0
  0
SPLINE
  5
C7
330
1F
100
AcDbEntity
  8
layer 1
 62
   250
100
AcDbSpline
210
0.0
220
0.0
230
1.0
 70
    11
 71
     3
 72
    20
 73
    16
 74
     0
 42
0.0000000001
 43
0.0000000001
 12
1.0
 22
0.0
 32
0.0
 13
1.0
 23
0.0
 33
0.0
 40
0.0
 40
0.0
 40
0.0
 40
0.0
 40
0.2
 40
0.2
 40
0.2
 40
0.2
 40
0.4
 40
0.4
 40
0.4
 40
0.4
 40
0.6
 40
0.6
 40
0.6
 40
0.6
 40
1.0
 40
1.0
 40
1.0
 40
1.0
 10
-85.4217
 20
60.2731
 30
0.0
 10
-85.3075
 20
50.3293
 30
0.0
 10
-74.4493
 20
43.7001
 30
0.0
 10
-74.4493
 20
43.7001
 30
0.0
 10
-74.4493
 20
43.7001
 30
0.0
 10
-75.8209
 20
49.8721
 30
0.0
 10
-72.9635
 20
53.6439
 30
0.0
 10
-72.9635
 20
53.6439
 30
0.0
 10
-72.9635
 20
53.6439
 30
0.0
 10
-73.6493
 20
53.6439
 30
0.0
 10
-75.478
 20
55.4726
 30
0.0
 10
-75.478
 20
55.4726
 30
0.0
 10
-75.478
 20
55.4726
 30
0.0
 10
-82.6786
 20
53.8725
 30
0.0
 10
-85.4217
 20
60.2731
 30
0.0
 10
-85.4217
 20
60.2731
 30
0.0
  0
SPLINE
  5
C8
330
1F
100
AcDbEntity
  8
layer 1
 62
   250
100
AcDbSpline
210
0.0
220
0.0
230
1.0
 70
    11
 71
     3
 72
    28
 73
    24
 74
     0
 42
0.0000000001
 43
0.0000000001
 12
1.0
 22
0.0
 32
0.0
 13
1.0
 23
0.0
 33
0.0
 40
0.0
 40
0.0
 40
0.0
 40
0.0
 40
0.1428571428571428
 40
0.1428571428571428
 40
0.1428571428571428
 40
0.1428571428571428
 40
0.2857142857142857
 40
0.2857142857142857
 40
0.2857142857142857
 40
0.2857142857142857
 40
0.4285714285714285
 40
0.4285714285714285
 40
0.4285714285714285
 40
0.4285714285714285
 40
0.5714285714285714
 40
0.5714285714285714
 40
0.5714285714285714
 40
0.5714285714285714
 40
0.7142857142857143
 40
0.7142857142857143
 40
0.7142857142857143
 40
0.7142857142857143
 40
1.0
 40
1.0
 40
1.0
 40
1.0
 10
-84.8503
 20
67.2451
 30
0.0
 10
-100.6231
 20
62.7876
 30
0.0
 10
-88.2791
 20
46.9004
 30
0.0
 10
-84.736
 20
44.043
 30
0.0
 10
-84.736
 20
44.043
 30
0.0
 10
-82.207
 20
42.0035
 30
0.0
 10
-71.8205
 20
36.1566
 30
0.0
 10
-68.3916
 20
29.7561
 30
0.0
 10
-68.3916
 20
29.7561
 30
0.0
 10
-64.9627
 20
23.3555
 30
0.0
 10
-67.3629
 20
15.2404
 30
0.0
 10
-67.3629
 20
15.2404
 30
0.0
 10
-67.3629
 20
15.2404
 30
0.0
 10
-62.9054
 20
17.9835
 30
0.0
 10
-63.9341
 20
26.2128
 30
0.0
 10
-63.9341
 20
26.2128
 30
0.0
 10
-63.9341
 20
26.2128
 30
0.0
 10
-64.8484
 20
29.2988
 30
0.0
 10
-64.2769
 20
32.1562
 30
0.0
 10
-79.7069
 20
44.5002
 30
0.0
 10
-79.7069
 20
44.5002
 30
0.0
 10
-94.794
 20
56.0441
 30
0.0
 10
-84.8503
 20
67.2451
 30
0.0
 10
-84.8503
 20
67.2451
 30
0.0
  0
SPLINE
  5
C9
330
1F
100
AcDbEntity
  8
layer 1
 62
   250
100
AcDbSpline
210
0.0
220
0.0
230
1.0
 70
    11
 71
     3
 72
    24
 73
    20
 74
     0
 42
0.0000000001
 43
0.0000000001
 12
1.0
 22
0.0
 32
0.0
 13
1.0
 23
0.0
 33
0.0
 40
0.0
 40
0.0
 40
0.0
 40
0.0
 40
0.1666666666666667
 40
0.1666666666666667
 40
0.1666666666666667
 40
0.1666666666666667
 40
0.3333333333333333
 40
0.3333333333333333
 40
0.3333333333333333
 40
0.3333333333333333
 40
0.5
 40
0.5
 40
0.5
 40
0.5
 40
0.6666666666666666
 40
0.6666666666666666
 40
0.6666666666666666
 40
0.6666666666666666
 40
1.0
 40
1.0
 40
1.0
 40
1.0
 10
-68.1631
 20
65.0735
 30
0.0
 10
-68.1631
 20
65.0735
 30
0.0
 10
-68.1631
 20
58.7872
 30
0.0
 10
-72.2777
 20
57.1871
 30
0.0
 10
-72.2777
 20
57.1871
 30
0.0
 10
-72.2777
 20
57.1871
 30
0.0
 10
-71.4776
 20
55.9298
 30
0.0
 10
-70.449
 20
55.3583
 30
0.0
 10
-70.449
 20
55.3583
 30
0.0
 10
-70.449
 20
55.3583
 30
0.0
 10
-65.212
 20
58.8863
 30
0.0
 10
-59.0559
 20
55.719
 30
0.0
 10
-59.0559
 20
55.719
 30
0.0
 10
-59.0559
 20
55.719
 30
0.0
 10
-59.0559
 20
55.8269
 30
0.0
 10
-59.0559
 20
55.8269
 30
0.0
 10
-59.0559
 20
55.8269
 30
0.0
 10
-59.7682
 20
58.961
 30
0.0
 10
-65.9075
 20
61.2392
 30
0.0
 10
-68.1631
 20
65.0735
 30
0.0
  0
SPLINE
  5
CA
330
1F
100
AcDbEntity
  8
layer 1
 62
   250
100
AcDbSpline
210
0.0
220
0.0
230
1.0
 70
    11
 71
     3
 72
    32
 73
    28
 74
     0
 42
0.0000000001
 43
0.0000000001
 12
1.0
 22
0.0
 32
0.0
 13
1.0
 23
0.0
 33
0.0
 40
0.0
 40
0.0
 40
0.0
 40
0.0
 40
0.125
 40
0.125
 40
0.125
 40
0.125
 40
0.25
 40
0.25
 40
0.25
 40
0.25
 40
0.375
 40
0.375
 40
0.375
 40
0.375
 40
0.5
 40
0.5
 40
0.5
 40
0.5
 40
0.625
 40
0.625
 40
0.625
 40
0.625
 40
0.75
 40
0.75
 40
0.75
 40
0.75
 40
1.0
 40
1.0
 40
1.0
 40
1.0
 10
-66.1057
 20
47.0147
 30
0.0
 10
-66.1057
 20
47.0147
 30
0.0
 10
-66.1057
 20
52.1581
 30
0.0
 10
-61.1909
 20
50.5579
 30
0.0
 10
-61.1909
 20
50.5579
 30
0.0
 10
-59.9338
 20
50.1008
 30
0.0
 10
-60.7338
 20
51.358
 30
0.0
 10
-60.7338
 20
51.358
 30
0.0
 10
-60.7338
 20
51.358
 30
0.0
 10
-60.7338
 20
51.358
 30
0.0
 10
-65.077
 20
54.2154
 30
0.0
 10
-68.1631
 20
49.9864
 30
0.0
 10
-68.1631
 20
49.9864
 30
0.0
 10
-71.2491
 20
45.7574
 30
0.0
 10
-64.0484
 20
40.0427
 30
0.0
 10
-63.3626
 20
38.8997
 30
0.0
 10
-63.3626
 20
38.8997
 30
0.0
 10
-62.6994
 20
37.7943
 30
0.0
 10
-60.5413
 20
35.6146
 30
0.0
 10
-59.0559
 20
31.8537
 30
0.0
 10
-59.0559
 20
31.8537
 30
0.0
 10
-59.0559
 20
31.8537
 30
0.0
 10
-59.0559
 20
41.844
 30
0.0
 10
-59.0559
 20
41.844
 30
0.0
 10
-59.0559
 20
41.844
 30
0.0
 10
-60.3719
 20
41.731
 30
0.0
 10
-66.2072
 20
41.5376
 30
0.0
 10
-66.1057
 20
47.0147
 30
0.0
  0
SPLINE
  5
CB
330
1F
100
AcDbEntity
  8
layer 1
 62
   250
100
AcDbSpline
210
0.0
220
0.0
230
1.0
 70
    11
 71
     3
 72
    28
 73
    24
 74
     0
 42
0.0000000001
 43
0.0000000001
 12
1.0
 22
0.0
 32
0.0
 13
1.0
 23
0.0
 33
0.0
 40
0.0
 40
0.0
 40
0.0
 40
0.0
 40
0.1428571428571428
 40
0.1428571428571428
 40
0.1428571428571428
 40
0.1428571428571428
 40
0.2857142857142857
 40
0.2857142857142857
 40
0.2857142857142857
 40
0.2857142857142857
 40
0.4285714285714285
 40
0.4285714285714285
 40
0.4285714285714285
 40
0.4285714285714285
 40
0.5714285714285714
 40
0.5714285714285714
 40
0.5714285714285714
 40
0.5714285714285714
 40
0.7142857142857143
 40
0.7142857142857143
 40
0.7142857142857143
 40
0.7142857142857143
 40
1.0
 40
1.0
 40
1.0
 40
1.0
 10
-93.0796
 20
49.5292
 30
0.0
 10
-93.0796
 20
49.5292
 30
0.0
 10
-95.5941
 20
45.4146
 30
0.0
 10
-96.3942
 20
44.6145
 30
0.0
 10
-96.3942
 20
44.6145
 30
0.0
 10
-96.3942
 20
44.6145
 30
0.0
 10
-91.3651
 20
45.186
 30
0.0
 10
-89.765
 20
42.7858
 30
0.0
 10
-89.765
 20
42.7858
 30
0.0
 10
-88.1648
 20
40.3856
 30
0.0
 10
-88.5077
 20
38.0997
 30
0.0
 10
-89.6507
 20
37.1853
 30
0.0
 10
-89.6507
 20
37.1853
 30
0.0
 10
-90.7937
 20
36.2709
 30
0.0
 10
-88.9649
 20
36.6138
 30
0.0
 10
-88.9649
 20
36.6138
 30
0.0
 10
-88.9649
 20
36.6138
 30
0.0
 10
-88.9649
 20
36.6138
 30
0.0
 10
-86.4504
 20
38.5568
 30
0.0
 10
-80.6213
 20
38.0997
 30
0.0
 10
-80.6213
 20
38.0997
 30
0.0
 10
-85.4217
 20
40.4999
 30
0.0
 10
-90.3365
 20
44.5002
 30
0.0
 10
-93.0796
 20
49.5292
 30
0.0
  0
SPLINE
  5
CC
330
1F
100
AcDbEntity
  8
layer 1
 62
   250
100
AcDbSpline
210
0.0
220
0.0
230
1.0
 70
    11
 71
     3
 72
    32
 73
    28
 74
     0
 42
0.0000000001
 43
0.0000000001
 12
1.0
 22
0.0
 32
0.0
 13
1.0
 23
0.0
 33
0.0
 40
0.0
 40
0.0
 40
0.0
 40
0.0
 40
0.125
 40
0.125
 40
0.125
 40
0.125
 40
0.25
 40
0.25
 40
0.25
 40
0.25
 40
0.375
 40
0.375
 40
0.375
 40
0.375
 40
0.5
 40
0.5
 40
0.5
 40
0.5
 40
0.625
 40
0.625
 40
0.625
 40
0.625
 40
0.75
 40
0.75
 40
0.75
 40
0.75
 40
1.0
 40
1.0
 40
1.0
 40
1.0
 10
-105.8808
 20
55.3583
 30
0.0
 10
-105.8808
 20
55.3583
 30
0.0
 10
-107.3666
 20
56.2727
 30
0.0
 10
-106.9094
 20
55.1297
 30
0.0
 10
-106.9094
 20
55.1297
 30
0.0
 10
-106.9094
 20
55.1297
 30
0.0
 10
-101.4232
 20
50.9008
 30
0.0
 10
-102.4519
 20
43.3573
 30
0.0
 10
-102.4519
 20
43.3573
 30
0.0
 10
-102.4519
 20
43.3573
 30
0.0
 10
-97.4228
 20
46.5575
 30
0.0
 10
-95.4798
 20
53.9868
 30
0.0
 10
-95.4798
 20
53.9868
 30
0.0
 10
-93.5368
 20
61.4161
 30
0.0
 10
-100.5088
 20
64.0449
 30
0.0
 10
-103.0233
 20
62.3304
 30
0.0
 10
-103.0233
 20
62.3304
 30
0.0
 10
-104.052
 20
62.1018
 30
0.0
 10
-103.2519
 20
61.5303
 30
0.0
 10
-103.2519
 20
61.5303
 30
0.0
 10
-103.2519
 20
61.5303
 30
0.0
 10
-103.2519
 20
61.5303
 30
0.0
 10
-99.1372
 20
62.2161
 30
0.0
 10
-99.2515
 20
57.53
 30
0.0
 10
-99.2515
 20
57.53
 30
0.0
 10
-100.7374
 20
53.301
 30
0.0
 10
-105.8808
 20
55.3583
 30
0.0
 10
-105.8808
 20
55.3583
 30
0.0
  0
SPLINE
  5
CD
330
1F
100
AcDbEntity
  8
layer 1
 62
   250
100
AcDbSpline
210
0.0
220
0.0
230
1.0
 70
    11
 71
     3
 72
    20
 73
    16
 74
     0
 42
0.0000000001
 43
0.0000000001
 12
1.0
 22
0.0
 32
0.0
 13
1.0
 23
0.0
 33
0.0
 40
0.0
 40
0.0
 40
0.0
 40
0.0
 40
0.2
 40
0.2
 40
0.2
 40
0.2
 40
0.4
 40
0.4
 40
0.4
 40
0.4
 40
0.6
 40
0.6
 40
0.6
 40
0.6
 40
1.0
 40
1.0
 40
1.0
 40
1.0
 10
-110.224
 20
34.0993
 30
0.0
 10
-110.224
 20
34.0993
 30
0.0
 10
-106.1093
 20
36.9567
 30
0.0
 10
-108.0524
 20
45.0717
 30
0.0
 10
-108.0524
 20
45.0717
 30
0.0
 10
-109.9954
 20
53.1867
 30
0.0
 10
-110.7954
 20
51.0151
 30
0.0
 10
-110.7954
 20
51.0151
 30
0.0
 10
-110.7954
 20
51.0151
 30
0.0
 10
-110.7954
 20
51.0151
 30
0.0
 10
-110.1097
 20
45.6432
 30
0.0
 10
-113.5385
 20
43.9287
 30
0.0
 10
-113.5385
 20
43.9287
 30
0.0
 10
-111.9384
 20
41.8714
 30
0.0
 10
-110.3383
 20
41.2999
 30
0.0
 10
-110.224
 20
34.0993
 30
0.0
  0
SPLINE
  5
CE
330
1F
100
AcDbEntity
  8
layer 1
 62
   250
100
AcDbSpline
210
0.0
220
0.0
230
1.0
 70
    11
 71
     3
 72
    32
 73
    28
 74
     0
 42
0.0000000001
 43
0.0000000001
 12
1.0
 22
0.0
 32
0.0
 13
1.0
 23
0.0
 33
0.0
 40
0.0
 40
0.0
 40
0.0
 40
0.0
 40
0.125
 40
0.125
 40
0.125
 40
0.125
 40
0.25
 40
0.25
 40
0.25
 40
0.25
 40
0.375
 40
0.375
 40
0.375
 40
0.375
 40
0.5
 40
0.5
 40
0.5
 40
0.5
 40
0.625
 40
0.625
 40
0.625
 40
0.625
 40
0.75
 40
0.75
 40
0.75
 40
0.75
 40
1.0
 40
1.0
 40
1.0
 40
1.0
 10
-167.372
 20
80.0463
 30
0.0
 10
-171.8295
 20
77.5318
 30
0.0
 10
-169.6579
 20
69.0738
 30
0.0
 10
-169.6579
 20
69.0738
 30
0.0
 10
-169.6579
 20
69.0738
 30
0.0
 10
-169.6579
 20
69.0738
 30
0.0
 10
-166.5719
 20
72.2742
 30
0.0
 10
-166.5719
 20
72.2742
 30
0.0
 10
-166.5719
 20
72.2742
 30
0.0
 10
-166.5719
 20
72.2742
 30
0.0
 10
-167.7149
 20
75.4745
 30
0.0
 10
-163.9431
 20
77.6461
 30
0.0
 10
-163.9431
 20
77.6461
 30
0.0
 10
-155.8281
 20
80.8463
 30
0.0
 10
-155.4852
 20
73.1885
 30
0.0
 10
-155.4852
 20
73.1885
 30
0.0
 10
-155.4852
 20
73.1885
 30
0.0
 10
-155.4852
 20
73.1885
 30
0.0
 10
-154.9137
 20
73.0171
 30
0.0
 10
-153.9994
 20
74.4458
 30
0.0
 10
-153.9994
 20
74.4458
 30
0.0
 10
-152.7421
 20
77.1889
 30
0.0
 10
-155.3709
 20
79.8177
 30
0.0
 10
-155.3709
 20
79.8177
 30
0.0
 10
-155.3709
 20
79.8177
 30
0.0
 10
-159.7142
 20
83.3609
 30
0.0
 10
-162.9144
 20
82.5608
 30
0.0
 10
-167.372
 20
80.0463
 30
0.0
  0
SPLINE
  5
CF
330
1F
100
AcDbEntity
  8
layer 1
 62
   250
100
AcDbSpline
210
0.0
220
0.0
230
1.0
 70
    11
 71
     3
 72
    24
 73
    20
 74
     0
 42
0.0000000001
 43
0.0000000001
 12
1.0
 22
0.0
 32
0.0
 13
1.0
 23
0.0
 33
0.0
 40
0.0
 40
0.0
 40
0.0
 40
0.0
 40
0.1666666666666667
 40
0.1666666666666667
 40
0.1666666666666667
 40
0.1666666666666667
 40
0.3333333333333333
 40
0.3333333333333333
 40
0.3333333333333333
 40
0.3333333333333333
 40
0.5
 40
0.5
 40
0.5
 40
0.5
 40
0.6666666666666666
 40
0.6666666666666666
 40
0.6666666666666666
 40
0.6666666666666666
 40
1.0
 40
1.0
 40
1.0
 40
1.0
 10
-160.5714
 20
65.7593
 30
0.0
 10
-163.6574
 20
66.6736
 30
0.0
 10
-166.1719
 20
70.8455
 30
0.0
 10
-166.1719
 20
70.8455
 30
0.0
 10
-166.1719
 20
70.8455
 30
0.0
 10
-166.1719
 20
70.8455
 30
0.0
 10
-166.4005
 20
70.9026
 30
0.0
 10
-166.4005
 20
70.9026
 30
0.0
 10
-166.4005
 20
70.9026
 30
0.0
 10
-166.4005
 20
70.9026
 30
0.0
 10
-168.4578
 20
67.8737
 30
0.0
 10
-168.4578
 20
67.6451
 30
0.0
 10
-168.4578
 20
67.6451
 30
0.0
 10
-168.4578
 20
67.4166
 30
0.0
 10
-166.4005
 20
61.0732
 30
0.0
 10
-164.5146
 20
59.4158
 30
0.0
 10
-164.5146
 20
59.4158
 30
0.0
 10
-165.6004
 20
62.6733
 30
0.0
 10
-163.1431
 20
65.245
 30
0.0
 10
-160.5714
 20
65.7593
 30
0.0
  0
SPLINE
  5
D0
330
1F
100
AcDbEntity
  8
layer 1
 62
   250
100
AcDbSpline
210
0.0
220
0.0
230
1.0
 70
    11
 71
     3
 72
    20
 73
    16
 74
     0
 42
0.0000000001
 43
0.0000000001
 12
1.0
 22
0.0
 32
0.0
 13
1.0
 23
0.0
 33
0.0
 40
0.0
 40
0.0
 40
0.0
 40
0.0
 40
0.2
 40
0.2
 40
0.2
 40
0.2
 40
0.4
 40
0.4
 40
0.4
 40
0.4
 40
0.6
 40
0.6
 40
0.6
 40
0.6
 40
1.0
 40
1.0
 40
1.0
 40
1.0
 10
-150.6848
 20
85.5325
 30
0.0
 10
-150.6848
 20
85.5325
 30
0.0
 10
-147.3702
 20
82.4465
 30
0.0
 10
-147.1416
 20
78.6747
 30
0.0
 10
-147.1416
 20
78.6747
 30
0.0
 10
-147.1416
 20
78.6747
 30
0.0
 10
-140.741
 20
82.6751
 30
0.0
 10
-142.9126
 20
88.7328
 30
0.0
 10
-142.9126
 20
88.7328
 30
0.0
 10
-142.9126
 20
88.7328
 30
0.0
 10
-143.5984
 20
91.9331
 30
0.0
 10
-148.056
 20
92.7331
 30
0.0
 10
-148.056
 20
92.7331
 30
0.0
 10
-148.056
 20
92.7331
 30
0.0
 10
-143.827
 20
86.904
 30
0.0
 10
-150.6848
 20
85.5325
 30
0.0
  0
SPLINE
  5
D1
330
1F
100
AcDbEntity
  8
layer 1
 62
   250
100
AcDbSpline
210
0.0
220
0.0
230
1.0
 70
    11
 71
     3
 72
    24
 73
    20
 74
     0
 42
0.0000000001
 43
0.0000000001
 12
1.0
 22
0.0
 32
0.0
 13
1.0
 23
0.0
 33
0.0
 40
0.0
 40
0.0
 40
0.0
 40
0.0
 40
0.1666666666666667
 40
0.1666666666666667
 40
0.1666666666666667
 40
0.1666666666666667
 40
0.3333333333333333
 40
0.3333333333333333
 40
0.3333333333333333
 40
0.3333333333333333
 40
0.5
 40
0.5
 40
0.5
 40
0.5
 40
0.6666666666666666
 40
0.6666666666666666
 40
0.6666666666666666
 40
0.6666666666666666
 40
1.0
 40
1.0
 40
1.0
 40
1.0
 10
-150.1133
 20
63.702
 30
0.0
 10
-149.0846
 20
62.4447
 30
0.0
 10
-152.0563
 20
69.7596
 30
0.0
 10
-140.6267
 20
74.903
 30
0.0
 10
-140.6267
 20
74.903
 30
0.0
 10
-134.9119
 20
80.0463
 30
0.0
 10
-138.8027
 20
85.6156
 30
0.0
 10
-139.0266
 20
84.6181
 30
0.0
 10
-139.0266
 20
84.6181
 30
0.0
 10
-140.2838
 20
79.0176
 30
0.0
 10
-146.7987
 20
76.846
 30
0.0
 10
-146.7987
 20
76.846
 30
0.0
 10
-146.7987
 20
76.846
 30
0.0
 10
-146.7987
 20
76.846
 30
0.0
 10
-146.913
 20
68.7309
 30
0.0
 10
-154.7994
 20
66.445
 30
0.0
 10
-154.7994
 20
66.445
 30
0.0
 10
-154.7994
 20
66.445
 30
0.0
 10
-151.142
 20
64.9592
 30
0.0
 10
-150.1133
 20
63.702
 30
0.0
  0
SPLINE
  5
D2
330
1F
100
AcDbEntity
  8
layer 1
 62
   250
100
AcDbSpline
210
0.0
220
0.0
230
1.0
 70
    11
 71
     3
 72
    20
 73
    16
 74
     0
 42
0.0000000001
 43
0.0000000001
 12
1.0
 22
0.0
 32
0.0
 13
1.0
 23
0.0
 33
0.0
 40
0.0
 40
0.0
 40
0.0
 40
0.0
 40
0.2
 40
0.2
 40
0.2
 40
0.2
 40
0.4
 40
0.4
 40
0.4
 40
0.4
 40
0.6
 40
0.6
 40
0.6
 40
0.6
 40
1.0
 40
1.0
 40
1.0
 40
1.0
 10
-128.6256
 20
73.9886
 30
0.0
 10
-128.6256
 20
73.9886
 30
0.0
 10
-128.9685
 20
74.903
 30
0.0
 10
-129.1971
 20
76.0459
 30
0.0
 10
-129.1971
 20
76.0459
 30
0.0
 10
-129.1971
 20
76.0459
 30
0.0
 10
-134.2261
 20
78.6747
 30
0.0
 10
-135.4834
 20
80.6178
 30
0.0
 10
-135.4834
 20
80.6178
 30
0.0
 10
-135.4834
 20
80.6178
 30
0.0
 10
-135.0262
 20
77.5318
 30
0.0
 10
-136.0549
 20
76.1602
 30
0.0
 10
-136.0549
 20
76.1602
 30
0.0
 10
-136.0549
 20
76.1602
 30
0.0
 10
-130.683
 20
75.8173
 30
0.0
 10
-128.6256
 20
73.9886
 30
0.0
  0
SPLINE
  5
D3
330
1F
100
AcDbEntity
  8
layer 1
 62
   250
100
AcDbSpline
210
0.0
220
0.0
230
1.0
 70
    11
 71
     3
 72
    32
 73
    28
 74
     0
 42
0.0000000001
 43
0.0000000001
 12
1.0
 22
0.0
 32
0.0
 13
1.0
 23
0.0
 33
0.0
 40
0.0
 40
0.0
 40
0.0
 40
0.0
 40
0.125
 40
0.125
 40
0.125
 40
0.125
 40
0.25
 40
0.25
 40
0.25
 40
0.25
 40
0.375
 40
0.375
 40
0.375
 40
0.375
 40
0.5
 40
0.5
 40
0.5
 40
0.5
 40
0.625
 40
0.625
 40
0.625
 40
0.625
 40
0.75
 40
0.75
 40
0.75
 40
0.75
 40
1.0
 40
1.0
 40
1.0
 40
1.0
 10
-144.8557
 20
67.8166
 30
0.0
 10
-144.8557
 20
67.8166
 30
0.0
 10
-137.1978
 20
73.76
 30
0.0
 10
-130.9116
 20
67.2451
 30
0.0
 10
-130.9116
 20
67.2451
 30
0.0
 10
-128.0542
 20
61.3017
 30
0.0
 10
-135.0262
 20
59.3587
 30
0.0
 10
-135.0262
 20
59.3587
 30
0.0
 10
-135.0262
 20
59.3587
 30
0.0
 10
-135.0262
 20
59.3587
 30
0.0
 10
-136.0549
 20
58.6729
 30
0.0
 10
-137.5407
 20
59.9302
 30
0.0
 10
-137.5407
 20
59.9302
 30
0.0
 10
-137.5407
 20
59.9302
 30
0.0
 10
-136.8549
 20
57.53
 30
0.0
 10
-133.1975
 20
57.9872
 30
0.0
 10
-133.1975
 20
57.9872
 30
0.0
 10
-129.54
 20
58.4443
 30
0.0
 10
-125.1967
 20
61.7589
 30
0.0
 10
-126.9112
 20
67.2451
 30
0.0
 10
-126.9112
 20
67.2451
 30
0.0
 10
-128.6256
 20
72.7314
 30
0.0
 10
-135.0262
 20
73.1885
 30
0.0
 10
-135.0262
 20
73.1885
 30
0.0
 10
-135.0262
 20
73.1885
 30
0.0
 10
-135.0262
 20
73.1885
 30
0.0
 10
-141.884
 20
74.4458
 30
0.0
 10
-144.8557
 20
67.8166
 30
0.0
  0
SPLINE
  5
D4
330
1F
100
AcDbEntity
  8
layer 1
 62
   250
100
AcDbSpline
210
0.0
220
0.0
230
1.0
 70
    11
 71
     3
 72
    20
 73
    16
 74
     0
 42
0.0000000001
 43
0.0000000001
 12
1.0
 22
0.0
 32
0.0
 13
1.0
 23
0.0
 33
0.0
 40
0.0
 40
0.0
 40
0.0
 40
0.0
 40
0.2
 40
0.2
 40
0.2
 40
0.2
 40
0.4
 40
0.4
 40
0.4
 40
0.4
 40
0.6
 40
0.6
 40
0.6
 40
0.6
 40
1.0
 40
1.0
 40
1.0
 40
1.0
 10
-133.1975
 20
64.1592
 30
0.0
 10
-133.1975
 20
65.7372
 30
0.0
 10
-134.4768
 20
67.0165
 30
0.0
 10
-136.0549
 20
67.0165
 30
0.0
 10
-136.0549
 20
67.0165
 30
0.0
 10
-137.633
 20
67.0165
 30
0.0
 10
-138.9123
 20
65.7372
 30
0.0
 10
-138.9123
 20
64.1592
 30
0.0
 10
-138.9123
 20
64.1592
 30
0.0
 10
-138.9123
 20
62.581
 30
0.0
 10
-137.633
 20
61.3017
 30
0.0
 10
-136.0549
 20
61.3017
 30
0.0
 10
-136.0549
 20
61.3017
 30
0.0
 10
-134.4768
 20
61.3017
 30
0.0
 10
-133.1975
 20
62.581
 30
0.0
 10
-133.1975
 20
64.1592
 30
0.0
  0
SPLINE
  5
D5
330
1F
100
AcDbEntity
  8
layer 1
 62
   250
100
AcDbSpline
210
0.0
220
0.0
230
1.0
 70
    11
 71
     3
 72
    20
 73
    16
 74
     0
 42
0.0000000001
 43
0.0000000001
 12
1.0
 22
0.0
 32
0.0
 13
1.0
 23
0.0
 33
0.0
 40
0.0
 40
0.0
 40
0.0
 40
0.0
 40
0.2
 40
0.2
 40
0.2
 40
0.2
 40
0.4
 40
0.4
 40
0.4
 40
0.4
 40
0.6
 40
0.6
 40
0.6
 40
0.6
 40
1.0
 40
1.0
 40
1.0
 40
1.0
 10
-141.4268
 20
60.2731
 30
0.0
 10
-141.3125
 20
50.3293
 30
0.0
 10
-130.4544
 20
43.7001
 30
0.0
 10
-130.4544
 20
43.7001
 30
0.0
 10
-130.4544
 20
43.7001
 30
0.0
 10
-131.8259
 20
49.8721
 30
0.0
 10
-128.9685
 20
53.6439
 30
0.0
 10
-128.9685
 20
53.6439
 30
0.0
 10
-128.9685
 20
53.6439
 30
0.0
 10
-129.6543
 20
53.6439
 30
0.0
 10
-131.483
 20
55.4726
 30
0.0
 10
-131.483
 20
55.4726
 30
0.0
 10
-131.483
 20
55.4726
 30
0.0
 10
-138.6837
 20
53.8725
 30
0.0
 10
-141.4268
 20
60.2731
 30
0.0
 10
-141.4268
 20
60.2731
 30
0.0
  0
SPLINE
  5
D6
330
1F
100
AcDbEntity
  8
layer 1
 62
   250
100
AcDbSpline
210
0.0
220
0.0
230
1.0
 70
    11
 71
     3
 72
    28
 73
    24
 74
     0
 42
0.0000000001
 43
0.0000000001
 12
1.0
 22
0.0
 32
0.0
 13
1.0
 23
0.0
 33
0.0
 40
0.0
 40
0.0
 40
0.0
 40
0.0
 40
0.1428571428571428
 40
0.1428571428571428
 40
0.1428571428571428
 40
0.1428571428571428
 40
0.2857142857142857
 40
0.2857142857142857
 40
0.2857142857142857
 40
0.2857142857142857
 40
0.4285714285714285
 40
0.4285714285714285
 40
0.4285714285714285
 40
0.4285714285714285
 40
0.5714285714285714
 40
0.5714285714285714
 40
0.5714285714285714
 40
0.5714285714285714
 40
0.7142857142857143
 40
0.7142857142857143
 40
0.7142857142857143
 40
0.7142857142857143
 40
1.0
 40
1.0
 40
1.0
 40
1.0
 10
-140.741
 20
44.043
 30
0.0
 10
-138.212
 20
42.0035
 30
0.0
 10
-127.8256
 20
36.1566
 30
0.0
 10
-124.3967
 20
29.7561
 30
0.0
 10
-124.3967
 20
29.7561
 30
0.0
 10
-120.9678
 20
23.3555
 30
0.0
 10
-123.368
 20
15.2404
 30
0.0
 10
-123.368
 20
15.2404
 30
0.0
 10
-123.368
 20
15.2404
 30
0.0
 10
-118.9105
 20
17.9835
 30
0.0
 10
-119.9391
 20
26.2128
 30
0.0
 10
-119.9391
 20
26.2128
 30
0.0
 10
-119.9391
 20
26.2128
 30
0.0
 10
-120.8535
 20
29.2988
 30
0.0
 10
-120.282
 20
32.1562
 30
0.0
 10
-135.712
 20
44.5002
 30
0.0
 10
-135.712
 20
44.5002
 30
0.0
 10
-150.7991
 20
56.0441
 30
0.0
 10
-140.8553
 20
67.2451
 30
0.0
 10
-140.8553
 20
67.2451
 30
0.0
 10
-140.8553
 20
67.2451
 30
0.0
 10
-156.6282
 20
62.7876
 30
0.0
 10
-144.2842
 20
46.9004
 30
0.0
 10
-140.741
 20
44.043
 30
0.0
  0
SPLINE
  5
D7
330
1F
100
AcDbEntity
  8
layer 1
 62
   250
100
AcDbSpline
210
0.0
220
0.0
230
1.0
 70
    11
 71
     3
 72
    20
 73
    16
 74
     0
 42
0.0000000001
 43
0.0000000001
 12
1.0
 22
0.0
 32
0.0
 13
1.0
 23
0.0
 33
0.0
 40
0.0
 40
0.0
 40
0.0
 40
0.0
 40
0.2
 40
0.2
 40
0.2
 40
0.2
 40
0.4
 40
0.4
 40
0.4
 40
0.4
 40
0.6
 40
0.6
 40
0.6
 40
0.6
 40
1.0
 40
1.0
 40
1.0
 40
1.0
 10
-124.1681
 20
65.0735
 30
0.0
 10
-124.1681
 20
65.0735
 30
0.0
 10
-124.1681
 20
58.7872
 30
0.0
 10
-128.2827
 20
57.1871
 30
0.0
 10
-128.2827
 20
57.1871
 30
0.0
 10
-128.2827
 20
57.1871
 30
0.0
 10
-127.4827
 20
55.9298
 30
0.0
 10
-126.454
 20
55.3583
 30
0.0
 10
-126.454
 20
55.3583
 30
0.0
 10
-126.454
 20
55.3583
 30
0.0
 10
-121.1964
 20
58.9015
 30
0.0
 10
-115.0244
 20
55.7012
 30
0.0
 10
-115.0244
 20
55.7012
 30
0.0
 10
-115.5959
 20
58.9015
 30
0.0
 10
-121.8822
 20
61.1874
 30
0.0
 10
-124.1681
 20
65.0735
 30
0.0
  0
SPLINE
  5
D8
330
1F
100
AcDbEntity
  8
layer 1
 62
   250
100
AcDbSpline
210
0.0
220
0.0
230
1.0
 70
    11
 71
     3
 72
    40
 73
    36
 74
     0
 42
0.0000000001
 43
0.0000000001
 12
1.0
 22
0.0
 32
0.0
 13
1.0
 23
0.0
 33
0.0
 40
0.0
 40
0.0
 40
0.0
 40
0.0
 40
0.1
 40
0.1
 40
0.1
 40
0.1
 40
0.2
 40
0.2
 40
0.2
 40
0.2
 40
0.3
 40
0.3
 40
0.3
 40
0.3
 40
0.4
 40
0.4
 40
0.4
 40
0.4
 40
0.5
 40
0.5
 40
0.5
 40
0.5
 40
0.6
 40
0.6
 40
0.6
 40
0.6
 40
0.7
 40
0.7
 40
0.7
 40
0.7
 40
0.8
 40
0.8
 40
0.8
 40
0.8
 40
1.0
 40
1.0
 40
1.0
 40
1.0
 10
-114.7958
 20
41.8714
 30
0.0
 10
-114.7958
 20
41.8714
 30
0.0
 10
-122.225
 20
40.8428
 30
0.0
 10
-122.1107
 20
47.0147
 30
0.0
 10
-122.1107
 20
47.0147
 30
0.0
 10
-122.1107
 20
47.0147
 30
0.0
 10
-122.1107
 20
52.1581
 30
0.0
 10
-117.1961
 20
50.5579
 30
0.0
 10
-117.1961
 20
50.5579
 30
0.0
 10
-115.9388
 20
50.1008
 30
0.0
 10
-116.7389
 20
51.358
 30
0.0
 10
-116.7389
 20
51.358
 30
0.0
 10
-116.7389
 20
51.358
 30
0.0
 10
-116.7389
 20
51.358
 30
0.0
 10
-121.0821
 20
54.2154
 30
0.0
 10
-124.1681
 20
49.9864
 30
0.0
 10
-124.1681
 20
49.9864
 30
0.0
 10
-127.2541
 20
45.7574
 30
0.0
 10
-120.0534
 20
40.0427
 30
0.0
 10
-119.3677
 20
38.8997
 30
0.0
 10
-119.3677
 20
38.8997
 30
0.0
 10
-118.6819
 20
37.7568
 30
0.0
 10
-116.396
 20
35.4708
 30
0.0
 10
-114.9101
 20
31.4705
 30
0.0
 10
-114.9101
 20
31.4705
 30
0.0
 10
-114.9101
 20
31.4705
 30
0.0
 10
-114.5672
 20
30.6133
 30
0.0
 10
-114.8244
 20
29.6703
 30
0.0
 10
-114.8244
 20
29.6703
 30
0.0
 10
-115.0815
 20
28.7274
 30
0.0
 10
-111.224
 20
31.4705
 30
0.0
 10
-112.4241
 20
37.0424
 30
0.0
 10
-112.4241
 20
37.0424
 30
0.0
 10
-113.6243
 20
41.4142
 30
0.0
 10
-114.7958
 20
41.8714
 30
0.0
 10
-114.7958
 20
41.8714
 30
0.0
  0
SPLINE
  5
D9
330
1F
100
AcDbEntity
  8
layer 1
 62
   250
100
AcDbSpline
210
0.0
220
0.0
230
1.0
 70
    11
 71
     3
 72
    28
 73
    24
 74
     0
 42
0.0000000001
 43
0.0000000001
 12
1.0
 22
0.0
 32
0.0
 13
1.0
 23
0.0
 33
0.0
 40
0.0
 40
0.0
 40
0.0
 40
0.0
 40
0.1428571428571428
 40
0.1428571428571428
 40
0.1428571428571428
 40
0.1428571428571428
 40
0.2857142857142857
 40
0.2857142857142857
 40
0.2857142857142857
 40
0.2857142857142857
 40
0.4285714285714285
 40
0.4285714285714285
 40
0.4285714285714285
 40
0.4285714285714285
 40
0.5714285714285714
 40
0.5714285714285714
 40
0.5714285714285714
 40
0.5714285714285714
 40
0.7142857142857143
 40
0.7142857142857143
 40
0.7142857142857143
 40
0.7142857142857143
 40
1.0
 40
1.0
 40
1.0
 40
1.0
 10
-145.6557
 20
37.1853
 30
0.0
 10
-146.7987
 20
36.2709
 30
0.0
 10
-144.97
 20
36.6138
 30
0.0
 10
-144.97
 20
36.6138
 30
0.0
 10
-144.97
 20
36.6138
 30
0.0
 10
-144.97
 20
36.6138
 30
0.0
 10
-142.4555
 20
38.5568
 30
0.0
 10
-136.6264
 20
38.0997
 30
0.0
 10
-136.6264
 20
38.0997
 30
0.0
 10
-141.4268
 20
40.4999
 30
0.0
 10
-146.3415
 20
44.5002
 30
0.0
 10
-149.0846
 20
49.5292
 30
0.0
 10
-149.0846
 20
49.5292
 30
0.0
 10
-149.0846
 20
49.5292
 30
0.0
 10
-151.5991
 20
45.4146
 30
0.0
 10
-152.3992
 20
44.6145
 30
0.0
 10
-152.3992
 20
44.6145
 30
0.0
 10
-152.3992
 20
44.6145
 30
0.0
 10
-147.3702
 20
45.186
 30
0.0
 10
-145.77
 20
42.7858
 30
0.0
 10
-145.77
 20
42.7858
 30
0.0
 10
-144.1699
 20
40.3856
 30
0.0
 10
-144.5128
 20
38.0997
 30
0.0
 10
-145.6557
 20
37.1853
 30
0.0
  0
SPLINE
  5
DA
330
1F
100
AcDbEntity
  8
layer 1
 62
   250
100
AcDbSpline
210
0.0
220
0.0
230
1.0
 70
    11
 71
     3
 72
    32
 73
    28
 74
     0
 42
0.0000000001
 43
0.0000000001
 12
1.0
 22
0.0
 32
0.0
 13
1.0
 23
0.0
 33
0.0
 40
0.0
 40
0.0
 40
0.0
 40
0.0
 40
0.125
 40
0.125
 40
0.125
 40
0.125
 40
0.25
 40
0.25
 40
0.25
 40
0.25
 40
0.375
 40
0.375
 40
0.375
 40
0.375
 40
0.5
 40
0.5
 40
0.5
 40
0.5
 40
0.625
 40
0.625
 40
0.625
 40
0.625
 40
0.75
 40
0.75
 40
0.75
 40
0.75
 40
1.0
 40
1.0
 40
1.0
 40
1.0
 10
-158.4569
 20
43.3573
 30
0.0
 10
-158.4569
 20
43.3573
 30
0.0
 10
-153.4279
 20
46.5575
 30
0.0
 10
-151.4849
 20
53.9868
 30
0.0
 10
-151.4849
 20
53.9868
 30
0.0
 10
-149.5418
 20
61.4161
 30
0.0
 10
-156.5138
 20
64.0449
 30
0.0
 10
-159.0284
 20
62.3304
 30
0.0
 10
-159.0284
 20
62.3304
 30
0.0
 10
-160.0571
 20
62.1018
 30
0.0
 10
-159.257
 20
61.5303
 30
0.0
 10
-159.257
 20
61.5303
 30
0.0
 10
-159.257
 20
61.5303
 30
0.0
 10
-159.257
 20
61.5303
 30
0.0
 10
-155.1423
 20
62.2161
 30
0.0
 10
-155.2566
 20
57.53
 30
0.0
 10
-155.2566
 20
57.53
 30
0.0
 10
-156.7424
 20
53.301
 30
0.0
 10
-161.8858
 20
55.3583
 30
0.0
 10
-161.8858
 20
55.3583
 30
0.0
 10
-161.8858
 20
55.3583
 30
0.0
 10
-161.8858
 20
55.3583
 30
0.0
 10
-163.3716
 20
56.2727
 30
0.0
 10
-162.9144
 20
55.1297
 30
0.0
 10
-162.9144
 20
55.1297
 30
0.0
 10
-162.9144
 20
55.1297
 30
0.0
 10
-157.4282
 20
50.9008
 30
0.0
 10
-158.4569
 20
43.3573
 30
0.0
  0
SPLINE
  5
DB
330
1F
100
AcDbEntity
  8
layer 1
 62
   250
100
AcDbSpline
210
0.0
220
0.0
230
1.0
 70
    11
 71
     3
 72
    20
 73
    16
 74
     0
 42
0.0000000001
 43
0.0000000001
 12
1.0
 22
0.0
 32
0.0
 13
1.0
 23
0.0
 33
0.0
 40
0.0
 40
0.0
 40
0.0
 40
0.0
 40
0.2
 40
0.2
 40
0.2
 40
0.2
 40
0.4
 40
0.4
 40
0.4
 40
0.4
 40
0.6
 40
0.6
 40
0.6
 40
0.6
 40
1.0
 40
1.0
 40
1.0
 40
1.0
 10
-169.5436
 20
43.9287
 30
0.0
 10
-167.9435
 20
41.8714
 30
0.0
 10
-166.3433
 20
41.2999
 30
0.0
 10
-166.229
 20
34.0993
 30
0.0
 10
-166.229
 20
34.0993
 30
0.0
 10
-166.229
 20
34.0993
 30
0.0
 10
-162.1144
 20
36.9567
 30
0.0
 10
-164.0574
 20
45.0717
 30
0.0
 10
-164.0574
 20
45.0717
 30
0.0
 10
-166.0004
 20
53.1867
 30
0.0
 10
-166.8005
 20
51.0151
 30
0.0
 10
-166.8005
 20
51.0151
 30
0.0
 10
-166.8005
 20
51.0151
 30
0.0
 10
-166.8005
 20
51.0151
 30
0.0
 10
-166.1147
 20
45.6432
 30
0.0
 10
-169.5436
 20
43.9287
 30
0.0
  0
SPLINE
  5
DC
330
1F
100
AcDbEntity
  8
layer 1
 62
   250
100
AcDbSpline
210
0.0
220
0.0
230
1.0
 70
    11
 71
     3
 72
    16
 73
    12
 74
     0
 42
0.0000000001
 43
0.0000000001
 12
1.0
 22
0.0
 32
0.0
 13
1.0
 23
0.0
 33
0.0
 40
0.0
 40
0.0
 40
0.0
 40
0.0
 40
0.25
 40
0.25
 40
0.25
 40
0.25
 40
0.5
 40
0.5
 40
0.5
 40
0.5
 40
1.0
 40
1.0
 40
1.0
 40
1.0
 10
-183.1448
 20
67.2451
 30
0.0
 10
-183.4115
 20
68.0983
 30
0.0
 10
-183.8
 20
68.8172
 30
0.0
 10
-184.2516
 20
69.4443
 30
0.0
 10
-184.2516
 20
69.4443
 30
0.0
 10
-184.2516
 20
69.4443
 30
0.0
 10
-184.2516
 20
60.7595
 30
0.0
 10
-184.2516
 20
60.7595
 30
0.0
 10
-184.2516
 20
60.7595
 30
0.0
 10
-182.9386
 20
62.3291
 30
0.0
 10
-182.2927
 20
64.5182
 30
0.0
 10
-183.1448
 20
67.2451
 30
0.0
  0
SPLINE
  5
DD
330
1F
100
AcDbEntity
  8
layer 1
 62
   250
100
AcDbSpline
210
0.0
220
0.0
230
1.0
 70
    11
 71
     3
 72
    24
 73
    20
 74
     0
 42
0.0000000001
 43
0.0000000001
 12
1.0
 22
0.0
 32
0.0
 13
1.0
 23
0.0
 33
0.0
 40
0.0
 40
0.0
 40
0.0
 40
0.0
 40
0.1666666666666667
 40
0.1666666666666667
 40
0.1666666666666667
 40
0.1666666666666667
 40
0.3333333333333333
 40
0.3333333333333333
 40
0.3333333333333333
 40
0.3333333333333333
 40
0.5
 40
0.5
 40
0.5
 40
0.5
 40
0.6666666666666666
 40
0.6666666666666666
 40
0.6666666666666666
 40
0.6666666666666666
 40
1.0
 40
1.0
 40
1.0
 40
1.0
 10
-179.6017
 20
15.2404
 30
0.0
 10
-175.1441
 20
17.9835
 30
0.0
 10
-176.1728
 20
26.2128
 30
0.0
 10
-176.1728
 20
26.2128
 30
0.0
 10
-176.1728
 20
26.2128
 30
0.0
 10
-176.8972
 20
28.6576
 30
0.0
 10
-176.6973
 20
30.964
 30
0.0
 10
-184.2516
 20
37.9524
 30
0.0
 10
-184.2516
 20
37.9524
 30
0.0
 10
-184.2516
 20
37.9524
 30
0.0
 10
-184.2516
 20
34.378
 30
0.0
 10
-184.2516
 20
34.378
 30
0.0
 10
-184.2516
 20
34.378
 30
0.0
 10
-182.7663
 20
32.9049
 30
0.0
 10
-181.483
 20
31.3477
 30
0.0
 10
-180.6303
 20
29.7561
 30
0.0
 10
-180.6303
 20
29.7561
 30
0.0
 10
-177.2014
 20
23.3555
 30
0.0
 10
-179.6017
 20
15.2404
 30
0.0
 10
-179.6017
 20
15.2404
 30
0.0
  0
SPLINE
  5
DE
330
1F
100
AcDbEntity
  8
layer 1
 62
   250
100
AcDbSpline
210
0.0
220
0.0
230
1.0
 70
    11
 71
     3
 72
    24
 73
    20
 74
     0
 42
0.0000000001
 43
0.0000000001
 12
1.0
 22
0.0
 32
0.0
 13
1.0
 23
0.0
 33
0.0
 40
0.0
 40
0.0
 40
0.0
 40
0.0
 40
0.1666666666666667
 40
0.1666666666666667
 40
0.1666666666666667
 40
0.1666666666666667
 40
0.3333333333333333
 40
0.3333333333333333
 40
0.3333333333333333
 40
0.3333333333333333
 40
0.5
 40
0.5
 40
0.5
 40
0.5
 40
0.6666666666666666
 40
0.6666666666666666
 40
0.6666666666666666
 40
0.6666666666666666
 40
1.0
 40
1.0
 40
1.0
 40
1.0
 10
-182.6877
 20
55.3583
 30
0.0
 10
-182.6877
 20
55.3583
 30
0.0
 10
-177.43
 20
58.9015
 30
0.0
 10
-171.258
 20
55.7012
 30
0.0
 10
-171.258
 20
55.7012
 30
0.0
 10
-171.8295
 20
58.9015
 30
0.0
 10
-178.1158
 20
61.1874
 30
0.0
 10
-180.4017
 20
65.0735
 30
0.0
 10
-180.4017
 20
65.0735
 30
0.0
 10
-180.4017
 20
65.0735
 30
0.0
 10
-180.4126
 20
59.0831
 30
0.0
 10
-184.2516
 20
57.3159
 30
0.0
 10
-184.2516
 20
57.3159
 30
0.0
 10
-184.2516
 20
57.3159
 30
0.0
 10
-184.2516
 20
56.8162
 30
0.0
 10
-184.2516
 20
56.8162
 30
0.0
 10
-184.2516
 20
56.8162
 30
0.0
 10
-183.9352
 20
56.3997
 30
0.0
 10
-183.3635
 20
55.7338
 30
0.0
 10
-182.6877
 20
55.3583
 30
0.0
  0
SPLINE
  5
DF
330
1F
100
AcDbEntity
  8
layer 1
 62
   250
100
AcDbSpline
210
0.0
220
0.0
230
1.0
 70
    11
 71
     3
 72
    40
 73
    36
 74
     0
 42
0.0000000001
 43
0.0000000001
 12
1.0
 22
0.0
 32
0.0
 13
1.0
 23
0.0
 33
0.0
 40
0.0
 40
0.0
 40
0.0
 40
0.0
 40
0.1
 40
0.1
 40
0.1
 40
0.1
 40
0.2
 40
0.2
 40
0.2
 40
0.2
 40
0.3
 40
0.3
 40
0.3
 40
0.3
 40
0.4
 40
0.4
 40
0.4
 40
0.4
 40
0.5
 40
0.5
 40
0.5
 40
0.5
 40
0.6
 40
0.6
 40
0.6
 40
0.6
 40
0.7
 40
0.7
 40
0.7
 40
0.7
 40
0.8
 40
0.8
 40
0.8
 40
0.8
 40
1.0
 40
1.0
 40
1.0
 40
1.0
 10
-171.058
 20
29.6703
 30
0.0
 10
-171.3152
 20
28.7274
 30
0.0
 10
-167.4577
 20
31.4705
 30
0.0
 10
-168.6578
 20
37.0424
 30
0.0
 10
-168.6578
 20
37.0424
 30
0.0
 10
-169.8579
 20
41.4142
 30
0.0
 10
-171.0295
 20
41.8714
 30
0.0
 10
-171.0295
 20
41.8714
 30
0.0
 10
-171.0295
 20
41.8714
 30
0.0
 10
-171.0295
 20
41.8714
 30
0.0
 10
-178.4587
 20
40.8428
 30
0.0
 10
-178.3444
 20
47.0147
 30
0.0
 10
-178.3444
 20
47.0147
 30
0.0
 10
-178.3444
 20
47.0147
 30
0.0
 10
-178.3444
 20
52.1581
 30
0.0
 10
-173.4297
 20
50.5579
 30
0.0
 10
-173.4297
 20
50.5579
 30
0.0
 10
-172.1724
 20
50.1008
 30
0.0
 10
-172.9725
 20
51.358
 30
0.0
 10
-172.9725
 20
51.358
 30
0.0
 10
-172.9725
 20
51.358
 30
0.0
 10
-172.9725
 20
51.358
 30
0.0
 10
-177.3157
 20
54.2154
 30
0.0
 10
-180.4017
 20
49.9864
 30
0.0
 10
-180.4017
 20
49.9864
 30
0.0
 10
-183.4877
 20
45.7574
 30
0.0
 10
-176.2871
 20
40.0427
 30
0.0
 10
-175.6013
 20
38.8997
 30
0.0
 10
-175.6013
 20
38.8997
 30
0.0
 10
-174.9155
 20
37.7568
 30
0.0
 10
-172.6296
 20
35.4708
 30
0.0
 10
-171.1437
 20
31.4705
 30
0.0
 10
-171.1437
 20
31.4705
 30
0.0
 10
-171.1437
 20
31.4705
 30
0.0
 10
-170.8008
 20
30.6133
 30
0.0
 10
-171.058
 20
29.6703
 30
0.0
  0
SPLINE
  5
E0
330
1F
100
AcDbEntity
  8
layer 1
 62
   250
100
AcDbSpline
210
0.0
220
0.0
230
1.0
 70
    11
 71
     3
 72
    20
 73
    16
 74
     0
 42
0.0000000001
 43
0.0000000001
 12
1.0
 22
0.0
 32
0.0
 13
1.0
 23
0.0
 33
0.0
 40
0.0
 40
0.0
 40
0.0
 40
0.0
 40
0.2
 40
0.2
 40
0.2
 40
0.2
 40
0.4
 40
0.4
 40
0.4
 40
0.4
 40
0.6
 40
0.6
 40
0.6
 40
0.6
 40
1.0
 40
1.0
 40
1.0
 40
1.0
 10
-67.3629
 20
115.3637
 30
0.0
 10
-62.9054
 20
118.1068
 30
0.0
 10
-63.9341
 20
126.3361
 30
0.0
 10
-63.9341
 20
126.3361
 30
0.0
 10
-63.9341
 20
126.3361
 30
0.0
 10
-64.1476
 20
127.0568
 30
0.0
 10
-64.2819
 20
127.7665
 30
0.0
 10
-64.5562
 20
128.586
 30
0.0
 10
-64.5562
 20
128.586
 30
0.0
 10
-64.5562
 20
128.586
 30
0.0
 10
-67.7857
 20
128.586
 30
0.0
 10
-67.7857
 20
128.586
 30
0.0
 10
-67.7857
 20
128.586
 30
0.0
 10
-65.2721
 20
122.4378
 30
0.0
 10
-67.3629
 20
115.3637
 30
0.0
 10
-67.3629
 20
115.3637
 30
0.0
  0
SPLINE
  5
E1
330
1F
100
AcDbEntity
  8
layer 1
 62
   250
100
AcDbSpline
210
0.0
220
0.0
230
1.0
 70
    11
 71
     3
 72
    20
 73
    16
 74
     0
 42
0.0000000001
 43
0.0000000001
 12
1.0
 22
0.0
 32
0.0
 13
1.0
 23
0.0
 33
0.0
 40
0.0
 40
0.0
 40
0.0
 40
0.0
 40
0.2
 40
0.2
 40
0.2
 40
0.2
 40
0.4
 40
0.4
 40
0.4
 40
0.4
 40
0.6
 40
0.6
 40
0.6
 40
0.6
 40
1.0
 40
1.0
 40
1.0
 40
1.0
 10
-123.368
 20
115.3637
 30
0.0
 10
-118.9105
 20
118.1068
 30
0.0
 10
-119.9391
 20
126.3361
 30
0.0
 10
-119.9391
 20
126.3361
 30
0.0
 10
-119.9391
 20
126.3361
 30
0.0
 10
-120.1526
 20
127.0568
 30
0.0
 10
-120.2871
 20
127.7665
 30
0.0
 10
-120.5612
 20
128.586
 30
0.0
 10
-120.5612
 20
128.586
 30
0.0
 10
-120.5612
 20
128.586
 30
0.0
 10
-123.7907
 20
128.586
 30
0.0
 10
-123.7907
 20
128.586
 30
0.0
 10
-123.7907
 20
128.586
 30
0.0
 10
-121.2772
 20
122.4378
 30
0.0
 10
-123.368
 20
115.3637
 30
0.0
 10
-123.368
 20
115.3637
 30
0.0
  0
SPLINE
  5
E2
330
1F
100
AcDbEntity
  8
layer 1
 62
   250
100
AcDbSpline
210
0.0
220
0.0
230
1.0
 70
    11
 71
     3
 72
    20
 73
    16
 74
     0
 42
0.0000000001
 43
0.0000000001
 12
1.0
 22
0.0
 32
0.0
 13
1.0
 23
0.0
 33
0.0
 40
0.0
 40
0.0
 40
0.0
 40
0.0
 40
0.2
 40
0.2
 40
0.2
 40
0.2
 40
0.4
 40
0.4
 40
0.4
 40
0.4
 40
0.6
 40
0.6
 40
0.6
 40
0.6
 40
1.0
 40
1.0
 40
1.0
 40
1.0
 10
-179.6017
 20
115.3637
 30
0.0
 10
-175.1441
 20
118.1068
 30
0.0
 10
-176.1728
 20
126.3361
 30
0.0
 10
-176.1728
 20
126.3361
 30
0.0
 10
-176.1728
 20
126.3361
 30
0.0
 10
-176.3863
 20
127.0568
 30
0.0
 10
-176.5207
 20
127.7665
 30
0.0
 10
-176.7948
 20
128.586
 30
0.0
 10
-176.7948
 20
128.586
 30
0.0
 10
-176.7948
 20
128.586
 30
0.0
 10
-180.0243
 20
128.586
 30
0.0
 10
-180.0243
 20
128.586
 30
0.0
 10
-180.0243
 20
128.586
 30
0.0
 10
-177.5108
 20
122.4378
 30
0.0
 10
-179.6017
 20
115.3637
 30
0.0
 10
-179.6017
 20
115.3637
 30
0.0
  0
SPLINE
  5
E3
330
1F
100
AcDbEntity
  8
layer 1
 62
   250
100
AcDbSpline
210
0.0
220
0.0
230
1.0
 70
    11
 71
     3
 72
    20
 73
    16
 74
     0
 42
0.0000000001
 43
0.0000000001
 12
1.0
 22
0.0
 32
0.0
 13
1.0
 23
0.0
 33
0.0
 40
0.0
 40
0.0
 40
0.0
 40
0.0
 40
0.2
 40
0.2
 40
0.2
 40
0.2
 40
0.4
 40
0.4
 40
0.4
 40
0.4
 40
0.6
 40
0.6
 40
0.6
 40
0.6
 40
1.0
 40
1.0
 40
1.0
 40
1.0
 10
-55.8191
 20
-115.0575
 30
0.0
 10
-55.8191
 20
-115.0575
 30
0.0
 10
-187.4881
 20
-115.0575
 30
0.0
 10
-187.4881
 20
-115.0575
 30
0.0
 10
-187.4881
 20
-115.0575
 30
0.0
 10
-187.4881
 20
-115.0575
 30
0.0
 10
-187.4881
 20
131.822
 30
0.0
 10
-187.4881
 20
131.822
 30
0.0
 10
-187.4881
 20
131.822
 30
0.0
 10
-187.4881
 20
131.822
 30
0.0
 10
-55.8191
 20
131.822
 30
0.0
 10
-55.8191
 20
131.822
 30
0.0
 10
-55.8191
 20
131.822
 30
0.0
 10
-55.8191
 20
131.822
 30
0.0
 10
-55.8191
 20
-115.0575
 30
0.0
 10
-55.8191
 20
-115.0575
 30
0.0
  0
ENDSEC
  0
SECTION
  2
OBJECTS
  0
DICTIONARY
  5
C
330
0
100
AcDbDictionary
281
     1
  3
ACAD_GROUP
350
D
  3
ACAD_LAYOUT
350
1A
  3
ACAD_MATERIAL
350
3B
  3
ACAD_MLEADERSTYLE
350
105
  3
ACAD_MLINESTYLE
350
17
  3
ACAD_PLOTSETTINGS
350
19
  3
ACAD_PLOTSTYLENAME
350
E
  3
ACAD_TABLESTYLE
350
104
  3
ACAD_VISUALSTYLE
350
2A
  0
DICTIONARY
  5
D
102
{ACAD_REACTORS
330
C
102
}
330
C
100
AcDbDictionary
281
     1
  0
DICTIONARY
  5
1A
102
{ACAD_REACTORS
330
C
102
}
330
C
100
AcDbDictionary
281
     1
  3
Layout1
350
1E
  3
Layout2
350
26
  3
Model
350
22
  0
DICTIONARY
  5
3B
102
{ACAD_REACTORS
330
C
102
}
330
C
100
AcDbDictionary
281
     1
  3
ByBlock
350
3D
  3
ByLayer
350
3C
  3
Global
350
3E
  0
DICTIONARY
  5
105
102
{ACAD_REACTORS
330
C
102
}
330
C
100
AcDbDictionary
281
     1
  0
DICTIONARY
  5
17
102
{ACAD_REACTORS
330
C
102
}
330
C
100
AcDbDictionary
281
     1
  3
Standard
350
18
  0
DICTIONARY
  5
19
102
{ACAD_REACTORS
330
C
102
}
330
C
100
AcDbDictionary
281
     1
  0
ACDBDICTIONARYWDFLT
  5
E
102
{ACAD_REACTORS
330
C
102
}
330
C
100
AcDbDictionary
281
     1
  3
Normal
350
F
100
AcDbDictionaryWithDefault
340
F
  0
DICTIONARY
  5
104
102
{ACAD_REACTORS
330
C
102
}
330
C
100
AcDbDictionary
281
     1
  0
DICTIONARY
  5
2A
102
{ACAD_REACTORS
330
C
102
}
330
C
100
AcDbDictionary
281
     1
  3
2dWireframe
350
2F
  3
3D Hidden
350
31
  3
3dWireframe
350
30
  3
Basic
350
32
  3
Brighten
350
36
  3
ColorChange
350
3A
  3
Conceptual
350
34
  3
Dim
350
35
  3
Facepattern
350
39
  3
Flat
350
2B
  3
FlatWithEdges
350
2C
  3
Gouraud
350
2D
  3
GouraudWithEdges
350
2E
  3
Linepattern
350
38
  3
Realistic
350
33
  3
Thicken
350
37
  0
LAYOUT
  5
1E
102
{ACAD_REACTORS
330
1A
102
}
330
1A
100
AcDbPlotSettings
  1

  2
none_device
  4

  6

 40
0.0
 41
0.0
 42
0.0
 43
0.0
 44
0.0
 45
0.0
 46
0.0
 47
0.0
 48
0.0
 49
0.0
140
0.0
141
0.0
142
1.0
143
1.0
 70
   688
 72
     0
 73
     0
 74
     5
  7

 75
    16
 76
     0
 77
     2
 78
   300
147
1.0
148
0.0
149
0.0
100
AcDbLayout
  1
Layout1
 70
     1
 71
     1
 10
0.0
 20
0.0
 11
12.0
 21
9.0
 12
0.0
 22
0.0
 32
0.0
 14
1.000000000000000E+20
 24
1.000000000000000E+20
 34
1.000000000000000E+20
 15
-1.000000000000000E+20
 25
-1.000000000000000E+20
 35
-1.000000000000000E+20
146
0.0
 13
0.0
 23
0.0
 33
0.0
 16
1.0
 26
0.0
 36
0.0
 17
0.0
 27
1.0
 37
0.0
 76
     0
330
1B
  0
LAYOUT
  5
26
102
{ACAD_REACTORS
330
1A
102
}
330
1A
100
AcDbPlotSettings
  1

  2
none_device
  4

  6

 40
0.0
 41
0.0
 42
0.0
 43
0.0
 44
0.0
 45
0.0
 46
0.0
 47
0.0
 48
0.0
 49
0.0
140
0.0
141
0.0
142
1.0
143
1.0
 70
   688
 72
     0
 73
     0
 74
     5
  7

 75
    16
 76
     0
 77
     2
 78
   300
147
1.0
148
0.0
149
0.0
100
AcDbLayout
  1
Layout2
 70
     1
 71
     2
 10
0.0
 20
0.0
 11
0.0
 21
0.0
 12
0.0
 22
0.0
 32
0.0
 14
0.0
 24
0.0
 34
0.0
 15
0.0
 25
0.0
 35
0.0
146
0.0
 13
0.0
 23
0.0
 33
0.0
 16
1.0
 26
0.0
 36
0.0
 17
0.0
 27
1.0
 37
0.0
 76
     0
330
23
  0
LAYOUT
  5
22
102
{ACAD_REACTORS
330
1A
102
}
330
1A
100
AcDbPlotSettings
  1

  2
none_device
  4

  6

 40
0.0
 41
0.0
 42
0.0
 43
0.0
 44
0.0
 45
0.0
 46
0.0
 47
0.0
 48
0.0
 49
0.0
140
0.0
141
0.0
142
1.0
143
1.0
 70
  1712
 72
     0
 73
     0
 74
     0
  7

 75
     0
 76
     0
 77
     2
 78
   300
147
1.0
148
0.0
149
0.0
100
AcDbLayout
  1
Model
 70
     1
 71
     0
 10
0.0
 20
0.0
 11
12.0
 21
9.0
 12
0.0
 22
0.0
 32
0.0
 14
-187.4881
 24
-115.0575
 34
0.0
 15
-55.8191
 25
131.822
 35
0.0
146
0.0
 13
0.0
 23
0.0
 33
0.0
 16
1.0
 26
0.0
 36
0.0
 17
0.0
 27
1.0
 37
0.0
 76
     0
330
1F
331
29
  0
MATERIAL
  5
3D
102
{ACAD_REACTORS
330
3B
102
}
330
3B
100
AcDbMaterial
  1
ByBlock
 72
     1
 94
      127
  0
MATERIAL
  5
3C
102
{ACAD_REACTORS
330
3B
102
}
330
3B
100
AcDbMaterial
  1
ByLayer
 72
     1
 94
      127
  0
MATERIAL
  5
3E
102
{ACAD_REACTORS
330
3B
102
}
330
3B
100
AcDbMaterial
  1
Global
 72
     1
 94
      127
  0
MLINESTYLE
  5
18
102
{ACAD_REACTORS
330
17
102
}
330
17
100
AcDbMlineStyle
  2
Standard
 70
     0
  3

 62
   256
 51
90.0
 52
90.0
 71
     2
 49
0.5
 62
   256
  6
BYLAYER
 49
-0.5
 62
   256
  6
BYLAYER
  0
ACDBPLACEHOLDER
  5
F
102
{ACAD_REACTORS
330
E
102
}
330
E
  0
VISUALSTYLE
  5
2F
102
{ACAD_REACTORS
330
2A
102
}
102
{ACAD_XDICTIONARY
360
EC
102
}
330
2A
100
AcDbVisualStyle
  2
2dWireframe
 70
     4
 71
     0
 72
     2
 73
     0
 90
        0
 40
-0.6
 41
-30.0
 62
     5
 63
     7
421
 16777215
 74
     1
 91
        4
 64
     7
 65
   257
 75
     1
175
     1
 42
1.0
 92
        0
 66
   257
 43
1.0
 76
     1
 77
     6
 78
     2
 67
     7
 79
     5
170
     0
171
     0
290
     0
174
     0
 93
        1
 44
0.0
173
     0
291
     0
 45
0.0
  0
VISUALSTYLE
  5
31
102
{ACAD_REACTORS
330
2A
102
}
102
{ACAD_XDICTIONARY
360
F0
102
}
330
2A
100
AcDbVisualStyle
  2
3D Hidden
 70
     6
 71
     1
 72
     2
 73
     2
 90
        0
 40
-0.6
 41
-30.0
 62
     5
 63
     7
421
 16777215
 74
     2
 91
        2
 64
     7
 65
   257
 75
     2
175
     1
 42
40.0
 92
        0
 66
   257
 43
1.0
 76
     1
 77
     6
 78
     2
 67
     7
 79
     3
170
     0
171
     0
290
     0
174
     0
 93
        1
 44
0.0
173
     0
291
     0
 45
0.0
  0
VISUALSTYLE
  5
30
102
{ACAD_REACTORS
330
2A
102
}
102
{ACAD_XDICTIONARY
360
EE
102
}
330
2A
100
AcDbVisualStyle
  2
3dWireframe
 70
     5
 71
     0
 72
     2
 73
     0
 90
        0
 40
-0.6
 41
-30.0
 62
     5
 63
     7
421
 16777215
 74
     1
 91
        4
 64
     7
 65
   257
 75
     1
175
     1
 42
1.0
 92
        0
 66
   257
 43
1.0
 76
     1
 77
     6
 78
     2
 67
     7
 79
     5
170
     0
171
     0
290
     0
174
     0
 93
        1
 44
0.0
173
     0
291
     0
 45
0.0
  0
VISUALSTYLE
  5
32
102
{ACAD_REACTORS
330
2A
102
}
102
{ACAD_XDICTIONARY
360
F2
102
}
330
2A
100
AcDbVisualStyle
  2
Basic
 70
     7
 71
     1
 72
     0
 73
     1
 90
        0
 40
-0.6
 41
-30.0
 62
     5
 63
     7
421
 16777215
 74
     0
 91
        4
 64
     7
 65
   257
 75
     1
175
     1
 42
1.0
 92
        8
 66
     7
 43
1.0
 76
     1
 77
     6
 78
     2
 67
     7
 79
     5
170
     0
171
     0
290
     0
174
     0
 93
        1
 44
0.0
173
     0
291
     1
 45
0.0
  0
VISUALSTYLE
  5
36
102
{ACAD_REACTORS
330
2A
102
}
102
{ACAD_XDICTIONARY
360
FA
102
}
330
2A
100
AcDbVisualStyle
  2
Brighten
 70
    12
 71
     2
 72
     2
 73
     0
 90
        0
 40
-0.6
 41
-30.0
 62
     5
 63
     7
421
 16777215
 74
     1
 91
        4
 64
     7
 65
   257
 75
     1
175
     1
 42
1.0
 92
        8
 66
     7
 43
1.0
 76
     1
 77
     6
 78
     2
 67
     7
 79
     5
170
     0
171
     0
290
     0
174
     0
 93
        1
 44
50.0
173
     0
291
     1
 45
0.0
  0
VISUALSTYLE
  5
3A
102
{ACAD_REACTORS
330
2A
102
}
102
{ACAD_XDICTIONARY
360
102
102
}
330
2A
100
AcDbVisualStyle
  2
ColorChange
 70
    16
 71
     2
 72
     2
 73
     3
 90
        0
 40
-0.6
 41
-30.0
 62
     5
 63
     8
421
  8421504
 74
     1
 91
        4
 64
     7
 65
   257
 75
     1
175
     1
 42
1.0
 92
        8
 66
     8
424
  8421504
 43
1.0
 76
     1
 77
     6
 78
     2
 67
     7
 79
     5
170
     0
171
     0
290
     0
174
     0
 93
        1
 44
0.0
173
     0
291
     1
 45
0.0
  0
VISUALSTYLE
  5
34
102
{ACAD_REACTORS
330
2A
102
}
102
{ACAD_XDICTIONARY
360
F6
102
}
330
2A
100
AcDbVisualStyle
  2
Conceptual
 70
     9
 71
     3
 72
     2
 73
     0
 90
        0
 40
-0.6
 41
-30.0
 62
     5
 63
     7
421
 16777215
 74
     2
 91
        2
 64
     7
 65
   257
 75
     1
175
     1
 42
40.0
 92
        8
 66
     7
 43
1.0
 76
     1
 77
     6
 78
     2
 67
     7
 79
     3
170
     0
171
     0
290
     0
174
     0
 93
        1
 44
0.0
173
     0
291
     0
 45
0.0
  0
VISUALSTYLE
  5
35
102
{ACAD_REACTORS
330
2A
102
}
102
{ACAD_XDICTIONARY
360
F8
102
}
330
2A
100
AcDbVisualStyle
  2
Dim
 70
    11
 71
     2
 72
     2
 73
     0
 90
        0
 40
-0.6
 41
-30.0
 62
     5
 63
     7
421
 16777215
 74
     1
 91
        4
 64
     7
 65
   257
 75
     1
175
     1
 42
1.0
 92
        8
 66
     7
 43
1.0
 76
     1
 77
     6
 78
     2
 67
     7
 79
     5
170
     0
171
     0
290
     0
174
     0
 93
        1
 44
-50.0
173
     0
291
     1
 45
0.0
  0
VISUALSTYLE
  5
39
102
{ACAD_REACTORS
330
2A
102
}
102
{ACAD_XDICTIONARY
360
100
102
}
330
2A
100
AcDbVisualStyle
  2
Facepattern
 70
    15
 71
     2
 72
     2
 73
     0
 90
        0
 40
-0.6
 41
-30.0
 62
     5
 63
     7
421
 16777215
 74
     1
 91
        4
 64
     7
 65
   257
 75
     1
175
     1
 42
1.0
 92
        8
 66
     7
 43
1.0
 76
     1
 77
     6
 78
     2
 67
     7
 79
     5
170
     0
171
     0
290
     0
174
     0
 93
        1
 44
0.0
173
     0
291
     1
 45
0.0
  0
VISUALSTYLE
  5
2B
102
{ACAD_REACTORS
330
2A
102
}
102
{ACAD_XDICTIONARY
360
E4
102
}
330
2A
100
AcDbVisualStyle
  2
Flat
 70
     0
 71
     2
 72
     1
 73
     1
 90
        2
 40
-0.6
 41
30.0
 62
     5
 63
     7
421
 16777215
 74
     0
 91
        4
 64
     7
 65
   257
 75
     1
175
     1
 42
1.0
 92
        8
 66
     7
 43
1.0
 76
     1
 77
     6
 78
     2
 67
     7
 79
     5
170
     0
171
     0
290
     0
174
     0
 93
       13
 44
0.0
173
     0
291
     1
 45
0.0
  0
VISUALSTYLE
  5
2C
102
{ACAD_REACTORS
330
2A
102
}
102
{ACAD_XDICTIONARY
360
E6
102
}
330
2A
100
AcDbVisualStyle
  2
FlatWithEdges
 70
     1
 71
     2
 72
     1
 73
     1
 90
        2
 40
-0.6
 41
30.0
 62
     5
 63
     7
421
 16777215
 74
     1
 91
        4
 64
     7
 65
   257
 75
     1
175
     1
 42
1.0
 92
        0
 66
   257
 43
1.0
 76
     1
 77
     6
 78
     2
 67
     7
 79
     5
170
     0
171
     0
290
     0
174
     0
 93
       13
 44
0.0
173
     0
291
     1
 45
0.0
  0
VISUALSTYLE
  5
2D
102
{ACAD_REACTORS
330
2A
102
}
102
{ACAD_XDICTIONARY
360
E8
102
}
330
2A
100
AcDbVisualStyle
  2
Gouraud
 70
     2
 71
     2
 72
     2
 73
     1
 90
        2
 40
-0.6
 41
30.0
 62
     5
 63
     7
421
 16777215
 74
     0
 91
        4
 64
     7
 65
   257
 75
     1
175
     1
 42
1.0
 92
        0
 66
     7
 43
1.0
 76
     1
 77
     6
 78
     2
 67
     7
 79
     5
170
     0
171
     0
290
     0
174
     0
 93
       13
 44
0.0
173
     0
291
     1
 45
0.0
  0
VISUALSTYLE
  5
2E
102
{ACAD_REACTORS
330
2A
102
}
102
{ACAD_XDICTIONARY
360
EA
102
}
330
2A
100
AcDbVisualStyle
  2
GouraudWithEdges
 70
     3
 71
     2
 72
     2
 73
     1
 90
        2
 40
-0.6
 41
30.0
 62
     5
 63
     7
421
 16777215
 74
     1
 91
        4
 64
     7
 65
   257
 75
     1
175
     1
 42
1.0
 92
        0
 66
   257
 43
1.0
 76
     1
 77
     6
 78
     2
 67
     7
 79
     5
170
     0
171
     0
290
     0
174
     0
 93
       13
 44
0.0
173
     0
291
     1
 45
0.0
  0
VISUALSTYLE
  5
38
102
{ACAD_REACTORS
330
2A
102
}
102
{ACAD_XDICTIONARY
360
FE
102
}
330
2A
100
AcDbVisualStyle
  2
Linepattern
 70
    14
 71
     2
 72
     2
 73
     0
 90
        0
 40
-0.6
 41
-30.0
 62
     5
 63
     7
421
 16777215
 74
     1
 91
        4
 64
     7
 65
   257
 75
     7
175
     7
 42
1.0
 92
        8
 66
     7
 43
1.0
 76
     1
 77
     6
 78
     2
 67
     7
 79
     5
170
     0
171
     0
290
     0
174
     0
 93
        1
 44
0.0
173
     0
291
     1
 45
0.0
  0
VISUALSTYLE
  5
33
102
{ACAD_REACTORS
330
2A
102
}
102
{ACAD_XDICTIONARY
360
F4
102
}
330
2A
100
AcDbVisualStyle
  2
Realistic
 70
     8
 71
     2
 72
     2
 73
     0
 90
        0
 40
-0.6
 41
-30.0
 62
     5
 63
     7
421
 16777215
 74
     1
 91
        0
 64
     7
 65
   257
 75
     1
175
     1
 42
1.0
 92
        8
 66
     8
424
  7895160
 43
1.0
 76
     1
 77
     6
 78
     2
 67
     7
 79
     5
170
     0
171
     0
290
     0
174
     0
 93
       13
 44
0.0
173
     0
291
     0
 45
0.0
  0
VISUALSTYLE
  5
37
102
{ACAD_REACTORS
330
2A
102
}
102
{ACAD_XDICTIONARY
360
FC
102
}
330
2A
100
AcDbVisualStyle
  2
Thicken
 70
    13
 71
     2
 72
     2
 73
     0
 90
        0
 40
-0.6
 41
-30.0
 62
     5
 63
     7
421
 16777215
 74
     1
 91
        4
 64
     7
 65
   257
 75
     1
175
     1
 42
1.0
 92
       12
 66
     7
 43
1.0
 76
     1
 77
     6
 78
     2
 67
     7
 79
     5
170
     0
171
     0
290
     0
174
     0
 93
        1
 44
0.0
173
     0
291
     1
 45
0.0
  0
DICTIONARY
  5
EC
330
2F
100
AcDbDictionary
280
     1
281
     1
  3
ACAD_XREC_ROUNDTRIP
360
ED
  0
DICTIONARY
  5
F0
330
31
100
AcDbDictionary
280
     1
281
     1
  3
ACAD_XREC_ROUNDTRIP
360
F1
  0
DICTIONARY
  5
EE
330
30
100
AcDbDictionary
280
     1
281
     1
  3
ACAD_XREC_ROUNDTRIP
360
EF
  0
DICTIONARY
  5
F2
330
32
100
AcDbDictionary
280
     1
281
     1
  3
ACAD_XREC_ROUNDTRIP
360
F3
  0
DICTIONARY
  5
FA
330
36
100
AcDbDictionary
280
     1
281
     1
  3
ACAD_XREC_ROUNDTRIP
360
FB
  0
DICTIONARY
  5
102
330
3A
100
AcDbDictionary
280
     1
281
     1
  3
ACAD_XREC_ROUNDTRIP
360
103
  0
DICTIONARY
  5
F6
330
34
100
AcDbDictionary
280
     1
281
     1
  3
ACAD_XREC_ROUNDTRIP
360
F7
  0
DICTIONARY
  5
F8
330
35
100
AcDbDictionary
280
     1
281
     1
  3
ACAD_XREC_ROUNDTRIP
360
F9
  0
DICTIONARY
  5
100
330
39
100
AcDbDictionary
280
     1
281
     1
  3
ACAD_XREC_ROUNDTRIP
360
101
  0
DICTIONARY
  5
E4
330
2B
100
AcDbDictionary
280
     1
281
     1
  3
ACAD_XREC_ROUNDTRIP
360
E5
  0
DICTIONARY
  5
E6
330
2C
100
AcDbDictionary
280
     1
281
     1
  3
ACAD_XREC_ROUNDTRIP
360
E7
  0
DICTIONARY
  5
E8
330
2D
100
AcDbDictionary
280
     1
281
     1
  3
ACAD_XREC_ROUNDTRIP
360
E9
  0
DICTIONARY
  5
EA
330
2E
100
AcDbDictionary
280
     1
281
     1
  3
ACAD_XREC_ROUNDTRIP
360
EB
  0
DICTIONARY
  5
FE
330
38
100
AcDbDictionary
280
     1
281
     1
  3
ACAD_XREC_ROUNDTRIP
360
FF
  0
DICTIONARY
  5
F4
330
33
100
AcDbDictionary
280
     1
281
     1
  3
ACAD_XREC_ROUNDTRIP
360
F5
  0
DICTIONARY
  5
FC
330
37
100
AcDbDictionary
280
     1
281
     1
  3
ACAD_XREC_ROUNDTRIP
360
FD
  0
XRECORD
  5
ED
102
{ACAD_REACTORS
330
EC
102
}
330
EC
100
AcDbXrecord
280
     1
102
RTVSPropertyOp0
 70
     1
102
RTVSPropertyOp1
 70
     1
102
RTVSPropertyOp2
 70
     1
102
RTVSPropertyOp3
 70
     1
102
RTVSPropertyOp4
 70
     1
102
RTVSPropertyOp5
 70
     1
102
RTVSPropertyOp6
 70
     1
102
RTVSPropertyOp7
 70
     1
102
RTVSPropertyOp8
 70
     1
102
RTVSPropertyOp9
 70
     1
102
RTVSPropertyOp10
 70
     1
102
RTVSPropertyOp11
 70
     1
102
RTVSPropertyOp12
 70
     1
102
RTVSPropertyOp13
 70
     1
102
RTVSPropertyOp14
 70
     1
102
RTVSPropertyOp15
 70
     1
102
RTVSPropertyOp16
 70
     1
102
RTVSPropertyOp17
 70
     1
102
RTVSPropertyOp18
 70
     1
102
RTVSPropertyOp19
 70
     1
102
RTVSPropertyOp20
 70
     1
102
RTVSPropertyOp21
 70
     1
102
RTVSPropertyOp22
 70
     1
102
RTVSPropertyOp23
 70
     1
102
RTVSPropertyOp24
 70
     1
102
RTVSPropertyOp25
 70
     1
102
RTVSPropertyOp26
 70
     1
102
RTVSPropertyOp27
 70
     1
102
RTVSPropertyOp28
 70
     1
102
RTVSPropertyOp29
 70
     1
102
RTVSPropertyOp30
 70
     1
102
RTVSPropertyOp31
 70
     1
102
RTVSPropertyOp32
 70
     1
  0
XRECORD
  5
F1
102
{ACAD_REACTORS
330
F0
102
}
330
F0
100
AcDbXrecord
280
     1
102
RTVSPropertyOp0
 70
     1
102
RTVSPropertyOp1
 70
     1
102
RTVSPropertyOp2
 70
     1
102
RTVSPropertyOp3
 70
     1
102
RTVSPropertyOp4
 70
     1
102
RTVSPropertyOp5
 70
     1
102
RTVSPropertyOp6
 70
     1
102
RTVSPropertyOp7
 70
     1
102
RTVSPropertyOp8
 70
     1
102
RTVSPropertyOp9
 70
     1
102
RTVSPropertyOp10
 70
     1
102
RTVSPropertyOp11
 70
     1
102
RTVSPropertyOp12
 70
     1
102
RTVSPropertyOp13
 70
     1
102
RTVSPropertyOp14
 70
     1
102
RTVSPropertyOp15
 70
     1
102
RTVSPropertyOp16
 70
     1
102
RTVSPropertyOp17
 70
     1
102
RTVSPropertyOp18
 70
     1
102
RTVSPropertyOp19
 70
     1
102
RTVSPropertyOp20
 70
     1
102
RTVSPropertyOp21
 70
     1
102
RTVSPropertyOp22
 70
     1
102
RTVSPropertyOp23
 70
     1
102
RTVSPropertyOp24
 70
     1
102
RTVSPropertyOp25
 70
     1
102
RTVSPropertyOp26
 70
     1
102
RTVSPropertyOp27
 70
     1
102
RTVSPropertyOp28
 70
     1
102
RTVSPropertyOp29
 70
     1
102
RTVSPropertyOp30
 70
     1
102
RTVSPropertyOp31
 70
     1
102
RTVSPropertyOp32
 70
     1
  0
XRECORD
  5
EF
102
{ACAD_REACTORS
330
EE
102
}
330
EE
100
AcDbXrecord
280
     1
102
RTVSPropertyOp0
 70
     1
102
RTVSPropertyOp1
 70
     1
102
RTVSPropertyOp2
 70
     1
102
RTVSPropertyOp3
 70
     1
102
RTVSPropertyOp4
 70
     1
102
RTVSPropertyOp5
 70
     1
102
RTVSPropertyOp6
 70
     1
102
RTVSPropertyOp7
 70
     1
102
RTVSPropertyOp8
 70
     1
102
RTVSPropertyOp9
 70
     1
102
RTVSPropertyOp10
 70
     1
102
RTVSPropertyOp11
 70
     1
102
RTVSPropertyOp12
 70
     1
102
RTVSPropertyOp13
 70
     1
102
RTVSPropertyOp14
 70
     1
102
RTVSPropertyOp15
 70
     1
102
RTVSPropertyOp16
 70
     1
102
RTVSPropertyOp17
 70
     1
102
RTVSPropertyOp18
 70
     1
102
RTVSPropertyOp19
 70
     1
102
RTVSPropertyOp20
 70
     1
102
RTVSPropertyOp21
 70
     1
102
RTVSPropertyOp22
 70
     1
102
RTVSPropertyOp23
 70
     1
102
RTVSPropertyOp24
 70
     1
102
RTVSPropertyOp25
 70
     1
102
RTVSPropertyOp26
 70
     1
102
RTVSPropertyOp27
 70
     1
102
RTVSPropertyOp28
 70
     1
102
RTVSPropertyOp29
 70
     1
102
RTVSPropertyOp30
 70
     1
102
RTVSPropertyOp31
 70
     1
102
RTVSPropertyOp32
 70
     1
  0
XRECORD
  5
F3
102
{ACAD_REACTORS
330
F2
102
}
330
F2
100
AcDbXrecord
280
     1
102
RTVSPropertyOp0
 70
     1
102
RTVSPropertyOp1
 70
     1
102
RTVSPropertyOp2
 70
     1
102
RTVSPropertyOp3
 70
     1
102
RTVSPropertyOp4
 70
     1
102
RTVSPropertyOp5
 70
     1
102
RTVSPropertyOp6
 70
     1
102
RTVSPropertyOp7
 70
     1
102
RTVSPropertyOp8
 70
     1
102
RTVSPropertyOp9
 70
     1
102
RTVSPropertyOp10
 70
     1
102
RTVSPropertyOp11
 70
     1
102
RTVSPropertyOp12
 70
     1
102
RTVSPropertyOp13
 70
     1
102
RTVSPropertyOp14
 70
     1
102
RTVSPropertyOp15
 70
     1
102
RTVSPropertyOp16
 70
     1
102
RTVSPropertyOp17
 70
     1
102
RTVSPropertyOp18
 70
     1
102
RTVSPropertyOp19
 70
     1
102
RTVSPropertyOp20
 70
     1
102
RTVSPropertyOp21
 70
     1
102
RTVSPropertyOp22
 70
     1
102
RTVSPropertyOp23
 70
     1
102
RTVSPropertyOp24
 70
     1
102
RTVSPropertyOp25
 70
     1
102
RTVSPropertyOp26
 70
     1
102
RTVSPropertyOp27
 70
     1
102
RTVSPropertyOp28
 70
     1
102
RTVSPropertyOp29
 70
     1
102
RTVSPropertyOp30
 70
     1
102
RTVSPropertyOp31
 70
     1
102
RTVSPropertyOp32
 70
     1
  0
XRECORD
  5
FB
102
{ACAD_REACTORS
330
FA
102
}
330
FA
100
AcDbXrecord
280
     1
102
RTVSPropertyOp0
 70
     1
102
RTVSPropertyOp1
 70
     1
102
RTVSPropertyOp2
 70
     1
102
RTVSPropertyOp3
 70
     1
102
RTVSPropertyOp4
 70
     1
102
RTVSPropertyOp5
 70
     1
102
RTVSPropertyOp6
 70
     1
102
RTVSPropertyOp7
 70
     1
102
RTVSPropertyOp8
 70
     1
102
RTVSPropertyOp9
 70
     1
102
RTVSPropertyOp10
 70
     1
102
RTVSPropertyOp11
 70
     1
102
RTVSPropertyOp12
 70
     1
102
RTVSPropertyOp13
 70
     1
102
RTVSPropertyOp14
 70
     1
102
RTVSPropertyOp15
 70
     1
102
RTVSPropertyOp16
 70
     1
102
RTVSPropertyOp17
 70
     1
102
RTVSPropertyOp18
 70
     1
102
RTVSPropertyOp19
 70
     1
102
RTVSPropertyOp20
 70
     1
102
RTVSPropertyOp21
 70
     1
102
RTVSPropertyOp22
 70
     1
102
RTVSPropertyOp23
 70
     1
102
RTVSPropertyOp24
 70
     1
102
RTVSPropertyOp25
 70
     1
102
RTVSPropertyOp26
 70
     1
102
RTVSPropertyOp27
 70
     1
102
RTVSPropertyOp28
 70
     1
102
RTVSPropertyOp29
 70
     1
102
RTVSPropertyOp30
 70
     1
102
RTVSPropertyOp31
 70
     1
102
RTVSPropertyOp32
 70
     1
  0
XRECORD
  5
103
102
{ACAD_REACTORS
330
102
102
}
330
102
100
AcDbXrecord
280
     1
102
RTVSPropertyOp0
 70
     1
102
RTVSPropertyOp1
 70
     1
102
RTVSPropertyOp2
 70
     1
102
RTVSPropertyOp3
 70
     1
102
RTVSPropertyOp4
 70
     1
102
RTVSPropertyOp5
 70
     1
102
RTVSPropertyOp6
 70
     1
102
RTVSPropertyOp7
 70
     1
102
RTVSPropertyOp8
 70
     1
102
RTVSPropertyOp9
 70
     1
102
RTVSPropertyOp10
 70
     1
102
RTVSPropertyOp11
 70
     1
102
RTVSPropertyOp12
 70
     1
102
RTVSPropertyOp13
 70
     1
102
RTVSPropertyOp14
 70
     1
102
RTVSPropertyOp15
 70
     1
102
RTVSPropertyOp16
 70
     1
102
RTVSPropertyOp17
 70
     1
102
RTVSPropertyOp18
 70
     1
102
RTVSPropertyOp19
 70
     1
102
RTVSPropertyOp20
 70
     1
102
RTVSPropertyOp21
 70
     1
102
RTVSPropertyOp22
 70
     1
102
RTVSPropertyOp23
 70
     1
102
RTVSPropertyOp24
 70
     1
102
RTVSPropertyOp25
 70
     1
102
RTVSPropertyOp26
 70
     1
102
RTVSPropertyOp27
 70
     1
102
RTVSPropertyOp28
 70
     1
102
RTVSPropertyOp29
 70
     1
102
RTVSPropertyOp30
 70
     1
102
RTVSPropertyOp31
 70
     1
102
RTVSPropertyOp32
 70
     1
  0
XRECORD
  5
F7
102
{ACAD_REACTORS
330
F6
102
}
330
F6
100
AcDbXrecord
280
     1
102
RTVSPropertyOp0
 70
     1
102
RTVSPropertyOp1
 70
     1
102
RTVSPropertyOp2
 70
     1
102
RTVSPropertyOp3
 70
     1
102
RTVSPropertyOp4
 70
     1
102
RTVSPropertyOp5
 70
     1
102
RTVSPropertyOp6
 70
     1
102
RTVSPropertyOp7
 70
     1
102
RTVSPropertyOp8
 70
     1
102
RTVSPropertyOp9
 70
     1
102
RTVSPropertyOp10
 70
     1
102
RTVSPropertyOp11
 70
     1
102
RTVSPropertyOp12
 70
     1
102
RTVSPropertyOp13
 70
     1
102
RTVSPropertyOp14
 70
     1
102
RTVSPropertyOp15
 70
     1
102
RTVSPropertyOp16
 70
     1
102
RTVSPropertyOp17
 70
     1
102
RTVSPropertyOp18
 70
     1
102
RTVSPropertyOp19
 70
     1
102
RTVSPropertyOp20
 70
     1
102
RTVSPropertyOp21
 70
     1
102
RTVSPropertyOp22
 70
     1
102
RTVSPropertyOp23
 70
     1
102
RTVSPropertyOp24
 70
     1
102
RTVSPropertyOp25
 70
     1
102
RTVSPropertyOp26
 70
     1
102
RTVSPropertyOp27
 70
     1
102
RTVSPropertyOp28
 70
     1
102
RTVSPropertyOp29
 70
     1
102
RTVSPropertyOp30
 70
     1
102
RTVSPropertyOp31
 70
     1
102
RTVSPropertyOp32
 70
     1
  0
XRECORD
  5
F9
102
{ACAD_REACTORS
330
F8
102
}
330
F8
100
AcDbXrecord
280
     1
102
RTVSPropertyOp0
 70
     1
102
RTVSPropertyOp1
 70
     1
102
RTVSPropertyOp2
 70
     1
102
RTVSPropertyOp3
 70
     1
102
RTVSPropertyOp4
 70
     1
102
RTVSPropertyOp5
 70
     1
102
RTVSPropertyOp6
 70
     1
102
RTVSPropertyOp7
 70
     1
102
RTVSPropertyOp8
 70
     1
102
RTVSPropertyOp9
 70
     1
102
RTVSPropertyOp10
 70
     1
102
RTVSPropertyOp11
 70
     1
102
RTVSPropertyOp12
 70
     1
102
RTVSPropertyOp13
 70
     1
102
RTVSPropertyOp14
 70
     1
102
RTVSPropertyOp15
 70
     1
102
RTVSPropertyOp16
 70
     1
102
RTVSPropertyOp17
 70
     1
102
RTVSPropertyOp18
 70
     1
102
RTVSPropertyOp19
 70
     1
102
RTVSPropertyOp20
 70
     1
102
RTVSPropertyOp21
 70
     1
102
RTVSPropertyOp22
 70
     1
102
RTVSPropertyOp23
 70
     1
102
RTVSPropertyOp24
 70
     1
102
RTVSPropertyOp25
 70
     1
102
RTVSPropertyOp26
 70
     1
102
RTVSPropertyOp27
 70
     1
102
RTVSPropertyOp28
 70
     1
102
RTVSPropertyOp29
 70
     1
102
RTVSPropertyOp30
 70
     1
102
RTVSPropertyOp31
 70
     1
102
RTVSPropertyOp32
 70
     1
  0
XRECORD
  5
101
102
{ACAD_REACTORS
330
100
102
}
330
100
100
AcDbXrecord
280
     1
102
RTVSPropertyOp0
 70
     1
102
RTVSPropertyOp1
 70
     1
102
RTVSPropertyOp2
 70
     1
102
RTVSPropertyOp3
 70
     1
102
RTVSPropertyOp4
 70
     1
102
RTVSPropertyOp5
 70
     1
102
RTVSPropertyOp6
 70
     1
102
RTVSPropertyOp7
 70
     1
102
RTVSPropertyOp8
 70
     1
102
RTVSPropertyOp9
 70
     1
102
RTVSPropertyOp10
 70
     1
102
RTVSPropertyOp11
 70
     1
102
RTVSPropertyOp12
 70
     1
102
RTVSPropertyOp13
 70
     1
102
RTVSPropertyOp14
 70
     1
102
RTVSPropertyOp15
 70
     1
102
RTVSPropertyOp16
 70
     1
102
RTVSPropertyOp17
 70
     1
102
RTVSPropertyOp18
 70
     1
102
RTVSPropertyOp19
 70
     1
102
RTVSPropertyOp20
 70
     1
102
RTVSPropertyOp21
 70
     1
102
RTVSPropertyOp22
 70
     1
102
RTVSPropertyOp23
 70
     1
102
RTVSPropertyOp24
 70
     1
102
RTVSPropertyOp25
 70
     1
102
RTVSPropertyOp26
 70
     1
102
RTVSPropertyOp27
 70
     1
102
RTVSPropertyOp28
 70
     1
102
RTVSPropertyOp29
 70
     1
102
RTVSPropertyOp30
 70
     1
102
RTVSPropertyOp31
 70
     1
102
RTVSPropertyOp32
 70
     1
  0
XRECORD
  5
E5
102
{ACAD_REACTORS
330
E4
102
}
330
E4
100
AcDbXrecord
280
     1
102
RTVSPropertyOp0
 70
     1
102
RTVSPropertyOp1
 70
     1
102
RTVSPropertyOp2
 70
     1
102
RTVSPropertyOp3
 70
     1
102
RTVSPropertyOp4
 70
     1
102
RTVSPropertyOp5
 70
     1
102
RTVSPropertyOp6
 70
     1
102
RTVSPropertyOp7
 70
     1
102
RTVSPropertyOp8
 70
     1
102
RTVSPropertyOp9
 70
     1
102
RTVSPropertyOp10
 70
     1
102
RTVSPropertyOp11
 70
     1
102
RTVSPropertyOp12
 70
     1
102
RTVSPropertyOp13
 70
     1
102
RTVSPropertyOp14
 70
     1
102
RTVSPropertyOp15
 70
     1
102
RTVSPropertyOp16
 70
     1
102
RTVSPropertyOp17
 70
     1
102
RTVSPropertyOp18
 70
     1
102
RTVSPropertyOp19
 70
     1
102
RTVSPropertyOp20
 70
     1
102
RTVSPropertyOp21
 70
     1
102
RTVSPropertyOp22
 70
     1
102
RTVSPropertyOp23
 70
     1
102
RTVSPropertyOp24
 70
     1
102
RTVSPropertyOp25
 70
     1
102
RTVSPropertyOp26
 70
     1
102
RTVSPropertyOp27
 70
     1
102
RTVSPropertyOp28
 70
     1
102
RTVSPropertyOp29
 70
     1
102
RTVSPropertyOp30
 70
     1
102
RTVSPropertyOp31
 70
     1
102
RTVSPropertyOp32
 70
     1
  0
XRECORD
  5
E7
102
{ACAD_REACTORS
330
E6
102
}
330
E6
100
AcDbXrecord
280
     1
102
RTVSPropertyOp0
 70
     1
102
RTVSPropertyOp1
 70
     1
102
RTVSPropertyOp2
 70
     1
102
RTVSPropertyOp3
 70
     1
102
RTVSPropertyOp4
 70
     1
102
RTVSPropertyOp5
 70
     1
102
RTVSPropertyOp6
 70
     1
102
RTVSPropertyOp7
 70
     1
102
RTVSPropertyOp8
 70
     1
102
RTVSPropertyOp9
 70
     1
102
RTVSPropertyOp10
 70
     1
102
RTVSPropertyOp11
 70
     1
102
RTVSPropertyOp12
 70
     1
102
RTVSPropertyOp13
 70
     1
102
RTVSPropertyOp14
 70
     1
102
RTVSPropertyOp15
 70
     1
102
RTVSPropertyOp16
 70
     1
102
RTVSPropertyOp17
 70
     1
102
RTVSPropertyOp18
 70
     1
102
RTVSPropertyOp19
 70
     1
102
RTVSPropertyOp20
 70
     1
102
RTVSPropertyOp21
 70
     1
102
RTVSPropertyOp22
 70
     1
102
RTVSPropertyOp23
 70
     1
102
RTVSPropertyOp24
 70
     1
102
RTVSPropertyOp25
 70
     1
102
RTVSPropertyOp26
 70
     1
102
RTVSPropertyOp27
 70
     1
102
RTVSPropertyOp28
 70
     1
102
RTVSPropertyOp29
 70
     1
102
RTVSPropertyOp30
 70
     1
102
RTVSPropertyOp31
 70
     1
102
RTVSPropertyOp32
 70
     1
  0
XRECORD
  5
E9
102
{ACAD_REACTORS
330
E8
102
}
330
E8
100
AcDbXrecord
280
     1
102
RTVSPropertyOp0
 70
     1
102
RTVSPropertyOp1
 70
     1
102
RTVSPropertyOp2
 70
     1
102
RTVSPropertyOp3
 70
     1
102
RTVSPropertyOp4
 70
     1
102
RTVSPropertyOp5
 70
     1
102
RTVSPropertyOp6
 70
     1
102
RTVSPropertyOp7
 70
     1
102
RTVSPropertyOp8
 70
     1
102
RTVSPropertyOp9
 70
     1
102
RTVSPropertyOp10
 70
     1
102
RTVSPropertyOp11
 70
     1
102
RTVSPropertyOp12
 70
     1
102
RTVSPropertyOp13
 70
     1
102
RTVSPropertyOp14
 70
     1
102
RTVSPropertyOp15
 70
     1
102
RTVSPropertyOp16
 70
     1
102
RTVSPropertyOp17
 70
     1
102
RTVSPropertyOp18
 70
     1
102
RTVSPropertyOp19
 70
     1
102
RTVSPropertyOp20
 70
     1
102
RTVSPropertyOp21
 70
     1
102
RTVSPropertyOp22
 70
     1
102
RTVSPropertyOp23
 70
     1
102
RTVSPropertyOp24
 70
     1
102
RTVSPropertyOp25
 70
     1
102
RTVSPropertyOp26
 70
     1
102
RTVSPropertyOp27
 70
     1
102
RTVSPropertyOp28
 70
     1
102
RTVSPropertyOp29
 70
     1
102
RTVSPropertyOp30
 70
     1
102
RTVSPropertyOp31
 70
     1
102
RTVSPropertyOp32
 70
     1
  0
XRECORD
  5
EB
102
{ACAD_REACTORS
330
EA
102
}
330
EA
100
AcDbXrecord
280
     1
102
RTVSPropertyOp0
 70
     1
102
RTVSPropertyOp1
 70
     1
102
RTVSPropertyOp2
 70
     1
102
RTVSPropertyOp3
 70
     1
102
RTVSPropertyOp4
 70
     1
102
RTVSPropertyOp5
 70
     1
102
RTVSPropertyOp6
 70
     1
102
RTVSPropertyOp7
 70
     1
102
RTVSPropertyOp8
 70
     1
102
RTVSPropertyOp9
 70
     1
102
RTVSPropertyOp10
 70
     1
102
RTVSPropertyOp11
 70
     1
102
RTVSPropertyOp12
 70
     1
102
RTVSPropertyOp13
 70
     1
102
RTVSPropertyOp14
 70
     1
102
RTVSPropertyOp15
 70
     1
102
RTVSPropertyOp16
 70
     1
102
RTVSPropertyOp17
 70
     1
102
RTVSPropertyOp18
 70
     1
102
RTVSPropertyOp19
 70
     1
102
RTVSPropertyOp20
 70
     1
102
RTVSPropertyOp21
 70
     1
102
RTVSPropertyOp22
 70
     1
102
RTVSPropertyOp23
 70
     1
102
RTVSPropertyOp24
 70
     1
102
RTVSPropertyOp25
 70
     1
102
RTVSPropertyOp26
 70
     1
102
RTVSPropertyOp27
 70
     1
102
RTVSPropertyOp28
 70
     1
102
RTVSPropertyOp29
 70
     1
102
RTVSPropertyOp30
 70
     1
102
RTVSPropertyOp31
 70
     1
102
RTVSPropertyOp32
 70
     1
  0
XRECORD
  5
FF
102
{ACAD_REACTORS
330
FE
102
}
330
FE
100
AcDbXrecord
280
     1
102
RTVSPropertyOp0
 70
     1
102
RTVSPropertyOp1
 70
     1
102
RTVSPropertyOp2
 70
     1
102
RTVSPropertyOp3
 70
     1
102
RTVSPropertyOp4
 70
     1
102
RTVSPropertyOp5
 70
     1
102
RTVSPropertyOp6
 70
     1
102
RTVSPropertyOp7
 70
     1
102
RTVSPropertyOp8
 70
     1
102
RTVSPropertyOp9
 70
     1
102
RTVSPropertyOp10
 70
     1
102
RTVSPropertyOp11
 70
     1
102
RTVSPropertyOp12
 70
     1
102
RTVSPropertyOp13
 70
     1
102
RTVSPropertyOp14
 70
     1
102
RTVSPropertyOp15
 70
     1
102
RTVSPropertyOp16
 70
     1
102
RTVSPropertyOp17
 70
     1
102
RTVSPropertyOp18
 70
     1
102
RTVSPropertyOp19
 70
     1
102
RTVSPropertyOp20
 70
     1
102
RTVSPropertyOp21
 70
     1
102
RTVSPropertyOp22
 70
     1
102
RTVSPropertyOp23
 70
     1
102
RTVSPropertyOp24
 70
     1
102
RTVSPropertyOp25
 70
     1
102
RTVSPropertyOp26
 70
     1
102
RTVSPropertyOp27
 70
     1
102
RTVSPropertyOp28
 70
     1
102
RTVSPropertyOp29
 70
     1
102
RTVSPropertyOp30
 70
     1
102
RTVSPropertyOp31
 70
     1
102
RTVSPropertyOp32
 70
     1
  0
XRECORD
  5
F5
102
{ACAD_REACTORS
330
F4
102
}
330
F4
100
AcDbXrecord
280
     1
102
RTVSPropertyOp0
 70
     1
102
RTVSPropertyOp1
 70
     1
102
RTVSPropertyOp2
 70
     1
102
RTVSPropertyOp3
 70
     1
102
RTVSPropertyOp4
 70
     1
102
RTVSPropertyOp5
 70
     1
102
RTVSPropertyOp6
 70
     1
102
RTVSPropertyOp7
 70
     1
102
RTVSPropertyOp8
 70
     1
102
RTVSPropertyOp9
 70
     1
102
RTVSPropertyOp10
 70
     1
102
RTVSPropertyOp11
 70
     1
102
RTVSPropertyOp12
 70
     1
102
RTVSPropertyOp13
 70
     1
102
RTVSPropertyOp14
 70
     1
102
RTVSPropertyOp15
 70
     1
102
RTVSPropertyOp16
 70
     1
102
RTVSPropertyOp17
 70
     1
102
RTVSPropertyOp18
 70
     1
102
RTVSPropertyOp19
 70
     1
102
RTVSPropertyOp20
 70
     1
102
RTVSPropertyOp21
 70
     1
102
RTVSPropertyOp22
 70
     1
102
RTVSPropertyOp23
 70
     1
102
RTVSPropertyOp24
 70
     1
102
RTVSPropertyOp25
 70
     1
102
RTVSPropertyOp26
 70
     1
102
RTVSPropertyOp27
 70
     1
102
RTVSPropertyOp28
 70
     1
102
RTVSPropertyOp29
 70
     1
102
RTVSPropertyOp30
 70
     1
102
RTVSPropertyOp31
 70
     1
102
RTVSPropertyOp32
 70
     1
  0
XRECORD
  5
FD
102
{ACAD_REACTORS
330
FC
102
}
330
FC
100
AcDbXrecord
280
     1
102
RTVSPropertyOp0
 70
     1
102
RTVSPropertyOp1
 70
     1
102
RTVSPropertyOp2
 70
     1
102
RTVSPropertyOp3
 70
     1
102
RTVSPropertyOp4
 70
     1
102
RTVSPropertyOp5
 70
     1
102
RTVSPropertyOp6
 70
     1
102
RTVSPropertyOp7
 70
     1
102
RTVSPropertyOp8
 70
     1
102
RTVSPropertyOp9
 70
     1
102
RTVSPropertyOp10
 70
     1
102
RTVSPropertyOp11
 70
     1
102
RTVSPropertyOp12
 70
     1
102
RTVSPropertyOp13
 70
     1
102
RTVSPropertyOp14
 70
     1
102
RTVSPropertyOp15
 70
     1
102
RTVSPropertyOp16
 70
     1
102
RTVSPropertyOp17
 70
     1
102
RTVSPropertyOp18
 70
     1
102
RTVSPropertyOp19
 70
     1
102
RTVSPropertyOp20
 70
     1
102
RTVSPropertyOp21
 70
     1
102
RTVSPropertyOp22
 70
     1
102
RTVSPropertyOp23
 70
     1
102
RTVSPropertyOp24
 70
     1
102
RTVSPropertyOp25
 70
     1
102
RTVSPropertyOp26
 70
     1
102
RTVSPropertyOp27
 70
     1
102
RTVSPropertyOp28
 70
     1
102
RTVSPropertyOp29
 70
     1
102
RTVSPropertyOp30
 70
     1
102
RTVSPropertyOp31
 70
     1
102
RTVSPropertyOp32
 70
     1
  0
ENDSEC
  0
EOF
