  0
SECTION
  2
HEADER
  9
$ACADVER
  1
AC1021
  9
$ACADMAINTVER
 70
    25
  9
$DWGCODEPAGE
  3
ANSI_1252
  9
$INSBASE
 10
0.0
 20
0.0
 30
0.0
  9
$EXTMIN
 10
-92.977
 20
-103.7631
 30
0.0
  9
$EXTMAX
 10
55.2731
 20
114.9033
 30
0.0
  9
$LIMMIN
 10
0.0
 20
0.0
  9
$LIMMAX
 10
12.0
 20
9.0
  9
$ORTHOMODE
 70
     0
  9
$REGENMODE
 70
     1
  9
$FILLMODE
 70
     1
  9
$QTEXTMODE
 70
     0
  9
$MIRRTEXT
 70
     1
  9
$LTSCALE
 40
1.0
  9
$ATTMODE
 70
     1
  9
$TEXTSIZE
 40
0.2
  9
$TRACEWID
 40
0.05
  9
$TEXTSTYLE
  7
Standard
  9
$CLAYER
  8
0
  9
$CELTYPE
  6
ByLayer
  9
$CECOLOR
 62
   256
  9
$CELTSCALE
 40
1.0
  9
$DISPSILH
 70
     0
  9
$DIMSCALE
 40
1.0
  9
$DIMASZ
 40
0.18
  9
$DIMEXO
 40
0.0625
  9
$DIMDLI
 40
0.38
  9
$DIMRND
 40
0.0
  9
$DIMDLE
 40
0.0
  9
$DIMEXE
 40
0.18
  9
$DIMTP
 40
0.0
  9
$DIMTM
 40
0.0
  9
$DIMTXT
 40
0.18
  9
$DIMCEN
 40
0.09
  9
$DIMTSZ
 40
0.0
  9
$DIMTOL
 70
     0
  9
$DIMLIM
 70
     0
  9
$DIMTIH
 70
     1
  9
$DIMTOH
 70
     1
  9
$DIMSE1
 70
     0
  9
$DIMSE2
 70
     0
  9
$DIMTAD
 70
     0
  9
$DIMZIN
 70
     0
  9
$DIMBLK
  1

  9
$DIMASO
 70
     1
  9
$DIMSHO
 70
     1
  9
$DIMPOST
  1

  9
$DIMAPOST
  1

  9
$DIMALT
 70
     0
  9
$DIMALTD
 70
     2
  9
$DIMALTF
 40
25.4
  9
$DIMLFAC
 40
1.0
  9
$DIMTOFL
 70
     0
  9
$DIMTVP
 40
0.0
  9
$DIMTIX
 70
     0
  9
$DIMSOXD
 70
     0
  9
$DIMSAH
 70
     0
  9
$DIMBLK1
  1

  9
$DIMBLK2
  1

  9
$DIMSTYLE
  2
Standard
  9
$DIMCLRD
 70
     0
  9
$DIMCLRE
 70
     0
  9
$DIMCLRT
 70
     0
  9
$DIMTFAC
 40
1.0
  9
$DIMGAP
 40
0.09
  9
$DIMJUST
 70
     0
  9
$DIMSD1
 70
     0
  9
$DIMSD2
 70
     0
  9
$DIMTOLJ
 70
     1
  9
$DIMTZIN
 70
     0
  9
$DIMALTZ
 70
     0
  9
$DIMALTTZ
 70
     0
  9
$DIMUPT
 70
     0
  9
$DIMDEC
 70
     4
  9
$DIMTDEC
 70
     4
  9
$DIMALTU
 70
     2
  9
$DIMALTTD
 70
     2
  9
$DIMTXSTY
  7
Standard
  9
$DIMAUNIT
 70
     0
  9
$DIMADEC
 70
     0
  9
$DIMALTRND
 40
0.0
  9
$DIMAZIN
 70
     0
  9
$DIMDSEP
 70
    46
  9
$DIMATFIT
 70
     3
  9
$DIMFRAC
 70
     0
  9
$DIMLDRBLK
  1

  9
$DIMLUNIT
 70
     2
  9
$DIMLWD
 70
    -2
  9
$DIMLWE
 70
    -2
  9
$DIMTMOVE
 70
     0
  9
$DIMFXL
 40
1.0
  9
$DIMFXLON
 70
     0
  9
$DIMJOGANG
 40
0.7853981633974483
  9
$DIMTFILL
 70
     0
  9
$DIMTFILLCLR
 70
     0
  9
$DIMARCSYM
 70
     0
  9
$DIMLTYPE
  6

  9
$DIMLTEX1
  6

  9
$DIMLTEX2
  6

  9
$LUNITS
 70
     2
  9
$LUPREC
 70
     4
  9
$SKETCHINC
 40
0.1
  9
$FILLETRAD
 40
0.5
  9
$AUNITS
 70
     0
  9
$AUPREC
 70
     0
  9
$MENU
  1
.
  9
$ELEVATION
 40
0.0
  9
$PELEVATION
 40
0.0
  9
$THICKNESS
 40
0.0
  9
$LIMCHECK
 70
     0
  9
$CHAMFERA
 40
0.5
  9
$CHAMFERB
 40
0.5
  9
$CHAMFERC
 40
1.0
  9
$CHAMFERD
 40
0.0
  9
$SKPOLY
 70
     0
  9
$TDCREATE
 40
2458492.91014162
  9
$TDUCREATE
 40
2458492.91014162
  9
$TDUPDATE
 40
2458492.910141736
  9
$TDUUPDATE
 40
2458492.910141736
  9
$TDINDWG
 40
0.0000000116
  9
$TDUSRTIMER
 40
0.0000000116
  9
$USRTIMER
 70
     1
  9
$ANGBASE
 50
0.0
  9
$ANGDIR
 70
     0
  9
$PDMODE
 70
     0
  9
$PDSIZE
 40
0.0
  9
$PLINEWID
 40
0.0
  9
$SPLFRAME
 70
     0
  9
$SPLINETYPE
 70
     6
  9
$SPLINESEGS
 70
     8
  9
$HANDSEED
  5
9D
  9
$SURFTAB1
 70
     6
  9
$SURFTAB2
 70
     6
  9
$SURFTYPE
 70
     6
  9
$SURFU
 70
     6
  9
$SURFV
 70
     6
  9
$UCSBASE
  2

  9
$UCSNAME
  2

  9
$UCSORG
 10
0.0
 20
0.0
 30
0.0
  9
$UCSXDIR
 10
1.0
 20
0.0
 30
0.0
  9
$UCSYDIR
 10
0.0
 20
1.0
 30
0.0
  9
$UCSORTHOREF
  2

  9
$UCSORTHOVIEW
 70
     0
  9
$UCSORGTOP
 10
0.0
 20
0.0
 30
0.0
  9
$UCSORGBOTTOM
 10
0.0
 20
0.0
 30
0.0
  9
$UCSORGLEFT
 10
0.0
 20
0.0
 30
0.0
  9
$UCSORGRIGHT
 10
0.0
 20
0.0
 30
0.0
  9
$UCSORGFRONT
 10
0.0
 20
0.0
 30
0.0
  9
$UCSORGBACK
 10
0.0
 20
0.0
 30
0.0
  9
$PUCSBASE
  2

  9
$PUCSNAME
  2

  9
$PUCSORG
 10
0.0
 20
0.0
 30
0.0
  9
$PUCSXDIR
 10
1.0
 20
0.0
 30
0.0
  9
$PUCSYDIR
 10
0.0
 20
1.0
 30
0.0
  9
$PUCSORTHOREF
  2

  9
$PUCSORTHOVIEW
 70
     0
  9
$PUCSORGTOP
 10
0.0
 20
0.0
 30
0.0
  9
$PUCSORGBOTTOM
 10
0.0
 20
0.0
 30
0.0
  9
$PUCSORGLEFT
 10
0.0
 20
0.0
 30
0.0
  9
$PUCSORGRIGHT
 10
0.0
 20
0.0
 30
0.0
  9
$PUCSORGFRONT
 10
0.0
 20
0.0
 30
0.0
  9
$PUCSORGBACK
 10
0.0
 20
0.0
 30
0.0
  9
$USERI1
 70
     0
  9
$USERI2
 70
     0
  9
$USERI3
 70
     0
  9
$USERI4
 70
     0
  9
$USERI5
 70
     0
  9
$USERR1
 40
0.0
  9
$USERR2
 40
0.0
  9
$USERR3
 40
0.0
  9
$USERR4
 40
0.0
  9
$USERR5
 40
0.0
  9
$WORLDVIEW
 70
     1
  9
$SHADEDGE
 70
     3
  9
$SHADEDIF
 70
    70
  9
$TILEMODE
 70
     1
  9
$MAXACTVP
 70
    64
  9
$PINSBASE
 10
0.0
 20
0.0
 30
0.0
  9
$PLIMCHECK
 70
     0
  9
$PEXTMIN
 10
1.000000000000000E+20
 20
1.000000000000000E+20
 30
1.000000000000000E+20
  9
$PEXTMAX
 10
-1.000000000000000E+20
 20
-1.000000000000000E+20
 30
-1.000000000000000E+20
  9
$PLIMMIN
 10
0.0
 20
0.0
  9
$PLIMMAX
 10
12.0
 20
9.0
  9
$UNITMODE
 70
     0
  9
$VISRETAIN
 70
     1
  9
$PLINEGEN
 70
     0
  9
$PSLTSCALE
 70
     1
  9
$TREEDEPTH
 70
  3020
  9
$CMLSTYLE
  2
Standard
  9
$CMLJUST
 70
     0
  9
$CMLSCALE
 40
1.0
  9
$PROXYGRAPHICS
 70
     1
  9
$MEASUREMENT
 70
     0
  9
$CELWEIGHT
370
    -1
  9
$ENDCAPS
280
     0
  9
$JOINSTYLE
280
     0
  9
$LWDISPLAY
290
     0
  9
$INSUNITS
 70
     4
  9
$HYPERLINKBASE
  1

  9
$STYLESHEET
  1

  9
$XEDIT
290
     1
  9
$CEPSNTYPE
380
     0
  9
$PSTYLEMODE
290
     1
  9
$FINGERPRINTGUID
  2
{DE8E6E61-B63D-4EF3-AF50-E3F6F3842F27}
  9
$VERSIONGUID
  2
{FAEB1C32-E019-11D5-929B-00C0DF256EC4}
  9
$EXTNAMES
290
     1
  9
$PSVPSCALE
 40
0.0
  9
$OLESTARTUP
290
     0
  9
$SORTENTS
280
   127
  9
$INDEXCTL
280
     0
  9
$HIDETEXT
280
     1
  9
$XCLIPFRAME
290
     0
  9
$HALOGAP
280
     0
  9
$OBSCOLOR
 70
   257
  9
$OBSLTYPE
280
     0
  9
$INTERSECTIONDISPLAY
280
     0
  9
$INTERSECTIONCOLOR
 70
   257
  9
$DIMASSOC
280
     2
  9
$PROJECTNAME
  1

  9
$CAMERADISPLAY
290
     0
  9
$LENSLENGTH
 40
50.0
  9
$CAMERAHEIGHT
 40
0.0
  9
$STEPSPERSEC
 40
2.0
  9
$STEPSIZE
 40
6.0
  9
$3DDWFPREC
 40
2.0
  9
$PSOLWIDTH
 40
0.25
  9
$PSOLHEIGHT
 40
4.0
  9
$LOFTANG1
 40
1.570796326794897
  9
$LOFTANG2
 40
1.570796326794897
  9
$LOFTMAG1
 40
0.0
  9
$LOFTMAG2
 40
0.0
  9
$LOFTPARAM
 70
     7
  9
$LOFTNORMALS
280
     1
  9
$LATITUDE
 40
37.795
  9
$LONGITUDE
 40
-122.394
  9
$NORTHDIRECTION
 40
0.0
  9
$TIMEZONE
 70
 -8000
  9
$LIGHTGLYPHDISPLAY
280
     1
  9
$TILEMODELIGHTSYNCH
280
     1
  9
$SOLIDHIST
280
     1
  9
$SHOWHIST
280
     1
  9
$DWFFRAME
280
     2
  9
$DGNFRAME
280
     2
  9
$REALWORLDSCALE
290
     1
  9
$INTERFERECOLOR
 62
   256
  9
$CSHADOW
280
     0
  9
$SHADOWPLANELOCATION
 40
0.0
  0
ENDSEC
  0
SECTION
  2
CLASSES
  0
CLASS
  1
ACDBDICTIONARYWDFLT
  2
AcDbDictionaryWithDefault
  3
ObjectDBX Classes
 90
        0
 91
        4
280
     0
281
     0
  0
CLASS
  1
VISUALSTYLE
  2
AcDbVisualStyle
  3
ObjectDBX Classes
 90
     4095
 91
        4
280
     0
281
     0
  0
CLASS
  1
MATERIAL
  2
AcDbMaterial
  3
ObjectDBX Classes
 90
     1153
 91
        4
280
     0
281
     0
  0
ENDSEC
  0
SECTION
  2
TABLES
  0
TABLE
  2
VPORT
  5
8
330
0
100
AcDbSymbolTable
 70
     1
  0
VPORT
  5
29
330
8
100
AcDbSymbolTableRecord
100
AcDbViewportTableRecord
  2
*Active
 70
     0
 10
0.0
 20
0.0
 11
1.0
 21
1.0
 12
10.42990654205607
 22
4.5
 13
0.0
 23
0.0
 14
0.5
 24
0.5
 15
0.5
 25
0.5
 16
0.0
 26
0.0
 36
1.0
 17
0.0
 27
0.0
 37
0.0
 40
9.0
 41
1.972972972850329
 42
50.0
 43
0.0
 44
0.0
 50
0.0
 51
0.0
 71
     0
 72
   100
 73
     1
 74
     3
 75
     0
 76
     0
 77
     0
 78
     0
281
     0
 65
     1
110
0.0
120
0.0
130
0.0
111
1.0
121
0.0
131
0.0
112
0.0
122
1.0
132
0.0
 79
     0
146
0.0
 60
     3
 61
     5
292
     1
282
     1
141
0.0
142
0.0
 63
   250
  0
ENDTAB
  0
TABLE
  2
LTYPE
  5
5
330
0
100
AcDbSymbolTable
 70
     1
  0
LTYPE
  5
14
330
5
100
AcDbSymbolTableRecord
100
AcDbLinetypeTableRecord
  2
ByBlock
 70
     0
  3

 72
    65
 73
     0
 40
0.0
  0
LTYPE
  5
15
330
5
100
AcDbSymbolTableRecord
100
AcDbLinetypeTableRecord
  2
ByLayer
 70
     0
  3

 72
    65
 73
     0
 40
0.0
  0
LTYPE
  5
16
330
5
100
AcDbSymbolTableRecord
100
AcDbLinetypeTableRecord
  2
Continuous
 70
     0
  3
Solid line
 72
    65
 73
     0
 40
0.0
  0
ENDTAB
  0
TABLE
  2
LAYER
  5
2
330
0
100
AcDbSymbolTable
 70
     3
  0
LAYER
  5
10
330
2
100
AcDbSymbolTableRecord
100
AcDbLayerTableRecord
  2
0
 70
     0
 62
     7
  6
Continuous
370
    -3
390
F
347
3E
  0
LAYER
  5
40
330
2
100
AcDbSymbolTableRecord
100
AcDbLayerTableRecord
  2
layer 1
 70
     0
 62
     7
  6
Continuous
370
    -3
390
F
347
3E
  0
LAYER
  5
7A
330
2
100
AcDbSymbolTableRecord
100
AcDbLayerTableRecord
  2
Master Guides
 70
     0
 62
     7
  6
Continuous
370
    -3
390
F
347
3E
  0
ENDTAB
  0
TABLE
  2
STYLE
  5
3
330
0
100
AcDbSymbolTable
 70
     1
  0
STYLE
  5
11
330
3
100
AcDbSymbolTableRecord
100
AcDbTextStyleTableRecord
  2
Standard
 70
     0
 40
0.0
 41
1.0
 50
0.0
 71
     0
 42
0.2
  3
txt
  4

  0
ENDTAB
  0
TABLE
  2
VIEW
  5
6
330
0
100
AcDbSymbolTable
 70
     0
  0
ENDTAB
  0
TABLE
  2
UCS
  5
7
330
0
100
AcDbSymbolTable
 70
     0
  0
ENDTAB
  0
TABLE
  2
APPID
  5
9
330
0
100
AcDbSymbolTable
 70
     2
  0
APPID
  5
12
330
9
100
AcDbSymbolTableRecord
100
AcDbRegAppTableRecord
  2
ACAD
 70
     0
  0
APPID
  5
3F
330
9
100
AcDbSymbolTableRecord
100
AcDbRegAppTableRecord
  2
ODA
 70
     0
  0
ENDTAB
  0
TABLE
  2
DIMSTYLE
  5
A
330
0
100
AcDbSymbolTable
 70
     1
100
AcDbDimStyleTable
  0
DIMSTYLE
105
27
330
A
100
AcDbSymbolTableRecord
100
AcDbDimStyleTableRecord
  2
Standard
 70
     0
178
     0
340
11
  0
ENDTAB
  0
TABLE
  2
BLOCK_RECORD
  5
1
330
0
100
AcDbSymbolTable
 70
     1
  0
BLOCK_RECORD
  5
1F
330
1
100
AcDbSymbolTableRecord
100
AcDbBlockTableRecord
  2
*Model_Space
340
22
 70
     0
280
     1
281
     0
  0
BLOCK_RECORD
  5
1B
330
1
100
AcDbSymbolTableRecord
100
AcDbBlockTableRecord
  2
*Paper_Space
340
1E
 70
     0
280
     1
281
     0
  0
BLOCK_RECORD
  5
23
330
1
100
AcDbSymbolTableRecord
100
AcDbBlockTableRecord
  2
*Paper_Space0
340
26
 70
     0
280
     1
281
     0
  0
ENDTAB
  0
ENDSEC
  0
SECTION
  2
BLOCKS
  0
BLOCK
  5
20
330
1F
100
AcDbEntity
  8
0
100
AcDbBlockBegin
  2
*Model_Space
 70
     0
 10
0.0
 20
0.0
 30
0.0
  3
*Model_Space
  1

  0
ENDBLK
  5
21
330
1F
100
AcDbEntity
  8
0
100
AcDbBlockEnd
  0
BLOCK
  5
1C
330
1B
100
AcDbEntity
 67
     1
  8
0
100
AcDbBlockBegin
  2
*Paper_Space
 70
     0
 10
0.0
 20
0.0
 30
0.0
  3
*Paper_Space
  1

  0
ENDBLK
  5
1D
330
1B
100
AcDbEntity
 67
     1
  8
0
100
AcDbBlockEnd
  0
BLOCK
  5
24
330
23
100
AcDbEntity
  8
0
100
AcDbBlockBegin
  2
*Paper_Space0
 70
     0
 10
0.0
 20
0.0
 30
0.0
  3
*Paper_Space0
  1

  0
ENDBLK
  5
25
330
23
100
AcDbEntity
  8
0
100
AcDbBlockEnd
  0
ENDSEC
  0
SECTION
  2
ENTITIES
  0
SPLINE
  5
41
330
1F
100
AcDbEntity
  8
layer 1
100
AcDbSpline
210
0.0
220
0.0
230
1.0
 70
    11
 71
     3
 72
    20
 73
    16
 74
     0
 42
0.0000000001
 43
0.0000000001
 12
1.0
 22
0.0
 32
0.0
 13
1.0
 23
0.0
 33
0.0
 40
0.0
 40
0.0
 40
0.0
 40
0.0
 40
0.2
 40
0.2
 40
0.2
 40
0.2
 40
0.4
 40
0.4
 40
0.4
 40
0.4
 40
0.6
 40
0.6
 40
0.6
 40
0.6
 40
1.0
 40
1.0
 40
1.0
 40
1.0
 10
-92.977
 20
-103.7631
 30
0.0
 10
-92.977
 20
-103.7631
 30
0.0
 10
-92.977
 20
114.9033
 30
0.0
 10
-92.977
 20
114.9033
 30
0.0
 10
-92.977
 20
114.9033
 30
0.0
 10
-92.977
 20
114.9033
 30
0.0
 10
55.2731
 20
114.9033
 30
0.0
 10
55.2731
 20
114.9033
 30
0.0
 10
55.2731
 20
114.9033
 30
0.0
 10
55.2731
 20
114.9033
 30
0.0
 10
55.2731
 20
-103.7629
 30
0.0
 10
55.2731
 20
-103.7629
 30
0.0
 10
55.2731
 20
-103.7629
 30
0.0
 10
55.2731
 20
-103.7629
 30
0.0
 10
-92.977
 20
-103.7631
 30
0.0
 10
-92.977
 20
-103.7631
 30
0.0
  0
SPLINE
  5
42
330
1F
100
AcDbEntity
  8
layer 1
 62
     7
100
AcDbSpline
210
0.0
220
0.0
230
1.0
 70
    11
 71
     3
 72
    16
 73
    12
 74
     0
 42
0.0000000001
 43
0.0000000001
 12
1.0
 22
0.0
 32
0.0
 13
1.0
 23
0.0
 33
0.0
 40
0.0
 40
0.0
 40
0.0
 40
0.0
 40
0.25
 40
0.25
 40
0.25
 40
0.25
 40
0.5
 40
0.5
 40
0.5
 40
0.5
 40
1.0
 40
1.0
 40
1.0
 40
1.0
 10
-84.4614
 20
-94.4279
 30
0.0
 10
-84.4614
 20
-94.4279
 30
0.0
 10
-37.7145
 20
-94.4279
 30
0.0
 10
-37.7145
 20
-94.4279
 30
0.0
 10
-37.7145
 20
-94.4279
 30
0.0
 10
-77.4971
 20
-91.1539
 30
0.0
 10
-81.4981
 20
-81.697
 30
0.0
 10
-84.4614
 20
-75.89
 30
0.0
 10
-84.4614
 20
-75.89
 30
0.0
 10
-84.4614
 20
-75.89
 30
0.0
 10
-84.4614
 20
-94.4279
 30
0.0
 10
-84.4614
 20
-94.4279
 30
0.0
  0
SPLINE
  5
43
330
1F
100
AcDbEntity
  8
layer 1
 62
     7
100
AcDbSpline
210
0.0
220
0.0
230
1.0
 70
    11
 71
     3
 72
    24
 73
    20
 74
     0
 42
0.0000000001
 43
0.0000000001
 12
1.0
 22
0.0
 32
0.0
 13
1.0
 23
0.0
 33
0.0
 40
0.0
 40
0.0
 40
0.0
 40
0.0
 40
0.1666666666666667
 40
0.1666666666666667
 40
0.1666666666666667
 40
0.1666666666666667
 40
0.3333333333333333
 40
0.3333333333333333
 40
0.3333333333333333
 40
0.3333333333333333
 40
0.5
 40
0.5
 40
0.5
 40
0.5
 40
0.6666666666666666
 40
0.6666666666666666
 40
0.6666666666666666
 40
0.6666666666666666
 40
1.0
 40
1.0
 40
1.0
 40
1.0
 10
-59.5622
 20
-59.0025
 30
0.0
 10
-59.3103
 20
-57.2234
 30
0.0
 10
-60.3166
 20
-58.1898
 30
0.0
 10
-60.5709
 20
-58.7275
 30
0.0
 10
-60.5709
 20
-58.7275
 30
0.0
 10
-62.4627
 20
-62.7559
 30
0.0
 10
-64.6826
 20
-68.1395
 30
0.0
 10
-73.0454
 20
-67.3901
 30
0.0
 10
-73.0454
 20
-67.3901
 30
0.0
 10
-67.0517
 20
-72.701
 30
0.0
 10
-71.2797
 20
-78.3284
 30
0.0
 10
-77.1818
 20
-78.2655
 30
0.0
 10
-77.1818
 20
-78.2655
 30
0.0
 10
-73.9642
 20
-81.8388
 30
0.0
 10
-63.9061
 20
-86.5044
 30
0.0
 10
-55.8695
 20
-87.5783
 30
0.0
 10
-55.8695
 20
-87.5783
 30
0.0
 10
-62.4287
 20
-83.496
 30
0.0
 10
-62.3209
 20
-70.569
 30
0.0
 10
-59.5622
 20
-59.0025
 30
0.0
  0
SPLINE
  5
44
330
1F
100
AcDbEntity
  8
layer 1
 62
     7
100
AcDbSpline
210
0.0
220
0.0
230
1.0
 70
    11
 71
     3
 72
    20
 73
    16
 74
     0
 42
0.0000000001
 43
0.0000000001
 12
1.0
 22
0.0
 32
0.0
 13
1.0
 23
0.0
 33
0.0
 40
0.0
 40
0.0
 40
0.0
 40
0.0
 40
0.2
 40
0.2
 40
0.2
 40
0.2
 40
0.4
 40
0.4
 40
0.4
 40
0.4
 40
0.6
 40
0.6
 40
0.6
 40
0.6
 40
1.0
 40
1.0
 40
1.0
 40
1.0
 10
-54.3813
 20
-58.0814
 30
0.0
 10
-54.7911
 20
-57.4442
 30
0.0
 10
-55.8361
 20
-58.2256
 30
0.0
 10
-54.9103
 20
-59.1715
 30
0.0
 10
-54.9103
 20
-59.1715
 30
0.0
 10
-51.1705
 20
-66.3223
 30
0.0
 10
-41.042
 20
-81.8007
 30
0.0
 10
-52.796
 20
-87.7673
 30
0.0
 10
-52.796
 20
-87.7673
 30
0.0
 10
-46.6693
 20
-88.8373
 30
0.0
 10
-41.4023
 20
-89.0511
 30
0.0
 10
-33.3688
 20
-89.4609
 30
0.0
 10
-33.3688
 20
-89.4609
 30
0.0
 10
-43.7554
 20
-82.0641
 30
0.0
 10
-47.23
 20
-67.8807
 30
0.0
 10
-54.3813
 20
-58.0814
 30
0.0
  0
SPLINE
  5
45
330
1F
100
AcDbEntity
  8
layer 1
 62
     7
100
AcDbSpline
210
0.0
220
0.0
230
1.0
 70
    11
 71
     3
 72
    24
 73
    20
 74
     0
 42
0.0000000001
 43
0.0000000001
 12
1.0
 22
0.0
 32
0.0
 13
1.0
 23
0.0
 33
0.0
 40
0.0
 40
0.0
 40
0.0
 40
0.0
 40
0.1666666666666667
 40
0.1666666666666667
 40
0.1666666666666667
 40
0.1666666666666667
 40
0.3333333333333333
 40
0.3333333333333333
 40
0.3333333333333333
 40
0.3333333333333333
 40
0.5
 40
0.5
 40
0.5
 40
0.5
 40
0.6666666666666666
 40
0.6666666666666666
 40
0.6666666666666666
 40
0.6666666666666666
 40
1.0
 40
1.0
 40
1.0
 40
1.0
 10
-80.3136
 20
-22.5729
 30
0.0
 10
-80.7234
 20
-21.9353
 30
0.0
 10
-81.5995
 20
-22.3832
 30
0.0
 10
-80.8427
 20
-23.6601
 30
0.0
 10
-80.8427
 20
-23.6601
 30
0.0
 10
-76.6007
 20
-33.3221
 30
0.0
 10
-71.8227
 20
-50.8041
 30
0.0
 10
-74.8287
 20
-57.7189
 30
0.0
 10
-74.8287
 20
-57.7189
 30
0.0
 10
-72.3225
 20
-54.7761
 30
0.0
 10
-68.4495
 20
-53.5397
 30
0.0
 10
-63.9262
 20
-53.2268
 30
0.0
 10
-63.9262
 20
-53.2268
 30
0.0
 10
-67.6955
 20
-51.5158
 30
0.0
 10
-66.851
 20
-47.4175
 30
0.0
 10
-64.3315
 20
-46.3683
 30
0.0
 10
-64.3315
 20
-46.3683
 30
0.0
 10
-70.5552
 20
-40.4599
 30
0.0
 10
-77.164
 20
-28.407
 30
0.0
 10
-80.3136
 20
-22.5729
 30
0.0
  0
SPLINE
  5
46
330
1F
100
AcDbEntity
  8
layer 1
 62
     7
100
AcDbSpline
210
0.0
220
0.0
230
1.0
 70
    11
 71
     3
 72
    24
 73
    20
 74
     0
 42
0.0000000001
 43
0.0000000001
 12
1.0
 22
0.0
 32
0.0
 13
1.0
 23
0.0
 33
0.0
 40
0.0
 40
0.0
 40
0.0
 40
0.0
 40
0.1666666666666667
 40
0.1666666666666667
 40
0.1666666666666667
 40
0.1666666666666667
 40
0.3333333333333333
 40
0.3333333333333333
 40
0.3333333333333333
 40
0.3333333333333333
 40
0.5
 40
0.5
 40
0.5
 40
0.5
 40
0.6666666666666666
 40
0.6666666666666666
 40
0.6666666666666666
 40
0.6666666666666666
 40
1.0
 40
1.0
 40
1.0
 40
1.0
 10
-77.9133
 20
-22.149
 30
0.0
 10
-78.5329
 20
-21.3657
 30
0.0
 10
-77.7628
 20
-20.8569
 30
0.0
 10
-76.7246
 20
-21.9198
 30
0.0
 10
-76.7246
 20
-21.9198
 30
0.0
 10
-70.2198
 20
-34.869
 30
0.0
 10
-52.0035
 20
-37.8258
 30
0.0
 10
-44.5479
 20
-36.7132
 30
0.0
 10
-44.5479
 20
-36.7132
 30
0.0
 10
-48.7068
 20
-38.7034
 30
0.0
 10
-52.7983
 20
-42.0135
 30
0.0
 10
-54.2711
 20
-46.3033
 30
0.0
 10
-54.2711
 20
-46.3033
 30
0.0
 10
-53.6112
 20
-40.5475
 30
0.0
 10
-59.2946
 20
-40.1354
 30
0.0
 10
-60.7916
 20
-44.1347
 30
0.0
 10
-60.7916
 20
-44.1347
 30
0.0
 10
-67.2293
 20
-37.4315
 30
0.0
 10
-76.1568
 20
-26.8691
 30
0.0
 10
-77.9133
 20
-22.149
 30
0.0
  0
SPLINE
  5
47
330
1F
100
AcDbEntity
  8
layer 1
 62
     7
100
AcDbSpline
210
0.0
220
0.0
230
1.0
 70
    11
 71
     3
 72
    24
 73
    20
 74
     0
 42
0.0000000001
 43
0.0000000001
 12
1.0
 22
0.0
 32
0.0
 13
1.0
 23
0.0
 33
0.0
 40
0.0
 40
0.0
 40
0.0
 40
0.0
 40
0.1666666666666667
 40
0.1666666666666667
 40
0.1666666666666667
 40
0.1666666666666667
 40
0.3333333333333333
 40
0.3333333333333333
 40
0.3333333333333333
 40
0.3333333333333333
 40
0.5
 40
0.5
 40
0.5
 40
0.5
 40
0.6666666666666666
 40
0.6666666666666666
 40
0.6666666666666666
 40
0.6666666666666666
 40
1.0
 40
1.0
 40
1.0
 40
1.0
 10
-84.4614
 20
-58.3401
 30
0.0
 10
-84.4614
 20
-58.3401
 30
0.0
 10
-84.4614
 20
-71.1654
 30
0.0
 10
-84.4614
 20
-71.1654
 30
0.0
 10
-84.4614
 20
-71.1654
 30
0.0
 10
-83.7387
 20
-69.2813
 30
0.0
 10
-81.8716
 20
-66.6511
 30
0.0
 10
-77.0712
 20
-67.1174
 30
0.0
 10
-77.0712
 20
-67.1174
 30
0.0
 10
-79.1832
 20
-66.3339
 30
0.0
 10
-79.3295
 20
-66.1042
 30
0.0
 10
-80.3499
 20
-65.5727
 30
0.0
 10
-80.3499
 20
-65.5727
 30
0.0
 10
-79.9198
 20
-64.0322
 30
0.0
 10
-78.9785
 20
-62.5712
 30
0.0
 10
-78.1703
 20
-61.495
 30
0.0
 10
-78.1703
 20
-61.495
 30
0.0
 10
-80.0028
 20
-62.6003
 30
0.0
 10
-83.4613
 20
-61.5469
 30
0.0
 10
-84.4614
 20
-58.3401
 30
0.0
  0
SPLINE
  5
48
330
1F
100
AcDbEntity
  8
layer 1
 62
     7
100
AcDbSpline
210
0.0
220
0.0
230
1.0
 70
    11
 71
     3
 72
    16
 73
    12
 74
     0
 42
0.0000000001
 43
0.0000000001
 12
1.0
 22
0.0
 32
0.0
 13
1.0
 23
0.0
 33
0.0
 40
0.0
 40
0.0
 40
0.0
 40
0.0
 40
0.25
 40
0.25
 40
0.25
 40
0.25
 40
0.5
 40
0.5
 40
0.5
 40
0.5
 40
1.0
 40
1.0
 40
1.0
 40
1.0
 10
-84.4614
 20
-20.9445
 30
0.0
 10
-84.4614
 20
-20.9445
 30
0.0
 10
-84.4614
 20
-54.7807
 30
0.0
 10
-84.4614
 20
-54.7807
 30
0.0
 10
-84.4614
 20
-54.7807
 30
0.0
 10
-83.7387
 20
-52.8959
 30
0.0
 10
-81.426
 20
-51.6599
 30
0.0
 10
-78.9653
 20
-51.4572
 30
0.0
 10
-78.9653
 20
-51.4572
 30
0.0
 10
-76.6053
 20
-39.9353
 30
0.0
 10
-83.0476
 20
-28.1723
 30
0.0
 10
-84.4614
 20
-20.9445
 30
0.0
  0
SPLINE
  5
49
330
1F
100
AcDbEntity
  8
layer 1
 62
     7
100
AcDbSpline
210
0.0
220
0.0
230
1.0
 70
    11
 71
     3
 72
    32
 73
    28
 74
     0
 42
0.0000000001
 43
0.0000000001
 12
1.0
 22
0.0
 32
0.0
 13
1.0
 23
0.0
 33
0.0
 40
0.0
 40
0.0
 40
0.0
 40
0.0
 40
0.125
 40
0.125
 40
0.125
 40
0.125
 40
0.25
 40
0.25
 40
0.25
 40
0.25
 40
0.375
 40
0.375
 40
0.375
 40
0.375
 40
0.5
 40
0.5
 40
0.5
 40
0.5
 40
0.625
 40
0.625
 40
0.625
 40
0.625
 40
0.75
 40
0.75
 40
0.75
 40
0.75
 40
1.0
 40
1.0
 40
1.0
 40
1.0
 10
-51.0939
 20
-0.3462
 30
0.0
 10
-50.4748
 20
0.4371
 30
0.0
 10
-51.6385
 20
1.3402
 30
0.0
 10
-52.2847
 20
-0.117
 30
0.0
 10
-52.2847
 20
-0.117
 30
0.0
 10
-54.4602
 20
-10.657
 30
0.0
 10
-64.7344
 20
-20.8366
 30
0.0
 10
-68.3889
 20
-20.9513
 30
0.0
 10
-68.3889
 20
-20.9513
 30
0.0
 10
-68.702
 20
-18.7968
 30
0.0
 10
-67.9162
 20
-12.7374
 30
0.0
 10
-65.2071
 20
-8.5629
 30
0.0
 10
-65.2071
 20
-8.5629
 30
0.0
 10
-71.4626
 20
-11.5191
 30
0.0
 10
-74.374
 20
-6.0318
 30
0.0
 10
-73.2482
 20
-2.312
 30
0.0
 10
-73.2482
 20
-2.312
 30
0.0
 10
-80.1406
 20
-4.5976
 30
0.0
 10
-79.4829
 20
-13.949
 30
0.0
 10
-73.3018
 20
-20.9041
 30
0.0
 10
-73.3018
 20
-20.9041
 30
0.0
 10
-68.058
 20
-26.8032
 30
0.0
 10
-58.1395
 20
-30.5501
 30
0.0
 10
-52.814
 20
-31.3024
 30
0.0
 10
-52.814
 20
-31.3024
 30
0.0
 10
-59.2405
 20
-21.2736
 30
0.0
 10
-52.8525
 20
-5.064
 30
0.0
 10
-51.0939
 20
-0.3462
 30
0.0
  0
SPLINE
  5
4A
330
1F
100
AcDbEntity
  8
layer 1
 62
     7
100
AcDbSpline
210
0.0
220
0.0
230
1.0
 70
    11
 71
     3
 72
    24
 73
    20
 74
     0
 42
0.0000000001
 43
0.0000000001
 12
1.0
 22
0.0
 32
0.0
 13
1.0
 23
0.0
 33
0.0
 40
0.0
 40
0.0
 40
0.0
 40
0.0
 40
0.1666666666666667
 40
0.1666666666666667
 40
0.1666666666666667
 40
0.1666666666666667
 40
0.3333333333333333
 40
0.3333333333333333
 40
0.3333333333333333
 40
0.3333333333333333
 40
0.5
 40
0.5
 40
0.5
 40
0.5
 40
0.6666666666666666
 40
0.6666666666666666
 40
0.6666666666666666
 40
0.6666666666666666
 40
1.0
 40
1.0
 40
1.0
 40
1.0
 10
-50.932
 20
-31.2479
 30
0.0
 10
-39.4841
 20
-20.2309
 30
0.0
 10
-47.0341
 20
-0.7137
 30
0.0
 10
-47.7251
 20
1.2611
 30
0.0
 10
-47.7251
 20
1.2611
 30
0.0
 10
-46.7954
 20
0.6152
 30
0.0
 10
-46.068
 20
0.6646
 30
0.0
 10
-44.8028
 20
0.8155
 30
0.0
 10
-44.8028
 20
0.8155
 30
0.0
 10
-44.1565
 20
-2.945
 30
0.0
 10
-41.2605
 20
-10.227
 30
0.0
 10
-35.5844
 20
-14.6014
 30
0.0
 10
-35.5844
 20
-14.6014
 30
0.0
 10
-44.0033
 20
-13.667
 30
0.0
 10
-45.0908
 20
-25.473
 30
0.0
 10
-36.2756
 20
-26.333
 30
0.0
 10
-36.2756
 20
-26.333
 30
0.0
 10
-39.9123
 20
-31.7345
 30
0.0
 10
-43.9064
 20
-31.7076
 30
0.0
 10
-50.932
 20
-31.2479
 30
0.0
  0
SPLINE
  5
4B
330
1F
100
AcDbEntity
  8
layer 1
 62
     7
100
AcDbSpline
210
0.0
220
0.0
230
1.0
 70
    11
 71
     3
 72
    28
 73
    24
 74
     0
 42
0.0000000001
 43
0.0000000001
 12
1.0
 22
0.0
 32
0.0
 13
1.0
 23
0.0
 33
0.0
 40
0.0
 40
0.0
 40
0.0
 40
0.0
 40
0.1428571428571428
 40
0.1428571428571428
 40
0.1428571428571428
 40
0.1428571428571428
 40
0.2857142857142857
 40
0.2857142857142857
 40
0.2857142857142857
 40
0.2857142857142857
 40
0.4285714285714285
 40
0.4285714285714285
 40
0.4285714285714285
 40
0.4285714285714285
 40
0.5714285714285714
 40
0.5714285714285714
 40
0.5714285714285714
 40
0.5714285714285714
 40
0.7142857142857143
 40
0.7142857142857143
 40
0.7142857142857143
 40
0.7142857142857143
 40
1.0
 40
1.0
 40
1.0
 40
1.0
 10
-50.8328
 20
-50.4637
 30
0.0
 10
-51.3123
 20
-50.5606
 30
0.0
 10
-51.578
 20
-51.2704
 30
0.0
 10
-50.0851
 20
-51.4191
 30
0.0
 10
-50.0851
 20
-51.4191
 30
0.0
 10
-34.1434
 20
-53.2583
 30
0.0
 10
-27.9036
 20
-52.905
 30
0.0
 10
-22.5676
 20
-59.8602
 30
0.0
 10
-22.5676
 20
-59.8602
 30
0.0
 10
-24.4024
 20
-55.6269
 30
0.0
 10
-21.4684
 20
-36.794
 30
0.0
 10
-19.7707
 20
-32.5883
 30
0.0
 10
-19.7707
 20
-32.5883
 30
0.0
 10
-23.0449
 20
-37.3686
 30
0.0
 10
-24.9811
 20
-44.2788
 30
0.0
 10
-32.0649
 20
-46.6675
 30
0.0
 10
-32.0649
 20
-46.6675
 30
0.0
 10
-32.7134
 20
-45.3099
 30
0.0
 10
-32.8194
 20
-43.5808
 30
0.0
 10
-32.3554
 20
-41.0838
 30
0.0
 10
-32.3554
 20
-41.0838
 30
0.0
 10
-36.037
 20
-51.1533
 30
0.0
 10
-47.3828
 20
-50.5158
 30
0.0
 10
-50.8328
 20
-50.4637
 30
0.0
  0
SPLINE
  5
4C
330
1F
100
AcDbEntity
  8
layer 1
 62
     7
100
AcDbSpline
210
0.0
220
0.0
230
1.0
 70
    11
 71
     3
 72
    28
 73
    24
 74
     0
 42
0.0000000001
 43
0.0000000001
 12
1.0
 22
0.0
 32
0.0
 13
1.0
 23
0.0
 33
0.0
 40
0.0
 40
0.0
 40
0.0
 40
0.0
 40
0.1428571428571428
 40
0.1428571428571428
 40
0.1428571428571428
 40
0.1428571428571428
 40
0.2857142857142857
 40
0.2857142857142857
 40
0.2857142857142857
 40
0.2857142857142857
 40
0.4285714285714285
 40
0.4285714285714285
 40
0.4285714285714285
 40
0.4285714285714285
 40
0.5714285714285714
 40
0.5714285714285714
 40
0.5714285714285714
 40
0.5714285714285714
 40
0.7142857142857143
 40
0.7142857142857143
 40
0.7142857142857143
 40
0.7142857142857143
 40
1.0
 40
1.0
 40
1.0
 40
1.0
 10
-18.7822
 20
-89.9559
 30
0.0
 10
-19.9513
 20
-89.9402
 30
0.0
 10
-21.1018
 20
-89.9538
 30
0.0
 10
-22.2835
 20
-89.9538
 30
0.0
 10
-22.2835
 20
-89.9538
 30
0.0
 10
-23.5176
 20
-68.8514
 30
0.0
 10
-39.0788
 20
-69.4728
 30
0.0
 10
-52.1476
 20
-54.7785
 30
0.0
 10
-52.1476
 20
-54.7785
 30
0.0
 10
-52.7667
 20
-53.9944
 30
0.0
 10
-51.9965
 20
-53.4856
 30
0.0
 10
-50.9589
 20
-54.5485
 30
0.0
 10
-50.9589
 20
-54.5485
 30
0.0
 10
-38.6241
 20
-64.8026
 30
0.0
 10
-27.8904
 20
-69.9097
 30
0.0
 10
-21.0925
 20
-65.4532
 30
0.0
 10
-21.0925
 20
-65.4532
 30
0.0
 10
-20.8965
 20
-68.2609
 30
0.0
 10
-19.8521
 20
-70.6682
 30
0.0
 10
-18.7822
 20
-72.4293
 30
0.0
 10
-18.7822
 20
-72.4293
 30
0.0
 10
-18.7822
 20
-72.4293
 30
0.0
 10
-18.7822
 20
-89.9559
 30
0.0
 10
-18.7822
 20
-89.9559
 30
0.0
  0
SPLINE
  5
4D
330
1F
100
AcDbEntity
  8
layer 1
 62
     7
100
AcDbSpline
210
0.0
220
0.0
230
1.0
 70
    11
 71
     3
 72
    20
 73
    16
 74
     0
 42
0.0000000001
 43
0.0000000001
 12
1.0
 22
0.0
 32
0.0
 13
1.0
 23
0.0
 33
0.0
 40
0.0
 40
0.0
 40
0.0
 40
0.0
 40
0.2
 40
0.2
 40
0.2
 40
0.2
 40
0.4
 40
0.4
 40
0.4
 40
0.4
 40
0.6
 40
0.6
 40
0.6
 40
0.6
 40
1.0
 40
1.0
 40
1.0
 40
1.0
 10
-18.7822
 20
24.8453
 30
0.0
 10
-8.0936
 20
24.8453
 30
0.0
 10
0.5707
 20
16.1809
 30
0.0
 10
0.5707
 20
5.4944
 30
0.0
 10
0.5707
 20
5.4944
 30
0.0
 10
0.5707
 20
-5.1939
 30
0.0
 10
-8.0936
 20
-13.8585
 30
0.0
 10
-18.7822
 20
-13.8585
 30
0.0
 10
-18.7822
 20
-13.8585
 30
0.0
 10
-29.4687
 20
-13.8583
 30
0.0
 10
-38.1334
 20
-5.1942
 30
0.0
 10
-38.1334
 20
5.4944
 30
0.0
 10
-38.1334
 20
5.4944
 30
0.0
 10
-38.1334
 20
16.181
 30
0.0
 10
-29.4687
 20
24.8451
 30
0.0
 10
-18.7822
 20
24.8453
 30
0.0
  0
SPLINE
  5
4E
330
1F
100
AcDbEntity
  8
layer 1
 62
     7
100
AcDbSpline
210
0.0
220
0.0
230
1.0
 70
    11
 71
     3
 72
    20
 73
    16
 74
     0
 42
0.0000000001
 43
0.0000000001
 12
1.0
 22
0.0
 32
0.0
 13
1.0
 23
0.0
 33
0.0
 40
0.0
 40
0.0
 40
0.0
 40
0.0
 40
0.2
 40
0.2
 40
0.2
 40
0.2
 40
0.4
 40
0.4
 40
0.4
 40
0.4
 40
0.6
 40
0.6
 40
0.6
 40
0.6
 40
1.0
 40
1.0
 40
1.0
 40
1.0
 10
-54.7058
 20
2.061
 30
0.0
 10
-56.4368
 20
1.2141
 30
0.0
 10
-58.5176
 20
-1.0398
 30
0.0
 10
-62.737
 20
-5.1399
 30
0.0
 10
-62.737
 20
-5.1399
 30
0.0
 10
-62.0816
 20
-1.0307
 30
0.0
 10
-63.2143
 20
0.1175
 30
0.0
 10
-65.4728
 20
2.5224
 30
0.0
 10
-65.4728
 20
2.5224
 30
0.0
 10
-62.2978
 20
1.2387
 30
0.0
 10
-57.3873
 20
2.0405
 30
0.0
 10
-55.1876
 20
2.8665
 30
0.0
 10
-55.1876
 20
2.8665
 30
0.0
 10
-54.5121
 20
3.1913
 30
0.0
 10
-54.1045
 20
2.3598
 30
0.0
 10
-54.7058
 20
2.061
 30
0.0
  0
SPLINE
  5
4F
330
1F
100
AcDbEntity
  8
layer 1
 62
     7
100
AcDbSpline
210
0.0
220
0.0
230
1.0
 70
    11
 71
     3
 72
    28
 73
    24
 74
     0
 42
0.0000000001
 43
0.0000000001
 12
1.0
 22
0.0
 32
0.0
 13
1.0
 23
0.0
 33
0.0
 40
0.0
 40
0.0
 40
0.0
 40
0.0
 40
0.1428571428571428
 40
0.1428571428571428
 40
0.1428571428571428
 40
0.1428571428571428
 40
0.2857142857142857
 40
0.2857142857142857
 40
0.2857142857142857
 40
0.2857142857142857
 40
0.4285714285714285
 40
0.4285714285714285
 40
0.4285714285714285
 40
0.4285714285714285
 40
0.5714285714285714
 40
0.5714285714285714
 40
0.5714285714285714
 40
0.5714285714285714
 40
0.7142857142857143
 40
0.7142857142857143
 40
0.7142857142857143
 40
0.7142857142857143
 40
1.0
 40
1.0
 40
1.0
 40
1.0
 10
-39.8195
 20
-36.0258
 30
0.0
 10
-23.412
 20
-31.1153
 30
0.0
 10
-28.0321
 20
-19.4586
 30
0.0
 10
-30.7972
 20
-18.029
 30
0.0
 10
-30.7972
 20
-18.029
 30
0.0
 10
-29.8675
 20
-18.6749
 30
0.0
 10
-25.0509
 20
-20.4246
 30
0.0
 10
-23.7833
 20
-20.2736
 30
0.0
 10
-23.7833
 20
-20.2736
 30
0.0
 10
-25.2422
 20
-20.8365
 30
0.0
 10
-26.0037
 20
-21.3745
 30
0.0
 10
-26.6314
 20
-21.9827
 30
0.0
 10
-26.6314
 20
-21.9827
 30
0.0
 10
-25.0486
 20
-23.8085
 30
0.0
 10
-22.4955
 20
-24.2704
 30
0.0
 10
-19.9171
 20
-24.1582
 30
0.0
 10
-19.9171
 20
-24.1582
 30
0.0
 10
-27.726
 20
-27.8616
 30
0.0
 10
-32.1322
 20
-34.8624
 30
0.0
 10
-32.4297
 20
-37.8345
 30
0.0
 10
-32.4297
 20
-37.8345
 30
0.0
 10
-34.238
 20
-36.4809
 30
0.0
 10
-36.7777
 20
-35.6146
 30
0.0
 10
-39.8195
 20
-36.0258
 30
0.0
  0
SPLINE
  5
50
330
1F
100
AcDbEntity
  8
layer 1
 62
     7
100
AcDbSpline
210
0.0
220
0.0
230
1.0
 70
    11
 71
     3
 72
    16
 73
    12
 74
     0
 42
0.0000000001
 43
0.0000000001
 12
1.0
 22
0.0
 32
0.0
 13
1.0
 23
0.0
 33
0.0
 40
0.0
 40
0.0
 40
0.0
 40
0.0
 40
0.25
 40
0.25
 40
0.25
 40
0.25
 40
0.5
 40
0.5
 40
0.5
 40
0.5
 40
1.0
 40
1.0
 40
1.0
 40
1.0
 10
-84.4614
 20
105.5652
 30
0.0
 10
-84.4614
 20
105.5652
 30
0.0
 10
-37.7145
 20
105.5652
 30
0.0
 10
-37.7145
 20
105.5652
 30
0.0
 10
-37.7145
 20
105.5652
 30
0.0
 10
-77.4971
 20
102.2917
 30
0.0
 10
-81.4981
 20
92.8342
 30
0.0
 10
-84.4614
 20
87.0272
 30
0.0
 10
-84.4614
 20
87.0272
 30
0.0
 10
-84.4614
 20
87.0272
 30
0.0
 10
-84.4614
 20
105.5652
 30
0.0
 10
-84.4614
 20
105.5652
 30
0.0
  0
SPLINE
  5
51
330
1F
100
AcDbEntity
  8
layer 1
 62
     7
100
AcDbSpline
210
0.0
220
0.0
230
1.0
 70
    11
 71
     3
 72
    24
 73
    20
 74
     0
 42
0.0000000001
 43
0.0000000001
 12
1.0
 22
0.0
 32
0.0
 13
1.0
 23
0.0
 33
0.0
 40
0.0
 40
0.0
 40
0.0
 40
0.0
 40
0.1666666666666667
 40
0.1666666666666667
 40
0.1666666666666667
 40
0.1666666666666667
 40
0.3333333333333333
 40
0.3333333333333333
 40
0.3333333333333333
 40
0.3333333333333333
 40
0.5
 40
0.5
 40
0.5
 40
0.5
 40
0.6666666666666666
 40
0.6666666666666666
 40
0.6666666666666666
 40
0.6666666666666666
 40
1.0
 40
1.0
 40
1.0
 40
1.0
 10
-59.5622
 20
70.1397
 30
0.0
 10
-59.3103
 20
68.3609
 30
0.0
 10
-60.3166
 20
69.3268
 30
0.0
 10
-60.5709
 20
69.8652
 30
0.0
 10
-60.5709
 20
69.8652
 30
0.0
 10
-62.4627
 20
73.8936
 30
0.0
 10
-64.6826
 20
79.2771
 30
0.0
 10
-73.0454
 20
78.5272
 30
0.0
 10
-73.0454
 20
78.5272
 30
0.0
 10
-67.0517
 20
83.8392
 30
0.0
 10
-71.2797
 20
89.4661
 30
0.0
 10
-77.1818
 20
89.4027
 30
0.0
 10
-77.1818
 20
89.4027
 30
0.0
 10
-73.9642
 20
92.976
 30
0.0
 10
-63.9061
 20
97.6415
 30
0.0
 10
-55.8695
 20
98.7155
 30
0.0
 10
-55.8695
 20
98.7155
 30
0.0
 10
-62.4287
 20
94.6332
 30
0.0
 10
-62.3209
 20
81.7069
 30
0.0
 10
-59.5622
 20
70.1397
 30
0.0
  0
SPLINE
  5
52
330
1F
100
AcDbEntity
  8
layer 1
 62
     7
100
AcDbSpline
210
0.0
220
0.0
230
1.0
 70
    11
 71
     3
 72
    20
 73
    16
 74
     0
 42
0.0000000001
 43
0.0000000001
 12
1.0
 22
0.0
 32
0.0
 13
1.0
 23
0.0
 33
0.0
 40
0.0
 40
0.0
 40
0.0
 40
0.0
 40
0.2
 40
0.2
 40
0.2
 40
0.2
 40
0.4
 40
0.4
 40
0.4
 40
0.4
 40
0.6
 40
0.6
 40
0.6
 40
0.6
 40
1.0
 40
1.0
 40
1.0
 40
1.0
 10
-54.3813
 20
69.2193
 30
0.0
 10
-54.7911
 20
68.584
 30
0.0
 10
-55.8361
 20
69.3632
 30
0.0
 10
-54.9103
 20
70.3085
 30
0.0
 10
-54.9103
 20
70.3085
 30
0.0
 10
-51.1705
 20
77.4598
 30
0.0
 10
-41.042
 20
92.9379
 30
0.0
 10
-52.796
 20
98.905
 30
0.0
 10
-52.796
 20
98.905
 30
0.0
 10
-46.6693
 20
99.9744
 30
0.0
 10
-41.4023
 20
100.1882
 30
0.0
 10
-33.3688
 20
100.598
 30
0.0
 10
-33.3688
 20
100.598
 30
0.0
 10
-43.7554
 20
93.2013
 30
0.0
 10
-47.23
 20
79.0183
 30
0.0
 10
-54.3813
 20
69.2193
 30
0.0
  0
SPLINE
  5
53
330
1F
100
AcDbEntity
  8
layer 1
 62
     7
100
AcDbSpline
210
0.0
220
0.0
230
1.0
 70
    11
 71
     3
 72
    24
 73
    20
 74
     0
 42
0.0000000001
 43
0.0000000001
 12
1.0
 22
0.0
 32
0.0
 13
1.0
 23
0.0
 33
0.0
 40
0.0
 40
0.0
 40
0.0
 40
0.0
 40
0.1666666666666667
 40
0.1666666666666667
 40
0.1666666666666667
 40
0.1666666666666667
 40
0.3333333333333333
 40
0.3333333333333333
 40
0.3333333333333333
 40
0.3333333333333333
 40
0.5
 40
0.5
 40
0.5
 40
0.5
 40
0.6666666666666666
 40
0.6666666666666666
 40
0.6666666666666666
 40
0.6666666666666666
 40
1.0
 40
1.0
 40
1.0
 40
1.0
 10
-80.3136
 20
33.7101
 30
0.0
 10
-80.7234
 20
33.0733
 30
0.0
 10
-81.5995
 20
33.521
 30
0.0
 10
-80.8427
 20
34.7978
 30
0.0
 10
-80.8427
 20
34.7978
 30
0.0
 10
-76.6007
 20
44.4593
 30
0.0
 10
-71.8227
 20
61.9417
 30
0.0
 10
-74.8287
 20
68.8565
 30
0.0
 10
-74.8287
 20
68.8565
 30
0.0
 10
-72.3225
 20
65.9133
 30
0.0
 10
-68.4495
 20
64.6773
 30
0.0
 10
-63.9262
 20
64.3644
 30
0.0
 10
-63.9262
 20
64.3644
 30
0.0
 10
-67.6955
 20
62.653
 30
0.0
 10
-66.851
 20
58.5552
 30
0.0
 10
-64.3315
 20
57.5055
 30
0.0
 10
-64.3315
 20
57.5055
 30
0.0
 10
-70.5552
 20
51.5971
 30
0.0
 10
-77.164
 20
39.544
 30
0.0
 10
-80.3136
 20
33.7101
 30
0.0
  0
SPLINE
  5
54
330
1F
100
AcDbEntity
  8
layer 1
 62
     7
100
AcDbSpline
210
0.0
220
0.0
230
1.0
 70
    11
 71
     3
 72
    24
 73
    20
 74
     0
 42
0.0000000001
 43
0.0000000001
 12
1.0
 22
0.0
 32
0.0
 13
1.0
 23
0.0
 33
0.0
 40
0.0
 40
0.0
 40
0.0
 40
0.0
 40
0.1666666666666667
 40
0.1666666666666667
 40
0.1666666666666667
 40
0.1666666666666667
 40
0.3333333333333333
 40
0.3333333333333333
 40
0.3333333333333333
 40
0.3333333333333333
 40
0.5
 40
0.5
 40
0.5
 40
0.5
 40
0.6666666666666666
 40
0.6666666666666666
 40
0.6666666666666666
 40
0.6666666666666666
 40
1.0
 40
1.0
 40
1.0
 40
1.0
 10
-77.9133
 20
33.2869
 30
0.0
 10
-78.5329
 20
32.5032
 30
0.0
 10
-77.7628
 20
31.9939
 30
0.0
 10
-76.7246
 20
33.0568
 30
0.0
 10
-76.7246
 20
33.0568
 30
0.0
 10
-70.2198
 20
46.0065
 30
0.0
 10
-52.0035
 20
48.9628
 30
0.0
 10
-44.5479
 20
47.8504
 30
0.0
 10
-44.5479
 20
47.8504
 30
0.0
 10
-48.7068
 20
49.8411
 30
0.0
 10
-52.7983
 20
53.1512
 30
0.0
 10
-54.2711
 20
57.4403
 30
0.0
 10
-54.2711
 20
57.4403
 30
0.0
 10
-53.6112
 20
51.6853
 30
0.0
 10
-59.2946
 20
51.2732
 30
0.0
 10
-60.7916
 20
55.2719
 30
0.0
 10
-60.7916
 20
55.2719
 30
0.0
 10
-67.2293
 20
48.5687
 30
0.0
 10
-76.1568
 20
38.0061
 30
0.0
 10
-77.9133
 20
33.2869
 30
0.0
  0
SPLINE
  5
55
330
1F
100
AcDbEntity
  8
layer 1
 62
     7
100
AcDbSpline
210
0.0
220
0.0
230
1.0
 70
    11
 71
     3
 72
    24
 73
    20
 74
     0
 42
0.0000000001
 43
0.0000000001
 12
1.0
 22
0.0
 32
0.0
 13
1.0
 23
0.0
 33
0.0
 40
0.0
 40
0.0
 40
0.0
 40
0.0
 40
0.1666666666666667
 40
0.1666666666666667
 40
0.1666666666666667
 40
0.1666666666666667
 40
0.3333333333333333
 40
0.3333333333333333
 40
0.3333333333333333
 40
0.3333333333333333
 40
0.5
 40
0.5
 40
0.5
 40
0.5
 40
0.6666666666666666
 40
0.6666666666666666
 40
0.6666666666666666
 40
0.6666666666666666
 40
1.0
 40
1.0
 40
1.0
 40
1.0
 10
-84.4614
 20
69.4779
 30
0.0
 10
-84.4614
 20
69.4779
 30
0.0
 10
-84.4614
 20
82.3036
 30
0.0
 10
-84.4614
 20
82.3036
 30
0.0
 10
-84.4614
 20
82.3036
 30
0.0
 10
-83.7387
 20
80.4185
 30
0.0
 10
-81.8716
 20
77.7888
 30
0.0
 10
-77.0712
 20
78.2546
 30
0.0
 10
-77.0712
 20
78.2546
 30
0.0
 10
-79.1832
 20
77.4714
 30
0.0
 10
-79.3295
 20
77.2417
 30
0.0
 10
-80.3499
 20
76.7103
 30
0.0
 10
-80.3499
 20
76.7103
 30
0.0
 10
-79.9198
 20
75.1703
 30
0.0
 10
-78.9785
 20
73.7089
 30
0.0
 10
-78.1703
 20
72.6321
 30
0.0
 10
-78.1703
 20
72.6321
 30
0.0
 10
-80.0028
 20
73.7378
 30
0.0
 10
-83.4613
 20
72.6839
 30
0.0
 10
-84.4614
 20
69.4779
 30
0.0
  0
SPLINE
  5
56
330
1F
100
AcDbEntity
  8
layer 1
 62
     7
100
AcDbSpline
210
0.0
220
0.0
230
1.0
 70
    11
 71
     3
 72
    16
 73
    12
 74
     0
 42
0.0000000001
 43
0.0000000001
 12
1.0
 22
0.0
 32
0.0
 13
1.0
 23
0.0
 33
0.0
 40
0.0
 40
0.0
 40
0.0
 40
0.0
 40
0.25
 40
0.25
 40
0.25
 40
0.25
 40
0.5
 40
0.5
 40
0.5
 40
0.5
 40
1.0
 40
1.0
 40
1.0
 40
1.0
 10
-84.4614
 20
32.0823
 30
0.0
 10
-84.4614
 20
32.0823
 30
0.0
 10
-84.4614
 20
65.9182
 30
0.0
 10
-84.4614
 20
65.9182
 30
0.0
 10
-84.4614
 20
65.9182
 30
0.0
 10
-83.7387
 20
64.0337
 30
0.0
 10
-81.426
 20
62.7994
 30
0.0
 10
-78.9653
 20
62.5965
 30
0.0
 10
-78.9653
 20
62.5965
 30
0.0
 10
-76.6053
 20
51.0728
 30
0.0
 10
-83.0476
 20
39.31
 30
0.0
 10
-84.4614
 20
32.0823
 30
0.0
  0
SPLINE
  5
57
330
1F
100
AcDbEntity
  8
layer 1
 62
     7
100
AcDbSpline
210
0.0
220
0.0
230
1.0
 70
    11
 71
     3
 72
    32
 73
    28
 74
     0
 42
0.0000000001
 43
0.0000000001
 12
1.0
 22
0.0
 32
0.0
 13
1.0
 23
0.0
 33
0.0
 40
0.0
 40
0.0
 40
0.0
 40
0.0
 40
0.125
 40
0.125
 40
0.125
 40
0.125
 40
0.25
 40
0.25
 40
0.25
 40
0.25
 40
0.375
 40
0.375
 40
0.375
 40
0.375
 40
0.5
 40
0.5
 40
0.5
 40
0.5
 40
0.625
 40
0.625
 40
0.625
 40
0.625
 40
0.75
 40
0.75
 40
0.75
 40
0.75
 40
1.0
 40
1.0
 40
1.0
 40
1.0
 10
-51.0939
 20
11.4837
 30
0.0
 10
-50.4748
 20
10.7004
 30
0.0
 10
-51.6385
 20
9.7975
 30
0.0
 10
-52.2847
 20
11.2541
 30
0.0
 10
-52.2847
 20
11.2541
 30
0.0
 10
-54.4602
 20
21.7942
 30
0.0
 10
-64.7344
 20
31.9738
 30
0.0
 10
-68.3889
 20
32.0892
 30
0.0
 10
-68.3889
 20
32.0892
 30
0.0
 10
-68.702
 20
29.934
 30
0.0
 10
-67.9162
 20
23.8751
 30
0.0
 10
-65.2071
 20
19.6999
 30
0.0
 10
-65.2071
 20
19.6999
 30
0.0
 10
-71.4626
 20
22.6568
 30
0.0
 10
-74.374
 20
17.1694
 30
0.0
 10
-73.2482
 20
13.4497
 30
0.0
 10
-73.2482
 20
13.4497
 30
0.0
 10
-80.1406
 20
15.7348
 30
0.0
 10
-79.4829
 20
25.086
 30
0.0
 10
-73.3018
 20
32.0418
 30
0.0
 10
-73.3018
 20
32.0418
 30
0.0
 10
-68.058
 20
37.9411
 30
0.0
 10
-58.1395
 20
41.6877
 30
0.0
 10
-52.814
 20
42.44
 30
0.0
 10
-52.814
 20
42.44
 30
0.0
 10
-59.2405
 20
32.4109
 30
0.0
 10
-52.8525
 20
16.201
 30
0.0
 10
-51.0939
 20
11.4837
 30
0.0
  0
SPLINE
  5
58
330
1F
100
AcDbEntity
  8
layer 1
 62
     7
100
AcDbSpline
210
0.0
220
0.0
230
1.0
 70
    11
 71
     3
 72
    24
 73
    20
 74
     0
 42
0.0000000001
 43
0.0000000001
 12
1.0
 22
0.0
 32
0.0
 13
1.0
 23
0.0
 33
0.0
 40
0.0
 40
0.0
 40
0.0
 40
0.0
 40
0.1666666666666667
 40
0.1666666666666667
 40
0.1666666666666667
 40
0.1666666666666667
 40
0.3333333333333333
 40
0.3333333333333333
 40
0.3333333333333333
 40
0.3333333333333333
 40
0.5
 40
0.5
 40
0.5
 40
0.5
 40
0.6666666666666666
 40
0.6666666666666666
 40
0.6666666666666666
 40
0.6666666666666666
 40
1.0
 40
1.0
 40
1.0
 40
1.0
 10
-50.932
 20
42.3861
 30
0.0
 10
-39.4841
 20
31.3688
 30
0.0
 10
-47.0341
 20
11.8507
 30
0.0
 10
-47.7251
 20
9.8759
 30
0.0
 10
-47.7251
 20
9.8759
 30
0.0
 10
-46.7954
 20
10.5223
 30
0.0
 10
-46.068
 20
10.4731
 30
0.0
 10
-44.8028
 20
10.3221
 30
0.0
 10
-44.8028
 20
10.3221
 30
0.0
 10
-44.1565
 20
14.0822
 30
0.0
 10
-41.2605
 20
21.3641
 30
0.0
 10
-35.5844
 20
25.7392
 30
0.0
 10
-35.5844
 20
25.7392
 30
0.0
 10
-44.0033
 20
24.8048
 30
0.0
 10
-45.0908
 20
36.61
 30
0.0
 10
-36.2756
 20
37.4723
 30
0.0
 10
-36.2756
 20
37.4723
 30
0.0
 10
-39.9123
 20
42.8724
 30
0.0
 10
-43.9064
 20
42.8452
 30
0.0
 10
-50.932
 20
42.3861
 30
0.0
  0
SPLINE
  5
59
330
1F
100
AcDbEntity
  8
layer 1
 62
     7
100
AcDbSpline
210
0.0
220
0.0
230
1.0
 70
    11
 71
     3
 72
    28
 73
    24
 74
     0
 42
0.0000000001
 43
0.0000000001
 12
1.0
 22
0.0
 32
0.0
 13
1.0
 23
0.0
 33
0.0
 40
0.0
 40
0.0
 40
0.0
 40
0.0
 40
0.1428571428571428
 40
0.1428571428571428
 40
0.1428571428571428
 40
0.1428571428571428
 40
0.2857142857142857
 40
0.2857142857142857
 40
0.2857142857142857
 40
0.2857142857142857
 40
0.4285714285714285
 40
0.4285714285714285
 40
0.4285714285714285
 40
0.4285714285714285
 40
0.5714285714285714
 40
0.5714285714285714
 40
0.5714285714285714
 40
0.5714285714285714
 40
0.7142857142857143
 40
0.7142857142857143
 40
0.7142857142857143
 40
0.7142857142857143
 40
1.0
 40
1.0
 40
1.0
 40
1.0
 10
-50.8328
 20
61.6042
 30
0.0
 10
-51.3123
 20
61.6984
 30
0.0
 10
-51.578
 20
62.4074
 30
0.0
 10
-50.0851
 20
62.5561
 30
0.0
 10
-50.0851
 20
62.5561
 30
0.0
 10
-34.1434
 20
64.3955
 30
0.0
 10
-27.9036
 20
64.0422
 30
0.0
 10
-22.5676
 20
70.998
 30
0.0
 10
-22.5676
 20
70.998
 30
0.0
 10
-24.4024
 20
66.7647
 30
0.0
 10
-21.4684
 20
47.9316
 30
0.0
 10
-19.7707
 20
43.7278
 30
0.0
 10
-19.7707
 20
43.7278
 30
0.0
 10
-23.0449
 20
48.5058
 30
0.0
 10
-24.9811
 20
55.4183
 30
0.0
 10
-32.0649
 20
57.8052
 30
0.0
 10
-32.0649
 20
57.8052
 30
0.0
 10
-32.7134
 20
56.4474
 30
0.0
 10
-32.8194
 20
54.7203
 30
0.0
 10
-32.3554
 20
52.2208
 30
0.0
 10
-32.3554
 20
52.2208
 30
0.0
 10
-36.037
 20
62.2906
 30
0.0
 10
-47.3828
 20
61.6535
 30
0.0
 10
-50.8328
 20
61.6042
 30
0.0
  0
SPLINE
  5
5A
330
1F
100
AcDbEntity
  8
layer 1
 62
     7
100
AcDbSpline
210
0.0
220
0.0
230
1.0
 70
    11
 71
     3
 72
    28
 73
    24
 74
     0
 42
0.0000000001
 43
0.0000000001
 12
1.0
 22
0.0
 32
0.0
 13
1.0
 23
0.0
 33
0.0
 40
0.0
 40
0.0
 40
0.0
 40
0.0
 40
0.1428571428571428
 40
0.1428571428571428
 40
0.1428571428571428
 40
0.1428571428571428
 40
0.2857142857142857
 40
0.2857142857142857
 40
0.2857142857142857
 40
0.2857142857142857
 40
0.4285714285714285
 40
0.4285714285714285
 40
0.4285714285714285
 40
0.4285714285714285
 40
0.5714285714285714
 40
0.5714285714285714
 40
0.5714285714285714
 40
0.5714285714285714
 40
0.7142857142857143
 40
0.7142857142857143
 40
0.7142857142857143
 40
0.7142857142857143
 40
1.0
 40
1.0
 40
1.0
 40
1.0
 10
-18.7822
 20
101.0934
 30
0.0
 10
-19.9513
 20
101.0779
 30
0.0
 10
-21.1018
 20
101.0914
 30
0.0
 10
-22.2835
 20
101.0914
 30
0.0
 10
-22.2835
 20
101.0914
 30
0.0
 10
-23.5176
 20
79.9886
 30
0.0
 10
-39.0788
 20
80.6098
 30
0.0
 10
-52.1476
 20
65.9155
 30
0.0
 10
-52.1476
 20
65.9155
 30
0.0
 10
-52.7667
 20
65.1322
 30
0.0
 10
-51.9965
 20
64.6232
 30
0.0
 10
-50.9589
 20
65.6861
 30
0.0
 10
-50.9589
 20
65.6861
 30
0.0
 10
-38.6241
 20
75.9404
 30
0.0
 10
-27.8904
 20
81.0467
 30
0.0
 10
-21.0925
 20
76.5911
 30
0.0
 10
-21.0925
 20
76.5911
 30
0.0
 10
-20.8965
 20
79.3987
 30
0.0
 10
-19.8521
 20
81.8077
 30
0.0
 10
-18.7822
 20
83.5663
 30
0.0
 10
-18.7822
 20
83.5663
 30
0.0
 10
-18.7822
 20
83.5663
 30
0.0
 10
-18.7822
 20
101.0934
 30
0.0
 10
-18.7822
 20
101.0934
 30
0.0
  0
SPLINE
  5
5B
330
1F
100
AcDbEntity
  8
layer 1
 62
     7
100
AcDbSpline
210
0.0
220
0.0
230
1.0
 70
    11
 71
     3
 72
    20
 73
    16
 74
     0
 42
0.0000000001
 43
0.0000000001
 12
1.0
 22
0.0
 32
0.0
 13
1.0
 23
0.0
 33
0.0
 40
0.0
 40
0.0
 40
0.0
 40
0.0
 40
0.2
 40
0.2
 40
0.2
 40
0.2
 40
0.4
 40
0.4
 40
0.4
 40
0.4
 40
0.6
 40
0.6
 40
0.6
 40
0.6
 40
1.0
 40
1.0
 40
1.0
 40
1.0
 10
-18.7822
 20
-13.7078
 30
0.0
 10
-8.0936
 20
-13.7078
 30
0.0
 10
0.5707
 20
-5.0432
 30
0.0
 10
0.5707
 20
5.6433
 30
0.0
 10
0.5707
 20
5.6433
 30
0.0
 10
0.5707
 20
16.332
 30
0.0
 10
-8.0936
 20
24.9961
 30
0.0
 10
-18.7822
 20
24.9961
 30
0.0
 10
-18.7822
 20
24.9961
 30
0.0
 10
-29.4687
 20
24.9964
 30
0.0
 10
-38.1334
 20
16.3319
 30
0.0
 10
-38.1334
 20
5.6433
 30
0.0
 10
-38.1334
 20
5.6433
 30
0.0
 10
-38.1334
 20
-5.0432
 30
0.0
 10
-29.4687
 20
-13.708
 30
0.0
 10
-18.7822
 20
-13.7078
 30
0.0
  0
SPLINE
  5
5C
330
1F
100
AcDbEntity
  8
layer 1
 62
     7
100
AcDbSpline
210
0.0
220
0.0
230
1.0
 70
    11
 71
     3
 72
    20
 73
    16
 74
     0
 42
0.0000000001
 43
0.0000000001
 12
1.0
 22
0.0
 32
0.0
 13
1.0
 23
0.0
 33
0.0
 40
0.0
 40
0.0
 40
0.0
 40
0.0
 40
0.2
 40
0.2
 40
0.2
 40
0.2
 40
0.4
 40
0.4
 40
0.4
 40
0.4
 40
0.6
 40
0.6
 40
0.6
 40
0.6
 40
1.0
 40
1.0
 40
1.0
 40
1.0
 10
-54.7058
 20
9.0772
 30
0.0
 10
-56.4368
 20
9.9231
 30
0.0
 10
-58.5176
 20
12.1775
 30
0.0
 10
-62.737
 20
16.2778
 30
0.0
 10
-62.737
 20
16.2778
 30
0.0
 10
-62.0816
 20
12.1685
 30
0.0
 10
-63.2143
 20
11.0202
 30
0.0
 10
-65.4728
 20
8.6153
 30
0.0
 10
-65.4728
 20
8.6153
 30
0.0
 10
-62.2978
 20
9.8984
 30
0.0
 10
-57.3873
 20
9.0971
 30
0.0
 10
-55.1876
 20
8.2705
 30
0.0
 10
-55.1876
 20
8.2705
 30
0.0
 10
-54.5121
 20
7.9468
 30
0.0
 10
-54.1045
 20
8.7772
 30
0.0
 10
-54.7058
 20
9.0772
 30
0.0
  0
SPLINE
  5
5D
330
1F
100
AcDbEntity
  8
layer 1
 62
     7
100
AcDbSpline
210
0.0
220
0.0
230
1.0
 70
    11
 71
     3
 72
    24
 73
    20
 74
     0
 42
0.0000000001
 43
0.0000000001
 12
1.0
 22
0.0
 32
0.0
 13
1.0
 23
0.0
 33
0.0
 40
0.0
 40
0.0
 40
0.0
 40
0.0
 40
0.1666666666666667
 40
0.1666666666666667
 40
0.1666666666666667
 40
0.1666666666666667
 40
0.3333333333333333
 40
0.3333333333333333
 40
0.3333333333333333
 40
0.3333333333333333
 40
0.5
 40
0.5
 40
0.5
 40
0.5
 40
0.6666666666666666
 40
0.6666666666666666
 40
0.6666666666666666
 40
0.6666666666666666
 40
1.0
 40
1.0
 40
1.0
 40
1.0
 10
-67.9884
 20
7.478
 30
0.0
 10
-71.8113
 20
5.4947
 30
0.0
 10
-82.4595
 20
6.0282
 30
0.0
 10
-84.4614
 20
23.0979
 30
0.0
 10
-84.4614
 20
23.0979
 30
0.0
 10
-84.4614
 20
23.0979
 30
0.0
 10
-84.4614
 20
-11.9601
 30
0.0
 10
-84.4614
 20
-11.9601
 30
0.0
 10
-84.4614
 20
-11.9601
 30
0.0
 10
-82.4595
 20
5.1094
 30
0.0
 10
-71.8113
 20
5.6433
 30
0.0
 10
-67.9883
 20
3.6591
 30
0.0
 10
-67.9883
 20
3.6591
 30
0.0
 10
-69.053
 20
4.2876
 30
0.0
 10
-69.758
 20
4.9763
 30
0.0
 10
-70.0595
 20
5.5689
 30
0.0
 10
-70.0595
 20
5.5689
 30
0.0
 10
-69.758
 20
6.1611
 30
0.0
 10
-69.053
 20
6.8496
 30
0.0
 10
-67.9884
 20
7.478
 30
0.0
  0
SPLINE
  5
5E
330
1F
100
AcDbEntity
  8
layer 1
 62
     7
100
AcDbSpline
210
0.0
220
0.0
230
1.0
 70
    11
 71
     3
 72
    28
 73
    24
 74
     0
 42
0.0000000001
 43
0.0000000001
 12
1.0
 22
0.0
 32
0.0
 13
1.0
 23
0.0
 33
0.0
 40
0.0
 40
0.0
 40
0.0
 40
0.0
 40
0.1428571428571428
 40
0.1428571428571428
 40
0.1428571428571428
 40
0.1428571428571428
 40
0.2857142857142857
 40
0.2857142857142857
 40
0.2857142857142857
 40
0.2857142857142857
 40
0.4285714285714285
 40
0.4285714285714285
 40
0.4285714285714285
 40
0.4285714285714285
 40
0.5714285714285714
 40
0.5714285714285714
 40
0.5714285714285714
 40
0.5714285714285714
 40
0.7142857142857143
 40
0.7142857142857143
 40
0.7142857142857143
 40
0.7142857142857143
 40
1.0
 40
1.0
 40
1.0
 40
1.0
 10
-39.8195
 20
47.1641
 30
0.0
 10
-23.412
 20
42.2528
 30
0.0
 10
-28.0321
 20
30.5962
 30
0.0
 10
-30.7972
 20
29.166
 30
0.0
 10
-30.7972
 20
29.166
 30
0.0
 10
-29.8675
 20
29.8124
 30
0.0
 10
-25.0509
 20
31.5617
 30
0.0
 10
-23.7833
 20
31.4112
 30
0.0
 10
-23.7833
 20
31.4112
 30
0.0
 10
-25.2422
 20
31.9741
 30
0.0
 10
-26.0037
 20
32.5122
 30
0.0
 10
-26.6314
 20
33.1204
 30
0.0
 10
-26.6314
 20
33.1204
 30
0.0
 10
-25.0486
 20
34.9467
 30
0.0
 10
-22.4955
 20
35.4076
 30
0.0
 10
-19.9171
 20
35.2952
 30
0.0
 10
-19.9171
 20
35.2952
 30
0.0
 10
-27.726
 20
38.9994
 30
0.0
 10
-32.1322
 20
45.9995
 30
0.0
 10
-32.4297
 20
48.9721
 30
0.0
 10
-32.4297
 20
48.9721
 30
0.0
 10
-34.238
 20
47.6187
 30
0.0
 10
-36.7777
 20
46.7517
 30
0.0
 10
-39.8195
 20
47.1641
 30
0.0
  0
SPLINE
  5
5F
330
1F
100
AcDbEntity
  8
layer 1
 62
     7
100
AcDbSpline
210
0.0
220
0.0
230
1.0
 70
    11
 71
     3
 72
    16
 73
    12
 74
     0
 42
0.0000000001
 43
0.0000000001
 12
1.0
 22
0.0
 32
0.0
 13
1.0
 23
0.0
 33
0.0
 40
0.0
 40
0.0
 40
0.0
 40
0.0
 40
0.25
 40
0.25
 40
0.25
 40
0.25
 40
0.5
 40
0.5
 40
0.5
 40
0.5
 40
1.0
 40
1.0
 40
1.0
 40
1.0
 10
46.757
 20
-94.4279
 30
0.0
 10
46.757
 20
-94.4279
 30
0.0
 10
0.0099
 20
-94.4279
 30
0.0
 10
0.0099
 20
-94.4279
 30
0.0
 10
0.0099
 20
-94.4279
 30
0.0
 10
39.7926
 20
-91.1539
 30
0.0
 10
43.7935
 20
-81.697
 30
0.0
 10
46.757
 20
-75.89
 30
0.0
 10
46.757
 20
-75.89
 30
0.0
 10
46.757
 20
-75.89
 30
0.0
 10
46.757
 20
-94.4279
 30
0.0
 10
46.757
 20
-94.4279
 30
0.0
  0
SPLINE
  5
60
330
1F
100
AcDbEntity
  8
layer 1
 62
     7
100
AcDbSpline
210
0.0
220
0.0
230
1.0
 70
    11
 71
     3
 72
    24
 73
    20
 74
     0
 42
0.0000000001
 43
0.0000000001
 12
1.0
 22
0.0
 32
0.0
 13
1.0
 23
0.0
 33
0.0
 40
0.0
 40
0.0
 40
0.0
 40
0.0
 40
0.1666666666666667
 40
0.1666666666666667
 40
0.1666666666666667
 40
0.1666666666666667
 40
0.3333333333333333
 40
0.3333333333333333
 40
0.3333333333333333
 40
0.3333333333333333
 40
0.5
 40
0.5
 40
0.5
 40
0.5
 40
0.6666666666666666
 40
0.6666666666666666
 40
0.6666666666666666
 40
0.6666666666666666
 40
1.0
 40
1.0
 40
1.0
 40
1.0
 10
21.8582
 20
-59.0025
 30
0.0
 10
21.6057
 20
-57.2234
 30
0.0
 10
22.6122
 20
-58.1898
 30
0.0
 10
22.867
 20
-58.7275
 30
0.0
 10
22.867
 20
-58.7275
 30
0.0
 10
24.7558
 20
-62.7559
 30
0.0
 10
26.978
 20
-68.1395
 30
0.0
 10
35.3408
 20
-67.3901
 30
0.0
 10
35.3408
 20
-67.3901
 30
0.0
 10
29.3471
 20
-72.701
 30
0.0
 10
33.5758
 20
-78.3284
 30
0.0
 10
39.4772
 20
-78.2655
 30
0.0
 10
39.4772
 20
-78.2655
 30
0.0
 10
36.2596
 20
-81.8388
 30
0.0
 10
26.2016
 20
-86.5044
 30
0.0
 10
18.1651
 20
-87.5783
 30
0.0
 10
18.1651
 20
-87.5783
 30
0.0
 10
24.7218
 20
-83.496
 30
0.0
 10
24.6165
 20
-70.569
 30
0.0
 10
21.8582
 20
-59.0025
 30
0.0
  0
SPLINE
  5
61
330
1F
100
AcDbEntity
  8
layer 1
 62
     7
100
AcDbSpline
210
0.0
220
0.0
230
1.0
 70
    11
 71
     3
 72
    20
 73
    16
 74
     0
 42
0.0000000001
 43
0.0000000001
 12
1.0
 22
0.0
 32
0.0
 13
1.0
 23
0.0
 33
0.0
 40
0.0
 40
0.0
 40
0.0
 40
0.0
 40
0.2
 40
0.2
 40
0.2
 40
0.2
 40
0.4
 40
0.4
 40
0.4
 40
0.4
 40
0.6
 40
0.6
 40
0.6
 40
0.6
 40
1.0
 40
1.0
 40
1.0
 40
1.0
 10
16.6767
 20
-58.0814
 30
0.0
 10
17.0865
 20
-57.4442
 30
0.0
 10
18.1316
 20
-58.2256
 30
0.0
 10
17.2059
 20
-59.1715
 30
0.0
 10
17.2059
 20
-59.1715
 30
0.0
 10
13.4659
 20
-66.3223
 30
0.0
 10
3.3381
 20
-81.8007
 30
0.0
 10
15.0916
 20
-87.7673
 30
0.0
 10
15.0916
 20
-87.7673
 30
0.0
 10
8.9647
 20
-88.8373
 30
0.0
 10
3.6984
 20
-89.0511
 30
0.0
 10
-4.3358
 20
-89.4609
 30
0.0
 10
-4.3358
 20
-89.4609
 30
0.0
 10
6.0513
 20
-82.0641
 30
0.0
 10
9.5256
 20
-67.8807
 30
0.0
 10
16.6767
 20
-58.0814
 30
0.0
  0
SPLINE
  5
62
330
1F
100
AcDbEntity
  8
layer 1
 62
     7
100
AcDbSpline
210
0.0
220
0.0
230
1.0
 70
    11
 71
     3
 72
    24
 73
    20
 74
     0
 42
0.0000000001
 43
0.0000000001
 12
1.0
 22
0.0
 32
0.0
 13
1.0
 23
0.0
 33
0.0
 40
0.0
 40
0.0
 40
0.0
 40
0.0
 40
0.1666666666666667
 40
0.1666666666666667
 40
0.1666666666666667
 40
0.1666666666666667
 40
0.3333333333333333
 40
0.3333333333333333
 40
0.3333333333333333
 40
0.3333333333333333
 40
0.5
 40
0.5
 40
0.5
 40
0.5
 40
0.6666666666666666
 40
0.6666666666666666
 40
0.6666666666666666
 40
0.6666666666666666
 40
1.0
 40
1.0
 40
1.0
 40
1.0
 10
42.6095
 20
-22.5729
 30
0.0
 10
43.0195
 20
-21.9353
 30
0.0
 10
43.895
 20
-22.3832
 30
0.0
 10
43.1388
 20
-23.6601
 30
0.0
 10
43.1388
 20
-23.6601
 30
0.0
 10
38.8962
 20
-33.3221
 30
0.0
 10
34.1183
 20
-50.8041
 30
0.0
 10
37.1243
 20
-57.7189
 30
0.0
 10
37.1243
 20
-57.7189
 30
0.0
 10
34.618
 20
-54.7761
 30
0.0
 10
30.7456
 20
-53.5397
 30
0.0
 10
26.2218
 20
-53.2268
 30
0.0
 10
26.2218
 20
-53.2268
 30
0.0
 10
29.9911
 20
-51.5158
 30
0.0
 10
29.1466
 20
-47.4175
 30
0.0
 10
26.627
 20
-46.3683
 30
0.0
 10
26.627
 20
-46.3683
 30
0.0
 10
32.8507
 20
-40.4599
 30
0.0
 10
39.4594
 20
-28.407
 30
0.0
 10
42.6095
 20
-22.5729
 30
0.0
  0
SPLINE
  5
63
330
1F
100
AcDbEntity
  8
layer 1
 62
     7
100
AcDbSpline
210
0.0
220
0.0
230
1.0
 70
    11
 71
     3
 72
    24
 73
    20
 74
     0
 42
0.0000000001
 43
0.0000000001
 12
1.0
 22
0.0
 32
0.0
 13
1.0
 23
0.0
 33
0.0
 40
0.0
 40
0.0
 40
0.0
 40
0.0
 40
0.1666666666666667
 40
0.1666666666666667
 40
0.1666666666666667
 40
0.1666666666666667
 40
0.3333333333333333
 40
0.3333333333333333
 40
0.3333333333333333
 40
0.3333333333333333
 40
0.5
 40
0.5
 40
0.5
 40
0.5
 40
0.6666666666666666
 40
0.6666666666666666
 40
0.6666666666666666
 40
0.6666666666666666
 40
1.0
 40
1.0
 40
1.0
 40
1.0
 10
40.2094
 20
-22.149
 30
0.0
 10
40.8283
 20
-21.3657
 30
0.0
 10
40.0583
 20
-20.8569
 30
0.0
 10
39.0202
 20
-21.9198
 30
0.0
 10
39.0202
 20
-21.9198
 30
0.0
 10
32.5152
 20
-34.869
 30
0.0
 10
14.2989
 20
-37.8258
 30
0.0
 10
6.8417
 20
-36.7132
 30
0.0
 10
6.8417
 20
-36.7132
 30
0.0
 10
11.0029
 20
-38.7034
 30
0.0
 10
15.0939
 20
-42.0135
 30
0.0
 10
16.5666
 20
-46.3033
 30
0.0
 10
16.5666
 20
-46.3033
 30
0.0
 10
15.9066
 20
-40.5475
 30
0.0
 10
21.5902
 20
-40.1354
 30
0.0
 10
23.0872
 20
-44.1347
 30
0.0
 10
23.0872
 20
-44.1347
 30
0.0
 10
29.5247
 20
-37.4315
 30
0.0
 10
38.453
 20
-26.8691
 30
0.0
 10
40.2094
 20
-22.149
 30
0.0
  0
SPLINE
  5
64
330
1F
100
AcDbEntity
  8
layer 1
 62
     7
100
AcDbSpline
210
0.0
220
0.0
230
1.0
 70
    11
 71
     3
 72
    24
 73
    20
 74
     0
 42
0.0000000001
 43
0.0000000001
 12
1.0
 22
0.0
 32
0.0
 13
1.0
 23
0.0
 33
0.0
 40
0.0
 40
0.0
 40
0.0
 40
0.0
 40
0.1666666666666667
 40
0.1666666666666667
 40
0.1666666666666667
 40
0.1666666666666667
 40
0.3333333333333333
 40
0.3333333333333333
 40
0.3333333333333333
 40
0.3333333333333333
 40
0.5
 40
0.5
 40
0.5
 40
0.5
 40
0.6666666666666666
 40
0.6666666666666666
 40
0.6666666666666666
 40
0.6666666666666666
 40
1.0
 40
1.0
 40
1.0
 40
1.0
 10
46.757
 20
-58.3401
 30
0.0
 10
46.757
 20
-58.3401
 30
0.0
 10
46.757
 20
-71.1654
 30
0.0
 10
46.757
 20
-71.1654
 30
0.0
 10
46.757
 20
-71.1654
 30
0.0
 10
46.0342
 20
-69.2813
 30
0.0
 10
44.1677
 20
-66.6511
 30
0.0
 10
39.3672
 20
-67.1174
 30
0.0
 10
39.3672
 20
-67.1174
 30
0.0
 10
41.4792
 20
-66.3339
 30
0.0
 10
41.6256
 20
-66.1042
 30
0.0
 10
42.643
 20
-65.5727
 30
0.0
 10
42.643
 20
-65.5727
 30
0.0
 10
42.2153
 20
-64.0322
 30
0.0
 10
41.2739
 20
-62.5712
 30
0.0
 10
40.4658
 20
-61.495
 30
0.0
 10
40.4658
 20
-61.495
 30
0.0
 10
42.2989
 20
-62.6003
 30
0.0
 10
45.7574
 20
-61.5469
 30
0.0
 10
46.757
 20
-58.3401
 30
0.0
  0
SPLINE
  5
65
330
1F
100
AcDbEntity
  8
layer 1
 62
     7
100
AcDbSpline
210
0.0
220
0.0
230
1.0
 70
    11
 71
     3
 72
    16
 73
    12
 74
     0
 42
0.0000000001
 43
0.0000000001
 12
1.0
 22
0.0
 32
0.0
 13
1.0
 23
0.0
 33
0.0
 40
0.0
 40
0.0
 40
0.0
 40
0.0
 40
0.25
 40
0.25
 40
0.25
 40
0.25
 40
0.5
 40
0.5
 40
0.5
 40
0.5
 40
1.0
 40
1.0
 40
1.0
 40
1.0
 10
46.757
 20
-20.9445
 30
0.0
 10
46.757
 20
-20.9445
 30
0.0
 10
46.757
 20
-54.7807
 30
0.0
 10
46.757
 20
-54.7807
 30
0.0
 10
46.757
 20
-54.7807
 30
0.0
 10
46.0342
 20
-52.8959
 30
0.0
 10
43.7214
 20
-51.6599
 30
0.0
 10
41.2607
 20
-51.4572
 30
0.0
 10
41.2607
 20
-51.4572
 30
0.0
 10
38.9009
 20
-39.9353
 30
0.0
 10
45.3407
 20
-28.1723
 30
0.0
 10
46.757
 20
-20.9445
 30
0.0
  0
SPLINE
  5
66
330
1F
100
AcDbEntity
  8
layer 1
 62
     7
100
AcDbSpline
210
0.0
220
0.0
230
1.0
 70
    11
 71
     3
 72
    32
 73
    28
 74
     0
 42
0.0000000001
 43
0.0000000001
 12
1.0
 22
0.0
 32
0.0
 13
1.0
 23
0.0
 33
0.0
 40
0.0
 40
0.0
 40
0.0
 40
0.0
 40
0.125
 40
0.125
 40
0.125
 40
0.125
 40
0.25
 40
0.25
 40
0.25
 40
0.25
 40
0.375
 40
0.375
 40
0.375
 40
0.375
 40
0.5
 40
0.5
 40
0.5
 40
0.5
 40
0.625
 40
0.625
 40
0.625
 40
0.625
 40
0.75
 40
0.75
 40
0.75
 40
0.75
 40
1.0
 40
1.0
 40
1.0
 40
1.0
 10
13.3893
 20
-0.3462
 30
0.0
 10
12.7702
 20
0.4371
 30
0.0
 10
13.9346
 20
1.3402
 30
0.0
 10
14.5808
 20
-0.117
 30
0.0
 10
14.5808
 20
-0.117
 30
0.0
 10
16.7556
 20
-10.657
 30
0.0
 10
27.03
 20
-20.8366
 30
0.0
 10
30.6845
 20
-20.9513
 30
0.0
 10
30.6845
 20
-20.9513
 30
0.0
 10
30.9974
 20
-18.7968
 30
0.0
 10
30.2118
 20
-12.7374
 30
0.0
 10
27.5032
 20
-8.5629
 30
0.0
 10
27.5032
 20
-8.5629
 30
0.0
 10
33.758
 20
-11.5191
 30
0.0
 10
36.6696
 20
-6.0318
 30
0.0
 10
35.5438
 20
-2.312
 30
0.0
 10
35.5438
 20
-2.312
 30
0.0
 10
42.436
 20
-4.5976
 30
0.0
 10
41.7783
 20
-13.949
 30
0.0
 10
35.5979
 20
-20.9041
 30
0.0
 10
35.5979
 20
-20.9041
 30
0.0
 10
30.3536
 20
-26.8032
 30
0.0
 10
20.435
 20
-30.5501
 30
0.0
 10
15.11
 20
-31.3024
 30
0.0
 10
15.11
 20
-31.3024
 30
0.0
 10
21.5359
 20
-21.2736
 30
0.0
 10
15.1479
 20
-5.064
 30
0.0
 10
13.3893
 20
-0.3462
 30
0.0
  0
SPLINE
  5
67
330
1F
100
AcDbEntity
  8
layer 1
 62
     7
100
AcDbSpline
210
0.0
220
0.0
230
1.0
 70
    11
 71
     3
 72
    24
 73
    20
 74
     0
 42
0.0000000001
 43
0.0000000001
 12
1.0
 22
0.0
 32
0.0
 13
1.0
 23
0.0
 33
0.0
 40
0.0
 40
0.0
 40
0.0
 40
0.0
 40
0.1666666666666667
 40
0.1666666666666667
 40
0.1666666666666667
 40
0.1666666666666667
 40
0.3333333333333333
 40
0.3333333333333333
 40
0.3333333333333333
 40
0.3333333333333333
 40
0.5
 40
0.5
 40
0.5
 40
0.5
 40
0.6666666666666666
 40
0.6666666666666666
 40
0.6666666666666666
 40
0.6666666666666666
 40
1.0
 40
1.0
 40
1.0
 40
1.0
 10
13.2274
 20
-31.2479
 30
0.0
 10
1.7801
 20
-20.2309
 30
0.0
 10
9.3296
 20
-0.7137
 30
0.0
 10
10.0207
 20
1.2611
 30
0.0
 10
10.0207
 20
1.2611
 30
0.0
 10
9.0908
 20
0.6152
 30
0.0
 10
8.3636
 20
0.6646
 30
0.0
 10
7.0982
 20
0.8155
 30
0.0
 10
7.0982
 20
0.8155
 30
0.0
 10
6.452
 20
-2.945
 30
0.0
 10
3.5566
 20
-10.227
 30
0.0
 10
-2.12
 20
-14.6014
 30
0.0
 10
-2.12
 20
-14.6014
 30
0.0
 10
6.2987
 20
-13.667
 30
0.0
 10
7.3864
 20
-25.473
 30
0.0
 10
-1.4288
 20
-26.333
 30
0.0
 10
-1.4288
 20
-26.333
 30
0.0
 10
2.2077
 20
-31.7345
 30
0.0
 10
6.2018
 20
-31.7076
 30
0.0
 10
13.2274
 20
-31.2479
 30
0.0
  0
SPLINE
  5
68
330
1F
100
AcDbEntity
  8
layer 1
 62
     7
100
AcDbSpline
210
0.0
220
0.0
230
1.0
 70
    11
 71
     3
 72
    28
 73
    24
 74
     0
 42
0.0000000001
 43
0.0000000001
 12
1.0
 22
0.0
 32
0.0
 13
1.0
 23
0.0
 33
0.0
 40
0.0
 40
0.0
 40
0.0
 40
0.0
 40
0.1428571428571428
 40
0.1428571428571428
 40
0.1428571428571428
 40
0.1428571428571428
 40
0.2857142857142857
 40
0.2857142857142857
 40
0.2857142857142857
 40
0.2857142857142857
 40
0.4285714285714285
 40
0.4285714285714285
 40
0.4285714285714285
 40
0.4285714285714285
 40
0.5714285714285714
 40
0.5714285714285714
 40
0.5714285714285714
 40
0.5714285714285714
 40
0.7142857142857143
 40
0.7142857142857143
 40
0.7142857142857143
 40
0.7142857142857143
 40
1.0
 40
1.0
 40
1.0
 40
1.0
 10
13.1282
 20
-50.4637
 30
0.0
 10
13.6078
 20
-50.5606
 30
0.0
 10
13.8736
 20
-51.2704
 30
0.0
 10
12.3807
 20
-51.4191
 30
0.0
 10
12.3807
 20
-51.4191
 30
0.0
 10
-3.5611
 20
-53.2583
 30
0.0
 10
-9.8003
 20
-52.905
 30
0.0
 10
-15.1368
 20
-59.8602
 30
0.0
 10
-15.1368
 20
-59.8602
 30
0.0
 10
-13.3015
 20
-55.6269
 30
0.0
 10
-16.2355
 20
-36.794
 30
0.0
 10
-17.9337
 20
-32.5883
 30
0.0
 10
-17.9337
 20
-32.5883
 30
0.0
 10
-14.6597
 20
-37.3686
 30
0.0
 10
-12.7234
 20
-44.2788
 30
0.0
 10
-5.6391
 20
-46.6675
 30
0.0
 10
-5.6391
 20
-46.6675
 30
0.0
 10
-4.9907
 20
-45.3099
 30
0.0
 10
-4.8851
 20
-43.5808
 30
0.0
 10
-5.3492
 20
-41.0838
 30
0.0
 10
-5.3492
 20
-41.0838
 30
0.0
 10
-1.6675
 20
-51.1533
 30
0.0
 10
9.6766
 20
-50.5158
 30
0.0
 10
13.1282
 20
-50.4637
 30
0.0
  0
SPLINE
  5
69
330
1F
100
AcDbEntity
  8
layer 1
 62
     7
100
AcDbSpline
210
0.0
220
0.0
230
1.0
 70
    11
 71
     3
 72
    28
 73
    24
 74
     0
 42
0.0000000001
 43
0.0000000001
 12
1.0
 22
0.0
 32
0.0
 13
1.0
 23
0.0
 33
0.0
 40
0.0
 40
0.0
 40
0.0
 40
0.0
 40
0.1428571428571428
 40
0.1428571428571428
 40
0.1428571428571428
 40
0.1428571428571428
 40
0.2857142857142857
 40
0.2857142857142857
 40
0.2857142857142857
 40
0.2857142857142857
 40
0.4285714285714285
 40
0.4285714285714285
 40
0.4285714285714285
 40
0.4285714285714285
 40
0.5714285714285714
 40
0.5714285714285714
 40
0.5714285714285714
 40
0.5714285714285714
 40
0.7142857142857143
 40
0.7142857142857143
 40
0.7142857142857143
 40
0.7142857142857143
 40
1.0
 40
1.0
 40
1.0
 40
1.0
 10
-18.924
 20
-89.9559
 30
0.0
 10
-17.7533
 20
-89.9402
 30
0.0
 10
-16.6028
 20
-89.9538
 30
0.0
 10
-15.4205
 20
-89.9538
 30
0.0
 10
-15.4205
 20
-89.9538
 30
0.0
 10
-14.187
 20
-68.8514
 30
0.0
 10
1.3743
 20
-69.4728
 30
0.0
 10
14.443
 20
-54.7785
 30
0.0
 10
14.443
 20
-54.7785
 30
0.0
 10
15.0626
 20
-53.9944
 30
0.0
 10
14.2926
 20
-53.4856
 30
0.0
 10
13.2545
 20
-54.5485
 30
0.0
 10
13.2545
 20
-54.5485
 30
0.0
 10
0.9195
 20
-64.8026
 30
0.0
 10
-9.8142
 20
-69.9097
 30
0.0
 10
-16.612
 20
-65.4532
 30
0.0
 10
-16.612
 20
-65.4532
 30
0.0
 10
-16.8097
 20
-68.2609
 30
0.0
 10
-17.8525
 20
-70.6682
 30
0.0
 10
-18.924
 20
-72.4293
 30
0.0
 10
-18.924
 20
-72.4293
 30
0.0
 10
-18.924
 20
-72.4293
 30
0.0
 10
-18.924
 20
-89.9559
 30
0.0
 10
-18.924
 20
-89.9559
 30
0.0
  0
SPLINE
  5
6A
330
1F
100
AcDbEntity
  8
layer 1
 62
     7
100
AcDbSpline
210
0.0
220
0.0
230
1.0
 70
    11
 71
     3
 72
    20
 73
    16
 74
     0
 42
0.0000000001
 43
0.0000000001
 12
1.0
 22
0.0
 32
0.0
 13
1.0
 23
0.0
 33
0.0
 40
0.0
 40
0.0
 40
0.0
 40
0.0
 40
0.2
 40
0.2
 40
0.2
 40
0.2
 40
0.4
 40
0.4
 40
0.4
 40
0.4
 40
0.6
 40
0.6
 40
0.6
 40
0.6
 40
1.0
 40
1.0
 40
1.0
 40
1.0
 10
17.0012
 20
2.061
 30
0.0
 10
18.7329
 20
1.2141
 30
0.0
 10
20.8131
 20
-1.0398
 30
0.0
 10
25.0326
 20
-5.1399
 30
0.0
 10
25.0326
 20
-5.1399
 30
0.0
 10
24.3777
 20
-1.0307
 30
0.0
 10
25.5104
 20
0.1175
 30
0.0
 10
27.7689
 20
2.5224
 30
0.0
 10
27.7689
 20
2.5224
 30
0.0
 10
24.5939
 20
1.2387
 30
0.0
 10
19.6827
 20
2.0405
 30
0.0
 10
17.483
 20
2.8665
 30
0.0
 10
17.483
 20
2.8665
 30
0.0
 10
16.8076
 20
3.1913
 30
0.0
 10
16.4001
 20
2.3598
 30
0.0
 10
17.0012
 20
2.061
 30
0.0
  0
SPLINE
  5
6B
330
1F
100
AcDbEntity
  8
layer 1
 62
     7
100
AcDbSpline
210
0.0
220
0.0
230
1.0
 70
    11
 71
     3
 72
    28
 73
    24
 74
     0
 42
0.0000000001
 43
0.0000000001
 12
1.0
 22
0.0
 32
0.0
 13
1.0
 23
0.0
 33
0.0
 40
0.0
 40
0.0
 40
0.0
 40
0.0
 40
0.1428571428571428
 40
0.1428571428571428
 40
0.1428571428571428
 40
0.1428571428571428
 40
0.2857142857142857
 40
0.2857142857142857
 40
0.2857142857142857
 40
0.2857142857142857
 40
0.4285714285714285
 40
0.4285714285714285
 40
0.4285714285714285
 40
0.4285714285714285
 40
0.5714285714285714
 40
0.5714285714285714
 40
0.5714285714285714
 40
0.5714285714285714
 40
0.7142857142857143
 40
0.7142857142857143
 40
0.7142857142857143
 40
0.7142857142857143
 40
1.0
 40
1.0
 40
1.0
 40
1.0
 10
2.1156
 20
-36.0258
 30
0.0
 10
-14.2948
 20
-31.1153
 30
0.0
 10
-9.6723
 20
-19.4586
 30
0.0
 10
-6.9072
 20
-18.029
 30
0.0
 10
-6.9072
 20
-18.029
 30
0.0
 10
-7.8371
 20
-18.6749
 30
0.0
 10
-12.653
 20
-20.4246
 30
0.0
 10
-13.9211
 20
-20.2736
 30
0.0
 10
-13.9211
 20
-20.2736
 30
0.0
 10
-12.4617
 20
-20.8365
 30
0.0
 10
-11.7007
 20
-21.3745
 30
0.0
 10
-11.0725
 20
-21.9827
 30
0.0
 10
-11.0725
 20
-21.9827
 30
0.0
 10
-12.6555
 20
-23.8085
 30
0.0
 10
-15.2089
 20
-24.2704
 30
0.0
 10
-17.7873
 20
-24.1582
 30
0.0
 10
-17.7873
 20
-24.1582
 30
0.0
 10
-9.9785
 20
-27.8616
 30
0.0
 10
-5.5717
 20
-34.8624
 30
0.0
 10
-5.2748
 20
-37.8345
 30
0.0
 10
-5.2748
 20
-37.8345
 30
0.0
 10
-3.4665
 20
-36.4809
 30
0.0
 10
-0.9269
 20
-35.6146
 30
0.0
 10
2.1156
 20
-36.0258
 30
0.0
  0
SPLINE
  5
6C
330
1F
100
AcDbEntity
  8
layer 1
 62
     7
100
AcDbSpline
210
0.0
220
0.0
230
1.0
 70
    11
 71
     3
 72
    16
 73
    12
 74
     0
 42
0.0000000001
 43
0.0000000001
 12
1.0
 22
0.0
 32
0.0
 13
1.0
 23
0.0
 33
0.0
 40
0.0
 40
0.0
 40
0.0
 40
0.0
 40
0.25
 40
0.25
 40
0.25
 40
0.25
 40
0.5
 40
0.5
 40
0.5
 40
0.5
 40
1.0
 40
1.0
 40
1.0
 40
1.0
 10
46.757
 20
105.5652
 30
0.0
 10
46.757
 20
105.5652
 30
0.0
 10
0.0099
 20
105.5652
 30
0.0
 10
0.0099
 20
105.5652
 30
0.0
 10
0.0099
 20
105.5652
 30
0.0
 10
39.7926
 20
102.2917
 30
0.0
 10
43.7935
 20
92.8342
 30
0.0
 10
46.757
 20
87.0272
 30
0.0
 10
46.757
 20
87.0272
 30
0.0
 10
46.757
 20
87.0272
 30
0.0
 10
46.757
 20
105.5652
 30
0.0
 10
46.757
 20
105.5652
 30
0.0
  0
SPLINE
  5
6D
330
1F
100
AcDbEntity
  8
layer 1
 62
     7
100
AcDbSpline
210
0.0
220
0.0
230
1.0
 70
    11
 71
     3
 72
    24
 73
    20
 74
     0
 42
0.0000000001
 43
0.0000000001
 12
1.0
 22
0.0
 32
0.0
 13
1.0
 23
0.0
 33
0.0
 40
0.0
 40
0.0
 40
0.0
 40
0.0
 40
0.1666666666666667
 40
0.1666666666666667
 40
0.1666666666666667
 40
0.1666666666666667
 40
0.3333333333333333
 40
0.3333333333333333
 40
0.3333333333333333
 40
0.3333333333333333
 40
0.5
 40
0.5
 40
0.5
 40
0.5
 40
0.6666666666666666
 40
0.6666666666666666
 40
0.6666666666666666
 40
0.6666666666666666
 40
1.0
 40
1.0
 40
1.0
 40
1.0
 10
21.8582
 20
70.1397
 30
0.0
 10
21.6057
 20
68.3609
 30
0.0
 10
22.6122
 20
69.3268
 30
0.0
 10
22.867
 20
69.8652
 30
0.0
 10
22.867
 20
69.8652
 30
0.0
 10
24.7558
 20
73.8936
 30
0.0
 10
26.978
 20
79.2771
 30
0.0
 10
35.3408
 20
78.5272
 30
0.0
 10
35.3408
 20
78.5272
 30
0.0
 10
29.3471
 20
83.8392
 30
0.0
 10
33.5758
 20
89.4661
 30
0.0
 10
39.4772
 20
89.4027
 30
0.0
 10
39.4772
 20
89.4027
 30
0.0
 10
36.2596
 20
92.976
 30
0.0
 10
26.2016
 20
97.6415
 30
0.0
 10
18.1651
 20
98.7155
 30
0.0
 10
18.1651
 20
98.7155
 30
0.0
 10
24.7218
 20
94.6332
 30
0.0
 10
24.6165
 20
81.7069
 30
0.0
 10
21.8582
 20
70.1397
 30
0.0
  0
SPLINE
  5
6E
330
1F
100
AcDbEntity
  8
layer 1
 62
     7
100
AcDbSpline
210
0.0
220
0.0
230
1.0
 70
    11
 71
     3
 72
    20
 73
    16
 74
     0
 42
0.0000000001
 43
0.0000000001
 12
1.0
 22
0.0
 32
0.0
 13
1.0
 23
0.0
 33
0.0
 40
0.0
 40
0.0
 40
0.0
 40
0.0
 40
0.2
 40
0.2
 40
0.2
 40
0.2
 40
0.4
 40
0.4
 40
0.4
 40
0.4
 40
0.6
 40
0.6
 40
0.6
 40
0.6
 40
1.0
 40
1.0
 40
1.0
 40
1.0
 10
16.6767
 20
69.2193
 30
0.0
 10
17.0865
 20
68.584
 30
0.0
 10
18.1316
 20
69.3632
 30
0.0
 10
17.2059
 20
70.3085
 30
0.0
 10
17.2059
 20
70.3085
 30
0.0
 10
13.4659
 20
77.4598
 30
0.0
 10
3.3381
 20
92.9379
 30
0.0
 10
15.0916
 20
98.905
 30
0.0
 10
15.0916
 20
98.905
 30
0.0
 10
8.9647
 20
99.9744
 30
0.0
 10
3.6984
 20
100.1882
 30
0.0
 10
-4.3358
 20
100.598
 30
0.0
 10
-4.3358
 20
100.598
 30
0.0
 10
6.0513
 20
93.2013
 30
0.0
 10
9.5256
 20
79.0183
 30
0.0
 10
16.6767
 20
69.2193
 30
0.0
  0
SPLINE
  5
6F
330
1F
100
AcDbEntity
  8
layer 1
 62
     7
100
AcDbSpline
210
0.0
220
0.0
230
1.0
 70
    11
 71
     3
 72
    24
 73
    20
 74
     0
 42
0.0000000001
 43
0.0000000001
 12
1.0
 22
0.0
 32
0.0
 13
1.0
 23
0.0
 33
0.0
 40
0.0
 40
0.0
 40
0.0
 40
0.0
 40
0.1666666666666667
 40
0.1666666666666667
 40
0.1666666666666667
 40
0.1666666666666667
 40
0.3333333333333333
 40
0.3333333333333333
 40
0.3333333333333333
 40
0.3333333333333333
 40
0.5
 40
0.5
 40
0.5
 40
0.5
 40
0.6666666666666666
 40
0.6666666666666666
 40
0.6666666666666666
 40
0.6666666666666666
 40
1.0
 40
1.0
 40
1.0
 40
1.0
 10
42.6095
 20
33.7101
 30
0.0
 10
43.0195
 20
33.0733
 30
0.0
 10
43.895
 20
33.521
 30
0.0
 10
43.1388
 20
34.7978
 30
0.0
 10
43.1388
 20
34.7978
 30
0.0
 10
38.8962
 20
44.4593
 30
0.0
 10
34.1183
 20
61.9417
 30
0.0
 10
37.1243
 20
68.8565
 30
0.0
 10
37.1243
 20
68.8565
 30
0.0
 10
34.618
 20
65.9133
 30
0.0
 10
30.7456
 20
64.6773
 30
0.0
 10
26.2218
 20
64.3644
 30
0.0
 10
26.2218
 20
64.3644
 30
0.0
 10
29.9911
 20
62.653
 30
0.0
 10
29.1466
 20
58.5552
 30
0.0
 10
26.627
 20
57.5055
 30
0.0
 10
26.627
 20
57.5055
 30
0.0
 10
32.8507
 20
51.5971
 30
0.0
 10
39.4594
 20
39.544
 30
0.0
 10
42.6095
 20
33.7101
 30
0.0
  0
SPLINE
  5
70
330
1F
100
AcDbEntity
  8
layer 1
 62
     7
100
AcDbSpline
210
0.0
220
0.0
230
1.0
 70
    11
 71
     3
 72
    24
 73
    20
 74
     0
 42
0.0000000001
 43
0.0000000001
 12
1.0
 22
0.0
 32
0.0
 13
1.0
 23
0.0
 33
0.0
 40
0.0
 40
0.0
 40
0.0
 40
0.0
 40
0.1666666666666667
 40
0.1666666666666667
 40
0.1666666666666667
 40
0.1666666666666667
 40
0.3333333333333333
 40
0.3333333333333333
 40
0.3333333333333333
 40
0.3333333333333333
 40
0.5
 40
0.5
 40
0.5
 40
0.5
 40
0.6666666666666666
 40
0.6666666666666666
 40
0.6666666666666666
 40
0.6666666666666666
 40
1.0
 40
1.0
 40
1.0
 40
1.0
 10
40.2094
 20
33.2869
 30
0.0
 10
40.8283
 20
32.5032
 30
0.0
 10
40.0583
 20
31.9939
 30
0.0
 10
39.0202
 20
33.0568
 30
0.0
 10
39.0202
 20
33.0568
 30
0.0
 10
32.5152
 20
46.0065
 30
0.0
 10
14.2989
 20
48.9628
 30
0.0
 10
6.8417
 20
47.8504
 30
0.0
 10
6.8417
 20
47.8504
 30
0.0
 10
11.0029
 20
49.8411
 30
0.0
 10
15.0939
 20
53.1512
 30
0.0
 10
16.5666
 20
57.4403
 30
0.0
 10
16.5666
 20
57.4403
 30
0.0
 10
15.9066
 20
51.6853
 30
0.0
 10
21.5902
 20
51.2732
 30
0.0
 10
23.0872
 20
55.2719
 30
0.0
 10
23.0872
 20
55.2719
 30
0.0
 10
29.5247
 20
48.5687
 30
0.0
 10
38.453
 20
38.0061
 30
0.0
 10
40.2094
 20
33.2869
 30
0.0
  0
SPLINE
  5
71
330
1F
100
AcDbEntity
  8
layer 1
 62
     7
100
AcDbSpline
210
0.0
220
0.0
230
1.0
 70
    11
 71
     3
 72
    24
 73
    20
 74
     0
 42
0.0000000001
 43
0.0000000001
 12
1.0
 22
0.0
 32
0.0
 13
1.0
 23
0.0
 33
0.0
 40
0.0
 40
0.0
 40
0.0
 40
0.0
 40
0.1666666666666667
 40
0.1666666666666667
 40
0.1666666666666667
 40
0.1666666666666667
 40
0.3333333333333333
 40
0.3333333333333333
 40
0.3333333333333333
 40
0.3333333333333333
 40
0.5
 40
0.5
 40
0.5
 40
0.5
 40
0.6666666666666666
 40
0.6666666666666666
 40
0.6666666666666666
 40
0.6666666666666666
 40
1.0
 40
1.0
 40
1.0
 40
1.0
 10
46.757
 20
69.4779
 30
0.0
 10
46.757
 20
69.4779
 30
0.0
 10
46.757
 20
82.3036
 30
0.0
 10
46.757
 20
82.3036
 30
0.0
 10
46.757
 20
82.3036
 30
0.0
 10
46.0342
 20
80.4185
 30
0.0
 10
44.1677
 20
77.7888
 30
0.0
 10
39.3672
 20
78.2546
 30
0.0
 10
39.3672
 20
78.2546
 30
0.0
 10
41.4792
 20
77.4714
 30
0.0
 10
41.6256
 20
77.2417
 30
0.0
 10
42.643
 20
76.7103
 30
0.0
 10
42.643
 20
76.7103
 30
0.0
 10
42.2153
 20
75.1703
 30
0.0
 10
41.2739
 20
73.7089
 30
0.0
 10
40.4658
 20
72.6321
 30
0.0
 10
40.4658
 20
72.6321
 30
0.0
 10
42.2989
 20
73.7378
 30
0.0
 10
45.7574
 20
72.6839
 30
0.0
 10
46.757
 20
69.4779
 30
0.0
  0
SPLINE
  5
72
330
1F
100
AcDbEntity
  8
layer 1
 62
     7
100
AcDbSpline
210
0.0
220
0.0
230
1.0
 70
    11
 71
     3
 72
    16
 73
    12
 74
     0
 42
0.0000000001
 43
0.0000000001
 12
1.0
 22
0.0
 32
0.0
 13
1.0
 23
0.0
 33
0.0
 40
0.0
 40
0.0
 40
0.0
 40
0.0
 40
0.25
 40
0.25
 40
0.25
 40
0.25
 40
0.5
 40
0.5
 40
0.5
 40
0.5
 40
1.0
 40
1.0
 40
1.0
 40
1.0
 10
46.757
 20
32.0823
 30
0.0
 10
46.757
 20
32.0823
 30
0.0
 10
46.757
 20
65.9182
 30
0.0
 10
46.757
 20
65.9182
 30
0.0
 10
46.757
 20
65.9182
 30
0.0
 10
46.0342
 20
64.0337
 30
0.0
 10
43.7214
 20
62.7994
 30
0.0
 10
41.2607
 20
62.5965
 30
0.0
 10
41.2607
 20
62.5965
 30
0.0
 10
38.9009
 20
51.0728
 30
0.0
 10
45.3407
 20
39.31
 30
0.0
 10
46.757
 20
32.0823
 30
0.0
  0
SPLINE
  5
73
330
1F
100
AcDbEntity
  8
layer 1
 62
     7
100
AcDbSpline
210
0.0
220
0.0
230
1.0
 70
    11
 71
     3
 72
    32
 73
    28
 74
     0
 42
0.0000000001
 43
0.0000000001
 12
1.0
 22
0.0
 32
0.0
 13
1.0
 23
0.0
 33
0.0
 40
0.0
 40
0.0
 40
0.0
 40
0.0
 40
0.125
 40
0.125
 40
0.125
 40
0.125
 40
0.25
 40
0.25
 40
0.25
 40
0.25
 40
0.375
 40
0.375
 40
0.375
 40
0.375
 40
0.5
 40
0.5
 40
0.5
 40
0.5
 40
0.625
 40
0.625
 40
0.625
 40
0.625
 40
0.75
 40
0.75
 40
0.75
 40
0.75
 40
1.0
 40
1.0
 40
1.0
 40
1.0
 10
13.3893
 20
11.4837
 30
0.0
 10
12.7702
 20
10.7004
 30
0.0
 10
13.9346
 20
9.7975
 30
0.0
 10
14.5808
 20
11.2541
 30
0.0
 10
14.5808
 20
11.2541
 30
0.0
 10
16.7556
 20
21.7942
 30
0.0
 10
27.03
 20
31.9738
 30
0.0
 10
30.6845
 20
32.0892
 30
0.0
 10
30.6845
 20
32.0892
 30
0.0
 10
30.9974
 20
29.934
 30
0.0
 10
30.2118
 20
23.8751
 30
0.0
 10
27.5032
 20
19.6999
 30
0.0
 10
27.5032
 20
19.6999
 30
0.0
 10
33.758
 20
22.6568
 30
0.0
 10
36.6696
 20
17.1694
 30
0.0
 10
35.5438
 20
13.4497
 30
0.0
 10
35.5438
 20
13.4497
 30
0.0
 10
42.436
 20
15.7348
 30
0.0
 10
41.7783
 20
25.086
 30
0.0
 10
35.5979
 20
32.0418
 30
0.0
 10
35.5979
 20
32.0418
 30
0.0
 10
30.3536
 20
37.9411
 30
0.0
 10
20.435
 20
41.6877
 30
0.0
 10
15.11
 20
42.44
 30
0.0
 10
15.11
 20
42.44
 30
0.0
 10
21.5359
 20
32.4109
 30
0.0
 10
15.1479
 20
16.201
 30
0.0
 10
13.3893
 20
11.4837
 30
0.0
  0
SPLINE
  5
74
330
1F
100
AcDbEntity
  8
layer 1
 62
     7
100
AcDbSpline
210
0.0
220
0.0
230
1.0
 70
    11
 71
     3
 72
    24
 73
    20
 74
     0
 42
0.0000000001
 43
0.0000000001
 12
1.0
 22
0.0
 32
0.0
 13
1.0
 23
0.0
 33
0.0
 40
0.0
 40
0.0
 40
0.0
 40
0.0
 40
0.1666666666666667
 40
0.1666666666666667
 40
0.1666666666666667
 40
0.1666666666666667
 40
0.3333333333333333
 40
0.3333333333333333
 40
0.3333333333333333
 40
0.3333333333333333
 40
0.5
 40
0.5
 40
0.5
 40
0.5
 40
0.6666666666666666
 40
0.6666666666666666
 40
0.6666666666666666
 40
0.6666666666666666
 40
1.0
 40
1.0
 40
1.0
 40
1.0
 10
13.2274
 20
42.3861
 30
0.0
 10
1.7801
 20
31.3688
 30
0.0
 10
9.3296
 20
11.8507
 30
0.0
 10
10.0207
 20
9.8759
 30
0.0
 10
10.0207
 20
9.8759
 30
0.0
 10
9.0908
 20
10.5223
 30
0.0
 10
8.3636
 20
10.4731
 30
0.0
 10
7.0982
 20
10.3221
 30
0.0
 10
7.0982
 20
10.3221
 30
0.0
 10
6.452
 20
14.0822
 30
0.0
 10
3.5566
 20
21.3641
 30
0.0
 10
-2.12
 20
25.7392
 30
0.0
 10
-2.12
 20
25.7392
 30
0.0
 10
6.2987
 20
24.8048
 30
0.0
 10
7.3864
 20
36.61
 30
0.0
 10
-1.4288
 20
37.4723
 30
0.0
 10
-1.4288
 20
37.4723
 30
0.0
 10
2.2077
 20
42.8724
 30
0.0
 10
6.2018
 20
42.8452
 30
0.0
 10
13.2274
 20
42.3861
 30
0.0
  0
SPLINE
  5
75
330
1F
100
AcDbEntity
  8
layer 1
 62
     7
100
AcDbSpline
210
0.0
220
0.0
230
1.0
 70
    11
 71
     3
 72
    28
 73
    24
 74
     0
 42
0.0000000001
 43
0.0000000001
 12
1.0
 22
0.0
 32
0.0
 13
1.0
 23
0.0
 33
0.0
 40
0.0
 40
0.0
 40
0.0
 40
0.0
 40
0.1428571428571428
 40
0.1428571428571428
 40
0.1428571428571428
 40
0.1428571428571428
 40
0.2857142857142857
 40
0.2857142857142857
 40
0.2857142857142857
 40
0.2857142857142857
 40
0.4285714285714285
 40
0.4285714285714285
 40
0.4285714285714285
 40
0.4285714285714285
 40
0.5714285714285714
 40
0.5714285714285714
 40
0.5714285714285714
 40
0.5714285714285714
 40
0.7142857142857143
 40
0.7142857142857143
 40
0.7142857142857143
 40
0.7142857142857143
 40
1.0
 40
1.0
 40
1.0
 40
1.0
 10
13.1282
 20
61.6042
 30
0.0
 10
13.6078
 20
61.6984
 30
0.0
 10
13.8736
 20
62.4074
 30
0.0
 10
12.3807
 20
62.5561
 30
0.0
 10
12.3807
 20
62.5561
 30
0.0
 10
-3.5611
 20
64.3955
 30
0.0
 10
-9.8003
 20
64.0422
 30
0.0
 10
-15.1368
 20
70.998
 30
0.0
 10
-15.1368
 20
70.998
 30
0.0
 10
-13.3015
 20
66.7647
 30
0.0
 10
-16.2355
 20
47.9316
 30
0.0
 10
-17.9337
 20
43.7278
 30
0.0
 10
-17.9337
 20
43.7278
 30
0.0
 10
-14.6597
 20
48.5058
 30
0.0
 10
-12.7234
 20
55.4183
 30
0.0
 10
-5.6391
 20
57.8052
 30
0.0
 10
-5.6391
 20
57.8052
 30
0.0
 10
-4.9907
 20
56.4474
 30
0.0
 10
-4.8851
 20
54.7203
 30
0.0
 10
-5.3492
 20
52.2208
 30
0.0
 10
-5.3492
 20
52.2208
 30
0.0
 10
-1.6675
 20
62.2906
 30
0.0
 10
9.6766
 20
61.6535
 30
0.0
 10
13.1282
 20
61.6042
 30
0.0
  0
SPLINE
  5
76
330
1F
100
AcDbEntity
  8
layer 1
 62
     7
100
AcDbSpline
210
0.0
220
0.0
230
1.0
 70
    11
 71
     3
 72
    28
 73
    24
 74
     0
 42
0.0000000001
 43
0.0000000001
 12
1.0
 22
0.0
 32
0.0
 13
1.0
 23
0.0
 33
0.0
 40
0.0
 40
0.0
 40
0.0
 40
0.0
 40
0.1428571428571428
 40
0.1428571428571428
 40
0.1428571428571428
 40
0.1428571428571428
 40
0.2857142857142857
 40
0.2857142857142857
 40
0.2857142857142857
 40
0.2857142857142857
 40
0.4285714285714285
 40
0.4285714285714285
 40
0.4285714285714285
 40
0.4285714285714285
 40
0.5714285714285714
 40
0.5714285714285714
 40
0.5714285714285714
 40
0.5714285714285714
 40
0.7142857142857143
 40
0.7142857142857143
 40
0.7142857142857143
 40
0.7142857142857143
 40
1.0
 40
1.0
 40
1.0
 40
1.0
 10
-18.924
 20
101.0934
 30
0.0
 10
-17.7533
 20
101.0779
 30
0.0
 10
-16.6028
 20
101.0914
 30
0.0
 10
-15.4205
 20
101.0914
 30
0.0
 10
-15.4205
 20
101.0914
 30
0.0
 10
-14.187
 20
79.9886
 30
0.0
 10
1.3743
 20
80.6098
 30
0.0
 10
14.443
 20
65.9155
 30
0.0
 10
14.443
 20
65.9155
 30
0.0
 10
15.0626
 20
65.1322
 30
0.0
 10
14.2926
 20
64.6232
 30
0.0
 10
13.2545
 20
65.6861
 30
0.0
 10
13.2545
 20
65.6861
 30
0.0
 10
0.9195
 20
75.9404
 30
0.0
 10
-9.8142
 20
81.0467
 30
0.0
 10
-16.612
 20
76.5911
 30
0.0
 10
-16.612
 20
76.5911
 30
0.0
 10
-16.8097
 20
79.3987
 30
0.0
 10
-17.8525
 20
81.8077
 30
0.0
 10
-18.924
 20
83.5663
 30
0.0
 10
-18.924
 20
83.5663
 30
0.0
 10
-18.924
 20
83.5663
 30
0.0
 10
-18.924
 20
101.0934
 30
0.0
 10
-18.924
 20
101.0934
 30
0.0
  0
SPLINE
  5
77
330
1F
100
AcDbEntity
  8
layer 1
 62
     7
100
AcDbSpline
210
0.0
220
0.0
230
1.0
 70
    11
 71
     3
 72
    20
 73
    16
 74
     0
 42
0.0000000001
 43
0.0000000001
 12
1.0
 22
0.0
 32
0.0
 13
1.0
 23
0.0
 33
0.0
 40
0.0
 40
0.0
 40
0.0
 40
0.0
 40
0.2
 40
0.2
 40
0.2
 40
0.2
 40
0.4
 40
0.4
 40
0.4
 40
0.4
 40
0.6
 40
0.6
 40
0.6
 40
0.6
 40
1.0
 40
1.0
 40
1.0
 40
1.0
 10
17.0012
 20
9.0772
 30
0.0
 10
18.7329
 20
9.9231
 30
0.0
 10
20.8131
 20
12.1775
 30
0.0
 10
25.0326
 20
16.2778
 30
0.0
 10
25.0326
 20
16.2778
 30
0.0
 10
24.3777
 20
12.1685
 30
0.0
 10
25.5104
 20
11.0202
 30
0.0
 10
27.7689
 20
8.6153
 30
0.0
 10
27.7689
 20
8.6153
 30
0.0
 10
24.5939
 20
9.8984
 30
0.0
 10
19.6827
 20
9.0971
 30
0.0
 10
17.483
 20
8.2705
 30
0.0
 10
17.483
 20
8.2705
 30
0.0
 10
16.8076
 20
7.9468
 30
0.0
 10
16.4001
 20
8.7772
 30
0.0
 10
17.0012
 20
9.0772
 30
0.0
  0
SPLINE
  5
78
330
1F
100
AcDbEntity
  8
layer 1
 62
     7
100
AcDbSpline
210
0.0
220
0.0
230
1.0
 70
    11
 71
     3
 72
    24
 73
    20
 74
     0
 42
0.0000000001
 43
0.0000000001
 12
1.0
 22
0.0
 32
0.0
 13
1.0
 23
0.0
 33
0.0
 40
0.0
 40
0.0
 40
0.0
 40
0.0
 40
0.1666666666666667
 40
0.1666666666666667
 40
0.1666666666666667
 40
0.1666666666666667
 40
0.3333333333333333
 40
0.3333333333333333
 40
0.3333333333333333
 40
0.3333333333333333
 40
0.5
 40
0.5
 40
0.5
 40
0.5
 40
0.6666666666666666
 40
0.6666666666666666
 40
0.6666666666666666
 40
0.6666666666666666
 40
1.0
 40
1.0
 40
1.0
 40
1.0
 10
46.757
 20
23.0979
 30
0.0
 10
44.7551
 20
6.0284
 30
0.0
 10
34.1073
 20
5.4944
 30
0.0
 10
30.2839
 20
7.4779
 30
0.0
 10
30.2839
 20
7.4779
 30
0.0
 10
31.3486
 20
6.8496
 30
0.0
 10
32.0535
 20
6.1609
 30
0.0
 10
32.3556
 20
5.5689
 30
0.0
 10
32.3556
 20
5.5689
 30
0.0
 10
32.0535
 20
4.9766
 30
0.0
 10
31.3486
 20
4.2874
 30
0.0
 10
30.2839
 20
3.6591
 30
0.0
 10
30.2839
 20
3.6591
 30
0.0
 10
34.1073
 20
5.6433
 30
0.0
 10
44.7551
 20
5.1094
 30
0.0
 10
46.757
 20
-11.9603
 30
0.0
 10
46.757
 20
-11.9603
 30
0.0
 10
46.757
 20
-11.9603
 30
0.0
 10
46.757
 20
23.0979
 30
0.0
 10
46.757
 20
23.0979
 30
0.0
  0
SPLINE
  5
79
330
1F
100
AcDbEntity
  8
layer 1
 62
     7
100
AcDbSpline
210
0.0
220
0.0
230
1.0
 70
    11
 71
     3
 72
    28
 73
    24
 74
     0
 42
0.0000000001
 43
0.0000000001
 12
1.0
 22
0.0
 32
0.0
 13
1.0
 23
0.0
 33
0.0
 40
0.0
 40
0.0
 40
0.0
 40
0.0
 40
0.1428571428571428
 40
0.1428571428571428
 40
0.1428571428571428
 40
0.1428571428571428
 40
0.2857142857142857
 40
0.2857142857142857
 40
0.2857142857142857
 40
0.2857142857142857
 40
0.4285714285714285
 40
0.4285714285714285
 40
0.4285714285714285
 40
0.4285714285714285
 40
0.5714285714285714
 40
0.5714285714285714
 40
0.5714285714285714
 40
0.5714285714285714
 40
0.7142857142857143
 40
0.7142857142857143
 40
0.7142857142857143
 40
0.7142857142857143
 40
1.0
 40
1.0
 40
1.0
 40
1.0
 10
2.1156
 20
47.1641
 30
0.0
 10
-14.2948
 20
42.2528
 30
0.0
 10
-9.6723
 20
30.5962
 30
0.0
 10
-6.9072
 20
29.166
 30
0.0
 10
-6.9072
 20
29.166
 30
0.0
 10
-7.8371
 20
29.8124
 30
0.0
 10
-12.653
 20
31.5617
 30
0.0
 10
-13.9211
 20
31.4112
 30
0.0
 10
-13.9211
 20
31.4112
 30
0.0
 10
-12.4617
 20
31.9741
 30
0.0
 10
-11.7007
 20
32.5122
 30
0.0
 10
-11.0725
 20
33.1204
 30
0.0
 10
-11.0725
 20
33.1204
 30
0.0
 10
-12.6555
 20
34.9467
 30
0.0
 10
-15.2089
 20
35.4076
 30
0.0
 10
-17.7873
 20
35.2952
 30
0.0
 10
-17.7873
 20
35.2952
 30
0.0
 10
-9.9785
 20
38.9994
 30
0.0
 10
-5.5717
 20
45.9995
 30
0.0
 10
-5.2748
 20
48.9721
 30
0.0
 10
-5.2748
 20
48.9721
 30
0.0
 10
-3.4665
 20
47.6187
 30
0.0
 10
-0.9269
 20
46.7517
 30
0.0
 10
2.1156
 20
47.1641
 30
0.0
  0
ENDSEC
  0
SECTION
  2
OBJECTS
  0
DICTIONARY
  5
C
330
0
100
AcDbDictionary
281
     1
  3
ACAD_GROUP
350
D
  3
ACAD_LAYOUT
350
1A
  3
ACAD_MATERIAL
350
3B
  3
ACAD_MLEADERSTYLE
350
9C
  3
ACAD_MLINESTYLE
350
17
  3
ACAD_PLOTSETTINGS
350
19
  3
ACAD_PLOTSTYLENAME
350
E
  3
ACAD_TABLESTYLE
350
9B
  3
ACAD_VISUALSTYLE
350
2A
  0
DICTIONARY
  5
D
102
{ACAD_REACTORS
330
C
102
}
330
C
100
AcDbDictionary
281
     1
  0
DICTIONARY
  5
1A
102
{ACAD_REACTORS
330
C
102
}
330
C
100
AcDbDictionary
281
     1
  3
Layout1
350
1E
  3
Layout2
350
26
  3
Model
350
22
  0
DICTIONARY
  5
3B
102
{ACAD_REACTORS
330
C
102
}
330
C
100
AcDbDictionary
281
     1
  3
ByBlock
350
3D
  3
ByLayer
350
3C
  3
Global
350
3E
  0
DICTIONARY
  5
9C
102
{ACAD_REACTORS
330
C
102
}
330
C
100
AcDbDictionary
281
     1
  0
DICTIONARY
  5
17
102
{ACAD_REACTORS
330
C
102
}
330
C
100
AcDbDictionary
281
     1
  3
Standard
350
18
  0
DICTIONARY
  5
19
102
{ACAD_REACTORS
330
C
102
}
330
C
100
AcDbDictionary
281
     1
  0
ACDBDICTIONARYWDFLT
  5
E
102
{ACAD_REACTORS
330
C
102
}
330
C
100
AcDbDictionary
281
     1
  3
Normal
350
F
100
AcDbDictionaryWithDefault
340
F
  0
DICTIONARY
  5
9B
102
{ACAD_REACTORS
330
C
102
}
330
C
100
AcDbDictionary
281
     1
  0
DICTIONARY
  5
2A
102
{ACAD_REACTORS
330
C
102
}
330
C
100
AcDbDictionary
281
     1
  3
2dWireframe
350
2F
  3
3D Hidden
350
31
  3
3dWireframe
350
30
  3
Basic
350
32
  3
Brighten
350
36
  3
ColorChange
350
3A
  3
Conceptual
350
34
  3
Dim
350
35
  3
Facepattern
350
39
  3
Flat
350
2B
  3
FlatWithEdges
350
2C
  3
Gouraud
350
2D
  3
GouraudWithEdges
350
2E
  3
Linepattern
350
38
  3
Realistic
350
33
  3
Thicken
350
37
  0
LAYOUT
  5
1E
102
{ACAD_REACTORS
330
1A
102
}
330
1A
100
AcDbPlotSettings
  1

  2
none_device
  4

  6

 40
0.0
 41
0.0
 42
0.0
 43
0.0
 44
0.0
 45
0.0
 46
0.0
 47
0.0
 48
0.0
 49
0.0
140
0.0
141
0.0
142
1.0
143
1.0
 70
   688
 72
     0
 73
     0
 74
     5
  7

 75
    16
 76
     0
 77
     2
 78
   300
147
1.0
148
0.0
149
0.0
100
AcDbLayout
  1
Layout1
 70
     1
 71
     1
 10
0.0
 20
0.0
 11
12.0
 21
9.0
 12
0.0
 22
0.0
 32
0.0
 14
1.000000000000000E+20
 24
1.000000000000000E+20
 34
1.000000000000000E+20
 15
-1.000000000000000E+20
 25
-1.000000000000000E+20
 35
-1.000000000000000E+20
146
0.0
 13
0.0
 23
0.0
 33
0.0
 16
1.0
 26
0.0
 36
0.0
 17
0.0
 27
1.0
 37
0.0
 76
     0
330
1B
  0
LAYOUT
  5
26
102
{ACAD_REACTORS
330
1A
102
}
330
1A
100
AcDbPlotSettings
  1

  2
none_device
  4

  6

 40
0.0
 41
0.0
 42
0.0
 43
0.0
 44
0.0
 45
0.0
 46
0.0
 47
0.0
 48
0.0
 49
0.0
140
0.0
141
0.0
142
1.0
143
1.0
 70
   688
 72
     0
 73
     0
 74
     5
  7

 75
    16
 76
     0
 77
     2
 78
   300
147
1.0
148
0.0
149
0.0
100
AcDbLayout
  1
Layout2
 70
     1
 71
     2
 10
0.0
 20
0.0
 11
0.0
 21
0.0
 12
0.0
 22
0.0
 32
0.0
 14
0.0
 24
0.0
 34
0.0
 15
0.0
 25
0.0
 35
0.0
146
0.0
 13
0.0
 23
0.0
 33
0.0
 16
1.0
 26
0.0
 36
0.0
 17
0.0
 27
1.0
 37
0.0
 76
     0
330
23
  0
LAYOUT
  5
22
102
{ACAD_REACTORS
330
1A
102
}
330
1A
100
AcDbPlotSettings
  1

  2
none_device
  4

  6

 40
0.0
 41
0.0
 42
0.0
 43
0.0
 44
0.0
 45
0.0
 46
0.0
 47
0.0
 48
0.0
 49
0.0
140
0.0
141
0.0
142
1.0
143
1.0
 70
  1712
 72
     0
 73
     0
 74
     0
  7

 75
     0
 76
     0
 77
     2
 78
   300
147
1.0
148
0.0
149
0.0
100
AcDbLayout
  1
Model
 70
     1
 71
     0
 10
0.0
 20
0.0
 11
12.0
 21
9.0
 12
0.0
 22
0.0
 32
0.0
 14
-92.977
 24
-103.7631
 34
0.0
 15
55.2731
 25
114.9033
 35
0.0
146
0.0
 13
0.0
 23
0.0
 33
0.0
 16
1.0
 26
0.0
 36
0.0
 17
0.0
 27
1.0
 37
0.0
 76
     0
330
1F
331
29
  0
MATERIAL
  5
3D
102
{ACAD_REACTORS
330
3B
102
}
330
3B
100
AcDbMaterial
  1
ByBlock
 72
     1
 94
      127
  0
MATERIAL
  5
3C
102
{ACAD_REACTORS
330
3B
102
}
330
3B
100
AcDbMaterial
  1
ByLayer
 72
     1
 94
      127
  0
MATERIAL
  5
3E
102
{ACAD_REACTORS
330
3B
102
}
330
3B
100
AcDbMaterial
  1
Global
 72
     1
 94
      127
  0
MLINESTYLE
  5
18
102
{ACAD_REACTORS
330
17
102
}
330
17
100
AcDbMlineStyle
  2
Standard
 70
     0
  3

 62
   256
 51
90.0
 52
90.0
 71
     2
 49
0.5
 62
   256
  6
BYLAYER
 49
-0.5
 62
   256
  6
BYLAYER
  0
ACDBPLACEHOLDER
  5
F
102
{ACAD_REACTORS
330
E
102
}
330
E
  0
VISUALSTYLE
  5
2F
102
{ACAD_REACTORS
330
2A
102
}
102
{ACAD_XDICTIONARY
360
83
102
}
330
2A
100
AcDbVisualStyle
  2
2dWireframe
 70
     4
 71
     0
 72
     2
 73
     0
 90
        0
 40
-0.6
 41
-30.0
 62
     5
 63
     7
421
 16777215
 74
     1
 91
        4
 64
     7
 65
   257
 75
     1
175
     1
 42
1.0
 92
        0
 66
   257
 43
1.0
 76
     1
 77
     6
 78
     2
 67
     7
 79
     5
170
     0
171
     0
290
     0
174
     0
 93
        1
 44
0.0
173
     0
291
     0
 45
0.0
  0
VISUALSTYLE
  5
31
102
{ACAD_REACTORS
330
2A
102
}
102
{ACAD_XDICTIONARY
360
87
102
}
330
2A
100
AcDbVisualStyle
  2
3D Hidden
 70
     6
 71
     1
 72
     2
 73
     2
 90
        0
 40
-0.6
 41
-30.0
 62
     5
 63
     7
421
 16777215
 74
     2
 91
        2
 64
     7
 65
   257
 75
     2
175
     1
 42
40.0
 92
        0
 66
   257
 43
1.0
 76
     1
 77
     6
 78
     2
 67
     7
 79
     3
170
     0
171
     0
290
     0
174
     0
 93
        1
 44
0.0
173
     0
291
     0
 45
0.0
  0
VISUALSTYLE
  5
30
102
{ACAD_REACTORS
330
2A
102
}
102
{ACAD_XDICTIONARY
360
85
102
}
330
2A
100
AcDbVisualStyle
  2
3dWireframe
 70
     5
 71
     0
 72
     2
 73
     0
 90
        0
 40
-0.6
 41
-30.0
 62
     5
 63
     7
421
 16777215
 74
     1
 91
        4
 64
     7
 65
   257
 75
     1
175
     1
 42
1.0
 92
        0
 66
   257
 43
1.0
 76
     1
 77
     6
 78
     2
 67
     7
 79
     5
170
     0
171
     0
290
     0
174
     0
 93
        1
 44
0.0
173
     0
291
     0
 45
0.0
  0
VISUALSTYLE
  5
32
102
{ACAD_REACTORS
330
2A
102
}
102
{ACAD_XDICTIONARY
360
89
102
}
330
2A
100
AcDbVisualStyle
  2
Basic
 70
     7
 71
     1
 72
     0
 73
     1
 90
        0
 40
-0.6
 41
-30.0
 62
     5
 63
     7
421
 16777215
 74
     0
 91
        4
 64
     7
 65
   257
 75
     1
175
     1
 42
1.0
 92
        8
 66
     7
 43
1.0
 76
     1
 77
     6
 78
     2
 67
     7
 79
     5
170
     0
171
     0
290
     0
174
     0
 93
        1
 44
0.0
173
     0
291
     1
 45
0.0
  0
VISUALSTYLE
  5
36
102
{ACAD_REACTORS
330
2A
102
}
102
{ACAD_XDICTIONARY
360
91
102
}
330
2A
100
AcDbVisualStyle
  2
Brighten
 70
    12
 71
     2
 72
     2
 73
     0
 90
        0
 40
-0.6
 41
-30.0
 62
     5
 63
     7
421
 16777215
 74
     1
 91
        4
 64
     7
 65
   257
 75
     1
175
     1
 42
1.0
 92
        8
 66
     7
 43
1.0
 76
     1
 77
     6
 78
     2
 67
     7
 79
     5
170
     0
171
     0
290
     0
174
     0
 93
        1
 44
50.0
173
     0
291
     1
 45
0.0
  0
VISUALSTYLE
  5
3A
102
{ACAD_REACTORS
330
2A
102
}
102
{ACAD_XDICTIONARY
360
99
102
}
330
2A
100
AcDbVisualStyle
  2
ColorChange
 70
    16
 71
     2
 72
     2
 73
     3
 90
        0
 40
-0.6
 41
-30.0
 62
     5
 63
     8
421
  8421504
 74
     1
 91
        4
 64
     7
 65
   257
 75
     1
175
     1
 42
1.0
 92
        8
 66
     8
424
  8421504
 43
1.0
 76
     1
 77
     6
 78
     2
 67
     7
 79
     5
170
     0
171
     0
290
     0
174
     0
 93
        1
 44
0.0
173
     0
291
     1
 45
0.0
  0
VISUALSTYLE
  5
34
102
{ACAD_REACTORS
330
2A
102
}
102
{ACAD_XDICTIONARY
360
8D
102
}
330
2A
100
AcDbVisualStyle
  2
Conceptual
 70
     9
 71
     3
 72
     2
 73
     0
 90
        0
 40
-0.6
 41
-30.0
 62
     5
 63
     7
421
 16777215
 74
     2
 91
        2
 64
     7
 65
   257
 75
     1
175
     1
 42
40.0
 92
        8
 66
     7
 43
1.0
 76
     1
 77
     6
 78
     2
 67
     7
 79
     3
170
     0
171
     0
290
     0
174
     0
 93
        1
 44
0.0
173
     0
291
     0
 45
0.0
  0
VISUALSTYLE
  5
35
102
{ACAD_REACTORS
330
2A
102
}
102
{ACAD_XDICTIONARY
360
8F
102
}
330
2A
100
AcDbVisualStyle
  2
Dim
 70
    11
 71
     2
 72
     2
 73
     0
 90
        0
 40
-0.6
 41
-30.0
 62
     5
 63
     7
421
 16777215
 74
     1
 91
        4
 64
     7
 65
   257
 75
     1
175
     1
 42
1.0
 92
        8
 66
     7
 43
1.0
 76
     1
 77
     6
 78
     2
 67
     7
 79
     5
170
     0
171
     0
290
     0
174
     0
 93
        1
 44
-50.0
173
     0
291
     1
 45
0.0
  0
VISUALSTYLE
  5
39
102
{ACAD_REACTORS
330
2A
102
}
102
{ACAD_XDICTIONARY
360
97
102
}
330
2A
100
AcDbVisualStyle
  2
Facepattern
 70
    15
 71
     2
 72
     2
 73
     0
 90
        0
 40
-0.6
 41
-30.0
 62
     5
 63
     7
421
 16777215
 74
     1
 91
        4
 64
     7
 65
   257
 75
     1
175
     1
 42
1.0
 92
        8
 66
     7
 43
1.0
 76
     1
 77
     6
 78
     2
 67
     7
 79
     5
170
     0
171
     0
290
     0
174
     0
 93
        1
 44
0.0
173
     0
291
     1
 45
0.0
  0
VISUALSTYLE
  5
2B
102
{ACAD_REACTORS
330
2A
102
}
102
{ACAD_XDICTIONARY
360
7B
102
}
330
2A
100
AcDbVisualStyle
  2
Flat
 70
     0
 71
     2
 72
     1
 73
     1
 90
        2
 40
-0.6
 41
30.0
 62
     5
 63
     7
421
 16777215
 74
     0
 91
        4
 64
     7
 65
   257
 75
     1
175
     1
 42
1.0
 92
        8
 66
     7
 43
1.0
 76
     1
 77
     6
 78
     2
 67
     7
 79
     5
170
     0
171
     0
290
     0
174
     0
 93
       13
 44
0.0
173
     0
291
     1
 45
0.0
  0
VISUALSTYLE
  5
2C
102
{ACAD_REACTORS
330
2A
102
}
102
{ACAD_XDICTIONARY
360
7D
102
}
330
2A
100
AcDbVisualStyle
  2
FlatWithEdges
 70
     1
 71
     2
 72
     1
 73
     1
 90
        2
 40
-0.6
 41
30.0
 62
     5
 63
     7
421
 16777215
 74
     1
 91
        4
 64
     7
 65
   257
 75
     1
175
     1
 42
1.0
 92
        0
 66
   257
 43
1.0
 76
     1
 77
     6
 78
     2
 67
     7
 79
     5
170
     0
171
     0
290
     0
174
     0
 93
       13
 44
0.0
173
     0
291
     1
 45
0.0
  0
VISUALSTYLE
  5
2D
102
{ACAD_REACTORS
330
2A
102
}
102
{ACAD_XDICTIONARY
360
7F
102
}
330
2A
100
AcDbVisualStyle
  2
Gouraud
 70
     2
 71
     2
 72
     2
 73
     1
 90
        2
 40
-0.6
 41
30.0
 62
     5
 63
     7
421
 16777215
 74
     0
 91
        4
 64
     7
 65
   257
 75
     1
175
     1
 42
1.0
 92
        0
 66
     7
 43
1.0
 76
     1
 77
     6
 78
     2
 67
     7
 79
     5
170
     0
171
     0
290
     0
174
     0
 93
       13
 44
0.0
173
     0
291
     1
 45
0.0
  0
VISUALSTYLE
  5
2E
102
{ACAD_REACTORS
330
2A
102
}
102
{ACAD_XDICTIONARY
360
81
102
}
330
2A
100
AcDbVisualStyle
  2
GouraudWithEdges
 70
     3
 71
     2
 72
     2
 73
     1
 90
        2
 40
-0.6
 41
30.0
 62
     5
 63
     7
421
 16777215
 74
     1
 91
        4
 64
     7
 65
   257
 75
     1
175
     1
 42
1.0
 92
        0
 66
   257
 43
1.0
 76
     1
 77
     6
 78
     2
 67
     7
 79
     5
170
     0
171
     0
290
     0
174
     0
 93
       13
 44
0.0
173
     0
291
     1
 45
0.0
  0
VISUALSTYLE
  5
38
102
{ACAD_REACTORS
330
2A
102
}
102
{ACAD_XDICTIONARY
360
95
102
}
330
2A
100
AcDbVisualStyle
  2
Linepattern
 70
    14
 71
     2
 72
     2
 73
     0
 90
        0
 40
-0.6
 41
-30.0
 62
     5
 63
     7
421
 16777215
 74
     1
 91
        4
 64
     7
 65
   257
 75
     7
175
     7
 42
1.0
 92
        8
 66
     7
 43
1.0
 76
     1
 77
     6
 78
     2
 67
     7
 79
     5
170
     0
171
     0
290
     0
174
     0
 93
        1
 44
0.0
173
     0
291
     1
 45
0.0
  0
VISUALSTYLE
  5
33
102
{ACAD_REACTORS
330
2A
102
}
102
{ACAD_XDICTIONARY
360
8B
102
}
330
2A
100
AcDbVisualStyle
  2
Realistic
 70
     8
 71
     2
 72
     2
 73
     0
 90
        0
 40
-0.6
 41
-30.0
 62
     5
 63
     7
421
 16777215
 74
     1
 91
        0
 64
     7
 65
   257
 75
     1
175
     1
 42
1.0
 92
        8
 66
     8
424
  7895160
 43
1.0
 76
     1
 77
     6
 78
     2
 67
     7
 79
     5
170
     0
171
     0
290
     0
174
     0
 93
       13
 44
0.0
173
     0
291
     0
 45
0.0
  0
VISUALSTYLE
  5
37
102
{ACAD_REACTORS
330
2A
102
}
102
{ACAD_XDICTIONARY
360
93
102
}
330
2A
100
AcDbVisualStyle
  2
Thicken
 70
    13
 71
     2
 72
     2
 73
     0
 90
        0
 40
-0.6
 41
-30.0
 62
     5
 63
     7
421
 16777215
 74
     1
 91
        4
 64
     7
 65
   257
 75
     1
175
     1
 42
1.0
 92
       12
 66
     7
 43
1.0
 76
     1
 77
     6
 78
     2
 67
     7
 79
     5
170
     0
171
     0
290
     0
174
     0
 93
        1
 44
0.0
173
     0
291
     1
 45
0.0
  0
DICTIONARY
  5
83
330
2F
100
AcDbDictionary
280
     1
281
     1
  3
ACAD_XREC_ROUNDTRIP
360
84
  0
DICTIONARY
  5
87
330
31
100
AcDbDictionary
280
     1
281
     1
  3
ACAD_XREC_ROUNDTRIP
360
88
  0
DICTIONARY
  5
85
330
30
100
AcDbDictionary
280
     1
281
     1
  3
ACAD_XREC_ROUNDTRIP
360
86
  0
DICTIONARY
  5
89
330
32
100
AcDbDictionary
280
     1
281
     1
  3
ACAD_XREC_ROUNDTRIP
360
8A
  0
DICTIONARY
  5
91
330
36
100
AcDbDictionary
280
     1
281
     1
  3
ACAD_XREC_ROUNDTRIP
360
92
  0
DICTIONARY
  5
99
330
3A
100
AcDbDictionary
280
     1
281
     1
  3
ACAD_XREC_ROUNDTRIP
360
9A
  0
DICTIONARY
  5
8D
330
34
100
AcDbDictionary
280
     1
281
     1
  3
ACAD_XREC_ROUNDTRIP
360
8E
  0
DICTIONARY
  5
8F
330
35
100
AcDbDictionary
280
     1
281
     1
  3
ACAD_XREC_ROUNDTRIP
360
90
  0
DICTIONARY
  5
97
330
39
100
AcDbDictionary
280
     1
281
     1
  3
ACAD_XREC_ROUNDTRIP
360
98
  0
DICTIONARY
  5
7B
330
2B
100
AcDbDictionary
280
     1
281
     1
  3
ACAD_XREC_ROUNDTRIP
360
7C
  0
DICTIONARY
  5
7D
330
2C
100
AcDbDictionary
280
     1
281
     1
  3
ACAD_XREC_ROUNDTRIP
360
7E
  0
DICTIONARY
  5
7F
330
2D
100
AcDbDictionary
280
     1
281
     1
  3
ACAD_XREC_ROUNDTRIP
360
80
  0
DICTIONARY
  5
81
330
2E
100
AcDbDictionary
280
     1
281
     1
  3
ACAD_XREC_ROUNDTRIP
360
82
  0
DICTIONARY
  5
95
330
38
100
AcDbDictionary
280
     1
281
     1
  3
ACAD_XREC_ROUNDTRIP
360
96
  0
DICTIONARY
  5
8B
330
33
100
AcDbDictionary
280
     1
281
     1
  3
ACAD_XREC_ROUNDTRIP
360
8C
  0
DICTIONARY
  5
93
330
37
100
AcDbDictionary
280
     1
281
     1
  3
ACAD_XREC_ROUNDTRIP
360
94
  0
XRECORD
  5
84
102
{ACAD_REACTORS
330
83
102
}
330
83
100
AcDbXrecord
280
     1
102
RTVSPropertyOp0
 70
     1
102
RTVSPropertyOp1
 70
     1
102
RTVSPropertyOp2
 70
     1
102
RTVSPropertyOp3
 70
     1
102
RTVSPropertyOp4
 70
     1
102
RTVSPropertyOp5
 70
     1
102
RTVSPropertyOp6
 70
     1
102
RTVSPropertyOp7
 70
     1
102
RTVSPropertyOp8
 70
     1
102
RTVSPropertyOp9
 70
     1
102
RTVSPropertyOp10
 70
     1
102
RTVSPropertyOp11
 70
     1
102
RTVSPropertyOp12
 70
     1
102
RTVSPropertyOp13
 70
     1
102
RTVSPropertyOp14
 70
     1
102
RTVSPropertyOp15
 70
     1
102
RTVSPropertyOp16
 70
     1
102
RTVSPropertyOp17
 70
     1
102
RTVSPropertyOp18
 70
     1
102
RTVSPropertyOp19
 70
     1
102
RTVSPropertyOp20
 70
     1
102
RTVSPropertyOp21
 70
     1
102
RTVSPropertyOp22
 70
     1
102
RTVSPropertyOp23
 70
     1
102
RTVSPropertyOp24
 70
     1
102
RTVSPropertyOp25
 70
     1
102
RTVSPropertyOp26
 70
     1
102
RTVSPropertyOp27
 70
     1
102
RTVSPropertyOp28
 70
     1
102
RTVSPropertyOp29
 70
     1
102
RTVSPropertyOp30
 70
     1
102
RTVSPropertyOp31
 70
     1
102
RTVSPropertyOp32
 70
     1
  0
XRECORD
  5
88
102
{ACAD_REACTORS
330
87
102
}
330
87
100
AcDbXrecord
280
     1
102
RTVSPropertyOp0
 70
     1
102
RTVSPropertyOp1
 70
     1
102
RTVSPropertyOp2
 70
     1
102
RTVSPropertyOp3
 70
     1
102
RTVSPropertyOp4
 70
     1
102
RTVSPropertyOp5
 70
     1
102
RTVSPropertyOp6
 70
     1
102
RTVSPropertyOp7
 70
     1
102
RTVSPropertyOp8
 70
     1
102
RTVSPropertyOp9
 70
     1
102
RTVSPropertyOp10
 70
     1
102
RTVSPropertyOp11
 70
     1
102
RTVSPropertyOp12
 70
     1
102
RTVSPropertyOp13
 70
     1
102
RTVSPropertyOp14
 70
     1
102
RTVSPropertyOp15
 70
     1
102
RTVSPropertyOp16
 70
     1
102
RTVSPropertyOp17
 70
     1
102
RTVSPropertyOp18
 70
     1
102
RTVSPropertyOp19
 70
     1
102
RTVSPropertyOp20
 70
     1
102
RTVSPropertyOp21
 70
     1
102
RTVSPropertyOp22
 70
     1
102
RTVSPropertyOp23
 70
     1
102
RTVSPropertyOp24
 70
     1
102
RTVSPropertyOp25
 70
     1
102
RTVSPropertyOp26
 70
     1
102
RTVSPropertyOp27
 70
     1
102
RTVSPropertyOp28
 70
     1
102
RTVSPropertyOp29
 70
     1
102
RTVSPropertyOp30
 70
     1
102
RTVSPropertyOp31
 70
     1
102
RTVSPropertyOp32
 70
     1
  0
XRECORD
  5
86
102
{ACAD_REACTORS
330
85
102
}
330
85
100
AcDbXrecord
280
     1
102
RTVSPropertyOp0
 70
     1
102
RTVSPropertyOp1
 70
     1
102
RTVSPropertyOp2
 70
     1
102
RTVSPropertyOp3
 70
     1
102
RTVSPropertyOp4
 70
     1
102
RTVSPropertyOp5
 70
     1
102
RTVSPropertyOp6
 70
     1
102
RTVSPropertyOp7
 70
     1
102
RTVSPropertyOp8
 70
     1
102
RTVSPropertyOp9
 70
     1
102
RTVSPropertyOp10
 70
     1
102
RTVSPropertyOp11
 70
     1
102
RTVSPropertyOp12
 70
     1
102
RTVSPropertyOp13
 70
     1
102
RTVSPropertyOp14
 70
     1
102
RTVSPropertyOp15
 70
     1
102
RTVSPropertyOp16
 70
     1
102
RTVSPropertyOp17
 70
     1
102
RTVSPropertyOp18
 70
     1
102
RTVSPropertyOp19
 70
     1
102
RTVSPropertyOp20
 70
     1
102
RTVSPropertyOp21
 70
     1
102
RTVSPropertyOp22
 70
     1
102
RTVSPropertyOp23
 70
     1
102
RTVSPropertyOp24
 70
     1
102
RTVSPropertyOp25
 70
     1
102
RTVSPropertyOp26
 70
     1
102
RTVSPropertyOp27
 70
     1
102
RTVSPropertyOp28
 70
     1
102
RTVSPropertyOp29
 70
     1
102
RTVSPropertyOp30
 70
     1
102
RTVSPropertyOp31
 70
     1
102
RTVSPropertyOp32
 70
     1
  0
XRECORD
  5
8A
102
{ACAD_REACTORS
330
89
102
}
330
89
100
AcDbXrecord
280
     1
102
RTVSPropertyOp0
 70
     1
102
RTVSPropertyOp1
 70
     1
102
RTVSPropertyOp2
 70
     1
102
RTVSPropertyOp3
 70
     1
102
RTVSPropertyOp4
 70
     1
102
RTVSPropertyOp5
 70
     1
102
RTVSPropertyOp6
 70
     1
102
RTVSPropertyOp7
 70
     1
102
RTVSPropertyOp8
 70
     1
102
RTVSPropertyOp9
 70
     1
102
RTVSPropertyOp10
 70
     1
102
RTVSPropertyOp11
 70
     1
102
RTVSPropertyOp12
 70
     1
102
RTVSPropertyOp13
 70
     1
102
RTVSPropertyOp14
 70
     1
102
RTVSPropertyOp15
 70
     1
102
RTVSPropertyOp16
 70
     1
102
RTVSPropertyOp17
 70
     1
102
RTVSPropertyOp18
 70
     1
102
RTVSPropertyOp19
 70
     1
102
RTVSPropertyOp20
 70
     1
102
RTVSPropertyOp21
 70
     1
102
RTVSPropertyOp22
 70
     1
102
RTVSPropertyOp23
 70
     1
102
RTVSPropertyOp24
 70
     1
102
RTVSPropertyOp25
 70
     1
102
RTVSPropertyOp26
 70
     1
102
RTVSPropertyOp27
 70
     1
102
RTVSPropertyOp28
 70
     1
102
RTVSPropertyOp29
 70
     1
102
RTVSPropertyOp30
 70
     1
102
RTVSPropertyOp31
 70
     1
102
RTVSPropertyOp32
 70
     1
  0
XRECORD
  5
92
102
{ACAD_REACTORS
330
91
102
}
330
91
100
AcDbXrecord
280
     1
102
RTVSPropertyOp0
 70
     1
102
RTVSPropertyOp1
 70
     1
102
RTVSPropertyOp2
 70
     1
102
RTVSPropertyOp3
 70
     1
102
RTVSPropertyOp4
 70
     1
102
RTVSPropertyOp5
 70
     1
102
RTVSPropertyOp6
 70
     1
102
RTVSPropertyOp7
 70
     1
102
RTVSPropertyOp8
 70
     1
102
RTVSPropertyOp9
 70
     1
102
RTVSPropertyOp10
 70
     1
102
RTVSPropertyOp11
 70
     1
102
RTVSPropertyOp12
 70
     1
102
RTVSPropertyOp13
 70
     1
102
RTVSPropertyOp14
 70
     1
102
RTVSPropertyOp15
 70
     1
102
RTVSPropertyOp16
 70
     1
102
RTVSPropertyOp17
 70
     1
102
RTVSPropertyOp18
 70
     1
102
RTVSPropertyOp19
 70
     1
102
RTVSPropertyOp20
 70
     1
102
RTVSPropertyOp21
 70
     1
102
RTVSPropertyOp22
 70
     1
102
RTVSPropertyOp23
 70
     1
102
RTVSPropertyOp24
 70
     1
102
RTVSPropertyOp25
 70
     1
102
RTVSPropertyOp26
 70
     1
102
RTVSPropertyOp27
 70
     1
102
RTVSPropertyOp28
 70
     1
102
RTVSPropertyOp29
 70
     1
102
RTVSPropertyOp30
 70
     1
102
RTVSPropertyOp31
 70
     1
102
RTVSPropertyOp32
 70
     1
  0
XRECORD
  5
9A
102
{ACAD_REACTORS
330
99
102
}
330
99
100
AcDbXrecord
280
     1
102
RTVSPropertyOp0
 70
     1
102
RTVSPropertyOp1
 70
     1
102
RTVSPropertyOp2
 70
     1
102
RTVSPropertyOp3
 70
     1
102
RTVSPropertyOp4
 70
     1
102
RTVSPropertyOp5
 70
     1
102
RTVSPropertyOp6
 70
     1
102
RTVSPropertyOp7
 70
     1
102
RTVSPropertyOp8
 70
     1
102
RTVSPropertyOp9
 70
     1
102
RTVSPropertyOp10
 70
     1
102
RTVSPropertyOp11
 70
     1
102
RTVSPropertyOp12
 70
     1
102
RTVSPropertyOp13
 70
     1
102
RTVSPropertyOp14
 70
     1
102
RTVSPropertyOp15
 70
     1
102
RTVSPropertyOp16
 70
     1
102
RTVSPropertyOp17
 70
     1
102
RTVSPropertyOp18
 70
     1
102
RTVSPropertyOp19
 70
     1
102
RTVSPropertyOp20
 70
     1
102
RTVSPropertyOp21
 70
     1
102
RTVSPropertyOp22
 70
     1
102
RTVSPropertyOp23
 70
     1
102
RTVSPropertyOp24
 70
     1
102
RTVSPropertyOp25
 70
     1
102
RTVSPropertyOp26
 70
     1
102
RTVSPropertyOp27
 70
     1
102
RTVSPropertyOp28
 70
     1
102
RTVSPropertyOp29
 70
     1
102
RTVSPropertyOp30
 70
     1
102
RTVSPropertyOp31
 70
     1
102
RTVSPropertyOp32
 70
     1
  0
XRECORD
  5
8E
102
{ACAD_REACTORS
330
8D
102
}
330
8D
100
AcDbXrecord
280
     1
102
RTVSPropertyOp0
 70
     1
102
RTVSPropertyOp1
 70
     1
102
RTVSPropertyOp2
 70
     1
102
RTVSPropertyOp3
 70
     1
102
RTVSPropertyOp4
 70
     1
102
RTVSPropertyOp5
 70
     1
102
RTVSPropertyOp6
 70
     1
102
RTVSPropertyOp7
 70
     1
102
RTVSPropertyOp8
 70
     1
102
RTVSPropertyOp9
 70
     1
102
RTVSPropertyOp10
 70
     1
102
RTVSPropertyOp11
 70
     1
102
RTVSPropertyOp12
 70
     1
102
RTVSPropertyOp13
 70
     1
102
RTVSPropertyOp14
 70
     1
102
RTVSPropertyOp15
 70
     1
102
RTVSPropertyOp16
 70
     1
102
RTVSPropertyOp17
 70
     1
102
RTVSPropertyOp18
 70
     1
102
RTVSPropertyOp19
 70
     1
102
RTVSPropertyOp20
 70
     1
102
RTVSPropertyOp21
 70
     1
102
RTVSPropertyOp22
 70
     1
102
RTVSPropertyOp23
 70
     1
102
RTVSPropertyOp24
 70
     1
102
RTVSPropertyOp25
 70
     1
102
RTVSPropertyOp26
 70
     1
102
RTVSPropertyOp27
 70
     1
102
RTVSPropertyOp28
 70
     1
102
RTVSPropertyOp29
 70
     1
102
RTVSPropertyOp30
 70
     1
102
RTVSPropertyOp31
 70
     1
102
RTVSPropertyOp32
 70
     1
  0
XRECORD
  5
90
102
{ACAD_REACTORS
330
8F
102
}
330
8F
100
AcDbXrecord
280
     1
102
RTVSPropertyOp0
 70
     1
102
RTVSPropertyOp1
 70
     1
102
RTVSPropertyOp2
 70
     1
102
RTVSPropertyOp3
 70
     1
102
RTVSPropertyOp4
 70
     1
102
RTVSPropertyOp5
 70
     1
102
RTVSPropertyOp6
 70
     1
102
RTVSPropertyOp7
 70
     1
102
RTVSPropertyOp8
 70
     1
102
RTVSPropertyOp9
 70
     1
102
RTVSPropertyOp10
 70
     1
102
RTVSPropertyOp11
 70
     1
102
RTVSPropertyOp12
 70
     1
102
RTVSPropertyOp13
 70
     1
102
RTVSPropertyOp14
 70
     1
102
RTVSPropertyOp15
 70
     1
102
RTVSPropertyOp16
 70
     1
102
RTVSPropertyOp17
 70
     1
102
RTVSPropertyOp18
 70
     1
102
RTVSPropertyOp19
 70
     1
102
RTVSPropertyOp20
 70
     1
102
RTVSPropertyOp21
 70
     1
102
RTVSPropertyOp22
 70
     1
102
RTVSPropertyOp23
 70
     1
102
RTVSPropertyOp24
 70
     1
102
RTVSPropertyOp25
 70
     1
102
RTVSPropertyOp26
 70
     1
102
RTVSPropertyOp27
 70
     1
102
RTVSPropertyOp28
 70
     1
102
RTVSPropertyOp29
 70
     1
102
RTVSPropertyOp30
 70
     1
102
RTVSPropertyOp31
 70
     1
102
RTVSPropertyOp32
 70
     1
  0
XRECORD
  5
98
102
{ACAD_REACTORS
330
97
102
}
330
97
100
AcDbXrecord
280
     1
102
RTVSPropertyOp0
 70
     1
102
RTVSPropertyOp1
 70
     1
102
RTVSPropertyOp2
 70
     1
102
RTVSPropertyOp3
 70
     1
102
RTVSPropertyOp4
 70
     1
102
RTVSPropertyOp5
 70
     1
102
RTVSPropertyOp6
 70
     1
102
RTVSPropertyOp7
 70
     1
102
RTVSPropertyOp8
 70
     1
102
RTVSPropertyOp9
 70
     1
102
RTVSPropertyOp10
 70
     1
102
RTVSPropertyOp11
 70
     1
102
RTVSPropertyOp12
 70
     1
102
RTVSPropertyOp13
 70
     1
102
RTVSPropertyOp14
 70
     1
102
RTVSPropertyOp15
 70
     1
102
RTVSPropertyOp16
 70
     1
102
RTVSPropertyOp17
 70
     1
102
RTVSPropertyOp18
 70
     1
102
RTVSPropertyOp19
 70
     1
102
RTVSPropertyOp20
 70
     1
102
RTVSPropertyOp21
 70
     1
102
RTVSPropertyOp22
 70
     1
102
RTVSPropertyOp23
 70
     1
102
RTVSPropertyOp24
 70
     1
102
RTVSPropertyOp25
 70
     1
102
RTVSPropertyOp26
 70
     1
102
RTVSPropertyOp27
 70
     1
102
RTVSPropertyOp28
 70
     1
102
RTVSPropertyOp29
 70
     1
102
RTVSPropertyOp30
 70
     1
102
RTVSPropertyOp31
 70
     1
102
RTVSPropertyOp32
 70
     1
  0
XRECORD
  5
7C
102
{ACAD_REACTORS
330
7B
102
}
330
7B
100
AcDbXrecord
280
     1
102
RTVSPropertyOp0
 70
     1
102
RTVSPropertyOp1
 70
     1
102
RTVSPropertyOp2
 70
     1
102
RTVSPropertyOp3
 70
     1
102
RTVSPropertyOp4
 70
     1
102
RTVSPropertyOp5
 70
     1
102
RTVSPropertyOp6
 70
     1
102
RTVSPropertyOp7
 70
     1
102
RTVSPropertyOp8
 70
     1
102
RTVSPropertyOp9
 70
     1
102
RTVSPropertyOp10
 70
     1
102
RTVSPropertyOp11
 70
     1
102
RTVSPropertyOp12
 70
     1
102
RTVSPropertyOp13
 70
     1
102
RTVSPropertyOp14
 70
     1
102
RTVSPropertyOp15
 70
     1
102
RTVSPropertyOp16
 70
     1
102
RTVSPropertyOp17
 70
     1
102
RTVSPropertyOp18
 70
     1
102
RTVSPropertyOp19
 70
     1
102
RTVSPropertyOp20
 70
     1
102
RTVSPropertyOp21
 70
     1
102
RTVSPropertyOp22
 70
     1
102
RTVSPropertyOp23
 70
     1
102
RTVSPropertyOp24
 70
     1
102
RTVSPropertyOp25
 70
     1
102
RTVSPropertyOp26
 70
     1
102
RTVSPropertyOp27
 70
     1
102
RTVSPropertyOp28
 70
     1
102
RTVSPropertyOp29
 70
     1
102
RTVSPropertyOp30
 70
     1
102
RTVSPropertyOp31
 70
     1
102
RTVSPropertyOp32
 70
     1
  0
XRECORD
  5
7E
102
{ACAD_REACTORS
330
7D
102
}
330
7D
100
AcDbXrecord
280
     1
102
RTVSPropertyOp0
 70
     1
102
RTVSPropertyOp1
 70
     1
102
RTVSPropertyOp2
 70
     1
102
RTVSPropertyOp3
 70
     1
102
RTVSPropertyOp4
 70
     1
102
RTVSPropertyOp5
 70
     1
102
RTVSPropertyOp6
 70
     1
102
RTVSPropertyOp7
 70
     1
102
RTVSPropertyOp8
 70
     1
102
RTVSPropertyOp9
 70
     1
102
RTVSPropertyOp10
 70
     1
102
RTVSPropertyOp11
 70
     1
102
RTVSPropertyOp12
 70
     1
102
RTVSPropertyOp13
 70
     1
102
RTVSPropertyOp14
 70
     1
102
RTVSPropertyOp15
 70
     1
102
RTVSPropertyOp16
 70
     1
102
RTVSPropertyOp17
 70
     1
102
RTVSPropertyOp18
 70
     1
102
RTVSPropertyOp19
 70
     1
102
RTVSPropertyOp20
 70
     1
102
RTVSPropertyOp21
 70
     1
102
RTVSPropertyOp22
 70
     1
102
RTVSPropertyOp23
 70
     1
102
RTVSPropertyOp24
 70
     1
102
RTVSPropertyOp25
 70
     1
102
RTVSPropertyOp26
 70
     1
102
RTVSPropertyOp27
 70
     1
102
RTVSPropertyOp28
 70
     1
102
RTVSPropertyOp29
 70
     1
102
RTVSPropertyOp30
 70
     1
102
RTVSPropertyOp31
 70
     1
102
RTVSPropertyOp32
 70
     1
  0
XRECORD
  5
80
102
{ACAD_REACTORS
330
7F
102
}
330
7F
100
AcDbXrecord
280
     1
102
RTVSPropertyOp0
 70
     1
102
RTVSPropertyOp1
 70
     1
102
RTVSPropertyOp2
 70
     1
102
RTVSPropertyOp3
 70
     1
102
RTVSPropertyOp4
 70
     1
102
RTVSPropertyOp5
 70
     1
102
RTVSPropertyOp6
 70
     1
102
RTVSPropertyOp7
 70
     1
102
RTVSPropertyOp8
 70
     1
102
RTVSPropertyOp9
 70
     1
102
RTVSPropertyOp10
 70
     1
102
RTVSPropertyOp11
 70
     1
102
RTVSPropertyOp12
 70
     1
102
RTVSPropertyOp13
 70
     1
102
RTVSPropertyOp14
 70
     1
102
RTVSPropertyOp15
 70
     1
102
RTVSPropertyOp16
 70
     1
102
RTVSPropertyOp17
 70
     1
102
RTVSPropertyOp18
 70
     1
102
RTVSPropertyOp19
 70
     1
102
RTVSPropertyOp20
 70
     1
102
RTVSPropertyOp21
 70
     1
102
RTVSPropertyOp22
 70
     1
102
RTVSPropertyOp23
 70
     1
102
RTVSPropertyOp24
 70
     1
102
RTVSPropertyOp25
 70
     1
102
RTVSPropertyOp26
 70
     1
102
RTVSPropertyOp27
 70
     1
102
RTVSPropertyOp28
 70
     1
102
RTVSPropertyOp29
 70
     1
102
RTVSPropertyOp30
 70
     1
102
RTVSPropertyOp31
 70
     1
102
RTVSPropertyOp32
 70
     1
  0
XRECORD
  5
82
102
{ACAD_REACTORS
330
81
102
}
330
81
100
AcDbXrecord
280
     1
102
RTVSPropertyOp0
 70
     1
102
RTVSPropertyOp1
 70
     1
102
RTVSPropertyOp2
 70
     1
102
RTVSPropertyOp3
 70
     1
102
RTVSPropertyOp4
 70
     1
102
RTVSPropertyOp5
 70
     1
102
RTVSPropertyOp6
 70
     1
102
RTVSPropertyOp7
 70
     1
102
RTVSPropertyOp8
 70
     1
102
RTVSPropertyOp9
 70
     1
102
RTVSPropertyOp10
 70
     1
102
RTVSPropertyOp11
 70
     1
102
RTVSPropertyOp12
 70
     1
102
RTVSPropertyOp13
 70
     1
102
RTVSPropertyOp14
 70
     1
102
RTVSPropertyOp15
 70
     1
102
RTVSPropertyOp16
 70
     1
102
RTVSPropertyOp17
 70
     1
102
RTVSPropertyOp18
 70
     1
102
RTVSPropertyOp19
 70
     1
102
RTVSPropertyOp20
 70
     1
102
RTVSPropertyOp21
 70
     1
102
RTVSPropertyOp22
 70
     1
102
RTVSPropertyOp23
 70
     1
102
RTVSPropertyOp24
 70
     1
102
RTVSPropertyOp25
 70
     1
102
RTVSPropertyOp26
 70
     1
102
RTVSPropertyOp27
 70
     1
102
RTVSPropertyOp28
 70
     1
102
RTVSPropertyOp29
 70
     1
102
RTVSPropertyOp30
 70
     1
102
RTVSPropertyOp31
 70
     1
102
RTVSPropertyOp32
 70
     1
  0
XRECORD
  5
96
102
{ACAD_REACTORS
330
95
102
}
330
95
100
AcDbXrecord
280
     1
102
RTVSPropertyOp0
 70
     1
102
RTVSPropertyOp1
 70
     1
102
RTVSPropertyOp2
 70
     1
102
RTVSPropertyOp3
 70
     1
102
RTVSPropertyOp4
 70
     1
102
RTVSPropertyOp5
 70
     1
102
RTVSPropertyOp6
 70
     1
102
RTVSPropertyOp7
 70
     1
102
RTVSPropertyOp8
 70
     1
102
RTVSPropertyOp9
 70
     1
102
RTVSPropertyOp10
 70
     1
102
RTVSPropertyOp11
 70
     1
102
RTVSPropertyOp12
 70
     1
102
RTVSPropertyOp13
 70
     1
102
RTVSPropertyOp14
 70
     1
102
RTVSPropertyOp15
 70
     1
102
RTVSPropertyOp16
 70
     1
102
RTVSPropertyOp17
 70
     1
102
RTVSPropertyOp18
 70
     1
102
RTVSPropertyOp19
 70
     1
102
RTVSPropertyOp20
 70
     1
102
RTVSPropertyOp21
 70
     1
102
RTVSPropertyOp22
 70
     1
102
RTVSPropertyOp23
 70
     1
102
RTVSPropertyOp24
 70
     1
102
RTVSPropertyOp25
 70
     1
102
RTVSPropertyOp26
 70
     1
102
RTVSPropertyOp27
 70
     1
102
RTVSPropertyOp28
 70
     1
102
RTVSPropertyOp29
 70
     1
102
RTVSPropertyOp30
 70
     1
102
RTVSPropertyOp31
 70
     1
102
RTVSPropertyOp32
 70
     1
  0
XRECORD
  5
8C
102
{ACAD_REACTORS
330
8B
102
}
330
8B
100
AcDbXrecord
280
     1
102
RTVSPropertyOp0
 70
     1
102
RTVSPropertyOp1
 70
     1
102
RTVSPropertyOp2
 70
     1
102
RTVSPropertyOp3
 70
     1
102
RTVSPropertyOp4
 70
     1
102
RTVSPropertyOp5
 70
     1
102
RTVSPropertyOp6
 70
     1
102
RTVSPropertyOp7
 70
     1
102
RTVSPropertyOp8
 70
     1
102
RTVSPropertyOp9
 70
     1
102
RTVSPropertyOp10
 70
     1
102
RTVSPropertyOp11
 70
     1
102
RTVSPropertyOp12
 70
     1
102
RTVSPropertyOp13
 70
     1
102
RTVSPropertyOp14
 70
     1
102
RTVSPropertyOp15
 70
     1
102
RTVSPropertyOp16
 70
     1
102
RTVSPropertyOp17
 70
     1
102
RTVSPropertyOp18
 70
     1
102
RTVSPropertyOp19
 70
     1
102
RTVSPropertyOp20
 70
     1
102
RTVSPropertyOp21
 70
     1
102
RTVSPropertyOp22
 70
     1
102
RTVSPropertyOp23
 70
     1
102
RTVSPropertyOp24
 70
     1
102
RTVSPropertyOp25
 70
     1
102
RTVSPropertyOp26
 70
     1
102
RTVSPropertyOp27
 70
     1
102
RTVSPropertyOp28
 70
     1
102
RTVSPropertyOp29
 70
     1
102
RTVSPropertyOp30
 70
     1
102
RTVSPropertyOp31
 70
     1
102
RTVSPropertyOp32
 70
     1
  0
XRECORD
  5
94
102
{ACAD_REACTORS
330
93
102
}
330
93
100
AcDbXrecord
280
     1
102
RTVSPropertyOp0
 70
     1
102
RTVSPropertyOp1
 70
     1
102
RTVSPropertyOp2
 70
     1
102
RTVSPropertyOp3
 70
     1
102
RTVSPropertyOp4
 70
     1
102
RTVSPropertyOp5
 70
     1
102
RTVSPropertyOp6
 70
     1
102
RTVSPropertyOp7
 70
     1
102
RTVSPropertyOp8
 70
     1
102
RTVSPropertyOp9
 70
     1
102
RTVSPropertyOp10
 70
     1
102
RTVSPropertyOp11
 70
     1
102
RTVSPropertyOp12
 70
     1
102
RTVSPropertyOp13
 70
     1
102
RTVSPropertyOp14
 70
     1
102
RTVSPropertyOp15
 70
     1
102
RTVSPropertyOp16
 70
     1
102
RTVSPropertyOp17
 70
     1
102
RTVSPropertyOp18
 70
     1
102
RTVSPropertyOp19
 70
     1
102
RTVSPropertyOp20
 70
     1
102
RTVSPropertyOp21
 70
     1
102
RTVSPropertyOp22
 70
     1
102
RTVSPropertyOp23
 70
     1
102
RTVSPropertyOp24
 70
     1
102
RTVSPropertyOp25
 70
     1
102
RTVSPropertyOp26
 70
     1
102
RTVSPropertyOp27
 70
     1
102
RTVSPropertyOp28
 70
     1
102
RTVSPropertyOp29
 70
     1
102
RTVSPropertyOp30
 70
     1
102
RTVSPropertyOp31
 70
     1
102
RTVSPropertyOp32
 70
     1
  0
ENDSEC
  0
EOF
