  0
SECTION
  2
HEADER
  9
$ACADVER
  1
AC1021
  9
$ACADMAINTVER
 70
    25
  9
$DWGCODEPAGE
  3
ANSI_1252
  9
$INSBASE
 10
0.0
 20
0.0
 30
0.0
  9
$EXTMIN
 10
-187.411
 20
-114.6089
 30
0.0
  9
$EXTMAX
 10
-97.8128
 20
131.7861
 30
0.0
  9
$LIMMIN
 10
0.0
 20
0.0
  9
$LIMMAX
 10
12.0
 20
9.0
  9
$ORTHOMODE
 70
     0
  9
$REGENMODE
 70
     1
  9
$FILLMODE
 70
     1
  9
$QTEXTMODE
 70
     0
  9
$MIRRTEXT
 70
     1
  9
$LTSCALE
 40
1.0
  9
$ATTMODE
 70
     1
  9
$TEXTSIZE
 40
0.2
  9
$TRACEWID
 40
0.05
  9
$TEXTSTYLE
  7
Standard
  9
$CLAYER
  8
0
  9
$CELTYPE
  6
ByLayer
  9
$CECOLOR
 62
   256
  9
$CELTSCALE
 40
1.0
  9
$DISPSILH
 70
     0
  9
$DIMSCALE
 40
1.0
  9
$DIMASZ
 40
0.18
  9
$DIMEXO
 40
0.0625
  9
$DIMDLI
 40
0.38
  9
$DIMRND
 40
0.0
  9
$DIMDLE
 40
0.0
  9
$DIMEXE
 40
0.18
  9
$DIMTP
 40
0.0
  9
$DIMTM
 40
0.0
  9
$DIMTXT
 40
0.18
  9
$DIMCEN
 40
0.09
  9
$DIMTSZ
 40
0.0
  9
$DIMTOL
 70
     0
  9
$DIMLIM
 70
     0
  9
$DIMTIH
 70
     1
  9
$DIMTOH
 70
     1
  9
$DIMSE1
 70
     0
  9
$DIMSE2
 70
     0
  9
$DIMTAD
 70
     0
  9
$DIMZIN
 70
     0
  9
$DIMBLK
  1

  9
$DIMASO
 70
     1
  9
$DIMSHO
 70
     1
  9
$DIMPOST
  1

  9
$DIMAPOST
  1

  9
$DIMALT
 70
     0
  9
$DIMALTD
 70
     2
  9
$DIMALTF
 40
25.4
  9
$DIMLFAC
 40
1.0
  9
$DIMTOFL
 70
     0
  9
$DIMTVP
 40
0.0
  9
$DIMTIX
 70
     0
  9
$DIMSOXD
 70
     0
  9
$DIMSAH
 70
     0
  9
$DIMBLK1
  1

  9
$DIMBLK2
  1

  9
$DIMSTYLE
  2
Standard
  9
$DIMCLRD
 70
     0
  9
$DIMCLRE
 70
     0
  9
$DIMCLRT
 70
     0
  9
$DIMTFAC
 40
1.0
  9
$DIMGAP
 40
0.09
  9
$DIMJUST
 70
     0
  9
$DIMSD1
 70
     0
  9
$DIMSD2
 70
     0
  9
$DIMTOLJ
 70
     1
  9
$DIMTZIN
 70
     0
  9
$DIMALTZ
 70
     0
  9
$DIMALTTZ
 70
     0
  9
$DIMUPT
 70
     0
  9
$DIMDEC
 70
     4
  9
$DIMTDEC
 70
     4
  9
$DIMALTU
 70
     2
  9
$DIMALTTD
 70
     2
  9
$DIMTXSTY
  7
Standard
  9
$DIMAUNIT
 70
     0
  9
$DIMADEC
 70
     0
  9
$DIMALTRND
 40
0.0
  9
$DIMAZIN
 70
     0
  9
$DIMDSEP
 70
    46
  9
$DIMATFIT
 70
     3
  9
$DIMFRAC
 70
     0
  9
$DIMLDRBLK
  1

  9
$DIMLUNIT
 70
     2
  9
$DIMLWD
 70
    -2
  9
$DIMLWE
 70
    -2
  9
$DIMTMOVE
 70
     0
  9
$DIMFXL
 40
1.0
  9
$DIMFXLON
 70
     0
  9
$DIMJOGANG
 40
0.7853981633974483
  9
$DIMTFILL
 70
     0
  9
$DIMTFILLCLR
 70
     0
  9
$DIMARCSYM
 70
     0
  9
$DIMLTYPE
  6

  9
$DIMLTEX1
  6

  9
$DIMLTEX2
  6

  9
$LUNITS
 70
     2
  9
$LUPREC
 70
     4
  9
$SKETCHINC
 40
0.1
  9
$FILLETRAD
 40
0.5
  9
$AUNITS
 70
     0
  9
$AUPREC
 70
     0
  9
$MENU
  1
.
  9
$ELEVATION
 40
0.0
  9
$PELEVATION
 40
0.0
  9
$THICKNESS
 40
0.0
  9
$LIMCHECK
 70
     0
  9
$CHAMFERA
 40
0.5
  9
$CHAMFERB
 40
0.5
  9
$CHAMFERC
 40
1.0
  9
$CHAMFERD
 40
0.0
  9
$SKPOLY
 70
     0
  9
$TDCREATE
 40
2458492.909892153
  9
$TDUCREATE
 40
2458492.909892153
  9
$TDUPDATE
 40
2458492.909892628
  9
$TDUUPDATE
 40
2458492.909892628
  9
$TDINDWG
 40
0.0000000116
  9
$TDUSRTIMER
 40
0.0000000116
  9
$USRTIMER
 70
     1
  9
$ANGBASE
 50
0.0
  9
$ANGDIR
 70
     0
  9
$PDMODE
 70
     0
  9
$PDSIZE
 40
0.0
  9
$PLINEWID
 40
0.0
  9
$SPLFRAME
 70
     0
  9
$SPLINETYPE
 70
     6
  9
$SPLINESEGS
 70
     8
  9
$HANDSEED
  5
8C
  9
$SURFTAB1
 70
     6
  9
$SURFTAB2
 70
     6
  9
$SURFTYPE
 70
     6
  9
$SURFU
 70
     6
  9
$SURFV
 70
     6
  9
$UCSBASE
  2

  9
$UCSNAME
  2

  9
$UCSORG
 10
0.0
 20
0.0
 30
0.0
  9
$UCSXDIR
 10
1.0
 20
0.0
 30
0.0
  9
$UCSYDIR
 10
0.0
 20
1.0
 30
0.0
  9
$UCSORTHOREF
  2

  9
$UCSORTHOVIEW
 70
     0
  9
$UCSORGTOP
 10
0.0
 20
0.0
 30
0.0
  9
$UCSORGBOTTOM
 10
0.0
 20
0.0
 30
0.0
  9
$UCSORGLEFT
 10
0.0
 20
0.0
 30
0.0
  9
$UCSORGRIGHT
 10
0.0
 20
0.0
 30
0.0
  9
$UCSORGFRONT
 10
0.0
 20
0.0
 30
0.0
  9
$UCSORGBACK
 10
0.0
 20
0.0
 30
0.0
  9
$PUCSBASE
  2

  9
$PUCSNAME
  2

  9
$PUCSORG
 10
0.0
 20
0.0
 30
0.0
  9
$PUCSXDIR
 10
1.0
 20
0.0
 30
0.0
  9
$PUCSYDIR
 10
0.0
 20
1.0
 30
0.0
  9
$PUCSORTHOREF
  2

  9
$PUCSORTHOVIEW
 70
     0
  9
$PUCSORGTOP
 10
0.0
 20
0.0
 30
0.0
  9
$PUCSORGBOTTOM
 10
0.0
 20
0.0
 30
0.0
  9
$PUCSORGLEFT
 10
0.0
 20
0.0
 30
0.0
  9
$PUCSORGRIGHT
 10
0.0
 20
0.0
 30
0.0
  9
$PUCSORGFRONT
 10
0.0
 20
0.0
 30
0.0
  9
$PUCSORGBACK
 10
0.0
 20
0.0
 30
0.0
  9
$USERI1
 70
     0
  9
$USERI2
 70
     0
  9
$USERI3
 70
     0
  9
$USERI4
 70
     0
  9
$USERI5
 70
     0
  9
$USERR1
 40
0.0
  9
$USERR2
 40
0.0
  9
$USERR3
 40
0.0
  9
$USERR4
 40
0.0
  9
$USERR5
 40
0.0
  9
$WORLDVIEW
 70
     1
  9
$SHADEDGE
 70
     3
  9
$SHADEDIF
 70
    70
  9
$TILEMODE
 70
     1
  9
$MAXACTVP
 70
    64
  9
$PINSBASE
 10
0.0
 20
0.0
 30
0.0
  9
$PLIMCHECK
 70
     0
  9
$PEXTMIN
 10
1.000000000000000E+20
 20
1.000000000000000E+20
 30
1.000000000000000E+20
  9
$PEXTMAX
 10
-1.000000000000000E+20
 20
-1.000000000000000E+20
 30
-1.000000000000000E+20
  9
$PLIMMIN
 10
0.0
 20
0.0
  9
$PLIMMAX
 10
12.0
 20
9.0
  9
$UNITMODE
 70
     0
  9
$VISRETAIN
 70
     1
  9
$PLINEGEN
 70
     0
  9
$PSLTSCALE
 70
     1
  9
$TREEDEPTH
 70
  3020
  9
$CMLSTYLE
  2
Standard
  9
$CMLJUST
 70
     0
  9
$CMLSCALE
 40
1.0
  9
$PROXYGRAPHICS
 70
     1
  9
$MEASUREMENT
 70
     0
  9
$CELWEIGHT
370
    -1
  9
$ENDCAPS
280
     0
  9
$JOINSTYLE
280
     0
  9
$LWDISPLAY
290
     0
  9
$INSUNITS
 70
     4
  9
$HYPERLINKBASE
  1

  9
$STYLESHEET
  1

  9
$XEDIT
290
     1
  9
$CEPSNTYPE
380
     0
  9
$PSTYLEMODE
290
     1
  9
$FINGERPRINTGUID
  2
{36E4E8D8-6812-4949-BE06-1566A5C6ADB4}
  9
$VERSIONGUID
  2
{FAEB1C32-E019-11D5-929B-00C0DF256EC4}
  9
$EXTNAMES
290
     1
  9
$PSVPSCALE
 40
0.0
  9
$OLESTARTUP
290
     0
  9
$SORTENTS
280
   127
  9
$INDEXCTL
280
     0
  9
$HIDETEXT
280
     1
  9
$XCLIPFRAME
290
     0
  9
$HALOGAP
280
     0
  9
$OBSCOLOR
 70
   257
  9
$OBSLTYPE
280
     0
  9
$INTERSECTIONDISPLAY
280
     0
  9
$INTERSECTIONCOLOR
 70
   257
  9
$DIMASSOC
280
     2
  9
$PROJECTNAME
  1

  9
$CAMERADISPLAY
290
     0
  9
$LENSLENGTH
 40
50.0
  9
$CAMERAHEIGHT
 40
0.0
  9
$STEPSPERSEC
 40
2.0
  9
$STEPSIZE
 40
6.0
  9
$3DDWFPREC
 40
2.0
  9
$PSOLWIDTH
 40
0.25
  9
$PSOLHEIGHT
 40
4.0
  9
$LOFTANG1
 40
1.570796326794897
  9
$LOFTANG2
 40
1.570796326794897
  9
$LOFTMAG1
 40
0.0
  9
$LOFTMAG2
 40
0.0
  9
$LOFTPARAM
 70
     7
  9
$LOFTNORMALS
280
     1
  9
$LATITUDE
 40
37.795
  9
$LONGITUDE
 40
-122.394
  9
$NORTHDIRECTION
 40
0.0
  9
$TIMEZONE
 70
 -8000
  9
$LIGHTGLYPHDISPLAY
280
     1
  9
$TILEMODELIGHTSYNCH
280
     1
  9
$SOLIDHIST
280
     1
  9
$SHOWHIST
280
     1
  9
$DWFFRAME
280
     2
  9
$DGNFRAME
280
     2
  9
$REALWORLDSCALE
290
     1
  9
$INTERFERECOLOR
 62
   256
  9
$CSHADOW
280
     0
  9
$SHADOWPLANELOCATION
 40
0.0
  0
ENDSEC
  0
SECTION
  2
CLASSES
  0
CLASS
  1
ACDBDICTIONARYWDFLT
  2
AcDbDictionaryWithDefault
  3
ObjectDBX Classes
 90
        0
 91
        4
280
     0
281
     0
  0
CLASS
  1
VISUALSTYLE
  2
AcDbVisualStyle
  3
ObjectDBX Classes
 90
     4095
 91
        4
280
     0
281
     0
  0
CLASS
  1
MATERIAL
  2
AcDbMaterial
  3
ObjectDBX Classes
 90
     1153
 91
        4
280
     0
281
     0
  0
ENDSEC
  0
SECTION
  2
TABLES
  0
TABLE
  2
VPORT
  5
8
330
0
100
AcDbSymbolTable
 70
     1
  0
VPORT
  5
29
330
8
100
AcDbSymbolTableRecord
100
AcDbViewportTableRecord
  2
*Active
 70
     0
 10
0.0
 20
0.0
 11
1.0
 21
1.0
 12
10.42990654205607
 22
4.5
 13
0.0
 23
0.0
 14
0.5
 24
0.5
 15
0.5
 25
0.5
 16
0.0
 26
0.0
 36
1.0
 17
0.0
 27
0.0
 37
0.0
 40
9.0
 41
1.972972972850329
 42
50.0
 43
0.0
 44
0.0
 50
0.0
 51
0.0
 71
     0
 72
   100
 73
     1
 74
     3
 75
     0
 76
     0
 77
     0
 78
     0
281
     0
 65
     1
110
0.0
120
0.0
130
0.0
111
1.0
121
0.0
131
0.0
112
0.0
122
1.0
132
0.0
 79
     0
146
0.0
 60
     3
 61
     5
292
     1
282
     1
141
0.0
142
0.0
 63
   250
  0
ENDTAB
  0
TABLE
  2
LTYPE
  5
5
330
0
100
AcDbSymbolTable
 70
     1
  0
LTYPE
  5
14
330
5
100
AcDbSymbolTableRecord
100
AcDbLinetypeTableRecord
  2
ByBlock
 70
     0
  3

 72
    65
 73
     0
 40
0.0
  0
LTYPE
  5
15
330
5
100
AcDbSymbolTableRecord
100
AcDbLinetypeTableRecord
  2
ByLayer
 70
     0
  3

 72
    65
 73
     0
 40
0.0
  0
LTYPE
  5
16
330
5
100
AcDbSymbolTableRecord
100
AcDbLinetypeTableRecord
  2
Continuous
 70
     0
  3
Solid line
 72
    65
 73
     0
 40
0.0
  0
ENDTAB
  0
TABLE
  2
LAYER
  5
2
330
0
100
AcDbSymbolTable
 70
     3
  0
LAYER
  5
10
330
2
100
AcDbSymbolTableRecord
100
AcDbLayerTableRecord
  2
0
 70
     0
 62
     7
  6
Continuous
370
    -3
390
F
347
3E
  0
LAYER
  5
40
330
2
100
AcDbSymbolTableRecord
100
AcDbLayerTableRecord
  2
layer 1
 70
     0
 62
     7
  6
Continuous
370
    -3
390
F
347
3E
  0
LAYER
  5
69
330
2
100
AcDbSymbolTableRecord
100
AcDbLayerTableRecord
  2
Master Guides
 70
     0
 62
     7
  6
Continuous
370
    -3
390
F
347
3E
  0
ENDTAB
  0
TABLE
  2
STYLE
  5
3
330
0
100
AcDbSymbolTable
 70
     1
  0
STYLE
  5
11
330
3
100
AcDbSymbolTableRecord
100
AcDbTextStyleTableRecord
  2
Standard
 70
     0
 40
0.0
 41
1.0
 50
0.0
 71
     0
 42
0.2
  3
txt
  4

  0
ENDTAB
  0
TABLE
  2
VIEW
  5
6
330
0
100
AcDbSymbolTable
 70
     0
  0
ENDTAB
  0
TABLE
  2
UCS
  5
7
330
0
100
AcDbSymbolTable
 70
     0
  0
ENDTAB
  0
TABLE
  2
APPID
  5
9
330
0
100
AcDbSymbolTable
 70
     2
  0
APPID
  5
12
330
9
100
AcDbSymbolTableRecord
100
AcDbRegAppTableRecord
  2
ACAD
 70
     0
  0
APPID
  5
3F
330
9
100
AcDbSymbolTableRecord
100
AcDbRegAppTableRecord
  2
ODA
 70
     0
  0
ENDTAB
  0
TABLE
  2
DIMSTYLE
  5
A
330
0
100
AcDbSymbolTable
 70
     1
100
AcDbDimStyleTable
  0
DIMSTYLE
105
27
330
A
100
AcDbSymbolTableRecord
100
AcDbDimStyleTableRecord
  2
Standard
 70
     0
178
     0
340
11
  0
ENDTAB
  0
TABLE
  2
BLOCK_RECORD
  5
1
330
0
100
AcDbSymbolTable
 70
     1
  0
BLOCK_RECORD
  5
1F
330
1
100
AcDbSymbolTableRecord
100
AcDbBlockTableRecord
  2
*Model_Space
340
22
 70
     0
280
     1
281
     0
  0
BLOCK_RECORD
  5
1B
330
1
100
AcDbSymbolTableRecord
100
AcDbBlockTableRecord
  2
*Paper_Space
340
1E
 70
     0
280
     1
281
     0
  0
BLOCK_RECORD
  5
23
330
1
100
AcDbSymbolTableRecord
100
AcDbBlockTableRecord
  2
*Paper_Space0
340
26
 70
     0
280
     1
281
     0
  0
ENDTAB
  0
ENDSEC
  0
SECTION
  2
BLOCKS
  0
BLOCK
  5
20
330
1F
100
AcDbEntity
  8
0
100
AcDbBlockBegin
  2
*Model_Space
 70
     0
 10
0.0
 20
0.0
 30
0.0
  3
*Model_Space
  1

  0
ENDBLK
  5
21
330
1F
100
AcDbEntity
  8
0
100
AcDbBlockEnd
  0
BLOCK
  5
1C
330
1B
100
AcDbEntity
 67
     1
  8
0
100
AcDbBlockBegin
  2
*Paper_Space
 70
     0
 10
0.0
 20
0.0
 30
0.0
  3
*Paper_Space
  1

  0
ENDBLK
  5
1D
330
1B
100
AcDbEntity
 67
     1
  8
0
100
AcDbBlockEnd
  0
BLOCK
  5
24
330
23
100
AcDbEntity
  8
0
100
AcDbBlockBegin
  2
*Paper_Space0
 70
     0
 10
0.0
 20
0.0
 30
0.0
  3
*Paper_Space0
  1

  0
ENDBLK
  5
25
330
23
100
AcDbEntity
  8
0
100
AcDbBlockEnd
  0
ENDSEC
  0
SECTION
  2
ENTITIES
  0
SPLINE
  5
41
330
1F
100
AcDbEntity
  8
layer 1
 62
   250
100
AcDbSpline
210
0.0
220
0.0
230
1.0
 70
    11
 71
     3
 72
    52
 73
    48
 74
     0
 42
0.0000000001
 43
0.0000000001
 12
1.0
 22
0.0
 32
0.0
 13
1.0
 23
0.0
 33
0.0
 40
0.0
 40
0.0
 40
0.0
 40
0.0
 40
0.0769230769230769
 40
0.0769230769230769
 40
0.0769230769230769
 40
0.0769230769230769
 40
0.1538461538461539
 40
0.1538461538461539
 40
0.1538461538461539
 40
0.1538461538461539
 40
0.2307692307692308
 40
0.2307692307692308
 40
0.2307692307692308
 40
0.2307692307692308
 40
0.3076923076923077
 40
0.3076923076923077
 40
0.3076923076923077
 40
0.3076923076923077
 40
0.3846153846153846
 40
0.3846153846153846
 40
0.3846153846153846
 40
0.3846153846153846
 40
0.4615384615384616
 40
0.4615384615384616
 40
0.4615384615384616
 40
0.4615384615384616
 40
0.5384615384615384
 40
0.5384615384615384
 40
0.5384615384615384
 40
0.5384615384615384
 40
0.6153846153846154
 40
0.6153846153846154
 40
0.6153846153846154
 40
0.6153846153846154
 40
0.6923076923076923
 40
0.6923076923076923
 40
0.6923076923076923
 40
0.6923076923076923
 40
0.7692307692307693
 40
0.7692307692307693
 40
0.7692307692307693
 40
0.7692307692307693
 40
0.8461538461538461
 40
0.8461538461538461
 40
0.8461538461538461
 40
0.8461538461538461
 40
1.0
 40
1.0
 40
1.0
 40
1.0
 10
-132.3905
 20
8.5886
 30
0.0
 10
-132.3905
 20
10.7415
 30
0.0
 10
-138.0395
 20
11.7059
 30
0.0
 10
-140.0693
 20
9.8177
 30
0.0
 10
-140.0693
 20
9.8177
 30
0.0
 10
-138.7765
 20
12.2974
 30
0.0
 10
-139.3485
 20
13.5677
 30
0.0
 10
-139.8257
 20
13.9525
 30
0.0
 10
-139.8257
 20
13.9525
 30
0.0
 10
-140.5034
 20
14.499
 30
0.0
 10
-142.0979
 20
13.9748
 30
0.0
 10
-142.6119
 20
13.0685
 30
0.0
 10
-142.6119
 20
13.0685
 30
0.0
 10
-143.1258
 20
13.9748
 30
0.0
 10
-144.7204
 20
14.499
 30
0.0
 10
-145.3981
 20
13.9525
 30
0.0
 10
-145.3981
 20
13.9525
 30
0.0
 10
-145.8753
 20
13.5677
 30
0.0
 10
-146.4472
 20
12.2974
 30
0.0
 10
-145.1545
 20
9.8177
 30
0.0
 10
-145.1545
 20
9.8177
 30
0.0
 10
-147.1843
 20
11.7059
 30
0.0
 10
-152.8332
 20
10.7415
 30
0.0
 10
-152.8332
 20
8.5886
 30
0.0
 10
-152.8332
 20
8.5886
 30
0.0
 10
-152.8332
 20
6.4357
 30
0.0
 10
-147.1843
 20
5.4712
 30
0.0
 10
-145.1545
 20
7.3595
 30
0.0
 10
-145.1545
 20
7.3595
 30
0.0
 10
-146.4472
 20
4.8798
 30
0.0
 10
-145.8753
 20
3.6095
 30
0.0
 10
-145.3981
 20
3.2247
 30
0.0
 10
-145.3981
 20
3.2247
 30
0.0
 10
-144.7204
 20
2.6781
 30
0.0
 10
-143.1258
 20
3.2024
 30
0.0
 10
-142.6119
 20
4.1087
 30
0.0
 10
-142.6119
 20
4.1087
 30
0.0
 10
-142.0979
 20
3.2024
 30
0.0
 10
-140.5034
 20
2.6781
 30
0.0
 10
-139.8257
 20
3.2247
 30
0.0
 10
-139.8257
 20
3.2247
 30
0.0
 10
-139.3485
 20
3.6095
 30
0.0
 10
-138.7765
 20
4.8798
 30
0.0
 10
-140.0693
 20
7.3595
 30
0.0
 10
-140.0693
 20
7.3595
 30
0.0
 10
-138.0395
 20
5.4712
 30
0.0
 10
-132.3905
 20
6.4357
 30
0.0
 10
-132.3905
 20
8.5886
 30
0.0
  0
SPLINE
  5
42
330
1F
100
AcDbEntity
  8
layer 1
 62
   250
100
AcDbSpline
210
0.0
220
0.0
230
1.0
 70
    11
 71
     3
 72
    68
 73
    64
 74
     0
 42
0.0000000001
 43
0.0000000001
 12
1.0
 22
0.0
 32
0.0
 13
1.0
 23
0.0
 33
0.0
 40
0.0
 40
0.0
 40
0.0
 40
0.0
 40
0.0588235294117647
 40
0.0588235294117647
 40
0.0588235294117647
 40
0.0588235294117647
 40
0.1176470588235294
 40
0.1176470588235294
 40
0.1176470588235294
 40
0.1176470588235294
 40
0.1764705882352941
 40
0.1764705882352941
 40
0.1764705882352941
 40
0.1764705882352941
 40
0.2352941176470588
 40
0.2352941176470588
 40
0.2352941176470588
 40
0.2352941176470588
 40
0.2941176470588235
 40
0.2941176470588235
 40
0.2941176470588235
 40
0.2941176470588235
 40
0.3529411764705883
 40
0.3529411764705883
 40
0.3529411764705883
 40
0.3529411764705883
 40
0.4117647058823529
 40
0.4117647058823529
 40
0.4117647058823529
 40
0.4117647058823529
 40
0.4705882352941176
 40
0.4705882352941176
 40
0.4705882352941176
 40
0.4705882352941176
 40
0.5294117647058824
 40
0.5294117647058824
 40
0.5294117647058824
 40
0.5294117647058824
 40
0.5882352941176471
 40
0.5882352941176471
 40
0.5882352941176471
 40
0.5882352941176471
 40
0.6470588235294118
 40
0.6470588235294118
 40
0.6470588235294118
 40
0.6470588235294118
 40
0.7058823529411765
 40
0.7058823529411765
 40
0.7058823529411765
 40
0.7058823529411765
 40
0.7647058823529411
 40
0.7647058823529411
 40
0.7647058823529411
 40
0.7647058823529411
 40
0.8235294117647058
 40
0.8235294117647058
 40
0.8235294117647058
 40
0.8235294117647058
 40
0.8823529411764706
 40
0.8823529411764706
 40
0.8823529411764706
 40
0.8823529411764706
 40
1.0
 40
1.0
 40
1.0
 40
1.0
 10
-142.6119
 20
16.8021
 30
0.0
 10
-140.8964
 20
18.723
 30
0.0
 10
-137.5467
 20
18.1496
 30
0.0
 10
-136.6912
 20
15.4258
 30
0.0
 10
-136.6912
 20
15.4258
 30
0.0
 10
-134.3258
 20
17.7195
 30
0.0
 10
-128.6627
 20
21.5724
 30
0.0
 10
-128.4876
 20
26.898
 30
0.0
 10
-128.4876
 20
26.898
 30
0.0
 10
-128.4044
 20
29.4327
 30
0.0
 10
-129.8888
 20
32.0193
 30
0.0
 10
-133.1981
 20
32.1258
 30
0.0
 10
-133.1981
 20
32.1258
 30
0.0
 10
-135.1001
 20
32.1868
 30
0.0
 10
-137.1632
 20
31.3692
 30
0.0
 10
-137.6973
 20
29.7105
 30
0.0
 10
-137.6973
 20
29.7105
 30
0.0
 10
-137.758
 20
29.522
 30
0.0
 10
-137.6162
 20
29.3455
 30
0.0
 10
-137.3678
 20
29.4035
 30
0.0
 10
-137.3678
 20
29.4035
 30
0.0
 10
-135.001
 20
29.9564
 30
0.0
 10
-132.7071
 20
28.5615
 30
0.0
 10
-132.7614
 20
25.347
 30
0.0
 10
-132.7614
 20
25.347
 30
0.0
 10
-132.807
 20
22.6413
 30
0.0
 10
-135.0337
 20
20.9229
 30
0.0
 10
-137.8352
 20
20.8939
 30
0.0
 10
-137.8352
 20
20.8939
 30
0.0
 10
-140.1108
 20
20.8704
 30
0.0
 10
-142.0762
 20
22.608
 30
0.0
 10
-142.6119
 20
24.4573
 30
0.0
 10
-142.6119
 20
24.4573
 30
0.0
 10
-143.1476
 20
22.608
 30
0.0
 10
-145.113
 20
20.8704
 30
0.0
 10
-147.3886
 20
20.8939
 30
0.0
 10
-147.3886
 20
20.8939
 30
0.0
 10
-150.1901
 20
20.9229
 30
0.0
 10
-152.4167
 20
22.6413
 30
0.0
 10
-152.4624
 20
25.347
 30
0.0
 10
-152.4624
 20
25.347
 30
0.0
 10
-152.5166
 20
28.5615
 30
0.0
 10
-150.2228
 20
29.9564
 30
0.0
 10
-147.856
 20
29.4035
 30
0.0
 10
-147.856
 20
29.4035
 30
0.0
 10
-147.6075
 20
29.3455
 30
0.0
 10
-147.4658
 20
29.522
 30
0.0
 10
-147.5265
 20
29.7105
 30
0.0
 10
-147.5265
 20
29.7105
 30
0.0
 10
-148.0606
 20
31.3692
 30
0.0
 10
-150.1237
 20
32.1868
 30
0.0
 10
-152.0256
 20
32.1258
 30
0.0
 10
-152.0256
 20
32.1258
 30
0.0
 10
-155.3349
 20
32.0193
 30
0.0
 10
-156.8194
 20
29.4327
 30
0.0
 10
-156.7361
 20
26.898
 30
0.0
 10
-156.7361
 20
26.898
 30
0.0
 10
-156.5611
 20
21.5724
 30
0.0
 10
-150.8979
 20
17.7195
 30
0.0
 10
-148.5325
 20
15.4258
 30
0.0
 10
-148.5325
 20
15.4258
 30
0.0
 10
-147.6771
 20
18.1496
 30
0.0
 10
-144.3274
 20
18.723
 30
0.0
 10
-142.6119
 20
16.8021
 30
0.0
  0
SPLINE
  5
43
330
1F
100
AcDbEntity
  8
layer 1
 62
   250
100
AcDbSpline
210
0.0
220
0.0
230
1.0
 70
    11
 71
     3
 72
   132
 73
   128
 74
     0
 42
0.0000000001
 43
0.0000000001
 12
1.0
 22
0.0
 32
0.0
 13
1.0
 23
0.0
 33
0.0
 40
0.0
 40
0.0
 40
0.0
 40
0.0
 40
0.0303030303030303
 40
0.0303030303030303
 40
0.0303030303030303
 40
0.0303030303030303
 40
0.0606060606060606
 40
0.0606060606060606
 40
0.0606060606060606
 40
0.0606060606060606
 40
0.0909090909090909
 40
0.0909090909090909
 40
0.0909090909090909
 40
0.0909090909090909
 40
0.1212121212121212
 40
0.1212121212121212
 40
0.1212121212121212
 40
0.1212121212121212
 40
0.1515151515151515
 40
0.1515151515151515
 40
0.1515151515151515
 40
0.1515151515151515
 40
0.1818181818181818
 40
0.1818181818181818
 40
0.1818181818181818
 40
0.1818181818181818
 40
0.2121212121212121
 40
0.2121212121212121
 40
0.2121212121212121
 40
0.2121212121212121
 40
0.2424242424242424
 40
0.2424242424242424
 40
0.2424242424242424
 40
0.2424242424242424
 40
0.2727272727272727
 40
0.2727272727272727
 40
0.2727272727272727
 40
0.2727272727272727
 40
0.303030303030303
 40
0.303030303030303
 40
0.303030303030303
 40
0.303030303030303
 40
0.3333333333333333
 40
0.3333333333333333
 40
0.3333333333333333
 40
0.3333333333333333
 40
0.3636363636363636
 40
0.3636363636363636
 40
0.3636363636363636
 40
0.3636363636363636
 40
0.3939393939393939
 40
0.3939393939393939
 40
0.3939393939393939
 40
0.3939393939393939
 40
0.4242424242424243
 40
0.4242424242424243
 40
0.4242424242424243
 40
0.4242424242424243
 40
0.4545454545454545
 40
0.4545454545454545
 40
0.4545454545454545
 40
0.4545454545454545
 40
0.4848484848484849
 40
0.4848484848484849
 40
0.4848484848484849
 40
0.4848484848484849
 40
0.5151515151515151
 40
0.5151515151515151
 40
0.5151515151515151
 40
0.5151515151515151
 40
0.5454545454545454
 40
0.5454545454545454
 40
0.5454545454545454
 40
0.5454545454545454
 40
0.5757575757575758
 40
0.5757575757575758
 40
0.5757575757575758
 40
0.5757575757575758
 40
0.6060606060606061
 40
0.6060606060606061
 40
0.6060606060606061
 40
0.6060606060606061
 40
0.6363636363636364
 40
0.6363636363636364
 40
0.6363636363636364
 40
0.6363636363636364
 40
0.6666666666666666
 40
0.6666666666666666
 40
0.6666666666666666
 40
0.6666666666666666
 40
0.696969696969697
 40
0.696969696969697
 40
0.696969696969697
 40
0.696969696969697
 40
0.7272727272727273
 40
0.7272727272727273
 40
0.7272727272727273
 40
0.7272727272727273
 40
0.7575757575757576
 40
0.7575757575757576
 40
0.7575757575757576
 40
0.7575757575757576
 40
0.7878787878787878
 40
0.7878787878787878
 40
0.7878787878787878
 40
0.7878787878787878
 40
0.8181818181818182
 40
0.8181818181818182
 40
0.8181818181818182
 40
0.8181818181818182
 40
0.8484848484848485
 40
0.8484848484848485
 40
0.8484848484848485
 40
0.8484848484848485
 40
0.8787878787878788
 40
0.8787878787878788
 40
0.8787878787878788
 40
0.8787878787878788
 40
0.9090909090909091
 40
0.9090909090909091
 40
0.9090909090909091
 40
0.9090909090909091
 40
0.9393939393939394
 40
0.9393939393939394
 40
0.9393939393939394
 40
0.9393939393939394
 40
1.0
 40
1.0
 40
1.0
 40
1.0
 10
-142.6119
 20
31.0636
 30
0.0
 10
-141.3085
 20
34.2151
 30
0.0
 10
-137.2622
 20
36.4523
 30
0.0
 10
-133.6243
 20
36.4241
 30
0.0
 10
-133.6243
 20
36.4241
 30
0.0
 10
-129.5084
 20
36.392
 30
0.0
 10
-125.4019
 20
34.4653
 30
0.0
 10
-124.1574
 20
29.0614
 30
0.0
 10
-124.1574
 20
29.0614
 30
0.0
 10
-124.0128
 20
28.4336
 30
0.0
 10
-123.5357
 20
28.426
 30
0.0
 10
-123.3158
 20
28.9448
 30
0.0
 10
-123.3158
 20
28.9448
 30
0.0
 10
-122.0394
 20
31.9568
 30
0.0
 10
-121.8858
 20
34.4597
 30
0.0
 10
-122.3434
 20
37.8838
 30
0.0
 10
-122.3434
 20
37.8838
 30
0.0
 10
-121.5881
 20
37.1202
 30
0.0
 10
-120.9584
 20
36.0247
 30
0.0
 10
-120.5143
 20
34.4653
 30
0.0
 10
-120.5143
 20
34.4653
 30
0.0
 10
-120.3929
 20
34.0386
 30
0.0
 10
-119.9147
 20
33.8263
 30
0.0
 10
-119.6798
 20
34.2363
 30
0.0
 10
-119.6798
 20
34.2363
 30
0.0
 10
-117.277
 20
38.4312
 30
0.0
 10
-116.1179
 20
42.2405
 30
0.0
 10
-116.2443
 20
45.9331
 30
0.0
 10
-116.2443
 20
45.9331
 30
0.0
 10
-116.4302
 20
51.3663
 30
0.0
 10
-119.2569
 20
56.6091
 30
0.0
 10
-127.4613
 20
56.6979
 30
0.0
 10
-127.4613
 20
56.6979
 30
0.0
 10
-131.4151
 20
56.7407
 30
0.0
 10
-133.6053
 20
54.4241
 30
0.0
 10
-134.0359
 20
52.4085
 30
0.0
 10
-134.0359
 20
52.4085
 30
0.0
 10
-134.5239
 20
50.1242
 30
0.0
 10
-133.2857
 20
47.1482
 30
0.0
 10
-130.3868
 20
47.1326
 30
0.0
 10
-130.3868
 20
47.1326
 30
0.0
 10
-127.8315
 20
47.1188
 30
0.0
 10
-126.1565
 20
48.7893
 30
0.0
 10
-125.7674
 20
51.8959
 30
0.0
 10
-125.7674
 20
51.8959
 30
0.0
 10
-123.3565
 20
49.6437
 30
0.0
 10
-122.9176
 20
46.6649
 30
0.0
 10
-123.1102
 20
44.8122
 30
0.0
 10
-123.1102
 20
44.8122
 30
0.0
 10
-123.6023
 20
40.0784
 30
0.0
 10
-129.9043
 20
38.7682
 30
0.0
 10
-132.5626
 20
41.6602
 30
0.0
 10
-132.5626
 20
41.6602
 30
0.0
 10
-133.9079
 20
40.1415
 30
0.0
 10
-137.0835
 20
39.4693
 30
0.0
 10
-139.6158
 20
41.5314
 30
0.0
 10
-139.6158
 20
41.5314
 30
0.0
 10
-142.0339
 20
43.5005
 30
0.0
 10
-140.7653
 20
47.838
 30
0.0
 10
-138.8416
 20
49.1434
 30
0.0
 10
-138.8416
 20
49.1434
 30
0.0
 10
-140.2705
 20
49.6595
 30
0.0
 10
-141.7517
 20
50.9497
 30
0.0
 10
-142.6119
 20
52.2399
 30
0.0
 10
-142.6119
 20
52.2399
 30
0.0
 10
-143.472
 20
50.9497
 30
0.0
 10
-144.9533
 20
49.6595
 30
0.0
 10
-146.3822
 20
49.1434
 30
0.0
 10
-146.3822
 20
49.1434
 30
0.0
 10
-144.4585
 20
47.838
 30
0.0
 10
-143.1899
 20
43.5005
 30
0.0
 10
-145.6079
 20
41.5314
 30
0.0
 10
-145.6079
 20
41.5314
 30
0.0
 10
-148.1403
 20
39.4693
 30
0.0
 10
-151.3159
 20
40.1415
 30
0.0
 10
-152.6612
 20
41.6602
 30
0.0
 10
-152.6612
 20
41.6602
 30
0.0
 10
-155.3195
 20
38.7682
 30
0.0
 10
-161.6215
 20
40.0784
 30
0.0
 10
-162.1136
 20
44.8122
 30
0.0
 10
-162.1136
 20
44.8122
 30
0.0
 10
-162.3061
 20
46.6649
 30
0.0
 10
-161.8673
 20
49.6437
 30
0.0
 10
-159.4563
 20
51.8959
 30
0.0
 10
-159.4563
 20
51.8959
 30
0.0
 10
-159.0673
 20
48.7893
 30
0.0
 10
-157.3922
 20
47.1188
 30
0.0
 10
-154.837
 20
47.1326
 30
0.0
 10
-154.837
 20
47.1326
 30
0.0
 10
-151.938
 20
47.1482
 30
0.0
 10
-150.6999
 20
50.1242
 30
0.0
 10
-151.1879
 20
52.4085
 30
0.0
 10
-151.1879
 20
52.4085
 30
0.0
 10
-151.6185
 20
54.4241
 30
0.0
 10
-153.8086
 20
56.7407
 30
0.0
 10
-157.7625
 20
56.6979
 30
0.0
 10
-157.7625
 20
56.6979
 30
0.0
 10
-165.9669
 20
56.6091
 30
0.0
 10
-168.7936
 20
51.3663
 30
0.0
 10
-168.9795
 20
45.9331
 30
0.0
 10
-168.9795
 20
45.9331
 30
0.0
 10
-169.1058
 20
42.2405
 30
0.0
 10
-167.9468
 20
38.4312
 30
0.0
 10
-165.544
 20
34.2363
 30
0.0
 10
-165.544
 20
34.2363
 30
0.0
 10
-165.3091
 20
33.8263
 30
0.0
 10
-164.8309
 20
34.0386
 30
0.0
 10
-164.7095
 20
34.4653
 30
0.0
 10
-164.7095
 20
34.4653
 30
0.0
 10
-164.2654
 20
36.0247
 30
0.0
 10
-163.6357
 20
37.1202
 30
0.0
 10
-162.8803
 20
37.8838
 30
0.0
 10
-162.8803
 20
37.8838
 30
0.0
 10
-163.338
 20
34.4597
 30
0.0
 10
-163.1844
 20
31.9568
 30
0.0
 10
-161.908
 20
28.9448
 30
0.0
 10
-161.908
 20
28.9448
 30
0.0
 10
-161.6881
 20
28.426
 30
0.0
 10
-161.211
 20
28.4336
 30
0.0
 10
-161.0664
 20
29.0614
 30
0.0
 10
-161.0664
 20
29.0614
 30
0.0
 10
-159.8219
 20
34.4653
 30
0.0
 10
-155.7154
 20
36.392
 30
0.0
 10
-151.5995
 20
36.4241
 30
0.0
 10
-151.5995
 20
36.4241
 30
0.0
 10
-147.9616
 20
36.4523
 30
0.0
 10
-143.9153
 20
34.2151
 30
0.0
 10
-142.6119
 20
31.0636
 30
0.0
  0
SPLINE
  5
44
330
1F
100
AcDbEntity
  8
layer 1
 62
   250
100
AcDbSpline
210
0.0
220
0.0
230
1.0
 70
    11
 71
     3
 72
    20
 73
    16
 74
     0
 42
0.0000000001
 43
0.0000000001
 12
1.0
 22
0.0
 32
0.0
 13
1.0
 23
0.0
 33
0.0
 40
0.0
 40
0.0
 40
0.0
 40
0.0
 40
0.2
 40
0.2
 40
0.2
 40
0.2
 40
0.4
 40
0.4
 40
0.4
 40
0.4
 40
0.6
 40
0.6
 40
0.6
 40
0.6
 40
1.0
 40
1.0
 40
1.0
 40
1.0
 10
-142.6119
 20
55.6868
 30
0.0
 10
-139.3335
 20
57.3266
 30
0.0
 10
-135.3652
 20
61.4398
 30
0.0
 10
-135.2507
 20
64.9975
 30
0.0
 10
-135.2507
 20
64.9975
 30
0.0
 10
-135.046
 20
71.3566
 30
0.0
 10
-140.2756
 20
71.4966
 30
0.0
 10
-142.6119
 20
69.5697
 30
0.0
 10
-142.6119
 20
69.5697
 30
0.0
 10
-144.9482
 20
71.4966
 30
0.0
 10
-150.1778
 20
71.3566
 30
0.0
 10
-149.973
 20
64.9975
 30
0.0
 10
-149.973
 20
64.9975
 30
0.0
 10
-149.8586
 20
61.4398
 30
0.0
 10
-145.8903
 20
57.3266
 30
0.0
 10
-142.6119
 20
55.6868
 30
0.0
  0
SPLINE
  5
45
330
1F
100
AcDbEntity
  8
layer 1
 62
   250
100
AcDbSpline
210
0.0
220
0.0
230
1.0
 70
    11
 71
     3
 72
    92
 73
    88
 74
     0
 42
0.0000000001
 43
0.0000000001
 12
1.0
 22
0.0
 32
0.0
 13
1.0
 23
0.0
 33
0.0
 40
0.0
 40
0.0
 40
0.0
 40
0.0
 40
0.0434782608695652
 40
0.0434782608695652
 40
0.0434782608695652
 40
0.0434782608695652
 40
0.0869565217391304
 40
0.0869565217391304
 40
0.0869565217391304
 40
0.0869565217391304
 40
0.1304347826086956
 40
0.1304347826086956
 40
0.1304347826086956
 40
0.1304347826086956
 40
0.1739130434782609
 40
0.1739130434782609
 40
0.1739130434782609
 40
0.1739130434782609
 40
0.2173913043478261
 40
0.2173913043478261
 40
0.2173913043478261
 40
0.2173913043478261
 40
0.2608695652173913
 40
0.2608695652173913
 40
0.2608695652173913
 40
0.2608695652173913
 40
0.3043478260869565
 40
0.3043478260869565
 40
0.3043478260869565
 40
0.3043478260869565
 40
0.3478260869565217
 40
0.3478260869565217
 40
0.3478260869565217
 40
0.3478260869565217
 40
0.391304347826087
 40
0.391304347826087
 40
0.391304347826087
 40
0.391304347826087
 40
0.4347826086956522
 40
0.4347826086956522
 40
0.4347826086956522
 40
0.4347826086956522
 40
0.4782608695652174
 40
0.4782608695652174
 40
0.4782608695652174
 40
0.4782608695652174
 40
0.5217391304347826
 40
0.5217391304347826
 40
0.5217391304347826
 40
0.5217391304347826
 40
0.5652173913043478
 40
0.5652173913043478
 40
0.5652173913043478
 40
0.5652173913043478
 40
0.6086956521739131
 40
0.6086956521739131
 40
0.6086956521739131
 40
0.6086956521739131
 40
0.6521739130434783
 40
0.6521739130434783
 40
0.6521739130434783
 40
0.6521739130434783
 40
0.6956521739130435
 40
0.6956521739130435
 40
0.6956521739130435
 40
0.6956521739130435
 40
0.7391304347826086
 40
0.7391304347826086
 40
0.7391304347826086
 40
0.7391304347826086
 40
0.782608695652174
 40
0.782608695652174
 40
0.782608695652174
 40
0.782608695652174
 40
0.8260869565217391
 40
0.8260869565217391
 40
0.8260869565217391
 40
0.8260869565217391
 40
0.8695652173913043
 40
0.8695652173913043
 40
0.8695652173913043
 40
0.8695652173913043
 40
0.9130434782608695
 40
0.9130434782608695
 40
0.9130434782608695
 40
0.9130434782608695
 40
1.0
 40
1.0
 40
1.0
 40
1.0
 10
-142.6119
 20
74.6078
 30
0.0
 10
-140.9719
 20
77.346
 30
0.0
 10
-134.5911
 20
76.9304
 30
0.0
 10
-133.4151
 20
72.135
 30
0.0
 10
-133.4151
 20
72.135
 30
0.0
 10
-129.8979
 20
76.6635
 30
0.0
 10
-126.074
 20
81.0265
 30
0.0
 10
-125.9961
 20
85.0293
 30
0.0
 10
-125.9961
 20
85.0293
 30
0.0
 10
-125.9172
 20
89.0859
 30
0.0
 10
-128.352
 20
91.9011
 30
0.0
 10
-131.0209
 20
92.4897
 30
0.0
 10
-131.0209
 20
92.4897
 30
0.0
 10
-133.8766
 20
93.1194
 30
0.0
 10
-136.729
 20
92.6171
 30
0.0
 10
-138.4397
 20
89.7015
 30
0.0
 10
-138.4397
 20
89.7015
 30
0.0
 10
-139.0463
 20
88.6679
 30
0.0
 10
-139.4002
 20
86.4595
 30
0.0
 10
-138.2955
 20
84.5641
 30
0.0
 10
-138.2955
 20
84.5641
 30
0.0
 10
-138.1928
 20
84.3878
 30
0.0
 10
-137.9359
 20
84.4774
 30
0.0
 10
-137.9522
 20
84.6732
 30
0.0
 10
-137.9522
 20
84.6732
 30
0.0
 10
-138.0396
 20
85.7193
 30
0.0
 10
-137.7308
 20
86.6227
 30
0.0
 10
-137.304
 20
87.2891
 30
0.0
 10
-137.304
 20
87.2891
 30
0.0
 10
-136.5393
 20
88.4829
 30
0.0
 10
-134.6865
 20
89.2913
 30
0.0
 10
-133.0351
 20
88.813
 30
0.0
 10
-133.0351
 20
88.813
 30
0.0
 10
-130.8285
 20
88.1738
 30
0.0
 10
-130.0536
 20
86.2393
 30
0.0
 10
-130.4815
 20
83.8701
 30
0.0
 10
-130.4815
 20
83.8701
 30
0.0
 10
-130.9514
 20
81.2686
 30
0.0
 10
-132.7932
 20
79.787
 30
0.0
 10
-135.6192
 20
79.658
 30
0.0
 10
-135.6192
 20
79.658
 30
0.0
 10
-138.6379
 20
79.5201
 30
0.0
 10
-141.8159
 20
81.2154
 30
0.0
 10
-142.6119
 20
84.0574
 30
0.0
 10
-142.6119
 20
84.0574
 30
0.0
 10
-143.4079
 20
81.2154
 30
0.0
 10
-146.5859
 20
79.5201
 30
0.0
 10
-149.6046
 20
79.658
 30
0.0
 10
-149.6046
 20
79.658
 30
0.0
 10
-152.4306
 20
79.787
 30
0.0
 10
-154.2724
 20
81.2686
 30
0.0
 10
-154.7422
 20
83.8701
 30
0.0
 10
-154.7422
 20
83.8701
 30
0.0
 10
-155.1702
 20
86.2393
 30
0.0
 10
-154.3953
 20
88.1738
 30
0.0
 10
-152.1887
 20
88.813
 30
0.0
 10
-152.1887
 20
88.813
 30
0.0
 10
-150.5373
 20
89.2913
 30
0.0
 10
-148.6845
 20
88.4829
 30
0.0
 10
-147.9198
 20
87.2891
 30
0.0
 10
-147.9198
 20
87.2891
 30
0.0
 10
-147.493
 20
86.6227
 30
0.0
 10
-147.1842
 20
85.7193
 30
0.0
 10
-147.2716
 20
84.6732
 30
0.0
 10
-147.2716
 20
84.6732
 30
0.0
 10
-147.2879
 20
84.4774
 30
0.0
 10
-147.031
 20
84.3878
 30
0.0
 10
-146.9283
 20
84.5641
 30
0.0
 10
-146.9283
 20
84.5641
 30
0.0
 10
-145.8235
 20
86.4595
 30
0.0
 10
-146.1774
 20
88.6679
 30
0.0
 10
-146.784
 20
89.7015
 30
0.0
 10
-146.784
 20
89.7015
 30
0.0
 10
-148.4948
 20
92.6171
 30
0.0
 10
-151.3471
 20
93.1194
 30
0.0
 10
-154.2029
 20
92.4897
 30
0.0
 10
-154.2029
 20
92.4897
 30
0.0
 10
-156.8718
 20
91.9011
 30
0.0
 10
-159.3066
 20
89.0859
 30
0.0
 10
-159.2276
 20
85.0293
 30
0.0
 10
-159.2276
 20
85.0293
 30
0.0
 10
-159.1498
 20
81.0265
 30
0.0
 10
-155.3259
 20
76.6635
 30
0.0
 10
-151.8087
 20
72.135
 30
0.0
 10
-151.8087
 20
72.135
 30
0.0
 10
-150.6327
 20
76.9304
 30
0.0
 10
-144.2519
 20
77.346
 30
0.0
 10
-142.6119
 20
74.6078
 30
0.0
  0
SPLINE
  5
46
330
1F
100
AcDbEntity
  8
layer 1
 62
   250
100
AcDbSpline
210
0.0
220
0.0
230
1.0
 70
    11
 71
     3
 72
    48
 73
    44
 74
     0
 42
0.0000000001
 43
0.0000000001
 12
1.0
 22
0.0
 32
0.0
 13
1.0
 23
0.0
 33
0.0
 40
0.0
 40
0.0
 40
0.0
 40
0.0
 40
0.0833333333333333
 40
0.0833333333333333
 40
0.0833333333333333
 40
0.0833333333333333
 40
0.1666666666666667
 40
0.1666666666666667
 40
0.1666666666666667
 40
0.1666666666666667
 40
0.25
 40
0.25
 40
0.25
 40
0.25
 40
0.3333333333333333
 40
0.3333333333333333
 40
0.3333333333333333
 40
0.3333333333333333
 40
0.4166666666666667
 40
0.4166666666666667
 40
0.4166666666666667
 40
0.4166666666666667
 40
0.5
 40
0.5
 40
0.5
 40
0.5
 40
0.5833333333333334
 40
0.5833333333333334
 40
0.5833333333333334
 40
0.5833333333333334
 40
0.6666666666666666
 40
0.6666666666666666
 40
0.6666666666666666
 40
0.6666666666666666
 40
0.75
 40
0.75
 40
0.75
 40
0.75
 40
0.8333333333333334
 40
0.8333333333333334
 40
0.8333333333333334
 40
0.8333333333333334
 40
1.0
 40
1.0
 40
1.0
 40
1.0
 10
-126.8633
 20
61.0832
 30
0.0
 10
-117.3571
 20
60.1773
 30
0.0
 10
-112.1136
 20
54.2747
 30
0.0
 10
-112.3952
 20
45.3345
 30
0.0
 10
-112.3952
 20
45.3345
 30
0.0
 10
-112.5804
 20
39.4579
 30
0.0
 10
-115.4747
 20
34.396
 30
0.0
 10
-118.4206
 20
29.7955
 30
0.0
 10
-118.4206
 20
29.7955
 30
0.0
 10
-114.7699
 20
31.3404
 30
0.0
 10
-111.9579
 20
31.9465
 30
0.0
 10
-108.8084
 20
34.9624
 30
0.0
 10
-108.8084
 20
34.9624
 30
0.0
 10
-109.8071
 20
35.581
 30
0.0
 10
-110.5295
 20
36.2645
 30
0.0
 10
-111.0923
 20
37.1412
 30
0.0
 10
-111.0923
 20
37.1412
 30
0.0
 10
-108.9887
 20
38.5517
 30
0.0
 10
-107.1654
 20
40.764
 30
0.0
 10
-105.8918
 20
43.7452
 30
0.0
 10
-105.8918
 20
43.7452
 30
0.0
 10
-106.8835
 20
44.0064
 30
0.0
 10
-108.1957
 20
44.5221
 30
0.0
 10
-109.1274
 20
45.018
 30
0.0
 10
-109.1274
 20
45.018
 30
0.0
 10
-107.7113
 20
46.7689
 30
0.0
 10
-107.0204
 20
49.82
 30
0.0
 10
-106.7296
 20
53.2247
 30
0.0
 10
-106.7296
 20
53.2247
 30
0.0
 10
-107.9347
 20
52.6887
 30
0.0
 10
-108.806
 20
52.5759
 30
0.0
 10
-110.0413
 20
52.5973
 30
0.0
 10
-110.0413
 20
52.5973
 30
0.0
 10
-109.7521
 20
55.3938
 30
0.0
 10
-110.1607
 20
58.1147
 30
0.0
 10
-111.1066
 20
60.8557
 30
0.0
 10
-111.1066
 20
60.8557
 30
0.0
 10
-111.8669
 20
60.2478
 30
0.0
 10
-113.1302
 20
59.6158
 30
0.0
 10
-114.1353
 20
59.4958
 30
0.0
 10
-114.1353
 20
59.4958
 30
0.0
 10
-116.7819
 20
61.6923
 30
0.0
 10
-124.8214
 20
65.6407
 30
0.0
 10
-126.8633
 20
61.0832
 30
0.0
  0
SPLINE
  5
47
330
1F
100
AcDbEntity
  8
layer 1
 62
   250
100
AcDbSpline
210
0.0
220
0.0
230
1.0
 70
    11
 71
     3
 72
    44
 73
    40
 74
     0
 42
0.0000000001
 43
0.0000000001
 12
1.0
 22
0.0
 32
0.0
 13
1.0
 23
0.0
 33
0.0
 40
0.0
 40
0.0
 40
0.0
 40
0.0
 40
0.0909090909090909
 40
0.0909090909090909
 40
0.0909090909090909
 40
0.0909090909090909
 40
0.1818181818181818
 40
0.1818181818181818
 40
0.1818181818181818
 40
0.1818181818181818
 40
0.2727272727272727
 40
0.2727272727272727
 40
0.2727272727272727
 40
0.2727272727272727
 40
0.3636363636363636
 40
0.3636363636363636
 40
0.3636363636363636
 40
0.3636363636363636
 40
0.4545454545454545
 40
0.4545454545454545
 40
0.4545454545454545
 40
0.4545454545454545
 40
0.5454545454545454
 40
0.5454545454545454
 40
0.5454545454545454
 40
0.5454545454545454
 40
0.6363636363636364
 40
0.6363636363636364
 40
0.6363636363636364
 40
0.6363636363636364
 40
0.7272727272727273
 40
0.7272727272727273
 40
0.7272727272727273
 40
0.7272727272727273
 40
0.8181818181818182
 40
0.8181818181818182
 40
0.8181818181818182
 40
0.8181818181818182
 40
1.0
 40
1.0
 40
1.0
 40
1.0
 10
-121.3323
 20
8.5886
 30
0.0
 10
-123.8397
 20
9.9079
 30
0.0
 10
-123.834
 20
14.6676
 30
0.0
 10
-120.476
 20
15.7888
 30
0.0
 10
-120.476
 20
15.7888
 30
0.0
 10
-120.1318
 20
15.9037
 30
0.0
 10
-120.1805
 20
16.2071
 30
0.0
 10
-120.4508
 20
16.3568
 30
0.0
 10
-120.4508
 20
16.3568
 30
0.0
 10
-124.539
 20
18.6203
 30
0.0
 10
-129.4594
 20
14.8022
 30
0.0
 10
-131.9814
 20
12.4677
 30
0.0
 10
-131.9814
 20
12.4677
 30
0.0
 10
-132.4802
 20
12.006
 30
0.0
 10
-132.3415
 20
11.1014
 30
0.0
 10
-131.5556
 20
11.3496
 30
0.0
 10
-131.5556
 20
11.3496
 30
0.0
 10
-128.5876
 20
12.2869
 30
0.0
 10
-125.5159
 20
11.4836
 30
0.0
 10
-125.8122
 20
8.5886
 30
0.0
 10
-125.8122
 20
8.5886
 30
0.0
 10
-125.5159
 20
5.6936
 30
0.0
 10
-128.5876
 20
4.8903
 30
0.0
 10
-131.5556
 20
5.8276
 30
0.0
 10
-131.5556
 20
5.8276
 30
0.0
 10
-132.3415
 20
6.0758
 30
0.0
 10
-132.4802
 20
5.1712
 30
0.0
 10
-131.9814
 20
4.7094
 30
0.0
 10
-131.9814
 20
4.7094
 30
0.0
 10
-129.4594
 20
2.375
 30
0.0
 10
-124.539
 20
-1.4432
 30
0.0
 10
-120.4508
 20
0.8204
 30
0.0
 10
-120.4508
 20
0.8204
 30
0.0
 10
-120.1805
 20
0.9701
 30
0.0
 10
-120.1318
 20
1.2735
 30
0.0
 10
-120.476
 20
1.3884
 30
0.0
 10
-120.476
 20
1.3884
 30
0.0
 10
-123.834
 20
2.5096
 30
0.0
 10
-123.8397
 20
7.2693
 30
0.0
 10
-121.3323
 20
8.5886
 30
0.0
  0
SPLINE
  5
48
330
1F
100
AcDbEntity
  8
layer 1
 62
   250
100
AcDbSpline
210
0.0
220
0.0
230
1.0
 70
    11
 71
     3
 72
    44
 73
    40
 74
     0
 42
0.0000000001
 43
0.0000000001
 12
1.0
 22
0.0
 32
0.0
 13
1.0
 23
0.0
 33
0.0
 40
0.0
 40
0.0
 40
0.0
 40
0.0
 40
0.0909090909090909
 40
0.0909090909090909
 40
0.0909090909090909
 40
0.0909090909090909
 40
0.1818181818181818
 40
0.1818181818181818
 40
0.1818181818181818
 40
0.1818181818181818
 40
0.2727272727272727
 40
0.2727272727272727
 40
0.2727272727272727
 40
0.2727272727272727
 40
0.3636363636363636
 40
0.3636363636363636
 40
0.3636363636363636
 40
0.3636363636363636
 40
0.4545454545454545
 40
0.4545454545454545
 40
0.4545454545454545
 40
0.4545454545454545
 40
0.5454545454545454
 40
0.5454545454545454
 40
0.5454545454545454
 40
0.5454545454545454
 40
0.6363636363636364
 40
0.6363636363636364
 40
0.6363636363636364
 40
0.6363636363636364
 40
0.7272727272727273
 40
0.7272727272727273
 40
0.7272727272727273
 40
0.7272727272727273
 40
0.8181818181818182
 40
0.8181818181818182
 40
0.8181818181818182
 40
0.8181818181818182
 40
1.0
 40
1.0
 40
1.0
 40
1.0
 10
-109.8321
 20
8.5886
 30
0.0
 10
-110.7331
 20
8.9791
 30
0.0
 10
-111.4876
 20
10.5315
 30
0.0
 10
-111.4869
 20
12.1955
 30
0.0
 10
-111.4869
 20
12.1955
 30
0.0
 10
-111.4862
 20
14.0814
 30
0.0
 10
-110.2953
 20
16.7095
 30
0.0
 10
-107.3033
 20
16.3706
 30
0.0
 10
-107.3033
 20
16.3706
 30
0.0
 10
-108.76
 20
21.6315
 30
0.0
 10
-115.51
 20
22.2638
 30
0.0
 10
-120.3421
 20
20.2553
 30
0.0
 10
-120.3421
 20
20.2553
 30
0.0
 10
-120.686
 20
20.1124
 30
0.0
 10
-120.4099
 20
19.7986
 30
0.0
 10
-120.1391
 20
19.7666
 30
0.0
 10
-120.1391
 20
19.7666
 30
0.0
 10
-115.4371
 20
19.2108
 30
0.0
 10
-110.6801
 20
13.3961
 30
0.0
 10
-114.6606
 20
8.5886
 30
0.0
 10
-114.6606
 20
8.5886
 30
0.0
 10
-110.6801
 20
3.7811
 30
0.0
 10
-115.4371
 20
-2.0336
 30
0.0
 10
-120.1391
 20
-2.5895
 30
0.0
 10
-120.1391
 20
-2.5895
 30
0.0
 10
-120.4099
 20
-2.6214
 30
0.0
 10
-120.686
 20
-2.9352
 30
0.0
 10
-120.3421
 20
-3.0781
 30
0.0
 10
-120.3421
 20
-3.0781
 30
0.0
 10
-115.51
 20
-5.0867
 30
0.0
 10
-108.76
 20
-4.4543
 30
0.0
 10
-107.3033
 20
0.8065
 30
0.0
 10
-107.3033
 20
0.8065
 30
0.0
 10
-110.2953
 20
0.4676
 30
0.0
 10
-111.4862
 20
3.0958
 30
0.0
 10
-111.4869
 20
4.9817
 30
0.0
 10
-111.4869
 20
4.9817
 30
0.0
 10
-111.4876
 20
6.6457
 30
0.0
 10
-110.7331
 20
8.1981
 30
0.0
 10
-109.8321
 20
8.5886
 30
0.0
  0
SPLINE
  5
49
330
1F
100
AcDbEntity
  8
layer 1
 62
   250
100
AcDbSpline
210
0.0
220
0.0
230
1.0
 70
    11
 71
     3
 72
    32
 73
    28
 74
     0
 42
0.0000000001
 43
0.0000000001
 12
1.0
 22
0.0
 32
0.0
 13
1.0
 23
0.0
 33
0.0
 40
0.0
 40
0.0
 40
0.0
 40
0.0
 40
0.125
 40
0.125
 40
0.125
 40
0.125
 40
0.25
 40
0.25
 40
0.25
 40
0.25
 40
0.375
 40
0.375
 40
0.375
 40
0.375
 40
0.5
 40
0.5
 40
0.5
 40
0.5
 40
0.625
 40
0.625
 40
0.625
 40
0.625
 40
0.75
 40
0.75
 40
0.75
 40
0.75
 40
1.0
 40
1.0
 40
1.0
 40
1.0
 10
-142.6119
 20
122.7387
 30
0.0
 10
-141.4138
 20
121.9831
 30
0.0
 10
-138.725
 20
121.8052
 30
0.0
 10
-136.5472
 20
123.0126
 30
0.0
 10
-136.5472
 20
123.0126
 30
0.0
 10
-133.1852
 20
124.8767
 30
0.0
 10
-128.8552
 20
125.8874
 30
0.0
 10
-123.9605
 20
125.0204
 30
0.0
 10
-123.9605
 20
125.0204
 30
0.0
 10
-123.6621
 20
125.6348
 30
0.0
 10
-123.4371
 20
126.5127
 30
0.0
 10
-123.2476
 20
127.3062
 30
0.0
 10
-123.2476
 20
127.3062
 30
0.0
 10
-123.2476
 20
127.3062
 30
0.0
 10
-161.9762
 20
127.3062
 30
0.0
 10
-161.9762
 20
127.3062
 30
0.0
 10
-161.9762
 20
127.3062
 30
0.0
 10
-161.7867
 20
126.5127
 30
0.0
 10
-161.5617
 20
125.6348
 30
0.0
 10
-161.2633
 20
125.0204
 30
0.0
 10
-161.2633
 20
125.0204
 30
0.0
 10
-156.3686
 20
125.8874
 30
0.0
 10
-152.0386
 20
124.8767
 30
0.0
 10
-148.6766
 20
123.0126
 30
0.0
 10
-148.6766
 20
123.0126
 30
0.0
 10
-146.4988
 20
121.8052
 30
0.0
 10
-143.8099
 20
121.9831
 30
0.0
 10
-142.6119
 20
122.7387
 30
0.0
  0
SPLINE
  5
4A
330
1F
100
AcDbEntity
  8
layer 1
 62
   250
100
AcDbSpline
210
0.0
220
0.0
230
1.0
 70
    11
 71
     3
 72
    56
 73
    52
 74
     0
 42
0.0000000001
 43
0.0000000001
 12
1.0
 22
0.0
 32
0.0
 13
1.0
 23
0.0
 33
0.0
 40
0.0
 40
0.0
 40
0.0
 40
0.0
 40
0.0714285714285714
 40
0.0714285714285714
 40
0.0714285714285714
 40
0.0714285714285714
 40
0.1428571428571428
 40
0.1428571428571428
 40
0.1428571428571428
 40
0.1428571428571428
 40
0.2142857142857143
 40
0.2142857142857143
 40
0.2142857142857143
 40
0.2142857142857143
 40
0.2857142857142857
 40
0.2857142857142857
 40
0.2857142857142857
 40
0.2857142857142857
 40
0.3571428571428572
 40
0.3571428571428572
 40
0.3571428571428572
 40
0.3571428571428572
 40
0.4285714285714285
 40
0.4285714285714285
 40
0.4285714285714285
 40
0.4285714285714285
 40
0.5
 40
0.5
 40
0.5
 40
0.5
 40
0.5714285714285714
 40
0.5714285714285714
 40
0.5714285714285714
 40
0.5714285714285714
 40
0.6428571428571429
 40
0.6428571428571429
 40
0.6428571428571429
 40
0.6428571428571429
 40
0.7142857142857143
 40
0.7142857142857143
 40
0.7142857142857143
 40
0.7142857142857143
 40
0.7857142857142857
 40
0.7857142857142857
 40
0.7857142857142857
 40
0.7857142857142857
 40
0.8571428571428571
 40
0.8571428571428571
 40
0.8571428571428571
 40
0.8571428571428571
 40
1.0
 40
1.0
 40
1.0
 40
1.0
 10
-102.2927
 20
80.947
 30
0.0
 10
-102.7416
 20
83.2368
 30
0.0
 10
-104.5053
 20
84.3944
 30
0.0
 10
-105.7171
 20
84.7467
 30
0.0
 10
-105.7171
 20
84.7467
 30
0.0
 10
-105.2487
 20
85.1773
 30
0.0
 10
-104.58
 20
86.1248
 30
0.0
 10
-104.3775
 20
87.1175
 30
0.0
 10
-104.3775
 20
87.1175
 30
0.0
 10
-105.628
 20
87.9455
 30
0.0
 10
-108.5421
 20
88.5641
 30
0.0
 10
-111.0141
 20
88.3315
 30
0.0
 10
-111.0141
 20
88.3315
 30
0.0
 10
-111.6136
 20
88.2751
 30
0.0
 10
-111.866
 20
88.7852
 30
0.0
 10
-111.4485
 20
89.1315
 30
0.0
 10
-111.4485
 20
89.1315
 30
0.0
 10
-108.7302
 20
91.3862
 30
0.0
 10
-106.4503
 20
94.4916
 30
0.0
 10
-104.9043
 20
97.4864
 30
0.0
 10
-104.9043
 20
97.4864
 30
0.0
 10
-105.8635
 20
97.779
 30
0.0
 10
-106.8587
 20
98.3452
 30
0.0
 10
-107.7659
 20
99.0452
 30
0.0
 10
-107.7659
 20
99.0452
 30
0.0
 10
-106.1656
 20
101.6804
 30
0.0
 10
-104.5005
 20
105.9792
 30
0.0
 10
-104.0813
 20
109.9796
 30
0.0
 10
-104.0813
 20
109.9796
 30
0.0
 10
-105.0938
 20
110.0472
 30
0.0
 10
-106.7893
 20
110.3197
 30
0.0
 10
-107.6309
 20
110.558
 30
0.0
 10
-107.6309
 20
110.558
 30
0.0
 10
-106.809
 20
115.1993
 30
0.0
 10
-106.5173
 20
119.857
 30
0.0
 10
-108.6407
 20
124.3226
 30
0.0
 10
-108.6407
 20
124.3226
 30
0.0
 10
-109.7061
 20
123.4648
 30
0.0
 10
-111.3178
 20
122.5728
 30
0.0
 10
-112.5538
 20
122.0565
 30
0.0
 10
-112.5538
 20
122.0565
 30
0.0
 10
-113.676
 20
124.0601
 30
0.0
 10
-114.982
 20
126.0508
 30
0.0
 10
-116.8524
 20
127.3062
 30
0.0
 10
-116.8524
 20
127.3062
 30
0.0
 10
-116.8524
 20
127.3062
 30
0.0
 10
-102.2927
 20
127.3062
 30
0.0
 10
-102.2927
 20
127.3062
 30
0.0
 10
-102.2927
 20
127.3062
 30
0.0
 10
-102.2927
 20
127.3062
 30
0.0
 10
-102.2927
 20
80.947
 30
0.0
 10
-102.2927
 20
80.947
 30
0.0
  0
SPLINE
  5
4B
330
1F
100
AcDbEntity
  8
layer 1
 62
   250
100
AcDbSpline
210
0.0
220
0.0
230
1.0
 70
    11
 71
     3
 72
    96
 73
    92
 74
     0
 42
0.0000000001
 43
0.0000000001
 12
1.0
 22
0.0
 32
0.0
 13
1.0
 23
0.0
 33
0.0
 40
0.0
 40
0.0
 40
0.0
 40
0.0
 40
0.0416666666666667
 40
0.0416666666666667
 40
0.0416666666666667
 40
0.0416666666666667
 40
0.0833333333333333
 40
0.0833333333333333
 40
0.0833333333333333
 40
0.0833333333333333
 40
0.125
 40
0.125
 40
0.125
 40
0.125
 40
0.1666666666666667
 40
0.1666666666666667
 40
0.1666666666666667
 40
0.1666666666666667
 40
0.2083333333333333
 40
0.2083333333333333
 40
0.2083333333333333
 40
0.2083333333333333
 40
0.25
 40
0.25
 40
0.25
 40
0.25
 40
0.2916666666666667
 40
0.2916666666666667
 40
0.2916666666666667
 40
0.2916666666666667
 40
0.3333333333333333
 40
0.3333333333333333
 40
0.3333333333333333
 40
0.3333333333333333
 40
0.375
 40
0.375
 40
0.375
 40
0.375
 40
0.4166666666666667
 40
0.4166666666666667
 40
0.4166666666666667
 40
0.4166666666666667
 40
0.4583333333333333
 40
0.4583333333333333
 40
0.4583333333333333
 40
0.4583333333333333
 40
0.5
 40
0.5
 40
0.5
 40
0.5
 40
0.5416666666666666
 40
0.5416666666666666
 40
0.5416666666666666
 40
0.5416666666666666
 40
0.5833333333333334
 40
0.5833333333333334
 40
0.5833333333333334
 40
0.5833333333333334
 40
0.625
 40
0.625
 40
0.625
 40
0.625
 40
0.6666666666666666
 40
0.6666666666666666
 40
0.6666666666666666
 40
0.6666666666666666
 40
0.7083333333333334
 40
0.7083333333333334
 40
0.7083333333333334
 40
0.7083333333333334
 40
0.75
 40
0.75
 40
0.75
 40
0.75
 40
0.7916666666666666
 40
0.7916666666666666
 40
0.7916666666666666
 40
0.7916666666666666
 40
0.8333333333333334
 40
0.8333333333333334
 40
0.8333333333333334
 40
0.8333333333333334
 40
0.875
 40
0.875
 40
0.875
 40
0.875
 40
0.9166666666666666
 40
0.9166666666666666
 40
0.9166666666666666
 40
0.9166666666666666
 40
1.0
 40
1.0
 40
1.0
 40
1.0
 10
-104.8246
 20
74.8212
 30
0.0
 10
-103.5344
 20
74.9994
 30
0.0
 10
-102.4408
 20
75.9271
 30
0.0
 10
-102.2927
 20
77.9893
 30
0.0
 10
-102.2927
 20
77.9893
 30
0.0
 10
-102.2927
 20
77.9893
 30
0.0
 10
-102.2927
 20
45.4767
 30
0.0
 10
-102.2927
 20
45.4767
 30
0.0
 10
-102.2927
 20
45.4767
 30
0.0
 10
-103.1462
 20
45.6722
 30
0.0
 10
-104.7793
 20
46.1011
 30
0.0
 10
-105.4096
 20
46.4033
 30
0.0
 10
-105.4096
 20
46.4033
 30
0.0
 10
-104.3702
 20
49.0744
 30
0.0
 10
-103.6259
 20
54.3117
 30
0.0
 10
-103.8671
 20
56.5434
 30
0.0
 10
-103.8671
 20
56.5434
 30
0.0
 10
-104.5656
 20
56.2454
 30
0.0
 10
-105.8599
 20
55.9912
 30
0.0
 10
-106.6966
 20
56.0026
 30
0.0
 10
-106.6966
 20
56.0026
 30
0.0
 10
-106.897
 20
59.0432
 30
0.0
 10
-107.8926
 20
63.2576
 30
0.0
 10
-110.2775
 20
65.5365
 30
0.0
 10
-110.2775
 20
65.5365
 30
0.0
 10
-111.1764
 20
64.7528
 30
0.0
 10
-112.5991
 20
63.6942
 30
0.0
 10
-114.0553
 20
63.356
 30
0.0
 10
-114.0553
 20
63.356
 30
0.0
 10
-116.7696
 20
66.7904
 30
0.0
 10
-124.3737
 20
67.9174
 30
0.0
 10
-129.152
 20
65.6016
 30
0.0
 10
-129.152
 20
65.6016
 30
0.0
 10
-129.507
 20
65.4296
 30
0.0
 10
-130.0671
 20
65.9182
 30
0.0
 10
-129.6625
 20
66.2754
 30
0.0
 10
-129.6625
 20
66.2754
 30
0.0
 10
-126.9487
 20
68.67
 30
0.0
 10
-123.6961
 20
69.876
 30
0.0
 10
-120.7611
 20
70.3777
 30
0.0
 10
-120.7611
 20
70.3777
 30
0.0
 10
-121.7767
 20
71.034
 30
0.0
 10
-123.2641
 20
71.4235
 30
0.0
 10
-125.0457
 20
71.8947
 30
0.0
 10
-125.0457
 20
71.8947
 30
0.0
 10
-125.1943
 20
71.9341
 30
0.0
 10
-125.4078
 20
72.3332
 30
0.0
 10
-125.1793
 20
72.6553
 30
0.0
 10
-125.1793
 20
72.6553
 30
0.0
 10
-122.0594
 20
77.0537
 30
0.0
 10
-116.3295
 20
82.8702
 30
0.0
 10
-113.1649
 20
82.469
 30
0.0
 10
-113.1649
 20
82.469
 30
0.0
 10
-112.1499
 20
82.3404
 30
0.0
 10
-110.6134
 20
82.1052
 30
0.0
 10
-110.8696
 20
79.367
 30
0.0
 10
-110.8696
 20
79.367
 30
0.0
 10
-111.0641
 20
77.2882
 30
0.0
 10
-114.1065
 20
76.1323
 30
0.0
 10
-116.1838
 20
78.2445
 30
0.0
 10
-116.1838
 20
78.2445
 30
0.0
 10
-118.2581
 20
76.0137
 30
0.0
 10
-116.587
 20
71.805
 30
0.0
 10
-113.7414
 20
71.8725
 30
0.0
 10
-113.7414
 20
71.8725
 30
0.0
 10
-111.9936
 20
71.9138
 30
0.0
 10
-111.166
 20
72.6538
 30
0.0
 10
-110.6146
 20
73.5121
 30
0.0
 10
-110.6146
 20
73.5121
 30
0.0
 10
-110.3621
 20
73.9052
 30
0.0
 10
-109.4124
 20
73.6662
 30
0.0
 10
-109.9659
 20
72.7912
 30
0.0
 10
-109.9659
 20
72.7912
 30
0.0
 10
-110.4805
 20
71.9774
 30
0.0
 10
-111.048
 20
71.1935
 30
0.0
 10
-111.0406
 20
70.2972
 30
0.0
 10
-111.0406
 20
70.2972
 30
0.0
 10
-111.0225
 20
68.081
 30
0.0
 10
-109.3462
 20
66.9158
 30
0.0
 10
-107.2411
 20
66.9412
 30
0.0
 10
-107.2411
 20
66.9412
 30
0.0
 10
-104.5691
 20
66.9735
 30
0.0
 10
-103.6314
 20
68.4998
 30
0.0
 10
-103.6538
 20
70.4947
 30
0.0
 10
-103.6538
 20
70.4947
 30
0.0
 10
-103.6752
 20
72.409
 30
0.0
 10
-104.889
 20
73.2613
 30
0.0
 10
-105.2618
 20
73.8471
 30
0.0
 10
-105.2618
 20
73.8471
 30
0.0
 10
-105.624
 20
74.4165
 30
0.0
 10
-105.1087
 20
74.782
 30
0.0
 10
-104.8246
 20
74.8212
 30
0.0
  0
SPLINE
  5
4C
330
1F
100
AcDbEntity
  8
layer 1
 62
   250
100
AcDbSpline
210
0.0
220
0.0
230
1.0
 70
    11
 71
     3
 72
   100
 73
    96
 74
     0
 42
0.0000000001
 43
0.0000000001
 12
1.0
 22
0.0
 32
0.0
 13
1.0
 23
0.0
 33
0.0
 40
0.0
 40
0.0
 40
0.0
 40
0.0
 40
0.04
 40
0.04
 40
0.04
 40
0.04
 40
0.08
 40
0.08
 40
0.08
 40
0.08
 40
0.12
 40
0.12
 40
0.12
 40
0.12
 40
0.16
 40
0.16
 40
0.16
 40
0.16
 40
0.2
 40
0.2
 40
0.2
 40
0.2
 40
0.24
 40
0.24
 40
0.24
 40
0.24
 40
0.28
 40
0.28
 40
0.28
 40
0.28
 40
0.32
 40
0.32
 40
0.32
 40
0.32
 40
0.36
 40
0.36
 40
0.36
 40
0.36
 40
0.4
 40
0.4
 40
0.4
 40
0.4
 40
0.44
 40
0.44
 40
0.44
 40
0.44
 40
0.48
 40
0.48
 40
0.48
 40
0.48
 40
0.52
 40
0.52
 40
0.52
 40
0.52
 40
0.56
 40
0.56
 40
0.56
 40
0.56
 40
0.6
 40
0.6
 40
0.6
 40
0.6
 40
0.64
 40
0.64
 40
0.64
 40
0.64
 40
0.68
 40
0.68
 40
0.68
 40
0.68
 40
0.72
 40
0.72
 40
0.72
 40
0.72
 40
0.76
 40
0.76
 40
0.76
 40
0.76
 40
0.8
 40
0.8
 40
0.8
 40
0.8
 40
0.84
 40
0.84
 40
0.84
 40
0.84
 40
0.88
 40
0.88
 40
0.88
 40
0.88
 40
0.92
 40
0.92
 40
0.92
 40
0.92
 40
1.0
 40
1.0
 40
1.0
 40
1.0
 10
-142.6119
 20
90.9666
 30
0.0
 10
-141.2519
 20
94.4963
 30
0.0
 10
-136.84
 20
96.8562
 30
0.0
 10
-132.5091
 20
96.6608
 30
0.0
 10
-132.5091
 20
96.6608
 30
0.0
 10
-128.4051
 20
96.4756
 30
0.0
 10
-123.7739
 20
94.3692
 30
0.0
 10
-121.9237
 20
90.0502
 30
0.0
 10
-121.9237
 20
90.0502
 30
0.0
 10
-120.0101
 20
92.5015
 30
0.0
 10
-117.279
 20
96.3258
 30
0.0
 10
-117.0632
 20
102.1526
 30
0.0
 10
-117.0632
 20
102.1526
 30
0.0
 10
-116.739
 20
110.9058
 30
0.0
 10
-121.5616
 20
114.4049
 30
0.0
 10
-127.372
 20
114.4597
 30
0.0
 10
-127.372
 20
114.4597
 30
0.0
 10
-133.457
 20
114.517
 30
0.0
 10
-133.6826
 20
106.4911
 30
0.0
 10
-128.978
 20
105.9877
 30
0.0
 10
-128.978
 20
105.9877
 30
0.0
 10
-126.0087
 20
105.67
 30
0.0
 10
-123.865
 20
106.8237
 30
0.0
 10
-122.6054
 20
108.9593
 30
0.0
 10
-122.6054
 20
108.9593
 30
0.0
 10
-120.5925
 20
104.2374
 30
0.0
 10
-122.5365
 20
101.3601
 30
0.0
 10
-126.3665
 20
102.1052
 30
0.0
 10
-126.3665
 20
102.1052
 30
0.0
 10
-126.7112
 20
97.0108
 30
0.0
 10
-134.8847
 20
99.3696
 30
0.0
 10
-135.9368
 20
103.1887
 30
0.0
 10
-135.9368
 20
103.1887
 30
0.0
 10
-136.582
 20
102.3358
 30
0.0
 10
-138.1033
 20
101.2553
 30
0.0
 10
-139.1831
 20
100.7579
 30
0.0
 10
-139.1831
 20
100.7579
 30
0.0
 10
-139.8435
 20
102.4222
 30
0.0
 10
-140.0962
 20
104.1754
 30
0.0
 10
-140.0711
 20
105.8847
 30
0.0
 10
-140.0711
 20
105.8847
 30
0.0
 10
-140.0069
 20
110.2539
 30
0.0
 10
-137.9206
 20
114.1317
 30
0.0
 10
-133.4089
 20
115.4392
 30
0.0
 10
-133.4089
 20
115.4392
 30
0.0
 10
-136.0686
 20
115.668
 30
0.0
 10
-141.8042
 20
118.6156
 30
0.0
 10
-142.6119
 20
120.9313
 30
0.0
 10
-142.6119
 20
120.9313
 30
0.0
 10
-143.4196
 20
118.6156
 30
0.0
 10
-149.1551
 20
115.668
 30
0.0
 10
-151.8149
 20
115.4392
 30
0.0
 10
-151.8149
 20
115.4392
 30
0.0
 10
-147.3031
 20
114.1317
 30
0.0
 10
-145.2168
 20
110.2539
 30
0.0
 10
-145.1527
 20
105.8847
 30
0.0
 10
-145.1527
 20
105.8847
 30
0.0
 10
-145.1276
 20
104.1754
 30
0.0
 10
-145.3802
 20
102.4222
 30
0.0
 10
-146.0407
 20
100.7579
 30
0.0
 10
-146.0407
 20
100.7579
 30
0.0
 10
-147.1205
 20
101.2553
 30
0.0
 10
-148.6417
 20
102.3358
 30
0.0
 10
-149.287
 20
103.1887
 30
0.0
 10
-149.287
 20
103.1887
 30
0.0
 10
-150.3391
 20
99.3696
 30
0.0
 10
-158.5125
 20
97.0108
 30
0.0
 10
-158.8573
 20
102.1052
 30
0.0
 10
-158.8573
 20
102.1052
 30
0.0
 10
-162.6873
 20
101.3601
 30
0.0
 10
-164.6313
 20
104.2374
 30
0.0
 10
-162.6184
 20
108.9593
 30
0.0
 10
-162.6184
 20
108.9593
 30
0.0
 10
-161.3587
 20
106.8237
 30
0.0
 10
-159.2151
 20
105.67
 30
0.0
 10
-156.2458
 20
105.9877
 30
0.0
 10
-156.2458
 20
105.9877
 30
0.0
 10
-151.5411
 20
106.4911
 30
0.0
 10
-151.7668
 20
114.517
 30
0.0
 10
-157.8518
 20
114.4597
 30
0.0
 10
-157.8518
 20
114.4597
 30
0.0
 10
-163.6622
 20
114.4049
 30
0.0
 10
-168.4848
 20
110.9058
 30
0.0
 10
-168.1606
 20
102.1526
 30
0.0
 10
-168.1606
 20
102.1526
 30
0.0
 10
-167.9448
 20
96.3258
 30
0.0
 10
-165.2137
 20
92.5015
 30
0.0
 10
-163.3001
 20
90.0502
 30
0.0
 10
-163.3001
 20
90.0502
 30
0.0
 10
-161.4499
 20
94.3692
 30
0.0
 10
-156.8187
 20
96.4756
 30
0.0
 10
-152.7146
 20
96.6608
 30
0.0
 10
-152.7146
 20
96.6608
 30
0.0
 10
-148.3838
 20
96.8562
 30
0.0
 10
-143.9719
 20
94.4963
 30
0.0
 10
-142.6119
 20
90.9666
 30
0.0
  0
SPLINE
  5
4D
330
1F
100
AcDbEntity
  8
layer 1
 62
   250
100
AcDbSpline
210
0.0
220
0.0
230
1.0
 70
    11
 71
     3
 72
    56
 73
    52
 74
     0
 42
0.0000000001
 43
0.0000000001
 12
1.0
 22
0.0
 32
0.0
 13
1.0
 23
0.0
 33
0.0
 40
0.0
 40
0.0
 40
0.0
 40
0.0
 40
0.0714285714285714
 40
0.0714285714285714
 40
0.0714285714285714
 40
0.0714285714285714
 40
0.1428571428571428
 40
0.1428571428571428
 40
0.1428571428571428
 40
0.1428571428571428
 40
0.2142857142857143
 40
0.2142857142857143
 40
0.2142857142857143
 40
0.2142857142857143
 40
0.2857142857142857
 40
0.2857142857142857
 40
0.2857142857142857
 40
0.2857142857142857
 40
0.3571428571428572
 40
0.3571428571428572
 40
0.3571428571428572
 40
0.3571428571428572
 40
0.4285714285714285
 40
0.4285714285714285
 40
0.4285714285714285
 40
0.4285714285714285
 40
0.5
 40
0.5
 40
0.5
 40
0.5
 40
0.5714285714285714
 40
0.5714285714285714
 40
0.5714285714285714
 40
0.5714285714285714
 40
0.6428571428571429
 40
0.6428571428571429
 40
0.6428571428571429
 40
0.6428571428571429
 40
0.7142857142857143
 40
0.7142857142857143
 40
0.7142857142857143
 40
0.7142857142857143
 40
0.7857142857142857
 40
0.7857142857142857
 40
0.7857142857142857
 40
0.7857142857142857
 40
0.8571428571428571
 40
0.8571428571428571
 40
0.8571428571428571
 40
0.8571428571428571
 40
1.0
 40
1.0
 40
1.0
 40
1.0
 10
-136.755
 20
119.5219
 30
0.0
 10
-133.803
 20
118.0353
 30
0.0
 10
-130.1708
 20
118.3348
 30
0.0
 10
-129.2779
 20
118.3411
 30
0.0
 10
-129.2779
 20
118.3411
 30
0.0
 10
-117.6459
 20
118.4235
 30
0.0
 10
-113.0449
 20
111.3219
 30
0.0
 10
-113.1251
 20
103.5149
 30
0.0
 10
-113.1251
 20
103.5149
 30
0.0
 10
-113.1924
 20
96.9526
 30
0.0
 10
-115.3385
 20
92.7067
 30
0.0
 10
-118.7837
 20
88.2212
 30
0.0
 10
-118.7837
 20
88.2212
 30
0.0
 10
-115.0957
 20
88.0136
 30
0.0
 10
-110.656
 20
92.5197
 30
0.0
 10
-108.6424
 20
96.5312
 30
0.0
 10
-108.6424
 20
96.5312
 30
0.0
 10
-109.5167
 20
96.9336
 30
0.0
 10
-110.6268
 20
97.7523
 30
0.0
 10
-111.1646
 20
98.4827
 30
0.0
 10
-111.1646
 20
98.4827
 30
0.0
 10
-109.488
 20
100.8547
 30
0.0
 10
-108.1456
 20
104.8878
 30
0.0
 10
-107.6134
 20
107.3645
 30
0.0
 10
-107.6134
 20
107.3645
 30
0.0
 10
-108.6756
 20
107.5325
 30
0.0
 10
-110.2027
 20
107.8255
 30
0.0
 10
-111.1527
 20
108.1763
 30
0.0
 10
-111.1527
 20
108.1763
 30
0.0
 10
-110.3852
 20
111.4766
 30
0.0
 10
-109.7612
 20
116.814
 30
0.0
 10
-110.9199
 20
119.2855
 30
0.0
 10
-110.9199
 20
119.2855
 30
0.0
 10
-111.8939
 20
118.6653
 30
0.0
 10
-113.0794
 20
118.1914
 30
0.0
 10
-114.2225
 20
117.7995
 30
0.0
 10
-114.2225
 20
117.7995
 30
0.0
 10
-115.1624
 20
120.4384
 30
0.0
 10
-117.2667
 20
122.9451
 30
0.0
 10
-119.986
 20
124.3286
 30
0.0
 10
-119.986
 20
124.3286
 30
0.0
 10
-120.1646
 20
123.2917
 30
0.0
 10
-120.562
 20
122.0581
 30
0.0
 10
-121.0995
 20
121.1287
 30
0.0
 10
-121.0995
 20
121.1287
 30
0.0
 10
-129.0749
 20
124.6155
 30
0.0
 10
-130.2402
 20
121.1681
 30
0.0
 10
-136.6891
 20
120.2882
 30
0.0
 10
-136.6891
 20
120.2882
 30
0.0
 10
-137.0723
 20
120.236
 30
0.0
 10
-137.0262
 20
119.6585
 30
0.0
 10
-136.755
 20
119.5219
 30
0.0
  0
SPLINE
  5
4E
330
1F
100
AcDbEntity
  8
layer 1
 62
   250
100
AcDbSpline
210
0.0
220
0.0
230
1.0
 70
    11
 71
     3
 72
    20
 73
    16
 74
     0
 42
0.0000000001
 43
0.0000000001
 12
1.0
 22
0.0
 32
0.0
 13
1.0
 23
0.0
 33
0.0
 40
0.0
 40
0.0
 40
0.0
 40
0.0
 40
0.2
 40
0.2
 40
0.2
 40
0.2
 40
0.4
 40
0.4
 40
0.4
 40
0.4
 40
0.6
 40
0.6
 40
0.6
 40
0.6
 40
1.0
 40
1.0
 40
1.0
 40
1.0
 10
-97.8128
 20
131.7861
 30
0.0
 10
-97.8128
 20
131.7861
 30
0.0
 10
-187.411
 20
131.7861
 30
0.0
 10
-187.411
 20
131.7861
 30
0.0
 10
-187.411
 20
131.7861
 30
0.0
 10
-187.411
 20
131.7861
 30
0.0
 10
-187.411
 20
-114.6089
 30
0.0
 10
-187.411
 20
-114.6089
 30
0.0
 10
-187.411
 20
-114.6089
 30
0.0
 10
-187.411
 20
-114.6089
 30
0.0
 10
-97.8128
 20
-114.6089
 30
0.0
 10
-97.8128
 20
-114.6089
 30
0.0
 10
-97.8128
 20
-114.6089
 30
0.0
 10
-97.8128
 20
-114.6089
 30
0.0
 10
-97.8128
 20
131.7861
 30
0.0
 10
-97.8128
 20
131.7861
 30
0.0
  0
SPLINE
  5
4F
330
1F
100
AcDbEntity
  8
layer 1
 62
   250
100
AcDbSpline
210
0.0
220
0.0
230
1.0
 70
    11
 71
     3
 72
    16
 73
    12
 74
     0
 42
0.0000000001
 43
0.0000000001
 12
1.0
 22
0.0
 32
0.0
 13
1.0
 23
0.0
 33
0.0
 40
0.0
 40
0.0
 40
0.0
 40
0.0
 40
0.25
 40
0.25
 40
0.25
 40
0.25
 40
0.5
 40
0.5
 40
0.5
 40
0.5
 40
1.0
 40
1.0
 40
1.0
 40
1.0
 10
-102.2927
 20
10.9383
 30
0.0
 10
-102.5255
 20
10.069
 30
0.0
 10
-102.827
 20
9.3586
 30
0.0
 10
-103.6692
 20
8.5886
 30
0.0
 10
-103.6692
 20
8.5886
 30
0.0
 10
-102.827
 20
7.8186
 30
0.0
 10
-102.5255
 20
7.1082
 30
0.0
 10
-102.2927
 20
6.2389
 30
0.0
 10
-102.2927
 20
6.2389
 30
0.0
 10
-102.2927
 20
6.2389
 30
0.0
 10
-102.2927
 20
10.9383
 30
0.0
 10
-102.2927
 20
10.9383
 30
0.0
  0
SPLINE
  5
50
330
1F
100
AcDbEntity
  8
layer 1
 62
   250
100
AcDbSpline
210
0.0
220
0.0
230
1.0
 70
    11
 71
     3
 72
    40
 73
    36
 74
     0
 42
0.0000000001
 43
0.0000000001
 12
1.0
 22
0.0
 32
0.0
 13
1.0
 23
0.0
 33
0.0
 40
0.0
 40
0.0
 40
0.0
 40
0.0
 40
0.1
 40
0.1
 40
0.1
 40
0.1
 40
0.2
 40
0.2
 40
0.2
 40
0.2
 40
0.3
 40
0.3
 40
0.3
 40
0.3
 40
0.4
 40
0.4
 40
0.4
 40
0.4
 40
0.5
 40
0.5
 40
0.5
 40
0.5
 40
0.6
 40
0.6
 40
0.6
 40
0.6
 40
0.7
 40
0.7
 40
0.7
 40
0.7
 40
0.8
 40
0.8
 40
0.8
 40
0.8
 40
1.0
 40
1.0
 40
1.0
 40
1.0
 10
-102.2927
 20
16.1675
 30
0.0
 10
-103.661
 20
21.0552
 30
0.0
 10
-106.6625
 20
24.4915
 30
0.0
 10
-115.66
 20
24.5427
 30
0.0
 10
-115.66
 20
24.5427
 30
0.0
 10
-116.3912
 20
24.5468
 30
0.0
 10
-116.2848
 20
25.1251
 30
0.0
 10
-115.6684
 20
25.3645
 30
0.0
 10
-115.6684
 20
25.3645
 30
0.0
 10
-114.214
 20
25.9298
 30
0.0
 10
-113.0583
 20
26.2714
 30
0.0
 10
-110.8529
 20
26.5885
 30
0.0
 10
-110.8529
 20
26.5885
 30
0.0
 10
-111.9405
 20
27.0574
 30
0.0
 10
-113.2245
 20
27.3782
 30
0.0
 10
-114.138
 20
27.5839
 30
0.0
 10
-114.138
 20
27.5839
 30
0.0
 10
-114.4991
 20
27.6652
 30
0.0
 10
-114.5083
 20
28.2972
 30
0.0
 10
-114.1859
 20
28.4171
 30
0.0
 10
-114.1859
 20
28.4171
 30
0.0
 10
-111.2342
 20
29.5161
 30
0.0
 10
-107.7545
 20
31.5835
 30
0.0
 10
-104.9264
 20
34.943
 30
0.0
 10
-104.9264
 20
34.943
 30
0.0
 10
-105.9562
 20
35.4913
 30
0.0
 10
-106.4606
 20
36.1709
 30
0.0
 10
-107.2278
 20
36.9818
 30
0.0
 10
-107.2278
 20
36.9818
 30
0.0
 10
-105.4953
 20
38.3466
 30
0.0
 10
-103.5003
 20
41.0241
 30
0.0
 10
-102.2927
 20
43.3079
 30
0.0
 10
-102.2927
 20
43.3079
 30
0.0
 10
-102.2927
 20
43.3079
 30
0.0
 10
-102.2927
 20
16.1675
 30
0.0
 10
-102.2927
 20
16.1675
 30
0.0
  0
SPLINE
  5
51
330
1F
100
AcDbEntity
  8
layer 1
 62
   250
100
AcDbSpline
210
0.0
220
0.0
230
1.0
 70
    11
 71
     3
 72
    48
 73
    44
 74
     0
 42
0.0000000001
 43
0.0000000001
 12
1.0
 22
0.0
 32
0.0
 13
1.0
 23
0.0
 33
0.0
 40
0.0
 40
0.0
 40
0.0
 40
0.0
 40
0.0833333333333333
 40
0.0833333333333333
 40
0.0833333333333333
 40
0.0833333333333333
 40
0.1666666666666667
 40
0.1666666666666667
 40
0.1666666666666667
 40
0.1666666666666667
 40
0.25
 40
0.25
 40
0.25
 40
0.25
 40
0.3333333333333333
 40
0.3333333333333333
 40
0.3333333333333333
 40
0.3333333333333333
 40
0.4166666666666667
 40
0.4166666666666667
 40
0.4166666666666667
 40
0.4166666666666667
 40
0.5
 40
0.5
 40
0.5
 40
0.5
 40
0.5833333333333334
 40
0.5833333333333334
 40
0.5833333333333334
 40
0.5833333333333334
 40
0.6666666666666666
 40
0.6666666666666666
 40
0.6666666666666666
 40
0.6666666666666666
 40
0.75
 40
0.75
 40
0.75
 40
0.75
 40
0.8333333333333334
 40
0.8333333333333334
 40
0.8333333333333334
 40
0.8333333333333334
 40
1.0
 40
1.0
 40
1.0
 40
1.0
 10
-158.3604
 20
61.0832
 30
0.0
 10
-167.8667
 20
60.1773
 30
0.0
 10
-173.1102
 20
54.2747
 30
0.0
 10
-172.8285
 20
45.3345
 30
0.0
 10
-172.8285
 20
45.3345
 30
0.0
 10
-172.6434
 20
39.4579
 30
0.0
 10
-169.749
 20
34.396
 30
0.0
 10
-166.8032
 20
29.7955
 30
0.0
 10
-166.8032
 20
29.7955
 30
0.0
 10
-170.4538
 20
31.3404
 30
0.0
 10
-173.2659
 20
31.9465
 30
0.0
 10
-176.4154
 20
34.9624
 30
0.0
 10
-176.4154
 20
34.9624
 30
0.0
 10
-175.4167
 20
35.581
 30
0.0
 10
-174.6943
 20
36.2645
 30
0.0
 10
-174.1315
 20
37.1412
 30
0.0
 10
-174.1315
 20
37.1412
 30
0.0
 10
-176.2351
 20
38.5517
 30
0.0
 10
-178.0584
 20
40.764
 30
0.0
 10
-179.332
 20
43.7452
 30
0.0
 10
-179.332
 20
43.7452
 30
0.0
 10
-178.3403
 20
44.0064
 30
0.0
 10
-177.0281
 20
44.5221
 30
0.0
 10
-176.0964
 20
45.018
 30
0.0
 10
-176.0964
 20
45.018
 30
0.0
 10
-177.5125
 20
46.7689
 30
0.0
 10
-178.2034
 20
49.82
 30
0.0
 10
-178.4942
 20
53.2247
 30
0.0
 10
-178.4942
 20
53.2247
 30
0.0
 10
-177.2891
 20
52.6887
 30
0.0
 10
-176.4177
 20
52.5759
 30
0.0
 10
-175.1825
 20
52.5973
 30
0.0
 10
-175.1825
 20
52.5973
 30
0.0
 10
-175.4717
 20
55.3938
 30
0.0
 10
-175.0631
 20
58.1147
 30
0.0
 10
-174.1172
 20
60.8557
 30
0.0
 10
-174.1172
 20
60.8557
 30
0.0
 10
-173.3568
 20
60.2478
 30
0.0
 10
-172.0936
 20
59.6158
 30
0.0
 10
-171.0884
 20
59.4958
 30
0.0
 10
-171.0884
 20
59.4958
 30
0.0
 10
-168.4419
 20
61.6923
 30
0.0
 10
-160.4024
 20
65.6407
 30
0.0
 10
-158.3604
 20
61.0832
 30
0.0
  0
SPLINE
  5
52
330
1F
100
AcDbEntity
  8
layer 1
 62
   250
100
AcDbSpline
210
0.0
220
0.0
230
1.0
 70
    11
 71
     3
 72
    44
 73
    40
 74
     0
 42
0.0000000001
 43
0.0000000001
 12
1.0
 22
0.0
 32
0.0
 13
1.0
 23
0.0
 33
0.0
 40
0.0
 40
0.0
 40
0.0
 40
0.0
 40
0.0909090909090909
 40
0.0909090909090909
 40
0.0909090909090909
 40
0.0909090909090909
 40
0.1818181818181818
 40
0.1818181818181818
 40
0.1818181818181818
 40
0.1818181818181818
 40
0.2727272727272727
 40
0.2727272727272727
 40
0.2727272727272727
 40
0.2727272727272727
 40
0.3636363636363636
 40
0.3636363636363636
 40
0.3636363636363636
 40
0.3636363636363636
 40
0.4545454545454545
 40
0.4545454545454545
 40
0.4545454545454545
 40
0.4545454545454545
 40
0.5454545454545454
 40
0.5454545454545454
 40
0.5454545454545454
 40
0.5454545454545454
 40
0.6363636363636364
 40
0.6363636363636364
 40
0.6363636363636364
 40
0.6363636363636364
 40
0.7272727272727273
 40
0.7272727272727273
 40
0.7272727272727273
 40
0.7272727272727273
 40
0.8181818181818182
 40
0.8181818181818182
 40
0.8181818181818182
 40
0.8181818181818182
 40
1.0
 40
1.0
 40
1.0
 40
1.0
 10
-159.4115
 20
8.5886
 30
0.0
 10
-159.7079
 20
11.4836
 30
0.0
 10
-156.6361
 20
12.2869
 30
0.0
 10
-153.6682
 20
11.3496
 30
0.0
 10
-153.6682
 20
11.3496
 30
0.0
 10
-152.8823
 20
11.1014
 30
0.0
 10
-152.7435
 20
12.006
 30
0.0
 10
-153.2424
 20
12.4677
 30
0.0
 10
-153.2424
 20
12.4677
 30
0.0
 10
-155.7643
 20
14.8022
 30
0.0
 10
-160.6847
 20
18.6203
 30
0.0
 10
-164.773
 20
16.3568
 30
0.0
 10
-164.773
 20
16.3568
 30
0.0
 10
-165.0432
 20
16.2071
 30
0.0
 10
-165.092
 20
15.9037
 30
0.0
 10
-164.7478
 20
15.7888
 30
0.0
 10
-164.7478
 20
15.7888
 30
0.0
 10
-161.3898
 20
14.6676
 30
0.0
 10
-161.384
 20
9.9079
 30
0.0
 10
-163.8915
 20
8.5886
 30
0.0
 10
-163.8915
 20
8.5886
 30
0.0
 10
-161.384
 20
7.2693
 30
0.0
 10
-161.3898
 20
2.5096
 30
0.0
 10
-164.7478
 20
1.3884
 30
0.0
 10
-164.7478
 20
1.3884
 30
0.0
 10
-165.092
 20
1.2735
 30
0.0
 10
-165.0432
 20
0.9701
 30
0.0
 10
-164.773
 20
0.8204
 30
0.0
 10
-164.773
 20
0.8204
 30
0.0
 10
-160.6847
 20
-1.4432
 30
0.0
 10
-155.7643
 20
2.375
 30
0.0
 10
-153.2424
 20
4.7094
 30
0.0
 10
-153.2424
 20
4.7094
 30
0.0
 10
-152.7435
 20
5.1712
 30
0.0
 10
-152.8823
 20
6.0758
 30
0.0
 10
-153.6682
 20
5.8276
 30
0.0
 10
-153.6682
 20
5.8276
 30
0.0
 10
-156.6361
 20
4.8903
 30
0.0
 10
-159.7079
 20
5.6936
 30
0.0
 10
-159.4115
 20
8.5886
 30
0.0
  0
SPLINE
  5
53
330
1F
100
AcDbEntity
  8
layer 1
 62
   250
100
AcDbSpline
210
0.0
220
0.0
230
1.0
 70
    11
 71
     3
 72
    44
 73
    40
 74
     0
 42
0.0000000001
 43
0.0000000001
 12
1.0
 22
0.0
 32
0.0
 13
1.0
 23
0.0
 33
0.0
 40
0.0
 40
0.0
 40
0.0
 40
0.0
 40
0.0909090909090909
 40
0.0909090909090909
 40
0.0909090909090909
 40
0.0909090909090909
 40
0.1818181818181818
 40
0.1818181818181818
 40
0.1818181818181818
 40
0.1818181818181818
 40
0.2727272727272727
 40
0.2727272727272727
 40
0.2727272727272727
 40
0.2727272727272727
 40
0.3636363636363636
 40
0.3636363636363636
 40
0.3636363636363636
 40
0.3636363636363636
 40
0.4545454545454545
 40
0.4545454545454545
 40
0.4545454545454545
 40
0.4545454545454545
 40
0.5454545454545454
 40
0.5454545454545454
 40
0.5454545454545454
 40
0.5454545454545454
 40
0.6363636363636364
 40
0.6363636363636364
 40
0.6363636363636364
 40
0.6363636363636364
 40
0.7272727272727273
 40
0.7272727272727273
 40
0.7272727272727273
 40
0.7272727272727273
 40
0.8181818181818182
 40
0.8181818181818182
 40
0.8181818181818182
 40
0.8181818181818182
 40
1.0
 40
1.0
 40
1.0
 40
1.0
 10
-170.5632
 20
8.5886
 30
0.0
 10
-174.5437
 20
13.3961
 30
0.0
 10
-169.7867
 20
19.2108
 30
0.0
 10
-165.0847
 20
19.7666
 30
0.0
 10
-165.0847
 20
19.7666
 30
0.0
 10
-164.8139
 20
19.7986
 30
0.0
 10
-164.5378
 20
20.1124
 30
0.0
 10
-164.8816
 20
20.2553
 30
0.0
 10
-164.8816
 20
20.2553
 30
0.0
 10
-169.7138
 20
22.2638
 30
0.0
 10
-176.4638
 20
21.6315
 30
0.0
 10
-177.9205
 20
16.3706
 30
0.0
 10
-177.9205
 20
16.3706
 30
0.0
 10
-174.9285
 20
16.7095
 30
0.0
 10
-173.7376
 20
14.0814
 30
0.0
 10
-173.7368
 20
12.1955
 30
0.0
 10
-173.7368
 20
12.1955
 30
0.0
 10
-173.7362
 20
10.5315
 30
0.0
 10
-174.4907
 20
8.9791
 30
0.0
 10
-175.3917
 20
8.5886
 30
0.0
 10
-175.3917
 20
8.5886
 30
0.0
 10
-174.4907
 20
8.1981
 30
0.0
 10
-173.7362
 20
6.6457
 30
0.0
 10
-173.7368
 20
4.9817
 30
0.0
 10
-173.7368
 20
4.9817
 30
0.0
 10
-173.7376
 20
3.0958
 30
0.0
 10
-174.9285
 20
0.4676
 30
0.0
 10
-177.9205
 20
0.8065
 30
0.0
 10
-177.9205
 20
0.8065
 30
0.0
 10
-176.4638
 20
-4.4543
 30
0.0
 10
-169.7138
 20
-5.0867
 30
0.0
 10
-164.8816
 20
-3.0781
 30
0.0
 10
-164.8816
 20
-3.0781
 30
0.0
 10
-164.5378
 20
-2.9352
 30
0.0
 10
-164.8139
 20
-2.6214
 30
0.0
 10
-165.0847
 20
-2.5895
 30
0.0
 10
-165.0847
 20
-2.5895
 30
0.0
 10
-169.7867
 20
-2.0336
 30
0.0
 10
-174.5437
 20
3.7811
 30
0.0
 10
-170.5632
 20
8.5886
 30
0.0
  0
SPLINE
  5
54
330
1F
100
AcDbEntity
  8
layer 1
 62
   250
100
AcDbSpline
210
0.0
220
0.0
230
1.0
 70
    11
 71
     3
 72
    56
 73
    52
 74
     0
 42
0.0000000001
 43
0.0000000001
 12
1.0
 22
0.0
 32
0.0
 13
1.0
 23
0.0
 33
0.0
 40
0.0
 40
0.0
 40
0.0
 40
0.0
 40
0.0714285714285714
 40
0.0714285714285714
 40
0.0714285714285714
 40
0.0714285714285714
 40
0.1428571428571428
 40
0.1428571428571428
 40
0.1428571428571428
 40
0.1428571428571428
 40
0.2142857142857143
 40
0.2142857142857143
 40
0.2142857142857143
 40
0.2142857142857143
 40
0.2857142857142857
 40
0.2857142857142857
 40
0.2857142857142857
 40
0.2857142857142857
 40
0.3571428571428572
 40
0.3571428571428572
 40
0.3571428571428572
 40
0.3571428571428572
 40
0.4285714285714285
 40
0.4285714285714285
 40
0.4285714285714285
 40
0.4285714285714285
 40
0.5
 40
0.5
 40
0.5
 40
0.5
 40
0.5714285714285714
 40
0.5714285714285714
 40
0.5714285714285714
 40
0.5714285714285714
 40
0.6428571428571429
 40
0.6428571428571429
 40
0.6428571428571429
 40
0.6428571428571429
 40
0.7142857142857143
 40
0.7142857142857143
 40
0.7142857142857143
 40
0.7142857142857143
 40
0.7857142857142857
 40
0.7857142857142857
 40
0.7857142857142857
 40
0.7857142857142857
 40
0.8571428571428571
 40
0.8571428571428571
 40
0.8571428571428571
 40
0.8571428571428571
 40
1.0
 40
1.0
 40
1.0
 40
1.0
 10
-182.9311
 20
80.947
 30
0.0
 10
-182.4822
 20
83.2368
 30
0.0
 10
-180.7184
 20
84.3944
 30
0.0
 10
-179.5066
 20
84.7467
 30
0.0
 10
-179.5066
 20
84.7467
 30
0.0
 10
-179.9751
 20
85.1773
 30
0.0
 10
-180.6437
 20
86.1248
 30
0.0
 10
-180.8462
 20
87.1175
 30
0.0
 10
-180.8462
 20
87.1175
 30
0.0
 10
-179.5958
 20
87.9455
 30
0.0
 10
-176.6817
 20
88.5641
 30
0.0
 10
-174.2097
 20
88.3315
 30
0.0
 10
-174.2097
 20
88.3315
 30
0.0
 10
-173.6102
 20
88.2751
 30
0.0
 10
-173.3577
 20
88.7852
 30
0.0
 10
-173.7753
 20
89.1315
 30
0.0
 10
-173.7753
 20
89.1315
 30
0.0
 10
-176.4936
 20
91.3862
 30
0.0
 10
-178.7735
 20
94.4916
 30
0.0
 10
-180.3195
 20
97.4864
 30
0.0
 10
-180.3195
 20
97.4864
 30
0.0
 10
-179.3602
 20
97.779
 30
0.0
 10
-178.365
 20
98.3452
 30
0.0
 10
-177.4579
 20
99.0452
 30
0.0
 10
-177.4579
 20
99.0452
 30
0.0
 10
-179.0582
 20
101.6804
 30
0.0
 10
-180.7233
 20
105.9792
 30
0.0
 10
-181.1425
 20
109.9796
 30
0.0
 10
-181.1425
 20
109.9796
 30
0.0
 10
-180.13
 20
110.0472
 30
0.0
 10
-178.4345
 20
110.3197
 30
0.0
 10
-177.5929
 20
110.558
 30
0.0
 10
-177.5929
 20
110.558
 30
0.0
 10
-178.4148
 20
115.1993
 30
0.0
 10
-178.7065
 20
119.857
 30
0.0
 10
-176.583
 20
124.3226
 30
0.0
 10
-176.583
 20
124.3226
 30
0.0
 10
-175.5177
 20
123.4648
 30
0.0
 10
-173.906
 20
122.5728
 30
0.0
 10
-172.6699
 20
122.0565
 30
0.0
 10
-172.6699
 20
122.0565
 30
0.0
 10
-171.5477
 20
124.0601
 30
0.0
 10
-170.2417
 20
126.0508
 30
0.0
 10
-168.3714
 20
127.3062
 30
0.0
 10
-168.3714
 20
127.3062
 30
0.0
 10
-168.3714
 20
127.3062
 30
0.0
 10
-182.9311
 20
127.3062
 30
0.0
 10
-182.9311
 20
127.3062
 30
0.0
 10
-182.9311
 20
127.3062
 30
0.0
 10
-182.9311
 20
127.3062
 30
0.0
 10
-182.9311
 20
80.947
 30
0.0
 10
-182.9311
 20
80.947
 30
0.0
  0
SPLINE
  5
55
330
1F
100
AcDbEntity
  8
layer 1
 62
   250
100
AcDbSpline
210
0.0
220
0.0
230
1.0
 70
    11
 71
     3
 72
    96
 73
    92
 74
     0
 42
0.0000000001
 43
0.0000000001
 12
1.0
 22
0.0
 32
0.0
 13
1.0
 23
0.0
 33
0.0
 40
0.0
 40
0.0
 40
0.0
 40
0.0
 40
0.0416666666666667
 40
0.0416666666666667
 40
0.0416666666666667
 40
0.0416666666666667
 40
0.0833333333333333
 40
0.0833333333333333
 40
0.0833333333333333
 40
0.0833333333333333
 40
0.125
 40
0.125
 40
0.125
 40
0.125
 40
0.1666666666666667
 40
0.1666666666666667
 40
0.1666666666666667
 40
0.1666666666666667
 40
0.2083333333333333
 40
0.2083333333333333
 40
0.2083333333333333
 40
0.2083333333333333
 40
0.25
 40
0.25
 40
0.25
 40
0.25
 40
0.2916666666666667
 40
0.2916666666666667
 40
0.2916666666666667
 40
0.2916666666666667
 40
0.3333333333333333
 40
0.3333333333333333
 40
0.3333333333333333
 40
0.3333333333333333
 40
0.375
 40
0.375
 40
0.375
 40
0.375
 40
0.4166666666666667
 40
0.4166666666666667
 40
0.4166666666666667
 40
0.4166666666666667
 40
0.4583333333333333
 40
0.4583333333333333
 40
0.4583333333333333
 40
0.4583333333333333
 40
0.5
 40
0.5
 40
0.5
 40
0.5
 40
0.5416666666666666
 40
0.5416666666666666
 40
0.5416666666666666
 40
0.5416666666666666
 40
0.5833333333333334
 40
0.5833333333333334
 40
0.5833333333333334
 40
0.5833333333333334
 40
0.625
 40
0.625
 40
0.625
 40
0.625
 40
0.6666666666666666
 40
0.6666666666666666
 40
0.6666666666666666
 40
0.6666666666666666
 40
0.7083333333333334
 40
0.7083333333333334
 40
0.7083333333333334
 40
0.7083333333333334
 40
0.75
 40
0.75
 40
0.75
 40
0.75
 40
0.7916666666666666
 40
0.7916666666666666
 40
0.7916666666666666
 40
0.7916666666666666
 40
0.8333333333333334
 40
0.8333333333333334
 40
0.8333333333333334
 40
0.8333333333333334
 40
0.875
 40
0.875
 40
0.875
 40
0.875
 40
0.9166666666666666
 40
0.9166666666666666
 40
0.9166666666666666
 40
0.9166666666666666
 40
1.0
 40
1.0
 40
1.0
 40
1.0
 10
-180.3991
 20
74.8212
 30
0.0
 10
-181.6893
 20
74.9994
 30
0.0
 10
-182.783
 20
75.9271
 30
0.0
 10
-182.9311
 20
77.9893
 30
0.0
 10
-182.9311
 20
77.9893
 30
0.0
 10
-182.9311
 20
77.9893
 30
0.0
 10
-182.9311
 20
45.4767
 30
0.0
 10
-182.9311
 20
45.4767
 30
0.0
 10
-182.9311
 20
45.4767
 30
0.0
 10
-182.0775
 20
45.6722
 30
0.0
 10
-180.4445
 20
46.1011
 30
0.0
 10
-179.8142
 20
46.4033
 30
0.0
 10
-179.8142
 20
46.4033
 30
0.0
 10
-180.8536
 20
49.0744
 30
0.0
 10
-181.5978
 20
54.3117
 30
0.0
 10
-181.3567
 20
56.5434
 30
0.0
 10
-181.3567
 20
56.5434
 30
0.0
 10
-180.6582
 20
56.2454
 30
0.0
 10
-179.3638
 20
55.9912
 30
0.0
 10
-178.5272
 20
56.0026
 30
0.0
 10
-178.5272
 20
56.0026
 30
0.0
 10
-178.3267
 20
59.0432
 30
0.0
 10
-177.3312
 20
63.2576
 30
0.0
 10
-174.9463
 20
65.5365
 30
0.0
 10
-174.9463
 20
65.5365
 30
0.0
 10
-174.0474
 20
64.7528
 30
0.0
 10
-172.6247
 20
63.6942
 30
0.0
 10
-171.1685
 20
63.356
 30
0.0
 10
-171.1685
 20
63.356
 30
0.0
 10
-168.4541
 20
66.7904
 30
0.0
 10
-160.85
 20
67.9174
 30
0.0
 10
-156.0718
 20
65.6016
 30
0.0
 10
-156.0718
 20
65.6016
 30
0.0
 10
-155.7167
 20
65.4296
 30
0.0
 10
-155.1566
 20
65.9182
 30
0.0
 10
-155.5613
 20
66.2754
 30
0.0
 10
-155.5613
 20
66.2754
 30
0.0
 10
-158.2751
 20
68.67
 30
0.0
 10
-161.5276
 20
69.876
 30
0.0
 10
-164.4626
 20
70.3777
 30
0.0
 10
-164.4626
 20
70.3777
 30
0.0
 10
-163.447
 20
71.034
 30
0.0
 10
-161.9597
 20
71.4235
 30
0.0
 10
-160.1781
 20
71.8947
 30
0.0
 10
-160.1781
 20
71.8947
 30
0.0
 10
-160.0294
 20
71.9341
 30
0.0
 10
-159.816
 20
72.3332
 30
0.0
 10
-160.0444
 20
72.6553
 30
0.0
 10
-160.0444
 20
72.6553
 30
0.0
 10
-163.1644
 20
77.0537
 30
0.0
 10
-168.8943
 20
82.8702
 30
0.0
 10
-172.0589
 20
82.469
 30
0.0
 10
-172.0589
 20
82.469
 30
0.0
 10
-173.0739
 20
82.3404
 30
0.0
 10
-174.6104
 20
82.1052
 30
0.0
 10
-174.3542
 20
79.367
 30
0.0
 10
-174.3542
 20
79.367
 30
0.0
 10
-174.1596
 20
77.2882
 30
0.0
 10
-171.1173
 20
76.1323
 30
0.0
 10
-169.04
 20
78.2445
 30
0.0
 10
-169.04
 20
78.2445
 30
0.0
 10
-166.9657
 20
76.0137
 30
0.0
 10
-168.6368
 20
71.805
 30
0.0
 10
-171.4823
 20
71.8725
 30
0.0
 10
-171.4823
 20
71.8725
 30
0.0
 10
-173.2302
 20
71.9138
 30
0.0
 10
-174.0578
 20
72.6538
 30
0.0
 10
-174.6092
 20
73.5121
 30
0.0
 10
-174.6092
 20
73.5121
 30
0.0
 10
-174.8616
 20
73.9052
 30
0.0
 10
-175.8114
 20
73.6662
 30
0.0
 10
-175.2579
 20
72.7912
 30
0.0
 10
-175.2579
 20
72.7912
 30
0.0
 10
-174.7433
 20
71.9774
 30
0.0
 10
-174.1758
 20
71.1935
 30
0.0
 10
-174.1831
 20
70.2972
 30
0.0
 10
-174.1831
 20
70.2972
 30
0.0
 10
-174.2013
 20
68.081
 30
0.0
 10
-175.8776
 20
66.9158
 30
0.0
 10
-177.9827
 20
66.9412
 30
0.0
 10
-177.9827
 20
66.9412
 30
0.0
 10
-180.6547
 20
66.9735
 30
0.0
 10
-181.5924
 20
68.4998
 30
0.0
 10
-181.57
 20
70.4947
 30
0.0
 10
-181.57
 20
70.4947
 30
0.0
 10
-181.5486
 20
72.409
 30
0.0
 10
-180.3347
 20
73.2613
 30
0.0
 10
-179.962
 20
73.8471
 30
0.0
 10
-179.962
 20
73.8471
 30
0.0
 10
-179.5998
 20
74.4165
 30
0.0
 10
-180.1151
 20
74.782
 30
0.0
 10
-180.3991
 20
74.8212
 30
0.0
  0
SPLINE
  5
56
330
1F
100
AcDbEntity
  8
layer 1
 62
   250
100
AcDbSpline
210
0.0
220
0.0
230
1.0
 70
    11
 71
     3
 72
    56
 73
    52
 74
     0
 42
0.0000000001
 43
0.0000000001
 12
1.0
 22
0.0
 32
0.0
 13
1.0
 23
0.0
 33
0.0
 40
0.0
 40
0.0
 40
0.0
 40
0.0
 40
0.0714285714285714
 40
0.0714285714285714
 40
0.0714285714285714
 40
0.0714285714285714
 40
0.1428571428571428
 40
0.1428571428571428
 40
0.1428571428571428
 40
0.1428571428571428
 40
0.2142857142857143
 40
0.2142857142857143
 40
0.2142857142857143
 40
0.2142857142857143
 40
0.2857142857142857
 40
0.2857142857142857
 40
0.2857142857142857
 40
0.2857142857142857
 40
0.3571428571428572
 40
0.3571428571428572
 40
0.3571428571428572
 40
0.3571428571428572
 40
0.4285714285714285
 40
0.4285714285714285
 40
0.4285714285714285
 40
0.4285714285714285
 40
0.5
 40
0.5
 40
0.5
 40
0.5
 40
0.5714285714285714
 40
0.5714285714285714
 40
0.5714285714285714
 40
0.5714285714285714
 40
0.6428571428571429
 40
0.6428571428571429
 40
0.6428571428571429
 40
0.6428571428571429
 40
0.7142857142857143
 40
0.7142857142857143
 40
0.7142857142857143
 40
0.7142857142857143
 40
0.7857142857142857
 40
0.7857142857142857
 40
0.7857142857142857
 40
0.7857142857142857
 40
0.8571428571428571
 40
0.8571428571428571
 40
0.8571428571428571
 40
0.8571428571428571
 40
1.0
 40
1.0
 40
1.0
 40
1.0
 10
-148.4688
 20
119.5219
 30
0.0
 10
-151.4207
 20
118.0353
 30
0.0
 10
-155.0529
 20
118.3348
 30
0.0
 10
-155.9459
 20
118.3411
 30
0.0
 10
-155.9459
 20
118.3411
 30
0.0
 10
-167.5779
 20
118.4235
 30
0.0
 10
-172.1788
 20
111.3219
 30
0.0
 10
-172.0986
 20
103.5149
 30
0.0
 10
-172.0986
 20
103.5149
 30
0.0
 10
-172.0313
 20
96.9526
 30
0.0
 10
-169.8852
 20
92.7067
 30
0.0
 10
-166.4401
 20
88.2212
 30
0.0
 10
-166.4401
 20
88.2212
 30
0.0
 10
-170.128
 20
88.0136
 30
0.0
 10
-174.5677
 20
92.5197
 30
0.0
 10
-176.5814
 20
96.5312
 30
0.0
 10
-176.5814
 20
96.5312
 30
0.0
 10
-175.7071
 20
96.9336
 30
0.0
 10
-174.597
 20
97.7523
 30
0.0
 10
-174.0592
 20
98.4827
 30
0.0
 10
-174.0592
 20
98.4827
 30
0.0
 10
-175.7358
 20
100.8547
 30
0.0
 10
-177.0782
 20
104.8878
 30
0.0
 10
-177.6104
 20
107.3645
 30
0.0
 10
-177.6104
 20
107.3645
 30
0.0
 10
-176.5482
 20
107.5325
 30
0.0
 10
-175.0211
 20
107.8255
 30
0.0
 10
-174.071
 20
108.1763
 30
0.0
 10
-174.071
 20
108.1763
 30
0.0
 10
-174.8386
 20
111.4766
 30
0.0
 10
-175.4626
 20
116.814
 30
0.0
 10
-174.3039
 20
119.2855
 30
0.0
 10
-174.3039
 20
119.2855
 30
0.0
 10
-173.3298
 20
118.6653
 30
0.0
 10
-172.1443
 20
118.1914
 30
0.0
 10
-171.0013
 20
117.7995
 30
0.0
 10
-171.0013
 20
117.7995
 30
0.0
 10
-170.0614
 20
120.4384
 30
0.0
 10
-167.9571
 20
122.9451
 30
0.0
 10
-165.2378
 20
124.3286
 30
0.0
 10
-165.2378
 20
124.3286
 30
0.0
 10
-165.0591
 20
123.2917
 30
0.0
 10
-164.6618
 20
122.0581
 30
0.0
 10
-164.1243
 20
121.1287
 30
0.0
 10
-164.1243
 20
121.1287
 30
0.0
 10
-156.1488
 20
124.6155
 30
0.0
 10
-154.9836
 20
121.1681
 30
0.0
 10
-148.5347
 20
120.2882
 30
0.0
 10
-148.5347
 20
120.2882
 30
0.0
 10
-148.1515
 20
120.236
 30
0.0
 10
-148.1975
 20
119.6585
 30
0.0
 10
-148.4688
 20
119.5219
 30
0.0
  0
SPLINE
  5
57
330
1F
100
AcDbEntity
  8
layer 1
 62
   250
100
AcDbSpline
210
0.0
220
0.0
230
1.0
 70
    11
 71
     3
 72
    16
 73
    12
 74
     0
 42
0.0000000001
 43
0.0000000001
 12
1.0
 22
0.0
 32
0.0
 13
1.0
 23
0.0
 33
0.0
 40
0.0
 40
0.0
 40
0.0
 40
0.0
 40
0.25
 40
0.25
 40
0.25
 40
0.25
 40
0.5
 40
0.5
 40
0.5
 40
0.5
 40
1.0
 40
1.0
 40
1.0
 40
1.0
 10
-181.5546
 20
8.5886
 30
0.0
 10
-182.3967
 20
9.3586
 30
0.0
 10
-182.6982
 20
10.069
 30
0.0
 10
-182.9311
 20
10.9383
 30
0.0
 10
-182.9311
 20
10.9383
 30
0.0
 10
-182.9311
 20
10.9383
 30
0.0
 10
-182.9311
 20
6.2389
 30
0.0
 10
-182.9311
 20
6.2389
 30
0.0
 10
-182.9311
 20
6.2389
 30
0.0
 10
-182.6982
 20
7.1082
 30
0.0
 10
-182.3967
 20
7.8186
 30
0.0
 10
-181.5546
 20
8.5886
 30
0.0
  0
SPLINE
  5
58
330
1F
100
AcDbEntity
  8
layer 1
 62
   250
100
AcDbSpline
210
0.0
220
0.0
230
1.0
 70
    11
 71
     3
 72
    40
 73
    36
 74
     0
 42
0.0000000001
 43
0.0000000001
 12
1.0
 22
0.0
 32
0.0
 13
1.0
 23
0.0
 33
0.0
 40
0.0
 40
0.0
 40
0.0
 40
0.0
 40
0.1
 40
0.1
 40
0.1
 40
0.1
 40
0.2
 40
0.2
 40
0.2
 40
0.2
 40
0.3
 40
0.3
 40
0.3
 40
0.3
 40
0.4
 40
0.4
 40
0.4
 40
0.4
 40
0.5
 40
0.5
 40
0.5
 40
0.5
 40
0.6
 40
0.6
 40
0.6
 40
0.6
 40
0.7
 40
0.7
 40
0.7
 40
0.7
 40
0.8
 40
0.8
 40
0.8
 40
0.8
 40
1.0
 40
1.0
 40
1.0
 40
1.0
 10
-182.9311
 20
16.1675
 30
0.0
 10
-181.5628
 20
21.0552
 30
0.0
 10
-178.5613
 20
24.4915
 30
0.0
 10
-169.5638
 20
24.5427
 30
0.0
 10
-169.5638
 20
24.5427
 30
0.0
 10
-168.8326
 20
24.5468
 30
0.0
 10
-168.939
 20
25.1251
 30
0.0
 10
-169.5554
 20
25.3645
 30
0.0
 10
-169.5554
 20
25.3645
 30
0.0
 10
-171.0098
 20
25.9298
 30
0.0
 10
-172.1655
 20
26.2714
 30
0.0
 10
-174.3709
 20
26.5885
 30
0.0
 10
-174.3709
 20
26.5885
 30
0.0
 10
-173.2832
 20
27.0574
 30
0.0
 10
-171.9993
 20
27.3782
 30
0.0
 10
-171.0857
 20
27.5839
 30
0.0
 10
-171.0857
 20
27.5839
 30
0.0
 10
-170.7247
 20
27.6652
 30
0.0
 10
-170.7155
 20
28.2972
 30
0.0
 10
-171.0379
 20
28.4171
 30
0.0
 10
-171.0379
 20
28.4171
 30
0.0
 10
-173.9896
 20
29.5161
 30
0.0
 10
-177.4693
 20
31.5835
 30
0.0
 10
-180.2973
 20
34.943
 30
0.0
 10
-180.2973
 20
34.943
 30
0.0
 10
-179.2676
 20
35.4913
 30
0.0
 10
-178.7632
 20
36.1709
 30
0.0
 10
-177.996
 20
36.9818
 30
0.0
 10
-177.996
 20
36.9818
 30
0.0
 10
-179.7285
 20
38.3466
 30
0.0
 10
-181.7235
 20
41.0241
 30
0.0
 10
-182.9311
 20
43.3079
 30
0.0
 10
-182.9311
 20
43.3079
 30
0.0
 10
-182.9311
 20
43.3079
 30
0.0
 10
-182.9311
 20
16.1675
 30
0.0
 10
-182.9311
 20
16.1675
 30
0.0
  0
SPLINE
  5
59
330
1F
100
AcDbEntity
  8
layer 1
 62
   250
100
AcDbSpline
210
0.0
220
0.0
230
1.0
 70
    11
 71
     3
 72
    68
 73
    64
 74
     0
 42
0.0000000001
 43
0.0000000001
 12
1.0
 22
0.0
 32
0.0
 13
1.0
 23
0.0
 33
0.0
 40
0.0
 40
0.0
 40
0.0
 40
0.0
 40
0.0588235294117647
 40
0.0588235294117647
 40
0.0588235294117647
 40
0.0588235294117647
 40
0.1176470588235294
 40
0.1176470588235294
 40
0.1176470588235294
 40
0.1176470588235294
 40
0.1764705882352941
 40
0.1764705882352941
 40
0.1764705882352941
 40
0.1764705882352941
 40
0.2352941176470588
 40
0.2352941176470588
 40
0.2352941176470588
 40
0.2352941176470588
 40
0.2941176470588235
 40
0.2941176470588235
 40
0.2941176470588235
 40
0.2941176470588235
 40
0.3529411764705883
 40
0.3529411764705883
 40
0.3529411764705883
 40
0.3529411764705883
 40
0.4117647058823529
 40
0.4117647058823529
 40
0.4117647058823529
 40
0.4117647058823529
 40
0.4705882352941176
 40
0.4705882352941176
 40
0.4705882352941176
 40
0.4705882352941176
 40
0.5294117647058824
 40
0.5294117647058824
 40
0.5294117647058824
 40
0.5294117647058824
 40
0.5882352941176471
 40
0.5882352941176471
 40
0.5882352941176471
 40
0.5882352941176471
 40
0.6470588235294118
 40
0.6470588235294118
 40
0.6470588235294118
 40
0.6470588235294118
 40
0.7058823529411765
 40
0.7058823529411765
 40
0.7058823529411765
 40
0.7058823529411765
 40
0.7647058823529411
 40
0.7647058823529411
 40
0.7647058823529411
 40
0.7647058823529411
 40
0.8235294117647058
 40
0.8235294117647058
 40
0.8235294117647058
 40
0.8235294117647058
 40
0.8823529411764706
 40
0.8823529411764706
 40
0.8823529411764706
 40
0.8823529411764706
 40
1.0
 40
1.0
 40
1.0
 40
1.0
 10
-142.6119
 20
0.3751
 30
0.0
 10
-140.8964
 20
-1.5459
 30
0.0
 10
-137.5467
 20
-0.9724
 30
0.0
 10
-136.6912
 20
1.7514
 30
0.0
 10
-136.6912
 20
1.7514
 30
0.0
 10
-134.3258
 20
-0.5424
 30
0.0
 10
-128.6627
 20
-4.3952
 30
0.0
 10
-128.4876
 20
-9.7208
 30
0.0
 10
-128.4876
 20
-9.7208
 30
0.0
 10
-128.4044
 20
-12.2555
 30
0.0
 10
-129.8888
 20
-14.8421
 30
0.0
 10
-133.1981
 20
-14.9486
 30
0.0
 10
-133.1981
 20
-14.9486
 30
0.0
 10
-135.1001
 20
-15.0097
 30
0.0
 10
-137.1632
 20
-14.192
 30
0.0
 10
-137.6973
 20
-12.5333
 30
0.0
 10
-137.6973
 20
-12.5333
 30
0.0
 10
-137.758
 20
-12.3448
 30
0.0
 10
-137.6162
 20
-12.1683
 30
0.0
 10
-137.3678
 20
-12.2263
 30
0.0
 10
-137.3678
 20
-12.2263
 30
0.0
 10
-135.001
 20
-12.7792
 30
0.0
 10
-132.7071
 20
-11.3843
 30
0.0
 10
-132.7614
 20
-8.1699
 30
0.0
 10
-132.7614
 20
-8.1699
 30
0.0
 10
-132.807
 20
-5.4641
 30
0.0
 10
-135.0337
 20
-3.7457
 30
0.0
 10
-137.8352
 20
-3.7167
 30
0.0
 10
-137.8352
 20
-3.7167
 30
0.0
 10
-140.1108
 20
-3.6932
 30
0.0
 10
-142.0762
 20
-5.4308
 30
0.0
 10
-142.6119
 20
-7.2801
 30
0.0
 10
-142.6119
 20
-7.2801
 30
0.0
 10
-143.1476
 20
-5.4308
 30
0.0
 10
-145.113
 20
-3.6932
 30
0.0
 10
-147.3886
 20
-3.7167
 30
0.0
 10
-147.3886
 20
-3.7167
 30
0.0
 10
-150.1901
 20
-3.7457
 30
0.0
 10
-152.4167
 20
-5.4641
 30
0.0
 10
-152.4624
 20
-8.1699
 30
0.0
 10
-152.4624
 20
-8.1699
 30
0.0
 10
-152.5166
 20
-11.3843
 30
0.0
 10
-150.2228
 20
-12.7792
 30
0.0
 10
-147.856
 20
-12.2263
 30
0.0
 10
-147.856
 20
-12.2263
 30
0.0
 10
-147.6075
 20
-12.1683
 30
0.0
 10
-147.4658
 20
-12.3448
 30
0.0
 10
-147.5265
 20
-12.5333
 30
0.0
 10
-147.5265
 20
-12.5333
 30
0.0
 10
-148.0606
 20
-14.192
 30
0.0
 10
-150.1237
 20
-15.0097
 30
0.0
 10
-152.0256
 20
-14.9486
 30
0.0
 10
-152.0256
 20
-14.9486
 30
0.0
 10
-155.3349
 20
-14.8421
 30
0.0
 10
-156.8194
 20
-12.2555
 30
0.0
 10
-156.7361
 20
-9.7208
 30
0.0
 10
-156.7361
 20
-9.7208
 30
0.0
 10
-156.5611
 20
-4.3952
 30
0.0
 10
-150.8979
 20
-0.5424
 30
0.0
 10
-148.5325
 20
1.7514
 30
0.0
 10
-148.5325
 20
1.7514
 30
0.0
 10
-147.6771
 20
-0.9724
 30
0.0
 10
-144.3274
 20
-1.5459
 30
0.0
 10
-142.6119
 20
0.3751
 30
0.0
  0
SPLINE
  5
5A
330
1F
100
AcDbEntity
  8
layer 1
 62
   250
100
AcDbSpline
210
0.0
220
0.0
230
1.0
 70
    11
 71
     3
 72
   132
 73
   128
 74
     0
 42
0.0000000001
 43
0.0000000001
 12
1.0
 22
0.0
 32
0.0
 13
1.0
 23
0.0
 33
0.0
 40
0.0
 40
0.0
 40
0.0
 40
0.0
 40
0.0303030303030303
 40
0.0303030303030303
 40
0.0303030303030303
 40
0.0303030303030303
 40
0.0606060606060606
 40
0.0606060606060606
 40
0.0606060606060606
 40
0.0606060606060606
 40
0.0909090909090909
 40
0.0909090909090909
 40
0.0909090909090909
 40
0.0909090909090909
 40
0.1212121212121212
 40
0.1212121212121212
 40
0.1212121212121212
 40
0.1212121212121212
 40
0.1515151515151515
 40
0.1515151515151515
 40
0.1515151515151515
 40
0.1515151515151515
 40
0.1818181818181818
 40
0.1818181818181818
 40
0.1818181818181818
 40
0.1818181818181818
 40
0.2121212121212121
 40
0.2121212121212121
 40
0.2121212121212121
 40
0.2121212121212121
 40
0.2424242424242424
 40
0.2424242424242424
 40
0.2424242424242424
 40
0.2424242424242424
 40
0.2727272727272727
 40
0.2727272727272727
 40
0.2727272727272727
 40
0.2727272727272727
 40
0.303030303030303
 40
0.303030303030303
 40
0.303030303030303
 40
0.303030303030303
 40
0.3333333333333333
 40
0.3333333333333333
 40
0.3333333333333333
 40
0.3333333333333333
 40
0.3636363636363636
 40
0.3636363636363636
 40
0.3636363636363636
 40
0.3636363636363636
 40
0.3939393939393939
 40
0.3939393939393939
 40
0.3939393939393939
 40
0.3939393939393939
 40
0.4242424242424243
 40
0.4242424242424243
 40
0.4242424242424243
 40
0.4242424242424243
 40
0.4545454545454545
 40
0.4545454545454545
 40
0.4545454545454545
 40
0.4545454545454545
 40
0.4848484848484849
 40
0.4848484848484849
 40
0.4848484848484849
 40
0.4848484848484849
 40
0.5151515151515151
 40
0.5151515151515151
 40
0.5151515151515151
 40
0.5151515151515151
 40
0.5454545454545454
 40
0.5454545454545454
 40
0.5454545454545454
 40
0.5454545454545454
 40
0.5757575757575758
 40
0.5757575757575758
 40
0.5757575757575758
 40
0.5757575757575758
 40
0.6060606060606061
 40
0.6060606060606061
 40
0.6060606060606061
 40
0.6060606060606061
 40
0.6363636363636364
 40
0.6363636363636364
 40
0.6363636363636364
 40
0.6363636363636364
 40
0.6666666666666666
 40
0.6666666666666666
 40
0.6666666666666666
 40
0.6666666666666666
 40
0.696969696969697
 40
0.696969696969697
 40
0.696969696969697
 40
0.696969696969697
 40
0.7272727272727273
 40
0.7272727272727273
 40
0.7272727272727273
 40
0.7272727272727273
 40
0.7575757575757576
 40
0.7575757575757576
 40
0.7575757575757576
 40
0.7575757575757576
 40
0.7878787878787878
 40
0.7878787878787878
 40
0.7878787878787878
 40
0.7878787878787878
 40
0.8181818181818182
 40
0.8181818181818182
 40
0.8181818181818182
 40
0.8181818181818182
 40
0.8484848484848485
 40
0.8484848484848485
 40
0.8484848484848485
 40
0.8484848484848485
 40
0.8787878787878788
 40
0.8787878787878788
 40
0.8787878787878788
 40
0.8787878787878788
 40
0.9090909090909091
 40
0.9090909090909091
 40
0.9090909090909091
 40
0.9090909090909091
 40
0.9393939393939394
 40
0.9393939393939394
 40
0.9393939393939394
 40
0.9393939393939394
 40
1.0
 40
1.0
 40
1.0
 40
1.0
 10
-142.6119
 20
-13.8864
 30
0.0
 10
-141.3085
 20
-17.0379
 30
0.0
 10
-137.2622
 20
-19.2751
 30
0.0
 10
-133.6243
 20
-19.2469
 30
0.0
 10
-133.6243
 20
-19.2469
 30
0.0
 10
-129.5084
 20
-19.2148
 30
0.0
 10
-125.4019
 20
-17.2881
 30
0.0
 10
-124.1574
 20
-11.8843
 30
0.0
 10
-124.1574
 20
-11.8843
 30
0.0
 10
-124.0128
 20
-11.2564
 30
0.0
 10
-123.5357
 20
-11.2488
 30
0.0
 10
-123.3158
 20
-11.7677
 30
0.0
 10
-123.3158
 20
-11.7677
 30
0.0
 10
-122.0394
 20
-14.7796
 30
0.0
 10
-121.8858
 20
-17.2825
 30
0.0
 10
-122.3434
 20
-20.7067
 30
0.0
 10
-122.3434
 20
-20.7067
 30
0.0
 10
-121.5881
 20
-19.9431
 30
0.0
 10
-120.9584
 20
-18.8475
 30
0.0
 10
-120.5143
 20
-17.2881
 30
0.0
 10
-120.5143
 20
-17.2881
 30
0.0
 10
-120.3929
 20
-16.8614
 30
0.0
 10
-119.9147
 20
-16.6491
 30
0.0
 10
-119.6798
 20
-17.0591
 30
0.0
 10
-119.6798
 20
-17.0591
 30
0.0
 10
-117.277
 20
-21.254
 30
0.0
 10
-116.1179
 20
-25.0634
 30
0.0
 10
-116.2443
 20
-28.7559
 30
0.0
 10
-116.2443
 20
-28.7559
 30
0.0
 10
-116.4302
 20
-34.1892
 30
0.0
 10
-119.2569
 20
-39.4319
 30
0.0
 10
-127.4613
 20
-39.5207
 30
0.0
 10
-127.4613
 20
-39.5207
 30
0.0
 10
-131.4151
 20
-39.5635
 30
0.0
 10
-133.6053
 20
-37.2469
 30
0.0
 10
-134.0359
 20
-35.2313
 30
0.0
 10
-134.0359
 20
-35.2313
 30
0.0
 10
-134.5239
 20
-32.947
 30
0.0
 10
-133.2857
 20
-29.971
 30
0.0
 10
-130.3868
 20
-29.9554
 30
0.0
 10
-130.3868
 20
-29.9554
 30
0.0
 10
-127.8315
 20
-29.9417
 30
0.0
 10
-126.1565
 20
-31.6121
 30
0.0
 10
-125.7674
 20
-34.7187
 30
0.0
 10
-125.7674
 20
-34.7187
 30
0.0
 10
-123.3565
 20
-32.4665
 30
0.0
 10
-122.9176
 20
-29.4877
 30
0.0
 10
-123.1102
 20
-27.6351
 30
0.0
 10
-123.1102
 20
-27.6351
 30
0.0
 10
-123.6023
 20
-22.9013
 30
0.0
 10
-129.9043
 20
-21.591
 30
0.0
 10
-132.5626
 20
-24.483
 30
0.0
 10
-132.5626
 20
-24.483
 30
0.0
 10
-133.9079
 20
-22.9643
 30
0.0
 10
-137.0835
 20
-22.2921
 30
0.0
 10
-139.6158
 20
-24.3542
 30
0.0
 10
-139.6158
 20
-24.3542
 30
0.0
 10
-142.0339
 20
-26.3233
 30
0.0
 10
-140.7653
 20
-30.6608
 30
0.0
 10
-138.8416
 20
-31.9662
 30
0.0
 10
-138.8416
 20
-31.9662
 30
0.0
 10
-140.2705
 20
-32.4823
 30
0.0
 10
-141.7517
 20
-33.7725
 30
0.0
 10
-142.6119
 20
-35.0627
 30
0.0
 10
-142.6119
 20
-35.0627
 30
0.0
 10
-143.472
 20
-33.7725
 30
0.0
 10
-144.9533
 20
-32.4823
 30
0.0
 10
-146.3822
 20
-31.9662
 30
0.0
 10
-146.3822
 20
-31.9662
 30
0.0
 10
-144.4585
 20
-30.6608
 30
0.0
 10
-143.1899
 20
-26.3233
 30
0.0
 10
-145.6079
 20
-24.3542
 30
0.0
 10
-145.6079
 20
-24.3542
 30
0.0
 10
-148.1403
 20
-22.2921
 30
0.0
 10
-151.3159
 20
-22.9643
 30
0.0
 10
-152.6612
 20
-24.483
 30
0.0
 10
-152.6612
 20
-24.483
 30
0.0
 10
-155.3195
 20
-21.591
 30
0.0
 10
-161.6215
 20
-22.9013
 30
0.0
 10
-162.1136
 20
-27.6351
 30
0.0
 10
-162.1136
 20
-27.6351
 30
0.0
 10
-162.3061
 20
-29.4877
 30
0.0
 10
-161.8673
 20
-32.4665
 30
0.0
 10
-159.4563
 20
-34.7187
 30
0.0
 10
-159.4563
 20
-34.7187
 30
0.0
 10
-159.0673
 20
-31.6121
 30
0.0
 10
-157.3922
 20
-29.9417
 30
0.0
 10
-154.837
 20
-29.9554
 30
0.0
 10
-154.837
 20
-29.9554
 30
0.0
 10
-151.938
 20
-29.971
 30
0.0
 10
-150.6999
 20
-32.947
 30
0.0
 10
-151.1879
 20
-35.2313
 30
0.0
 10
-151.1879
 20
-35.2313
 30
0.0
 10
-151.6185
 20
-37.2469
 30
0.0
 10
-153.8086
 20
-39.5635
 30
0.0
 10
-157.7625
 20
-39.5207
 30
0.0
 10
-157.7625
 20
-39.5207
 30
0.0
 10
-165.9669
 20
-39.4319
 30
0.0
 10
-168.7936
 20
-34.1892
 30
0.0
 10
-168.9795
 20
-28.7559
 30
0.0
 10
-168.9795
 20
-28.7559
 30
0.0
 10
-169.1058
 20
-25.0634
 30
0.0
 10
-167.9468
 20
-21.254
 30
0.0
 10
-165.544
 20
-17.0591
 30
0.0
 10
-165.544
 20
-17.0591
 30
0.0
 10
-165.3091
 20
-16.6491
 30
0.0
 10
-164.8309
 20
-16.8614
 30
0.0
 10
-164.7095
 20
-17.2881
 30
0.0
 10
-164.7095
 20
-17.2881
 30
0.0
 10
-164.2654
 20
-18.8475
 30
0.0
 10
-163.6357
 20
-19.9431
 30
0.0
 10
-162.8803
 20
-20.7067
 30
0.0
 10
-162.8803
 20
-20.7067
 30
0.0
 10
-163.338
 20
-17.2825
 30
0.0
 10
-163.1844
 20
-14.7796
 30
0.0
 10
-161.908
 20
-11.7677
 30
0.0
 10
-161.908
 20
-11.7677
 30
0.0
 10
-161.6881
 20
-11.2488
 30
0.0
 10
-161.211
 20
-11.2564
 30
0.0
 10
-161.0664
 20
-11.8843
 30
0.0
 10
-161.0664
 20
-11.8843
 30
0.0
 10
-159.8219
 20
-17.2881
 30
0.0
 10
-155.7154
 20
-19.2148
 30
0.0
 10
-151.5995
 20
-19.2469
 30
0.0
 10
-151.5995
 20
-19.2469
 30
0.0
 10
-147.9616
 20
-19.2751
 30
0.0
 10
-143.9153
 20
-17.0379
 30
0.0
 10
-142.6119
 20
-13.8864
 30
0.0
  0
SPLINE
  5
5B
330
1F
100
AcDbEntity
  8
layer 1
 62
   250
100
AcDbSpline
210
0.0
220
0.0
230
1.0
 70
    11
 71
     3
 72
    20
 73
    16
 74
     0
 42
0.0000000001
 43
0.0000000001
 12
1.0
 22
0.0
 32
0.0
 13
1.0
 23
0.0
 33
0.0
 40
0.0
 40
0.0
 40
0.0
 40
0.0
 40
0.2
 40
0.2
 40
0.2
 40
0.2
 40
0.4
 40
0.4
 40
0.4
 40
0.4
 40
0.6
 40
0.6
 40
0.6
 40
0.6
 40
1.0
 40
1.0
 40
1.0
 40
1.0
 10
-142.6119
 20
-38.5096
 30
0.0
 10
-139.3335
 20
-40.1495
 30
0.0
 10
-135.3652
 20
-44.2626
 30
0.0
 10
-135.2507
 20
-47.8203
 30
0.0
 10
-135.2507
 20
-47.8203
 30
0.0
 10
-135.046
 20
-54.1794
 30
0.0
 10
-140.2756
 20
-54.3194
 30
0.0
 10
-142.6119
 20
-52.3925
 30
0.0
 10
-142.6119
 20
-52.3925
 30
0.0
 10
-144.9482
 20
-54.3194
 30
0.0
 10
-150.1778
 20
-54.1794
 30
0.0
 10
-149.973
 20
-47.8203
 30
0.0
 10
-149.973
 20
-47.8203
 30
0.0
 10
-149.8586
 20
-44.2626
 30
0.0
 10
-145.8903
 20
-40.1495
 30
0.0
 10
-142.6119
 20
-38.5096
 30
0.0
  0
SPLINE
  5
5C
330
1F
100
AcDbEntity
  8
layer 1
 62
   250
100
AcDbSpline
210
0.0
220
0.0
230
1.0
 70
    11
 71
     3
 72
    92
 73
    88
 74
     0
 42
0.0000000001
 43
0.0000000001
 12
1.0
 22
0.0
 32
0.0
 13
1.0
 23
0.0
 33
0.0
 40
0.0
 40
0.0
 40
0.0
 40
0.0
 40
0.0434782608695652
 40
0.0434782608695652
 40
0.0434782608695652
 40
0.0434782608695652
 40
0.0869565217391304
 40
0.0869565217391304
 40
0.0869565217391304
 40
0.0869565217391304
 40
0.1304347826086956
 40
0.1304347826086956
 40
0.1304347826086956
 40
0.1304347826086956
 40
0.1739130434782609
 40
0.1739130434782609
 40
0.1739130434782609
 40
0.1739130434782609
 40
0.2173913043478261
 40
0.2173913043478261
 40
0.2173913043478261
 40
0.2173913043478261
 40
0.2608695652173913
 40
0.2608695652173913
 40
0.2608695652173913
 40
0.2608695652173913
 40
0.3043478260869565
 40
0.3043478260869565
 40
0.3043478260869565
 40
0.3043478260869565
 40
0.3478260869565217
 40
0.3478260869565217
 40
0.3478260869565217
 40
0.3478260869565217
 40
0.391304347826087
 40
0.391304347826087
 40
0.391304347826087
 40
0.391304347826087
 40
0.4347826086956522
 40
0.4347826086956522
 40
0.4347826086956522
 40
0.4347826086956522
 40
0.4782608695652174
 40
0.4782608695652174
 40
0.4782608695652174
 40
0.4782608695652174
 40
0.5217391304347826
 40
0.5217391304347826
 40
0.5217391304347826
 40
0.5217391304347826
 40
0.5652173913043478
 40
0.5652173913043478
 40
0.5652173913043478
 40
0.5652173913043478
 40
0.6086956521739131
 40
0.6086956521739131
 40
0.6086956521739131
 40
0.6086956521739131
 40
0.6521739130434783
 40
0.6521739130434783
 40
0.6521739130434783
 40
0.6521739130434783
 40
0.6956521739130435
 40
0.6956521739130435
 40
0.6956521739130435
 40
0.6956521739130435
 40
0.7391304347826086
 40
0.7391304347826086
 40
0.7391304347826086
 40
0.7391304347826086
 40
0.782608695652174
 40
0.782608695652174
 40
0.782608695652174
 40
0.782608695652174
 40
0.8260869565217391
 40
0.8260869565217391
 40
0.8260869565217391
 40
0.8260869565217391
 40
0.8695652173913043
 40
0.8695652173913043
 40
0.8695652173913043
 40
0.8695652173913043
 40
0.9130434782608695
 40
0.9130434782608695
 40
0.9130434782608695
 40
0.9130434782608695
 40
1.0
 40
1.0
 40
1.0
 40
1.0
 10
-142.6119
 20
-57.4306
 30
0.0
 10
-140.9719
 20
-60.1688
 30
0.0
 10
-134.5911
 20
-59.7532
 30
0.0
 10
-133.4151
 20
-54.9578
 30
0.0
 10
-133.4151
 20
-54.9578
 30
0.0
 10
-129.8979
 20
-59.4863
 30
0.0
 10
-126.074
 20
-63.8493
 30
0.0
 10
-125.9961
 20
-67.8521
 30
0.0
 10
-125.9961
 20
-67.8521
 30
0.0
 10
-125.9172
 20
-71.9088
 30
0.0
 10
-128.352
 20
-74.7239
 30
0.0
 10
-131.0209
 20
-75.3125
 30
0.0
 10
-131.0209
 20
-75.3125
 30
0.0
 10
-133.8766
 20
-75.9423
 30
0.0
 10
-136.729
 20
-75.4399
 30
0.0
 10
-138.4397
 20
-72.5243
 30
0.0
 10
-138.4397
 20
-72.5243
 30
0.0
 10
-139.0463
 20
-71.4907
 30
0.0
 10
-139.4002
 20
-69.2823
 30
0.0
 10
-138.2955
 20
-67.387
 30
0.0
 10
-138.2955
 20
-67.387
 30
0.0
 10
-138.1928
 20
-67.2106
 30
0.0
 10
-137.9359
 20
-67.3002
 30
0.0
 10
-137.9522
 20
-67.4961
 30
0.0
 10
-137.9522
 20
-67.4961
 30
0.0
 10
-138.0396
 20
-68.5421
 30
0.0
 10
-137.7308
 20
-69.4455
 30
0.0
 10
-137.304
 20
-70.1119
 30
0.0
 10
-137.304
 20
-70.1119
 30
0.0
 10
-136.5393
 20
-71.3058
 30
0.0
 10
-134.6865
 20
-72.1142
 30
0.0
 10
-133.0351
 20
-71.6358
 30
0.0
 10
-133.0351
 20
-71.6358
 30
0.0
 10
-130.8285
 20
-70.9967
 30
0.0
 10
-130.0536
 20
-69.0621
 30
0.0
 10
-130.4815
 20
-66.6929
 30
0.0
 10
-130.4815
 20
-66.6929
 30
0.0
 10
-130.9514
 20
-64.0914
 30
0.0
 10
-132.7932
 20
-62.6098
 30
0.0
 10
-135.6192
 20
-62.4808
 30
0.0
 10
-135.6192
 20
-62.4808
 30
0.0
 10
-138.6379
 20
-62.3429
 30
0.0
 10
-141.8159
 20
-64.0382
 30
0.0
 10
-142.6119
 20
-66.8802
 30
0.0
 10
-142.6119
 20
-66.8802
 30
0.0
 10
-143.4079
 20
-64.0382
 30
0.0
 10
-146.5859
 20
-62.3429
 30
0.0
 10
-149.6046
 20
-62.4808
 30
0.0
 10
-149.6046
 20
-62.4808
 30
0.0
 10
-152.4306
 20
-62.6098
 30
0.0
 10
-154.2724
 20
-64.0914
 30
0.0
 10
-154.7422
 20
-66.6929
 30
0.0
 10
-154.7422
 20
-66.6929
 30
0.0
 10
-155.1702
 20
-69.0621
 30
0.0
 10
-154.3953
 20
-70.9967
 30
0.0
 10
-152.1887
 20
-71.6358
 30
0.0
 10
-152.1887
 20
-71.6358
 30
0.0
 10
-150.5373
 20
-72.1142
 30
0.0
 10
-148.6845
 20
-71.3058
 30
0.0
 10
-147.9198
 20
-70.1119
 30
0.0
 10
-147.9198
 20
-70.1119
 30
0.0
 10
-147.493
 20
-69.4455
 30
0.0
 10
-147.1842
 20
-68.5421
 30
0.0
 10
-147.2716
 20
-67.4961
 30
0.0
 10
-147.2716
 20
-67.4961
 30
0.0
 10
-147.2879
 20
-67.3002
 30
0.0
 10
-147.031
 20
-67.2106
 30
0.0
 10
-146.9283
 20
-67.387
 30
0.0
 10
-146.9283
 20
-67.387
 30
0.0
 10
-145.8235
 20
-69.2823
 30
0.0
 10
-146.1774
 20
-71.4907
 30
0.0
 10
-146.784
 20
-72.5243
 30
0.0
 10
-146.784
 20
-72.5243
 30
0.0
 10
-148.4948
 20
-75.4399
 30
0.0
 10
-151.3471
 20
-75.9423
 30
0.0
 10
-154.2029
 20
-75.3125
 30
0.0
 10
-154.2029
 20
-75.3125
 30
0.0
 10
-156.8718
 20
-74.7239
 30
0.0
 10
-159.3066
 20
-71.9088
 30
0.0
 10
-159.2276
 20
-67.8521
 30
0.0
 10
-159.2276
 20
-67.8521
 30
0.0
 10
-159.1498
 20
-63.8493
 30
0.0
 10
-155.3259
 20
-59.4863
 30
0.0
 10
-151.8087
 20
-54.9578
 30
0.0
 10
-151.8087
 20
-54.9578
 30
0.0
 10
-150.6327
 20
-59.7532
 30
0.0
 10
-144.2519
 20
-60.1688
 30
0.0
 10
-142.6119
 20
-57.4306
 30
0.0
  0
SPLINE
  5
5D
330
1F
100
AcDbEntity
  8
layer 1
 62
   250
100
AcDbSpline
210
0.0
220
0.0
230
1.0
 70
    11
 71
     3
 72
    48
 73
    44
 74
     0
 42
0.0000000001
 43
0.0000000001
 12
1.0
 22
0.0
 32
0.0
 13
1.0
 23
0.0
 33
0.0
 40
0.0
 40
0.0
 40
0.0
 40
0.0
 40
0.0833333333333333
 40
0.0833333333333333
 40
0.0833333333333333
 40
0.0833333333333333
 40
0.1666666666666667
 40
0.1666666666666667
 40
0.1666666666666667
 40
0.1666666666666667
 40
0.25
 40
0.25
 40
0.25
 40
0.25
 40
0.3333333333333333
 40
0.3333333333333333
 40
0.3333333333333333
 40
0.3333333333333333
 40
0.4166666666666667
 40
0.4166666666666667
 40
0.4166666666666667
 40
0.4166666666666667
 40
0.5
 40
0.5
 40
0.5
 40
0.5
 40
0.5833333333333334
 40
0.5833333333333334
 40
0.5833333333333334
 40
0.5833333333333334
 40
0.6666666666666666
 40
0.6666666666666666
 40
0.6666666666666666
 40
0.6666666666666666
 40
0.75
 40
0.75
 40
0.75
 40
0.75
 40
0.8333333333333334
 40
0.8333333333333334
 40
0.8333333333333334
 40
0.8333333333333334
 40
1.0
 40
1.0
 40
1.0
 40
1.0
 10
-126.8633
 20
-43.906
 30
0.0
 10
-117.3571
 20
-43.0001
 30
0.0
 10
-112.1136
 20
-37.0975
 30
0.0
 10
-112.3952
 20
-28.1573
 30
0.0
 10
-112.3952
 20
-28.1573
 30
0.0
 10
-112.5804
 20
-22.2807
 30
0.0
 10
-115.4747
 20
-17.2188
 30
0.0
 10
-118.4206
 20
-12.6183
 30
0.0
 10
-118.4206
 20
-12.6183
 30
0.0
 10
-114.7699
 20
-14.1632
 30
0.0
 10
-111.9579
 20
-14.7693
 30
0.0
 10
-108.8084
 20
-17.7852
 30
0.0
 10
-108.8084
 20
-17.7852
 30
0.0
 10
-109.8071
 20
-18.4039
 30
0.0
 10
-110.5295
 20
-19.0873
 30
0.0
 10
-111.0923
 20
-19.964
 30
0.0
 10
-111.0923
 20
-19.964
 30
0.0
 10
-108.9887
 20
-21.3745
 30
0.0
 10
-107.1654
 20
-23.5868
 30
0.0
 10
-105.8918
 20
-26.5681
 30
0.0
 10
-105.8918
 20
-26.5681
 30
0.0
 10
-106.8835
 20
-26.8292
 30
0.0
 10
-108.1957
 20
-27.3449
 30
0.0
 10
-109.1274
 20
-27.8408
 30
0.0
 10
-109.1274
 20
-27.8408
 30
0.0
 10
-107.7113
 20
-29.5918
 30
0.0
 10
-107.0204
 20
-32.6428
 30
0.0
 10
-106.7296
 20
-36.0475
 30
0.0
 10
-106.7296
 20
-36.0475
 30
0.0
 10
-107.9347
 20
-35.5115
 30
0.0
 10
-108.806
 20
-35.3987
 30
0.0
 10
-110.0413
 20
-35.4201
 30
0.0
 10
-110.0413
 20
-35.4201
 30
0.0
 10
-109.7521
 20
-38.2166
 30
0.0
 10
-110.1607
 20
-40.9375
 30
0.0
 10
-111.1066
 20
-43.6785
 30
0.0
 10
-111.1066
 20
-43.6785
 30
0.0
 10
-111.8669
 20
-43.0706
 30
0.0
 10
-113.1302
 20
-42.4386
 30
0.0
 10
-114.1353
 20
-42.3186
 30
0.0
 10
-114.1353
 20
-42.3186
 30
0.0
 10
-116.7819
 20
-44.5151
 30
0.0
 10
-124.8214
 20
-48.4635
 30
0.0
 10
-126.8633
 20
-43.906
 30
0.0
  0
SPLINE
  5
5E
330
1F
100
AcDbEntity
  8
layer 1
 62
   250
100
AcDbSpline
210
0.0
220
0.0
230
1.0
 70
    11
 71
     3
 72
    32
 73
    28
 74
     0
 42
0.0000000001
 43
0.0000000001
 12
1.0
 22
0.0
 32
0.0
 13
1.0
 23
0.0
 33
0.0
 40
0.0
 40
0.0
 40
0.0
 40
0.0
 40
0.125
 40
0.125
 40
0.125
 40
0.125
 40
0.25
 40
0.25
 40
0.25
 40
0.25
 40
0.375
 40
0.375
 40
0.375
 40
0.375
 40
0.5
 40
0.5
 40
0.5
 40
0.5
 40
0.625
 40
0.625
 40
0.625
 40
0.625
 40
0.75
 40
0.75
 40
0.75
 40
0.75
 40
1.0
 40
1.0
 40
1.0
 40
1.0
 10
-142.6119
 20
-105.5615
 30
0.0
 10
-141.4138
 20
-104.806
 30
0.0
 10
-138.725
 20
-104.628
 30
0.0
 10
-136.5472
 20
-105.8355
 30
0.0
 10
-136.5472
 20
-105.8355
 30
0.0
 10
-133.1852
 20
-107.6995
 30
0.0
 10
-128.8552
 20
-108.7102
 30
0.0
 10
-123.9605
 20
-107.8432
 30
0.0
 10
-123.9605
 20
-107.8432
 30
0.0
 10
-123.6621
 20
-108.4577
 30
0.0
 10
-123.4371
 20
-109.3355
 30
0.0
 10
-123.2476
 20
-110.129
 30
0.0
 10
-123.2476
 20
-110.129
 30
0.0
 10
-123.2476
 20
-110.129
 30
0.0
 10
-161.9762
 20
-110.129
 30
0.0
 10
-161.9762
 20
-110.129
 30
0.0
 10
-161.9762
 20
-110.129
 30
0.0
 10
-161.7867
 20
-109.3355
 30
0.0
 10
-161.5617
 20
-108.4577
 30
0.0
 10
-161.2633
 20
-107.8432
 30
0.0
 10
-161.2633
 20
-107.8432
 30
0.0
 10
-156.3686
 20
-108.7102
 30
0.0
 10
-152.0386
 20
-107.6995
 30
0.0
 10
-148.6766
 20
-105.8355
 30
0.0
 10
-148.6766
 20
-105.8355
 30
0.0
 10
-146.4988
 20
-104.628
 30
0.0
 10
-143.8099
 20
-104.806
 30
0.0
 10
-142.6119
 20
-105.5615
 30
0.0
  0
SPLINE
  5
5F
330
1F
100
AcDbEntity
  8
layer 1
 62
   250
100
AcDbSpline
210
0.0
220
0.0
230
1.0
 70
    11
 71
     3
 72
    56
 73
    52
 74
     0
 42
0.0000000001
 43
0.0000000001
 12
1.0
 22
0.0
 32
0.0
 13
1.0
 23
0.0
 33
0.0
 40
0.0
 40
0.0
 40
0.0
 40
0.0
 40
0.0714285714285714
 40
0.0714285714285714
 40
0.0714285714285714
 40
0.0714285714285714
 40
0.1428571428571428
 40
0.1428571428571428
 40
0.1428571428571428
 40
0.1428571428571428
 40
0.2142857142857143
 40
0.2142857142857143
 40
0.2142857142857143
 40
0.2142857142857143
 40
0.2857142857142857
 40
0.2857142857142857
 40
0.2857142857142857
 40
0.2857142857142857
 40
0.3571428571428572
 40
0.3571428571428572
 40
0.3571428571428572
 40
0.3571428571428572
 40
0.4285714285714285
 40
0.4285714285714285
 40
0.4285714285714285
 40
0.4285714285714285
 40
0.5
 40
0.5
 40
0.5
 40
0.5
 40
0.5714285714285714
 40
0.5714285714285714
 40
0.5714285714285714
 40
0.5714285714285714
 40
0.6428571428571429
 40
0.6428571428571429
 40
0.6428571428571429
 40
0.6428571428571429
 40
0.7142857142857143
 40
0.7142857142857143
 40
0.7142857142857143
 40
0.7142857142857143
 40
0.7857142857142857
 40
0.7857142857142857
 40
0.7857142857142857
 40
0.7857142857142857
 40
0.8571428571428571
 40
0.8571428571428571
 40
0.8571428571428571
 40
0.8571428571428571
 40
1.0
 40
1.0
 40
1.0
 40
1.0
 10
-102.2927
 20
-63.7698
 30
0.0
 10
-102.7416
 20
-66.0596
 30
0.0
 10
-104.5053
 20
-67.2172
 30
0.0
 10
-105.7171
 20
-67.5695
 30
0.0
 10
-105.7171
 20
-67.5695
 30
0.0
 10
-105.2487
 20
-68.0002
 30
0.0
 10
-104.58
 20
-68.9477
 30
0.0
 10
-104.3775
 20
-69.9403
 30
0.0
 10
-104.3775
 20
-69.9403
 30
0.0
 10
-105.628
 20
-70.7683
 30
0.0
 10
-108.5421
 20
-71.387
 30
0.0
 10
-111.0141
 20
-71.1543
 30
0.0
 10
-111.0141
 20
-71.1543
 30
0.0
 10
-111.6136
 20
-71.0979
 30
0.0
 10
-111.866
 20
-71.6081
 30
0.0
 10
-111.4485
 20
-71.9543
 30
0.0
 10
-111.4485
 20
-71.9543
 30
0.0
 10
-108.7302
 20
-74.209
 30
0.0
 10
-106.4503
 20
-77.3144
 30
0.0
 10
-104.9043
 20
-80.3093
 30
0.0
 10
-104.9043
 20
-80.3093
 30
0.0
 10
-105.8635
 20
-80.6018
 30
0.0
 10
-106.8587
 20
-81.1681
 30
0.0
 10
-107.7659
 20
-81.8681
 30
0.0
 10
-107.7659
 20
-81.8681
 30
0.0
 10
-106.1656
 20
-84.5032
 30
0.0
 10
-104.5005
 20
-88.8021
 30
0.0
 10
-104.0813
 20
-92.8024
 30
0.0
 10
-104.0813
 20
-92.8024
 30
0.0
 10
-105.0938
 20
-92.87
 30
0.0
 10
-106.7893
 20
-93.1425
 30
0.0
 10
-107.6309
 20
-93.3809
 30
0.0
 10
-107.6309
 20
-93.3809
 30
0.0
 10
-106.809
 20
-98.0222
 30
0.0
 10
-106.5173
 20
-102.6798
 30
0.0
 10
-108.6407
 20
-107.1454
 30
0.0
 10
-108.6407
 20
-107.1454
 30
0.0
 10
-109.7061
 20
-106.2876
 30
0.0
 10
-111.3178
 20
-105.3956
 30
0.0
 10
-112.5538
 20
-104.8793
 30
0.0
 10
-112.5538
 20
-104.8793
 30
0.0
 10
-113.676
 20
-106.883
 30
0.0
 10
-114.982
 20
-108.8736
 30
0.0
 10
-116.8524
 20
-110.129
 30
0.0
 10
-116.8524
 20
-110.129
 30
0.0
 10
-116.8524
 20
-110.129
 30
0.0
 10
-102.2927
 20
-110.129
 30
0.0
 10
-102.2927
 20
-110.129
 30
0.0
 10
-102.2927
 20
-110.129
 30
0.0
 10
-102.2927
 20
-110.129
 30
0.0
 10
-102.2927
 20
-63.7698
 30
0.0
 10
-102.2927
 20
-63.7698
 30
0.0
  0
SPLINE
  5
60
330
1F
100
AcDbEntity
  8
layer 1
 62
   250
100
AcDbSpline
210
0.0
220
0.0
230
1.0
 70
    11
 71
     3
 72
    96
 73
    92
 74
     0
 42
0.0000000001
 43
0.0000000001
 12
1.0
 22
0.0
 32
0.0
 13
1.0
 23
0.0
 33
0.0
 40
0.0
 40
0.0
 40
0.0
 40
0.0
 40
0.0416666666666667
 40
0.0416666666666667
 40
0.0416666666666667
 40
0.0416666666666667
 40
0.0833333333333333
 40
0.0833333333333333
 40
0.0833333333333333
 40
0.0833333333333333
 40
0.125
 40
0.125
 40
0.125
 40
0.125
 40
0.1666666666666667
 40
0.1666666666666667
 40
0.1666666666666667
 40
0.1666666666666667
 40
0.2083333333333333
 40
0.2083333333333333
 40
0.2083333333333333
 40
0.2083333333333333
 40
0.25
 40
0.25
 40
0.25
 40
0.25
 40
0.2916666666666667
 40
0.2916666666666667
 40
0.2916666666666667
 40
0.2916666666666667
 40
0.3333333333333333
 40
0.3333333333333333
 40
0.3333333333333333
 40
0.3333333333333333
 40
0.375
 40
0.375
 40
0.375
 40
0.375
 40
0.4166666666666667
 40
0.4166666666666667
 40
0.4166666666666667
 40
0.4166666666666667
 40
0.4583333333333333
 40
0.4583333333333333
 40
0.4583333333333333
 40
0.4583333333333333
 40
0.5
 40
0.5
 40
0.5
 40
0.5
 40
0.5416666666666666
 40
0.5416666666666666
 40
0.5416666666666666
 40
0.5416666666666666
 40
0.5833333333333334
 40
0.5833333333333334
 40
0.5833333333333334
 40
0.5833333333333334
 40
0.625
 40
0.625
 40
0.625
 40
0.625
 40
0.6666666666666666
 40
0.6666666666666666
 40
0.6666666666666666
 40
0.6666666666666666
 40
0.7083333333333334
 40
0.7083333333333334
 40
0.7083333333333334
 40
0.7083333333333334
 40
0.75
 40
0.75
 40
0.75
 40
0.75
 40
0.7916666666666666
 40
0.7916666666666666
 40
0.7916666666666666
 40
0.7916666666666666
 40
0.8333333333333334
 40
0.8333333333333334
 40
0.8333333333333334
 40
0.8333333333333334
 40
0.875
 40
0.875
 40
0.875
 40
0.875
 40
0.9166666666666666
 40
0.9166666666666666
 40
0.9166666666666666
 40
0.9166666666666666
 40
1.0
 40
1.0
 40
1.0
 40
1.0
 10
-104.8246
 20
-57.6441
 30
0.0
 10
-103.5344
 20
-57.8223
 30
0.0
 10
-102.4408
 20
-58.7499
 30
0.0
 10
-102.2927
 20
-60.8121
 30
0.0
 10
-102.2927
 20
-60.8121
 30
0.0
 10
-102.2927
 20
-60.8121
 30
0.0
 10
-102.2927
 20
-28.2995
 30
0.0
 10
-102.2927
 20
-28.2995
 30
0.0
 10
-102.2927
 20
-28.2995
 30
0.0
 10
-103.1462
 20
-28.495
 30
0.0
 10
-104.7793
 20
-28.9239
 30
0.0
 10
-105.4096
 20
-29.2261
 30
0.0
 10
-105.4096
 20
-29.2261
 30
0.0
 10
-104.3702
 20
-31.8972
 30
0.0
 10
-103.6259
 20
-37.1345
 30
0.0
 10
-103.8671
 20
-39.3663
 30
0.0
 10
-103.8671
 20
-39.3663
 30
0.0
 10
-104.5656
 20
-39.0682
 30
0.0
 10
-105.8599
 20
-38.814
 30
0.0
 10
-106.6966
 20
-38.8254
 30
0.0
 10
-106.6966
 20
-38.8254
 30
0.0
 10
-106.897
 20
-41.866
 30
0.0
 10
-107.8926
 20
-46.0804
 30
0.0
 10
-110.2775
 20
-48.3593
 30
0.0
 10
-110.2775
 20
-48.3593
 30
0.0
 10
-111.1764
 20
-47.5756
 30
0.0
 10
-112.5991
 20
-46.517
 30
0.0
 10
-114.0553
 20
-46.1789
 30
0.0
 10
-114.0553
 20
-46.1789
 30
0.0
 10
-116.7696
 20
-49.6133
 30
0.0
 10
-124.3737
 20
-50.7402
 30
0.0
 10
-129.152
 20
-48.4244
 30
0.0
 10
-129.152
 20
-48.4244
 30
0.0
 10
-129.507
 20
-48.2524
 30
0.0
 10
-130.0671
 20
-48.741
 30
0.0
 10
-129.6625
 20
-49.0982
 30
0.0
 10
-129.6625
 20
-49.0982
 30
0.0
 10
-126.9487
 20
-51.4928
 30
0.0
 10
-123.6961
 20
-52.6988
 30
0.0
 10
-120.7611
 20
-53.2006
 30
0.0
 10
-120.7611
 20
-53.2006
 30
0.0
 10
-121.7767
 20
-53.8569
 30
0.0
 10
-123.2641
 20
-54.2463
 30
0.0
 10
-125.0457
 20
-54.7176
 30
0.0
 10
-125.0457
 20
-54.7176
 30
0.0
 10
-125.1943
 20
-54.7569
 30
0.0
 10
-125.4078
 20
-55.156
 30
0.0
 10
-125.1793
 20
-55.4781
 30
0.0
 10
-125.1793
 20
-55.4781
 30
0.0
 10
-122.0594
 20
-59.8765
 30
0.0
 10
-116.3295
 20
-65.693
 30
0.0
 10
-113.1649
 20
-65.2918
 30
0.0
 10
-113.1649
 20
-65.2918
 30
0.0
 10
-112.1499
 20
-65.1633
 30
0.0
 10
-110.6134
 20
-64.9281
 30
0.0
 10
-110.8696
 20
-62.1898
 30
0.0
 10
-110.8696
 20
-62.1898
 30
0.0
 10
-111.0641
 20
-60.111
 30
0.0
 10
-114.1065
 20
-58.9551
 30
0.0
 10
-116.1838
 20
-61.0673
 30
0.0
 10
-116.1838
 20
-61.0673
 30
0.0
 10
-118.2581
 20
-58.8365
 30
0.0
 10
-116.587
 20
-54.6279
 30
0.0
 10
-113.7414
 20
-54.6953
 30
0.0
 10
-113.7414
 20
-54.6953
 30
0.0
 10
-111.9936
 20
-54.7366
 30
0.0
 10
-111.166
 20
-55.4766
 30
0.0
 10
-110.6146
 20
-56.3349
 30
0.0
 10
-110.6146
 20
-56.3349
 30
0.0
 10
-110.3621
 20
-56.728
 30
0.0
 10
-109.4124
 20
-56.489
 30
0.0
 10
-109.9659
 20
-55.614
 30
0.0
 10
-109.9659
 20
-55.614
 30
0.0
 10
-110.4805
 20
-54.8002
 30
0.0
 10
-111.048
 20
-54.0163
 30
0.0
 10
-111.0406
 20
-53.12
 30
0.0
 10
-111.0406
 20
-53.12
 30
0.0
 10
-111.0225
 20
-50.9038
 30
0.0
 10
-109.3462
 20
-49.7386
 30
0.0
 10
-107.2411
 20
-49.764
 30
0.0
 10
-107.2411
 20
-49.764
 30
0.0
 10
-104.5691
 20
-49.7963
 30
0.0
 10
-103.6314
 20
-51.3226
 30
0.0
 10
-103.6538
 20
-53.3175
 30
0.0
 10
-103.6538
 20
-53.3175
 30
0.0
 10
-103.6752
 20
-55.2319
 30
0.0
 10
-104.889
 20
-56.0842
 30
0.0
 10
-105.2618
 20
-56.6699
 30
0.0
 10
-105.2618
 20
-56.6699
 30
0.0
 10
-105.624
 20
-57.2393
 30
0.0
 10
-105.1087
 20
-57.6049
 30
0.0
 10
-104.8246
 20
-57.6441
 30
0.0
  0
SPLINE
  5
61
330
1F
100
AcDbEntity
  8
layer 1
 62
   250
100
AcDbSpline
210
0.0
220
0.0
230
1.0
 70
    11
 71
     3
 72
   100
 73
    96
 74
     0
 42
0.0000000001
 43
0.0000000001
 12
1.0
 22
0.0
 32
0.0
 13
1.0
 23
0.0
 33
0.0
 40
0.0
 40
0.0
 40
0.0
 40
0.0
 40
0.04
 40
0.04
 40
0.04
 40
0.04
 40
0.08
 40
0.08
 40
0.08
 40
0.08
 40
0.12
 40
0.12
 40
0.12
 40
0.12
 40
0.16
 40
0.16
 40
0.16
 40
0.16
 40
0.2
 40
0.2
 40
0.2
 40
0.2
 40
0.24
 40
0.24
 40
0.24
 40
0.24
 40
0.28
 40
0.28
 40
0.28
 40
0.28
 40
0.32
 40
0.32
 40
0.32
 40
0.32
 40
0.36
 40
0.36
 40
0.36
 40
0.36
 40
0.4
 40
0.4
 40
0.4
 40
0.4
 40
0.44
 40
0.44
 40
0.44
 40
0.44
 40
0.48
 40
0.48
 40
0.48
 40
0.48
 40
0.52
 40
0.52
 40
0.52
 40
0.52
 40
0.56
 40
0.56
 40
0.56
 40
0.56
 40
0.6
 40
0.6
 40
0.6
 40
0.6
 40
0.64
 40
0.64
 40
0.64
 40
0.64
 40
0.68
 40
0.68
 40
0.68
 40
0.68
 40
0.72
 40
0.72
 40
0.72
 40
0.72
 40
0.76
 40
0.76
 40
0.76
 40
0.76
 40
0.8
 40
0.8
 40
0.8
 40
0.8
 40
0.84
 40
0.84
 40
0.84
 40
0.84
 40
0.88
 40
0.88
 40
0.88
 40
0.88
 40
0.92
 40
0.92
 40
0.92
 40
0.92
 40
1.0
 40
1.0
 40
1.0
 40
1.0
 10
-142.6119
 20
-73.7894
 30
0.0
 10
-141.2519
 20
-77.3192
 30
0.0
 10
-136.84
 20
-79.6791
 30
0.0
 10
-132.5091
 20
-79.4836
 30
0.0
 10
-132.5091
 20
-79.4836
 30
0.0
 10
-128.4051
 20
-79.2984
 30
0.0
 10
-123.7739
 20
-77.192
 30
0.0
 10
-121.9237
 20
-72.8731
 30
0.0
 10
-121.9237
 20
-72.8731
 30
0.0
 10
-120.0101
 20
-75.3244
 30
0.0
 10
-117.279
 20
-79.1486
 30
0.0
 10
-117.0632
 20
-84.9754
 30
0.0
 10
-117.0632
 20
-84.9754
 30
0.0
 10
-116.739
 20
-93.7286
 30
0.0
 10
-121.5616
 20
-97.2278
 30
0.0
 10
-127.372
 20
-97.2825
 30
0.0
 10
-127.372
 20
-97.2825
 30
0.0
 10
-133.457
 20
-97.3399
 30
0.0
 10
-133.6826
 20
-89.3139
 30
0.0
 10
-128.978
 20
-88.8106
 30
0.0
 10
-128.978
 20
-88.8106
 30
0.0
 10
-126.0087
 20
-88.4928
 30
0.0
 10
-123.865
 20
-89.6465
 30
0.0
 10
-122.6054
 20
-91.7821
 30
0.0
 10
-122.6054
 20
-91.7821
 30
0.0
 10
-120.5925
 20
-87.0603
 30
0.0
 10
-122.5365
 20
-84.1829
 30
0.0
 10
-126.3665
 20
-84.9281
 30
0.0
 10
-126.3665
 20
-84.9281
 30
0.0
 10
-126.7112
 20
-79.8336
 30
0.0
 10
-134.8847
 20
-82.1924
 30
0.0
 10
-135.9368
 20
-86.0115
 30
0.0
 10
-135.9368
 20
-86.0115
 30
0.0
 10
-136.582
 20
-85.1587
 30
0.0
 10
-138.1033
 20
-84.0781
 30
0.0
 10
-139.1831
 20
-83.5807
 30
0.0
 10
-139.1831
 20
-83.5807
 30
0.0
 10
-139.8435
 20
-85.245
 30
0.0
 10
-140.0962
 20
-86.9982
 30
0.0
 10
-140.0711
 20
-88.7075
 30
0.0
 10
-140.0711
 20
-88.7075
 30
0.0
 10
-140.0069
 20
-93.0767
 30
0.0
 10
-137.9206
 20
-96.9545
 30
0.0
 10
-133.4089
 20
-98.2621
 30
0.0
 10
-133.4089
 20
-98.2621
 30
0.0
 10
-136.0686
 20
-98.4909
 30
0.0
 10
-141.8042
 20
-101.4384
 30
0.0
 10
-142.6119
 20
-103.7541
 30
0.0
 10
-142.6119
 20
-103.7541
 30
0.0
 10
-143.4196
 20
-101.4384
 30
0.0
 10
-149.1551
 20
-98.4909
 30
0.0
 10
-151.8149
 20
-98.2621
 30
0.0
 10
-151.8149
 20
-98.2621
 30
0.0
 10
-147.3031
 20
-96.9545
 30
0.0
 10
-145.2168
 20
-93.0767
 30
0.0
 10
-145.1527
 20
-88.7075
 30
0.0
 10
-145.1527
 20
-88.7075
 30
0.0
 10
-145.1276
 20
-86.9982
 30
0.0
 10
-145.3802
 20
-85.245
 30
0.0
 10
-146.0407
 20
-83.5807
 30
0.0
 10
-146.0407
 20
-83.5807
 30
0.0
 10
-147.1205
 20
-84.0781
 30
0.0
 10
-148.6417
 20
-85.1587
 30
0.0
 10
-149.287
 20
-86.0115
 30
0.0
 10
-149.287
 20
-86.0115
 30
0.0
 10
-150.3391
 20
-82.1924
 30
0.0
 10
-158.5125
 20
-79.8336
 30
0.0
 10
-158.8573
 20
-84.9281
 30
0.0
 10
-158.8573
 20
-84.9281
 30
0.0
 10
-162.6873
 20
-84.1829
 30
0.0
 10
-164.6313
 20
-87.0603
 30
0.0
 10
-162.6184
 20
-91.7821
 30
0.0
 10
-162.6184
 20
-91.7821
 30
0.0
 10
-161.3587
 20
-89.6465
 30
0.0
 10
-159.2151
 20
-88.4928
 30
0.0
 10
-156.2458
 20
-88.8106
 30
0.0
 10
-156.2458
 20
-88.8106
 30
0.0
 10
-151.5411
 20
-89.3139
 30
0.0
 10
-151.7668
 20
-97.3399
 30
0.0
 10
-157.8518
 20
-97.2825
 30
0.0
 10
-157.8518
 20
-97.2825
 30
0.0
 10
-163.6622
 20
-97.2278
 30
0.0
 10
-168.4848
 20
-93.7286
 30
0.0
 10
-168.1606
 20
-84.9754
 30
0.0
 10
-168.1606
 20
-84.9754
 30
0.0
 10
-167.9448
 20
-79.1486
 30
0.0
 10
-165.2137
 20
-75.3244
 30
0.0
 10
-163.3001
 20
-72.8731
 30
0.0
 10
-163.3001
 20
-72.8731
 30
0.0
 10
-161.4499
 20
-77.192
 30
0.0
 10
-156.8187
 20
-79.2984
 30
0.0
 10
-152.7146
 20
-79.4836
 30
0.0
 10
-152.7146
 20
-79.4836
 30
0.0
 10
-148.3838
 20
-79.6791
 30
0.0
 10
-143.9719
 20
-77.3192
 30
0.0
 10
-142.6119
 20
-73.7894
 30
0.0
  0
SPLINE
  5
62
330
1F
100
AcDbEntity
  8
layer 1
 62
   250
100
AcDbSpline
210
0.0
220
0.0
230
1.0
 70
    11
 71
     3
 72
    56
 73
    52
 74
     0
 42
0.0000000001
 43
0.0000000001
 12
1.0
 22
0.0
 32
0.0
 13
1.0
 23
0.0
 33
0.0
 40
0.0
 40
0.0
 40
0.0
 40
0.0
 40
0.0714285714285714
 40
0.0714285714285714
 40
0.0714285714285714
 40
0.0714285714285714
 40
0.1428571428571428
 40
0.1428571428571428
 40
0.1428571428571428
 40
0.1428571428571428
 40
0.2142857142857143
 40
0.2142857142857143
 40
0.2142857142857143
 40
0.2142857142857143
 40
0.2857142857142857
 40
0.2857142857142857
 40
0.2857142857142857
 40
0.2857142857142857
 40
0.3571428571428572
 40
0.3571428571428572
 40
0.3571428571428572
 40
0.3571428571428572
 40
0.4285714285714285
 40
0.4285714285714285
 40
0.4285714285714285
 40
0.4285714285714285
 40
0.5
 40
0.5
 40
0.5
 40
0.5
 40
0.5714285714285714
 40
0.5714285714285714
 40
0.5714285714285714
 40
0.5714285714285714
 40
0.6428571428571429
 40
0.6428571428571429
 40
0.6428571428571429
 40
0.6428571428571429
 40
0.7142857142857143
 40
0.7142857142857143
 40
0.7142857142857143
 40
0.7142857142857143
 40
0.7857142857142857
 40
0.7857142857142857
 40
0.7857142857142857
 40
0.7857142857142857
 40
0.8571428571428571
 40
0.8571428571428571
 40
0.8571428571428571
 40
0.8571428571428571
 40
1.0
 40
1.0
 40
1.0
 40
1.0
 10
-136.755
 20
-102.3447
 30
0.0
 10
-133.803
 20
-100.8582
 30
0.0
 10
-130.1708
 20
-101.1576
 30
0.0
 10
-129.2779
 20
-101.1639
 30
0.0
 10
-129.2779
 20
-101.1639
 30
0.0
 10
-117.6459
 20
-101.2463
 30
0.0
 10
-113.0449
 20
-94.1447
 30
0.0
 10
-113.1251
 20
-86.3378
 30
0.0
 10
-113.1251
 20
-86.3378
 30
0.0
 10
-113.1924
 20
-79.7754
 30
0.0
 10
-115.3385
 20
-75.5295
 30
0.0
 10
-118.7837
 20
-71.044
 30
0.0
 10
-118.7837
 20
-71.044
 30
0.0
 10
-115.0957
 20
-70.8364
 30
0.0
 10
-110.656
 20
-75.3425
 30
0.0
 10
-108.6424
 20
-79.354
 30
0.0
 10
-108.6424
 20
-79.354
 30
0.0
 10
-109.5167
 20
-79.7564
 30
0.0
 10
-110.6268
 20
-80.5752
 30
0.0
 10
-111.1646
 20
-81.3055
 30
0.0
 10
-111.1646
 20
-81.3055
 30
0.0
 10
-109.488
 20
-83.6775
 30
0.0
 10
-108.1456
 20
-87.7106
 30
0.0
 10
-107.6134
 20
-90.1874
 30
0.0
 10
-107.6134
 20
-90.1874
 30
0.0
 10
-108.6756
 20
-90.3554
 30
0.0
 10
-110.2027
 20
-90.6483
 30
0.0
 10
-111.1527
 20
-90.9991
 30
0.0
 10
-111.1527
 20
-90.9991
 30
0.0
 10
-110.3852
 20
-94.2995
 30
0.0
 10
-109.7612
 20
-99.6368
 30
0.0
 10
-110.9199
 20
-102.1083
 30
0.0
 10
-110.9199
 20
-102.1083
 30
0.0
 10
-111.8939
 20
-101.4881
 30
0.0
 10
-113.0794
 20
-101.0142
 30
0.0
 10
-114.2225
 20
-100.6223
 30
0.0
 10
-114.2225
 20
-100.6223
 30
0.0
 10
-115.1624
 20
-103.2612
 30
0.0
 10
-117.2667
 20
-105.7679
 30
0.0
 10
-119.986
 20
-107.1514
 30
0.0
 10
-119.986
 20
-107.1514
 30
0.0
 10
-120.1646
 20
-106.1146
 30
0.0
 10
-120.562
 20
-104.8809
 30
0.0
 10
-121.0995
 20
-103.9515
 30
0.0
 10
-121.0995
 20
-103.9515
 30
0.0
 10
-129.0749
 20
-107.4384
 30
0.0
 10
-130.2402
 20
-103.991
 30
0.0
 10
-136.6891
 20
-103.111
 30
0.0
 10
-136.6891
 20
-103.111
 30
0.0
 10
-137.0723
 20
-103.0588
 30
0.0
 10
-137.0262
 20
-102.4813
 30
0.0
 10
-136.755
 20
-102.3447
 30
0.0
  0
SPLINE
  5
63
330
1F
100
AcDbEntity
  8
layer 1
 62
   250
100
AcDbSpline
210
0.0
220
0.0
230
1.0
 70
    11
 71
     3
 72
    40
 73
    36
 74
     0
 42
0.0000000001
 43
0.0000000001
 12
1.0
 22
0.0
 32
0.0
 13
1.0
 23
0.0
 33
0.0
 40
0.0
 40
0.0
 40
0.0
 40
0.0
 40
0.1
 40
0.1
 40
0.1
 40
0.1
 40
0.2
 40
0.2
 40
0.2
 40
0.2
 40
0.3
 40
0.3
 40
0.3
 40
0.3
 40
0.4
 40
0.4
 40
0.4
 40
0.4
 40
0.5
 40
0.5
 40
0.5
 40
0.5
 40
0.6
 40
0.6
 40
0.6
 40
0.6
 40
0.7
 40
0.7
 40
0.7
 40
0.7
 40
0.8
 40
0.8
 40
0.8
 40
0.8
 40
1.0
 40
1.0
 40
1.0
 40
1.0
 10
-102.2927
 20
1.0097
 30
0.0
 10
-103.661
 20
-3.878
 30
0.0
 10
-106.6625
 20
-7.3143
 30
0.0
 10
-115.66
 20
-7.3655
 30
0.0
 10
-115.66
 20
-7.3655
 30
0.0
 10
-116.3912
 20
-7.3696
 30
0.0
 10
-116.2848
 20
-7.9479
 30
0.0
 10
-115.6684
 20
-8.1873
 30
0.0
 10
-115.6684
 20
-8.1873
 30
0.0
 10
-114.214
 20
-8.7526
 30
0.0
 10
-113.0583
 20
-9.0942
 30
0.0
 10
-110.8529
 20
-9.4113
 30
0.0
 10
-110.8529
 20
-9.4113
 30
0.0
 10
-111.9405
 20
-9.8802
 30
0.0
 10
-113.2245
 20
-10.201
 30
0.0
 10
-114.138
 20
-10.4067
 30
0.0
 10
-114.138
 20
-10.4067
 30
0.0
 10
-114.4991
 20
-10.488
 30
0.0
 10
-114.5083
 20
-11.12
 30
0.0
 10
-114.1859
 20
-11.2399
 30
0.0
 10
-114.1859
 20
-11.2399
 30
0.0
 10
-111.2342
 20
-12.339
 30
0.0
 10
-107.7545
 20
-14.4063
 30
0.0
 10
-104.9264
 20
-17.7658
 30
0.0
 10
-104.9264
 20
-17.7658
 30
0.0
 10
-105.9562
 20
-18.3142
 30
0.0
 10
-106.4606
 20
-18.9938
 30
0.0
 10
-107.2278
 20
-19.8046
 30
0.0
 10
-107.2278
 20
-19.8046
 30
0.0
 10
-105.4953
 20
-21.1694
 30
0.0
 10
-103.5003
 20
-23.847
 30
0.0
 10
-102.2927
 20
-26.1307
 30
0.0
 10
-102.2927
 20
-26.1307
 30
0.0
 10
-102.2927
 20
-26.1307
 30
0.0
 10
-102.2927
 20
1.0097
 30
0.0
 10
-102.2927
 20
1.0097
 30
0.0
  0
SPLINE
  5
64
330
1F
100
AcDbEntity
  8
layer 1
 62
   250
100
AcDbSpline
210
0.0
220
0.0
230
1.0
 70
    11
 71
     3
 72
    48
 73
    44
 74
     0
 42
0.0000000001
 43
0.0000000001
 12
1.0
 22
0.0
 32
0.0
 13
1.0
 23
0.0
 33
0.0
 40
0.0
 40
0.0
 40
0.0
 40
0.0
 40
0.0833333333333333
 40
0.0833333333333333
 40
0.0833333333333333
 40
0.0833333333333333
 40
0.1666666666666667
 40
0.1666666666666667
 40
0.1666666666666667
 40
0.1666666666666667
 40
0.25
 40
0.25
 40
0.25
 40
0.25
 40
0.3333333333333333
 40
0.3333333333333333
 40
0.3333333333333333
 40
0.3333333333333333
 40
0.4166666666666667
 40
0.4166666666666667
 40
0.4166666666666667
 40
0.4166666666666667
 40
0.5
 40
0.5
 40
0.5
 40
0.5
 40
0.5833333333333334
 40
0.5833333333333334
 40
0.5833333333333334
 40
0.5833333333333334
 40
0.6666666666666666
 40
0.6666666666666666
 40
0.6666666666666666
 40
0.6666666666666666
 40
0.75
 40
0.75
 40
0.75
 40
0.75
 40
0.8333333333333334
 40
0.8333333333333334
 40
0.8333333333333334
 40
0.8333333333333334
 40
1.0
 40
1.0
 40
1.0
 40
1.0
 10
-158.3604
 20
-43.906
 30
0.0
 10
-167.8667
 20
-43.0001
 30
0.0
 10
-173.1102
 20
-37.0975
 30
0.0
 10
-172.8285
 20
-28.1573
 30
0.0
 10
-172.8285
 20
-28.1573
 30
0.0
 10
-172.6434
 20
-22.2807
 30
0.0
 10
-169.749
 20
-17.2188
 30
0.0
 10
-166.8032
 20
-12.6183
 30
0.0
 10
-166.8032
 20
-12.6183
 30
0.0
 10
-170.4538
 20
-14.1632
 30
0.0
 10
-173.2659
 20
-14.7693
 30
0.0
 10
-176.4154
 20
-17.7852
 30
0.0
 10
-176.4154
 20
-17.7852
 30
0.0
 10
-175.4167
 20
-18.4039
 30
0.0
 10
-174.6943
 20
-19.0873
 30
0.0
 10
-174.1315
 20
-19.964
 30
0.0
 10
-174.1315
 20
-19.964
 30
0.0
 10
-176.2351
 20
-21.3745
 30
0.0
 10
-178.0584
 20
-23.5868
 30
0.0
 10
-179.332
 20
-26.5681
 30
0.0
 10
-179.332
 20
-26.5681
 30
0.0
 10
-178.3403
 20
-26.8292
 30
0.0
 10
-177.0281
 20
-27.3449
 30
0.0
 10
-176.0964
 20
-27.8408
 30
0.0
 10
-176.0964
 20
-27.8408
 30
0.0
 10
-177.5125
 20
-29.5918
 30
0.0
 10
-178.2034
 20
-32.6428
 30
0.0
 10
-178.4942
 20
-36.0475
 30
0.0
 10
-178.4942
 20
-36.0475
 30
0.0
 10
-177.2891
 20
-35.5115
 30
0.0
 10
-176.4177
 20
-35.3987
 30
0.0
 10
-175.1825
 20
-35.4201
 30
0.0
 10
-175.1825
 20
-35.4201
 30
0.0
 10
-175.4717
 20
-38.2166
 30
0.0
 10
-175.0631
 20
-40.9375
 30
0.0
 10
-174.1172
 20
-43.6785
 30
0.0
 10
-174.1172
 20
-43.6785
 30
0.0
 10
-173.3568
 20
-43.0706
 30
0.0
 10
-172.0936
 20
-42.4386
 30
0.0
 10
-171.0884
 20
-42.3186
 30
0.0
 10
-171.0884
 20
-42.3186
 30
0.0
 10
-168.4419
 20
-44.5151
 30
0.0
 10
-160.4024
 20
-48.4635
 30
0.0
 10
-158.3604
 20
-43.906
 30
0.0
  0
SPLINE
  5
65
330
1F
100
AcDbEntity
  8
layer 1
 62
   250
100
AcDbSpline
210
0.0
220
0.0
230
1.0
 70
    11
 71
     3
 72
    56
 73
    52
 74
     0
 42
0.0000000001
 43
0.0000000001
 12
1.0
 22
0.0
 32
0.0
 13
1.0
 23
0.0
 33
0.0
 40
0.0
 40
0.0
 40
0.0
 40
0.0
 40
0.0714285714285714
 40
0.0714285714285714
 40
0.0714285714285714
 40
0.0714285714285714
 40
0.1428571428571428
 40
0.1428571428571428
 40
0.1428571428571428
 40
0.1428571428571428
 40
0.2142857142857143
 40
0.2142857142857143
 40
0.2142857142857143
 40
0.2142857142857143
 40
0.2857142857142857
 40
0.2857142857142857
 40
0.2857142857142857
 40
0.2857142857142857
 40
0.3571428571428572
 40
0.3571428571428572
 40
0.3571428571428572
 40
0.3571428571428572
 40
0.4285714285714285
 40
0.4285714285714285
 40
0.4285714285714285
 40
0.4285714285714285
 40
0.5
 40
0.5
 40
0.5
 40
0.5
 40
0.5714285714285714
 40
0.5714285714285714
 40
0.5714285714285714
 40
0.5714285714285714
 40
0.6428571428571429
 40
0.6428571428571429
 40
0.6428571428571429
 40
0.6428571428571429
 40
0.7142857142857143
 40
0.7142857142857143
 40
0.7142857142857143
 40
0.7142857142857143
 40
0.7857142857142857
 40
0.7857142857142857
 40
0.7857142857142857
 40
0.7857142857142857
 40
0.8571428571428571
 40
0.8571428571428571
 40
0.8571428571428571
 40
0.8571428571428571
 40
1.0
 40
1.0
 40
1.0
 40
1.0
 10
-182.9311
 20
-63.7698
 30
0.0
 10
-182.4822
 20
-66.0596
 30
0.0
 10
-180.7184
 20
-67.2172
 30
0.0
 10
-179.5066
 20
-67.5695
 30
0.0
 10
-179.5066
 20
-67.5695
 30
0.0
 10
-179.9751
 20
-68.0002
 30
0.0
 10
-180.6437
 20
-68.9477
 30
0.0
 10
-180.8462
 20
-69.9403
 30
0.0
 10
-180.8462
 20
-69.9403
 30
0.0
 10
-179.5958
 20
-70.7683
 30
0.0
 10
-176.6817
 20
-71.387
 30
0.0
 10
-174.2097
 20
-71.1543
 30
0.0
 10
-174.2097
 20
-71.1543
 30
0.0
 10
-173.6102
 20
-71.0979
 30
0.0
 10
-173.3577
 20
-71.6081
 30
0.0
 10
-173.7753
 20
-71.9543
 30
0.0
 10
-173.7753
 20
-71.9543
 30
0.0
 10
-176.4936
 20
-74.209
 30
0.0
 10
-178.7735
 20
-77.3144
 30
0.0
 10
-180.3195
 20
-80.3093
 30
0.0
 10
-180.3195
 20
-80.3093
 30
0.0
 10
-179.3602
 20
-80.6018
 30
0.0
 10
-178.365
 20
-81.1681
 30
0.0
 10
-177.4579
 20
-81.8681
 30
0.0
 10
-177.4579
 20
-81.8681
 30
0.0
 10
-179.0582
 20
-84.5032
 30
0.0
 10
-180.7233
 20
-88.8021
 30
0.0
 10
-181.1425
 20
-92.8024
 30
0.0
 10
-181.1425
 20
-92.8024
 30
0.0
 10
-180.13
 20
-92.87
 30
0.0
 10
-178.4345
 20
-93.1425
 30
0.0
 10
-177.5929
 20
-93.3809
 30
0.0
 10
-177.5929
 20
-93.3809
 30
0.0
 10
-178.4148
 20
-98.0222
 30
0.0
 10
-178.7065
 20
-102.6798
 30
0.0
 10
-176.583
 20
-107.1454
 30
0.0
 10
-176.583
 20
-107.1454
 30
0.0
 10
-175.5177
 20
-106.2876
 30
0.0
 10
-173.906
 20
-105.3956
 30
0.0
 10
-172.6699
 20
-104.8793
 30
0.0
 10
-172.6699
 20
-104.8793
 30
0.0
 10
-171.5477
 20
-106.883
 30
0.0
 10
-170.2417
 20
-108.8736
 30
0.0
 10
-168.3714
 20
-110.129
 30
0.0
 10
-168.3714
 20
-110.129
 30
0.0
 10
-168.3714
 20
-110.129
 30
0.0
 10
-182.9311
 20
-110.129
 30
0.0
 10
-182.9311
 20
-110.129
 30
0.0
 10
-182.9311
 20
-110.129
 30
0.0
 10
-182.9311
 20
-110.129
 30
0.0
 10
-182.9311
 20
-63.7698
 30
0.0
 10
-182.9311
 20
-63.7698
 30
0.0
  0
SPLINE
  5
66
330
1F
100
AcDbEntity
  8
layer 1
 62
   250
100
AcDbSpline
210
0.0
220
0.0
230
1.0
 70
    11
 71
     3
 72
    96
 73
    92
 74
     0
 42
0.0000000001
 43
0.0000000001
 12
1.0
 22
0.0
 32
0.0
 13
1.0
 23
0.0
 33
0.0
 40
0.0
 40
0.0
 40
0.0
 40
0.0
 40
0.0416666666666667
 40
0.0416666666666667
 40
0.0416666666666667
 40
0.0416666666666667
 40
0.0833333333333333
 40
0.0833333333333333
 40
0.0833333333333333
 40
0.0833333333333333
 40
0.125
 40
0.125
 40
0.125
 40
0.125
 40
0.1666666666666667
 40
0.1666666666666667
 40
0.1666666666666667
 40
0.1666666666666667
 40
0.2083333333333333
 40
0.2083333333333333
 40
0.2083333333333333
 40
0.2083333333333333
 40
0.25
 40
0.25
 40
0.25
 40
0.25
 40
0.2916666666666667
 40
0.2916666666666667
 40
0.2916666666666667
 40
0.2916666666666667
 40
0.3333333333333333
 40
0.3333333333333333
 40
0.3333333333333333
 40
0.3333333333333333
 40
0.375
 40
0.375
 40
0.375
 40
0.375
 40
0.4166666666666667
 40
0.4166666666666667
 40
0.4166666666666667
 40
0.4166666666666667
 40
0.4583333333333333
 40
0.4583333333333333
 40
0.4583333333333333
 40
0.4583333333333333
 40
0.5
 40
0.5
 40
0.5
 40
0.5
 40
0.5416666666666666
 40
0.5416666666666666
 40
0.5416666666666666
 40
0.5416666666666666
 40
0.5833333333333334
 40
0.5833333333333334
 40
0.5833333333333334
 40
0.5833333333333334
 40
0.625
 40
0.625
 40
0.625
 40
0.625
 40
0.6666666666666666
 40
0.6666666666666666
 40
0.6666666666666666
 40
0.6666666666666666
 40
0.7083333333333334
 40
0.7083333333333334
 40
0.7083333333333334
 40
0.7083333333333334
 40
0.75
 40
0.75
 40
0.75
 40
0.75
 40
0.7916666666666666
 40
0.7916666666666666
 40
0.7916666666666666
 40
0.7916666666666666
 40
0.8333333333333334
 40
0.8333333333333334
 40
0.8333333333333334
 40
0.8333333333333334
 40
0.875
 40
0.875
 40
0.875
 40
0.875
 40
0.9166666666666666
 40
0.9166666666666666
 40
0.9166666666666666
 40
0.9166666666666666
 40
1.0
 40
1.0
 40
1.0
 40
1.0
 10
-180.3991
 20
-57.6441
 30
0.0
 10
-181.6893
 20
-57.8223
 30
0.0
 10
-182.783
 20
-58.7499
 30
0.0
 10
-182.9311
 20
-60.8121
 30
0.0
 10
-182.9311
 20
-60.8121
 30
0.0
 10
-182.9311
 20
-60.8121
 30
0.0
 10
-182.9311
 20
-28.2995
 30
0.0
 10
-182.9311
 20
-28.2995
 30
0.0
 10
-182.9311
 20
-28.2995
 30
0.0
 10
-182.0775
 20
-28.495
 30
0.0
 10
-180.4445
 20
-28.9239
 30
0.0
 10
-179.8142
 20
-29.2261
 30
0.0
 10
-179.8142
 20
-29.2261
 30
0.0
 10
-180.8536
 20
-31.8972
 30
0.0
 10
-181.5978
 20
-37.1345
 30
0.0
 10
-181.3567
 20
-39.3663
 30
0.0
 10
-181.3567
 20
-39.3663
 30
0.0
 10
-180.6582
 20
-39.0682
 30
0.0
 10
-179.3638
 20
-38.814
 30
0.0
 10
-178.5272
 20
-38.8254
 30
0.0
 10
-178.5272
 20
-38.8254
 30
0.0
 10
-178.3267
 20
-41.866
 30
0.0
 10
-177.3312
 20
-46.0804
 30
0.0
 10
-174.9463
 20
-48.3593
 30
0.0
 10
-174.9463
 20
-48.3593
 30
0.0
 10
-174.0474
 20
-47.5756
 30
0.0
 10
-172.6247
 20
-46.517
 30
0.0
 10
-171.1685
 20
-46.1789
 30
0.0
 10
-171.1685
 20
-46.1789
 30
0.0
 10
-168.4541
 20
-49.6133
 30
0.0
 10
-160.85
 20
-50.7402
 30
0.0
 10
-156.0718
 20
-48.4244
 30
0.0
 10
-156.0718
 20
-48.4244
 30
0.0
 10
-155.7167
 20
-48.2524
 30
0.0
 10
-155.1566
 20
-48.741
 30
0.0
 10
-155.5613
 20
-49.0982
 30
0.0
 10
-155.5613
 20
-49.0982
 30
0.0
 10
-158.2751
 20
-51.4928
 30
0.0
 10
-161.5276
 20
-52.6988
 30
0.0
 10
-164.4626
 20
-53.2006
 30
0.0
 10
-164.4626
 20
-53.2006
 30
0.0
 10
-163.447
 20
-53.8569
 30
0.0
 10
-161.9597
 20
-54.2463
 30
0.0
 10
-160.1781
 20
-54.7176
 30
0.0
 10
-160.1781
 20
-54.7176
 30
0.0
 10
-160.0294
 20
-54.7569
 30
0.0
 10
-159.816
 20
-55.156
 30
0.0
 10
-160.0444
 20
-55.4781
 30
0.0
 10
-160.0444
 20
-55.4781
 30
0.0
 10
-163.1644
 20
-59.8765
 30
0.0
 10
-168.8943
 20
-65.693
 30
0.0
 10
-172.0589
 20
-65.2918
 30
0.0
 10
-172.0589
 20
-65.2918
 30
0.0
 10
-173.0739
 20
-65.1633
 30
0.0
 10
-174.6104
 20
-64.9281
 30
0.0
 10
-174.3542
 20
-62.1898
 30
0.0
 10
-174.3542
 20
-62.1898
 30
0.0
 10
-174.1596
 20
-60.111
 30
0.0
 10
-171.1173
 20
-58.9551
 30
0.0
 10
-169.04
 20
-61.0673
 30
0.0
 10
-169.04
 20
-61.0673
 30
0.0
 10
-166.9657
 20
-58.8365
 30
0.0
 10
-168.6368
 20
-54.6279
 30
0.0
 10
-171.4823
 20
-54.6953
 30
0.0
 10
-171.4823
 20
-54.6953
 30
0.0
 10
-173.2302
 20
-54.7366
 30
0.0
 10
-174.0578
 20
-55.4766
 30
0.0
 10
-174.6092
 20
-56.3349
 30
0.0
 10
-174.6092
 20
-56.3349
 30
0.0
 10
-174.8616
 20
-56.728
 30
0.0
 10
-175.8114
 20
-56.489
 30
0.0
 10
-175.2579
 20
-55.614
 30
0.0
 10
-175.2579
 20
-55.614
 30
0.0
 10
-174.7433
 20
-54.8002
 30
0.0
 10
-174.1758
 20
-54.0163
 30
0.0
 10
-174.1831
 20
-53.12
 30
0.0
 10
-174.1831
 20
-53.12
 30
0.0
 10
-174.2013
 20
-50.9038
 30
0.0
 10
-175.8776
 20
-49.7386
 30
0.0
 10
-177.9827
 20
-49.764
 30
0.0
 10
-177.9827
 20
-49.764
 30
0.0
 10
-180.6547
 20
-49.7963
 30
0.0
 10
-181.5924
 20
-51.3226
 30
0.0
 10
-181.57
 20
-53.3175
 30
0.0
 10
-181.57
 20
-53.3175
 30
0.0
 10
-181.5486
 20
-55.2319
 30
0.0
 10
-180.3347
 20
-56.0842
 30
0.0
 10
-179.962
 20
-56.6699
 30
0.0
 10
-179.962
 20
-56.6699
 30
0.0
 10
-179.5998
 20
-57.2393
 30
0.0
 10
-180.1151
 20
-57.6049
 30
0.0
 10
-180.3991
 20
-57.6441
 30
0.0
  0
SPLINE
  5
67
330
1F
100
AcDbEntity
  8
layer 1
 62
   250
100
AcDbSpline
210
0.0
220
0.0
230
1.0
 70
    11
 71
     3
 72
    56
 73
    52
 74
     0
 42
0.0000000001
 43
0.0000000001
 12
1.0
 22
0.0
 32
0.0
 13
1.0
 23
0.0
 33
0.0
 40
0.0
 40
0.0
 40
0.0
 40
0.0
 40
0.0714285714285714
 40
0.0714285714285714
 40
0.0714285714285714
 40
0.0714285714285714
 40
0.1428571428571428
 40
0.1428571428571428
 40
0.1428571428571428
 40
0.1428571428571428
 40
0.2142857142857143
 40
0.2142857142857143
 40
0.2142857142857143
 40
0.2142857142857143
 40
0.2857142857142857
 40
0.2857142857142857
 40
0.2857142857142857
 40
0.2857142857142857
 40
0.3571428571428572
 40
0.3571428571428572
 40
0.3571428571428572
 40
0.3571428571428572
 40
0.4285714285714285
 40
0.4285714285714285
 40
0.4285714285714285
 40
0.4285714285714285
 40
0.5
 40
0.5
 40
0.5
 40
0.5
 40
0.5714285714285714
 40
0.5714285714285714
 40
0.5714285714285714
 40
0.5714285714285714
 40
0.6428571428571429
 40
0.6428571428571429
 40
0.6428571428571429
 40
0.6428571428571429
 40
0.7142857142857143
 40
0.7142857142857143
 40
0.7142857142857143
 40
0.7142857142857143
 40
0.7857142857142857
 40
0.7857142857142857
 40
0.7857142857142857
 40
0.7857142857142857
 40
0.8571428571428571
 40
0.8571428571428571
 40
0.8571428571428571
 40
0.8571428571428571
 40
1.0
 40
1.0
 40
1.0
 40
1.0
 10
-148.4688
 20
-102.3447
 30
0.0
 10
-151.4207
 20
-100.8582
 30
0.0
 10
-155.0529
 20
-101.1576
 30
0.0
 10
-155.9459
 20
-101.1639
 30
0.0
 10
-155.9459
 20
-101.1639
 30
0.0
 10
-167.5779
 20
-101.2463
 30
0.0
 10
-172.1788
 20
-94.1447
 30
0.0
 10
-172.0986
 20
-86.3378
 30
0.0
 10
-172.0986
 20
-86.3378
 30
0.0
 10
-172.0313
 20
-79.7754
 30
0.0
 10
-169.8852
 20
-75.5295
 30
0.0
 10
-166.4401
 20
-71.044
 30
0.0
 10
-166.4401
 20
-71.044
 30
0.0
 10
-170.128
 20
-70.8364
 30
0.0
 10
-174.5677
 20
-75.3425
 30
0.0
 10
-176.5814
 20
-79.354
 30
0.0
 10
-176.5814
 20
-79.354
 30
0.0
 10
-175.7071
 20
-79.7564
 30
0.0
 10
-174.597
 20
-80.5752
 30
0.0
 10
-174.0592
 20
-81.3055
 30
0.0
 10
-174.0592
 20
-81.3055
 30
0.0
 10
-175.7358
 20
-83.6775
 30
0.0
 10
-177.0782
 20
-87.7106
 30
0.0
 10
-177.6104
 20
-90.1874
 30
0.0
 10
-177.6104
 20
-90.1874
 30
0.0
 10
-176.5482
 20
-90.3554
 30
0.0
 10
-175.0211
 20
-90.6483
 30
0.0
 10
-174.071
 20
-90.9991
 30
0.0
 10
-174.071
 20
-90.9991
 30
0.0
 10
-174.8386
 20
-94.2995
 30
0.0
 10
-175.4626
 20
-99.6368
 30
0.0
 10
-174.3039
 20
-102.1083
 30
0.0
 10
-174.3039
 20
-102.1083
 30
0.0
 10
-173.3298
 20
-101.4881
 30
0.0
 10
-172.1443
 20
-101.0142
 30
0.0
 10
-171.0013
 20
-100.6223
 30
0.0
 10
-171.0013
 20
-100.6223
 30
0.0
 10
-170.0614
 20
-103.2612
 30
0.0
 10
-167.9571
 20
-105.7679
 30
0.0
 10
-165.2378
 20
-107.1514
 30
0.0
 10
-165.2378
 20
-107.1514
 30
0.0
 10
-165.0591
 20
-106.1146
 30
0.0
 10
-164.6618
 20
-104.8809
 30
0.0
 10
-164.1243
 20
-103.9515
 30
0.0
 10
-164.1243
 20
-103.9515
 30
0.0
 10
-156.1488
 20
-107.4384
 30
0.0
 10
-154.9836
 20
-103.991
 30
0.0
 10
-148.5347
 20
-103.111
 30
0.0
 10
-148.5347
 20
-103.111
 30
0.0
 10
-148.1515
 20
-103.0588
 30
0.0
 10
-148.1975
 20
-102.4813
 30
0.0
 10
-148.4688
 20
-102.3447
 30
0.0
  0
SPLINE
  5
68
330
1F
100
AcDbEntity
  8
layer 1
 62
   250
100
AcDbSpline
210
0.0
220
0.0
230
1.0
 70
    11
 71
     3
 72
    40
 73
    36
 74
     0
 42
0.0000000001
 43
0.0000000001
 12
1.0
 22
0.0
 32
0.0
 13
1.0
 23
0.0
 33
0.0
 40
0.0
 40
0.0
 40
0.0
 40
0.0
 40
0.1
 40
0.1
 40
0.1
 40
0.1
 40
0.2
 40
0.2
 40
0.2
 40
0.2
 40
0.3
 40
0.3
 40
0.3
 40
0.3
 40
0.4
 40
0.4
 40
0.4
 40
0.4
 40
0.5
 40
0.5
 40
0.5
 40
0.5
 40
0.6
 40
0.6
 40
0.6
 40
0.6
 40
0.7
 40
0.7
 40
0.7
 40
0.7
 40
0.8
 40
0.8
 40
0.8
 40
0.8
 40
1.0
 40
1.0
 40
1.0
 40
1.0
 10
-182.9311
 20
1.0097
 30
0.0
 10
-181.5628
 20
-3.878
 30
0.0
 10
-178.5613
 20
-7.3143
 30
0.0
 10
-169.5638
 20
-7.3655
 30
0.0
 10
-169.5638
 20
-7.3655
 30
0.0
 10
-168.8326
 20
-7.3696
 30
0.0
 10
-168.939
 20
-7.9479
 30
0.0
 10
-169.5554
 20
-8.1873
 30
0.0
 10
-169.5554
 20
-8.1873
 30
0.0
 10
-171.0098
 20
-8.7526
 30
0.0
 10
-172.1655
 20
-9.0942
 30
0.0
 10
-174.3709
 20
-9.4113
 30
0.0
 10
-174.3709
 20
-9.4113
 30
0.0
 10
-173.2832
 20
-9.8802
 30
0.0
 10
-171.9993
 20
-10.201
 30
0.0
 10
-171.0857
 20
-10.4067
 30
0.0
 10
-171.0857
 20
-10.4067
 30
0.0
 10
-170.7247
 20
-10.488
 30
0.0
 10
-170.7155
 20
-11.12
 30
0.0
 10
-171.0379
 20
-11.2399
 30
0.0
 10
-171.0379
 20
-11.2399
 30
0.0
 10
-173.9896
 20
-12.339
 30
0.0
 10
-177.4693
 20
-14.4063
 30
0.0
 10
-180.2973
 20
-17.7658
 30
0.0
 10
-180.2973
 20
-17.7658
 30
0.0
 10
-179.2676
 20
-18.3142
 30
0.0
 10
-178.7632
 20
-18.9938
 30
0.0
 10
-177.996
 20
-19.8046
 30
0.0
 10
-177.996
 20
-19.8046
 30
0.0
 10
-179.7285
 20
-21.1694
 30
0.0
 10
-181.7235
 20
-23.847
 30
0.0
 10
-182.9311
 20
-26.1307
 30
0.0
 10
-182.9311
 20
-26.1307
 30
0.0
 10
-182.9311
 20
-26.1307
 30
0.0
 10
-182.9311
 20
1.0097
 30
0.0
 10
-182.9311
 20
1.0097
 30
0.0
  0
ENDSEC
  0
SECTION
  2
OBJECTS
  0
DICTIONARY
  5
C
330
0
100
AcDbDictionary
281
     1
  3
ACAD_GROUP
350
D
  3
ACAD_LAYOUT
350
1A
  3
ACAD_MATERIAL
350
3B
  3
ACAD_MLEADERSTYLE
350
8B
  3
ACAD_MLINESTYLE
350
17
  3
ACAD_PLOTSETTINGS
350
19
  3
ACAD_PLOTSTYLENAME
350
E
  3
ACAD_TABLESTYLE
350
8A
  3
ACAD_VISUALSTYLE
350
2A
  0
DICTIONARY
  5
D
102
{ACAD_REACTORS
330
C
102
}
330
C
100
AcDbDictionary
281
     1
  0
DICTIONARY
  5
1A
102
{ACAD_REACTORS
330
C
102
}
330
C
100
AcDbDictionary
281
     1
  3
Layout1
350
1E
  3
Layout2
350
26
  3
Model
350
22
  0
DICTIONARY
  5
3B
102
{ACAD_REACTORS
330
C
102
}
330
C
100
AcDbDictionary
281
     1
  3
ByBlock
350
3D
  3
ByLayer
350
3C
  3
Global
350
3E
  0
DICTIONARY
  5
8B
102
{ACAD_REACTORS
330
C
102
}
330
C
100
AcDbDictionary
281
     1
  0
DICTIONARY
  5
17
102
{ACAD_REACTORS
330
C
102
}
330
C
100
AcDbDictionary
281
     1
  3
Standard
350
18
  0
DICTIONARY
  5
19
102
{ACAD_REACTORS
330
C
102
}
330
C
100
AcDbDictionary
281
     1
  0
ACDBDICTIONARYWDFLT
  5
E
102
{ACAD_REACTORS
330
C
102
}
330
C
100
AcDbDictionary
281
     1
  3
Normal
350
F
100
AcDbDictionaryWithDefault
340
F
  0
DICTIONARY
  5
8A
102
{ACAD_REACTORS
330
C
102
}
330
C
100
AcDbDictionary
281
     1
  0
DICTIONARY
  5
2A
102
{ACAD_REACTORS
330
C
102
}
330
C
100
AcDbDictionary
281
     1
  3
2dWireframe
350
2F
  3
3D Hidden
350
31
  3
3dWireframe
350
30
  3
Basic
350
32
  3
Brighten
350
36
  3
ColorChange
350
3A
  3
Conceptual
350
34
  3
Dim
350
35
  3
Facepattern
350
39
  3
Flat
350
2B
  3
FlatWithEdges
350
2C
  3
Gouraud
350
2D
  3
GouraudWithEdges
350
2E
  3
Linepattern
350
38
  3
Realistic
350
33
  3
Thicken
350
37
  0
LAYOUT
  5
1E
102
{ACAD_REACTORS
330
1A
102
}
330
1A
100
AcDbPlotSettings
  1

  2
none_device
  4

  6

 40
0.0
 41
0.0
 42
0.0
 43
0.0
 44
0.0
 45
0.0
 46
0.0
 47
0.0
 48
0.0
 49
0.0
140
0.0
141
0.0
142
1.0
143
1.0
 70
   688
 72
     0
 73
     0
 74
     5
  7

 75
    16
 76
     0
 77
     2
 78
   300
147
1.0
148
0.0
149
0.0
100
AcDbLayout
  1
Layout1
 70
     1
 71
     1
 10
0.0
 20
0.0
 11
12.0
 21
9.0
 12
0.0
 22
0.0
 32
0.0
 14
1.000000000000000E+20
 24
1.000000000000000E+20
 34
1.000000000000000E+20
 15
-1.000000000000000E+20
 25
-1.000000000000000E+20
 35
-1.000000000000000E+20
146
0.0
 13
0.0
 23
0.0
 33
0.0
 16
1.0
 26
0.0
 36
0.0
 17
0.0
 27
1.0
 37
0.0
 76
     0
330
1B
  0
LAYOUT
  5
26
102
{ACAD_REACTORS
330
1A
102
}
330
1A
100
AcDbPlotSettings
  1

  2
none_device
  4

  6

 40
0.0
 41
0.0
 42
0.0
 43
0.0
 44
0.0
 45
0.0
 46
0.0
 47
0.0
 48
0.0
 49
0.0
140
0.0
141
0.0
142
1.0
143
1.0
 70
   688
 72
     0
 73
     0
 74
     5
  7

 75
    16
 76
     0
 77
     2
 78
   300
147
1.0
148
0.0
149
0.0
100
AcDbLayout
  1
Layout2
 70
     1
 71
     2
 10
0.0
 20
0.0
 11
0.0
 21
0.0
 12
0.0
 22
0.0
 32
0.0
 14
0.0
 24
0.0
 34
0.0
 15
0.0
 25
0.0
 35
0.0
146
0.0
 13
0.0
 23
0.0
 33
0.0
 16
1.0
 26
0.0
 36
0.0
 17
0.0
 27
1.0
 37
0.0
 76
     0
330
23
  0
LAYOUT
  5
22
102
{ACAD_REACTORS
330
1A
102
}
330
1A
100
AcDbPlotSettings
  1

  2
none_device
  4

  6

 40
0.0
 41
0.0
 42
0.0
 43
0.0
 44
0.0
 45
0.0
 46
0.0
 47
0.0
 48
0.0
 49
0.0
140
0.0
141
0.0
142
1.0
143
1.0
 70
  1712
 72
     0
 73
     0
 74
     0
  7

 75
     0
 76
     0
 77
     2
 78
   300
147
1.0
148
0.0
149
0.0
100
AcDbLayout
  1
Model
 70
     1
 71
     0
 10
0.0
 20
0.0
 11
12.0
 21
9.0
 12
0.0
 22
0.0
 32
0.0
 14
-187.411
 24
-114.6089
 34
0.0
 15
-97.8128
 25
131.7861
 35
0.0
146
0.0
 13
0.0
 23
0.0
 33
0.0
 16
1.0
 26
0.0
 36
0.0
 17
0.0
 27
1.0
 37
0.0
 76
     0
330
1F
331
29
  0
MATERIAL
  5
3D
102
{ACAD_REACTORS
330
3B
102
}
330
3B
100
AcDbMaterial
  1
ByBlock
 72
     1
 94
      127
  0
MATERIAL
  5
3C
102
{ACAD_REACTORS
330
3B
102
}
330
3B
100
AcDbMaterial
  1
ByLayer
 72
     1
 94
      127
  0
MATERIAL
  5
3E
102
{ACAD_REACTORS
330
3B
102
}
330
3B
100
AcDbMaterial
  1
Global
 72
     1
 94
      127
  0
MLINESTYLE
  5
18
102
{ACAD_REACTORS
330
17
102
}
330
17
100
AcDbMlineStyle
  2
Standard
 70
     0
  3

 62
   256
 51
90.0
 52
90.0
 71
     2
 49
0.5
 62
   256
  6
BYLAYER
 49
-0.5
 62
   256
  6
BYLAYER
  0
ACDBPLACEHOLDER
  5
F
102
{ACAD_REACTORS
330
E
102
}
330
E
  0
VISUALSTYLE
  5
2F
102
{ACAD_REACTORS
330
2A
102
}
102
{ACAD_XDICTIONARY
360
72
102
}
330
2A
100
AcDbVisualStyle
  2
2dWireframe
 70
     4
 71
     0
 72
     2
 73
     0
 90
        0
 40
-0.6
 41
-30.0
 62
     5
 63
     7
421
 16777215
 74
     1
 91
        4
 64
     7
 65
   257
 75
     1
175
     1
 42
1.0
 92
        0
 66
   257
 43
1.0
 76
     1
 77
     6
 78
     2
 67
     7
 79
     5
170
     0
171
     0
290
     0
174
     0
 93
        1
 44
0.0
173
     0
291
     0
 45
0.0
  0
VISUALSTYLE
  5
31
102
{ACAD_REACTORS
330
2A
102
}
102
{ACAD_XDICTIONARY
360
76
102
}
330
2A
100
AcDbVisualStyle
  2
3D Hidden
 70
     6
 71
     1
 72
     2
 73
     2
 90
        0
 40
-0.6
 41
-30.0
 62
     5
 63
     7
421
 16777215
 74
     2
 91
        2
 64
     7
 65
   257
 75
     2
175
     1
 42
40.0
 92
        0
 66
   257
 43
1.0
 76
     1
 77
     6
 78
     2
 67
     7
 79
     3
170
     0
171
     0
290
     0
174
     0
 93
        1
 44
0.0
173
     0
291
     0
 45
0.0
  0
VISUALSTYLE
  5
30
102
{ACAD_REACTORS
330
2A
102
}
102
{ACAD_XDICTIONARY
360
74
102
}
330
2A
100
AcDbVisualStyle
  2
3dWireframe
 70
     5
 71
     0
 72
     2
 73
     0
 90
        0
 40
-0.6
 41
-30.0
 62
     5
 63
     7
421
 16777215
 74
     1
 91
        4
 64
     7
 65
   257
 75
     1
175
     1
 42
1.0
 92
        0
 66
   257
 43
1.0
 76
     1
 77
     6
 78
     2
 67
     7
 79
     5
170
     0
171
     0
290
     0
174
     0
 93
        1
 44
0.0
173
     0
291
     0
 45
0.0
  0
VISUALSTYLE
  5
32
102
{ACAD_REACTORS
330
2A
102
}
102
{ACAD_XDICTIONARY
360
78
102
}
330
2A
100
AcDbVisualStyle
  2
Basic
 70
     7
 71
     1
 72
     0
 73
     1
 90
        0
 40
-0.6
 41
-30.0
 62
     5
 63
     7
421
 16777215
 74
     0
 91
        4
 64
     7
 65
   257
 75
     1
175
     1
 42
1.0
 92
        8
 66
     7
 43
1.0
 76
     1
 77
     6
 78
     2
 67
     7
 79
     5
170
     0
171
     0
290
     0
174
     0
 93
        1
 44
0.0
173
     0
291
     1
 45
0.0
  0
VISUALSTYLE
  5
36
102
{ACAD_REACTORS
330
2A
102
}
102
{ACAD_XDICTIONARY
360
80
102
}
330
2A
100
AcDbVisualStyle
  2
Brighten
 70
    12
 71
     2
 72
     2
 73
     0
 90
        0
 40
-0.6
 41
-30.0
 62
     5
 63
     7
421
 16777215
 74
     1
 91
        4
 64
     7
 65
   257
 75
     1
175
     1
 42
1.0
 92
        8
 66
     7
 43
1.0
 76
     1
 77
     6
 78
     2
 67
     7
 79
     5
170
     0
171
     0
290
     0
174
     0
 93
        1
 44
50.0
173
     0
291
     1
 45
0.0
  0
VISUALSTYLE
  5
3A
102
{ACAD_REACTORS
330
2A
102
}
102
{ACAD_XDICTIONARY
360
88
102
}
330
2A
100
AcDbVisualStyle
  2
ColorChange
 70
    16
 71
     2
 72
     2
 73
     3
 90
        0
 40
-0.6
 41
-30.0
 62
     5
 63
     8
421
  8421504
 74
     1
 91
        4
 64
     7
 65
   257
 75
     1
175
     1
 42
1.0
 92
        8
 66
     8
424
  8421504
 43
1.0
 76
     1
 77
     6
 78
     2
 67
     7
 79
     5
170
     0
171
     0
290
     0
174
     0
 93
        1
 44
0.0
173
     0
291
     1
 45
0.0
  0
VISUALSTYLE
  5
34
102
{ACAD_REACTORS
330
2A
102
}
102
{ACAD_XDICTIONARY
360
7C
102
}
330
2A
100
AcDbVisualStyle
  2
Conceptual
 70
     9
 71
     3
 72
     2
 73
     0
 90
        0
 40
-0.6
 41
-30.0
 62
     5
 63
     7
421
 16777215
 74
     2
 91
        2
 64
     7
 65
   257
 75
     1
175
     1
 42
40.0
 92
        8
 66
     7
 43
1.0
 76
     1
 77
     6
 78
     2
 67
     7
 79
     3
170
     0
171
     0
290
     0
174
     0
 93
        1
 44
0.0
173
     0
291
     0
 45
0.0
  0
VISUALSTYLE
  5
35
102
{ACAD_REACTORS
330
2A
102
}
102
{ACAD_XDICTIONARY
360
7E
102
}
330
2A
100
AcDbVisualStyle
  2
Dim
 70
    11
 71
     2
 72
     2
 73
     0
 90
        0
 40
-0.6
 41
-30.0
 62
     5
 63
     7
421
 16777215
 74
     1
 91
        4
 64
     7
 65
   257
 75
     1
175
     1
 42
1.0
 92
        8
 66
     7
 43
1.0
 76
     1
 77
     6
 78
     2
 67
     7
 79
     5
170
     0
171
     0
290
     0
174
     0
 93
        1
 44
-50.0
173
     0
291
     1
 45
0.0
  0
VISUALSTYLE
  5
39
102
{ACAD_REACTORS
330
2A
102
}
102
{ACAD_XDICTIONARY
360
86
102
}
330
2A
100
AcDbVisualStyle
  2
Facepattern
 70
    15
 71
     2
 72
     2
 73
     0
 90
        0
 40
-0.6
 41
-30.0
 62
     5
 63
     7
421
 16777215
 74
     1
 91
        4
 64
     7
 65
   257
 75
     1
175
     1
 42
1.0
 92
        8
 66
     7
 43
1.0
 76
     1
 77
     6
 78
     2
 67
     7
 79
     5
170
     0
171
     0
290
     0
174
     0
 93
        1
 44
0.0
173
     0
291
     1
 45
0.0
  0
VISUALSTYLE
  5
2B
102
{ACAD_REACTORS
330
2A
102
}
102
{ACAD_XDICTIONARY
360
6A
102
}
330
2A
100
AcDbVisualStyle
  2
Flat
 70
     0
 71
     2
 72
     1
 73
     1
 90
        2
 40
-0.6
 41
30.0
 62
     5
 63
     7
421
 16777215
 74
     0
 91
        4
 64
     7
 65
   257
 75
     1
175
     1
 42
1.0
 92
        8
 66
     7
 43
1.0
 76
     1
 77
     6
 78
     2
 67
     7
 79
     5
170
     0
171
     0
290
     0
174
     0
 93
       13
 44
0.0
173
     0
291
     1
 45
0.0
  0
VISUALSTYLE
  5
2C
102
{ACAD_REACTORS
330
2A
102
}
102
{ACAD_XDICTIONARY
360
6C
102
}
330
2A
100
AcDbVisualStyle
  2
FlatWithEdges
 70
     1
 71
     2
 72
     1
 73
     1
 90
        2
 40
-0.6
 41
30.0
 62
     5
 63
     7
421
 16777215
 74
     1
 91
        4
 64
     7
 65
   257
 75
     1
175
     1
 42
1.0
 92
        0
 66
   257
 43
1.0
 76
     1
 77
     6
 78
     2
 67
     7
 79
     5
170
     0
171
     0
290
     0
174
     0
 93
       13
 44
0.0
173
     0
291
     1
 45
0.0
  0
VISUALSTYLE
  5
2D
102
{ACAD_REACTORS
330
2A
102
}
102
{ACAD_XDICTIONARY
360
6E
102
}
330
2A
100
AcDbVisualStyle
  2
Gouraud
 70
     2
 71
     2
 72
     2
 73
     1
 90
        2
 40
-0.6
 41
30.0
 62
     5
 63
     7
421
 16777215
 74
     0
 91
        4
 64
     7
 65
   257
 75
     1
175
     1
 42
1.0
 92
        0
 66
     7
 43
1.0
 76
     1
 77
     6
 78
     2
 67
     7
 79
     5
170
     0
171
     0
290
     0
174
     0
 93
       13
 44
0.0
173
     0
291
     1
 45
0.0
  0
VISUALSTYLE
  5
2E
102
{ACAD_REACTORS
330
2A
102
}
102
{ACAD_XDICTIONARY
360
70
102
}
330
2A
100
AcDbVisualStyle
  2
GouraudWithEdges
 70
     3
 71
     2
 72
     2
 73
     1
 90
        2
 40
-0.6
 41
30.0
 62
     5
 63
     7
421
 16777215
 74
     1
 91
        4
 64
     7
 65
   257
 75
     1
175
     1
 42
1.0
 92
        0
 66
   257
 43
1.0
 76
     1
 77
     6
 78
     2
 67
     7
 79
     5
170
     0
171
     0
290
     0
174
     0
 93
       13
 44
0.0
173
     0
291
     1
 45
0.0
  0
VISUALSTYLE
  5
38
102
{ACAD_REACTORS
330
2A
102
}
102
{ACAD_XDICTIONARY
360
84
102
}
330
2A
100
AcDbVisualStyle
  2
Linepattern
 70
    14
 71
     2
 72
     2
 73
     0
 90
        0
 40
-0.6
 41
-30.0
 62
     5
 63
     7
421
 16777215
 74
     1
 91
        4
 64
     7
 65
   257
 75
     7
175
     7
 42
1.0
 92
        8
 66
     7
 43
1.0
 76
     1
 77
     6
 78
     2
 67
     7
 79
     5
170
     0
171
     0
290
     0
174
     0
 93
        1
 44
0.0
173
     0
291
     1
 45
0.0
  0
VISUALSTYLE
  5
33
102
{ACAD_REACTORS
330
2A
102
}
102
{ACAD_XDICTIONARY
360
7A
102
}
330
2A
100
AcDbVisualStyle
  2
Realistic
 70
     8
 71
     2
 72
     2
 73
     0
 90
        0
 40
-0.6
 41
-30.0
 62
     5
 63
     7
421
 16777215
 74
     1
 91
        0
 64
     7
 65
   257
 75
     1
175
     1
 42
1.0
 92
        8
 66
     8
424
  7895160
 43
1.0
 76
     1
 77
     6
 78
     2
 67
     7
 79
     5
170
     0
171
     0
290
     0
174
     0
 93
       13
 44
0.0
173
     0
291
     0
 45
0.0
  0
VISUALSTYLE
  5
37
102
{ACAD_REACTORS
330
2A
102
}
102
{ACAD_XDICTIONARY
360
82
102
}
330
2A
100
AcDbVisualStyle
  2
Thicken
 70
    13
 71
     2
 72
     2
 73
     0
 90
        0
 40
-0.6
 41
-30.0
 62
     5
 63
     7
421
 16777215
 74
     1
 91
        4
 64
     7
 65
   257
 75
     1
175
     1
 42
1.0
 92
       12
 66
     7
 43
1.0
 76
     1
 77
     6
 78
     2
 67
     7
 79
     5
170
     0
171
     0
290
     0
174
     0
 93
        1
 44
0.0
173
     0
291
     1
 45
0.0
  0
DICTIONARY
  5
72
330
2F
100
AcDbDictionary
280
     1
281
     1
  3
ACAD_XREC_ROUNDTRIP
360
73
  0
DICTIONARY
  5
76
330
31
100
AcDbDictionary
280
     1
281
     1
  3
ACAD_XREC_ROUNDTRIP
360
77
  0
DICTIONARY
  5
74
330
30
100
AcDbDictionary
280
     1
281
     1
  3
ACAD_XREC_ROUNDTRIP
360
75
  0
DICTIONARY
  5
78
330
32
100
AcDbDictionary
280
     1
281
     1
  3
ACAD_XREC_ROUNDTRIP
360
79
  0
DICTIONARY
  5
80
330
36
100
AcDbDictionary
280
     1
281
     1
  3
ACAD_XREC_ROUNDTRIP
360
81
  0
DICTIONARY
  5
88
330
3A
100
AcDbDictionary
280
     1
281
     1
  3
ACAD_XREC_ROUNDTRIP
360
89
  0
DICTIONARY
  5
7C
330
34
100
AcDbDictionary
280
     1
281
     1
  3
ACAD_XREC_ROUNDTRIP
360
7D
  0
DICTIONARY
  5
7E
330
35
100
AcDbDictionary
280
     1
281
     1
  3
ACAD_XREC_ROUNDTRIP
360
7F
  0
DICTIONARY
  5
86
330
39
100
AcDbDictionary
280
     1
281
     1
  3
ACAD_XREC_ROUNDTRIP
360
87
  0
DICTIONARY
  5
6A
330
2B
100
AcDbDictionary
280
     1
281
     1
  3
ACAD_XREC_ROUNDTRIP
360
6B
  0
DICTIONARY
  5
6C
330
2C
100
AcDbDictionary
280
     1
281
     1
  3
ACAD_XREC_ROUNDTRIP
360
6D
  0
DICTIONARY
  5
6E
330
2D
100
AcDbDictionary
280
     1
281
     1
  3
ACAD_XREC_ROUNDTRIP
360
6F
  0
DICTIONARY
  5
70
330
2E
100
AcDbDictionary
280
     1
281
     1
  3
ACAD_XREC_ROUNDTRIP
360
71
  0
DICTIONARY
  5
84
330
38
100
AcDbDictionary
280
     1
281
     1
  3
ACAD_XREC_ROUNDTRIP
360
85
  0
DICTIONARY
  5
7A
330
33
100
AcDbDictionary
280
     1
281
     1
  3
ACAD_XREC_ROUNDTRIP
360
7B
  0
DICTIONARY
  5
82
330
37
100
AcDbDictionary
280
     1
281
     1
  3
ACAD_XREC_ROUNDTRIP
360
83
  0
XRECORD
  5
73
102
{ACAD_REACTORS
330
72
102
}
330
72
100
AcDbXrecord
280
     1
102
RTVSPropertyOp0
 70
     1
102
RTVSPropertyOp1
 70
     1
102
RTVSPropertyOp2
 70
     1
102
RTVSPropertyOp3
 70
     1
102
RTVSPropertyOp4
 70
     1
102
RTVSPropertyOp5
 70
     1
102
RTVSPropertyOp6
 70
     1
102
RTVSPropertyOp7
 70
     1
102
RTVSPropertyOp8
 70
     1
102
RTVSPropertyOp9
 70
     1
102
RTVSPropertyOp10
 70
     1
102
RTVSPropertyOp11
 70
     1
102
RTVSPropertyOp12
 70
     1
102
RTVSPropertyOp13
 70
     1
102
RTVSPropertyOp14
 70
     1
102
RTVSPropertyOp15
 70
     1
102
RTVSPropertyOp16
 70
     1
102
RTVSPropertyOp17
 70
     1
102
RTVSPropertyOp18
 70
     1
102
RTVSPropertyOp19
 70
     1
102
RTVSPropertyOp20
 70
     1
102
RTVSPropertyOp21
 70
     1
102
RTVSPropertyOp22
 70
     1
102
RTVSPropertyOp23
 70
     1
102
RTVSPropertyOp24
 70
     1
102
RTVSPropertyOp25
 70
     1
102
RTVSPropertyOp26
 70
     1
102
RTVSPropertyOp27
 70
     1
102
RTVSPropertyOp28
 70
     1
102
RTVSPropertyOp29
 70
     1
102
RTVSPropertyOp30
 70
     1
102
RTVSPropertyOp31
 70
     1
102
RTVSPropertyOp32
 70
     1
  0
XRECORD
  5
77
102
{ACAD_REACTORS
330
76
102
}
330
76
100
AcDbXrecord
280
     1
102
RTVSPropertyOp0
 70
     1
102
RTVSPropertyOp1
 70
     1
102
RTVSPropertyOp2
 70
     1
102
RTVSPropertyOp3
 70
     1
102
RTVSPropertyOp4
 70
     1
102
RTVSPropertyOp5
 70
     1
102
RTVSPropertyOp6
 70
     1
102
RTVSPropertyOp7
 70
     1
102
RTVSPropertyOp8
 70
     1
102
RTVSPropertyOp9
 70
     1
102
RTVSPropertyOp10
 70
     1
102
RTVSPropertyOp11
 70
     1
102
RTVSPropertyOp12
 70
     1
102
RTVSPropertyOp13
 70
     1
102
RTVSPropertyOp14
 70
     1
102
RTVSPropertyOp15
 70
     1
102
RTVSPropertyOp16
 70
     1
102
RTVSPropertyOp17
 70
     1
102
RTVSPropertyOp18
 70
     1
102
RTVSPropertyOp19
 70
     1
102
RTVSPropertyOp20
 70
     1
102
RTVSPropertyOp21
 70
     1
102
RTVSPropertyOp22
 70
     1
102
RTVSPropertyOp23
 70
     1
102
RTVSPropertyOp24
 70
     1
102
RTVSPropertyOp25
 70
     1
102
RTVSPropertyOp26
 70
     1
102
RTVSPropertyOp27
 70
     1
102
RTVSPropertyOp28
 70
     1
102
RTVSPropertyOp29
 70
     1
102
RTVSPropertyOp30
 70
     1
102
RTVSPropertyOp31
 70
     1
102
RTVSPropertyOp32
 70
     1
  0
XRECORD
  5
75
102
{ACAD_REACTORS
330
74
102
}
330
74
100
AcDbXrecord
280
     1
102
RTVSPropertyOp0
 70
     1
102
RTVSPropertyOp1
 70
     1
102
RTVSPropertyOp2
 70
     1
102
RTVSPropertyOp3
 70
     1
102
RTVSPropertyOp4
 70
     1
102
RTVSPropertyOp5
 70
     1
102
RTVSPropertyOp6
 70
     1
102
RTVSPropertyOp7
 70
     1
102
RTVSPropertyOp8
 70
     1
102
RTVSPropertyOp9
 70
     1
102
RTVSPropertyOp10
 70
     1
102
RTVSPropertyOp11
 70
     1
102
RTVSPropertyOp12
 70
     1
102
RTVSPropertyOp13
 70
     1
102
RTVSPropertyOp14
 70
     1
102
RTVSPropertyOp15
 70
     1
102
RTVSPropertyOp16
 70
     1
102
RTVSPropertyOp17
 70
     1
102
RTVSPropertyOp18
 70
     1
102
RTVSPropertyOp19
 70
     1
102
RTVSPropertyOp20
 70
     1
102
RTVSPropertyOp21
 70
     1
102
RTVSPropertyOp22
 70
     1
102
RTVSPropertyOp23
 70
     1
102
RTVSPropertyOp24
 70
     1
102
RTVSPropertyOp25
 70
     1
102
RTVSPropertyOp26
 70
     1
102
RTVSPropertyOp27
 70
     1
102
RTVSPropertyOp28
 70
     1
102
RTVSPropertyOp29
 70
     1
102
RTVSPropertyOp30
 70
     1
102
RTVSPropertyOp31
 70
     1
102
RTVSPropertyOp32
 70
     1
  0
XRECORD
  5
79
102
{ACAD_REACTORS
330
78
102
}
330
78
100
AcDbXrecord
280
     1
102
RTVSPropertyOp0
 70
     1
102
RTVSPropertyOp1
 70
     1
102
RTVSPropertyOp2
 70
     1
102
RTVSPropertyOp3
 70
     1
102
RTVSPropertyOp4
 70
     1
102
RTVSPropertyOp5
 70
     1
102
RTVSPropertyOp6
 70
     1
102
RTVSPropertyOp7
 70
     1
102
RTVSPropertyOp8
 70
     1
102
RTVSPropertyOp9
 70
     1
102
RTVSPropertyOp10
 70
     1
102
RTVSPropertyOp11
 70
     1
102
RTVSPropertyOp12
 70
     1
102
RTVSPropertyOp13
 70
     1
102
RTVSPropertyOp14
 70
     1
102
RTVSPropertyOp15
 70
     1
102
RTVSPropertyOp16
 70
     1
102
RTVSPropertyOp17
 70
     1
102
RTVSPropertyOp18
 70
     1
102
RTVSPropertyOp19
 70
     1
102
RTVSPropertyOp20
 70
     1
102
RTVSPropertyOp21
 70
     1
102
RTVSPropertyOp22
 70
     1
102
RTVSPropertyOp23
 70
     1
102
RTVSPropertyOp24
 70
     1
102
RTVSPropertyOp25
 70
     1
102
RTVSPropertyOp26
 70
     1
102
RTVSPropertyOp27
 70
     1
102
RTVSPropertyOp28
 70
     1
102
RTVSPropertyOp29
 70
     1
102
RTVSPropertyOp30
 70
     1
102
RTVSPropertyOp31
 70
     1
102
RTVSPropertyOp32
 70
     1
  0
XRECORD
  5
81
102
{ACAD_REACTORS
330
80
102
}
330
80
100
AcDbXrecord
280
     1
102
RTVSPropertyOp0
 70
     1
102
RTVSPropertyOp1
 70
     1
102
RTVSPropertyOp2
 70
     1
102
RTVSPropertyOp3
 70
     1
102
RTVSPropertyOp4
 70
     1
102
RTVSPropertyOp5
 70
     1
102
RTVSPropertyOp6
 70
     1
102
RTVSPropertyOp7
 70
     1
102
RTVSPropertyOp8
 70
     1
102
RTVSPropertyOp9
 70
     1
102
RTVSPropertyOp10
 70
     1
102
RTVSPropertyOp11
 70
     1
102
RTVSPropertyOp12
 70
     1
102
RTVSPropertyOp13
 70
     1
102
RTVSPropertyOp14
 70
     1
102
RTVSPropertyOp15
 70
     1
102
RTVSPropertyOp16
 70
     1
102
RTVSPropertyOp17
 70
     1
102
RTVSPropertyOp18
 70
     1
102
RTVSPropertyOp19
 70
     1
102
RTVSPropertyOp20
 70
     1
102
RTVSPropertyOp21
 70
     1
102
RTVSPropertyOp22
 70
     1
102
RTVSPropertyOp23
 70
     1
102
RTVSPropertyOp24
 70
     1
102
RTVSPropertyOp25
 70
     1
102
RTVSPropertyOp26
 70
     1
102
RTVSPropertyOp27
 70
     1
102
RTVSPropertyOp28
 70
     1
102
RTVSPropertyOp29
 70
     1
102
RTVSPropertyOp30
 70
     1
102
RTVSPropertyOp31
 70
     1
102
RTVSPropertyOp32
 70
     1
  0
XRECORD
  5
89
102
{ACAD_REACTORS
330
88
102
}
330
88
100
AcDbXrecord
280
     1
102
RTVSPropertyOp0
 70
     1
102
RTVSPropertyOp1
 70
     1
102
RTVSPropertyOp2
 70
     1
102
RTVSPropertyOp3
 70
     1
102
RTVSPropertyOp4
 70
     1
102
RTVSPropertyOp5
 70
     1
102
RTVSPropertyOp6
 70
     1
102
RTVSPropertyOp7
 70
     1
102
RTVSPropertyOp8
 70
     1
102
RTVSPropertyOp9
 70
     1
102
RTVSPropertyOp10
 70
     1
102
RTVSPropertyOp11
 70
     1
102
RTVSPropertyOp12
 70
     1
102
RTVSPropertyOp13
 70
     1
102
RTVSPropertyOp14
 70
     1
102
RTVSPropertyOp15
 70
     1
102
RTVSPropertyOp16
 70
     1
102
RTVSPropertyOp17
 70
     1
102
RTVSPropertyOp18
 70
     1
102
RTVSPropertyOp19
 70
     1
102
RTVSPropertyOp20
 70
     1
102
RTVSPropertyOp21
 70
     1
102
RTVSPropertyOp22
 70
     1
102
RTVSPropertyOp23
 70
     1
102
RTVSPropertyOp24
 70
     1
102
RTVSPropertyOp25
 70
     1
102
RTVSPropertyOp26
 70
     1
102
RTVSPropertyOp27
 70
     1
102
RTVSPropertyOp28
 70
     1
102
RTVSPropertyOp29
 70
     1
102
RTVSPropertyOp30
 70
     1
102
RTVSPropertyOp31
 70
     1
102
RTVSPropertyOp32
 70
     1
  0
XRECORD
  5
7D
102
{ACAD_REACTORS
330
7C
102
}
330
7C
100
AcDbXrecord
280
     1
102
RTVSPropertyOp0
 70
     1
102
RTVSPropertyOp1
 70
     1
102
RTVSPropertyOp2
 70
     1
102
RTVSPropertyOp3
 70
     1
102
RTVSPropertyOp4
 70
     1
102
RTVSPropertyOp5
 70
     1
102
RTVSPropertyOp6
 70
     1
102
RTVSPropertyOp7
 70
     1
102
RTVSPropertyOp8
 70
     1
102
RTVSPropertyOp9
 70
     1
102
RTVSPropertyOp10
 70
     1
102
RTVSPropertyOp11
 70
     1
102
RTVSPropertyOp12
 70
     1
102
RTVSPropertyOp13
 70
     1
102
RTVSPropertyOp14
 70
     1
102
RTVSPropertyOp15
 70
     1
102
RTVSPropertyOp16
 70
     1
102
RTVSPropertyOp17
 70
     1
102
RTVSPropertyOp18
 70
     1
102
RTVSPropertyOp19
 70
     1
102
RTVSPropertyOp20
 70
     1
102
RTVSPropertyOp21
 70
     1
102
RTVSPropertyOp22
 70
     1
102
RTVSPropertyOp23
 70
     1
102
RTVSPropertyOp24
 70
     1
102
RTVSPropertyOp25
 70
     1
102
RTVSPropertyOp26
 70
     1
102
RTVSPropertyOp27
 70
     1
102
RTVSPropertyOp28
 70
     1
102
RTVSPropertyOp29
 70
     1
102
RTVSPropertyOp30
 70
     1
102
RTVSPropertyOp31
 70
     1
102
RTVSPropertyOp32
 70
     1
  0
XRECORD
  5
7F
102
{ACAD_REACTORS
330
7E
102
}
330
7E
100
AcDbXrecord
280
     1
102
RTVSPropertyOp0
 70
     1
102
RTVSPropertyOp1
 70
     1
102
RTVSPropertyOp2
 70
     1
102
RTVSPropertyOp3
 70
     1
102
RTVSPropertyOp4
 70
     1
102
RTVSPropertyOp5
 70
     1
102
RTVSPropertyOp6
 70
     1
102
RTVSPropertyOp7
 70
     1
102
RTVSPropertyOp8
 70
     1
102
RTVSPropertyOp9
 70
     1
102
RTVSPropertyOp10
 70
     1
102
RTVSPropertyOp11
 70
     1
102
RTVSPropertyOp12
 70
     1
102
RTVSPropertyOp13
 70
     1
102
RTVSPropertyOp14
 70
     1
102
RTVSPropertyOp15
 70
     1
102
RTVSPropertyOp16
 70
     1
102
RTVSPropertyOp17
 70
     1
102
RTVSPropertyOp18
 70
     1
102
RTVSPropertyOp19
 70
     1
102
RTVSPropertyOp20
 70
     1
102
RTVSPropertyOp21
 70
     1
102
RTVSPropertyOp22
 70
     1
102
RTVSPropertyOp23
 70
     1
102
RTVSPropertyOp24
 70
     1
102
RTVSPropertyOp25
 70
     1
102
RTVSPropertyOp26
 70
     1
102
RTVSPropertyOp27
 70
     1
102
RTVSPropertyOp28
 70
     1
102
RTVSPropertyOp29
 70
     1
102
RTVSPropertyOp30
 70
     1
102
RTVSPropertyOp31
 70
     1
102
RTVSPropertyOp32
 70
     1
  0
XRECORD
  5
87
102
{ACAD_REACTORS
330
86
102
}
330
86
100
AcDbXrecord
280
     1
102
RTVSPropertyOp0
 70
     1
102
RTVSPropertyOp1
 70
     1
102
RTVSPropertyOp2
 70
     1
102
RTVSPropertyOp3
 70
     1
102
RTVSPropertyOp4
 70
     1
102
RTVSPropertyOp5
 70
     1
102
RTVSPropertyOp6
 70
     1
102
RTVSPropertyOp7
 70
     1
102
RTVSPropertyOp8
 70
     1
102
RTVSPropertyOp9
 70
     1
102
RTVSPropertyOp10
 70
     1
102
RTVSPropertyOp11
 70
     1
102
RTVSPropertyOp12
 70
     1
102
RTVSPropertyOp13
 70
     1
102
RTVSPropertyOp14
 70
     1
102
RTVSPropertyOp15
 70
     1
102
RTVSPropertyOp16
 70
     1
102
RTVSPropertyOp17
 70
     1
102
RTVSPropertyOp18
 70
     1
102
RTVSPropertyOp19
 70
     1
102
RTVSPropertyOp20
 70
     1
102
RTVSPropertyOp21
 70
     1
102
RTVSPropertyOp22
 70
     1
102
RTVSPropertyOp23
 70
     1
102
RTVSPropertyOp24
 70
     1
102
RTVSPropertyOp25
 70
     1
102
RTVSPropertyOp26
 70
     1
102
RTVSPropertyOp27
 70
     1
102
RTVSPropertyOp28
 70
     1
102
RTVSPropertyOp29
 70
     1
102
RTVSPropertyOp30
 70
     1
102
RTVSPropertyOp31
 70
     1
102
RTVSPropertyOp32
 70
     1
  0
XRECORD
  5
6B
102
{ACAD_REACTORS
330
6A
102
}
330
6A
100
AcDbXrecord
280
     1
102
RTVSPropertyOp0
 70
     1
102
RTVSPropertyOp1
 70
     1
102
RTVSPropertyOp2
 70
     1
102
RTVSPropertyOp3
 70
     1
102
RTVSPropertyOp4
 70
     1
102
RTVSPropertyOp5
 70
     1
102
RTVSPropertyOp6
 70
     1
102
RTVSPropertyOp7
 70
     1
102
RTVSPropertyOp8
 70
     1
102
RTVSPropertyOp9
 70
     1
102
RTVSPropertyOp10
 70
     1
102
RTVSPropertyOp11
 70
     1
102
RTVSPropertyOp12
 70
     1
102
RTVSPropertyOp13
 70
     1
102
RTVSPropertyOp14
 70
     1
102
RTVSPropertyOp15
 70
     1
102
RTVSPropertyOp16
 70
     1
102
RTVSPropertyOp17
 70
     1
102
RTVSPropertyOp18
 70
     1
102
RTVSPropertyOp19
 70
     1
102
RTVSPropertyOp20
 70
     1
102
RTVSPropertyOp21
 70
     1
102
RTVSPropertyOp22
 70
     1
102
RTVSPropertyOp23
 70
     1
102
RTVSPropertyOp24
 70
     1
102
RTVSPropertyOp25
 70
     1
102
RTVSPropertyOp26
 70
     1
102
RTVSPropertyOp27
 70
     1
102
RTVSPropertyOp28
 70
     1
102
RTVSPropertyOp29
 70
     1
102
RTVSPropertyOp30
 70
     1
102
RTVSPropertyOp31
 70
     1
102
RTVSPropertyOp32
 70
     1
  0
XRECORD
  5
6D
102
{ACAD_REACTORS
330
6C
102
}
330
6C
100
AcDbXrecord
280
     1
102
RTVSPropertyOp0
 70
     1
102
RTVSPropertyOp1
 70
     1
102
RTVSPropertyOp2
 70
     1
102
RTVSPropertyOp3
 70
     1
102
RTVSPropertyOp4
 70
     1
102
RTVSPropertyOp5
 70
     1
102
RTVSPropertyOp6
 70
     1
102
RTVSPropertyOp7
 70
     1
102
RTVSPropertyOp8
 70
     1
102
RTVSPropertyOp9
 70
     1
102
RTVSPropertyOp10
 70
     1
102
RTVSPropertyOp11
 70
     1
102
RTVSPropertyOp12
 70
     1
102
RTVSPropertyOp13
 70
     1
102
RTVSPropertyOp14
 70
     1
102
RTVSPropertyOp15
 70
     1
102
RTVSPropertyOp16
 70
     1
102
RTVSPropertyOp17
 70
     1
102
RTVSPropertyOp18
 70
     1
102
RTVSPropertyOp19
 70
     1
102
RTVSPropertyOp20
 70
     1
102
RTVSPropertyOp21
 70
     1
102
RTVSPropertyOp22
 70
     1
102
RTVSPropertyOp23
 70
     1
102
RTVSPropertyOp24
 70
     1
102
RTVSPropertyOp25
 70
     1
102
RTVSPropertyOp26
 70
     1
102
RTVSPropertyOp27
 70
     1
102
RTVSPropertyOp28
 70
     1
102
RTVSPropertyOp29
 70
     1
102
RTVSPropertyOp30
 70
     1
102
RTVSPropertyOp31
 70
     1
102
RTVSPropertyOp32
 70
     1
  0
XRECORD
  5
6F
102
{ACAD_REACTORS
330
6E
102
}
330
6E
100
AcDbXrecord
280
     1
102
RTVSPropertyOp0
 70
     1
102
RTVSPropertyOp1
 70
     1
102
RTVSPropertyOp2
 70
     1
102
RTVSPropertyOp3
 70
     1
102
RTVSPropertyOp4
 70
     1
102
RTVSPropertyOp5
 70
     1
102
RTVSPropertyOp6
 70
     1
102
RTVSPropertyOp7
 70
     1
102
RTVSPropertyOp8
 70
     1
102
RTVSPropertyOp9
 70
     1
102
RTVSPropertyOp10
 70
     1
102
RTVSPropertyOp11
 70
     1
102
RTVSPropertyOp12
 70
     1
102
RTVSPropertyOp13
 70
     1
102
RTVSPropertyOp14
 70
     1
102
RTVSPropertyOp15
 70
     1
102
RTVSPropertyOp16
 70
     1
102
RTVSPropertyOp17
 70
     1
102
RTVSPropertyOp18
 70
     1
102
RTVSPropertyOp19
 70
     1
102
RTVSPropertyOp20
 70
     1
102
RTVSPropertyOp21
 70
     1
102
RTVSPropertyOp22
 70
     1
102
RTVSPropertyOp23
 70
     1
102
RTVSPropertyOp24
 70
     1
102
RTVSPropertyOp25
 70
     1
102
RTVSPropertyOp26
 70
     1
102
RTVSPropertyOp27
 70
     1
102
RTVSPropertyOp28
 70
     1
102
RTVSPropertyOp29
 70
     1
102
RTVSPropertyOp30
 70
     1
102
RTVSPropertyOp31
 70
     1
102
RTVSPropertyOp32
 70
     1
  0
XRECORD
  5
71
102
{ACAD_REACTORS
330
70
102
}
330
70
100
AcDbXrecord
280
     1
102
RTVSPropertyOp0
 70
     1
102
RTVSPropertyOp1
 70
     1
102
RTVSPropertyOp2
 70
     1
102
RTVSPropertyOp3
 70
     1
102
RTVSPropertyOp4
 70
     1
102
RTVSPropertyOp5
 70
     1
102
RTVSPropertyOp6
 70
     1
102
RTVSPropertyOp7
 70
     1
102
RTVSPropertyOp8
 70
     1
102
RTVSPropertyOp9
 70
     1
102
RTVSPropertyOp10
 70
     1
102
RTVSPropertyOp11
 70
     1
102
RTVSPropertyOp12
 70
     1
102
RTVSPropertyOp13
 70
     1
102
RTVSPropertyOp14
 70
     1
102
RTVSPropertyOp15
 70
     1
102
RTVSPropertyOp16
 70
     1
102
RTVSPropertyOp17
 70
     1
102
RTVSPropertyOp18
 70
     1
102
RTVSPropertyOp19
 70
     1
102
RTVSPropertyOp20
 70
     1
102
RTVSPropertyOp21
 70
     1
102
RTVSPropertyOp22
 70
     1
102
RTVSPropertyOp23
 70
     1
102
RTVSPropertyOp24
 70
     1
102
RTVSPropertyOp25
 70
     1
102
RTVSPropertyOp26
 70
     1
102
RTVSPropertyOp27
 70
     1
102
RTVSPropertyOp28
 70
     1
102
RTVSPropertyOp29
 70
     1
102
RTVSPropertyOp30
 70
     1
102
RTVSPropertyOp31
 70
     1
102
RTVSPropertyOp32
 70
     1
  0
XRECORD
  5
85
102
{ACAD_REACTORS
330
84
102
}
330
84
100
AcDbXrecord
280
     1
102
RTVSPropertyOp0
 70
     1
102
RTVSPropertyOp1
 70
     1
102
RTVSPropertyOp2
 70
     1
102
RTVSPropertyOp3
 70
     1
102
RTVSPropertyOp4
 70
     1
102
RTVSPropertyOp5
 70
     1
102
RTVSPropertyOp6
 70
     1
102
RTVSPropertyOp7
 70
     1
102
RTVSPropertyOp8
 70
     1
102
RTVSPropertyOp9
 70
     1
102
RTVSPropertyOp10
 70
     1
102
RTVSPropertyOp11
 70
     1
102
RTVSPropertyOp12
 70
     1
102
RTVSPropertyOp13
 70
     1
102
RTVSPropertyOp14
 70
     1
102
RTVSPropertyOp15
 70
     1
102
RTVSPropertyOp16
 70
     1
102
RTVSPropertyOp17
 70
     1
102
RTVSPropertyOp18
 70
     1
102
RTVSPropertyOp19
 70
     1
102
RTVSPropertyOp20
 70
     1
102
RTVSPropertyOp21
 70
     1
102
RTVSPropertyOp22
 70
     1
102
RTVSPropertyOp23
 70
     1
102
RTVSPropertyOp24
 70
     1
102
RTVSPropertyOp25
 70
     1
102
RTVSPropertyOp26
 70
     1
102
RTVSPropertyOp27
 70
     1
102
RTVSPropertyOp28
 70
     1
102
RTVSPropertyOp29
 70
     1
102
RTVSPropertyOp30
 70
     1
102
RTVSPropertyOp31
 70
     1
102
RTVSPropertyOp32
 70
     1
  0
XRECORD
  5
7B
102
{ACAD_REACTORS
330
7A
102
}
330
7A
100
AcDbXrecord
280
     1
102
RTVSPropertyOp0
 70
     1
102
RTVSPropertyOp1
 70
     1
102
RTVSPropertyOp2
 70
     1
102
RTVSPropertyOp3
 70
     1
102
RTVSPropertyOp4
 70
     1
102
RTVSPropertyOp5
 70
     1
102
RTVSPropertyOp6
 70
     1
102
RTVSPropertyOp7
 70
     1
102
RTVSPropertyOp8
 70
     1
102
RTVSPropertyOp9
 70
     1
102
RTVSPropertyOp10
 70
     1
102
RTVSPropertyOp11
 70
     1
102
RTVSPropertyOp12
 70
     1
102
RTVSPropertyOp13
 70
     1
102
RTVSPropertyOp14
 70
     1
102
RTVSPropertyOp15
 70
     1
102
RTVSPropertyOp16
 70
     1
102
RTVSPropertyOp17
 70
     1
102
RTVSPropertyOp18
 70
     1
102
RTVSPropertyOp19
 70
     1
102
RTVSPropertyOp20
 70
     1
102
RTVSPropertyOp21
 70
     1
102
RTVSPropertyOp22
 70
     1
102
RTVSPropertyOp23
 70
     1
102
RTVSPropertyOp24
 70
     1
102
RTVSPropertyOp25
 70
     1
102
RTVSPropertyOp26
 70
     1
102
RTVSPropertyOp27
 70
     1
102
RTVSPropertyOp28
 70
     1
102
RTVSPropertyOp29
 70
     1
102
RTVSPropertyOp30
 70
     1
102
RTVSPropertyOp31
 70
     1
102
RTVSPropertyOp32
 70
     1
  0
XRECORD
  5
83
102
{ACAD_REACTORS
330
82
102
}
330
82
100
AcDbXrecord
280
     1
102
RTVSPropertyOp0
 70
     1
102
RTVSPropertyOp1
 70
     1
102
RTVSPropertyOp2
 70
     1
102
RTVSPropertyOp3
 70
     1
102
RTVSPropertyOp4
 70
     1
102
RTVSPropertyOp5
 70
     1
102
RTVSPropertyOp6
 70
     1
102
RTVSPropertyOp7
 70
     1
102
RTVSPropertyOp8
 70
     1
102
RTVSPropertyOp9
 70
     1
102
RTVSPropertyOp10
 70
     1
102
RTVSPropertyOp11
 70
     1
102
RTVSPropertyOp12
 70
     1
102
RTVSPropertyOp13
 70
     1
102
RTVSPropertyOp14
 70
     1
102
RTVSPropertyOp15
 70
     1
102
RTVSPropertyOp16
 70
     1
102
RTVSPropertyOp17
 70
     1
102
RTVSPropertyOp18
 70
     1
102
RTVSPropertyOp19
 70
     1
102
RTVSPropertyOp20
 70
     1
102
RTVSPropertyOp21
 70
     1
102
RTVSPropertyOp22
 70
     1
102
RTVSPropertyOp23
 70
     1
102
RTVSPropertyOp24
 70
     1
102
RTVSPropertyOp25
 70
     1
102
RTVSPropertyOp26
 70
     1
102
RTVSPropertyOp27
 70
     1
102
RTVSPropertyOp28
 70
     1
102
RTVSPropertyOp29
 70
     1
102
RTVSPropertyOp30
 70
     1
102
RTVSPropertyOp31
 70
     1
102
RTVSPropertyOp32
 70
     1
  0
ENDSEC
  0
EOF
