  0
SECTION
  2
HEADER
  9
$ACADVER
  1
AC1021
  9
$ACADMAINTVER
 70
    25
  9
$DWGCODEPAGE
  3
ANSI_1252
  9
$INSBASE
 10
0.0
 20
0.0
 30
0.0
  9
$EXTMIN
 10
-14.2952
 20
-115.1251
 30
0.0
  9
$EXTMAX
 10
58.7674
 20
131.6902
 30
0.0
  9
$LIMMIN
 10
0.0
 20
0.0
  9
$LIMMAX
 10
12.0
 20
9.0
  9
$ORTHOMODE
 70
     0
  9
$REGENMODE
 70
     1
  9
$FILLMODE
 70
     1
  9
$QTEXTMODE
 70
     0
  9
$MIRRTEXT
 70
     1
  9
$LTSCALE
 40
1.0
  9
$ATTMODE
 70
     1
  9
$TEXTSIZE
 40
0.2
  9
$TRACEWID
 40
0.05
  9
$TEXTSTYLE
  7
Standard
  9
$CLAYER
  8
0
  9
$CELTYPE
  6
ByLayer
  9
$CECOLOR
 62
   256
  9
$CELTSCALE
 40
1.0
  9
$DISPSILH
 70
     0
  9
$DIMSCALE
 40
1.0
  9
$DIMASZ
 40
0.18
  9
$DIMEXO
 40
0.0625
  9
$DIMDLI
 40
0.38
  9
$DIMRND
 40
0.0
  9
$DIMDLE
 40
0.0
  9
$DIMEXE
 40
0.18
  9
$DIMTP
 40
0.0
  9
$DIMTM
 40
0.0
  9
$DIMTXT
 40
0.18
  9
$DIMCEN
 40
0.09
  9
$DIMTSZ
 40
0.0
  9
$DIMTOL
 70
     0
  9
$DIMLIM
 70
     0
  9
$DIMTIH
 70
     1
  9
$DIMTOH
 70
     1
  9
$DIMSE1
 70
     0
  9
$DIMSE2
 70
     0
  9
$DIMTAD
 70
     0
  9
$DIMZIN
 70
     0
  9
$DIMBLK
  1

  9
$DIMASO
 70
     1
  9
$DIMSHO
 70
     1
  9
$DIMPOST
  1

  9
$DIMAPOST
  1

  9
$DIMALT
 70
     0
  9
$DIMALTD
 70
     2
  9
$DIMALTF
 40
25.4
  9
$DIMLFAC
 40
1.0
  9
$DIMTOFL
 70
     0
  9
$DIMTVP
 40
0.0
  9
$DIMTIX
 70
     0
  9
$DIMSOXD
 70
     0
  9
$DIMSAH
 70
     0
  9
$DIMBLK1
  1

  9
$DIMBLK2
  1

  9
$DIMSTYLE
  2
Standard
  9
$DIMCLRD
 70
     0
  9
$DIMCLRE
 70
     0
  9
$DIMCLRT
 70
     0
  9
$DIMTFAC
 40
1.0
  9
$DIMGAP
 40
0.09
  9
$DIMJUST
 70
     0
  9
$DIMSD1
 70
     0
  9
$DIMSD2
 70
     0
  9
$DIMTOLJ
 70
     1
  9
$DIMTZIN
 70
     0
  9
$DIMALTZ
 70
     0
  9
$DIMALTTZ
 70
     0
  9
$DIMUPT
 70
     0
  9
$DIMDEC
 70
     4
  9
$DIMTDEC
 70
     4
  9
$DIMALTU
 70
     2
  9
$DIMALTTD
 70
     2
  9
$DIMTXSTY
  7
Standard
  9
$DIMAUNIT
 70
     0
  9
$DIMADEC
 70
     0
  9
$DIMALTRND
 40
0.0
  9
$DIMAZIN
 70
     0
  9
$DIMDSEP
 70
    46
  9
$DIMATFIT
 70
     3
  9
$DIMFRAC
 70
     0
  9
$DIMLDRBLK
  1

  9
$DIMLUNIT
 70
     2
  9
$DIMLWD
 70
    -2
  9
$DIMLWE
 70
    -2
  9
$DIMTMOVE
 70
     0
  9
$DIMFXL
 40
1.0
  9
$DIMFXLON
 70
     0
  9
$DIMJOGANG
 40
0.7853981633974483
  9
$DIMTFILL
 70
     0
  9
$DIMTFILLCLR
 70
     0
  9
$DIMARCSYM
 70
     0
  9
$DIMLTYPE
  6

  9
$DIMLTEX1
  6

  9
$DIMLTEX2
  6

  9
$LUNITS
 70
     2
  9
$LUPREC
 70
     4
  9
$SKETCHINC
 40
0.1
  9
$FILLETRAD
 40
0.5
  9
$AUNITS
 70
     0
  9
$AUPREC
 70
     0
  9
$MENU
  1
.
  9
$ELEVATION
 40
0.0
  9
$PELEVATION
 40
0.0
  9
$THICKNESS
 40
0.0
  9
$LIMCHECK
 70
     0
  9
$CHAMFERA
 40
0.5
  9
$CHAMFERB
 40
0.5
  9
$CHAMFERC
 40
1.0
  9
$CHAMFERD
 40
0.0
  9
$SKPOLY
 70
     0
  9
$TDCREATE
 40
2458492.86535809
  9
$TDUCREATE
 40
2458492.86535809
  9
$TDUPDATE
 40
2458492.865358229
  9
$TDUUPDATE
 40
2458492.865358229
  9
$TDINDWG
 40
0.0000000116
  9
$TDUSRTIMER
 40
0.0000000116
  9
$USRTIMER
 70
     1
  9
$ANGBASE
 50
0.0
  9
$ANGDIR
 70
     0
  9
$PDMODE
 70
     0
  9
$PDSIZE
 40
0.0
  9
$PLINEWID
 40
0.0
  9
$SPLFRAME
 70
     0
  9
$SPLINETYPE
 70
     6
  9
$SPLINESEGS
 70
     8
  9
$HANDSEED
  5
8C
  9
$SURFTAB1
 70
     6
  9
$SURFTAB2
 70
     6
  9
$SURFTYPE
 70
     6
  9
$SURFU
 70
     6
  9
$SURFV
 70
     6
  9
$UCSBASE
  2

  9
$UCSNAME
  2

  9
$UCSORG
 10
0.0
 20
0.0
 30
0.0
  9
$UCSXDIR
 10
1.0
 20
0.0
 30
0.0
  9
$UCSYDIR
 10
0.0
 20
1.0
 30
0.0
  9
$UCSORTHOREF
  2

  9
$UCSORTHOVIEW
 70
     0
  9
$UCSORGTOP
 10
0.0
 20
0.0
 30
0.0
  9
$UCSORGBOTTOM
 10
0.0
 20
0.0
 30
0.0
  9
$UCSORGLEFT
 10
0.0
 20
0.0
 30
0.0
  9
$UCSORGRIGHT
 10
0.0
 20
0.0
 30
0.0
  9
$UCSORGFRONT
 10
0.0
 20
0.0
 30
0.0
  9
$UCSORGBACK
 10
0.0
 20
0.0
 30
0.0
  9
$PUCSBASE
  2

  9
$PUCSNAME
  2

  9
$PUCSORG
 10
0.0
 20
0.0
 30
0.0
  9
$PUCSXDIR
 10
1.0
 20
0.0
 30
0.0
  9
$PUCSYDIR
 10
0.0
 20
1.0
 30
0.0
  9
$PUCSORTHOREF
  2

  9
$PUCSORTHOVIEW
 70
     0
  9
$PUCSORGTOP
 10
0.0
 20
0.0
 30
0.0
  9
$PUCSORGBOTTOM
 10
0.0
 20
0.0
 30
0.0
  9
$PUCSORGLEFT
 10
0.0
 20
0.0
 30
0.0
  9
$PUCSORGRIGHT
 10
0.0
 20
0.0
 30
0.0
  9
$PUCSORGFRONT
 10
0.0
 20
0.0
 30
0.0
  9
$PUCSORGBACK
 10
0.0
 20
0.0
 30
0.0
  9
$USERI1
 70
     0
  9
$USERI2
 70
     0
  9
$USERI3
 70
     0
  9
$USERI4
 70
     0
  9
$USERI5
 70
     0
  9
$USERR1
 40
0.0
  9
$USERR2
 40
0.0
  9
$USERR3
 40
0.0
  9
$USERR4
 40
0.0
  9
$USERR5
 40
0.0
  9
$WORLDVIEW
 70
     1
  9
$SHADEDGE
 70
     3
  9
$SHADEDIF
 70
    70
  9
$TILEMODE
 70
     1
  9
$MAXACTVP
 70
    64
  9
$PINSBASE
 10
0.0
 20
0.0
 30
0.0
  9
$PLIMCHECK
 70
     0
  9
$PEXTMIN
 10
1.000000000000000E+20
 20
1.000000000000000E+20
 30
1.000000000000000E+20
  9
$PEXTMAX
 10
-1.000000000000000E+20
 20
-1.000000000000000E+20
 30
-1.000000000000000E+20
  9
$PLIMMIN
 10
0.0
 20
0.0
  9
$PLIMMAX
 10
12.0
 20
9.0
  9
$UNITMODE
 70
     0
  9
$VISRETAIN
 70
     1
  9
$PLINEGEN
 70
     0
  9
$PSLTSCALE
 70
     1
  9
$TREEDEPTH
 70
  3020
  9
$CMLSTYLE
  2
Standard
  9
$CMLJUST
 70
     0
  9
$CMLSCALE
 40
1.0
  9
$PROXYGRAPHICS
 70
     1
  9
$MEASUREMENT
 70
     0
  9
$CELWEIGHT
370
    -1
  9
$ENDCAPS
280
     0
  9
$JOINSTYLE
280
     0
  9
$LWDISPLAY
290
     0
  9
$INSUNITS
 70
     4
  9
$HYPERLINKBASE
  1

  9
$STYLESHEET
  1

  9
$XEDIT
290
     1
  9
$CEPSNTYPE
380
     0
  9
$PSTYLEMODE
290
     1
  9
$FINGERPRINTGUID
  2
{B7E6380C-D0A5-4F2E-957C-C6DBB1B94458}
  9
$VERSIONGUID
  2
{FAEB1C32-E019-11D5-929B-00C0DF256EC4}
  9
$EXTNAMES
290
     1
  9
$PSVPSCALE
 40
0.0
  9
$OLESTARTUP
290
     0
  9
$SORTENTS
280
   127
  9
$INDEXCTL
280
     0
  9
$HIDETEXT
280
     1
  9
$XCLIPFRAME
290
     0
  9
$HALOGAP
280
     0
  9
$OBSCOLOR
 70
   257
  9
$OBSLTYPE
280
     0
  9
$INTERSECTIONDISPLAY
280
     0
  9
$INTERSECTIONCOLOR
 70
   257
  9
$DIMASSOC
280
     2
  9
$PROJECTNAME
  1

  9
$CAMERADISPLAY
290
     0
  9
$LENSLENGTH
 40
50.0
  9
$CAMERAHEIGHT
 40
0.0
  9
$STEPSPERSEC
 40
2.0
  9
$STEPSIZE
 40
6.0
  9
$3DDWFPREC
 40
2.0
  9
$PSOLWIDTH
 40
0.25
  9
$PSOLHEIGHT
 40
4.0
  9
$LOFTANG1
 40
1.570796326794897
  9
$LOFTANG2
 40
1.570796326794897
  9
$LOFTMAG1
 40
0.0
  9
$LOFTMAG2
 40
0.0
  9
$LOFTPARAM
 70
     7
  9
$LOFTNORMALS
280
     1
  9
$LATITUDE
 40
37.795
  9
$LONGITUDE
 40
-122.394
  9
$NORTHDIRECTION
 40
0.0
  9
$TIMEZONE
 70
 -8000
  9
$LIGHTGLYPHDISPLAY
280
     1
  9
$TILEMODELIGHTSYNCH
280
     1
  9
$SOLIDHIST
280
     1
  9
$SHOWHIST
280
     1
  9
$DWFFRAME
280
     2
  9
$DGNFRAME
280
     2
  9
$REALWORLDSCALE
290
     1
  9
$INTERFERECOLOR
 62
   256
  9
$CSHADOW
280
     0
  9
$SHADOWPLANELOCATION
 40
0.0
  0
ENDSEC
  0
SECTION
  2
CLASSES
  0
CLASS
  1
ACDBDICTIONARYWDFLT
  2
AcDbDictionaryWithDefault
  3
ObjectDBX Classes
 90
        0
 91
        4
280
     0
281
     0
  0
CLASS
  1
VISUALSTYLE
  2
AcDbVisualStyle
  3
ObjectDBX Classes
 90
     4095
 91
        4
280
     0
281
     0
  0
CLASS
  1
MATERIAL
  2
AcDbMaterial
  3
ObjectDBX Classes
 90
     1153
 91
        4
280
     0
281
     0
  0
ENDSEC
  0
SECTION
  2
TABLES
  0
TABLE
  2
VPORT
  5
8
330
0
100
AcDbSymbolTable
 70
     1
  0
VPORT
  5
29
330
8
100
AcDbSymbolTableRecord
100
AcDbViewportTableRecord
  2
*Active
 70
     0
 10
0.0
 20
0.0
 11
1.0
 21
1.0
 12
10.42990654205607
 22
4.5
 13
0.0
 23
0.0
 14
0.5
 24
0.5
 15
0.5
 25
0.5
 16
0.0
 26
0.0
 36
1.0
 17
0.0
 27
0.0
 37
0.0
 40
9.0
 41
1.972972972850329
 42
50.0
 43
0.0
 44
0.0
 50
0.0
 51
0.0
 71
     0
 72
   100
 73
     1
 74
     3
 75
     0
 76
     0
 77
     0
 78
     0
281
     0
 65
     1
110
0.0
120
0.0
130
0.0
111
1.0
121
0.0
131
0.0
112
0.0
122
1.0
132
0.0
 79
     0
146
0.0
 60
     3
 61
     5
292
     1
282
     1
141
0.0
142
0.0
 63
   250
  0
ENDTAB
  0
TABLE
  2
LTYPE
  5
5
330
0
100
AcDbSymbolTable
 70
     1
  0
LTYPE
  5
14
330
5
100
AcDbSymbolTableRecord
100
AcDbLinetypeTableRecord
  2
ByBlock
 70
     0
  3

 72
    65
 73
     0
 40
0.0
  0
LTYPE
  5
15
330
5
100
AcDbSymbolTableRecord
100
AcDbLinetypeTableRecord
  2
ByLayer
 70
     0
  3

 72
    65
 73
     0
 40
0.0
  0
LTYPE
  5
16
330
5
100
AcDbSymbolTableRecord
100
AcDbLinetypeTableRecord
  2
Continuous
 70
     0
  3
Solid line
 72
    65
 73
     0
 40
0.0
  0
ENDTAB
  0
TABLE
  2
LAYER
  5
2
330
0
100
AcDbSymbolTable
 70
     3
  0
LAYER
  5
10
330
2
100
AcDbSymbolTableRecord
100
AcDbLayerTableRecord
  2
0
 70
     0
 62
     7
  6
Continuous
370
    -3
390
F
347
3E
  0
LAYER
  5
40
330
2
100
AcDbSymbolTableRecord
100
AcDbLayerTableRecord
  2
layer 1
 70
     0
 62
     7
  6
Continuous
370
    -3
390
F
347
3E
  0
LAYER
  5
69
330
2
100
AcDbSymbolTableRecord
100
AcDbLayerTableRecord
  2
Master Guides
 70
     0
 62
     7
  6
Continuous
370
    -3
390
F
347
3E
  0
ENDTAB
  0
TABLE
  2
STYLE
  5
3
330
0
100
AcDbSymbolTable
 70
     1
  0
STYLE
  5
11
330
3
100
AcDbSymbolTableRecord
100
AcDbTextStyleTableRecord
  2
Standard
 70
     0
 40
0.0
 41
1.0
 50
0.0
 71
     0
 42
0.2
  3
txt
  4

  0
ENDTAB
  0
TABLE
  2
VIEW
  5
6
330
0
100
AcDbSymbolTable
 70
     0
  0
ENDTAB
  0
TABLE
  2
UCS
  5
7
330
0
100
AcDbSymbolTable
 70
     0
  0
ENDTAB
  0
TABLE
  2
APPID
  5
9
330
0
100
AcDbSymbolTable
 70
     2
  0
APPID
  5
12
330
9
100
AcDbSymbolTableRecord
100
AcDbRegAppTableRecord
  2
ACAD
 70
     0
  0
APPID
  5
3F
330
9
100
AcDbSymbolTableRecord
100
AcDbRegAppTableRecord
  2
ODA
 70
     0
  0
ENDTAB
  0
TABLE
  2
DIMSTYLE
  5
A
330
0
100
AcDbSymbolTable
 70
     1
100
AcDbDimStyleTable
  0
DIMSTYLE
105
27
330
A
100
AcDbSymbolTableRecord
100
AcDbDimStyleTableRecord
  2
Standard
 70
     0
178
     0
340
11
  0
ENDTAB
  0
TABLE
  2
BLOCK_RECORD
  5
1
330
0
100
AcDbSymbolTable
 70
     1
  0
BLOCK_RECORD
  5
1F
330
1
100
AcDbSymbolTableRecord
100
AcDbBlockTableRecord
  2
*Model_Space
340
22
 70
     0
280
     1
281
     0
  0
BLOCK_RECORD
  5
1B
330
1
100
AcDbSymbolTableRecord
100
AcDbBlockTableRecord
  2
*Paper_Space
340
1E
 70
     0
280
     1
281
     0
  0
BLOCK_RECORD
  5
23
330
1
100
AcDbSymbolTableRecord
100
AcDbBlockTableRecord
  2
*Paper_Space0
340
26
 70
     0
280
     1
281
     0
  0
ENDTAB
  0
ENDSEC
  0
SECTION
  2
BLOCKS
  0
BLOCK
  5
20
330
1F
100
AcDbEntity
  8
0
100
AcDbBlockBegin
  2
*Model_Space
 70
     0
 10
0.0
 20
0.0
 30
0.0
  3
*Model_Space
  1

  0
ENDBLK
  5
21
330
1F
100
AcDbEntity
  8
0
100
AcDbBlockEnd
  0
BLOCK
  5
1C
330
1B
100
AcDbEntity
 67
     1
  8
0
100
AcDbBlockBegin
  2
*Paper_Space
 70
     0
 10
0.0
 20
0.0
 30
0.0
  3
*Paper_Space
  1

  0
ENDBLK
  5
1D
330
1B
100
AcDbEntity
 67
     1
  8
0
100
AcDbBlockEnd
  0
BLOCK
  5
24
330
23
100
AcDbEntity
  8
0
100
AcDbBlockBegin
  2
*Paper_Space0
 70
     0
 10
0.0
 20
0.0
 30
0.0
  3
*Paper_Space0
  1

  0
ENDBLK
  5
25
330
23
100
AcDbEntity
  8
0
100
AcDbBlockEnd
  0
ENDSEC
  0
SECTION
  2
ENTITIES
  0
SPLINE
  5
41
330
1F
100
AcDbEntity
  8
layer 1
100
AcDbSpline
210
0.0
220
0.0
230
1.0
 70
    11
 71
     3
 72
    20
 73
    16
 74
     0
 42
0.0000000001
 43
0.0000000001
 12
1.0
 22
0.0
 32
0.0
 13
1.0
 23
0.0
 33
0.0
 40
0.0
 40
0.0
 40
0.0
 40
0.0
 40
0.2
 40
0.2
 40
0.2
 40
0.2
 40
0.4
 40
0.4
 40
0.4
 40
0.4
 40
0.6
 40
0.6
 40
0.6
 40
0.6
 40
1.0
 40
1.0
 40
1.0
 40
1.0
 10
-14.2952
 20
131.6902
 30
0.0
 10
-14.2952
 20
131.6902
 30
0.0
 10
58.7674
 20
131.6902
 30
0.0
 10
58.7674
 20
131.6902
 30
0.0
 10
58.7674
 20
131.6902
 30
0.0
 10
58.7674
 20
131.6902
 30
0.0
 10
58.7674
 20
-115.1251
 30
0.0
 10
58.7674
 20
-115.1251
 30
0.0
 10
58.7674
 20
-115.1251
 30
0.0
 10
58.7674
 20
-115.1251
 30
0.0
 10
-14.2952
 20
-115.1251
 30
0.0
 10
-14.2952
 20
-115.1251
 30
0.0
 10
-14.2952
 20
-115.1251
 30
0.0
 10
-14.2952
 20
-115.1251
 30
0.0
 10
-14.2952
 20
131.6902
 30
0.0
 10
-14.2952
 20
131.6902
 30
0.0
  0
SPLINE
  5
42
330
1F
100
AcDbEntity
  8
layer 1
 62
     7
100
AcDbSpline
210
0.0
220
0.0
230
1.0
 70
    11
 71
     3
 72
    24
 73
    20
 74
     0
 42
0.0000000001
 43
0.0000000001
 12
1.0
 22
0.0
 32
0.0
 13
1.0
 23
0.0
 33
0.0
 40
0.0
 40
0.0
 40
0.0
 40
0.0
 40
0.1666666666666667
 40
0.1666666666666667
 40
0.1666666666666667
 40
0.1666666666666667
 40
0.3333333333333333
 40
0.3333333333333333
 40
0.3333333333333333
 40
0.3333333333333333
 40
0.5
 40
0.5
 40
0.5
 40
0.5
 40
0.6666666666666666
 40
0.6666666666666666
 40
0.6666666666666666
 40
0.6666666666666666
 40
1.0
 40
1.0
 40
1.0
 40
1.0
 10
12.8047
 20
30.4947
 30
0.0
 10
12.8047
 20
30.4947
 30
0.0
 10
14.4138
 20
27.8394
 30
0.0
 10
14.4138
 20
27.8394
 30
0.0
 10
14.4138
 20
27.8394
 30
0.0
 10
20.3175
 20
31.0245
 30
0.0
 10
25.7354
 20
31.171
 30
0.0
 10
31.3382
 20
27.8394
 30
0.0
 10
31.3382
 20
27.8394
 30
0.0
 10
31.3382
 20
27.8394
 30
0.0
 10
32.9465
 20
30.4947
 30
0.0
 10
32.9465
 20
30.4947
 30
0.0
 10
32.9465
 20
30.4947
 30
0.0
 10
29.4871
 20
32.3843
 30
0.0
 10
22.876
 20
37.6498
 30
0.0
 10
22.876
 20
37.6498
 30
0.0
 10
22.876
 20
37.6498
 30
0.0
 10
22.876
 20
37.6498
 30
0.0
 10
16.2651
 20
32.3841
 30
0.0
 10
12.8047
 20
30.4947
 30
0.0
  0
SPLINE
  5
43
330
1F
100
AcDbEntity
  8
layer 1
 62
     7
100
AcDbSpline
210
0.0
220
0.0
230
1.0
 70
    11
 71
     3
 72
    24
 73
    20
 74
     0
 42
0.0000000001
 43
0.0000000001
 12
1.0
 22
0.0
 32
0.0
 13
1.0
 23
0.0
 33
0.0
 40
0.0
 40
0.0
 40
0.0
 40
0.0
 40
0.1666666666666667
 40
0.1666666666666667
 40
0.1666666666666667
 40
0.1666666666666667
 40
0.3333333333333333
 40
0.3333333333333333
 40
0.3333333333333333
 40
0.3333333333333333
 40
0.5
 40
0.5
 40
0.5
 40
0.5
 40
0.6666666666666666
 40
0.6666666666666666
 40
0.6666666666666666
 40
0.6666666666666666
 40
1.0
 40
1.0
 40
1.0
 40
1.0
 10
-3.9638
 20
112.2664
 30
0.0
 10
-3.9638
 20
112.2664
 30
0.0
 10
-6.5605
 20
112.214
 30
0.0
 10
-6.5605
 20
112.214
 30
0.0
 10
-6.5605
 20
112.214
 30
0.0
 10
-6.5605
 20
112.214
 30
0.0
 10
-6.63
 20
125.35
 30
0.0
 10
-6.63
 20
125.35
 30
0.0
 10
-6.63
 20
125.35
 30
0.0
 10
-6.63
 20
125.35
 30
0.0
 10
6.7342
 20
125.35
 30
0.0
 10
6.7342
 20
125.35
 30
0.0
 10
6.7342
 20
125.35
 30
0.0
 10
6.7342
 20
125.35
 30
0.0
 10
6.7724
 20
123.873
 30
0.0
 10
6.7724
 20
123.873
 30
0.0
 10
6.7724
 20
123.873
 30
0.0
 10
-0.4732
 20
123.1588
 30
0.0
 10
-3.6868
 20
118.3847
 30
0.0
 10
-3.9638
 20
112.2664
 30
0.0
  0
SPLINE
  5
44
330
1F
100
AcDbEntity
  8
layer 1
 62
     7
100
AcDbSpline
210
0.0
220
0.0
230
1.0
 70
    11
 71
     3
 72
    48
 73
    44
 74
     0
 42
0.0000000001
 43
0.0000000001
 12
1.0
 22
0.0
 32
0.0
 13
1.0
 23
0.0
 33
0.0
 40
0.0
 40
0.0
 40
0.0
 40
0.0
 40
0.0833333333333333
 40
0.0833333333333333
 40
0.0833333333333333
 40
0.0833333333333333
 40
0.1666666666666667
 40
0.1666666666666667
 40
0.1666666666666667
 40
0.1666666666666667
 40
0.25
 40
0.25
 40
0.25
 40
0.25
 40
0.3333333333333333
 40
0.3333333333333333
 40
0.3333333333333333
 40
0.3333333333333333
 40
0.4166666666666667
 40
0.4166666666666667
 40
0.4166666666666667
 40
0.4166666666666667
 40
0.5
 40
0.5
 40
0.5
 40
0.5
 40
0.5833333333333334
 40
0.5833333333333334
 40
0.5833333333333334
 40
0.5833333333333334
 40
0.6666666666666666
 40
0.6666666666666666
 40
0.6666666666666666
 40
0.6666666666666666
 40
0.75
 40
0.75
 40
0.75
 40
0.75
 40
0.8333333333333334
 40
0.8333333333333334
 40
0.8333333333333334
 40
0.8333333333333334
 40
1.0
 40
1.0
 40
1.0
 40
1.0
 10
20.9759
 20
121.7334
 30
0.0
 10
20.9759
 20
121.7334
 30
0.0
 10
20.9484
 20
115.4968
 30
0.0
 10
20.9484
 20
115.4968
 30
0.0
 10
20.9484
 20
115.4968
 30
0.0
 10
20.9484
 20
115.4968
 30
0.0
 10
19.6722
 20
115.5182
 30
0.0
 10
19.6722
 20
115.5182
 30
0.0
 10
19.6722
 20
115.5182
 30
0.0
 10
18.9373
 20
119.3663
 30
0.0
 10
15.4983
 20
123.6368
 30
0.0
 10
9.2821
 20
123.873
 30
0.0
 10
9.2821
 20
123.873
 30
0.0
 10
9.2821
 20
123.873
 30
0.0
 10
9.3239
 20
125.35
 30
0.0
 10
9.3239
 20
125.35
 30
0.0
 10
9.3239
 20
125.35
 30
0.0
 10
9.3239
 20
125.35
 30
0.0
 10
36.4308
 20
125.35
 30
0.0
 10
36.4308
 20
125.35
 30
0.0
 10
36.4308
 20
125.35
 30
0.0
 10
36.4308
 20
125.35
 30
0.0
 10
36.4691
 20
123.873
 30
0.0
 10
36.4691
 20
123.873
 30
0.0
 10
36.4691
 20
123.873
 30
0.0
 10
30.2529
 20
123.637
 30
0.0
 10
26.8139
 20
119.3663
 30
0.0
 10
26.079
 20
115.518
 30
0.0
 10
26.079
 20
115.518
 30
0.0
 10
26.079
 20
115.518
 30
0.0
 10
24.8038
 20
115.4968
 30
0.0
 10
24.8038
 20
115.4968
 30
0.0
 10
24.8038
 20
115.4968
 30
0.0
 10
24.8038
 20
115.4968
 30
0.0
 10
24.7754
 20
121.7334
 30
0.0
 10
24.7754
 20
121.7334
 30
0.0
 10
24.7754
 20
121.7334
 30
0.0
 10
24.7754
 20
121.7334
 30
0.0
 10
22.876
 20
123.1862
 30
0.0
 10
22.876
 20
123.1862
 30
0.0
 10
22.876
 20
123.1862
 30
0.0
 10
22.876
 20
123.1862
 30
0.0
 10
20.9759
 20
121.7334
 30
0.0
 10
20.9759
 20
121.7334
 30
0.0
  0
SPLINE
  5
45
330
1F
100
AcDbEntity
  8
layer 1
 62
     7
100
AcDbSpline
210
0.0
220
0.0
230
1.0
 70
    11
 71
     3
 72
    44
 73
    40
 74
     0
 42
0.0000000001
 43
0.0000000001
 12
1.0
 22
0.0
 32
0.0
 13
1.0
 23
0.0
 33
0.0
 40
0.0
 40
0.0
 40
0.0
 40
0.0
 40
0.0909090909090909
 40
0.0909090909090909
 40
0.0909090909090909
 40
0.0909090909090909
 40
0.1818181818181818
 40
0.1818181818181818
 40
0.1818181818181818
 40
0.1818181818181818
 40
0.2727272727272727
 40
0.2727272727272727
 40
0.2727272727272727
 40
0.2727272727272727
 40
0.3636363636363636
 40
0.3636363636363636
 40
0.3636363636363636
 40
0.3636363636363636
 40
0.4545454545454545
 40
0.4545454545454545
 40
0.4545454545454545
 40
0.4545454545454545
 40
0.5454545454545454
 40
0.5454545454545454
 40
0.5454545454545454
 40
0.5454545454545454
 40
0.6363636363636364
 40
0.6363636363636364
 40
0.6363636363636364
 40
0.6363636363636364
 40
0.7272727272727273
 40
0.7272727272727273
 40
0.7272727272727273
 40
0.7272727272727273
 40
0.8181818181818182
 40
0.8181818181818182
 40
0.8181818181818182
 40
0.8181818181818182
 40
1.0
 40
1.0
 40
1.0
 40
1.0
 10
11.019
 20
110.8686
 30
0.0
 10
10.7662
 20
115.3237
 30
0.0
 10
6.5611
 20
112.7376
 30
0.0
 10
6.9941
 20
109.3119
 30
0.0
 10
6.9941
 20
109.3119
 30
0.0
 10
8.3156
 20
102.1294
 30
0.0
 10
19.5371
 20
104.6426
 30
0.0
 10
18.9932
 20
110.8684
 30
0.0
 10
18.9932
 20
110.8684
 30
0.0
 10
18.9932
 20
110.8684
 30
0.0
 10
20.3796
 20
110.9972
 30
0.0
 10
20.3796
 20
110.9972
 30
0.0
 10
20.3796
 20
110.9972
 30
0.0
 10
20.9379
 20
107.0069
 30
0.0
 10
13.6993
 20
90.8234
 30
0.0
 10
9.6603
 20
99.6816
 30
0.0
 10
9.6603
 20
99.6816
 30
0.0
 10
7.9616
 20
96.5477
 30
0.0
 10
8.3086
 20
94.0405
 30
0.0
 10
8.3086
 20
94.0405
 30
0.0
 10
8.3086
 20
94.0405
 30
0.0
 10
8.3086
 20
94.0405
 30
0.0
 10
2.7271
 20
99.5362
 30
0.0
 10
2.7271
 20
99.5362
 30
0.0
 10
2.7271
 20
99.5362
 30
0.0
 10
2.7271
 20
99.5362
 30
0.0
 10
4.6129
 20
98.5543
 30
0.0
 10
6.3357
 20
99.9727
 30
0.0
 10
6.3357
 20
99.9727
 30
0.0
 10
-3.6657
 20
107.4854
 30
0.0
 10
-1.2224
 20
115.9547
 30
0.0
 10
3.9535
 20
119.0433
 30
0.0
 10
3.9535
 20
119.0433
 30
0.0
 10
8.0618
 20
121.4946
 30
0.0
 10
14.1189
 20
119.9414
 30
0.0
 10
15.3979
 20
116.1552
 30
0.0
 10
15.3979
 20
116.1552
 30
0.0
 10
17.3673
 20
109.6278
 30
0.0
 10
11.8932
 20
107.5129
 30
0.0
 10
11.019
 20
110.8686
 30
0.0
  0
SPLINE
  5
46
330
1F
100
AcDbEntity
  8
layer 1
 62
     7
100
AcDbSpline
210
0.0
220
0.0
230
1.0
 70
    11
 71
     3
 72
    24
 73
    20
 74
     0
 42
0.0000000001
 43
0.0000000001
 12
1.0
 22
0.0
 32
0.0
 13
1.0
 23
0.0
 33
0.0
 40
0.0
 40
0.0
 40
0.0
 40
0.0
 40
0.1666666666666667
 40
0.1666666666666667
 40
0.1666666666666667
 40
0.1666666666666667
 40
0.3333333333333333
 40
0.3333333333333333
 40
0.3333333333333333
 40
0.3333333333333333
 40
0.5
 40
0.5
 40
0.5
 40
0.5
 40
0.6666666666666666
 40
0.6666666666666666
 40
0.6666666666666666
 40
0.6666666666666666
 40
1.0
 40
1.0
 40
1.0
 40
1.0
 10
-3.9638
 20
107.3878
 30
0.0
 10
-3.9638
 20
107.3878
 30
0.0
 10
-6.5605
 20
107.4399
 30
0.0
 10
-6.5605
 20
107.4399
 30
0.0
 10
-6.5605
 20
107.4399
 30
0.0
 10
-6.5605
 20
107.4399
 30
0.0
 10
-6.63
 20
84.8817
 30
0.0
 10
-6.63
 20
84.8817
 30
0.0
 10
-6.63
 20
84.8817
 30
0.0
 10
-5.6599
 20
86.2616
 30
0.0
 10
-4.5291
 20
86.0113
 30
0.0
 10
-4.5291
 20
86.0113
 30
0.0
 10
-4.5291
 20
86.0113
 30
0.0
 10
-4.6543
 20
81.5083
 30
0.0
 10
1.0941
 20
82.1259
 30
0.0
 10
0.7017
 20
86.9023
 30
0.0
 10
0.7017
 20
86.9023
 30
0.0
 10
-0.4732
 20
95.2788
 30
0.0
 10
-2.9343
 20
94.4808
 30
0.0
 10
-3.9638
 20
107.3878
 30
0.0
  0
SPLINE
  5
47
330
1F
100
AcDbEntity
  8
layer 1
 62
     7
100
AcDbSpline
210
0.0
220
0.0
230
1.0
 70
    11
 71
     3
 72
    48
 73
    44
 74
     0
 42
0.0000000001
 43
0.0000000001
 12
1.0
 22
0.0
 32
0.0
 13
1.0
 23
0.0
 33
0.0
 40
0.0
 40
0.0
 40
0.0
 40
0.0
 40
0.0833333333333333
 40
0.0833333333333333
 40
0.0833333333333333
 40
0.0833333333333333
 40
0.1666666666666667
 40
0.1666666666666667
 40
0.1666666666666667
 40
0.1666666666666667
 40
0.25
 40
0.25
 40
0.25
 40
0.25
 40
0.3333333333333333
 40
0.3333333333333333
 40
0.3333333333333333
 40
0.3333333333333333
 40
0.4166666666666667
 40
0.4166666666666667
 40
0.4166666666666667
 40
0.4166666666666667
 40
0.5
 40
0.5
 40
0.5
 40
0.5
 40
0.5833333333333334
 40
0.5833333333333334
 40
0.5833333333333334
 40
0.5833333333333334
 40
0.6666666666666666
 40
0.6666666666666666
 40
0.6666666666666666
 40
0.6666666666666666
 40
0.75
 40
0.75
 40
0.75
 40
0.75
 40
0.8333333333333334
 40
0.8333333333333334
 40
0.8333333333333334
 40
0.8333333333333334
 40
1.0
 40
1.0
 40
1.0
 40
1.0
 10
-0.0782
 20
80.2915
 30
0.0
 10
-1.9084
 20
78.2706
 30
0.0
 10
-5.3678
 20
79.1785
 30
0.0
 10
-6.7097
 20
82.0354
 30
0.0
 10
-6.7097
 20
82.0354
 30
0.0
 10
-6.7097
 20
82.0354
 30
0.0
 10
-6.63
 20
69.6903
 30
0.0
 10
-6.63
 20
69.6903
 30
0.0
 10
-6.63
 20
69.6903
 30
0.0
 10
-5.2471
 20
76.1249
 30
0.0
 10
9.536
 20
75.3374
 30
0.0
 10
8.4746
 20
62.528
 30
0.0
 10
8.4746
 20
62.528
 30
0.0
 10
9.536
 20
62.5627
 30
0.0
 10
9.7473
 20
62.5796
 30
0.0
 10
10.3783
 20
62.6389
 30
0.0
 10
10.3783
 20
62.6389
 30
0.0
 10
10.531
 20
65.3424
 30
0.0
 10
11.8027
 20
69.1079
 30
0.0
 10
13.5572
 20
72.4255
 30
0.0
 10
13.5572
 20
72.4255
 30
0.0
 10
14.483
 20
74.1767
 30
0.0
 10
13.8377
 20
76.3083
 30
0.0
 10
13.4009
 20
77.8542
 30
0.0
 10
13.4009
 20
77.8542
 30
0.0
 10
14.9124
 20
78.2776
 30
0.0
 10
16.3582
 20
76.6758
 30
0.0
 10
15.9667
 20
74.6265
 30
0.0
 10
15.9667
 20
74.6265
 30
0.0
 10
17.5263
 20
76.752
 30
0.0
 10
18.1092
 20
77.2962
 30
0.0
 10
19.964
 20
78.8874
 30
0.0
 10
19.964
 20
78.8874
 30
0.0
 10
11.6226
 20
86.0533
 30
0.0
 10
10.9808
 20
86.7054
 30
0.0
 10
2.7369
 20
94.2146
 30
0.0
 10
2.7369
 20
94.2146
 30
0.0
 10
6.4431
 20
88.2968
 30
0.0
 10
3.7317
 20
80.2844
 30
0.0
 10
0.2199
 20
78.9257
 30
0.0
 10
0.2199
 20
78.9257
 30
0.0
 10
-0.1227
 20
78.7943
 30
0.0
 10
0.2375
 20
80.4716
 30
0.0
 10
-0.0782
 20
80.2915
 30
0.0
  0
SPLINE
  5
48
330
1F
100
AcDbEntity
  8
layer 1
 62
     7
100
AcDbSpline
210
0.0
220
0.0
230
1.0
 70
    11
 71
     3
 72
    32
 73
    28
 74
     0
 42
0.0000000001
 43
0.0000000001
 12
1.0
 22
0.0
 32
0.0
 13
1.0
 23
0.0
 33
0.0
 40
0.0
 40
0.0
 40
0.0
 40
0.0
 40
0.125
 40
0.125
 40
0.125
 40
0.125
 40
0.25
 40
0.25
 40
0.25
 40
0.25
 40
0.375
 40
0.375
 40
0.375
 40
0.375
 40
0.5
 40
0.5
 40
0.5
 40
0.5
 40
0.625
 40
0.625
 40
0.625
 40
0.625
 40
0.75
 40
0.75
 40
0.75
 40
0.75
 40
1.0
 40
1.0
 40
1.0
 40
1.0
 10
-6.7097
 20
66.646
 30
0.0
 10
-6.7097
 20
66.646
 30
0.0
 10
-6.63
 20
51.9058
 30
0.0
 10
-6.63
 20
51.9058
 30
0.0
 10
-6.63
 20
51.9058
 30
0.0
 10
-6.2526
 20
52.9211
 30
0.0
 10
-5.3784
 20
53.8502
 30
0.0
 10
-4.64
 20
54.301
 30
0.0
 10
-4.64
 20
54.301
 30
0.0
 10
-3.7356
 20
46.397
 30
0.0
 10
6.2142
 20
48.9998
 30
0.0
 10
5.3442
 20
57.4658
 30
0.0
 10
5.3442
 20
57.4658
 30
0.0
 10
4.2074
 20
58.4331
 30
0.0
 10
3.153
 20
58.648
 30
0.0
 10
2.2514
 20
59.2407
 30
0.0
 10
2.2514
 20
59.2407
 30
0.0
 10
3.3369
 20
60.0148
 30
0.0
 10
4.0753
 20
60.6485
 30
0.0
 10
5.2298
 20
61.5677
 30
0.0
 10
5.2298
 20
61.5677
 30
0.0
 10
6.8451
 20
69.9887
 30
0.0
 10
-4.9799
 20
72.838
 30
0.0
 10
-4.1758
 20
64.604
 30
0.0
 10
-4.1758
 20
64.604
 30
0.0
 10
-5.2126
 20
64.8505
 30
0.0
 10
-5.9854
 20
65.7623
 30
0.0
 10
-6.7097
 20
66.646
 30
0.0
  0
SPLINE
  5
49
330
1F
100
AcDbEntity
  8
layer 1
 62
     7
100
AcDbSpline
210
0.0
220
0.0
230
1.0
 70
    11
 71
     3
 72
    36
 73
    32
 74
     0
 42
0.0000000001
 43
0.0000000001
 12
1.0
 22
0.0
 32
0.0
 13
1.0
 23
0.0
 33
0.0
 40
0.0
 40
0.0
 40
0.0
 40
0.0
 40
0.1111111111111111
 40
0.1111111111111111
 40
0.1111111111111111
 40
0.1111111111111111
 40
0.2222222222222222
 40
0.2222222222222222
 40
0.2222222222222222
 40
0.2222222222222222
 40
0.3333333333333333
 40
0.3333333333333333
 40
0.3333333333333333
 40
0.3333333333333333
 40
0.4444444444444444
 40
0.4444444444444444
 40
0.4444444444444444
 40
0.4444444444444444
 40
0.5555555555555556
 40
0.5555555555555556
 40
0.5555555555555556
 40
0.5555555555555556
 40
0.6666666666666666
 40
0.6666666666666666
 40
0.6666666666666666
 40
0.6666666666666666
 40
0.7777777777777778
 40
0.7777777777777778
 40
0.7777777777777778
 40
0.7777777777777778
 40
1.0
 40
1.0
 40
1.0
 40
1.0
 10
-6.7097
 20
48.5943
 30
0.0
 10
-6.7097
 20
48.5943
 30
0.0
 10
-6.63
 20
11.4027
 30
0.0
 10
-6.63
 20
11.4027
 30
0.0
 10
-6.63
 20
11.4027
 30
0.0
 10
-6.63
 20
11.4027
 30
0.0
 10
-4.1067
 20
11.3371
 30
0.0
 10
-4.1067
 20
11.3371
 30
0.0
 10
-4.1067
 20
11.3371
 30
0.0
 10
-1.7557
 20
26.6635
 30
0.0
 10
9.0125
 20
33.2122
 30
0.0
 10
19.9987
 20
39.8133
 30
0.0
 10
19.9987
 20
39.8133
 30
0.0
 10
18.2682
 20
41.3799
 30
0.0
 10
17.6372
 20
42.3756
 30
0.0
 10
15.807
 20
44.1329
 30
0.0
 10
15.807
 20
44.1329
 30
0.0
 10
15.7167
 20
42.7912
 30
0.0
 10
14.2397
 20
41.283
 30
0.0
 10
13.3212
 20
41.5502
 30
0.0
 10
13.3212
 20
41.5502
 30
0.0
 10
15.2729
 20
47.7105
 30
0.0
 10
11.0475
 20
50.3631
 30
0.0
 10
10.5788
 20
56.3778
 30
0.0
 10
10.5788
 20
56.3778
 30
0.0
 10
10.5788
 20
56.3778
 30
0.0
 10
8.5616
 20
56.3707
 30
0.0
 10
8.5616
 20
56.3707
 30
0.0
 10
8.5616
 20
56.3707
 30
0.0
 10
8.8004
 20
44.5492
 30
0.0
 10
-2.4702
 20
43.6164
 30
0.0
 10
-6.7097
 20
48.5943
 30
0.0
  0
SPLINE
  5
4A
330
1F
100
AcDbEntity
  8
layer 1
 62
     7
100
AcDbSpline
210
0.0
220
0.0
230
1.0
 70
    11
 71
     3
 72
    20
 73
    16
 74
     0
 42
0.0000000001
 43
0.0000000001
 12
1.0
 22
0.0
 32
0.0
 13
1.0
 23
0.0
 33
0.0
 40
0.0
 40
0.0
 40
0.0
 40
0.0
 40
0.2
 40
0.2
 40
0.2
 40
0.2
 40
0.4
 40
0.4
 40
0.4
 40
0.4
 40
0.6
 40
0.6
 40
0.6
 40
0.6
 40
1.0
 40
1.0
 40
1.0
 40
1.0
 10
24.4187
 20
112.9036
 30
0.0
 10
24.4187
 20
112.0196
 30
0.0
 10
23.7004
 20
111.3023
 30
0.0
 10
22.8201
 20
111.3023
 30
0.0
 10
22.8201
 20
111.3023
 30
0.0
 10
21.9361
 20
111.3026
 30
0.0
 10
21.2216
 20
112.0196
 30
0.0
 10
21.2216
 20
112.9036
 30
0.0
 10
21.2216
 20
112.9036
 30
0.0
 10
21.2216
 20
113.7841
 30
0.0
 10
21.9361
 20
114.5019
 30
0.0
 10
22.8201
 20
114.5019
 30
0.0
 10
22.8201
 20
114.5019
 30
0.0
 10
23.7007
 20
114.5019
 30
0.0
 10
24.4184
 20
113.7839
 30
0.0
 10
24.4187
 20
112.9036
 30
0.0
  0
SPLINE
  5
4B
330
1F
100
AcDbEntity
  8
layer 1
 62
     7
100
AcDbSpline
210
0.0
220
0.0
230
1.0
 70
    11
 71
     3
 72
    20
 73
    16
 74
     0
 42
0.0000000001
 43
0.0000000001
 12
1.0
 22
0.0
 32
0.0
 13
1.0
 23
0.0
 33
0.0
 40
0.0
 40
0.0
 40
0.0
 40
0.0
 40
0.2
 40
0.2
 40
0.2
 40
0.2
 40
0.4
 40
0.4
 40
0.4
 40
0.4
 40
0.6
 40
0.6
 40
0.6
 40
0.6
 40
1.0
 40
1.0
 40
1.0
 40
1.0
 10
2.5495
 20
11.3922
 30
0.0
 10
2.5495
 20
11.3922
 30
0.0
 10
-0.2681
 20
11.3886
 30
0.0
 10
-0.2681
 20
11.3886
 30
0.0
 10
-0.2681
 20
11.3886
 30
0.0
 10
-0.2719
 20
18.083
 30
0.0
 10
5.0222
 20
25.27
 30
0.0
 10
9.1508
 20
27.8801
 30
0.0
 10
9.1508
 20
27.8801
 30
0.0
 10
9.1508
 20
27.8801
 30
0.0
 10
10.6072
 20
25.7759
 30
0.0
 10
10.6072
 20
25.7759
 30
0.0
 10
10.6072
 20
25.7759
 30
0.0
 10
5.906
 20
21.5505
 30
0.0
 10
3.0909
 20
17.3099
 30
0.0
 10
2.5495
 20
11.3922
 30
0.0
  0
SPLINE
  5
4C
330
1F
100
AcDbEntity
  8
layer 1
 62
     7
100
AcDbSpline
210
0.0
220
0.0
230
1.0
 70
    11
 71
     3
 72
    20
 73
    16
 74
     0
 42
0.0000000001
 43
0.0000000001
 12
1.0
 22
0.0
 32
0.0
 13
1.0
 23
0.0
 33
0.0
 40
0.0
 40
0.0
 40
0.0
 40
0.0
 40
0.2
 40
0.2
 40
0.2
 40
0.2
 40
0.4
 40
0.4
 40
0.4
 40
0.4
 40
0.6
 40
0.6
 40
0.6
 40
0.6
 40
1.0
 40
1.0
 40
1.0
 40
1.0
 10
40.5043
 20
9.0626
 30
0.0
 10
40.5043
 20
-0.7345
 30
0.0
 10
32.5621
 20
-8.677
 30
0.0
 10
22.7651
 20
-8.677
 30
0.0
 10
22.7651
 20
-8.677
 30
0.0
 10
12.968
 20
-8.677
 30
0.0
 10
5.0247
 20
-0.7348
 30
0.0
 10
5.0247
 20
9.0623
 30
0.0
 10
5.0247
 20
9.0623
 30
0.0
 10
5.0247
 20
18.8596
 30
0.0
 10
12.968
 20
26.8026
 30
0.0
 10
22.7651
 20
26.8026
 30
0.0
 10
22.7651
 20
26.8026
 30
0.0
 10
32.5621
 20
26.8026
 30
0.0
 10
40.5043
 20
18.8596
 30
0.0
 10
40.5043
 20
9.0626
 30
0.0
  0
SPLINE
  5
4D
330
1F
100
AcDbEntity
  8
layer 1
 62
     7
100
AcDbSpline
210
0.0
220
0.0
230
1.0
 70
    11
 71
     3
 72
    24
 73
    20
 74
     0
 42
0.0000000001
 43
0.0000000001
 12
1.0
 22
0.0
 32
0.0
 13
1.0
 23
0.0
 33
0.0
 40
0.0
 40
0.0
 40
0.0
 40
0.0
 40
0.1666666666666667
 40
0.1666666666666667
 40
0.1666666666666667
 40
0.1666666666666667
 40
0.3333333333333333
 40
0.3333333333333333
 40
0.3333333333333333
 40
0.3333333333333333
 40
0.5
 40
0.5
 40
0.5
 40
0.5
 40
0.6666666666666666
 40
0.6666666666666666
 40
0.6666666666666666
 40
0.6666666666666666
 40
1.0
 40
1.0
 40
1.0
 40
1.0
 10
49.7158
 20
112.2664
 30
0.0
 10
49.7158
 20
112.2664
 30
0.0
 10
52.3128
 20
112.214
 30
0.0
 10
52.3128
 20
112.214
 30
0.0
 10
52.3128
 20
112.214
 30
0.0
 10
52.3128
 20
112.214
 30
0.0
 10
52.3855
 20
125.35
 30
0.0
 10
52.3855
 20
125.35
 30
0.0
 10
52.3855
 20
125.35
 30
0.0
 10
52.3855
 20
125.35
 30
0.0
 10
39.017
 20
125.35
 30
0.0
 10
39.017
 20
125.35
 30
0.0
 10
39.017
 20
125.35
 30
0.0
 10
39.017
 20
125.35
 30
0.0
 10
38.9788
 20
123.873
 30
0.0
 10
38.9788
 20
123.873
 30
0.0
 10
38.9788
 20
123.873
 30
0.0
 10
46.2244
 20
123.1588
 30
0.0
 10
49.438
 20
118.3847
 30
0.0
 10
49.7158
 20
112.2664
 30
0.0
  0
SPLINE
  5
4E
330
1F
100
AcDbEntity
  8
layer 1
 62
     7
100
AcDbSpline
210
0.0
220
0.0
230
1.0
 70
    11
 71
     3
 72
    60
 73
    56
 74
     0
 42
0.0000000001
 43
0.0000000001
 12
1.0
 22
0.0
 32
0.0
 13
1.0
 23
0.0
 33
0.0
 40
0.0
 40
0.0
 40
0.0
 40
0.0
 40
0.0666666666666667
 40
0.0666666666666667
 40
0.0666666666666667
 40
0.0666666666666667
 40
0.1333333333333333
 40
0.1333333333333333
 40
0.1333333333333333
 40
0.1333333333333333
 40
0.2
 40
0.2
 40
0.2
 40
0.2
 40
0.2666666666666667
 40
0.2666666666666667
 40
0.2666666666666667
 40
0.2666666666666667
 40
0.3333333333333333
 40
0.3333333333333333
 40
0.3333333333333333
 40
0.3333333333333333
 40
0.4
 40
0.4
 40
0.4
 40
0.4
 40
0.4666666666666667
 40
0.4666666666666667
 40
0.4666666666666667
 40
0.4666666666666667
 40
0.5333333333333333
 40
0.5333333333333333
 40
0.5333333333333333
 40
0.5333333333333333
 40
0.6
 40
0.6
 40
0.6
 40
0.6
 40
0.6666666666666666
 40
0.6666666666666666
 40
0.6666666666666666
 40
0.6666666666666666
 40
0.7333333333333333
 40
0.7333333333333333
 40
0.7333333333333333
 40
0.7333333333333333
 40
0.8
 40
0.8
 40
0.8
 40
0.8
 40
0.8666666666666667
 40
0.8666666666666667
 40
0.8666666666666667
 40
0.8666666666666667
 40
1.0
 40
1.0
 40
1.0
 40
1.0
 10
35.7199
 20
92.3731
 30
0.0
 10
35.7199
 20
92.3731
 30
0.0
 10
34.8467
 20
93.2677
 30
0.0
 10
34.8467
 20
93.2677
 30
0.0
 10
34.8467
 20
93.2677
 30
0.0
 10
28.7762
 20
92.4433
 30
0.0
 10
25.4099
 20
98.0627
 30
0.0
 10
25.3334
 20
103.0441
 30
0.0
 10
25.3334
 20
103.0441
 30
0.0
 10
25.3334
 20
103.0441
 30
0.0
 10
23.9472
 20
103.1757
 30
0.0
 10
23.9472
 20
103.1757
 30
0.0
 10
23.9472
 20
103.1757
 30
0.0
 10
23.9472
 20
103.1757
 30
0.0
 10
24.0652
 20
96.0624
 30
0.0
 10
24.0652
 20
96.0624
 30
0.0
 10
24.0652
 20
96.0624
 30
0.0
 10
24.0652
 20
96.0624
 30
0.0
 10
26.6232
 20
90.2412
 30
0.0
 10
26.6232
 20
90.2412
 30
0.0
 10
26.6232
 20
90.2412
 30
0.0
 10
26.6232
 20
90.2412
 30
0.0
 10
22.876
 20
86.6045
 30
0.0
 10
22.876
 20
86.6045
 30
0.0
 10
22.876
 20
86.6045
 30
0.0
 10
22.876
 20
86.6045
 30
0.0
 10
19.128
 20
90.2412
 30
0.0
 10
19.128
 20
90.2412
 30
0.0
 10
19.128
 20
90.2412
 30
0.0
 10
19.128
 20
90.2412
 30
0.0
 10
21.6868
 20
96.0624
 30
0.0
 10
21.6868
 20
96.0624
 30
0.0
 10
21.6868
 20
96.0624
 30
0.0
 10
21.6868
 20
96.0624
 30
0.0
 10
21.8048
 20
103.1757
 30
0.0
 10
21.8048
 20
103.1757
 30
0.0
 10
21.8048
 20
103.1757
 30
0.0
 10
21.8048
 20
103.1757
 30
0.0
 10
20.4176
 20
103.0444
 30
0.0
 10
20.4176
 20
103.0444
 30
0.0
 10
20.4176
 20
103.0444
 30
0.0
 10
20.3414
 20
98.0627
 30
0.0
 10
16.9786
 20
92.443
 30
0.0
 10
10.9046
 20
93.2674
 30
0.0
 10
10.9046
 20
93.2674
 30
0.0
 10
10.9046
 20
93.2674
 30
0.0
 10
10.0313
 20
92.3731
 30
0.0
 10
10.0313
 20
92.3731
 30
0.0
 10
10.0313
 20
92.3731
 30
0.0
 10
10.0313
 20
92.3731
 30
0.0
 10
17.3673
 20
85.6475
 30
0.0
 10
22.876
 20
81.4806
 30
0.0
 10
22.876
 20
81.4806
 30
0.0
 10
28.3847
 20
85.6477
 30
0.0
 10
35.7199
 20
92.3728
 30
0.0
 10
35.7199
 20
92.3731
 30
0.0
  0
SPLINE
  5
4F
330
1F
100
AcDbEntity
  8
layer 1
 62
     7
100
AcDbSpline
210
0.0
220
0.0
230
1.0
 70
    11
 71
     3
 72
    44
 73
    40
 74
     0
 42
0.0000000001
 43
0.0000000001
 12
1.0
 22
0.0
 32
0.0
 13
1.0
 23
0.0
 33
0.0
 40
0.0
 40
0.0
 40
0.0
 40
0.0
 40
0.0909090909090909
 40
0.0909090909090909
 40
0.0909090909090909
 40
0.0909090909090909
 40
0.1818181818181818
 40
0.1818181818181818
 40
0.1818181818181818
 40
0.1818181818181818
 40
0.2727272727272727
 40
0.2727272727272727
 40
0.2727272727272727
 40
0.2727272727272727
 40
0.3636363636363636
 40
0.3636363636363636
 40
0.3636363636363636
 40
0.3636363636363636
 40
0.4545454545454545
 40
0.4545454545454545
 40
0.4545454545454545
 40
0.4545454545454545
 40
0.5454545454545454
 40
0.5454545454545454
 40
0.5454545454545454
 40
0.5454545454545454
 40
0.6363636363636364
 40
0.6363636363636364
 40
0.6363636363636364
 40
0.6363636363636364
 40
0.7272727272727273
 40
0.7272727272727273
 40
0.7272727272727273
 40
0.7272727272727273
 40
0.8181818181818182
 40
0.8181818181818182
 40
0.8181818181818182
 40
0.8181818181818182
 40
1.0
 40
1.0
 40
1.0
 40
1.0
 10
34.7322
 20
110.8686
 30
0.0
 10
34.985
 20
115.3237
 30
0.0
 10
39.1909
 20
112.7376
 30
0.0
 10
38.7569
 20
109.3119
 30
0.0
 10
38.7569
 20
109.3119
 30
0.0
 10
37.4364
 20
102.1294
 30
0.0
 10
26.2139
 20
104.6426
 30
0.0
 10
26.7588
 20
110.8684
 30
0.0
 10
26.7588
 20
110.8684
 30
0.0
 10
26.7588
 20
110.8684
 30
0.0
 10
25.3751
 20
110.9972
 30
0.0
 10
25.3751
 20
110.9972
 30
0.0
 10
25.3751
 20
110.9972
 30
0.0
 10
24.8134
 20
107.0069
 30
0.0
 10
32.0527
 20
90.8234
 30
0.0
 10
36.091
 20
99.6816
 30
0.0
 10
36.091
 20
99.6816
 30
0.0
 10
37.7896
 20
96.5477
 30
0.0
 10
37.4434
 20
94.0405
 30
0.0
 10
37.4434
 20
94.0405
 30
0.0
 10
37.4434
 20
94.0405
 30
0.0
 10
37.4434
 20
94.0405
 30
0.0
 10
43.0249
 20
99.5362
 30
0.0
 10
43.0249
 20
99.5362
 30
0.0
 10
43.0249
 20
99.5362
 30
0.0
 10
43.0249
 20
99.5362
 30
0.0
 10
41.1426
 20
98.5543
 30
0.0
 10
39.4191
 20
99.9727
 30
0.0
 10
39.4191
 20
99.9727
 30
0.0
 10
49.4212
 20
107.4854
 30
0.0
 10
46.9733
 20
115.9547
 30
0.0
 10
41.7974
 20
119.0433
 30
0.0
 10
41.7974
 20
119.0433
 30
0.0
 10
37.6892
 20
121.4946
 30
0.0
 10
31.6331
 20
119.9414
 30
0.0
 10
30.3541
 20
116.1552
 30
0.0
 10
30.3541
 20
116.1552
 30
0.0
 10
28.3847
 20
109.6278
 30
0.0
 10
33.8587
 20
107.5129
 30
0.0
 10
34.7322
 20
110.8686
 30
0.0
  0
SPLINE
  5
50
330
1F
100
AcDbEntity
  8
layer 1
 62
     7
100
AcDbSpline
210
0.0
220
0.0
230
1.0
 70
    11
 71
     3
 72
    24
 73
    20
 74
     0
 42
0.0000000001
 43
0.0000000001
 12
1.0
 22
0.0
 32
0.0
 13
1.0
 23
0.0
 33
0.0
 40
0.0
 40
0.0
 40
0.0
 40
0.0
 40
0.1666666666666667
 40
0.1666666666666667
 40
0.1666666666666667
 40
0.1666666666666667
 40
0.3333333333333333
 40
0.3333333333333333
 40
0.3333333333333333
 40
0.3333333333333333
 40
0.5
 40
0.5
 40
0.5
 40
0.5
 40
0.6666666666666666
 40
0.6666666666666666
 40
0.6666666666666666
 40
0.6666666666666666
 40
1.0
 40
1.0
 40
1.0
 40
1.0
 10
49.7158
 20
107.3878
 30
0.0
 10
49.7158
 20
107.3878
 30
0.0
 10
52.3128
 20
107.4399
 30
0.0
 10
52.3128
 20
107.4399
 30
0.0
 10
52.3128
 20
107.4399
 30
0.0
 10
52.3128
 20
107.4399
 30
0.0
 10
52.3855
 20
84.8817
 30
0.0
 10
52.3855
 20
84.8817
 30
0.0
 10
52.3855
 20
84.8817
 30
0.0
 10
51.4144
 20
86.2616
 30
0.0
 10
50.2846
 20
86.0113
 30
0.0
 10
50.2846
 20
86.0113
 30
0.0
 10
50.2846
 20
86.0113
 30
0.0
 10
50.4053
 20
81.5083
 30
0.0
 10
44.6578
 20
82.1259
 30
0.0
 10
45.0493
 20
86.9023
 30
0.0
 10
45.0493
 20
86.9023
 30
0.0
 10
46.2244
 20
95.2788
 30
0.0
 10
48.6863
 20
94.4808
 30
0.0
 10
49.7158
 20
107.3878
 30
0.0
  0
SPLINE
  5
51
330
1F
100
AcDbEntity
  8
layer 1
 62
     7
100
AcDbSpline
210
0.0
220
0.0
230
1.0
 70
    11
 71
     3
 72
    48
 73
    44
 74
     0
 42
0.0000000001
 43
0.0000000001
 12
1.0
 22
0.0
 32
0.0
 13
1.0
 23
0.0
 33
0.0
 40
0.0
 40
0.0
 40
0.0
 40
0.0
 40
0.0833333333333333
 40
0.0833333333333333
 40
0.0833333333333333
 40
0.0833333333333333
 40
0.1666666666666667
 40
0.1666666666666667
 40
0.1666666666666667
 40
0.1666666666666667
 40
0.25
 40
0.25
 40
0.25
 40
0.25
 40
0.3333333333333333
 40
0.3333333333333333
 40
0.3333333333333333
 40
0.3333333333333333
 40
0.4166666666666667
 40
0.4166666666666667
 40
0.4166666666666667
 40
0.4166666666666667
 40
0.5
 40
0.5
 40
0.5
 40
0.5
 40
0.5833333333333334
 40
0.5833333333333334
 40
0.5833333333333334
 40
0.5833333333333334
 40
0.6666666666666666
 40
0.6666666666666666
 40
0.6666666666666666
 40
0.6666666666666666
 40
0.75
 40
0.75
 40
0.75
 40
0.75
 40
0.8333333333333334
 40
0.8333333333333334
 40
0.8333333333333334
 40
0.8333333333333334
 40
1.0
 40
1.0
 40
1.0
 40
1.0
 10
45.8294
 20
80.2915
 30
0.0
 10
47.6632
 20
78.2706
 30
0.0
 10
51.1198
 20
79.1785
 30
0.0
 10
52.4652
 20
82.0354
 30
0.0
 10
52.4652
 20
82.0354
 30
0.0
 10
52.4652
 20
82.0354
 30
0.0
 10
52.3855
 20
69.6903
 30
0.0
 10
52.3855
 20
69.6903
 30
0.0
 10
52.3855
 20
69.6903
 30
0.0
 10
50.9983
 20
76.1249
 30
0.0
 10
36.216
 20
75.3374
 30
0.0
 10
37.2802
 20
62.528
 30
0.0
 10
37.2802
 20
62.528
 30
0.0
 10
36.216
 20
62.5627
 30
0.0
 10
36.0047
 20
62.5796
 30
0.0
 10
35.3737
 20
62.6389
 30
0.0
 10
35.3737
 20
62.6389
 30
0.0
 10
35.2213
 20
65.3424
 30
0.0
 10
33.9521
 20
69.1079
 30
0.0
 10
32.1984
 20
72.4255
 30
0.0
 10
32.1984
 20
72.4255
 30
0.0
 10
31.269
 20
74.1767
 30
0.0
 10
31.9133
 20
76.3083
 30
0.0
 10
32.3536
 20
77.8542
 30
0.0
 10
32.3536
 20
77.8542
 30
0.0
 10
30.8386
 20
78.2776
 30
0.0
 10
29.3938
 20
76.6758
 30
0.0
 10
29.7888
 20
74.6265
 30
0.0
 10
29.7888
 20
74.6265
 30
0.0
 10
28.225
 20
76.752
 30
0.0
 10
27.6428
 20
77.2962
 30
0.0
 10
25.7915
 20
78.8874
 30
0.0
 10
25.7915
 20
78.8874
 30
0.0
 10
34.1287
 20
86.0533
 30
0.0
 10
34.7702
 20
86.7054
 30
0.0
 10
43.0143
 20
94.2146
 30
0.0
 10
43.0143
 20
94.2146
 30
0.0
 10
39.3081
 20
88.2968
 30
0.0
 10
42.0193
 20
80.2844
 30
0.0
 10
45.5348
 20
78.9257
 30
0.0
 10
45.5348
 20
78.9257
 30
0.0
 10
45.8782
 20
78.7943
 30
0.0
 10
45.5145
 20
80.4716
 30
0.0
 10
45.8294
 20
80.2915
 30
0.0
  0
SPLINE
  5
52
330
1F
100
AcDbEntity
  8
layer 1
 62
     7
100
AcDbSpline
210
0.0
220
0.0
230
1.0
 70
    11
 71
     3
 72
    60
 73
    56
 74
     0
 42
0.0000000001
 43
0.0000000001
 12
1.0
 22
0.0
 32
0.0
 13
1.0
 23
0.0
 33
0.0
 40
0.0
 40
0.0
 40
0.0
 40
0.0
 40
0.0666666666666667
 40
0.0666666666666667
 40
0.0666666666666667
 40
0.0666666666666667
 40
0.1333333333333333
 40
0.1333333333333333
 40
0.1333333333333333
 40
0.1333333333333333
 40
0.2
 40
0.2
 40
0.2
 40
0.2
 40
0.2666666666666667
 40
0.2666666666666667
 40
0.2666666666666667
 40
0.2666666666666667
 40
0.3333333333333333
 40
0.3333333333333333
 40
0.3333333333333333
 40
0.3333333333333333
 40
0.4
 40
0.4
 40
0.4
 40
0.4
 40
0.4666666666666667
 40
0.4666666666666667
 40
0.4666666666666667
 40
0.4666666666666667
 40
0.5333333333333333
 40
0.5333333333333333
 40
0.5333333333333333
 40
0.5333333333333333
 40
0.6
 40
0.6
 40
0.6
 40
0.6
 40
0.6666666666666666
 40
0.6666666666666666
 40
0.6666666666666666
 40
0.6666666666666666
 40
0.7333333333333333
 40
0.7333333333333333
 40
0.7333333333333333
 40
0.7333333333333333
 40
0.8
 40
0.8
 40
0.8
 40
0.8
 40
0.8666666666666667
 40
0.8666666666666667
 40
0.8666666666666667
 40
0.8666666666666667
 40
1.0
 40
1.0
 40
1.0
 40
1.0
 10
27.9757
 20
47.3085
 30
0.0
 10
28.2942
 20
47.8941
 30
0.0
 10
25.5767
 20
47.8524
 30
0.0
 10
25.3334
 20
49.0798
 30
0.0
 10
25.3334
 20
49.0798
 30
0.0
 10
30.4127
 20
48.2519
 30
0.0
 10
31.9038
 20
55.8718
 30
0.0
 10
32.0456
 20
56.9981
 30
0.0
 10
32.0456
 20
56.9981
 30
0.0
 10
28.2179
 20
56.7141
 30
0.0
 10
28.4574
 20
61.2661
 30
0.0
 10
31.7989
 20
61.6716
 30
0.0
 10
31.7989
 20
61.6716
 30
0.0
 10
31.8097
 20
63.8905
 30
0.0
 10
31.0605
 20
69.0939
 30
0.0
 10
26.1482
 20
70.0264
 30
0.0
 10
26.1482
 20
70.0264
 30
0.0
 10
25.0388
 20
70.238
 30
0.0
 10
26.7792
 20
71.8984
 30
0.0
 10
28.2871
 20
71.6144
 30
0.0
 10
28.2871
 20
71.6144
 30
0.0
 10
26.9877
 20
73.2607
 30
0.0
 10
25.6388
 20
74.8174
 30
0.0
 10
22.876
 20
76.8834
 30
0.0
 10
22.876
 20
76.8834
 30
0.0
 10
20.1122
 20
74.8174
 30
0.0
 10
18.7678
 20
73.2607
 30
0.0
 10
17.4676
 20
71.6144
 30
0.0
 10
17.4676
 20
71.6144
 30
0.0
 10
18.9721
 20
71.8984
 30
0.0
 10
20.7122
 20
70.2378
 30
0.0
 10
19.603
 20
70.0264
 30
0.0
 10
19.603
 20
70.0264
 30
0.0
 10
14.6943
 20
69.0941
 30
0.0
 10
13.9416
 20
63.8903
 30
0.0
 10
13.9521
 20
61.6716
 30
0.0
 10
13.9521
 20
61.6716
 30
0.0
 10
17.2946
 20
61.2664
 30
0.0
 10
17.5333
 20
56.7141
 30
0.0
 10
13.7063
 20
56.9981
 30
0.0
 10
13.7063
 20
56.9981
 30
0.0
 10
13.8485
 20
55.8721
 30
0.0
 10
15.3393
 20
48.2519
 30
0.0
 10
20.4176
 20
49.0798
 30
0.0
 10
20.4176
 20
49.0798
 30
0.0
 10
20.1753
 20
47.8526
 30
0.0
 10
17.4568
 20
47.8941
 30
0.0
 10
17.7763
 20
47.3082
 30
0.0
 10
17.7763
 20
47.3082
 30
0.0
 10
18.9409
 20
45.19
 30
0.0
 10
20.3758
 20
43.713
 30
0.0
 10
22.876
 20
42.0561
 30
0.0
 10
22.876
 20
42.0561
 30
0.0
 10
25.3751
 20
43.7132
 30
0.0
 10
26.8104
 20
45.19
 30
0.0
 10
27.9757
 20
47.3085
 30
0.0
  0
SPLINE
  5
53
330
1F
100
AcDbEntity
  8
layer 1
 62
     7
100
AcDbSpline
210
0.0
220
0.0
230
1.0
 70
    11
 71
     3
 72
    32
 73
    28
 74
     0
 42
0.0000000001
 43
0.0000000001
 12
1.0
 22
0.0
 32
0.0
 13
1.0
 23
0.0
 33
0.0
 40
0.0
 40
0.0
 40
0.0
 40
0.0
 40
0.125
 40
0.125
 40
0.125
 40
0.125
 40
0.25
 40
0.25
 40
0.25
 40
0.25
 40
0.375
 40
0.375
 40
0.375
 40
0.375
 40
0.5
 40
0.5
 40
0.5
 40
0.5
 40
0.625
 40
0.625
 40
0.625
 40
0.625
 40
0.75
 40
0.75
 40
0.75
 40
0.75
 40
1.0
 40
1.0
 40
1.0
 40
1.0
 10
52.4652
 20
66.646
 30
0.0
 10
52.4652
 20
66.646
 30
0.0
 10
52.3855
 20
51.9058
 30
0.0
 10
52.3855
 20
51.9058
 30
0.0
 10
52.3855
 20
51.9058
 30
0.0
 10
52.0038
 20
52.9211
 30
0.0
 10
51.1304
 20
53.8502
 30
0.0
 10
50.392
 20
54.301
 30
0.0
 10
50.392
 20
54.301
 30
0.0
 10
49.4868
 20
46.397
 30
0.0
 10
39.537
 20
48.9998
 30
0.0
 10
40.4113
 20
57.4658
 30
0.0
 10
40.4113
 20
57.4658
 30
0.0
 10
41.5446
 20
58.4331
 30
0.0
 10
42.6015
 20
58.648
 30
0.0
 10
43.4996
 20
59.2407
 30
0.0
 10
43.4996
 20
59.2407
 30
0.0
 10
42.4143
 20
60.0148
 30
0.0
 10
41.6795
 20
60.6485
 30
0.0
 10
40.5222
 20
61.5677
 30
0.0
 10
40.5222
 20
61.5677
 30
0.0
 10
38.9061
 20
69.9887
 30
0.0
 10
50.7311
 20
72.838
 30
0.0
 10
49.9306
 20
64.604
 30
0.0
 10
49.9306
 20
64.604
 30
0.0
 10
50.9636
 20
64.8505
 30
0.0
 10
51.7367
 20
65.7623
 30
0.0
 10
52.4652
 20
66.646
 30
0.0
  0
SPLINE
  5
54
330
1F
100
AcDbEntity
  8
layer 1
 62
     7
100
AcDbSpline
210
0.0
220
0.0
230
1.0
 70
    11
 71
     3
 72
    36
 73
    32
 74
     0
 42
0.0000000001
 43
0.0000000001
 12
1.0
 22
0.0
 32
0.0
 13
1.0
 23
0.0
 33
0.0
 40
0.0
 40
0.0
 40
0.0
 40
0.0
 40
0.1111111111111111
 40
0.1111111111111111
 40
0.1111111111111111
 40
0.1111111111111111
 40
0.2222222222222222
 40
0.2222222222222222
 40
0.2222222222222222
 40
0.2222222222222222
 40
0.3333333333333333
 40
0.3333333333333333
 40
0.3333333333333333
 40
0.3333333333333333
 40
0.4444444444444444
 40
0.4444444444444444
 40
0.4444444444444444
 40
0.4444444444444444
 40
0.5555555555555556
 40
0.5555555555555556
 40
0.5555555555555556
 40
0.5555555555555556
 40
0.6666666666666666
 40
0.6666666666666666
 40
0.6666666666666666
 40
0.6666666666666666
 40
0.7777777777777778
 40
0.7777777777777778
 40
0.7777777777777778
 40
0.7777777777777778
 40
1.0
 40
1.0
 40
1.0
 40
1.0
 10
52.4652
 20
48.5943
 30
0.0
 10
52.4652
 20
48.5943
 30
0.0
 10
52.3855
 20
11.4027
 30
0.0
 10
52.3855
 20
11.4027
 30
0.0
 10
52.3855
 20
11.4027
 30
0.0
 10
52.3855
 20
11.4027
 30
0.0
 10
49.8614
 20
11.3371
 30
0.0
 10
49.8614
 20
11.3371
 30
0.0
 10
49.8614
 20
11.3371
 30
0.0
 10
47.5112
 20
26.6635
 30
0.0
 10
36.7395
 20
33.2122
 30
0.0
 10
25.7533
 20
39.8133
 30
0.0
 10
25.7533
 20
39.8133
 30
0.0
 10
27.4831
 20
41.3799
 30
0.0
 10
28.114
 20
42.3756
 30
0.0
 10
29.945
 20
44.1329
 30
0.0
 10
29.945
 20
44.1329
 30
0.0
 10
30.0346
 20
42.7912
 30
0.0
 10
31.5113
 20
41.283
 30
0.0
 10
32.4301
 20
41.5502
 30
0.0
 10
32.4301
 20
41.5502
 30
0.0
 10
30.4783
 20
47.7105
 30
0.0
 10
34.7045
 20
50.3631
 30
0.0
 10
35.176
 20
56.3778
 30
0.0
 10
35.176
 20
56.3778
 30
0.0
 10
35.176
 20
56.3778
 30
0.0
 10
37.1941
 20
56.3707
 30
0.0
 10
37.1941
 20
56.3707
 30
0.0
 10
37.1941
 20
56.3707
 30
0.0
 10
36.9509
 20
44.5492
 30
0.0
 10
48.2212
 20
43.6164
 30
0.0
 10
52.4652
 20
48.5943
 30
0.0
  0
SPLINE
  5
55
330
1F
100
AcDbEntity
  8
layer 1
 62
     7
100
AcDbSpline
210
0.0
220
0.0
230
1.0
 70
    11
 71
     3
 72
    20
 73
    16
 74
     0
 42
0.0000000001
 43
0.0000000001
 12
1.0
 22
0.0
 32
0.0
 13
1.0
 23
0.0
 33
0.0
 40
0.0
 40
0.0
 40
0.0
 40
0.0
 40
0.2
 40
0.2
 40
0.2
 40
0.2
 40
0.4
 40
0.4
 40
0.4
 40
0.4
 40
0.6
 40
0.6
 40
0.6
 40
0.6
 40
1.0
 40
1.0
 40
1.0
 40
1.0
 10
43.2015
 20
11.3922
 30
0.0
 10
43.2015
 20
11.3922
 30
0.0
 10
46.0204
 20
11.3886
 30
0.0
 10
46.0204
 20
11.3886
 30
0.0
 10
46.0204
 20
11.3886
 30
0.0
 10
46.0236
 20
18.083
 30
0.0
 10
40.7298
 20
25.27
 30
0.0
 10
36.6012
 20
27.8801
 30
0.0
 10
36.6012
 20
27.8801
 30
0.0
 10
36.6012
 20
27.8801
 30
0.0
 10
35.1483
 20
25.7759
 30
0.0
 10
35.1483
 20
25.7759
 30
0.0
 10
35.1483
 20
25.7759
 30
0.0
 10
39.8495
 20
21.5505
 30
0.0
 10
42.6611
 20
17.3099
 30
0.0
 10
43.2015
 20
11.3922
 30
0.0
  0
SPLINE
  5
56
330
1F
100
AcDbEntity
  8
layer 1
 62
     7
100
AcDbSpline
210
0.0
220
0.0
230
1.0
 70
    11
 71
     3
 72
    24
 73
    20
 74
     0
 42
0.0000000001
 43
0.0000000001
 12
1.0
 22
0.0
 32
0.0
 13
1.0
 23
0.0
 33
0.0
 40
0.0
 40
0.0
 40
0.0
 40
0.0
 40
0.1666666666666667
 40
0.1666666666666667
 40
0.1666666666666667
 40
0.1666666666666667
 40
0.3333333333333333
 40
0.3333333333333333
 40
0.3333333333333333
 40
0.3333333333333333
 40
0.5
 40
0.5
 40
0.5
 40
0.5
 40
0.6666666666666666
 40
0.6666666666666666
 40
0.6666666666666666
 40
0.6666666666666666
 40
1.0
 40
1.0
 40
1.0
 40
1.0
 10
12.8047
 20
-12.3688
 30
0.0
 10
12.8047
 20
-12.3688
 30
0.0
 10
14.4138
 20
-9.7099
 30
0.0
 10
14.4138
 20
-9.7099
 30
0.0
 10
14.4138
 20
-9.7099
 30
0.0
 10
20.3175
 20
-12.8997
 30
0.0
 10
25.7354
 20
-13.0453
 30
0.0
 10
31.3382
 20
-9.7099
 30
0.0
 10
31.3382
 20
-9.7099
 30
0.0
 10
31.3382
 20
-9.7099
 30
0.0
 10
32.9465
 20
-12.3688
 30
0.0
 10
32.9465
 20
-12.3688
 30
0.0
 10
32.9465
 20
-12.3688
 30
0.0
 10
29.4871
 20
-14.2584
 30
0.0
 10
22.876
 20
-19.5214
 30
0.0
 10
22.876
 20
-19.5214
 30
0.0
 10
22.876
 20
-19.5214
 30
0.0
 10
22.876
 20
-19.5211
 30
0.0
 10
16.2651
 20
-14.2584
 30
0.0
 10
12.8047
 20
-12.3688
 30
0.0
  0
SPLINE
  5
57
330
1F
100
AcDbEntity
  8
layer 1
 62
     7
100
AcDbSpline
210
0.0
220
0.0
230
1.0
 70
    11
 71
     3
 72
    24
 73
    20
 74
     0
 42
0.0000000001
 43
0.0000000001
 12
1.0
 22
0.0
 32
0.0
 13
1.0
 23
0.0
 33
0.0
 40
0.0
 40
0.0
 40
0.0
 40
0.0
 40
0.1666666666666667
 40
0.1666666666666667
 40
0.1666666666666667
 40
0.1666666666666667
 40
0.3333333333333333
 40
0.3333333333333333
 40
0.3333333333333333
 40
0.3333333333333333
 40
0.5
 40
0.5
 40
0.5
 40
0.5
 40
0.6666666666666666
 40
0.6666666666666666
 40
0.6666666666666666
 40
0.6666666666666666
 40
1.0
 40
1.0
 40
1.0
 40
1.0
 10
-3.9638
 20
-94.1369
 30
0.0
 10
-3.9638
 20
-94.1369
 30
0.0
 10
-6.5605
 20
-94.0846
 30
0.0
 10
-6.5605
 20
-94.0846
 30
0.0
 10
-6.5605
 20
-94.0846
 30
0.0
 10
-6.5605
 20
-94.0846
 30
0.0
 10
-6.63
 20
-107.2203
 30
0.0
 10
-6.63
 20
-107.2203
 30
0.0
 10
-6.63
 20
-107.2203
 30
0.0
 10
-6.63
 20
-107.2203
 30
0.0
 10
6.7342
 20
-107.2203
 30
0.0
 10
6.7342
 20
-107.2203
 30
0.0
 10
6.7342
 20
-107.2203
 30
0.0
 10
6.7342
 20
-107.2203
 30
0.0
 10
6.7724
 20
-105.7436
 30
0.0
 10
6.7724
 20
-105.7436
 30
0.0
 10
6.7724
 20
-105.7436
 30
0.0
 10
-0.4732
 20
-105.0291
 30
0.0
 10
-3.6868
 20
-100.259
 30
0.0
 10
-3.9638
 20
-94.1369
 30
0.0
  0
SPLINE
  5
58
330
1F
100
AcDbEntity
  8
layer 1
 62
     7
100
AcDbSpline
210
0.0
220
0.0
230
1.0
 70
    11
 71
     3
 72
    48
 73
    44
 74
     0
 42
0.0000000001
 43
0.0000000001
 12
1.0
 22
0.0
 32
0.0
 13
1.0
 23
0.0
 33
0.0
 40
0.0
 40
0.0
 40
0.0
 40
0.0
 40
0.0833333333333333
 40
0.0833333333333333
 40
0.0833333333333333
 40
0.0833333333333333
 40
0.1666666666666667
 40
0.1666666666666667
 40
0.1666666666666667
 40
0.1666666666666667
 40
0.25
 40
0.25
 40
0.25
 40
0.25
 40
0.3333333333333333
 40
0.3333333333333333
 40
0.3333333333333333
 40
0.3333333333333333
 40
0.4166666666666667
 40
0.4166666666666667
 40
0.4166666666666667
 40
0.4166666666666667
 40
0.5
 40
0.5
 40
0.5
 40
0.5
 40
0.5833333333333334
 40
0.5833333333333334
 40
0.5833333333333334
 40
0.5833333333333334
 40
0.6666666666666666
 40
0.6666666666666666
 40
0.6666666666666666
 40
0.6666666666666666
 40
0.75
 40
0.75
 40
0.75
 40
0.75
 40
0.8333333333333334
 40
0.8333333333333334
 40
0.8333333333333334
 40
0.8333333333333334
 40
1.0
 40
1.0
 40
1.0
 40
1.0
 10
20.9759
 20
-103.6082
 30
0.0
 10
20.9759
 20
-103.6082
 30
0.0
 10
20.9484
 20
-97.3709
 30
0.0
 10
20.9484
 20
-97.3709
 30
0.0
 10
20.9484
 20
-97.3709
 30
0.0
 10
20.9484
 20
-97.3709
 30
0.0
 10
19.6722
 20
-97.3923
 30
0.0
 10
19.6722
 20
-97.3923
 30
0.0
 10
19.6722
 20
-97.3923
 30
0.0
 10
18.9373
 20
-101.2404
 30
0.0
 10
15.4983
 20
-105.5076
 30
0.0
 10
9.2821
 20
-105.7436
 30
0.0
 10
9.2821
 20
-105.7436
 30
0.0
 10
9.2821
 20
-105.7436
 30
0.0
 10
9.3239
 20
-107.2203
 30
0.0
 10
9.3239
 20
-107.2203
 30
0.0
 10
9.3239
 20
-107.2203
 30
0.0
 10
9.3239
 20
-107.2203
 30
0.0
 10
36.4308
 20
-107.2203
 30
0.0
 10
36.4308
 20
-107.2203
 30
0.0
 10
36.4308
 20
-107.2203
 30
0.0
 10
36.4308
 20
-107.2203
 30
0.0
 10
36.4691
 20
-105.7436
 30
0.0
 10
36.4691
 20
-105.7436
 30
0.0
 10
36.4691
 20
-105.7436
 30
0.0
 10
30.2529
 20
-105.5076
 30
0.0
 10
26.8139
 20
-101.2404
 30
0.0
 10
26.079
 20
-97.3923
 30
0.0
 10
26.079
 20
-97.3923
 30
0.0
 10
26.079
 20
-97.3923
 30
0.0
 10
24.8038
 20
-97.3709
 30
0.0
 10
24.8038
 20
-97.3709
 30
0.0
 10
24.8038
 20
-97.3709
 30
0.0
 10
24.8038
 20
-97.3709
 30
0.0
 10
24.7754
 20
-103.6082
 30
0.0
 10
24.7754
 20
-103.6082
 30
0.0
 10
24.7754
 20
-103.6082
 30
0.0
 10
24.7754
 20
-103.6082
 30
0.0
 10
22.876
 20
-105.0576
 30
0.0
 10
22.876
 20
-105.0576
 30
0.0
 10
22.876
 20
-105.0576
 30
0.0
 10
22.876
 20
-105.0576
 30
0.0
 10
20.9759
 20
-103.6082
 30
0.0
 10
20.9759
 20
-103.6082
 30
0.0
  0
SPLINE
  5
59
330
1F
100
AcDbEntity
  8
layer 1
 62
     7
100
AcDbSpline
210
0.0
220
0.0
230
1.0
 70
    11
 71
     3
 72
    44
 73
    40
 74
     0
 42
0.0000000001
 43
0.0000000001
 12
1.0
 22
0.0
 32
0.0
 13
1.0
 23
0.0
 33
0.0
 40
0.0
 40
0.0
 40
0.0
 40
0.0
 40
0.0909090909090909
 40
0.0909090909090909
 40
0.0909090909090909
 40
0.0909090909090909
 40
0.1818181818181818
 40
0.1818181818181818
 40
0.1818181818181818
 40
0.1818181818181818
 40
0.2727272727272727
 40
0.2727272727272727
 40
0.2727272727272727
 40
0.2727272727272727
 40
0.3636363636363636
 40
0.3636363636363636
 40
0.3636363636363636
 40
0.3636363636363636
 40
0.4545454545454545
 40
0.4545454545454545
 40
0.4545454545454545
 40
0.4545454545454545
 40
0.5454545454545454
 40
0.5454545454545454
 40
0.5454545454545454
 40
0.5454545454545454
 40
0.6363636363636364
 40
0.6363636363636364
 40
0.6363636363636364
 40
0.6363636363636364
 40
0.7272727272727273
 40
0.7272727272727273
 40
0.7272727272727273
 40
0.7272727272727273
 40
0.8181818181818182
 40
0.8181818181818182
 40
0.8181818181818182
 40
0.8181818181818182
 40
1.0
 40
1.0
 40
1.0
 40
1.0
 10
11.019
 20
-92.7435
 30
0.0
 10
10.7662
 20
-97.1943
 30
0.0
 10
6.5611
 20
-94.6081
 30
0.0
 10
6.9941
 20
-91.187
 30
0.0
 10
6.9941
 20
-91.187
 30
0.0
 10
8.3156
 20
-84.0
 30
0.0
 10
19.5371
 20
-86.517
 30
0.0
 10
18.9932
 20
-92.74
 30
0.0
 10
18.9932
 20
-92.74
 30
0.0
 10
18.9932
 20
-92.74
 30
0.0
 10
20.3796
 20
-92.8713
 30
0.0
 10
20.3796
 20
-92.8713
 30
0.0
 10
20.3796
 20
-92.8713
 30
0.0
 10
20.9379
 20
-88.8775
 30
0.0
 10
13.6993
 20
-72.6985
 30
0.0
 10
9.6603
 20
-81.5522
 30
0.0
 10
9.6603
 20
-81.5522
 30
0.0
 10
7.9616
 20
-78.4183
 30
0.0
 10
8.3086
 20
-75.9156
 30
0.0
 10
8.3086
 20
-75.9156
 30
0.0
 10
8.3086
 20
-75.9156
 30
0.0
 10
8.3086
 20
-75.9156
 30
0.0
 10
2.7271
 20
-81.4065
 30
0.0
 10
2.7271
 20
-81.4065
 30
0.0
 10
2.7271
 20
-81.4065
 30
0.0
 10
2.7271
 20
-81.4065
 30
0.0
 10
4.6129
 20
-80.4259
 30
0.0
 10
6.3357
 20
-81.8432
 30
0.0
 10
6.3357
 20
-81.8432
 30
0.0
 10
-3.6657
 20
-89.3595
 30
0.0
 10
-1.2224
 20
-97.8291
 30
0.0
 10
3.9535
 20
-100.9149
 30
0.0
 10
3.9535
 20
-100.9149
 30
0.0
 10
8.0618
 20
-103.3652
 30
0.0
 10
14.1189
 20
-101.8155
 30
0.0
 10
15.3979
 20
-98.0268
 30
0.0
 10
15.3979
 20
-98.0268
 30
0.0
 10
17.3673
 20
-91.4984
 30
0.0
 10
11.8932
 20
-89.387
 30
0.0
 10
11.019
 20
-92.7435
 30
0.0
  0
SPLINE
  5
5A
330
1F
100
AcDbEntity
  8
layer 1
 62
     7
100
AcDbSpline
210
0.0
220
0.0
230
1.0
 70
    11
 71
     3
 72
    24
 73
    20
 74
     0
 42
0.0000000001
 43
0.0000000001
 12
1.0
 22
0.0
 32
0.0
 13
1.0
 23
0.0
 33
0.0
 40
0.0
 40
0.0
 40
0.0
 40
0.0
 40
0.1666666666666667
 40
0.1666666666666667
 40
0.1666666666666667
 40
0.1666666666666667
 40
0.3333333333333333
 40
0.3333333333333333
 40
0.3333333333333333
 40
0.3333333333333333
 40
0.5
 40
0.5
 40
0.5
 40
0.5
 40
0.6666666666666666
 40
0.6666666666666666
 40
0.6666666666666666
 40
0.6666666666666666
 40
1.0
 40
1.0
 40
1.0
 40
1.0
 10
-3.9638
 20
-89.2592
 30
0.0
 10
-3.9638
 20
-89.2592
 30
0.0
 10
-6.5605
 20
-89.3107
 30
0.0
 10
-6.5605
 20
-89.3107
 30
0.0
 10
-6.5605
 20
-89.3107
 30
0.0
 10
-6.5605
 20
-89.3107
 30
0.0
 10
-6.63
 20
-66.7523
 30
0.0
 10
-6.63
 20
-66.7523
 30
0.0
 10
-6.63
 20
-66.7523
 30
0.0
 10
-5.6599
 20
-68.1359
 30
0.0
 10
-4.5291
 20
-67.8828
 30
0.0
 10
-4.5291
 20
-67.8828
 30
0.0
 10
-4.5291
 20
-67.8828
 30
0.0
 10
-4.6543
 20
-63.3797
 30
0.0
 10
1.0941
 20
-63.9965
 30
0.0
 10
0.7017
 20
-68.7739
 30
0.0
 10
0.7017
 20
-68.7739
 30
0.0
 10
-0.4732
 20
-77.1529
 30
0.0
 10
-2.9343
 20
-76.3559
 30
0.0
 10
-3.9638
 20
-89.2592
 30
0.0
  0
SPLINE
  5
5B
330
1F
100
AcDbEntity
  8
layer 1
 62
     7
100
AcDbSpline
210
0.0
220
0.0
230
1.0
 70
    11
 71
     3
 72
    48
 73
    44
 74
     0
 42
0.0000000001
 43
0.0000000001
 12
1.0
 22
0.0
 32
0.0
 13
1.0
 23
0.0
 33
0.0
 40
0.0
 40
0.0
 40
0.0
 40
0.0
 40
0.0833333333333333
 40
0.0833333333333333
 40
0.0833333333333333
 40
0.0833333333333333
 40
0.1666666666666667
 40
0.1666666666666667
 40
0.1666666666666667
 40
0.1666666666666667
 40
0.25
 40
0.25
 40
0.25
 40
0.25
 40
0.3333333333333333
 40
0.3333333333333333
 40
0.3333333333333333
 40
0.3333333333333333
 40
0.4166666666666667
 40
0.4166666666666667
 40
0.4166666666666667
 40
0.4166666666666667
 40
0.5
 40
0.5
 40
0.5
 40
0.5
 40
0.5833333333333334
 40
0.5833333333333334
 40
0.5833333333333334
 40
0.5833333333333334
 40
0.6666666666666666
 40
0.6666666666666666
 40
0.6666666666666666
 40
0.6666666666666666
 40
0.75
 40
0.75
 40
0.75
 40
0.75
 40
0.8333333333333334
 40
0.8333333333333334
 40
0.8333333333333334
 40
0.8333333333333334
 40
1.0
 40
1.0
 40
1.0
 40
1.0
 10
-0.0782
 20
-62.163
 30
0.0
 10
-1.9084
 20
-60.1447
 30
0.0
 10
-5.3678
 20
-61.0501
 30
0.0
 10
-6.7097
 20
-63.906
 30
0.0
 10
-6.7097
 20
-63.906
 30
0.0
 10
-6.7097
 20
-63.906
 30
0.0
 10
-6.63
 20
-51.5644
 30
0.0
 10
-6.63
 20
-51.5644
 30
0.0
 10
-6.63
 20
-51.5644
 30
0.0
 10
-5.2471
 20
-57.9952
 30
0.0
 10
9.536
 20
-57.209
 30
0.0
 10
8.4746
 20
-44.4024
 30
0.0
 10
8.4746
 20
-44.4024
 30
0.0
 10
9.536
 20
-44.4368
 30
0.0
 10
9.7473
 20
-44.4512
 30
0.0
 10
10.3783
 20
-44.5098
 30
0.0
 10
10.3783
 20
-44.5098
 30
0.0
 10
10.531
 20
-47.214
 30
0.0
 10
11.8027
 20
-50.9788
 30
0.0
 10
13.5572
 20
-54.2963
 30
0.0
 10
13.5572
 20
-54.2963
 30
0.0
 10
14.483
 20
-56.0508
 30
0.0
 10
13.8377
 20
-58.1791
 30
0.0
 10
13.4009
 20
-59.7286
 30
0.0
 10
13.4009
 20
-59.7286
 30
0.0
 10
14.9124
 20
-60.152
 30
0.0
 10
16.3582
 20
-58.5499
 30
0.0
 10
15.9667
 20
-56.4981
 30
0.0
 10
15.9667
 20
-56.4981
 30
0.0
 10
17.5263
 20
-58.6226
 30
0.0
 10
18.1092
 20
-59.1703
 30
0.0
 10
19.964
 20
-60.7615
 30
0.0
 10
19.964
 20
-60.7615
 30
0.0
 10
11.6226
 20
-67.9281
 30
0.0
 10
10.9808
 20
-68.5797
 30
0.0
 10
2.7369
 20
-76.0852
 30
0.0
 10
2.7369
 20
-76.0852
 30
0.0
 10
6.4431
 20
-70.1709
 30
0.0
 10
3.7317
 20
-62.1595
 30
0.0
 10
0.2199
 20
-60.7962
 30
0.0
 10
0.2199
 20
-60.7962
 30
0.0
 10
-0.1227
 20
-60.6649
 30
0.0
 10
0.2375
 20
-62.3432
 30
0.0
 10
-0.0782
 20
-62.163
 30
0.0
  0
SPLINE
  5
5C
330
1F
100
AcDbEntity
  8
layer 1
 62
     7
100
AcDbSpline
210
0.0
220
0.0
230
1.0
 70
    11
 71
     3
 72
    32
 73
    28
 74
     0
 42
0.0000000001
 43
0.0000000001
 12
1.0
 22
0.0
 32
0.0
 13
1.0
 23
0.0
 33
0.0
 40
0.0
 40
0.0
 40
0.0
 40
0.0
 40
0.125
 40
0.125
 40
0.125
 40
0.125
 40
0.25
 40
0.25
 40
0.25
 40
0.25
 40
0.375
 40
0.375
 40
0.375
 40
0.375
 40
0.5
 40
0.5
 40
0.5
 40
0.5
 40
0.625
 40
0.625
 40
0.625
 40
0.625
 40
0.75
 40
0.75
 40
0.75
 40
0.75
 40
1.0
 40
1.0
 40
1.0
 40
1.0
 10
-6.7097
 20
-48.5176
 30
0.0
 10
-6.7097
 20
-48.5176
 30
0.0
 10
-6.63
 20
-33.7763
 30
0.0
 10
-6.63
 20
-33.7763
 30
0.0
 10
-6.63
 20
-33.7763
 30
0.0
 10
-6.2526
 20
-34.7925
 30
0.0
 10
-5.3784
 20
-35.7243
 30
0.0
 10
-4.64
 20
-36.1754
 30
0.0
 10
-4.64
 20
-36.1754
 30
0.0
 10
-3.7356
 20
-28.2676
 30
0.0
 10
6.2142
 20
-30.8752
 30
0.0
 10
5.3442
 20
-39.3374
 30
0.0
 10
5.3442
 20
-39.3374
 30
0.0
 10
4.2074
 20
-40.3047
 30
0.0
 10
3.153
 20
-40.5231
 30
0.0
 10
2.2514
 20
-41.1123
 30
0.0
 10
2.2514
 20
-41.1123
 30
0.0
 10
3.3369
 20
-41.8854
 30
0.0
 10
4.0753
 20
-42.5201
 30
0.0
 10
5.2298
 20
-43.4386
 30
0.0
 10
5.2298
 20
-43.4386
 30
0.0
 10
6.8451
 20
-51.8628
 30
0.0
 10
-4.9799
 20
-54.7089
 30
0.0
 10
-4.1758
 20
-46.4756
 30
0.0
 10
-4.1758
 20
-46.4756
 30
0.0
 10
-5.2126
 20
-46.7214
 30
0.0
 10
-5.9854
 20
-47.6364
 30
0.0
 10
-6.7097
 20
-48.5176
 30
0.0
  0
SPLINE
  5
5D
330
1F
100
AcDbEntity
  8
layer 1
 62
     7
100
AcDbSpline
210
0.0
220
0.0
230
1.0
 70
    11
 71
     3
 72
    36
 73
    32
 74
     0
 42
0.0000000001
 43
0.0000000001
 12
1.0
 22
0.0
 32
0.0
 13
1.0
 23
0.0
 33
0.0
 40
0.0
 40
0.0
 40
0.0
 40
0.0
 40
0.1111111111111111
 40
0.1111111111111111
 40
0.1111111111111111
 40
0.1111111111111111
 40
0.2222222222222222
 40
0.2222222222222222
 40
0.2222222222222222
 40
0.2222222222222222
 40
0.3333333333333333
 40
0.3333333333333333
 40
0.3333333333333333
 40
0.3333333333333333
 40
0.4444444444444444
 40
0.4444444444444444
 40
0.4444444444444444
 40
0.4444444444444444
 40
0.5555555555555556
 40
0.5555555555555556
 40
0.5555555555555556
 40
0.5555555555555556
 40
0.6666666666666666
 40
0.6666666666666666
 40
0.6666666666666666
 40
0.6666666666666666
 40
0.7777777777777778
 40
0.7777777777777778
 40
0.7777777777777778
 40
0.7777777777777778
 40
1.0
 40
1.0
 40
1.0
 40
1.0
 10
-6.7097
 20
-30.4659
 30
0.0
 10
-6.7097
 20
-30.4659
 30
0.0
 10
-6.63
 20
6.7267
 30
0.0
 10
-6.63
 20
6.7267
 30
0.0
 10
-6.63
 20
6.7267
 30
0.0
 10
-6.63
 20
6.7267
 30
0.0
 10
-4.1067
 20
6.7924
 30
0.0
 10
-4.1067
 20
6.7924
 30
0.0
 10
-4.1067
 20
6.7924
 30
0.0
 10
-1.7557
 20
-8.5384
 30
0.0
 10
9.0125
 20
-15.0874
 30
0.0
 10
19.9987
 20
-21.6842
 30
0.0
 10
19.9987
 20
-21.6842
 30
0.0
 10
18.2682
 20
-23.2515
 30
0.0
 10
17.6372
 20
-24.2464
 30
0.0
 10
15.807
 20
-26.0072
 30
0.0
 10
15.807
 20
-26.0072
 30
0.0
 10
15.7167
 20
-24.6661
 30
0.0
 10
14.2397
 20
-23.1539
 30
0.0
 10
13.3212
 20
-23.421
 30
0.0
 10
13.3212
 20
-23.421
 30
0.0
 10
15.2729
 20
-29.5818
 30
0.0
 10
11.0475
 20
-32.2339
 30
0.0
 10
10.5788
 20
-38.2483
 30
0.0
 10
10.5788
 20
-38.2483
 30
0.0
 10
10.5788
 20
-38.2483
 30
0.0
 10
8.5616
 20
-38.2413
 30
0.0
 10
8.5616
 20
-38.2413
 30
0.0
 10
8.5616
 20
-38.2413
 30
0.0
 10
8.8004
 20
-26.4198
 30
0.0
 10
-2.4702
 20
-25.4907
 30
0.0
 10
-6.7097
 20
-30.4659
 30
0.0
  0
SPLINE
  5
5E
330
1F
100
AcDbEntity
  8
layer 1
 62
     7
100
AcDbSpline
210
0.0
220
0.0
230
1.0
 70
    11
 71
     3
 72
    20
 73
    16
 74
     0
 42
0.0000000001
 43
0.0000000001
 12
1.0
 22
0.0
 32
0.0
 13
1.0
 23
0.0
 33
0.0
 40
0.0
 40
0.0
 40
0.0
 40
0.0
 40
0.2
 40
0.2
 40
0.2
 40
0.2
 40
0.4
 40
0.4
 40
0.4
 40
0.4
 40
0.6
 40
0.6
 40
0.6
 40
0.6
 40
1.0
 40
1.0
 40
1.0
 40
1.0
 10
24.4187
 20
-94.7749
 30
0.0
 10
24.4187
 20
-93.8912
 30
0.0
 10
23.7004
 20
-93.1767
 30
0.0
 10
22.8201
 20
-93.1767
 30
0.0
 10
22.8201
 20
-93.1767
 30
0.0
 10
21.9361
 20
-93.1767
 30
0.0
 10
21.2216
 20
-93.8912
 30
0.0
 10
21.2216
 20
-94.7752
 30
0.0
 10
21.2216
 20
-94.7752
 30
0.0
 10
21.2216
 20
-95.659
 30
0.0
 10
21.9361
 20
-96.3727
 30
0.0
 10
22.8201
 20
-96.3727
 30
0.0
 10
22.8201
 20
-96.3727
 30
0.0
 10
23.7007
 20
-96.3724
 30
0.0
 10
24.4184
 20
-95.659
 30
0.0
 10
24.4187
 20
-94.7749
 30
0.0
  0
SPLINE
  5
5F
330
1F
100
AcDbEntity
  8
layer 1
 62
     7
100
AcDbSpline
210
0.0
220
0.0
230
1.0
 70
    11
 71
     3
 72
    20
 73
    16
 74
     0
 42
0.0000000001
 43
0.0000000001
 12
1.0
 22
0.0
 32
0.0
 13
1.0
 23
0.0
 33
0.0
 40
0.0
 40
0.0
 40
0.0
 40
0.0
 40
0.2
 40
0.2
 40
0.2
 40
0.2
 40
0.4
 40
0.4
 40
0.4
 40
0.4
 40
0.6
 40
0.6
 40
0.6
 40
0.6
 40
1.0
 40
1.0
 40
1.0
 40
1.0
 10
2.5495
 20
6.7363
 30
0.0
 10
2.5495
 20
6.7363
 30
0.0
 10
-0.2681
 20
6.7398
 30
0.0
 10
-0.2681
 20
6.7398
 30
0.0
 10
-0.2681
 20
6.7398
 30
0.0
 10
-0.2719
 20
0.0418
 30
0.0
 10
5.0222
 20
-7.1406
 30
0.0
 10
9.1508
 20
-9.7552
 30
0.0
 10
9.1508
 20
-9.7552
 30
0.0
 10
9.1508
 20
-9.7552
 30
0.0
 10
10.6072
 20
-7.6473
 30
0.0
 10
10.6072
 20
-7.6473
 30
0.0
 10
10.6072
 20
-7.6473
 30
0.0
 10
5.906
 20
-3.4246
 30
0.0
 10
3.0909
 20
0.8149
 30
0.0
 10
2.5495
 20
6.7363
 30
0.0
  0
SPLINE
  5
60
330
1F
100
AcDbEntity
  8
layer 1
 62
     7
100
AcDbSpline
210
0.0
220
0.0
230
1.0
 70
    11
 71
     3
 72
    24
 73
    20
 74
     0
 42
0.0000000001
 43
0.0000000001
 12
1.0
 22
0.0
 32
0.0
 13
1.0
 23
0.0
 33
0.0
 40
0.0
 40
0.0
 40
0.0
 40
0.0
 40
0.1666666666666667
 40
0.1666666666666667
 40
0.1666666666666667
 40
0.1666666666666667
 40
0.3333333333333333
 40
0.3333333333333333
 40
0.3333333333333333
 40
0.3333333333333333
 40
0.5
 40
0.5
 40
0.5
 40
0.5
 40
0.6666666666666666
 40
0.6666666666666666
 40
0.6666666666666666
 40
0.6666666666666666
 40
1.0
 40
1.0
 40
1.0
 40
1.0
 10
49.7158
 20
-94.1369
 30
0.0
 10
49.7158
 20
-94.1369
 30
0.0
 10
52.3128
 20
-94.0846
 30
0.0
 10
52.3128
 20
-94.0846
 30
0.0
 10
52.3128
 20
-94.0846
 30
0.0
 10
52.3128
 20
-94.0846
 30
0.0
 10
52.3855
 20
-107.2203
 30
0.0
 10
52.3855
 20
-107.2203
 30
0.0
 10
52.3855
 20
-107.2203
 30
0.0
 10
52.3855
 20
-107.2203
 30
0.0
 10
39.017
 20
-107.2203
 30
0.0
 10
39.017
 20
-107.2203
 30
0.0
 10
39.017
 20
-107.2203
 30
0.0
 10
39.017
 20
-107.2203
 30
0.0
 10
38.9788
 20
-105.7436
 30
0.0
 10
38.9788
 20
-105.7436
 30
0.0
 10
38.9788
 20
-105.7436
 30
0.0
 10
46.2244
 20
-105.0291
 30
0.0
 10
49.438
 20
-100.259
 30
0.0
 10
49.7158
 20
-94.1369
 30
0.0
  0
SPLINE
  5
61
330
1F
100
AcDbEntity
  8
layer 1
 62
     7
100
AcDbSpline
210
0.0
220
0.0
230
1.0
 70
    11
 71
     3
 72
    60
 73
    56
 74
     0
 42
0.0000000001
 43
0.0000000001
 12
1.0
 22
0.0
 32
0.0
 13
1.0
 23
0.0
 33
0.0
 40
0.0
 40
0.0
 40
0.0
 40
0.0
 40
0.0666666666666667
 40
0.0666666666666667
 40
0.0666666666666667
 40
0.0666666666666667
 40
0.1333333333333333
 40
0.1333333333333333
 40
0.1333333333333333
 40
0.1333333333333333
 40
0.2
 40
0.2
 40
0.2
 40
0.2
 40
0.2666666666666667
 40
0.2666666666666667
 40
0.2666666666666667
 40
0.2666666666666667
 40
0.3333333333333333
 40
0.3333333333333333
 40
0.3333333333333333
 40
0.3333333333333333
 40
0.4
 40
0.4
 40
0.4
 40
0.4
 40
0.4666666666666667
 40
0.4666666666666667
 40
0.4666666666666667
 40
0.4666666666666667
 40
0.5333333333333333
 40
0.5333333333333333
 40
0.5333333333333333
 40
0.5333333333333333
 40
0.6
 40
0.6
 40
0.6
 40
0.6
 40
0.6666666666666666
 40
0.6666666666666666
 40
0.6666666666666666
 40
0.6666666666666666
 40
0.7333333333333333
 40
0.7333333333333333
 40
0.7333333333333333
 40
0.7333333333333333
 40
0.8
 40
0.8
 40
0.8
 40
0.8
 40
0.8666666666666667
 40
0.8666666666666667
 40
0.8666666666666667
 40
0.8666666666666667
 40
1.0
 40
1.0
 40
1.0
 40
1.0
 10
35.7199
 20
-74.2479
 30
0.0
 10
35.7199
 20
-74.2479
 30
0.0
 10
34.8467
 20
-75.139
 30
0.0
 10
34.8467
 20
-75.139
 30
0.0
 10
34.8467
 20
-75.139
 30
0.0
 10
28.7762
 20
-74.3136
 30
0.0
 10
25.4099
 20
-79.9371
 30
0.0
 10
25.3334
 20
-84.9185
 30
0.0
 10
25.3334
 20
-84.9185
 30
0.0
 10
25.3334
 20
-84.9185
 30
0.0
 10
23.9472
 20
-85.047
 30
0.0
 10
23.9472
 20
-85.047
 30
0.0
 10
23.9472
 20
-85.047
 30
0.0
 10
23.9472
 20
-85.047
 30
0.0
 10
24.0652
 20
-77.933
 30
0.0
 10
24.0652
 20
-77.933
 30
0.0
 10
24.0652
 20
-77.933
 30
0.0
 10
24.0652
 20
-77.933
 30
0.0
 10
26.6232
 20
-72.1118
 30
0.0
 10
26.6232
 20
-72.1118
 30
0.0
 10
26.6232
 20
-72.1118
 30
0.0
 10
26.6232
 20
-72.1118
 30
0.0
 10
22.876
 20
-68.4793
 30
0.0
 10
22.876
 20
-68.4793
 30
0.0
 10
22.876
 20
-68.4793
 30
0.0
 10
22.876
 20
-68.4793
 30
0.0
 10
19.128
 20
-72.1118
 30
0.0
 10
19.128
 20
-72.1118
 30
0.0
 10
19.128
 20
-72.1118
 30
0.0
 10
19.128
 20
-72.1118
 30
0.0
 10
21.6868
 20
-77.933
 30
0.0
 10
21.6868
 20
-77.933
 30
0.0
 10
21.6868
 20
-77.933
 30
0.0
 10
21.6868
 20
-77.933
 30
0.0
 10
21.8048
 20
-85.047
 30
0.0
 10
21.8048
 20
-85.047
 30
0.0
 10
21.8048
 20
-85.047
 30
0.0
 10
21.8048
 20
-85.047
 30
0.0
 10
20.4176
 20
-84.9185
 30
0.0
 10
20.4176
 20
-84.9185
 30
0.0
 10
20.4176
 20
-84.9185
 30
0.0
 10
20.3414
 20
-79.9368
 30
0.0
 10
16.9786
 20
-74.3139
 30
0.0
 10
10.9046
 20
-75.1393
 30
0.0
 10
10.9046
 20
-75.1393
 30
0.0
 10
10.9046
 20
-75.1393
 30
0.0
 10
10.0313
 20
-74.2479
 30
0.0
 10
10.0313
 20
-74.2479
 30
0.0
 10
10.0313
 20
-74.2479
 30
0.0
 10
10.0313
 20
-74.2479
 30
0.0
 10
17.3673
 20
-67.5226
 30
0.0
 10
22.876
 20
-63.355
 30
0.0
 10
22.876
 20
-63.355
 30
0.0
 10
28.3847
 20
-67.5226
 30
0.0
 10
35.7199
 20
-74.2482
 30
0.0
 10
35.7199
 20
-74.2479
 30
0.0
  0
SPLINE
  5
62
330
1F
100
AcDbEntity
  8
layer 1
 62
     7
100
AcDbSpline
210
0.0
220
0.0
230
1.0
 70
    11
 71
     3
 72
    44
 73
    40
 74
     0
 42
0.0000000001
 43
0.0000000001
 12
1.0
 22
0.0
 32
0.0
 13
1.0
 23
0.0
 33
0.0
 40
0.0
 40
0.0
 40
0.0
 40
0.0
 40
0.0909090909090909
 40
0.0909090909090909
 40
0.0909090909090909
 40
0.0909090909090909
 40
0.1818181818181818
 40
0.1818181818181818
 40
0.1818181818181818
 40
0.1818181818181818
 40
0.2727272727272727
 40
0.2727272727272727
 40
0.2727272727272727
 40
0.2727272727272727
 40
0.3636363636363636
 40
0.3636363636363636
 40
0.3636363636363636
 40
0.3636363636363636
 40
0.4545454545454545
 40
0.4545454545454545
 40
0.4545454545454545
 40
0.4545454545454545
 40
0.5454545454545454
 40
0.5454545454545454
 40
0.5454545454545454
 40
0.5454545454545454
 40
0.6363636363636364
 40
0.6363636363636364
 40
0.6363636363636364
 40
0.6363636363636364
 40
0.7272727272727273
 40
0.7272727272727273
 40
0.7272727272727273
 40
0.7272727272727273
 40
0.8181818181818182
 40
0.8181818181818182
 40
0.8181818181818182
 40
0.8181818181818182
 40
1.0
 40
1.0
 40
1.0
 40
1.0
 10
34.7322
 20
-92.7435
 30
0.0
 10
34.985
 20
-97.1943
 30
0.0
 10
39.1909
 20
-94.6081
 30
0.0
 10
38.7569
 20
-91.187
 30
0.0
 10
38.7569
 20
-91.187
 30
0.0
 10
37.4364
 20
-84.0
 30
0.0
 10
26.2139
 20
-86.517
 30
0.0
 10
26.7588
 20
-92.74
 30
0.0
 10
26.7588
 20
-92.74
 30
0.0
 10
26.7588
 20
-92.74
 30
0.0
 10
25.3751
 20
-92.8713
 30
0.0
 10
25.3751
 20
-92.8713
 30
0.0
 10
25.3751
 20
-92.8713
 30
0.0
 10
24.8134
 20
-88.8775
 30
0.0
 10
32.0527
 20
-72.6985
 30
0.0
 10
36.091
 20
-81.5522
 30
0.0
 10
36.091
 20
-81.5522
 30
0.0
 10
37.7896
 20
-78.4183
 30
0.0
 10
37.4434
 20
-75.9156
 30
0.0
 10
37.4434
 20
-75.9156
 30
0.0
 10
37.4434
 20
-75.9156
 30
0.0
 10
37.4434
 20
-75.9156
 30
0.0
 10
43.0249
 20
-81.4065
 30
0.0
 10
43.0249
 20
-81.4065
 30
0.0
 10
43.0249
 20
-81.4065
 30
0.0
 10
43.0249
 20
-81.4065
 30
0.0
 10
41.1426
 20
-80.4259
 30
0.0
 10
39.4191
 20
-81.8432
 30
0.0
 10
39.4191
 20
-81.8432
 30
0.0
 10
49.4212
 20
-89.3595
 30
0.0
 10
46.9733
 20
-97.8291
 30
0.0
 10
41.7974
 20
-100.9149
 30
0.0
 10
41.7974
 20
-100.9149
 30
0.0
 10
37.6892
 20
-103.3652
 30
0.0
 10
31.6331
 20
-101.8155
 30
0.0
 10
30.3541
 20
-98.0268
 30
0.0
 10
30.3541
 20
-98.0268
 30
0.0
 10
28.3847
 20
-91.4984
 30
0.0
 10
33.8587
 20
-89.387
 30
0.0
 10
34.7322
 20
-92.7435
 30
0.0
  0
SPLINE
  5
63
330
1F
100
AcDbEntity
  8
layer 1
 62
     7
100
AcDbSpline
210
0.0
220
0.0
230
1.0
 70
    11
 71
     3
 72
    24
 73
    20
 74
     0
 42
0.0000000001
 43
0.0000000001
 12
1.0
 22
0.0
 32
0.0
 13
1.0
 23
0.0
 33
0.0
 40
0.0
 40
0.0
 40
0.0
 40
0.0
 40
0.1666666666666667
 40
0.1666666666666667
 40
0.1666666666666667
 40
0.1666666666666667
 40
0.3333333333333333
 40
0.3333333333333333
 40
0.3333333333333333
 40
0.3333333333333333
 40
0.5
 40
0.5
 40
0.5
 40
0.5
 40
0.6666666666666666
 40
0.6666666666666666
 40
0.6666666666666666
 40
0.6666666666666666
 40
1.0
 40
1.0
 40
1.0
 40
1.0
 10
49.7158
 20
-89.2592
 30
0.0
 10
49.7158
 20
-89.2592
 30
0.0
 10
52.3128
 20
-89.3107
 30
0.0
 10
52.3128
 20
-89.3107
 30
0.0
 10
52.3128
 20
-89.3107
 30
0.0
 10
52.3128
 20
-89.3107
 30
0.0
 10
52.3855
 20
-66.7523
 30
0.0
 10
52.3855
 20
-66.7523
 30
0.0
 10
52.3855
 20
-66.7523
 30
0.0
 10
51.4144
 20
-68.1359
 30
0.0
 10
50.2846
 20
-67.8828
 30
0.0
 10
50.2846
 20
-67.8828
 30
0.0
 10
50.2846
 20
-67.8828
 30
0.0
 10
50.4053
 20
-63.3797
 30
0.0
 10
44.6578
 20
-63.9965
 30
0.0
 10
45.0493
 20
-68.7739
 30
0.0
 10
45.0493
 20
-68.7739
 30
0.0
 10
46.2244
 20
-77.1529
 30
0.0
 10
48.6863
 20
-76.3559
 30
0.0
 10
49.7158
 20
-89.2592
 30
0.0
  0
SPLINE
  5
64
330
1F
100
AcDbEntity
  8
layer 1
 62
     7
100
AcDbSpline
210
0.0
220
0.0
230
1.0
 70
    11
 71
     3
 72
    48
 73
    44
 74
     0
 42
0.0000000001
 43
0.0000000001
 12
1.0
 22
0.0
 32
0.0
 13
1.0
 23
0.0
 33
0.0
 40
0.0
 40
0.0
 40
0.0
 40
0.0
 40
0.0833333333333333
 40
0.0833333333333333
 40
0.0833333333333333
 40
0.0833333333333333
 40
0.1666666666666667
 40
0.1666666666666667
 40
0.1666666666666667
 40
0.1666666666666667
 40
0.25
 40
0.25
 40
0.25
 40
0.25
 40
0.3333333333333333
 40
0.3333333333333333
 40
0.3333333333333333
 40
0.3333333333333333
 40
0.4166666666666667
 40
0.4166666666666667
 40
0.4166666666666667
 40
0.4166666666666667
 40
0.5
 40
0.5
 40
0.5
 40
0.5
 40
0.5833333333333334
 40
0.5833333333333334
 40
0.5833333333333334
 40
0.5833333333333334
 40
0.6666666666666666
 40
0.6666666666666666
 40
0.6666666666666666
 40
0.6666666666666666
 40
0.75
 40
0.75
 40
0.75
 40
0.75
 40
0.8333333333333334
 40
0.8333333333333334
 40
0.8333333333333334
 40
0.8333333333333334
 40
1.0
 40
1.0
 40
1.0
 40
1.0
 10
45.8294
 20
-62.163
 30
0.0
 10
47.6632
 20
-60.1447
 30
0.0
 10
51.1198
 20
-61.0501
 30
0.0
 10
52.4652
 20
-63.906
 30
0.0
 10
52.4652
 20
-63.906
 30
0.0
 10
52.4652
 20
-63.906
 30
0.0
 10
52.3855
 20
-51.5644
 30
0.0
 10
52.3855
 20
-51.5644
 30
0.0
 10
52.3855
 20
-51.5644
 30
0.0
 10
50.9983
 20
-57.9952
 30
0.0
 10
36.216
 20
-57.209
 30
0.0
 10
37.2802
 20
-44.4024
 30
0.0
 10
37.2802
 20
-44.4024
 30
0.0
 10
36.216
 20
-44.4368
 30
0.0
 10
36.0047
 20
-44.4512
 30
0.0
 10
35.3737
 20
-44.5098
 30
0.0
 10
35.3737
 20
-44.5098
 30
0.0
 10
35.2213
 20
-47.214
 30
0.0
 10
33.9521
 20
-50.9788
 30
0.0
 10
32.1984
 20
-54.2963
 30
0.0
 10
32.1984
 20
-54.2963
 30
0.0
 10
31.269
 20
-56.0508
 30
0.0
 10
31.9133
 20
-58.1791
 30
0.0
 10
32.3536
 20
-59.7286
 30
0.0
 10
32.3536
 20
-59.7286
 30
0.0
 10
30.8386
 20
-60.152
 30
0.0
 10
29.3938
 20
-58.5499
 30
0.0
 10
29.7888
 20
-56.4981
 30
0.0
 10
29.7888
 20
-56.4981
 30
0.0
 10
28.225
 20
-58.6226
 30
0.0
 10
27.6428
 20
-59.1703
 30
0.0
 10
25.7915
 20
-60.7615
 30
0.0
 10
25.7915
 20
-60.7615
 30
0.0
 10
34.1287
 20
-67.9281
 30
0.0
 10
34.7702
 20
-68.5797
 30
0.0
 10
43.0143
 20
-76.0852
 30
0.0
 10
43.0143
 20
-76.0852
 30
0.0
 10
39.3081
 20
-70.1709
 30
0.0
 10
42.0193
 20
-62.1595
 30
0.0
 10
45.5348
 20
-60.7962
 30
0.0
 10
45.5348
 20
-60.7962
 30
0.0
 10
45.8782
 20
-60.6649
 30
0.0
 10
45.5145
 20
-62.3432
 30
0.0
 10
45.8294
 20
-62.163
 30
0.0
  0
SPLINE
  5
65
330
1F
100
AcDbEntity
  8
layer 1
 62
     7
100
AcDbSpline
210
0.0
220
0.0
230
1.0
 70
    11
 71
     3
 72
    60
 73
    56
 74
     0
 42
0.0000000001
 43
0.0000000001
 12
1.0
 22
0.0
 32
0.0
 13
1.0
 23
0.0
 33
0.0
 40
0.0
 40
0.0
 40
0.0
 40
0.0
 40
0.0666666666666667
 40
0.0666666666666667
 40
0.0666666666666667
 40
0.0666666666666667
 40
0.1333333333333333
 40
0.1333333333333333
 40
0.1333333333333333
 40
0.1333333333333333
 40
0.2
 40
0.2
 40
0.2
 40
0.2
 40
0.2666666666666667
 40
0.2666666666666667
 40
0.2666666666666667
 40
0.2666666666666667
 40
0.3333333333333333
 40
0.3333333333333333
 40
0.3333333333333333
 40
0.3333333333333333
 40
0.4
 40
0.4
 40
0.4
 40
0.4
 40
0.4666666666666667
 40
0.4666666666666667
 40
0.4666666666666667
 40
0.4666666666666667
 40
0.5333333333333333
 40
0.5333333333333333
 40
0.5333333333333333
 40
0.5333333333333333
 40
0.6
 40
0.6
 40
0.6
 40
0.6
 40
0.6666666666666666
 40
0.6666666666666666
 40
0.6666666666666666
 40
0.6666666666666666
 40
0.7333333333333333
 40
0.7333333333333333
 40
0.7333333333333333
 40
0.7333333333333333
 40
0.8
 40
0.8
 40
0.8
 40
0.8
 40
0.8666666666666667
 40
0.8666666666666667
 40
0.8666666666666667
 40
0.8666666666666667
 40
1.0
 40
1.0
 40
1.0
 40
1.0
 10
27.9757
 20
-29.1826
 30
0.0
 10
28.2942
 20
-29.7693
 30
0.0
 10
25.5767
 20
-29.724
 30
0.0
 10
25.3334
 20
-30.9514
 30
0.0
 10
25.3334
 20
-30.9514
 30
0.0
 10
30.4127
 20
-30.126
 30
0.0
 10
31.9038
 20
-37.7427
 30
0.0
 10
32.0456
 20
-38.8687
 30
0.0
 10
32.0456
 20
-38.8687
 30
0.0
 10
28.2179
 20
-38.5882
 30
0.0
 10
28.4574
 20
-43.1367
 30
0.0
 10
31.7989
 20
-43.546
 30
0.0
 10
31.7989
 20
-43.546
 30
0.0
 10
31.8097
 20
-45.7646
 30
0.0
 10
31.0605
 20
-50.9644
 30
0.0
 10
26.1482
 20
-51.8973
 30
0.0
 10
26.1482
 20
-51.8973
 30
0.0
 10
25.0388
 20
-52.1084
 30
0.0
 10
26.7792
 20
-53.7725
 30
0.0
 10
28.2871
 20
-53.4885
 30
0.0
 10
28.2871
 20
-53.4885
 30
0.0
 10
26.9877
 20
-55.1323
 30
0.0
 10
25.6388
 20
-56.689
 30
0.0
 10
22.876
 20
-58.7585
 30
0.0
 10
22.876
 20
-58.7585
 30
0.0
 10
20.1122
 20
-56.6888
 30
0.0
 10
18.7678
 20
-55.1323
 30
0.0
 10
17.4676
 20
-53.4885
 30
0.0
 10
17.4676
 20
-53.4885
 30
0.0
 10
18.9721
 20
-53.7725
 30
0.0
 10
20.7122
 20
-52.1086
 30
0.0
 10
19.603
 20
-51.8973
 30
0.0
 10
19.603
 20
-51.8973
 30
0.0
 10
14.6943
 20
-50.9644
 30
0.0
 10
13.9416
 20
-45.7646
 30
0.0
 10
13.9521
 20
-43.546
 30
0.0
 10
13.9521
 20
-43.546
 30
0.0
 10
17.2946
 20
-43.1367
 30
0.0
 10
17.5333
 20
-38.5885
 30
0.0
 10
13.7063
 20
-38.8687
 30
0.0
 10
13.7063
 20
-38.8687
 30
0.0
 10
13.8485
 20
-37.7424
 30
0.0
 10
15.3393
 20
-30.126
 30
0.0
 10
20.4176
 20
-30.9514
 30
0.0
 10
20.4176
 20
-30.9514
 30
0.0
 10
20.1753
 20
-29.724
 30
0.0
 10
17.4568
 20
-29.7693
 30
0.0
 10
17.7763
 20
-29.1826
 30
0.0
 10
17.7763
 20
-29.1826
 30
0.0
 10
18.9409
 20
-27.0651
 30
0.0
 10
20.3758
 20
-25.5883
 30
0.0
 10
22.876
 20
-23.9277
 30
0.0
 10
22.876
 20
-23.9277
 30
0.0
 10
25.3751
 20
-25.5881
 30
0.0
 10
26.8104
 20
-27.0651
 30
0.0
 10
27.9757
 20
-29.1826
 30
0.0
  0
SPLINE
  5
66
330
1F
100
AcDbEntity
  8
layer 1
 62
     7
100
AcDbSpline
210
0.0
220
0.0
230
1.0
 70
    11
 71
     3
 72
    32
 73
    28
 74
     0
 42
0.0000000001
 43
0.0000000001
 12
1.0
 22
0.0
 32
0.0
 13
1.0
 23
0.0
 33
0.0
 40
0.0
 40
0.0
 40
0.0
 40
0.0
 40
0.125
 40
0.125
 40
0.125
 40
0.125
 40
0.25
 40
0.25
 40
0.25
 40
0.25
 40
0.375
 40
0.375
 40
0.375
 40
0.375
 40
0.5
 40
0.5
 40
0.5
 40
0.5
 40
0.625
 40
0.625
 40
0.625
 40
0.625
 40
0.75
 40
0.75
 40
0.75
 40
0.75
 40
1.0
 40
1.0
 40
1.0
 40
1.0
 10
52.4652
 20
-48.5176
 30
0.0
 10
52.4652
 20
-48.5176
 30
0.0
 10
52.3855
 20
-33.7763
 30
0.0
 10
52.3855
 20
-33.7763
 30
0.0
 10
52.3855
 20
-33.7763
 30
0.0
 10
52.0038
 20
-34.7925
 30
0.0
 10
51.1304
 20
-35.7243
 30
0.0
 10
50.392
 20
-36.1754
 30
0.0
 10
50.392
 20
-36.1754
 30
0.0
 10
49.4868
 20
-28.2676
 30
0.0
 10
39.537
 20
-30.8752
 30
0.0
 10
40.4113
 20
-39.3374
 30
0.0
 10
40.4113
 20
-39.3374
 30
0.0
 10
41.5446
 20
-40.3047
 30
0.0
 10
42.6015
 20
-40.5231
 30
0.0
 10
43.4996
 20
-41.1123
 30
0.0
 10
43.4996
 20
-41.1123
 30
0.0
 10
42.4143
 20
-41.8854
 30
0.0
 10
41.6795
 20
-42.5201
 30
0.0
 10
40.5222
 20
-43.4386
 30
0.0
 10
40.5222
 20
-43.4386
 30
0.0
 10
38.9061
 20
-51.8628
 30
0.0
 10
50.7311
 20
-54.7089
 30
0.0
 10
49.9306
 20
-46.4756
 30
0.0
 10
49.9306
 20
-46.4756
 30
0.0
 10
50.9636
 20
-46.7214
 30
0.0
 10
51.7367
 20
-47.6364
 30
0.0
 10
52.4652
 20
-48.5176
 30
0.0
  0
SPLINE
  5
67
330
1F
100
AcDbEntity
  8
layer 1
 62
     7
100
AcDbSpline
210
0.0
220
0.0
230
1.0
 70
    11
 71
     3
 72
    36
 73
    32
 74
     0
 42
0.0000000001
 43
0.0000000001
 12
1.0
 22
0.0
 32
0.0
 13
1.0
 23
0.0
 33
0.0
 40
0.0
 40
0.0
 40
0.0
 40
0.0
 40
0.1111111111111111
 40
0.1111111111111111
 40
0.1111111111111111
 40
0.1111111111111111
 40
0.2222222222222222
 40
0.2222222222222222
 40
0.2222222222222222
 40
0.2222222222222222
 40
0.3333333333333333
 40
0.3333333333333333
 40
0.3333333333333333
 40
0.3333333333333333
 40
0.4444444444444444
 40
0.4444444444444444
 40
0.4444444444444444
 40
0.4444444444444444
 40
0.5555555555555556
 40
0.5555555555555556
 40
0.5555555555555556
 40
0.5555555555555556
 40
0.6666666666666666
 40
0.6666666666666666
 40
0.6666666666666666
 40
0.6666666666666666
 40
0.7777777777777778
 40
0.7777777777777778
 40
0.7777777777777778
 40
0.7777777777777778
 40
1.0
 40
1.0
 40
1.0
 40
1.0
 10
52.4652
 20
-30.4659
 30
0.0
 10
52.4652
 20
-30.4659
 30
0.0
 10
52.3855
 20
6.7267
 30
0.0
 10
52.3855
 20
6.7267
 30
0.0
 10
52.3855
 20
6.7267
 30
0.0
 10
52.3855
 20
6.7267
 30
0.0
 10
49.8614
 20
6.7924
 30
0.0
 10
49.8614
 20
6.7924
 30
0.0
 10
49.8614
 20
6.7924
 30
0.0
 10
47.5112
 20
-8.5384
 30
0.0
 10
36.7395
 20
-15.0874
 30
0.0
 10
25.7533
 20
-21.6842
 30
0.0
 10
25.7533
 20
-21.6842
 30
0.0
 10
27.4831
 20
-23.2515
 30
0.0
 10
28.114
 20
-24.2464
 30
0.0
 10
29.945
 20
-26.0072
 30
0.0
 10
29.945
 20
-26.0072
 30
0.0
 10
30.0346
 20
-24.6661
 30
0.0
 10
31.5113
 20
-23.1539
 30
0.0
 10
32.4301
 20
-23.421
 30
0.0
 10
32.4301
 20
-23.421
 30
0.0
 10
30.4783
 20
-29.5818
 30
0.0
 10
34.7045
 20
-32.2339
 30
0.0
 10
35.176
 20
-38.2483
 30
0.0
 10
35.176
 20
-38.2483
 30
0.0
 10
35.176
 20
-38.2483
 30
0.0
 10
37.1941
 20
-38.2413
 30
0.0
 10
37.1941
 20
-38.2413
 30
0.0
 10
37.1941
 20
-38.2413
 30
0.0
 10
36.9509
 20
-26.4198
 30
0.0
 10
48.2212
 20
-25.4907
 30
0.0
 10
52.4652
 20
-30.4659
 30
0.0
  0
SPLINE
  5
68
330
1F
100
AcDbEntity
  8
layer 1
 62
     7
100
AcDbSpline
210
0.0
220
0.0
230
1.0
 70
    11
 71
     3
 72
    20
 73
    16
 74
     0
 42
0.0000000001
 43
0.0000000001
 12
1.0
 22
0.0
 32
0.0
 13
1.0
 23
0.0
 33
0.0
 40
0.0
 40
0.0
 40
0.0
 40
0.0
 40
0.2
 40
0.2
 40
0.2
 40
0.2
 40
0.4
 40
0.4
 40
0.4
 40
0.4
 40
0.6
 40
0.6
 40
0.6
 40
0.6
 40
1.0
 40
1.0
 40
1.0
 40
1.0
 10
43.2015
 20
6.7363
 30
0.0
 10
43.2015
 20
6.7363
 30
0.0
 10
46.0204
 20
6.7398
 30
0.0
 10
46.0204
 20
6.7398
 30
0.0
 10
46.0204
 20
6.7398
 30
0.0
 10
46.0236
 20
0.0418
 30
0.0
 10
40.7298
 20
-7.1406
 30
0.0
 10
36.6012
 20
-9.7552
 30
0.0
 10
36.6012
 20
-9.7552
 30
0.0
 10
36.6012
 20
-9.7552
 30
0.0
 10
35.1483
 20
-7.6473
 30
0.0
 10
35.1483
 20
-7.6473
 30
0.0
 10
35.1483
 20
-7.6473
 30
0.0
 10
39.8495
 20
-3.4246
 30
0.0
 10
42.6611
 20
0.8149
 30
0.0
 10
43.2015
 20
6.7363
 30
0.0
  0
ENDSEC
  0
SECTION
  2
OBJECTS
  0
DICTIONARY
  5
C
330
0
100
AcDbDictionary
281
     1
  3
ACAD_GROUP
350
D
  3
ACAD_LAYOUT
350
1A
  3
ACAD_MATERIAL
350
3B
  3
ACAD_MLEADERSTYLE
350
8B
  3
ACAD_MLINESTYLE
350
17
  3
ACAD_PLOTSETTINGS
350
19
  3
ACAD_PLOTSTYLENAME
350
E
  3
ACAD_TABLESTYLE
350
8A
  3
ACAD_VISUALSTYLE
350
2A
  0
DICTIONARY
  5
D
102
{ACAD_REACTORS
330
C
102
}
330
C
100
AcDbDictionary
281
     1
  0
DICTIONARY
  5
1A
102
{ACAD_REACTORS
330
C
102
}
330
C
100
AcDbDictionary
281
     1
  3
Layout1
350
1E
  3
Layout2
350
26
  3
Model
350
22
  0
DICTIONARY
  5
3B
102
{ACAD_REACTORS
330
C
102
}
330
C
100
AcDbDictionary
281
     1
  3
ByBlock
350
3D
  3
ByLayer
350
3C
  3
Global
350
3E
  0
DICTIONARY
  5
8B
102
{ACAD_REACTORS
330
C
102
}
330
C
100
AcDbDictionary
281
     1
  0
DICTIONARY
  5
17
102
{ACAD_REACTORS
330
C
102
}
330
C
100
AcDbDictionary
281
     1
  3
Standard
350
18
  0
DICTIONARY
  5
19
102
{ACAD_REACTORS
330
C
102
}
330
C
100
AcDbDictionary
281
     1
  0
ACDBDICTIONARYWDFLT
  5
E
102
{ACAD_REACTORS
330
C
102
}
330
C
100
AcDbDictionary
281
     1
  3
Normal
350
F
100
AcDbDictionaryWithDefault
340
F
  0
DICTIONARY
  5
8A
102
{ACAD_REACTORS
330
C
102
}
330
C
100
AcDbDictionary
281
     1
  0
DICTIONARY
  5
2A
102
{ACAD_REACTORS
330
C
102
}
330
C
100
AcDbDictionary
281
     1
  3
2dWireframe
350
2F
  3
3D Hidden
350
31
  3
3dWireframe
350
30
  3
Basic
350
32
  3
Brighten
350
36
  3
ColorChange
350
3A
  3
Conceptual
350
34
  3
Dim
350
35
  3
Facepattern
350
39
  3
Flat
350
2B
  3
FlatWithEdges
350
2C
  3
Gouraud
350
2D
  3
GouraudWithEdges
350
2E
  3
Linepattern
350
38
  3
Realistic
350
33
  3
Thicken
350
37
  0
LAYOUT
  5
1E
102
{ACAD_REACTORS
330
1A
102
}
330
1A
100
AcDbPlotSettings
  1

  2
none_device
  4

  6

 40
0.0
 41
0.0
 42
0.0
 43
0.0
 44
0.0
 45
0.0
 46
0.0
 47
0.0
 48
0.0
 49
0.0
140
0.0
141
0.0
142
1.0
143
1.0
 70
   688
 72
     0
 73
     0
 74
     5
  7

 75
    16
 76
     0
 77
     2
 78
   300
147
1.0
148
0.0
149
0.0
100
AcDbLayout
  1
Layout1
 70
     1
 71
     1
 10
0.0
 20
0.0
 11
12.0
 21
9.0
 12
0.0
 22
0.0
 32
0.0
 14
1.000000000000000E+20
 24
1.000000000000000E+20
 34
1.000000000000000E+20
 15
-1.000000000000000E+20
 25
-1.000000000000000E+20
 35
-1.000000000000000E+20
146
0.0
 13
0.0
 23
0.0
 33
0.0
 16
1.0
 26
0.0
 36
0.0
 17
0.0
 27
1.0
 37
0.0
 76
     0
330
1B
  0
LAYOUT
  5
26
102
{ACAD_REACTORS
330
1A
102
}
330
1A
100
AcDbPlotSettings
  1

  2
none_device
  4

  6

 40
0.0
 41
0.0
 42
0.0
 43
0.0
 44
0.0
 45
0.0
 46
0.0
 47
0.0
 48
0.0
 49
0.0
140
0.0
141
0.0
142
1.0
143
1.0
 70
   688
 72
     0
 73
     0
 74
     5
  7

 75
    16
 76
     0
 77
     2
 78
   300
147
1.0
148
0.0
149
0.0
100
AcDbLayout
  1
Layout2
 70
     1
 71
     2
 10
0.0
 20
0.0
 11
0.0
 21
0.0
 12
0.0
 22
0.0
 32
0.0
 14
0.0
 24
0.0
 34
0.0
 15
0.0
 25
0.0
 35
0.0
146
0.0
 13
0.0
 23
0.0
 33
0.0
 16
1.0
 26
0.0
 36
0.0
 17
0.0
 27
1.0
 37
0.0
 76
     0
330
23
  0
LAYOUT
  5
22
102
{ACAD_REACTORS
330
1A
102
}
330
1A
100
AcDbPlotSettings
  1

  2
none_device
  4

  6

 40
0.0
 41
0.0
 42
0.0
 43
0.0
 44
0.0
 45
0.0
 46
0.0
 47
0.0
 48
0.0
 49
0.0
140
0.0
141
0.0
142
1.0
143
1.0
 70
  1712
 72
     0
 73
     0
 74
     0
  7

 75
     0
 76
     0
 77
     2
 78
   300
147
1.0
148
0.0
149
0.0
100
AcDbLayout
  1
Model
 70
     1
 71
     0
 10
0.0
 20
0.0
 11
12.0
 21
9.0
 12
0.0
 22
0.0
 32
0.0
 14
-14.2952
 24
-115.1251
 34
0.0
 15
58.7674
 25
131.6902
 35
0.0
146
0.0
 13
0.0
 23
0.0
 33
0.0
 16
1.0
 26
0.0
 36
0.0
 17
0.0
 27
1.0
 37
0.0
 76
     0
330
1F
331
29
  0
MATERIAL
  5
3D
102
{ACAD_REACTORS
330
3B
102
}
330
3B
100
AcDbMaterial
  1
ByBlock
 72
     1
 94
      127
  0
MATERIAL
  5
3C
102
{ACAD_REACTORS
330
3B
102
}
330
3B
100
AcDbMaterial
  1
ByLayer
 72
     1
 94
      127
  0
MATERIAL
  5
3E
102
{ACAD_REACTORS
330
3B
102
}
330
3B
100
AcDbMaterial
  1
Global
 72
     1
 94
      127
  0
MLINESTYLE
  5
18
102
{ACAD_REACTORS
330
17
102
}
330
17
100
AcDbMlineStyle
  2
Standard
 70
     0
  3

 62
   256
 51
90.0
 52
90.0
 71
     2
 49
0.5
 62
   256
  6
BYLAYER
 49
-0.5
 62
   256
  6
BYLAYER
  0
ACDBPLACEHOLDER
  5
F
102
{ACAD_REACTORS
330
E
102
}
330
E
  0
VISUALSTYLE
  5
2F
102
{ACAD_REACTORS
330
2A
102
}
102
{ACAD_XDICTIONARY
360
72
102
}
330
2A
100
AcDbVisualStyle
  2
2dWireframe
 70
     4
 71
     0
 72
     2
 73
     0
 90
        0
 40
-0.6
 41
-30.0
 62
     5
 63
     7
421
 16777215
 74
     1
 91
        4
 64
     7
 65
   257
 75
     1
175
     1
 42
1.0
 92
        0
 66
   257
 43
1.0
 76
     1
 77
     6
 78
     2
 67
     7
 79
     5
170
     0
171
     0
290
     0
174
     0
 93
        1
 44
0.0
173
     0
291
     0
 45
0.0
  0
VISUALSTYLE
  5
31
102
{ACAD_REACTORS
330
2A
102
}
102
{ACAD_XDICTIONARY
360
76
102
}
330
2A
100
AcDbVisualStyle
  2
3D Hidden
 70
     6
 71
     1
 72
     2
 73
     2
 90
        0
 40
-0.6
 41
-30.0
 62
     5
 63
     7
421
 16777215
 74
     2
 91
        2
 64
     7
 65
   257
 75
     2
175
     1
 42
40.0
 92
        0
 66
   257
 43
1.0
 76
     1
 77
     6
 78
     2
 67
     7
 79
     3
170
     0
171
     0
290
     0
174
     0
 93
        1
 44
0.0
173
     0
291
     0
 45
0.0
  0
VISUALSTYLE
  5
30
102
{ACAD_REACTORS
330
2A
102
}
102
{ACAD_XDICTIONARY
360
74
102
}
330
2A
100
AcDbVisualStyle
  2
3dWireframe
 70
     5
 71
     0
 72
     2
 73
     0
 90
        0
 40
-0.6
 41
-30.0
 62
     5
 63
     7
421
 16777215
 74
     1
 91
        4
 64
     7
 65
   257
 75
     1
175
     1
 42
1.0
 92
        0
 66
   257
 43
1.0
 76
     1
 77
     6
 78
     2
 67
     7
 79
     5
170
     0
171
     0
290
     0
174
     0
 93
        1
 44
0.0
173
     0
291
     0
 45
0.0
  0
VISUALSTYLE
  5
32
102
{ACAD_REACTORS
330
2A
102
}
102
{ACAD_XDICTIONARY
360
78
102
}
330
2A
100
AcDbVisualStyle
  2
Basic
 70
     7
 71
     1
 72
     0
 73
     1
 90
        0
 40
-0.6
 41
-30.0
 62
     5
 63
     7
421
 16777215
 74
     0
 91
        4
 64
     7
 65
   257
 75
     1
175
     1
 42
1.0
 92
        8
 66
     7
 43
1.0
 76
     1
 77
     6
 78
     2
 67
     7
 79
     5
170
     0
171
     0
290
     0
174
     0
 93
        1
 44
0.0
173
     0
291
     1
 45
0.0
  0
VISUALSTYLE
  5
36
102
{ACAD_REACTORS
330
2A
102
}
102
{ACAD_XDICTIONARY
360
80
102
}
330
2A
100
AcDbVisualStyle
  2
Brighten
 70
    12
 71
     2
 72
     2
 73
     0
 90
        0
 40
-0.6
 41
-30.0
 62
     5
 63
     7
421
 16777215
 74
     1
 91
        4
 64
     7
 65
   257
 75
     1
175
     1
 42
1.0
 92
        8
 66
     7
 43
1.0
 76
     1
 77
     6
 78
     2
 67
     7
 79
     5
170
     0
171
     0
290
     0
174
     0
 93
        1
 44
50.0
173
     0
291
     1
 45
0.0
  0
VISUALSTYLE
  5
3A
102
{ACAD_REACTORS
330
2A
102
}
102
{ACAD_XDICTIONARY
360
88
102
}
330
2A
100
AcDbVisualStyle
  2
ColorChange
 70
    16
 71
     2
 72
     2
 73
     3
 90
        0
 40
-0.6
 41
-30.0
 62
     5
 63
     8
421
  8421504
 74
     1
 91
        4
 64
     7
 65
   257
 75
     1
175
     1
 42
1.0
 92
        8
 66
     8
424
  8421504
 43
1.0
 76
     1
 77
     6
 78
     2
 67
     7
 79
     5
170
     0
171
     0
290
     0
174
     0
 93
        1
 44
0.0
173
     0
291
     1
 45
0.0
  0
VISUALSTYLE
  5
34
102
{ACAD_REACTORS
330
2A
102
}
102
{ACAD_XDICTIONARY
360
7C
102
}
330
2A
100
AcDbVisualStyle
  2
Conceptual
 70
     9
 71
     3
 72
     2
 73
     0
 90
        0
 40
-0.6
 41
-30.0
 62
     5
 63
     7
421
 16777215
 74
     2
 91
        2
 64
     7
 65
   257
 75
     1
175
     1
 42
40.0
 92
        8
 66
     7
 43
1.0
 76
     1
 77
     6
 78
     2
 67
     7
 79
     3
170
     0
171
     0
290
     0
174
     0
 93
        1
 44
0.0
173
     0
291
     0
 45
0.0
  0
VISUALSTYLE
  5
35
102
{ACAD_REACTORS
330
2A
102
}
102
{ACAD_XDICTIONARY
360
7E
102
}
330
2A
100
AcDbVisualStyle
  2
Dim
 70
    11
 71
     2
 72
     2
 73
     0
 90
        0
 40
-0.6
 41
-30.0
 62
     5
 63
     7
421
 16777215
 74
     1
 91
        4
 64
     7
 65
   257
 75
     1
175
     1
 42
1.0
 92
        8
 66
     7
 43
1.0
 76
     1
 77
     6
 78
     2
 67
     7
 79
     5
170
     0
171
     0
290
     0
174
     0
 93
        1
 44
-50.0
173
     0
291
     1
 45
0.0
  0
VISUALSTYLE
  5
39
102
{ACAD_REACTORS
330
2A
102
}
102
{ACAD_XDICTIONARY
360
86
102
}
330
2A
100
AcDbVisualStyle
  2
Facepattern
 70
    15
 71
     2
 72
     2
 73
     0
 90
        0
 40
-0.6
 41
-30.0
 62
     5
 63
     7
421
 16777215
 74
     1
 91
        4
 64
     7
 65
   257
 75
     1
175
     1
 42
1.0
 92
        8
 66
     7
 43
1.0
 76
     1
 77
     6
 78
     2
 67
     7
 79
     5
170
     0
171
     0
290
     0
174
     0
 93
        1
 44
0.0
173
     0
291
     1
 45
0.0
  0
VISUALSTYLE
  5
2B
102
{ACAD_REACTORS
330
2A
102
}
102
{ACAD_XDICTIONARY
360
6A
102
}
330
2A
100
AcDbVisualStyle
  2
Flat
 70
     0
 71
     2
 72
     1
 73
     1
 90
        2
 40
-0.6
 41
30.0
 62
     5
 63
     7
421
 16777215
 74
     0
 91
        4
 64
     7
 65
   257
 75
     1
175
     1
 42
1.0
 92
        8
 66
     7
 43
1.0
 76
     1
 77
     6
 78
     2
 67
     7
 79
     5
170
     0
171
     0
290
     0
174
     0
 93
       13
 44
0.0
173
     0
291
     1
 45
0.0
  0
VISUALSTYLE
  5
2C
102
{ACAD_REACTORS
330
2A
102
}
102
{ACAD_XDICTIONARY
360
6C
102
}
330
2A
100
AcDbVisualStyle
  2
FlatWithEdges
 70
     1
 71
     2
 72
     1
 73
     1
 90
        2
 40
-0.6
 41
30.0
 62
     5
 63
     7
421
 16777215
 74
     1
 91
        4
 64
     7
 65
   257
 75
     1
175
     1
 42
1.0
 92
        0
 66
   257
 43
1.0
 76
     1
 77
     6
 78
     2
 67
     7
 79
     5
170
     0
171
     0
290
     0
174
     0
 93
       13
 44
0.0
173
     0
291
     1
 45
0.0
  0
VISUALSTYLE
  5
2D
102
{ACAD_REACTORS
330
2A
102
}
102
{ACAD_XDICTIONARY
360
6E
102
}
330
2A
100
AcDbVisualStyle
  2
Gouraud
 70
     2
 71
     2
 72
     2
 73
     1
 90
        2
 40
-0.6
 41
30.0
 62
     5
 63
     7
421
 16777215
 74
     0
 91
        4
 64
     7
 65
   257
 75
     1
175
     1
 42
1.0
 92
        0
 66
     7
 43
1.0
 76
     1
 77
     6
 78
     2
 67
     7
 79
     5
170
     0
171
     0
290
     0
174
     0
 93
       13
 44
0.0
173
     0
291
     1
 45
0.0
  0
VISUALSTYLE
  5
2E
102
{ACAD_REACTORS
330
2A
102
}
102
{ACAD_XDICTIONARY
360
70
102
}
330
2A
100
AcDbVisualStyle
  2
GouraudWithEdges
 70
     3
 71
     2
 72
     2
 73
     1
 90
        2
 40
-0.6
 41
30.0
 62
     5
 63
     7
421
 16777215
 74
     1
 91
        4
 64
     7
 65
   257
 75
     1
175
     1
 42
1.0
 92
        0
 66
   257
 43
1.0
 76
     1
 77
     6
 78
     2
 67
     7
 79
     5
170
     0
171
     0
290
     0
174
     0
 93
       13
 44
0.0
173
     0
291
     1
 45
0.0
  0
VISUALSTYLE
  5
38
102
{ACAD_REACTORS
330
2A
102
}
102
{ACAD_XDICTIONARY
360
84
102
}
330
2A
100
AcDbVisualStyle
  2
Linepattern
 70
    14
 71
     2
 72
     2
 73
     0
 90
        0
 40
-0.6
 41
-30.0
 62
     5
 63
     7
421
 16777215
 74
     1
 91
        4
 64
     7
 65
   257
 75
     7
175
     7
 42
1.0
 92
        8
 66
     7
 43
1.0
 76
     1
 77
     6
 78
     2
 67
     7
 79
     5
170
     0
171
     0
290
     0
174
     0
 93
        1
 44
0.0
173
     0
291
     1
 45
0.0
  0
VISUALSTYLE
  5
33
102
{ACAD_REACTORS
330
2A
102
}
102
{ACAD_XDICTIONARY
360
7A
102
}
330
2A
100
AcDbVisualStyle
  2
Realistic
 70
     8
 71
     2
 72
     2
 73
     0
 90
        0
 40
-0.6
 41
-30.0
 62
     5
 63
     7
421
 16777215
 74
     1
 91
        0
 64
     7
 65
   257
 75
     1
175
     1
 42
1.0
 92
        8
 66
     8
424
  7895160
 43
1.0
 76
     1
 77
     6
 78
     2
 67
     7
 79
     5
170
     0
171
     0
290
     0
174
     0
 93
       13
 44
0.0
173
     0
291
     0
 45
0.0
  0
VISUALSTYLE
  5
37
102
{ACAD_REACTORS
330
2A
102
}
102
{ACAD_XDICTIONARY
360
82
102
}
330
2A
100
AcDbVisualStyle
  2
Thicken
 70
    13
 71
     2
 72
     2
 73
     0
 90
        0
 40
-0.6
 41
-30.0
 62
     5
 63
     7
421
 16777215
 74
     1
 91
        4
 64
     7
 65
   257
 75
     1
175
     1
 42
1.0
 92
       12
 66
     7
 43
1.0
 76
     1
 77
     6
 78
     2
 67
     7
 79
     5
170
     0
171
     0
290
     0
174
     0
 93
        1
 44
0.0
173
     0
291
     1
 45
0.0
  0
DICTIONARY
  5
72
330
2F
100
AcDbDictionary
280
     1
281
     1
  3
ACAD_XREC_ROUNDTRIP
360
73
  0
DICTIONARY
  5
76
330
31
100
AcDbDictionary
280
     1
281
     1
  3
ACAD_XREC_ROUNDTRIP
360
77
  0
DICTIONARY
  5
74
330
30
100
AcDbDictionary
280
     1
281
     1
  3
ACAD_XREC_ROUNDTRIP
360
75
  0
DICTIONARY
  5
78
330
32
100
AcDbDictionary
280
     1
281
     1
  3
ACAD_XREC_ROUNDTRIP
360
79
  0
DICTIONARY
  5
80
330
36
100
AcDbDictionary
280
     1
281
     1
  3
ACAD_XREC_ROUNDTRIP
360
81
  0
DICTIONARY
  5
88
330
3A
100
AcDbDictionary
280
     1
281
     1
  3
ACAD_XREC_ROUNDTRIP
360
89
  0
DICTIONARY
  5
7C
330
34
100
AcDbDictionary
280
     1
281
     1
  3
ACAD_XREC_ROUNDTRIP
360
7D
  0
DICTIONARY
  5
7E
330
35
100
AcDbDictionary
280
     1
281
     1
  3
ACAD_XREC_ROUNDTRIP
360
7F
  0
DICTIONARY
  5
86
330
39
100
AcDbDictionary
280
     1
281
     1
  3
ACAD_XREC_ROUNDTRIP
360
87
  0
DICTIONARY
  5
6A
330
2B
100
AcDbDictionary
280
     1
281
     1
  3
ACAD_XREC_ROUNDTRIP
360
6B
  0
DICTIONARY
  5
6C
330
2C
100
AcDbDictionary
280
     1
281
     1
  3
ACAD_XREC_ROUNDTRIP
360
6D
  0
DICTIONARY
  5
6E
330
2D
100
AcDbDictionary
280
     1
281
     1
  3
ACAD_XREC_ROUNDTRIP
360
6F
  0
DICTIONARY
  5
70
330
2E
100
AcDbDictionary
280
     1
281
     1
  3
ACAD_XREC_ROUNDTRIP
360
71
  0
DICTIONARY
  5
84
330
38
100
AcDbDictionary
280
     1
281
     1
  3
ACAD_XREC_ROUNDTRIP
360
85
  0
DICTIONARY
  5
7A
330
33
100
AcDbDictionary
280
     1
281
     1
  3
ACAD_XREC_ROUNDTRIP
360
7B
  0
DICTIONARY
  5
82
330
37
100
AcDbDictionary
280
     1
281
     1
  3
ACAD_XREC_ROUNDTRIP
360
83
  0
XRECORD
  5
73
102
{ACAD_REACTORS
330
72
102
}
330
72
100
AcDbXrecord
280
     1
102
RTVSPropertyOp0
 70
     1
102
RTVSPropertyOp1
 70
     1
102
RTVSPropertyOp2
 70
     1
102
RTVSPropertyOp3
 70
     1
102
RTVSPropertyOp4
 70
     1
102
RTVSPropertyOp5
 70
     1
102
RTVSPropertyOp6
 70
     1
102
RTVSPropertyOp7
 70
     1
102
RTVSPropertyOp8
 70
     1
102
RTVSPropertyOp9
 70
     1
102
RTVSPropertyOp10
 70
     1
102
RTVSPropertyOp11
 70
     1
102
RTVSPropertyOp12
 70
     1
102
RTVSPropertyOp13
 70
     1
102
RTVSPropertyOp14
 70
     1
102
RTVSPropertyOp15
 70
     1
102
RTVSPropertyOp16
 70
     1
102
RTVSPropertyOp17
 70
     1
102
RTVSPropertyOp18
 70
     1
102
RTVSPropertyOp19
 70
     1
102
RTVSPropertyOp20
 70
     1
102
RTVSPropertyOp21
 70
     1
102
RTVSPropertyOp22
 70
     1
102
RTVSPropertyOp23
 70
     1
102
RTVSPropertyOp24
 70
     1
102
RTVSPropertyOp25
 70
     1
102
RTVSPropertyOp26
 70
     1
102
RTVSPropertyOp27
 70
     1
102
RTVSPropertyOp28
 70
     1
102
RTVSPropertyOp29
 70
     1
102
RTVSPropertyOp30
 70
     1
102
RTVSPropertyOp31
 70
     1
102
RTVSPropertyOp32
 70
     1
  0
XRECORD
  5
77
102
{ACAD_REACTORS
330
76
102
}
330
76
100
AcDbXrecord
280
     1
102
RTVSPropertyOp0
 70
     1
102
RTVSPropertyOp1
 70
     1
102
RTVSPropertyOp2
 70
     1
102
RTVSPropertyOp3
 70
     1
102
RTVSPropertyOp4
 70
     1
102
RTVSPropertyOp5
 70
     1
102
RTVSPropertyOp6
 70
     1
102
RTVSPropertyOp7
 70
     1
102
RTVSPropertyOp8
 70
     1
102
RTVSPropertyOp9
 70
     1
102
RTVSPropertyOp10
 70
     1
102
RTVSPropertyOp11
 70
     1
102
RTVSPropertyOp12
 70
     1
102
RTVSPropertyOp13
 70
     1
102
RTVSPropertyOp14
 70
     1
102
RTVSPropertyOp15
 70
     1
102
RTVSPropertyOp16
 70
     1
102
RTVSPropertyOp17
 70
     1
102
RTVSPropertyOp18
 70
     1
102
RTVSPropertyOp19
 70
     1
102
RTVSPropertyOp20
 70
     1
102
RTVSPropertyOp21
 70
     1
102
RTVSPropertyOp22
 70
     1
102
RTVSPropertyOp23
 70
     1
102
RTVSPropertyOp24
 70
     1
102
RTVSPropertyOp25
 70
     1
102
RTVSPropertyOp26
 70
     1
102
RTVSPropertyOp27
 70
     1
102
RTVSPropertyOp28
 70
     1
102
RTVSPropertyOp29
 70
     1
102
RTVSPropertyOp30
 70
     1
102
RTVSPropertyOp31
 70
     1
102
RTVSPropertyOp32
 70
     1
  0
XRECORD
  5
75
102
{ACAD_REACTORS
330
74
102
}
330
74
100
AcDbXrecord
280
     1
102
RTVSPropertyOp0
 70
     1
102
RTVSPropertyOp1
 70
     1
102
RTVSPropertyOp2
 70
     1
102
RTVSPropertyOp3
 70
     1
102
RTVSPropertyOp4
 70
     1
102
RTVSPropertyOp5
 70
     1
102
RTVSPropertyOp6
 70
     1
102
RTVSPropertyOp7
 70
     1
102
RTVSPropertyOp8
 70
     1
102
RTVSPropertyOp9
 70
     1
102
RTVSPropertyOp10
 70
     1
102
RTVSPropertyOp11
 70
     1
102
RTVSPropertyOp12
 70
     1
102
RTVSPropertyOp13
 70
     1
102
RTVSPropertyOp14
 70
     1
102
RTVSPropertyOp15
 70
     1
102
RTVSPropertyOp16
 70
     1
102
RTVSPropertyOp17
 70
     1
102
RTVSPropertyOp18
 70
     1
102
RTVSPropertyOp19
 70
     1
102
RTVSPropertyOp20
 70
     1
102
RTVSPropertyOp21
 70
     1
102
RTVSPropertyOp22
 70
     1
102
RTVSPropertyOp23
 70
     1
102
RTVSPropertyOp24
 70
     1
102
RTVSPropertyOp25
 70
     1
102
RTVSPropertyOp26
 70
     1
102
RTVSPropertyOp27
 70
     1
102
RTVSPropertyOp28
 70
     1
102
RTVSPropertyOp29
 70
     1
102
RTVSPropertyOp30
 70
     1
102
RTVSPropertyOp31
 70
     1
102
RTVSPropertyOp32
 70
     1
  0
XRECORD
  5
79
102
{ACAD_REACTORS
330
78
102
}
330
78
100
AcDbXrecord
280
     1
102
RTVSPropertyOp0
 70
     1
102
RTVSPropertyOp1
 70
     1
102
RTVSPropertyOp2
 70
     1
102
RTVSPropertyOp3
 70
     1
102
RTVSPropertyOp4
 70
     1
102
RTVSPropertyOp5
 70
     1
102
RTVSPropertyOp6
 70
     1
102
RTVSPropertyOp7
 70
     1
102
RTVSPropertyOp8
 70
     1
102
RTVSPropertyOp9
 70
     1
102
RTVSPropertyOp10
 70
     1
102
RTVSPropertyOp11
 70
     1
102
RTVSPropertyOp12
 70
     1
102
RTVSPropertyOp13
 70
     1
102
RTVSPropertyOp14
 70
     1
102
RTVSPropertyOp15
 70
     1
102
RTVSPropertyOp16
 70
     1
102
RTVSPropertyOp17
 70
     1
102
RTVSPropertyOp18
 70
     1
102
RTVSPropertyOp19
 70
     1
102
RTVSPropertyOp20
 70
     1
102
RTVSPropertyOp21
 70
     1
102
RTVSPropertyOp22
 70
     1
102
RTVSPropertyOp23
 70
     1
102
RTVSPropertyOp24
 70
     1
102
RTVSPropertyOp25
 70
     1
102
RTVSPropertyOp26
 70
     1
102
RTVSPropertyOp27
 70
     1
102
RTVSPropertyOp28
 70
     1
102
RTVSPropertyOp29
 70
     1
102
RTVSPropertyOp30
 70
     1
102
RTVSPropertyOp31
 70
     1
102
RTVSPropertyOp32
 70
     1
  0
XRECORD
  5
81
102
{ACAD_REACTORS
330
80
102
}
330
80
100
AcDbXrecord
280
     1
102
RTVSPropertyOp0
 70
     1
102
RTVSPropertyOp1
 70
     1
102
RTVSPropertyOp2
 70
     1
102
RTVSPropertyOp3
 70
     1
102
RTVSPropertyOp4
 70
     1
102
RTVSPropertyOp5
 70
     1
102
RTVSPropertyOp6
 70
     1
102
RTVSPropertyOp7
 70
     1
102
RTVSPropertyOp8
 70
     1
102
RTVSPropertyOp9
 70
     1
102
RTVSPropertyOp10
 70
     1
102
RTVSPropertyOp11
 70
     1
102
RTVSPropertyOp12
 70
     1
102
RTVSPropertyOp13
 70
     1
102
RTVSPropertyOp14
 70
     1
102
RTVSPropertyOp15
 70
     1
102
RTVSPropertyOp16
 70
     1
102
RTVSPropertyOp17
 70
     1
102
RTVSPropertyOp18
 70
     1
102
RTVSPropertyOp19
 70
     1
102
RTVSPropertyOp20
 70
     1
102
RTVSPropertyOp21
 70
     1
102
RTVSPropertyOp22
 70
     1
102
RTVSPropertyOp23
 70
     1
102
RTVSPropertyOp24
 70
     1
102
RTVSPropertyOp25
 70
     1
102
RTVSPropertyOp26
 70
     1
102
RTVSPropertyOp27
 70
     1
102
RTVSPropertyOp28
 70
     1
102
RTVSPropertyOp29
 70
     1
102
RTVSPropertyOp30
 70
     1
102
RTVSPropertyOp31
 70
     1
102
RTVSPropertyOp32
 70
     1
  0
XRECORD
  5
89
102
{ACAD_REACTORS
330
88
102
}
330
88
100
AcDbXrecord
280
     1
102
RTVSPropertyOp0
 70
     1
102
RTVSPropertyOp1
 70
     1
102
RTVSPropertyOp2
 70
     1
102
RTVSPropertyOp3
 70
     1
102
RTVSPropertyOp4
 70
     1
102
RTVSPropertyOp5
 70
     1
102
RTVSPropertyOp6
 70
     1
102
RTVSPropertyOp7
 70
     1
102
RTVSPropertyOp8
 70
     1
102
RTVSPropertyOp9
 70
     1
102
RTVSPropertyOp10
 70
     1
102
RTVSPropertyOp11
 70
     1
102
RTVSPropertyOp12
 70
     1
102
RTVSPropertyOp13
 70
     1
102
RTVSPropertyOp14
 70
     1
102
RTVSPropertyOp15
 70
     1
102
RTVSPropertyOp16
 70
     1
102
RTVSPropertyOp17
 70
     1
102
RTVSPropertyOp18
 70
     1
102
RTVSPropertyOp19
 70
     1
102
RTVSPropertyOp20
 70
     1
102
RTVSPropertyOp21
 70
     1
102
RTVSPropertyOp22
 70
     1
102
RTVSPropertyOp23
 70
     1
102
RTVSPropertyOp24
 70
     1
102
RTVSPropertyOp25
 70
     1
102
RTVSPropertyOp26
 70
     1
102
RTVSPropertyOp27
 70
     1
102
RTVSPropertyOp28
 70
     1
102
RTVSPropertyOp29
 70
     1
102
RTVSPropertyOp30
 70
     1
102
RTVSPropertyOp31
 70
     1
102
RTVSPropertyOp32
 70
     1
  0
XRECORD
  5
7D
102
{ACAD_REACTORS
330
7C
102
}
330
7C
100
AcDbXrecord
280
     1
102
RTVSPropertyOp0
 70
     1
102
RTVSPropertyOp1
 70
     1
102
RTVSPropertyOp2
 70
     1
102
RTVSPropertyOp3
 70
     1
102
RTVSPropertyOp4
 70
     1
102
RTVSPropertyOp5
 70
     1
102
RTVSPropertyOp6
 70
     1
102
RTVSPropertyOp7
 70
     1
102
RTVSPropertyOp8
 70
     1
102
RTVSPropertyOp9
 70
     1
102
RTVSPropertyOp10
 70
     1
102
RTVSPropertyOp11
 70
     1
102
RTVSPropertyOp12
 70
     1
102
RTVSPropertyOp13
 70
     1
102
RTVSPropertyOp14
 70
     1
102
RTVSPropertyOp15
 70
     1
102
RTVSPropertyOp16
 70
     1
102
RTVSPropertyOp17
 70
     1
102
RTVSPropertyOp18
 70
     1
102
RTVSPropertyOp19
 70
     1
102
RTVSPropertyOp20
 70
     1
102
RTVSPropertyOp21
 70
     1
102
RTVSPropertyOp22
 70
     1
102
RTVSPropertyOp23
 70
     1
102
RTVSPropertyOp24
 70
     1
102
RTVSPropertyOp25
 70
     1
102
RTVSPropertyOp26
 70
     1
102
RTVSPropertyOp27
 70
     1
102
RTVSPropertyOp28
 70
     1
102
RTVSPropertyOp29
 70
     1
102
RTVSPropertyOp30
 70
     1
102
RTVSPropertyOp31
 70
     1
102
RTVSPropertyOp32
 70
     1
  0
XRECORD
  5
7F
102
{ACAD_REACTORS
330
7E
102
}
330
7E
100
AcDbXrecord
280
     1
102
RTVSPropertyOp0
 70
     1
102
RTVSPropertyOp1
 70
     1
102
RTVSPropertyOp2
 70
     1
102
RTVSPropertyOp3
 70
     1
102
RTVSPropertyOp4
 70
     1
102
RTVSPropertyOp5
 70
     1
102
RTVSPropertyOp6
 70
     1
102
RTVSPropertyOp7
 70
     1
102
RTVSPropertyOp8
 70
     1
102
RTVSPropertyOp9
 70
     1
102
RTVSPropertyOp10
 70
     1
102
RTVSPropertyOp11
 70
     1
102
RTVSPropertyOp12
 70
     1
102
RTVSPropertyOp13
 70
     1
102
RTVSPropertyOp14
 70
     1
102
RTVSPropertyOp15
 70
     1
102
RTVSPropertyOp16
 70
     1
102
RTVSPropertyOp17
 70
     1
102
RTVSPropertyOp18
 70
     1
102
RTVSPropertyOp19
 70
     1
102
RTVSPropertyOp20
 70
     1
102
RTVSPropertyOp21
 70
     1
102
RTVSPropertyOp22
 70
     1
102
RTVSPropertyOp23
 70
     1
102
RTVSPropertyOp24
 70
     1
102
RTVSPropertyOp25
 70
     1
102
RTVSPropertyOp26
 70
     1
102
RTVSPropertyOp27
 70
     1
102
RTVSPropertyOp28
 70
     1
102
RTVSPropertyOp29
 70
     1
102
RTVSPropertyOp30
 70
     1
102
RTVSPropertyOp31
 70
     1
102
RTVSPropertyOp32
 70
     1
  0
XRECORD
  5
87
102
{ACAD_REACTORS
330
86
102
}
330
86
100
AcDbXrecord
280
     1
102
RTVSPropertyOp0
 70
     1
102
RTVSPropertyOp1
 70
     1
102
RTVSPropertyOp2
 70
     1
102
RTVSPropertyOp3
 70
     1
102
RTVSPropertyOp4
 70
     1
102
RTVSPropertyOp5
 70
     1
102
RTVSPropertyOp6
 70
     1
102
RTVSPropertyOp7
 70
     1
102
RTVSPropertyOp8
 70
     1
102
RTVSPropertyOp9
 70
     1
102
RTVSPropertyOp10
 70
     1
102
RTVSPropertyOp11
 70
     1
102
RTVSPropertyOp12
 70
     1
102
RTVSPropertyOp13
 70
     1
102
RTVSPropertyOp14
 70
     1
102
RTVSPropertyOp15
 70
     1
102
RTVSPropertyOp16
 70
     1
102
RTVSPropertyOp17
 70
     1
102
RTVSPropertyOp18
 70
     1
102
RTVSPropertyOp19
 70
     1
102
RTVSPropertyOp20
 70
     1
102
RTVSPropertyOp21
 70
     1
102
RTVSPropertyOp22
 70
     1
102
RTVSPropertyOp23
 70
     1
102
RTVSPropertyOp24
 70
     1
102
RTVSPropertyOp25
 70
     1
102
RTVSPropertyOp26
 70
     1
102
RTVSPropertyOp27
 70
     1
102
RTVSPropertyOp28
 70
     1
102
RTVSPropertyOp29
 70
     1
102
RTVSPropertyOp30
 70
     1
102
RTVSPropertyOp31
 70
     1
102
RTVSPropertyOp32
 70
     1
  0
XRECORD
  5
6B
102
{ACAD_REACTORS
330
6A
102
}
330
6A
100
AcDbXrecord
280
     1
102
RTVSPropertyOp0
 70
     1
102
RTVSPropertyOp1
 70
     1
102
RTVSPropertyOp2
 70
     1
102
RTVSPropertyOp3
 70
     1
102
RTVSPropertyOp4
 70
     1
102
RTVSPropertyOp5
 70
     1
102
RTVSPropertyOp6
 70
     1
102
RTVSPropertyOp7
 70
     1
102
RTVSPropertyOp8
 70
     1
102
RTVSPropertyOp9
 70
     1
102
RTVSPropertyOp10
 70
     1
102
RTVSPropertyOp11
 70
     1
102
RTVSPropertyOp12
 70
     1
102
RTVSPropertyOp13
 70
     1
102
RTVSPropertyOp14
 70
     1
102
RTVSPropertyOp15
 70
     1
102
RTVSPropertyOp16
 70
     1
102
RTVSPropertyOp17
 70
     1
102
RTVSPropertyOp18
 70
     1
102
RTVSPropertyOp19
 70
     1
102
RTVSPropertyOp20
 70
     1
102
RTVSPropertyOp21
 70
     1
102
RTVSPropertyOp22
 70
     1
102
RTVSPropertyOp23
 70
     1
102
RTVSPropertyOp24
 70
     1
102
RTVSPropertyOp25
 70
     1
102
RTVSPropertyOp26
 70
     1
102
RTVSPropertyOp27
 70
     1
102
RTVSPropertyOp28
 70
     1
102
RTVSPropertyOp29
 70
     1
102
RTVSPropertyOp30
 70
     1
102
RTVSPropertyOp31
 70
     1
102
RTVSPropertyOp32
 70
     1
  0
XRECORD
  5
6D
102
{ACAD_REACTORS
330
6C
102
}
330
6C
100
AcDbXrecord
280
     1
102
RTVSPropertyOp0
 70
     1
102
RTVSPropertyOp1
 70
     1
102
RTVSPropertyOp2
 70
     1
102
RTVSPropertyOp3
 70
     1
102
RTVSPropertyOp4
 70
     1
102
RTVSPropertyOp5
 70
     1
102
RTVSPropertyOp6
 70
     1
102
RTVSPropertyOp7
 70
     1
102
RTVSPropertyOp8
 70
     1
102
RTVSPropertyOp9
 70
     1
102
RTVSPropertyOp10
 70
     1
102
RTVSPropertyOp11
 70
     1
102
RTVSPropertyOp12
 70
     1
102
RTVSPropertyOp13
 70
     1
102
RTVSPropertyOp14
 70
     1
102
RTVSPropertyOp15
 70
     1
102
RTVSPropertyOp16
 70
     1
102
RTVSPropertyOp17
 70
     1
102
RTVSPropertyOp18
 70
     1
102
RTVSPropertyOp19
 70
     1
102
RTVSPropertyOp20
 70
     1
102
RTVSPropertyOp21
 70
     1
102
RTVSPropertyOp22
 70
     1
102
RTVSPropertyOp23
 70
     1
102
RTVSPropertyOp24
 70
     1
102
RTVSPropertyOp25
 70
     1
102
RTVSPropertyOp26
 70
     1
102
RTVSPropertyOp27
 70
     1
102
RTVSPropertyOp28
 70
     1
102
RTVSPropertyOp29
 70
     1
102
RTVSPropertyOp30
 70
     1
102
RTVSPropertyOp31
 70
     1
102
RTVSPropertyOp32
 70
     1
  0
XRECORD
  5
6F
102
{ACAD_REACTORS
330
6E
102
}
330
6E
100
AcDbXrecord
280
     1
102
RTVSPropertyOp0
 70
     1
102
RTVSPropertyOp1
 70
     1
102
RTVSPropertyOp2
 70
     1
102
RTVSPropertyOp3
 70
     1
102
RTVSPropertyOp4
 70
     1
102
RTVSPropertyOp5
 70
     1
102
RTVSPropertyOp6
 70
     1
102
RTVSPropertyOp7
 70
     1
102
RTVSPropertyOp8
 70
     1
102
RTVSPropertyOp9
 70
     1
102
RTVSPropertyOp10
 70
     1
102
RTVSPropertyOp11
 70
     1
102
RTVSPropertyOp12
 70
     1
102
RTVSPropertyOp13
 70
     1
102
RTVSPropertyOp14
 70
     1
102
RTVSPropertyOp15
 70
     1
102
RTVSPropertyOp16
 70
     1
102
RTVSPropertyOp17
 70
     1
102
RTVSPropertyOp18
 70
     1
102
RTVSPropertyOp19
 70
     1
102
RTVSPropertyOp20
 70
     1
102
RTVSPropertyOp21
 70
     1
102
RTVSPropertyOp22
 70
     1
102
RTVSPropertyOp23
 70
     1
102
RTVSPropertyOp24
 70
     1
102
RTVSPropertyOp25
 70
     1
102
RTVSPropertyOp26
 70
     1
102
RTVSPropertyOp27
 70
     1
102
RTVSPropertyOp28
 70
     1
102
RTVSPropertyOp29
 70
     1
102
RTVSPropertyOp30
 70
     1
102
RTVSPropertyOp31
 70
     1
102
RTVSPropertyOp32
 70
     1
  0
XRECORD
  5
71
102
{ACAD_REACTORS
330
70
102
}
330
70
100
AcDbXrecord
280
     1
102
RTVSPropertyOp0
 70
     1
102
RTVSPropertyOp1
 70
     1
102
RTVSPropertyOp2
 70
     1
102
RTVSPropertyOp3
 70
     1
102
RTVSPropertyOp4
 70
     1
102
RTVSPropertyOp5
 70
     1
102
RTVSPropertyOp6
 70
     1
102
RTVSPropertyOp7
 70
     1
102
RTVSPropertyOp8
 70
     1
102
RTVSPropertyOp9
 70
     1
102
RTVSPropertyOp10
 70
     1
102
RTVSPropertyOp11
 70
     1
102
RTVSPropertyOp12
 70
     1
102
RTVSPropertyOp13
 70
     1
102
RTVSPropertyOp14
 70
     1
102
RTVSPropertyOp15
 70
     1
102
RTVSPropertyOp16
 70
     1
102
RTVSPropertyOp17
 70
     1
102
RTVSPropertyOp18
 70
     1
102
RTVSPropertyOp19
 70
     1
102
RTVSPropertyOp20
 70
     1
102
RTVSPropertyOp21
 70
     1
102
RTVSPropertyOp22
 70
     1
102
RTVSPropertyOp23
 70
     1
102
RTVSPropertyOp24
 70
     1
102
RTVSPropertyOp25
 70
     1
102
RTVSPropertyOp26
 70
     1
102
RTVSPropertyOp27
 70
     1
102
RTVSPropertyOp28
 70
     1
102
RTVSPropertyOp29
 70
     1
102
RTVSPropertyOp30
 70
     1
102
RTVSPropertyOp31
 70
     1
102
RTVSPropertyOp32
 70
     1
  0
XRECORD
  5
85
102
{ACAD_REACTORS
330
84
102
}
330
84
100
AcDbXrecord
280
     1
102
RTVSPropertyOp0
 70
     1
102
RTVSPropertyOp1
 70
     1
102
RTVSPropertyOp2
 70
     1
102
RTVSPropertyOp3
 70
     1
102
RTVSPropertyOp4
 70
     1
102
RTVSPropertyOp5
 70
     1
102
RTVSPropertyOp6
 70
     1
102
RTVSPropertyOp7
 70
     1
102
RTVSPropertyOp8
 70
     1
102
RTVSPropertyOp9
 70
     1
102
RTVSPropertyOp10
 70
     1
102
RTVSPropertyOp11
 70
     1
102
RTVSPropertyOp12
 70
     1
102
RTVSPropertyOp13
 70
     1
102
RTVSPropertyOp14
 70
     1
102
RTVSPropertyOp15
 70
     1
102
RTVSPropertyOp16
 70
     1
102
RTVSPropertyOp17
 70
     1
102
RTVSPropertyOp18
 70
     1
102
RTVSPropertyOp19
 70
     1
102
RTVSPropertyOp20
 70
     1
102
RTVSPropertyOp21
 70
     1
102
RTVSPropertyOp22
 70
     1
102
RTVSPropertyOp23
 70
     1
102
RTVSPropertyOp24
 70
     1
102
RTVSPropertyOp25
 70
     1
102
RTVSPropertyOp26
 70
     1
102
RTVSPropertyOp27
 70
     1
102
RTVSPropertyOp28
 70
     1
102
RTVSPropertyOp29
 70
     1
102
RTVSPropertyOp30
 70
     1
102
RTVSPropertyOp31
 70
     1
102
RTVSPropertyOp32
 70
     1
  0
XRECORD
  5
7B
102
{ACAD_REACTORS
330
7A
102
}
330
7A
100
AcDbXrecord
280
     1
102
RTVSPropertyOp0
 70
     1
102
RTVSPropertyOp1
 70
     1
102
RTVSPropertyOp2
 70
     1
102
RTVSPropertyOp3
 70
     1
102
RTVSPropertyOp4
 70
     1
102
RTVSPropertyOp5
 70
     1
102
RTVSPropertyOp6
 70
     1
102
RTVSPropertyOp7
 70
     1
102
RTVSPropertyOp8
 70
     1
102
RTVSPropertyOp9
 70
     1
102
RTVSPropertyOp10
 70
     1
102
RTVSPropertyOp11
 70
     1
102
RTVSPropertyOp12
 70
     1
102
RTVSPropertyOp13
 70
     1
102
RTVSPropertyOp14
 70
     1
102
RTVSPropertyOp15
 70
     1
102
RTVSPropertyOp16
 70
     1
102
RTVSPropertyOp17
 70
     1
102
RTVSPropertyOp18
 70
     1
102
RTVSPropertyOp19
 70
     1
102
RTVSPropertyOp20
 70
     1
102
RTVSPropertyOp21
 70
     1
102
RTVSPropertyOp22
 70
     1
102
RTVSPropertyOp23
 70
     1
102
RTVSPropertyOp24
 70
     1
102
RTVSPropertyOp25
 70
     1
102
RTVSPropertyOp26
 70
     1
102
RTVSPropertyOp27
 70
     1
102
RTVSPropertyOp28
 70
     1
102
RTVSPropertyOp29
 70
     1
102
RTVSPropertyOp30
 70
     1
102
RTVSPropertyOp31
 70
     1
102
RTVSPropertyOp32
 70
     1
  0
XRECORD
  5
83
102
{ACAD_REACTORS
330
82
102
}
330
82
100
AcDbXrecord
280
     1
102
RTVSPropertyOp0
 70
     1
102
RTVSPropertyOp1
 70
     1
102
RTVSPropertyOp2
 70
     1
102
RTVSPropertyOp3
 70
     1
102
RTVSPropertyOp4
 70
     1
102
RTVSPropertyOp5
 70
     1
102
RTVSPropertyOp6
 70
     1
102
RTVSPropertyOp7
 70
     1
102
RTVSPropertyOp8
 70
     1
102
RTVSPropertyOp9
 70
     1
102
RTVSPropertyOp10
 70
     1
102
RTVSPropertyOp11
 70
     1
102
RTVSPropertyOp12
 70
     1
102
RTVSPropertyOp13
 70
     1
102
RTVSPropertyOp14
 70
     1
102
RTVSPropertyOp15
 70
     1
102
RTVSPropertyOp16
 70
     1
102
RTVSPropertyOp17
 70
     1
102
RTVSPropertyOp18
 70
     1
102
RTVSPropertyOp19
 70
     1
102
RTVSPropertyOp20
 70
     1
102
RTVSPropertyOp21
 70
     1
102
RTVSPropertyOp22
 70
     1
102
RTVSPropertyOp23
 70
     1
102
RTVSPropertyOp24
 70
     1
102
RTVSPropertyOp25
 70
     1
102
RTVSPropertyOp26
 70
     1
102
RTVSPropertyOp27
 70
     1
102
RTVSPropertyOp28
 70
     1
102
RTVSPropertyOp29
 70
     1
102
RTVSPropertyOp30
 70
     1
102
RTVSPropertyOp31
 70
     1
102
RTVSPropertyOp32
 70
     1
  0
ENDSEC
  0
EOF
