  0
SECTION
  2
HEADER
  9
$ACADVER
  1
AC1021
  9
$ACADMAINTVER
 70
    25
  9
$DWGCODEPAGE
  3
ANSI_1252
  9
$INSBASE
 10
0.0
 20
0.0
 30
0.0
  9
$EXTMIN
 10
-187.0983
 20
-114.8394
 30
0.0
  9
$EXTMAX
 10
-38.6012
 20
131.7385
 30
0.0
  9
$LIMMIN
 10
0.0
 20
0.0
  9
$LIMMAX
 10
12.0
 20
9.0
  9
$ORTHOMODE
 70
     0
  9
$REGENMODE
 70
     1
  9
$FILLMODE
 70
     1
  9
$QTEXTMODE
 70
     0
  9
$MIRRTEXT
 70
     1
  9
$LTSCALE
 40
1.0
  9
$ATTMODE
 70
     1
  9
$TEXTSIZE
 40
0.2
  9
$TRACEWID
 40
0.05
  9
$TEXTSTYLE
  7
Standard
  9
$CLAYER
  8
0
  9
$CELTYPE
  6
ByLayer
  9
$CECOLOR
 62
   256
  9
$CELTSCALE
 40
1.0
  9
$DISPSILH
 70
     0
  9
$DIMSCALE
 40
1.0
  9
$DIMASZ
 40
0.18
  9
$DIMEXO
 40
0.0625
  9
$DIMDLI
 40
0.38
  9
$DIMRND
 40
0.0
  9
$DIMDLE
 40
0.0
  9
$DIMEXE
 40
0.18
  9
$DIMTP
 40
0.0
  9
$DIMTM
 40
0.0
  9
$DIMTXT
 40
0.18
  9
$DIMCEN
 40
0.09
  9
$DIMTSZ
 40
0.0
  9
$DIMTOL
 70
     0
  9
$DIMLIM
 70
     0
  9
$DIMTIH
 70
     1
  9
$DIMTOH
 70
     1
  9
$DIMSE1
 70
     0
  9
$DIMSE2
 70
     0
  9
$DIMTAD
 70
     0
  9
$DIMZIN
 70
     0
  9
$DIMBLK
  1

  9
$DIMASO
 70
     1
  9
$DIMSHO
 70
     1
  9
$DIMPOST
  1

  9
$DIMAPOST
  1

  9
$DIMALT
 70
     0
  9
$DIMALTD
 70
     2
  9
$DIMALTF
 40
25.4
  9
$DIMLFAC
 40
1.0
  9
$DIMTOFL
 70
     0
  9
$DIMTVP
 40
0.0
  9
$DIMTIX
 70
     0
  9
$DIMSOXD
 70
     0
  9
$DIMSAH
 70
     0
  9
$DIMBLK1
  1

  9
$DIMBLK2
  1

  9
$DIMSTYLE
  2
Standard
  9
$DIMCLRD
 70
     0
  9
$DIMCLRE
 70
     0
  9
$DIMCLRT
 70
     0
  9
$DIMTFAC
 40
1.0
  9
$DIMGAP
 40
0.09
  9
$DIMJUST
 70
     0
  9
$DIMSD1
 70
     0
  9
$DIMSD2
 70
     0
  9
$DIMTOLJ
 70
     1
  9
$DIMTZIN
 70
     0
  9
$DIMALTZ
 70
     0
  9
$DIMALTTZ
 70
     0
  9
$DIMUPT
 70
     0
  9
$DIMDEC
 70
     4
  9
$DIMTDEC
 70
     4
  9
$DIMALTU
 70
     2
  9
$DIMALTTD
 70
     2
  9
$DIMTXSTY
  7
Standard
  9
$DIMAUNIT
 70
     0
  9
$DIMADEC
 70
     0
  9
$DIMALTRND
 40
0.0
  9
$DIMAZIN
 70
     0
  9
$DIMDSEP
 70
    46
  9
$DIMATFIT
 70
     3
  9
$DIMFRAC
 70
     0
  9
$DIMLDRBLK
  1

  9
$DIMLUNIT
 70
     2
  9
$DIMLWD
 70
    -2
  9
$DIMLWE
 70
    -2
  9
$DIMTMOVE
 70
     0
  9
$DIMFXL
 40
1.0
  9
$DIMFXLON
 70
     0
  9
$DIMJOGANG
 40
0.7853981633974483
  9
$DIMTFILL
 70
     0
  9
$DIMTFILLCLR
 70
     0
  9
$DIMARCSYM
 70
     0
  9
$DIMLTYPE
  6

  9
$DIMLTEX1
  6

  9
$DIMLTEX2
  6

  9
$LUNITS
 70
     2
  9
$LUPREC
 70
     4
  9
$SKETCHINC
 40
0.1
  9
$FILLETRAD
 40
0.5
  9
$AUNITS
 70
     0
  9
$AUPREC
 70
     0
  9
$MENU
  1
.
  9
$ELEVATION
 40
0.0
  9
$PELEVATION
 40
0.0
  9
$THICKNESS
 40
0.0
  9
$LIMCHECK
 70
     0
  9
$CHAMFERA
 40
0.5
  9
$CHAMFERB
 40
0.5
  9
$CHAMFERC
 40
1.0
  9
$CHAMFERD
 40
0.0
  9
$SKPOLY
 70
     0
  9
$TDCREATE
 40
2458492.864791088
  9
$TDUCREATE
 40
2458492.864791088
  9
$TDUPDATE
 40
2458492.8647914
  9
$TDUUPDATE
 40
2458492.8647914
  9
$TDINDWG
 40
0.0000000116
  9
$TDUSRTIMER
 40
0.0000000116
  9
$USRTIMER
 70
     1
  9
$ANGBASE
 50
0.0
  9
$ANGDIR
 70
     0
  9
$PDMODE
 70
     0
  9
$PDSIZE
 40
0.0
  9
$PLINEWID
 40
0.0
  9
$SPLFRAME
 70
     0
  9
$SPLINETYPE
 70
     6
  9
$SPLINESEGS
 70
     8
  9
$HANDSEED
  5
BE
  9
$SURFTAB1
 70
     6
  9
$SURFTAB2
 70
     6
  9
$SURFTYPE
 70
     6
  9
$SURFU
 70
     6
  9
$SURFV
 70
     6
  9
$UCSBASE
  2

  9
$UCSNAME
  2

  9
$UCSORG
 10
0.0
 20
0.0
 30
0.0
  9
$UCSXDIR
 10
1.0
 20
0.0
 30
0.0
  9
$UCSYDIR
 10
0.0
 20
1.0
 30
0.0
  9
$UCSORTHOREF
  2

  9
$UCSORTHOVIEW
 70
     0
  9
$UCSORGTOP
 10
0.0
 20
0.0
 30
0.0
  9
$UCSORGBOTTOM
 10
0.0
 20
0.0
 30
0.0
  9
$UCSORGLEFT
 10
0.0
 20
0.0
 30
0.0
  9
$UCSORGRIGHT
 10
0.0
 20
0.0
 30
0.0
  9
$UCSORGFRONT
 10
0.0
 20
0.0
 30
0.0
  9
$UCSORGBACK
 10
0.0
 20
0.0
 30
0.0
  9
$PUCSBASE
  2

  9
$PUCSNAME
  2

  9
$PUCSORG
 10
0.0
 20
0.0
 30
0.0
  9
$PUCSXDIR
 10
1.0
 20
0.0
 30
0.0
  9
$PUCSYDIR
 10
0.0
 20
1.0
 30
0.0
  9
$PUCSORTHOREF
  2

  9
$PUCSORTHOVIEW
 70
     0
  9
$PUCSORGTOP
 10
0.0
 20
0.0
 30
0.0
  9
$PUCSORGBOTTOM
 10
0.0
 20
0.0
 30
0.0
  9
$PUCSORGLEFT
 10
0.0
 20
0.0
 30
0.0
  9
$PUCSORGRIGHT
 10
0.0
 20
0.0
 30
0.0
  9
$PUCSORGFRONT
 10
0.0
 20
0.0
 30
0.0
  9
$PUCSORGBACK
 10
0.0
 20
0.0
 30
0.0
  9
$USERI1
 70
     0
  9
$USERI2
 70
     0
  9
$USERI3
 70
     0
  9
$USERI4
 70
     0
  9
$USERI5
 70
     0
  9
$USERR1
 40
0.0
  9
$USERR2
 40
0.0
  9
$USERR3
 40
0.0
  9
$USERR4
 40
0.0
  9
$USERR5
 40
0.0
  9
$WORLDVIEW
 70
     1
  9
$SHADEDGE
 70
     3
  9
$SHADEDIF
 70
    70
  9
$TILEMODE
 70
     1
  9
$MAXACTVP
 70
    64
  9
$PINSBASE
 10
0.0
 20
0.0
 30
0.0
  9
$PLIMCHECK
 70
     0
  9
$PEXTMIN
 10
1.000000000000000E+20
 20
1.000000000000000E+20
 30
1.000000000000000E+20
  9
$PEXTMAX
 10
-1.000000000000000E+20
 20
-1.000000000000000E+20
 30
-1.000000000000000E+20
  9
$PLIMMIN
 10
0.0
 20
0.0
  9
$PLIMMAX
 10
12.0
 20
9.0
  9
$UNITMODE
 70
     0
  9
$VISRETAIN
 70
     1
  9
$PLINEGEN
 70
     0
  9
$PSLTSCALE
 70
     1
  9
$TREEDEPTH
 70
  3020
  9
$CMLSTYLE
  2
Standard
  9
$CMLJUST
 70
     0
  9
$CMLSCALE
 40
1.0
  9
$PROXYGRAPHICS
 70
     1
  9
$MEASUREMENT
 70
     0
  9
$CELWEIGHT
370
    -1
  9
$ENDCAPS
280
     0
  9
$JOINSTYLE
280
     0
  9
$LWDISPLAY
290
     0
  9
$INSUNITS
 70
     4
  9
$HYPERLINKBASE
  1

  9
$STYLESHEET
  1

  9
$XEDIT
290
     1
  9
$CEPSNTYPE
380
     0
  9
$PSTYLEMODE
290
     1
  9
$FINGERPRINTGUID
  2
{37EDA3A7-5D49-4BFF-9FC4-055A87965FAE}
  9
$VERSIONGUID
  2
{FAEB1C32-E019-11D5-929B-00C0DF256EC4}
  9
$EXTNAMES
290
     1
  9
$PSVPSCALE
 40
0.0
  9
$OLESTARTUP
290
     0
  9
$SORTENTS
280
   127
  9
$INDEXCTL
280
     0
  9
$HIDETEXT
280
     1
  9
$XCLIPFRAME
290
     0
  9
$HALOGAP
280
     0
  9
$OBSCOLOR
 70
   257
  9
$OBSLTYPE
280
     0
  9
$INTERSECTIONDISPLAY
280
     0
  9
$INTERSECTIONCOLOR
 70
   257
  9
$DIMASSOC
280
     2
  9
$PROJECTNAME
  1

  9
$CAMERADISPLAY
290
     0
  9
$LENSLENGTH
 40
50.0
  9
$CAMERAHEIGHT
 40
0.0
  9
$STEPSPERSEC
 40
2.0
  9
$STEPSIZE
 40
6.0
  9
$3DDWFPREC
 40
2.0
  9
$PSOLWIDTH
 40
0.25
  9
$PSOLHEIGHT
 40
4.0
  9
$LOFTANG1
 40
1.570796326794897
  9
$LOFTANG2
 40
1.570796326794897
  9
$LOFTMAG1
 40
0.0
  9
$LOFTMAG2
 40
0.0
  9
$LOFTPARAM
 70
     7
  9
$LOFTNORMALS
280
     1
  9
$LATITUDE
 40
37.795
  9
$LONGITUDE
 40
-122.394
  9
$NORTHDIRECTION
 40
0.0
  9
$TIMEZONE
 70
 -8000
  9
$LIGHTGLYPHDISPLAY
280
     1
  9
$TILEMODELIGHTSYNCH
280
     1
  9
$SOLIDHIST
280
     1
  9
$SHOWHIST
280
     1
  9
$DWFFRAME
280
     2
  9
$DGNFRAME
280
     2
  9
$REALWORLDSCALE
290
     1
  9
$INTERFERECOLOR
 62
   256
  9
$CSHADOW
280
     0
  9
$SHADOWPLANELOCATION
 40
0.0
  0
ENDSEC
  0
SECTION
  2
CLASSES
  0
CLASS
  1
ACDBDICTIONARYWDFLT
  2
AcDbDictionaryWithDefault
  3
ObjectDBX Classes
 90
        0
 91
        4
280
     0
281
     0
  0
CLASS
  1
VISUALSTYLE
  2
AcDbVisualStyle
  3
ObjectDBX Classes
 90
     4095
 91
        4
280
     0
281
     0
  0
CLASS
  1
MATERIAL
  2
AcDbMaterial
  3
ObjectDBX Classes
 90
     1153
 91
        4
280
     0
281
     0
  0
ENDSEC
  0
SECTION
  2
TABLES
  0
TABLE
  2
VPORT
  5
8
330
0
100
AcDbSymbolTable
 70
     1
  0
VPORT
  5
29
330
8
100
AcDbSymbolTableRecord
100
AcDbViewportTableRecord
  2
*Active
 70
     0
 10
0.0
 20
0.0
 11
1.0
 21
1.0
 12
10.42990654205607
 22
4.5
 13
0.0
 23
0.0
 14
0.5
 24
0.5
 15
0.5
 25
0.5
 16
0.0
 26
0.0
 36
1.0
 17
0.0
 27
0.0
 37
0.0
 40
9.0
 41
1.972972972850329
 42
50.0
 43
0.0
 44
0.0
 50
0.0
 51
0.0
 71
     0
 72
   100
 73
     1
 74
     3
 75
     0
 76
     0
 77
     0
 78
     0
281
     0
 65
     1
110
0.0
120
0.0
130
0.0
111
1.0
121
0.0
131
0.0
112
0.0
122
1.0
132
0.0
 79
     0
146
0.0
 60
     3
 61
     5
292
     1
282
     1
141
0.0
142
0.0
 63
   250
  0
ENDTAB
  0
TABLE
  2
LTYPE
  5
5
330
0
100
AcDbSymbolTable
 70
     1
  0
LTYPE
  5
14
330
5
100
AcDbSymbolTableRecord
100
AcDbLinetypeTableRecord
  2
ByBlock
 70
     0
  3

 72
    65
 73
     0
 40
0.0
  0
LTYPE
  5
15
330
5
100
AcDbSymbolTableRecord
100
AcDbLinetypeTableRecord
  2
ByLayer
 70
     0
  3

 72
    65
 73
     0
 40
0.0
  0
LTYPE
  5
16
330
5
100
AcDbSymbolTableRecord
100
AcDbLinetypeTableRecord
  2
Continuous
 70
     0
  3
Solid line
 72
    65
 73
     0
 40
0.0
  0
ENDTAB
  0
TABLE
  2
LAYER
  5
2
330
0
100
AcDbSymbolTable
 70
     3
  0
LAYER
  5
10
330
2
100
AcDbSymbolTableRecord
100
AcDbLayerTableRecord
  2
0
 70
     0
 62
     7
  6
Continuous
370
    -3
390
F
347
3E
  0
LAYER
  5
40
330
2
100
AcDbSymbolTableRecord
100
AcDbLayerTableRecord
  2
layer 1
 70
     0
 62
     7
  6
Continuous
370
    -3
390
F
347
3E
  0
LAYER
  5
9B
330
2
100
AcDbSymbolTableRecord
100
AcDbLayerTableRecord
  2
Master Guides
 70
     0
 62
     7
  6
Continuous
370
    -3
390
F
347
3E
  0
ENDTAB
  0
TABLE
  2
STYLE
  5
3
330
0
100
AcDbSymbolTable
 70
     1
  0
STYLE
  5
11
330
3
100
AcDbSymbolTableRecord
100
AcDbTextStyleTableRecord
  2
Standard
 70
     0
 40
0.0
 41
1.0
 50
0.0
 71
     0
 42
0.2
  3
txt
  4

  0
ENDTAB
  0
TABLE
  2
VIEW
  5
6
330
0
100
AcDbSymbolTable
 70
     0
  0
ENDTAB
  0
TABLE
  2
UCS
  5
7
330
0
100
AcDbSymbolTable
 70
     0
  0
ENDTAB
  0
TABLE
  2
APPID
  5
9
330
0
100
AcDbSymbolTable
 70
     2
  0
APPID
  5
12
330
9
100
AcDbSymbolTableRecord
100
AcDbRegAppTableRecord
  2
ACAD
 70
     0
  0
APPID
  5
3F
330
9
100
AcDbSymbolTableRecord
100
AcDbRegAppTableRecord
  2
ODA
 70
     0
  0
ENDTAB
  0
TABLE
  2
DIMSTYLE
  5
A
330
0
100
AcDbSymbolTable
 70
     1
100
AcDbDimStyleTable
  0
DIMSTYLE
105
27
330
A
100
AcDbSymbolTableRecord
100
AcDbDimStyleTableRecord
  2
Standard
 70
     0
178
     0
340
11
  0
ENDTAB
  0
TABLE
  2
BLOCK_RECORD
  5
1
330
0
100
AcDbSymbolTable
 70
     1
  0
BLOCK_RECORD
  5
1F
330
1
100
AcDbSymbolTableRecord
100
AcDbBlockTableRecord
  2
*Model_Space
340
22
 70
     0
280
     1
281
     0
  0
BLOCK_RECORD
  5
1B
330
1
100
AcDbSymbolTableRecord
100
AcDbBlockTableRecord
  2
*Paper_Space
340
1E
 70
     0
280
     1
281
     0
  0
BLOCK_RECORD
  5
23
330
1
100
AcDbSymbolTableRecord
100
AcDbBlockTableRecord
  2
*Paper_Space0
340
26
 70
     0
280
     1
281
     0
  0
ENDTAB
  0
ENDSEC
  0
SECTION
  2
BLOCKS
  0
BLOCK
  5
20
330
1F
100
AcDbEntity
  8
0
100
AcDbBlockBegin
  2
*Model_Space
 70
     0
 10
0.0
 20
0.0
 30
0.0
  3
*Model_Space
  1

  0
ENDBLK
  5
21
330
1F
100
AcDbEntity
  8
0
100
AcDbBlockEnd
  0
BLOCK
  5
1C
330
1B
100
AcDbEntity
 67
     1
  8
0
100
AcDbBlockBegin
  2
*Paper_Space
 70
     0
 10
0.0
 20
0.0
 30
0.0
  3
*Paper_Space
  1

  0
ENDBLK
  5
1D
330
1B
100
AcDbEntity
 67
     1
  8
0
100
AcDbBlockEnd
  0
BLOCK
  5
24
330
23
100
AcDbEntity
  8
0
100
AcDbBlockBegin
  2
*Paper_Space0
 70
     0
 10
0.0
 20
0.0
 30
0.0
  3
*Paper_Space0
  1

  0
ENDBLK
  5
25
330
23
100
AcDbEntity
  8
0
100
AcDbBlockEnd
  0
ENDSEC
  0
SECTION
  2
ENTITIES
  0
SPLINE
  5
41
330
1F
100
AcDbEntity
  8
layer 1
370
    13
100
AcDbSpline
210
0.0
220
0.0
230
1.0
 70
    11
 71
     3
 72
    20
 73
    16
 74
     0
 42
0.0000000001
 43
0.0000000001
 12
1.0
 22
0.0
 32
0.0
 13
1.0
 23
0.0
 33
0.0
 40
0.0
 40
0.0
 40
0.0
 40
0.0
 40
0.2
 40
0.2
 40
0.2
 40
0.2
 40
0.4
 40
0.4
 40
0.4
 40
0.4
 40
0.6
 40
0.6
 40
0.6
 40
0.6
 40
1.0
 40
1.0
 40
1.0
 40
1.0
 10
-38.6674
 20
-114.7732
 30
0.0
 10
-38.6674
 20
-114.7732
 30
0.0
 10
-38.6674
 20
131.6723
 30
0.0
 10
-38.6674
 20
131.6723
 30
0.0
 10
-38.6674
 20
131.6723
 30
0.0
 10
-38.6674
 20
131.6723
 30
0.0
 10
-187.0321
 20
131.6723
 30
0.0
 10
-187.0321
 20
131.6723
 30
0.0
 10
-187.0321
 20
131.6723
 30
0.0
 10
-187.0321
 20
131.6723
 30
0.0
 10
-187.0321
 20
-114.7732
 30
0.0
 10
-187.0321
 20
-114.7732
 30
0.0
 10
-187.0321
 20
-114.7732
 30
0.0
 10
-187.0321
 20
-114.7732
 30
0.0
 10
-38.6674
 20
-114.7732
 30
0.0
 10
-38.6674
 20
-114.7732
 30
0.0
  0
SPLINE
  5
42
330
1F
100
AcDbEntity
  8
layer 1
 62
     7
370
    25
100
AcDbSpline
210
0.0
220
0.0
230
1.0
 70
    11
 71
     3
 72
    24
 73
    20
 74
     0
 42
0.0000000001
 43
0.0000000001
 12
1.0
 22
0.0
 32
0.0
 13
1.0
 23
0.0
 33
0.0
 40
0.0
 40
0.0
 40
0.0
 40
0.0
 40
0.1666666666666667
 40
0.1666666666666667
 40
0.1666666666666667
 40
0.1666666666666667
 40
0.3333333333333333
 40
0.3333333333333333
 40
0.3333333333333333
 40
0.3333333333333333
 40
0.5
 40
0.5
 40
0.5
 40
0.5
 40
0.6666666666666666
 40
0.6666666666666666
 40
0.6666666666666666
 40
0.6666666666666666
 40
1.0
 40
1.0
 40
1.0
 40
1.0
 10
-135.362
 20
8.4744
 30
0.0
 10
-124.8997
 20
4.4079
 30
0.0
 10
-118.601
 20
-2.0553
 30
0.0
 10
-113.2918
 20
-10.9431
 30
0.0
 10
-113.2918
 20
-10.9431
 30
0.0
 10
-107.9826
 20
-2.0553
 30
0.0
 10
-101.6838
 20
4.4079
 30
0.0
 10
-91.2215
 20
8.4744
 30
0.0
 10
-91.2215
 20
8.4744
 30
0.0
 10
-99.897
 20
11.7405
 30
0.0
 10
-107.4359
 20
19.0692
 30
0.0
 10
-113.324
 20
27.8919
 30
0.0
 10
-113.324
 20
27.8919
 30
0.0
 10
-119.212
 20
19.0692
 30
0.0
 10
-126.6866
 20
11.7405
 30
0.0
 10
-135.3621
 20
8.4744
 30
0.0
 10
-135.3621
 20
8.4744
 30
0.0
 10
-135.3621
 20
8.4744
 30
0.0
 10
-135.362
 20
8.4744
 30
0.0
 10
-135.362
 20
8.4744
 30
0.0
  0
SPLINE
  5
43
330
1F
100
AcDbEntity
  8
layer 1
 62
     7
370
    25
100
AcDbSpline
210
0.0
220
0.0
230
1.0
 70
    11
 71
     3
 72
    20
 73
    16
 74
     0
 42
0.0000000001
 43
0.0000000001
 12
1.0
 22
0.0
 32
0.0
 13
1.0
 23
0.0
 33
0.0
 40
0.0
 40
0.0
 40
0.0
 40
0.0
 40
0.2
 40
0.2
 40
0.2
 40
0.2
 40
0.4
 40
0.4
 40
0.4
 40
0.4
 40
0.6
 40
0.6
 40
0.6
 40
0.6
 40
1.0
 40
1.0
 40
1.0
 40
1.0
 10
-132.2275
 20
51.6928
 30
0.0
 10
-125.6099
 20
56.12
 30
0.0
 10
-116.1687
 20
52.933
 30
0.0
 10
-113.324
 20
47.0144
 30
0.0
 10
-113.324
 20
47.0144
 30
0.0
 10
-110.4792
 20
52.5187
 30
0.0
 10
-100.9737
 20
56.12
 30
0.0
 10
-94.3562
 20
51.6928
 30
0.0
 10
-94.3562
 20
51.6928
 30
0.0
 10
-103.984
 20
61.9945
 30
0.0
 10
-110.9984
 20
79.8578
 30
0.0
 10
-113.324
 20
96.4201
 30
0.0
 10
-113.324
 20
96.4201
 30
0.0
 10
-115.6495
 20
79.7197
 30
0.0
 10
-122.5996
 20
61.9945
 30
0.0
 10
-132.2275
 20
51.6928
 30
0.0
  0
SPLINE
  5
44
330
1F
100
AcDbEntity
  8
layer 1
 62
     7
370
    25
100
AcDbSpline
210
0.0
220
0.0
230
1.0
 70
    11
 71
     3
 72
    24
 73
    20
 74
     0
 42
0.0000000001
 43
0.0000000001
 12
1.0
 22
0.0
 32
0.0
 13
1.0
 23
0.0
 33
0.0
 40
0.0
 40
0.0
 40
0.0
 40
0.0
 40
0.1666666666666667
 40
0.1666666666666667
 40
0.1666666666666667
 40
0.1666666666666667
 40
0.3333333333333333
 40
0.3333333333333333
 40
0.3333333333333333
 40
0.3333333333333333
 40
0.5
 40
0.5
 40
0.5
 40
0.5
 40
0.6666666666666666
 40
0.6666666666666666
 40
0.6666666666666666
 40
0.6666666666666666
 40
1.0
 40
1.0
 40
1.0
 40
1.0
 10
-126.0533
 20
46.7524
 30
0.0
 10
-129.5018
 20
46.6666
 30
0.0
 10
-131.5705
 20
44.9615
 30
0.0
 10
-131.8456
 20
41.1618
 30
0.0
 10
-131.8456
 20
41.1618
 30
0.0
 10
-121.7218
 20
43.5136
 30
0.0
 10
-121.6196
 20
30.9036
 30
0.0
 10
-129.7722
 20
30.8671
 30
0.0
 10
-129.7722
 20
30.8671
 30
0.0
 10
-126.7121
 20
29.0819
 30
0.0
 10
-124.5293
 20
26.8501
 30
0.0
 10
-122.5516
 20
23.9853
 30
0.0
 10
-122.5516
 20
23.9853
 30
0.0
 10
-119.482
 20
27.1934
 30
0.0
 10
-117.371
 20
32.1731
 30
0.0
 10
-116.7874
 20
35.7336
 30
0.0
 10
-116.7874
 20
35.7336
 30
0.0
 10
-116.0474
 20
42.5134
 30
0.0
 10
-120.7818
 20
46.7304
 30
0.0
 10
-126.0533
 20
46.7524
 30
0.0
  0
SPLINE
  5
45
330
1F
100
AcDbEntity
  8
layer 1
 62
     7
370
    25
100
AcDbSpline
210
0.0
220
0.0
230
1.0
 70
    11
 71
     3
 72
    16
 73
    12
 74
     0
 42
0.0000000001
 43
0.0000000001
 12
1.0
 22
0.0
 32
0.0
 13
1.0
 23
0.0
 33
0.0
 40
0.0
 40
0.0
 40
0.0
 40
0.0
 40
0.25
 40
0.25
 40
0.25
 40
0.25
 40
0.5
 40
0.5
 40
0.5
 40
0.5
 40
1.0
 40
1.0
 40
1.0
 40
1.0
 10
-117.6747
 20
125.0799
 30
0.0
 10
-117.6747
 20
125.0799
 30
0.0
 10
-136.2176
 20
125.0799
 30
0.0
 10
-136.2176
 20
125.0799
 30
0.0
 10
-136.2176
 20
125.0799
 30
0.0
 10
-122.8136
 20
121.1081
 30
0.0
 10
-119.3444
 20
114.4523
 30
0.0
 10
-118.4055
 20
98.884
 30
0.0
 10
-118.4055
 20
98.884
 30
0.0
 10
-116.7599
 20
105.6812
 30
0.0
 10
-116.3979
 20
116.999
 30
0.0
 10
-117.6747
 20
125.0799
 30
0.0
  0
SPLINE
  5
46
330
1F
100
AcDbEntity
  8
layer 1
 62
     7
370
    25
100
AcDbSpline
210
0.0
220
0.0
230
1.0
 70
    11
 71
     3
 72
    16
 73
    12
 74
     0
 42
0.0000000001
 43
0.0000000001
 12
1.0
 22
0.0
 32
0.0
 13
1.0
 23
0.0
 33
0.0
 40
0.0
 40
0.0
 40
0.0
 40
0.0
 40
0.25
 40
0.25
 40
0.25
 40
0.25
 40
0.5
 40
0.5
 40
0.5
 40
0.5
 40
1.0
 40
1.0
 40
1.0
 40
1.0
 10
-126.3226
 20
112.8274
 30
0.0
 10
-128.6391
 20
110.6746
 30
0.0
 10
-129.4286
 20
109.8219
 30
0.0
 10
-132.4081
 20
107.0777
 30
0.0
 10
-132.4081
 20
107.0777
 30
0.0
 10
-128.9414
 20
107.9914
 30
0.0
 10
-125.3452
 20
106.9015
 30
0.0
 10
-123.2492
 20
103.6728
 30
0.0
 10
-123.2492
 20
103.6728
 30
0.0
 10
-123.0792
 20
106.1029
 30
0.0
 10
-124.3202
 20
111.5933
 30
0.0
 10
-126.3226
 20
112.8274
 30
0.0
  0
SPLINE
  5
47
330
1F
100
AcDbEntity
  8
layer 1
 62
     7
370
    25
100
AcDbSpline
210
0.0
220
0.0
230
1.0
 70
    11
 71
     3
 72
    16
 73
    12
 74
     0
 42
0.0000000001
 43
0.0000000001
 12
1.0
 22
0.0
 32
0.0
 13
1.0
 23
0.0
 33
0.0
 40
0.0
 40
0.0
 40
0.0
 40
0.0
 40
0.25
 40
0.25
 40
0.25
 40
0.25
 40
0.5
 40
0.5
 40
0.5
 40
0.5
 40
1.0
 40
1.0
 40
1.0
 40
1.0
 10
-126.3561
 20
74.82
 30
0.0
 10
-130.4552
 20
70.3751
 30
0.0
 10
-135.2337
 20
67.4825
 30
0.0
 10
-139.689
 20
66.5696
 30
0.0
 10
-139.689
 20
66.5696
 30
0.0
 10
-136.7154
 20
64.9672
 30
0.0
 10
-135.1131
 20
61.2157
 30
0.0
 10
-134.994
 20
57.6604
 30
0.0
 10
-134.994
 20
57.6604
 30
0.0
 10
-131.0125
 20
62.7784
 30
0.0
 10
-128.1318
 20
69.0554
 30
0.0
 10
-126.3561
 20
74.82
 30
0.0
  0
SPLINE
  5
48
330
1F
100
AcDbEntity
  8
layer 1
 62
     7
370
    25
100
AcDbSpline
210
0.0
220
0.0
230
1.0
 70
    11
 71
     3
 72
    36
 73
    32
 74
     0
 42
0.0000000001
 43
0.0000000001
 12
1.0
 22
0.0
 32
0.0
 13
1.0
 23
0.0
 33
0.0
 40
0.0
 40
0.0
 40
0.0
 40
0.0
 40
0.1111111111111111
 40
0.1111111111111111
 40
0.1111111111111111
 40
0.1111111111111111
 40
0.2222222222222222
 40
0.2222222222222222
 40
0.2222222222222222
 40
0.2222222222222222
 40
0.3333333333333333
 40
0.3333333333333333
 40
0.3333333333333333
 40
0.3333333333333333
 40
0.4444444444444444
 40
0.4444444444444444
 40
0.4444444444444444
 40
0.4444444444444444
 40
0.5555555555555556
 40
0.5555555555555556
 40
0.5555555555555556
 40
0.5555555555555556
 40
0.6666666666666666
 40
0.6666666666666666
 40
0.6666666666666666
 40
0.6666666666666666
 40
0.7777777777777778
 40
0.7777777777777778
 40
0.7777777777777778
 40
0.7777777777777778
 40
1.0
 40
1.0
 40
1.0
 40
1.0
 10
-138.4422
 20
29.2538
 30
0.0
 10
-143.6893
 20
30.2447
 30
0.0
 10
-147.9843
 20
28.4612
 30
0.0
 10
-149.3399
 20
23.5251
 30
0.0
 10
-149.3399
 20
23.5251
 30
0.0
 10
-149.7675
 20
21.0677
 30
0.0
 10
-150.0431
 20
16.5629
 30
0.0
 10
-146.8813
 20
16.1224
 30
0.0
 10
-146.8813
 20
16.1224
 30
0.0
 10
-147.9952
 20
20.1804
 30
0.0
 10
-145.3343
 20
23.4072
 30
0.0
 10
-141.2861
 20
22.2338
 30
0.0
 10
-141.2861
 20
22.2338
 30
0.0
 10
-137.7973
 20
21.1312
 30
0.0
 10
-137.4563
 20
15.3546
 30
0.0
 10
-140.2728
 20
13.5116
 30
0.0
 10
-140.2728
 20
13.5116
 30
0.0
 10
-140.5806
 20
13.2562
 30
0.0
 10
-140.5223
 20
12.9574
 30
0.0
 10
-140.1843
 20
13.0579
 30
0.0
 10
-140.1843
 20
13.0579
 30
0.0
 10
-134.8517
 20
14.0066
 30
0.0
 10
-128.8409
 20
17.4028
 30
0.0
 10
-125.7339
 20
20.5739
 30
0.0
 10
-125.7339
 20
20.5739
 30
0.0
 10
-130.4389
 20
25.0627
 30
0.0
 10
-132.9432
 20
27.9953
 30
0.0
 10
-138.4422
 20
29.2538
 30
0.0
 10
-138.4422
 20
29.2538
 30
0.0
 10
-138.4422
 20
29.2538
 30
0.0
 10
-138.4422
 20
29.2538
 30
0.0
 10
-138.4422
 20
29.2538
 30
0.0
  0
SPLINE
  5
49
330
1F
100
AcDbEntity
  8
layer 1
 62
     7
370
    25
100
AcDbSpline
210
0.0
220
0.0
230
1.0
 70
    11
 71
     3
 72
    16
 73
    12
 74
     0
 42
0.0000000001
 43
0.0000000001
 12
1.0
 22
0.0
 32
0.0
 13
1.0
 23
0.0
 33
0.0
 40
0.0
 40
0.0
 40
0.0
 40
0.0
 40
0.25
 40
0.25
 40
0.25
 40
0.25
 40
0.5
 40
0.5
 40
0.5
 40
0.5
 40
1.0
 40
1.0
 40
1.0
 40
1.0
 10
-131.0054
 20
117.5247
 30
0.0
 10
-134.2714
 20
119.7256
 30
0.0
 10
-137.7678
 20
120.5711
 30
0.0
 10
-141.0861
 20
120.8174
 30
0.0
 10
-141.0861
 20
120.8174
 30
0.0
 10
-138.2867
 20
119.0958
 30
0.0
 10
-136.6009
 20
115.827
 30
0.0
 10
-138.171
 20
110.0949
 30
0.0
 10
-138.171
 20
110.0949
 30
0.0
 10
-135.6022
 20
112.6698
 30
0.0
 10
-133.9478
 20
114.4343
 30
0.0
 10
-131.0054
 20
117.5247
 30
0.0
  0
SPLINE
  5
4A
330
1F
100
AcDbEntity
  8
layer 1
 62
     7
370
    25
100
AcDbSpline
210
0.0
220
0.0
230
1.0
 70
    11
 71
     3
 72
    16
 73
    12
 74
     0
 42
0.0000000001
 43
0.0000000001
 12
1.0
 22
0.0
 32
0.0
 13
1.0
 23
0.0
 33
0.0
 40
0.0
 40
0.0
 40
0.0
 40
0.0
 40
0.25
 40
0.25
 40
0.25
 40
0.25
 40
0.5
 40
0.5
 40
0.5
 40
0.5
 40
1.0
 40
1.0
 40
1.0
 40
1.0
 10
-137.5173
 20
44.2338
 30
0.0
 10
-140.2516
 20
40.5457
 30
0.0
 10
-143.9442
 20
36.3546
 30
0.0
 10
-146.869
 20
33.0128
 30
0.0
 10
-146.869
 20
33.0128
 30
0.0
 10
-143.6208
 20
34.7977
 30
0.0
 10
-139.4018
 20
34.8177
 30
0.0
 10
-136.312
 20
33.7392
 30
0.0
 10
-136.312
 20
33.7392
 30
0.0
 10
-138.2292
 20
36.5335
 30
0.0
 10
-138.8128
 20
40.8597
 30
0.0
 10
-137.5173
 20
44.2338
 30
0.0
  0
SPLINE
  5
4B
330
1F
100
AcDbEntity
  8
layer 1
 62
     7
370
    25
100
AcDbSpline
210
0.0
220
0.0
230
1.0
 70
    11
 71
     3
 72
    20
 73
    16
 74
     0
 42
0.0000000001
 43
0.0000000001
 12
1.0
 22
0.0
 32
0.0
 13
1.0
 23
0.0
 33
0.0
 40
0.0
 40
0.0
 40
0.0
 40
0.0
 40
0.2
 40
0.2
 40
0.2
 40
0.2
 40
0.4
 40
0.4
 40
0.4
 40
0.4
 40
0.6
 40
0.6
 40
0.6
 40
0.6
 40
1.0
 40
1.0
 40
1.0
 40
1.0
 10
-139.5061
 20
78.8937
 30
0.0
 10
-141.5213
 20
74.9328
 30
0.0
 10
-148.8482
 20
76.0704
 30
0.0
 10
-149.0581
 20
81.4211
 30
0.0
 10
-149.0581
 20
81.4211
 30
0.0
 10
-154.6986
 20
73.5279
 30
0.0
 10
-144.1867
 20
67.6657
 30
0.0
 10
-136.4384
 20
73.5359
 30
0.0
 10
-136.4384
 20
73.5359
 30
0.0
 10
-137.7274
 20
74.8454
 30
0.0
 10
-138.8352
 20
77.2595
 30
0.0
 10
-139.5061
 20
78.8937
 30
0.0
 10
-139.5061
 20
78.8937
 30
0.0
 10
-139.5061
 20
78.8937
 30
0.0
 10
-139.5061
 20
78.8937
 30
0.0
 10
-139.5061
 20
78.8937
 30
0.0
  0
SPLINE
  5
4C
330
1F
100
AcDbEntity
  8
layer 1
 62
     7
370
    25
100
AcDbSpline
210
0.0
220
0.0
230
1.0
 70
    11
 71
     3
 72
    20
 73
    16
 74
     0
 42
0.0000000001
 43
0.0000000001
 12
1.0
 22
0.0
 32
0.0
 13
1.0
 23
0.0
 33
0.0
 40
0.0
 40
0.0
 40
0.0
 40
0.0
 40
0.2
 40
0.2
 40
0.2
 40
0.2
 40
0.4
 40
0.4
 40
0.4
 40
0.4
 40
0.6
 40
0.6
 40
0.6
 40
0.6
 40
1.0
 40
1.0
 40
1.0
 40
1.0
 10
-141.2142
 20
97.502
 30
0.0
 10
-143.4052
 20
94.6285
 30
0.0
 10
-146.3596
 20
90.958
 30
0.0
 10
-148.6974
 20
88.0271
 30
0.0
 10
-148.6974
 20
88.0271
 30
0.0
 10
-145.7119
 20
88.6524
 30
0.0
 10
-143.8414
 20
87.8871
 30
0.0
 10
-141.6505
 20
86.2942
 30
0.0
 10
-141.6505
 20
86.2942
 30
0.0
 10
-142.3884
 20
90.8645
 30
0.0
 10
-141.8501
 20
94.0494
 30
0.0
 10
-141.2142
 20
97.502
 30
0.0
 10
-141.2142
 20
97.502
 30
0.0
 10
-141.2142
 20
97.502
 30
0.0
 10
-141.2142
 20
97.502
 30
0.0
 10
-141.2142
 20
97.502
 30
0.0
  0
SPLINE
  5
4D
330
1F
100
AcDbEntity
  8
layer 1
 62
     7
370
    25
100
AcDbSpline
210
0.0
220
0.0
230
1.0
 70
    11
 71
     3
 72
    20
 73
    16
 74
     0
 42
0.0000000001
 43
0.0000000001
 12
1.0
 22
0.0
 32
0.0
 13
1.0
 23
0.0
 33
0.0
 40
0.0
 40
0.0
 40
0.0
 40
0.0
 40
0.2
 40
0.2
 40
0.2
 40
0.2
 40
0.4
 40
0.4
 40
0.4
 40
0.4
 40
0.6
 40
0.6
 40
0.6
 40
0.6
 40
1.0
 40
1.0
 40
1.0
 40
1.0
 10
-154.9883
 20
60.6049
 30
0.0
 10
-153.5342
 20
60.0336
 30
0.0
 10
-152.0954
 20
57.009
 30
0.0
 10
-151.9754
 20
54.9566
 30
0.0
 10
-151.9754
 20
54.9566
 30
0.0
 10
-150.5429
 20
58.4404
 30
0.0
 10
-143.5752
 20
59.1841
 30
0.0
 10
-142.4414
 20
52.6424
 30
0.0
 10
-142.4414
 20
52.6424
 30
0.0
 10
-137.5007
 20
62.273
 30
0.0
 10
-148.1879
 20
66.385
 30
0.0
 10
-154.9883
 20
60.6049
 30
0.0
 10
-154.9883
 20
60.6049
 30
0.0
 10
-154.9883
 20
60.6049
 30
0.0
 10
-154.9883
 20
60.6049
 30
0.0
 10
-154.9883
 20
60.6049
 30
0.0
  0
SPLINE
  5
4E
330
1F
100
AcDbEntity
  8
layer 1
 62
     7
370
    25
100
AcDbSpline
210
0.0
220
0.0
230
1.0
 70
    11
 71
     3
 72
    20
 73
    16
 74
     0
 42
0.0000000001
 43
0.0000000001
 12
1.0
 22
0.0
 32
0.0
 13
1.0
 23
0.0
 33
0.0
 40
0.0
 40
0.0
 40
0.0
 40
0.0
 40
0.2
 40
0.2
 40
0.2
 40
0.2
 40
0.4
 40
0.4
 40
0.4
 40
0.4
 40
0.6
 40
0.6
 40
0.6
 40
0.6
 40
1.0
 40
1.0
 40
1.0
 40
1.0
 10
-149.8367
 20
47.7598
 30
0.0
 10
-149.5288
 20
44.5805
 30
0.0
 10
-149.3818
 20
40.3377
 30
0.0
 10
-150.2345
 20
37.2101
 30
0.0
 10
-150.2345
 20
37.2101
 30
0.0
 10
-148.3169
 20
39.4986
 30
0.0
 10
-145.3785
 20
42.9193
 30
0.0
 10
-142.9926
 20
45.9495
 30
0.0
 10
-142.9926
 20
45.9495
 30
0.0
 10
-146.4546
 20
45.1655
 30
0.0
 10
-149.006
 20
46.1422
 30
0.0
 10
-149.8367
 20
47.7598
 30
0.0
 10
-149.8367
 20
47.7598
 30
0.0
 10
-149.8367
 20
47.7598
 30
0.0
 10
-149.8367
 20
47.7598
 30
0.0
 10
-149.8367
 20
47.7598
 30
0.0
  0
SPLINE
  5
4F
330
1F
100
AcDbEntity
  8
layer 1
 62
     7
370
    25
100
AcDbSpline
210
0.0
220
0.0
230
1.0
 70
    11
 71
     3
 72
    20
 73
    16
 74
     0
 42
0.0000000001
 43
0.0000000001
 12
1.0
 22
0.0
 32
0.0
 13
1.0
 23
0.0
 33
0.0
 40
0.0
 40
0.0
 40
0.0
 40
0.0
 40
0.2
 40
0.2
 40
0.2
 40
0.2
 40
0.4
 40
0.4
 40
0.4
 40
0.4
 40
0.6
 40
0.6
 40
0.6
 40
0.6
 40
1.0
 40
1.0
 40
1.0
 40
1.0
 10
-155.273
 20
100.4648
 30
0.0
 10
-153.3786
 20
99.0589
 30
0.0
 10
-152.8951
 20
95.1743
 30
0.0
 10
-153.7083
 20
91.5511
 30
0.0
 10
-153.7083
 20
91.5511
 30
0.0
 10
-151.2139
 20
94.6052
 30
0.0
 10
-149.2791
 20
97.5641
 30
0.0
 10
-146.767
 20
100.3177
 30
0.0
 10
-146.767
 20
100.3177
 30
0.0
 10
-150.0125
 20
99.5199
 30
0.0
 10
-152.6657
 20
99.605
 30
0.0
 10
-155.273
 20
100.4648
 30
0.0
 10
-155.273
 20
100.4648
 30
0.0
 10
-155.273
 20
100.4648
 30
0.0
 10
-155.273
 20
100.4648
 30
0.0
 10
-155.273
 20
100.4648
 30
0.0
  0
SPLINE
  5
50
330
1F
100
AcDbEntity
  8
layer 1
 62
     7
370
    25
100
AcDbSpline
210
0.0
220
0.0
230
1.0
 70
    11
 71
     3
 72
    16
 73
    12
 74
     0
 42
0.0000000001
 43
0.0000000001
 12
1.0
 22
0.0
 32
0.0
 13
1.0
 23
0.0
 33
0.0
 40
0.0
 40
0.0
 40
0.0
 40
0.0
 40
0.25
 40
0.25
 40
0.25
 40
0.25
 40
0.5
 40
0.5
 40
0.5
 40
0.5
 40
1.0
 40
1.0
 40
1.0
 40
1.0
 10
-152.6625
 20
26.8555
 30
0.0
 10
-155.6641
 20
23.8852
 30
0.0
 10
-159.3374
 20
20.2862
 30
0.0
 10
-162.1266
 20
17.7465
 30
0.0
 10
-162.1266
 20
17.7465
 30
0.0
 10
-159.6098
 20
15.4725
 30
0.0
 10
-155.0512
 20
13.9071
 30
0.0
 10
-150.9197
 20
13.2974
 30
0.0
 10
-150.9197
 20
13.2974
 30
0.0
 10
-155.3038
 20
16.0233
 30
0.0
 10
-155.0256
 20
23.5077
 30
0.0
 10
-152.6625
 20
26.8555
 30
0.0
  0
SPLINE
  5
51
330
1F
100
AcDbEntity
  8
layer 1
 62
     7
370
    25
100
AcDbSpline
210
0.0
220
0.0
230
1.0
 70
    11
 71
     3
 72
    16
 73
    12
 74
     0
 42
0.0000000001
 43
0.0000000001
 12
1.0
 22
0.0
 32
0.0
 13
1.0
 23
0.0
 33
0.0
 40
0.0
 40
0.0
 40
0.0
 40
0.0
 40
0.25
 40
0.25
 40
0.25
 40
0.25
 40
0.5
 40
0.5
 40
0.5
 40
0.5
 40
1.0
 40
1.0
 40
1.0
 40
1.0
 10
-156.7302
 20
76.0865
 30
0.0
 10
-159.3304
 20
70.265
 30
0.0
 10
-161.518
 20
65.7777
 30
0.0
 10
-165.1497
 20
59.4902
 30
0.0
 10
-165.1497
 20
59.4902
 30
0.0
 10
-160.3725
 20
63.6246
 30
0.0
 10
-155.8464
 20
66.68
 30
0.0
 10
-152.0857
 20
67.4048
 30
0.0
 10
-152.0857
 20
67.4048
 30
0.0
 10
-154.7214
 20
68.3
 30
0.0
 10
-157.2351
 20
71.9045
 30
0.0
 10
-156.7302
 20
76.0865
 30
0.0
  0
SPLINE
  5
52
330
1F
100
AcDbEntity
  8
layer 1
 62
     7
370
    25
100
AcDbSpline
210
0.0
220
0.0
230
1.0
 70
    11
 71
     3
 72
    24
 73
    20
 74
     0
 42
0.0000000001
 43
0.0000000001
 12
1.0
 22
0.0
 32
0.0
 13
1.0
 23
0.0
 33
0.0
 40
0.0
 40
0.0
 40
0.0
 40
0.0
 40
0.1666666666666667
 40
0.1666666666666667
 40
0.1666666666666667
 40
0.1666666666666667
 40
0.3333333333333333
 40
0.3333333333333333
 40
0.3333333333333333
 40
0.3333333333333333
 40
0.5
 40
0.5
 40
0.5
 40
0.5
 40
0.6666666666666666
 40
0.6666666666666666
 40
0.6666666666666666
 40
0.6666666666666666
 40
1.0
 40
1.0
 40
1.0
 40
1.0
 10
-159.1964
 20
57.8342
 30
0.0
 10
-163.83
 20
54.5121
 30
0.0
 10
-166.9846
 20
46.8084
 30
0.0
 10
-167.912
 20
42.2197
 30
0.0
 10
-167.912
 20
42.2197
 30
0.0
 10
-165.1975
 20
45.5933
 30
0.0
 10
-160.4479
 20
44.7299
 30
0.0
 10
-159.5279
 20
40.7721
 30
0.0
 10
-159.5279
 20
40.7721
 30
0.0
 10
-158.5467
 20
36.4759
 30
0.0
 10
-162.221
 20
34.0454
 30
0.0
 10
-166.0544
 20
35.7461
 30
0.0
 10
-166.0544
 20
35.7461
 30
0.0
 10
-166.8989
 20
28.7745
 30
0.0
 10
-156.9756
 20
29.0362
 30
0.0
 10
-155.1161
 20
36.1612
 30
0.0
 10
-155.1161
 20
36.1612
 30
0.0
 10
-153.3563
 20
44.1658
 30
0.0
 10
-155.1985
 20
50.4442
 30
0.0
 10
-159.1964
 20
57.8342
 30
0.0
  0
SPLINE
  5
53
330
1F
100
AcDbEntity
  8
layer 1
 62
     7
370
    25
100
AcDbSpline
210
0.0
220
0.0
230
1.0
 70
    11
 71
     3
 72
    16
 73
    12
 74
     0
 42
0.0000000001
 43
0.0000000001
 12
1.0
 22
0.0
 32
0.0
 13
1.0
 23
0.0
 33
0.0
 40
0.0
 40
0.0
 40
0.0
 40
0.0
 40
0.25
 40
0.25
 40
0.25
 40
0.25
 40
0.5
 40
0.5
 40
0.5
 40
0.5
 40
1.0
 40
1.0
 40
1.0
 40
1.0
 10
-179.9897
 20
125.0799
 30
0.0
 10
-179.9897
 20
125.0799
 30
0.0
 10
-179.9897
 20
102.2994
 30
0.0
 10
-179.9897
 20
102.2994
 30
0.0
 10
-179.9897
 20
102.2994
 30
0.0
 10
-177.3545
 20
112.7681
 30
0.0
 10
-169.2834
 20
122.2843
 30
0.0
 10
-157.7896
 20
125.0799
 30
0.0
 10
-157.7896
 20
125.0799
 30
0.0
 10
-157.7896
 20
125.0799
 30
0.0
 10
-179.9897
 20
125.0799
 30
0.0
 10
-179.9897
 20
125.0799
 30
0.0
  0
SPLINE
  5
54
330
1F
100
AcDbEntity
  8
layer 1
 62
     7
370
    25
100
AcDbSpline
210
0.0
220
0.0
230
1.0
 70
    11
 71
     3
 72
    16
 73
    12
 74
     0
 42
0.0000000001
 43
0.0000000001
 12
1.0
 22
0.0
 32
0.0
 13
1.0
 23
0.0
 33
0.0
 40
0.0
 40
0.0
 40
0.0
 40
0.0
 40
0.25
 40
0.25
 40
0.25
 40
0.25
 40
0.5
 40
0.5
 40
0.5
 40
0.5
 40
1.0
 40
1.0
 40
1.0
 40
1.0
 10
-168.1406
 20
30.2556
 30
0.0
 10
-168.0211
 20
27.616
 30
0.0
 10
-166.8871
 20
24.5326
 30
0.0
 10
-165.2479
 20
21.4708
 30
0.0
 10
-165.2479
 20
21.4708
 30
0.0
 10
-165.0725
 20
21.5293
 30
0.0
 10
-161.7902
 20
24.87
 30
0.0
 10
-159.6743
 20
26.9609
 30
0.0
 10
-159.6743
 20
26.9609
 30
0.0
 10
-163.9281
 20
27.3892
 30
0.0
 10
-165.494
 20
28.0715
 30
0.0
 10
-168.1406
 20
30.2556
 30
0.0
  0
SPLINE
  5
55
330
1F
100
AcDbEntity
  8
layer 1
 62
     7
370
    25
100
AcDbSpline
210
0.0
220
0.0
230
1.0
 70
    11
 71
     3
 72
    16
 73
    12
 74
     0
 42
0.0000000001
 43
0.0000000001
 12
1.0
 22
0.0
 32
0.0
 13
1.0
 23
0.0
 33
0.0
 40
0.0
 40
0.0
 40
0.0
 40
0.0
 40
0.25
 40
0.25
 40
0.25
 40
0.25
 40
0.5
 40
0.5
 40
0.5
 40
0.5
 40
1.0
 40
1.0
 40
1.0
 40
1.0
 10
-160.0612
 20
82.0452
 30
0.0
 10
-167.3926
 20
78.3398
 30
0.0
 10
-178.6826
 20
83.8151
 30
0.0
 10
-179.9898
 20
89.8807
 30
0.0
 10
-179.9898
 20
89.8807
 30
0.0
 10
-179.9898
 20
89.8807
 30
0.0
 10
-179.9898
 20
28.2308
 30
0.0
 10
-179.9898
 20
28.2308
 30
0.0
 10
-179.9898
 20
28.2308
 30
0.0
 10
-176.0875
 20
48.9719
 30
0.0
 10
-170.2778
 20
65.1708
 30
0.0
 10
-160.0612
 20
82.0452
 30
0.0
  0
SPLINE
  5
56
330
1F
100
AcDbEntity
  8
layer 1
 62
     7
370
    25
100
AcDbSpline
210
0.0
220
0.0
230
1.0
 70
    11
 71
     3
 72
    36
 73
    32
 74
     0
 42
0.0000000001
 43
0.0000000001
 12
1.0
 22
0.0
 32
0.0
 13
1.0
 23
0.0
 33
0.0
 40
0.0
 40
0.0
 40
0.0
 40
0.0
 40
0.1111111111111111
 40
0.1111111111111111
 40
0.1111111111111111
 40
0.1111111111111111
 40
0.2222222222222222
 40
0.2222222222222222
 40
0.2222222222222222
 40
0.2222222222222222
 40
0.3333333333333333
 40
0.3333333333333333
 40
0.3333333333333333
 40
0.3333333333333333
 40
0.4444444444444444
 40
0.4444444444444444
 40
0.4444444444444444
 40
0.4444444444444444
 40
0.5555555555555556
 40
0.5555555555555556
 40
0.5555555555555556
 40
0.5555555555555556
 40
0.6666666666666666
 40
0.6666666666666666
 40
0.6666666666666666
 40
0.6666666666666666
 40
0.7777777777777778
 40
0.7777777777777778
 40
0.7777777777777778
 40
0.7777777777777778
 40
1.0
 40
1.0
 40
1.0
 40
1.0
 10
-153.2609
 20
104.8369
 30
0.0
 10
-148.0137
 20
103.846
 30
0.0
 10
-143.7187
 20
105.6295
 30
0.0
 10
-142.3631
 20
110.5655
 30
0.0
 10
-142.3631
 20
110.5655
 30
0.0
 10
-141.9355
 20
113.023
 30
0.0
 10
-141.6599
 20
117.5278
 30
0.0
 10
-144.8217
 20
117.9682
 30
0.0
 10
-144.8217
 20
117.9682
 30
0.0
 10
-143.7078
 20
113.9103
 30
0.0
 10
-146.3687
 20
110.6834
 30
0.0
 10
-150.4169
 20
111.8569
 30
0.0
 10
-150.4169
 20
111.8569
 30
0.0
 10
-153.9058
 20
112.9595
 30
0.0
 10
-154.2467
 20
118.7361
 30
0.0
 10
-151.4302
 20
120.579
 30
0.0
 10
-151.4302
 20
120.579
 30
0.0
 10
-151.1224
 20
120.8345
 30
0.0
 10
-151.1807
 20
121.1332
 30
0.0
 10
-151.5188
 20
121.0328
 30
0.0
 10
-151.5188
 20
121.0328
 30
0.0
 10
-156.8513
 20
120.0841
 30
0.0
 10
-162.8621
 20
116.6879
 30
0.0
 10
-165.9691
 20
113.5168
 30
0.0
 10
-165.9691
 20
113.5168
 30
0.0
 10
-161.2642
 20
109.028
 30
0.0
 10
-158.7598
 20
106.0953
 30
0.0
 10
-153.2608
 20
104.8369
 30
0.0
 10
-153.2608
 20
104.8369
 30
0.0
 10
-153.2608
 20
104.8369
 30
0.0
 10
-153.2609
 20
104.8369
 30
0.0
 10
-153.2609
 20
104.8369
 30
0.0
  0
SPLINE
  5
57
330
1F
100
AcDbEntity
  8
layer 1
 62
     7
370
    25
100
AcDbSpline
210
0.0
220
0.0
230
1.0
 70
    11
 71
     3
 72
    24
 73
    20
 74
     0
 42
0.0000000001
 43
0.0000000001
 12
1.0
 22
0.0
 32
0.0
 13
1.0
 23
0.0
 33
0.0
 40
0.0
 40
0.0
 40
0.0
 40
0.0
 40
0.1666666666666667
 40
0.1666666666666667
 40
0.1666666666666667
 40
0.1666666666666667
 40
0.3333333333333333
 40
0.3333333333333333
 40
0.3333333333333333
 40
0.3333333333333333
 40
0.5
 40
0.5
 40
0.5
 40
0.5
 40
0.6666666666666666
 40
0.6666666666666666
 40
0.6666666666666666
 40
0.6666666666666666
 40
1.0
 40
1.0
 40
1.0
 40
1.0
 10
-165.3004
 20
87.1019
 30
0.0
 10
-161.8519
 20
87.1877
 30
0.0
 10
-159.7833
 20
88.8928
 30
0.0
 10
-159.5081
 20
92.6925
 30
0.0
 10
-159.5081
 20
92.6925
 30
0.0
 10
-169.6319
 20
90.3407
 30
0.0
 10
-169.7341
 20
102.9507
 30
0.0
 10
-161.5815
 20
102.9871
 30
0.0
 10
-161.5815
 20
102.9871
 30
0.0
 10
-164.6417
 20
104.7723
 30
0.0
 10
-166.8244
 20
107.0042
 30
0.0
 10
-168.8022
 20
109.8689
 30
0.0
 10
-168.8022
 20
109.8689
 30
0.0
 10
-171.8717
 20
106.6609
 30
0.0
 10
-173.9827
 20
101.6812
 30
0.0
 10
-174.5663
 20
98.1207
 30
0.0
 10
-174.5663
 20
98.1207
 30
0.0
 10
-175.3063
 20
91.3409
 30
0.0
 10
-170.5719
 20
87.1239
 30
0.0
 10
-165.3004
 20
87.1019
 30
0.0
  0
SPLINE
  5
58
330
1F
100
AcDbEntity
  8
layer 1
 62
     7
370
    25
100
AcDbSpline
210
0.0
220
0.0
230
1.0
 70
    11
 71
     3
 72
    24
 73
    20
 74
     0
 42
0.0000000001
 43
0.0000000001
 12
1.0
 22
0.0
 32
0.0
 13
1.0
 23
0.0
 33
0.0
 40
0.0
 40
0.0
 40
0.0
 40
0.0
 40
0.1666666666666667
 40
0.1666666666666667
 40
0.1666666666666667
 40
0.1666666666666667
 40
0.3333333333333333
 40
0.3333333333333333
 40
0.3333333333333333
 40
0.3333333333333333
 40
0.5
 40
0.5
 40
0.5
 40
0.5
 40
0.6666666666666666
 40
0.6666666666666666
 40
0.6666666666666666
 40
0.6666666666666666
 40
1.0
 40
1.0
 40
1.0
 40
1.0
 10
-132.4639
 20
75.8155
 30
0.0
 10
-127.8303
 20
79.1375
 30
0.0
 10
-124.6756
 20
86.8413
 30
0.0
 10
-123.7482
 20
91.4299
 30
0.0
 10
-123.7482
 20
91.4299
 30
0.0
 10
-126.4628
 20
88.0563
 30
0.0
 10
-131.2124
 20
88.9197
 30
0.0
 10
-132.1324
 20
92.8775
 30
0.0
 10
-132.1324
 20
92.8775
 30
0.0
 10
-133.1135
 20
97.1737
 30
0.0
 10
-129.4393
 20
99.6042
 30
0.0
 10
-125.6058
 20
97.9035
 30
0.0
 10
-125.6058
 20
97.9035
 30
0.0
 10
-125.7233
 20
104.1222
 30
0.0
 10
-134.6847
 20
104.6134
 30
0.0
 10
-136.5442
 20
97.4884
 30
0.0
 10
-136.5442
 20
97.4884
 30
0.0
 10
-138.304
 20
89.4838
 30
0.0
 10
-136.4618
 20
83.2054
 30
0.0
 10
-132.4639
 20
75.8155
 30
0.0
  0
SPLINE
  5
59
330
1F
100
AcDbEntity
  8
layer 1
 62
     7
370
    25
100
AcDbSpline
210
0.0
220
0.0
230
1.0
 70
    11
 71
     3
 72
    24
 73
    20
 74
     0
 42
0.0000000001
 43
0.0000000001
 12
1.0
 22
0.0
 32
0.0
 13
1.0
 23
0.0
 33
0.0
 40
0.0
 40
0.0
 40
0.0
 40
0.0
 40
0.1666666666666667
 40
0.1666666666666667
 40
0.1666666666666667
 40
0.1666666666666667
 40
0.3333333333333333
 40
0.3333333333333333
 40
0.3333333333333333
 40
0.3333333333333333
 40
0.5
 40
0.5
 40
0.5
 40
0.5
 40
0.6666666666666666
 40
0.6666666666666666
 40
0.6666666666666666
 40
0.6666666666666666
 40
1.0
 40
1.0
 40
1.0
 40
1.0
 10
-132.2275
 20
-34.744
 30
0.0
 10
-125.6099
 20
-39.1712
 30
0.0
 10
-116.1687
 20
-35.9842
 30
0.0
 10
-113.2918
 20
-30.2728
 30
0.0
 10
-113.2918
 20
-30.2728
 30
0.0
 10
-110.4149
 20
-35.9842
 30
0.0
 10
-100.9737
 20
-39.1712
 30
0.0
 10
-94.3561
 20
-34.744
 30
0.0
 10
-94.3561
 20
-34.744
 30
0.0
 10
-103.9839
 20
-45.0457
 30
0.0
 10
-110.9984
 20
-62.6327
 30
0.0
 10
-113.3239
 20
-79.3331
 30
0.0
 10
-113.3239
 20
-79.3331
 30
0.0
 10
-115.6494
 20
-62.7708
 30
0.0
 10
-122.5996
 20
-45.0457
 30
0.0
 10
-132.2274
 20
-34.744
 30
0.0
 10
-132.2274
 20
-34.744
 30
0.0
 10
-132.2274
 20
-34.744
 30
0.0
 10
-132.2275
 20
-34.744
 30
0.0
 10
-132.2275
 20
-34.744
 30
0.0
  0
SPLINE
  5
5A
330
1F
100
AcDbEntity
  8
layer 1
 62
     7
370
    25
100
AcDbSpline
210
0.0
220
0.0
230
1.0
 70
    11
 71
     3
 72
    24
 73
    20
 74
     0
 42
0.0000000001
 43
0.0000000001
 12
1.0
 22
0.0
 32
0.0
 13
1.0
 23
0.0
 33
0.0
 40
0.0
 40
0.0
 40
0.0
 40
0.0
 40
0.1666666666666667
 40
0.1666666666666667
 40
0.1666666666666667
 40
0.1666666666666667
 40
0.3333333333333333
 40
0.3333333333333333
 40
0.3333333333333333
 40
0.3333333333333333
 40
0.5
 40
0.5
 40
0.5
 40
0.5
 40
0.6666666666666666
 40
0.6666666666666666
 40
0.6666666666666666
 40
0.6666666666666666
 40
1.0
 40
1.0
 40
1.0
 40
1.0
 10
-126.0533
 20
-29.8036
 30
0.0
 10
-129.5018
 20
-29.7178
 30
0.0
 10
-131.5705
 20
-28.0127
 30
0.0
 10
-131.8456
 20
-24.213
 30
0.0
 10
-131.8456
 20
-24.213
 30
0.0
 10
-121.7218
 20
-26.5648
 30
0.0
 10
-121.6196
 20
-13.9547
 30
0.0
 10
-129.7722
 20
-13.9183
 30
0.0
 10
-129.7722
 20
-13.9183
 30
0.0
 10
-126.7121
 20
-12.1331
 30
0.0
 10
-124.5293
 20
-9.9013
 30
0.0
 10
-122.5516
 20
-7.0365
 30
0.0
 10
-122.5516
 20
-7.0365
 30
0.0
 10
-119.482
 20
-10.2445
 30
0.0
 10
-117.371
 20
-15.2243
 30
0.0
 10
-116.7874
 20
-18.7848
 30
0.0
 10
-116.7874
 20
-18.7848
 30
0.0
 10
-116.0474
 20
-25.5646
 30
0.0
 10
-120.7818
 20
-29.7815
 30
0.0
 10
-126.0533
 20
-29.8036
 30
0.0
  0
SPLINE
  5
5B
330
1F
100
AcDbEntity
  8
layer 1
 62
     7
370
    25
100
AcDbSpline
210
0.0
220
0.0
230
1.0
 70
    11
 71
     3
 72
    16
 73
    12
 74
     0
 42
0.0000000001
 43
0.0000000001
 12
1.0
 22
0.0
 32
0.0
 13
1.0
 23
0.0
 33
0.0
 40
0.0
 40
0.0
 40
0.0
 40
0.0
 40
0.25
 40
0.25
 40
0.25
 40
0.25
 40
0.5
 40
0.5
 40
0.5
 40
0.5
 40
1.0
 40
1.0
 40
1.0
 40
1.0
 10
-117.6747
 20
-108.1311
 30
0.0
 10
-117.6747
 20
-108.1311
 30
0.0
 10
-136.2176
 20
-108.1311
 30
0.0
 10
-136.2176
 20
-108.1311
 30
0.0
 10
-136.2176
 20
-108.1311
 30
0.0
 10
-122.8136
 20
-104.1593
 30
0.0
 10
-119.3444
 20
-97.5035
 30
0.0
 10
-118.4055
 20
-81.9352
 30
0.0
 10
-118.4055
 20
-81.9352
 30
0.0
 10
-116.7599
 20
-88.7324
 30
0.0
 10
-116.3979
 20
-100.0502
 30
0.0
 10
-117.6747
 20
-108.1311
 30
0.0
  0
SPLINE
  5
5C
330
1F
100
AcDbEntity
  8
layer 1
 62
     7
370
    25
100
AcDbSpline
210
0.0
220
0.0
230
1.0
 70
    11
 71
     3
 72
    16
 73
    12
 74
     0
 42
0.0000000001
 43
0.0000000001
 12
1.0
 22
0.0
 32
0.0
 13
1.0
 23
0.0
 33
0.0
 40
0.0
 40
0.0
 40
0.0
 40
0.0
 40
0.25
 40
0.25
 40
0.25
 40
0.25
 40
0.5
 40
0.5
 40
0.5
 40
0.5
 40
1.0
 40
1.0
 40
1.0
 40
1.0
 10
-126.3226
 20
-95.8786
 30
0.0
 10
-128.6391
 20
-93.7258
 30
0.0
 10
-129.4286
 20
-92.8731
 30
0.0
 10
-132.4081
 20
-90.1289
 30
0.0
 10
-132.4081
 20
-90.1289
 30
0.0
 10
-128.9414
 20
-91.0426
 30
0.0
 10
-125.3452
 20
-89.9527
 30
0.0
 10
-123.2492
 20
-86.724
 30
0.0
 10
-123.2492
 20
-86.724
 30
0.0
 10
-123.0792
 20
-89.154
 30
0.0
 10
-124.3202
 20
-94.6445
 30
0.0
 10
-126.3226
 20
-95.8786
 30
0.0
  0
SPLINE
  5
5D
330
1F
100
AcDbEntity
  8
layer 1
 62
     7
370
    25
100
AcDbSpline
210
0.0
220
0.0
230
1.0
 70
    11
 71
     3
 72
    16
 73
    12
 74
     0
 42
0.0000000001
 43
0.0000000001
 12
1.0
 22
0.0
 32
0.0
 13
1.0
 23
0.0
 33
0.0
 40
0.0
 40
0.0
 40
0.0
 40
0.0
 40
0.25
 40
0.25
 40
0.25
 40
0.25
 40
0.5
 40
0.5
 40
0.5
 40
0.5
 40
1.0
 40
1.0
 40
1.0
 40
1.0
 10
-126.3561
 20
-57.8712
 30
0.0
 10
-130.4552
 20
-53.4263
 30
0.0
 10
-135.2337
 20
-50.5336
 30
0.0
 10
-139.689
 20
-49.6208
 30
0.0
 10
-139.689
 20
-49.6208
 30
0.0
 10
-136.7154
 20
-48.0184
 30
0.0
 10
-135.1131
 20
-44.2669
 30
0.0
 10
-134.994
 20
-40.7116
 30
0.0
 10
-134.994
 20
-40.7116
 30
0.0
 10
-131.0125
 20
-45.8296
 30
0.0
 10
-128.1318
 20
-52.1066
 30
0.0
 10
-126.3561
 20
-57.8712
 30
0.0
  0
SPLINE
  5
5E
330
1F
100
AcDbEntity
  8
layer 1
 62
     7
370
    25
100
AcDbSpline
210
0.0
220
0.0
230
1.0
 70
    11
 71
     3
 72
    36
 73
    32
 74
     0
 42
0.0000000001
 43
0.0000000001
 12
1.0
 22
0.0
 32
0.0
 13
1.0
 23
0.0
 33
0.0
 40
0.0
 40
0.0
 40
0.0
 40
0.0
 40
0.1111111111111111
 40
0.1111111111111111
 40
0.1111111111111111
 40
0.1111111111111111
 40
0.2222222222222222
 40
0.2222222222222222
 40
0.2222222222222222
 40
0.2222222222222222
 40
0.3333333333333333
 40
0.3333333333333333
 40
0.3333333333333333
 40
0.3333333333333333
 40
0.4444444444444444
 40
0.4444444444444444
 40
0.4444444444444444
 40
0.4444444444444444
 40
0.5555555555555556
 40
0.5555555555555556
 40
0.5555555555555556
 40
0.5555555555555556
 40
0.6666666666666666
 40
0.6666666666666666
 40
0.6666666666666666
 40
0.6666666666666666
 40
0.7777777777777778
 40
0.7777777777777778
 40
0.7777777777777778
 40
0.7777777777777778
 40
1.0
 40
1.0
 40
1.0
 40
1.0
 10
-138.4422
 20
-12.3049
 30
0.0
 10
-143.6893
 20
-13.2959
 30
0.0
 10
-147.9843
 20
-11.5123
 30
0.0
 10
-149.3399
 20
-6.5763
 30
0.0
 10
-149.3399
 20
-6.5763
 30
0.0
 10
-149.7675
 20
-4.1189
 30
0.0
 10
-150.0431
 20
0.3859
 30
0.0
 10
-146.8813
 20
0.8264
 30
0.0
 10
-146.8813
 20
0.8264
 30
0.0
 10
-147.9952
 20
-3.2316
 30
0.0
 10
-145.3343
 20
-6.4584
 30
0.0
 10
-141.2861
 20
-5.285
 30
0.0
 10
-141.2861
 20
-5.285
 30
0.0
 10
-137.7973
 20
-4.1824
 30
0.0
 10
-137.4563
 20
1.5942
 30
0.0
 10
-140.2728
 20
3.4372
 30
0.0
 10
-140.2728
 20
3.4372
 30
0.0
 10
-140.5806
 20
3.6926
 30
0.0
 10
-140.5223
 20
3.9914
 30
0.0
 10
-140.1843
 20
3.8909
 30
0.0
 10
-140.1843
 20
3.8909
 30
0.0
 10
-134.8517
 20
2.9422
 30
0.0
 10
-128.8409
 20
-0.4539
 30
0.0
 10
-125.7339
 20
-3.6251
 30
0.0
 10
-125.7339
 20
-3.6251
 30
0.0
 10
-130.4389
 20
-8.1139
 30
0.0
 10
-132.9432
 20
-11.0465
 30
0.0
 10
-138.4422
 20
-12.3049
 30
0.0
 10
-138.4422
 20
-12.3049
 30
0.0
 10
-138.4422
 20
-12.3049
 30
0.0
 10
-138.4422
 20
-12.3049
 30
0.0
 10
-138.4422
 20
-12.3049
 30
0.0
  0
SPLINE
  5
5F
330
1F
100
AcDbEntity
  8
layer 1
 62
     7
370
    25
100
AcDbSpline
210
0.0
220
0.0
230
1.0
 70
    11
 71
     3
 72
    16
 73
    12
 74
     0
 42
0.0000000001
 43
0.0000000001
 12
1.0
 22
0.0
 32
0.0
 13
1.0
 23
0.0
 33
0.0
 40
0.0
 40
0.0
 40
0.0
 40
0.0
 40
0.25
 40
0.25
 40
0.25
 40
0.25
 40
0.5
 40
0.5
 40
0.5
 40
0.5
 40
1.0
 40
1.0
 40
1.0
 40
1.0
 10
-131.0054
 20
-100.5759
 30
0.0
 10
-134.2714
 20
-102.7768
 30
0.0
 10
-137.7678
 20
-103.6223
 30
0.0
 10
-141.0861
 20
-103.8686
 30
0.0
 10
-141.0861
 20
-103.8686
 30
0.0
 10
-138.2867
 20
-102.147
 30
0.0
 10
-136.6009
 20
-98.8782
 30
0.0
 10
-138.171
 20
-93.1461
 30
0.0
 10
-138.171
 20
-93.1461
 30
0.0
 10
-135.6022
 20
-95.721
 30
0.0
 10
-133.9478
 20
-97.4855
 30
0.0
 10
-131.0054
 20
-100.5759
 30
0.0
  0
SPLINE
  5
60
330
1F
100
AcDbEntity
  8
layer 1
 62
     7
370
    25
100
AcDbSpline
210
0.0
220
0.0
230
1.0
 70
    11
 71
     3
 72
    16
 73
    12
 74
     0
 42
0.0000000001
 43
0.0000000001
 12
1.0
 22
0.0
 32
0.0
 13
1.0
 23
0.0
 33
0.0
 40
0.0
 40
0.0
 40
0.0
 40
0.0
 40
0.25
 40
0.25
 40
0.25
 40
0.25
 40
0.5
 40
0.5
 40
0.5
 40
0.5
 40
1.0
 40
1.0
 40
1.0
 40
1.0
 10
-137.5173
 20
-27.285
 30
0.0
 10
-140.2516
 20
-23.5969
 30
0.0
 10
-143.9442
 20
-19.4058
 30
0.0
 10
-146.869
 20
-16.064
 30
0.0
 10
-146.869
 20
-16.064
 30
0.0
 10
-143.6208
 20
-17.8489
 30
0.0
 10
-139.4018
 20
-17.8688
 30
0.0
 10
-136.312
 20
-16.7904
 30
0.0
 10
-136.312
 20
-16.7904
 30
0.0
 10
-138.2292
 20
-19.5847
 30
0.0
 10
-138.8128
 20
-23.9109
 30
0.0
 10
-137.5173
 20
-27.285
 30
0.0
  0
SPLINE
  5
61
330
1F
100
AcDbEntity
  8
layer 1
 62
     7
370
    25
100
AcDbSpline
210
0.0
220
0.0
230
1.0
 70
    11
 71
     3
 72
    20
 73
    16
 74
     0
 42
0.0000000001
 43
0.0000000001
 12
1.0
 22
0.0
 32
0.0
 13
1.0
 23
0.0
 33
0.0
 40
0.0
 40
0.0
 40
0.0
 40
0.0
 40
0.2
 40
0.2
 40
0.2
 40
0.2
 40
0.4
 40
0.4
 40
0.4
 40
0.4
 40
0.6
 40
0.6
 40
0.6
 40
0.6
 40
1.0
 40
1.0
 40
1.0
 40
1.0
 10
-139.5061
 20
-61.9449
 30
0.0
 10
-141.5213
 20
-57.984
 30
0.0
 10
-148.8482
 20
-59.1216
 30
0.0
 10
-149.0581
 20
-64.4723
 30
0.0
 10
-149.0581
 20
-64.4723
 30
0.0
 10
-154.6986
 20
-56.5791
 30
0.0
 10
-144.1867
 20
-50.7169
 30
0.0
 10
-136.4384
 20
-56.5871
 30
0.0
 10
-136.4384
 20
-56.5871
 30
0.0
 10
-137.7274
 20
-57.8966
 30
0.0
 10
-138.8352
 20
-60.3107
 30
0.0
 10
-139.5061
 20
-61.9449
 30
0.0
 10
-139.5061
 20
-61.9449
 30
0.0
 10
-139.5061
 20
-61.9449
 30
0.0
 10
-139.5061
 20
-61.9449
 30
0.0
 10
-139.5061
 20
-61.9449
 30
0.0
  0
SPLINE
  5
62
330
1F
100
AcDbEntity
  8
layer 1
 62
     7
370
    25
100
AcDbSpline
210
0.0
220
0.0
230
1.0
 70
    11
 71
     3
 72
    20
 73
    16
 74
     0
 42
0.0000000001
 43
0.0000000001
 12
1.0
 22
0.0
 32
0.0
 13
1.0
 23
0.0
 33
0.0
 40
0.0
 40
0.0
 40
0.0
 40
0.0
 40
0.2
 40
0.2
 40
0.2
 40
0.2
 40
0.4
 40
0.4
 40
0.4
 40
0.4
 40
0.6
 40
0.6
 40
0.6
 40
0.6
 40
1.0
 40
1.0
 40
1.0
 40
1.0
 10
-141.2142
 20
-80.5531
 30
0.0
 10
-143.4052
 20
-77.6797
 30
0.0
 10
-146.3596
 20
-74.0092
 30
0.0
 10
-148.6974
 20
-71.0783
 30
0.0
 10
-148.6974
 20
-71.0783
 30
0.0
 10
-145.7119
 20
-71.7036
 30
0.0
 10
-143.8414
 20
-70.9383
 30
0.0
 10
-141.6505
 20
-69.3454
 30
0.0
 10
-141.6505
 20
-69.3454
 30
0.0
 10
-142.3884
 20
-73.9157
 30
0.0
 10
-141.8501
 20
-77.1006
 30
0.0
 10
-141.2142
 20
-80.5531
 30
0.0
 10
-141.2142
 20
-80.5531
 30
0.0
 10
-141.2142
 20
-80.5531
 30
0.0
 10
-141.2142
 20
-80.5531
 30
0.0
 10
-141.2142
 20
-80.5531
 30
0.0
  0
SPLINE
  5
63
330
1F
100
AcDbEntity
  8
layer 1
 62
     7
370
    25
100
AcDbSpline
210
0.0
220
0.0
230
1.0
 70
    11
 71
     3
 72
    20
 73
    16
 74
     0
 42
0.0000000001
 43
0.0000000001
 12
1.0
 22
0.0
 32
0.0
 13
1.0
 23
0.0
 33
0.0
 40
0.0
 40
0.0
 40
0.0
 40
0.0
 40
0.2
 40
0.2
 40
0.2
 40
0.2
 40
0.4
 40
0.4
 40
0.4
 40
0.4
 40
0.6
 40
0.6
 40
0.6
 40
0.6
 40
1.0
 40
1.0
 40
1.0
 40
1.0
 10
-154.9883
 20
-43.6561
 30
0.0
 10
-153.5342
 20
-43.0848
 30
0.0
 10
-152.0954
 20
-40.0601
 30
0.0
 10
-151.9754
 20
-38.0078
 30
0.0
 10
-151.9754
 20
-38.0078
 30
0.0
 10
-150.5429
 20
-41.4916
 30
0.0
 10
-143.5752
 20
-42.2353
 30
0.0
 10
-142.4414
 20
-35.6935
 30
0.0
 10
-142.4414
 20
-35.6935
 30
0.0
 10
-137.5007
 20
-45.3242
 30
0.0
 10
-148.1879
 20
-49.4362
 30
0.0
 10
-154.9883
 20
-43.6561
 30
0.0
 10
-154.9883
 20
-43.6561
 30
0.0
 10
-154.9883
 20
-43.6561
 30
0.0
 10
-154.9883
 20
-43.6561
 30
0.0
 10
-154.9883
 20
-43.6561
 30
0.0
  0
SPLINE
  5
64
330
1F
100
AcDbEntity
  8
layer 1
 62
     7
370
    25
100
AcDbSpline
210
0.0
220
0.0
230
1.0
 70
    11
 71
     3
 72
    20
 73
    16
 74
     0
 42
0.0000000001
 43
0.0000000001
 12
1.0
 22
0.0
 32
0.0
 13
1.0
 23
0.0
 33
0.0
 40
0.0
 40
0.0
 40
0.0
 40
0.0
 40
0.2
 40
0.2
 40
0.2
 40
0.2
 40
0.4
 40
0.4
 40
0.4
 40
0.4
 40
0.6
 40
0.6
 40
0.6
 40
0.6
 40
1.0
 40
1.0
 40
1.0
 40
1.0
 10
-149.8367
 20
-30.811
 30
0.0
 10
-149.5288
 20
-27.6317
 30
0.0
 10
-149.3818
 20
-23.3889
 30
0.0
 10
-150.2345
 20
-20.2613
 30
0.0
 10
-150.2345
 20
-20.2613
 30
0.0
 10
-148.3169
 20
-22.5498
 30
0.0
 10
-145.3785
 20
-25.9705
 30
0.0
 10
-142.9926
 20
-29.0006
 30
0.0
 10
-142.9926
 20
-29.0006
 30
0.0
 10
-146.4546
 20
-28.2166
 30
0.0
 10
-149.006
 20
-29.1934
 30
0.0
 10
-149.8367
 20
-30.811
 30
0.0
 10
-149.8367
 20
-30.811
 30
0.0
 10
-149.8367
 20
-30.811
 30
0.0
 10
-149.8367
 20
-30.811
 30
0.0
 10
-149.8367
 20
-30.811
 30
0.0
  0
SPLINE
  5
65
330
1F
100
AcDbEntity
  8
layer 1
 62
     7
370
    25
100
AcDbSpline
210
0.0
220
0.0
230
1.0
 70
    11
 71
     3
 72
    20
 73
    16
 74
     0
 42
0.0000000001
 43
0.0000000001
 12
1.0
 22
0.0
 32
0.0
 13
1.0
 23
0.0
 33
0.0
 40
0.0
 40
0.0
 40
0.0
 40
0.0
 40
0.2
 40
0.2
 40
0.2
 40
0.2
 40
0.4
 40
0.4
 40
0.4
 40
0.4
 40
0.6
 40
0.6
 40
0.6
 40
0.6
 40
1.0
 40
1.0
 40
1.0
 40
1.0
 10
-155.273
 20
-83.5159
 30
0.0
 10
-153.3786
 20
-82.1101
 30
0.0
 10
-152.8951
 20
-78.2255
 30
0.0
 10
-153.7083
 20
-74.6023
 30
0.0
 10
-153.7083
 20
-74.6023
 30
0.0
 10
-151.2139
 20
-77.6564
 30
0.0
 10
-149.2791
 20
-80.6153
 30
0.0
 10
-146.767
 20
-83.3689
 30
0.0
 10
-146.767
 20
-83.3689
 30
0.0
 10
-150.0125
 20
-82.571
 30
0.0
 10
-152.6657
 20
-82.6562
 30
0.0
 10
-155.273
 20
-83.516
 30
0.0
 10
-155.273
 20
-83.516
 30
0.0
 10
-155.273
 20
-83.516
 30
0.0
 10
-155.273
 20
-83.5159
 30
0.0
 10
-155.273
 20
-83.5159
 30
0.0
  0
SPLINE
  5
66
330
1F
100
AcDbEntity
  8
layer 1
 62
     7
370
    25
100
AcDbSpline
210
0.0
220
0.0
230
1.0
 70
    11
 71
     3
 72
    16
 73
    12
 74
     0
 42
0.0000000001
 43
0.0000000001
 12
1.0
 22
0.0
 32
0.0
 13
1.0
 23
0.0
 33
0.0
 40
0.0
 40
0.0
 40
0.0
 40
0.0
 40
0.25
 40
0.25
 40
0.25
 40
0.25
 40
0.5
 40
0.5
 40
0.5
 40
0.5
 40
1.0
 40
1.0
 40
1.0
 40
1.0
 10
-152.6625
 20
-9.9067
 30
0.0
 10
-155.6641
 20
-6.9364
 30
0.0
 10
-159.3374
 20
-3.3374
 30
0.0
 10
-162.1266
 20
-0.7977
 30
0.0
 10
-162.1266
 20
-0.7977
 30
0.0
 10
-159.6098
 20
1.4763
 30
0.0
 10
-155.0512
 20
3.0417
 30
0.0
 10
-150.9197
 20
3.6514
 30
0.0
 10
-150.9197
 20
3.6514
 30
0.0
 10
-155.3038
 20
0.9255
 30
0.0
 10
-155.0256
 20
-6.5589
 30
0.0
 10
-152.6625
 20
-9.9067
 30
0.0
  0
SPLINE
  5
67
330
1F
100
AcDbEntity
  8
layer 1
 62
     7
370
    25
100
AcDbSpline
210
0.0
220
0.0
230
1.0
 70
    11
 71
     3
 72
    16
 73
    12
 74
     0
 42
0.0000000001
 43
0.0000000001
 12
1.0
 22
0.0
 32
0.0
 13
1.0
 23
0.0
 33
0.0
 40
0.0
 40
0.0
 40
0.0
 40
0.0
 40
0.25
 40
0.25
 40
0.25
 40
0.25
 40
0.5
 40
0.5
 40
0.5
 40
0.5
 40
1.0
 40
1.0
 40
1.0
 40
1.0
 10
-156.7302
 20
-59.1376
 30
0.0
 10
-159.3304
 20
-53.3162
 30
0.0
 10
-161.518
 20
-48.8289
 30
0.0
 10
-165.1497
 20
-42.5414
 30
0.0
 10
-165.1497
 20
-42.5414
 30
0.0
 10
-160.3725
 20
-46.6758
 30
0.0
 10
-155.8464
 20
-49.7311
 30
0.0
 10
-152.0857
 20
-50.456
 30
0.0
 10
-152.0857
 20
-50.456
 30
0.0
 10
-154.7214
 20
-51.3512
 30
0.0
 10
-157.2351
 20
-54.9557
 30
0.0
 10
-156.7302
 20
-59.1376
 30
0.0
  0
SPLINE
  5
68
330
1F
100
AcDbEntity
  8
layer 1
 62
     7
370
    25
100
AcDbSpline
210
0.0
220
0.0
230
1.0
 70
    11
 71
     3
 72
    20
 73
    16
 74
     0
 42
0.0000000001
 43
0.0000000001
 12
1.0
 22
0.0
 32
0.0
 13
1.0
 23
0.0
 33
0.0
 40
0.0
 40
0.0
 40
0.0
 40
0.0
 40
0.2
 40
0.2
 40
0.2
 40
0.2
 40
0.4
 40
0.4
 40
0.4
 40
0.4
 40
0.6
 40
0.6
 40
0.6
 40
0.6
 40
1.0
 40
1.0
 40
1.0
 40
1.0
 10
-172.823
 20
-18.4699
 30
0.0
 10
-176.4835
 20
-0.6377
 30
0.0
 10
-177.0418
 20
18.5386
 30
0.0
 10
-172.823
 20
35.4187
 30
0.0
 10
-172.823
 20
35.4187
 30
0.0
 10
-172.5114
 20
23.4074
 30
0.0
 10
-170.0391
 20
11.4962
 30
0.0
 10
-153.7557
 20
8.4744
 30
0.0
 10
-153.7557
 20
8.4744
 30
0.0
 10
-170.0392
 20
5.4526
 30
0.0
 10
-172.5114
 20
-6.4586
 30
0.0
 10
-172.823
 20
-18.47
 30
0.0
 10
-172.823
 20
-18.47
 30
0.0
 10
-172.823
 20
-18.47
 30
0.0
 10
-172.823
 20
-18.4699
 30
0.0
 10
-172.823
 20
-18.4699
 30
0.0
  0
SPLINE
  5
69
330
1F
100
AcDbEntity
  8
layer 1
 62
     7
370
    25
100
AcDbSpline
210
0.0
220
0.0
230
1.0
 70
    11
 71
     3
 72
    24
 73
    20
 74
     0
 42
0.0000000001
 43
0.0000000001
 12
1.0
 22
0.0
 32
0.0
 13
1.0
 23
0.0
 33
0.0
 40
0.0
 40
0.0
 40
0.0
 40
0.0
 40
0.1666666666666667
 40
0.1666666666666667
 40
0.1666666666666667
 40
0.1666666666666667
 40
0.3333333333333333
 40
0.3333333333333333
 40
0.3333333333333333
 40
0.3333333333333333
 40
0.5
 40
0.5
 40
0.5
 40
0.5
 40
0.6666666666666666
 40
0.6666666666666666
 40
0.6666666666666666
 40
0.6666666666666666
 40
1.0
 40
1.0
 40
1.0
 40
1.0
 10
-159.1964
 20
-40.8853
 30
0.0
 10
-163.83
 20
-37.5633
 30
0.0
 10
-166.9846
 20
-29.8595
 30
0.0
 10
-167.912
 20
-25.2709
 30
0.0
 10
-167.912
 20
-25.2709
 30
0.0
 10
-165.1975
 20
-28.6445
 30
0.0
 10
-160.4479
 20
-27.7811
 30
0.0
 10
-159.5279
 20
-23.8233
 30
0.0
 10
-159.5279
 20
-23.8233
 30
0.0
 10
-158.5467
 20
-19.5271
 30
0.0
 10
-162.221
 20
-17.0966
 30
0.0
 10
-166.0544
 20
-18.7973
 30
0.0
 10
-166.0544
 20
-18.7973
 30
0.0
 10
-166.8989
 20
-11.8257
 30
0.0
 10
-156.9756
 20
-12.0874
 30
0.0
 10
-155.1161
 20
-19.2124
 30
0.0
 10
-155.1161
 20
-19.2124
 30
0.0
 10
-153.3563
 20
-27.217
 30
0.0
 10
-155.1985
 20
-33.4954
 30
0.0
 10
-159.1964
 20
-40.8853
 30
0.0
  0
SPLINE
  5
6A
330
1F
100
AcDbEntity
  8
layer 1
 62
     7
370
    25
100
AcDbSpline
210
0.0
220
0.0
230
1.0
 70
    11
 71
     3
 72
    16
 73
    12
 74
     0
 42
0.0000000001
 43
0.0000000001
 12
1.0
 22
0.0
 32
0.0
 13
1.0
 23
0.0
 33
0.0
 40
0.0
 40
0.0
 40
0.0
 40
0.0
 40
0.25
 40
0.25
 40
0.25
 40
0.25
 40
0.5
 40
0.5
 40
0.5
 40
0.5
 40
1.0
 40
1.0
 40
1.0
 40
1.0
 10
-179.9897
 20
-108.1311
 30
0.0
 10
-179.9897
 20
-108.1311
 30
0.0
 10
-179.9897
 20
-85.3506
 30
0.0
 10
-179.9897
 20
-85.3506
 30
0.0
 10
-179.9897
 20
-85.3506
 30
0.0
 10
-177.3545
 20
-95.8193
 30
0.0
 10
-169.2834
 20
-105.3355
 30
0.0
 10
-157.7896
 20
-108.1311
 30
0.0
 10
-157.7896
 20
-108.1311
 30
0.0
 10
-157.7896
 20
-108.1311
 30
0.0
 10
-179.9897
 20
-108.1311
 30
0.0
 10
-179.9897
 20
-108.1311
 30
0.0
  0
SPLINE
  5
6B
330
1F
100
AcDbEntity
  8
layer 1
 62
     7
370
    25
100
AcDbSpline
210
0.0
220
0.0
230
1.0
 70
    11
 71
     3
 72
    16
 73
    12
 74
     0
 42
0.0000000001
 43
0.0000000001
 12
1.0
 22
0.0
 32
0.0
 13
1.0
 23
0.0
 33
0.0
 40
0.0
 40
0.0
 40
0.0
 40
0.0
 40
0.25
 40
0.25
 40
0.25
 40
0.25
 40
0.5
 40
0.5
 40
0.5
 40
0.5
 40
1.0
 40
1.0
 40
1.0
 40
1.0
 10
-168.1406
 20
-13.3068
 30
0.0
 10
-168.0211
 20
-10.6672
 30
0.0
 10
-166.8871
 20
-7.5838
 30
0.0
 10
-165.2479
 20
-4.522
 30
0.0
 10
-165.2479
 20
-4.522
 30
0.0
 10
-165.0725
 20
-4.5805
 30
0.0
 10
-161.7902
 20
-7.9212
 30
0.0
 10
-159.6743
 20
-10.0121
 30
0.0
 10
-159.6743
 20
-10.0121
 30
0.0
 10
-163.9281
 20
-10.4404
 30
0.0
 10
-165.494
 20
-11.1227
 30
0.0
 10
-168.1406
 20
-13.3068
 30
0.0
  0
SPLINE
  5
6C
330
1F
100
AcDbEntity
  8
layer 1
 62
     7
370
    25
100
AcDbSpline
210
0.0
220
0.0
230
1.0
 70
    11
 71
     3
 72
    16
 73
    12
 74
     0
 42
0.0000000001
 43
0.0000000001
 12
1.0
 22
0.0
 32
0.0
 13
1.0
 23
0.0
 33
0.0
 40
0.0
 40
0.0
 40
0.0
 40
0.0
 40
0.25
 40
0.25
 40
0.25
 40
0.25
 40
0.5
 40
0.5
 40
0.5
 40
0.5
 40
1.0
 40
1.0
 40
1.0
 40
1.0
 10
-160.0612
 20
-65.0964
 30
0.0
 10
-167.3926
 20
-61.391
 30
0.0
 10
-178.6826
 20
-66.8663
 30
0.0
 10
-179.9898
 20
-72.9319
 30
0.0
 10
-179.9898
 20
-72.9319
 30
0.0
 10
-179.9898
 20
-72.9319
 30
0.0
 10
-179.9898
 20
-11.282
 30
0.0
 10
-179.9898
 20
-11.282
 30
0.0
 10
-179.9898
 20
-11.282
 30
0.0
 10
-176.0875
 20
-32.0231
 30
0.0
 10
-170.2778
 20
-48.222
 30
0.0
 10
-160.0612
 20
-65.0964
 30
0.0
  0
SPLINE
  5
6D
330
1F
100
AcDbEntity
  8
layer 1
 62
     7
370
    25
100
AcDbSpline
210
0.0
220
0.0
230
1.0
 70
    11
 71
     3
 72
    36
 73
    32
 74
     0
 42
0.0000000001
 43
0.0000000001
 12
1.0
 22
0.0
 32
0.0
 13
1.0
 23
0.0
 33
0.0
 40
0.0
 40
0.0
 40
0.0
 40
0.0
 40
0.1111111111111111
 40
0.1111111111111111
 40
0.1111111111111111
 40
0.1111111111111111
 40
0.2222222222222222
 40
0.2222222222222222
 40
0.2222222222222222
 40
0.2222222222222222
 40
0.3333333333333333
 40
0.3333333333333333
 40
0.3333333333333333
 40
0.3333333333333333
 40
0.4444444444444444
 40
0.4444444444444444
 40
0.4444444444444444
 40
0.4444444444444444
 40
0.5555555555555556
 40
0.5555555555555556
 40
0.5555555555555556
 40
0.5555555555555556
 40
0.6666666666666666
 40
0.6666666666666666
 40
0.6666666666666666
 40
0.6666666666666666
 40
0.7777777777777778
 40
0.7777777777777778
 40
0.7777777777777778
 40
0.7777777777777778
 40
1.0
 40
1.0
 40
1.0
 40
1.0
 10
-153.2609
 20
-87.8881
 30
0.0
 10
-148.0137
 20
-86.8972
 30
0.0
 10
-143.7187
 20
-88.6807
 30
0.0
 10
-142.3631
 20
-93.6167
 30
0.0
 10
-142.3631
 20
-93.6167
 30
0.0
 10
-141.9355
 20
-96.0742
 30
0.0
 10
-141.6599
 20
-100.579
 30
0.0
 10
-144.8217
 20
-101.0194
 30
0.0
 10
-144.8217
 20
-101.0194
 30
0.0
 10
-143.7078
 20
-96.9615
 30
0.0
 10
-146.3687
 20
-93.7346
 30
0.0
 10
-150.4169
 20
-94.908
 30
0.0
 10
-150.4169
 20
-94.908
 30
0.0
 10
-153.9058
 20
-96.0107
 30
0.0
 10
-154.2467
 20
-101.7873
 30
0.0
 10
-151.4302
 20
-103.6302
 30
0.0
 10
-151.4302
 20
-103.6302
 30
0.0
 10
-151.1224
 20
-103.8857
 30
0.0
 10
-151.1807
 20
-104.1844
 30
0.0
 10
-151.5188
 20
-104.084
 30
0.0
 10
-151.5188
 20
-104.084
 30
0.0
 10
-156.8513
 20
-103.1352
 30
0.0
 10
-162.8621
 20
-99.7391
 30
0.0
 10
-165.9691
 20
-96.568
 30
0.0
 10
-165.9691
 20
-96.568
 30
0.0
 10
-161.2642
 20
-92.0792
 30
0.0
 10
-158.7598
 20
-89.1465
 30
0.0
 10
-153.2608
 20
-87.8881
 30
0.0
 10
-153.2608
 20
-87.8881
 30
0.0
 10
-153.2608
 20
-87.8881
 30
0.0
 10
-153.2609
 20
-87.8881
 30
0.0
 10
-153.2609
 20
-87.8881
 30
0.0
  0
SPLINE
  5
6E
330
1F
100
AcDbEntity
  8
layer 1
 62
     7
370
    25
100
AcDbSpline
210
0.0
220
0.0
230
1.0
 70
    11
 71
     3
 72
    24
 73
    20
 74
     0
 42
0.0000000001
 43
0.0000000001
 12
1.0
 22
0.0
 32
0.0
 13
1.0
 23
0.0
 33
0.0
 40
0.0
 40
0.0
 40
0.0
 40
0.0
 40
0.1666666666666667
 40
0.1666666666666667
 40
0.1666666666666667
 40
0.1666666666666667
 40
0.3333333333333333
 40
0.3333333333333333
 40
0.3333333333333333
 40
0.3333333333333333
 40
0.5
 40
0.5
 40
0.5
 40
0.5
 40
0.6666666666666666
 40
0.6666666666666666
 40
0.6666666666666666
 40
0.6666666666666666
 40
1.0
 40
1.0
 40
1.0
 40
1.0
 10
-165.3004
 20
-70.1531
 30
0.0
 10
-161.8519
 20
-70.2388
 30
0.0
 10
-159.7833
 20
-71.9439
 30
0.0
 10
-159.5081
 20
-75.7437
 30
0.0
 10
-159.5081
 20
-75.7437
 30
0.0
 10
-169.6319
 20
-73.3919
 30
0.0
 10
-169.7341
 20
-86.0019
 30
0.0
 10
-161.5815
 20
-86.0383
 30
0.0
 10
-161.5815
 20
-86.0383
 30
0.0
 10
-164.6417
 20
-87.8235
 30
0.0
 10
-166.8244
 20
-90.0554
 30
0.0
 10
-168.8022
 20
-92.9201
 30
0.0
 10
-168.8022
 20
-92.9201
 30
0.0
 10
-171.8717
 20
-89.7121
 30
0.0
 10
-173.9827
 20
-84.7324
 30
0.0
 10
-174.5663
 20
-81.1719
 30
0.0
 10
-174.5663
 20
-81.1719
 30
0.0
 10
-175.3063
 20
-74.3921
 30
0.0
 10
-170.5719
 20
-70.1751
 30
0.0
 10
-165.3004
 20
-70.1531
 30
0.0
  0
SPLINE
  5
6F
330
1F
100
AcDbEntity
  8
layer 1
 62
     7
370
    25
100
AcDbSpline
210
0.0
220
0.0
230
1.0
 70
    11
 71
     3
 72
    24
 73
    20
 74
     0
 42
0.0000000001
 43
0.0000000001
 12
1.0
 22
0.0
 32
0.0
 13
1.0
 23
0.0
 33
0.0
 40
0.0
 40
0.0
 40
0.0
 40
0.0
 40
0.1666666666666667
 40
0.1666666666666667
 40
0.1666666666666667
 40
0.1666666666666667
 40
0.3333333333333333
 40
0.3333333333333333
 40
0.3333333333333333
 40
0.3333333333333333
 40
0.5
 40
0.5
 40
0.5
 40
0.5
 40
0.6666666666666666
 40
0.6666666666666666
 40
0.6666666666666666
 40
0.6666666666666666
 40
1.0
 40
1.0
 40
1.0
 40
1.0
 10
-132.4639
 20
-58.8666
 30
0.0
 10
-127.8303
 20
-62.1887
 30
0.0
 10
-124.6756
 20
-69.8924
 30
0.0
 10
-123.7482
 20
-74.4811
 30
0.0
 10
-123.7482
 20
-74.4811
 30
0.0
 10
-126.4628
 20
-71.1075
 30
0.0
 10
-131.2124
 20
-71.9709
 30
0.0
 10
-132.1324
 20
-75.9287
 30
0.0
 10
-132.1324
 20
-75.9287
 30
0.0
 10
-133.1135
 20
-80.2249
 30
0.0
 10
-129.4393
 20
-82.6554
 30
0.0
 10
-125.6058
 20
-80.9547
 30
0.0
 10
-125.6058
 20
-80.9547
 30
0.0
 10
-125.7233
 20
-87.1734
 30
0.0
 10
-134.6847
 20
-87.6646
 30
0.0
 10
-136.5442
 20
-80.5396
 30
0.0
 10
-136.5442
 20
-80.5396
 30
0.0
 10
-138.304
 20
-72.535
 30
0.0
 10
-136.4618
 20
-66.2566
 30
0.0
 10
-132.4639
 20
-58.8666
 30
0.0
  0
SPLINE
  5
70
330
1F
100
AcDbEntity
  8
layer 1
 62
     7
370
    25
100
AcDbSpline
210
0.0
220
0.0
230
1.0
 70
    11
 71
     3
 72
    24
 73
    20
 74
     0
 42
0.0000000001
 43
0.0000000001
 12
1.0
 22
0.0
 32
0.0
 13
1.0
 23
0.0
 33
0.0
 40
0.0
 40
0.0
 40
0.0
 40
0.0
 40
0.1666666666666667
 40
0.1666666666666667
 40
0.1666666666666667
 40
0.1666666666666667
 40
0.3333333333333333
 40
0.3333333333333333
 40
0.3333333333333333
 40
0.3333333333333333
 40
0.5
 40
0.5
 40
0.5
 40
0.5
 40
0.6666666666666666
 40
0.6666666666666666
 40
0.6666666666666666
 40
0.6666666666666666
 40
1.0
 40
1.0
 40
1.0
 40
1.0
 10
-100.5303
 20
46.7524
 30
0.0
 10
-97.0818
 20
46.6666
 30
0.0
 10
-95.0131
 20
44.9615
 30
0.0
 10
-94.738
 20
41.1618
 30
0.0
 10
-94.738
 20
41.1618
 30
0.0
 10
-104.8618
 20
43.5136
 30
0.0
 10
-104.9639
 20
30.9036
 30
0.0
 10
-96.8114
 20
30.8671
 30
0.0
 10
-96.8114
 20
30.8671
 30
0.0
 10
-99.8715
 20
29.0819
 30
0.0
 10
-102.0542
 20
26.8501
 30
0.0
 10
-104.032
 20
23.9853
 30
0.0
 10
-104.032
 20
23.9853
 30
0.0
 10
-107.1015
 20
27.1934
 30
0.0
 10
-109.2126
 20
32.1731
 30
0.0
 10
-109.7961
 20
35.7336
 30
0.0
 10
-109.7961
 20
35.7336
 30
0.0
 10
-110.5362
 20
42.5134
 30
0.0
 10
-105.8017
 20
46.7304
 30
0.0
 10
-100.5303
 20
46.7524
 30
0.0
  0
SPLINE
  5
71
330
1F
100
AcDbEntity
  8
layer 1
 62
     7
370
    25
100
AcDbSpline
210
0.0
220
0.0
230
1.0
 70
    11
 71
     3
 72
    20
 73
    16
 74
     0
 42
0.0000000001
 43
0.0000000001
 12
1.0
 22
0.0
 32
0.0
 13
1.0
 23
0.0
 33
0.0
 40
0.0
 40
0.0
 40
0.0
 40
0.0
 40
0.2
 40
0.2
 40
0.2
 40
0.2
 40
0.4
 40
0.4
 40
0.4
 40
0.4
 40
0.6
 40
0.6
 40
0.6
 40
0.6
 40
1.0
 40
1.0
 40
1.0
 40
1.0
 10
-108.9089
 20
125.0799
 30
0.0
 10
-108.9089
 20
125.0799
 30
0.0
 10
-90.366
 20
125.0799
 30
0.0
 10
-90.366
 20
125.0799
 30
0.0
 10
-90.366
 20
125.0799
 30
0.0
 10
-103.77
 20
121.1081
 30
0.0
 10
-107.2392
 20
114.4523
 30
0.0
 10
-108.178
 20
98.884
 30
0.0
 10
-108.178
 20
98.884
 30
0.0
 10
-109.8237
 20
105.6812
 30
0.0
 10
-110.1856
 20
116.999
 30
0.0
 10
-108.9089
 20
125.0799
 30
0.0
 10
-108.9089
 20
125.0799
 30
0.0
 10
-108.9089
 20
125.0799
 30
0.0
 10
-108.9089
 20
125.0799
 30
0.0
 10
-108.9089
 20
125.0799
 30
0.0
  0
SPLINE
  5
72
330
1F
100
AcDbEntity
  8
layer 1
 62
     7
370
    25
100
AcDbSpline
210
0.0
220
0.0
230
1.0
 70
    11
 71
     3
 72
    16
 73
    12
 74
     0
 42
0.0000000001
 43
0.0000000001
 12
1.0
 22
0.0
 32
0.0
 13
1.0
 23
0.0
 33
0.0
 40
0.0
 40
0.0
 40
0.0
 40
0.0
 40
0.25
 40
0.25
 40
0.25
 40
0.25
 40
0.5
 40
0.5
 40
0.5
 40
0.5
 40
1.0
 40
1.0
 40
1.0
 40
1.0
 10
-100.2609
 20
112.8274
 30
0.0
 10
-97.9444
 20
110.6746
 30
0.0
 10
-97.155
 20
109.8219
 30
0.0
 10
-94.1754
 20
107.0777
 30
0.0
 10
-94.1754
 20
107.0777
 30
0.0
 10
-97.6422
 20
107.9914
 30
0.0
 10
-101.2384
 20
106.9015
 30
0.0
 10
-103.3344
 20
103.6728
 30
0.0
 10
-103.3344
 20
103.6728
 30
0.0
 10
-103.5044
 20
106.1029
 30
0.0
 10
-102.2634
 20
111.5933
 30
0.0
 10
-100.2609
 20
112.8274
 30
0.0
  0
SPLINE
  5
73
330
1F
100
AcDbEntity
  8
layer 1
 62
     7
370
    25
100
AcDbSpline
210
0.0
220
0.0
230
1.0
 70
    11
 71
     3
 72
    16
 73
    12
 74
     0
 42
0.0000000001
 43
0.0000000001
 12
1.0
 22
0.0
 32
0.0
 13
1.0
 23
0.0
 33
0.0
 40
0.0
 40
0.0
 40
0.0
 40
0.0
 40
0.25
 40
0.25
 40
0.25
 40
0.25
 40
0.5
 40
0.5
 40
0.5
 40
0.5
 40
1.0
 40
1.0
 40
1.0
 40
1.0
 10
-100.2274
 20
74.82
 30
0.0
 10
-96.1283
 20
70.3751
 30
0.0
 10
-91.3499
 20
67.4825
 30
0.0
 10
-86.8945
 20
66.5696
 30
0.0
 10
-86.8945
 20
66.5696
 30
0.0
 10
-89.8682
 20
64.9672
 30
0.0
 10
-91.4705
 20
61.2157
 30
0.0
 10
-91.5895
 20
57.6604
 30
0.0
 10
-91.5895
 20
57.6604
 30
0.0
 10
-95.5711
 20
62.7784
 30
0.0
 10
-98.4517
 20
69.0554
 30
0.0
 10
-100.2274
 20
74.82
 30
0.0
  0
SPLINE
  5
74
330
1F
100
AcDbEntity
  8
layer 1
 62
     7
370
    25
100
AcDbSpline
210
0.0
220
0.0
230
1.0
 70
    11
 71
     3
 72
    36
 73
    32
 74
     0
 42
0.0000000001
 43
0.0000000001
 12
1.0
 22
0.0
 32
0.0
 13
1.0
 23
0.0
 33
0.0
 40
0.0
 40
0.0
 40
0.0
 40
0.0
 40
0.1111111111111111
 40
0.1111111111111111
 40
0.1111111111111111
 40
0.1111111111111111
 40
0.2222222222222222
 40
0.2222222222222222
 40
0.2222222222222222
 40
0.2222222222222222
 40
0.3333333333333333
 40
0.3333333333333333
 40
0.3333333333333333
 40
0.3333333333333333
 40
0.4444444444444444
 40
0.4444444444444444
 40
0.4444444444444444
 40
0.4444444444444444
 40
0.5555555555555556
 40
0.5555555555555556
 40
0.5555555555555556
 40
0.5555555555555556
 40
0.6666666666666666
 40
0.6666666666666666
 40
0.6666666666666666
 40
0.6666666666666666
 40
0.7777777777777778
 40
0.7777777777777778
 40
0.7777777777777778
 40
0.7777777777777778
 40
1.0
 40
1.0
 40
1.0
 40
1.0
 10
-88.1414
 20
29.2538
 30
0.0
 10
-82.8943
 20
30.2447
 30
0.0
 10
-78.5992
 20
28.4612
 30
0.0
 10
-77.2437
 20
23.5251
 30
0.0
 10
-77.2437
 20
23.5251
 30
0.0
 10
-76.816
 20
21.0677
 30
0.0
 10
-76.5404
 20
16.5629
 30
0.0
 10
-79.7023
 20
16.1224
 30
0.0
 10
-79.7023
 20
16.1224
 30
0.0
 10
-78.5883
 20
20.1804
 30
0.0
 10
-81.2492
 20
23.4072
 30
0.0
 10
-85.2974
 20
22.2338
 30
0.0
 10
-85.2974
 20
22.2338
 30
0.0
 10
-88.7863
 20
21.1312
 30
0.0
 10
-89.1272
 20
15.3546
 30
0.0
 10
-86.3107
 20
13.5116
 30
0.0
 10
-86.3107
 20
13.5116
 30
0.0
 10
-86.0029
 20
13.2562
 30
0.0
 10
-86.0613
 20
12.9574
 30
0.0
 10
-86.3993
 20
13.0579
 30
0.0
 10
-86.3993
 20
13.0579
 30
0.0
 10
-91.7318
 20
14.0066
 30
0.0
 10
-97.7427
 20
17.4028
 30
0.0
 10
-100.8497
 20
20.5739
 30
0.0
 10
-100.8497
 20
20.5739
 30
0.0
 10
-96.1447
 20
25.0627
 30
0.0
 10
-93.6404
 20
27.9953
 30
0.0
 10
-88.1413
 20
29.2538
 30
0.0
 10
-88.1413
 20
29.2538
 30
0.0
 10
-88.1413
 20
29.2538
 30
0.0
 10
-88.1414
 20
29.2538
 30
0.0
 10
-88.1414
 20
29.2538
 30
0.0
  0
SPLINE
  5
75
330
1F
100
AcDbEntity
  8
layer 1
 62
     7
370
    25
100
AcDbSpline
210
0.0
220
0.0
230
1.0
 70
    11
 71
     3
 72
    16
 73
    12
 74
     0
 42
0.0000000001
 43
0.0000000001
 12
1.0
 22
0.0
 32
0.0
 13
1.0
 23
0.0
 33
0.0
 40
0.0
 40
0.0
 40
0.0
 40
0.0
 40
0.25
 40
0.25
 40
0.25
 40
0.25
 40
0.5
 40
0.5
 40
0.5
 40
0.5
 40
1.0
 40
1.0
 40
1.0
 40
1.0
 10
-95.5781
 20
117.5247
 30
0.0
 10
-92.3121
 20
119.7256
 30
0.0
 10
-88.8158
 20
120.5711
 30
0.0
 10
-85.4975
 20
120.8174
 30
0.0
 10
-85.4975
 20
120.8174
 30
0.0
 10
-88.2969
 20
119.0958
 30
0.0
 10
-89.9827
 20
115.827
 30
0.0
 10
-88.4125
 20
110.0949
 30
0.0
 10
-88.4125
 20
110.0949
 30
0.0
 10
-90.9814
 20
112.6698
 30
0.0
 10
-92.6357
 20
114.4343
 30
0.0
 10
-95.5781
 20
117.5247
 30
0.0
  0
SPLINE
  5
76
330
1F
100
AcDbEntity
  8
layer 1
 62
     7
370
    25
100
AcDbSpline
210
0.0
220
0.0
230
1.0
 70
    11
 71
     3
 72
    16
 73
    12
 74
     0
 42
0.0000000001
 43
0.0000000001
 12
1.0
 22
0.0
 32
0.0
 13
1.0
 23
0.0
 33
0.0
 40
0.0
 40
0.0
 40
0.0
 40
0.0
 40
0.25
 40
0.25
 40
0.25
 40
0.25
 40
0.5
 40
0.5
 40
0.5
 40
0.5
 40
1.0
 40
1.0
 40
1.0
 40
1.0
 10
-89.0663
 20
44.2338
 30
0.0
 10
-86.332
 20
40.5457
 30
0.0
 10
-82.6394
 20
36.3546
 30
0.0
 10
-79.7145
 20
33.0128
 30
0.0
 10
-79.7145
 20
33.0128
 30
0.0
 10
-82.9628
 20
34.7977
 30
0.0
 10
-87.1818
 20
34.8177
 30
0.0
 10
-90.2716
 20
33.7392
 30
0.0
 10
-90.2716
 20
33.7392
 30
0.0
 10
-88.3544
 20
36.5335
 30
0.0
 10
-87.7708
 20
40.8597
 30
0.0
 10
-89.0663
 20
44.2338
 30
0.0
  0
SPLINE
  5
77
330
1F
100
AcDbEntity
  8
layer 1
 62
     7
370
    25
100
AcDbSpline
210
0.0
220
0.0
230
1.0
 70
    11
 71
     3
 72
    20
 73
    16
 74
     0
 42
0.0000000001
 43
0.0000000001
 12
1.0
 22
0.0
 32
0.0
 13
1.0
 23
0.0
 33
0.0
 40
0.0
 40
0.0
 40
0.0
 40
0.0
 40
0.2
 40
0.2
 40
0.2
 40
0.2
 40
0.4
 40
0.4
 40
0.4
 40
0.4
 40
0.6
 40
0.6
 40
0.6
 40
0.6
 40
1.0
 40
1.0
 40
1.0
 40
1.0
 10
-87.0774
 20
78.8937
 30
0.0
 10
-85.0623
 20
74.9328
 30
0.0
 10
-77.7354
 20
76.0704
 30
0.0
 10
-77.5254
 20
81.4211
 30
0.0
 10
-77.5254
 20
81.4211
 30
0.0
 10
-71.885
 20
73.5279
 30
0.0
 10
-82.3968
 20
67.6657
 30
0.0
 10
-90.1452
 20
73.5359
 30
0.0
 10
-90.1452
 20
73.5359
 30
0.0
 10
-88.8561
 20
74.8454
 30
0.0
 10
-87.7483
 20
77.2595
 30
0.0
 10
-87.0774
 20
78.8937
 30
0.0
 10
-87.0774
 20
78.8937
 30
0.0
 10
-87.0774
 20
78.8937
 30
0.0
 10
-87.0774
 20
78.8937
 30
0.0
 10
-87.0774
 20
78.8937
 30
0.0
  0
SPLINE
  5
78
330
1F
100
AcDbEntity
  8
layer 1
 62
     7
370
    25
100
AcDbSpline
210
0.0
220
0.0
230
1.0
 70
    11
 71
     3
 72
    20
 73
    16
 74
     0
 42
0.0000000001
 43
0.0000000001
 12
1.0
 22
0.0
 32
0.0
 13
1.0
 23
0.0
 33
0.0
 40
0.0
 40
0.0
 40
0.0
 40
0.0
 40
0.2
 40
0.2
 40
0.2
 40
0.2
 40
0.4
 40
0.4
 40
0.4
 40
0.4
 40
0.6
 40
0.6
 40
0.6
 40
0.6
 40
1.0
 40
1.0
 40
1.0
 40
1.0
 10
-85.3694
 20
97.502
 30
0.0
 10
-83.1783
 20
94.6285
 30
0.0
 10
-80.224
 20
90.958
 30
0.0
 10
-77.8862
 20
88.0271
 30
0.0
 10
-77.8862
 20
88.0271
 30
0.0
 10
-80.8716
 20
88.6524
 30
0.0
 10
-82.7421
 20
87.8871
 30
0.0
 10
-84.9331
 20
86.2942
 30
0.0
 10
-84.9331
 20
86.2942
 30
0.0
 10
-84.1952
 20
90.8645
 30
0.0
 10
-84.7334
 20
94.0494
 30
0.0
 10
-85.3693
 20
97.502
 30
0.0
 10
-85.3693
 20
97.502
 30
0.0
 10
-85.3693
 20
97.502
 30
0.0
 10
-85.3694
 20
97.502
 30
0.0
 10
-85.3694
 20
97.502
 30
0.0
  0
SPLINE
  5
79
330
1F
100
AcDbEntity
  8
layer 1
 62
     7
370
    25
100
AcDbSpline
210
0.0
220
0.0
230
1.0
 70
    11
 71
     3
 72
    20
 73
    16
 74
     0
 42
0.0000000001
 43
0.0000000001
 12
1.0
 22
0.0
 32
0.0
 13
1.0
 23
0.0
 33
0.0
 40
0.0
 40
0.0
 40
0.0
 40
0.0
 40
0.2
 40
0.2
 40
0.2
 40
0.2
 40
0.4
 40
0.4
 40
0.4
 40
0.4
 40
0.6
 40
0.6
 40
0.6
 40
0.6
 40
1.0
 40
1.0
 40
1.0
 40
1.0
 10
-71.5953
 20
60.6049
 30
0.0
 10
-73.0493
 20
60.0336
 30
0.0
 10
-74.4882
 20
57.009
 30
0.0
 10
-74.6082
 20
54.9566
 30
0.0
 10
-74.6082
 20
54.9566
 30
0.0
 10
-76.0406
 20
58.4404
 30
0.0
 10
-83.0084
 20
59.1841
 30
0.0
 10
-84.1421
 20
52.6424
 30
0.0
 10
-84.1421
 20
52.6424
 30
0.0
 10
-89.0828
 20
62.273
 30
0.0
 10
-78.3957
 20
66.385
 30
0.0
 10
-71.5953
 20
60.6049
 30
0.0
 10
-71.5953
 20
60.6049
 30
0.0
 10
-71.5953
 20
60.6049
 30
0.0
 10
-71.5953
 20
60.6049
 30
0.0
 10
-71.5953
 20
60.6049
 30
0.0
  0
SPLINE
  5
7A
330
1F
100
AcDbEntity
  8
layer 1
 62
     7
370
    25
100
AcDbSpline
210
0.0
220
0.0
230
1.0
 70
    11
 71
     3
 72
    20
 73
    16
 74
     0
 42
0.0000000001
 43
0.0000000001
 12
1.0
 22
0.0
 32
0.0
 13
1.0
 23
0.0
 33
0.0
 40
0.0
 40
0.0
 40
0.0
 40
0.0
 40
0.2
 40
0.2
 40
0.2
 40
0.2
 40
0.4
 40
0.4
 40
0.4
 40
0.4
 40
0.6
 40
0.6
 40
0.6
 40
0.6
 40
1.0
 40
1.0
 40
1.0
 40
1.0
 10
-76.7469
 20
47.7598
 30
0.0
 10
-77.0548
 20
44.5805
 30
0.0
 10
-77.2018
 20
40.3377
 30
0.0
 10
-76.3491
 20
37.2101
 30
0.0
 10
-76.3491
 20
37.2101
 30
0.0
 10
-78.2667
 20
39.4986
 30
0.0
 10
-81.2051
 20
42.9193
 30
0.0
 10
-83.5909
 20
45.9495
 30
0.0
 10
-83.5909
 20
45.9495
 30
0.0
 10
-80.129
 20
45.1655
 30
0.0
 10
-77.5776
 20
46.1422
 30
0.0
 10
-76.7469
 20
47.7598
 30
0.0
 10
-76.7469
 20
47.7598
 30
0.0
 10
-76.7469
 20
47.7598
 30
0.0
 10
-76.7469
 20
47.7598
 30
0.0
 10
-76.7469
 20
47.7598
 30
0.0
  0
SPLINE
  5
7B
330
1F
100
AcDbEntity
  8
layer 1
 62
     7
370
    25
100
AcDbSpline
210
0.0
220
0.0
230
1.0
 70
    11
 71
     3
 72
    20
 73
    16
 74
     0
 42
0.0000000001
 43
0.0000000001
 12
1.0
 22
0.0
 32
0.0
 13
1.0
 23
0.0
 33
0.0
 40
0.0
 40
0.0
 40
0.0
 40
0.0
 40
0.2
 40
0.2
 40
0.2
 40
0.2
 40
0.4
 40
0.4
 40
0.4
 40
0.4
 40
0.6
 40
0.6
 40
0.6
 40
0.6
 40
1.0
 40
1.0
 40
1.0
 40
1.0
 10
-71.3106
 20
100.4648
 30
0.0
 10
-73.205
 20
99.0589
 30
0.0
 10
-73.6885
 20
95.1743
 30
0.0
 10
-72.8752
 20
91.5511
 30
0.0
 10
-72.8752
 20
91.5511
 30
0.0
 10
-75.3696
 20
94.6052
 30
0.0
 10
-77.3045
 20
97.5641
 30
0.0
 10
-79.8166
 20
100.3177
 30
0.0
 10
-79.8166
 20
100.3177
 30
0.0
 10
-76.5711
 20
99.5199
 30
0.0
 10
-73.9178
 20
99.605
 30
0.0
 10
-71.3105
 20
100.4648
 30
0.0
 10
-71.3105
 20
100.4648
 30
0.0
 10
-71.3105
 20
100.4648
 30
0.0
 10
-71.3106
 20
100.4648
 30
0.0
 10
-71.3106
 20
100.4648
 30
0.0
  0
SPLINE
  5
7C
330
1F
100
AcDbEntity
  8
layer 1
 62
     7
370
    25
100
AcDbSpline
210
0.0
220
0.0
230
1.0
 70
    11
 71
     3
 72
    16
 73
    12
 74
     0
 42
0.0000000001
 43
0.0000000001
 12
1.0
 22
0.0
 32
0.0
 13
1.0
 23
0.0
 33
0.0
 40
0.0
 40
0.0
 40
0.0
 40
0.0
 40
0.25
 40
0.25
 40
0.25
 40
0.25
 40
0.5
 40
0.5
 40
0.5
 40
0.5
 40
1.0
 40
1.0
 40
1.0
 40
1.0
 10
-73.9211
 20
26.8555
 30
0.0
 10
-70.9195
 20
23.8852
 30
0.0
 10
-67.2462
 20
20.2862
 30
0.0
 10
-64.457
 20
17.7465
 30
0.0
 10
-64.457
 20
17.7465
 30
0.0
 10
-66.9738
 20
15.4725
 30
0.0
 10
-71.5324
 20
13.9071
 30
0.0
 10
-75.6638
 20
13.2974
 30
0.0
 10
-75.6638
 20
13.2974
 30
0.0
 10
-71.2798
 20
16.0233
 30
0.0
 10
-71.558
 20
23.5077
 30
0.0
 10
-73.9211
 20
26.8555
 30
0.0
  0
SPLINE
  5
7D
330
1F
100
AcDbEntity
  8
layer 1
 62
     7
370
    25
100
AcDbSpline
210
0.0
220
0.0
230
1.0
 70
    11
 71
     3
 72
    16
 73
    12
 74
     0
 42
0.0000000001
 43
0.0000000001
 12
1.0
 22
0.0
 32
0.0
 13
1.0
 23
0.0
 33
0.0
 40
0.0
 40
0.0
 40
0.0
 40
0.0
 40
0.25
 40
0.25
 40
0.25
 40
0.25
 40
0.5
 40
0.5
 40
0.5
 40
0.5
 40
1.0
 40
1.0
 40
1.0
 40
1.0
 10
-69.8533
 20
76.0865
 30
0.0
 10
-67.2532
 20
70.265
 30
0.0
 10
-65.0656
 20
65.7777
 30
0.0
 10
-61.4338
 20
59.4902
 30
0.0
 10
-61.4338
 20
59.4902
 30
0.0
 10
-66.2111
 20
63.6246
 30
0.0
 10
-70.7371
 20
66.68
 30
0.0
 10
-74.4978
 20
67.4048
 30
0.0
 10
-74.4978
 20
67.4048
 30
0.0
 10
-71.8622
 20
68.3
 30
0.0
 10
-69.3485
 20
71.9045
 30
0.0
 10
-69.8533
 20
76.0865
 30
0.0
  0
SPLINE
  5
7E
330
1F
100
AcDbEntity
  8
layer 1
 62
     7
370
    25
100
AcDbSpline
210
0.0
220
0.0
230
1.0
 70
    11
 71
     3
 72
    24
 73
    20
 74
     0
 42
0.0000000001
 43
0.0000000001
 12
1.0
 22
0.0
 32
0.0
 13
1.0
 23
0.0
 33
0.0
 40
0.0
 40
0.0
 40
0.0
 40
0.0
 40
0.1666666666666667
 40
0.1666666666666667
 40
0.1666666666666667
 40
0.1666666666666667
 40
0.3333333333333333
 40
0.3333333333333333
 40
0.3333333333333333
 40
0.3333333333333333
 40
0.5
 40
0.5
 40
0.5
 40
0.5
 40
0.6666666666666666
 40
0.6666666666666666
 40
0.6666666666666666
 40
0.6666666666666666
 40
1.0
 40
1.0
 40
1.0
 40
1.0
 10
-67.3872
 20
57.8342
 30
0.0
 10
-62.7536
 20
54.5121
 30
0.0
 10
-59.5989
 20
46.8084
 30
0.0
 10
-58.6715
 20
42.2197
 30
0.0
 10
-58.6715
 20
42.2197
 30
0.0
 10
-61.3861
 20
45.5933
 30
0.0
 10
-66.1357
 20
44.7299
 30
0.0
 10
-67.0556
 20
40.7721
 30
0.0
 10
-67.0556
 20
40.7721
 30
0.0
 10
-68.0368
 20
36.4759
 30
0.0
 10
-64.3626
 20
34.0454
 30
0.0
 10
-60.5291
 20
35.7461
 30
0.0
 10
-60.5291
 20
35.7461
 30
0.0
 10
-59.6846
 20
28.7745
 30
0.0
 10
-69.6079
 20
29.0362
 30
0.0
 10
-71.4674
 20
36.1612
 30
0.0
 10
-71.4674
 20
36.1612
 30
0.0
 10
-73.2272
 20
44.1658
 30
0.0
 10
-71.3851
 20
50.4442
 30
0.0
 10
-67.3872
 20
57.8342
 30
0.0
  0
SPLINE
  5
7F
330
1F
100
AcDbEntity
  8
layer 1
 62
     7
370
    25
100
AcDbSpline
210
0.0
220
0.0
230
1.0
 70
    11
 71
     3
 72
    16
 73
    12
 74
     0
 42
0.0000000001
 43
0.0000000001
 12
1.0
 22
0.0
 32
0.0
 13
1.0
 23
0.0
 33
0.0
 40
0.0
 40
0.0
 40
0.0
 40
0.0
 40
0.25
 40
0.25
 40
0.25
 40
0.25
 40
0.5
 40
0.5
 40
0.5
 40
0.5
 40
1.0
 40
1.0
 40
1.0
 40
1.0
 10
-46.5938
 20
125.0799
 30
0.0
 10
-46.5938
 20
125.0799
 30
0.0
 10
-46.5938
 20
102.2994
 30
0.0
 10
-46.5938
 20
102.2994
 30
0.0
 10
-46.5938
 20
102.2994
 30
0.0
 10
-49.2291
 20
112.7681
 30
0.0
 10
-57.3002
 20
122.2843
 30
0.0
 10
-68.794
 20
125.0799
 30
0.0
 10
-68.794
 20
125.0799
 30
0.0
 10
-68.794
 20
125.0799
 30
0.0
 10
-46.5938
 20
125.0799
 30
0.0
 10
-46.5938
 20
125.0799
 30
0.0
  0
SPLINE
  5
80
330
1F
100
AcDbEntity
  8
layer 1
 62
     7
370
    25
100
AcDbSpline
210
0.0
220
0.0
230
1.0
 70
    11
 71
     3
 72
    16
 73
    12
 74
     0
 42
0.0000000001
 43
0.0000000001
 12
1.0
 22
0.0
 32
0.0
 13
1.0
 23
0.0
 33
0.0
 40
0.0
 40
0.0
 40
0.0
 40
0.0
 40
0.25
 40
0.25
 40
0.25
 40
0.25
 40
0.5
 40
0.5
 40
0.5
 40
0.5
 40
1.0
 40
1.0
 40
1.0
 40
1.0
 10
-58.443
 20
30.2556
 30
0.0
 10
-58.5624
 20
27.616
 30
0.0
 10
-59.6965
 20
24.5326
 30
0.0
 10
-61.3356
 20
21.4708
 30
0.0
 10
-61.3356
 20
21.4708
 30
0.0
 10
-61.511
 20
21.5293
 30
0.0
 10
-64.7933
 20
24.87
 30
0.0
 10
-66.9092
 20
26.9609
 30
0.0
 10
-66.9092
 20
26.9609
 30
0.0
 10
-62.6555
 20
27.3892
 30
0.0
 10
-61.0896
 20
28.0715
 30
0.0
 10
-58.443
 20
30.2556
 30
0.0
  0
SPLINE
  5
81
330
1F
100
AcDbEntity
  8
layer 1
 62
     7
370
    25
100
AcDbSpline
210
0.0
220
0.0
230
1.0
 70
    11
 71
     3
 72
    16
 73
    12
 74
     0
 42
0.0000000001
 43
0.0000000001
 12
1.0
 22
0.0
 32
0.0
 13
1.0
 23
0.0
 33
0.0
 40
0.0
 40
0.0
 40
0.0
 40
0.0
 40
0.25
 40
0.25
 40
0.25
 40
0.25
 40
0.5
 40
0.5
 40
0.5
 40
0.5
 40
1.0
 40
1.0
 40
1.0
 40
1.0
 10
-66.5224
 20
82.0452
 30
0.0
 10
-59.191
 20
78.3398
 30
0.0
 10
-47.9009
 20
83.8151
 30
0.0
 10
-46.5938
 20
89.8807
 30
0.0
 10
-46.5938
 20
89.8807
 30
0.0
 10
-46.5938
 20
89.8807
 30
0.0
 10
-46.5938
 20
28.2308
 30
0.0
 10
-46.5938
 20
28.2308
 30
0.0
 10
-46.5938
 20
28.2308
 30
0.0
 10
-50.4961
 20
48.9719
 30
0.0
 10
-56.3058
 20
65.1708
 30
0.0
 10
-66.5224
 20
82.0452
 30
0.0
  0
SPLINE
  5
82
330
1F
100
AcDbEntity
  8
layer 1
 62
     7
370
    25
100
AcDbSpline
210
0.0
220
0.0
230
1.0
 70
    11
 71
     3
 72
    36
 73
    32
 74
     0
 42
0.0000000001
 43
0.0000000001
 12
1.0
 22
0.0
 32
0.0
 13
1.0
 23
0.0
 33
0.0
 40
0.0
 40
0.0
 40
0.0
 40
0.0
 40
0.1111111111111111
 40
0.1111111111111111
 40
0.1111111111111111
 40
0.1111111111111111
 40
0.2222222222222222
 40
0.2222222222222222
 40
0.2222222222222222
 40
0.2222222222222222
 40
0.3333333333333333
 40
0.3333333333333333
 40
0.3333333333333333
 40
0.3333333333333333
 40
0.4444444444444444
 40
0.4444444444444444
 40
0.4444444444444444
 40
0.4444444444444444
 40
0.5555555555555556
 40
0.5555555555555556
 40
0.5555555555555556
 40
0.5555555555555556
 40
0.6666666666666666
 40
0.6666666666666666
 40
0.6666666666666666
 40
0.6666666666666666
 40
0.7777777777777778
 40
0.7777777777777778
 40
0.7777777777777778
 40
0.7777777777777778
 40
1.0
 40
1.0
 40
1.0
 40
1.0
 10
-73.3227
 20
104.8369
 30
0.0
 10
-78.5698
 20
103.846
 30
0.0
 10
-82.8649
 20
105.6295
 30
0.0
 10
-84.2204
 20
110.5655
 30
0.0
 10
-84.2204
 20
110.5655
 30
0.0
 10
-84.6481
 20
113.023
 30
0.0
 10
-84.9237
 20
117.5278
 30
0.0
 10
-81.7619
 20
117.9682
 30
0.0
 10
-81.7619
 20
117.9682
 30
0.0
 10
-82.8758
 20
113.9103
 30
0.0
 10
-80.2149
 20
110.6834
 30
0.0
 10
-76.1667
 20
111.8569
 30
0.0
 10
-76.1667
 20
111.8569
 30
0.0
 10
-72.6778
 20
112.9595
 30
0.0
 10
-72.3369
 20
118.7361
 30
0.0
 10
-75.1534
 20
120.579
 30
0.0
 10
-75.1534
 20
120.579
 30
0.0
 10
-75.4612
 20
120.8345
 30
0.0
 10
-75.4028
 20
121.1332
 30
0.0
 10
-75.0648
 20
121.0328
 30
0.0
 10
-75.0648
 20
121.0328
 30
0.0
 10
-69.7323
 20
120.0841
 30
0.0
 10
-63.7214
 20
116.6879
 30
0.0
 10
-60.6144
 20
113.5168
 30
0.0
 10
-60.6144
 20
113.5168
 30
0.0
 10
-65.3194
 20
109.028
 30
0.0
 10
-67.8237
 20
106.0953
 30
0.0
 10
-73.3228
 20
104.8369
 30
0.0
 10
-73.3228
 20
104.8369
 30
0.0
 10
-73.3228
 20
104.8369
 30
0.0
 10
-73.3227
 20
104.8369
 30
0.0
 10
-73.3227
 20
104.8369
 30
0.0
  0
SPLINE
  5
83
330
1F
100
AcDbEntity
  8
layer 1
 62
     7
370
    25
100
AcDbSpline
210
0.0
220
0.0
230
1.0
 70
    11
 71
     3
 72
    24
 73
    20
 74
     0
 42
0.0000000001
 43
0.0000000001
 12
1.0
 22
0.0
 32
0.0
 13
1.0
 23
0.0
 33
0.0
 40
0.0
 40
0.0
 40
0.0
 40
0.0
 40
0.1666666666666667
 40
0.1666666666666667
 40
0.1666666666666667
 40
0.1666666666666667
 40
0.3333333333333333
 40
0.3333333333333333
 40
0.3333333333333333
 40
0.3333333333333333
 40
0.5
 40
0.5
 40
0.5
 40
0.5
 40
0.6666666666666666
 40
0.6666666666666666
 40
0.6666666666666666
 40
0.6666666666666666
 40
1.0
 40
1.0
 40
1.0
 40
1.0
 10
-61.2831
 20
87.1019
 30
0.0
 10
-64.7317
 20
87.1877
 30
0.0
 10
-66.8003
 20
88.8928
 30
0.0
 10
-67.0754
 20
92.6925
 30
0.0
 10
-67.0754
 20
92.6925
 30
0.0
 10
-56.9516
 20
90.3407
 30
0.0
 10
-56.8495
 20
102.9507
 30
0.0
 10
-65.002
 20
102.9871
 30
0.0
 10
-65.002
 20
102.9871
 30
0.0
 10
-61.9419
 20
104.7723
 30
0.0
 10
-59.7592
 20
107.0042
 30
0.0
 10
-57.7814
 20
109.8689
 30
0.0
 10
-57.7814
 20
109.8689
 30
0.0
 10
-54.7119
 20
106.6609
 30
0.0
 10
-52.6008
 20
101.6812
 30
0.0
 10
-52.0173
 20
98.1207
 30
0.0
 10
-52.0173
 20
98.1207
 30
0.0
 10
-51.2773
 20
91.3409
 30
0.0
 10
-56.0117
 20
87.1239
 30
0.0
 10
-61.2831
 20
87.1019
 30
0.0
  0
SPLINE
  5
84
330
1F
100
AcDbEntity
  8
layer 1
 62
     7
370
    25
100
AcDbSpline
210
0.0
220
0.0
230
1.0
 70
    11
 71
     3
 72
    24
 73
    20
 74
     0
 42
0.0000000001
 43
0.0000000001
 12
1.0
 22
0.0
 32
0.0
 13
1.0
 23
0.0
 33
0.0
 40
0.0
 40
0.0
 40
0.0
 40
0.0
 40
0.1666666666666667
 40
0.1666666666666667
 40
0.1666666666666667
 40
0.1666666666666667
 40
0.3333333333333333
 40
0.3333333333333333
 40
0.3333333333333333
 40
0.3333333333333333
 40
0.5
 40
0.5
 40
0.5
 40
0.5
 40
0.6666666666666666
 40
0.6666666666666666
 40
0.6666666666666666
 40
0.6666666666666666
 40
1.0
 40
1.0
 40
1.0
 40
1.0
 10
-94.1197
 20
75.8155
 30
0.0
 10
-98.7533
 20
79.1375
 30
0.0
 10
-101.9079
 20
86.8413
 30
0.0
 10
-102.8353
 20
91.4299
 30
0.0
 10
-102.8353
 20
91.4299
 30
0.0
 10
-100.1208
 20
88.0563
 30
0.0
 10
-95.3712
 20
88.9197
 30
0.0
 10
-94.4512
 20
92.8775
 30
0.0
 10
-94.4512
 20
92.8775
 30
0.0
 10
-93.47
 20
97.1737
 30
0.0
 10
-97.1443
 20
99.6042
 30
0.0
 10
-100.9777
 20
97.9035
 30
0.0
 10
-100.9777
 20
97.9035
 30
0.0
 10
-100.8603
 20
104.1222
 30
0.0
 10
-91.8989
 20
104.6134
 30
0.0
 10
-90.0394
 20
97.4884
 30
0.0
 10
-90.0394
 20
97.4884
 30
0.0
 10
-88.2796
 20
89.4838
 30
0.0
 10
-90.1218
 20
83.2054
 30
0.0
 10
-94.1197
 20
75.8155
 30
0.0
  0
SPLINE
  5
85
330
1F
100
AcDbEntity
  8
layer 1
 62
     7
370
    25
100
AcDbSpline
210
0.0
220
0.0
230
1.0
 70
    11
 71
     3
 72
    24
 73
    20
 74
     0
 42
0.0000000001
 43
0.0000000001
 12
1.0
 22
0.0
 32
0.0
 13
1.0
 23
0.0
 33
0.0
 40
0.0
 40
0.0
 40
0.0
 40
0.0
 40
0.1666666666666667
 40
0.1666666666666667
 40
0.1666666666666667
 40
0.1666666666666667
 40
0.3333333333333333
 40
0.3333333333333333
 40
0.3333333333333333
 40
0.3333333333333333
 40
0.5
 40
0.5
 40
0.5
 40
0.5
 40
0.6666666666666666
 40
0.6666666666666666
 40
0.6666666666666666
 40
0.6666666666666666
 40
1.0
 40
1.0
 40
1.0
 40
1.0
 10
-100.5303
 20
-29.8036
 30
0.0
 10
-97.0818
 20
-29.7178
 30
0.0
 10
-95.0131
 20
-28.0127
 30
0.0
 10
-94.738
 20
-24.213
 30
0.0
 10
-94.738
 20
-24.213
 30
0.0
 10
-104.8618
 20
-26.5648
 30
0.0
 10
-104.9639
 20
-13.9547
 30
0.0
 10
-96.8114
 20
-13.9183
 30
0.0
 10
-96.8114
 20
-13.9183
 30
0.0
 10
-99.8715
 20
-12.1331
 30
0.0
 10
-102.0542
 20
-9.9013
 30
0.0
 10
-104.032
 20
-7.0365
 30
0.0
 10
-104.032
 20
-7.0365
 30
0.0
 10
-107.1015
 20
-10.2445
 30
0.0
 10
-109.2126
 20
-15.2243
 30
0.0
 10
-109.7961
 20
-18.7848
 30
0.0
 10
-109.7961
 20
-18.7848
 30
0.0
 10
-110.5362
 20
-25.5646
 30
0.0
 10
-105.8017
 20
-29.7815
 30
0.0
 10
-100.5303
 20
-29.8036
 30
0.0
  0
SPLINE
  5
86
330
1F
100
AcDbEntity
  8
layer 1
 62
     7
370
    25
100
AcDbSpline
210
0.0
220
0.0
230
1.0
 70
    11
 71
     3
 72
    16
 73
    12
 74
     0
 42
0.0000000001
 43
0.0000000001
 12
1.0
 22
0.0
 32
0.0
 13
1.0
 23
0.0
 33
0.0
 40
0.0
 40
0.0
 40
0.0
 40
0.0
 40
0.25
 40
0.25
 40
0.25
 40
0.25
 40
0.5
 40
0.5
 40
0.5
 40
0.5
 40
1.0
 40
1.0
 40
1.0
 40
1.0
 10
-108.9089
 20
-108.1311
 30
0.0
 10
-108.9089
 20
-108.1311
 30
0.0
 10
-90.366
 20
-108.1311
 30
0.0
 10
-90.366
 20
-108.1311
 30
0.0
 10
-90.366
 20
-108.1311
 30
0.0
 10
-103.77
 20
-104.1593
 30
0.0
 10
-107.2392
 20
-97.5035
 30
0.0
 10
-108.1781
 20
-81.9352
 30
0.0
 10
-108.1781
 20
-81.9352
 30
0.0
 10
-109.8237
 20
-88.7324
 30
0.0
 10
-110.1857
 20
-100.0502
 30
0.0
 10
-108.9089
 20
-108.1311
 30
0.0
  0
SPLINE
  5
87
330
1F
100
AcDbEntity
  8
layer 1
 62
     7
370
    25
100
AcDbSpline
210
0.0
220
0.0
230
1.0
 70
    11
 71
     3
 72
    16
 73
    12
 74
     0
 42
0.0000000001
 43
0.0000000001
 12
1.0
 22
0.0
 32
0.0
 13
1.0
 23
0.0
 33
0.0
 40
0.0
 40
0.0
 40
0.0
 40
0.0
 40
0.25
 40
0.25
 40
0.25
 40
0.25
 40
0.5
 40
0.5
 40
0.5
 40
0.5
 40
1.0
 40
1.0
 40
1.0
 40
1.0
 10
-100.2609
 20
-95.8786
 30
0.0
 10
-97.9444
 20
-93.7258
 30
0.0
 10
-97.155
 20
-92.8731
 30
0.0
 10
-94.1754
 20
-90.1289
 30
0.0
 10
-94.1754
 20
-90.1289
 30
0.0
 10
-97.6422
 20
-91.0426
 30
0.0
 10
-101.2384
 20
-89.9527
 30
0.0
 10
-103.3344
 20
-86.724
 30
0.0
 10
-103.3344
 20
-86.724
 30
0.0
 10
-103.5044
 20
-89.154
 30
0.0
 10
-102.2634
 20
-94.6445
 30
0.0
 10
-100.2609
 20
-95.8786
 30
0.0
  0
SPLINE
  5
88
330
1F
100
AcDbEntity
  8
layer 1
 62
     7
370
    25
100
AcDbSpline
210
0.0
220
0.0
230
1.0
 70
    11
 71
     3
 72
    16
 73
    12
 74
     0
 42
0.0000000001
 43
0.0000000001
 12
1.0
 22
0.0
 32
0.0
 13
1.0
 23
0.0
 33
0.0
 40
0.0
 40
0.0
 40
0.0
 40
0.0
 40
0.25
 40
0.25
 40
0.25
 40
0.25
 40
0.5
 40
0.5
 40
0.5
 40
0.5
 40
1.0
 40
1.0
 40
1.0
 40
1.0
 10
-100.2274
 20
-57.8712
 30
0.0
 10
-96.1283
 20
-53.4263
 30
0.0
 10
-91.3499
 20
-50.5336
 30
0.0
 10
-86.8945
 20
-49.6208
 30
0.0
 10
-86.8945
 20
-49.6208
 30
0.0
 10
-89.8682
 20
-48.0184
 30
0.0
 10
-91.4705
 20
-44.2669
 30
0.0
 10
-91.5895
 20
-40.7116
 30
0.0
 10
-91.5895
 20
-40.7116
 30
0.0
 10
-95.5711
 20
-45.8296
 30
0.0
 10
-98.4517
 20
-52.1066
 30
0.0
 10
-100.2274
 20
-57.8712
 30
0.0
  0
SPLINE
  5
89
330
1F
100
AcDbEntity
  8
layer 1
 62
     7
370
    25
100
AcDbSpline
210
0.0
220
0.0
230
1.0
 70
    11
 71
     3
 72
    36
 73
    32
 74
     0
 42
0.0000000001
 43
0.0000000001
 12
1.0
 22
0.0
 32
0.0
 13
1.0
 23
0.0
 33
0.0
 40
0.0
 40
0.0
 40
0.0
 40
0.0
 40
0.1111111111111111
 40
0.1111111111111111
 40
0.1111111111111111
 40
0.1111111111111111
 40
0.2222222222222222
 40
0.2222222222222222
 40
0.2222222222222222
 40
0.2222222222222222
 40
0.3333333333333333
 40
0.3333333333333333
 40
0.3333333333333333
 40
0.3333333333333333
 40
0.4444444444444444
 40
0.4444444444444444
 40
0.4444444444444444
 40
0.4444444444444444
 40
0.5555555555555556
 40
0.5555555555555556
 40
0.5555555555555556
 40
0.5555555555555556
 40
0.6666666666666666
 40
0.6666666666666666
 40
0.6666666666666666
 40
0.6666666666666666
 40
0.7777777777777778
 40
0.7777777777777778
 40
0.7777777777777778
 40
0.7777777777777778
 40
1.0
 40
1.0
 40
1.0
 40
1.0
 10
-88.1414
 20
-12.3049
 30
0.0
 10
-82.8943
 20
-13.2959
 30
0.0
 10
-78.5992
 20
-11.5123
 30
0.0
 10
-77.2437
 20
-6.5763
 30
0.0
 10
-77.2437
 20
-6.5763
 30
0.0
 10
-76.816
 20
-4.1189
 30
0.0
 10
-76.5404
 20
0.3859
 30
0.0
 10
-79.7023
 20
0.8264
 30
0.0
 10
-79.7023
 20
0.8264
 30
0.0
 10
-78.5883
 20
-3.2316
 30
0.0
 10
-81.2492
 20
-6.4584
 30
0.0
 10
-85.2974
 20
-5.285
 30
0.0
 10
-85.2974
 20
-5.285
 30
0.0
 10
-88.7863
 20
-4.1824
 30
0.0
 10
-89.1272
 20
1.5942
 30
0.0
 10
-86.3107
 20
3.4372
 30
0.0
 10
-86.3107
 20
3.4372
 30
0.0
 10
-86.0029
 20
3.6926
 30
0.0
 10
-86.0613
 20
3.9914
 30
0.0
 10
-86.3993
 20
3.8909
 30
0.0
 10
-86.3993
 20
3.8909
 30
0.0
 10
-91.7318
 20
2.9422
 30
0.0
 10
-97.7427
 20
-0.4539
 30
0.0
 10
-100.8497
 20
-3.6251
 30
0.0
 10
-100.8497
 20
-3.6251
 30
0.0
 10
-96.1447
 20
-8.1139
 30
0.0
 10
-93.6404
 20
-11.0465
 30
0.0
 10
-88.1413
 20
-12.3049
 30
0.0
 10
-88.1413
 20
-12.3049
 30
0.0
 10
-88.1413
 20
-12.3049
 30
0.0
 10
-88.1414
 20
-12.3049
 30
0.0
 10
-88.1414
 20
-12.3049
 30
0.0
  0
SPLINE
  5
8A
330
1F
100
AcDbEntity
  8
layer 1
 62
     7
370
    25
100
AcDbSpline
210
0.0
220
0.0
230
1.0
 70
    11
 71
     3
 72
    16
 73
    12
 74
     0
 42
0.0000000001
 43
0.0000000001
 12
1.0
 22
0.0
 32
0.0
 13
1.0
 23
0.0
 33
0.0
 40
0.0
 40
0.0
 40
0.0
 40
0.0
 40
0.25
 40
0.25
 40
0.25
 40
0.25
 40
0.5
 40
0.5
 40
0.5
 40
0.5
 40
1.0
 40
1.0
 40
1.0
 40
1.0
 10
-95.5781
 20
-100.5759
 30
0.0
 10
-92.3121
 20
-102.7768
 30
0.0
 10
-88.8158
 20
-103.6223
 30
0.0
 10
-85.4975
 20
-103.8686
 30
0.0
 10
-85.4975
 20
-103.8686
 30
0.0
 10
-88.2969
 20
-102.147
 30
0.0
 10
-89.9827
 20
-98.8782
 30
0.0
 10
-88.4125
 20
-93.1461
 30
0.0
 10
-88.4125
 20
-93.1461
 30
0.0
 10
-90.9814
 20
-95.721
 30
0.0
 10
-92.6357
 20
-97.4855
 30
0.0
 10
-95.5781
 20
-100.5759
 30
0.0
  0
SPLINE
  5
8B
330
1F
100
AcDbEntity
  8
layer 1
 62
     7
370
    25
100
AcDbSpline
210
0.0
220
0.0
230
1.0
 70
    11
 71
     3
 72
    16
 73
    12
 74
     0
 42
0.0000000001
 43
0.0000000001
 12
1.0
 22
0.0
 32
0.0
 13
1.0
 23
0.0
 33
0.0
 40
0.0
 40
0.0
 40
0.0
 40
0.0
 40
0.25
 40
0.25
 40
0.25
 40
0.25
 40
0.5
 40
0.5
 40
0.5
 40
0.5
 40
1.0
 40
1.0
 40
1.0
 40
1.0
 10
-89.0663
 20
-27.285
 30
0.0
 10
-86.332
 20
-23.5969
 30
0.0
 10
-82.6394
 20
-19.4058
 30
0.0
 10
-79.7145
 20
-16.064
 30
0.0
 10
-79.7145
 20
-16.064
 30
0.0
 10
-82.9628
 20
-17.8489
 30
0.0
 10
-87.1818
 20
-17.8688
 30
0.0
 10
-90.2716
 20
-16.7904
 30
0.0
 10
-90.2716
 20
-16.7904
 30
0.0
 10
-88.3544
 20
-19.5847
 30
0.0
 10
-87.7708
 20
-23.9109
 30
0.0
 10
-89.0663
 20
-27.285
 30
0.0
  0
SPLINE
  5
8C
330
1F
100
AcDbEntity
  8
layer 1
 62
     7
370
    25
100
AcDbSpline
210
0.0
220
0.0
230
1.0
 70
    11
 71
     3
 72
    20
 73
    16
 74
     0
 42
0.0000000001
 43
0.0000000001
 12
1.0
 22
0.0
 32
0.0
 13
1.0
 23
0.0
 33
0.0
 40
0.0
 40
0.0
 40
0.0
 40
0.0
 40
0.2
 40
0.2
 40
0.2
 40
0.2
 40
0.4
 40
0.4
 40
0.4
 40
0.4
 40
0.6
 40
0.6
 40
0.6
 40
0.6
 40
1.0
 40
1.0
 40
1.0
 40
1.0
 10
-87.0774
 20
-61.9449
 30
0.0
 10
-85.0623
 20
-57.984
 30
0.0
 10
-77.7354
 20
-59.1216
 30
0.0
 10
-77.5254
 20
-64.4723
 30
0.0
 10
-77.5254
 20
-64.4723
 30
0.0
 10
-71.885
 20
-56.5791
 30
0.0
 10
-82.3968
 20
-50.7169
 30
0.0
 10
-90.1452
 20
-56.5871
 30
0.0
 10
-90.1452
 20
-56.5871
 30
0.0
 10
-88.8561
 20
-57.8966
 30
0.0
 10
-87.7483
 20
-60.3107
 30
0.0
 10
-87.0774
 20
-61.9449
 30
0.0
 10
-87.0774
 20
-61.9449
 30
0.0
 10
-87.0774
 20
-61.9449
 30
0.0
 10
-87.0774
 20
-61.9449
 30
0.0
 10
-87.0774
 20
-61.9449
 30
0.0
  0
SPLINE
  5
8D
330
1F
100
AcDbEntity
  8
layer 1
 62
     7
370
    25
100
AcDbSpline
210
0.0
220
0.0
230
1.0
 70
    11
 71
     3
 72
    20
 73
    16
 74
     0
 42
0.0000000001
 43
0.0000000001
 12
1.0
 22
0.0
 32
0.0
 13
1.0
 23
0.0
 33
0.0
 40
0.0
 40
0.0
 40
0.0
 40
0.0
 40
0.2
 40
0.2
 40
0.2
 40
0.2
 40
0.4
 40
0.4
 40
0.4
 40
0.4
 40
0.6
 40
0.6
 40
0.6
 40
0.6
 40
1.0
 40
1.0
 40
1.0
 40
1.0
 10
-85.3694
 20
-80.5531
 30
0.0
 10
-83.1783
 20
-77.6797
 30
0.0
 10
-80.224
 20
-74.0092
 30
0.0
 10
-77.8862
 20
-71.0783
 30
0.0
 10
-77.8862
 20
-71.0783
 30
0.0
 10
-80.8716
 20
-71.7036
 30
0.0
 10
-82.7421
 20
-70.9383
 30
0.0
 10
-84.9331
 20
-69.3454
 30
0.0
 10
-84.9331
 20
-69.3454
 30
0.0
 10
-84.1952
 20
-73.9157
 30
0.0
 10
-84.7334
 20
-77.1006
 30
0.0
 10
-85.3693
 20
-80.5531
 30
0.0
 10
-85.3693
 20
-80.5531
 30
0.0
 10
-85.3693
 20
-80.5531
 30
0.0
 10
-85.3694
 20
-80.5531
 30
0.0
 10
-85.3694
 20
-80.5531
 30
0.0
  0
SPLINE
  5
8E
330
1F
100
AcDbEntity
  8
layer 1
 62
     7
370
    25
100
AcDbSpline
210
0.0
220
0.0
230
1.0
 70
    11
 71
     3
 72
    20
 73
    16
 74
     0
 42
0.0000000001
 43
0.0000000001
 12
1.0
 22
0.0
 32
0.0
 13
1.0
 23
0.0
 33
0.0
 40
0.0
 40
0.0
 40
0.0
 40
0.0
 40
0.2
 40
0.2
 40
0.2
 40
0.2
 40
0.4
 40
0.4
 40
0.4
 40
0.4
 40
0.6
 40
0.6
 40
0.6
 40
0.6
 40
1.0
 40
1.0
 40
1.0
 40
1.0
 10
-71.5953
 20
-43.6561
 30
0.0
 10
-73.0493
 20
-43.0848
 30
0.0
 10
-74.4882
 20
-40.0601
 30
0.0
 10
-74.6082
 20
-38.0078
 30
0.0
 10
-74.6082
 20
-38.0078
 30
0.0
 10
-76.0406
 20
-41.4916
 30
0.0
 10
-83.0084
 20
-42.2353
 30
0.0
 10
-84.1421
 20
-35.6935
 30
0.0
 10
-84.1421
 20
-35.6935
 30
0.0
 10
-89.0828
 20
-45.3242
 30
0.0
 10
-78.3957
 20
-49.4362
 30
0.0
 10
-71.5953
 20
-43.6561
 30
0.0
 10
-71.5953
 20
-43.6561
 30
0.0
 10
-71.5953
 20
-43.6561
 30
0.0
 10
-71.5953
 20
-43.6561
 30
0.0
 10
-71.5953
 20
-43.6561
 30
0.0
  0
SPLINE
  5
8F
330
1F
100
AcDbEntity
  8
layer 1
 62
     7
370
    25
100
AcDbSpline
210
0.0
220
0.0
230
1.0
 70
    11
 71
     3
 72
    20
 73
    16
 74
     0
 42
0.0000000001
 43
0.0000000001
 12
1.0
 22
0.0
 32
0.0
 13
1.0
 23
0.0
 33
0.0
 40
0.0
 40
0.0
 40
0.0
 40
0.0
 40
0.2
 40
0.2
 40
0.2
 40
0.2
 40
0.4
 40
0.4
 40
0.4
 40
0.4
 40
0.6
 40
0.6
 40
0.6
 40
0.6
 40
1.0
 40
1.0
 40
1.0
 40
1.0
 10
-76.7469
 20
-30.811
 30
0.0
 10
-77.0548
 20
-27.6317
 30
0.0
 10
-77.2018
 20
-23.3889
 30
0.0
 10
-76.3491
 20
-20.2613
 30
0.0
 10
-76.3491
 20
-20.2613
 30
0.0
 10
-78.2667
 20
-22.5498
 30
0.0
 10
-81.2051
 20
-25.9705
 30
0.0
 10
-83.5909
 20
-29.0006
 30
0.0
 10
-83.5909
 20
-29.0006
 30
0.0
 10
-80.129
 20
-28.2166
 30
0.0
 10
-77.5776
 20
-29.1934
 30
0.0
 10
-76.7469
 20
-30.811
 30
0.0
 10
-76.7469
 20
-30.811
 30
0.0
 10
-76.7469
 20
-30.811
 30
0.0
 10
-76.7469
 20
-30.811
 30
0.0
 10
-76.7469
 20
-30.811
 30
0.0
  0
SPLINE
  5
90
330
1F
100
AcDbEntity
  8
layer 1
 62
     7
370
    25
100
AcDbSpline
210
0.0
220
0.0
230
1.0
 70
    11
 71
     3
 72
    20
 73
    16
 74
     0
 42
0.0000000001
 43
0.0000000001
 12
1.0
 22
0.0
 32
0.0
 13
1.0
 23
0.0
 33
0.0
 40
0.0
 40
0.0
 40
0.0
 40
0.0
 40
0.2
 40
0.2
 40
0.2
 40
0.2
 40
0.4
 40
0.4
 40
0.4
 40
0.4
 40
0.6
 40
0.6
 40
0.6
 40
0.6
 40
1.0
 40
1.0
 40
1.0
 40
1.0
 10
-71.3106
 20
-83.5159
 30
0.0
 10
-73.205
 20
-82.1101
 30
0.0
 10
-73.6885
 20
-78.2255
 30
0.0
 10
-72.8752
 20
-74.6023
 30
0.0
 10
-72.8752
 20
-74.6023
 30
0.0
 10
-75.3696
 20
-77.6564
 30
0.0
 10
-77.3045
 20
-80.6153
 30
0.0
 10
-79.8166
 20
-83.3689
 30
0.0
 10
-79.8166
 20
-83.3689
 30
0.0
 10
-76.5711
 20
-82.571
 30
0.0
 10
-73.9178
 20
-82.6562
 30
0.0
 10
-71.3105
 20
-83.516
 30
0.0
 10
-71.3105
 20
-83.516
 30
0.0
 10
-71.3105
 20
-83.516
 30
0.0
 10
-71.3106
 20
-83.5159
 30
0.0
 10
-71.3106
 20
-83.5159
 30
0.0
  0
SPLINE
  5
91
330
1F
100
AcDbEntity
  8
layer 1
 62
     7
370
    25
100
AcDbSpline
210
0.0
220
0.0
230
1.0
 70
    11
 71
     3
 72
    16
 73
    12
 74
     0
 42
0.0000000001
 43
0.0000000001
 12
1.0
 22
0.0
 32
0.0
 13
1.0
 23
0.0
 33
0.0
 40
0.0
 40
0.0
 40
0.0
 40
0.0
 40
0.25
 40
0.25
 40
0.25
 40
0.25
 40
0.5
 40
0.5
 40
0.5
 40
0.5
 40
1.0
 40
1.0
 40
1.0
 40
1.0
 10
-73.9211
 20
-9.9067
 30
0.0
 10
-70.9195
 20
-6.9364
 30
0.0
 10
-67.2462
 20
-3.3374
 30
0.0
 10
-64.457
 20
-0.7977
 30
0.0
 10
-64.457
 20
-0.7977
 30
0.0
 10
-66.9738
 20
1.4763
 30
0.0
 10
-71.5324
 20
3.0417
 30
0.0
 10
-75.6638
 20
3.6514
 30
0.0
 10
-75.6638
 20
3.6514
 30
0.0
 10
-71.2798
 20
0.9255
 30
0.0
 10
-71.558
 20
-6.5589
 30
0.0
 10
-73.9211
 20
-9.9067
 30
0.0
  0
SPLINE
  5
92
330
1F
100
AcDbEntity
  8
layer 1
 62
     7
370
    25
100
AcDbSpline
210
0.0
220
0.0
230
1.0
 70
    11
 71
     3
 72
    16
 73
    12
 74
     0
 42
0.0000000001
 43
0.0000000001
 12
1.0
 22
0.0
 32
0.0
 13
1.0
 23
0.0
 33
0.0
 40
0.0
 40
0.0
 40
0.0
 40
0.0
 40
0.25
 40
0.25
 40
0.25
 40
0.25
 40
0.5
 40
0.5
 40
0.5
 40
0.5
 40
1.0
 40
1.0
 40
1.0
 40
1.0
 10
-69.8533
 20
-59.1376
 30
0.0
 10
-67.2532
 20
-53.3162
 30
0.0
 10
-65.0656
 20
-48.8289
 30
0.0
 10
-61.4338
 20
-42.5414
 30
0.0
 10
-61.4338
 20
-42.5414
 30
0.0
 10
-66.2111
 20
-46.6758
 30
0.0
 10
-70.7371
 20
-49.7311
 30
0.0
 10
-74.4978
 20
-50.456
 30
0.0
 10
-74.4978
 20
-50.456
 30
0.0
 10
-71.8622
 20
-51.3512
 30
0.0
 10
-69.3485
 20
-54.9557
 30
0.0
 10
-69.8533
 20
-59.1376
 30
0.0
  0
SPLINE
  5
93
330
1F
100
AcDbEntity
  8
layer 1
 62
     7
370
    25
100
AcDbSpline
210
0.0
220
0.0
230
1.0
 70
    11
 71
     3
 72
    20
 73
    16
 74
     0
 42
0.0000000001
 43
0.0000000001
 12
1.0
 22
0.0
 32
0.0
 13
1.0
 23
0.0
 33
0.0
 40
0.0
 40
0.0
 40
0.0
 40
0.0
 40
0.2
 40
0.2
 40
0.2
 40
0.2
 40
0.4
 40
0.4
 40
0.4
 40
0.4
 40
0.6
 40
0.6
 40
0.6
 40
0.6
 40
1.0
 40
1.0
 40
1.0
 40
1.0
 10
-53.7606
 20
-18.4699
 30
0.0
 10
-50.1001
 20
-0.6377
 30
0.0
 10
-49.5418
 20
18.5386
 30
0.0
 10
-53.7606
 20
35.4187
 30
0.0
 10
-53.7606
 20
35.4187
 30
0.0
 10
-54.0722
 20
23.4074
 30
0.0
 10
-56.5444
 20
11.4962
 30
0.0
 10
-72.8278
 20
8.4744
 30
0.0
 10
-72.8278
 20
8.4744
 30
0.0
 10
-56.5444
 20
5.4526
 30
0.0
 10
-54.0722
 20
-6.4586
 30
0.0
 10
-53.7606
 20
-18.47
 30
0.0
 10
-53.7606
 20
-18.47
 30
0.0
 10
-53.7606
 20
-18.47
 30
0.0
 10
-53.7606
 20
-18.4699
 30
0.0
 10
-53.7606
 20
-18.4699
 30
0.0
  0
SPLINE
  5
94
330
1F
100
AcDbEntity
  8
layer 1
 62
     7
370
    25
100
AcDbSpline
210
0.0
220
0.0
230
1.0
 70
    11
 71
     3
 72
    24
 73
    20
 74
     0
 42
0.0000000001
 43
0.0000000001
 12
1.0
 22
0.0
 32
0.0
 13
1.0
 23
0.0
 33
0.0
 40
0.0
 40
0.0
 40
0.0
 40
0.0
 40
0.1666666666666667
 40
0.1666666666666667
 40
0.1666666666666667
 40
0.1666666666666667
 40
0.3333333333333333
 40
0.3333333333333333
 40
0.3333333333333333
 40
0.3333333333333333
 40
0.5
 40
0.5
 40
0.5
 40
0.5
 40
0.6666666666666666
 40
0.6666666666666666
 40
0.6666666666666666
 40
0.6666666666666666
 40
1.0
 40
1.0
 40
1.0
 40
1.0
 10
-67.3872
 20
-40.8853
 30
0.0
 10
-62.7536
 20
-37.5633
 30
0.0
 10
-59.5989
 20
-29.8595
 30
0.0
 10
-58.6715
 20
-25.2709
 30
0.0
 10
-58.6715
 20
-25.2709
 30
0.0
 10
-61.3861
 20
-28.6445
 30
0.0
 10
-66.1357
 20
-27.7811
 30
0.0
 10
-67.0556
 20
-23.8233
 30
0.0
 10
-67.0556
 20
-23.8233
 30
0.0
 10
-68.0368
 20
-19.5271
 30
0.0
 10
-64.3626
 20
-17.0966
 30
0.0
 10
-60.5291
 20
-18.7973
 30
0.0
 10
-60.5291
 20
-18.7973
 30
0.0
 10
-59.6846
 20
-11.8257
 30
0.0
 10
-69.6079
 20
-12.0874
 30
0.0
 10
-71.4674
 20
-19.2124
 30
0.0
 10
-71.4674
 20
-19.2124
 30
0.0
 10
-73.2272
 20
-27.217
 30
0.0
 10
-71.3851
 20
-33.4954
 30
0.0
 10
-67.3872
 20
-40.8853
 30
0.0
  0
SPLINE
  5
95
330
1F
100
AcDbEntity
  8
layer 1
 62
     7
370
    25
100
AcDbSpline
210
0.0
220
0.0
230
1.0
 70
    11
 71
     3
 72
    16
 73
    12
 74
     0
 42
0.0000000001
 43
0.0000000001
 12
1.0
 22
0.0
 32
0.0
 13
1.0
 23
0.0
 33
0.0
 40
0.0
 40
0.0
 40
0.0
 40
0.0
 40
0.25
 40
0.25
 40
0.25
 40
0.25
 40
0.5
 40
0.5
 40
0.5
 40
0.5
 40
1.0
 40
1.0
 40
1.0
 40
1.0
 10
-46.5938
 20
-108.1311
 30
0.0
 10
-46.5938
 20
-108.1311
 30
0.0
 10
-46.5938
 20
-85.3506
 30
0.0
 10
-46.5938
 20
-85.3506
 30
0.0
 10
-46.5938
 20
-85.3506
 30
0.0
 10
-49.2291
 20
-95.8193
 30
0.0
 10
-57.3002
 20
-105.3355
 30
0.0
 10
-68.794
 20
-108.1311
 30
0.0
 10
-68.794
 20
-108.1311
 30
0.0
 10
-68.794
 20
-108.1311
 30
0.0
 10
-46.5938
 20
-108.1311
 30
0.0
 10
-46.5938
 20
-108.1311
 30
0.0
  0
SPLINE
  5
96
330
1F
100
AcDbEntity
  8
layer 1
 62
     7
370
    25
100
AcDbSpline
210
0.0
220
0.0
230
1.0
 70
    11
 71
     3
 72
    16
 73
    12
 74
     0
 42
0.0000000001
 43
0.0000000001
 12
1.0
 22
0.0
 32
0.0
 13
1.0
 23
0.0
 33
0.0
 40
0.0
 40
0.0
 40
0.0
 40
0.0
 40
0.25
 40
0.25
 40
0.25
 40
0.25
 40
0.5
 40
0.5
 40
0.5
 40
0.5
 40
1.0
 40
1.0
 40
1.0
 40
1.0
 10
-58.443
 20
-13.3068
 30
0.0
 10
-58.5624
 20
-10.6672
 30
0.0
 10
-59.6965
 20
-7.5838
 30
0.0
 10
-61.3356
 20
-4.522
 30
0.0
 10
-61.3356
 20
-4.522
 30
0.0
 10
-61.511
 20
-4.5805
 30
0.0
 10
-64.7933
 20
-7.9212
 30
0.0
 10
-66.9092
 20
-10.0121
 30
0.0
 10
-66.9092
 20
-10.0121
 30
0.0
 10
-62.6555
 20
-10.4404
 30
0.0
 10
-61.0896
 20
-11.1227
 30
0.0
 10
-58.443
 20
-13.3068
 30
0.0
  0
SPLINE
  5
97
330
1F
100
AcDbEntity
  8
layer 1
 62
     7
370
    25
100
AcDbSpline
210
0.0
220
0.0
230
1.0
 70
    11
 71
     3
 72
    16
 73
    12
 74
     0
 42
0.0000000001
 43
0.0000000001
 12
1.0
 22
0.0
 32
0.0
 13
1.0
 23
0.0
 33
0.0
 40
0.0
 40
0.0
 40
0.0
 40
0.0
 40
0.25
 40
0.25
 40
0.25
 40
0.25
 40
0.5
 40
0.5
 40
0.5
 40
0.5
 40
1.0
 40
1.0
 40
1.0
 40
1.0
 10
-66.5224
 20
-65.0964
 30
0.0
 10
-59.191
 20
-61.391
 30
0.0
 10
-47.9009
 20
-66.8663
 30
0.0
 10
-46.5938
 20
-72.9319
 30
0.0
 10
-46.5938
 20
-72.9319
 30
0.0
 10
-46.5938
 20
-72.9319
 30
0.0
 10
-46.5938
 20
-11.282
 30
0.0
 10
-46.5938
 20
-11.282
 30
0.0
 10
-46.5938
 20
-11.282
 30
0.0
 10
-50.4961
 20
-32.0231
 30
0.0
 10
-56.3058
 20
-48.222
 30
0.0
 10
-66.5224
 20
-65.0964
 30
0.0
  0
SPLINE
  5
98
330
1F
100
AcDbEntity
  8
layer 1
 62
     7
370
    25
100
AcDbSpline
210
0.0
220
0.0
230
1.0
 70
    11
 71
     3
 72
    36
 73
    32
 74
     0
 42
0.0000000001
 43
0.0000000001
 12
1.0
 22
0.0
 32
0.0
 13
1.0
 23
0.0
 33
0.0
 40
0.0
 40
0.0
 40
0.0
 40
0.0
 40
0.1111111111111111
 40
0.1111111111111111
 40
0.1111111111111111
 40
0.1111111111111111
 40
0.2222222222222222
 40
0.2222222222222222
 40
0.2222222222222222
 40
0.2222222222222222
 40
0.3333333333333333
 40
0.3333333333333333
 40
0.3333333333333333
 40
0.3333333333333333
 40
0.4444444444444444
 40
0.4444444444444444
 40
0.4444444444444444
 40
0.4444444444444444
 40
0.5555555555555556
 40
0.5555555555555556
 40
0.5555555555555556
 40
0.5555555555555556
 40
0.6666666666666666
 40
0.6666666666666666
 40
0.6666666666666666
 40
0.6666666666666666
 40
0.7777777777777778
 40
0.7777777777777778
 40
0.7777777777777778
 40
0.7777777777777778
 40
1.0
 40
1.0
 40
1.0
 40
1.0
 10
-73.3227
 20
-87.8881
 30
0.0
 10
-78.5698
 20
-86.8972
 30
0.0
 10
-82.8649
 20
-88.6807
 30
0.0
 10
-84.2204
 20
-93.6167
 30
0.0
 10
-84.2204
 20
-93.6167
 30
0.0
 10
-84.6481
 20
-96.0742
 30
0.0
 10
-84.9237
 20
-100.579
 30
0.0
 10
-81.7619
 20
-101.0194
 30
0.0
 10
-81.7619
 20
-101.0194
 30
0.0
 10
-82.8758
 20
-96.9615
 30
0.0
 10
-80.2149
 20
-93.7346
 30
0.0
 10
-76.1667
 20
-94.908
 30
0.0
 10
-76.1667
 20
-94.908
 30
0.0
 10
-72.6778
 20
-96.0107
 30
0.0
 10
-72.3369
 20
-101.7873
 30
0.0
 10
-75.1534
 20
-103.6302
 30
0.0
 10
-75.1534
 20
-103.6302
 30
0.0
 10
-75.4612
 20
-103.8857
 30
0.0
 10
-75.4028
 20
-104.1844
 30
0.0
 10
-75.0648
 20
-104.084
 30
0.0
 10
-75.0648
 20
-104.084
 30
0.0
 10
-69.7323
 20
-103.1352
 30
0.0
 10
-63.7214
 20
-99.7391
 30
0.0
 10
-60.6144
 20
-96.568
 30
0.0
 10
-60.6144
 20
-96.568
 30
0.0
 10
-65.3194
 20
-92.0792
 30
0.0
 10
-67.8237
 20
-89.1465
 30
0.0
 10
-73.3228
 20
-87.8881
 30
0.0
 10
-73.3228
 20
-87.8881
 30
0.0
 10
-73.3228
 20
-87.8881
 30
0.0
 10
-73.3227
 20
-87.8881
 30
0.0
 10
-73.3227
 20
-87.8881
 30
0.0
  0
SPLINE
  5
99
330
1F
100
AcDbEntity
  8
layer 1
 62
     7
370
    25
100
AcDbSpline
210
0.0
220
0.0
230
1.0
 70
    11
 71
     3
 72
    24
 73
    20
 74
     0
 42
0.0000000001
 43
0.0000000001
 12
1.0
 22
0.0
 32
0.0
 13
1.0
 23
0.0
 33
0.0
 40
0.0
 40
0.0
 40
0.0
 40
0.0
 40
0.1666666666666667
 40
0.1666666666666667
 40
0.1666666666666667
 40
0.1666666666666667
 40
0.3333333333333333
 40
0.3333333333333333
 40
0.3333333333333333
 40
0.3333333333333333
 40
0.5
 40
0.5
 40
0.5
 40
0.5
 40
0.6666666666666666
 40
0.6666666666666666
 40
0.6666666666666666
 40
0.6666666666666666
 40
1.0
 40
1.0
 40
1.0
 40
1.0
 10
-61.2831
 20
-70.1531
 30
0.0
 10
-64.7317
 20
-70.2388
 30
0.0
 10
-66.8003
 20
-71.9439
 30
0.0
 10
-67.0754
 20
-75.7437
 30
0.0
 10
-67.0754
 20
-75.7437
 30
0.0
 10
-56.9516
 20
-73.3919
 30
0.0
 10
-56.8495
 20
-86.0019
 30
0.0
 10
-65.002
 20
-86.0383
 30
0.0
 10
-65.002
 20
-86.0383
 30
0.0
 10
-61.9419
 20
-87.8235
 30
0.0
 10
-59.7592
 20
-90.0554
 30
0.0
 10
-57.7814
 20
-92.9201
 30
0.0
 10
-57.7814
 20
-92.9201
 30
0.0
 10
-54.7119
 20
-89.7121
 30
0.0
 10
-52.6008
 20
-84.7324
 30
0.0
 10
-52.0173
 20
-81.1719
 30
0.0
 10
-52.0173
 20
-81.1719
 30
0.0
 10
-51.2773
 20
-74.3921
 30
0.0
 10
-56.0117
 20
-70.1751
 30
0.0
 10
-61.2831
 20
-70.1531
 30
0.0
  0
SPLINE
  5
9A
330
1F
100
AcDbEntity
  8
layer 1
 62
     7
370
    25
100
AcDbSpline
210
0.0
220
0.0
230
1.0
 70
    11
 71
     3
 72
    24
 73
    20
 74
     0
 42
0.0000000001
 43
0.0000000001
 12
1.0
 22
0.0
 32
0.0
 13
1.0
 23
0.0
 33
0.0
 40
0.0
 40
0.0
 40
0.0
 40
0.0
 40
0.1666666666666667
 40
0.1666666666666667
 40
0.1666666666666667
 40
0.1666666666666667
 40
0.3333333333333333
 40
0.3333333333333333
 40
0.3333333333333333
 40
0.3333333333333333
 40
0.5
 40
0.5
 40
0.5
 40
0.5
 40
0.6666666666666666
 40
0.6666666666666666
 40
0.6666666666666666
 40
0.6666666666666666
 40
1.0
 40
1.0
 40
1.0
 40
1.0
 10
-94.1197
 20
-58.8666
 30
0.0
 10
-98.7533
 20
-62.1887
 30
0.0
 10
-101.9079
 20
-69.8924
 30
0.0
 10
-102.8353
 20
-74.4811
 30
0.0
 10
-102.8353
 20
-74.4811
 30
0.0
 10
-100.1208
 20
-71.1075
 30
0.0
 10
-95.3712
 20
-71.9709
 30
0.0
 10
-94.4512
 20
-75.9287
 30
0.0
 10
-94.4512
 20
-75.9287
 30
0.0
 10
-93.47
 20
-80.2249
 30
0.0
 10
-97.1443
 20
-82.6554
 30
0.0
 10
-100.9777
 20
-80.9547
 30
0.0
 10
-100.9777
 20
-80.9547
 30
0.0
 10
-100.8603
 20
-87.1734
 30
0.0
 10
-91.8989
 20
-87.6646
 30
0.0
 10
-90.0394
 20
-80.5396
 30
0.0
 10
-90.0394
 20
-80.5396
 30
0.0
 10
-88.2796
 20
-72.535
 30
0.0
 10
-90.1218
 20
-66.2566
 30
0.0
 10
-94.1197
 20
-58.8666
 30
0.0
  0
ENDSEC
  0
SECTION
  2
OBJECTS
  0
DICTIONARY
  5
C
330
0
100
AcDbDictionary
281
     1
  3
ACAD_GROUP
350
D
  3
ACAD_LAYOUT
350
1A
  3
ACAD_MATERIAL
350
3B
  3
ACAD_MLEADERSTYLE
350
BD
  3
ACAD_MLINESTYLE
350
17
  3
ACAD_PLOTSETTINGS
350
19
  3
ACAD_PLOTSTYLENAME
350
E
  3
ACAD_TABLESTYLE
350
BC
  3
ACAD_VISUALSTYLE
350
2A
  0
DICTIONARY
  5
D
102
{ACAD_REACTORS
330
C
102
}
330
C
100
AcDbDictionary
281
     1
  0
DICTIONARY
  5
1A
102
{ACAD_REACTORS
330
C
102
}
330
C
100
AcDbDictionary
281
     1
  3
Layout1
350
1E
  3
Layout2
350
26
  3
Model
350
22
  0
DICTIONARY
  5
3B
102
{ACAD_REACTORS
330
C
102
}
330
C
100
AcDbDictionary
281
     1
  3
ByBlock
350
3D
  3
ByLayer
350
3C
  3
Global
350
3E
  0
DICTIONARY
  5
BD
102
{ACAD_REACTORS
330
C
102
}
330
C
100
AcDbDictionary
281
     1
  0
DICTIONARY
  5
17
102
{ACAD_REACTORS
330
C
102
}
330
C
100
AcDbDictionary
281
     1
  3
Standard
350
18
  0
DICTIONARY
  5
19
102
{ACAD_REACTORS
330
C
102
}
330
C
100
AcDbDictionary
281
     1
  0
ACDBDICTIONARYWDFLT
  5
E
102
{ACAD_REACTORS
330
C
102
}
330
C
100
AcDbDictionary
281
     1
  3
Normal
350
F
100
AcDbDictionaryWithDefault
340
F
  0
DICTIONARY
  5
BC
102
{ACAD_REACTORS
330
C
102
}
330
C
100
AcDbDictionary
281
     1
  0
DICTIONARY
  5
2A
102
{ACAD_REACTORS
330
C
102
}
330
C
100
AcDbDictionary
281
     1
  3
2dWireframe
350
2F
  3
3D Hidden
350
31
  3
3dWireframe
350
30
  3
Basic
350
32
  3
Brighten
350
36
  3
ColorChange
350
3A
  3
Conceptual
350
34
  3
Dim
350
35
  3
Facepattern
350
39
  3
Flat
350
2B
  3
FlatWithEdges
350
2C
  3
Gouraud
350
2D
  3
GouraudWithEdges
350
2E
  3
Linepattern
350
38
  3
Realistic
350
33
  3
Thicken
350
37
  0
LAYOUT
  5
1E
102
{ACAD_REACTORS
330
1A
102
}
330
1A
100
AcDbPlotSettings
  1

  2
none_device
  4

  6

 40
0.0
 41
0.0
 42
0.0
 43
0.0
 44
0.0
 45
0.0
 46
0.0
 47
0.0
 48
0.0
 49
0.0
140
0.0
141
0.0
142
1.0
143
1.0
 70
   688
 72
     0
 73
     0
 74
     5
  7

 75
    16
 76
     0
 77
     2
 78
   300
147
1.0
148
0.0
149
0.0
100
AcDbLayout
  1
Layout1
 70
     1
 71
     1
 10
0.0
 20
0.0
 11
12.0
 21
9.0
 12
0.0
 22
0.0
 32
0.0
 14
1.000000000000000E+20
 24
1.000000000000000E+20
 34
1.000000000000000E+20
 15
-1.000000000000000E+20
 25
-1.000000000000000E+20
 35
-1.000000000000000E+20
146
0.0
 13
0.0
 23
0.0
 33
0.0
 16
1.0
 26
0.0
 36
0.0
 17
0.0
 27
1.0
 37
0.0
 76
     0
330
1B
  0
LAYOUT
  5
26
102
{ACAD_REACTORS
330
1A
102
}
330
1A
100
AcDbPlotSettings
  1

  2
none_device
  4

  6

 40
0.0
 41
0.0
 42
0.0
 43
0.0
 44
0.0
 45
0.0
 46
0.0
 47
0.0
 48
0.0
 49
0.0
140
0.0
141
0.0
142
1.0
143
1.0
 70
   688
 72
     0
 73
     0
 74
     5
  7

 75
    16
 76
     0
 77
     2
 78
   300
147
1.0
148
0.0
149
0.0
100
AcDbLayout
  1
Layout2
 70
     1
 71
     2
 10
0.0
 20
0.0
 11
0.0
 21
0.0
 12
0.0
 22
0.0
 32
0.0
 14
0.0
 24
0.0
 34
0.0
 15
0.0
 25
0.0
 35
0.0
146
0.0
 13
0.0
 23
0.0
 33
0.0
 16
1.0
 26
0.0
 36
0.0
 17
0.0
 27
1.0
 37
0.0
 76
     0
330
23
  0
LAYOUT
  5
22
102
{ACAD_REACTORS
330
1A
102
}
330
1A
100
AcDbPlotSettings
  1

  2
none_device
  4

  6

 40
0.0
 41
0.0
 42
0.0
 43
0.0
 44
0.0
 45
0.0
 46
0.0
 47
0.0
 48
0.0
 49
0.0
140
0.0
141
0.0
142
1.0
143
1.0
 70
  1712
 72
     0
 73
     0
 74
     0
  7

 75
     0
 76
     0
 77
     2
 78
   300
147
1.0
148
0.0
149
0.0
100
AcDbLayout
  1
Model
 70
     1
 71
     0
 10
0.0
 20
0.0
 11
12.0
 21
9.0
 12
0.0
 22
0.0
 32
0.0
 14
-187.0983
 24
-114.8394
 34
0.0
 15
-38.6012
 25
131.7385
 35
0.0
146
0.0
 13
0.0
 23
0.0
 33
0.0
 16
1.0
 26
0.0
 36
0.0
 17
0.0
 27
1.0
 37
0.0
 76
     0
330
1F
331
29
  0
MATERIAL
  5
3D
102
{ACAD_REACTORS
330
3B
102
}
330
3B
100
AcDbMaterial
  1
ByBlock
 72
     1
 94
      127
  0
MATERIAL
  5
3C
102
{ACAD_REACTORS
330
3B
102
}
330
3B
100
AcDbMaterial
  1
ByLayer
 72
     1
 94
      127
  0
MATERIAL
  5
3E
102
{ACAD_REACTORS
330
3B
102
}
330
3B
100
AcDbMaterial
  1
Global
 72
     1
 94
      127
  0
MLINESTYLE
  5
18
102
{ACAD_REACTORS
330
17
102
}
330
17
100
AcDbMlineStyle
  2
Standard
 70
     0
  3

 62
   256
 51
90.0
 52
90.0
 71
     2
 49
0.5
 62
   256
  6
BYLAYER
 49
-0.5
 62
   256
  6
BYLAYER
  0
ACDBPLACEHOLDER
  5
F
102
{ACAD_REACTORS
330
E
102
}
330
E
  0
VISUALSTYLE
  5
2F
102
{ACAD_REACTORS
330
2A
102
}
102
{ACAD_XDICTIONARY
360
A4
102
}
330
2A
100
AcDbVisualStyle
  2
2dWireframe
 70
     4
 71
     0
 72
     2
 73
     0
 90
        0
 40
-0.6
 41
-30.0
 62
     5
 63
     7
421
 16777215
 74
     1
 91
        4
 64
     7
 65
   257
 75
     1
175
     1
 42
1.0
 92
        0
 66
   257
 43
1.0
 76
     1
 77
     6
 78
     2
 67
     7
 79
     5
170
     0
171
     0
290
     0
174
     0
 93
        1
 44
0.0
173
     0
291
     0
 45
0.0
  0
VISUALSTYLE
  5
31
102
{ACAD_REACTORS
330
2A
102
}
102
{ACAD_XDICTIONARY
360
A8
102
}
330
2A
100
AcDbVisualStyle
  2
3D Hidden
 70
     6
 71
     1
 72
     2
 73
     2
 90
        0
 40
-0.6
 41
-30.0
 62
     5
 63
     7
421
 16777215
 74
     2
 91
        2
 64
     7
 65
   257
 75
     2
175
     1
 42
40.0
 92
        0
 66
   257
 43
1.0
 76
     1
 77
     6
 78
     2
 67
     7
 79
     3
170
     0
171
     0
290
     0
174
     0
 93
        1
 44
0.0
173
     0
291
     0
 45
0.0
  0
VISUALSTYLE
  5
30
102
{ACAD_REACTORS
330
2A
102
}
102
{ACAD_XDICTIONARY
360
A6
102
}
330
2A
100
AcDbVisualStyle
  2
3dWireframe
 70
     5
 71
     0
 72
     2
 73
     0
 90
        0
 40
-0.6
 41
-30.0
 62
     5
 63
     7
421
 16777215
 74
     1
 91
        4
 64
     7
 65
   257
 75
     1
175
     1
 42
1.0
 92
        0
 66
   257
 43
1.0
 76
     1
 77
     6
 78
     2
 67
     7
 79
     5
170
     0
171
     0
290
     0
174
     0
 93
        1
 44
0.0
173
     0
291
     0
 45
0.0
  0
VISUALSTYLE
  5
32
102
{ACAD_REACTORS
330
2A
102
}
102
{ACAD_XDICTIONARY
360
AA
102
}
330
2A
100
AcDbVisualStyle
  2
Basic
 70
     7
 71
     1
 72
     0
 73
     1
 90
        0
 40
-0.6
 41
-30.0
 62
     5
 63
     7
421
 16777215
 74
     0
 91
        4
 64
     7
 65
   257
 75
     1
175
     1
 42
1.0
 92
        8
 66
     7
 43
1.0
 76
     1
 77
     6
 78
     2
 67
     7
 79
     5
170
     0
171
     0
290
     0
174
     0
 93
        1
 44
0.0
173
     0
291
     1
 45
0.0
  0
VISUALSTYLE
  5
36
102
{ACAD_REACTORS
330
2A
102
}
102
{ACAD_XDICTIONARY
360
B2
102
}
330
2A
100
AcDbVisualStyle
  2
Brighten
 70
    12
 71
     2
 72
     2
 73
     0
 90
        0
 40
-0.6
 41
-30.0
 62
     5
 63
     7
421
 16777215
 74
     1
 91
        4
 64
     7
 65
   257
 75
     1
175
     1
 42
1.0
 92
        8
 66
     7
 43
1.0
 76
     1
 77
     6
 78
     2
 67
     7
 79
     5
170
     0
171
     0
290
     0
174
     0
 93
        1
 44
50.0
173
     0
291
     1
 45
0.0
  0
VISUALSTYLE
  5
3A
102
{ACAD_REACTORS
330
2A
102
}
102
{ACAD_XDICTIONARY
360
BA
102
}
330
2A
100
AcDbVisualStyle
  2
ColorChange
 70
    16
 71
     2
 72
     2
 73
     3
 90
        0
 40
-0.6
 41
-30.0
 62
     5
 63
     8
421
  8421504
 74
     1
 91
        4
 64
     7
 65
   257
 75
     1
175
     1
 42
1.0
 92
        8
 66
     8
424
  8421504
 43
1.0
 76
     1
 77
     6
 78
     2
 67
     7
 79
     5
170
     0
171
     0
290
     0
174
     0
 93
        1
 44
0.0
173
     0
291
     1
 45
0.0
  0
VISUALSTYLE
  5
34
102
{ACAD_REACTORS
330
2A
102
}
102
{ACAD_XDICTIONARY
360
AE
102
}
330
2A
100
AcDbVisualStyle
  2
Conceptual
 70
     9
 71
     3
 72
     2
 73
     0
 90
        0
 40
-0.6
 41
-30.0
 62
     5
 63
     7
421
 16777215
 74
     2
 91
        2
 64
     7
 65
   257
 75
     1
175
     1
 42
40.0
 92
        8
 66
     7
 43
1.0
 76
     1
 77
     6
 78
     2
 67
     7
 79
     3
170
     0
171
     0
290
     0
174
     0
 93
        1
 44
0.0
173
     0
291
     0
 45
0.0
  0
VISUALSTYLE
  5
35
102
{ACAD_REACTORS
330
2A
102
}
102
{ACAD_XDICTIONARY
360
B0
102
}
330
2A
100
AcDbVisualStyle
  2
Dim
 70
    11
 71
     2
 72
     2
 73
     0
 90
        0
 40
-0.6
 41
-30.0
 62
     5
 63
     7
421
 16777215
 74
     1
 91
        4
 64
     7
 65
   257
 75
     1
175
     1
 42
1.0
 92
        8
 66
     7
 43
1.0
 76
     1
 77
     6
 78
     2
 67
     7
 79
     5
170
     0
171
     0
290
     0
174
     0
 93
        1
 44
-50.0
173
     0
291
     1
 45
0.0
  0
VISUALSTYLE
  5
39
102
{ACAD_REACTORS
330
2A
102
}
102
{ACAD_XDICTIONARY
360
B8
102
}
330
2A
100
AcDbVisualStyle
  2
Facepattern
 70
    15
 71
     2
 72
     2
 73
     0
 90
        0
 40
-0.6
 41
-30.0
 62
     5
 63
     7
421
 16777215
 74
     1
 91
        4
 64
     7
 65
   257
 75
     1
175
     1
 42
1.0
 92
        8
 66
     7
 43
1.0
 76
     1
 77
     6
 78
     2
 67
     7
 79
     5
170
     0
171
     0
290
     0
174
     0
 93
        1
 44
0.0
173
     0
291
     1
 45
0.0
  0
VISUALSTYLE
  5
2B
102
{ACAD_REACTORS
330
2A
102
}
102
{ACAD_XDICTIONARY
360
9C
102
}
330
2A
100
AcDbVisualStyle
  2
Flat
 70
     0
 71
     2
 72
     1
 73
     1
 90
        2
 40
-0.6
 41
30.0
 62
     5
 63
     7
421
 16777215
 74
     0
 91
        4
 64
     7
 65
   257
 75
     1
175
     1
 42
1.0
 92
        8
 66
     7
 43
1.0
 76
     1
 77
     6
 78
     2
 67
     7
 79
     5
170
     0
171
     0
290
     0
174
     0
 93
       13
 44
0.0
173
     0
291
     1
 45
0.0
  0
VISUALSTYLE
  5
2C
102
{ACAD_REACTORS
330
2A
102
}
102
{ACAD_XDICTIONARY
360
9E
102
}
330
2A
100
AcDbVisualStyle
  2
FlatWithEdges
 70
     1
 71
     2
 72
     1
 73
     1
 90
        2
 40
-0.6
 41
30.0
 62
     5
 63
     7
421
 16777215
 74
     1
 91
        4
 64
     7
 65
   257
 75
     1
175
     1
 42
1.0
 92
        0
 66
   257
 43
1.0
 76
     1
 77
     6
 78
     2
 67
     7
 79
     5
170
     0
171
     0
290
     0
174
     0
 93
       13
 44
0.0
173
     0
291
     1
 45
0.0
  0
VISUALSTYLE
  5
2D
102
{ACAD_REACTORS
330
2A
102
}
102
{ACAD_XDICTIONARY
360
A0
102
}
330
2A
100
AcDbVisualStyle
  2
Gouraud
 70
     2
 71
     2
 72
     2
 73
     1
 90
        2
 40
-0.6
 41
30.0
 62
     5
 63
     7
421
 16777215
 74
     0
 91
        4
 64
     7
 65
   257
 75
     1
175
     1
 42
1.0
 92
        0
 66
     7
 43
1.0
 76
     1
 77
     6
 78
     2
 67
     7
 79
     5
170
     0
171
     0
290
     0
174
     0
 93
       13
 44
0.0
173
     0
291
     1
 45
0.0
  0
VISUALSTYLE
  5
2E
102
{ACAD_REACTORS
330
2A
102
}
102
{ACAD_XDICTIONARY
360
A2
102
}
330
2A
100
AcDbVisualStyle
  2
GouraudWithEdges
 70
     3
 71
     2
 72
     2
 73
     1
 90
        2
 40
-0.6
 41
30.0
 62
     5
 63
     7
421
 16777215
 74
     1
 91
        4
 64
     7
 65
   257
 75
     1
175
     1
 42
1.0
 92
        0
 66
   257
 43
1.0
 76
     1
 77
     6
 78
     2
 67
     7
 79
     5
170
     0
171
     0
290
     0
174
     0
 93
       13
 44
0.0
173
     0
291
     1
 45
0.0
  0
VISUALSTYLE
  5
38
102
{ACAD_REACTORS
330
2A
102
}
102
{ACAD_XDICTIONARY
360
B6
102
}
330
2A
100
AcDbVisualStyle
  2
Linepattern
 70
    14
 71
     2
 72
     2
 73
     0
 90
        0
 40
-0.6
 41
-30.0
 62
     5
 63
     7
421
 16777215
 74
     1
 91
        4
 64
     7
 65
   257
 75
     7
175
     7
 42
1.0
 92
        8
 66
     7
 43
1.0
 76
     1
 77
     6
 78
     2
 67
     7
 79
     5
170
     0
171
     0
290
     0
174
     0
 93
        1
 44
0.0
173
     0
291
     1
 45
0.0
  0
VISUALSTYLE
  5
33
102
{ACAD_REACTORS
330
2A
102
}
102
{ACAD_XDICTIONARY
360
AC
102
}
330
2A
100
AcDbVisualStyle
  2
Realistic
 70
     8
 71
     2
 72
     2
 73
     0
 90
        0
 40
-0.6
 41
-30.0
 62
     5
 63
     7
421
 16777215
 74
     1
 91
        0
 64
     7
 65
   257
 75
     1
175
     1
 42
1.0
 92
        8
 66
     8
424
  7895160
 43
1.0
 76
     1
 77
     6
 78
     2
 67
     7
 79
     5
170
     0
171
     0
290
     0
174
     0
 93
       13
 44
0.0
173
     0
291
     0
 45
0.0
  0
VISUALSTYLE
  5
37
102
{ACAD_REACTORS
330
2A
102
}
102
{ACAD_XDICTIONARY
360
B4
102
}
330
2A
100
AcDbVisualStyle
  2
Thicken
 70
    13
 71
     2
 72
     2
 73
     0
 90
        0
 40
-0.6
 41
-30.0
 62
     5
 63
     7
421
 16777215
 74
     1
 91
        4
 64
     7
 65
   257
 75
     1
175
     1
 42
1.0
 92
       12
 66
     7
 43
1.0
 76
     1
 77
     6
 78
     2
 67
     7
 79
     5
170
     0
171
     0
290
     0
174
     0
 93
        1
 44
0.0
173
     0
291
     1
 45
0.0
  0
DICTIONARY
  5
A4
330
2F
100
AcDbDictionary
280
     1
281
     1
  3
ACAD_XREC_ROUNDTRIP
360
A5
  0
DICTIONARY
  5
A8
330
31
100
AcDbDictionary
280
     1
281
     1
  3
ACAD_XREC_ROUNDTRIP
360
A9
  0
DICTIONARY
  5
A6
330
30
100
AcDbDictionary
280
     1
281
     1
  3
ACAD_XREC_ROUNDTRIP
360
A7
  0
DICTIONARY
  5
AA
330
32
100
AcDbDictionary
280
     1
281
     1
  3
ACAD_XREC_ROUNDTRIP
360
AB
  0
DICTIONARY
  5
B2
330
36
100
AcDbDictionary
280
     1
281
     1
  3
ACAD_XREC_ROUNDTRIP
360
B3
  0
DICTIONARY
  5
BA
330
3A
100
AcDbDictionary
280
     1
281
     1
  3
ACAD_XREC_ROUNDTRIP
360
BB
  0
DICTIONARY
  5
AE
330
34
100
AcDbDictionary
280
     1
281
     1
  3
ACAD_XREC_ROUNDTRIP
360
AF
  0
DICTIONARY
  5
B0
330
35
100
AcDbDictionary
280
     1
281
     1
  3
ACAD_XREC_ROUNDTRIP
360
B1
  0
DICTIONARY
  5
B8
330
39
100
AcDbDictionary
280
     1
281
     1
  3
ACAD_XREC_ROUNDTRIP
360
B9
  0
DICTIONARY
  5
9C
330
2B
100
AcDbDictionary
280
     1
281
     1
  3
ACAD_XREC_ROUNDTRIP
360
9D
  0
DICTIONARY
  5
9E
330
2C
100
AcDbDictionary
280
     1
281
     1
  3
ACAD_XREC_ROUNDTRIP
360
9F
  0
DICTIONARY
  5
A0
330
2D
100
AcDbDictionary
280
     1
281
     1
  3
ACAD_XREC_ROUNDTRIP
360
A1
  0
DICTIONARY
  5
A2
330
2E
100
AcDbDictionary
280
     1
281
     1
  3
ACAD_XREC_ROUNDTRIP
360
A3
  0
DICTIONARY
  5
B6
330
38
100
AcDbDictionary
280
     1
281
     1
  3
ACAD_XREC_ROUNDTRIP
360
B7
  0
DICTIONARY
  5
AC
330
33
100
AcDbDictionary
280
     1
281
     1
  3
ACAD_XREC_ROUNDTRIP
360
AD
  0
DICTIONARY
  5
B4
330
37
100
AcDbDictionary
280
     1
281
     1
  3
ACAD_XREC_ROUNDTRIP
360
B5
  0
XRECORD
  5
A5
102
{ACAD_REACTORS
330
A4
102
}
330
A4
100
AcDbXrecord
280
     1
102
RTVSPropertyOp0
 70
     1
102
RTVSPropertyOp1
 70
     1
102
RTVSPropertyOp2
 70
     1
102
RTVSPropertyOp3
 70
     1
102
RTVSPropertyOp4
 70
     1
102
RTVSPropertyOp5
 70
     1
102
RTVSPropertyOp6
 70
     1
102
RTVSPropertyOp7
 70
     1
102
RTVSPropertyOp8
 70
     1
102
RTVSPropertyOp9
 70
     1
102
RTVSPropertyOp10
 70
     1
102
RTVSPropertyOp11
 70
     1
102
RTVSPropertyOp12
 70
     1
102
RTVSPropertyOp13
 70
     1
102
RTVSPropertyOp14
 70
     1
102
RTVSPropertyOp15
 70
     1
102
RTVSPropertyOp16
 70
     1
102
RTVSPropertyOp17
 70
     1
102
RTVSPropertyOp18
 70
     1
102
RTVSPropertyOp19
 70
     1
102
RTVSPropertyOp20
 70
     1
102
RTVSPropertyOp21
 70
     1
102
RTVSPropertyOp22
 70
     1
102
RTVSPropertyOp23
 70
     1
102
RTVSPropertyOp24
 70
     1
102
RTVSPropertyOp25
 70
     1
102
RTVSPropertyOp26
 70
     1
102
RTVSPropertyOp27
 70
     1
102
RTVSPropertyOp28
 70
     1
102
RTVSPropertyOp29
 70
     1
102
RTVSPropertyOp30
 70
     1
102
RTVSPropertyOp31
 70
     1
102
RTVSPropertyOp32
 70
     1
  0
XRECORD
  5
A9
102
{ACAD_REACTORS
330
A8
102
}
330
A8
100
AcDbXrecord
280
     1
102
RTVSPropertyOp0
 70
     1
102
RTVSPropertyOp1
 70
     1
102
RTVSPropertyOp2
 70
     1
102
RTVSPropertyOp3
 70
     1
102
RTVSPropertyOp4
 70
     1
102
RTVSPropertyOp5
 70
     1
102
RTVSPropertyOp6
 70
     1
102
RTVSPropertyOp7
 70
     1
102
RTVSPropertyOp8
 70
     1
102
RTVSPropertyOp9
 70
     1
102
RTVSPropertyOp10
 70
     1
102
RTVSPropertyOp11
 70
     1
102
RTVSPropertyOp12
 70
     1
102
RTVSPropertyOp13
 70
     1
102
RTVSPropertyOp14
 70
     1
102
RTVSPropertyOp15
 70
     1
102
RTVSPropertyOp16
 70
     1
102
RTVSPropertyOp17
 70
     1
102
RTVSPropertyOp18
 70
     1
102
RTVSPropertyOp19
 70
     1
102
RTVSPropertyOp20
 70
     1
102
RTVSPropertyOp21
 70
     1
102
RTVSPropertyOp22
 70
     1
102
RTVSPropertyOp23
 70
     1
102
RTVSPropertyOp24
 70
     1
102
RTVSPropertyOp25
 70
     1
102
RTVSPropertyOp26
 70
     1
102
RTVSPropertyOp27
 70
     1
102
RTVSPropertyOp28
 70
     1
102
RTVSPropertyOp29
 70
     1
102
RTVSPropertyOp30
 70
     1
102
RTVSPropertyOp31
 70
     1
102
RTVSPropertyOp32
 70
     1
  0
XRECORD
  5
A7
102
{ACAD_REACTORS
330
A6
102
}
330
A6
100
AcDbXrecord
280
     1
102
RTVSPropertyOp0
 70
     1
102
RTVSPropertyOp1
 70
     1
102
RTVSPropertyOp2
 70
     1
102
RTVSPropertyOp3
 70
     1
102
RTVSPropertyOp4
 70
     1
102
RTVSPropertyOp5
 70
     1
102
RTVSPropertyOp6
 70
     1
102
RTVSPropertyOp7
 70
     1
102
RTVSPropertyOp8
 70
     1
102
RTVSPropertyOp9
 70
     1
102
RTVSPropertyOp10
 70
     1
102
RTVSPropertyOp11
 70
     1
102
RTVSPropertyOp12
 70
     1
102
RTVSPropertyOp13
 70
     1
102
RTVSPropertyOp14
 70
     1
102
RTVSPropertyOp15
 70
     1
102
RTVSPropertyOp16
 70
     1
102
RTVSPropertyOp17
 70
     1
102
RTVSPropertyOp18
 70
     1
102
RTVSPropertyOp19
 70
     1
102
RTVSPropertyOp20
 70
     1
102
RTVSPropertyOp21
 70
     1
102
RTVSPropertyOp22
 70
     1
102
RTVSPropertyOp23
 70
     1
102
RTVSPropertyOp24
 70
     1
102
RTVSPropertyOp25
 70
     1
102
RTVSPropertyOp26
 70
     1
102
RTVSPropertyOp27
 70
     1
102
RTVSPropertyOp28
 70
     1
102
RTVSPropertyOp29
 70
     1
102
RTVSPropertyOp30
 70
     1
102
RTVSPropertyOp31
 70
     1
102
RTVSPropertyOp32
 70
     1
  0
XRECORD
  5
AB
102
{ACAD_REACTORS
330
AA
102
}
330
AA
100
AcDbXrecord
280
     1
102
RTVSPropertyOp0
 70
     1
102
RTVSPropertyOp1
 70
     1
102
RTVSPropertyOp2
 70
     1
102
RTVSPropertyOp3
 70
     1
102
RTVSPropertyOp4
 70
     1
102
RTVSPropertyOp5
 70
     1
102
RTVSPropertyOp6
 70
     1
102
RTVSPropertyOp7
 70
     1
102
RTVSPropertyOp8
 70
     1
102
RTVSPropertyOp9
 70
     1
102
RTVSPropertyOp10
 70
     1
102
RTVSPropertyOp11
 70
     1
102
RTVSPropertyOp12
 70
     1
102
RTVSPropertyOp13
 70
     1
102
RTVSPropertyOp14
 70
     1
102
RTVSPropertyOp15
 70
     1
102
RTVSPropertyOp16
 70
     1
102
RTVSPropertyOp17
 70
     1
102
RTVSPropertyOp18
 70
     1
102
RTVSPropertyOp19
 70
     1
102
RTVSPropertyOp20
 70
     1
102
RTVSPropertyOp21
 70
     1
102
RTVSPropertyOp22
 70
     1
102
RTVSPropertyOp23
 70
     1
102
RTVSPropertyOp24
 70
     1
102
RTVSPropertyOp25
 70
     1
102
RTVSPropertyOp26
 70
     1
102
RTVSPropertyOp27
 70
     1
102
RTVSPropertyOp28
 70
     1
102
RTVSPropertyOp29
 70
     1
102
RTVSPropertyOp30
 70
     1
102
RTVSPropertyOp31
 70
     1
102
RTVSPropertyOp32
 70
     1
  0
XRECORD
  5
B3
102
{ACAD_REACTORS
330
B2
102
}
330
B2
100
AcDbXrecord
280
     1
102
RTVSPropertyOp0
 70
     1
102
RTVSPropertyOp1
 70
     1
102
RTVSPropertyOp2
 70
     1
102
RTVSPropertyOp3
 70
     1
102
RTVSPropertyOp4
 70
     1
102
RTVSPropertyOp5
 70
     1
102
RTVSPropertyOp6
 70
     1
102
RTVSPropertyOp7
 70
     1
102
RTVSPropertyOp8
 70
     1
102
RTVSPropertyOp9
 70
     1
102
RTVSPropertyOp10
 70
     1
102
RTVSPropertyOp11
 70
     1
102
RTVSPropertyOp12
 70
     1
102
RTVSPropertyOp13
 70
     1
102
RTVSPropertyOp14
 70
     1
102
RTVSPropertyOp15
 70
     1
102
RTVSPropertyOp16
 70
     1
102
RTVSPropertyOp17
 70
     1
102
RTVSPropertyOp18
 70
     1
102
RTVSPropertyOp19
 70
     1
102
RTVSPropertyOp20
 70
     1
102
RTVSPropertyOp21
 70
     1
102
RTVSPropertyOp22
 70
     1
102
RTVSPropertyOp23
 70
     1
102
RTVSPropertyOp24
 70
     1
102
RTVSPropertyOp25
 70
     1
102
RTVSPropertyOp26
 70
     1
102
RTVSPropertyOp27
 70
     1
102
RTVSPropertyOp28
 70
     1
102
RTVSPropertyOp29
 70
     1
102
RTVSPropertyOp30
 70
     1
102
RTVSPropertyOp31
 70
     1
102
RTVSPropertyOp32
 70
     1
  0
XRECORD
  5
BB
102
{ACAD_REACTORS
330
BA
102
}
330
BA
100
AcDbXrecord
280
     1
102
RTVSPropertyOp0
 70
     1
102
RTVSPropertyOp1
 70
     1
102
RTVSPropertyOp2
 70
     1
102
RTVSPropertyOp3
 70
     1
102
RTVSPropertyOp4
 70
     1
102
RTVSPropertyOp5
 70
     1
102
RTVSPropertyOp6
 70
     1
102
RTVSPropertyOp7
 70
     1
102
RTVSPropertyOp8
 70
     1
102
RTVSPropertyOp9
 70
     1
102
RTVSPropertyOp10
 70
     1
102
RTVSPropertyOp11
 70
     1
102
RTVSPropertyOp12
 70
     1
102
RTVSPropertyOp13
 70
     1
102
RTVSPropertyOp14
 70
     1
102
RTVSPropertyOp15
 70
     1
102
RTVSPropertyOp16
 70
     1
102
RTVSPropertyOp17
 70
     1
102
RTVSPropertyOp18
 70
     1
102
RTVSPropertyOp19
 70
     1
102
RTVSPropertyOp20
 70
     1
102
RTVSPropertyOp21
 70
     1
102
RTVSPropertyOp22
 70
     1
102
RTVSPropertyOp23
 70
     1
102
RTVSPropertyOp24
 70
     1
102
RTVSPropertyOp25
 70
     1
102
RTVSPropertyOp26
 70
     1
102
RTVSPropertyOp27
 70
     1
102
RTVSPropertyOp28
 70
     1
102
RTVSPropertyOp29
 70
     1
102
RTVSPropertyOp30
 70
     1
102
RTVSPropertyOp31
 70
     1
102
RTVSPropertyOp32
 70
     1
  0
XRECORD
  5
AF
102
{ACAD_REACTORS
330
AE
102
}
330
AE
100
AcDbXrecord
280
     1
102
RTVSPropertyOp0
 70
     1
102
RTVSPropertyOp1
 70
     1
102
RTVSPropertyOp2
 70
     1
102
RTVSPropertyOp3
 70
     1
102
RTVSPropertyOp4
 70
     1
102
RTVSPropertyOp5
 70
     1
102
RTVSPropertyOp6
 70
     1
102
RTVSPropertyOp7
 70
     1
102
RTVSPropertyOp8
 70
     1
102
RTVSPropertyOp9
 70
     1
102
RTVSPropertyOp10
 70
     1
102
RTVSPropertyOp11
 70
     1
102
RTVSPropertyOp12
 70
     1
102
RTVSPropertyOp13
 70
     1
102
RTVSPropertyOp14
 70
     1
102
RTVSPropertyOp15
 70
     1
102
RTVSPropertyOp16
 70
     1
102
RTVSPropertyOp17
 70
     1
102
RTVSPropertyOp18
 70
     1
102
RTVSPropertyOp19
 70
     1
102
RTVSPropertyOp20
 70
     1
102
RTVSPropertyOp21
 70
     1
102
RTVSPropertyOp22
 70
     1
102
RTVSPropertyOp23
 70
     1
102
RTVSPropertyOp24
 70
     1
102
RTVSPropertyOp25
 70
     1
102
RTVSPropertyOp26
 70
     1
102
RTVSPropertyOp27
 70
     1
102
RTVSPropertyOp28
 70
     1
102
RTVSPropertyOp29
 70
     1
102
RTVSPropertyOp30
 70
     1
102
RTVSPropertyOp31
 70
     1
102
RTVSPropertyOp32
 70
     1
  0
XRECORD
  5
B1
102
{ACAD_REACTORS
330
B0
102
}
330
B0
100
AcDbXrecord
280
     1
102
RTVSPropertyOp0
 70
     1
102
RTVSPropertyOp1
 70
     1
102
RTVSPropertyOp2
 70
     1
102
RTVSPropertyOp3
 70
     1
102
RTVSPropertyOp4
 70
     1
102
RTVSPropertyOp5
 70
     1
102
RTVSPropertyOp6
 70
     1
102
RTVSPropertyOp7
 70
     1
102
RTVSPropertyOp8
 70
     1
102
RTVSPropertyOp9
 70
     1
102
RTVSPropertyOp10
 70
     1
102
RTVSPropertyOp11
 70
     1
102
RTVSPropertyOp12
 70
     1
102
RTVSPropertyOp13
 70
     1
102
RTVSPropertyOp14
 70
     1
102
RTVSPropertyOp15
 70
     1
102
RTVSPropertyOp16
 70
     1
102
RTVSPropertyOp17
 70
     1
102
RTVSPropertyOp18
 70
     1
102
RTVSPropertyOp19
 70
     1
102
RTVSPropertyOp20
 70
     1
102
RTVSPropertyOp21
 70
     1
102
RTVSPropertyOp22
 70
     1
102
RTVSPropertyOp23
 70
     1
102
RTVSPropertyOp24
 70
     1
102
RTVSPropertyOp25
 70
     1
102
RTVSPropertyOp26
 70
     1
102
RTVSPropertyOp27
 70
     1
102
RTVSPropertyOp28
 70
     1
102
RTVSPropertyOp29
 70
     1
102
RTVSPropertyOp30
 70
     1
102
RTVSPropertyOp31
 70
     1
102
RTVSPropertyOp32
 70
     1
  0
XRECORD
  5
B9
102
{ACAD_REACTORS
330
B8
102
}
330
B8
100
AcDbXrecord
280
     1
102
RTVSPropertyOp0
 70
     1
102
RTVSPropertyOp1
 70
     1
102
RTVSPropertyOp2
 70
     1
102
RTVSPropertyOp3
 70
     1
102
RTVSPropertyOp4
 70
     1
102
RTVSPropertyOp5
 70
     1
102
RTVSPropertyOp6
 70
     1
102
RTVSPropertyOp7
 70
     1
102
RTVSPropertyOp8
 70
     1
102
RTVSPropertyOp9
 70
     1
102
RTVSPropertyOp10
 70
     1
102
RTVSPropertyOp11
 70
     1
102
RTVSPropertyOp12
 70
     1
102
RTVSPropertyOp13
 70
     1
102
RTVSPropertyOp14
 70
     1
102
RTVSPropertyOp15
 70
     1
102
RTVSPropertyOp16
 70
     1
102
RTVSPropertyOp17
 70
     1
102
RTVSPropertyOp18
 70
     1
102
RTVSPropertyOp19
 70
     1
102
RTVSPropertyOp20
 70
     1
102
RTVSPropertyOp21
 70
     1
102
RTVSPropertyOp22
 70
     1
102
RTVSPropertyOp23
 70
     1
102
RTVSPropertyOp24
 70
     1
102
RTVSPropertyOp25
 70
     1
102
RTVSPropertyOp26
 70
     1
102
RTVSPropertyOp27
 70
     1
102
RTVSPropertyOp28
 70
     1
102
RTVSPropertyOp29
 70
     1
102
RTVSPropertyOp30
 70
     1
102
RTVSPropertyOp31
 70
     1
102
RTVSPropertyOp32
 70
     1
  0
XRECORD
  5
9D
102
{ACAD_REACTORS
330
9C
102
}
330
9C
100
AcDbXrecord
280
     1
102
RTVSPropertyOp0
 70
     1
102
RTVSPropertyOp1
 70
     1
102
RTVSPropertyOp2
 70
     1
102
RTVSPropertyOp3
 70
     1
102
RTVSPropertyOp4
 70
     1
102
RTVSPropertyOp5
 70
     1
102
RTVSPropertyOp6
 70
     1
102
RTVSPropertyOp7
 70
     1
102
RTVSPropertyOp8
 70
     1
102
RTVSPropertyOp9
 70
     1
102
RTVSPropertyOp10
 70
     1
102
RTVSPropertyOp11
 70
     1
102
RTVSPropertyOp12
 70
     1
102
RTVSPropertyOp13
 70
     1
102
RTVSPropertyOp14
 70
     1
102
RTVSPropertyOp15
 70
     1
102
RTVSPropertyOp16
 70
     1
102
RTVSPropertyOp17
 70
     1
102
RTVSPropertyOp18
 70
     1
102
RTVSPropertyOp19
 70
     1
102
RTVSPropertyOp20
 70
     1
102
RTVSPropertyOp21
 70
     1
102
RTVSPropertyOp22
 70
     1
102
RTVSPropertyOp23
 70
     1
102
RTVSPropertyOp24
 70
     1
102
RTVSPropertyOp25
 70
     1
102
RTVSPropertyOp26
 70
     1
102
RTVSPropertyOp27
 70
     1
102
RTVSPropertyOp28
 70
     1
102
RTVSPropertyOp29
 70
     1
102
RTVSPropertyOp30
 70
     1
102
RTVSPropertyOp31
 70
     1
102
RTVSPropertyOp32
 70
     1
  0
XRECORD
  5
9F
102
{ACAD_REACTORS
330
9E
102
}
330
9E
100
AcDbXrecord
280
     1
102
RTVSPropertyOp0
 70
     1
102
RTVSPropertyOp1
 70
     1
102
RTVSPropertyOp2
 70
     1
102
RTVSPropertyOp3
 70
     1
102
RTVSPropertyOp4
 70
     1
102
RTVSPropertyOp5
 70
     1
102
RTVSPropertyOp6
 70
     1
102
RTVSPropertyOp7
 70
     1
102
RTVSPropertyOp8
 70
     1
102
RTVSPropertyOp9
 70
     1
102
RTVSPropertyOp10
 70
     1
102
RTVSPropertyOp11
 70
     1
102
RTVSPropertyOp12
 70
     1
102
RTVSPropertyOp13
 70
     1
102
RTVSPropertyOp14
 70
     1
102
RTVSPropertyOp15
 70
     1
102
RTVSPropertyOp16
 70
     1
102
RTVSPropertyOp17
 70
     1
102
RTVSPropertyOp18
 70
     1
102
RTVSPropertyOp19
 70
     1
102
RTVSPropertyOp20
 70
     1
102
RTVSPropertyOp21
 70
     1
102
RTVSPropertyOp22
 70
     1
102
RTVSPropertyOp23
 70
     1
102
RTVSPropertyOp24
 70
     1
102
RTVSPropertyOp25
 70
     1
102
RTVSPropertyOp26
 70
     1
102
RTVSPropertyOp27
 70
     1
102
RTVSPropertyOp28
 70
     1
102
RTVSPropertyOp29
 70
     1
102
RTVSPropertyOp30
 70
     1
102
RTVSPropertyOp31
 70
     1
102
RTVSPropertyOp32
 70
     1
  0
XRECORD
  5
A1
102
{ACAD_REACTORS
330
A0
102
}
330
A0
100
AcDbXrecord
280
     1
102
RTVSPropertyOp0
 70
     1
102
RTVSPropertyOp1
 70
     1
102
RTVSPropertyOp2
 70
     1
102
RTVSPropertyOp3
 70
     1
102
RTVSPropertyOp4
 70
     1
102
RTVSPropertyOp5
 70
     1
102
RTVSPropertyOp6
 70
     1
102
RTVSPropertyOp7
 70
     1
102
RTVSPropertyOp8
 70
     1
102
RTVSPropertyOp9
 70
     1
102
RTVSPropertyOp10
 70
     1
102
RTVSPropertyOp11
 70
     1
102
RTVSPropertyOp12
 70
     1
102
RTVSPropertyOp13
 70
     1
102
RTVSPropertyOp14
 70
     1
102
RTVSPropertyOp15
 70
     1
102
RTVSPropertyOp16
 70
     1
102
RTVSPropertyOp17
 70
     1
102
RTVSPropertyOp18
 70
     1
102
RTVSPropertyOp19
 70
     1
102
RTVSPropertyOp20
 70
     1
102
RTVSPropertyOp21
 70
     1
102
RTVSPropertyOp22
 70
     1
102
RTVSPropertyOp23
 70
     1
102
RTVSPropertyOp24
 70
     1
102
RTVSPropertyOp25
 70
     1
102
RTVSPropertyOp26
 70
     1
102
RTVSPropertyOp27
 70
     1
102
RTVSPropertyOp28
 70
     1
102
RTVSPropertyOp29
 70
     1
102
RTVSPropertyOp30
 70
     1
102
RTVSPropertyOp31
 70
     1
102
RTVSPropertyOp32
 70
     1
  0
XRECORD
  5
A3
102
{ACAD_REACTORS
330
A2
102
}
330
A2
100
AcDbXrecord
280
     1
102
RTVSPropertyOp0
 70
     1
102
RTVSPropertyOp1
 70
     1
102
RTVSPropertyOp2
 70
     1
102
RTVSPropertyOp3
 70
     1
102
RTVSPropertyOp4
 70
     1
102
RTVSPropertyOp5
 70
     1
102
RTVSPropertyOp6
 70
     1
102
RTVSPropertyOp7
 70
     1
102
RTVSPropertyOp8
 70
     1
102
RTVSPropertyOp9
 70
     1
102
RTVSPropertyOp10
 70
     1
102
RTVSPropertyOp11
 70
     1
102
RTVSPropertyOp12
 70
     1
102
RTVSPropertyOp13
 70
     1
102
RTVSPropertyOp14
 70
     1
102
RTVSPropertyOp15
 70
     1
102
RTVSPropertyOp16
 70
     1
102
RTVSPropertyOp17
 70
     1
102
RTVSPropertyOp18
 70
     1
102
RTVSPropertyOp19
 70
     1
102
RTVSPropertyOp20
 70
     1
102
RTVSPropertyOp21
 70
     1
102
RTVSPropertyOp22
 70
     1
102
RTVSPropertyOp23
 70
     1
102
RTVSPropertyOp24
 70
     1
102
RTVSPropertyOp25
 70
     1
102
RTVSPropertyOp26
 70
     1
102
RTVSPropertyOp27
 70
     1
102
RTVSPropertyOp28
 70
     1
102
RTVSPropertyOp29
 70
     1
102
RTVSPropertyOp30
 70
     1
102
RTVSPropertyOp31
 70
     1
102
RTVSPropertyOp32
 70
     1
  0
XRECORD
  5
B7
102
{ACAD_REACTORS
330
B6
102
}
330
B6
100
AcDbXrecord
280
     1
102
RTVSPropertyOp0
 70
     1
102
RTVSPropertyOp1
 70
     1
102
RTVSPropertyOp2
 70
     1
102
RTVSPropertyOp3
 70
     1
102
RTVSPropertyOp4
 70
     1
102
RTVSPropertyOp5
 70
     1
102
RTVSPropertyOp6
 70
     1
102
RTVSPropertyOp7
 70
     1
102
RTVSPropertyOp8
 70
     1
102
RTVSPropertyOp9
 70
     1
102
RTVSPropertyOp10
 70
     1
102
RTVSPropertyOp11
 70
     1
102
RTVSPropertyOp12
 70
     1
102
RTVSPropertyOp13
 70
     1
102
RTVSPropertyOp14
 70
     1
102
RTVSPropertyOp15
 70
     1
102
RTVSPropertyOp16
 70
     1
102
RTVSPropertyOp17
 70
     1
102
RTVSPropertyOp18
 70
     1
102
RTVSPropertyOp19
 70
     1
102
RTVSPropertyOp20
 70
     1
102
RTVSPropertyOp21
 70
     1
102
RTVSPropertyOp22
 70
     1
102
RTVSPropertyOp23
 70
     1
102
RTVSPropertyOp24
 70
     1
102
RTVSPropertyOp25
 70
     1
102
RTVSPropertyOp26
 70
     1
102
RTVSPropertyOp27
 70
     1
102
RTVSPropertyOp28
 70
     1
102
RTVSPropertyOp29
 70
     1
102
RTVSPropertyOp30
 70
     1
102
RTVSPropertyOp31
 70
     1
102
RTVSPropertyOp32
 70
     1
  0
XRECORD
  5
AD
102
{ACAD_REACTORS
330
AC
102
}
330
AC
100
AcDbXrecord
280
     1
102
RTVSPropertyOp0
 70
     1
102
RTVSPropertyOp1
 70
     1
102
RTVSPropertyOp2
 70
     1
102
RTVSPropertyOp3
 70
     1
102
RTVSPropertyOp4
 70
     1
102
RTVSPropertyOp5
 70
     1
102
RTVSPropertyOp6
 70
     1
102
RTVSPropertyOp7
 70
     1
102
RTVSPropertyOp8
 70
     1
102
RTVSPropertyOp9
 70
     1
102
RTVSPropertyOp10
 70
     1
102
RTVSPropertyOp11
 70
     1
102
RTVSPropertyOp12
 70
     1
102
RTVSPropertyOp13
 70
     1
102
RTVSPropertyOp14
 70
     1
102
RTVSPropertyOp15
 70
     1
102
RTVSPropertyOp16
 70
     1
102
RTVSPropertyOp17
 70
     1
102
RTVSPropertyOp18
 70
     1
102
RTVSPropertyOp19
 70
     1
102
RTVSPropertyOp20
 70
     1
102
RTVSPropertyOp21
 70
     1
102
RTVSPropertyOp22
 70
     1
102
RTVSPropertyOp23
 70
     1
102
RTVSPropertyOp24
 70
     1
102
RTVSPropertyOp25
 70
     1
102
RTVSPropertyOp26
 70
     1
102
RTVSPropertyOp27
 70
     1
102
RTVSPropertyOp28
 70
     1
102
RTVSPropertyOp29
 70
     1
102
RTVSPropertyOp30
 70
     1
102
RTVSPropertyOp31
 70
     1
102
RTVSPropertyOp32
 70
     1
  0
XRECORD
  5
B5
102
{ACAD_REACTORS
330
B4
102
}
330
B4
100
AcDbXrecord
280
     1
102
RTVSPropertyOp0
 70
     1
102
RTVSPropertyOp1
 70
     1
102
RTVSPropertyOp2
 70
     1
102
RTVSPropertyOp3
 70
     1
102
RTVSPropertyOp4
 70
     1
102
RTVSPropertyOp5
 70
     1
102
RTVSPropertyOp6
 70
     1
102
RTVSPropertyOp7
 70
     1
102
RTVSPropertyOp8
 70
     1
102
RTVSPropertyOp9
 70
     1
102
RTVSPropertyOp10
 70
     1
102
RTVSPropertyOp11
 70
     1
102
RTVSPropertyOp12
 70
     1
102
RTVSPropertyOp13
 70
     1
102
RTVSPropertyOp14
 70
     1
102
RTVSPropertyOp15
 70
     1
102
RTVSPropertyOp16
 70
     1
102
RTVSPropertyOp17
 70
     1
102
RTVSPropertyOp18
 70
     1
102
RTVSPropertyOp19
 70
     1
102
RTVSPropertyOp20
 70
     1
102
RTVSPropertyOp21
 70
     1
102
RTVSPropertyOp22
 70
     1
102
RTVSPropertyOp23
 70
     1
102
RTVSPropertyOp24
 70
     1
102
RTVSPropertyOp25
 70
     1
102
RTVSPropertyOp26
 70
     1
102
RTVSPropertyOp27
 70
     1
102
RTVSPropertyOp28
 70
     1
102
RTVSPropertyOp29
 70
     1
102
RTVSPropertyOp30
 70
     1
102
RTVSPropertyOp31
 70
     1
102
RTVSPropertyOp32
 70
     1
  0
ENDSEC
  0
EOF
