  0
SECTION
  2
HEADER
  9
$ACADVER
  1
AC1021
  9
$ACADMAINTVER
 70
    25
  9
$DWGCODEPAGE
  3
ANSI_1252
  9
$INSBASE
 10
0.0
 20
0.0
 30
0.0
  9
$EXTMIN
 10
-186.882
 20
-38.4961
 30
0.0
  9
$EXTMAX
 10
-103.0161
 20
84.5111
 30
0.0
  9
$LIMMIN
 10
0.0
 20
0.0
  9
$LIMMAX
 10
12.0
 20
9.0
  9
$ORTHOMODE
 70
     0
  9
$REGENMODE
 70
     1
  9
$FILLMODE
 70
     1
  9
$QTEXTMODE
 70
     0
  9
$MIRRTEXT
 70
     1
  9
$LTSCALE
 40
1.0
  9
$ATTMODE
 70
     1
  9
$TEXTSIZE
 40
0.2
  9
$TRACEWID
 40
0.05
  9
$TEXTSTYLE
  7
Standard
  9
$CLAYER
  8
0
  9
$CELTYPE
  6
ByLayer
  9
$CECOLOR
 62
   256
  9
$CELTSCALE
 40
1.0
  9
$DISPSILH
 70
     0
  9
$DIMSCALE
 40
1.0
  9
$DIMASZ
 40
0.18
  9
$DIMEXO
 40
0.0625
  9
$DIMDLI
 40
0.38
  9
$DIMRND
 40
0.0
  9
$DIMDLE
 40
0.0
  9
$DIMEXE
 40
0.18
  9
$DIMTP
 40
0.0
  9
$DIMTM
 40
0.0
  9
$DIMTXT
 40
0.18
  9
$DIMCEN
 40
0.09
  9
$DIMTSZ
 40
0.0
  9
$DIMTOL
 70
     0
  9
$DIMLIM
 70
     0
  9
$DIMTIH
 70
     1
  9
$DIMTOH
 70
     1
  9
$DIMSE1
 70
     0
  9
$DIMSE2
 70
     0
  9
$DIMTAD
 70
     0
  9
$DIMZIN
 70
     0
  9
$DIMBLK
  1

  9
$DIMASO
 70
     1
  9
$DIMSHO
 70
     1
  9
$DIMPOST
  1

  9
$DIMAPOST
  1

  9
$DIMALT
 70
     0
  9
$DIMALTD
 70
     2
  9
$DIMALTF
 40
25.4
  9
$DIMLFAC
 40
1.0
  9
$DIMTOFL
 70
     0
  9
$DIMTVP
 40
0.0
  9
$DIMTIX
 70
     0
  9
$DIMSOXD
 70
     0
  9
$DIMSAH
 70
     0
  9
$DIMBLK1
  1

  9
$DIMBLK2
  1

  9
$DIMSTYLE
  2
Standard
  9
$DIMCLRD
 70
     0
  9
$DIMCLRE
 70
     0
  9
$DIMCLRT
 70
     0
  9
$DIMTFAC
 40
1.0
  9
$DIMGAP
 40
0.09
  9
$DIMJUST
 70
     0
  9
$DIMSD1
 70
     0
  9
$DIMSD2
 70
     0
  9
$DIMTOLJ
 70
     1
  9
$DIMTZIN
 70
     0
  9
$DIMALTZ
 70
     0
  9
$DIMALTTZ
 70
     0
  9
$DIMUPT
 70
     0
  9
$DIMDEC
 70
     4
  9
$DIMTDEC
 70
     4
  9
$DIMALTU
 70
     2
  9
$DIMALTTD
 70
     2
  9
$DIMTXSTY
  7
Standard
  9
$DIMAUNIT
 70
     0
  9
$DIMADEC
 70
     0
  9
$DIMALTRND
 40
0.0
  9
$DIMAZIN
 70
     0
  9
$DIMDSEP
 70
    46
  9
$DIMATFIT
 70
     3
  9
$DIMFRAC
 70
     0
  9
$DIMLDRBLK
  1

  9
$DIMLUNIT
 70
     2
  9
$DIMLWD
 70
    -2
  9
$DIMLWE
 70
    -2
  9
$DIMTMOVE
 70
     0
  9
$DIMFXL
 40
1.0
  9
$DIMFXLON
 70
     0
  9
$DIMJOGANG
 40
0.7853981633974483
  9
$DIMTFILL
 70
     0
  9
$DIMTFILLCLR
 70
     0
  9
$DIMARCSYM
 70
     0
  9
$DIMLTYPE
  6

  9
$DIMLTEX1
  6

  9
$DIMLTEX2
  6

  9
$LUNITS
 70
     2
  9
$LUPREC
 70
     4
  9
$SKETCHINC
 40
0.1
  9
$FILLETRAD
 40
0.5
  9
$AUNITS
 70
     0
  9
$AUPREC
 70
     0
  9
$MENU
  1
.
  9
$ELEVATION
 40
0.0
  9
$PELEVATION
 40
0.0
  9
$THICKNESS
 40
0.0
  9
$LIMCHECK
 70
     0
  9
$CHAMFERA
 40
0.5
  9
$CHAMFERB
 40
0.5
  9
$CHAMFERC
 40
1.0
  9
$CHAMFERD
 40
0.0
  9
$SKPOLY
 70
     0
  9
$TDCREATE
 40
2458492.861614039
  9
$TDUCREATE
 40
2458492.861614039
  9
$TDUPDATE
 40
2458492.861614167
  9
$TDUUPDATE
 40
2458492.861614167
  9
$TDINDWG
 40
0.0000000116
  9
$TDUSRTIMER
 40
0.0000000116
  9
$USRTIMER
 70
     1
  9
$ANGBASE
 50
0.0
  9
$ANGDIR
 70
     0
  9
$PDMODE
 70
     0
  9
$PDSIZE
 40
0.0
  9
$PLINEWID
 40
0.0
  9
$SPLFRAME
 70
     0
  9
$SPLINETYPE
 70
     6
  9
$SPLINESEGS
 70
     8
  9
$HANDSEED
  5
C9
  9
$SURFTAB1
 70
     6
  9
$SURFTAB2
 70
     6
  9
$SURFTYPE
 70
     6
  9
$SURFU
 70
     6
  9
$SURFV
 70
     6
  9
$UCSBASE
  2

  9
$UCSNAME
  2

  9
$UCSORG
 10
0.0
 20
0.0
 30
0.0
  9
$UCSXDIR
 10
1.0
 20
0.0
 30
0.0
  9
$UCSYDIR
 10
0.0
 20
1.0
 30
0.0
  9
$UCSORTHOREF
  2

  9
$UCSORTHOVIEW
 70
     0
  9
$UCSORGTOP
 10
0.0
 20
0.0
 30
0.0
  9
$UCSORGBOTTOM
 10
0.0
 20
0.0
 30
0.0
  9
$UCSORGLEFT
 10
0.0
 20
0.0
 30
0.0
  9
$UCSORGRIGHT
 10
0.0
 20
0.0
 30
0.0
  9
$UCSORGFRONT
 10
0.0
 20
0.0
 30
0.0
  9
$UCSORGBACK
 10
0.0
 20
0.0
 30
0.0
  9
$PUCSBASE
  2

  9
$PUCSNAME
  2

  9
$PUCSORG
 10
0.0
 20
0.0
 30
0.0
  9
$PUCSXDIR
 10
1.0
 20
0.0
 30
0.0
  9
$PUCSYDIR
 10
0.0
 20
1.0
 30
0.0
  9
$PUCSORTHOREF
  2

  9
$PUCSORTHOVIEW
 70
     0
  9
$PUCSORGTOP
 10
0.0
 20
0.0
 30
0.0
  9
$PUCSORGBOTTOM
 10
0.0
 20
0.0
 30
0.0
  9
$PUCSORGLEFT
 10
0.0
 20
0.0
 30
0.0
  9
$PUCSORGRIGHT
 10
0.0
 20
0.0
 30
0.0
  9
$PUCSORGFRONT
 10
0.0
 20
0.0
 30
0.0
  9
$PUCSORGBACK
 10
0.0
 20
0.0
 30
0.0
  9
$USERI1
 70
     0
  9
$USERI2
 70
     0
  9
$USERI3
 70
     0
  9
$USERI4
 70
     0
  9
$USERI5
 70
     0
  9
$USERR1
 40
0.0
  9
$USERR2
 40
0.0
  9
$USERR3
 40
0.0
  9
$USERR4
 40
0.0
  9
$USERR5
 40
0.0
  9
$WORLDVIEW
 70
     1
  9
$SHADEDGE
 70
     3
  9
$SHADEDIF
 70
    70
  9
$TILEMODE
 70
     1
  9
$MAXACTVP
 70
    64
  9
$PINSBASE
 10
0.0
 20
0.0
 30
0.0
  9
$PLIMCHECK
 70
     0
  9
$PEXTMIN
 10
1.000000000000000E+20
 20
1.000000000000000E+20
 30
1.000000000000000E+20
  9
$PEXTMAX
 10
-1.000000000000000E+20
 20
-1.000000000000000E+20
 30
-1.000000000000000E+20
  9
$PLIMMIN
 10
0.0
 20
0.0
  9
$PLIMMAX
 10
12.0
 20
9.0
  9
$UNITMODE
 70
     0
  9
$VISRETAIN
 70
     1
  9
$PLINEGEN
 70
     0
  9
$PSLTSCALE
 70
     1
  9
$TREEDEPTH
 70
  3020
  9
$CMLSTYLE
  2
Standard
  9
$CMLJUST
 70
     0
  9
$CMLSCALE
 40
1.0
  9
$PROXYGRAPHICS
 70
     1
  9
$MEASUREMENT
 70
     0
  9
$CELWEIGHT
370
    -1
  9
$ENDCAPS
280
     0
  9
$JOINSTYLE
280
     0
  9
$LWDISPLAY
290
     0
  9
$INSUNITS
 70
     4
  9
$HYPERLINKBASE
  1

  9
$STYLESHEET
  1

  9
$XEDIT
290
     1
  9
$CEPSNTYPE
380
     0
  9
$PSTYLEMODE
290
     1
  9
$FINGERPRINTGUID
  2
{D049A989-BD25-4C3A-BC44-6B1A292010CF}
  9
$VERSIONGUID
  2
{FAEB1C32-E019-11D5-929B-00C0DF256EC4}
  9
$EXTNAMES
290
     1
  9
$PSVPSCALE
 40
0.0
  9
$OLESTARTUP
290
     0
  9
$SORTENTS
280
   127
  9
$INDEXCTL
280
     0
  9
$HIDETEXT
280
     1
  9
$XCLIPFRAME
290
     0
  9
$HALOGAP
280
     0
  9
$OBSCOLOR
 70
   257
  9
$OBSLTYPE
280
     0
  9
$INTERSECTIONDISPLAY
280
     0
  9
$INTERSECTIONCOLOR
 70
   257
  9
$DIMASSOC
280
     2
  9
$PROJECTNAME
  1

  9
$CAMERADISPLAY
290
     0
  9
$LENSLENGTH
 40
50.0
  9
$CAMERAHEIGHT
 40
0.0
  9
$STEPSPERSEC
 40
2.0
  9
$STEPSIZE
 40
6.0
  9
$3DDWFPREC
 40
2.0
  9
$PSOLWIDTH
 40
0.25
  9
$PSOLHEIGHT
 40
4.0
  9
$LOFTANG1
 40
1.570796326794897
  9
$LOFTANG2
 40
1.570796326794897
  9
$LOFTMAG1
 40
0.0
  9
$LOFTMAG2
 40
0.0
  9
$LOFTPARAM
 70
     7
  9
$LOFTNORMALS
280
     1
  9
$LATITUDE
 40
37.795
  9
$LONGITUDE
 40
-122.394
  9
$NORTHDIRECTION
 40
0.0
  9
$TIMEZONE
 70
 -8000
  9
$LIGHTGLYPHDISPLAY
280
     1
  9
$TILEMODELIGHTSYNCH
280
     1
  9
$SOLIDHIST
280
     1
  9
$SHOWHIST
280
     1
  9
$DWFFRAME
280
     2
  9
$DGNFRAME
280
     2
  9
$REALWORLDSCALE
290
     1
  9
$INTERFERECOLOR
 62
   256
  9
$CSHADOW
280
     0
  9
$SHADOWPLANELOCATION
 40
0.0
  0
ENDSEC
  0
SECTION
  2
CLASSES
  0
CLASS
  1
ACDBDICTIONARYWDFLT
  2
AcDbDictionaryWithDefault
  3
ObjectDBX Classes
 90
        0
 91
        4
280
     0
281
     0
  0
CLASS
  1
VISUALSTYLE
  2
AcDbVisualStyle
  3
ObjectDBX Classes
 90
     4095
 91
        4
280
     0
281
     0
  0
CLASS
  1
MATERIAL
  2
AcDbMaterial
  3
ObjectDBX Classes
 90
     1153
 91
        4
280
     0
281
     0
  0
ENDSEC
  0
SECTION
  2
TABLES
  0
TABLE
  2
VPORT
  5
8
330
0
100
AcDbSymbolTable
 70
     1
  0
VPORT
  5
29
330
8
100
AcDbSymbolTableRecord
100
AcDbViewportTableRecord
  2
*Active
 70
     0
 10
0.0
 20
0.0
 11
1.0
 21
1.0
 12
10.42990654205607
 22
4.5
 13
0.0
 23
0.0
 14
0.5
 24
0.5
 15
0.5
 25
0.5
 16
0.0
 26
0.0
 36
1.0
 17
0.0
 27
0.0
 37
0.0
 40
9.0
 41
1.972972972850329
 42
50.0
 43
0.0
 44
0.0
 50
0.0
 51
0.0
 71
     0
 72
   100
 73
     1
 74
     3
 75
     0
 76
     0
 77
     0
 78
     0
281
     0
 65
     1
110
0.0
120
0.0
130
0.0
111
1.0
121
0.0
131
0.0
112
0.0
122
1.0
132
0.0
 79
     0
146
0.0
 60
     3
 61
     5
292
     1
282
     1
141
0.0
142
0.0
 63
   250
  0
ENDTAB
  0
TABLE
  2
LTYPE
  5
5
330
0
100
AcDbSymbolTable
 70
     1
  0
LTYPE
  5
14
330
5
100
AcDbSymbolTableRecord
100
AcDbLinetypeTableRecord
  2
ByBlock
 70
     0
  3

 72
    65
 73
     0
 40
0.0
  0
LTYPE
  5
15
330
5
100
AcDbSymbolTableRecord
100
AcDbLinetypeTableRecord
  2
ByLayer
 70
     0
  3

 72
    65
 73
     0
 40
0.0
  0
LTYPE
  5
16
330
5
100
AcDbSymbolTableRecord
100
AcDbLinetypeTableRecord
  2
Continuous
 70
     0
  3
Solid line
 72
    65
 73
     0
 40
0.0
  0
ENDTAB
  0
TABLE
  2
LAYER
  5
2
330
0
100
AcDbSymbolTable
 70
     3
  0
LAYER
  5
10
330
2
100
AcDbSymbolTableRecord
100
AcDbLayerTableRecord
  2
0
 70
     0
 62
     7
  6
Continuous
370
    -3
390
F
347
3E
  0
LAYER
  5
40
330
2
100
AcDbSymbolTableRecord
100
AcDbLayerTableRecord
  2
layer 1
 70
     0
 62
     7
  6
Continuous
370
    -3
390
F
347
3E
  0
LAYER
  5
A6
330
2
100
AcDbSymbolTableRecord
100
AcDbLayerTableRecord
  2
Master Guides
 70
     0
 62
     7
  6
Continuous
370
    -3
390
F
347
3E
  0
ENDTAB
  0
TABLE
  2
STYLE
  5
3
330
0
100
AcDbSymbolTable
 70
     1
  0
STYLE
  5
11
330
3
100
AcDbSymbolTableRecord
100
AcDbTextStyleTableRecord
  2
Standard
 70
     0
 40
0.0
 41
1.0
 50
0.0
 71
     0
 42
0.2
  3
txt
  4

  0
ENDTAB
  0
TABLE
  2
VIEW
  5
6
330
0
100
AcDbSymbolTable
 70
     0
  0
ENDTAB
  0
TABLE
  2
UCS
  5
7
330
0
100
AcDbSymbolTable
 70
     0
  0
ENDTAB
  0
TABLE
  2
APPID
  5
9
330
0
100
AcDbSymbolTable
 70
     2
  0
APPID
  5
12
330
9
100
AcDbSymbolTableRecord
100
AcDbRegAppTableRecord
  2
ACAD
 70
     0
  0
APPID
  5
3F
330
9
100
AcDbSymbolTableRecord
100
AcDbRegAppTableRecord
  2
ODA
 70
     0
  0
ENDTAB
  0
TABLE
  2
DIMSTYLE
  5
A
330
0
100
AcDbSymbolTable
 70
     1
100
AcDbDimStyleTable
  0
DIMSTYLE
105
27
330
A
100
AcDbSymbolTableRecord
100
AcDbDimStyleTableRecord
  2
Standard
 70
     0
178
     0
340
11
  0
ENDTAB
  0
TABLE
  2
BLOCK_RECORD
  5
1
330
0
100
AcDbSymbolTable
 70
     1
  0
BLOCK_RECORD
  5
1F
330
1
100
AcDbSymbolTableRecord
100
AcDbBlockTableRecord
  2
*Model_Space
340
22
 70
     0
280
     1
281
     0
  0
BLOCK_RECORD
  5
1B
330
1
100
AcDbSymbolTableRecord
100
AcDbBlockTableRecord
  2
*Paper_Space
340
1E
 70
     0
280
     1
281
     0
  0
BLOCK_RECORD
  5
23
330
1
100
AcDbSymbolTableRecord
100
AcDbBlockTableRecord
  2
*Paper_Space0
340
26
 70
     0
280
     1
281
     0
  0
ENDTAB
  0
ENDSEC
  0
SECTION
  2
BLOCKS
  0
BLOCK
  5
20
330
1F
100
AcDbEntity
  8
0
100
AcDbBlockBegin
  2
*Model_Space
 70
     0
 10
0.0
 20
0.0
 30
0.0
  3
*Model_Space
  1

  0
ENDBLK
  5
21
330
1F
100
AcDbEntity
  8
0
100
AcDbBlockEnd
  0
BLOCK
  5
1C
330
1B
100
AcDbEntity
 67
     1
  8
0
100
AcDbBlockBegin
  2
*Paper_Space
 70
     0
 10
0.0
 20
0.0
 30
0.0
  3
*Paper_Space
  1

  0
ENDBLK
  5
1D
330
1B
100
AcDbEntity
 67
     1
  8
0
100
AcDbBlockEnd
  0
BLOCK
  5
24
330
23
100
AcDbEntity
  8
0
100
AcDbBlockBegin
  2
*Paper_Space0
 70
     0
 10
0.0
 20
0.0
 30
0.0
  3
*Paper_Space0
  1

  0
ENDBLK
  5
25
330
23
100
AcDbEntity
  8
0
100
AcDbBlockEnd
  0
ENDSEC
  0
SECTION
  2
ENTITIES
  0
LWPOLYLINE
  5
41
330
1F
100
AcDbEntity
  8
layer 1
 62
   250
370
     9
100
AcDbPolyline
 90
        5
 70
     1
 43
0.0
 10
-186.8439
 20
-38.458
 10
-103.0543
 20
-38.458
 10
-103.0543
 20
84.473
 10
-186.8439
 20
84.473
 10
-186.8439
 20
-38.458
  0
SPLINE
  5
42
330
1F
100
AcDbEntity
  8
layer 1
 62
   254
370
     9
100
AcDbSpline
210
0.0
220
0.0
230
1.0
 70
    11
 71
     3
 72
    20
 73
    16
 74
     0
 42
0.0000000001
 43
0.0000000001
 12
1.0
 22
0.0
 32
0.0
 13
1.0
 23
0.0
 33
0.0
 40
0.0
 40
0.0
 40
0.0
 40
0.0
 40
0.2
 40
0.2
 40
0.2
 40
0.2
 40
0.4
 40
0.4
 40
0.4
 40
0.4
 40
0.6
 40
0.6
 40
0.6
 40
0.6
 40
1.0
 40
1.0
 40
1.0
 40
1.0
 10
-180.2244
 20
20.7706
 30
0.0
 10
-178.8452
 20
20.7706
 30
0.0
 10
-177.7271
 20
16.4143
 30
0.0
 10
-177.7271
 20
11.0409
 30
0.0
 10
-177.7271
 20
11.0409
 30
0.0
 10
-177.7271
 20
5.6673
 30
0.0
 10
-178.8452
 20
1.3111
 30
0.0
 10
-180.2244
 20
1.3111
 30
0.0
 10
-180.2244
 20
1.3111
 30
0.0
 10
-181.6038
 20
1.3111
 30
0.0
 10
-182.7219
 20
5.6673
 30
0.0
 10
-182.7219
 20
11.0409
 30
0.0
 10
-182.7219
 20
11.0409
 30
0.0
 10
-182.7219
 20
16.4143
 30
0.0
 10
-181.6038
 20
20.7706
 30
0.0
 10
-180.2244
 20
20.7706
 30
0.0
  0
SPLINE
  5
43
330
1F
100
AcDbEntity
  8
layer 1
 62
   254
370
     9
100
AcDbSpline
210
0.0
220
0.0
230
1.0
 70
    11
 71
     3
 72
    20
 73
    16
 74
     0
 42
0.0000000001
 43
0.0000000001
 12
1.0
 22
0.0
 32
0.0
 13
1.0
 23
0.0
 33
0.0
 40
0.0
 40
0.0
 40
0.0
 40
0.0
 40
0.2
 40
0.2
 40
0.2
 40
0.2
 40
0.4
 40
0.4
 40
0.4
 40
0.4
 40
0.6
 40
0.6
 40
0.6
 40
0.6
 40
1.0
 40
1.0
 40
1.0
 40
1.0
 10
-180.2244
 20
-3.3188
 30
0.0
 10
-178.8452
 20
-3.3188
 30
0.0
 10
-177.7271
 20
-7.6749
 30
0.0
 10
-177.7271
 20
-13.0485
 30
0.0
 10
-177.7271
 20
-13.0485
 30
0.0
 10
-177.7271
 20
-18.4221
 30
0.0
 10
-178.8452
 20
-22.7781
 30
0.0
 10
-180.2244
 20
-22.7781
 30
0.0
 10
-180.2244
 20
-22.7781
 30
0.0
 10
-181.6038
 20
-22.7781
 30
0.0
 10
-182.7219
 20
-18.4221
 30
0.0
 10
-182.7219
 20
-13.0485
 30
0.0
 10
-182.7219
 20
-13.0485
 30
0.0
 10
-182.7219
 20
-7.6749
 30
0.0
 10
-181.6038
 20
-3.3188
 30
0.0
 10
-180.2244
 20
-3.3188
 30
0.0
  0
SPLINE
  5
44
330
1F
100
AcDbEntity
  8
layer 1
 62
   254
370
     9
100
AcDbSpline
210
0.0
220
0.0
230
1.0
 70
    11
 71
     3
 72
    44
 73
    40
 74
     0
 42
0.0000000001
 43
0.0000000001
 12
1.0
 22
0.0
 32
0.0
 13
1.0
 23
0.0
 33
0.0
 40
0.0
 40
0.0
 40
0.0
 40
0.0
 40
0.0909090909090909
 40
0.0909090909090909
 40
0.0909090909090909
 40
0.0909090909090909
 40
0.1818181818181818
 40
0.1818181818181818
 40
0.1818181818181818
 40
0.1818181818181818
 40
0.2727272727272727
 40
0.2727272727272727
 40
0.2727272727272727
 40
0.2727272727272727
 40
0.3636363636363636
 40
0.3636363636363636
 40
0.3636363636363636
 40
0.3636363636363636
 40
0.4545454545454545
 40
0.4545454545454545
 40
0.4545454545454545
 40
0.4545454545454545
 40
0.5454545454545454
 40
0.5454545454545454
 40
0.5454545454545454
 40
0.5454545454545454
 40
0.6363636363636364
 40
0.6363636363636364
 40
0.6363636363636364
 40
0.6363636363636364
 40
0.7272727272727273
 40
0.7272727272727273
 40
0.7272727272727273
 40
0.7272727272727273
 40
0.8181818181818182
 40
0.8181818181818182
 40
0.8181818181818182
 40
0.8181818181818182
 40
1.0
 40
1.0
 40
1.0
 40
1.0
 10
-177.625
 20
-34.1201
 30
0.0
 10
-177.625
 20
-34.1201
 30
0.0
 10
-182.4076
 20
-34.1201
 30
0.0
 10
-182.4076
 20
-34.1201
 30
0.0
 10
-182.4076
 20
-34.1201
 30
0.0
 10
-182.3661
 20
-33.5785
 30
0.0
 10
-182.3114
 20
-33.0382
 30
0.0
 10
-182.2404
 20
-32.5003
 30
0.0
 10
-182.2404
 20
-32.5003
 30
0.0
 10
-182.1547
 20
-31.8502
 30
0.0
 10
-182.0473
 20
-31.2022
 30
0.0
 10
-181.9046
 20
-30.5624
 30
0.0
 10
-181.9046
 20
-30.5624
 30
0.0
 10
-181.7865
 20
-30.0325
 30
0.0
 10
-181.6462
 20
-29.5059
 30
0.0
 10
-181.4618
 20
-28.9952
 30
0.0
 10
-181.4618
 20
-28.9952
 30
0.0
 10
-181.3213
 20
-28.6062
 30
0.0
 10
-181.1566
 20
-28.2232
 30
0.0
 10
-180.9319
 20
-27.875
 30
0.0
 10
-180.9319
 20
-27.875
 30
0.0
 10
-180.8392
 20
-27.7314
 30
0.0
 10
-180.7339
 20
-27.5952
 30
0.0
 10
-180.6104
 20
-27.4771
 30
0.0
 10
-180.6104
 20
-27.4771
 30
0.0
 10
-180.5197
 20
-27.3905
 30
0.0
 10
-180.4178
 20
-27.315
 30
0.0
 10
-180.3032
 20
-27.2634
 30
0.0
 10
-180.3032
 20
-27.2634
 30
0.0
 10
-180.2523
 20
-27.2406
 30
0.0
 10
-180.1994
 20
-27.2239
 30
0.0
 10
-180.1449
 20
-27.2125
 30
0.0
 10
-180.1449
 20
-27.2125
 30
0.0
 10
-180.1025
 20
-27.2038
 30
0.0
 10
-180.0595
 20
-27.2011
 30
0.0
 10
-180.0163
 20
-27.2001
 30
0.0
 10
-180.0163
 20
-27.2001
 30
0.0
 10
-178.8878
 20
-27.2001
 30
0.0
 10
-177.9342
 20
-30.1164
 30
0.0
 10
-177.625
 20
-34.1201
 30
0.0
  0
SPLINE
  5
45
330
1F
100
AcDbEntity
  8
layer 1
 62
   254
370
     9
100
AcDbSpline
210
0.0
220
0.0
230
1.0
 70
    11
 71
     3
 72
    20
 73
    16
 74
     0
 42
0.0000000001
 43
0.0000000001
 12
1.0
 22
0.0
 32
0.0
 13
1.0
 23
0.0
 33
0.0
 40
0.0
 40
0.0
 40
0.0
 40
0.0
 40
0.2
 40
0.2
 40
0.2
 40
0.2
 40
0.4
 40
0.4
 40
0.4
 40
0.4
 40
0.6
 40
0.6
 40
0.6
 40
0.6
 40
1.0
 40
1.0
 40
1.0
 40
1.0
 10
-174.0851
 20
20.8746
 30
0.0
 10
-172.792
 20
20.8746
 30
0.0
 10
-171.7435
 20
16.7049
 30
0.0
 10
-171.7435
 20
11.5612
 30
0.0
 10
-171.7435
 20
11.5612
 30
0.0
 10
-171.7435
 20
6.4174
 30
0.0
 10
-172.792
 20
2.2477
 30
0.0
 10
-174.0851
 20
2.2477
 30
0.0
 10
-174.0851
 20
2.2477
 30
0.0
 10
-175.3783
 20
2.2477
 30
0.0
 10
-176.4268
 20
6.4174
 30
0.0
 10
-176.4268
 20
11.5612
 30
0.0
 10
-176.4268
 20
11.5612
 30
0.0
 10
-176.4268
 20
16.7049
 30
0.0
 10
-175.3783
 20
20.8746
 30
0.0
 10
-174.0851
 20
20.8746
 30
0.0
  0
SPLINE
  5
46
330
1F
100
AcDbEntity
  8
layer 1
 62
   254
370
     9
100
AcDbSpline
210
0.0
220
0.0
230
1.0
 70
    11
 71
     3
 72
    20
 73
    16
 74
     0
 42
0.0000000001
 43
0.0000000001
 12
1.0
 22
0.0
 32
0.0
 13
1.0
 23
0.0
 33
0.0
 40
0.0
 40
0.0
 40
0.0
 40
0.0
 40
0.2
 40
0.2
 40
0.2
 40
0.2
 40
0.4
 40
0.4
 40
0.4
 40
0.4
 40
0.6
 40
0.6
 40
0.6
 40
0.6
 40
1.0
 40
1.0
 40
1.0
 40
1.0
 10
-174.0851
 20
-20.749
 30
0.0
 10
-172.8207
 20
-20.749
 30
0.0
 10
-171.7957
 20
-16.556
 30
0.0
 10
-171.7957
 20
-11.3838
 30
0.0
 10
-171.7957
 20
-11.3838
 30
0.0
 10
-171.7957
 20
-6.2115
 30
0.0
 10
-172.8207
 20
-2.0187
 30
0.0
 10
-174.0851
 20
-2.0187
 30
0.0
 10
-174.0851
 20
-2.0187
 30
0.0
 10
-175.3494
 20
-2.0187
 30
0.0
 10
-176.3743
 20
-6.2115
 30
0.0
 10
-176.3743
 20
-11.3838
 30
0.0
 10
-176.3743
 20
-11.3838
 30
0.0
 10
-176.3743
 20
-16.556
 30
0.0
 10
-175.3494
 20
-20.749
 30
0.0
 10
-174.0851
 20
-20.749
 30
0.0
  0
SPLINE
  5
47
330
1F
100
AcDbEntity
  8
layer 1
 62
   254
370
     9
100
AcDbSpline
210
0.0
220
0.0
230
1.0
 70
    11
 71
     3
 72
    24
 73
    20
 74
     0
 42
0.0000000001
 43
0.0000000001
 12
1.0
 22
0.0
 32
0.0
 13
1.0
 23
0.0
 33
0.0
 40
0.0
 40
0.0
 40
0.0
 40
0.0
 40
0.1666666666666667
 40
0.1666666666666667
 40
0.1666666666666667
 40
0.1666666666666667
 40
0.3333333333333333
 40
0.3333333333333333
 40
0.3333333333333333
 40
0.3333333333333333
 40
0.5
 40
0.5
 40
0.5
 40
0.5
 40
0.6666666666666666
 40
0.6666666666666666
 40
0.6666666666666666
 40
0.6666666666666666
 40
1.0
 40
1.0
 40
1.0
 40
1.0
 10
-171.6944
 20
-34.1201
 30
0.0
 10
-171.6944
 20
-34.1201
 30
0.0
 10
-176.2675
 20
-34.1201
 30
0.0
 10
-176.2675
 20
-34.1201
 30
0.0
 10
-176.2675
 20
-34.1201
 30
0.0
 10
-176.2694
 20
-33.9815
 30
0.0
 10
-176.2703
 20
-33.8431
 30
0.0
 10
-176.2703
 20
-33.704
 30
0.0
 10
-176.2703
 20
-33.704
 30
0.0
 10
-176.2703
 20
-28.9051
 30
0.0
 10
-175.2454
 20
-25.0148
 30
0.0
 10
-173.9811
 20
-25.0148
 30
0.0
 10
-173.9811
 20
-25.0148
 30
0.0
 10
-172.7166
 20
-25.0148
 30
0.0
 10
-171.6917
 20
-28.9051
 30
0.0
 10
-171.6917
 20
-33.704
 30
0.0
 10
-171.6917
 20
-33.704
 30
0.0
 10
-171.6917
 20
-33.8435
 30
0.0
 10
-171.6926
 20
-33.9822
 30
0.0
 10
-171.6944
 20
-34.1201
 30
0.0
  0
SPLINE
  5
48
330
1F
100
AcDbEntity
  8
layer 1
 62
   254
370
     9
100
AcDbSpline
210
0.0
220
0.0
230
1.0
 70
    11
 71
     3
 72
    24
 73
    20
 74
     0
 42
0.0000000001
 43
0.0000000001
 12
1.0
 22
0.0
 32
0.0
 13
1.0
 23
0.0
 33
0.0
 40
0.0
 40
0.0
 40
0.0
 40
0.0
 40
0.1666666666666667
 40
0.1666666666666667
 40
0.1666666666666667
 40
0.1666666666666667
 40
0.3333333333333333
 40
0.3333333333333333
 40
0.3333333333333333
 40
0.3333333333333333
 40
0.5
 40
0.5
 40
0.5
 40
0.5
 40
0.6666666666666666
 40
0.6666666666666666
 40
0.6666666666666666
 40
0.6666666666666666
 40
1.0
 40
1.0
 40
1.0
 40
1.0
 10
-166.3617
 20
-34.1201
 30
0.0
 10
-166.3617
 20
-34.1201
 30
0.0
 10
-170.5701
 20
-34.1201
 30
0.0
 10
-170.5701
 20
-34.1201
 30
0.0
 10
-170.5701
 20
-34.1201
 30
0.0
 10
-170.623
 20
-33.361
 30
0.0
 10
-170.6513
 20
-32.5573
 30
0.0
 10
-170.6513
 20
-31.7269
 30
0.0
 10
-170.6513
 20
-31.7269
 30
0.0
 10
-170.6513
 20
-26.842
 30
0.0
 10
-169.6729
 20
-22.8819
 30
0.0
 10
-168.4659
 20
-22.8819
 30
0.0
 10
-168.4659
 20
-22.8819
 30
0.0
 10
-167.2591
 20
-22.8819
 30
0.0
 10
-166.2808
 20
-26.842
 30
0.0
 10
-166.2808
 20
-31.7269
 30
0.0
 10
-166.2808
 20
-31.7269
 30
0.0
 10
-166.2808
 20
-32.5562
 30
0.0
 10
-166.3089
 20
-33.3591
 30
0.0
 10
-166.3617
 20
-34.1201
 30
0.0
  0
SPLINE
  5
49
330
1F
100
AcDbEntity
  8
layer 1
 62
   254
370
     9
100
AcDbSpline
210
0.0
220
0.0
230
1.0
 70
    11
 71
     3
 72
    24
 73
    20
 74
     0
 42
0.0000000001
 43
0.0000000001
 12
1.0
 22
0.0
 32
0.0
 13
1.0
 23
0.0
 33
0.0
 40
0.0
 40
0.0
 40
0.0
 40
0.0
 40
0.1666666666666667
 40
0.1666666666666667
 40
0.1666666666666667
 40
0.1666666666666667
 40
0.3333333333333333
 40
0.3333333333333333
 40
0.3333333333333333
 40
0.3333333333333333
 40
0.5
 40
0.5
 40
0.5
 40
0.5
 40
0.6666666666666666
 40
0.6666666666666666
 40
0.6666666666666666
 40
0.6666666666666666
 40
1.0
 40
1.0
 40
1.0
 40
1.0
 10
-161.6713
 20
-34.1201
 30
0.0
 10
-161.6713
 20
-34.1201
 30
0.0
 10
-164.9595
 20
-34.1201
 30
0.0
 10
-164.9595
 20
-34.1201
 30
0.0
 10
-164.9595
 20
-34.1201
 30
0.0
 10
-165.1701
 20
-32.779
 30
0.0
 10
-165.2926
 20
-31.1692
 30
0.0
 10
-165.2926
 20
-29.4376
 30
0.0
 10
-165.2926
 20
-29.4376
 30
0.0
 10
-165.2926
 20
-24.7826
 30
0.0
 10
-164.4074
 20
-21.0089
 30
0.0
 10
-163.3155
 20
-21.0089
 30
0.0
 10
-163.3155
 20
-21.0089
 30
0.0
 10
-162.2234
 20
-21.0089
 30
0.0
 10
-161.3382
 20
-24.7826
 30
0.0
 10
-161.3382
 20
-29.4376
 30
0.0
 10
-161.3382
 20
-29.4376
 30
0.0
 10
-161.3382
 20
-31.1704
 30
0.0
 10
-161.461
 20
-32.7811
 30
0.0
 10
-161.6713
 20
-34.1201
 30
0.0
  0
SPLINE
  5
4A
330
1F
100
AcDbEntity
  8
layer 1
 62
   254
370
     9
100
AcDbSpline
210
0.0
220
0.0
230
1.0
 70
    11
 71
     3
 72
    24
 73
    20
 74
     0
 42
0.0000000001
 43
0.0000000001
 12
1.0
 22
0.0
 32
0.0
 13
1.0
 23
0.0
 33
0.0
 40
0.0
 40
0.0
 40
0.0
 40
0.0
 40
0.1666666666666667
 40
0.1666666666666667
 40
0.1666666666666667
 40
0.1666666666666667
 40
0.3333333333333333
 40
0.3333333333333333
 40
0.3333333333333333
 40
0.3333333333333333
 40
0.5
 40
0.5
 40
0.5
 40
0.5
 40
0.6666666666666666
 40
0.6666666666666666
 40
0.6666666666666666
 40
0.6666666666666666
 40
1.0
 40
1.0
 40
1.0
 40
1.0
 10
-157.5184
 20
-34.1201
 30
0.0
 10
-157.5184
 20
-34.1201
 30
0.0
 10
-159.7474
 20
-34.1201
 30
0.0
 10
-159.7474
 20
-34.1201
 30
0.0
 10
-159.7474
 20
-34.1201
 30
0.0
 10
-160.208
 20
-32.6193
 30
0.0
 10
-160.5059
 20
-30.2187
 30
0.0
 10
-160.5059
 20
-27.5128
 30
0.0
 10
-160.5059
 20
-27.5128
 30
0.0
 10
-160.5059
 20
-22.9728
 30
0.0
 10
-159.6673
 20
-19.2922
 30
0.0
 10
-158.6329
 20
-19.2922
 30
0.0
 10
-158.6329
 20
-19.2922
 30
0.0
 10
-157.5983
 20
-19.2922
 30
0.0
 10
-156.7599
 20
-22.9728
 30
0.0
 10
-156.7599
 20
-27.5128
 30
0.0
 10
-156.7599
 20
-27.5128
 30
0.0
 10
-156.7599
 20
-30.2202
 30
0.0
 10
-157.058
 20
-32.6219
 30
0.0
 10
-157.5184
 20
-34.1201
 30
0.0
  0
SPLINE
  5
4B
330
1F
100
AcDbEntity
  8
layer 1
 62
   254
370
     9
100
AcDbSpline
210
0.0
220
0.0
230
1.0
 70
    11
 71
     3
 72
    24
 73
    20
 74
     0
 42
0.0000000001
 43
0.0000000001
 12
1.0
 22
0.0
 32
0.0
 13
1.0
 23
0.0
 33
0.0
 40
0.0
 40
0.0
 40
0.0
 40
0.0
 40
0.1666666666666667
 40
0.1666666666666667
 40
0.1666666666666667
 40
0.1666666666666667
 40
0.3333333333333333
 40
0.3333333333333333
 40
0.3333333333333333
 40
0.3333333333333333
 40
0.5
 40
0.5
 40
0.5
 40
0.5
 40
0.6666666666666666
 40
0.6666666666666666
 40
0.6666666666666666
 40
0.6666666666666666
 40
1.0
 40
1.0
 40
1.0
 40
1.0
 10
-145.6517
 20
-34.1201
 30
0.0
 10
-145.6517
 20
-34.1201
 30
0.0
 10
-147.1077
 20
-34.1201
 30
0.0
 10
-147.1077
 20
-34.1201
 30
0.0
 10
-147.1077
 20
-34.1201
 30
0.0
 10
-147.1081
 20
-34.1112
 30
0.0
 10
-147.1081
 20
-34.1026
 30
0.0
 10
-147.1081
 20
-34.094
 30
0.0
 10
-147.1081
 20
-34.094
 30
0.0
 10
-147.1081
 20
-33.3754
 30
0.0
 10
-146.7819
 20
-32.793
 30
0.0
 10
-146.3796
 20
-32.793
 30
0.0
 10
-146.3796
 20
-32.793
 30
0.0
 10
-145.9772
 20
-32.793
 30
0.0
 10
-145.6512
 20
-33.3754
 30
0.0
 10
-145.6512
 20
-34.094
 30
0.0
 10
-145.6512
 20
-34.094
 30
0.0
 10
-145.6512
 20
-34.1027
 30
0.0
 10
-145.6512
 20
-34.1114
 30
0.0
 10
-145.6517
 20
-34.1201
 30
0.0
  0
SPLINE
  5
4C
330
1F
100
AcDbEntity
  8
layer 1
 62
   254
370
     9
100
AcDbSpline
210
0.0
220
0.0
230
1.0
 70
    11
 71
     3
 72
    20
 73
    16
 74
     0
 42
0.0000000001
 43
0.0000000001
 12
1.0
 22
0.0
 32
0.0
 13
1.0
 23
0.0
 33
0.0
 40
0.0
 40
0.0
 40
0.0
 40
0.0
 40
0.2
 40
0.2
 40
0.2
 40
0.2
 40
0.4
 40
0.4
 40
0.4
 40
0.4
 40
0.6
 40
0.6
 40
0.6
 40
0.6
 40
1.0
 40
1.0
 40
1.0
 40
1.0
 10
-154.3923
 20
-33.4958
 30
0.0
 10
-153.4726
 20
-33.4958
 30
0.0
 10
-152.7273
 20
-29.9318
 30
0.0
 10
-152.7273
 20
-25.5354
 30
0.0
 10
-152.7273
 20
-25.5354
 30
0.0
 10
-152.7273
 20
-21.139
 30
0.0
 10
-153.4726
 20
-17.575
 30
0.0
 10
-154.3923
 20
-17.575
 30
0.0
 10
-154.3923
 20
-17.575
 30
0.0
 10
-155.3116
 20
-17.575
 30
0.0
 10
-156.0572
 20
-21.139
 30
0.0
 10
-156.0572
 20
-25.5354
 30
0.0
 10
-156.0572
 20
-25.5354
 30
0.0
 10
-156.0572
 20
-29.9318
 30
0.0
 10
-155.3116
 20
-33.4958
 30
0.0
 10
-154.3923
 20
-33.4958
 30
0.0
  0
SPLINE
  5
4D
330
1F
100
AcDbEntity
  8
layer 1
 62
   254
370
     9
100
AcDbSpline
210
0.0
220
0.0
230
1.0
 70
    11
 71
     3
 72
    20
 73
    16
 74
     0
 42
0.0000000001
 43
0.0000000001
 12
1.0
 22
0.0
 32
0.0
 13
1.0
 23
0.0
 33
0.0
 40
0.0
 40
0.0
 40
0.0
 40
0.0
 40
0.2
 40
0.2
 40
0.2
 40
0.2
 40
0.4
 40
0.4
 40
0.4
 40
0.4
 40
0.6
 40
0.6
 40
0.6
 40
0.6
 40
1.0
 40
1.0
 40
1.0
 40
1.0
 10
-150.4673
 20
-31.4647
 30
0.0
 10
-151.3145
 20
-31.4441
 30
0.0
 10
-151.9185
 20
-28.0274
 30
0.0
 10
-151.8163
 20
-23.8334
 30
0.0
 10
-151.8163
 20
-23.8334
 30
0.0
 10
-151.7139
 20
-19.6394
 30
0.0
 10
-150.9441
 20
-16.2562
 30
0.0
 10
-150.0968
 20
-16.2768
 30
0.0
 10
-150.0968
 20
-16.2768
 30
0.0
 10
-149.2496
 20
-16.2976
 30
0.0
 10
-148.6455
 20
-19.7143
 30
0.0
 10
-148.7478
 20
-23.9082
 30
0.0
 10
-148.7478
 20
-23.9082
 30
0.0
 10
-148.8502
 20
-28.1022
 30
0.0
 10
-149.6198
 20
-31.4853
 30
0.0
 10
-150.4673
 20
-31.4647
 30
0.0
  0
SPLINE
  5
4E
330
1F
100
AcDbEntity
  8
layer 1
 62
   254
370
     9
100
AcDbSpline
210
0.0
220
0.0
230
1.0
 70
    11
 71
     3
 72
    20
 73
    16
 74
     0
 42
0.0000000001
 43
0.0000000001
 12
1.0
 22
0.0
 32
0.0
 13
1.0
 23
0.0
 33
0.0
 40
0.0
 40
0.0
 40
0.0
 40
0.0
 40
0.2
 40
0.2
 40
0.2
 40
0.2
 40
0.4
 40
0.4
 40
0.4
 40
0.4
 40
0.6
 40
0.6
 40
0.6
 40
0.6
 40
1.0
 40
1.0
 40
1.0
 40
1.0
 10
-146.6976
 20
-29.514
 30
0.0
 10
-145.9074
 20
-29.5287
 30
0.0
 10
-145.2063
 20
-26.2683
 30
0.0
 10
-145.1317
 20
-22.2319
 30
0.0
 10
-145.1317
 20
-22.2319
 30
0.0
 10
-145.0567
 20
-18.1953
 30
0.0
 10
-145.6368
 20
-14.911
 30
0.0
 10
-146.4267
 20
-14.8965
 30
0.0
 10
-146.4267
 20
-14.8965
 30
0.0
 10
-147.217
 20
-14.8818
 30
0.0
 10
-147.918
 20
-18.1422
 30
0.0
 10
-147.9927
 20
-22.1788
 30
0.0
 10
-147.9927
 20
-22.1788
 30
0.0
 10
-148.0673
 20
-26.2153
 30
0.0
 10
-147.4875
 20
-29.4994
 30
0.0
 10
-146.6976
 20
-29.514
 30
0.0
  0
SPLINE
  5
4F
330
1F
100
AcDbEntity
  8
layer 1
 62
   254
370
     9
100
AcDbSpline
210
0.0
220
0.0
230
1.0
 70
    11
 71
     3
 72
    20
 73
    16
 74
     0
 42
0.0000000001
 43
0.0000000001
 12
1.0
 22
0.0
 32
0.0
 13
1.0
 23
0.0
 33
0.0
 40
0.0
 40
0.0
 40
0.0
 40
0.0
 40
0.2
 40
0.2
 40
0.2
 40
0.2
 40
0.4
 40
0.4
 40
0.4
 40
0.4
 40
0.6
 40
0.6
 40
0.6
 40
0.6
 40
1.0
 40
1.0
 40
1.0
 40
1.0
 10
-168.5183
 20
-18.824
 30
0.0
 10
-169.7252
 20
-18.824
 30
0.0
 10
-170.7035
 20
-14.8408
 30
0.0
 10
-170.7035
 20
-9.9272
 30
0.0
 10
-170.7035
 20
-9.9272
 30
0.0
 10
-170.7035
 20
-5.0134
 30
0.0
 10
-169.7252
 20
-1.0301
 30
0.0
 10
-168.5183
 20
-1.0301
 30
0.0
 10
-168.5183
 20
-1.0301
 30
0.0
 10
-167.3113
 20
-1.0301
 30
0.0
 10
-166.333
 20
-5.0134
 30
0.0
 10
-166.333
 20
-9.9272
 30
0.0
 10
-166.333
 20
-9.9272
 30
0.0
 10
-166.333
 20
-14.8408
 30
0.0
 10
-167.3113
 20
-18.824
 30
0.0
 10
-168.5183
 20
-18.824
 30
0.0
  0
SPLINE
  5
50
330
1F
100
AcDbEntity
  8
layer 1
 62
   254
370
     9
100
AcDbSpline
210
0.0
220
0.0
230
1.0
 70
    11
 71
     3
 72
    20
 73
    16
 74
     0
 42
0.0000000001
 43
0.0000000001
 12
1.0
 22
0.0
 32
0.0
 13
1.0
 23
0.0
 33
0.0
 40
0.0
 40
0.0
 40
0.0
 40
0.0
 40
0.2
 40
0.2
 40
0.2
 40
0.2
 40
0.4
 40
0.4
 40
0.4
 40
0.4
 40
0.6
 40
0.6
 40
0.6
 40
0.6
 40
1.0
 40
1.0
 40
1.0
 40
1.0
 10
-163.4451
 20
-0.0148
 30
0.0
 10
-164.5084
 20
-0.0148
 30
0.0
 10
-165.3704
 20
-3.8469
 30
0.0
 10
-165.3704
 20
-8.5738
 30
0.0
 10
-165.3704
 20
-8.5738
 30
0.0
 10
-165.3704
 20
-13.3006
 30
0.0
 10
-164.5084
 20
-17.1326
 30
0.0
 10
-163.4451
 20
-17.1326
 30
0.0
 10
-163.4451
 20
-17.1326
 30
0.0
 10
-162.3816
 20
-17.1326
 30
0.0
 10
-161.5197
 20
-13.3006
 30
0.0
 10
-161.5197
 20
-8.5738
 30
0.0
 10
-161.5197
 20
-8.5738
 30
0.0
 10
-161.5197
 20
-3.8469
 30
0.0
 10
-162.3816
 20
-0.0148
 30
0.0
 10
-163.4451
 20
-0.0148
 30
0.0
  0
SPLINE
  5
51
330
1F
100
AcDbEntity
  8
layer 1
 62
   254
370
     9
100
AcDbSpline
210
0.0
220
0.0
230
1.0
 70
    11
 71
     3
 72
    20
 73
    16
 74
     0
 42
0.0000000001
 43
0.0000000001
 12
1.0
 22
0.0
 32
0.0
 13
1.0
 23
0.0
 33
0.0
 40
0.0
 40
0.0
 40
0.0
 40
0.0
 40
0.2
 40
0.2
 40
0.2
 40
0.2
 40
0.4
 40
0.4
 40
0.4
 40
0.4
 40
0.6
 40
0.6
 40
0.6
 40
0.6
 40
1.0
 40
1.0
 40
1.0
 40
1.0
 10
-158.6845
 20
-15.4681
 30
0.0
 10
-157.6931
 20
-15.4681
 30
0.0
 10
-156.8895
 20
-11.8226
 30
0.0
 10
-156.8895
 20
-7.3256
 30
0.0
 10
-156.8895
 20
-7.3256
 30
0.0
 10
-156.8895
 20
-2.8286
 30
0.0
 10
-157.6931
 20
0.8169
 30
0.0
 10
-158.6845
 20
0.8169
 30
0.0
 10
-158.6845
 20
0.8169
 30
0.0
 10
-159.6758
 20
0.8169
 30
0.0
 10
-160.4797
 20
-2.8286
 30
0.0
 10
-160.4797
 20
-7.3256
 30
0.0
 10
-160.4797
 20
-7.3256
 30
0.0
 10
-160.4797
 20
-11.8226
 30
0.0
 10
-159.6758
 20
-15.4681
 30
0.0
 10
-158.6845
 20
-15.4681
 30
0.0
  0
SPLINE
  5
52
330
1F
100
AcDbEntity
  8
layer 1
 62
   254
370
     9
100
AcDbSpline
210
0.0
220
0.0
230
1.0
 70
    11
 71
     3
 72
    20
 73
    16
 74
     0
 42
0.0000000001
 43
0.0000000001
 12
1.0
 22
0.0
 32
0.0
 13
1.0
 23
0.0
 33
0.0
 40
0.0
 40
0.0
 40
0.0
 40
0.0
 40
0.2
 40
0.2
 40
0.2
 40
0.2
 40
0.4
 40
0.4
 40
0.4
 40
0.4
 40
0.6
 40
0.6
 40
0.6
 40
0.6
 40
1.0
 40
1.0
 40
1.0
 40
1.0
 10
-154.3402
 20
-14.2452
 30
0.0
 10
-153.4206
 20
-14.2452
 30
0.0
 10
-152.6753
 20
-10.6928
 30
0.0
 10
-152.6753
 20
-6.3108
 30
0.0
 10
-152.6753
 20
-6.3108
 30
0.0
 10
-152.6753
 20
-1.9287
 30
0.0
 10
-153.4206
 20
1.6237
 30
0.0
 10
-154.3402
 20
1.6237
 30
0.0
 10
-154.3402
 20
1.6237
 30
0.0
 10
-155.2596
 20
1.6237
 30
0.0
 10
-156.0051
 20
-1.9287
 30
0.0
 10
-156.0051
 20
-6.3108
 30
0.0
 10
-156.0051
 20
-6.3108
 30
0.0
 10
-156.0051
 20
-10.6928
 30
0.0
 10
-155.2596
 20
-14.2452
 30
0.0
 10
-154.3402
 20
-14.2452
 30
0.0
  0
SPLINE
  5
53
330
1F
100
AcDbEntity
  8
layer 1
 62
   254
370
     9
100
AcDbSpline
210
0.0
220
0.0
230
1.0
 70
    11
 71
     3
 72
    20
 73
    16
 74
     0
 42
0.0000000001
 43
0.0000000001
 12
1.0
 22
0.0
 32
0.0
 13
1.0
 23
0.0
 33
0.0
 40
0.0
 40
0.0
 40
0.0
 40
0.0
 40
0.2
 40
0.2
 40
0.2
 40
0.2
 40
0.4
 40
0.4
 40
0.4
 40
0.4
 40
0.6
 40
0.6
 40
0.6
 40
0.6
 40
1.0
 40
1.0
 40
1.0
 40
1.0
 10
-150.3083
 20
2.5343
 30
0.0
 10
-149.4461
 20
2.5343
 30
0.0
 10
-148.7474
 20
-0.8667
 30
0.0
 10
-148.7474
 20
-5.062
 30
0.0
 10
-148.7474
 20
-5.062
 30
0.0
 10
-148.7474
 20
-9.2571
 30
0.0
 10
-149.4461
 20
-12.6581
 30
0.0
 10
-150.3083
 20
-12.6581
 30
0.0
 10
-150.3083
 20
-12.6581
 30
0.0
 10
-151.1702
 20
-12.6581
 30
0.0
 10
-151.8692
 20
-9.2571
 30
0.0
 10
-151.8692
 20
-5.062
 30
0.0
 10
-151.8692
 20
-5.062
 30
0.0
 10
-151.8692
 20
-0.8667
 30
0.0
 10
-151.1702
 20
2.5343
 30
0.0
 10
-150.3083
 20
2.5343
 30
0.0
  0
SPLINE
  5
54
330
1F
100
AcDbEntity
  8
layer 1
 62
   254
370
     9
100
AcDbSpline
210
0.0
220
0.0
230
1.0
 70
    11
 71
     3
 72
    20
 73
    16
 74
     0
 42
0.0000000001
 43
0.0000000001
 12
1.0
 22
0.0
 32
0.0
 13
1.0
 23
0.0
 33
0.0
 40
0.0
 40
0.0
 40
0.0
 40
0.0
 40
0.2
 40
0.2
 40
0.2
 40
0.2
 40
0.4
 40
0.4
 40
0.4
 40
0.4
 40
0.6
 40
0.6
 40
0.6
 40
0.6
 40
1.0
 40
1.0
 40
1.0
 40
1.0
 10
-146.5621
 20
3.236
 30
0.0
 10
-147.3237
 20
3.236
 30
0.0
 10
-147.941
 20
-0.0484
 30
0.0
 10
-147.941
 20
-4.0998
 30
0.0
 10
-147.941
 20
-4.0998
 30
0.0
 10
-147.941
 20
-8.1513
 30
0.0
 10
-147.3237
 20
-11.4356
 30
0.0
 10
-146.5621
 20
-11.4356
 30
0.0
 10
-146.5621
 20
-11.4356
 30
0.0
 10
-145.8006
 20
-11.4356
 30
0.0
 10
-145.1833
 20
-8.1513
 30
0.0
 10
-145.1833
 20
-4.0998
 30
0.0
 10
-145.1833
 20
-4.0998
 30
0.0
 10
-145.1833
 20
-0.0484
 30
0.0
 10
-145.8006
 20
3.236
 30
0.0
 10
-146.5621
 20
3.236
 30
0.0
  0
SPLINE
  5
55
330
1F
100
AcDbEntity
  8
layer 1
 62
   254
370
     9
100
AcDbSpline
210
0.0
220
0.0
230
1.0
 70
    11
 71
     3
 72
    20
 73
    16
 74
     0
 42
0.0000000001
 43
0.0000000001
 12
1.0
 22
0.0
 32
0.0
 13
1.0
 23
0.0
 33
0.0
 40
0.0
 40
0.0
 40
0.0
 40
0.0
 40
0.2
 40
0.2
 40
0.2
 40
0.2
 40
0.4
 40
0.4
 40
0.4
 40
0.4
 40
0.6
 40
0.6
 40
0.6
 40
0.6
 40
1.0
 40
1.0
 40
1.0
 40
1.0
 10
-168.4659
 20
3.2886
 30
0.0
 10
-169.7014
 20
3.2886
 30
0.0
 10
-170.7029
 20
7.2253
 30
0.0
 10
-170.7029
 20
12.0814
 30
0.0
 10
-170.7029
 20
12.0814
 30
0.0
 10
-170.7029
 20
16.9377
 30
0.0
 10
-169.7014
 20
20.8742
 30
0.0
 10
-168.4659
 20
20.8742
 30
0.0
 10
-168.4659
 20
20.8742
 30
0.0
 10
-167.2306
 20
20.8742
 30
0.0
 10
-166.2292
 20
16.9377
 30
0.0
 10
-166.2292
 20
12.0814
 30
0.0
 10
-166.2292
 20
12.0814
 30
0.0
 10
-166.2292
 20
7.2253
 30
0.0
 10
-167.2306
 20
3.2886
 30
0.0
 10
-168.4659
 20
3.2886
 30
0.0
  0
SPLINE
  5
56
330
1F
100
AcDbEntity
  8
layer 1
 62
   254
370
     9
100
AcDbSpline
210
0.0
220
0.0
230
1.0
 70
    11
 71
     3
 72
    20
 73
    16
 74
     0
 42
0.0000000001
 43
0.0000000001
 12
1.0
 22
0.0
 32
0.0
 13
1.0
 23
0.0
 33
0.0
 40
0.0
 40
0.0
 40
0.0
 40
0.0
 40
0.2
 40
0.2
 40
0.2
 40
0.2
 40
0.4
 40
0.4
 40
0.4
 40
0.4
 40
0.6
 40
0.6
 40
0.6
 40
0.6
 40
1.0
 40
1.0
 40
1.0
 40
1.0
 10
-163.3155
 20
4.0687
 30
0.0
 10
-162.2234
 20
4.0687
 30
0.0
 10
-161.3382
 20
7.8191
 30
0.0
 10
-161.3382
 20
12.4454
 30
0.0
 10
-161.3382
 20
12.4454
 30
0.0
 10
-161.3382
 20
17.0715
 30
0.0
 10
-162.2234
 20
20.8219
 30
0.0
 10
-163.3155
 20
20.8219
 30
0.0
 10
-163.3155
 20
20.8219
 30
0.0
 10
-164.4074
 20
20.8219
 30
0.0
 10
-165.2926
 20
17.0715
 30
0.0
 10
-165.2926
 20
12.4454
 30
0.0
 10
-165.2926
 20
12.4454
 30
0.0
 10
-165.2926
 20
7.8191
 30
0.0
 10
-164.4074
 20
4.0687
 30
0.0
 10
-163.3155
 20
4.0687
 30
0.0
  0
SPLINE
  5
57
330
1F
100
AcDbEntity
  8
layer 1
 62
   254
370
     9
100
AcDbSpline
210
0.0
220
0.0
230
1.0
 70
    11
 71
     3
 72
    20
 73
    16
 74
     0
 42
0.0000000001
 43
0.0000000001
 12
1.0
 22
0.0
 32
0.0
 13
1.0
 23
0.0
 33
0.0
 40
0.0
 40
0.0
 40
0.0
 40
0.0
 40
0.2
 40
0.2
 40
0.2
 40
0.2
 40
0.4
 40
0.4
 40
0.4
 40
0.4
 40
0.6
 40
0.6
 40
0.6
 40
0.6
 40
1.0
 40
1.0
 40
1.0
 40
1.0
 10
-158.6845
 20
4.7974
 30
0.0
 10
-157.7076
 20
4.7974
 30
0.0
 10
-156.9155
 20
8.443
 30
0.0
 10
-156.9155
 20
12.9402
 30
0.0
 10
-156.9155
 20
12.9402
 30
0.0
 10
-156.9155
 20
17.437
 30
0.0
 10
-157.7076
 20
21.0825
 30
0.0
 10
-158.6845
 20
21.0825
 30
0.0
 10
-158.6845
 20
21.0825
 30
0.0
 10
-159.6616
 20
21.0825
 30
0.0
 10
-160.4535
 20
17.437
 30
0.0
 10
-160.4535
 20
12.9402
 30
0.0
 10
-160.4535
 20
12.9402
 30
0.0
 10
-160.4535
 20
8.443
 30
0.0
 10
-159.6616
 20
4.7974
 30
0.0
 10
-158.6845
 20
4.7974
 30
0.0
  0
SPLINE
  5
58
330
1F
100
AcDbEntity
  8
layer 1
 62
   254
370
     9
100
AcDbSpline
210
0.0
220
0.0
230
1.0
 70
    11
 71
     3
 72
    20
 73
    16
 74
     0
 42
0.0000000001
 43
0.0000000001
 12
1.0
 22
0.0
 32
0.0
 13
1.0
 23
0.0
 33
0.0
 40
0.0
 40
0.0
 40
0.0
 40
0.0
 40
0.2
 40
0.2
 40
0.2
 40
0.2
 40
0.4
 40
0.4
 40
0.4
 40
0.4
 40
0.6
 40
0.6
 40
0.6
 40
0.6
 40
1.0
 40
1.0
 40
1.0
 40
1.0
 10
-154.3664
 20
21.1867
 30
0.0
 10
-155.2861
 20
21.1867
 30
0.0
 10
-156.0314
 20
17.6693
 30
0.0
 10
-156.0314
 20
13.3301
 30
0.0
 10
-156.0314
 20
13.3301
 30
0.0
 10
-156.0314
 20
8.9911
 30
0.0
 10
-155.2861
 20
5.4735
 30
0.0
 10
-154.3664
 20
5.4735
 30
0.0
 10
-154.3664
 20
5.4735
 30
0.0
 10
-153.4471
 20
5.4735
 30
0.0
 10
-152.7015
 20
8.9911
 30
0.0
 10
-152.7015
 20
13.3301
 30
0.0
 10
-152.7015
 20
13.3301
 30
0.0
 10
-152.7015
 20
17.6693
 30
0.0
 10
-153.4471
 20
21.1867
 30
0.0
 10
-154.3664
 20
21.1867
 30
0.0
  0
SPLINE
  5
59
330
1F
100
AcDbEntity
  8
layer 1
 62
   254
370
     9
100
AcDbSpline
210
0.0
220
0.0
230
1.0
 70
    11
 71
     3
 72
    20
 73
    16
 74
     0
 42
0.0000000001
 43
0.0000000001
 12
1.0
 22
0.0
 32
0.0
 13
1.0
 23
0.0
 33
0.0
 40
0.0
 40
0.0
 40
0.0
 40
0.0
 40
0.2
 40
0.2
 40
0.2
 40
0.2
 40
0.4
 40
0.4
 40
0.4
 40
0.4
 40
0.6
 40
0.6
 40
0.6
 40
0.6
 40
1.0
 40
1.0
 40
1.0
 40
1.0
 10
-150.3339
 20
5.9941
 30
0.0
 10
-149.5005
 20
5.9941
 30
0.0
 10
-148.825
 20
9.3836
 30
0.0
 10
-148.825
 20
13.5644
 30
0.0
 10
-148.825
 20
13.5644
 30
0.0
 10
-148.825
 20
17.7453
 30
0.0
 10
-149.5005
 20
21.1345
 30
0.0
 10
-150.3339
 20
21.1345
 30
0.0
 10
-150.3339
 20
21.1345
 30
0.0
 10
-151.1671
 20
21.1345
 30
0.0
 10
-151.8427
 20
17.7453
 30
0.0
 10
-151.8427
 20
13.5644
 30
0.0
 10
-151.8427
 20
13.5644
 30
0.0
 10
-151.8427
 20
9.3836
 30
0.0
 10
-151.1671
 20
5.9941
 30
0.0
 10
-150.3339
 20
5.9941
 30
0.0
  0
SPLINE
  5
5A
330
1F
100
AcDbEntity
  8
layer 1
 62
   254
370
     9
100
AcDbSpline
210
0.0
220
0.0
230
1.0
 70
    11
 71
     3
 72
    20
 73
    16
 74
     0
 42
0.0000000001
 43
0.0000000001
 12
1.0
 22
0.0
 32
0.0
 13
1.0
 23
0.0
 33
0.0
 40
0.0
 40
0.0
 40
0.0
 40
0.0
 40
0.2
 40
0.2
 40
0.2
 40
0.2
 40
0.4
 40
0.4
 40
0.4
 40
0.4
 40
0.6
 40
0.6
 40
0.6
 40
0.6
 40
1.0
 40
1.0
 40
1.0
 40
1.0
 10
-146.5621
 20
6.7747
 30
0.0
 10
-145.7719
 20
6.7747
 30
0.0
 10
-145.1314
 20
10.0009
 30
0.0
 10
-145.1314
 20
13.9806
 30
0.0
 10
-145.1314
 20
13.9806
 30
0.0
 10
-145.1314
 20
17.9603
 30
0.0
 10
-145.7719
 20
21.1865
 30
0.0
 10
-146.5621
 20
21.1865
 30
0.0
 10
-146.5621
 20
21.1865
 30
0.0
 10
-147.3523
 20
21.1865
 30
0.0
 10
-147.9929
 20
17.9603
 30
0.0
 10
-147.9929
 20
13.9806
 30
0.0
 10
-147.9929
 20
13.9806
 30
0.0
 10
-147.9929
 20
10.0009
 30
0.0
 10
-147.3523
 20
6.7747
 30
0.0
 10
-146.5621
 20
6.7747
 30
0.0
  0
SPLINE
  5
5B
330
1F
100
AcDbEntity
  8
layer 1
 62
   254
370
     9
100
AcDbSpline
210
0.0
220
0.0
230
1.0
 70
    11
 71
     3
 72
    20
 73
    16
 74
     0
 42
0.0000000001
 43
0.0000000001
 12
1.0
 22
0.0
 32
0.0
 13
1.0
 23
0.0
 33
0.0
 40
0.0
 40
0.0
 40
0.0
 40
0.0
 40
0.2
 40
0.2
 40
0.2
 40
0.2
 40
0.4
 40
0.4
 40
0.4
 40
0.4
 40
0.6
 40
0.6
 40
0.6
 40
0.6
 40
1.0
 40
1.0
 40
1.0
 40
1.0
 10
-180.2244
 20
25.2445
 30
0.0
 10
-178.8452
 20
25.2445
 30
0.0
 10
-177.7271
 20
29.6005
 30
0.0
 10
-177.7271
 20
34.9741
 30
0.0
 10
-177.7271
 20
34.9741
 30
0.0
 10
-177.7271
 20
40.3477
 30
0.0
 10
-178.8452
 20
44.7037
 30
0.0
 10
-180.2244
 20
44.7037
 30
0.0
 10
-180.2244
 20
44.7037
 30
0.0
 10
-181.6038
 20
44.7037
 30
0.0
 10
-182.7219
 20
40.3477
 30
0.0
 10
-182.7219
 20
34.9741
 30
0.0
 10
-182.7219
 20
34.9741
 30
0.0
 10
-182.7219
 20
29.6005
 30
0.0
 10
-181.6038
 20
25.2445
 30
0.0
 10
-180.2244
 20
25.2445
 30
0.0
  0
SPLINE
  5
5C
330
1F
100
AcDbEntity
  8
layer 1
 62
   254
370
     9
100
AcDbSpline
210
0.0
220
0.0
230
1.0
 70
    11
 71
     3
 72
    20
 73
    16
 74
     0
 42
0.0000000001
 43
0.0000000001
 12
1.0
 22
0.0
 32
0.0
 13
1.0
 23
0.0
 33
0.0
 40
0.0
 40
0.0
 40
0.0
 40
0.0
 40
0.2
 40
0.2
 40
0.2
 40
0.2
 40
0.4
 40
0.4
 40
0.4
 40
0.4
 40
0.6
 40
0.6
 40
0.6
 40
0.6
 40
1.0
 40
1.0
 40
1.0
 40
1.0
 10
-180.2244
 20
49.3337
 30
0.0
 10
-178.8452
 20
49.3337
 30
0.0
 10
-177.7271
 20
53.6899
 30
0.0
 10
-177.7271
 20
59.0635
 30
0.0
 10
-177.7271
 20
59.0635
 30
0.0
 10
-177.7271
 20
64.4369
 30
0.0
 10
-178.8452
 20
68.7931
 30
0.0
 10
-180.2244
 20
68.7931
 30
0.0
 10
-180.2244
 20
68.7931
 30
0.0
 10
-181.6038
 20
68.7931
 30
0.0
 10
-182.7219
 20
64.4369
 30
0.0
 10
-182.7219
 20
59.0635
 30
0.0
 10
-182.7219
 20
59.0635
 30
0.0
 10
-182.7219
 20
53.6899
 30
0.0
 10
-181.6038
 20
49.3337
 30
0.0
 10
-180.2244
 20
49.3337
 30
0.0
  0
SPLINE
  5
5D
330
1F
100
AcDbEntity
  8
layer 1
 62
   254
370
     9
100
AcDbSpline
210
0.0
220
0.0
230
1.0
 70
    11
 71
     3
 72
    24
 73
    20
 74
     0
 42
0.0000000001
 43
0.0000000001
 12
1.0
 22
0.0
 32
0.0
 13
1.0
 23
0.0
 33
0.0
 40
0.0
 40
0.0
 40
0.0
 40
0.0
 40
0.1666666666666667
 40
0.1666666666666667
 40
0.1666666666666667
 40
0.1666666666666667
 40
0.3333333333333333
 40
0.3333333333333333
 40
0.3333333333333333
 40
0.3333333333333333
 40
0.5
 40
0.5
 40
0.5
 40
0.5
 40
0.6666666666666666
 40
0.6666666666666666
 40
0.6666666666666666
 40
0.6666666666666666
 40
1.0
 40
1.0
 40
1.0
 40
1.0
 10
-177.625
 20
80.1352
 30
0.0
 10
-177.625
 20
80.1352
 30
0.0
 10
-182.4076
 20
80.1352
 30
0.0
 10
-182.4076
 20
80.1352
 30
0.0
 10
-182.4076
 20
80.1352
 30
0.0
 10
-182.2758
 20
78.4143
 30
0.0
 10
-182.0497
 20
76.6383
 30
0.0
 10
-181.4618
 20
75.0102
 30
0.0
 10
-181.4618
 20
75.0102
 30
0.0
 10
-181.3213
 20
74.6213
 30
0.0
 10
-181.1566
 20
74.238
 30
0.0
 10
-180.9319
 20
73.8901
 30
0.0
 10
-180.9319
 20
73.8901
 30
0.0
 10
-180.7276
 20
73.5732
 30
0.0
 10
-180.425
 20
73.2249
 30
0.0
 10
-180.0163
 20
73.215
 30
0.0
 10
-180.0163
 20
73.215
 30
0.0
 10
-178.8878
 20
73.215
 30
0.0
 10
-177.9342
 20
76.1314
 30
0.0
 10
-177.625
 20
80.1352
 30
0.0
  0
SPLINE
  5
5E
330
1F
100
AcDbEntity
  8
layer 1
 62
   254
370
     9
100
AcDbSpline
210
0.0
220
0.0
230
1.0
 70
    11
 71
     3
 72
    20
 73
    16
 74
     0
 42
0.0000000001
 43
0.0000000001
 12
1.0
 22
0.0
 32
0.0
 13
1.0
 23
0.0
 33
0.0
 40
0.0
 40
0.0
 40
0.0
 40
0.0
 40
0.2
 40
0.2
 40
0.2
 40
0.2
 40
0.4
 40
0.4
 40
0.4
 40
0.4
 40
0.6
 40
0.6
 40
0.6
 40
0.6
 40
1.0
 40
1.0
 40
1.0
 40
1.0
 10
-174.0851
 20
25.1404
 30
0.0
 10
-172.792
 20
25.1404
 30
0.0
 10
-171.7435
 20
29.3102
 30
0.0
 10
-171.7435
 20
34.4539
 30
0.0
 10
-171.7435
 20
34.4539
 30
0.0
 10
-171.7435
 20
39.5976
 30
0.0
 10
-172.792
 20
43.7673
 30
0.0
 10
-174.0851
 20
43.7673
 30
0.0
 10
-174.0851
 20
43.7673
 30
0.0
 10
-175.3783
 20
43.7673
 30
0.0
 10
-176.4268
 20
39.5976
 30
0.0
 10
-176.4268
 20
34.4539
 30
0.0
 10
-176.4268
 20
34.4539
 30
0.0
 10
-176.4268
 20
29.3102
 30
0.0
 10
-175.3783
 20
25.1404
 30
0.0
 10
-174.0851
 20
25.1404
 30
0.0
  0
SPLINE
  5
5F
330
1F
100
AcDbEntity
  8
layer 1
 62
   254
370
     9
100
AcDbSpline
210
0.0
220
0.0
230
1.0
 70
    11
 71
     3
 72
    20
 73
    16
 74
     0
 42
0.0000000001
 43
0.0000000001
 12
1.0
 22
0.0
 32
0.0
 13
1.0
 23
0.0
 33
0.0
 40
0.0
 40
0.0
 40
0.0
 40
0.0
 40
0.2
 40
0.2
 40
0.2
 40
0.2
 40
0.4
 40
0.4
 40
0.4
 40
0.4
 40
0.6
 40
0.6
 40
0.6
 40
0.6
 40
1.0
 40
1.0
 40
1.0
 40
1.0
 10
-174.0851
 20
66.7641
 30
0.0
 10
-172.8207
 20
66.7641
 30
0.0
 10
-171.7957
 20
62.571
 30
0.0
 10
-171.7957
 20
57.3988
 30
0.0
 10
-171.7957
 20
57.3988
 30
0.0
 10
-171.7957
 20
52.2266
 30
0.0
 10
-172.8207
 20
48.0338
 30
0.0
 10
-174.0851
 20
48.0338
 30
0.0
 10
-174.0851
 20
48.0338
 30
0.0
 10
-175.3494
 20
48.0338
 30
0.0
 10
-176.3743
 20
52.2266
 30
0.0
 10
-176.3743
 20
57.3988
 30
0.0
 10
-176.3743
 20
57.3988
 30
0.0
 10
-176.3743
 20
62.571
 30
0.0
 10
-175.3494
 20
66.7641
 30
0.0
 10
-174.0851
 20
66.7641
 30
0.0
  0
SPLINE
  5
60
330
1F
100
AcDbEntity
  8
layer 1
 62
   254
370
     9
100
AcDbSpline
210
0.0
220
0.0
230
1.0
 70
    11
 71
     3
 72
    24
 73
    20
 74
     0
 42
0.0000000001
 43
0.0000000001
 12
1.0
 22
0.0
 32
0.0
 13
1.0
 23
0.0
 33
0.0
 40
0.0
 40
0.0
 40
0.0
 40
0.0
 40
0.1666666666666667
 40
0.1666666666666667
 40
0.1666666666666667
 40
0.1666666666666667
 40
0.3333333333333333
 40
0.3333333333333333
 40
0.3333333333333333
 40
0.3333333333333333
 40
0.5
 40
0.5
 40
0.5
 40
0.5
 40
0.6666666666666666
 40
0.6666666666666666
 40
0.6666666666666666
 40
0.6666666666666666
 40
1.0
 40
1.0
 40
1.0
 40
1.0
 10
-171.6944
 20
80.1352
 30
0.0
 10
-171.6944
 20
80.1352
 30
0.0
 10
-176.2675
 20
80.1352
 30
0.0
 10
-176.2675
 20
80.1352
 30
0.0
 10
-176.2675
 20
80.1352
 30
0.0
 10
-176.2694
 20
79.9963
 30
0.0
 10
-176.2703
 20
79.8582
 30
0.0
 10
-176.2703
 20
79.7188
 30
0.0
 10
-176.2703
 20
79.7188
 30
0.0
 10
-176.2703
 20
74.92
 30
0.0
 10
-175.2454
 20
71.0299
 30
0.0
 10
-173.9811
 20
71.0299
 30
0.0
 10
-173.9811
 20
71.0299
 30
0.0
 10
-172.7166
 20
71.0299
 30
0.0
 10
-171.6917
 20
74.92
 30
0.0
 10
-171.6917
 20
79.7188
 30
0.0
 10
-171.6917
 20
79.7188
 30
0.0
 10
-171.6917
 20
79.8583
 30
0.0
 10
-171.6926
 20
79.9972
 30
0.0
 10
-171.6944
 20
80.1352
 30
0.0
  0
SPLINE
  5
61
330
1F
100
AcDbEntity
  8
layer 1
 62
   254
370
     9
100
AcDbSpline
210
0.0
220
0.0
230
1.0
 70
    11
 71
     3
 72
    24
 73
    20
 74
     0
 42
0.0000000001
 43
0.0000000001
 12
1.0
 22
0.0
 32
0.0
 13
1.0
 23
0.0
 33
0.0
 40
0.0
 40
0.0
 40
0.0
 40
0.0
 40
0.1666666666666667
 40
0.1666666666666667
 40
0.1666666666666667
 40
0.1666666666666667
 40
0.3333333333333333
 40
0.3333333333333333
 40
0.3333333333333333
 40
0.3333333333333333
 40
0.5
 40
0.5
 40
0.5
 40
0.5
 40
0.6666666666666666
 40
0.6666666666666666
 40
0.6666666666666666
 40
0.6666666666666666
 40
1.0
 40
1.0
 40
1.0
 40
1.0
 10
-166.3617
 20
80.1352
 30
0.0
 10
-166.3617
 20
80.1352
 30
0.0
 10
-170.5701
 20
80.1352
 30
0.0
 10
-170.5701
 20
80.1352
 30
0.0
 10
-170.5701
 20
80.1352
 30
0.0
 10
-170.623
 20
79.3759
 30
0.0
 10
-170.6513
 20
78.5722
 30
0.0
 10
-170.6513
 20
77.7418
 30
0.0
 10
-170.6513
 20
77.7418
 30
0.0
 10
-170.6513
 20
72.8569
 30
0.0
 10
-169.6729
 20
68.897
 30
0.0
 10
-168.4659
 20
68.897
 30
0.0
 10
-168.4659
 20
68.897
 30
0.0
 10
-167.2591
 20
68.897
 30
0.0
 10
-166.2808
 20
72.8569
 30
0.0
 10
-166.2808
 20
77.7418
 30
0.0
 10
-166.2808
 20
77.7418
 30
0.0
 10
-166.2808
 20
78.5712
 30
0.0
 10
-166.3089
 20
79.374
 30
0.0
 10
-166.3617
 20
80.1352
 30
0.0
  0
SPLINE
  5
62
330
1F
100
AcDbEntity
  8
layer 1
 62
   254
370
     9
100
AcDbSpline
210
0.0
220
0.0
230
1.0
 70
    11
 71
     3
 72
    24
 73
    20
 74
     0
 42
0.0000000001
 43
0.0000000001
 12
1.0
 22
0.0
 32
0.0
 13
1.0
 23
0.0
 33
0.0
 40
0.0
 40
0.0
 40
0.0
 40
0.0
 40
0.1666666666666667
 40
0.1666666666666667
 40
0.1666666666666667
 40
0.1666666666666667
 40
0.3333333333333333
 40
0.3333333333333333
 40
0.3333333333333333
 40
0.3333333333333333
 40
0.5
 40
0.5
 40
0.5
 40
0.5
 40
0.6666666666666666
 40
0.6666666666666666
 40
0.6666666666666666
 40
0.6666666666666666
 40
1.0
 40
1.0
 40
1.0
 40
1.0
 10
-161.6713
 20
80.1352
 30
0.0
 10
-161.6713
 20
80.1352
 30
0.0
 10
-164.9595
 20
80.1352
 30
0.0
 10
-164.9595
 20
80.1352
 30
0.0
 10
-164.9595
 20
80.1352
 30
0.0
 10
-165.1701
 20
78.7938
 30
0.0
 10
-165.2926
 20
77.1842
 30
0.0
 10
-165.2926
 20
75.4526
 30
0.0
 10
-165.2926
 20
75.4526
 30
0.0
 10
-165.2926
 20
70.7975
 30
0.0
 10
-164.4074
 20
67.0237
 30
0.0
 10
-163.3155
 20
67.0237
 30
0.0
 10
-163.3155
 20
67.0237
 30
0.0
 10
-162.2234
 20
67.0237
 30
0.0
 10
-161.3382
 20
70.7975
 30
0.0
 10
-161.3382
 20
75.4526
 30
0.0
 10
-161.3382
 20
75.4526
 30
0.0
 10
-161.3382
 20
77.1853
 30
0.0
 10
-161.461
 20
78.7961
 30
0.0
 10
-161.6713
 20
80.1352
 30
0.0
  0
SPLINE
  5
63
330
1F
100
AcDbEntity
  8
layer 1
 62
   254
370
     9
100
AcDbSpline
210
0.0
220
0.0
230
1.0
 70
    11
 71
     3
 72
    24
 73
    20
 74
     0
 42
0.0000000001
 43
0.0000000001
 12
1.0
 22
0.0
 32
0.0
 13
1.0
 23
0.0
 33
0.0
 40
0.0
 40
0.0
 40
0.0
 40
0.0
 40
0.1666666666666667
 40
0.1666666666666667
 40
0.1666666666666667
 40
0.1666666666666667
 40
0.3333333333333333
 40
0.3333333333333333
 40
0.3333333333333333
 40
0.3333333333333333
 40
0.5
 40
0.5
 40
0.5
 40
0.5
 40
0.6666666666666666
 40
0.6666666666666666
 40
0.6666666666666666
 40
0.6666666666666666
 40
1.0
 40
1.0
 40
1.0
 40
1.0
 10
-157.5184
 20
80.1352
 30
0.0
 10
-157.5184
 20
80.1352
 30
0.0
 10
-159.7474
 20
80.1352
 30
0.0
 10
-159.7474
 20
80.1352
 30
0.0
 10
-159.7474
 20
80.1352
 30
0.0
 10
-160.208
 20
78.6341
 30
0.0
 10
-160.5059
 20
76.2336
 30
0.0
 10
-160.5059
 20
73.5278
 30
0.0
 10
-160.5059
 20
73.5278
 30
0.0
 10
-160.5059
 20
68.9876
 30
0.0
 10
-159.6673
 20
65.3072
 30
0.0
 10
-158.6329
 20
65.3072
 30
0.0
 10
-158.6329
 20
65.3072
 30
0.0
 10
-157.5983
 20
65.3072
 30
0.0
 10
-156.7599
 20
68.9876
 30
0.0
 10
-156.7599
 20
73.5278
 30
0.0
 10
-156.7599
 20
73.5278
 30
0.0
 10
-156.7599
 20
76.235
 30
0.0
 10
-157.058
 20
78.6369
 30
0.0
 10
-157.5184
 20
80.1352
 30
0.0
  0
SPLINE
  5
64
330
1F
100
AcDbEntity
  8
layer 1
 62
   254
370
     9
100
AcDbSpline
210
0.0
220
0.0
230
1.0
 70
    11
 71
     3
 72
    24
 73
    20
 74
     0
 42
0.0000000001
 43
0.0000000001
 12
1.0
 22
0.0
 32
0.0
 13
1.0
 23
0.0
 33
0.0
 40
0.0
 40
0.0
 40
0.0
 40
0.0
 40
0.1666666666666667
 40
0.1666666666666667
 40
0.1666666666666667
 40
0.1666666666666667
 40
0.3333333333333333
 40
0.3333333333333333
 40
0.3333333333333333
 40
0.3333333333333333
 40
0.5
 40
0.5
 40
0.5
 40
0.5
 40
0.6666666666666666
 40
0.6666666666666666
 40
0.6666666666666666
 40
0.6666666666666666
 40
1.0
 40
1.0
 40
1.0
 40
1.0
 10
-145.6517
 20
80.1352
 30
0.0
 10
-145.6517
 20
80.1352
 30
0.0
 10
-147.1077
 20
80.1352
 30
0.0
 10
-147.1077
 20
80.1352
 30
0.0
 10
-147.1077
 20
80.1352
 30
0.0
 10
-147.1081
 20
80.1262
 30
0.0
 10
-147.1081
 20
80.1176
 30
0.0
 10
-147.1081
 20
80.109
 30
0.0
 10
-147.1081
 20
80.109
 30
0.0
 10
-147.1081
 20
79.3904
 30
0.0
 10
-146.7819
 20
78.8081
 30
0.0
 10
-146.3796
 20
78.8081
 30
0.0
 10
-146.3796
 20
78.8081
 30
0.0
 10
-145.9772
 20
78.8081
 30
0.0
 10
-145.6512
 20
79.3904
 30
0.0
 10
-145.6512
 20
80.109
 30
0.0
 10
-145.6512
 20
80.109
 30
0.0
 10
-145.6512
 20
80.1176
 30
0.0
 10
-145.6512
 20
80.1264
 30
0.0
 10
-145.6517
 20
80.1352
 30
0.0
  0
SPLINE
  5
65
330
1F
100
AcDbEntity
  8
layer 1
 62
   254
370
     9
100
AcDbSpline
210
0.0
220
0.0
230
1.0
 70
    11
 71
     3
 72
    20
 73
    16
 74
     0
 42
0.0000000001
 43
0.0000000001
 12
1.0
 22
0.0
 32
0.0
 13
1.0
 23
0.0
 33
0.0
 40
0.0
 40
0.0
 40
0.0
 40
0.0
 40
0.2
 40
0.2
 40
0.2
 40
0.2
 40
0.4
 40
0.4
 40
0.4
 40
0.4
 40
0.6
 40
0.6
 40
0.6
 40
0.6
 40
1.0
 40
1.0
 40
1.0
 40
1.0
 10
-154.3923
 20
79.5108
 30
0.0
 10
-153.4726
 20
79.5108
 30
0.0
 10
-152.7273
 20
75.9468
 30
0.0
 10
-152.7273
 20
71.5503
 30
0.0
 10
-152.7273
 20
71.5503
 30
0.0
 10
-152.7273
 20
67.154
 30
0.0
 10
-153.4726
 20
63.5898
 30
0.0
 10
-154.3923
 20
63.5898
 30
0.0
 10
-154.3923
 20
63.5898
 30
0.0
 10
-155.3116
 20
63.5898
 30
0.0
 10
-156.0572
 20
67.154
 30
0.0
 10
-156.0572
 20
71.5503
 30
0.0
 10
-156.0572
 20
71.5503
 30
0.0
 10
-156.0572
 20
75.9468
 30
0.0
 10
-155.3116
 20
79.5108
 30
0.0
 10
-154.3923
 20
79.5108
 30
0.0
  0
SPLINE
  5
66
330
1F
100
AcDbEntity
  8
layer 1
 62
   254
370
     9
100
AcDbSpline
210
0.0
220
0.0
230
1.0
 70
    11
 71
     3
 72
    20
 73
    16
 74
     0
 42
0.0000000001
 43
0.0000000001
 12
1.0
 22
0.0
 32
0.0
 13
1.0
 23
0.0
 33
0.0
 40
0.0
 40
0.0
 40
0.0
 40
0.0
 40
0.2
 40
0.2
 40
0.2
 40
0.2
 40
0.4
 40
0.4
 40
0.4
 40
0.4
 40
0.6
 40
0.6
 40
0.6
 40
0.6
 40
1.0
 40
1.0
 40
1.0
 40
1.0
 10
-150.4673
 20
77.4798
 30
0.0
 10
-151.3145
 20
77.459
 30
0.0
 10
-151.9185
 20
74.0423
 30
0.0
 10
-151.8163
 20
69.8483
 30
0.0
 10
-151.8163
 20
69.8483
 30
0.0
 10
-151.7139
 20
65.6542
 30
0.0
 10
-150.9441
 20
62.271
 30
0.0
 10
-150.0968
 20
62.2918
 30
0.0
 10
-150.0968
 20
62.2918
 30
0.0
 10
-149.2496
 20
62.3126
 30
0.0
 10
-148.6455
 20
65.7291
 30
0.0
 10
-148.7478
 20
69.9231
 30
0.0
 10
-148.7478
 20
69.9231
 30
0.0
 10
-148.8502
 20
74.1172
 30
0.0
 10
-149.6198
 20
77.5003
 30
0.0
 10
-150.4673
 20
77.4798
 30
0.0
  0
SPLINE
  5
67
330
1F
100
AcDbEntity
  8
layer 1
 62
   254
370
     9
100
AcDbSpline
210
0.0
220
0.0
230
1.0
 70
    11
 71
     3
 72
    20
 73
    16
 74
     0
 42
0.0000000001
 43
0.0000000001
 12
1.0
 22
0.0
 32
0.0
 13
1.0
 23
0.0
 33
0.0
 40
0.0
 40
0.0
 40
0.0
 40
0.0
 40
0.2
 40
0.2
 40
0.2
 40
0.2
 40
0.4
 40
0.4
 40
0.4
 40
0.4
 40
0.6
 40
0.6
 40
0.6
 40
0.6
 40
1.0
 40
1.0
 40
1.0
 40
1.0
 10
-146.6976
 20
75.5289
 30
0.0
 10
-145.9074
 20
75.5436
 30
0.0
 10
-145.2063
 20
72.2832
 30
0.0
 10
-145.1317
 20
68.2467
 30
0.0
 10
-145.1317
 20
68.2467
 30
0.0
 10
-145.0567
 20
64.2101
 30
0.0
 10
-145.6368
 20
60.926
 30
0.0
 10
-146.4267
 20
60.9113
 30
0.0
 10
-146.4267
 20
60.9113
 30
0.0
 10
-147.217
 20
60.8969
 30
0.0
 10
-147.918
 20
64.1573
 30
0.0
 10
-147.9927
 20
68.1938
 30
0.0
 10
-147.9927
 20
68.1938
 30
0.0
 10
-148.0673
 20
72.2304
 30
0.0
 10
-147.4875
 20
75.5143
 30
0.0
 10
-146.6976
 20
75.5289
 30
0.0
  0
SPLINE
  5
68
330
1F
100
AcDbEntity
  8
layer 1
 62
   254
370
     9
100
AcDbSpline
210
0.0
220
0.0
230
1.0
 70
    11
 71
     3
 72
    20
 73
    16
 74
     0
 42
0.0000000001
 43
0.0000000001
 12
1.0
 22
0.0
 32
0.0
 13
1.0
 23
0.0
 33
0.0
 40
0.0
 40
0.0
 40
0.0
 40
0.0
 40
0.2
 40
0.2
 40
0.2
 40
0.2
 40
0.4
 40
0.4
 40
0.4
 40
0.4
 40
0.6
 40
0.6
 40
0.6
 40
0.6
 40
1.0
 40
1.0
 40
1.0
 40
1.0
 10
-168.5183
 20
64.839
 30
0.0
 10
-169.7252
 20
64.839
 30
0.0
 10
-170.7035
 20
60.8557
 30
0.0
 10
-170.7035
 20
55.942
 30
0.0
 10
-170.7035
 20
55.942
 30
0.0
 10
-170.7035
 20
51.0284
 30
0.0
 10
-169.7252
 20
47.0451
 30
0.0
 10
-168.5183
 20
47.0451
 30
0.0
 10
-168.5183
 20
47.0451
 30
0.0
 10
-167.3113
 20
47.0451
 30
0.0
 10
-166.333
 20
51.0284
 30
0.0
 10
-166.333
 20
55.942
 30
0.0
 10
-166.333
 20
55.942
 30
0.0
 10
-166.333
 20
60.8557
 30
0.0
 10
-167.3113
 20
64.839
 30
0.0
 10
-168.5183
 20
64.839
 30
0.0
  0
SPLINE
  5
69
330
1F
100
AcDbEntity
  8
layer 1
 62
   254
370
     9
100
AcDbSpline
210
0.0
220
0.0
230
1.0
 70
    11
 71
     3
 72
    20
 73
    16
 74
     0
 42
0.0000000001
 43
0.0000000001
 12
1.0
 22
0.0
 32
0.0
 13
1.0
 23
0.0
 33
0.0
 40
0.0
 40
0.0
 40
0.0
 40
0.0
 40
0.2
 40
0.2
 40
0.2
 40
0.2
 40
0.4
 40
0.4
 40
0.4
 40
0.4
 40
0.6
 40
0.6
 40
0.6
 40
0.6
 40
1.0
 40
1.0
 40
1.0
 40
1.0
 10
-163.4451
 20
46.0299
 30
0.0
 10
-164.5084
 20
46.0299
 30
0.0
 10
-165.3704
 20
49.8617
 30
0.0
 10
-165.3704
 20
54.5886
 30
0.0
 10
-165.3704
 20
54.5886
 30
0.0
 10
-165.3704
 20
59.3156
 30
0.0
 10
-164.5084
 20
63.1475
 30
0.0
 10
-163.4451
 20
63.1475
 30
0.0
 10
-163.4451
 20
63.1475
 30
0.0
 10
-162.3816
 20
63.1475
 30
0.0
 10
-161.5197
 20
59.3156
 30
0.0
 10
-161.5197
 20
54.5886
 30
0.0
 10
-161.5197
 20
54.5886
 30
0.0
 10
-161.5197
 20
49.8617
 30
0.0
 10
-162.3816
 20
46.0299
 30
0.0
 10
-163.4451
 20
46.0299
 30
0.0
  0
SPLINE
  5
6A
330
1F
100
AcDbEntity
  8
layer 1
 62
   254
370
     9
100
AcDbSpline
210
0.0
220
0.0
230
1.0
 70
    11
 71
     3
 72
    20
 73
    16
 74
     0
 42
0.0000000001
 43
0.0000000001
 12
1.0
 22
0.0
 32
0.0
 13
1.0
 23
0.0
 33
0.0
 40
0.0
 40
0.0
 40
0.0
 40
0.0
 40
0.2
 40
0.2
 40
0.2
 40
0.2
 40
0.4
 40
0.4
 40
0.4
 40
0.4
 40
0.6
 40
0.6
 40
0.6
 40
0.6
 40
1.0
 40
1.0
 40
1.0
 40
1.0
 10
-158.6845
 20
61.4832
 30
0.0
 10
-157.6931
 20
61.4832
 30
0.0
 10
-156.8895
 20
57.8377
 30
0.0
 10
-156.8895
 20
53.3405
 30
0.0
 10
-156.8895
 20
53.3405
 30
0.0
 10
-156.8895
 20
48.8437
 30
0.0
 10
-157.6931
 20
45.1981
 30
0.0
 10
-158.6845
 20
45.1981
 30
0.0
 10
-158.6845
 20
45.1981
 30
0.0
 10
-159.6758
 20
45.1981
 30
0.0
 10
-160.4797
 20
48.8437
 30
0.0
 10
-160.4797
 20
53.3405
 30
0.0
 10
-160.4797
 20
53.3405
 30
0.0
 10
-160.4797
 20
57.8377
 30
0.0
 10
-159.6758
 20
61.4832
 30
0.0
 10
-158.6845
 20
61.4832
 30
0.0
  0
SPLINE
  5
6B
330
1F
100
AcDbEntity
  8
layer 1
 62
   254
370
     9
100
AcDbSpline
210
0.0
220
0.0
230
1.0
 70
    11
 71
     3
 72
    20
 73
    16
 74
     0
 42
0.0000000001
 43
0.0000000001
 12
1.0
 22
0.0
 32
0.0
 13
1.0
 23
0.0
 33
0.0
 40
0.0
 40
0.0
 40
0.0
 40
0.0
 40
0.2
 40
0.2
 40
0.2
 40
0.2
 40
0.4
 40
0.4
 40
0.4
 40
0.4
 40
0.6
 40
0.6
 40
0.6
 40
0.6
 40
1.0
 40
1.0
 40
1.0
 40
1.0
 10
-154.3402
 20
60.2602
 30
0.0
 10
-153.4206
 20
60.2602
 30
0.0
 10
-152.6753
 20
56.7078
 30
0.0
 10
-152.6753
 20
52.3258
 30
0.0
 10
-152.6753
 20
52.3258
 30
0.0
 10
-152.6753
 20
47.9436
 30
0.0
 10
-153.4206
 20
44.3914
 30
0.0
 10
-154.3402
 20
44.3914
 30
0.0
 10
-154.3402
 20
44.3914
 30
0.0
 10
-155.2596
 20
44.3914
 30
0.0
 10
-156.0051
 20
47.9436
 30
0.0
 10
-156.0051
 20
52.3258
 30
0.0
 10
-156.0051
 20
52.3258
 30
0.0
 10
-156.0051
 20
56.7078
 30
0.0
 10
-155.2596
 20
60.2602
 30
0.0
 10
-154.3402
 20
60.2602
 30
0.0
  0
SPLINE
  5
6C
330
1F
100
AcDbEntity
  8
layer 1
 62
   254
370
     9
100
AcDbSpline
210
0.0
220
0.0
230
1.0
 70
    11
 71
     3
 72
    20
 73
    16
 74
     0
 42
0.0000000001
 43
0.0000000001
 12
1.0
 22
0.0
 32
0.0
 13
1.0
 23
0.0
 33
0.0
 40
0.0
 40
0.0
 40
0.0
 40
0.0
 40
0.2
 40
0.2
 40
0.2
 40
0.2
 40
0.4
 40
0.4
 40
0.4
 40
0.4
 40
0.6
 40
0.6
 40
0.6
 40
0.6
 40
1.0
 40
1.0
 40
1.0
 40
1.0
 10
-150.3083
 20
43.4807
 30
0.0
 10
-149.4461
 20
43.4807
 30
0.0
 10
-148.7474
 20
46.8815
 30
0.0
 10
-148.7474
 20
51.0768
 30
0.0
 10
-148.7474
 20
51.0768
 30
0.0
 10
-148.7474
 20
55.2722
 30
0.0
 10
-149.4461
 20
58.6732
 30
0.0
 10
-150.3083
 20
58.6732
 30
0.0
 10
-150.3083
 20
58.6732
 30
0.0
 10
-151.1702
 20
58.6732
 30
0.0
 10
-151.8692
 20
55.2722
 30
0.0
 10
-151.8692
 20
51.0768
 30
0.0
 10
-151.8692
 20
51.0768
 30
0.0
 10
-151.8692
 20
46.8815
 30
0.0
 10
-151.1702
 20
43.4807
 30
0.0
 10
-150.3083
 20
43.4807
 30
0.0
  0
SPLINE
  5
6D
330
1F
100
AcDbEntity
  8
layer 1
 62
   254
370
     9
100
AcDbSpline
210
0.0
220
0.0
230
1.0
 70
    11
 71
     3
 72
    20
 73
    16
 74
     0
 42
0.0000000001
 43
0.0000000001
 12
1.0
 22
0.0
 32
0.0
 13
1.0
 23
0.0
 33
0.0
 40
0.0
 40
0.0
 40
0.0
 40
0.0
 40
0.2
 40
0.2
 40
0.2
 40
0.2
 40
0.4
 40
0.4
 40
0.4
 40
0.4
 40
0.6
 40
0.6
 40
0.6
 40
0.6
 40
1.0
 40
1.0
 40
1.0
 40
1.0
 10
-146.5621
 20
42.7791
 30
0.0
 10
-147.3237
 20
42.7791
 30
0.0
 10
-147.941
 20
46.0634
 30
0.0
 10
-147.941
 20
50.1149
 30
0.0
 10
-147.941
 20
50.1149
 30
0.0
 10
-147.941
 20
54.1663
 30
0.0
 10
-147.3237
 20
57.4506
 30
0.0
 10
-146.5621
 20
57.4506
 30
0.0
 10
-146.5621
 20
57.4506
 30
0.0
 10
-145.8006
 20
57.4506
 30
0.0
 10
-145.1833
 20
54.1663
 30
0.0
 10
-145.1833
 20
50.1149
 30
0.0
 10
-145.1833
 20
50.1149
 30
0.0
 10
-145.1833
 20
46.0634
 30
0.0
 10
-145.8006
 20
42.7791
 30
0.0
 10
-146.5621
 20
42.7791
 30
0.0
  0
SPLINE
  5
6E
330
1F
100
AcDbEntity
  8
layer 1
 62
   254
370
     9
100
AcDbSpline
210
0.0
220
0.0
230
1.0
 70
    11
 71
     3
 72
    20
 73
    16
 74
     0
 42
0.0000000001
 43
0.0000000001
 12
1.0
 22
0.0
 32
0.0
 13
1.0
 23
0.0
 33
0.0
 40
0.0
 40
0.0
 40
0.0
 40
0.0
 40
0.2
 40
0.2
 40
0.2
 40
0.2
 40
0.4
 40
0.4
 40
0.4
 40
0.4
 40
0.6
 40
0.6
 40
0.6
 40
0.6
 40
1.0
 40
1.0
 40
1.0
 40
1.0
 10
-168.4659
 20
42.7265
 30
0.0
 10
-169.7014
 20
42.7265
 30
0.0
 10
-170.7029
 20
38.7898
 30
0.0
 10
-170.7029
 20
33.9334
 30
0.0
 10
-170.7029
 20
33.9334
 30
0.0
 10
-170.7029
 20
29.0773
 30
0.0
 10
-169.7014
 20
25.1406
 30
0.0
 10
-168.4659
 20
25.1406
 30
0.0
 10
-168.4659
 20
25.1406
 30
0.0
 10
-167.2306
 20
25.1406
 30
0.0
 10
-166.2292
 20
29.0773
 30
0.0
 10
-166.2292
 20
33.9334
 30
0.0
 10
-166.2292
 20
33.9334
 30
0.0
 10
-166.2292
 20
38.7898
 30
0.0
 10
-167.2306
 20
42.7265
 30
0.0
 10
-168.4659
 20
42.7265
 30
0.0
  0
SPLINE
  5
6F
330
1F
100
AcDbEntity
  8
layer 1
 62
   254
370
     9
100
AcDbSpline
210
0.0
220
0.0
230
1.0
 70
    11
 71
     3
 72
    20
 73
    16
 74
     0
 42
0.0000000001
 43
0.0000000001
 12
1.0
 22
0.0
 32
0.0
 13
1.0
 23
0.0
 33
0.0
 40
0.0
 40
0.0
 40
0.0
 40
0.0
 40
0.2
 40
0.2
 40
0.2
 40
0.2
 40
0.4
 40
0.4
 40
0.4
 40
0.4
 40
0.6
 40
0.6
 40
0.6
 40
0.6
 40
1.0
 40
1.0
 40
1.0
 40
1.0
 10
-163.3155
 20
41.9463
 30
0.0
 10
-162.2234
 20
41.9463
 30
0.0
 10
-161.3382
 20
38.1959
 30
0.0
 10
-161.3382
 20
33.5697
 30
0.0
 10
-161.3382
 20
33.5697
 30
0.0
 10
-161.3382
 20
28.9433
 30
0.0
 10
-162.2234
 20
25.1931
 30
0.0
 10
-163.3155
 20
25.1931
 30
0.0
 10
-163.3155
 20
25.1931
 30
0.0
 10
-164.4074
 20
25.1931
 30
0.0
 10
-165.2926
 20
28.9433
 30
0.0
 10
-165.2926
 20
33.5697
 30
0.0
 10
-165.2926
 20
33.5697
 30
0.0
 10
-165.2926
 20
38.1959
 30
0.0
 10
-164.4074
 20
41.9463
 30
0.0
 10
-163.3155
 20
41.9463
 30
0.0
  0
SPLINE
  5
70
330
1F
100
AcDbEntity
  8
layer 1
 62
   254
370
     9
100
AcDbSpline
210
0.0
220
0.0
230
1.0
 70
    11
 71
     3
 72
    20
 73
    16
 74
     0
 42
0.0000000001
 43
0.0000000001
 12
1.0
 22
0.0
 32
0.0
 13
1.0
 23
0.0
 33
0.0
 40
0.0
 40
0.0
 40
0.0
 40
0.0
 40
0.2
 40
0.2
 40
0.2
 40
0.2
 40
0.4
 40
0.4
 40
0.4
 40
0.4
 40
0.6
 40
0.6
 40
0.6
 40
0.6
 40
1.0
 40
1.0
 40
1.0
 40
1.0
 10
-158.6845
 20
41.2174
 30
0.0
 10
-157.7076
 20
41.2174
 30
0.0
 10
-156.9155
 20
37.5718
 30
0.0
 10
-156.9155
 20
33.0749
 30
0.0
 10
-156.9155
 20
33.0749
 30
0.0
 10
-156.9155
 20
28.5778
 30
0.0
 10
-157.7076
 20
24.9323
 30
0.0
 10
-158.6845
 20
24.9323
 30
0.0
 10
-158.6845
 20
24.9323
 30
0.0
 10
-159.6616
 20
24.9323
 30
0.0
 10
-160.4535
 20
28.5778
 30
0.0
 10
-160.4535
 20
33.0749
 30
0.0
 10
-160.4535
 20
33.0749
 30
0.0
 10
-160.4535
 20
37.5718
 30
0.0
 10
-159.6616
 20
41.2174
 30
0.0
 10
-158.6845
 20
41.2174
 30
0.0
  0
SPLINE
  5
71
330
1F
100
AcDbEntity
  8
layer 1
 62
   254
370
     9
100
AcDbSpline
210
0.0
220
0.0
230
1.0
 70
    11
 71
     3
 72
    20
 73
    16
 74
     0
 42
0.0000000001
 43
0.0000000001
 12
1.0
 22
0.0
 32
0.0
 13
1.0
 23
0.0
 33
0.0
 40
0.0
 40
0.0
 40
0.0
 40
0.0
 40
0.2
 40
0.2
 40
0.2
 40
0.2
 40
0.4
 40
0.4
 40
0.4
 40
0.4
 40
0.6
 40
0.6
 40
0.6
 40
0.6
 40
1.0
 40
1.0
 40
1.0
 40
1.0
 10
-154.3664
 20
24.8283
 30
0.0
 10
-155.2861
 20
24.8283
 30
0.0
 10
-156.0314
 20
28.3457
 30
0.0
 10
-156.0314
 20
32.6849
 30
0.0
 10
-156.0314
 20
32.6849
 30
0.0
 10
-156.0314
 20
37.0239
 30
0.0
 10
-155.2861
 20
40.5415
 30
0.0
 10
-154.3664
 20
40.5415
 30
0.0
 10
-154.3664
 20
40.5415
 30
0.0
 10
-153.4471
 20
40.5415
 30
0.0
 10
-152.7015
 20
37.0239
 30
0.0
 10
-152.7015
 20
32.6849
 30
0.0
 10
-152.7015
 20
32.6849
 30
0.0
 10
-152.7015
 20
28.3457
 30
0.0
 10
-153.4471
 20
24.8283
 30
0.0
 10
-154.3664
 20
24.8283
 30
0.0
  0
SPLINE
  5
72
330
1F
100
AcDbEntity
  8
layer 1
 62
   254
370
     9
100
AcDbSpline
210
0.0
220
0.0
230
1.0
 70
    11
 71
     3
 72
    20
 73
    16
 74
     0
 42
0.0000000001
 43
0.0000000001
 12
1.0
 22
0.0
 32
0.0
 13
1.0
 23
0.0
 33
0.0
 40
0.0
 40
0.0
 40
0.0
 40
0.0
 40
0.2
 40
0.2
 40
0.2
 40
0.2
 40
0.4
 40
0.4
 40
0.4
 40
0.4
 40
0.6
 40
0.6
 40
0.6
 40
0.6
 40
1.0
 40
1.0
 40
1.0
 40
1.0
 10
-150.3339
 20
40.0207
 30
0.0
 10
-149.5005
 20
40.0207
 30
0.0
 10
-148.825
 20
36.6314
 30
0.0
 10
-148.825
 20
32.4506
 30
0.0
 10
-148.825
 20
32.4506
 30
0.0
 10
-148.825
 20
28.2697
 30
0.0
 10
-149.5005
 20
24.8803
 30
0.0
 10
-150.3339
 20
24.8803
 30
0.0
 10
-150.3339
 20
24.8803
 30
0.0
 10
-151.1671
 20
24.8803
 30
0.0
 10
-151.8427
 20
28.2697
 30
0.0
 10
-151.8427
 20
32.4506
 30
0.0
 10
-151.8427
 20
32.4506
 30
0.0
 10
-151.8427
 20
36.6314
 30
0.0
 10
-151.1671
 20
40.0207
 30
0.0
 10
-150.3339
 20
40.0207
 30
0.0
  0
SPLINE
  5
73
330
1F
100
AcDbEntity
  8
layer 1
 62
   254
370
     9
100
AcDbSpline
210
0.0
220
0.0
230
1.0
 70
    11
 71
     3
 72
    20
 73
    16
 74
     0
 42
0.0000000001
 43
0.0000000001
 12
1.0
 22
0.0
 32
0.0
 13
1.0
 23
0.0
 33
0.0
 40
0.0
 40
0.0
 40
0.0
 40
0.0
 40
0.2
 40
0.2
 40
0.2
 40
0.2
 40
0.4
 40
0.4
 40
0.4
 40
0.4
 40
0.6
 40
0.6
 40
0.6
 40
0.6
 40
1.0
 40
1.0
 40
1.0
 40
1.0
 10
-146.5621
 20
39.2403
 30
0.0
 10
-145.7719
 20
39.2403
 30
0.0
 10
-145.1314
 20
36.0141
 30
0.0
 10
-145.1314
 20
32.0344
 30
0.0
 10
-145.1314
 20
32.0344
 30
0.0
 10
-145.1314
 20
28.0545
 30
0.0
 10
-145.7719
 20
24.8283
 30
0.0
 10
-146.5621
 20
24.8283
 30
0.0
 10
-146.5621
 20
24.8283
 30
0.0
 10
-147.3523
 20
24.8283
 30
0.0
 10
-147.9929
 20
28.0545
 30
0.0
 10
-147.9929
 20
32.0344
 30
0.0
 10
-147.9929
 20
32.0344
 30
0.0
 10
-147.9929
 20
36.0141
 30
0.0
 10
-147.3523
 20
39.2403
 30
0.0
 10
-146.5621
 20
39.2403
 30
0.0
  0
SPLINE
  5
74
330
1F
100
AcDbEntity
  8
layer 1
 62
   254
370
     9
100
AcDbSpline
210
0.0
220
0.0
230
1.0
 70
    11
 71
     3
 72
    20
 73
    16
 74
     0
 42
0.0000000001
 43
0.0000000001
 12
1.0
 22
0.0
 32
0.0
 13
1.0
 23
0.0
 33
0.0
 40
0.0
 40
0.0
 40
0.0
 40
0.0
 40
0.2
 40
0.2
 40
0.2
 40
0.2
 40
0.4
 40
0.4
 40
0.4
 40
0.4
 40
0.6
 40
0.6
 40
0.6
 40
0.6
 40
1.0
 40
1.0
 40
1.0
 40
1.0
 10
-109.6735
 20
20.7706
 30
0.0
 10
-111.0527
 20
20.7706
 30
0.0
 10
-112.1709
 20
16.4143
 30
0.0
 10
-112.1709
 20
11.0409
 30
0.0
 10
-112.1709
 20
11.0409
 30
0.0
 10
-112.1709
 20
5.6673
 30
0.0
 10
-111.0527
 20
1.3111
 30
0.0
 10
-109.6735
 20
1.3111
 30
0.0
 10
-109.6735
 20
1.3111
 30
0.0
 10
-108.2942
 20
1.3111
 30
0.0
 10
-107.1761
 20
5.6673
 30
0.0
 10
-107.1761
 20
11.0409
 30
0.0
 10
-107.1761
 20
11.0409
 30
0.0
 10
-107.1761
 20
16.4143
 30
0.0
 10
-108.2942
 20
20.7706
 30
0.0
 10
-109.6735
 20
20.7706
 30
0.0
  0
SPLINE
  5
75
330
1F
100
AcDbEntity
  8
layer 1
 62
   254
370
     9
100
AcDbSpline
210
0.0
220
0.0
230
1.0
 70
    11
 71
     3
 72
    20
 73
    16
 74
     0
 42
0.0000000001
 43
0.0000000001
 12
1.0
 22
0.0
 32
0.0
 13
1.0
 23
0.0
 33
0.0
 40
0.0
 40
0.0
 40
0.0
 40
0.0
 40
0.2
 40
0.2
 40
0.2
 40
0.2
 40
0.4
 40
0.4
 40
0.4
 40
0.4
 40
0.6
 40
0.6
 40
0.6
 40
0.6
 40
1.0
 40
1.0
 40
1.0
 40
1.0
 10
-109.6735
 20
-3.3188
 30
0.0
 10
-111.0527
 20
-3.3188
 30
0.0
 10
-112.1709
 20
-7.6749
 30
0.0
 10
-112.1709
 20
-13.0485
 30
0.0
 10
-112.1709
 20
-13.0485
 30
0.0
 10
-112.1709
 20
-18.4221
 30
0.0
 10
-111.0527
 20
-22.7781
 30
0.0
 10
-109.6735
 20
-22.7781
 30
0.0
 10
-109.6735
 20
-22.7781
 30
0.0
 10
-108.2942
 20
-22.7781
 30
0.0
 10
-107.1761
 20
-18.4221
 30
0.0
 10
-107.1761
 20
-13.0485
 30
0.0
 10
-107.1761
 20
-13.0485
 30
0.0
 10
-107.1761
 20
-7.6749
 30
0.0
 10
-108.2942
 20
-3.3188
 30
0.0
 10
-109.6735
 20
-3.3188
 30
0.0
  0
SPLINE
  5
76
330
1F
100
AcDbEntity
  8
layer 1
 62
   254
370
     9
100
AcDbSpline
210
0.0
220
0.0
230
1.0
 70
    11
 71
     3
 72
    44
 73
    40
 74
     0
 42
0.0000000001
 43
0.0000000001
 12
1.0
 22
0.0
 32
0.0
 13
1.0
 23
0.0
 33
0.0
 40
0.0
 40
0.0
 40
0.0
 40
0.0
 40
0.0909090909090909
 40
0.0909090909090909
 40
0.0909090909090909
 40
0.0909090909090909
 40
0.1818181818181818
 40
0.1818181818181818
 40
0.1818181818181818
 40
0.1818181818181818
 40
0.2727272727272727
 40
0.2727272727272727
 40
0.2727272727272727
 40
0.2727272727272727
 40
0.3636363636363636
 40
0.3636363636363636
 40
0.3636363636363636
 40
0.3636363636363636
 40
0.4545454545454545
 40
0.4545454545454545
 40
0.4545454545454545
 40
0.4545454545454545
 40
0.5454545454545454
 40
0.5454545454545454
 40
0.5454545454545454
 40
0.5454545454545454
 40
0.6363636363636364
 40
0.6363636363636364
 40
0.6363636363636364
 40
0.6363636363636364
 40
0.7272727272727273
 40
0.7272727272727273
 40
0.7272727272727273
 40
0.7272727272727273
 40
0.8181818181818182
 40
0.8181818181818182
 40
0.8181818181818182
 40
0.8181818181818182
 40
1.0
 40
1.0
 40
1.0
 40
1.0
 10
-112.2731
 20
-34.1201
 30
0.0
 10
-112.2731
 20
-34.1201
 30
0.0
 10
-107.4902
 20
-34.1201
 30
0.0
 10
-107.4902
 20
-34.1201
 30
0.0
 10
-107.4902
 20
-34.1201
 30
0.0
 10
-107.5319
 20
-33.5785
 30
0.0
 10
-107.5864
 20
-33.0382
 30
0.0
 10
-107.6575
 20
-32.5003
 30
0.0
 10
-107.6575
 20
-32.5003
 30
0.0
 10
-107.7432
 20
-31.8502
 30
0.0
 10
-107.8507
 20
-31.2022
 30
0.0
 10
-107.9933
 20
-30.5624
 30
0.0
 10
-107.9933
 20
-30.5624
 30
0.0
 10
-108.1114
 20
-30.0325
 30
0.0
 10
-108.2516
 20
-29.5059
 30
0.0
 10
-108.4361
 20
-28.9952
 30
0.0
 10
-108.4361
 20
-28.9952
 30
0.0
 10
-108.5767
 20
-28.6062
 30
0.0
 10
-108.7414
 20
-28.2232
 30
0.0
 10
-108.966
 20
-27.875
 30
0.0
 10
-108.966
 20
-27.875
 30
0.0
 10
-109.0586
 20
-27.7314
 30
0.0
 10
-109.164
 20
-27.5952
 30
0.0
 10
-109.2875
 20
-27.4771
 30
0.0
 10
-109.2875
 20
-27.4771
 30
0.0
 10
-109.3781
 20
-27.3905
 30
0.0
 10
-109.4802
 20
-27.315
 30
0.0
 10
-109.5948
 20
-27.2634
 30
0.0
 10
-109.5948
 20
-27.2634
 30
0.0
 10
-109.6455
 20
-27.2406
 30
0.0
 10
-109.6985
 20
-27.2239
 30
0.0
 10
-109.753
 20
-27.2125
 30
0.0
 10
-109.753
 20
-27.2125
 30
0.0
 10
-109.7954
 20
-27.2038
 30
0.0
 10
-109.8384
 20
-27.2011
 30
0.0
 10
-109.8816
 20
-27.2001
 30
0.0
 10
-109.8816
 20
-27.2001
 30
0.0
 10
-111.0101
 20
-27.2001
 30
0.0
 10
-111.9638
 20
-30.1164
 30
0.0
 10
-112.2731
 20
-34.1201
 30
0.0
  0
SPLINE
  5
77
330
1F
100
AcDbEntity
  8
layer 1
 62
   254
370
     9
100
AcDbSpline
210
0.0
220
0.0
230
1.0
 70
    11
 71
     3
 72
    20
 73
    16
 74
     0
 42
0.0000000001
 43
0.0000000001
 12
1.0
 22
0.0
 32
0.0
 13
1.0
 23
0.0
 33
0.0
 40
0.0
 40
0.0
 40
0.0
 40
0.0
 40
0.2
 40
0.2
 40
0.2
 40
0.2
 40
0.4
 40
0.4
 40
0.4
 40
0.4
 40
0.6
 40
0.6
 40
0.6
 40
0.6
 40
1.0
 40
1.0
 40
1.0
 40
1.0
 10
-115.8128
 20
20.8746
 30
0.0
 10
-117.1061
 20
20.8746
 30
0.0
 10
-118.1544
 20
16.7049
 30
0.0
 10
-118.1544
 20
11.5612
 30
0.0
 10
-118.1544
 20
11.5612
 30
0.0
 10
-118.1544
 20
6.4174
 30
0.0
 10
-117.1061
 20
2.2477
 30
0.0
 10
-115.8128
 20
2.2477
 30
0.0
 10
-115.8128
 20
2.2477
 30
0.0
 10
-114.5196
 20
2.2477
 30
0.0
 10
-113.4712
 20
6.4174
 30
0.0
 10
-113.4712
 20
11.5612
 30
0.0
 10
-113.4712
 20
11.5612
 30
0.0
 10
-113.4712
 20
16.7049
 30
0.0
 10
-114.5196
 20
20.8746
 30
0.0
 10
-115.8128
 20
20.8746
 30
0.0
  0
SPLINE
  5
78
330
1F
100
AcDbEntity
  8
layer 1
 62
   254
370
     9
100
AcDbSpline
210
0.0
220
0.0
230
1.0
 70
    11
 71
     3
 72
    20
 73
    16
 74
     0
 42
0.0000000001
 43
0.0000000001
 12
1.0
 22
0.0
 32
0.0
 13
1.0
 23
0.0
 33
0.0
 40
0.0
 40
0.0
 40
0.0
 40
0.0
 40
0.2
 40
0.2
 40
0.2
 40
0.2
 40
0.4
 40
0.4
 40
0.4
 40
0.4
 40
0.6
 40
0.6
 40
0.6
 40
0.6
 40
1.0
 40
1.0
 40
1.0
 40
1.0
 10
-115.8128
 20
-20.749
 30
0.0
 10
-117.0771
 20
-20.749
 30
0.0
 10
-118.1021
 20
-16.556
 30
0.0
 10
-118.1021
 20
-11.3838
 30
0.0
 10
-118.1021
 20
-11.3838
 30
0.0
 10
-118.1021
 20
-6.2115
 30
0.0
 10
-117.0771
 20
-2.0187
 30
0.0
 10
-115.8128
 20
-2.0187
 30
0.0
 10
-115.8128
 20
-2.0187
 30
0.0
 10
-114.5485
 20
-2.0187
 30
0.0
 10
-113.5236
 20
-6.2115
 30
0.0
 10
-113.5236
 20
-11.3838
 30
0.0
 10
-113.5236
 20
-11.3838
 30
0.0
 10
-113.5236
 20
-16.556
 30
0.0
 10
-114.5485
 20
-20.749
 30
0.0
 10
-115.8128
 20
-20.749
 30
0.0
  0
SPLINE
  5
79
330
1F
100
AcDbEntity
  8
layer 1
 62
   254
370
     9
100
AcDbSpline
210
0.0
220
0.0
230
1.0
 70
    11
 71
     3
 72
    24
 73
    20
 74
     0
 42
0.0000000001
 43
0.0000000001
 12
1.0
 22
0.0
 32
0.0
 13
1.0
 23
0.0
 33
0.0
 40
0.0
 40
0.0
 40
0.0
 40
0.0
 40
0.1666666666666667
 40
0.1666666666666667
 40
0.1666666666666667
 40
0.1666666666666667
 40
0.3333333333333333
 40
0.3333333333333333
 40
0.3333333333333333
 40
0.3333333333333333
 40
0.5
 40
0.5
 40
0.5
 40
0.5
 40
0.6666666666666666
 40
0.6666666666666666
 40
0.6666666666666666
 40
0.6666666666666666
 40
1.0
 40
1.0
 40
1.0
 40
1.0
 10
-118.2035
 20
-34.1201
 30
0.0
 10
-118.2035
 20
-34.1201
 30
0.0
 10
-113.6303
 20
-34.1201
 30
0.0
 10
-113.6303
 20
-34.1201
 30
0.0
 10
-113.6303
 20
-34.1201
 30
0.0
 10
-113.6285
 20
-33.9815
 30
0.0
 10
-113.6277
 20
-33.8431
 30
0.0
 10
-113.6277
 20
-33.704
 30
0.0
 10
-113.6277
 20
-33.704
 30
0.0
 10
-113.6277
 20
-28.9051
 30
0.0
 10
-114.6525
 20
-25.0148
 30
0.0
 10
-115.9169
 20
-25.0148
 30
0.0
 10
-115.9169
 20
-25.0148
 30
0.0
 10
-117.1812
 20
-25.0148
 30
0.0
 10
-118.2062
 20
-28.9051
 30
0.0
 10
-118.2062
 20
-33.704
 30
0.0
 10
-118.2062
 20
-33.704
 30
0.0
 10
-118.2062
 20
-33.8435
 30
0.0
 10
-118.2054
 20
-33.9822
 30
0.0
 10
-118.2035
 20
-34.1201
 30
0.0
  0
SPLINE
  5
7A
330
1F
100
AcDbEntity
  8
layer 1
 62
   254
370
     9
100
AcDbSpline
210
0.0
220
0.0
230
1.0
 70
    11
 71
     3
 72
    24
 73
    20
 74
     0
 42
0.0000000001
 43
0.0000000001
 12
1.0
 22
0.0
 32
0.0
 13
1.0
 23
0.0
 33
0.0
 40
0.0
 40
0.0
 40
0.0
 40
0.0
 40
0.1666666666666667
 40
0.1666666666666667
 40
0.1666666666666667
 40
0.1666666666666667
 40
0.3333333333333333
 40
0.3333333333333333
 40
0.3333333333333333
 40
0.3333333333333333
 40
0.5
 40
0.5
 40
0.5
 40
0.5
 40
0.6666666666666666
 40
0.6666666666666666
 40
0.6666666666666666
 40
0.6666666666666666
 40
1.0
 40
1.0
 40
1.0
 40
1.0
 10
-123.5361
 20
-34.1201
 30
0.0
 10
-123.5361
 20
-34.1201
 30
0.0
 10
-119.3278
 20
-34.1201
 30
0.0
 10
-119.3278
 20
-34.1201
 30
0.0
 10
-119.3278
 20
-34.1201
 30
0.0
 10
-119.275
 20
-33.361
 30
0.0
 10
-119.2467
 20
-32.5573
 30
0.0
 10
-119.2467
 20
-31.7269
 30
0.0
 10
-119.2467
 20
-31.7269
 30
0.0
 10
-119.2467
 20
-26.842
 30
0.0
 10
-120.225
 20
-22.8819
 30
0.0
 10
-121.432
 20
-22.8819
 30
0.0
 10
-121.432
 20
-22.8819
 30
0.0
 10
-122.6388
 20
-22.8819
 30
0.0
 10
-123.6171
 20
-26.842
 30
0.0
 10
-123.6171
 20
-31.7269
 30
0.0
 10
-123.6171
 20
-31.7269
 30
0.0
 10
-123.6171
 20
-32.5562
 30
0.0
 10
-123.589
 20
-33.3591
 30
0.0
 10
-123.5361
 20
-34.1201
 30
0.0
  0
SPLINE
  5
7B
330
1F
100
AcDbEntity
  8
layer 1
 62
   254
370
     9
100
AcDbSpline
210
0.0
220
0.0
230
1.0
 70
    11
 71
     3
 72
    24
 73
    20
 74
     0
 42
0.0000000001
 43
0.0000000001
 12
1.0
 22
0.0
 32
0.0
 13
1.0
 23
0.0
 33
0.0
 40
0.0
 40
0.0
 40
0.0
 40
0.0
 40
0.1666666666666667
 40
0.1666666666666667
 40
0.1666666666666667
 40
0.1666666666666667
 40
0.3333333333333333
 40
0.3333333333333333
 40
0.3333333333333333
 40
0.3333333333333333
 40
0.5
 40
0.5
 40
0.5
 40
0.5
 40
0.6666666666666666
 40
0.6666666666666666
 40
0.6666666666666666
 40
0.6666666666666666
 40
1.0
 40
1.0
 40
1.0
 40
1.0
 10
-128.2265
 20
-34.1201
 30
0.0
 10
-128.2265
 20
-34.1201
 30
0.0
 10
-124.9384
 20
-34.1201
 30
0.0
 10
-124.9384
 20
-34.1201
 30
0.0
 10
-124.9384
 20
-34.1201
 30
0.0
 10
-124.7278
 20
-32.779
 30
0.0
 10
-124.6053
 20
-31.1692
 30
0.0
 10
-124.6053
 20
-29.4376
 30
0.0
 10
-124.6053
 20
-29.4376
 30
0.0
 10
-124.6053
 20
-24.7826
 30
0.0
 10
-125.4905
 20
-21.0089
 30
0.0
 10
-126.5824
 20
-21.0089
 30
0.0
 10
-126.5824
 20
-21.0089
 30
0.0
 10
-127.6744
 20
-21.0089
 30
0.0
 10
-128.5596
 20
-24.7826
 30
0.0
 10
-128.5596
 20
-29.4376
 30
0.0
 10
-128.5596
 20
-29.4376
 30
0.0
 10
-128.5596
 20
-31.1704
 30
0.0
 10
-128.437
 20
-32.7811
 30
0.0
 10
-128.2265
 20
-34.1201
 30
0.0
  0
SPLINE
  5
7C
330
1F
100
AcDbEntity
  8
layer 1
 62
   254
370
     9
100
AcDbSpline
210
0.0
220
0.0
230
1.0
 70
    11
 71
     3
 72
    24
 73
    20
 74
     0
 42
0.0000000001
 43
0.0000000001
 12
1.0
 22
0.0
 32
0.0
 13
1.0
 23
0.0
 33
0.0
 40
0.0
 40
0.0
 40
0.0
 40
0.0
 40
0.1666666666666667
 40
0.1666666666666667
 40
0.1666666666666667
 40
0.1666666666666667
 40
0.3333333333333333
 40
0.3333333333333333
 40
0.3333333333333333
 40
0.3333333333333333
 40
0.5
 40
0.5
 40
0.5
 40
0.5
 40
0.6666666666666666
 40
0.6666666666666666
 40
0.6666666666666666
 40
0.6666666666666666
 40
1.0
 40
1.0
 40
1.0
 40
1.0
 10
-132.3795
 20
-34.1201
 30
0.0
 10
-132.3795
 20
-34.1201
 30
0.0
 10
-130.1508
 20
-34.1201
 30
0.0
 10
-130.1508
 20
-34.1201
 30
0.0
 10
-130.1508
 20
-34.1201
 30
0.0
 10
-129.6899
 20
-32.6193
 30
0.0
 10
-129.392
 20
-30.2187
 30
0.0
 10
-129.392
 20
-27.5128
 30
0.0
 10
-129.392
 20
-27.5128
 30
0.0
 10
-129.392
 20
-22.9728
 30
0.0
 10
-130.2307
 20
-19.2922
 30
0.0
 10
-131.265
 20
-19.2922
 30
0.0
 10
-131.265
 20
-19.2922
 30
0.0
 10
-132.2996
 20
-19.2922
 30
0.0
 10
-133.138
 20
-22.9728
 30
0.0
 10
-133.138
 20
-27.5128
 30
0.0
 10
-133.138
 20
-27.5128
 30
0.0
 10
-133.138
 20
-30.2202
 30
0.0
 10
-132.84
 20
-32.6219
 30
0.0
 10
-132.3795
 20
-34.1201
 30
0.0
  0
SPLINE
  5
7D
330
1F
100
AcDbEntity
  8
layer 1
 62
   254
370
     9
100
AcDbSpline
210
0.0
220
0.0
230
1.0
 70
    11
 71
     3
 72
    24
 73
    20
 74
     0
 42
0.0000000001
 43
0.0000000001
 12
1.0
 22
0.0
 32
0.0
 13
1.0
 23
0.0
 33
0.0
 40
0.0
 40
0.0
 40
0.0
 40
0.0
 40
0.1666666666666667
 40
0.1666666666666667
 40
0.1666666666666667
 40
0.1666666666666667
 40
0.3333333333333333
 40
0.3333333333333333
 40
0.3333333333333333
 40
0.3333333333333333
 40
0.5
 40
0.5
 40
0.5
 40
0.5
 40
0.6666666666666666
 40
0.6666666666666666
 40
0.6666666666666666
 40
0.6666666666666666
 40
1.0
 40
1.0
 40
1.0
 40
1.0
 10
-144.2462
 20
-34.1201
 30
0.0
 10
-144.2462
 20
-34.1201
 30
0.0
 10
-142.7903
 20
-34.1201
 30
0.0
 10
-142.7903
 20
-34.1201
 30
0.0
 10
-142.7903
 20
-34.1201
 30
0.0
 10
-142.79
 20
-34.1112
 30
0.0
 10
-142.7898
 20
-34.1026
 30
0.0
 10
-142.7898
 20
-34.094
 30
0.0
 10
-142.7898
 20
-34.094
 30
0.0
 10
-142.7898
 20
-33.3754
 30
0.0
 10
-143.116
 20
-32.793
 30
0.0
 10
-143.5184
 20
-32.793
 30
0.0
 10
-143.5184
 20
-32.793
 30
0.0
 10
-143.9207
 20
-32.793
 30
0.0
 10
-144.2466
 20
-33.3754
 30
0.0
 10
-144.2466
 20
-34.094
 30
0.0
 10
-144.2466
 20
-34.094
 30
0.0
 10
-144.2466
 20
-34.1027
 30
0.0
 10
-144.2466
 20
-34.1114
 30
0.0
 10
-144.2462
 20
-34.1201
 30
0.0
  0
SPLINE
  5
7E
330
1F
100
AcDbEntity
  8
layer 1
 62
   254
370
     9
100
AcDbSpline
210
0.0
220
0.0
230
1.0
 70
    11
 71
     3
 72
    20
 73
    16
 74
     0
 42
0.0000000001
 43
0.0000000001
 12
1.0
 22
0.0
 32
0.0
 13
1.0
 23
0.0
 33
0.0
 40
0.0
 40
0.0
 40
0.0
 40
0.0
 40
0.2
 40
0.2
 40
0.2
 40
0.2
 40
0.4
 40
0.4
 40
0.4
 40
0.4
 40
0.6
 40
0.6
 40
0.6
 40
0.6
 40
1.0
 40
1.0
 40
1.0
 40
1.0
 10
-135.5057
 20
-33.4958
 30
0.0
 10
-136.4253
 20
-33.4958
 30
0.0
 10
-137.1706
 20
-29.9318
 30
0.0
 10
-137.1706
 20
-25.5354
 30
0.0
 10
-137.1706
 20
-25.5354
 30
0.0
 10
-137.1706
 20
-21.139
 30
0.0
 10
-136.4253
 20
-17.575
 30
0.0
 10
-135.5057
 20
-17.575
 30
0.0
 10
-135.5057
 20
-17.575
 30
0.0
 10
-134.5862
 20
-17.575
 30
0.0
 10
-133.8408
 20
-21.139
 30
0.0
 10
-133.8408
 20
-25.5354
 30
0.0
 10
-133.8408
 20
-25.5354
 30
0.0
 10
-133.8408
 20
-29.9318
 30
0.0
 10
-134.5862
 20
-33.4958
 30
0.0
 10
-135.5057
 20
-33.4958
 30
0.0
  0
SPLINE
  5
7F
330
1F
100
AcDbEntity
  8
layer 1
 62
   254
370
     9
100
AcDbSpline
210
0.0
220
0.0
230
1.0
 70
    11
 71
     3
 72
    20
 73
    16
 74
     0
 42
0.0000000001
 43
0.0000000001
 12
1.0
 22
0.0
 32
0.0
 13
1.0
 23
0.0
 33
0.0
 40
0.0
 40
0.0
 40
0.0
 40
0.0
 40
0.2
 40
0.2
 40
0.2
 40
0.2
 40
0.4
 40
0.4
 40
0.4
 40
0.4
 40
0.6
 40
0.6
 40
0.6
 40
0.6
 40
1.0
 40
1.0
 40
1.0
 40
1.0
 10
-139.4306
 20
-31.4647
 30
0.0
 10
-138.5834
 20
-31.4441
 30
0.0
 10
-137.9795
 20
-28.0274
 30
0.0
 10
-138.0816
 20
-23.8334
 30
0.0
 10
-138.0816
 20
-23.8334
 30
0.0
 10
-138.1839
 20
-19.6394
 30
0.0
 10
-138.9538
 20
-16.2562
 30
0.0
 10
-139.8011
 20
-16.2768
 30
0.0
 10
-139.8011
 20
-16.2768
 30
0.0
 10
-140.6483
 20
-16.2976
 30
0.0
 10
-141.2525
 20
-19.7143
 30
0.0
 10
-141.1501
 20
-23.9082
 30
0.0
 10
-141.1501
 20
-23.9082
 30
0.0
 10
-141.0477
 20
-28.1022
 30
0.0
 10
-140.2781
 20
-31.4853
 30
0.0
 10
-139.4306
 20
-31.4647
 30
0.0
  0
SPLINE
  5
80
330
1F
100
AcDbEntity
  8
layer 1
 62
   254
370
     9
100
AcDbSpline
210
0.0
220
0.0
230
1.0
 70
    11
 71
     3
 72
    20
 73
    16
 74
     0
 42
0.0000000001
 43
0.0000000001
 12
1.0
 22
0.0
 32
0.0
 13
1.0
 23
0.0
 33
0.0
 40
0.0
 40
0.0
 40
0.0
 40
0.0
 40
0.2
 40
0.2
 40
0.2
 40
0.2
 40
0.4
 40
0.4
 40
0.4
 40
0.4
 40
0.6
 40
0.6
 40
0.6
 40
0.6
 40
1.0
 40
1.0
 40
1.0
 40
1.0
 10
-143.2004
 20
-29.514
 30
0.0
 10
-143.9905
 20
-29.5287
 30
0.0
 10
-144.6916
 20
-26.2683
 30
0.0
 10
-144.7662
 20
-22.2319
 30
0.0
 10
-144.7662
 20
-22.2319
 30
0.0
 10
-144.8411
 20
-18.1953
 30
0.0
 10
-144.2613
 20
-14.911
 30
0.0
 10
-143.4711
 20
-14.8965
 30
0.0
 10
-143.4711
 20
-14.8965
 30
0.0
 10
-142.6811
 20
-14.8818
 30
0.0
 10
-141.9799
 20
-18.1422
 30
0.0
 10
-141.9052
 20
-22.1788
 30
0.0
 10
-141.9052
 20
-22.1788
 30
0.0
 10
-141.8305
 20
-26.2153
 30
0.0
 10
-142.4104
 20
-29.4994
 30
0.0
 10
-143.2004
 20
-29.514
 30
0.0
  0
SPLINE
  5
81
330
1F
100
AcDbEntity
  8
layer 1
 62
   254
370
     9
100
AcDbSpline
210
0.0
220
0.0
230
1.0
 70
    11
 71
     3
 72
    20
 73
    16
 74
     0
 42
0.0000000001
 43
0.0000000001
 12
1.0
 22
0.0
 32
0.0
 13
1.0
 23
0.0
 33
0.0
 40
0.0
 40
0.0
 40
0.0
 40
0.0
 40
0.2
 40
0.2
 40
0.2
 40
0.2
 40
0.4
 40
0.4
 40
0.4
 40
0.4
 40
0.6
 40
0.6
 40
0.6
 40
0.6
 40
1.0
 40
1.0
 40
1.0
 40
1.0
 10
-121.3795
 20
-18.824
 30
0.0
 10
-120.1728
 20
-18.824
 30
0.0
 10
-119.1944
 20
-14.8408
 30
0.0
 10
-119.1944
 20
-9.9272
 30
0.0
 10
-119.1944
 20
-9.9272
 30
0.0
 10
-119.1944
 20
-5.0134
 30
0.0
 10
-120.1728
 20
-1.0301
 30
0.0
 10
-121.3795
 20
-1.0301
 30
0.0
 10
-121.3795
 20
-1.0301
 30
0.0
 10
-122.5865
 20
-1.0301
 30
0.0
 10
-123.5649
 20
-5.0134
 30
0.0
 10
-123.5649
 20
-9.9272
 30
0.0
 10
-123.5649
 20
-9.9272
 30
0.0
 10
-123.5649
 20
-14.8408
 30
0.0
 10
-122.5865
 20
-18.824
 30
0.0
 10
-121.3795
 20
-18.824
 30
0.0
  0
SPLINE
  5
82
330
1F
100
AcDbEntity
  8
layer 1
 62
   254
370
     9
100
AcDbSpline
210
0.0
220
0.0
230
1.0
 70
    11
 71
     3
 72
    20
 73
    16
 74
     0
 42
0.0000000001
 43
0.0000000001
 12
1.0
 22
0.0
 32
0.0
 13
1.0
 23
0.0
 33
0.0
 40
0.0
 40
0.0
 40
0.0
 40
0.0
 40
0.2
 40
0.2
 40
0.2
 40
0.2
 40
0.4
 40
0.4
 40
0.4
 40
0.4
 40
0.6
 40
0.6
 40
0.6
 40
0.6
 40
1.0
 40
1.0
 40
1.0
 40
1.0
 10
-126.4527
 20
-0.0148
 30
0.0
 10
-125.3894
 20
-0.0148
 30
0.0
 10
-124.5275
 20
-3.8469
 30
0.0
 10
-124.5275
 20
-8.5738
 30
0.0
 10
-124.5275
 20
-8.5738
 30
0.0
 10
-124.5275
 20
-13.3006
 30
0.0
 10
-125.3894
 20
-17.1326
 30
0.0
 10
-126.4527
 20
-17.1326
 30
0.0
 10
-126.4527
 20
-17.1326
 30
0.0
 10
-127.5163
 20
-17.1326
 30
0.0
 10
-128.3782
 20
-13.3006
 30
0.0
 10
-128.3782
 20
-8.5738
 30
0.0
 10
-128.3782
 20
-8.5738
 30
0.0
 10
-128.3782
 20
-3.8469
 30
0.0
 10
-127.5163
 20
-0.0148
 30
0.0
 10
-126.4527
 20
-0.0148
 30
0.0
  0
SPLINE
  5
83
330
1F
100
AcDbEntity
  8
layer 1
 62
   254
370
     9
100
AcDbSpline
210
0.0
220
0.0
230
1.0
 70
    11
 71
     3
 72
    20
 73
    16
 74
     0
 42
0.0000000001
 43
0.0000000001
 12
1.0
 22
0.0
 32
0.0
 13
1.0
 23
0.0
 33
0.0
 40
0.0
 40
0.0
 40
0.0
 40
0.0
 40
0.2
 40
0.2
 40
0.2
 40
0.2
 40
0.4
 40
0.4
 40
0.4
 40
0.4
 40
0.6
 40
0.6
 40
0.6
 40
0.6
 40
1.0
 40
1.0
 40
1.0
 40
1.0
 10
-131.2134
 20
-15.4681
 30
0.0
 10
-132.2048
 20
-15.4681
 30
0.0
 10
-133.0084
 20
-11.8226
 30
0.0
 10
-133.0084
 20
-7.3256
 30
0.0
 10
-133.0084
 20
-7.3256
 30
0.0
 10
-133.0084
 20
-2.8286
 30
0.0
 10
-132.2048
 20
0.8169
 30
0.0
 10
-131.2134
 20
0.8169
 30
0.0
 10
-131.2134
 20
0.8169
 30
0.0
 10
-130.2221
 20
0.8169
 30
0.0
 10
-129.4184
 20
-2.8286
 30
0.0
 10
-129.4184
 20
-7.3256
 30
0.0
 10
-129.4184
 20
-7.3256
 30
0.0
 10
-129.4184
 20
-11.8226
 30
0.0
 10
-130.2221
 20
-15.4681
 30
0.0
 10
-131.2134
 20
-15.4681
 30
0.0
  0
SPLINE
  5
84
330
1F
100
AcDbEntity
  8
layer 1
 62
   254
370
     9
100
AcDbSpline
210
0.0
220
0.0
230
1.0
 70
    11
 71
     3
 72
    20
 73
    16
 74
     0
 42
0.0000000001
 43
0.0000000001
 12
1.0
 22
0.0
 32
0.0
 13
1.0
 23
0.0
 33
0.0
 40
0.0
 40
0.0
 40
0.0
 40
0.0
 40
0.2
 40
0.2
 40
0.2
 40
0.2
 40
0.4
 40
0.4
 40
0.4
 40
0.4
 40
0.6
 40
0.6
 40
0.6
 40
0.6
 40
1.0
 40
1.0
 40
1.0
 40
1.0
 10
-135.5577
 20
-14.2452
 30
0.0
 10
-136.4773
 20
-14.2452
 30
0.0
 10
-137.2226
 20
-10.6928
 30
0.0
 10
-137.2226
 20
-6.3108
 30
0.0
 10
-137.2226
 20
-6.3108
 30
0.0
 10
-137.2226
 20
-1.9287
 30
0.0
 10
-136.4773
 20
1.6237
 30
0.0
 10
-135.5577
 20
1.6237
 30
0.0
 10
-135.5577
 20
1.6237
 30
0.0
 10
-134.6383
 20
1.6237
 30
0.0
 10
-133.8928
 20
-1.9287
 30
0.0
 10
-133.8928
 20
-6.3108
 30
0.0
 10
-133.8928
 20
-6.3108
 30
0.0
 10
-133.8928
 20
-10.6928
 30
0.0
 10
-134.6383
 20
-14.2452
 30
0.0
 10
-135.5577
 20
-14.2452
 30
0.0
  0
SPLINE
  5
85
330
1F
100
AcDbEntity
  8
layer 1
 62
   254
370
     9
100
AcDbSpline
210
0.0
220
0.0
230
1.0
 70
    11
 71
     3
 72
    20
 73
    16
 74
     0
 42
0.0000000001
 43
0.0000000001
 12
1.0
 22
0.0
 32
0.0
 13
1.0
 23
0.0
 33
0.0
 40
0.0
 40
0.0
 40
0.0
 40
0.0
 40
0.2
 40
0.2
 40
0.2
 40
0.2
 40
0.4
 40
0.4
 40
0.4
 40
0.4
 40
0.6
 40
0.6
 40
0.6
 40
0.6
 40
1.0
 40
1.0
 40
1.0
 40
1.0
 10
-139.5899
 20
2.5343
 30
0.0
 10
-140.4517
 20
2.5343
 30
0.0
 10
-141.1505
 20
-0.8667
 30
0.0
 10
-141.1505
 20
-5.062
 30
0.0
 10
-141.1505
 20
-5.062
 30
0.0
 10
-141.1505
 20
-9.2571
 30
0.0
 10
-140.4517
 20
-12.6581
 30
0.0
 10
-139.5899
 20
-12.6581
 30
0.0
 10
-139.5899
 20
-12.6581
 30
0.0
 10
-138.7277
 20
-12.6581
 30
0.0
 10
-138.0289
 20
-9.2571
 30
0.0
 10
-138.0289
 20
-5.062
 30
0.0
 10
-138.0289
 20
-5.062
 30
0.0
 10
-138.0289
 20
-0.8667
 30
0.0
 10
-138.7277
 20
2.5343
 30
0.0
 10
-139.5899
 20
2.5343
 30
0.0
  0
SPLINE
  5
86
330
1F
100
AcDbEntity
  8
layer 1
 62
   254
370
     9
100
AcDbSpline
210
0.0
220
0.0
230
1.0
 70
    11
 71
     3
 72
    20
 73
    16
 74
     0
 42
0.0000000001
 43
0.0000000001
 12
1.0
 22
0.0
 32
0.0
 13
1.0
 23
0.0
 33
0.0
 40
0.0
 40
0.0
 40
0.0
 40
0.0
 40
0.2
 40
0.2
 40
0.2
 40
0.2
 40
0.4
 40
0.4
 40
0.4
 40
0.4
 40
0.6
 40
0.6
 40
0.6
 40
0.6
 40
1.0
 40
1.0
 40
1.0
 40
1.0
 10
-143.3359
 20
3.236
 30
0.0
 10
-142.5742
 20
3.236
 30
0.0
 10
-141.9568
 20
-0.0484
 30
0.0
 10
-141.9568
 20
-4.0998
 30
0.0
 10
-141.9568
 20
-4.0998
 30
0.0
 10
-141.9568
 20
-8.1513
 30
0.0
 10
-142.5742
 20
-11.4356
 30
0.0
 10
-143.3359
 20
-11.4356
 30
0.0
 10
-143.3359
 20
-11.4356
 30
0.0
 10
-144.0973
 20
-11.4356
 30
0.0
 10
-144.7147
 20
-8.1513
 30
0.0
 10
-144.7147
 20
-4.0998
 30
0.0
 10
-144.7147
 20
-4.0998
 30
0.0
 10
-144.7147
 20
-0.0484
 30
0.0
 10
-144.0973
 20
3.236
 30
0.0
 10
-143.3359
 20
3.236
 30
0.0
  0
SPLINE
  5
87
330
1F
100
AcDbEntity
  8
layer 1
 62
   254
370
     9
100
AcDbSpline
210
0.0
220
0.0
230
1.0
 70
    11
 71
     3
 72
    20
 73
    16
 74
     0
 42
0.0000000001
 43
0.0000000001
 12
1.0
 22
0.0
 32
0.0
 13
1.0
 23
0.0
 33
0.0
 40
0.0
 40
0.0
 40
0.0
 40
0.0
 40
0.2
 40
0.2
 40
0.2
 40
0.2
 40
0.4
 40
0.4
 40
0.4
 40
0.4
 40
0.6
 40
0.6
 40
0.6
 40
0.6
 40
1.0
 40
1.0
 40
1.0
 40
1.0
 10
-121.432
 20
3.2886
 30
0.0
 10
-120.1964
 20
3.2886
 30
0.0
 10
-119.195
 20
7.2253
 30
0.0
 10
-119.195
 20
12.0814
 30
0.0
 10
-119.195
 20
12.0814
 30
0.0
 10
-119.195
 20
16.9377
 30
0.0
 10
-120.1964
 20
20.8742
 30
0.0
 10
-121.432
 20
20.8742
 30
0.0
 10
-121.432
 20
20.8742
 30
0.0
 10
-122.6673
 20
20.8742
 30
0.0
 10
-123.6689
 20
16.9377
 30
0.0
 10
-123.6689
 20
12.0814
 30
0.0
 10
-123.6689
 20
12.0814
 30
0.0
 10
-123.6689
 20
7.2253
 30
0.0
 10
-122.6673
 20
3.2886
 30
0.0
 10
-121.432
 20
3.2886
 30
0.0
  0
SPLINE
  5
88
330
1F
100
AcDbEntity
  8
layer 1
 62
   254
370
     9
100
AcDbSpline
210
0.0
220
0.0
230
1.0
 70
    11
 71
     3
 72
    20
 73
    16
 74
     0
 42
0.0000000001
 43
0.0000000001
 12
1.0
 22
0.0
 32
0.0
 13
1.0
 23
0.0
 33
0.0
 40
0.0
 40
0.0
 40
0.0
 40
0.0
 40
0.2
 40
0.2
 40
0.2
 40
0.2
 40
0.4
 40
0.4
 40
0.4
 40
0.4
 40
0.6
 40
0.6
 40
0.6
 40
0.6
 40
1.0
 40
1.0
 40
1.0
 40
1.0
 10
-126.5824
 20
4.0687
 30
0.0
 10
-127.6744
 20
4.0687
 30
0.0
 10
-128.5596
 20
7.8191
 30
0.0
 10
-128.5596
 20
12.4454
 30
0.0
 10
-128.5596
 20
12.4454
 30
0.0
 10
-128.5596
 20
17.0715
 30
0.0
 10
-127.6744
 20
20.8219
 30
0.0
 10
-126.5824
 20
20.8219
 30
0.0
 10
-126.5824
 20
20.8219
 30
0.0
 10
-125.4905
 20
20.8219
 30
0.0
 10
-124.6053
 20
17.0715
 30
0.0
 10
-124.6053
 20
12.4454
 30
0.0
 10
-124.6053
 20
12.4454
 30
0.0
 10
-124.6053
 20
7.8191
 30
0.0
 10
-125.4905
 20
4.0687
 30
0.0
 10
-126.5824
 20
4.0687
 30
0.0
  0
SPLINE
  5
89
330
1F
100
AcDbEntity
  8
layer 1
 62
   254
370
     9
100
AcDbSpline
210
0.0
220
0.0
230
1.0
 70
    11
 71
     3
 72
    20
 73
    16
 74
     0
 42
0.0000000001
 43
0.0000000001
 12
1.0
 22
0.0
 32
0.0
 13
1.0
 23
0.0
 33
0.0
 40
0.0
 40
0.0
 40
0.0
 40
0.0
 40
0.2
 40
0.2
 40
0.2
 40
0.2
 40
0.4
 40
0.4
 40
0.4
 40
0.4
 40
0.6
 40
0.6
 40
0.6
 40
0.6
 40
1.0
 40
1.0
 40
1.0
 40
1.0
 10
-131.2134
 20
4.7974
 30
0.0
 10
-132.1903
 20
4.7974
 30
0.0
 10
-132.9824
 20
8.443
 30
0.0
 10
-132.9824
 20
12.9402
 30
0.0
 10
-132.9824
 20
12.9402
 30
0.0
 10
-132.9824
 20
17.437
 30
0.0
 10
-132.1903
 20
21.0825
 30
0.0
 10
-131.2134
 20
21.0825
 30
0.0
 10
-131.2134
 20
21.0825
 30
0.0
 10
-130.2363
 20
21.0825
 30
0.0
 10
-129.4445
 20
17.437
 30
0.0
 10
-129.4445
 20
12.9402
 30
0.0
 10
-129.4445
 20
12.9402
 30
0.0
 10
-129.4445
 20
8.443
 30
0.0
 10
-130.2363
 20
4.7974
 30
0.0
 10
-131.2134
 20
4.7974
 30
0.0
  0
SPLINE
  5
8A
330
1F
100
AcDbEntity
  8
layer 1
 62
   254
370
     9
100
AcDbSpline
210
0.0
220
0.0
230
1.0
 70
    11
 71
     3
 72
    20
 73
    16
 74
     0
 42
0.0000000001
 43
0.0000000001
 12
1.0
 22
0.0
 32
0.0
 13
1.0
 23
0.0
 33
0.0
 40
0.0
 40
0.0
 40
0.0
 40
0.0
 40
0.2
 40
0.2
 40
0.2
 40
0.2
 40
0.4
 40
0.4
 40
0.4
 40
0.4
 40
0.6
 40
0.6
 40
0.6
 40
0.6
 40
1.0
 40
1.0
 40
1.0
 40
1.0
 10
-135.5315
 20
21.1867
 30
0.0
 10
-134.612
 20
21.1867
 30
0.0
 10
-133.8666
 20
17.6693
 30
0.0
 10
-133.8666
 20
13.3301
 30
0.0
 10
-133.8666
 20
13.3301
 30
0.0
 10
-133.8666
 20
8.9911
 30
0.0
 10
-134.612
 20
5.4735
 30
0.0
 10
-135.5315
 20
5.4735
 30
0.0
 10
-135.5315
 20
5.4735
 30
0.0
 10
-136.4509
 20
5.4735
 30
0.0
 10
-137.1964
 20
8.9911
 30
0.0
 10
-137.1964
 20
13.3301
 30
0.0
 10
-137.1964
 20
13.3301
 30
0.0
 10
-137.1964
 20
17.6693
 30
0.0
 10
-136.4509
 20
21.1867
 30
0.0
 10
-135.5315
 20
21.1867
 30
0.0
  0
SPLINE
  5
8B
330
1F
100
AcDbEntity
  8
layer 1
 62
   254
370
     9
100
AcDbSpline
210
0.0
220
0.0
230
1.0
 70
    11
 71
     3
 72
    20
 73
    16
 74
     0
 42
0.0000000001
 43
0.0000000001
 12
1.0
 22
0.0
 32
0.0
 13
1.0
 23
0.0
 33
0.0
 40
0.0
 40
0.0
 40
0.0
 40
0.0
 40
0.2
 40
0.2
 40
0.2
 40
0.2
 40
0.4
 40
0.4
 40
0.4
 40
0.4
 40
0.6
 40
0.6
 40
0.6
 40
0.6
 40
1.0
 40
1.0
 40
1.0
 40
1.0
 10
-139.564
 20
5.9941
 30
0.0
 10
-140.3974
 20
5.9941
 30
0.0
 10
-141.0729
 20
9.3836
 30
0.0
 10
-141.0729
 20
13.5644
 30
0.0
 10
-141.0729
 20
13.5644
 30
0.0
 10
-141.0729
 20
17.7453
 30
0.0
 10
-140.3974
 20
21.1345
 30
0.0
 10
-139.564
 20
21.1345
 30
0.0
 10
-139.564
 20
21.1345
 30
0.0
 10
-138.7308
 20
21.1345
 30
0.0
 10
-138.0554
 20
17.7453
 30
0.0
 10
-138.0554
 20
13.5644
 30
0.0
 10
-138.0554
 20
13.5644
 30
0.0
 10
-138.0554
 20
9.3836
 30
0.0
 10
-138.7308
 20
5.9941
 30
0.0
 10
-139.564
 20
5.9941
 30
0.0
  0
SPLINE
  5
8C
330
1F
100
AcDbEntity
  8
layer 1
 62
   254
370
     9
100
AcDbSpline
210
0.0
220
0.0
230
1.0
 70
    11
 71
     3
 72
    20
 73
    16
 74
     0
 42
0.0000000001
 43
0.0000000001
 12
1.0
 22
0.0
 32
0.0
 13
1.0
 23
0.0
 33
0.0
 40
0.0
 40
0.0
 40
0.0
 40
0.0
 40
0.2
 40
0.2
 40
0.2
 40
0.2
 40
0.4
 40
0.4
 40
0.4
 40
0.4
 40
0.6
 40
0.6
 40
0.6
 40
0.6
 40
1.0
 40
1.0
 40
1.0
 40
1.0
 10
-143.3359
 20
6.7747
 30
0.0
 10
-144.1261
 20
6.7747
 30
0.0
 10
-144.7665
 20
10.0009
 30
0.0
 10
-144.7665
 20
13.9806
 30
0.0
 10
-144.7665
 20
13.9806
 30
0.0
 10
-144.7665
 20
17.9603
 30
0.0
 10
-144.1261
 20
21.1865
 30
0.0
 10
-143.3359
 20
21.1865
 30
0.0
 10
-143.3359
 20
21.1865
 30
0.0
 10
-142.5456
 20
21.1865
 30
0.0
 10
-141.905
 20
17.9603
 30
0.0
 10
-141.905
 20
13.9806
 30
0.0
 10
-141.905
 20
13.9806
 30
0.0
 10
-141.905
 20
10.0009
 30
0.0
 10
-142.5456
 20
6.7747
 30
0.0
 10
-143.3359
 20
6.7747
 30
0.0
  0
SPLINE
  5
8D
330
1F
100
AcDbEntity
  8
layer 1
 62
   254
370
     9
100
AcDbSpline
210
0.0
220
0.0
230
1.0
 70
    11
 71
     3
 72
    20
 73
    16
 74
     0
 42
0.0000000001
 43
0.0000000001
 12
1.0
 22
0.0
 32
0.0
 13
1.0
 23
0.0
 33
0.0
 40
0.0
 40
0.0
 40
0.0
 40
0.0
 40
0.2
 40
0.2
 40
0.2
 40
0.2
 40
0.4
 40
0.4
 40
0.4
 40
0.4
 40
0.6
 40
0.6
 40
0.6
 40
0.6
 40
1.0
 40
1.0
 40
1.0
 40
1.0
 10
-109.6735
 20
25.2445
 30
0.0
 10
-111.0527
 20
25.2445
 30
0.0
 10
-112.1709
 20
29.6005
 30
0.0
 10
-112.1709
 20
34.9741
 30
0.0
 10
-112.1709
 20
34.9741
 30
0.0
 10
-112.1709
 20
40.3477
 30
0.0
 10
-111.0527
 20
44.7037
 30
0.0
 10
-109.6735
 20
44.7037
 30
0.0
 10
-109.6735
 20
44.7037
 30
0.0
 10
-108.2942
 20
44.7037
 30
0.0
 10
-107.1761
 20
40.3477
 30
0.0
 10
-107.1761
 20
34.9741
 30
0.0
 10
-107.1761
 20
34.9741
 30
0.0
 10
-107.1761
 20
29.6005
 30
0.0
 10
-108.2942
 20
25.2445
 30
0.0
 10
-109.6735
 20
25.2445
 30
0.0
  0
SPLINE
  5
8E
330
1F
100
AcDbEntity
  8
layer 1
 62
   254
370
     9
100
AcDbSpline
210
0.0
220
0.0
230
1.0
 70
    11
 71
     3
 72
    20
 73
    16
 74
     0
 42
0.0000000001
 43
0.0000000001
 12
1.0
 22
0.0
 32
0.0
 13
1.0
 23
0.0
 33
0.0
 40
0.0
 40
0.0
 40
0.0
 40
0.0
 40
0.2
 40
0.2
 40
0.2
 40
0.2
 40
0.4
 40
0.4
 40
0.4
 40
0.4
 40
0.6
 40
0.6
 40
0.6
 40
0.6
 40
1.0
 40
1.0
 40
1.0
 40
1.0
 10
-109.6735
 20
49.3337
 30
0.0
 10
-111.0527
 20
49.3337
 30
0.0
 10
-112.1709
 20
53.6899
 30
0.0
 10
-112.1709
 20
59.0635
 30
0.0
 10
-112.1709
 20
59.0635
 30
0.0
 10
-112.1709
 20
64.4369
 30
0.0
 10
-111.0527
 20
68.7931
 30
0.0
 10
-109.6735
 20
68.7931
 30
0.0
 10
-109.6735
 20
68.7931
 30
0.0
 10
-108.2942
 20
68.7931
 30
0.0
 10
-107.1761
 20
64.4369
 30
0.0
 10
-107.1761
 20
59.0635
 30
0.0
 10
-107.1761
 20
59.0635
 30
0.0
 10
-107.1761
 20
53.6899
 30
0.0
 10
-108.2942
 20
49.3337
 30
0.0
 10
-109.6735
 20
49.3337
 30
0.0
  0
SPLINE
  5
8F
330
1F
100
AcDbEntity
  8
layer 1
 62
   254
370
     9
100
AcDbSpline
210
0.0
220
0.0
230
1.0
 70
    11
 71
     3
 72
    44
 73
    40
 74
     0
 42
0.0000000001
 43
0.0000000001
 12
1.0
 22
0.0
 32
0.0
 13
1.0
 23
0.0
 33
0.0
 40
0.0
 40
0.0
 40
0.0
 40
0.0
 40
0.0909090909090909
 40
0.0909090909090909
 40
0.0909090909090909
 40
0.0909090909090909
 40
0.1818181818181818
 40
0.1818181818181818
 40
0.1818181818181818
 40
0.1818181818181818
 40
0.2727272727272727
 40
0.2727272727272727
 40
0.2727272727272727
 40
0.2727272727272727
 40
0.3636363636363636
 40
0.3636363636363636
 40
0.3636363636363636
 40
0.3636363636363636
 40
0.4545454545454545
 40
0.4545454545454545
 40
0.4545454545454545
 40
0.4545454545454545
 40
0.5454545454545454
 40
0.5454545454545454
 40
0.5454545454545454
 40
0.5454545454545454
 40
0.6363636363636364
 40
0.6363636363636364
 40
0.6363636363636364
 40
0.6363636363636364
 40
0.7272727272727273
 40
0.7272727272727273
 40
0.7272727272727273
 40
0.7272727272727273
 40
0.8181818181818182
 40
0.8181818181818182
 40
0.8181818181818182
 40
0.8181818181818182
 40
1.0
 40
1.0
 40
1.0
 40
1.0
 10
-112.2731
 20
80.1352
 30
0.0
 10
-112.2731
 20
80.1352
 30
0.0
 10
-107.4902
 20
80.1352
 30
0.0
 10
-107.4902
 20
80.1352
 30
0.0
 10
-107.4902
 20
80.1352
 30
0.0
 10
-107.5319
 20
79.5934
 30
0.0
 10
-107.5864
 20
79.0533
 30
0.0
 10
-107.6575
 20
78.5152
 30
0.0
 10
-107.6575
 20
78.5152
 30
0.0
 10
-107.7432
 20
77.8654
 30
0.0
 10
-107.8507
 20
77.2172
 30
0.0
 10
-107.9933
 20
76.5774
 30
0.0
 10
-107.9933
 20
76.5774
 30
0.0
 10
-108.1114
 20
76.0475
 30
0.0
 10
-108.2516
 20
75.5208
 30
0.0
 10
-108.4361
 20
75.0102
 30
0.0
 10
-108.4361
 20
75.0102
 30
0.0
 10
-108.5767
 20
74.6213
 30
0.0
 10
-108.7414
 20
74.238
 30
0.0
 10
-108.966
 20
73.8901
 30
0.0
 10
-108.966
 20
73.8901
 30
0.0
 10
-109.0586
 20
73.7463
 30
0.0
 10
-109.164
 20
73.6102
 30
0.0
 10
-109.2875
 20
73.4921
 30
0.0
 10
-109.2875
 20
73.4921
 30
0.0
 10
-109.3781
 20
73.4055
 30
0.0
 10
-109.4802
 20
73.33
 30
0.0
 10
-109.5948
 20
73.2784
 30
0.0
 10
-109.5948
 20
73.2784
 30
0.0
 10
-109.6455
 20
73.2555
 30
0.0
 10
-109.6985
 20
73.2387
 30
0.0
 10
-109.753
 20
73.2276
 30
0.0
 10
-109.753
 20
73.2276
 30
0.0
 10
-109.7954
 20
73.2188
 30
0.0
 10
-109.8384
 20
73.2161
 30
0.0
 10
-109.8816
 20
73.215
 30
0.0
 10
-109.8816
 20
73.215
 30
0.0
 10
-111.0101
 20
73.215
 30
0.0
 10
-111.9638
 20
76.1314
 30
0.0
 10
-112.2731
 20
80.1352
 30
0.0
  0
SPLINE
  5
90
330
1F
100
AcDbEntity
  8
layer 1
 62
   254
370
     9
100
AcDbSpline
210
0.0
220
0.0
230
1.0
 70
    11
 71
     3
 72
    20
 73
    16
 74
     0
 42
0.0000000001
 43
0.0000000001
 12
1.0
 22
0.0
 32
0.0
 13
1.0
 23
0.0
 33
0.0
 40
0.0
 40
0.0
 40
0.0
 40
0.0
 40
0.2
 40
0.2
 40
0.2
 40
0.2
 40
0.4
 40
0.4
 40
0.4
 40
0.4
 40
0.6
 40
0.6
 40
0.6
 40
0.6
 40
1.0
 40
1.0
 40
1.0
 40
1.0
 10
-115.8128
 20
25.1404
 30
0.0
 10
-117.1061
 20
25.1404
 30
0.0
 10
-118.1544
 20
29.3102
 30
0.0
 10
-118.1544
 20
34.4539
 30
0.0
 10
-118.1544
 20
34.4539
 30
0.0
 10
-118.1544
 20
39.5976
 30
0.0
 10
-117.1061
 20
43.7673
 30
0.0
 10
-115.8128
 20
43.7673
 30
0.0
 10
-115.8128
 20
43.7673
 30
0.0
 10
-114.5196
 20
43.7673
 30
0.0
 10
-113.4712
 20
39.5976
 30
0.0
 10
-113.4712
 20
34.4539
 30
0.0
 10
-113.4712
 20
34.4539
 30
0.0
 10
-113.4712
 20
29.3102
 30
0.0
 10
-114.5196
 20
25.1404
 30
0.0
 10
-115.8128
 20
25.1404
 30
0.0
  0
SPLINE
  5
91
330
1F
100
AcDbEntity
  8
layer 1
 62
   254
370
     9
100
AcDbSpline
210
0.0
220
0.0
230
1.0
 70
    11
 71
     3
 72
    20
 73
    16
 74
     0
 42
0.0000000001
 43
0.0000000001
 12
1.0
 22
0.0
 32
0.0
 13
1.0
 23
0.0
 33
0.0
 40
0.0
 40
0.0
 40
0.0
 40
0.0
 40
0.2
 40
0.2
 40
0.2
 40
0.2
 40
0.4
 40
0.4
 40
0.4
 40
0.4
 40
0.6
 40
0.6
 40
0.6
 40
0.6
 40
1.0
 40
1.0
 40
1.0
 40
1.0
 10
-115.8128
 20
66.7641
 30
0.0
 10
-117.0771
 20
66.7641
 30
0.0
 10
-118.1021
 20
62.571
 30
0.0
 10
-118.1021
 20
57.3988
 30
0.0
 10
-118.1021
 20
57.3988
 30
0.0
 10
-118.1021
 20
52.2266
 30
0.0
 10
-117.0771
 20
48.0338
 30
0.0
 10
-115.8128
 20
48.0338
 30
0.0
 10
-115.8128
 20
48.0338
 30
0.0
 10
-114.5485
 20
48.0338
 30
0.0
 10
-113.5236
 20
52.2266
 30
0.0
 10
-113.5236
 20
57.3988
 30
0.0
 10
-113.5236
 20
57.3988
 30
0.0
 10
-113.5236
 20
62.571
 30
0.0
 10
-114.5485
 20
66.7641
 30
0.0
 10
-115.8128
 20
66.7641
 30
0.0
  0
SPLINE
  5
92
330
1F
100
AcDbEntity
  8
layer 1
 62
   254
370
     9
100
AcDbSpline
210
0.0
220
0.0
230
1.0
 70
    11
 71
     3
 72
    24
 73
    20
 74
     0
 42
0.0000000001
 43
0.0000000001
 12
1.0
 22
0.0
 32
0.0
 13
1.0
 23
0.0
 33
0.0
 40
0.0
 40
0.0
 40
0.0
 40
0.0
 40
0.1666666666666667
 40
0.1666666666666667
 40
0.1666666666666667
 40
0.1666666666666667
 40
0.3333333333333333
 40
0.3333333333333333
 40
0.3333333333333333
 40
0.3333333333333333
 40
0.5
 40
0.5
 40
0.5
 40
0.5
 40
0.6666666666666666
 40
0.6666666666666666
 40
0.6666666666666666
 40
0.6666666666666666
 40
1.0
 40
1.0
 40
1.0
 40
1.0
 10
-118.2035
 20
80.1352
 30
0.0
 10
-118.2035
 20
80.1352
 30
0.0
 10
-113.6303
 20
80.1352
 30
0.0
 10
-113.6303
 20
80.1352
 30
0.0
 10
-113.6303
 20
80.1352
 30
0.0
 10
-113.6285
 20
79.9963
 30
0.0
 10
-113.6277
 20
79.8582
 30
0.0
 10
-113.6277
 20
79.7188
 30
0.0
 10
-113.6277
 20
79.7188
 30
0.0
 10
-113.6277
 20
74.92
 30
0.0
 10
-114.6525
 20
71.0299
 30
0.0
 10
-115.9169
 20
71.0299
 30
0.0
 10
-115.9169
 20
71.0299
 30
0.0
 10
-117.1812
 20
71.0299
 30
0.0
 10
-118.2062
 20
74.92
 30
0.0
 10
-118.2062
 20
79.7188
 30
0.0
 10
-118.2062
 20
79.7188
 30
0.0
 10
-118.2062
 20
79.8583
 30
0.0
 10
-118.2054
 20
79.9972
 30
0.0
 10
-118.2035
 20
80.1352
 30
0.0
  0
SPLINE
  5
93
330
1F
100
AcDbEntity
  8
layer 1
 62
   254
370
     9
100
AcDbSpline
210
0.0
220
0.0
230
1.0
 70
    11
 71
     3
 72
    24
 73
    20
 74
     0
 42
0.0000000001
 43
0.0000000001
 12
1.0
 22
0.0
 32
0.0
 13
1.0
 23
0.0
 33
0.0
 40
0.0
 40
0.0
 40
0.0
 40
0.0
 40
0.1666666666666667
 40
0.1666666666666667
 40
0.1666666666666667
 40
0.1666666666666667
 40
0.3333333333333333
 40
0.3333333333333333
 40
0.3333333333333333
 40
0.3333333333333333
 40
0.5
 40
0.5
 40
0.5
 40
0.5
 40
0.6666666666666666
 40
0.6666666666666666
 40
0.6666666666666666
 40
0.6666666666666666
 40
1.0
 40
1.0
 40
1.0
 40
1.0
 10
-123.5361
 20
80.1352
 30
0.0
 10
-123.5361
 20
80.1352
 30
0.0
 10
-119.3278
 20
80.1352
 30
0.0
 10
-119.3278
 20
80.1352
 30
0.0
 10
-119.3278
 20
80.1352
 30
0.0
 10
-119.275
 20
79.3759
 30
0.0
 10
-119.2467
 20
78.5722
 30
0.0
 10
-119.2467
 20
77.7418
 30
0.0
 10
-119.2467
 20
77.7418
 30
0.0
 10
-119.2467
 20
72.8569
 30
0.0
 10
-120.225
 20
68.897
 30
0.0
 10
-121.432
 20
68.897
 30
0.0
 10
-121.432
 20
68.897
 30
0.0
 10
-122.6388
 20
68.897
 30
0.0
 10
-123.6171
 20
72.8569
 30
0.0
 10
-123.6171
 20
77.7418
 30
0.0
 10
-123.6171
 20
77.7418
 30
0.0
 10
-123.6171
 20
78.5712
 30
0.0
 10
-123.589
 20
79.374
 30
0.0
 10
-123.5361
 20
80.1352
 30
0.0
  0
SPLINE
  5
94
330
1F
100
AcDbEntity
  8
layer 1
 62
   254
370
     9
100
AcDbSpline
210
0.0
220
0.0
230
1.0
 70
    11
 71
     3
 72
    24
 73
    20
 74
     0
 42
0.0000000001
 43
0.0000000001
 12
1.0
 22
0.0
 32
0.0
 13
1.0
 23
0.0
 33
0.0
 40
0.0
 40
0.0
 40
0.0
 40
0.0
 40
0.1666666666666667
 40
0.1666666666666667
 40
0.1666666666666667
 40
0.1666666666666667
 40
0.3333333333333333
 40
0.3333333333333333
 40
0.3333333333333333
 40
0.3333333333333333
 40
0.5
 40
0.5
 40
0.5
 40
0.5
 40
0.6666666666666666
 40
0.6666666666666666
 40
0.6666666666666666
 40
0.6666666666666666
 40
1.0
 40
1.0
 40
1.0
 40
1.0
 10
-128.2265
 20
80.1352
 30
0.0
 10
-128.2265
 20
80.1352
 30
0.0
 10
-124.9384
 20
80.1352
 30
0.0
 10
-124.9384
 20
80.1352
 30
0.0
 10
-124.9384
 20
80.1352
 30
0.0
 10
-124.7278
 20
78.7938
 30
0.0
 10
-124.6053
 20
77.1842
 30
0.0
 10
-124.6053
 20
75.4526
 30
0.0
 10
-124.6053
 20
75.4526
 30
0.0
 10
-124.6053
 20
70.7975
 30
0.0
 10
-125.4905
 20
67.0237
 30
0.0
 10
-126.5824
 20
67.0237
 30
0.0
 10
-126.5824
 20
67.0237
 30
0.0
 10
-127.6744
 20
67.0237
 30
0.0
 10
-128.5596
 20
70.7975
 30
0.0
 10
-128.5596
 20
75.4526
 30
0.0
 10
-128.5596
 20
75.4526
 30
0.0
 10
-128.5596
 20
77.1853
 30
0.0
 10
-128.437
 20
78.7961
 30
0.0
 10
-128.2265
 20
80.1352
 30
0.0
  0
SPLINE
  5
95
330
1F
100
AcDbEntity
  8
layer 1
 62
   254
370
     9
100
AcDbSpline
210
0.0
220
0.0
230
1.0
 70
    11
 71
     3
 72
    24
 73
    20
 74
     0
 42
0.0000000001
 43
0.0000000001
 12
1.0
 22
0.0
 32
0.0
 13
1.0
 23
0.0
 33
0.0
 40
0.0
 40
0.0
 40
0.0
 40
0.0
 40
0.1666666666666667
 40
0.1666666666666667
 40
0.1666666666666667
 40
0.1666666666666667
 40
0.3333333333333333
 40
0.3333333333333333
 40
0.3333333333333333
 40
0.3333333333333333
 40
0.5
 40
0.5
 40
0.5
 40
0.5
 40
0.6666666666666666
 40
0.6666666666666666
 40
0.6666666666666666
 40
0.6666666666666666
 40
1.0
 40
1.0
 40
1.0
 40
1.0
 10
-132.3795
 20
80.1352
 30
0.0
 10
-132.3795
 20
80.1352
 30
0.0
 10
-130.1508
 20
80.1352
 30
0.0
 10
-130.1508
 20
80.1352
 30
0.0
 10
-130.1508
 20
80.1352
 30
0.0
 10
-129.6899
 20
78.6341
 30
0.0
 10
-129.392
 20
76.2336
 30
0.0
 10
-129.392
 20
73.5278
 30
0.0
 10
-129.392
 20
73.5278
 30
0.0
 10
-129.392
 20
68.9876
 30
0.0
 10
-130.2307
 20
65.3072
 30
0.0
 10
-131.265
 20
65.3072
 30
0.0
 10
-131.265
 20
65.3072
 30
0.0
 10
-132.2996
 20
65.3072
 30
0.0
 10
-133.138
 20
68.9876
 30
0.0
 10
-133.138
 20
73.5278
 30
0.0
 10
-133.138
 20
73.5278
 30
0.0
 10
-133.138
 20
76.235
 30
0.0
 10
-132.84
 20
78.6369
 30
0.0
 10
-132.3795
 20
80.1352
 30
0.0
  0
SPLINE
  5
96
330
1F
100
AcDbEntity
  8
layer 1
 62
   254
370
     9
100
AcDbSpline
210
0.0
220
0.0
230
1.0
 70
    11
 71
     3
 72
    24
 73
    20
 74
     0
 42
0.0000000001
 43
0.0000000001
 12
1.0
 22
0.0
 32
0.0
 13
1.0
 23
0.0
 33
0.0
 40
0.0
 40
0.0
 40
0.0
 40
0.0
 40
0.1666666666666667
 40
0.1666666666666667
 40
0.1666666666666667
 40
0.1666666666666667
 40
0.3333333333333333
 40
0.3333333333333333
 40
0.3333333333333333
 40
0.3333333333333333
 40
0.5
 40
0.5
 40
0.5
 40
0.5
 40
0.6666666666666666
 40
0.6666666666666666
 40
0.6666666666666666
 40
0.6666666666666666
 40
1.0
 40
1.0
 40
1.0
 40
1.0
 10
-144.2462
 20
80.1352
 30
0.0
 10
-144.2462
 20
80.1352
 30
0.0
 10
-142.7903
 20
80.1352
 30
0.0
 10
-142.7903
 20
80.1352
 30
0.0
 10
-142.7903
 20
80.1352
 30
0.0
 10
-142.79
 20
80.1262
 30
0.0
 10
-142.7898
 20
80.1176
 30
0.0
 10
-142.7898
 20
80.109
 30
0.0
 10
-142.7898
 20
80.109
 30
0.0
 10
-142.7898
 20
79.3904
 30
0.0
 10
-143.116
 20
78.8081
 30
0.0
 10
-143.5184
 20
78.8081
 30
0.0
 10
-143.5184
 20
78.8081
 30
0.0
 10
-143.9207
 20
78.8081
 30
0.0
 10
-144.2466
 20
79.3904
 30
0.0
 10
-144.2466
 20
80.109
 30
0.0
 10
-144.2466
 20
80.109
 30
0.0
 10
-144.2466
 20
80.1176
 30
0.0
 10
-144.2466
 20
80.1264
 30
0.0
 10
-144.2462
 20
80.1352
 30
0.0
  0
SPLINE
  5
97
330
1F
100
AcDbEntity
  8
layer 1
 62
   254
370
     9
100
AcDbSpline
210
0.0
220
0.0
230
1.0
 70
    11
 71
     3
 72
    20
 73
    16
 74
     0
 42
0.0000000001
 43
0.0000000001
 12
1.0
 22
0.0
 32
0.0
 13
1.0
 23
0.0
 33
0.0
 40
0.0
 40
0.0
 40
0.0
 40
0.0
 40
0.2
 40
0.2
 40
0.2
 40
0.2
 40
0.4
 40
0.4
 40
0.4
 40
0.4
 40
0.6
 40
0.6
 40
0.6
 40
0.6
 40
1.0
 40
1.0
 40
1.0
 40
1.0
 10
-135.5057
 20
79.5108
 30
0.0
 10
-136.4253
 20
79.5108
 30
0.0
 10
-137.1706
 20
75.9468
 30
0.0
 10
-137.1706
 20
71.5503
 30
0.0
 10
-137.1706
 20
71.5503
 30
0.0
 10
-137.1706
 20
67.154
 30
0.0
 10
-136.4253
 20
63.5898
 30
0.0
 10
-135.5057
 20
63.5898
 30
0.0
 10
-135.5057
 20
63.5898
 30
0.0
 10
-134.5862
 20
63.5898
 30
0.0
 10
-133.8408
 20
67.154
 30
0.0
 10
-133.8408
 20
71.5503
 30
0.0
 10
-133.8408
 20
71.5503
 30
0.0
 10
-133.8408
 20
75.9468
 30
0.0
 10
-134.5862
 20
79.5108
 30
0.0
 10
-135.5057
 20
79.5108
 30
0.0
  0
SPLINE
  5
98
330
1F
100
AcDbEntity
  8
layer 1
 62
   254
370
     9
100
AcDbSpline
210
0.0
220
0.0
230
1.0
 70
    11
 71
     3
 72
    20
 73
    16
 74
     0
 42
0.0000000001
 43
0.0000000001
 12
1.0
 22
0.0
 32
0.0
 13
1.0
 23
0.0
 33
0.0
 40
0.0
 40
0.0
 40
0.0
 40
0.0
 40
0.2
 40
0.2
 40
0.2
 40
0.2
 40
0.4
 40
0.4
 40
0.4
 40
0.4
 40
0.6
 40
0.6
 40
0.6
 40
0.6
 40
1.0
 40
1.0
 40
1.0
 40
1.0
 10
-139.4306
 20
77.4798
 30
0.0
 10
-138.5834
 20
77.459
 30
0.0
 10
-137.9795
 20
74.0423
 30
0.0
 10
-138.0816
 20
69.8483
 30
0.0
 10
-138.0816
 20
69.8483
 30
0.0
 10
-138.1839
 20
65.6542
 30
0.0
 10
-138.9538
 20
62.271
 30
0.0
 10
-139.8011
 20
62.2918
 30
0.0
 10
-139.8011
 20
62.2918
 30
0.0
 10
-140.6483
 20
62.3126
 30
0.0
 10
-141.2525
 20
65.7291
 30
0.0
 10
-141.1501
 20
69.9231
 30
0.0
 10
-141.1501
 20
69.9231
 30
0.0
 10
-141.0477
 20
74.1172
 30
0.0
 10
-140.2781
 20
77.5003
 30
0.0
 10
-139.4306
 20
77.4798
 30
0.0
  0
SPLINE
  5
99
330
1F
100
AcDbEntity
  8
layer 1
 62
   254
370
     9
100
AcDbSpline
210
0.0
220
0.0
230
1.0
 70
    11
 71
     3
 72
    20
 73
    16
 74
     0
 42
0.0000000001
 43
0.0000000001
 12
1.0
 22
0.0
 32
0.0
 13
1.0
 23
0.0
 33
0.0
 40
0.0
 40
0.0
 40
0.0
 40
0.0
 40
0.2
 40
0.2
 40
0.2
 40
0.2
 40
0.4
 40
0.4
 40
0.4
 40
0.4
 40
0.6
 40
0.6
 40
0.6
 40
0.6
 40
1.0
 40
1.0
 40
1.0
 40
1.0
 10
-143.2004
 20
75.5289
 30
0.0
 10
-143.9905
 20
75.5436
 30
0.0
 10
-144.6916
 20
72.2832
 30
0.0
 10
-144.7662
 20
68.2467
 30
0.0
 10
-144.7662
 20
68.2467
 30
0.0
 10
-144.8411
 20
64.2101
 30
0.0
 10
-144.2613
 20
60.926
 30
0.0
 10
-143.4711
 20
60.9113
 30
0.0
 10
-143.4711
 20
60.9113
 30
0.0
 10
-142.6811
 20
60.8969
 30
0.0
 10
-141.9799
 20
64.1573
 30
0.0
 10
-141.9052
 20
68.1938
 30
0.0
 10
-141.9052
 20
68.1938
 30
0.0
 10
-141.8305
 20
72.2304
 30
0.0
 10
-142.4104
 20
75.5143
 30
0.0
 10
-143.2004
 20
75.5289
 30
0.0
  0
SPLINE
  5
9A
330
1F
100
AcDbEntity
  8
layer 1
 62
   254
370
     9
100
AcDbSpline
210
0.0
220
0.0
230
1.0
 70
    11
 71
     3
 72
    20
 73
    16
 74
     0
 42
0.0000000001
 43
0.0000000001
 12
1.0
 22
0.0
 32
0.0
 13
1.0
 23
0.0
 33
0.0
 40
0.0
 40
0.0
 40
0.0
 40
0.0
 40
0.2
 40
0.2
 40
0.2
 40
0.2
 40
0.4
 40
0.4
 40
0.4
 40
0.4
 40
0.6
 40
0.6
 40
0.6
 40
0.6
 40
1.0
 40
1.0
 40
1.0
 40
1.0
 10
-121.3795
 20
64.839
 30
0.0
 10
-120.1728
 20
64.839
 30
0.0
 10
-119.1944
 20
60.8557
 30
0.0
 10
-119.1944
 20
55.942
 30
0.0
 10
-119.1944
 20
55.942
 30
0.0
 10
-119.1944
 20
51.0284
 30
0.0
 10
-120.1728
 20
47.0451
 30
0.0
 10
-121.3795
 20
47.0451
 30
0.0
 10
-121.3795
 20
47.0451
 30
0.0
 10
-122.5865
 20
47.0451
 30
0.0
 10
-123.5649
 20
51.0284
 30
0.0
 10
-123.5649
 20
55.942
 30
0.0
 10
-123.5649
 20
55.942
 30
0.0
 10
-123.5649
 20
60.8557
 30
0.0
 10
-122.5865
 20
64.839
 30
0.0
 10
-121.3795
 20
64.839
 30
0.0
  0
SPLINE
  5
9B
330
1F
100
AcDbEntity
  8
layer 1
 62
   254
370
     9
100
AcDbSpline
210
0.0
220
0.0
230
1.0
 70
    11
 71
     3
 72
    20
 73
    16
 74
     0
 42
0.0000000001
 43
0.0000000001
 12
1.0
 22
0.0
 32
0.0
 13
1.0
 23
0.0
 33
0.0
 40
0.0
 40
0.0
 40
0.0
 40
0.0
 40
0.2
 40
0.2
 40
0.2
 40
0.2
 40
0.4
 40
0.4
 40
0.4
 40
0.4
 40
0.6
 40
0.6
 40
0.6
 40
0.6
 40
1.0
 40
1.0
 40
1.0
 40
1.0
 10
-126.4527
 20
46.0299
 30
0.0
 10
-125.3894
 20
46.0299
 30
0.0
 10
-124.5275
 20
49.8617
 30
0.0
 10
-124.5275
 20
54.5886
 30
0.0
 10
-124.5275
 20
54.5886
 30
0.0
 10
-124.5275
 20
59.3156
 30
0.0
 10
-125.3894
 20
63.1475
 30
0.0
 10
-126.4527
 20
63.1475
 30
0.0
 10
-126.4527
 20
63.1475
 30
0.0
 10
-127.5163
 20
63.1475
 30
0.0
 10
-128.3782
 20
59.3156
 30
0.0
 10
-128.3782
 20
54.5886
 30
0.0
 10
-128.3782
 20
54.5886
 30
0.0
 10
-128.3782
 20
49.8617
 30
0.0
 10
-127.5163
 20
46.0299
 30
0.0
 10
-126.4527
 20
46.0299
 30
0.0
  0
SPLINE
  5
9C
330
1F
100
AcDbEntity
  8
layer 1
 62
   254
370
     9
100
AcDbSpline
210
0.0
220
0.0
230
1.0
 70
    11
 71
     3
 72
    20
 73
    16
 74
     0
 42
0.0000000001
 43
0.0000000001
 12
1.0
 22
0.0
 32
0.0
 13
1.0
 23
0.0
 33
0.0
 40
0.0
 40
0.0
 40
0.0
 40
0.0
 40
0.2
 40
0.2
 40
0.2
 40
0.2
 40
0.4
 40
0.4
 40
0.4
 40
0.4
 40
0.6
 40
0.6
 40
0.6
 40
0.6
 40
1.0
 40
1.0
 40
1.0
 40
1.0
 10
-131.2134
 20
61.4832
 30
0.0
 10
-132.2048
 20
61.4832
 30
0.0
 10
-133.0084
 20
57.8377
 30
0.0
 10
-133.0084
 20
53.3405
 30
0.0
 10
-133.0084
 20
53.3405
 30
0.0
 10
-133.0084
 20
48.8437
 30
0.0
 10
-132.2048
 20
45.1981
 30
0.0
 10
-131.2134
 20
45.1981
 30
0.0
 10
-131.2134
 20
45.1981
 30
0.0
 10
-130.2221
 20
45.1981
 30
0.0
 10
-129.4184
 20
48.8437
 30
0.0
 10
-129.4184
 20
53.3405
 30
0.0
 10
-129.4184
 20
53.3405
 30
0.0
 10
-129.4184
 20
57.8377
 30
0.0
 10
-130.2221
 20
61.4832
 30
0.0
 10
-131.2134
 20
61.4832
 30
0.0
  0
SPLINE
  5
9D
330
1F
100
AcDbEntity
  8
layer 1
 62
   254
370
     9
100
AcDbSpline
210
0.0
220
0.0
230
1.0
 70
    11
 71
     3
 72
    20
 73
    16
 74
     0
 42
0.0000000001
 43
0.0000000001
 12
1.0
 22
0.0
 32
0.0
 13
1.0
 23
0.0
 33
0.0
 40
0.0
 40
0.0
 40
0.0
 40
0.0
 40
0.2
 40
0.2
 40
0.2
 40
0.2
 40
0.4
 40
0.4
 40
0.4
 40
0.4
 40
0.6
 40
0.6
 40
0.6
 40
0.6
 40
1.0
 40
1.0
 40
1.0
 40
1.0
 10
-135.5577
 20
60.2602
 30
0.0
 10
-136.4773
 20
60.2602
 30
0.0
 10
-137.2226
 20
56.7078
 30
0.0
 10
-137.2226
 20
52.3258
 30
0.0
 10
-137.2226
 20
52.3258
 30
0.0
 10
-137.2226
 20
47.9436
 30
0.0
 10
-136.4773
 20
44.3914
 30
0.0
 10
-135.5577
 20
44.3914
 30
0.0
 10
-135.5577
 20
44.3914
 30
0.0
 10
-134.6383
 20
44.3914
 30
0.0
 10
-133.8928
 20
47.9436
 30
0.0
 10
-133.8928
 20
52.3258
 30
0.0
 10
-133.8928
 20
52.3258
 30
0.0
 10
-133.8928
 20
56.7078
 30
0.0
 10
-134.6383
 20
60.2602
 30
0.0
 10
-135.5577
 20
60.2602
 30
0.0
  0
SPLINE
  5
9E
330
1F
100
AcDbEntity
  8
layer 1
 62
   254
370
     9
100
AcDbSpline
210
0.0
220
0.0
230
1.0
 70
    11
 71
     3
 72
    20
 73
    16
 74
     0
 42
0.0000000001
 43
0.0000000001
 12
1.0
 22
0.0
 32
0.0
 13
1.0
 23
0.0
 33
0.0
 40
0.0
 40
0.0
 40
0.0
 40
0.0
 40
0.2
 40
0.2
 40
0.2
 40
0.2
 40
0.4
 40
0.4
 40
0.4
 40
0.4
 40
0.6
 40
0.6
 40
0.6
 40
0.6
 40
1.0
 40
1.0
 40
1.0
 40
1.0
 10
-139.5899
 20
43.4807
 30
0.0
 10
-140.4517
 20
43.4807
 30
0.0
 10
-141.1505
 20
46.8815
 30
0.0
 10
-141.1505
 20
51.0768
 30
0.0
 10
-141.1505
 20
51.0768
 30
0.0
 10
-141.1505
 20
55.2722
 30
0.0
 10
-140.4517
 20
58.6732
 30
0.0
 10
-139.5899
 20
58.6732
 30
0.0
 10
-139.5899
 20
58.6732
 30
0.0
 10
-138.7277
 20
58.6732
 30
0.0
 10
-138.0289
 20
55.2722
 30
0.0
 10
-138.0289
 20
51.0768
 30
0.0
 10
-138.0289
 20
51.0768
 30
0.0
 10
-138.0289
 20
46.8815
 30
0.0
 10
-138.7277
 20
43.4807
 30
0.0
 10
-139.5899
 20
43.4807
 30
0.0
  0
SPLINE
  5
9F
330
1F
100
AcDbEntity
  8
layer 1
 62
   254
370
     9
100
AcDbSpline
210
0.0
220
0.0
230
1.0
 70
    11
 71
     3
 72
    20
 73
    16
 74
     0
 42
0.0000000001
 43
0.0000000001
 12
1.0
 22
0.0
 32
0.0
 13
1.0
 23
0.0
 33
0.0
 40
0.0
 40
0.0
 40
0.0
 40
0.0
 40
0.2
 40
0.2
 40
0.2
 40
0.2
 40
0.4
 40
0.4
 40
0.4
 40
0.4
 40
0.6
 40
0.6
 40
0.6
 40
0.6
 40
1.0
 40
1.0
 40
1.0
 40
1.0
 10
-143.3359
 20
42.7791
 30
0.0
 10
-142.5742
 20
42.7791
 30
0.0
 10
-141.9568
 20
46.0634
 30
0.0
 10
-141.9568
 20
50.1149
 30
0.0
 10
-141.9568
 20
50.1149
 30
0.0
 10
-141.9568
 20
54.1663
 30
0.0
 10
-142.5742
 20
57.4506
 30
0.0
 10
-143.3359
 20
57.4506
 30
0.0
 10
-143.3359
 20
57.4506
 30
0.0
 10
-144.0973
 20
57.4506
 30
0.0
 10
-144.7147
 20
54.1663
 30
0.0
 10
-144.7147
 20
50.1149
 30
0.0
 10
-144.7147
 20
50.1149
 30
0.0
 10
-144.7147
 20
46.0634
 30
0.0
 10
-144.0973
 20
42.7791
 30
0.0
 10
-143.3359
 20
42.7791
 30
0.0
  0
SPLINE
  5
A0
330
1F
100
AcDbEntity
  8
layer 1
 62
   254
370
     9
100
AcDbSpline
210
0.0
220
0.0
230
1.0
 70
    11
 71
     3
 72
    20
 73
    16
 74
     0
 42
0.0000000001
 43
0.0000000001
 12
1.0
 22
0.0
 32
0.0
 13
1.0
 23
0.0
 33
0.0
 40
0.0
 40
0.0
 40
0.0
 40
0.0
 40
0.2
 40
0.2
 40
0.2
 40
0.2
 40
0.4
 40
0.4
 40
0.4
 40
0.4
 40
0.6
 40
0.6
 40
0.6
 40
0.6
 40
1.0
 40
1.0
 40
1.0
 40
1.0
 10
-121.432
 20
42.7265
 30
0.0
 10
-120.1964
 20
42.7265
 30
0.0
 10
-119.195
 20
38.7898
 30
0.0
 10
-119.195
 20
33.9334
 30
0.0
 10
-119.195
 20
33.9334
 30
0.0
 10
-119.195
 20
29.0773
 30
0.0
 10
-120.1964
 20
25.1406
 30
0.0
 10
-121.432
 20
25.1406
 30
0.0
 10
-121.432
 20
25.1406
 30
0.0
 10
-122.6673
 20
25.1406
 30
0.0
 10
-123.6689
 20
29.0773
 30
0.0
 10
-123.6689
 20
33.9334
 30
0.0
 10
-123.6689
 20
33.9334
 30
0.0
 10
-123.6689
 20
38.7898
 30
0.0
 10
-122.6673
 20
42.7265
 30
0.0
 10
-121.432
 20
42.7265
 30
0.0
  0
SPLINE
  5
A1
330
1F
100
AcDbEntity
  8
layer 1
 62
   254
370
     9
100
AcDbSpline
210
0.0
220
0.0
230
1.0
 70
    11
 71
     3
 72
    20
 73
    16
 74
     0
 42
0.0000000001
 43
0.0000000001
 12
1.0
 22
0.0
 32
0.0
 13
1.0
 23
0.0
 33
0.0
 40
0.0
 40
0.0
 40
0.0
 40
0.0
 40
0.2
 40
0.2
 40
0.2
 40
0.2
 40
0.4
 40
0.4
 40
0.4
 40
0.4
 40
0.6
 40
0.6
 40
0.6
 40
0.6
 40
1.0
 40
1.0
 40
1.0
 40
1.0
 10
-126.5824
 20
41.9463
 30
0.0
 10
-127.6744
 20
41.9463
 30
0.0
 10
-128.5596
 20
38.1959
 30
0.0
 10
-128.5596
 20
33.5697
 30
0.0
 10
-128.5596
 20
33.5697
 30
0.0
 10
-128.5596
 20
28.9433
 30
0.0
 10
-127.6744
 20
25.1931
 30
0.0
 10
-126.5824
 20
25.1931
 30
0.0
 10
-126.5824
 20
25.1931
 30
0.0
 10
-125.4905
 20
25.1931
 30
0.0
 10
-124.6053
 20
28.9433
 30
0.0
 10
-124.6053
 20
33.5697
 30
0.0
 10
-124.6053
 20
33.5697
 30
0.0
 10
-124.6053
 20
38.1959
 30
0.0
 10
-125.4905
 20
41.9463
 30
0.0
 10
-126.5824
 20
41.9463
 30
0.0
  0
SPLINE
  5
A2
330
1F
100
AcDbEntity
  8
layer 1
 62
   254
370
     9
100
AcDbSpline
210
0.0
220
0.0
230
1.0
 70
    11
 71
     3
 72
    20
 73
    16
 74
     0
 42
0.0000000001
 43
0.0000000001
 12
1.0
 22
0.0
 32
0.0
 13
1.0
 23
0.0
 33
0.0
 40
0.0
 40
0.0
 40
0.0
 40
0.0
 40
0.2
 40
0.2
 40
0.2
 40
0.2
 40
0.4
 40
0.4
 40
0.4
 40
0.4
 40
0.6
 40
0.6
 40
0.6
 40
0.6
 40
1.0
 40
1.0
 40
1.0
 40
1.0
 10
-131.2134
 20
41.2174
 30
0.0
 10
-132.1903
 20
41.2174
 30
0.0
 10
-132.9824
 20
37.5718
 30
0.0
 10
-132.9824
 20
33.0749
 30
0.0
 10
-132.9824
 20
33.0749
 30
0.0
 10
-132.9824
 20
28.5778
 30
0.0
 10
-132.1903
 20
24.9323
 30
0.0
 10
-131.2134
 20
24.9323
 30
0.0
 10
-131.2134
 20
24.9323
 30
0.0
 10
-130.2363
 20
24.9323
 30
0.0
 10
-129.4445
 20
28.5778
 30
0.0
 10
-129.4445
 20
33.0749
 30
0.0
 10
-129.4445
 20
33.0749
 30
0.0
 10
-129.4445
 20
37.5718
 30
0.0
 10
-130.2363
 20
41.2174
 30
0.0
 10
-131.2134
 20
41.2174
 30
0.0
  0
SPLINE
  5
A3
330
1F
100
AcDbEntity
  8
layer 1
 62
   254
370
     9
100
AcDbSpline
210
0.0
220
0.0
230
1.0
 70
    11
 71
     3
 72
    20
 73
    16
 74
     0
 42
0.0000000001
 43
0.0000000001
 12
1.0
 22
0.0
 32
0.0
 13
1.0
 23
0.0
 33
0.0
 40
0.0
 40
0.0
 40
0.0
 40
0.0
 40
0.2
 40
0.2
 40
0.2
 40
0.2
 40
0.4
 40
0.4
 40
0.4
 40
0.4
 40
0.6
 40
0.6
 40
0.6
 40
0.6
 40
1.0
 40
1.0
 40
1.0
 40
1.0
 10
-135.5315
 20
24.8283
 30
0.0
 10
-134.612
 20
24.8283
 30
0.0
 10
-133.8666
 20
28.3457
 30
0.0
 10
-133.8666
 20
32.6849
 30
0.0
 10
-133.8666
 20
32.6849
 30
0.0
 10
-133.8666
 20
37.0239
 30
0.0
 10
-134.612
 20
40.5415
 30
0.0
 10
-135.5315
 20
40.5415
 30
0.0
 10
-135.5315
 20
40.5415
 30
0.0
 10
-136.4509
 20
40.5415
 30
0.0
 10
-137.1964
 20
37.0239
 30
0.0
 10
-137.1964
 20
32.6849
 30
0.0
 10
-137.1964
 20
32.6849
 30
0.0
 10
-137.1964
 20
28.3457
 30
0.0
 10
-136.4509
 20
24.8283
 30
0.0
 10
-135.5315
 20
24.8283
 30
0.0
  0
SPLINE
  5
A4
330
1F
100
AcDbEntity
  8
layer 1
 62
   254
370
     9
100
AcDbSpline
210
0.0
220
0.0
230
1.0
 70
    11
 71
     3
 72
    20
 73
    16
 74
     0
 42
0.0000000001
 43
0.0000000001
 12
1.0
 22
0.0
 32
0.0
 13
1.0
 23
0.0
 33
0.0
 40
0.0
 40
0.0
 40
0.0
 40
0.0
 40
0.2
 40
0.2
 40
0.2
 40
0.2
 40
0.4
 40
0.4
 40
0.4
 40
0.4
 40
0.6
 40
0.6
 40
0.6
 40
0.6
 40
1.0
 40
1.0
 40
1.0
 40
1.0
 10
-139.564
 20
40.0207
 30
0.0
 10
-140.3974
 20
40.0207
 30
0.0
 10
-141.0729
 20
36.6314
 30
0.0
 10
-141.0729
 20
32.4506
 30
0.0
 10
-141.0729
 20
32.4506
 30
0.0
 10
-141.0729
 20
28.2697
 30
0.0
 10
-140.3974
 20
24.8803
 30
0.0
 10
-139.564
 20
24.8803
 30
0.0
 10
-139.564
 20
24.8803
 30
0.0
 10
-138.7308
 20
24.8803
 30
0.0
 10
-138.0554
 20
28.2697
 30
0.0
 10
-138.0554
 20
32.4506
 30
0.0
 10
-138.0554
 20
32.4506
 30
0.0
 10
-138.0554
 20
36.6314
 30
0.0
 10
-138.7308
 20
40.0207
 30
0.0
 10
-139.564
 20
40.0207
 30
0.0
  0
SPLINE
  5
A5
330
1F
100
AcDbEntity
  8
layer 1
 62
   254
370
     9
100
AcDbSpline
210
0.0
220
0.0
230
1.0
 70
    11
 71
     3
 72
    20
 73
    16
 74
     0
 42
0.0000000001
 43
0.0000000001
 12
1.0
 22
0.0
 32
0.0
 13
1.0
 23
0.0
 33
0.0
 40
0.0
 40
0.0
 40
0.0
 40
0.0
 40
0.2
 40
0.2
 40
0.2
 40
0.2
 40
0.4
 40
0.4
 40
0.4
 40
0.4
 40
0.6
 40
0.6
 40
0.6
 40
0.6
 40
1.0
 40
1.0
 40
1.0
 40
1.0
 10
-143.3359
 20
39.2403
 30
0.0
 10
-142.5456
 20
39.2403
 30
0.0
 10
-141.905
 20
36.0141
 30
0.0
 10
-141.905
 20
32.0344
 30
0.0
 10
-141.905
 20
32.0344
 30
0.0
 10
-141.905
 20
28.0545
 30
0.0
 10
-142.5456
 20
24.8283
 30
0.0
 10
-143.3359
 20
24.8283
 30
0.0
 10
-143.3359
 20
24.8283
 30
0.0
 10
-144.1261
 20
24.8283
 30
0.0
 10
-144.7665
 20
28.0545
 30
0.0
 10
-144.7665
 20
32.0344
 30
0.0
 10
-144.7665
 20
32.0344
 30
0.0
 10
-144.7665
 20
36.0141
 30
0.0
 10
-144.1261
 20
39.2403
 30
0.0
 10
-143.3359
 20
39.2403
 30
0.0
  0
ENDSEC
  0
SECTION
  2
OBJECTS
  0
DICTIONARY
  5
C
330
0
100
AcDbDictionary
281
     1
  3
ACAD_GROUP
350
D
  3
ACAD_LAYOUT
350
1A
  3
ACAD_MATERIAL
350
3B
  3
ACAD_MLEADERSTYLE
350
C8
  3
ACAD_MLINESTYLE
350
17
  3
ACAD_PLOTSETTINGS
350
19
  3
ACAD_PLOTSTYLENAME
350
E
  3
ACAD_TABLESTYLE
350
C7
  3
ACAD_VISUALSTYLE
350
2A
  0
DICTIONARY
  5
D
102
{ACAD_REACTORS
330
C
102
}
330
C
100
AcDbDictionary
281
     1
  0
DICTIONARY
  5
1A
102
{ACAD_REACTORS
330
C
102
}
330
C
100
AcDbDictionary
281
     1
  3
Layout1
350
1E
  3
Layout2
350
26
  3
Model
350
22
  0
DICTIONARY
  5
3B
102
{ACAD_REACTORS
330
C
102
}
330
C
100
AcDbDictionary
281
     1
  3
ByBlock
350
3D
  3
ByLayer
350
3C
  3
Global
350
3E
  0
DICTIONARY
  5
C8
102
{ACAD_REACTORS
330
C
102
}
330
C
100
AcDbDictionary
281
     1
  0
DICTIONARY
  5
17
102
{ACAD_REACTORS
330
C
102
}
330
C
100
AcDbDictionary
281
     1
  3
Standard
350
18
  0
DICTIONARY
  5
19
102
{ACAD_REACTORS
330
C
102
}
330
C
100
AcDbDictionary
281
     1
  0
ACDBDICTIONARYWDFLT
  5
E
102
{ACAD_REACTORS
330
C
102
}
330
C
100
AcDbDictionary
281
     1
  3
Normal
350
F
100
AcDbDictionaryWithDefault
340
F
  0
DICTIONARY
  5
C7
102
{ACAD_REACTORS
330
C
102
}
330
C
100
AcDbDictionary
281
     1
  0
DICTIONARY
  5
2A
102
{ACAD_REACTORS
330
C
102
}
330
C
100
AcDbDictionary
281
     1
  3
2dWireframe
350
2F
  3
3D Hidden
350
31
  3
3dWireframe
350
30
  3
Basic
350
32
  3
Brighten
350
36
  3
ColorChange
350
3A
  3
Conceptual
350
34
  3
Dim
350
35
  3
Facepattern
350
39
  3
Flat
350
2B
  3
FlatWithEdges
350
2C
  3
Gouraud
350
2D
  3
GouraudWithEdges
350
2E
  3
Linepattern
350
38
  3
Realistic
350
33
  3
Thicken
350
37
  0
LAYOUT
  5
1E
102
{ACAD_REACTORS
330
1A
102
}
330
1A
100
AcDbPlotSettings
  1

  2
none_device
  4

  6

 40
0.0
 41
0.0
 42
0.0
 43
0.0
 44
0.0
 45
0.0
 46
0.0
 47
0.0
 48
0.0
 49
0.0
140
0.0
141
0.0
142
1.0
143
1.0
 70
   688
 72
     0
 73
     0
 74
     5
  7

 75
    16
 76
     0
 77
     2
 78
   300
147
1.0
148
0.0
149
0.0
100
AcDbLayout
  1
Layout1
 70
     1
 71
     1
 10
0.0
 20
0.0
 11
12.0
 21
9.0
 12
0.0
 22
0.0
 32
0.0
 14
1.000000000000000E+20
 24
1.000000000000000E+20
 34
1.000000000000000E+20
 15
-1.000000000000000E+20
 25
-1.000000000000000E+20
 35
-1.000000000000000E+20
146
0.0
 13
0.0
 23
0.0
 33
0.0
 16
1.0
 26
0.0
 36
0.0
 17
0.0
 27
1.0
 37
0.0
 76
     0
330
1B
  0
LAYOUT
  5
26
102
{ACAD_REACTORS
330
1A
102
}
330
1A
100
AcDbPlotSettings
  1

  2
none_device
  4

  6

 40
0.0
 41
0.0
 42
0.0
 43
0.0
 44
0.0
 45
0.0
 46
0.0
 47
0.0
 48
0.0
 49
0.0
140
0.0
141
0.0
142
1.0
143
1.0
 70
   688
 72
     0
 73
     0
 74
     5
  7

 75
    16
 76
     0
 77
     2
 78
   300
147
1.0
148
0.0
149
0.0
100
AcDbLayout
  1
Layout2
 70
     1
 71
     2
 10
0.0
 20
0.0
 11
0.0
 21
0.0
 12
0.0
 22
0.0
 32
0.0
 14
0.0
 24
0.0
 34
0.0
 15
0.0
 25
0.0
 35
0.0
146
0.0
 13
0.0
 23
0.0
 33
0.0
 16
1.0
 26
0.0
 36
0.0
 17
0.0
 27
1.0
 37
0.0
 76
     0
330
23
  0
LAYOUT
  5
22
102
{ACAD_REACTORS
330
1A
102
}
330
1A
100
AcDbPlotSettings
  1

  2
none_device
  4

  6

 40
0.0
 41
0.0
 42
0.0
 43
0.0
 44
0.0
 45
0.0
 46
0.0
 47
0.0
 48
0.0
 49
0.0
140
0.0
141
0.0
142
1.0
143
1.0
 70
  1712
 72
     0
 73
     0
 74
     0
  7

 75
     0
 76
     0
 77
     2
 78
   300
147
1.0
148
0.0
149
0.0
100
AcDbLayout
  1
Model
 70
     1
 71
     0
 10
0.0
 20
0.0
 11
12.0
 21
9.0
 12
0.0
 22
0.0
 32
0.0
 14
-186.882
 24
-38.4961
 34
0.0
 15
-103.0161
 25
84.5111
 35
0.0
146
0.0
 13
0.0
 23
0.0
 33
0.0
 16
1.0
 26
0.0
 36
0.0
 17
0.0
 27
1.0
 37
0.0
 76
     0
330
1F
331
29
  0
MATERIAL
  5
3D
102
{ACAD_REACTORS
330
3B
102
}
330
3B
100
AcDbMaterial
  1
ByBlock
 72
     1
 94
      127
  0
MATERIAL
  5
3C
102
{ACAD_REACTORS
330
3B
102
}
330
3B
100
AcDbMaterial
  1
ByLayer
 72
     1
 94
      127
  0
MATERIAL
  5
3E
102
{ACAD_REACTORS
330
3B
102
}
330
3B
100
AcDbMaterial
  1
Global
 72
     1
 94
      127
  0
MLINESTYLE
  5
18
102
{ACAD_REACTORS
330
17
102
}
330
17
100
AcDbMlineStyle
  2
Standard
 70
     0
  3

 62
   256
 51
90.0
 52
90.0
 71
     2
 49
0.5
 62
   256
  6
BYLAYER
 49
-0.5
 62
   256
  6
BYLAYER
  0
ACDBPLACEHOLDER
  5
F
102
{ACAD_REACTORS
330
E
102
}
330
E
  0
VISUALSTYLE
  5
2F
102
{ACAD_REACTORS
330
2A
102
}
102
{ACAD_XDICTIONARY
360
AF
102
}
330
2A
100
AcDbVisualStyle
  2
2dWireframe
 70
     4
 71
     0
 72
     2
 73
     0
 90
        0
 40
-0.6
 41
-30.0
 62
     5
 63
     7
421
 16777215
 74
     1
 91
        4
 64
     7
 65
   257
 75
     1
175
     1
 42
1.0
 92
        0
 66
   257
 43
1.0
 76
     1
 77
     6
 78
     2
 67
     7
 79
     5
170
     0
171
     0
290
     0
174
     0
 93
        1
 44
0.0
173
     0
291
     0
 45
0.0
  0
VISUALSTYLE
  5
31
102
{ACAD_REACTORS
330
2A
102
}
102
{ACAD_XDICTIONARY
360
B3
102
}
330
2A
100
AcDbVisualStyle
  2
3D Hidden
 70
     6
 71
     1
 72
     2
 73
     2
 90
        0
 40
-0.6
 41
-30.0
 62
     5
 63
     7
421
 16777215
 74
     2
 91
        2
 64
     7
 65
   257
 75
     2
175
     1
 42
40.0
 92
        0
 66
   257
 43
1.0
 76
     1
 77
     6
 78
     2
 67
     7
 79
     3
170
     0
171
     0
290
     0
174
     0
 93
        1
 44
0.0
173
     0
291
     0
 45
0.0
  0
VISUALSTYLE
  5
30
102
{ACAD_REACTORS
330
2A
102
}
102
{ACAD_XDICTIONARY
360
B1
102
}
330
2A
100
AcDbVisualStyle
  2
3dWireframe
 70
     5
 71
     0
 72
     2
 73
     0
 90
        0
 40
-0.6
 41
-30.0
 62
     5
 63
     7
421
 16777215
 74
     1
 91
        4
 64
     7
 65
   257
 75
     1
175
     1
 42
1.0
 92
        0
 66
   257
 43
1.0
 76
     1
 77
     6
 78
     2
 67
     7
 79
     5
170
     0
171
     0
290
     0
174
     0
 93
        1
 44
0.0
173
     0
291
     0
 45
0.0
  0
VISUALSTYLE
  5
32
102
{ACAD_REACTORS
330
2A
102
}
102
{ACAD_XDICTIONARY
360
B5
102
}
330
2A
100
AcDbVisualStyle
  2
Basic
 70
     7
 71
     1
 72
     0
 73
     1
 90
        0
 40
-0.6
 41
-30.0
 62
     5
 63
     7
421
 16777215
 74
     0
 91
        4
 64
     7
 65
   257
 75
     1
175
     1
 42
1.0
 92
        8
 66
     7
 43
1.0
 76
     1
 77
     6
 78
     2
 67
     7
 79
     5
170
     0
171
     0
290
     0
174
     0
 93
        1
 44
0.0
173
     0
291
     1
 45
0.0
  0
VISUALSTYLE
  5
36
102
{ACAD_REACTORS
330
2A
102
}
102
{ACAD_XDICTIONARY
360
BD
102
}
330
2A
100
AcDbVisualStyle
  2
Brighten
 70
    12
 71
     2
 72
     2
 73
     0
 90
        0
 40
-0.6
 41
-30.0
 62
     5
 63
     7
421
 16777215
 74
     1
 91
        4
 64
     7
 65
   257
 75
     1
175
     1
 42
1.0
 92
        8
 66
     7
 43
1.0
 76
     1
 77
     6
 78
     2
 67
     7
 79
     5
170
     0
171
     0
290
     0
174
     0
 93
        1
 44
50.0
173
     0
291
     1
 45
0.0
  0
VISUALSTYLE
  5
3A
102
{ACAD_REACTORS
330
2A
102
}
102
{ACAD_XDICTIONARY
360
C5
102
}
330
2A
100
AcDbVisualStyle
  2
ColorChange
 70
    16
 71
     2
 72
     2
 73
     3
 90
        0
 40
-0.6
 41
-30.0
 62
     5
 63
     8
421
  8421504
 74
     1
 91
        4
 64
     7
 65
   257
 75
     1
175
     1
 42
1.0
 92
        8
 66
     8
424
  8421504
 43
1.0
 76
     1
 77
     6
 78
     2
 67
     7
 79
     5
170
     0
171
     0
290
     0
174
     0
 93
        1
 44
0.0
173
     0
291
     1
 45
0.0
  0
VISUALSTYLE
  5
34
102
{ACAD_REACTORS
330
2A
102
}
102
{ACAD_XDICTIONARY
360
B9
102
}
330
2A
100
AcDbVisualStyle
  2
Conceptual
 70
     9
 71
     3
 72
     2
 73
     0
 90
        0
 40
-0.6
 41
-30.0
 62
     5
 63
     7
421
 16777215
 74
     2
 91
        2
 64
     7
 65
   257
 75
     1
175
     1
 42
40.0
 92
        8
 66
     7
 43
1.0
 76
     1
 77
     6
 78
     2
 67
     7
 79
     3
170
     0
171
     0
290
     0
174
     0
 93
        1
 44
0.0
173
     0
291
     0
 45
0.0
  0
VISUALSTYLE
  5
35
102
{ACAD_REACTORS
330
2A
102
}
102
{ACAD_XDICTIONARY
360
BB
102
}
330
2A
100
AcDbVisualStyle
  2
Dim
 70
    11
 71
     2
 72
     2
 73
     0
 90
        0
 40
-0.6
 41
-30.0
 62
     5
 63
     7
421
 16777215
 74
     1
 91
        4
 64
     7
 65
   257
 75
     1
175
     1
 42
1.0
 92
        8
 66
     7
 43
1.0
 76
     1
 77
     6
 78
     2
 67
     7
 79
     5
170
     0
171
     0
290
     0
174
     0
 93
        1
 44
-50.0
173
     0
291
     1
 45
0.0
  0
VISUALSTYLE
  5
39
102
{ACAD_REACTORS
330
2A
102
}
102
{ACAD_XDICTIONARY
360
C3
102
}
330
2A
100
AcDbVisualStyle
  2
Facepattern
 70
    15
 71
     2
 72
     2
 73
     0
 90
        0
 40
-0.6
 41
-30.0
 62
     5
 63
     7
421
 16777215
 74
     1
 91
        4
 64
     7
 65
   257
 75
     1
175
     1
 42
1.0
 92
        8
 66
     7
 43
1.0
 76
     1
 77
     6
 78
     2
 67
     7
 79
     5
170
     0
171
     0
290
     0
174
     0
 93
        1
 44
0.0
173
     0
291
     1
 45
0.0
  0
VISUALSTYLE
  5
2B
102
{ACAD_REACTORS
330
2A
102
}
102
{ACAD_XDICTIONARY
360
A7
102
}
330
2A
100
AcDbVisualStyle
  2
Flat
 70
     0
 71
     2
 72
     1
 73
     1
 90
        2
 40
-0.6
 41
30.0
 62
     5
 63
     7
421
 16777215
 74
     0
 91
        4
 64
     7
 65
   257
 75
     1
175
     1
 42
1.0
 92
        8
 66
     7
 43
1.0
 76
     1
 77
     6
 78
     2
 67
     7
 79
     5
170
     0
171
     0
290
     0
174
     0
 93
       13
 44
0.0
173
     0
291
     1
 45
0.0
  0
VISUALSTYLE
  5
2C
102
{ACAD_REACTORS
330
2A
102
}
102
{ACAD_XDICTIONARY
360
A9
102
}
330
2A
100
AcDbVisualStyle
  2
FlatWithEdges
 70
     1
 71
     2
 72
     1
 73
     1
 90
        2
 40
-0.6
 41
30.0
 62
     5
 63
     7
421
 16777215
 74
     1
 91
        4
 64
     7
 65
   257
 75
     1
175
     1
 42
1.0
 92
        0
 66
   257
 43
1.0
 76
     1
 77
     6
 78
     2
 67
     7
 79
     5
170
     0
171
     0
290
     0
174
     0
 93
       13
 44
0.0
173
     0
291
     1
 45
0.0
  0
VISUALSTYLE
  5
2D
102
{ACAD_REACTORS
330
2A
102
}
102
{ACAD_XDICTIONARY
360
AB
102
}
330
2A
100
AcDbVisualStyle
  2
Gouraud
 70
     2
 71
     2
 72
     2
 73
     1
 90
        2
 40
-0.6
 41
30.0
 62
     5
 63
     7
421
 16777215
 74
     0
 91
        4
 64
     7
 65
   257
 75
     1
175
     1
 42
1.0
 92
        0
 66
     7
 43
1.0
 76
     1
 77
     6
 78
     2
 67
     7
 79
     5
170
     0
171
     0
290
     0
174
     0
 93
       13
 44
0.0
173
     0
291
     1
 45
0.0
  0
VISUALSTYLE
  5
2E
102
{ACAD_REACTORS
330
2A
102
}
102
{ACAD_XDICTIONARY
360
AD
102
}
330
2A
100
AcDbVisualStyle
  2
GouraudWithEdges
 70
     3
 71
     2
 72
     2
 73
     1
 90
        2
 40
-0.6
 41
30.0
 62
     5
 63
     7
421
 16777215
 74
     1
 91
        4
 64
     7
 65
   257
 75
     1
175
     1
 42
1.0
 92
        0
 66
   257
 43
1.0
 76
     1
 77
     6
 78
     2
 67
     7
 79
     5
170
     0
171
     0
290
     0
174
     0
 93
       13
 44
0.0
173
     0
291
     1
 45
0.0
  0
VISUALSTYLE
  5
38
102
{ACAD_REACTORS
330
2A
102
}
102
{ACAD_XDICTIONARY
360
C1
102
}
330
2A
100
AcDbVisualStyle
  2
Linepattern
 70
    14
 71
     2
 72
     2
 73
     0
 90
        0
 40
-0.6
 41
-30.0
 62
     5
 63
     7
421
 16777215
 74
     1
 91
        4
 64
     7
 65
   257
 75
     7
175
     7
 42
1.0
 92
        8
 66
     7
 43
1.0
 76
     1
 77
     6
 78
     2
 67
     7
 79
     5
170
     0
171
     0
290
     0
174
     0
 93
        1
 44
0.0
173
     0
291
     1
 45
0.0
  0
VISUALSTYLE
  5
33
102
{ACAD_REACTORS
330
2A
102
}
102
{ACAD_XDICTIONARY
360
B7
102
}
330
2A
100
AcDbVisualStyle
  2
Realistic
 70
     8
 71
     2
 72
     2
 73
     0
 90
        0
 40
-0.6
 41
-30.0
 62
     5
 63
     7
421
 16777215
 74
     1
 91
        0
 64
     7
 65
   257
 75
     1
175
     1
 42
1.0
 92
        8
 66
     8
424
  7895160
 43
1.0
 76
     1
 77
     6
 78
     2
 67
     7
 79
     5
170
     0
171
     0
290
     0
174
     0
 93
       13
 44
0.0
173
     0
291
     0
 45
0.0
  0
VISUALSTYLE
  5
37
102
{ACAD_REACTORS
330
2A
102
}
102
{ACAD_XDICTIONARY
360
BF
102
}
330
2A
100
AcDbVisualStyle
  2
Thicken
 70
    13
 71
     2
 72
     2
 73
     0
 90
        0
 40
-0.6
 41
-30.0
 62
     5
 63
     7
421
 16777215
 74
     1
 91
        4
 64
     7
 65
   257
 75
     1
175
     1
 42
1.0
 92
       12
 66
     7
 43
1.0
 76
     1
 77
     6
 78
     2
 67
     7
 79
     5
170
     0
171
     0
290
     0
174
     0
 93
        1
 44
0.0
173
     0
291
     1
 45
0.0
  0
DICTIONARY
  5
AF
330
2F
100
AcDbDictionary
280
     1
281
     1
  3
ACAD_XREC_ROUNDTRIP
360
B0
  0
DICTIONARY
  5
B3
330
31
100
AcDbDictionary
280
     1
281
     1
  3
ACAD_XREC_ROUNDTRIP
360
B4
  0
DICTIONARY
  5
B1
330
30
100
AcDbDictionary
280
     1
281
     1
  3
ACAD_XREC_ROUNDTRIP
360
B2
  0
DICTIONARY
  5
B5
330
32
100
AcDbDictionary
280
     1
281
     1
  3
ACAD_XREC_ROUNDTRIP
360
B6
  0
DICTIONARY
  5
BD
330
36
100
AcDbDictionary
280
     1
281
     1
  3
ACAD_XREC_ROUNDTRIP
360
BE
  0
DICTIONARY
  5
C5
330
3A
100
AcDbDictionary
280
     1
281
     1
  3
ACAD_XREC_ROUNDTRIP
360
C6
  0
DICTIONARY
  5
B9
330
34
100
AcDbDictionary
280
     1
281
     1
  3
ACAD_XREC_ROUNDTRIP
360
BA
  0
DICTIONARY
  5
BB
330
35
100
AcDbDictionary
280
     1
281
     1
  3
ACAD_XREC_ROUNDTRIP
360
BC
  0
DICTIONARY
  5
C3
330
39
100
AcDbDictionary
280
     1
281
     1
  3
ACAD_XREC_ROUNDTRIP
360
C4
  0
DICTIONARY
  5
A7
330
2B
100
AcDbDictionary
280
     1
281
     1
  3
ACAD_XREC_ROUNDTRIP
360
A8
  0
DICTIONARY
  5
A9
330
2C
100
AcDbDictionary
280
     1
281
     1
  3
ACAD_XREC_ROUNDTRIP
360
AA
  0
DICTIONARY
  5
AB
330
2D
100
AcDbDictionary
280
     1
281
     1
  3
ACAD_XREC_ROUNDTRIP
360
AC
  0
DICTIONARY
  5
AD
330
2E
100
AcDbDictionary
280
     1
281
     1
  3
ACAD_XREC_ROUNDTRIP
360
AE
  0
DICTIONARY
  5
C1
330
38
100
AcDbDictionary
280
     1
281
     1
  3
ACAD_XREC_ROUNDTRIP
360
C2
  0
DICTIONARY
  5
B7
330
33
100
AcDbDictionary
280
     1
281
     1
  3
ACAD_XREC_ROUNDTRIP
360
B8
  0
DICTIONARY
  5
BF
330
37
100
AcDbDictionary
280
     1
281
     1
  3
ACAD_XREC_ROUNDTRIP
360
C0
  0
XRECORD
  5
B0
102
{ACAD_REACTORS
330
AF
102
}
330
AF
100
AcDbXrecord
280
     1
102
RTVSPropertyOp0
 70
     1
102
RTVSPropertyOp1
 70
     1
102
RTVSPropertyOp2
 70
     1
102
RTVSPropertyOp3
 70
     1
102
RTVSPropertyOp4
 70
     1
102
RTVSPropertyOp5
 70
     1
102
RTVSPropertyOp6
 70
     1
102
RTVSPropertyOp7
 70
     1
102
RTVSPropertyOp8
 70
     1
102
RTVSPropertyOp9
 70
     1
102
RTVSPropertyOp10
 70
     1
102
RTVSPropertyOp11
 70
     1
102
RTVSPropertyOp12
 70
     1
102
RTVSPropertyOp13
 70
     1
102
RTVSPropertyOp14
 70
     1
102
RTVSPropertyOp15
 70
     1
102
RTVSPropertyOp16
 70
     1
102
RTVSPropertyOp17
 70
     1
102
RTVSPropertyOp18
 70
     1
102
RTVSPropertyOp19
 70
     1
102
RTVSPropertyOp20
 70
     1
102
RTVSPropertyOp21
 70
     1
102
RTVSPropertyOp22
 70
     1
102
RTVSPropertyOp23
 70
     1
102
RTVSPropertyOp24
 70
     1
102
RTVSPropertyOp25
 70
     1
102
RTVSPropertyOp26
 70
     1
102
RTVSPropertyOp27
 70
     1
102
RTVSPropertyOp28
 70
     1
102
RTVSPropertyOp29
 70
     1
102
RTVSPropertyOp30
 70
     1
102
RTVSPropertyOp31
 70
     1
102
RTVSPropertyOp32
 70
     1
  0
XRECORD
  5
B4
102
{ACAD_REACTORS
330
B3
102
}
330
B3
100
AcDbXrecord
280
     1
102
RTVSPropertyOp0
 70
     1
102
RTVSPropertyOp1
 70
     1
102
RTVSPropertyOp2
 70
     1
102
RTVSPropertyOp3
 70
     1
102
RTVSPropertyOp4
 70
     1
102
RTVSPropertyOp5
 70
     1
102
RTVSPropertyOp6
 70
     1
102
RTVSPropertyOp7
 70
     1
102
RTVSPropertyOp8
 70
     1
102
RTVSPropertyOp9
 70
     1
102
RTVSPropertyOp10
 70
     1
102
RTVSPropertyOp11
 70
     1
102
RTVSPropertyOp12
 70
     1
102
RTVSPropertyOp13
 70
     1
102
RTVSPropertyOp14
 70
     1
102
RTVSPropertyOp15
 70
     1
102
RTVSPropertyOp16
 70
     1
102
RTVSPropertyOp17
 70
     1
102
RTVSPropertyOp18
 70
     1
102
RTVSPropertyOp19
 70
     1
102
RTVSPropertyOp20
 70
     1
102
RTVSPropertyOp21
 70
     1
102
RTVSPropertyOp22
 70
     1
102
RTVSPropertyOp23
 70
     1
102
RTVSPropertyOp24
 70
     1
102
RTVSPropertyOp25
 70
     1
102
RTVSPropertyOp26
 70
     1
102
RTVSPropertyOp27
 70
     1
102
RTVSPropertyOp28
 70
     1
102
RTVSPropertyOp29
 70
     1
102
RTVSPropertyOp30
 70
     1
102
RTVSPropertyOp31
 70
     1
102
RTVSPropertyOp32
 70
     1
  0
XRECORD
  5
B2
102
{ACAD_REACTORS
330
B1
102
}
330
B1
100
AcDbXrecord
280
     1
102
RTVSPropertyOp0
 70
     1
102
RTVSPropertyOp1
 70
     1
102
RTVSPropertyOp2
 70
     1
102
RTVSPropertyOp3
 70
     1
102
RTVSPropertyOp4
 70
     1
102
RTVSPropertyOp5
 70
     1
102
RTVSPropertyOp6
 70
     1
102
RTVSPropertyOp7
 70
     1
102
RTVSPropertyOp8
 70
     1
102
RTVSPropertyOp9
 70
     1
102
RTVSPropertyOp10
 70
     1
102
RTVSPropertyOp11
 70
     1
102
RTVSPropertyOp12
 70
     1
102
RTVSPropertyOp13
 70
     1
102
RTVSPropertyOp14
 70
     1
102
RTVSPropertyOp15
 70
     1
102
RTVSPropertyOp16
 70
     1
102
RTVSPropertyOp17
 70
     1
102
RTVSPropertyOp18
 70
     1
102
RTVSPropertyOp19
 70
     1
102
RTVSPropertyOp20
 70
     1
102
RTVSPropertyOp21
 70
     1
102
RTVSPropertyOp22
 70
     1
102
RTVSPropertyOp23
 70
     1
102
RTVSPropertyOp24
 70
     1
102
RTVSPropertyOp25
 70
     1
102
RTVSPropertyOp26
 70
     1
102
RTVSPropertyOp27
 70
     1
102
RTVSPropertyOp28
 70
     1
102
RTVSPropertyOp29
 70
     1
102
RTVSPropertyOp30
 70
     1
102
RTVSPropertyOp31
 70
     1
102
RTVSPropertyOp32
 70
     1
  0
XRECORD
  5
B6
102
{ACAD_REACTORS
330
B5
102
}
330
B5
100
AcDbXrecord
280
     1
102
RTVSPropertyOp0
 70
     1
102
RTVSPropertyOp1
 70
     1
102
RTVSPropertyOp2
 70
     1
102
RTVSPropertyOp3
 70
     1
102
RTVSPropertyOp4
 70
     1
102
RTVSPropertyOp5
 70
     1
102
RTVSPropertyOp6
 70
     1
102
RTVSPropertyOp7
 70
     1
102
RTVSPropertyOp8
 70
     1
102
RTVSPropertyOp9
 70
     1
102
RTVSPropertyOp10
 70
     1
102
RTVSPropertyOp11
 70
     1
102
RTVSPropertyOp12
 70
     1
102
RTVSPropertyOp13
 70
     1
102
RTVSPropertyOp14
 70
     1
102
RTVSPropertyOp15
 70
     1
102
RTVSPropertyOp16
 70
     1
102
RTVSPropertyOp17
 70
     1
102
RTVSPropertyOp18
 70
     1
102
RTVSPropertyOp19
 70
     1
102
RTVSPropertyOp20
 70
     1
102
RTVSPropertyOp21
 70
     1
102
RTVSPropertyOp22
 70
     1
102
RTVSPropertyOp23
 70
     1
102
RTVSPropertyOp24
 70
     1
102
RTVSPropertyOp25
 70
     1
102
RTVSPropertyOp26
 70
     1
102
RTVSPropertyOp27
 70
     1
102
RTVSPropertyOp28
 70
     1
102
RTVSPropertyOp29
 70
     1
102
RTVSPropertyOp30
 70
     1
102
RTVSPropertyOp31
 70
     1
102
RTVSPropertyOp32
 70
     1
  0
XRECORD
  5
BE
102
{ACAD_REACTORS
330
BD
102
}
330
BD
100
AcDbXrecord
280
     1
102
RTVSPropertyOp0
 70
     1
102
RTVSPropertyOp1
 70
     1
102
RTVSPropertyOp2
 70
     1
102
RTVSPropertyOp3
 70
     1
102
RTVSPropertyOp4
 70
     1
102
RTVSPropertyOp5
 70
     1
102
RTVSPropertyOp6
 70
     1
102
RTVSPropertyOp7
 70
     1
102
RTVSPropertyOp8
 70
     1
102
RTVSPropertyOp9
 70
     1
102
RTVSPropertyOp10
 70
     1
102
RTVSPropertyOp11
 70
     1
102
RTVSPropertyOp12
 70
     1
102
RTVSPropertyOp13
 70
     1
102
RTVSPropertyOp14
 70
     1
102
RTVSPropertyOp15
 70
     1
102
RTVSPropertyOp16
 70
     1
102
RTVSPropertyOp17
 70
     1
102
RTVSPropertyOp18
 70
     1
102
RTVSPropertyOp19
 70
     1
102
RTVSPropertyOp20
 70
     1
102
RTVSPropertyOp21
 70
     1
102
RTVSPropertyOp22
 70
     1
102
RTVSPropertyOp23
 70
     1
102
RTVSPropertyOp24
 70
     1
102
RTVSPropertyOp25
 70
     1
102
RTVSPropertyOp26
 70
     1
102
RTVSPropertyOp27
 70
     1
102
RTVSPropertyOp28
 70
     1
102
RTVSPropertyOp29
 70
     1
102
RTVSPropertyOp30
 70
     1
102
RTVSPropertyOp31
 70
     1
102
RTVSPropertyOp32
 70
     1
  0
XRECORD
  5
C6
102
{ACAD_REACTORS
330
C5
102
}
330
C5
100
AcDbXrecord
280
     1
102
RTVSPropertyOp0
 70
     1
102
RTVSPropertyOp1
 70
     1
102
RTVSPropertyOp2
 70
     1
102
RTVSPropertyOp3
 70
     1
102
RTVSPropertyOp4
 70
     1
102
RTVSPropertyOp5
 70
     1
102
RTVSPropertyOp6
 70
     1
102
RTVSPropertyOp7
 70
     1
102
RTVSPropertyOp8
 70
     1
102
RTVSPropertyOp9
 70
     1
102
RTVSPropertyOp10
 70
     1
102
RTVSPropertyOp11
 70
     1
102
RTVSPropertyOp12
 70
     1
102
RTVSPropertyOp13
 70
     1
102
RTVSPropertyOp14
 70
     1
102
RTVSPropertyOp15
 70
     1
102
RTVSPropertyOp16
 70
     1
102
RTVSPropertyOp17
 70
     1
102
RTVSPropertyOp18
 70
     1
102
RTVSPropertyOp19
 70
     1
102
RTVSPropertyOp20
 70
     1
102
RTVSPropertyOp21
 70
     1
102
RTVSPropertyOp22
 70
     1
102
RTVSPropertyOp23
 70
     1
102
RTVSPropertyOp24
 70
     1
102
RTVSPropertyOp25
 70
     1
102
RTVSPropertyOp26
 70
     1
102
RTVSPropertyOp27
 70
     1
102
RTVSPropertyOp28
 70
     1
102
RTVSPropertyOp29
 70
     1
102
RTVSPropertyOp30
 70
     1
102
RTVSPropertyOp31
 70
     1
102
RTVSPropertyOp32
 70
     1
  0
XRECORD
  5
BA
102
{ACAD_REACTORS
330
B9
102
}
330
B9
100
AcDbXrecord
280
     1
102
RTVSPropertyOp0
 70
     1
102
RTVSPropertyOp1
 70
     1
102
RTVSPropertyOp2
 70
     1
102
RTVSPropertyOp3
 70
     1
102
RTVSPropertyOp4
 70
     1
102
RTVSPropertyOp5
 70
     1
102
RTVSPropertyOp6
 70
     1
102
RTVSPropertyOp7
 70
     1
102
RTVSPropertyOp8
 70
     1
102
RTVSPropertyOp9
 70
     1
102
RTVSPropertyOp10
 70
     1
102
RTVSPropertyOp11
 70
     1
102
RTVSPropertyOp12
 70
     1
102
RTVSPropertyOp13
 70
     1
102
RTVSPropertyOp14
 70
     1
102
RTVSPropertyOp15
 70
     1
102
RTVSPropertyOp16
 70
     1
102
RTVSPropertyOp17
 70
     1
102
RTVSPropertyOp18
 70
     1
102
RTVSPropertyOp19
 70
     1
102
RTVSPropertyOp20
 70
     1
102
RTVSPropertyOp21
 70
     1
102
RTVSPropertyOp22
 70
     1
102
RTVSPropertyOp23
 70
     1
102
RTVSPropertyOp24
 70
     1
102
RTVSPropertyOp25
 70
     1
102
RTVSPropertyOp26
 70
     1
102
RTVSPropertyOp27
 70
     1
102
RTVSPropertyOp28
 70
     1
102
RTVSPropertyOp29
 70
     1
102
RTVSPropertyOp30
 70
     1
102
RTVSPropertyOp31
 70
     1
102
RTVSPropertyOp32
 70
     1
  0
XRECORD
  5
BC
102
{ACAD_REACTORS
330
BB
102
}
330
BB
100
AcDbXrecord
280
     1
102
RTVSPropertyOp0
 70
     1
102
RTVSPropertyOp1
 70
     1
102
RTVSPropertyOp2
 70
     1
102
RTVSPropertyOp3
 70
     1
102
RTVSPropertyOp4
 70
     1
102
RTVSPropertyOp5
 70
     1
102
RTVSPropertyOp6
 70
     1
102
RTVSPropertyOp7
 70
     1
102
RTVSPropertyOp8
 70
     1
102
RTVSPropertyOp9
 70
     1
102
RTVSPropertyOp10
 70
     1
102
RTVSPropertyOp11
 70
     1
102
RTVSPropertyOp12
 70
     1
102
RTVSPropertyOp13
 70
     1
102
RTVSPropertyOp14
 70
     1
102
RTVSPropertyOp15
 70
     1
102
RTVSPropertyOp16
 70
     1
102
RTVSPropertyOp17
 70
     1
102
RTVSPropertyOp18
 70
     1
102
RTVSPropertyOp19
 70
     1
102
RTVSPropertyOp20
 70
     1
102
RTVSPropertyOp21
 70
     1
102
RTVSPropertyOp22
 70
     1
102
RTVSPropertyOp23
 70
     1
102
RTVSPropertyOp24
 70
     1
102
RTVSPropertyOp25
 70
     1
102
RTVSPropertyOp26
 70
     1
102
RTVSPropertyOp27
 70
     1
102
RTVSPropertyOp28
 70
     1
102
RTVSPropertyOp29
 70
     1
102
RTVSPropertyOp30
 70
     1
102
RTVSPropertyOp31
 70
     1
102
RTVSPropertyOp32
 70
     1
  0
XRECORD
  5
C4
102
{ACAD_REACTORS
330
C3
102
}
330
C3
100
AcDbXrecord
280
     1
102
RTVSPropertyOp0
 70
     1
102
RTVSPropertyOp1
 70
     1
102
RTVSPropertyOp2
 70
     1
102
RTVSPropertyOp3
 70
     1
102
RTVSPropertyOp4
 70
     1
102
RTVSPropertyOp5
 70
     1
102
RTVSPropertyOp6
 70
     1
102
RTVSPropertyOp7
 70
     1
102
RTVSPropertyOp8
 70
     1
102
RTVSPropertyOp9
 70
     1
102
RTVSPropertyOp10
 70
     1
102
RTVSPropertyOp11
 70
     1
102
RTVSPropertyOp12
 70
     1
102
RTVSPropertyOp13
 70
     1
102
RTVSPropertyOp14
 70
     1
102
RTVSPropertyOp15
 70
     1
102
RTVSPropertyOp16
 70
     1
102
RTVSPropertyOp17
 70
     1
102
RTVSPropertyOp18
 70
     1
102
RTVSPropertyOp19
 70
     1
102
RTVSPropertyOp20
 70
     1
102
RTVSPropertyOp21
 70
     1
102
RTVSPropertyOp22
 70
     1
102
RTVSPropertyOp23
 70
     1
102
RTVSPropertyOp24
 70
     1
102
RTVSPropertyOp25
 70
     1
102
RTVSPropertyOp26
 70
     1
102
RTVSPropertyOp27
 70
     1
102
RTVSPropertyOp28
 70
     1
102
RTVSPropertyOp29
 70
     1
102
RTVSPropertyOp30
 70
     1
102
RTVSPropertyOp31
 70
     1
102
RTVSPropertyOp32
 70
     1
  0
XRECORD
  5
A8
102
{ACAD_REACTORS
330
A7
102
}
330
A7
100
AcDbXrecord
280
     1
102
RTVSPropertyOp0
 70
     1
102
RTVSPropertyOp1
 70
     1
102
RTVSPropertyOp2
 70
     1
102
RTVSPropertyOp3
 70
     1
102
RTVSPropertyOp4
 70
     1
102
RTVSPropertyOp5
 70
     1
102
RTVSPropertyOp6
 70
     1
102
RTVSPropertyOp7
 70
     1
102
RTVSPropertyOp8
 70
     1
102
RTVSPropertyOp9
 70
     1
102
RTVSPropertyOp10
 70
     1
102
RTVSPropertyOp11
 70
     1
102
RTVSPropertyOp12
 70
     1
102
RTVSPropertyOp13
 70
     1
102
RTVSPropertyOp14
 70
     1
102
RTVSPropertyOp15
 70
     1
102
RTVSPropertyOp16
 70
     1
102
RTVSPropertyOp17
 70
     1
102
RTVSPropertyOp18
 70
     1
102
RTVSPropertyOp19
 70
     1
102
RTVSPropertyOp20
 70
     1
102
RTVSPropertyOp21
 70
     1
102
RTVSPropertyOp22
 70
     1
102
RTVSPropertyOp23
 70
     1
102
RTVSPropertyOp24
 70
     1
102
RTVSPropertyOp25
 70
     1
102
RTVSPropertyOp26
 70
     1
102
RTVSPropertyOp27
 70
     1
102
RTVSPropertyOp28
 70
     1
102
RTVSPropertyOp29
 70
     1
102
RTVSPropertyOp30
 70
     1
102
RTVSPropertyOp31
 70
     1
102
RTVSPropertyOp32
 70
     1
  0
XRECORD
  5
AA
102
{ACAD_REACTORS
330
A9
102
}
330
A9
100
AcDbXrecord
280
     1
102
RTVSPropertyOp0
 70
     1
102
RTVSPropertyOp1
 70
     1
102
RTVSPropertyOp2
 70
     1
102
RTVSPropertyOp3
 70
     1
102
RTVSPropertyOp4
 70
     1
102
RTVSPropertyOp5
 70
     1
102
RTVSPropertyOp6
 70
     1
102
RTVSPropertyOp7
 70
     1
102
RTVSPropertyOp8
 70
     1
102
RTVSPropertyOp9
 70
     1
102
RTVSPropertyOp10
 70
     1
102
RTVSPropertyOp11
 70
     1
102
RTVSPropertyOp12
 70
     1
102
RTVSPropertyOp13
 70
     1
102
RTVSPropertyOp14
 70
     1
102
RTVSPropertyOp15
 70
     1
102
RTVSPropertyOp16
 70
     1
102
RTVSPropertyOp17
 70
     1
102
RTVSPropertyOp18
 70
     1
102
RTVSPropertyOp19
 70
     1
102
RTVSPropertyOp20
 70
     1
102
RTVSPropertyOp21
 70
     1
102
RTVSPropertyOp22
 70
     1
102
RTVSPropertyOp23
 70
     1
102
RTVSPropertyOp24
 70
     1
102
RTVSPropertyOp25
 70
     1
102
RTVSPropertyOp26
 70
     1
102
RTVSPropertyOp27
 70
     1
102
RTVSPropertyOp28
 70
     1
102
RTVSPropertyOp29
 70
     1
102
RTVSPropertyOp30
 70
     1
102
RTVSPropertyOp31
 70
     1
102
RTVSPropertyOp32
 70
     1
  0
XRECORD
  5
AC
102
{ACAD_REACTORS
330
AB
102
}
330
AB
100
AcDbXrecord
280
     1
102
RTVSPropertyOp0
 70
     1
102
RTVSPropertyOp1
 70
     1
102
RTVSPropertyOp2
 70
     1
102
RTVSPropertyOp3
 70
     1
102
RTVSPropertyOp4
 70
     1
102
RTVSPropertyOp5
 70
     1
102
RTVSPropertyOp6
 70
     1
102
RTVSPropertyOp7
 70
     1
102
RTVSPropertyOp8
 70
     1
102
RTVSPropertyOp9
 70
     1
102
RTVSPropertyOp10
 70
     1
102
RTVSPropertyOp11
 70
     1
102
RTVSPropertyOp12
 70
     1
102
RTVSPropertyOp13
 70
     1
102
RTVSPropertyOp14
 70
     1
102
RTVSPropertyOp15
 70
     1
102
RTVSPropertyOp16
 70
     1
102
RTVSPropertyOp17
 70
     1
102
RTVSPropertyOp18
 70
     1
102
RTVSPropertyOp19
 70
     1
102
RTVSPropertyOp20
 70
     1
102
RTVSPropertyOp21
 70
     1
102
RTVSPropertyOp22
 70
     1
102
RTVSPropertyOp23
 70
     1
102
RTVSPropertyOp24
 70
     1
102
RTVSPropertyOp25
 70
     1
102
RTVSPropertyOp26
 70
     1
102
RTVSPropertyOp27
 70
     1
102
RTVSPropertyOp28
 70
     1
102
RTVSPropertyOp29
 70
     1
102
RTVSPropertyOp30
 70
     1
102
RTVSPropertyOp31
 70
     1
102
RTVSPropertyOp32
 70
     1
  0
XRECORD
  5
AE
102
{ACAD_REACTORS
330
AD
102
}
330
AD
100
AcDbXrecord
280
     1
102
RTVSPropertyOp0
 70
     1
102
RTVSPropertyOp1
 70
     1
102
RTVSPropertyOp2
 70
     1
102
RTVSPropertyOp3
 70
     1
102
RTVSPropertyOp4
 70
     1
102
RTVSPropertyOp5
 70
     1
102
RTVSPropertyOp6
 70
     1
102
RTVSPropertyOp7
 70
     1
102
RTVSPropertyOp8
 70
     1
102
RTVSPropertyOp9
 70
     1
102
RTVSPropertyOp10
 70
     1
102
RTVSPropertyOp11
 70
     1
102
RTVSPropertyOp12
 70
     1
102
RTVSPropertyOp13
 70
     1
102
RTVSPropertyOp14
 70
     1
102
RTVSPropertyOp15
 70
     1
102
RTVSPropertyOp16
 70
     1
102
RTVSPropertyOp17
 70
     1
102
RTVSPropertyOp18
 70
     1
102
RTVSPropertyOp19
 70
     1
102
RTVSPropertyOp20
 70
     1
102
RTVSPropertyOp21
 70
     1
102
RTVSPropertyOp22
 70
     1
102
RTVSPropertyOp23
 70
     1
102
RTVSPropertyOp24
 70
     1
102
RTVSPropertyOp25
 70
     1
102
RTVSPropertyOp26
 70
     1
102
RTVSPropertyOp27
 70
     1
102
RTVSPropertyOp28
 70
     1
102
RTVSPropertyOp29
 70
     1
102
RTVSPropertyOp30
 70
     1
102
RTVSPropertyOp31
 70
     1
102
RTVSPropertyOp32
 70
     1
  0
XRECORD
  5
C2
102
{ACAD_REACTORS
330
C1
102
}
330
C1
100
AcDbXrecord
280
     1
102
RTVSPropertyOp0
 70
     1
102
RTVSPropertyOp1
 70
     1
102
RTVSPropertyOp2
 70
     1
102
RTVSPropertyOp3
 70
     1
102
RTVSPropertyOp4
 70
     1
102
RTVSPropertyOp5
 70
     1
102
RTVSPropertyOp6
 70
     1
102
RTVSPropertyOp7
 70
     1
102
RTVSPropertyOp8
 70
     1
102
RTVSPropertyOp9
 70
     1
102
RTVSPropertyOp10
 70
     1
102
RTVSPropertyOp11
 70
     1
102
RTVSPropertyOp12
 70
     1
102
RTVSPropertyOp13
 70
     1
102
RTVSPropertyOp14
 70
     1
102
RTVSPropertyOp15
 70
     1
102
RTVSPropertyOp16
 70
     1
102
RTVSPropertyOp17
 70
     1
102
RTVSPropertyOp18
 70
     1
102
RTVSPropertyOp19
 70
     1
102
RTVSPropertyOp20
 70
     1
102
RTVSPropertyOp21
 70
     1
102
RTVSPropertyOp22
 70
     1
102
RTVSPropertyOp23
 70
     1
102
RTVSPropertyOp24
 70
     1
102
RTVSPropertyOp25
 70
     1
102
RTVSPropertyOp26
 70
     1
102
RTVSPropertyOp27
 70
     1
102
RTVSPropertyOp28
 70
     1
102
RTVSPropertyOp29
 70
     1
102
RTVSPropertyOp30
 70
     1
102
RTVSPropertyOp31
 70
     1
102
RTVSPropertyOp32
 70
     1
  0
XRECORD
  5
B8
102
{ACAD_REACTORS
330
B7
102
}
330
B7
100
AcDbXrecord
280
     1
102
RTVSPropertyOp0
 70
     1
102
RTVSPropertyOp1
 70
     1
102
RTVSPropertyOp2
 70
     1
102
RTVSPropertyOp3
 70
     1
102
RTVSPropertyOp4
 70
     1
102
RTVSPropertyOp5
 70
     1
102
RTVSPropertyOp6
 70
     1
102
RTVSPropertyOp7
 70
     1
102
RTVSPropertyOp8
 70
     1
102
RTVSPropertyOp9
 70
     1
102
RTVSPropertyOp10
 70
     1
102
RTVSPropertyOp11
 70
     1
102
RTVSPropertyOp12
 70
     1
102
RTVSPropertyOp13
 70
     1
102
RTVSPropertyOp14
 70
     1
102
RTVSPropertyOp15
 70
     1
102
RTVSPropertyOp16
 70
     1
102
RTVSPropertyOp17
 70
     1
102
RTVSPropertyOp18
 70
     1
102
RTVSPropertyOp19
 70
     1
102
RTVSPropertyOp20
 70
     1
102
RTVSPropertyOp21
 70
     1
102
RTVSPropertyOp22
 70
     1
102
RTVSPropertyOp23
 70
     1
102
RTVSPropertyOp24
 70
     1
102
RTVSPropertyOp25
 70
     1
102
RTVSPropertyOp26
 70
     1
102
RTVSPropertyOp27
 70
     1
102
RTVSPropertyOp28
 70
     1
102
RTVSPropertyOp29
 70
     1
102
RTVSPropertyOp30
 70
     1
102
RTVSPropertyOp31
 70
     1
102
RTVSPropertyOp32
 70
     1
  0
XRECORD
  5
C0
102
{ACAD_REACTORS
330
BF
102
}
330
BF
100
AcDbXrecord
280
     1
102
RTVSPropertyOp0
 70
     1
102
RTVSPropertyOp1
 70
     1
102
RTVSPropertyOp2
 70
     1
102
RTVSPropertyOp3
 70
     1
102
RTVSPropertyOp4
 70
     1
102
RTVSPropertyOp5
 70
     1
102
RTVSPropertyOp6
 70
     1
102
RTVSPropertyOp7
 70
     1
102
RTVSPropertyOp8
 70
     1
102
RTVSPropertyOp9
 70
     1
102
RTVSPropertyOp10
 70
     1
102
RTVSPropertyOp11
 70
     1
102
RTVSPropertyOp12
 70
     1
102
RTVSPropertyOp13
 70
     1
102
RTVSPropertyOp14
 70
     1
102
RTVSPropertyOp15
 70
     1
102
RTVSPropertyOp16
 70
     1
102
RTVSPropertyOp17
 70
     1
102
RTVSPropertyOp18
 70
     1
102
RTVSPropertyOp19
 70
     1
102
RTVSPropertyOp20
 70
     1
102
RTVSPropertyOp21
 70
     1
102
RTVSPropertyOp22
 70
     1
102
RTVSPropertyOp23
 70
     1
102
RTVSPropertyOp24
 70
     1
102
RTVSPropertyOp25
 70
     1
102
RTVSPropertyOp26
 70
     1
102
RTVSPropertyOp27
 70
     1
102
RTVSPropertyOp28
 70
     1
102
RTVSPropertyOp29
 70
     1
102
RTVSPropertyOp30
 70
     1
102
RTVSPropertyOp31
 70
     1
102
RTVSPropertyOp32
 70
     1
  0
ENDSEC
  0
EOF
