  0
SECTION
  2
HEADER
  9
$ACADVER
  1
AC1021
  9
$ACADMAINTVER
 70
    25
  9
$DWGCODEPAGE
  3
ANSI_1252
  9
$INSBASE
 10
0.0
 20
0.0
 30
0.0
  9
$EXTMIN
 10
26.2473
 20
-114.5887
 30
0.0
  9
$EXTMAX
 10
195.8745
 20
131.8639
 30
0.0
  9
$LIMMIN
 10
0.0
 20
0.0
  9
$LIMMAX
 10
12.0
 20
9.0
  9
$ORTHOMODE
 70
     0
  9
$REGENMODE
 70
     1
  9
$FILLMODE
 70
     1
  9
$QTEXTMODE
 70
     0
  9
$MIRRTEXT
 70
     1
  9
$LTSCALE
 40
1.0
  9
$ATTMODE
 70
     1
  9
$TEXTSIZE
 40
0.2
  9
$TRACEWID
 40
0.05
  9
$TEXTSTYLE
  7
Standard
  9
$CLAYER
  8
0
  9
$CELTYPE
  6
ByLayer
  9
$CECOLOR
 62
   256
  9
$CELTSCALE
 40
1.0
  9
$DISPSILH
 70
     0
  9
$DIMSCALE
 40
1.0
  9
$DIMASZ
 40
0.18
  9
$DIMEXO
 40
0.0625
  9
$DIMDLI
 40
0.38
  9
$DIMRND
 40
0.0
  9
$DIMDLE
 40
0.0
  9
$DIMEXE
 40
0.18
  9
$DIMTP
 40
0.0
  9
$DIMTM
 40
0.0
  9
$DIMTXT
 40
0.18
  9
$DIMCEN
 40
0.09
  9
$DIMTSZ
 40
0.0
  9
$DIMTOL
 70
     0
  9
$DIMLIM
 70
     0
  9
$DIMTIH
 70
     1
  9
$DIMTOH
 70
     1
  9
$DIMSE1
 70
     0
  9
$DIMSE2
 70
     0
  9
$DIMTAD
 70
     0
  9
$DIMZIN
 70
     0
  9
$DIMBLK
  1

  9
$DIMASO
 70
     1
  9
$DIMSHO
 70
     1
  9
$DIMPOST
  1

  9
$DIMAPOST
  1

  9
$DIMALT
 70
     0
  9
$DIMALTD
 70
     2
  9
$DIMALTF
 40
25.4
  9
$DIMLFAC
 40
1.0
  9
$DIMTOFL
 70
     0
  9
$DIMTVP
 40
0.0
  9
$DIMTIX
 70
     0
  9
$DIMSOXD
 70
     0
  9
$DIMSAH
 70
     0
  9
$DIMBLK1
  1

  9
$DIMBLK2
  1

  9
$DIMSTYLE
  2
Standard
  9
$DIMCLRD
 70
     0
  9
$DIMCLRE
 70
     0
  9
$DIMCLRT
 70
     0
  9
$DIMTFAC
 40
1.0
  9
$DIMGAP
 40
0.09
  9
$DIMJUST
 70
     0
  9
$DIMSD1
 70
     0
  9
$DIMSD2
 70
     0
  9
$DIMTOLJ
 70
     1
  9
$DIMTZIN
 70
     0
  9
$DIMALTZ
 70
     0
  9
$DIMALTTZ
 70
     0
  9
$DIMUPT
 70
     0
  9
$DIMDEC
 70
     4
  9
$DIMTDEC
 70
     4
  9
$DIMALTU
 70
     2
  9
$DIMALTTD
 70
     2
  9
$DIMTXSTY
  7
Standard
  9
$DIMAUNIT
 70
     0
  9
$DIMADEC
 70
     0
  9
$DIMALTRND
 40
0.0
  9
$DIMAZIN
 70
     0
  9
$DIMDSEP
 70
    46
  9
$DIMATFIT
 70
     3
  9
$DIMFRAC
 70
     0
  9
$DIMLDRBLK
  1

  9
$DIMLUNIT
 70
     2
  9
$DIMLWD
 70
    -2
  9
$DIMLWE
 70
    -2
  9
$DIMTMOVE
 70
     0
  9
$DIMFXL
 40
1.0
  9
$DIMFXLON
 70
     0
  9
$DIMJOGANG
 40
0.7853981633974483
  9
$DIMTFILL
 70
     0
  9
$DIMTFILLCLR
 70
     0
  9
$DIMARCSYM
 70
     0
  9
$DIMLTYPE
  6

  9
$DIMLTEX1
  6

  9
$DIMLTEX2
  6

  9
$LUNITS
 70
     2
  9
$LUPREC
 70
     4
  9
$SKETCHINC
 40
0.1
  9
$FILLETRAD
 40
0.5
  9
$AUNITS
 70
     0
  9
$AUPREC
 70
     0
  9
$MENU
  1
.
  9
$ELEVATION
 40
0.0
  9
$PELEVATION
 40
0.0
  9
$THICKNESS
 40
0.0
  9
$LIMCHECK
 70
     0
  9
$CHAMFERA
 40
0.5
  9
$CHAMFERB
 40
0.5
  9
$CHAMFERC
 40
1.0
  9
$CHAMFERD
 40
0.0
  9
$SKPOLY
 70
     0
  9
$TDCREATE
 40
2458492.861359525
  9
$TDUCREATE
 40
2458492.861359525
  9
$TDUPDATE
 40
2458492.861359595
  9
$TDUUPDATE
 40
2458492.861359595
  9
$TDINDWG
 40
0.0000000116
  9
$TDUSRTIMER
 40
0.0000000116
  9
$USRTIMER
 70
     1
  9
$ANGBASE
 50
0.0
  9
$ANGDIR
 70
     0
  9
$PDMODE
 70
     0
  9
$PDSIZE
 40
0.0
  9
$PLINEWID
 40
0.0
  9
$SPLFRAME
 70
     0
  9
$SPLINETYPE
 70
     6
  9
$SPLINESEGS
 70
     8
  9
$HANDSEED
  5
7A
  9
$SURFTAB1
 70
     6
  9
$SURFTAB2
 70
     6
  9
$SURFTYPE
 70
     6
  9
$SURFU
 70
     6
  9
$SURFV
 70
     6
  9
$UCSBASE
  2

  9
$UCSNAME
  2

  9
$UCSORG
 10
0.0
 20
0.0
 30
0.0
  9
$UCSXDIR
 10
1.0
 20
0.0
 30
0.0
  9
$UCSYDIR
 10
0.0
 20
1.0
 30
0.0
  9
$UCSORTHOREF
  2

  9
$UCSORTHOVIEW
 70
     0
  9
$UCSORGTOP
 10
0.0
 20
0.0
 30
0.0
  9
$UCSORGBOTTOM
 10
0.0
 20
0.0
 30
0.0
  9
$UCSORGLEFT
 10
0.0
 20
0.0
 30
0.0
  9
$UCSORGRIGHT
 10
0.0
 20
0.0
 30
0.0
  9
$UCSORGFRONT
 10
0.0
 20
0.0
 30
0.0
  9
$UCSORGBACK
 10
0.0
 20
0.0
 30
0.0
  9
$PUCSBASE
  2

  9
$PUCSNAME
  2

  9
$PUCSORG
 10
0.0
 20
0.0
 30
0.0
  9
$PUCSXDIR
 10
1.0
 20
0.0
 30
0.0
  9
$PUCSYDIR
 10
0.0
 20
1.0
 30
0.0
  9
$PUCSORTHOREF
  2

  9
$PUCSORTHOVIEW
 70
     0
  9
$PUCSORGTOP
 10
0.0
 20
0.0
 30
0.0
  9
$PUCSORGBOTTOM
 10
0.0
 20
0.0
 30
0.0
  9
$PUCSORGLEFT
 10
0.0
 20
0.0
 30
0.0
  9
$PUCSORGRIGHT
 10
0.0
 20
0.0
 30
0.0
  9
$PUCSORGFRONT
 10
0.0
 20
0.0
 30
0.0
  9
$PUCSORGBACK
 10
0.0
 20
0.0
 30
0.0
  9
$USERI1
 70
     0
  9
$USERI2
 70
     0
  9
$USERI3
 70
     0
  9
$USERI4
 70
     0
  9
$USERI5
 70
     0
  9
$USERR1
 40
0.0
  9
$USERR2
 40
0.0
  9
$USERR3
 40
0.0
  9
$USERR4
 40
0.0
  9
$USERR5
 40
0.0
  9
$WORLDVIEW
 70
     1
  9
$SHADEDGE
 70
     3
  9
$SHADEDIF
 70
    70
  9
$TILEMODE
 70
     1
  9
$MAXACTVP
 70
    64
  9
$PINSBASE
 10
0.0
 20
0.0
 30
0.0
  9
$PLIMCHECK
 70
     0
  9
$PEXTMIN
 10
1.000000000000000E+20
 20
1.000000000000000E+20
 30
1.000000000000000E+20
  9
$PEXTMAX
 10
-1.000000000000000E+20
 20
-1.000000000000000E+20
 30
-1.000000000000000E+20
  9
$PLIMMIN
 10
0.0
 20
0.0
  9
$PLIMMAX
 10
12.0
 20
9.0
  9
$UNITMODE
 70
     0
  9
$VISRETAIN
 70
     1
  9
$PLINEGEN
 70
     0
  9
$PSLTSCALE
 70
     1
  9
$TREEDEPTH
 70
  3020
  9
$CMLSTYLE
  2
Standard
  9
$CMLJUST
 70
     0
  9
$CMLSCALE
 40
1.0
  9
$PROXYGRAPHICS
 70
     1
  9
$MEASUREMENT
 70
     0
  9
$CELWEIGHT
370
    -1
  9
$ENDCAPS
280
     0
  9
$JOINSTYLE
280
     0
  9
$LWDISPLAY
290
     0
  9
$INSUNITS
 70
     4
  9
$HYPERLINKBASE
  1

  9
$STYLESHEET
  1

  9
$XEDIT
290
     1
  9
$CEPSNTYPE
380
     0
  9
$PSTYLEMODE
290
     1
  9
$FINGERPRINTGUID
  2
{8E946511-0C5E-4A3B-9039-1FEF3C84A737}
  9
$VERSIONGUID
  2
{FAEB1C32-E019-11D5-929B-00C0DF256EC4}
  9
$EXTNAMES
290
     1
  9
$PSVPSCALE
 40
0.0
  9
$OLESTARTUP
290
     0
  9
$SORTENTS
280
   127
  9
$INDEXCTL
280
     0
  9
$HIDETEXT
280
     1
  9
$XCLIPFRAME
290
     0
  9
$HALOGAP
280
     0
  9
$OBSCOLOR
 70
   257
  9
$OBSLTYPE
280
     0
  9
$INTERSECTIONDISPLAY
280
     0
  9
$INTERSECTIONCOLOR
 70
   257
  9
$DIMASSOC
280
     2
  9
$PROJECTNAME
  1

  9
$CAMERADISPLAY
290
     0
  9
$LENSLENGTH
 40
50.0
  9
$CAMERAHEIGHT
 40
0.0
  9
$STEPSPERSEC
 40
2.0
  9
$STEPSIZE
 40
6.0
  9
$3DDWFPREC
 40
2.0
  9
$PSOLWIDTH
 40
0.25
  9
$PSOLHEIGHT
 40
4.0
  9
$LOFTANG1
 40
1.570796326794897
  9
$LOFTANG2
 40
1.570796326794897
  9
$LOFTMAG1
 40
0.0
  9
$LOFTMAG2
 40
0.0
  9
$LOFTPARAM
 70
     7
  9
$LOFTNORMALS
280
     1
  9
$LATITUDE
 40
37.795
  9
$LONGITUDE
 40
-122.394
  9
$NORTHDIRECTION
 40
0.0
  9
$TIMEZONE
 70
 -8000
  9
$LIGHTGLYPHDISPLAY
280
     1
  9
$TILEMODELIGHTSYNCH
280
     1
  9
$SOLIDHIST
280
     1
  9
$SHOWHIST
280
     1
  9
$DWFFRAME
280
     2
  9
$DGNFRAME
280
     2
  9
$REALWORLDSCALE
290
     1
  9
$INTERFERECOLOR
 62
   256
  9
$CSHADOW
280
     0
  9
$SHADOWPLANELOCATION
 40
0.0
  0
ENDSEC
  0
SECTION
  2
CLASSES
  0
CLASS
  1
ACDBDICTIONARYWDFLT
  2
AcDbDictionaryWithDefault
  3
ObjectDBX Classes
 90
        0
 91
        4
280
     0
281
     0
  0
CLASS
  1
VISUALSTYLE
  2
AcDbVisualStyle
  3
ObjectDBX Classes
 90
     4095
 91
        4
280
     0
281
     0
  0
CLASS
  1
MATERIAL
  2
AcDbMaterial
  3
ObjectDBX Classes
 90
     1153
 91
        4
280
     0
281
     0
  0
ENDSEC
  0
SECTION
  2
TABLES
  0
TABLE
  2
VPORT
  5
8
330
0
100
AcDbSymbolTable
 70
     1
  0
VPORT
  5
29
330
8
100
AcDbSymbolTableRecord
100
AcDbViewportTableRecord
  2
*Active
 70
     0
 10
0.0
 20
0.0
 11
1.0
 21
1.0
 12
10.42990654205607
 22
4.5
 13
0.0
 23
0.0
 14
0.5
 24
0.5
 15
0.5
 25
0.5
 16
0.0
 26
0.0
 36
1.0
 17
0.0
 27
0.0
 37
0.0
 40
9.0
 41
1.972972972850329
 42
50.0
 43
0.0
 44
0.0
 50
0.0
 51
0.0
 71
     0
 72
   100
 73
     1
 74
     3
 75
     0
 76
     0
 77
     0
 78
     0
281
     0
 65
     1
110
0.0
120
0.0
130
0.0
111
1.0
121
0.0
131
0.0
112
0.0
122
1.0
132
0.0
 79
     0
146
0.0
 60
     3
 61
     5
292
     1
282
     1
141
0.0
142
0.0
 63
   250
  0
ENDTAB
  0
TABLE
  2
LTYPE
  5
5
330
0
100
AcDbSymbolTable
 70
     1
  0
LTYPE
  5
14
330
5
100
AcDbSymbolTableRecord
100
AcDbLinetypeTableRecord
  2
ByBlock
 70
     0
  3

 72
    65
 73
     0
 40
0.0
  0
LTYPE
  5
15
330
5
100
AcDbSymbolTableRecord
100
AcDbLinetypeTableRecord
  2
ByLayer
 70
     0
  3

 72
    65
 73
     0
 40
0.0
  0
LTYPE
  5
16
330
5
100
AcDbSymbolTableRecord
100
AcDbLinetypeTableRecord
  2
Continuous
 70
     0
  3
Solid line
 72
    65
 73
     0
 40
0.0
  0
ENDTAB
  0
TABLE
  2
LAYER
  5
2
330
0
100
AcDbSymbolTable
 70
     3
  0
LAYER
  5
10
330
2
100
AcDbSymbolTableRecord
100
AcDbLayerTableRecord
  2
0
 70
     0
 62
     7
  6
Continuous
370
    -3
390
F
347
3E
  0
LAYER
  5
40
330
2
100
AcDbSymbolTableRecord
100
AcDbLayerTableRecord
  2
layer 1
 70
     0
 62
     7
  6
Continuous
370
    -3
390
F
347
3E
  0
LAYER
  5
57
330
2
100
AcDbSymbolTableRecord
100
AcDbLayerTableRecord
  2
Master Guides
 70
     0
 62
     7
  6
Continuous
370
    -3
390
F
347
3E
  0
ENDTAB
  0
TABLE
  2
STYLE
  5
3
330
0
100
AcDbSymbolTable
 70
     1
  0
STYLE
  5
11
330
3
100
AcDbSymbolTableRecord
100
AcDbTextStyleTableRecord
  2
Standard
 70
     0
 40
0.0
 41
1.0
 50
0.0
 71
     0
 42
0.2
  3
txt
  4

  0
ENDTAB
  0
TABLE
  2
VIEW
  5
6
330
0
100
AcDbSymbolTable
 70
     0
  0
ENDTAB
  0
TABLE
  2
UCS
  5
7
330
0
100
AcDbSymbolTable
 70
     0
  0
ENDTAB
  0
TABLE
  2
APPID
  5
9
330
0
100
AcDbSymbolTable
 70
     2
  0
APPID
  5
12
330
9
100
AcDbSymbolTableRecord
100
AcDbRegAppTableRecord
  2
ACAD
 70
     0
  0
APPID
  5
3F
330
9
100
AcDbSymbolTableRecord
100
AcDbRegAppTableRecord
  2
ODA
 70
     0
  0
ENDTAB
  0
TABLE
  2
DIMSTYLE
  5
A
330
0
100
AcDbSymbolTable
 70
     1
100
AcDbDimStyleTable
  0
DIMSTYLE
105
27
330
A
100
AcDbSymbolTableRecord
100
AcDbDimStyleTableRecord
  2
Standard
 70
     0
178
     0
340
11
  0
ENDTAB
  0
TABLE
  2
BLOCK_RECORD
  5
1
330
0
100
AcDbSymbolTable
 70
     1
  0
BLOCK_RECORD
  5
1F
330
1
100
AcDbSymbolTableRecord
100
AcDbBlockTableRecord
  2
*Model_Space
340
22
 70
     0
280
     1
281
     0
  0
BLOCK_RECORD
  5
1B
330
1
100
AcDbSymbolTableRecord
100
AcDbBlockTableRecord
  2
*Paper_Space
340
1E
 70
     0
280
     1
281
     0
  0
BLOCK_RECORD
  5
23
330
1
100
AcDbSymbolTableRecord
100
AcDbBlockTableRecord
  2
*Paper_Space0
340
26
 70
     0
280
     1
281
     0
  0
ENDTAB
  0
ENDSEC
  0
SECTION
  2
BLOCKS
  0
BLOCK
  5
20
330
1F
100
AcDbEntity
  8
0
100
AcDbBlockBegin
  2
*Model_Space
 70
     0
 10
0.0
 20
0.0
 30
0.0
  3
*Model_Space
  1

  0
ENDBLK
  5
21
330
1F
100
AcDbEntity
  8
0
100
AcDbBlockEnd
  0
BLOCK
  5
1C
330
1B
100
AcDbEntity
 67
     1
  8
0
100
AcDbBlockBegin
  2
*Paper_Space
 70
     0
 10
0.0
 20
0.0
 30
0.0
  3
*Paper_Space
  1

  0
ENDBLK
  5
1D
330
1B
100
AcDbEntity
 67
     1
  8
0
100
AcDbBlockEnd
  0
BLOCK
  5
24
330
23
100
AcDbEntity
  8
0
100
AcDbBlockBegin
  2
*Paper_Space0
 70
     0
 10
0.0
 20
0.0
 30
0.0
  3
*Paper_Space0
  1

  0
ENDBLK
  5
25
330
23
100
AcDbEntity
  8
0
100
AcDbBlockEnd
  0
ENDSEC
  0
SECTION
  2
ENTITIES
  0
SPLINE
  5
41
330
1F
100
AcDbEntity
  8
layer 1
 62
   250
100
AcDbSpline
210
0.0
220
0.0
230
1.0
 70
    11
 71
     3
 72
    36
 73
    32
 74
     0
 42
0.0000000001
 43
0.0000000001
 12
1.0
 22
0.0
 32
0.0
 13
1.0
 23
0.0
 33
0.0
 40
0.0
 40
0.0
 40
0.0
 40
0.0
 40
0.1111111111111111
 40
0.1111111111111111
 40
0.1111111111111111
 40
0.1111111111111111
 40
0.2222222222222222
 40
0.2222222222222222
 40
0.2222222222222222
 40
0.2222222222222222
 40
0.3333333333333333
 40
0.3333333333333333
 40
0.3333333333333333
 40
0.3333333333333333
 40
0.4444444444444444
 40
0.4444444444444444
 40
0.4444444444444444
 40
0.4444444444444444
 40
0.5555555555555556
 40
0.5555555555555556
 40
0.5555555555555556
 40
0.5555555555555556
 40
0.6666666666666666
 40
0.6666666666666666
 40
0.6666666666666666
 40
0.6666666666666666
 40
0.7777777777777778
 40
0.7777777777777778
 40
0.7777777777777778
 40
0.7777777777777778
 40
1.0
 40
1.0
 40
1.0
 40
1.0
 10
53.8753
 20
-114.5886
 30
0.0
 10
53.8753
 20
-114.5886
 30
0.0
 10
26.2473
 20
-85.9339
 30
0.0
 10
26.2473
 20
-85.9339
 30
0.0
 10
26.2473
 20
-85.9339
 30
0.0
 10
26.2473
 20
-85.9339
 30
0.0
 10
26.3354
 20
109.3877
 30
0.0
 10
26.3354
 20
109.3877
 30
0.0
 10
26.3354
 20
109.3877
 30
0.0
 10
35.9333
 20
117.13
 30
0.0
 10
46.4385
 20
125.4426
 30
0.0
 10
53.9717
 20
131.8639
 30
0.0
 10
53.9717
 20
131.8639
 30
0.0
 10
53.9717
 20
131.8639
 30
0.0
 10
168.6071
 20
131.8639
 30
0.0
 10
168.6071
 20
131.8639
 30
0.0
 10
168.6071
 20
131.8639
 30
0.0
 10
168.6071
 20
131.8639
 30
0.0
 10
195.8745
 20
104.1021
 30
0.0
 10
195.8745
 20
104.1021
 30
0.0
 10
195.8745
 20
104.1021
 30
0.0
 10
195.8745
 20
104.1021
 30
0.0
 10
195.6427
 20
-87.1315
 30
0.0
 10
195.6427
 20
-87.1315
 30
0.0
 10
195.6427
 20
-87.1315
 30
0.0
 10
195.6427
 20
-87.1315
 30
0.0
 10
165.725
 20
-114.5887
 30
0.0
 10
165.725
 20
-114.5887
 30
0.0
 10
165.725
 20
-114.5887
 30
0.0
 10
165.725
 20
-114.5887
 30
0.0
 10
53.8753
 20
-114.5886
 30
0.0
 10
53.8753
 20
-114.5886
 30
0.0
  0
SPLINE
  5
42
330
1F
100
AcDbEntity
  8
layer 1
 62
     7
100
AcDbSpline
210
0.0
220
0.0
230
1.0
 70
    11
 71
     3
 72
    24
 73
    20
 74
     0
 42
0.0000000001
 43
0.0000000001
 12
1.0
 22
0.0
 32
0.0
 13
1.0
 23
0.0
 33
0.0
 40
0.0
 40
0.0
 40
0.0
 40
0.0
 40
0.1666666666666667
 40
0.1666666666666667
 40
0.1666666666666667
 40
0.1666666666666667
 40
0.3333333333333333
 40
0.3333333333333333
 40
0.3333333333333333
 40
0.3333333333333333
 40
0.5
 40
0.5
 40
0.5
 40
0.5
 40
0.6666666666666666
 40
0.6666666666666666
 40
0.6666666666666666
 40
0.6666666666666666
 40
1.0
 40
1.0
 40
1.0
 40
1.0
 10
138.5904
 20
-106.4174
 30
0.0
 10
138.6063
 20
-100.0066
 30
0.0
 10
153.0706
 20
-90.374
 30
0.0
 10
157.4629
 20
-88.1822
 30
0.0
 10
157.4629
 20
-88.1822
 30
0.0
 10
173.7328
 20
-80.7744
 30
0.0
 10
182.3333
 20
-72.9188
 30
0.0
 10
189.1047
 20
-56.3737
 30
0.0
 10
189.1047
 20
-56.3737
 30
0.0
 10
188.7266
 20
-66.0362
 30
0.0
 10
189.1362
 20
-73.678
 30
0.0
 10
189.1047
 20
-83.8721
 30
0.0
 10
189.1047
 20
-83.8721
 30
0.0
 10
189.1047
 20
-83.8721
 30
0.0
 10
164.4115
 20
-106.586
 30
0.0
 10
164.4115
 20
-106.586
 30
0.0
 10
164.4115
 20
-106.586
 30
0.0
 10
164.4115
 20
-106.586
 30
0.0
 10
138.5904
 20
-106.4174
 30
0.0
 10
138.5904
 20
-106.4174
 30
0.0
  0
SPLINE
  5
43
330
1F
100
AcDbEntity
  8
layer 1
 62
     7
100
AcDbSpline
210
0.0
220
0.0
230
1.0
 70
    11
 71
     3
 72
   280
 73
   276
 74
     0
 42
0.0000000001
 43
0.0000000001
 12
1.0
 22
0.0
 32
0.0
 13
1.0
 23
0.0
 33
0.0
 40
0.0
 40
0.0
 40
0.0
 40
0.0
 40
0.0142857142857143
 40
0.0142857142857143
 40
0.0142857142857143
 40
0.0142857142857143
 40
0.0285714285714286
 40
0.0285714285714286
 40
0.0285714285714286
 40
0.0285714285714286
 40
0.0428571428571429
 40
0.0428571428571429
 40
0.0428571428571429
 40
0.0428571428571429
 40
0.0571428571428571
 40
0.0571428571428571
 40
0.0571428571428571
 40
0.0571428571428571
 40
0.0714285714285714
 40
0.0714285714285714
 40
0.0714285714285714
 40
0.0714285714285714
 40
0.0857142857142857
 40
0.0857142857142857
 40
0.0857142857142857
 40
0.0857142857142857
 40
0.1
 40
0.1
 40
0.1
 40
0.1
 40
0.1142857142857143
 40
0.1142857142857143
 40
0.1142857142857143
 40
0.1142857142857143
 40
0.1285714285714286
 40
0.1285714285714286
 40
0.1285714285714286
 40
0.1285714285714286
 40
0.1428571428571428
 40
0.1428571428571428
 40
0.1428571428571428
 40
0.1428571428571428
 40
0.1571428571428571
 40
0.1571428571428571
 40
0.1571428571428571
 40
0.1571428571428571
 40
0.1714285714285714
 40
0.1714285714285714
 40
0.1714285714285714
 40
0.1714285714285714
 40
0.1857142857142857
 40
0.1857142857142857
 40
0.1857142857142857
 40
0.1857142857142857
 40
0.2
 40
0.2
 40
0.2
 40
0.2
 40
0.2142857142857143
 40
0.2142857142857143
 40
0.2142857142857143
 40
0.2142857142857143
 40
0.2285714285714286
 40
0.2285714285714286
 40
0.2285714285714286
 40
0.2285714285714286
 40
0.2428571428571429
 40
0.2428571428571429
 40
0.2428571428571429
 40
0.2428571428571429
 40
0.2571428571428571
 40
0.2571428571428571
 40
0.2571428571428571
 40
0.2571428571428571
 40
0.2714285714285714
 40
0.2714285714285714
 40
0.2714285714285714
 40
0.2714285714285714
 40
0.2857142857142857
 40
0.2857142857142857
 40
0.2857142857142857
 40
0.2857142857142857
 40
0.3
 40
0.3
 40
0.3
 40
0.3
 40
0.3142857142857143
 40
0.3142857142857143
 40
0.3142857142857143
 40
0.3142857142857143
 40
0.3285714285714286
 40
0.3285714285714286
 40
0.3285714285714286
 40
0.3285714285714286
 40
0.3428571428571429
 40
0.3428571428571429
 40
0.3428571428571429
 40
0.3428571428571429
 40
0.3571428571428572
 40
0.3571428571428572
 40
0.3571428571428572
 40
0.3571428571428572
 40
0.3714285714285714
 40
0.3714285714285714
 40
0.3714285714285714
 40
0.3714285714285714
 40
0.3857142857142857
 40
0.3857142857142857
 40
0.3857142857142857
 40
0.3857142857142857
 40
0.4
 40
0.4
 40
0.4
 40
0.4
 40
0.4142857142857143
 40
0.4142857142857143
 40
0.4142857142857143
 40
0.4142857142857143
 40
0.4285714285714285
 40
0.4285714285714285
 40
0.4285714285714285
 40
0.4285714285714285
 40
0.4428571428571428
 40
0.4428571428571428
 40
0.4428571428571428
 40
0.4428571428571428
 40
0.4571428571428571
 40
0.4571428571428571
 40
0.4571428571428571
 40
0.4571428571428571
 40
0.4714285714285714
 40
0.4714285714285714
 40
0.4714285714285714
 40
0.4714285714285714
 40
0.4857142857142857
 40
0.4857142857142857
 40
0.4857142857142857
 40
0.4857142857142857
 40
0.5
 40
0.5
 40
0.5
 40
0.5
 40
0.5142857142857142
 40
0.5142857142857142
 40
0.5142857142857142
 40
0.5142857142857142
 40
0.5285714285714286
 40
0.5285714285714286
 40
0.5285714285714286
 40
0.5285714285714286
 40
0.5428571428571428
 40
0.5428571428571428
 40
0.5428571428571428
 40
0.5428571428571428
 40
0.5571428571428572
 40
0.5571428571428572
 40
0.5571428571428572
 40
0.5571428571428572
 40
0.5714285714285714
 40
0.5714285714285714
 40
0.5714285714285714
 40
0.5714285714285714
 40
0.5857142857142857
 40
0.5857142857142857
 40
0.5857142857142857
 40
0.5857142857142857
 40
0.6
 40
0.6
 40
0.6
 40
0.6
 40
0.6142857142857143
 40
0.6142857142857143
 40
0.6142857142857143
 40
0.6142857142857143
 40
0.6285714285714286
 40
0.6285714285714286
 40
0.6285714285714286
 40
0.6285714285714286
 40
0.6428571428571429
 40
0.6428571428571429
 40
0.6428571428571429
 40
0.6428571428571429
 40
0.6571428571428571
 40
0.6571428571428571
 40
0.6571428571428571
 40
0.6571428571428571
 40
0.6714285714285714
 40
0.6714285714285714
 40
0.6714285714285714
 40
0.6714285714285714
 40
0.6857142857142857
 40
0.6857142857142857
 40
0.6857142857142857
 40
0.6857142857142857
 40
0.7
 40
0.7
 40
0.7
 40
0.7
 40
0.7142857142857143
 40
0.7142857142857143
 40
0.7142857142857143
 40
0.7142857142857143
 40
0.7285714285714285
 40
0.7285714285714285
 40
0.7285714285714285
 40
0.7285714285714285
 40
0.7428571428571429
 40
0.7428571428571429
 40
0.7428571428571429
 40
0.7428571428571429
 40
0.7571428571428571
 40
0.7571428571428571
 40
0.7571428571428571
 40
0.7571428571428571
 40
0.7714285714285715
 40
0.7714285714285715
 40
0.7714285714285715
 40
0.7714285714285715
 40
0.7857142857142857
 40
0.7857142857142857
 40
0.7857142857142857
 40
0.7857142857142857
 40
0.8
 40
0.8
 40
0.8
 40
0.8
 40
0.8142857142857143
 40
0.8142857142857143
 40
0.8142857142857143
 40
0.8142857142857143
 40
0.8285714285714286
 40
0.8285714285714286
 40
0.8285714285714286
 40
0.8285714285714286
 40
0.8428571428571429
 40
0.8428571428571429
 40
0.8428571428571429
 40
0.8428571428571429
 40
0.8571428571428571
 40
0.8571428571428571
 40
0.8571428571428571
 40
0.8571428571428571
 40
0.8714285714285714
 40
0.8714285714285714
 40
0.8714285714285714
 40
0.8714285714285714
 40
0.8857142857142857
 40
0.8857142857142857
 40
0.8857142857142857
 40
0.8857142857142857
 40
0.9
 40
0.9
 40
0.9
 40
0.9
 40
0.9142857142857143
 40
0.9142857142857143
 40
0.9142857142857143
 40
0.9142857142857143
 40
0.9285714285714286
 40
0.9285714285714286
 40
0.9285714285714286
 40
0.9285714285714286
 40
0.9428571428571428
 40
0.9428571428571428
 40
0.9428571428571428
 40
0.9428571428571428
 40
0.9571428571428572
 40
0.9571428571428572
 40
0.9571428571428572
 40
0.9571428571428572
 40
0.9714285714285714
 40
0.9714285714285714
 40
0.9714285714285714
 40
0.9714285714285714
 40
1.0
 40
1.0
 40
1.0
 40
1.0
 10
33.3866
 20
45.8532
 30
0.0
 10
39.7597
 20
36.9091
 30
0.0
 10
43.3111
 20
36.8719
 30
0.0
 10
52.0099
 20
37.9353
 30
0.0
 10
52.0099
 20
37.9353
 30
0.0
 10
49.1906
 20
36.912
 30
0.0
 10
46.4088
 20
35.2264
 30
0.0
 10
45.8262
 20
34.1884
 30
0.0
 10
45.8262
 20
34.1884
 30
0.0
 10
44.898
 20
32.5348
 30
0.0
 10
45.4587
 20
31.7615
 30
0.0
 10
47.5861
 20
31.7615
 30
0.0
 10
47.5861
 20
31.7615
 30
0.0
 10
49.6086
 20
31.7615
 30
0.0
 10
50.1104
 20
31.3584
 30
0.0
 10
50.5297
 20
29.3965
 30
0.0
 10
50.5297
 20
29.3965
 30
0.0
 10
50.7913
 20
28.1721
 30
0.0
 10
50.9334
 20
28.0735
 30
0.0
 10
52.3212
 20
28.1543
 30
0.0
 10
52.3212
 20
28.1543
 30
0.0
 10
53.5374
 20
28.225
 30
0.0
 10
53.8593
 20
28.0821
 30
0.0
 10
53.9881
 20
27.4139
 30
0.0
 10
53.9881
 20
27.4139
 30
0.0
 10
54.2374
 20
26.1214
 30
0.0
 10
54.6815
 20
25.885
 30
0.0
 10
55.8554
 20
26.4199
 30
0.0
 10
55.8554
 20
26.4199
 30
0.0
 10
57.248
 20
27.0544
 30
0.0
 10
58.0243
 20
26.4662
 30
0.0
 10
58.6791
 20
24.2811
 30
0.0
 10
58.6791
 20
24.2811
 30
0.0
 10
58.9403
 20
23.4091
 30
0.0
 10
59.4174
 20
22.5946
 30
0.0
 10
59.7392
 20
22.4711
 30
0.0
 10
59.7392
 20
22.4711
 30
0.0
 10
60.629
 20
22.1297
 30
0.0
 10
62.2249
 20
23.9894
 30
0.0
 10
62.7828
 20
26.0177
 30
0.0
 10
62.7828
 20
26.0177
 30
0.0
 10
63.6654
 20
29.2267
 30
0.0
 10
64.5211
 20
31.3475
 30
0.0
 10
64.9333
 20
31.3475
 30
0.0
 10
64.9333
 20
31.3475
 30
0.0
 10
64.4034
 20
25.5585
 30
0.0
 10
64.5237
 20
15.4239
 30
0.0
 10
73.6723
 20
9.4029
 30
0.0
 10
73.6723
 20
9.4029
 30
0.0
 10
85.3464
 20
16.9016
 30
0.0
 10
84.5787
 20
34.5544
 30
0.0
 10
80.9867
 20
42.9207
 30
0.0
 10
80.9867
 20
42.9207
 30
0.0
 10
80.3435
 20
44.8257
 30
0.0
 10
80.3038
 20
45.3238
 30
0.0
 10
80.7531
 20
45.839
 30
0.0
 10
80.7531
 20
45.839
 30
0.0
 10
82.7031
 20
48.6511
 30
0.0
 10
82.7095
 20
50.9611
 30
0.0
 10
82.8439
 20
54.1377
 30
0.0
 10
82.8439
 20
54.1377
 30
0.0
 10
88.6387
 20
57.1658
 30
0.0
 10
96.4075
 20
54.8447
 30
0.0
 10
100.3417
 20
51.0969
 30
0.0
 10
100.3417
 20
51.0969
 30
0.0
 10
102.692
 20
48.6967
 30
0.0
 10
105.2569
 20
44.3932
 30
0.0
 10
104.5848
 20
43.9778
 30
0.0
 10
104.5848
 20
43.9778
 30
0.0
 10
104.648
 20
42.6425
 30
0.0
 10
100.8744
 20
38.4899
 30
0.0
 10
102.6149
 20
38.3839
 30
0.0
 10
102.6149
 20
38.3839
 30
0.0
 10
103.3607
 20
38.3806
 30
0.0
 10
105.9373
 20
37.6152
 30
0.0
 10
106.567
 20
37.2101
 30
0.0
 10
106.567
 20
37.2101
 30
0.0
 10
107.465
 20
34.8738
 30
0.0
 10
109.136
 20
29.4799
 30
0.0
 10
109.8433
 20
26.4687
 30
0.0
 10
109.8433
 20
26.4687
 30
0.0
 10
110.8319
 20
24.2116
 30
0.0
 10
108.5247
 20
24.1279
 30
0.0
 10
107.9437
 20
24.3085
 30
0.0
 10
107.9437
 20
24.3085
 30
0.0
 10
103.8771
 20
23.9382
 30
0.0
 10
90.2245
 20
18.2753
 30
0.0
 10
88.7311
 20
11.1423
 30
0.0
 10
88.7311
 20
11.1423
 30
0.0
 10
88.8001
 20
10.804
 30
0.0
 10
88.185
 20
9.6015
 30
0.0
 10
87.3985
 20
9.5874
 30
0.0
 10
87.3985
 20
9.5874
 30
0.0
 10
85.501
 20
9.6686
 30
0.0
 10
82.63
 20
7.2558
 30
0.0
 10
82.0385
 20
5.2255
 30
0.0
 10
82.0385
 20
5.2255
 30
0.0
 10
77.3025
 20
6.2091
 30
0.0
 10
72.086
 20
4.9819
 30
0.0
 10
67.5241
 20
2.803
 30
0.0
 10
67.5241
 20
2.803
 30
0.0
 10
63.987
 20
1.0687
 30
0.0
 10
62.6037
 20
-0.0881
 30
0.0
 10
59.9451
 20
-3.5359
 30
0.0
 10
59.9451
 20
-3.5359
 30
0.0
 10
58.178
 20
-5.8274
 30
0.0
 10
54.0675
 20
-13.3945
 30
0.0
 10
54.0675
 20
-14.356
 30
0.0
 10
54.0675
 20
-14.356
 30
0.0
 10
54.0675
 20
-14.7311
 30
0.0
 10
55.2659
 20
-15.1721
 30
0.0
 10
57.64
 20
-15.6702
 30
0.0
 10
57.64
 20
-15.6702
 30
0.0
 10
60.9903
 20
-16.3733
 30
0.0
 10
61.4346
 20
-16.3787
 30
0.0
 10
64.7824
 20
-15.7569
 30
0.0
 10
64.7824
 20
-15.7569
 30
0.0
 10
70.1464
 20
-14.7607
 30
0.0
 10
71.3632
 20
-14.3804
 30
0.0
 10
73.564
 20
-13.0124
 30
0.0
 10
73.564
 20
-13.0124
 30
0.0
 10
76.0306
 20
-11.4791
 30
0.0
 10
76.5737
 20
-11.9656
 30
0.0
 10
74.4582
 20
-13.8136
 30
0.0
 10
74.4582
 20
-13.8136
 30
0.0
 10
72.5497
 20
-15.4809
 30
0.0
 10
69.3875
 20
-19.4828
 30
0.0
 10
69.3875
 20
-20.231
 30
0.0
 10
69.3875
 20
-20.231
 30
0.0
 10
69.3875
 20
-21.1731
 30
0.0
 10
70.6328
 20
-21.5724
 30
0.0
 10
72.1342
 20
-21.1117
 30
0.0
 10
72.1342
 20
-21.1117
 30
0.0
 10
73.7531
 20
-20.6149
 30
0.0
 10
74.0499
 20
-20.8039
 30
0.0
 10
74.1072
 20
-22.3682
 30
0.0
 10
74.1072
 20
-22.3682
 30
0.0
 10
74.1471
 20
-23.4618
 30
0.0
 10
74.2438
 20
-23.5142
 30
0.0
 10
76.2194
 20
-23.5142
 30
0.0
 10
76.2194
 20
-23.5142
 30
0.0
 10
78.1405
 20
-23.5142
 30
0.0
 10
78.2987
 20
-23.5916
 30
0.0
 10
78.4146
 20
-24.5899
 30
0.0
 10
78.4146
 20
-24.5899
 30
0.0
 10
78.534
 20
-25.6174
 30
0.0
 10
78.6315
 20
-25.6569
 30
0.0
 10
80.5863
 20
-25.4691
 30
0.0
 10
80.5863
 20
-25.4691
 30
0.0
 10
81.8609
 20
-25.3465
 30
0.0
 10
82.8618
 20
-25.4623
 30
0.0
 10
83.2397
 20
-25.7759
 30
0.0
 10
83.2397
 20
-25.7759
 30
0.0
 10
83.7399
 20
-26.191
 30
0.0
 10
83.999
 20
-26.0363
 30
0.0
 10
84.7135
 20
-24.8968
 30
0.0
 10
84.7135
 20
-24.8968
 30
0.0
 10
85.5622
 20
-23.5434
 30
0.0
 10
85.6235
 20
-22.1527
 30
0.0
 10
85.0339
 20
-17.6307
 30
0.0
 10
85.0339
 20
-17.6307
 30
0.0
 10
84.8151
 20
-15.9529
 30
0.0
 10
85.7382
 20
-16.5832
 30
0.0
 10
86.0335
 20
-18.3134
 30
0.0
 10
86.0335
 20
-18.3134
 30
0.0
 10
86.7736
 20
-22.6486
 30
0.0
 10
91.5268
 20
-28.3535
 30
0.0
 10
96.4238
 20
-30.7838
 30
0.0
 10
96.4238
 20
-30.7838
 30
0.0
 10
98.6103
 20
-31.8689
 30
0.0
 10
99.3938
 20
-32.0821
 30
0.0
 10
99.9368
 20
-31.7395
 30
0.0
 10
99.9368
 20
-31.7395
 30
0.0
 10
101.1229
 20
-30.9913
 30
0.0
 10
101.6884
 20
-27.9413
 30
0.0
 10
101.7307
 20
-22.0655
 30
0.0
 10
101.7307
 20
-22.0655
 30
0.0
 10
101.7757
 20
-15.8062
 30
0.0
 10
101.2096
 20
-12.8503
 30
0.0
 10
99.1254
 20
-8.4646
 30
0.0
 10
99.1254
 20
-8.4646
 30
0.0
 10
98.0416
 20
-4.7179
 30
0.0
 10
93.6914
 20
-3.66
 30
0.0
 10
92.1603
 20
-0.9482
 30
0.0
 10
92.1603
 20
-0.9482
 30
0.0
 10
93.878
 20
1.8225
 30
0.0
 10
95.1978
 20
3.1717
 30
0.0
 10
93.5315
 20
7.1095
 30
0.0
 10
93.5315
 20
7.1095
 30
0.0
 10
92.5245
 20
8.1699
 30
0.0
 10
92.8605
 20
9.6497
 30
0.0
 10
93.6554
 20
11.1219
 30
0.0
 10
93.6554
 20
11.1219
 30
0.0
 10
95.887
 20
15.2539
 30
0.0
 10
100.4478
 20
17.8044
 30
0.0
 10
105.5289
 20
19.6922
 30
0.0
 10
105.5289
 20
19.6922
 30
0.0
 10
108.4618
 20
20.7818
 30
0.0
 10
110.2142
 20
20.8375
 30
0.0
 10
110.733
 20
19.8579
 30
0.0
 10
110.733
 20
19.8579
 30
0.0
 10
113.1137
 20
10.4063
 30
0.0
 10
115.1003
 20
2.4392
 30
0.0
 10
116.7774
 20
-7.1869
 30
0.0
 10
116.7774
 20
-7.1869
 30
0.0
 10
116.8945
 20
-7.8992
 30
0.0
 10
116.6191
 20
-8.6377
 30
0.0
 10
115.9426
 20
-9.425
 30
0.0
 10
115.9426
 20
-9.425
 30
0.0
 10
112.8005
 20
-13.4542
 30
0.0
 10
110.52
 20
-18.5716
 30
0.0
 10
109.4928
 20
-23.2081
 30
0.0
 10
109.4928
 20
-23.2081
 30
0.0
 10
107.9005
 20
-30.7081
 30
0.0
 10
108.9311
 20
-38.0423
 30
0.0
 10
113.3176
 20
-50.4269
 30
0.0
 10
113.3176
 20
-50.4269
 30
0.0
 10
118.5358
 20
-65.1597
 30
0.0
 10
122.6826
 20
-77.5262
 30
0.0
 10
122.4743
 20
-77.7345
 30
0.0
 10
122.4743
 20
-77.7345
 30
0.0
 10
117.2798
 20
-73.0631
 30
0.0
 10
113.2684
 20
-66.4844
 30
0.0
 10
108.1287
 20
-61.2114
 30
0.0
 10
108.1287
 20
-61.2114
 30
0.0
 10
99.7426
 20
-52.1076
 30
0.0
 10
89.4296
 20
-47.0603
 30
0.0
 10
79.3972
 20
-49.0666
 30
0.0
 10
79.3972
 20
-49.0666
 30
0.0
 10
87.7646
 20
-55.0277
 30
0.0
 10
89.1098
 20
-65.6841
 30
0.0
 10
94.56
 20
-72.5785
 30
0.0
 10
94.56
 20
-72.5785
 30
0.0
 10
97.3794
 20
-76.1067
 30
0.0
 10
101.6615
 20
-80.4125
 30
0.0
 10
103.0862
 20
-81.1521
 30
0.0
 10
103.0862
 20
-81.1521
 30
0.0
 10
105.0045
 20
-82.1479
 30
0.0
 10
103.7065
 20
-82.2779
 30
0.0
 10
101.403
 20
-81.3208
 30
0.0
 10
101.403
 20
-81.3208
 30
0.0
 10
100.3047
 20
-80.8645
 30
0.0
 10
96.7976
 20
-79.9967
 30
0.0
 10
93.6094
 20
-79.3927
 30
0.0
 10
93.6094
 20
-79.3927
 30
0.0
 10
70.5267
 20
-75.94
 30
0.0
 10
51.1483
 20
-67.9729
 30
0.0
 10
43.7895
 20
-45.6295
 30
0.0
 10
43.7895
 20
-45.6295
 30
0.0
 10
36.3189
 20
-65.0437
 30
0.0
 10
46.7143
 20
-83.3366
 30
0.0
 10
60.5742
 20
-92.9935
 30
0.0
 10
60.5742
 20
-92.9935
 30
0.0
 10
70.7431
 20
-99.5251
 30
0.0
 10
82.0535
 20
-101.6311
 30
0.0
 10
92.3674
 20
-97.2087
 30
0.0
 10
92.3674
 20
-97.2087
 30
0.0
 10
98.4129
 20
-94.9028
 30
0.0
 10
105.0694
 20
-94.2468
 30
0.0
 10
109.9418
 20
-94.9144
 30
0.0
 10
109.9418
 20
-94.9144
 30
0.0
 10
113.619
 20
-95.0324
 30
0.0
 10
126.3223
 20
-100.2681
 30
0.0
 10
127.9645
 20
-106.4133
 30
0.0
 10
127.9645
 20
-106.4133
 30
0.0
 10
127.9645
 20
-106.4133
 30
0.0
 10
56.7072
 20
-106.4133
 30
0.0
 10
56.7072
 20
-106.4133
 30
0.0
 10
56.7072
 20
-106.4133
 30
0.0
 10
56.7072
 20
-106.4133
 30
0.0
 10
33.3869
 20
-82.8655
 30
0.0
 10
33.3869
 20
-82.8655
 30
0.0
 10
33.3869
 20
-82.8655
 30
0.0
 10
33.3869
 20
-82.8655
 30
0.0
 10
33.3866
 20
45.8532
 30
0.0
 10
33.3866
 20
45.8532
 30
0.0
  0
SPLINE
  5
44
330
1F
100
AcDbEntity
  8
layer 1
 62
     7
100
AcDbSpline
210
0.0
220
0.0
230
1.0
 70
    11
 71
     3
 72
    40
 73
    36
 74
     0
 42
0.0000000001
 43
0.0000000001
 12
1.0
 22
0.0
 32
0.0
 13
1.0
 23
0.0
 33
0.0
 40
0.0
 40
0.0
 40
0.0
 40
0.0
 40
0.1
 40
0.1
 40
0.1
 40
0.1
 40
0.2
 40
0.2
 40
0.2
 40
0.2
 40
0.3
 40
0.3
 40
0.3
 40
0.3
 40
0.4
 40
0.4
 40
0.4
 40
0.4
 40
0.5
 40
0.5
 40
0.5
 40
0.5
 40
0.6
 40
0.6
 40
0.6
 40
0.6
 40
0.7
 40
0.7
 40
0.7
 40
0.7
 40
0.8
 40
0.8
 40
0.8
 40
0.8
 40
1.0
 40
1.0
 40
1.0
 40
1.0
 10
132.3326
 20
-95.9361
 30
0.0
 10
132.35
 20
-94.5357
 30
0.0
 10
134.1849
 20
-90.7118
 30
0.0
 10
137.1827
 20
-85.8284
 30
0.0
 10
137.1827
 20
-85.8284
 30
0.0
 10
144.3449
 20
-74.1617
 30
0.0
 10
145.7716
 20
-72.2882
 30
0.0
 10
150.6684
 20
-68.1196
 30
0.0
 10
150.6684
 20
-68.1196
 30
0.0
 10
158.652
 20
-61.4947
 30
0.0
 10
172.6153
 20
-57.5511
 30
0.0
 10
183.0562
 20
-48.6454
 30
0.0
 10
183.0562
 20
-48.6454
 30
0.0
 10
183.305
 20
-48.8942
 30
0.0
 10
182.2792
 20
-52.457
 30
0.0
 10
180.4572
 20
-57.6732
 30
0.0
 10
180.4572
 20
-57.6732
 30
0.0
 10
177.6712
 20
-65.6487
 30
0.0
 10
169.6571
 20
-74.2778
 30
0.0
 10
159.2361
 20
-80.5227
 30
0.0
 10
159.2361
 20
-80.5227
 30
0.0
 10
151.7237
 20
-85.0246
 30
0.0
 10
149.9573
 20
-85.9666
 30
0.0
 10
143.5022
 20
-88.912
 30
0.0
 10
143.5022
 20
-88.912
 30
0.0
 10
137.3366
 20
-91.7256
 30
0.0
 10
136.4584
 20
-92.2586
 30
0.0
 10
134.4966
 20
-94.3787
 30
0.0
 10
134.4966
 20
-94.3787
 30
0.0
 10
132.9135
 20
-96.0895
 30
0.0
 10
132.3254
 20
-96.5128
 30
0.0
 10
132.3326
 20
-95.9363
 30
0.0
 10
132.3326
 20
-95.9363
 30
0.0
 10
132.3326
 20
-95.9363
 30
0.0
 10
132.3326
 20
-95.9361
 30
0.0
 10
132.3326
 20
-95.9361
 30
0.0
  0
SPLINE
  5
45
330
1F
100
AcDbEntity
  8
layer 1
 62
     7
100
AcDbSpline
210
0.0
220
0.0
230
1.0
 70
    11
 71
     3
 72
    36
 73
    32
 74
     0
 42
0.0000000001
 43
0.0000000001
 12
1.0
 22
0.0
 32
0.0
 13
1.0
 23
0.0
 33
0.0
 40
0.0
 40
0.0
 40
0.0
 40
0.0
 40
0.1111111111111111
 40
0.1111111111111111
 40
0.1111111111111111
 40
0.1111111111111111
 40
0.2222222222222222
 40
0.2222222222222222
 40
0.2222222222222222
 40
0.2222222222222222
 40
0.3333333333333333
 40
0.3333333333333333
 40
0.3333333333333333
 40
0.3333333333333333
 40
0.4444444444444444
 40
0.4444444444444444
 40
0.4444444444444444
 40
0.4444444444444444
 40
0.5555555555555556
 40
0.5555555555555556
 40
0.5555555555555556
 40
0.5555555555555556
 40
0.6666666666666666
 40
0.6666666666666666
 40
0.6666666666666666
 40
0.6666666666666666
 40
0.7777777777777778
 40
0.7777777777777778
 40
0.7777777777777778
 40
0.7777777777777778
 40
1.0
 40
1.0
 40
1.0
 40
1.0
 10
113.1243
 20
-84.3877
 30
0.0
 10
107.4359
 20
-80.6778
 30
0.0
 10
104.7685
 20
-78.3066
 30
0.0
 10
101.7358
 20
-74.264
 30
0.0
 10
101.7358
 20
-74.264
 30
0.0
 10
98.8131
 20
-70.368
 30
0.0
 10
98.1614
 20
-69.3064
 30
0.0
 10
95.3643
 20
-63.8838
 30
0.0
 10
95.3643
 20
-63.8838
 30
0.0
 10
94.1972
 20
-61.6984
 30
0.0
 10
93.4387
 20
-59.8485
 30
0.0
 10
91.8074
 20
-56.4309
 30
0.0
 10
91.8074
 20
-56.4309
 30
0.0
 10
92.5515
 20
-56.4309
 30
0.0
 10
99.4381
 20
-60.4947
 30
0.0
 10
101.7945
 20
-62.3244
 30
0.0
 10
101.7945
 20
-62.3244
 30
0.0
 10
105.6337
 20
-65.3054
 30
0.0
 10
112.5545
 20
-72.7074
 30
0.0
 10
116.5148
 20
-78.0682
 30
0.0
 10
116.5148
 20
-78.0682
 30
0.0
 10
119.6116
 20
-82.2601
 30
0.0
 10
126.439
 20
-95.5145
 30
0.0
 10
125.7279
 20
-95.954
 30
0.0
 10
125.7279
 20
-95.954
 30
0.0
 10
121.8612
 20
-91.7733
 30
0.0
 10
117.2935
 20
-87.1377
 30
0.0
 10
113.1242
 20
-84.3877
 30
0.0
 10
113.1242
 20
-84.3877
 30
0.0
 10
113.1242
 20
-84.3877
 30
0.0
 10
113.1243
 20
-84.3877
 30
0.0
 10
113.1243
 20
-84.3877
 30
0.0
  0
SPLINE
  5
46
330
1F
100
AcDbEntity
  8
layer 1
 62
     7
100
AcDbSpline
210
0.0
220
0.0
230
1.0
 70
    11
 71
     3
 72
    40
 73
    36
 74
     0
 42
0.0000000001
 43
0.0000000001
 12
1.0
 22
0.0
 32
0.0
 13
1.0
 23
0.0
 33
0.0
 40
0.0
 40
0.0
 40
0.0
 40
0.0
 40
0.1
 40
0.1
 40
0.1
 40
0.1
 40
0.2
 40
0.2
 40
0.2
 40
0.2
 40
0.3
 40
0.3
 40
0.3
 40
0.3
 40
0.4
 40
0.4
 40
0.4
 40
0.4
 40
0.5
 40
0.5
 40
0.5
 40
0.5
 40
0.6
 40
0.6
 40
0.6
 40
0.6
 40
0.7
 40
0.7
 40
0.7
 40
0.7
 40
0.8
 40
0.8
 40
0.8
 40
0.8
 40
1.0
 40
1.0
 40
1.0
 40
1.0
 10
76.3281
 20
-92.4397
 30
0.0
 10
59.044
 20
-89.0673
 30
0.0
 10
57.1743
 20
-75.9569
 30
0.0
 10
48.9485
 20
-65.8478
 30
0.0
 10
48.9485
 20
-65.8478
 30
0.0
 10
48.3089
 20
-64.9761
 30
0.0
 10
48.2253
 20
-64.5918
 30
0.0
 10
48.5954
 20
-64.2218
 30
0.0
 10
48.5954
 20
-64.2218
 30
0.0
 10
48.9654
 20
-63.8519
 30
0.0
 10
49.2278
 20
-64.0915
 30
0.0
 10
49.7059
 20
-65.2353
 30
0.0
 10
49.7059
 20
-65.2353
 30
0.0
 10
72.1818
 20
-89.5136
 30
0.0
 10
87.3127
 20
-79.2999
 30
0.0
 10
105.6167
 20
-87.8964
 30
0.0
 10
105.6167
 20
-87.8964
 30
0.0
 10
106.983
 20
-88.5559
 30
0.0
 10
108.6599
 20
-89.3141
 30
0.0
 10
109.3432
 20
-89.5815
 30
0.0
 10
109.3432
 20
-89.5815
 30
0.0
 10
110.0491
 20
-89.8579
 30
0.0
 10
110.3558
 20
-90.1527
 30
0.0
 10
110.0538
 20
-90.2644
 30
0.0
 10
110.0538
 20
-90.2644
 30
0.0
 10
109.7615
 20
-90.3727
 30
0.0
 10
109.2958
 20
-90.278
 30
0.0
 10
109.0186
 20
-90.0541
 30
0.0
 10
109.0186
 20
-90.0541
 30
0.0
 10
98.3154
 20
-86.2569
 30
0.0
 10
86.3883
 20
-93.7208
 30
0.0
 10
76.3283
 20
-92.4397
 30
0.0
 10
76.3283
 20
-92.4397
 30
0.0
 10
76.3283
 20
-92.4397
 30
0.0
 10
76.3281
 20
-92.4397
 30
0.0
 10
76.3281
 20
-92.4397
 30
0.0
  0
SPLINE
  5
47
330
1F
100
AcDbEntity
  8
layer 1
 62
     7
100
AcDbSpline
210
0.0
220
0.0
230
1.0
 70
    11
 71
     3
 72
    52
 73
    48
 74
     0
 42
0.0000000001
 43
0.0000000001
 12
1.0
 22
0.0
 32
0.0
 13
1.0
 23
0.0
 33
0.0
 40
0.0
 40
0.0
 40
0.0
 40
0.0
 40
0.0769230769230769
 40
0.0769230769230769
 40
0.0769230769230769
 40
0.0769230769230769
 40
0.1538461538461539
 40
0.1538461538461539
 40
0.1538461538461539
 40
0.1538461538461539
 40
0.2307692307692308
 40
0.2307692307692308
 40
0.2307692307692308
 40
0.2307692307692308
 40
0.3076923076923077
 40
0.3076923076923077
 40
0.3076923076923077
 40
0.3076923076923077
 40
0.3846153846153846
 40
0.3846153846153846
 40
0.3846153846153846
 40
0.3846153846153846
 40
0.4615384615384616
 40
0.4615384615384616
 40
0.4615384615384616
 40
0.4615384615384616
 40
0.5384615384615384
 40
0.5384615384615384
 40
0.5384615384615384
 40
0.5384615384615384
 40
0.6153846153846154
 40
0.6153846153846154
 40
0.6153846153846154
 40
0.6153846153846154
 40
0.6923076923076923
 40
0.6923076923076923
 40
0.6923076923076923
 40
0.6923076923076923
 40
0.7692307692307693
 40
0.7692307692307693
 40
0.7692307692307693
 40
0.7692307692307693
 40
0.8461538461538461
 40
0.8461538461538461
 40
0.8461538461538461
 40
0.8461538461538461
 40
1.0
 40
1.0
 40
1.0
 40
1.0
 10
125.9002
 20
-73.4069
 30
0.0
 10
125.6805
 20
-73.0653
 30
0.0
 10
124.8261
 20
-70.8295
 30
0.0
 10
124.0015
 20
-68.4383
 30
0.0
 10
124.0015
 20
-68.4383
 30
0.0
 10
123.1768
 20
-66.0472
 30
0.0
 10
122.3926
 20
-63.8114
 30
0.0
 10
122.2587
 20
-63.4697
 30
0.0
 10
122.2587
 20
-63.4697
 30
0.0
 10
121.8551
 20
-62.4407
 30
0.0
 10
119.2372
 20
-54.4906
 30
0.0
 10
117.4867
 20
-48.9781
 30
0.0
 10
117.4867
 20
-48.9781
 30
0.0
 10
116.0335
 20
-44.4021
 30
0.0
 10
115.3604
 20
-41.5574
 30
0.0
 10
114.3025
 20
-35.5214
 30
0.0
 10
114.3025
 20
-35.5214
 30
0.0
 10
113.8237
 20
-32.7889
 30
0.0
 10
114.054
 20
-25.3282
 30
0.0
 10
114.6927
 20
-22.8929
 30
0.0
 10
114.6927
 20
-22.8929
 30
0.0
 10
115.4864
 20
-19.8658
 30
0.0
 10
117.3857
 20
-15.7857
 30
0.0
 10
117.8636
 20
-16.0812
 30
0.0
 10
117.8636
 20
-16.0812
 30
0.0
 10
118.0735
 20
-16.2109
 30
0.0
 10
118.2564
 20
-17.0048
 30
0.0
 10
118.27
 20
-17.8453
 30
0.0
 10
118.27
 20
-17.8453
 30
0.0
 10
118.2973
 20
-19.5197
 30
0.0
 10
118.9531
 20
-23.9865
 30
0.0
 10
121.474
 20
-39.662
 30
0.0
 10
121.474
 20
-39.662
 30
0.0
 10
122.3895
 20
-45.3551
 30
0.0
 10
123.5397
 20
-52.808
 30
0.0
 10
124.03
 20
-56.2239
 30
0.0
 10
124.03
 20
-56.2239
 30
0.0
 10
124.5203
 20
-59.6398
 30
0.0
 10
125.2996
 20
-64.6988
 30
0.0
 10
125.762
 20
-67.4661
 30
0.0
 10
125.762
 20
-67.4661
 30
0.0
 10
126.6259
 20
-72.6364
 30
0.0
 10
126.6719
 20
-74.6064
 30
0.0
 10
125.9005
 20
-73.4069
 30
0.0
 10
125.9005
 20
-73.4069
 30
0.0
 10
125.9005
 20
-73.4069
 30
0.0
 10
125.9002
 20
-73.4069
 30
0.0
 10
125.9002
 20
-73.4069
 30
0.0
  0
SPLINE
  5
48
330
1F
100
AcDbEntity
  8
layer 1
 62
     7
100
AcDbSpline
210
0.0
220
0.0
230
1.0
 70
    11
 71
     3
 72
   108
 73
   104
 74
     0
 42
0.0000000001
 43
0.0000000001
 12
1.0
 22
0.0
 32
0.0
 13
1.0
 23
0.0
 33
0.0
 40
0.0
 40
0.0
 40
0.0
 40
0.0
 40
0.037037037037037
 40
0.037037037037037
 40
0.037037037037037
 40
0.037037037037037
 40
0.0740740740740741
 40
0.0740740740740741
 40
0.0740740740740741
 40
0.0740740740740741
 40
0.1111111111111111
 40
0.1111111111111111
 40
0.1111111111111111
 40
0.1111111111111111
 40
0.1481481481481481
 40
0.1481481481481481
 40
0.1481481481481481
 40
0.1481481481481481
 40
0.1851851851851852
 40
0.1851851851851852
 40
0.1851851851851852
 40
0.1851851851851852
 40
0.2222222222222222
 40
0.2222222222222222
 40
0.2222222222222222
 40
0.2222222222222222
 40
0.2592592592592592
 40
0.2592592592592592
 40
0.2592592592592592
 40
0.2592592592592592
 40
0.2962962962962963
 40
0.2962962962962963
 40
0.2962962962962963
 40
0.2962962962962963
 40
0.3333333333333333
 40
0.3333333333333333
 40
0.3333333333333333
 40
0.3333333333333333
 40
0.3703703703703703
 40
0.3703703703703703
 40
0.3703703703703703
 40
0.3703703703703703
 40
0.4074074074074074
 40
0.4074074074074074
 40
0.4074074074074074
 40
0.4074074074074074
 40
0.4444444444444444
 40
0.4444444444444444
 40
0.4444444444444444
 40
0.4444444444444444
 40
0.4814814814814815
 40
0.4814814814814815
 40
0.4814814814814815
 40
0.4814814814814815
 40
0.5185185185185185
 40
0.5185185185185185
 40
0.5185185185185185
 40
0.5185185185185185
 40
0.5555555555555556
 40
0.5555555555555556
 40
0.5555555555555556
 40
0.5555555555555556
 40
0.5925925925925926
 40
0.5925925925925926
 40
0.5925925925925926
 40
0.5925925925925926
 40
0.6296296296296297
 40
0.6296296296296297
 40
0.6296296296296297
 40
0.6296296296296297
 40
0.6666666666666666
 40
0.6666666666666666
 40
0.6666666666666666
 40
0.6666666666666666
 40
0.7037037037037037
 40
0.7037037037037037
 40
0.7037037037037037
 40
0.7037037037037037
 40
0.7407407407407407
 40
0.7407407407407407
 40
0.7407407407407407
 40
0.7407407407407407
 40
0.7777777777777778
 40
0.7777777777777778
 40
0.7777777777777778
 40
0.7777777777777778
 40
0.8148148148148148
 40
0.8148148148148148
 40
0.8148148148148148
 40
0.8148148148148148
 40
0.8518518518518519
 40
0.8518518518518519
 40
0.8518518518518519
 40
0.8518518518518519
 40
0.8888888888888888
 40
0.8888888888888888
 40
0.8888888888888888
 40
0.8888888888888888
 40
0.9259259259259259
 40
0.9259259259259259
 40
0.9259259259259259
 40
0.9259259259259259
 40
1.0
 40
1.0
 40
1.0
 40
1.0
 10
149.9552
 20
-61.8853
 30
0.0
 10
159.6907
 20
-55.7092
 30
0.0
 10
171.4062
 20
-50.8412
 30
0.0
 10
179.2519
 20
-43.6275
 30
0.0
 10
179.2519
 20
-43.6275
 30
0.0
 10
184.4558
 20
-38.017
 30
0.0
 10
189.1045
 20
-33.4947
 30
0.0
 10
189.1045
 20
-24.2123
 30
0.0
 10
189.1045
 20
-24.2123
 30
0.0
 10
189.1045
 20
-24.2123
 30
0.0
 10
189.1045
 20
46.6266
 30
0.0
 10
189.1045
 20
46.6266
 30
0.0
 10
189.1045
 20
46.6266
 30
0.0
 10
189.0215
 20
47.5322
 30
0.0
 10
188.2218
 20
46.3194
 30
0.0
 10
187.0539
 20
44.939
 30
0.0
 10
187.0539
 20
44.939
 30
0.0
 10
185.2913
 20
42.856
 30
0.0
 10
184.6979
 20
41.7084
 30
0.0
 10
183.3372
 20
37.7509
 30
0.0
 10
183.3372
 20
37.7509
 30
0.0
 10
181.2024
 20
31.5418
 30
0.0
 10
180.0525
 20
27.2967
 30
0.0
 10
178.6868
 20
20.5821
 30
0.0
 10
178.6868
 20
20.5821
 30
0.0
 10
177.1408
 20
12.9809
 30
0.0
 10
170.5889
 20
-7.1169
 30
0.0
 10
167.4969
 20
-13.7423
 30
0.0
 10
167.4969
 20
-13.7423
 30
0.0
 10
166.8168
 20
-15.1995
 30
0.0
 10
166.3102
 20
-16.4236
 30
0.0
 10
166.3711
 20
-16.4622
 30
0.0
 10
166.3711
 20
-16.4622
 30
0.0
 10
172.58
 20
-20.1778
 30
0.0
 10
178.4948
 20
-26.0611
 30
0.0
 10
182.5147
 20
-30.9467
 30
0.0
 10
182.5147
 20
-30.9467
 30
0.0
 10
177.9297
 20
-34.6401
 30
0.0
 10
172.2688
 20
-37.2949
 30
0.0
 10
166.794
 20
-38.063
 30
0.0
 10
166.794
 20
-38.063
 30
0.0
 10
166.794
 20
-38.063
 30
0.0
 10
169.0188
 20
-40.1144
 30
0.0
 10
169.0188
 20
-40.1144
 30
0.0
 10
169.0188
 20
-40.1144
 30
0.0
 10
170.9181
 20
-41.8657
 30
0.0
 10
171.2435
 20
-42.3842
 30
0.0
 10
171.2435
 20
-43.658
 30
0.0
 10
171.2435
 20
-43.658
 30
0.0
 10
171.2435
 20
-45.4324
 30
0.0
 10
170.5945
 20
-46.0819
 30
0.0
 10
168.9415
 20
-45.9614
 30
0.0
 10
168.9415
 20
-45.9614
 30
0.0
 10
167.7788
 20
-45.8766
 30
0.0
 10
167.718
 20
-45.9564
 30
0.0
 10
167.5916
 20
-47.7351
 30
0.0
 10
167.5916
 20
-47.7351
 30
0.0
 10
167.3994
 20
-50.4406
 30
0.0
 10
165.6744
 20
-51.9384
 30
0.0
 10
164.3156
 20
-50.5796
 30
0.0
 10
164.3156
 20
-50.5796
 30
0.0
 10
163.9669
 20
-50.2309
 30
0.0
 10
163.6812
 20
-50.5081
 30
0.0
 10
163.1986
 20
-51.6633
 30
0.0
 10
163.1986
 20
-51.6633
 30
0.0
 10
162.6469
 20
-52.9836
 30
0.0
 10
162.4106
 20
-53.1733
 30
0.0
 10
161.6175
 20
-52.9334
 30
0.0
 10
161.6175
 20
-52.9334
 30
0.0
 10
159.8375
 20
-52.3949
 30
0.0
 10
159.5885
 20
-52.5057
 30
0.0
 10
159.0378
 20
-54.0808
 30
0.0
 10
159.0378
 20
-54.0808
 30
0.0
 10
158.3946
 20
-55.9203
 30
0.0
 10
158.468
 20
-55.8317
 30
0.0
 10
157.2873
 20
-56.1943
 30
0.0
 10
157.2873
 20
-56.1943
 30
0.0
 10
154.7017
 20
-55.5629
 30
0.0
 10
154.0507
 20
-51.383
 30
0.0
 10
153.3156
 20
-48.4634
 30
0.0
 10
153.3156
 20
-48.4634
 30
0.0
 10
151.1021
 20
-52.9866
 30
0.0
 10
148.5978
 20
-60.1731
 30
0.0
 10
145.3987
 20
-63.4442
 30
0.0
 10
145.3987
 20
-63.4442
 30
0.0
 10
144.9377
 20
-63.8269
 30
0.0
 10
144.2694
 20
-64.558
 30
0.0
 10
143.7557
 20
-63.8247
 30
0.0
 10
143.7557
 20
-63.8247
 30
0.0
 10
142.9793
 20
-62.7162
 30
0.0
 10
142.9746
 20
-62.7203
 30
0.0
 10
142.1127
 20
-65.3029
 30
0.0
 10
142.1127
 20
-65.3029
 30
0.0
 10
141.0554
 20
-68.4706
 30
0.0
 10
141.2755
 20
-68.6537
 30
0.0
 10
143.4529
 20
-66.4182
 30
0.0
 10
143.4529
 20
-66.4182
 30
0.0
 10
144.5646
 20
-65.2769
 30
0.0
 10
147.6038
 20
-63.4256
 30
0.0
 10
149.9551
 20
-61.8851
 30
0.0
 10
149.9551
 20
-61.8851
 30
0.0
 10
149.9551
 20
-61.8851
 30
0.0
 10
149.9552
 20
-61.8853
 30
0.0
 10
149.9552
 20
-61.8853
 30
0.0
  0
SPLINE
  5
49
330
1F
100
AcDbEntity
  8
layer 1
 62
     7
100
AcDbSpline
210
0.0
220
0.0
230
1.0
 70
    11
 71
     3
 72
    72
 73
    68
 74
     0
 42
0.0000000001
 43
0.0000000001
 12
1.0
 22
0.0
 32
0.0
 13
1.0
 23
0.0
 33
0.0
 40
0.0
 40
0.0
 40
0.0
 40
0.0
 40
0.0555555555555556
 40
0.0555555555555556
 40
0.0555555555555556
 40
0.0555555555555556
 40
0.1111111111111111
 40
0.1111111111111111
 40
0.1111111111111111
 40
0.1111111111111111
 40
0.1666666666666667
 40
0.1666666666666667
 40
0.1666666666666667
 40
0.1666666666666667
 40
0.2222222222222222
 40
0.2222222222222222
 40
0.2222222222222222
 40
0.2222222222222222
 40
0.2777777777777778
 40
0.2777777777777778
 40
0.2777777777777778
 40
0.2777777777777778
 40
0.3333333333333333
 40
0.3333333333333333
 40
0.3333333333333333
 40
0.3333333333333333
 40
0.3888888888888889
 40
0.3888888888888889
 40
0.3888888888888889
 40
0.3888888888888889
 40
0.4444444444444444
 40
0.4444444444444444
 40
0.4444444444444444
 40
0.4444444444444444
 40
0.5
 40
0.5
 40
0.5
 40
0.5
 40
0.5555555555555556
 40
0.5555555555555556
 40
0.5555555555555556
 40
0.5555555555555556
 40
0.6111111111111112
 40
0.6111111111111112
 40
0.6111111111111112
 40
0.6111111111111112
 40
0.6666666666666666
 40
0.6666666666666666
 40
0.6666666666666666
 40
0.6666666666666666
 40
0.7222222222222222
 40
0.7222222222222222
 40
0.7222222222222222
 40
0.7222222222222222
 40
0.7777777777777778
 40
0.7777777777777778
 40
0.7777777777777778
 40
0.7777777777777778
 40
0.8333333333333334
 40
0.8333333333333334
 40
0.8333333333333334
 40
0.8333333333333334
 40
0.8888888888888888
 40
0.8888888888888888
 40
0.8888888888888888
 40
0.8888888888888888
 40
1.0
 40
1.0
 40
1.0
 40
1.0
 10
133.0129
 20
-68.5764
 30
0.0
 10
132.8611
 20
-68.4246
 30
0.0
 10
132.7368
 20
-67.7096
 30
0.0
 10
132.7368
 20
-66.9877
 30
0.0
 10
132.7368
 20
-66.9877
 30
0.0
 10
132.7368
 20
-66.2656
 30
0.0
 10
132.0962
 20
-62.4305
 30
0.0
 10
131.3131
 20
-58.4652
 30
0.0
 10
131.3131
 20
-58.4652
 30
0.0
 10
130.53
 20
-54.4998
 30
0.0
 10
129.6856
 20
-49.6716
 30
0.0
 10
129.4366
 20
-47.736
 30
0.0
 10
129.4366
 20
-47.736
 30
0.0
 10
128.4215
 20
-39.8435
 30
0.0
 10
127.288
 20
-31.9428
 30
0.0
 10
126.526
 20
-27.4476
 30
0.0
 10
126.526
 20
-27.4476
 30
0.0
 10
125.0959
 20
-19.0105
 30
0.0
 10
123.9842
 20
-11.2195
 30
0.0
 10
124.1823
 20
-11.0214
 30
0.0
 10
124.1823
 20
-11.0214
 30
0.0
 10
124.2884
 20
-10.9153
 30
0.0
 10
125.9303
 20
-11.0559
 30
0.0
 10
127.8312
 20
-11.3339
 30
0.0
 10
127.8312
 20
-11.3339
 30
0.0
 10
130.5294
 20
-11.7284
 30
0.0
 10
132.1513
 20
-12.2797
 30
0.0
 10
135.228
 20
-13.8479
 30
0.0
 10
135.228
 20
-13.8479
 30
0.0
 10
135.228
 20
-13.8479
 30
0.0
 10
139.1688
 20
-15.8566
 30
0.0
 10
139.1688
 20
-15.8566
 30
0.0
 10
139.1688
 20
-15.8566
 30
0.0
 10
139.1688
 20
-15.8566
 30
0.0
 10
139.212
 20
-17.5029
 30
0.0
 10
139.212
 20
-17.5029
 30
0.0
 10
139.212
 20
-17.5029
 30
0.0
 10
139.2358
 20
-18.4084
 30
0.0
 10
139.5746
 20
-19.6366
 30
0.0
 10
139.9648
 20
-20.2323
 30
0.0
 10
139.9648
 20
-20.2323
 30
0.0
 10
140.6409
 20
-21.2638
 30
0.0
 10
140.6368
 20
-21.3577
 30
0.0
 10
139.881
 20
-22.2076
 30
0.0
 10
139.881
 20
-22.2076
 30
0.0
 10
137.7957
 20
-24.5527
 30
0.0
 10
136.5015
 20
-27.7335
 30
0.0
 10
135.4016
 20
-33.2176
 30
0.0
 10
135.4016
 20
-33.2176
 30
0.0
 10
134.0515
 20
-39.9482
 30
0.0
 10
135.2801
 20
-53.5316
 30
0.0
 10
137.3549
 20
-54.8139
 30
0.0
 10
137.3549
 20
-54.8139
 30
0.0
 10
137.74
 20
-55.0519
 30
0.0
 10
137.4857
 20
-56.1383
 30
0.0
 10
136.3297
 20
-59.1964
 30
0.0
 10
136.3297
 20
-59.1964
 30
0.0
 10
135.4842
 20
-61.4329
 30
0.0
 10
134.5582
 20
-64.4162
 30
0.0
 10
134.272
 20
-65.8262
 30
0.0
 10
134.272
 20
-65.8262
 30
0.0
 10
133.7309
 20
-68.4917
 30
0.0
 10
133.4788
 20
-69.0421
 30
0.0
 10
133.0129
 20
-68.5762
 30
0.0
 10
133.0129
 20
-68.5762
 30
0.0
 10
133.0129
 20
-68.5762
 30
0.0
 10
133.0129
 20
-68.5764
 30
0.0
 10
133.0129
 20
-68.5764
 30
0.0
  0
SPLINE
  5
4A
330
1F
100
AcDbEntity
  8
layer 1
 62
     7
100
AcDbSpline
210
0.0
220
0.0
230
1.0
 70
    11
 71
     3
 72
    28
 73
    24
 74
     0
 42
0.0000000001
 43
0.0000000001
 12
1.0
 22
0.0
 32
0.0
 13
1.0
 23
0.0
 33
0.0
 40
0.0
 40
0.0
 40
0.0
 40
0.0
 40
0.1428571428571428
 40
0.1428571428571428
 40
0.1428571428571428
 40
0.1428571428571428
 40
0.2857142857142857
 40
0.2857142857142857
 40
0.2857142857142857
 40
0.2857142857142857
 40
0.4285714285714285
 40
0.4285714285714285
 40
0.4285714285714285
 40
0.4285714285714285
 40
0.5714285714285714
 40
0.5714285714285714
 40
0.5714285714285714
 40
0.5714285714285714
 40
0.7142857142857143
 40
0.7142857142857143
 40
0.7142857142857143
 40
0.7142857142857143
 40
1.0
 40
1.0
 40
1.0
 40
1.0
 10
143.3414
 20
-11.3747
 30
0.0
 10
149.0059
 20
7.8646
 30
0.0
 10
160.1677
 20
32.0177
 30
0.0
 10
177.5837
 20
42.5464
 30
0.0
 10
177.5837
 20
42.5464
 30
0.0
 10
178.8594
 20
43.2082
 30
0.0
 10
179.9079
 20
43.2584
 30
0.0
 10
178.9042
 20
41.8255
 30
0.0
 10
178.9042
 20
41.8255
 30
0.0
 10
170.5868
 20
21.1863
 30
0.0
 10
164.3374
 20
3.7797
 30
0.0
 10
161.5241
 20
-16.0142
 30
0.0
 10
161.5241
 20
-16.0142
 30
0.0
 10
157.8516
 20
-14.2976
 30
0.0
 10
154.377
 20
-14.8172
 30
0.0
 10
151.7223
 20
-16.1716
 30
0.0
 10
151.7223
 20
-16.1716
 30
0.0
 10
149.7286
 20
-12.7787
 30
0.0
 10
146.6504
 20
-11.5392
 30
0.0
 10
143.3416
 20
-11.3747
 30
0.0
 10
143.3416
 20
-11.3747
 30
0.0
 10
143.3416
 20
-11.3747
 30
0.0
 10
143.3414
 20
-11.3747
 30
0.0
 10
143.3414
 20
-11.3747
 30
0.0
  0
SPLINE
  5
4B
330
1F
100
AcDbEntity
  8
layer 1
 62
     7
100
AcDbSpline
210
0.0
220
0.0
230
1.0
 70
    11
 71
     3
 72
    36
 73
    32
 74
     0
 42
0.0000000001
 43
0.0000000001
 12
1.0
 22
0.0
 32
0.0
 13
1.0
 23
0.0
 33
0.0
 40
0.0
 40
0.0
 40
0.0
 40
0.0
 40
0.1111111111111111
 40
0.1111111111111111
 40
0.1111111111111111
 40
0.1111111111111111
 40
0.2222222222222222
 40
0.2222222222222222
 40
0.2222222222222222
 40
0.2222222222222222
 40
0.3333333333333333
 40
0.3333333333333333
 40
0.3333333333333333
 40
0.3333333333333333
 40
0.4444444444444444
 40
0.4444444444444444
 40
0.4444444444444444
 40
0.4444444444444444
 40
0.5555555555555556
 40
0.5555555555555556
 40
0.5555555555555556
 40
0.5555555555555556
 40
0.6666666666666666
 40
0.6666666666666666
 40
0.6666666666666666
 40
0.6666666666666666
 40
0.7777777777777778
 40
0.7777777777777778
 40
0.7777777777777778
 40
0.7777777777777778
 40
1.0
 40
1.0
 40
1.0
 40
1.0
 10
131.0805
 20
-7.5357
 30
0.0
 10
129.3726
 20
-7.0959
 30
0.0
 10
126.8403
 20
-6.6917
 30
0.0
 10
125.4531
 20
-6.6371
 30
0.0
 10
125.4531
 20
-6.6371
 30
0.0
 10
123.062
 20
-6.5432
 30
0.0
 10
122.9318
 20
-6.4844
 30
0.0
 10
122.9429
 20
-5.5029
 30
0.0
 10
122.9429
 20
-5.5029
 30
0.0
 10
122.9493
 20
-4.9335
 30
0.0
 10
122.5396
 20
-2.325
 30
0.0
 10
122.0324
 20
0.2939
 30
0.0
 10
122.0324
 20
0.2939
 30
0.0
 10
120.7514
 20
6.9084
 30
0.0
 10
118.7073
 20
16.8753
 30
0.0
 10
118.4023
 20
17.9944
 30
0.0
 10
118.4023
 20
17.9944
 30
0.0
 10
118.0093
 20
19.4358
 30
0.0
 10
119.6609
 20
19.2006
 30
0.0
 10
122.7623
 20
17.3733
 30
0.0
 10
122.7623
 20
17.3733
 30
0.0
 10
127.9319
 20
14.3274
 30
0.0
 10
131.8632
 20
7.7031
 30
0.0
 10
135.4546
 20
-4.0145
 30
0.0
 10
135.4546
 20
-4.0145
 30
0.0
 10
136.8929
 20
-8.7075
 30
0.0
 10
136.5875
 20
-8.9533
 30
0.0
 10
131.0804
 20
-7.5357
 30
0.0
 10
131.0804
 20
-7.5357
 30
0.0
 10
131.0804
 20
-7.5357
 30
0.0
 10
131.0805
 20
-7.5357
 30
0.0
 10
131.0805
 20
-7.5357
 30
0.0
  0
SPLINE
  5
4C
330
1F
100
AcDbEntity
  8
layer 1
 62
     7
100
AcDbSpline
210
0.0
220
0.0
230
1.0
 70
    11
 71
     3
 72
    44
 73
    40
 74
     0
 42
0.0000000001
 43
0.0000000001
 12
1.0
 22
0.0
 32
0.0
 13
1.0
 23
0.0
 33
0.0
 40
0.0
 40
0.0
 40
0.0
 40
0.0
 40
0.0909090909090909
 40
0.0909090909090909
 40
0.0909090909090909
 40
0.0909090909090909
 40
0.1818181818181818
 40
0.1818181818181818
 40
0.1818181818181818
 40
0.1818181818181818
 40
0.2727272727272727
 40
0.2727272727272727
 40
0.2727272727272727
 40
0.2727272727272727
 40
0.3636363636363636
 40
0.3636363636363636
 40
0.3636363636363636
 40
0.3636363636363636
 40
0.4545454545454545
 40
0.4545454545454545
 40
0.4545454545454545
 40
0.4545454545454545
 40
0.5454545454545454
 40
0.5454545454545454
 40
0.5454545454545454
 40
0.5454545454545454
 40
0.6363636363636364
 40
0.6363636363636364
 40
0.6363636363636364
 40
0.6363636363636364
 40
0.7272727272727273
 40
0.7272727272727273
 40
0.7272727272727273
 40
0.7272727272727273
 40
0.8181818181818182
 40
0.8181818181818182
 40
0.8181818181818182
 40
0.8181818181818182
 40
1.0
 40
1.0
 40
1.0
 40
1.0
 10
139.585
 20
3.6835
 30
0.0
 10
139.4835
 20
3.9825
 30
0.0
 10
138.8462
 20
6.3699
 30
0.0
 10
138.169
 20
8.9888
 30
0.0
 10
138.169
 20
8.9888
 30
0.0
 10
137.4918
 20
11.6077
 30
0.0
 10
136.5468
 20
15.1478
 30
0.0
 10
136.069
 20
16.8558
 30
0.0
 10
136.069
 20
16.8558
 30
0.0
 10
134.5352
 20
22.3383
 30
0.0
 10
134.4088
 20
32.1756
 30
0.0
 10
135.872
 20
32.1756
 30
0.0
 10
135.872
 20
32.1756
 30
0.0
 10
136.2516
 20
32.1756
 30
0.0
 10
136.4632
 20
31.7354
 30
0.0
 10
136.4632
 20
30.9454
 30
0.0
 10
136.4632
 20
30.9454
 30
0.0
 10
136.4632
 20
28.2173
 30
0.0
 10
139.2007
 20
22.1328
 30
0.0
 10
143.5037
 20
15.2967
 30
0.0
 10
143.5037
 20
15.2967
 30
0.0
 10
143.5037
 20
15.2967
 30
0.0
 10
144.8762
 20
13.1163
 30
0.0
 10
144.8762
 20
13.1163
 30
0.0
 10
144.8762
 20
13.1163
 30
0.0
 10
144.8762
 20
13.1163
 30
0.0
 10
144.0453
 20
12.1913
 30
0.0
 10
144.0453
 20
12.1913
 30
0.0
 10
144.0453
 20
12.1913
 30
0.0
 10
142.8604
 20
10.872
 30
0.0
 10
141.0388
 20
6.9854
 30
0.0
 10
140.745
 20
5.1498
 30
0.0
 10
140.745
 20
5.1498
 30
0.0
 10
140.4817
 20
3.5052
 30
0.0
 10
139.8968
 20
2.7658
 30
0.0
 10
139.585
 20
3.6836
 30
0.0
 10
139.585
 20
3.6836
 30
0.0
 10
139.585
 20
3.6836
 30
0.0
 10
139.585
 20
3.6835
 30
0.0
 10
139.585
 20
3.6835
 30
0.0
  0
SPLINE
  5
4D
330
1F
100
AcDbEntity
  8
layer 1
 62
     7
100
AcDbSpline
210
0.0
220
0.0
230
1.0
 70
    11
 71
     3
 72
    32
 73
    28
 74
     0
 42
0.0000000001
 43
0.0000000001
 12
1.0
 22
0.0
 32
0.0
 13
1.0
 23
0.0
 33
0.0
 40
0.0
 40
0.0
 40
0.0
 40
0.0
 40
0.125
 40
0.125
 40
0.125
 40
0.125
 40
0.25
 40
0.25
 40
0.25
 40
0.25
 40
0.375
 40
0.375
 40
0.375
 40
0.375
 40
0.5
 40
0.5
 40
0.5
 40
0.5
 40
0.625
 40
0.625
 40
0.625
 40
0.625
 40
0.75
 40
0.75
 40
0.75
 40
0.75
 40
1.0
 40
1.0
 40
1.0
 40
1.0
 10
133.4038
 20
12.0585
 30
0.0
 10
132.491
 20
13.8881
 30
0.0
 10
126.5184
 20
18.7643
 30
0.0
 10
127.6
 20
19.1474
 30
0.0
 10
127.6
 20
19.1474
 30
0.0
 10
129.3779
 20
19.246
 30
0.0
 10
131.2198
 20
20.8234
 30
0.0
 10
131.8007
 20
21.71
 30
0.0
 10
131.8007
 20
21.71
 30
0.0
 10
132.5218
 20
22.8106
 30
0.0
 10
133.3691
 20
22.932
 30
0.0
 10
133.7318
 20
21.987
 30
0.0
 10
133.7318
 20
21.987
 30
0.0
 10
133.549
 20
20.3604
 30
0.0
 10
132.7178
 20
19.0268
 30
0.0
 10
131.4948
 20
18.2841
 30
0.0
 10
131.4948
 20
18.2841
 30
0.0
 10
131.4948
 20
18.1747
 30
0.0
 10
132.0799
 20
17.0484
 30
0.0
 10
132.7951
 20
15.7812
 30
0.0
 10
132.7951
 20
15.7812
 30
0.0
 10
134.082
 20
13.5006
 30
0.0
 10
134.7133
 20
11.0589
 30
0.0
 10
134.0158
 20
11.0589
 30
0.0
 10
134.0158
 20
11.0589
 30
0.0
 10
133.8173
 20
11.0589
 30
0.0
 10
133.5418
 20
11.5086
 30
0.0
 10
133.4038
 20
12.0585
 30
0.0
  0
SPLINE
  5
4E
330
1F
100
AcDbEntity
  8
layer 1
 62
     7
100
AcDbSpline
210
0.0
220
0.0
230
1.0
 70
    11
 71
     3
 72
    20
 73
    16
 74
     0
 42
0.0000000001
 43
0.0000000001
 12
1.0
 22
0.0
 32
0.0
 13
1.0
 23
0.0
 33
0.0
 40
0.0
 40
0.0
 40
0.0
 40
0.0
 40
0.2
 40
0.2
 40
0.2
 40
0.2
 40
0.4
 40
0.4
 40
0.4
 40
0.4
 40
0.6
 40
0.6
 40
0.6
 40
0.6
 40
1.0
 40
1.0
 40
1.0
 40
1.0
 10
124.1453
 20
21.4965
 30
0.0
 10
122.8371
 20
22.1345
 30
0.0
 10
122.9868
 20
22.9063
 30
0.0
 10
124.5229
 20
23.4418
 30
0.0
 10
124.5229
 20
23.4418
 30
0.0
 10
126.0639
 20
23.9791
 30
0.0
 10
125.9926
 20
24.0218
 30
0.0
 10
126.1752
 20
22.453
 30
0.0
 10
126.1752
 20
22.453
 30
0.0
 10
126.3373
 20
21.0612
 30
0.0
 10
125.6763
 20
20.7497
 30
0.0
 10
124.1452
 20
21.4965
 30
0.0
 10
124.1452
 20
21.4965
 30
0.0
 10
124.1452
 20
21.4965
 30
0.0
 10
124.1453
 20
21.4965
 30
0.0
 10
124.1453
 20
21.4965
 30
0.0
  0
SPLINE
  5
4F
330
1F
100
AcDbEntity
  8
layer 1
 62
     7
100
AcDbSpline
210
0.0
220
0.0
230
1.0
 70
    11
 71
     3
 72
    20
 73
    16
 74
     0
 42
0.0000000001
 43
0.0000000001
 12
1.0
 22
0.0
 32
0.0
 13
1.0
 23
0.0
 33
0.0
 40
0.0
 40
0.0
 40
0.0
 40
0.0
 40
0.2
 40
0.2
 40
0.2
 40
0.2
 40
0.4
 40
0.4
 40
0.4
 40
0.4
 40
0.6
 40
0.6
 40
0.6
 40
0.6
 40
1.0
 40
1.0
 40
1.0
 40
1.0
 10
119.7977
 20
23.7173
 30
0.0
 10
119.1714
 20
24.057
 30
0.0
 10
118.6591
 20
24.4927
 30
0.0
 10
118.6591
 20
24.6856
 30
0.0
 10
118.6591
 20
24.6856
 30
0.0
 10
118.6591
 20
24.8784
 30
0.0
 10
119.1714
 20
25.2388
 30
0.0
 10
119.7977
 20
25.4864
 30
0.0
 10
119.7977
 20
25.4864
 30
0.0
 10
121.9463
 20
26.3358
 30
0.0
 10
122.1128
 20
26.2743
 30
0.0
 10
122.1468
 20
24.6191
 30
0.0
 10
122.1468
 20
24.6191
 30
0.0
 10
122.1825
 20
22.8764
 30
0.0
 10
121.6938
 20
22.6888
 30
0.0
 10
119.7977
 20
23.7173
 30
0.0
  0
SPLINE
  5
50
330
1F
100
AcDbEntity
  8
layer 1
 62
     7
100
AcDbSpline
210
0.0
220
0.0
230
1.0
 70
    11
 71
     3
 72
    36
 73
    32
 74
     0
 42
0.0000000001
 43
0.0000000001
 12
1.0
 22
0.0
 32
0.0
 13
1.0
 23
0.0
 33
0.0
 40
0.0
 40
0.0
 40
0.0
 40
0.0
 40
0.1111111111111111
 40
0.1111111111111111
 40
0.1111111111111111
 40
0.1111111111111111
 40
0.2222222222222222
 40
0.2222222222222222
 40
0.2222222222222222
 40
0.2222222222222222
 40
0.3333333333333333
 40
0.3333333333333333
 40
0.3333333333333333
 40
0.3333333333333333
 40
0.4444444444444444
 40
0.4444444444444444
 40
0.4444444444444444
 40
0.4444444444444444
 40
0.5555555555555556
 40
0.5555555555555556
 40
0.5555555555555556
 40
0.5555555555555556
 40
0.6666666666666666
 40
0.6666666666666666
 40
0.6666666666666666
 40
0.6666666666666666
 40
0.7777777777777778
 40
0.7777777777777778
 40
0.7777777777777778
 40
0.7777777777777778
 40
1.0
 40
1.0
 40
1.0
 40
1.0
 10
150.0366
 20
23.2946
 30
0.0
 10
153.5235
 20
32.1806
 30
0.0
 10
152.6807
 20
40.0684
 30
0.0
 10
146.7813
 20
47.2366
 30
0.0
 10
146.7813
 20
47.2366
 30
0.0
 10
147.7099
 20
49.4156
 30
0.0
 10
148.6047
 20
51.8279
 30
0.0
 10
148.6642
 20
54.0903
 30
0.0
 10
148.6642
 20
54.0903
 30
0.0
 10
148.7038
 20
56.5203
 30
0.0
 10
148.7462
 20
56.5591
 30
0.0
 10
150.8084
 20
56.0505
 30
0.0
 10
150.8084
 20
56.0505
 30
0.0
 10
153.2708
 20
55.4433
 30
0.0
 10
153.5094
 20
54.7921
 30
0.0
 10
153.6689
 20
48.2435
 30
0.0
 10
153.6689
 20
48.2435
 30
0.0
 10
153.8279
 20
41.7172
 30
0.0
 10
155.0388
 20
35.8226
 30
0.0
 10
156.7
 20
33.49
 30
0.0
 10
156.7
 20
33.49
 30
0.0
 10
157.8976
 20
31.808
 30
0.0
 10
157.807
 20
30.8903
 30
0.0
 10
156.3016
 20
29.458
 30
0.0
 10
156.3016
 20
29.458
 30
0.0
 10
154.938
 20
28.271
 30
0.0
 10
152.6724
 20
26.3059
 30
0.0
 10
150.0366
 20
23.2944
 30
0.0
 10
150.0366
 20
23.2944
 30
0.0
 10
150.0366
 20
23.2944
 30
0.0
 10
150.0366
 20
23.2946
 30
0.0
 10
150.0366
 20
23.2946
 30
0.0
  0
SPLINE
  5
51
330
1F
100
AcDbEntity
  8
layer 1
 62
     7
100
AcDbSpline
210
0.0
220
0.0
230
1.0
 70
    11
 71
     3
 72
    24
 73
    20
 74
     0
 42
0.0000000001
 43
0.0000000001
 12
1.0
 22
0.0
 32
0.0
 13
1.0
 23
0.0
 33
0.0
 40
0.0
 40
0.0
 40
0.0
 40
0.0
 40
0.1666666666666667
 40
0.1666666666666667
 40
0.1666666666666667
 40
0.1666666666666667
 40
0.3333333333333333
 40
0.3333333333333333
 40
0.3333333333333333
 40
0.3333333333333333
 40
0.5
 40
0.5
 40
0.5
 40
0.5
 40
0.6666666666666666
 40
0.6666666666666666
 40
0.6666666666666666
 40
0.6666666666666666
 40
1.0
 40
1.0
 40
1.0
 40
1.0
 10
115.3729
 20
26.3275
 30
0.0
 10
114.9225
 20
27.2103
 30
0.0
 10
114.6704
 20
28.0486
 30
0.0
 10
114.8124
 20
28.1907
 30
0.0
 10
114.8124
 20
28.1907
 30
0.0
 10
114.9545
 20
28.3328
 30
0.0
 10
115.7044
 20
28.4491
 30
0.0
 10
116.4787
 20
28.4491
 30
0.0
 10
116.4787
 20
28.4491
 30
0.0
 10
117.9876
 20
28.4491
 30
0.0
 10
117.9926
 20
28.4203
 30
0.0
 10
116.9579
 20
25.6543
 30
0.0
 10
116.9579
 20
25.6543
 30
0.0
 10
116.4867
 20
24.395
 30
0.0
 10
116.3235
 20
24.4644
 30
0.0
 10
115.3729
 20
26.3277
 30
0.0
 10
115.3729
 20
26.3277
 30
0.0
 10
115.3729
 20
26.3277
 30
0.0
 10
115.3729
 20
26.3275
 30
0.0
 10
115.3729
 20
26.3275
 30
0.0
  0
SPLINE
  5
52
330
1F
100
AcDbEntity
  8
layer 1
 62
     7
100
AcDbSpline
210
0.0
220
0.0
230
1.0
 70
    11
 71
     3
 72
    36
 73
    32
 74
     0
 42
0.0000000001
 43
0.0000000001
 12
1.0
 22
0.0
 32
0.0
 13
1.0
 23
0.0
 33
0.0
 40
0.0
 40
0.0
 40
0.0
 40
0.0
 40
0.1111111111111111
 40
0.1111111111111111
 40
0.1111111111111111
 40
0.1111111111111111
 40
0.2222222222222222
 40
0.2222222222222222
 40
0.2222222222222222
 40
0.2222222222222222
 40
0.3333333333333333
 40
0.3333333333333333
 40
0.3333333333333333
 40
0.3333333333333333
 40
0.4444444444444444
 40
0.4444444444444444
 40
0.4444444444444444
 40
0.4444444444444444
 40
0.5555555555555556
 40
0.5555555555555556
 40
0.5555555555555556
 40
0.5555555555555556
 40
0.6666666666666666
 40
0.6666666666666666
 40
0.6666666666666666
 40
0.6666666666666666
 40
0.7777777777777778
 40
0.7777777777777778
 40
0.7777777777777778
 40
0.7777777777777778
 40
1.0
 40
1.0
 40
1.0
 40
1.0
 10
113.8792
 20
30.5434
 30
0.0
 10
113.6744
 20
30.8717
 30
0.0
 10
113.4486
 20
31.4199
 30
0.0
 10
113.3774
 20
31.7615
 30
0.0
 10
113.3774
 20
31.7615
 30
0.0
 10
113.0564
 20
33.3025
 30
0.0
 10
112.555
 20
36.9487
 30
0.0
 10
112.6495
 20
37.0555
 30
0.0
 10
112.6495
 20
37.0555
 30
0.0
 10
112.7071
 20
37.1206
 30
0.0
 10
114.5021
 20
37.3684
 30
0.0
 10
116.6383
 20
37.6062
 30
0.0
 10
116.6383
 20
37.6062
 30
0.0
 10
118.7746
 20
37.844
 30
0.0
 10
121.3177
 20
38.1864
 30
0.0
 10
122.2898
 20
38.3673
 30
0.0
 10
122.2898
 20
38.3673
 30
0.0
 10
124.5607
 20
38.7898
 30
0.0
 10
124.85
 20
38.3116
 30
0.0
 10
122.8854
 20
37.3832
 30
0.0
 10
122.8854
 20
37.3832
 30
0.0
 10
119.1821
 20
35.633
 30
0.0
 10
116.1286
 20
33.1421
 30
0.0
 10
114.6958
 20
30.7022
 30
0.0
 10
114.6958
 20
30.7022
 30
0.0
 10
114.3224
 20
30.0666
 30
0.0
 10
114.1925
 20
30.0412
 30
0.0
 10
113.8794
 20
30.5432
 30
0.0
 10
113.8794
 20
30.5432
 30
0.0
 10
113.8794
 20
30.5432
 30
0.0
 10
113.8792
 20
30.5434
 30
0.0
 10
113.8792
 20
30.5434
 30
0.0
  0
SPLINE
  5
53
330
1F
100
AcDbEntity
  8
layer 1
 62
     7
100
AcDbSpline
210
0.0
220
0.0
230
1.0
 70
    11
 71
     3
 72
    20
 73
    16
 74
     0
 42
0.0000000001
 43
0.0000000001
 12
1.0
 22
0.0
 32
0.0
 13
1.0
 23
0.0
 33
0.0
 40
0.0
 40
0.0
 40
0.0
 40
0.0
 40
0.2
 40
0.2
 40
0.2
 40
0.2
 40
0.4
 40
0.4
 40
0.4
 40
0.4
 40
0.6
 40
0.6
 40
0.6
 40
0.6
 40
1.0
 40
1.0
 40
1.0
 40
1.0
 10
156.1948
 20
51.2169
 30
0.0
 10
157.774
 20
51.2331
 30
0.0
 10
158.3442
 20
50.2458
 30
0.0
 10
158.829
 20
46.8494
 30
0.0
 10
158.829
 20
46.8494
 30
0.0
 10
160.001
 20
38.4607
 30
0.0
 10
159.9619
 20
38.7421
 30
0.0
 10
159.6392
 20
37.1065
 30
0.0
 10
159.6392
 20
37.1065
 30
0.0
 10
159.6757
 20
36.422
 30
0.0
 10
158.8078
 20
36.3032
 30
0.0
 10
158.656
 20
36.7642
 30
0.0
 10
158.656
 20
36.7642
 30
0.0
 10
156.9238
 20
40.3261
 30
0.0
 10
155.4625
 20
50.4846
 30
0.0
 10
156.1948
 20
51.2169
 30
0.0
  0
SPLINE
  5
54
330
1F
100
AcDbEntity
  8
layer 1
 62
     7
100
AcDbSpline
210
0.0
220
0.0
230
1.0
 70
    11
 71
     3
 72
    56
 73
    52
 74
     0
 42
0.0000000001
 43
0.0000000001
 12
1.0
 22
0.0
 32
0.0
 13
1.0
 23
0.0
 33
0.0
 40
0.0
 40
0.0
 40
0.0
 40
0.0
 40
0.0714285714285714
 40
0.0714285714285714
 40
0.0714285714285714
 40
0.0714285714285714
 40
0.1428571428571428
 40
0.1428571428571428
 40
0.1428571428571428
 40
0.1428571428571428
 40
0.2142857142857143
 40
0.2142857142857143
 40
0.2142857142857143
 40
0.2142857142857143
 40
0.2857142857142857
 40
0.2857142857142857
 40
0.2857142857142857
 40
0.2857142857142857
 40
0.3571428571428572
 40
0.3571428571428572
 40
0.3571428571428572
 40
0.3571428571428572
 40
0.4285714285714285
 40
0.4285714285714285
 40
0.4285714285714285
 40
0.4285714285714285
 40
0.5
 40
0.5
 40
0.5
 40
0.5
 40
0.5714285714285714
 40
0.5714285714285714
 40
0.5714285714285714
 40
0.5714285714285714
 40
0.6428571428571429
 40
0.6428571428571429
 40
0.6428571428571429
 40
0.6428571428571429
 40
0.7142857142857143
 40
0.7142857142857143
 40
0.7142857142857143
 40
0.7142857142857143
 40
0.7857142857142857
 40
0.7857142857142857
 40
0.7857142857142857
 40
0.7857142857142857
 40
0.8571428571428571
 40
0.8571428571428571
 40
0.8571428571428571
 40
0.8571428571428571
 40
1.0
 40
1.0
 40
1.0
 40
1.0
 10
163.6568
 20
37.977
 30
0.0
 10
163.3815
 20
38.9019
 30
0.0
 10
162.6175
 20
43.4384
 30
0.0
 10
161.9146
 20
48.3234
 30
0.0
 10
161.9146
 20
48.3234
 30
0.0
 10
161.3125
 20
52.5071
 30
0.0
 10
159.9573
 20
57.5245
 30
0.0
 10
159.1549
 20
58.5413
 30
0.0
 10
159.1549
 20
58.5413
 30
0.0
 10
168.6625
 20
81.418
 30
0.0
 10
168.864
 20
105.9582
 30
0.0
 10
155.1161
 20
117.6766
 30
0.0
 10
155.1161
 20
117.6766
 30
0.0
 10
153.4257
 20
105.9919
 30
0.0
 10
143.6754
 20
88.7571
 30
0.0
 10
137.4192
 20
80.851
 30
0.0
 10
137.4192
 20
80.851
 30
0.0
 10
136.8749
 20
86.2086
 30
0.0
 10
133.6542
 20
89.306
 30
0.0
 10
131.169
 20
91.8922
 30
0.0
 10
131.169
 20
91.8922
 30
0.0
 10
130.6062
 20
95.2538
 30
0.0
 10
130.7493
 20
99.9798
 30
0.0
 10
125.7556
 20
100.2568
 30
0.0
 10
125.7556
 20
100.2568
 30
0.0
 10
124.8359
 20
100.2847
 30
0.0
 10
124.7713
 20
100.4576
 30
0.0
 10
124.6618
 20
103.1854
 30
0.0
 10
124.6618
 20
103.1854
 30
0.0
 10
123.3732
 20
112.0952
 30
0.0
 10
121.4794
 20
121.0616
 30
0.0
 10
114.1052
 20
125.0018
 30
0.0
 10
114.1052
 20
125.0018
 30
0.0
 10
114.1052
 20
125.0018
 30
0.0
 10
165.4466
 20
125.0105
 30
0.0
 10
165.4466
 20
125.0105
 30
0.0
 10
165.4466
 20
125.0105
 30
0.0
 10
174.3201
 20
116.0018
 30
0.0
 10
180.0849
 20
110.2707
 30
0.0
 10
189.008
 20
101.6039
 30
0.0
 10
189.008
 20
101.6039
 30
0.0
 10
189.008
 20
101.6039
 30
0.0
 10
188.9676
 20
53.7034
 30
0.0
 10
188.9676
 20
53.7034
 30
0.0
 10
188.9676
 20
53.7034
 30
0.0
 10
174.8647
 20
50.793
 30
0.0
 10
168.0489
 20
45.9626
 30
0.0
 10
163.6566
 20
37.9772
 30
0.0
 10
163.6566
 20
37.9772
 30
0.0
 10
163.6566
 20
37.9772
 30
0.0
 10
163.6568
 20
37.977
 30
0.0
 10
163.6568
 20
37.977
 30
0.0
  0
SPLINE
  5
55
330
1F
100
AcDbEntity
  8
layer 1
 62
     7
100
AcDbSpline
210
0.0
220
0.0
230
1.0
 70
    11
 71
     3
 72
   148
 73
   144
 74
     0
 42
0.0000000001
 43
0.0000000001
 12
1.0
 22
0.0
 32
0.0
 13
1.0
 23
0.0
 33
0.0
 40
0.0
 40
0.0
 40
0.0
 40
0.0
 40
0.027027027027027
 40
0.027027027027027
 40
0.027027027027027
 40
0.027027027027027
 40
0.0540540540540541
 40
0.0540540540540541
 40
0.0540540540540541
 40
0.0540540540540541
 40
0.0810810810810811
 40
0.0810810810810811
 40
0.0810810810810811
 40
0.0810810810810811
 40
0.1081081081081081
 40
0.1081081081081081
 40
0.1081081081081081
 40
0.1081081081081081
 40
0.1351351351351351
 40
0.1351351351351351
 40
0.1351351351351351
 40
0.1351351351351351
 40
0.1621621621621622
 40
0.1621621621621622
 40
0.1621621621621622
 40
0.1621621621621622
 40
0.1891891891891892
 40
0.1891891891891892
 40
0.1891891891891892
 40
0.1891891891891892
 40
0.2162162162162162
 40
0.2162162162162162
 40
0.2162162162162162
 40
0.2162162162162162
 40
0.2432432432432433
 40
0.2432432432432433
 40
0.2432432432432433
 40
0.2432432432432433
 40
0.2702702702702703
 40
0.2702702702702703
 40
0.2702702702702703
 40
0.2702702702702703
 40
0.2972972972972973
 40
0.2972972972972973
 40
0.2972972972972973
 40
0.2972972972972973
 40
0.3243243243243243
 40
0.3243243243243243
 40
0.3243243243243243
 40
0.3243243243243243
 40
0.3513513513513514
 40
0.3513513513513514
 40
0.3513513513513514
 40
0.3513513513513514
 40
0.3783783783783784
 40
0.3783783783783784
 40
0.3783783783783784
 40
0.3783783783783784
 40
0.4054054054054054
 40
0.4054054054054054
 40
0.4054054054054054
 40
0.4054054054054054
 40
0.4324324324324325
 40
0.4324324324324325
 40
0.4324324324324325
 40
0.4324324324324325
 40
0.4594594594594595
 40
0.4594594594594595
 40
0.4594594594594595
 40
0.4594594594594595
 40
0.4864864864864865
 40
0.4864864864864865
 40
0.4864864864864865
 40
0.4864864864864865
 40
0.5135135135135135
 40
0.5135135135135135
 40
0.5135135135135135
 40
0.5135135135135135
 40
0.5405405405405406
 40
0.5405405405405406
 40
0.5405405405405406
 40
0.5405405405405406
 40
0.5675675675675675
 40
0.5675675675675675
 40
0.5675675675675675
 40
0.5675675675675675
 40
0.5945945945945946
 40
0.5945945945945946
 40
0.5945945945945946
 40
0.5945945945945946
 40
0.6216216216216216
 40
0.6216216216216216
 40
0.6216216216216216
 40
0.6216216216216216
 40
0.6486486486486487
 40
0.6486486486486487
 40
0.6486486486486487
 40
0.6486486486486487
 40
0.6756756756756757
 40
0.6756756756756757
 40
0.6756756756756757
 40
0.6756756756756757
 40
0.7027027027027027
 40
0.7027027027027027
 40
0.7027027027027027
 40
0.7027027027027027
 40
0.7297297297297297
 40
0.7297297297297297
 40
0.7297297297297297
 40
0.7297297297297297
 40
0.7567567567567568
 40
0.7567567567567568
 40
0.7567567567567568
 40
0.7567567567567568
 40
0.7837837837837838
 40
0.7837837837837838
 40
0.7837837837837838
 40
0.7837837837837838
 40
0.8108108108108109
 40
0.8108108108108109
 40
0.8108108108108109
 40
0.8108108108108109
 40
0.8378378378378378
 40
0.8378378378378378
 40
0.8378378378378378
 40
0.8378378378378378
 40
0.8648648648648649
 40
0.8648648648648649
 40
0.8648648648648649
 40
0.8648648648648649
 40
0.8918918918918919
 40
0.8918918918918919
 40
0.8918918918918919
 40
0.8918918918918919
 40
0.918918918918919
 40
0.918918918918919
 40
0.918918918918919
 40
0.918918918918919
 40
0.9459459459459459
 40
0.9459459459459459
 40
0.9459459459459459
 40
0.9459459459459459
 40
1.0
 40
1.0
 40
1.0
 40
1.0
 10
82.3341
 20
58.6082
 30
0.0
 10
81.102
 20
57.8534
 30
0.0
 10
80.9229
 20
57.8401
 30
0.0
 10
80.0683
 20
58.4387
 30
0.0
 10
80.0683
 20
58.4387
 30
0.0
 10
77.8683
 20
59.8199
 30
0.0
 10
73.4124
 20
57.9608
 30
0.0
 10
72.2548
 20
56.1328
 30
0.0
 10
72.2548
 20
56.1328
 30
0.0
 10
71.8379
 20
55.3538
 30
0.0
 10
71.7849
 20
55.3616
 30
0.0
 10
70.574
 20
56.3804
 30
0.0
 10
70.574
 20
56.3804
 30
0.0
 10
54.949
 20
63.211
 30
0.0
 10
39.6155
 20
57.3725
 30
0.0
 10
33.3864
 20
49.8489
 30
0.0
 10
33.3864
 20
49.8489
 30
0.0
 10
33.3864
 20
49.8489
 30
0.0
 10
33.3864
 20
105.6828
 30
0.0
 10
33.3864
 20
105.6828
 30
0.0
 10
33.3864
 20
105.6828
 30
0.0
 10
33.3864
 20
105.6828
 30
0.0
 10
55.9691
 20
125.0104
 30
0.0
 10
55.9691
 20
125.0104
 30
0.0
 10
55.9691
 20
125.0104
 30
0.0
 10
55.9691
 20
125.0104
 30
0.0
 10
101.0546
 20
125.0104
 30
0.0
 10
101.0546
 20
125.0104
 30
0.0
 10
101.0546
 20
125.0104
 30
0.0
 10
102.8336
 20
121.3246
 30
0.0
 10
100.1622
 20
115.0335
 30
0.0
 10
102.1671
 20
110.9519
 30
0.0
 10
102.1671
 20
110.9519
 30
0.0
 10
102.5925
 20
110.1259
 30
0.0
 10
102.7012
 20
109.5129
 30
0.0
 10
102.4501
 20
109.3577
 30
0.0
 10
102.4501
 20
109.3577
 30
0.0
 10
102.2257
 20
109.219
 30
0.0
 10
101.9895
 20
109.1707
 30
0.0
 10
101.9252
 20
109.2505
 30
0.0
 10
101.9252
 20
109.2505
 30
0.0
 10
101.861
 20
109.3303
 30
0.0
 10
100.9517
 20
110.6998
 30
0.0
 10
99.9044
 20
112.2938
 30
0.0
 10
99.9044
 20
112.2938
 30
0.0
 10
98.8572
 20
113.8878
 30
0.0
 10
97.6996
 20
115.5297
 30
0.0
 10
97.332
 20
115.9422
 30
0.0
 10
97.332
 20
115.9422
 30
0.0
 10
96.2868
 20
117.1149
 30
0.0
 10
95.3142
 20
116.6489
 30
0.0
 10
95.0193
 20
114.8341
 30
0.0
 10
95.0193
 20
114.8341
 30
0.0
 10
94.7914
 20
113.4326
 30
0.0
 10
94.1434
 20
112.5269
 30
0.0
 10
93.3545
 20
112.5072
 30
0.0
 10
93.3545
 20
112.5072
 30
0.0
 10
93.2144
 20
112.5038
 30
0.0
 10
92.5955
 20
112.8975
 30
0.0
 10
91.9793
 20
113.3823
 30
0.0
 10
91.9793
 20
113.3823
 30
0.0
 10
90.3586
 20
114.6571
 30
0.0
 10
89.6281
 20
113.8363
 30
0.0
 10
90.6668
 20
111.9077
 30
0.0
 10
90.6668
 20
111.9077
 30
0.0
 10
91.6882
 20
110.0109
 30
0.0
 10
91.2794
 20
109.4976
 30
0.0
 10
89.0178
 20
109.8367
 30
0.0
 10
89.0178
 20
109.8367
 30
0.0
 10
87.4135
 20
110.0772
 30
0.0
 10
87.1916
 20
110.0168
 30
0.0
 10
87.1941
 20
109.3391
 30
0.0
 10
87.1941
 20
109.3391
 30
0.0
 10
87.1958
 20
108.9147
 30
0.0
 10
87.5568
 20
108.0214
 30
0.0
 10
87.9967
 20
107.354
 30
0.0
 10
87.9967
 20
107.354
 30
0.0
 10
89.0779
 20
105.714
 30
0.0
 10
88.5122
 20
104.5938
 30
0.0
 10
86.6755
 20
104.7378
 30
0.0
 10
86.6755
 20
104.7378
 30
0.0
 10
84.9298
 20
104.8747
 30
0.0
 10
84.7043
 20
103.7996
 30
0.0
 10
86.1246
 20
102.1115
 30
0.0
 10
86.1246
 20
102.1115
 30
0.0
 10
87.4614
 20
100.523
 30
0.0
 10
87.469
 20
99.7161
 30
0.0
 10
86.158
 20
98.6457
 30
0.0
 10
86.158
 20
98.6457
 30
0.0
 10
84.6303
 20
97.3985
 30
0.0
 10
85.3691
 20
96.7658
 30
0.0
 10
88.8908
 20
96.3056
 30
0.0
 10
88.8908
 20
96.3056
 30
0.0
 10
91.1499
 20
95.0992
 30
0.0
 10
94.928
 20
96.3952
 30
0.0
 10
99.1987
 20
97.6393
 30
0.0
 10
99.1987
 20
97.6393
 30
0.0
 10
99.1987
 20
97.3872
 30
0.0
 10
96.8597
 20
96.083
 30
0.0
 10
98.8811
 20
97.181
 30
0.0
 10
98.8811
 20
97.181
 30
0.0
 10
91.9733
 20
93.4964
 30
0.0
 10
84.3314
 20
87.5388
 30
0.0
 10
82.8413
 20
82.2278
 30
0.0
 10
82.8413
 20
82.2278
 30
0.0
 10
82.515
 20
80.9009
 30
0.0
 10
82.8768
 20
80.7205
 30
0.0
 10
87.3983
 20
79.9546
 30
0.0
 10
87.3983
 20
79.9546
 30
0.0
 10
98.0571
 20
78.9803
 30
0.0
 10
109.9256
 20
80.0861
 30
0.0
 10
117.341
 20
87.1695
 30
0.0
 10
117.341
 20
87.1695
 30
0.0
 10
119.7456
 20
89.5121
 30
0.0
 10
120.0814
 20
89.706
 30
0.0
 10
119.7104
 20
88.5374
 30
0.0
 10
119.7104
 20
88.5374
 30
0.0
 10
119.4121
 20
87.5976
 30
0.0
 10
120.3943
 20
87.2571
 30
0.0
 10
123.4205
 20
87.2512
 30
0.0
 10
123.4205
 20
87.2512
 30
0.0
 10
125.4154
 20
87.2524
 30
0.0
 10
126.6691
 20
87.9654
 30
0.0
 10
128.2672
 20
88.9397
 30
0.0
 10
128.2672
 20
88.9397
 30
0.0
 10
138.6929
 20
76.9016
 30
0.0
 10
130.5987
 20
68.4009
 30
0.0
 10
130.4743
 20
57.7614
 30
0.0
 10
130.4743
 20
57.7614
 30
0.0
 10
130.5408
 20
55.9824
 30
0.0
 10
130.187
 20
55.7596
 30
0.0
 10
127.7415
 20
56.0406
 30
0.0
 10
127.7415
 20
56.0406
 30
0.0
 10
119.7888
 20
55.1361
 30
0.0
 10
114.0816
 20
51.6363
 30
0.0
 10
108.4819
 20
47.6217
 30
0.0
 10
108.4819
 20
47.6217
 30
0.0
 10
103.3382
 20
57.2127
 30
0.0
 10
89.2139
 20
61.3342
 30
0.0
 10
82.3339
 20
58.6082
 30
0.0
 10
82.3339
 20
58.6082
 30
0.0
 10
82.3339
 20
58.6082
 30
0.0
 10
82.3341
 20
58.6082
 30
0.0
 10
82.3341
 20
58.6082
 30
0.0
  0
SPLINE
  5
56
330
1F
100
AcDbEntity
  8
layer 1
 62
     7
100
AcDbSpline
210
0.0
220
0.0
230
1.0
 70
    11
 71
     3
 72
    32
 73
    28
 74
     0
 42
0.0000000001
 43
0.0000000001
 12
1.0
 22
0.0
 32
0.0
 13
1.0
 23
0.0
 33
0.0
 40
0.0
 40
0.0
 40
0.0
 40
0.0
 40
0.125
 40
0.125
 40
0.125
 40
0.125
 40
0.25
 40
0.25
 40
0.25
 40
0.25
 40
0.375
 40
0.375
 40
0.375
 40
0.375
 40
0.5
 40
0.5
 40
0.5
 40
0.5
 40
0.625
 40
0.625
 40
0.625
 40
0.625
 40
0.75
 40
0.75
 40
0.75
 40
0.75
 40
1.0
 40
1.0
 40
1.0
 40
1.0
 10
134.0971
 20
56.6951
 30
0.0
 10
135.83
 20
59.1481
 30
0.0
 10
138.1815
 20
60.2073
 30
0.0
 10
141.1329
 20
61.6322
 30
0.0
 10
141.1329
 20
61.6322
 30
0.0
 10
140.8021
 20
66.0509
 30
0.0
 10
140.0972
 20
70.7874
 30
0.0
 10
139.5102
 20
74.5461
 30
0.0
 10
139.5102
 20
74.5461
 30
0.0
 10
146.9905
 20
83.757
 30
0.0
 10
154.5827
 20
96.2508
 30
0.0
 10
157.0198
 20
107.0008
 30
0.0
 10
157.0198
 20
107.0008
 30
0.0
 10
162.9318
 20
97.8886
 30
0.0
 10
159.46
 20
79.638
 30
0.0
 10
153.9506
 20
62.6176
 30
0.0
 10
153.9506
 20
62.6176
 30
0.0
 10
148.7197
 20
64.2525
 30
0.0
 10
144.8032
 20
63.1876
 30
0.0
 10
141.3736
 20
61.3724
 30
0.0
 10
141.3736
 20
61.3724
 30
0.0
 10
138.993
 20
60.8615
 30
0.0
 10
135.1844
 20
58.0043
 30
0.0
 10
134.0969
 20
56.6951
 30
0.0
 10
134.0969
 20
56.6951
 30
0.0
 10
134.0969
 20
56.6951
 30
0.0
 10
134.0971
 20
56.6951
 30
0.0
 10
134.0971
 20
56.6951
 30
0.0
  0
ENDSEC
  0
SECTION
  2
OBJECTS
  0
DICTIONARY
  5
C
330
0
100
AcDbDictionary
281
     1
  3
ACAD_GROUP
350
D
  3
ACAD_LAYOUT
350
1A
  3
ACAD_MATERIAL
350
3B
  3
ACAD_MLEADERSTYLE
350
79
  3
ACAD_MLINESTYLE
350
17
  3
ACAD_PLOTSETTINGS
350
19
  3
ACAD_PLOTSTYLENAME
350
E
  3
ACAD_TABLESTYLE
350
78
  3
ACAD_VISUALSTYLE
350
2A
  0
DICTIONARY
  5
D
102
{ACAD_REACTORS
330
C
102
}
330
C
100
AcDbDictionary
281
     1
  0
DICTIONARY
  5
1A
102
{ACAD_REACTORS
330
C
102
}
330
C
100
AcDbDictionary
281
     1
  3
Layout1
350
1E
  3
Layout2
350
26
  3
Model
350
22
  0
DICTIONARY
  5
3B
102
{ACAD_REACTORS
330
C
102
}
330
C
100
AcDbDictionary
281
     1
  3
ByBlock
350
3D
  3
ByLayer
350
3C
  3
Global
350
3E
  0
DICTIONARY
  5
79
102
{ACAD_REACTORS
330
C
102
}
330
C
100
AcDbDictionary
281
     1
  0
DICTIONARY
  5
17
102
{ACAD_REACTORS
330
C
102
}
330
C
100
AcDbDictionary
281
     1
  3
Standard
350
18
  0
DICTIONARY
  5
19
102
{ACAD_REACTORS
330
C
102
}
330
C
100
AcDbDictionary
281
     1
  0
ACDBDICTIONARYWDFLT
  5
E
102
{ACAD_REACTORS
330
C
102
}
330
C
100
AcDbDictionary
281
     1
  3
Normal
350
F
100
AcDbDictionaryWithDefault
340
F
  0
DICTIONARY
  5
78
102
{ACAD_REACTORS
330
C
102
}
330
C
100
AcDbDictionary
281
     1
  0
DICTIONARY
  5
2A
102
{ACAD_REACTORS
330
C
102
}
330
C
100
AcDbDictionary
281
     1
  3
2dWireframe
350
2F
  3
3D Hidden
350
31
  3
3dWireframe
350
30
  3
Basic
350
32
  3
Brighten
350
36
  3
ColorChange
350
3A
  3
Conceptual
350
34
  3
Dim
350
35
  3
Facepattern
350
39
  3
Flat
350
2B
  3
FlatWithEdges
350
2C
  3
Gouraud
350
2D
  3
GouraudWithEdges
350
2E
  3
Linepattern
350
38
  3
Realistic
350
33
  3
Thicken
350
37
  0
LAYOUT
  5
1E
102
{ACAD_REACTORS
330
1A
102
}
330
1A
100
AcDbPlotSettings
  1

  2
none_device
  4

  6

 40
0.0
 41
0.0
 42
0.0
 43
0.0
 44
0.0
 45
0.0
 46
0.0
 47
0.0
 48
0.0
 49
0.0
140
0.0
141
0.0
142
1.0
143
1.0
 70
   688
 72
     0
 73
     0
 74
     5
  7

 75
    16
 76
     0
 77
     2
 78
   300
147
1.0
148
0.0
149
0.0
100
AcDbLayout
  1
Layout1
 70
     1
 71
     1
 10
0.0
 20
0.0
 11
12.0
 21
9.0
 12
0.0
 22
0.0
 32
0.0
 14
1.000000000000000E+20
 24
1.000000000000000E+20
 34
1.000000000000000E+20
 15
-1.000000000000000E+20
 25
-1.000000000000000E+20
 35
-1.000000000000000E+20
146
0.0
 13
0.0
 23
0.0
 33
0.0
 16
1.0
 26
0.0
 36
0.0
 17
0.0
 27
1.0
 37
0.0
 76
     0
330
1B
  0
LAYOUT
  5
26
102
{ACAD_REACTORS
330
1A
102
}
330
1A
100
AcDbPlotSettings
  1

  2
none_device
  4

  6

 40
0.0
 41
0.0
 42
0.0
 43
0.0
 44
0.0
 45
0.0
 46
0.0
 47
0.0
 48
0.0
 49
0.0
140
0.0
141
0.0
142
1.0
143
1.0
 70
   688
 72
     0
 73
     0
 74
     5
  7

 75
    16
 76
     0
 77
     2
 78
   300
147
1.0
148
0.0
149
0.0
100
AcDbLayout
  1
Layout2
 70
     1
 71
     2
 10
0.0
 20
0.0
 11
0.0
 21
0.0
 12
0.0
 22
0.0
 32
0.0
 14
0.0
 24
0.0
 34
0.0
 15
0.0
 25
0.0
 35
0.0
146
0.0
 13
0.0
 23
0.0
 33
0.0
 16
1.0
 26
0.0
 36
0.0
 17
0.0
 27
1.0
 37
0.0
 76
     0
330
23
  0
LAYOUT
  5
22
102
{ACAD_REACTORS
330
1A
102
}
330
1A
100
AcDbPlotSettings
  1

  2
none_device
  4

  6

 40
0.0
 41
0.0
 42
0.0
 43
0.0
 44
0.0
 45
0.0
 46
0.0
 47
0.0
 48
0.0
 49
0.0
140
0.0
141
0.0
142
1.0
143
1.0
 70
  1712
 72
     0
 73
     0
 74
     0
  7

 75
     0
 76
     0
 77
     2
 78
   300
147
1.0
148
0.0
149
0.0
100
AcDbLayout
  1
Model
 70
     1
 71
     0
 10
0.0
 20
0.0
 11
12.0
 21
9.0
 12
0.0
 22
0.0
 32
0.0
 14
26.2473
 24
-114.5887
 34
0.0
 15
195.8745
 25
131.8639
 35
0.0
146
0.0
 13
0.0
 23
0.0
 33
0.0
 16
1.0
 26
0.0
 36
0.0
 17
0.0
 27
1.0
 37
0.0
 76
     0
330
1F
331
29
  0
MATERIAL
  5
3D
102
{ACAD_REACTORS
330
3B
102
}
330
3B
100
AcDbMaterial
  1
ByBlock
 72
     1
 94
      127
  0
MATERIAL
  5
3C
102
{ACAD_REACTORS
330
3B
102
}
330
3B
100
AcDbMaterial
  1
ByLayer
 72
     1
 94
      127
  0
MATERIAL
  5
3E
102
{ACAD_REACTORS
330
3B
102
}
330
3B
100
AcDbMaterial
  1
Global
 72
     1
 94
      127
  0
MLINESTYLE
  5
18
102
{ACAD_REACTORS
330
17
102
}
330
17
100
AcDbMlineStyle
  2
Standard
 70
     0
  3

 62
   256
 51
90.0
 52
90.0
 71
     2
 49
0.5
 62
   256
  6
BYLAYER
 49
-0.5
 62
   256
  6
BYLAYER
  0
ACDBPLACEHOLDER
  5
F
102
{ACAD_REACTORS
330
E
102
}
330
E
  0
VISUALSTYLE
  5
2F
102
{ACAD_REACTORS
330
2A
102
}
102
{ACAD_XDICTIONARY
360
60
102
}
330
2A
100
AcDbVisualStyle
  2
2dWireframe
 70
     4
 71
     0
 72
     2
 73
     0
 90
        0
 40
-0.6
 41
-30.0
 62
     5
 63
     7
421
 16777215
 74
     1
 91
        4
 64
     7
 65
   257
 75
     1
175
     1
 42
1.0
 92
        0
 66
   257
 43
1.0
 76
     1
 77
     6
 78
     2
 67
     7
 79
     5
170
     0
171
     0
290
     0
174
     0
 93
        1
 44
0.0
173
     0
291
     0
 45
0.0
  0
VISUALSTYLE
  5
31
102
{ACAD_REACTORS
330
2A
102
}
102
{ACAD_XDICTIONARY
360
64
102
}
330
2A
100
AcDbVisualStyle
  2
3D Hidden
 70
     6
 71
     1
 72
     2
 73
     2
 90
        0
 40
-0.6
 41
-30.0
 62
     5
 63
     7
421
 16777215
 74
     2
 91
        2
 64
     7
 65
   257
 75
     2
175
     1
 42
40.0
 92
        0
 66
   257
 43
1.0
 76
     1
 77
     6
 78
     2
 67
     7
 79
     3
170
     0
171
     0
290
     0
174
     0
 93
        1
 44
0.0
173
     0
291
     0
 45
0.0
  0
VISUALSTYLE
  5
30
102
{ACAD_REACTORS
330
2A
102
}
102
{ACAD_XDICTIONARY
360
62
102
}
330
2A
100
AcDbVisualStyle
  2
3dWireframe
 70
     5
 71
     0
 72
     2
 73
     0
 90
        0
 40
-0.6
 41
-30.0
 62
     5
 63
     7
421
 16777215
 74
     1
 91
        4
 64
     7
 65
   257
 75
     1
175
     1
 42
1.0
 92
        0
 66
   257
 43
1.0
 76
     1
 77
     6
 78
     2
 67
     7
 79
     5
170
     0
171
     0
290
     0
174
     0
 93
        1
 44
0.0
173
     0
291
     0
 45
0.0
  0
VISUALSTYLE
  5
32
102
{ACAD_REACTORS
330
2A
102
}
102
{ACAD_XDICTIONARY
360
66
102
}
330
2A
100
AcDbVisualStyle
  2
Basic
 70
     7
 71
     1
 72
     0
 73
     1
 90
        0
 40
-0.6
 41
-30.0
 62
     5
 63
     7
421
 16777215
 74
     0
 91
        4
 64
     7
 65
   257
 75
     1
175
     1
 42
1.0
 92
        8
 66
     7
 43
1.0
 76
     1
 77
     6
 78
     2
 67
     7
 79
     5
170
     0
171
     0
290
     0
174
     0
 93
        1
 44
0.0
173
     0
291
     1
 45
0.0
  0
VISUALSTYLE
  5
36
102
{ACAD_REACTORS
330
2A
102
}
102
{ACAD_XDICTIONARY
360
6E
102
}
330
2A
100
AcDbVisualStyle
  2
Brighten
 70
    12
 71
     2
 72
     2
 73
     0
 90
        0
 40
-0.6
 41
-30.0
 62
     5
 63
     7
421
 16777215
 74
     1
 91
        4
 64
     7
 65
   257
 75
     1
175
     1
 42
1.0
 92
        8
 66
     7
 43
1.0
 76
     1
 77
     6
 78
     2
 67
     7
 79
     5
170
     0
171
     0
290
     0
174
     0
 93
        1
 44
50.0
173
     0
291
     1
 45
0.0
  0
VISUALSTYLE
  5
3A
102
{ACAD_REACTORS
330
2A
102
}
102
{ACAD_XDICTIONARY
360
76
102
}
330
2A
100
AcDbVisualStyle
  2
ColorChange
 70
    16
 71
     2
 72
     2
 73
     3
 90
        0
 40
-0.6
 41
-30.0
 62
     5
 63
     8
421
  8421504
 74
     1
 91
        4
 64
     7
 65
   257
 75
     1
175
     1
 42
1.0
 92
        8
 66
     8
424
  8421504
 43
1.0
 76
     1
 77
     6
 78
     2
 67
     7
 79
     5
170
     0
171
     0
290
     0
174
     0
 93
        1
 44
0.0
173
     0
291
     1
 45
0.0
  0
VISUALSTYLE
  5
34
102
{ACAD_REACTORS
330
2A
102
}
102
{ACAD_XDICTIONARY
360
6A
102
}
330
2A
100
AcDbVisualStyle
  2
Conceptual
 70
     9
 71
     3
 72
     2
 73
     0
 90
        0
 40
-0.6
 41
-30.0
 62
     5
 63
     7
421
 16777215
 74
     2
 91
        2
 64
     7
 65
   257
 75
     1
175
     1
 42
40.0
 92
        8
 66
     7
 43
1.0
 76
     1
 77
     6
 78
     2
 67
     7
 79
     3
170
     0
171
     0
290
     0
174
     0
 93
        1
 44
0.0
173
     0
291
     0
 45
0.0
  0
VISUALSTYLE
  5
35
102
{ACAD_REACTORS
330
2A
102
}
102
{ACAD_XDICTIONARY
360
6C
102
}
330
2A
100
AcDbVisualStyle
  2
Dim
 70
    11
 71
     2
 72
     2
 73
     0
 90
        0
 40
-0.6
 41
-30.0
 62
     5
 63
     7
421
 16777215
 74
     1
 91
        4
 64
     7
 65
   257
 75
     1
175
     1
 42
1.0
 92
        8
 66
     7
 43
1.0
 76
     1
 77
     6
 78
     2
 67
     7
 79
     5
170
     0
171
     0
290
     0
174
     0
 93
        1
 44
-50.0
173
     0
291
     1
 45
0.0
  0
VISUALSTYLE
  5
39
102
{ACAD_REACTORS
330
2A
102
}
102
{ACAD_XDICTIONARY
360
74
102
}
330
2A
100
AcDbVisualStyle
  2
Facepattern
 70
    15
 71
     2
 72
     2
 73
     0
 90
        0
 40
-0.6
 41
-30.0
 62
     5
 63
     7
421
 16777215
 74
     1
 91
        4
 64
     7
 65
   257
 75
     1
175
     1
 42
1.0
 92
        8
 66
     7
 43
1.0
 76
     1
 77
     6
 78
     2
 67
     7
 79
     5
170
     0
171
     0
290
     0
174
     0
 93
        1
 44
0.0
173
     0
291
     1
 45
0.0
  0
VISUALSTYLE
  5
2B
102
{ACAD_REACTORS
330
2A
102
}
102
{ACAD_XDICTIONARY
360
58
102
}
330
2A
100
AcDbVisualStyle
  2
Flat
 70
     0
 71
     2
 72
     1
 73
     1
 90
        2
 40
-0.6
 41
30.0
 62
     5
 63
     7
421
 16777215
 74
     0
 91
        4
 64
     7
 65
   257
 75
     1
175
     1
 42
1.0
 92
        8
 66
     7
 43
1.0
 76
     1
 77
     6
 78
     2
 67
     7
 79
     5
170
     0
171
     0
290
     0
174
     0
 93
       13
 44
0.0
173
     0
291
     1
 45
0.0
  0
VISUALSTYLE
  5
2C
102
{ACAD_REACTORS
330
2A
102
}
102
{ACAD_XDICTIONARY
360
5A
102
}
330
2A
100
AcDbVisualStyle
  2
FlatWithEdges
 70
     1
 71
     2
 72
     1
 73
     1
 90
        2
 40
-0.6
 41
30.0
 62
     5
 63
     7
421
 16777215
 74
     1
 91
        4
 64
     7
 65
   257
 75
     1
175
     1
 42
1.0
 92
        0
 66
   257
 43
1.0
 76
     1
 77
     6
 78
     2
 67
     7
 79
     5
170
     0
171
     0
290
     0
174
     0
 93
       13
 44
0.0
173
     0
291
     1
 45
0.0
  0
VISUALSTYLE
  5
2D
102
{ACAD_REACTORS
330
2A
102
}
102
{ACAD_XDICTIONARY
360
5C
102
}
330
2A
100
AcDbVisualStyle
  2
Gouraud
 70
     2
 71
     2
 72
     2
 73
     1
 90
        2
 40
-0.6
 41
30.0
 62
     5
 63
     7
421
 16777215
 74
     0
 91
        4
 64
     7
 65
   257
 75
     1
175
     1
 42
1.0
 92
        0
 66
     7
 43
1.0
 76
     1
 77
     6
 78
     2
 67
     7
 79
     5
170
     0
171
     0
290
     0
174
     0
 93
       13
 44
0.0
173
     0
291
     1
 45
0.0
  0
VISUALSTYLE
  5
2E
102
{ACAD_REACTORS
330
2A
102
}
102
{ACAD_XDICTIONARY
360
5E
102
}
330
2A
100
AcDbVisualStyle
  2
GouraudWithEdges
 70
     3
 71
     2
 72
     2
 73
     1
 90
        2
 40
-0.6
 41
30.0
 62
     5
 63
     7
421
 16777215
 74
     1
 91
        4
 64
     7
 65
   257
 75
     1
175
     1
 42
1.0
 92
        0
 66
   257
 43
1.0
 76
     1
 77
     6
 78
     2
 67
     7
 79
     5
170
     0
171
     0
290
     0
174
     0
 93
       13
 44
0.0
173
     0
291
     1
 45
0.0
  0
VISUALSTYLE
  5
38
102
{ACAD_REACTORS
330
2A
102
}
102
{ACAD_XDICTIONARY
360
72
102
}
330
2A
100
AcDbVisualStyle
  2
Linepattern
 70
    14
 71
     2
 72
     2
 73
     0
 90
        0
 40
-0.6
 41
-30.0
 62
     5
 63
     7
421
 16777215
 74
     1
 91
        4
 64
     7
 65
   257
 75
     7
175
     7
 42
1.0
 92
        8
 66
     7
 43
1.0
 76
     1
 77
     6
 78
     2
 67
     7
 79
     5
170
     0
171
     0
290
     0
174
     0
 93
        1
 44
0.0
173
     0
291
     1
 45
0.0
  0
VISUALSTYLE
  5
33
102
{ACAD_REACTORS
330
2A
102
}
102
{ACAD_XDICTIONARY
360
68
102
}
330
2A
100
AcDbVisualStyle
  2
Realistic
 70
     8
 71
     2
 72
     2
 73
     0
 90
        0
 40
-0.6
 41
-30.0
 62
     5
 63
     7
421
 16777215
 74
     1
 91
        0
 64
     7
 65
   257
 75
     1
175
     1
 42
1.0
 92
        8
 66
     8
424
  7895160
 43
1.0
 76
     1
 77
     6
 78
     2
 67
     7
 79
     5
170
     0
171
     0
290
     0
174
     0
 93
       13
 44
0.0
173
     0
291
     0
 45
0.0
  0
VISUALSTYLE
  5
37
102
{ACAD_REACTORS
330
2A
102
}
102
{ACAD_XDICTIONARY
360
70
102
}
330
2A
100
AcDbVisualStyle
  2
Thicken
 70
    13
 71
     2
 72
     2
 73
     0
 90
        0
 40
-0.6
 41
-30.0
 62
     5
 63
     7
421
 16777215
 74
     1
 91
        4
 64
     7
 65
   257
 75
     1
175
     1
 42
1.0
 92
       12
 66
     7
 43
1.0
 76
     1
 77
     6
 78
     2
 67
     7
 79
     5
170
     0
171
     0
290
     0
174
     0
 93
        1
 44
0.0
173
     0
291
     1
 45
0.0
  0
DICTIONARY
  5
60
330
2F
100
AcDbDictionary
280
     1
281
     1
  3
ACAD_XREC_ROUNDTRIP
360
61
  0
DICTIONARY
  5
64
330
31
100
AcDbDictionary
280
     1
281
     1
  3
ACAD_XREC_ROUNDTRIP
360
65
  0
DICTIONARY
  5
62
330
30
100
AcDbDictionary
280
     1
281
     1
  3
ACAD_XREC_ROUNDTRIP
360
63
  0
DICTIONARY
  5
66
330
32
100
AcDbDictionary
280
     1
281
     1
  3
ACAD_XREC_ROUNDTRIP
360
67
  0
DICTIONARY
  5
6E
330
36
100
AcDbDictionary
280
     1
281
     1
  3
ACAD_XREC_ROUNDTRIP
360
6F
  0
DICTIONARY
  5
76
330
3A
100
AcDbDictionary
280
     1
281
     1
  3
ACAD_XREC_ROUNDTRIP
360
77
  0
DICTIONARY
  5
6A
330
34
100
AcDbDictionary
280
     1
281
     1
  3
ACAD_XREC_ROUNDTRIP
360
6B
  0
DICTIONARY
  5
6C
330
35
100
AcDbDictionary
280
     1
281
     1
  3
ACAD_XREC_ROUNDTRIP
360
6D
  0
DICTIONARY
  5
74
330
39
100
AcDbDictionary
280
     1
281
     1
  3
ACAD_XREC_ROUNDTRIP
360
75
  0
DICTIONARY
  5
58
330
2B
100
AcDbDictionary
280
     1
281
     1
  3
ACAD_XREC_ROUNDTRIP
360
59
  0
DICTIONARY
  5
5A
330
2C
100
AcDbDictionary
280
     1
281
     1
  3
ACAD_XREC_ROUNDTRIP
360
5B
  0
DICTIONARY
  5
5C
330
2D
100
AcDbDictionary
280
     1
281
     1
  3
ACAD_XREC_ROUNDTRIP
360
5D
  0
DICTIONARY
  5
5E
330
2E
100
AcDbDictionary
280
     1
281
     1
  3
ACAD_XREC_ROUNDTRIP
360
5F
  0
DICTIONARY
  5
72
330
38
100
AcDbDictionary
280
     1
281
     1
  3
ACAD_XREC_ROUNDTRIP
360
73
  0
DICTIONARY
  5
68
330
33
100
AcDbDictionary
280
     1
281
     1
  3
ACAD_XREC_ROUNDTRIP
360
69
  0
DICTIONARY
  5
70
330
37
100
AcDbDictionary
280
     1
281
     1
  3
ACAD_XREC_ROUNDTRIP
360
71
  0
XRECORD
  5
61
102
{ACAD_REACTORS
330
60
102
}
330
60
100
AcDbXrecord
280
     1
102
RTVSPropertyOp0
 70
     1
102
RTVSPropertyOp1
 70
     1
102
RTVSPropertyOp2
 70
     1
102
RTVSPropertyOp3
 70
     1
102
RTVSPropertyOp4
 70
     1
102
RTVSPropertyOp5
 70
     1
102
RTVSPropertyOp6
 70
     1
102
RTVSPropertyOp7
 70
     1
102
RTVSPropertyOp8
 70
     1
102
RTVSPropertyOp9
 70
     1
102
RTVSPropertyOp10
 70
     1
102
RTVSPropertyOp11
 70
     1
102
RTVSPropertyOp12
 70
     1
102
RTVSPropertyOp13
 70
     1
102
RTVSPropertyOp14
 70
     1
102
RTVSPropertyOp15
 70
     1
102
RTVSPropertyOp16
 70
     1
102
RTVSPropertyOp17
 70
     1
102
RTVSPropertyOp18
 70
     1
102
RTVSPropertyOp19
 70
     1
102
RTVSPropertyOp20
 70
     1
102
RTVSPropertyOp21
 70
     1
102
RTVSPropertyOp22
 70
     1
102
RTVSPropertyOp23
 70
     1
102
RTVSPropertyOp24
 70
     1
102
RTVSPropertyOp25
 70
     1
102
RTVSPropertyOp26
 70
     1
102
RTVSPropertyOp27
 70
     1
102
RTVSPropertyOp28
 70
     1
102
RTVSPropertyOp29
 70
     1
102
RTVSPropertyOp30
 70
     1
102
RTVSPropertyOp31
 70
     1
102
RTVSPropertyOp32
 70
     1
  0
XRECORD
  5
65
102
{ACAD_REACTORS
330
64
102
}
330
64
100
AcDbXrecord
280
     1
102
RTVSPropertyOp0
 70
     1
102
RTVSPropertyOp1
 70
     1
102
RTVSPropertyOp2
 70
     1
102
RTVSPropertyOp3
 70
     1
102
RTVSPropertyOp4
 70
     1
102
RTVSPropertyOp5
 70
     1
102
RTVSPropertyOp6
 70
     1
102
RTVSPropertyOp7
 70
     1
102
RTVSPropertyOp8
 70
     1
102
RTVSPropertyOp9
 70
     1
102
RTVSPropertyOp10
 70
     1
102
RTVSPropertyOp11
 70
     1
102
RTVSPropertyOp12
 70
     1
102
RTVSPropertyOp13
 70
     1
102
RTVSPropertyOp14
 70
     1
102
RTVSPropertyOp15
 70
     1
102
RTVSPropertyOp16
 70
     1
102
RTVSPropertyOp17
 70
     1
102
RTVSPropertyOp18
 70
     1
102
RTVSPropertyOp19
 70
     1
102
RTVSPropertyOp20
 70
     1
102
RTVSPropertyOp21
 70
     1
102
RTVSPropertyOp22
 70
     1
102
RTVSPropertyOp23
 70
     1
102
RTVSPropertyOp24
 70
     1
102
RTVSPropertyOp25
 70
     1
102
RTVSPropertyOp26
 70
     1
102
RTVSPropertyOp27
 70
     1
102
RTVSPropertyOp28
 70
     1
102
RTVSPropertyOp29
 70
     1
102
RTVSPropertyOp30
 70
     1
102
RTVSPropertyOp31
 70
     1
102
RTVSPropertyOp32
 70
     1
  0
XRECORD
  5
63
102
{ACAD_REACTORS
330
62
102
}
330
62
100
AcDbXrecord
280
     1
102
RTVSPropertyOp0
 70
     1
102
RTVSPropertyOp1
 70
     1
102
RTVSPropertyOp2
 70
     1
102
RTVSPropertyOp3
 70
     1
102
RTVSPropertyOp4
 70
     1
102
RTVSPropertyOp5
 70
     1
102
RTVSPropertyOp6
 70
     1
102
RTVSPropertyOp7
 70
     1
102
RTVSPropertyOp8
 70
     1
102
RTVSPropertyOp9
 70
     1
102
RTVSPropertyOp10
 70
     1
102
RTVSPropertyOp11
 70
     1
102
RTVSPropertyOp12
 70
     1
102
RTVSPropertyOp13
 70
     1
102
RTVSPropertyOp14
 70
     1
102
RTVSPropertyOp15
 70
     1
102
RTVSPropertyOp16
 70
     1
102
RTVSPropertyOp17
 70
     1
102
RTVSPropertyOp18
 70
     1
102
RTVSPropertyOp19
 70
     1
102
RTVSPropertyOp20
 70
     1
102
RTVSPropertyOp21
 70
     1
102
RTVSPropertyOp22
 70
     1
102
RTVSPropertyOp23
 70
     1
102
RTVSPropertyOp24
 70
     1
102
RTVSPropertyOp25
 70
     1
102
RTVSPropertyOp26
 70
     1
102
RTVSPropertyOp27
 70
     1
102
RTVSPropertyOp28
 70
     1
102
RTVSPropertyOp29
 70
     1
102
RTVSPropertyOp30
 70
     1
102
RTVSPropertyOp31
 70
     1
102
RTVSPropertyOp32
 70
     1
  0
XRECORD
  5
67
102
{ACAD_REACTORS
330
66
102
}
330
66
100
AcDbXrecord
280
     1
102
RTVSPropertyOp0
 70
     1
102
RTVSPropertyOp1
 70
     1
102
RTVSPropertyOp2
 70
     1
102
RTVSPropertyOp3
 70
     1
102
RTVSPropertyOp4
 70
     1
102
RTVSPropertyOp5
 70
     1
102
RTVSPropertyOp6
 70
     1
102
RTVSPropertyOp7
 70
     1
102
RTVSPropertyOp8
 70
     1
102
RTVSPropertyOp9
 70
     1
102
RTVSPropertyOp10
 70
     1
102
RTVSPropertyOp11
 70
     1
102
RTVSPropertyOp12
 70
     1
102
RTVSPropertyOp13
 70
     1
102
RTVSPropertyOp14
 70
     1
102
RTVSPropertyOp15
 70
     1
102
RTVSPropertyOp16
 70
     1
102
RTVSPropertyOp17
 70
     1
102
RTVSPropertyOp18
 70
     1
102
RTVSPropertyOp19
 70
     1
102
RTVSPropertyOp20
 70
     1
102
RTVSPropertyOp21
 70
     1
102
RTVSPropertyOp22
 70
     1
102
RTVSPropertyOp23
 70
     1
102
RTVSPropertyOp24
 70
     1
102
RTVSPropertyOp25
 70
     1
102
RTVSPropertyOp26
 70
     1
102
RTVSPropertyOp27
 70
     1
102
RTVSPropertyOp28
 70
     1
102
RTVSPropertyOp29
 70
     1
102
RTVSPropertyOp30
 70
     1
102
RTVSPropertyOp31
 70
     1
102
RTVSPropertyOp32
 70
     1
  0
XRECORD
  5
6F
102
{ACAD_REACTORS
330
6E
102
}
330
6E
100
AcDbXrecord
280
     1
102
RTVSPropertyOp0
 70
     1
102
RTVSPropertyOp1
 70
     1
102
RTVSPropertyOp2
 70
     1
102
RTVSPropertyOp3
 70
     1
102
RTVSPropertyOp4
 70
     1
102
RTVSPropertyOp5
 70
     1
102
RTVSPropertyOp6
 70
     1
102
RTVSPropertyOp7
 70
     1
102
RTVSPropertyOp8
 70
     1
102
RTVSPropertyOp9
 70
     1
102
RTVSPropertyOp10
 70
     1
102
RTVSPropertyOp11
 70
     1
102
RTVSPropertyOp12
 70
     1
102
RTVSPropertyOp13
 70
     1
102
RTVSPropertyOp14
 70
     1
102
RTVSPropertyOp15
 70
     1
102
RTVSPropertyOp16
 70
     1
102
RTVSPropertyOp17
 70
     1
102
RTVSPropertyOp18
 70
     1
102
RTVSPropertyOp19
 70
     1
102
RTVSPropertyOp20
 70
     1
102
RTVSPropertyOp21
 70
     1
102
RTVSPropertyOp22
 70
     1
102
RTVSPropertyOp23
 70
     1
102
RTVSPropertyOp24
 70
     1
102
RTVSPropertyOp25
 70
     1
102
RTVSPropertyOp26
 70
     1
102
RTVSPropertyOp27
 70
     1
102
RTVSPropertyOp28
 70
     1
102
RTVSPropertyOp29
 70
     1
102
RTVSPropertyOp30
 70
     1
102
RTVSPropertyOp31
 70
     1
102
RTVSPropertyOp32
 70
     1
  0
XRECORD
  5
77
102
{ACAD_REACTORS
330
76
102
}
330
76
100
AcDbXrecord
280
     1
102
RTVSPropertyOp0
 70
     1
102
RTVSPropertyOp1
 70
     1
102
RTVSPropertyOp2
 70
     1
102
RTVSPropertyOp3
 70
     1
102
RTVSPropertyOp4
 70
     1
102
RTVSPropertyOp5
 70
     1
102
RTVSPropertyOp6
 70
     1
102
RTVSPropertyOp7
 70
     1
102
RTVSPropertyOp8
 70
     1
102
RTVSPropertyOp9
 70
     1
102
RTVSPropertyOp10
 70
     1
102
RTVSPropertyOp11
 70
     1
102
RTVSPropertyOp12
 70
     1
102
RTVSPropertyOp13
 70
     1
102
RTVSPropertyOp14
 70
     1
102
RTVSPropertyOp15
 70
     1
102
RTVSPropertyOp16
 70
     1
102
RTVSPropertyOp17
 70
     1
102
RTVSPropertyOp18
 70
     1
102
RTVSPropertyOp19
 70
     1
102
RTVSPropertyOp20
 70
     1
102
RTVSPropertyOp21
 70
     1
102
RTVSPropertyOp22
 70
     1
102
RTVSPropertyOp23
 70
     1
102
RTVSPropertyOp24
 70
     1
102
RTVSPropertyOp25
 70
     1
102
RTVSPropertyOp26
 70
     1
102
RTVSPropertyOp27
 70
     1
102
RTVSPropertyOp28
 70
     1
102
RTVSPropertyOp29
 70
     1
102
RTVSPropertyOp30
 70
     1
102
RTVSPropertyOp31
 70
     1
102
RTVSPropertyOp32
 70
     1
  0
XRECORD
  5
6B
102
{ACAD_REACTORS
330
6A
102
}
330
6A
100
AcDbXrecord
280
     1
102
RTVSPropertyOp0
 70
     1
102
RTVSPropertyOp1
 70
     1
102
RTVSPropertyOp2
 70
     1
102
RTVSPropertyOp3
 70
     1
102
RTVSPropertyOp4
 70
     1
102
RTVSPropertyOp5
 70
     1
102
RTVSPropertyOp6
 70
     1
102
RTVSPropertyOp7
 70
     1
102
RTVSPropertyOp8
 70
     1
102
RTVSPropertyOp9
 70
     1
102
RTVSPropertyOp10
 70
     1
102
RTVSPropertyOp11
 70
     1
102
RTVSPropertyOp12
 70
     1
102
RTVSPropertyOp13
 70
     1
102
RTVSPropertyOp14
 70
     1
102
RTVSPropertyOp15
 70
     1
102
RTVSPropertyOp16
 70
     1
102
RTVSPropertyOp17
 70
     1
102
RTVSPropertyOp18
 70
     1
102
RTVSPropertyOp19
 70
     1
102
RTVSPropertyOp20
 70
     1
102
RTVSPropertyOp21
 70
     1
102
RTVSPropertyOp22
 70
     1
102
RTVSPropertyOp23
 70
     1
102
RTVSPropertyOp24
 70
     1
102
RTVSPropertyOp25
 70
     1
102
RTVSPropertyOp26
 70
     1
102
RTVSPropertyOp27
 70
     1
102
RTVSPropertyOp28
 70
     1
102
RTVSPropertyOp29
 70
     1
102
RTVSPropertyOp30
 70
     1
102
RTVSPropertyOp31
 70
     1
102
RTVSPropertyOp32
 70
     1
  0
XRECORD
  5
6D
102
{ACAD_REACTORS
330
6C
102
}
330
6C
100
AcDbXrecord
280
     1
102
RTVSPropertyOp0
 70
     1
102
RTVSPropertyOp1
 70
     1
102
RTVSPropertyOp2
 70
     1
102
RTVSPropertyOp3
 70
     1
102
RTVSPropertyOp4
 70
     1
102
RTVSPropertyOp5
 70
     1
102
RTVSPropertyOp6
 70
     1
102
RTVSPropertyOp7
 70
     1
102
RTVSPropertyOp8
 70
     1
102
RTVSPropertyOp9
 70
     1
102
RTVSPropertyOp10
 70
     1
102
RTVSPropertyOp11
 70
     1
102
RTVSPropertyOp12
 70
     1
102
RTVSPropertyOp13
 70
     1
102
RTVSPropertyOp14
 70
     1
102
RTVSPropertyOp15
 70
     1
102
RTVSPropertyOp16
 70
     1
102
RTVSPropertyOp17
 70
     1
102
RTVSPropertyOp18
 70
     1
102
RTVSPropertyOp19
 70
     1
102
RTVSPropertyOp20
 70
     1
102
RTVSPropertyOp21
 70
     1
102
RTVSPropertyOp22
 70
     1
102
RTVSPropertyOp23
 70
     1
102
RTVSPropertyOp24
 70
     1
102
RTVSPropertyOp25
 70
     1
102
RTVSPropertyOp26
 70
     1
102
RTVSPropertyOp27
 70
     1
102
RTVSPropertyOp28
 70
     1
102
RTVSPropertyOp29
 70
     1
102
RTVSPropertyOp30
 70
     1
102
RTVSPropertyOp31
 70
     1
102
RTVSPropertyOp32
 70
     1
  0
XRECORD
  5
75
102
{ACAD_REACTORS
330
74
102
}
330
74
100
AcDbXrecord
280
     1
102
RTVSPropertyOp0
 70
     1
102
RTVSPropertyOp1
 70
     1
102
RTVSPropertyOp2
 70
     1
102
RTVSPropertyOp3
 70
     1
102
RTVSPropertyOp4
 70
     1
102
RTVSPropertyOp5
 70
     1
102
RTVSPropertyOp6
 70
     1
102
RTVSPropertyOp7
 70
     1
102
RTVSPropertyOp8
 70
     1
102
RTVSPropertyOp9
 70
     1
102
RTVSPropertyOp10
 70
     1
102
RTVSPropertyOp11
 70
     1
102
RTVSPropertyOp12
 70
     1
102
RTVSPropertyOp13
 70
     1
102
RTVSPropertyOp14
 70
     1
102
RTVSPropertyOp15
 70
     1
102
RTVSPropertyOp16
 70
     1
102
RTVSPropertyOp17
 70
     1
102
RTVSPropertyOp18
 70
     1
102
RTVSPropertyOp19
 70
     1
102
RTVSPropertyOp20
 70
     1
102
RTVSPropertyOp21
 70
     1
102
RTVSPropertyOp22
 70
     1
102
RTVSPropertyOp23
 70
     1
102
RTVSPropertyOp24
 70
     1
102
RTVSPropertyOp25
 70
     1
102
RTVSPropertyOp26
 70
     1
102
RTVSPropertyOp27
 70
     1
102
RTVSPropertyOp28
 70
     1
102
RTVSPropertyOp29
 70
     1
102
RTVSPropertyOp30
 70
     1
102
RTVSPropertyOp31
 70
     1
102
RTVSPropertyOp32
 70
     1
  0
XRECORD
  5
59
102
{ACAD_REACTORS
330
58
102
}
330
58
100
AcDbXrecord
280
     1
102
RTVSPropertyOp0
 70
     1
102
RTVSPropertyOp1
 70
     1
102
RTVSPropertyOp2
 70
     1
102
RTVSPropertyOp3
 70
     1
102
RTVSPropertyOp4
 70
     1
102
RTVSPropertyOp5
 70
     1
102
RTVSPropertyOp6
 70
     1
102
RTVSPropertyOp7
 70
     1
102
RTVSPropertyOp8
 70
     1
102
RTVSPropertyOp9
 70
     1
102
RTVSPropertyOp10
 70
     1
102
RTVSPropertyOp11
 70
     1
102
RTVSPropertyOp12
 70
     1
102
RTVSPropertyOp13
 70
     1
102
RTVSPropertyOp14
 70
     1
102
RTVSPropertyOp15
 70
     1
102
RTVSPropertyOp16
 70
     1
102
RTVSPropertyOp17
 70
     1
102
RTVSPropertyOp18
 70
     1
102
RTVSPropertyOp19
 70
     1
102
RTVSPropertyOp20
 70
     1
102
RTVSPropertyOp21
 70
     1
102
RTVSPropertyOp22
 70
     1
102
RTVSPropertyOp23
 70
     1
102
RTVSPropertyOp24
 70
     1
102
RTVSPropertyOp25
 70
     1
102
RTVSPropertyOp26
 70
     1
102
RTVSPropertyOp27
 70
     1
102
RTVSPropertyOp28
 70
     1
102
RTVSPropertyOp29
 70
     1
102
RTVSPropertyOp30
 70
     1
102
RTVSPropertyOp31
 70
     1
102
RTVSPropertyOp32
 70
     1
  0
XRECORD
  5
5B
102
{ACAD_REACTORS
330
5A
102
}
330
5A
100
AcDbXrecord
280
     1
102
RTVSPropertyOp0
 70
     1
102
RTVSPropertyOp1
 70
     1
102
RTVSPropertyOp2
 70
     1
102
RTVSPropertyOp3
 70
     1
102
RTVSPropertyOp4
 70
     1
102
RTVSPropertyOp5
 70
     1
102
RTVSPropertyOp6
 70
     1
102
RTVSPropertyOp7
 70
     1
102
RTVSPropertyOp8
 70
     1
102
RTVSPropertyOp9
 70
     1
102
RTVSPropertyOp10
 70
     1
102
RTVSPropertyOp11
 70
     1
102
RTVSPropertyOp12
 70
     1
102
RTVSPropertyOp13
 70
     1
102
RTVSPropertyOp14
 70
     1
102
RTVSPropertyOp15
 70
     1
102
RTVSPropertyOp16
 70
     1
102
RTVSPropertyOp17
 70
     1
102
RTVSPropertyOp18
 70
     1
102
RTVSPropertyOp19
 70
     1
102
RTVSPropertyOp20
 70
     1
102
RTVSPropertyOp21
 70
     1
102
RTVSPropertyOp22
 70
     1
102
RTVSPropertyOp23
 70
     1
102
RTVSPropertyOp24
 70
     1
102
RTVSPropertyOp25
 70
     1
102
RTVSPropertyOp26
 70
     1
102
RTVSPropertyOp27
 70
     1
102
RTVSPropertyOp28
 70
     1
102
RTVSPropertyOp29
 70
     1
102
RTVSPropertyOp30
 70
     1
102
RTVSPropertyOp31
 70
     1
102
RTVSPropertyOp32
 70
     1
  0
XRECORD
  5
5D
102
{ACAD_REACTORS
330
5C
102
}
330
5C
100
AcDbXrecord
280
     1
102
RTVSPropertyOp0
 70
     1
102
RTVSPropertyOp1
 70
     1
102
RTVSPropertyOp2
 70
     1
102
RTVSPropertyOp3
 70
     1
102
RTVSPropertyOp4
 70
     1
102
RTVSPropertyOp5
 70
     1
102
RTVSPropertyOp6
 70
     1
102
RTVSPropertyOp7
 70
     1
102
RTVSPropertyOp8
 70
     1
102
RTVSPropertyOp9
 70
     1
102
RTVSPropertyOp10
 70
     1
102
RTVSPropertyOp11
 70
     1
102
RTVSPropertyOp12
 70
     1
102
RTVSPropertyOp13
 70
     1
102
RTVSPropertyOp14
 70
     1
102
RTVSPropertyOp15
 70
     1
102
RTVSPropertyOp16
 70
     1
102
RTVSPropertyOp17
 70
     1
102
RTVSPropertyOp18
 70
     1
102
RTVSPropertyOp19
 70
     1
102
RTVSPropertyOp20
 70
     1
102
RTVSPropertyOp21
 70
     1
102
RTVSPropertyOp22
 70
     1
102
RTVSPropertyOp23
 70
     1
102
RTVSPropertyOp24
 70
     1
102
RTVSPropertyOp25
 70
     1
102
RTVSPropertyOp26
 70
     1
102
RTVSPropertyOp27
 70
     1
102
RTVSPropertyOp28
 70
     1
102
RTVSPropertyOp29
 70
     1
102
RTVSPropertyOp30
 70
     1
102
RTVSPropertyOp31
 70
     1
102
RTVSPropertyOp32
 70
     1
  0
XRECORD
  5
5F
102
{ACAD_REACTORS
330
5E
102
}
330
5E
100
AcDbXrecord
280
     1
102
RTVSPropertyOp0
 70
     1
102
RTVSPropertyOp1
 70
     1
102
RTVSPropertyOp2
 70
     1
102
RTVSPropertyOp3
 70
     1
102
RTVSPropertyOp4
 70
     1
102
RTVSPropertyOp5
 70
     1
102
RTVSPropertyOp6
 70
     1
102
RTVSPropertyOp7
 70
     1
102
RTVSPropertyOp8
 70
     1
102
RTVSPropertyOp9
 70
     1
102
RTVSPropertyOp10
 70
     1
102
RTVSPropertyOp11
 70
     1
102
RTVSPropertyOp12
 70
     1
102
RTVSPropertyOp13
 70
     1
102
RTVSPropertyOp14
 70
     1
102
RTVSPropertyOp15
 70
     1
102
RTVSPropertyOp16
 70
     1
102
RTVSPropertyOp17
 70
     1
102
RTVSPropertyOp18
 70
     1
102
RTVSPropertyOp19
 70
     1
102
RTVSPropertyOp20
 70
     1
102
RTVSPropertyOp21
 70
     1
102
RTVSPropertyOp22
 70
     1
102
RTVSPropertyOp23
 70
     1
102
RTVSPropertyOp24
 70
     1
102
RTVSPropertyOp25
 70
     1
102
RTVSPropertyOp26
 70
     1
102
RTVSPropertyOp27
 70
     1
102
RTVSPropertyOp28
 70
     1
102
RTVSPropertyOp29
 70
     1
102
RTVSPropertyOp30
 70
     1
102
RTVSPropertyOp31
 70
     1
102
RTVSPropertyOp32
 70
     1
  0
XRECORD
  5
73
102
{ACAD_REACTORS
330
72
102
}
330
72
100
AcDbXrecord
280
     1
102
RTVSPropertyOp0
 70
     1
102
RTVSPropertyOp1
 70
     1
102
RTVSPropertyOp2
 70
     1
102
RTVSPropertyOp3
 70
     1
102
RTVSPropertyOp4
 70
     1
102
RTVSPropertyOp5
 70
     1
102
RTVSPropertyOp6
 70
     1
102
RTVSPropertyOp7
 70
     1
102
RTVSPropertyOp8
 70
     1
102
RTVSPropertyOp9
 70
     1
102
RTVSPropertyOp10
 70
     1
102
RTVSPropertyOp11
 70
     1
102
RTVSPropertyOp12
 70
     1
102
RTVSPropertyOp13
 70
     1
102
RTVSPropertyOp14
 70
     1
102
RTVSPropertyOp15
 70
     1
102
RTVSPropertyOp16
 70
     1
102
RTVSPropertyOp17
 70
     1
102
RTVSPropertyOp18
 70
     1
102
RTVSPropertyOp19
 70
     1
102
RTVSPropertyOp20
 70
     1
102
RTVSPropertyOp21
 70
     1
102
RTVSPropertyOp22
 70
     1
102
RTVSPropertyOp23
 70
     1
102
RTVSPropertyOp24
 70
     1
102
RTVSPropertyOp25
 70
     1
102
RTVSPropertyOp26
 70
     1
102
RTVSPropertyOp27
 70
     1
102
RTVSPropertyOp28
 70
     1
102
RTVSPropertyOp29
 70
     1
102
RTVSPropertyOp30
 70
     1
102
RTVSPropertyOp31
 70
     1
102
RTVSPropertyOp32
 70
     1
  0
XRECORD
  5
69
102
{ACAD_REACTORS
330
68
102
}
330
68
100
AcDbXrecord
280
     1
102
RTVSPropertyOp0
 70
     1
102
RTVSPropertyOp1
 70
     1
102
RTVSPropertyOp2
 70
     1
102
RTVSPropertyOp3
 70
     1
102
RTVSPropertyOp4
 70
     1
102
RTVSPropertyOp5
 70
     1
102
RTVSPropertyOp6
 70
     1
102
RTVSPropertyOp7
 70
     1
102
RTVSPropertyOp8
 70
     1
102
RTVSPropertyOp9
 70
     1
102
RTVSPropertyOp10
 70
     1
102
RTVSPropertyOp11
 70
     1
102
RTVSPropertyOp12
 70
     1
102
RTVSPropertyOp13
 70
     1
102
RTVSPropertyOp14
 70
     1
102
RTVSPropertyOp15
 70
     1
102
RTVSPropertyOp16
 70
     1
102
RTVSPropertyOp17
 70
     1
102
RTVSPropertyOp18
 70
     1
102
RTVSPropertyOp19
 70
     1
102
RTVSPropertyOp20
 70
     1
102
RTVSPropertyOp21
 70
     1
102
RTVSPropertyOp22
 70
     1
102
RTVSPropertyOp23
 70
     1
102
RTVSPropertyOp24
 70
     1
102
RTVSPropertyOp25
 70
     1
102
RTVSPropertyOp26
 70
     1
102
RTVSPropertyOp27
 70
     1
102
RTVSPropertyOp28
 70
     1
102
RTVSPropertyOp29
 70
     1
102
RTVSPropertyOp30
 70
     1
102
RTVSPropertyOp31
 70
     1
102
RTVSPropertyOp32
 70
     1
  0
XRECORD
  5
71
102
{ACAD_REACTORS
330
70
102
}
330
70
100
AcDbXrecord
280
     1
102
RTVSPropertyOp0
 70
     1
102
RTVSPropertyOp1
 70
     1
102
RTVSPropertyOp2
 70
     1
102
RTVSPropertyOp3
 70
     1
102
RTVSPropertyOp4
 70
     1
102
RTVSPropertyOp5
 70
     1
102
RTVSPropertyOp6
 70
     1
102
RTVSPropertyOp7
 70
     1
102
RTVSPropertyOp8
 70
     1
102
RTVSPropertyOp9
 70
     1
102
RTVSPropertyOp10
 70
     1
102
RTVSPropertyOp11
 70
     1
102
RTVSPropertyOp12
 70
     1
102
RTVSPropertyOp13
 70
     1
102
RTVSPropertyOp14
 70
     1
102
RTVSPropertyOp15
 70
     1
102
RTVSPropertyOp16
 70
     1
102
RTVSPropertyOp17
 70
     1
102
RTVSPropertyOp18
 70
     1
102
RTVSPropertyOp19
 70
     1
102
RTVSPropertyOp20
 70
     1
102
RTVSPropertyOp21
 70
     1
102
RTVSPropertyOp22
 70
     1
102
RTVSPropertyOp23
 70
     1
102
RTVSPropertyOp24
 70
     1
102
RTVSPropertyOp25
 70
     1
102
RTVSPropertyOp26
 70
     1
102
RTVSPropertyOp27
 70
     1
102
RTVSPropertyOp28
 70
     1
102
RTVSPropertyOp29
 70
     1
102
RTVSPropertyOp30
 70
     1
102
RTVSPropertyOp31
 70
     1
102
RTVSPropertyOp32
 70
     1
  0
ENDSEC
  0
EOF
