  0
SECTION
  2
HEADER
  9
$ACADVER
  1
AC1021
  9
$ACADMAINTVER
 70
    25
  9
$DWGCODEPAGE
  3
ANSI_1252
  9
$INSBASE
 10
0.0
 20
0.0
 30
0.0
  9
$EXTMIN
 10
66.4468
 20
-114.9605
 30
0.0
  9
$EXTMAX
 10
175.9269
 20
131.8765
 30
0.0
  9
$LIMMIN
 10
0.0
 20
0.0
  9
$LIMMAX
 10
12.0
 20
9.0
  9
$ORTHOMODE
 70
     0
  9
$REGENMODE
 70
     1
  9
$FILLMODE
 70
     1
  9
$QTEXTMODE
 70
     0
  9
$MIRRTEXT
 70
     1
  9
$LTSCALE
 40
1.0
  9
$ATTMODE
 70
     1
  9
$TEXTSIZE
 40
0.2
  9
$TRACEWID
 40
0.05
  9
$TEXTSTYLE
  7
Standard
  9
$CLAYER
  8
0
  9
$CELTYPE
  6
ByLayer
  9
$CECOLOR
 62
   256
  9
$CELTSCALE
 40
1.0
  9
$DISPSILH
 70
     0
  9
$DIMSCALE
 40
1.0
  9
$DIMASZ
 40
0.18
  9
$DIMEXO
 40
0.0625
  9
$DIMDLI
 40
0.38
  9
$DIMRND
 40
0.0
  9
$DIMDLE
 40
0.0
  9
$DIMEXE
 40
0.18
  9
$DIMTP
 40
0.0
  9
$DIMTM
 40
0.0
  9
$DIMTXT
 40
0.18
  9
$DIMCEN
 40
0.09
  9
$DIMTSZ
 40
0.0
  9
$DIMTOL
 70
     0
  9
$DIMLIM
 70
     0
  9
$DIMTIH
 70
     1
  9
$DIMTOH
 70
     1
  9
$DIMSE1
 70
     0
  9
$DIMSE2
 70
     0
  9
$DIMTAD
 70
     0
  9
$DIMZIN
 70
     0
  9
$DIMBLK
  1

  9
$DIMASO
 70
     1
  9
$DIMSHO
 70
     1
  9
$DIMPOST
  1

  9
$DIMAPOST
  1

  9
$DIMALT
 70
     0
  9
$DIMALTD
 70
     2
  9
$DIMALTF
 40
25.4
  9
$DIMLFAC
 40
1.0
  9
$DIMTOFL
 70
     0
  9
$DIMTVP
 40
0.0
  9
$DIMTIX
 70
     0
  9
$DIMSOXD
 70
     0
  9
$DIMSAH
 70
     0
  9
$DIMBLK1
  1

  9
$DIMBLK2
  1

  9
$DIMSTYLE
  2
Standard
  9
$DIMCLRD
 70
     0
  9
$DIMCLRE
 70
     0
  9
$DIMCLRT
 70
     0
  9
$DIMTFAC
 40
1.0
  9
$DIMGAP
 40
0.09
  9
$DIMJUST
 70
     0
  9
$DIMSD1
 70
     0
  9
$DIMSD2
 70
     0
  9
$DIMTOLJ
 70
     1
  9
$DIMTZIN
 70
     0
  9
$DIMALTZ
 70
     0
  9
$DIMALTTZ
 70
     0
  9
$DIMUPT
 70
     0
  9
$DIMDEC
 70
     4
  9
$DIMTDEC
 70
     4
  9
$DIMALTU
 70
     2
  9
$DIMALTTD
 70
     2
  9
$DIMTXSTY
  7
Standard
  9
$DIMAUNIT
 70
     0
  9
$DIMADEC
 70
     0
  9
$DIMALTRND
 40
0.0
  9
$DIMAZIN
 70
     0
  9
$DIMDSEP
 70
    46
  9
$DIMATFIT
 70
     3
  9
$DIMFRAC
 70
     0
  9
$DIMLDRBLK
  1

  9
$DIMLUNIT
 70
     2
  9
$DIMLWD
 70
    -2
  9
$DIMLWE
 70
    -2
  9
$DIMTMOVE
 70
     0
  9
$DIMFXL
 40
1.0
  9
$DIMFXLON
 70
     0
  9
$DIMJOGANG
 40
0.7853981633974483
  9
$DIMTFILL
 70
     0
  9
$DIMTFILLCLR
 70
     0
  9
$DIMARCSYM
 70
     0
  9
$DIMLTYPE
  6

  9
$DIMLTEX1
  6

  9
$DIMLTEX2
  6

  9
$LUNITS
 70
     2
  9
$LUPREC
 70
     4
  9
$SKETCHINC
 40
0.1
  9
$FILLETRAD
 40
0.5
  9
$AUNITS
 70
     0
  9
$AUPREC
 70
     0
  9
$MENU
  1
.
  9
$ELEVATION
 40
0.0
  9
$PELEVATION
 40
0.0
  9
$THICKNESS
 40
0.0
  9
$LIMCHECK
 70
     0
  9
$CHAMFERA
 40
0.5
  9
$CHAMFERB
 40
0.5
  9
$CHAMFERC
 40
1.0
  9
$CHAMFERD
 40
0.0
  9
$SKPOLY
 70
     0
  9
$TDCREATE
 40
2458492.860760208
  9
$TDUCREATE
 40
2458492.860760208
  9
$TDUPDATE
 40
2458492.860760289
  9
$TDUUPDATE
 40
2458492.860760289
  9
$TDINDWG
 40
0.0000000116
  9
$TDUSRTIMER
 40
0.0000000116
  9
$USRTIMER
 70
     1
  9
$ANGBASE
 50
0.0
  9
$ANGDIR
 70
     0
  9
$PDMODE
 70
     0
  9
$PDSIZE
 40
0.0
  9
$PLINEWID
 40
0.0
  9
$SPLFRAME
 70
     0
  9
$SPLINETYPE
 70
     6
  9
$SPLINESEGS
 70
     8
  9
$HANDSEED
  5
7A
  9
$SURFTAB1
 70
     6
  9
$SURFTAB2
 70
     6
  9
$SURFTYPE
 70
     6
  9
$SURFU
 70
     6
  9
$SURFV
 70
     6
  9
$UCSBASE
  2

  9
$UCSNAME
  2

  9
$UCSORG
 10
0.0
 20
0.0
 30
0.0
  9
$UCSXDIR
 10
1.0
 20
0.0
 30
0.0
  9
$UCSYDIR
 10
0.0
 20
1.0
 30
0.0
  9
$UCSORTHOREF
  2

  9
$UCSORTHOVIEW
 70
     0
  9
$UCSORGTOP
 10
0.0
 20
0.0
 30
0.0
  9
$UCSORGBOTTOM
 10
0.0
 20
0.0
 30
0.0
  9
$UCSORGLEFT
 10
0.0
 20
0.0
 30
0.0
  9
$UCSORGRIGHT
 10
0.0
 20
0.0
 30
0.0
  9
$UCSORGFRONT
 10
0.0
 20
0.0
 30
0.0
  9
$UCSORGBACK
 10
0.0
 20
0.0
 30
0.0
  9
$PUCSBASE
  2

  9
$PUCSNAME
  2

  9
$PUCSORG
 10
0.0
 20
0.0
 30
0.0
  9
$PUCSXDIR
 10
1.0
 20
0.0
 30
0.0
  9
$PUCSYDIR
 10
0.0
 20
1.0
 30
0.0
  9
$PUCSORTHOREF
  2

  9
$PUCSORTHOVIEW
 70
     0
  9
$PUCSORGTOP
 10
0.0
 20
0.0
 30
0.0
  9
$PUCSORGBOTTOM
 10
0.0
 20
0.0
 30
0.0
  9
$PUCSORGLEFT
 10
0.0
 20
0.0
 30
0.0
  9
$PUCSORGRIGHT
 10
0.0
 20
0.0
 30
0.0
  9
$PUCSORGFRONT
 10
0.0
 20
0.0
 30
0.0
  9
$PUCSORGBACK
 10
0.0
 20
0.0
 30
0.0
  9
$USERI1
 70
     0
  9
$USERI2
 70
     0
  9
$USERI3
 70
     0
  9
$USERI4
 70
     0
  9
$USERI5
 70
     0
  9
$USERR1
 40
0.0
  9
$USERR2
 40
0.0
  9
$USERR3
 40
0.0
  9
$USERR4
 40
0.0
  9
$USERR5
 40
0.0
  9
$WORLDVIEW
 70
     1
  9
$SHADEDGE
 70
     3
  9
$SHADEDIF
 70
    70
  9
$TILEMODE
 70
     1
  9
$MAXACTVP
 70
    64
  9
$PINSBASE
 10
0.0
 20
0.0
 30
0.0
  9
$PLIMCHECK
 70
     0
  9
$PEXTMIN
 10
1.000000000000000E+20
 20
1.000000000000000E+20
 30
1.000000000000000E+20
  9
$PEXTMAX
 10
-1.000000000000000E+20
 20
-1.000000000000000E+20
 30
-1.000000000000000E+20
  9
$PLIMMIN
 10
0.0
 20
0.0
  9
$PLIMMAX
 10
12.0
 20
9.0
  9
$UNITMODE
 70
     0
  9
$VISRETAIN
 70
     1
  9
$PLINEGEN
 70
     0
  9
$PSLTSCALE
 70
     1
  9
$TREEDEPTH
 70
  3020
  9
$CMLSTYLE
  2
Standard
  9
$CMLJUST
 70
     0
  9
$CMLSCALE
 40
1.0
  9
$PROXYGRAPHICS
 70
     1
  9
$MEASUREMENT
 70
     0
  9
$CELWEIGHT
370
    -1
  9
$ENDCAPS
280
     0
  9
$JOINSTYLE
280
     0
  9
$LWDISPLAY
290
     0
  9
$INSUNITS
 70
     4
  9
$HYPERLINKBASE
  1

  9
$STYLESHEET
  1

  9
$XEDIT
290
     1
  9
$CEPSNTYPE
380
     0
  9
$PSTYLEMODE
290
     1
  9
$FINGERPRINTGUID
  2
{01D9F015-0732-47B7-B4D2-AADC5C27FF7B}
  9
$VERSIONGUID
  2
{FAEB1C32-E019-11D5-929B-00C0DF256EC4}
  9
$EXTNAMES
290
     1
  9
$PSVPSCALE
 40
0.0
  9
$OLESTARTUP
290
     0
  9
$SORTENTS
280
   127
  9
$INDEXCTL
280
     0
  9
$HIDETEXT
280
     1
  9
$XCLIPFRAME
290
     0
  9
$HALOGAP
280
     0
  9
$OBSCOLOR
 70
   257
  9
$OBSLTYPE
280
     0
  9
$INTERSECTIONDISPLAY
280
     0
  9
$INTERSECTIONCOLOR
 70
   257
  9
$DIMASSOC
280
     2
  9
$PROJECTNAME
  1

  9
$CAMERADISPLAY
290
     0
  9
$LENSLENGTH
 40
50.0
  9
$CAMERAHEIGHT
 40
0.0
  9
$STEPSPERSEC
 40
2.0
  9
$STEPSIZE
 40
6.0
  9
$3DDWFPREC
 40
2.0
  9
$PSOLWIDTH
 40
0.25
  9
$PSOLHEIGHT
 40
4.0
  9
$LOFTANG1
 40
1.570796326794897
  9
$LOFTANG2
 40
1.570796326794897
  9
$LOFTMAG1
 40
0.0
  9
$LOFTMAG2
 40
0.0
  9
$LOFTPARAM
 70
     7
  9
$LOFTNORMALS
280
     1
  9
$LATITUDE
 40
37.795
  9
$LONGITUDE
 40
-122.394
  9
$NORTHDIRECTION
 40
0.0
  9
$TIMEZONE
 70
 -8000
  9
$LIGHTGLYPHDISPLAY
280
     1
  9
$TILEMODELIGHTSYNCH
280
     1
  9
$SOLIDHIST
280
     1
  9
$SHOWHIST
280
     1
  9
$DWFFRAME
280
     2
  9
$DGNFRAME
280
     2
  9
$REALWORLDSCALE
290
     1
  9
$INTERFERECOLOR
 62
   256
  9
$CSHADOW
280
     0
  9
$SHADOWPLANELOCATION
 40
0.0
  0
ENDSEC
  0
SECTION
  2
CLASSES
  0
CLASS
  1
ACDBDICTIONARYWDFLT
  2
AcDbDictionaryWithDefault
  3
ObjectDBX Classes
 90
        0
 91
        4
280
     0
281
     0
  0
CLASS
  1
VISUALSTYLE
  2
AcDbVisualStyle
  3
ObjectDBX Classes
 90
     4095
 91
        4
280
     0
281
     0
  0
CLASS
  1
MATERIAL
  2
AcDbMaterial
  3
ObjectDBX Classes
 90
     1153
 91
        4
280
     0
281
     0
  0
ENDSEC
  0
SECTION
  2
TABLES
  0
TABLE
  2
VPORT
  5
8
330
0
100
AcDbSymbolTable
 70
     1
  0
VPORT
  5
29
330
8
100
AcDbSymbolTableRecord
100
AcDbViewportTableRecord
  2
*Active
 70
     0
 10
0.0
 20
0.0
 11
1.0
 21
1.0
 12
10.42990654205607
 22
4.5
 13
0.0
 23
0.0
 14
0.5
 24
0.5
 15
0.5
 25
0.5
 16
0.0
 26
0.0
 36
1.0
 17
0.0
 27
0.0
 37
0.0
 40
9.0
 41
1.972972972850329
 42
50.0
 43
0.0
 44
0.0
 50
0.0
 51
0.0
 71
     0
 72
   100
 73
     1
 74
     3
 75
     0
 76
     0
 77
     0
 78
     0
281
     0
 65
     1
110
0.0
120
0.0
130
0.0
111
1.0
121
0.0
131
0.0
112
0.0
122
1.0
132
0.0
 79
     0
146
0.0
 60
     3
 61
     5
292
     1
282
     1
141
0.0
142
0.0
 63
   250
  0
ENDTAB
  0
TABLE
  2
LTYPE
  5
5
330
0
100
AcDbSymbolTable
 70
     1
  0
LTYPE
  5
14
330
5
100
AcDbSymbolTableRecord
100
AcDbLinetypeTableRecord
  2
ByBlock
 70
     0
  3

 72
    65
 73
     0
 40
0.0
  0
LTYPE
  5
15
330
5
100
AcDbSymbolTableRecord
100
AcDbLinetypeTableRecord
  2
ByLayer
 70
     0
  3

 72
    65
 73
     0
 40
0.0
  0
LTYPE
  5
16
330
5
100
AcDbSymbolTableRecord
100
AcDbLinetypeTableRecord
  2
Continuous
 70
     0
  3
Solid line
 72
    65
 73
     0
 40
0.0
  0
ENDTAB
  0
TABLE
  2
LAYER
  5
2
330
0
100
AcDbSymbolTable
 70
     2
  0
LAYER
  5
10
330
2
100
AcDbSymbolTableRecord
100
AcDbLayerTableRecord
  2
0
 70
     0
 62
     7
  6
Continuous
370
    -3
390
F
347
3E
  0
LAYER
  5
40
330
2
100
AcDbSymbolTableRecord
100
AcDbLayerTableRecord
  2
layer 1
 70
     0
 62
     7
  6
Continuous
370
    -3
390
F
347
3E
  0
ENDTAB
  0
TABLE
  2
STYLE
  5
3
330
0
100
AcDbSymbolTable
 70
     1
  0
STYLE
  5
11
330
3
100
AcDbSymbolTableRecord
100
AcDbTextStyleTableRecord
  2
Standard
 70
     0
 40
0.0
 41
1.0
 50
0.0
 71
     0
 42
0.2
  3
txt
  4

  0
ENDTAB
  0
TABLE
  2
VIEW
  5
6
330
0
100
AcDbSymbolTable
 70
     0
  0
ENDTAB
  0
TABLE
  2
UCS
  5
7
330
0
100
AcDbSymbolTable
 70
     0
  0
ENDTAB
  0
TABLE
  2
APPID
  5
9
330
0
100
AcDbSymbolTable
 70
     2
  0
APPID
  5
12
330
9
100
AcDbSymbolTableRecord
100
AcDbRegAppTableRecord
  2
ACAD
 70
     0
  0
APPID
  5
3F
330
9
100
AcDbSymbolTableRecord
100
AcDbRegAppTableRecord
  2
ODA
 70
     0
  0
ENDTAB
  0
TABLE
  2
DIMSTYLE
  5
A
330
0
100
AcDbSymbolTable
 70
     1
100
AcDbDimStyleTable
  0
DIMSTYLE
105
27
330
A
100
AcDbSymbolTableRecord
100
AcDbDimStyleTableRecord
  2
Standard
 70
     0
178
     0
340
11
  0
ENDTAB
  0
TABLE
  2
BLOCK_RECORD
  5
1
330
0
100
AcDbSymbolTable
 70
     1
  0
BLOCK_RECORD
  5
1F
330
1
100
AcDbSymbolTableRecord
100
AcDbBlockTableRecord
  2
*Model_Space
340
22
 70
     0
280
     1
281
     0
  0
BLOCK_RECORD
  5
1B
330
1
100
AcDbSymbolTableRecord
100
AcDbBlockTableRecord
  2
*Paper_Space
340
1E
 70
     0
280
     1
281
     0
  0
BLOCK_RECORD
  5
23
330
1
100
AcDbSymbolTableRecord
100
AcDbBlockTableRecord
  2
*Paper_Space0
340
26
 70
     0
280
     1
281
     0
  0
ENDTAB
  0
ENDSEC
  0
SECTION
  2
BLOCKS
  0
BLOCK
  5
20
330
1F
100
AcDbEntity
  8
0
100
AcDbBlockBegin
  2
*Model_Space
 70
     0
 10
0.0
 20
0.0
 30
0.0
  3
*Model_Space
  1

  0
ENDBLK
  5
21
330
1F
100
AcDbEntity
  8
0
100
AcDbBlockEnd
  0
BLOCK
  5
1C
330
1B
100
AcDbEntity
 67
     1
  8
0
100
AcDbBlockBegin
  2
*Paper_Space
 70
     0
 10
0.0
 20
0.0
 30
0.0
  3
*Paper_Space
  1

  0
ENDBLK
  5
1D
330
1B
100
AcDbEntity
 67
     1
  8
0
100
AcDbBlockEnd
  0
BLOCK
  5
24
330
23
100
AcDbEntity
  8
0
100
AcDbBlockBegin
  2
*Paper_Space0
 70
     0
 10
0.0
 20
0.0
 30
0.0
  3
*Paper_Space0
  1

  0
ENDBLK
  5
25
330
23
100
AcDbEntity
  8
0
100
AcDbBlockEnd
  0
ENDSEC
  0
SECTION
  2
ENTITIES
  0
LWPOLYLINE
  5
41
330
1F
100
AcDbEntity
  8
layer 1
 62
   250
100
AcDbPolyline
 90
        5
 70
     1
 43
0.0
 10
66.4468
 20
-114.9605
 10
175.9268
 20
-114.9605
 10
175.9268
 20
131.8765
 10
66.4468
 20
131.8765
 10
66.4468
 20
-114.9605
  0
SPLINE
  5
42
330
1F
100
AcDbEntity
  8
layer 1
 62
     7
100
AcDbSpline
210
0.0
220
0.0
230
1.0
 70
    11
 71
     3
 72
    40
 73
    36
 74
     0
 42
0.0000000001
 43
0.0000000001
 12
1.0
 22
0.0
 32
0.0
 13
1.0
 23
0.0
 33
0.0
 40
0.0
 40
0.0
 40
0.0
 40
0.0
 40
0.1
 40
0.1
 40
0.1
 40
0.1
 40
0.2
 40
0.2
 40
0.2
 40
0.2
 40
0.3
 40
0.3
 40
0.3
 40
0.3
 40
0.4
 40
0.4
 40
0.4
 40
0.4
 40
0.5
 40
0.5
 40
0.5
 40
0.5
 40
0.6
 40
0.6
 40
0.6
 40
0.6
 40
0.7
 40
0.7
 40
0.7
 40
0.7
 40
0.8
 40
0.8
 40
0.8
 40
0.8
 40
1.0
 40
1.0
 40
1.0
 40
1.0
 10
170.0722
 20
50.3155
 30
0.0
 10
170.0722
 20
52.2991
 30
0.0
 10
170.0722
 20
54.5571
 30
0.0
 10
170.0722
 20
56.5418
 30
0.0
 10
170.0722
 20
56.5418
 30
0.0
 10
169.4648
 20
54.0544
 30
0.0
 10
166.4335
 20
50.5468
 30
0.0
 10
163.6775
 20
50.6838
 30
0.0
 10
163.6775
 20
50.6838
 30
0.0
 10
160.7877
 20
50.8276
 30
0.0
 10
158.8361
 20
54.4908
 30
0.0
 10
160.8169
 20
56.4368
 30
0.0
 10
160.8169
 20
56.4368
 30
0.0
 10
162.0906
 20
57.7104
 30
0.0
 10
163.9452
 20
57.5041
 30
0.0
 10
164.6361
 20
56.3977
 30
0.0
 10
164.6361
 20
56.3977
 30
0.0
 10
165.1978
 20
55.4982
 30
0.0
 10
166.0516
 20
56.2455
 30
0.0
 10
166.3335
 20
57.1337
 30
0.0
 10
166.3335
 20
57.1337
 30
0.0
 10
166.6842
 20
58.2386
 30
0.0
 10
165.6328
 20
59.8054
 30
0.0
 10
164.0665
 20
60.5117
 30
0.0
 10
164.0665
 20
60.5117
 30
0.0
 10
161.0497
 20
61.8719
 30
0.0
 10
157.6317
 20
60.4556
 30
0.0
 10
155.94
 20
57.1443
 30
0.0
 10
155.94
 20
57.1443
 30
0.0
 10
154.5053
 20
54.3362
 30
0.0
 10
154.8142
 20
50.5633
 30
0.0
 10
157.3928
 20
48.4378
 30
0.0
 10
157.3928
 20
48.4378
 30
0.0
 10
161.7921
 20
45.0777
 30
0.0
 10
168.0997
 20
45.2591
 30
0.0
 10
170.0722
 20
50.3155
 30
0.0
  0
SPLINE
  5
43
330
1F
100
AcDbEntity
  8
layer 1
 62
     7
100
AcDbSpline
210
0.0
220
0.0
230
1.0
 70
    11
 71
     3
 72
   108
 73
   104
 74
     0
 42
0.0000000001
 43
0.0000000001
 12
1.0
 22
0.0
 32
0.0
 13
1.0
 23
0.0
 33
0.0
 40
0.0
 40
0.0
 40
0.0
 40
0.0
 40
0.037037037037037
 40
0.037037037037037
 40
0.037037037037037
 40
0.037037037037037
 40
0.0740740740740741
 40
0.0740740740740741
 40
0.0740740740740741
 40
0.0740740740740741
 40
0.1111111111111111
 40
0.1111111111111111
 40
0.1111111111111111
 40
0.1111111111111111
 40
0.1481481481481481
 40
0.1481481481481481
 40
0.1481481481481481
 40
0.1481481481481481
 40
0.1851851851851852
 40
0.1851851851851852
 40
0.1851851851851852
 40
0.1851851851851852
 40
0.2222222222222222
 40
0.2222222222222222
 40
0.2222222222222222
 40
0.2222222222222222
 40
0.2592592592592592
 40
0.2592592592592592
 40
0.2592592592592592
 40
0.2592592592592592
 40
0.2962962962962963
 40
0.2962962962962963
 40
0.2962962962962963
 40
0.2962962962962963
 40
0.3333333333333333
 40
0.3333333333333333
 40
0.3333333333333333
 40
0.3333333333333333
 40
0.3703703703703703
 40
0.3703703703703703
 40
0.3703703703703703
 40
0.3703703703703703
 40
0.4074074074074074
 40
0.4074074074074074
 40
0.4074074074074074
 40
0.4074074074074074
 40
0.4444444444444444
 40
0.4444444444444444
 40
0.4444444444444444
 40
0.4444444444444444
 40
0.4814814814814815
 40
0.4814814814814815
 40
0.4814814814814815
 40
0.4814814814814815
 40
0.5185185185185185
 40
0.5185185185185185
 40
0.5185185185185185
 40
0.5185185185185185
 40
0.5555555555555556
 40
0.5555555555555556
 40
0.5555555555555556
 40
0.5555555555555556
 40
0.5925925925925926
 40
0.5925925925925926
 40
0.5925925925925926
 40
0.5925925925925926
 40
0.6296296296296297
 40
0.6296296296296297
 40
0.6296296296296297
 40
0.6296296296296297
 40
0.6666666666666666
 40
0.6666666666666666
 40
0.6666666666666666
 40
0.6666666666666666
 40
0.7037037037037037
 40
0.7037037037037037
 40
0.7037037037037037
 40
0.7037037037037037
 40
0.7407407407407407
 40
0.7407407407407407
 40
0.7407407407407407
 40
0.7407407407407407
 40
0.7777777777777778
 40
0.7777777777777778
 40
0.7777777777777778
 40
0.7777777777777778
 40
0.8148148148148148
 40
0.8148148148148148
 40
0.8148148148148148
 40
0.8148148148148148
 40
0.8518518518518519
 40
0.8518518518518519
 40
0.8518518518518519
 40
0.8518518518518519
 40
0.8888888888888888
 40
0.8888888888888888
 40
0.8888888888888888
 40
0.8888888888888888
 40
0.9259259259259259
 40
0.9259259259259259
 40
0.9259259259259259
 40
0.9259259259259259
 40
1.0
 40
1.0
 40
1.0
 40
1.0
 10
169.9816
 20
59.3648
 30
0.0
 10
169.9816
 20
81.2896
 30
0.0
 10
170.0722
 20
104.1125
 30
0.0
 10
170.0722
 20
126.0371
 30
0.0
 10
170.0722
 20
126.0371
 30
0.0
 10
170.0722
 20
126.0371
 30
0.0
 10
160.9535
 20
126.0371
 30
0.0
 10
160.9535
 20
126.0371
 30
0.0
 10
160.9535
 20
126.0371
 30
0.0
 10
160.9535
 20
126.0371
 30
0.0
 10
160.9683
 20
123.104
 30
0.0
 10
160.9683
 20
123.104
 30
0.0
 10
160.9683
 20
123.104
 30
0.0
 10
160.9801
 20
120.7435
 30
0.0
 10
160.7591
 20
119.477
 30
0.0
 10
159.8357
 20
116.6157
 30
0.0
 10
159.8357
 20
116.6157
 30
0.0
 10
158.4703
 20
112.385
 30
0.0
 10
157.2324
 20
110.1274
 30
0.0
 10
154.9619
 20
107.7275
 30
0.0
 10
154.9619
 20
107.7275
 30
0.0
 10
153.1624
 20
105.8253
 30
0.0
 10
152.2958
 20
104.2114
 30
0.0
 10
152.2958
 20
102.7615
 30
0.0
 10
152.2958
 20
102.7615
 30
0.0
 10
152.2958
 20
101.4655
 30
0.0
 10
152.8864
 20
101.6532
 30
0.0
 10
153.6754
 20
103.2
 30
0.0
 10
153.6754
 20
103.2
 30
0.0
 10
154.3745
 20
104.5704
 30
0.0
 10
156.5905
 20
106.7227
 30
0.0
 10
159.3701
 20
108.7309
 30
0.0
 10
159.3701
 20
108.7309
 30
0.0
 10
161.5116
 20
110.2782
 30
0.0
 10
162.2493
 20
111.7924
 30
0.0
 10
162.256
 20
114.6547
 30
0.0
 10
162.256
 20
114.6547
 30
0.0
 10
162.259
 20
115.9287
 30
0.0
 10
162.4111
 20
117.2078
 30
0.0
 10
162.5939
 20
117.4969
 30
0.0
 10
162.5939
 20
117.4969
 30
0.0
 10
163.0999
 20
118.297
 30
0.0
 10
164.6883
 20
114.5405
 30
0.0
 10
164.9655
 20
111.8885
 30
0.0
 10
164.9655
 20
111.8885
 30
0.0
 10
165.5367
 20
106.4232
 30
0.0
 10
164.0049
 20
100.8139
 30
0.0
 10
158.379
 20
98.6308
 30
0.0
 10
158.379
 20
98.6308
 30
0.0
 10
156.5651
 20
97.9268
 30
0.0
 10
156.5531
 20
97.3923
 30
0.0
 10
158.351
 20
97.3807
 30
0.0
 10
158.351
 20
97.3807
 30
0.0
 10
160.1755
 20
97.0535
 30
0.0
 10
162.41
 20
96.4521
 30
0.0
 10
164.3472
 20
94.2486
 30
0.0
 10
164.3472
 20
94.2486
 30
0.0
 10
167.4543
 20
90.8651
 30
0.0
 10
167.903
 20
85.468
 30
0.0
 10
165.9768
 20
82.4307
 30
0.0
 10
165.9768
 20
82.4307
 30
0.0
 10
163.525
 20
77.8883
 30
0.0
 10
157.7465
 20
77.4938
 30
0.0
 10
155.3416
 20
80.1451
 30
0.0
 10
155.3416
 20
80.1451
 30
0.0
 10
153.1992
 20
81.9478
 30
0.0
 10
153.3301
 20
85.6574
 30
0.0
 10
155.3915
 20
87.2789
 30
0.0
 10
155.3915
 20
87.2789
 30
0.0
 10
156.6363
 20
88.2582
 30
0.0
 10
158.4961
 20
88.2223
 30
0.0
 10
159.2084
 20
87.2054
 30
0.0
 10
159.2084
 20
87.2054
 30
0.0
 10
160.1941
 20
85.7981
 30
0.0
 10
160.2341
 20
83.849
 30
0.0
 10
157.451
 20
83.2016
 30
0.0
 10
157.451
 20
83.2016
 30
0.0
 10
156.8374
 20
82.7483
 30
0.0
 10
157.1821
 20
82.4325
 30
0.0
 10
157.6422
 20
82.1246
 30
0.0
 10
157.6422
 20
82.1246
 30
0.0
 10
159.1402
 20
81.2032
 30
0.0
 10
160.6399
 20
81.9431
 30
0.0
 10
161.9042
 20
82.9727
 30
0.0
 10
161.9042
 20
82.9727
 30
0.0
 10
166.0656
 20
87.2517
 30
0.0
 10
160.9866
 20
93.8865
 30
0.0
 10
154.6224
 20
93.8899
 30
0.0
 10
154.6224
 20
93.8899
 30
0.0
 10
151.5277
 20
93.7669
 30
0.0
 10
149.2735
 20
92.266
 30
0.0
 10
147.605
 20
89.2004
 30
0.0
 10
147.605
 20
89.2004
 30
0.0
 10
146.3423
 20
86.8806
 30
0.0
 10
146.1997
 20
83.4049
 30
0.0
 10
146.9232
 20
80.9161
 30
0.0
 10
146.9232
 20
80.9161
 30
0.0
 10
147.9334
 20
77.4408
 30
0.0
 10
151.6079
 20
73.336
 30
0.0
 10
157.6442
 20
69.8415
 30
0.0
 10
157.6442
 20
69.8415
 30
0.0
 10
162.2018
 20
67.203
 30
0.0
 10
169.3005
 20
65.7224
 30
0.0
 10
169.9816
 20
59.3648
 30
0.0
  0
SPLINE
  5
44
330
1F
100
AcDbEntity
  8
layer 1
 62
     7
100
AcDbSpline
210
0.0
220
0.0
230
1.0
 70
    11
 71
     3
 72
    84
 73
    80
 74
     0
 42
0.0000000001
 43
0.0000000001
 12
1.0
 22
0.0
 32
0.0
 13
1.0
 23
0.0
 33
0.0
 40
0.0
 40
0.0
 40
0.0
 40
0.0
 40
0.0476190476190476
 40
0.0476190476190476
 40
0.0476190476190476
 40
0.0476190476190476
 40
0.0952380952380952
 40
0.0952380952380952
 40
0.0952380952380952
 40
0.0952380952380952
 40
0.1428571428571428
 40
0.1428571428571428
 40
0.1428571428571428
 40
0.1428571428571428
 40
0.1904761904761905
 40
0.1904761904761905
 40
0.1904761904761905
 40
0.1904761904761905
 40
0.2380952380952381
 40
0.2380952380952381
 40
0.2380952380952381
 40
0.2380952380952381
 40
0.2857142857142857
 40
0.2857142857142857
 40
0.2857142857142857
 40
0.2857142857142857
 40
0.3333333333333333
 40
0.3333333333333333
 40
0.3333333333333333
 40
0.3333333333333333
 40
0.3809523809523809
 40
0.3809523809523809
 40
0.3809523809523809
 40
0.3809523809523809
 40
0.4285714285714285
 40
0.4285714285714285
 40
0.4285714285714285
 40
0.4285714285714285
 40
0.4761904761904762
 40
0.4761904761904762
 40
0.4761904761904762
 40
0.4761904761904762
 40
0.5238095238095238
 40
0.5238095238095238
 40
0.5238095238095238
 40
0.5238095238095238
 40
0.5714285714285714
 40
0.5714285714285714
 40
0.5714285714285714
 40
0.5714285714285714
 40
0.6190476190476191
 40
0.6190476190476191
 40
0.6190476190476191
 40
0.6190476190476191
 40
0.6666666666666666
 40
0.6666666666666666
 40
0.6666666666666666
 40
0.6666666666666666
 40
0.7142857142857143
 40
0.7142857142857143
 40
0.7142857142857143
 40
0.7142857142857143
 40
0.7619047619047619
 40
0.7619047619047619
 40
0.7619047619047619
 40
0.7619047619047619
 40
0.8095238095238095
 40
0.8095238095238095
 40
0.8095238095238095
 40
0.8095238095238095
 40
0.8571428571428571
 40
0.8571428571428571
 40
0.8571428571428571
 40
0.8571428571428571
 40
0.9047619047619048
 40
0.9047619047619048
 40
0.9047619047619048
 40
0.9047619047619048
 40
1.0
 40
1.0
 40
1.0
 40
1.0
 10
79.1402
 20
10.65
 30
0.0
 10
77.7571
 20
11.2712
 30
0.0
 10
77.4025
 20
12.0087
 30
0.0
 10
77.93
 20
13.1665
 30
0.0
 10
77.93
 20
13.1665
 30
0.0
 10
78.3892
 20
14.1742
 30
0.0
 10
78.1118
 20
14.4306
 30
0.0
 10
77.0125
 20
14.0151
 30
0.0
 10
77.0125
 20
14.0151
 30
0.0
 10
76.5445
 20
13.8383
 30
0.0
 10
76.2126
 20
13.413
 30
0.0
 10
76.2126
 20
12.9902
 30
0.0
 10
76.2126
 20
12.9902
 30
0.0
 10
76.2126
 20
12.585
 30
0.0
 10
75.9784
 20
12.2677
 30
0.0
 10
75.6793
 20
12.2677
 30
0.0
 10
75.6793
 20
12.2677
 30
0.0
 10
74.9373
 20
12.2677
 30
0.0
 10
75.0085
 20
12.7796
 30
0.0
 10
76.0348
 20
14.8228
 30
0.0
 10
76.0348
 20
14.8228
 30
0.0
 10
77.1087
 20
16.9608
 30
0.0
 10
77.1203
 20
17.2434
 30
0.0
 10
76.2078
 20
19.032
 30
0.0
 10
76.2078
 20
19.032
 30
0.0
 10
75.5168
 20
20.3862
 30
0.0
 10
73.2893
 20
21.53
 30
0.0
 10
72.3474
 20
21.4252
 30
0.0
 10
72.3474
 20
21.4252
 30
0.0
 10
72.3474
 20
21.4252
 30
0.0
 10
72.3134
 20
56.5308
 30
0.0
 10
72.3134
 20
56.5308
 30
0.0
 10
72.3134
 20
56.5308
 30
0.0
 10
72.3134
 20
56.5308
 30
0.0
 10
73.1075
 20
55.1353
 30
0.0
 10
73.1075
 20
55.1353
 30
0.0
 10
73.1075
 20
55.1353
 30
0.0
 10
74.3102
 20
53.0219
 30
0.0
 10
76.364
 20
52.0867
 30
0.0
 10
79.8028
 20
52.0867
 30
0.0
 10
79.8028
 20
52.0867
 30
0.0
 10
81.3248
 20
52.0867
 30
0.0
 10
82.6638
 20
51.935
 30
0.0
 10
82.7784
 20
51.7495
 30
0.0
 10
82.7784
 20
51.7495
 30
0.0
 10
82.8931
 20
51.5641
 30
0.0
 10
82.0625
 20
50.7372
 30
0.0
 10
80.933
 20
49.912
 30
0.0
 10
80.933
 20
49.912
 30
0.0
 10
75.3168
 20
45.8093
 30
0.0
 10
74.1023
 20
44.2241
 30
0.0
 10
74.0872
 20
40.9765
 30
0.0
 10
74.0872
 20
40.9765
 30
0.0
 10
74.0829
 20
40.0477
 30
0.0
 10
74.1747
 20
39.2877
 30
0.0
 10
74.2912
 20
39.2877
 30
0.0
 10
74.2912
 20
39.2877
 30
0.0
 10
74.8587
 20
39.2877
 30
0.0
 10
76.6061
 20
40.8651
 30
0.0
 10
77.322
 20
42.0235
 30
0.0
 10
77.322
 20
42.0235
 30
0.0
 10
78.5461
 20
44.0042
 30
0.0
 10
78.5411
 20
42.7954
 30
0.0
 10
77.3142
 20
40.0899
 30
0.0
 10
77.3142
 20
40.0899
 30
0.0
 10
75.854
 20
36.8705
 30
0.0
 10
75.4534
 20
34.81
 30
0.0
 10
75.4643
 20
30.5774
 30
0.0
 10
75.4643
 20
30.5774
 30
0.0
 10
75.481
 20
24.1918
 30
0.0
 10
77.5351
 20
18.5238
 30
0.0
 10
81.5782
 20
13.7086
 30
0.0
 10
81.5782
 20
13.7086
 30
0.0
 10
83.2455
 20
11.7228
 30
0.0
 10
83.5466
 20
11.1786
 30
0.0
 10
83.157
 20
10.8553
 30
0.0
 10
83.157
 20
10.8553
 30
0.0
 10
82.3626
 20
10.196
 30
0.0
 10
80.3769
 20
10.0945
 30
0.0
 10
79.1402
 20
10.65
 30
0.0
  0
SPLINE
  5
45
330
1F
100
AcDbEntity
  8
layer 1
 62
     7
100
AcDbSpline
210
0.0
220
0.0
230
1.0
 70
    11
 71
     3
 72
   108
 73
   104
 74
     0
 42
0.0000000001
 43
0.0000000001
 12
1.0
 22
0.0
 32
0.0
 13
1.0
 23
0.0
 33
0.0
 40
0.0
 40
0.0
 40
0.0
 40
0.0
 40
0.037037037037037
 40
0.037037037037037
 40
0.037037037037037
 40
0.037037037037037
 40
0.0740740740740741
 40
0.0740740740740741
 40
0.0740740740740741
 40
0.0740740740740741
 40
0.1111111111111111
 40
0.1111111111111111
 40
0.1111111111111111
 40
0.1111111111111111
 40
0.1481481481481481
 40
0.1481481481481481
 40
0.1481481481481481
 40
0.1481481481481481
 40
0.1851851851851852
 40
0.1851851851851852
 40
0.1851851851851852
 40
0.1851851851851852
 40
0.2222222222222222
 40
0.2222222222222222
 40
0.2222222222222222
 40
0.2222222222222222
 40
0.2592592592592592
 40
0.2592592592592592
 40
0.2592592592592592
 40
0.2592592592592592
 40
0.2962962962962963
 40
0.2962962962962963
 40
0.2962962962962963
 40
0.2962962962962963
 40
0.3333333333333333
 40
0.3333333333333333
 40
0.3333333333333333
 40
0.3333333333333333
 40
0.3703703703703703
 40
0.3703703703703703
 40
0.3703703703703703
 40
0.3703703703703703
 40
0.4074074074074074
 40
0.4074074074074074
 40
0.4074074074074074
 40
0.4074074074074074
 40
0.4444444444444444
 40
0.4444444444444444
 40
0.4444444444444444
 40
0.4444444444444444
 40
0.4814814814814815
 40
0.4814814814814815
 40
0.4814814814814815
 40
0.4814814814814815
 40
0.5185185185185185
 40
0.5185185185185185
 40
0.5185185185185185
 40
0.5185185185185185
 40
0.5555555555555556
 40
0.5555555555555556
 40
0.5555555555555556
 40
0.5555555555555556
 40
0.5925925925925926
 40
0.5925925925925926
 40
0.5925925925925926
 40
0.5925925925925926
 40
0.6296296296296297
 40
0.6296296296296297
 40
0.6296296296296297
 40
0.6296296296296297
 40
0.6666666666666666
 40
0.6666666666666666
 40
0.6666666666666666
 40
0.6666666666666666
 40
0.7037037037037037
 40
0.7037037037037037
 40
0.7037037037037037
 40
0.7037037037037037
 40
0.7407407407407407
 40
0.7407407407407407
 40
0.7407407407407407
 40
0.7407407407407407
 40
0.7777777777777778
 40
0.7777777777777778
 40
0.7777777777777778
 40
0.7777777777777778
 40
0.8148148148148148
 40
0.8148148148148148
 40
0.8148148148148148
 40
0.8148148148148148
 40
0.8518518518518519
 40
0.8518518518518519
 40
0.8518518518518519
 40
0.8518518518518519
 40
0.8888888888888888
 40
0.8888888888888888
 40
0.8888888888888888
 40
0.8888888888888888
 40
0.9259259259259259
 40
0.9259259259259259
 40
0.9259259259259259
 40
0.9259259259259259
 40
1.0
 40
1.0
 40
1.0
 40
1.0
 10
91.265
 20
10.6956
 30
0.0
 10
89.2885
 20
9.8066
 30
0.0
 10
88.977
 20
9.7571
 30
0.0
 10
88.0782
 20
10.1891
 30
0.0
 10
88.0782
 20
10.1891
 30
0.0
 10
87.5302
 20
10.4525
 30
0.0
 10
86.8558
 20
11.0714
 30
0.0
 10
86.5794
 20
11.5646
 30
0.0
 10
86.5794
 20
11.5646
 30
0.0
 10
86.1208
 20
12.3829
 30
0.0
 10
86.1906
 20
12.7648
 30
0.0
 10
87.3791
 20
15.9381
 30
0.0
 10
87.3791
 20
15.9381
 30
0.0
 10
88.0953
 20
17.8504
 30
0.0
 10
88.838
 20
20.2411
 30
0.0
 10
89.0294
 20
21.2508
 30
0.0
 10
89.0294
 20
21.2508
 30
0.0
 10
89.7014
 20
24.7944
 30
0.0
 10
91.8683
 20
27.8779
 30
0.0
 10
94.7112
 20
29.3356
 30
0.0
 10
94.7112
 20
29.3356
 30
0.0
 10
96.6325
 20
30.3208
 30
0.0
 10
99.7579
 20
30.7889
 30
0.0
 10
101.812
 20
30.3994
 30
0.0
 10
101.812
 20
30.3994
 30
0.0
 10
103.5165
 20
30.0761
 30
0.0
 10
106.2087
 20
28.9178
 30
0.0
 10
106.551
 20
28.3604
 30
0.0
 10
106.551
 20
28.3604
 30
0.0
 10
107.3127
 20
26.9374
 30
0.0
 10
106.0906
 20
22.2211
 30
0.0
 10
105.4226
 20
20.9118
 30
0.0
 10
105.4226
 20
20.9118
 30
0.0
 10
103.8695
 20
17.8674
 30
0.0
 10
101.5013
 20
15.3903
 30
0.0
 10
98.0335
 20
15.9857
 30
0.0
 10
98.0335
 20
15.9857
 30
0.0
 10
96.1364
 20
16.3416
 30
0.0
 10
94.4257
 20
18.0602
 30
0.0
 10
94.1521
 20
19.8853
 30
0.0
 10
94.1521
 20
19.8853
 30
0.0
 10
93.862
 20
21.8201
 30
0.0
 10
94.5684
 20
23.2857
 30
0.0
 10
96.31
 20
24.362
 30
0.0
 10
96.31
 20
24.362
 30
0.0
 10
97.7479
 20
25.2508
 30
0.0
 10
98.1501
 20
25.1323
 30
0.0
 10
97.5433
 20
23.9984
 30
0.0
 10
97.5433
 20
23.9984
 30
0.0
 10
96.4488
 20
21.9535
 30
0.0
 10
99.616
 20
19.4651
 30
0.0
 10
101.4859
 20
20.9007
 30
0.0
 10
101.4859
 20
20.9007
 30
0.0
 10
104.6791
 20
23.3525
 30
0.0
 10
101.3285
 20
27.9592
 30
0.0
 10
97.167
 20
26.8387
 30
0.0
 10
97.167
 20
26.8387
 30
0.0
 10
94.5566
 20
26.1358
 30
0.0
 10
93.0767
 20
23.7728
 30
0.0
 10
91.8135
 20
18.2907
 30
0.0
 10
91.8135
 20
18.2907
 30
0.0
 10
91.3491
 20
16.2756
 30
0.0
 10
90.8247
 20
14.9373
 30
0.0
 10
90.2608
 20
14.3293
 30
0.0
 10
90.2608
 20
14.3293
 30
0.0
 10
89.2827
 20
13.2743
 30
0.0
 10
89.3725
 20
13.0107
 30
0.0
 10
90.6279
 20
13.2507
 30
0.0
 10
90.6279
 20
13.2507
 30
0.0
 10
91.7161
 20
13.4587
 30
0.0
 10
92.9225
 20
14.9189
 30
0.0
 10
92.9225
 20
16.028
 30
0.0
 10
92.9225
 20
16.028
 30
0.0
 10
92.9225
 20
17.3559
 30
0.0
 10
93.4695
 20
17.3141
 30
0.0
 10
94.3812
 20
15.9166
 30
0.0
 10
94.3812
 20
15.9166
 30
0.0
 10
96.0488
 20
13.3606
 30
0.0
 10
99.4548
 20
12.3756
 30
0.0
 10
102.7925
 20
13.4843
 30
0.0
 10
102.7925
 20
13.4843
 30
0.0
 10
106.1628
 20
14.6038
 30
0.0
 10
108.4137
 20
17.8208
 30
0.0
 10
108.8121
 20
22.0879
 30
0.0
 10
108.8121
 20
22.0879
 30
0.0
 10
109.0517
 20
24.6543
 30
0.0
 10
109.4965
 20
24.8542
 30
0.0
 10
110.253
 20
22.7361
 30
0.0
 10
110.253
 20
22.7361
 30
0.0
 10
111.1102
 20
20.3365
 30
0.0
 10
110.6737
 20
17.016
 30
0.0
 10
109.1408
 20
14.275
 30
0.0
 10
109.1408
 20
14.275
 30
0.0
 10
107.7048
 20
11.707
 30
0.0
 10
105.7306
 20
9.4174
 30
0.0
 10
104.9683
 20
9.4357
 30
0.0
 10
104.9683
 20
9.4357
 30
0.0
 10
104.6981
 20
9.4421
 30
0.0
 10
104.0979
 20
9.7633
 30
0.0
 10
103.6348
 20
10.1491
 30
0.0
 10
103.6348
 20
10.1491
 30
0.0
 10
99.6279
 20
12.0057
 30
0.0
 10
93.5974
 20
11.5746
 30
0.0
 10
91.265
 20
10.6956
 30
0.0
  0
SPLINE
  5
46
330
1F
100
AcDbEntity
  8
layer 1
 62
     7
100
AcDbSpline
210
0.0
220
0.0
230
1.0
 70
    11
 71
     3
 72
   260
 73
   256
 74
     0
 42
0.0000000001
 43
0.0000000001
 12
1.0
 22
0.0
 32
0.0
 13
1.0
 23
0.0
 33
0.0
 40
0.0
 40
0.0
 40
0.0
 40
0.0
 40
0.0153846153846154
 40
0.0153846153846154
 40
0.0153846153846154
 40
0.0153846153846154
 40
0.0307692307692308
 40
0.0307692307692308
 40
0.0307692307692308
 40
0.0307692307692308
 40
0.0461538461538462
 40
0.0461538461538462
 40
0.0461538461538462
 40
0.0461538461538462
 40
0.0615384615384615
 40
0.0615384615384615
 40
0.0615384615384615
 40
0.0615384615384615
 40
0.0769230769230769
 40
0.0769230769230769
 40
0.0769230769230769
 40
0.0769230769230769
 40
0.0923076923076923
 40
0.0923076923076923
 40
0.0923076923076923
 40
0.0923076923076923
 40
0.1076923076923077
 40
0.1076923076923077
 40
0.1076923076923077
 40
0.1076923076923077
 40
0.1230769230769231
 40
0.1230769230769231
 40
0.1230769230769231
 40
0.1230769230769231
 40
0.1384615384615385
 40
0.1384615384615385
 40
0.1384615384615385
 40
0.1384615384615385
 40
0.1538461538461539
 40
0.1538461538461539
 40
0.1538461538461539
 40
0.1538461538461539
 40
0.1692307692307692
 40
0.1692307692307692
 40
0.1692307692307692
 40
0.1692307692307692
 40
0.1846153846153846
 40
0.1846153846153846
 40
0.1846153846153846
 40
0.1846153846153846
 40
0.2
 40
0.2
 40
0.2
 40
0.2
 40
0.2153846153846154
 40
0.2153846153846154
 40
0.2153846153846154
 40
0.2153846153846154
 40
0.2307692307692308
 40
0.2307692307692308
 40
0.2307692307692308
 40
0.2307692307692308
 40
0.2461538461538462
 40
0.2461538461538462
 40
0.2461538461538462
 40
0.2461538461538462
 40
0.2615384615384616
 40
0.2615384615384616
 40
0.2615384615384616
 40
0.2615384615384616
 40
0.2769230769230769
 40
0.2769230769230769
 40
0.2769230769230769
 40
0.2769230769230769
 40
0.2923076923076923
 40
0.2923076923076923
 40
0.2923076923076923
 40
0.2923076923076923
 40
0.3076923076923077
 40
0.3076923076923077
 40
0.3076923076923077
 40
0.3076923076923077
 40
0.3230769230769231
 40
0.3230769230769231
 40
0.3230769230769231
 40
0.3230769230769231
 40
0.3384615384615385
 40
0.3384615384615385
 40
0.3384615384615385
 40
0.3384615384615385
 40
0.3538461538461539
 40
0.3538461538461539
 40
0.3538461538461539
 40
0.3538461538461539
 40
0.3692307692307693
 40
0.3692307692307693
 40
0.3692307692307693
 40
0.3692307692307693
 40
0.3846153846153846
 40
0.3846153846153846
 40
0.3846153846153846
 40
0.3846153846153846
 40
0.4
 40
0.4
 40
0.4
 40
0.4
 40
0.4153846153846154
 40
0.4153846153846154
 40
0.4153846153846154
 40
0.4153846153846154
 40
0.4307692307692308
 40
0.4307692307692308
 40
0.4307692307692308
 40
0.4307692307692308
 40
0.4461538461538462
 40
0.4461538461538462
 40
0.4461538461538462
 40
0.4461538461538462
 40
0.4615384615384616
 40
0.4615384615384616
 40
0.4615384615384616
 40
0.4615384615384616
 40
0.4769230769230769
 40
0.4769230769230769
 40
0.4769230769230769
 40
0.4769230769230769
 40
0.4923076923076923
 40
0.4923076923076923
 40
0.4923076923076923
 40
0.4923076923076923
 40
0.5076923076923077
 40
0.5076923076923077
 40
0.5076923076923077
 40
0.5076923076923077
 40
0.5230769230769231
 40
0.5230769230769231
 40
0.5230769230769231
 40
0.5230769230769231
 40
0.5384615384615384
 40
0.5384615384615384
 40
0.5384615384615384
 40
0.5384615384615384
 40
0.5538461538461539
 40
0.5538461538461539
 40
0.5538461538461539
 40
0.5538461538461539
 40
0.5692307692307692
 40
0.5692307692307692
 40
0.5692307692307692
 40
0.5692307692307692
 40
0.5846153846153846
 40
0.5846153846153846
 40
0.5846153846153846
 40
0.5846153846153846
 40
0.6
 40
0.6
 40
0.6
 40
0.6
 40
0.6153846153846154
 40
0.6153846153846154
 40
0.6153846153846154
 40
0.6153846153846154
 40
0.6307692307692307
 40
0.6307692307692307
 40
0.6307692307692307
 40
0.6307692307692307
 40
0.6461538461538462
 40
0.6461538461538462
 40
0.6461538461538462
 40
0.6461538461538462
 40
0.6615384615384615
 40
0.6615384615384615
 40
0.6615384615384615
 40
0.6615384615384615
 40
0.676923076923077
 40
0.676923076923077
 40
0.676923076923077
 40
0.676923076923077
 40
0.6923076923076923
 40
0.6923076923076923
 40
0.6923076923076923
 40
0.6923076923076923
 40
0.7076923076923077
 40
0.7076923076923077
 40
0.7076923076923077
 40
0.7076923076923077
 40
0.7230769230769231
 40
0.7230769230769231
 40
0.7230769230769231
 40
0.7230769230769231
 40
0.7384615384615385
 40
0.7384615384615385
 40
0.7384615384615385
 40
0.7384615384615385
 40
0.7538461538461538
 40
0.7538461538461538
 40
0.7538461538461538
 40
0.7538461538461538
 40
0.7692307692307693
 40
0.7692307692307693
 40
0.7692307692307693
 40
0.7692307692307693
 40
0.7846153846153846
 40
0.7846153846153846
 40
0.7846153846153846
 40
0.7846153846153846
 40
0.8
 40
0.8
 40
0.8
 40
0.8
 40
0.8153846153846154
 40
0.8153846153846154
 40
0.8153846153846154
 40
0.8153846153846154
 40
0.8307692307692308
 40
0.8307692307692308
 40
0.8307692307692308
 40
0.8307692307692308
 40
0.8461538461538461
 40
0.8461538461538461
 40
0.8461538461538461
 40
0.8461538461538461
 40
0.8615384615384616
 40
0.8615384615384616
 40
0.8615384615384616
 40
0.8615384615384616
 40
0.8769230769230769
 40
0.8769230769230769
 40
0.8769230769230769
 40
0.8769230769230769
 40
0.8923076923076924
 40
0.8923076923076924
 40
0.8923076923076924
 40
0.8923076923076924
 40
0.9076923076923077
 40
0.9076923076923077
 40
0.9076923076923077
 40
0.9076923076923077
 40
0.9230769230769231
 40
0.9230769230769231
 40
0.9230769230769231
 40
0.9230769230769231
 40
0.9384615384615385
 40
0.9384615384615385
 40
0.9384615384615385
 40
0.9384615384615385
 40
0.9538461538461539
 40
0.9538461538461539
 40
0.9538461538461539
 40
0.9538461538461539
 40
0.9692307692307692
 40
0.9692307692307692
 40
0.9692307692307692
 40
0.9692307692307692
 40
1.0
 40
1.0
 40
1.0
 40
1.0
 10
72.3372
 20
60.3657
 30
0.0
 10
72.3372
 20
60.3657
 30
0.0
 10
72.3017
 20
85.2323
 30
0.0
 10
72.3017
 20
85.2323
 30
0.0
 10
72.3017
 20
85.2323
 30
0.0
 10
76.854
 20
80.8931
 30
0.0
 10
81.3227
 20
86.1085
 30
0.0
 10
78.9457
 20
87.9947
 30
0.0
 10
78.9457
 20
87.9947
 30
0.0
 10
78.7166
 20
87.6644
 30
0.0
 10
78.2599
 20
87.2425
 30
0.0
 10
77.6907
 20
86.928
 30
0.0
 10
77.6907
 20
86.928
 30
0.0
 10
73.3387
 20
84.2438
 30
0.0
 10
71.6544
 20
91.0027
 30
0.0
 10
75.3236
 20
91.559
 30
0.0
 10
75.3236
 20
91.559
 30
0.0
 10
76.8544
 20
91.7156
 30
0.0
 10
77.3486
 20
91.4927
 30
0.0
 10
78.9732
 20
89.912
 30
0.0
 10
78.9732
 20
89.912
 30
0.0
 10
81.7298
 20
87.2301
 30
0.0
 10
83.5028
 20
86.531
 30
0.0
 10
88.468
 20
86.1683
 30
0.0
 10
88.468
 20
86.1683
 30
0.0
 10
95.7583
 20
85.6358
 30
0.0
 10
100.9042
 20
84.5705
 30
0.0
 10
101.9919
 20
83.3687
 30
0.0
 10
101.9919
 20
83.3687
 30
0.0
 10
102.972
 20
82.2857
 30
0.0
 10
102.4665
 20
82.1975
 30
0.0
 10
100.0149
 20
83.0233
 30
0.0
 10
100.0149
 20
83.0233
 30
0.0
 10
96.4706
 20
84.2174
 30
0.0
 10
94.7884
 20
84.2946
 30
0.0
 10
92.6232
 20
83.3631
 30
0.0
 10
92.6232
 20
83.3631
 30
0.0
 10
91.5808
 20
82.9146
 30
0.0
 10
90.2978
 20
82.0028
 30
0.0
 10
89.7155
 20
81.2964
 30
0.0
 10
89.7155
 20
81.2964
 30
0.0
 10
89.7155
 20
81.2964
 30
0.0
 10
88.6735
 20
80.0322
 30
0.0
 10
88.6735
 20
80.0322
 30
0.0
 10
88.6735
 20
80.0322
 30
0.0
 10
88.6735
 20
80.0322
 30
0.0
 10
87.2078
 20
80.8559
 30
0.0
 10
87.2078
 20
80.8559
 30
0.0
 10
87.2078
 20
80.8559
 30
0.0
 10
85.3288
 20
81.9119
 30
0.0
 10
83.2158
 20
81.7363
 30
0.0
 10
81.432
 20
80.3758
 30
0.0
 10
81.432
 20
80.3758
 30
0.0
 10
80.7397
 20
79.8478
 30
0.0
 10
79.6953
 20
79.4023
 30
0.0
 10
79.1108
 20
79.3856
 30
0.0
 10
79.1108
 20
79.3856
 30
0.0
 10
78.1167
 20
79.3574
 30
0.0
 10
78.0708
 20
79.2958
 30
0.0
 10
78.3994
 20
78.4315
 30
0.0
 10
78.3994
 20
78.4315
 30
0.0
 10
79.1648
 20
76.4183
 30
0.0
 10
81.0252
 20
75.1956
 30
0.0
 10
83.3229
 20
75.1956
 30
0.0
 10
83.3229
 20
75.1956
 30
0.0
 10
84.8554
 20
75.1956
 30
0.0
 10
86.4381
 20
75.8367
 30
0.0
 10
87.2142
 20
76.7721
 30
0.0
 10
87.2142
 20
76.7721
 30
0.0
 10
87.8671
 20
77.5588
 30
0.0
 10
88.299
 20
77.4629
 30
0.0
 10
88.308
 20
76.5288
 30
0.0
 10
88.308
 20
76.5288
 30
0.0
 10
88.3213
 20
75.1621
 30
0.0
 10
89.5896
 20
72.8438
 30
0.0
 10
90.839
 20
71.9023
 30
0.0
 10
90.839
 20
71.9023
 30
0.0
 10
93.4777
 20
69.9138
 30
0.0
 10
97.7407
 20
69.3259
 30
0.0
 10
101.4762
 20
70.4353
 30
0.0
 10
101.4762
 20
70.4353
 30
0.0
 10
103.6536
 20
71.0819
 30
0.0
 10
106.1302
 20
70.932
 30
0.0
 10
107.8351
 20
70.0503
 30
0.0
 10
107.8351
 20
70.0503
 30
0.0
 10
108.7181
 20
69.5938
 30
0.0
 10
108.9208
 20
69.2664
 30
0.0
 10
108.9208
 20
68.2972
 30
0.0
 10
108.9208
 20
68.2972
 30
0.0
 10
108.9208
 20
66.7414
 30
0.0
 10
108.0682
 20
65.9543
 30
0.0
 10
107.511
 20
66.9955
 30
0.0
 10
107.511
 20
66.9955
 30
0.0
 10
106.9972
 20
67.9555
 30
0.0
 10
105.8553
 20
67.9334
 30
0.0
 10
105.3307
 20
66.9535
 30
0.0
 10
105.3307
 20
66.9535
 30
0.0
 10
104.977
 20
66.2926
 30
0.0
 10
105.0338
 20
66.0814
 30
0.0
 10
105.7131
 20
65.5314
 30
0.0
 10
105.7131
 20
65.5314
 30
0.0
 10
106.6943
 20
64.7369
 30
0.0
 10
107.6138
 20
64.7115
 30
0.0
 10
108.7375
 20
65.4478
 30
0.0
 10
108.7375
 20
65.4478
 30
0.0
 10
109.7535
 20
66.1135
 30
0.0
 10
110.4943
 20
68.0998
 30
0.0
 10
110.1499
 20
69.235
 30
0.0
 10
110.1499
 20
69.235
 30
0.0
 10
109.4673
 20
71.4853
 30
0.0
 10
106.2592
 20
73.3066
 30
0.0
 10
102.1533
 20
73.7749
 30
0.0
 10
102.1533
 20
73.7749
 30
0.0
 10
96.722
 20
74.3943
 30
0.0
 10
95.0372
 20
75.2225
 30
0.0
 10
94.9781
 20
77.3019
 30
0.0
 10
94.9781
 20
77.3019
 30
0.0
 10
94.952
 20
78.2184
 30
0.0
 10
95.1905
 20
78.7261
 30
0.0
 10
95.9566
 20
79.3851
 30
0.0
 10
95.9566
 20
79.3851
 30
0.0
 10
96.8858
 20
80.1843
 30
0.0
 10
97.1954
 20
80.2433
 30
0.0
 10
99.6991
 20
80.0983
 30
0.0
 10
99.6991
 20
80.0983
 30
0.0
 10
102.8455
 20
79.9161
 30
0.0
 10
104.9605
 20
79.0095
 30
0.0
 10
111.7651
 20
74.9256
 30
0.0
 10
111.7651
 20
74.9256
 30
0.0
 10
111.7651
 20
74.9256
 30
0.0
 10
115.8536
 20
72.4719
 30
0.0
 10
115.8536
 20
72.4719
 30
0.0
 10
115.8536
 20
72.4719
 30
0.0
 10
115.8536
 20
72.4719
 30
0.0
 10
115.8832
 20
70.5849
 30
0.0
 10
115.8832
 20
70.5849
 30
0.0
 10
115.8832
 20
70.5849
 30
0.0
 10
115.9211
 20
68.169
 30
0.0
 10
116.5553
 20
67.7815
 30
0.0
 10
117.4631
 20
67.3554
 30
0.0
 10
117.4631
 20
67.3554
 30
0.0
 10
117.7973
 20
67.1986
 30
0.0
 10
117.9846
 20
67.646
 30
0.0
 10
117.4184
 20
68.4119
 30
0.0
 10
117.4184
 20
68.4119
 30
0.0
 10
116.6521
 20
69.4484
 30
0.0
 10
116.6718
 20
71.2847
 30
0.0
 10
117.4492
 20
71.2847
 30
0.0
 10
117.4492
 20
71.2847
 30
0.0
 10
117.6349
 20
71.2847
 30
0.0
 10
118.8718
 20
70.5849
 30
0.0
 10
120.1978
 20
69.7296
 30
0.0
 10
120.1978
 20
69.7296
 30
0.0
 10
123.0581
 20
67.8845
 30
0.0
 10
127.3372
 20
65.7178
 30
0.0
 10
130.7858
 20
64.3684
 30
0.0
 10
130.7858
 20
64.3684
 30
0.0
 10
133.2303
 20
63.4118
 30
0.0
 10
134.4857
 20
62.6006
 30
0.0
 10
134.1072
 20
62.2221
 30
0.0
 10
134.1072
 20
62.2221
 30
0.0
 10
134.0018
 20
62.1167
 30
0.0
 10
132.2515
 20
62.4185
 30
0.0
 10
130.2175
 20
62.8926
 30
0.0
 10
130.2175
 20
62.8926
 30
0.0
 10
120.7233
 20
65.0827
 30
0.0
 10
110.7445
 20
64.7795
 30
0.0
 10
103.2405
 20
62.8923
 30
0.0
 10
103.2405
 20
62.8923
 30
0.0
 10
98.7861
 20
61.767
 30
0.0
 10
98.8279
 20
61.7625
 30
0.0
 10
99.0825
 20
63.3319
 30
0.0
 10
99.0825
 20
63.3319
 30
0.0
 10
99.3283
 20
64.8461
 30
0.0
 10
98.6349
 20
66.4345
 30
0.0
 10
97.4514
 20
67.0686
 30
0.0
 10
97.4514
 20
67.0686
 30
0.0
 10
97.0134
 20
67.3032
 30
0.0
 10
94.4953
 20
67.5958
 30
0.0
 10
91.8556
 20
67.7185
 30
0.0
 10
91.8556
 20
67.7185
 30
0.0
 10
85.685
 20
68.0053
 30
0.0
 10
84.5601
 20
68.5418
 30
0.0
 10
83.6743
 20
71.6197
 30
0.0
 10
83.6743
 20
71.6197
 30
0.0
 10
83.6743
 20
71.6197
 30
0.0
 10
83.4125
 20
72.5292
 30
0.0
 10
83.4125
 20
72.5292
 30
0.0
 10
83.4125
 20
72.5292
 30
0.0
 10
83.4125
 20
72.5292
 30
0.0
 10
83.0123
 20
71.5284
 30
0.0
 10
83.0123
 20
71.5284
 30
0.0
 10
83.0123
 20
71.5284
 30
0.0
 10
81.3513
 20
67.3757
 30
0.0
 10
85.0281
 20
62.7861
 30
0.0
 10
90.7599
 20
61.8575
 30
0.0
 10
90.7599
 20
61.8575
 30
0.0
 10
93.0715
 20
61.483
 30
0.0
 10
91.6806
 20
60.8504
 30
0.0
 10
88.9758
 20
61.0461
 30
0.0
 10
88.9758
 20
61.0461
 30
0.0
 10
87.3315
 20
61.165
 30
0.0
 10
86.5774
 20
61.4314
 30
0.0
 10
85.4359
 20
62.2968
 30
0.0
 10
85.4359
 20
62.2968
 30
0.0
 10
84.6382
 20
62.9016
 30
0.0
 10
83.3683
 20
63.8653
 30
0.0
 10
82.6142
 20
64.4386
 30
0.0
 10
82.6142
 20
64.4386
 30
0.0
 10
81.86
 20
65.0118
 30
0.0
 10
80.1148
 20
65.8368
 30
0.0
 10
78.736
 20
66.2719
 30
0.0
 10
78.736
 20
66.2719
 30
0.0
 10
75.7277
 20
67.2214
 30
0.0
 10
74.7903
 20
68.2011
 30
0.0
 10
74.7903
 20
70.3961
 30
0.0
 10
74.7903
 20
70.3961
 30
0.0
 10
74.7903
 20
72.0301
 30
0.0
 10
75.7187
 20
73.569
 30
0.0
 10
76.9378
 20
73.9559
 30
0.0
 10
76.9378
 20
73.9559
 30
0.0
 10
77.3267
 20
74.0792
 30
0.0
 10
77.553
 20
74.3288
 30
0.0
 10
77.4409
 20
74.5102
 30
0.0
 10
77.4409
 20
74.5102
 30
0.0
 10
76.6206
 20
75.8375
 30
0.0
 10
73.6669
 20
73.8972
 30
0.0
 10
72.9642
 20
70.5872
 30
0.0
 10
72.9642
 20
70.5872
 30
0.0
 10
72.6212
 20
68.7616
 30
0.0
 10
73.0883
 20
65.3325
 30
0.0
 10
74.1219
 20
63.1972
 30
0.0
 10
74.1219
 20
63.1972
 30
0.0
 10
75.1699
 20
61.0322
 30
0.0
 10
77.3837
 20
58.6333
 30
0.0
 10
79.2184
 20
57.6744
 30
0.0
 10
79.2184
 20
57.6744
 30
0.0
 10
80.7969
 20
56.8495
 30
0.0
 10
83.6278
 20
56.7072
 30
0.0
 10
88.0336
 20
57.2312
 30
0.0
 10
88.0336
 20
57.2312
 30
0.0
 10
89.4402
 20
57.3985
 30
0.0
 10
90.4334
 20
57.3833
 30
0.0
 10
90.4334
 20
57.1947
 30
0.0
 10
90.4334
 20
57.1947
 30
0.0
 10
90.4334
 20
56.7197
 30
0.0
 10
85.5321
 20
55.006
 30
0.0
 10
83.6783
 20
54.833
 30
0.0
 10
83.6783
 20
54.833
 30
0.0
 10
82.7985
 20
54.7509
 30
0.0
 10
81.2786
 20
54.8004
 30
0.0
 10
80.3009
 20
54.9431
 30
0.0
 10
80.3009
 20
54.9431
 30
0.0
 10
76.6376
 20
55.306
 30
0.0
 10
73.0484
 20
58.3781
 30
0.0
 10
72.3372
 20
60.3657
 30
0.0
  0
SPLINE
  5
47
330
1F
100
AcDbEntity
  8
layer 1
 62
     7
100
AcDbSpline
210
0.0
220
0.0
230
1.0
 70
    11
 71
     3
 72
   288
 73
   284
 74
     0
 42
0.0000000001
 43
0.0000000001
 12
1.0
 22
0.0
 32
0.0
 13
1.0
 23
0.0
 33
0.0
 40
0.0
 40
0.0
 40
0.0
 40
0.0
 40
0.0138888888888889
 40
0.0138888888888889
 40
0.0138888888888889
 40
0.0138888888888889
 40
0.0277777777777778
 40
0.0277777777777778
 40
0.0277777777777778
 40
0.0277777777777778
 40
0.0416666666666667
 40
0.0416666666666667
 40
0.0416666666666667
 40
0.0416666666666667
 40
0.0555555555555556
 40
0.0555555555555556
 40
0.0555555555555556
 40
0.0555555555555556
 40
0.0694444444444444
 40
0.0694444444444444
 40
0.0694444444444444
 40
0.0694444444444444
 40
0.0833333333333333
 40
0.0833333333333333
 40
0.0833333333333333
 40
0.0833333333333333
 40
0.0972222222222222
 40
0.0972222222222222
 40
0.0972222222222222
 40
0.0972222222222222
 40
0.1111111111111111
 40
0.1111111111111111
 40
0.1111111111111111
 40
0.1111111111111111
 40
0.125
 40
0.125
 40
0.125
 40
0.125
 40
0.1388888888888889
 40
0.1388888888888889
 40
0.1388888888888889
 40
0.1388888888888889
 40
0.1527777777777778
 40
0.1527777777777778
 40
0.1527777777777778
 40
0.1527777777777778
 40
0.1666666666666667
 40
0.1666666666666667
 40
0.1666666666666667
 40
0.1666666666666667
 40
0.1805555555555556
 40
0.1805555555555556
 40
0.1805555555555556
 40
0.1805555555555556
 40
0.1944444444444444
 40
0.1944444444444444
 40
0.1944444444444444
 40
0.1944444444444444
 40
0.2083333333333333
 40
0.2083333333333333
 40
0.2083333333333333
 40
0.2083333333333333
 40
0.2222222222222222
 40
0.2222222222222222
 40
0.2222222222222222
 40
0.2222222222222222
 40
0.2361111111111111
 40
0.2361111111111111
 40
0.2361111111111111
 40
0.2361111111111111
 40
0.25
 40
0.25
 40
0.25
 40
0.25
 40
0.2638888888888889
 40
0.2638888888888889
 40
0.2638888888888889
 40
0.2638888888888889
 40
0.2777777777777778
 40
0.2777777777777778
 40
0.2777777777777778
 40
0.2777777777777778
 40
0.2916666666666667
 40
0.2916666666666667
 40
0.2916666666666667
 40
0.2916666666666667
 40
0.3055555555555556
 40
0.3055555555555556
 40
0.3055555555555556
 40
0.3055555555555556
 40
0.3194444444444444
 40
0.3194444444444444
 40
0.3194444444444444
 40
0.3194444444444444
 40
0.3333333333333333
 40
0.3333333333333333
 40
0.3333333333333333
 40
0.3333333333333333
 40
0.3472222222222222
 40
0.3472222222222222
 40
0.3472222222222222
 40
0.3472222222222222
 40
0.3611111111111111
 40
0.3611111111111111
 40
0.3611111111111111
 40
0.3611111111111111
 40
0.375
 40
0.375
 40
0.375
 40
0.375
 40
0.3888888888888889
 40
0.3888888888888889
 40
0.3888888888888889
 40
0.3888888888888889
 40
0.4027777777777778
 40
0.4027777777777778
 40
0.4027777777777778
 40
0.4027777777777778
 40
0.4166666666666667
 40
0.4166666666666667
 40
0.4166666666666667
 40
0.4166666666666667
 40
0.4305555555555556
 40
0.4305555555555556
 40
0.4305555555555556
 40
0.4305555555555556
 40
0.4444444444444444
 40
0.4444444444444444
 40
0.4444444444444444
 40
0.4444444444444444
 40
0.4583333333333333
 40
0.4583333333333333
 40
0.4583333333333333
 40
0.4583333333333333
 40
0.4722222222222222
 40
0.4722222222222222
 40
0.4722222222222222
 40
0.4722222222222222
 40
0.4861111111111111
 40
0.4861111111111111
 40
0.4861111111111111
 40
0.4861111111111111
 40
0.5
 40
0.5
 40
0.5
 40
0.5
 40
0.5138888888888888
 40
0.5138888888888888
 40
0.5138888888888888
 40
0.5138888888888888
 40
0.5277777777777778
 40
0.5277777777777778
 40
0.5277777777777778
 40
0.5277777777777778
 40
0.5416666666666666
 40
0.5416666666666666
 40
0.5416666666666666
 40
0.5416666666666666
 40
0.5555555555555556
 40
0.5555555555555556
 40
0.5555555555555556
 40
0.5555555555555556
 40
0.5694444444444444
 40
0.5694444444444444
 40
0.5694444444444444
 40
0.5694444444444444
 40
0.5833333333333334
 40
0.5833333333333334
 40
0.5833333333333334
 40
0.5833333333333334
 40
0.5972222222222222
 40
0.5972222222222222
 40
0.5972222222222222
 40
0.5972222222222222
 40
0.6111111111111112
 40
0.6111111111111112
 40
0.6111111111111112
 40
0.6111111111111112
 40
0.625
 40
0.625
 40
0.625
 40
0.625
 40
0.6388888888888888
 40
0.6388888888888888
 40
0.6388888888888888
 40
0.6388888888888888
 40
0.6527777777777778
 40
0.6527777777777778
 40
0.6527777777777778
 40
0.6527777777777778
 40
0.6666666666666666
 40
0.6666666666666666
 40
0.6666666666666666
 40
0.6666666666666666
 40
0.6805555555555556
 40
0.6805555555555556
 40
0.6805555555555556
 40
0.6805555555555556
 40
0.6944444444444444
 40
0.6944444444444444
 40
0.6944444444444444
 40
0.6944444444444444
 40
0.7083333333333334
 40
0.7083333333333334
 40
0.7083333333333334
 40
0.7083333333333334
 40
0.7222222222222222
 40
0.7222222222222222
 40
0.7222222222222222
 40
0.7222222222222222
 40
0.7361111111111112
 40
0.7361111111111112
 40
0.7361111111111112
 40
0.7361111111111112
 40
0.75
 40
0.75
 40
0.75
 40
0.75
 40
0.7638888888888888
 40
0.7638888888888888
 40
0.7638888888888888
 40
0.7638888888888888
 40
0.7777777777777778
 40
0.7777777777777778
 40
0.7777777777777778
 40
0.7777777777777778
 40
0.7916666666666666
 40
0.7916666666666666
 40
0.7916666666666666
 40
0.7916666666666666
 40
0.8055555555555556
 40
0.8055555555555556
 40
0.8055555555555556
 40
0.8055555555555556
 40
0.8194444444444444
 40
0.8194444444444444
 40
0.8194444444444444
 40
0.8194444444444444
 40
0.8333333333333334
 40
0.8333333333333334
 40
0.8333333333333334
 40
0.8333333333333334
 40
0.8472222222222222
 40
0.8472222222222222
 40
0.8472222222222222
 40
0.8472222222222222
 40
0.8611111111111112
 40
0.8611111111111112
 40
0.8611111111111112
 40
0.8611111111111112
 40
0.875
 40
0.875
 40
0.875
 40
0.875
 40
0.8888888888888888
 40
0.8888888888888888
 40
0.8888888888888888
 40
0.8888888888888888
 40
0.9027777777777778
 40
0.9027777777777778
 40
0.9027777777777778
 40
0.9027777777777778
 40
0.9166666666666666
 40
0.9166666666666666
 40
0.9166666666666666
 40
0.9166666666666666
 40
0.9305555555555556
 40
0.9305555555555556
 40
0.9305555555555556
 40
0.9305555555555556
 40
0.9444444444444444
 40
0.9444444444444444
 40
0.9444444444444444
 40
0.9444444444444444
 40
0.9583333333333334
 40
0.9583333333333334
 40
0.9583333333333334
 40
0.9583333333333334
 40
0.9722222222222222
 40
0.9722222222222222
 40
0.9722222222222222
 40
0.9722222222222222
 40
1.0
 40
1.0
 40
1.0
 40
1.0
 10
147.0242
 20
68.7733
 30
0.0
 10
145.8647
 20
69.7382
 30
0.0
 10
143.9888
 20
71.5774
 30
0.0
 10
142.8553
 20
72.8603
 30
0.0
 10
142.8553
 20
72.8603
 30
0.0
 10
137.1156
 20
79.3576
 30
0.0
 10
129.189
 20
81.1894
 30
0.0
 10
121.8445
 20
77.716
 30
0.0
 10
121.8445
 20
77.716
 30
0.0
 10
120.6674
 20
77.1593
 30
0.0
 10
119.1417
 20
76.1246
 30
0.0
 10
118.4541
 20
75.4166
 30
0.0
 10
118.4541
 20
75.4166
 30
0.0
 10
117.7666
 20
74.7086
 30
0.0
 10
117.008
 20
74.1294
 30
0.0
 10
116.7684
 20
74.1294
 30
0.0
 10
116.7684
 20
74.1294
 30
0.0
 10
115.3945
 20
74.1294
 30
0.0
 10
109.0406
 20
80.2539
 30
0.0
 10
107.2347
 20
83.3188
 30
0.0
 10
107.2347
 20
83.3188
 30
0.0
 10
104.8078
 20
87.4377
 30
0.0
 10
105.8327
 20
92.2613
 30
0.0
 10
109.1348
 20
92.2613
 30
0.0
 10
109.1348
 20
92.2613
 30
0.0
 10
111.6525
 20
92.2613
 30
0.0
 10
113.3957
 20
89.5338
 30
0.0
 10
114.2559
 20
84.2487
 30
0.0
 10
114.2559
 20
84.2487
 30
0.0
 10
114.6409
 20
81.8836
 30
0.0
 10
115.7127
 20
80.2702
 30
0.0
 10
117.3547
 20
79.5842
 30
0.0
 10
117.3547
 20
79.5842
 30
0.0
 10
119.3105
 20
78.7669
 30
0.0
 10
121.4484
 20
79.9053
 30
0.0
 10
121.9106
 20
82.0102
 30
0.0
 10
121.9106
 20
82.0102
 30
0.0
 10
122.1846
 20
83.2577
 30
0.0
 10
121.3106
 20
84.7953
 30
0.0
 10
120.3276
 20
84.7953
 30
0.0
 10
120.3276
 20
84.7953
 30
0.0
 10
119.3024
 20
84.7953
 30
0.0
 10
119.1052
 20
83.7183
 30
0.0
 10
119.9267
 20
82.607
 30
0.0
 10
119.9267
 20
82.607
 30
0.0
 10
120.8821
 20
81.3149
 30
0.0
 10
120.8448
 20
81.0198
 30
0.0
 10
119.6756
 20
80.6181
 30
0.0
 10
119.6756
 20
80.6181
 30
0.0
 10
118.2077
 20
80.1138
 30
0.0
 10
116.9071
 20
80.7136
 30
0.0
 10
116.1659
 20
82.2368
 30
0.0
 10
116.1659
 20
82.2368
 30
0.0
 10
115.6605
 20
83.2754
 30
0.0
 10
115.5207
 20
84.4826
 30
0.0
 10
115.4985
 20
87.995
 30
0.0
 10
115.4985
 20
87.995
 30
0.0
 10
115.4726
 20
92.0996
 30
0.0
 10
115.3925
 20
92.6102
 30
0.0
 10
114.4494
 20
94.6802
 30
0.0
 10
114.4494
 20
94.6802
 30
0.0
 10
113.3866
 20
97.0134
 30
0.0
 10
112.4055
 20
98.0279
 30
0.0
 10
110.4032
 20
98.8646
 30
0.0
 10
110.4032
 20
98.8646
 30
0.0
 10
110.4032
 20
98.8646
 30
0.0
 10
109.2191
 20
99.3594
 30
0.0
 10
109.2191
 20
99.3594
 30
0.0
 10
109.2191
 20
99.3594
 30
0.0
 10
109.2191
 20
99.3594
 30
0.0
 10
109.9352
 20
100.3649
 30
0.0
 10
109.9352
 20
100.3649
 30
0.0
 10
109.9352
 20
100.3649
 30
0.0
 10
111.8303
 20
103.0262
 30
0.0
 10
111.1047
 20
105.5756
 30
0.0
 10
107.8039
 20
107.8533
 30
0.0
 10
107.8039
 20
107.8533
 30
0.0
 10
105.7037
 20
109.3025
 30
0.0
 10
104.7865
 20
109.5639
 30
0.0
 10
105.7114
 20
108.4495
 30
0.0
 10
105.7114
 20
108.4495
 30
0.0
 10
105.999
 20
108.1028
 30
0.0
 10
106.07
 20
107.498
 30
0.0
 10
105.9102
 20
106.7521
 30
0.0
 10
105.9102
 20
106.7521
 30
0.0
 10
105.7737
 20
106.1148
 30
0.0
 10
105.5818
 20
104.6869
 30
0.0
 10
105.4839
 20
103.5792
 30
0.0
 10
105.4839
 20
103.5792
 30
0.0
 10
105.3326
 20
101.8685
 30
0.0
 10
105.4173
 20
101.4533
 30
0.0
 10
106.0467
 20
100.8239
 30
0.0
 10
106.0467
 20
100.8239
 30
0.0
 10
107.0665
 20
99.8041
 30
0.0
 10
106.9957
 20
99.6003
 30
0.0
 10
105.3743
 20
98.8849
 30
0.0
 10
105.3743
 20
98.8849
 30
0.0
 10
101.6228
 20
97.2297
 30
0.0
 10
100.8222
 20
92.304
 30
0.0
 10
103.3924
 20
86.6901
 30
0.0
 10
103.3924
 20
86.6901
 30
0.0
 10
103.8851
 20
85.6136
 30
0.0
 10
104.6908
 20
84.2547
 30
0.0
 10
105.1826
 20
83.6702
 30
0.0
 10
105.1826
 20
83.6702
 30
0.0
 10
105.6744
 20
83.0857
 30
0.0
 10
106.0697
 20
82.4197
 30
0.0
 10
106.0609
 20
82.1903
 30
0.0
 10
106.0609
 20
82.1903
 30
0.0
 10
106.0295
 20
81.3722
 30
0.0
 10
102.8248
 20
85.3689
 30
0.0
 10
101.7182
 20
87.6061
 30
0.0
 10
101.7182
 20
87.6061
 30
0.0
 10
100.6145
 20
89.8375
 30
0.0
 10
100.5872
 20
90.014
 30
0.0
 10
100.3699
 20
96.3165
 30
0.0
 10
100.3699
 20
96.3165
 30
0.0
 10
100.1379
 20
103.0492
 30
0.0
 10
99.9864
 20
103.7729
 30
0.0
 10
98.2364
 20
106.5074
 30
0.0
 10
98.2364
 20
106.5074
 30
0.0
 10
96.7647
 20
108.8068
 30
0.0
 10
96.5961
 20
110.0343
 30
0.0
 10
97.496
 20
111.8933
 30
0.0
 10
97.496
 20
111.8933
 30
0.0
 10
99.0206
 20
115.0426
 30
0.0
 10
102.4774
 20
115.6382
 30
0.0
 10
103.8856
 20
112.9941
 30
0.0
 10
103.8856
 20
112.9941
 30
0.0
 10
104.4388
 20
111.9554
 30
0.0
 10
104.4069
 20
111.4597
 30
0.0
 10
103.7869
 20
111.4597
 30
0.0
 10
103.7869
 20
111.4597
 30
0.0
 10
102.9578
 20
111.4597
 30
0.0
 10
102.7458
 20
110.7268
 30
0.0
 10
103.3913
 20
110.0923
 30
0.0
 10
103.3913
 20
110.0923
 30
0.0
 10
103.9485
 20
109.5446
 30
0.0
 10
104.0368
 20
109.5618
 30
0.0
 10
104.6776
 20
110.3436
 30
0.0
 10
104.6776
 20
110.3436
 30
0.0
 10
107.1165
 20
113.3183
 30
0.0
 10
102.7411
 20
117.6325
 30
0.0
 10
98.5568
 20
116.3789
 30
0.0
 10
98.5568
 20
116.3789
 30
0.0
 10
96.7294
 20
115.8314
 30
0.0
 10
95.1168
 20
114.2084
 30
0.0
 10
93.8697
 20
111.6617
 30
0.0
 10
93.8697
 20
111.6617
 30
0.0
 10
91.2923
 20
104.89
 30
0.0
 10
93.8284
 20
96.7728
 30
0.0
 10
97.2217
 20
91.3203
 30
0.0
 10
97.2217
 20
91.3203
 30
0.0
 10
99.1087
 20
88.332
 30
0.0
 10
99.4054
 20
87.4963
 30
0.0
 10
98.201
 20
88.5621
 30
0.0
 10
98.201
 20
88.5621
 30
0.0
 10
96.9266
 20
89.6898
 30
0.0
 10
94.0829
 20
94.2826
 30
0.0
 10
93.4316
 20
96.2648
 30
0.0
 10
93.4316
 20
96.2648
 30
0.0
 10
91.7086
 20
101.5094
 30
0.0
 10
88.1321
 20
107.677
 30
0.0
 10
84.2729
 20
112.0589
 30
0.0
 10
84.2729
 20
112.0589
 30
0.0
 10
81.8509
 20
114.8089
 30
0.0
 10
80.5457
 20
118.3178
 30
0.0
 10
80.2307
 20
122.9256
 30
0.0
 10
80.2307
 20
122.9256
 30
0.0
 10
80.2307
 20
122.9256
 30
0.0
 10
80.0182
 20
126.0364
 30
0.0
 10
80.0182
 20
126.0364
 30
0.0
 10
80.0182
 20
126.0364
 30
0.0
 10
80.0182
 20
126.0364
 30
0.0
 10
106.1091
 20
126.0364
 30
0.0
 10
106.1091
 20
126.0364
 30
0.0
 10
106.1091
 20
126.0364
 30
0.0
 10
105.5019
 20
122.7483
 30
0.0
 10
105.368
 20
119.0472
 30
0.0
 10
106.2307
 20
115.9191
 30
0.0
 10
106.2307
 20
115.9191
 30
0.0
 10
106.6029
 20
114.6476
 30
0.0
 10
107.0037
 20
113.5711
 30
0.0
 10
107.5048
 20
112.5739
 30
0.0
 10
107.5048
 20
112.5739
 30
0.0
 10
108.398
 20
110.7966
 30
0.0
 10
109.6098
 20
109.2713
 30
0.0
 10
111.5467
 20
107.3425
 30
0.0
 10
111.5467
 20
107.3425
 30
0.0
 10
115.138
 20
103.7665
 30
0.0
 10
118.4068
 20
102.2075
 30
0.0
 10
122.8831
 20
101.9359
 30
0.0
 10
122.8831
 20
101.9359
 30
0.0
 10
125.7641
 20
101.7611
 30
0.0
 10
126.7241
 20
101.3223
 30
0.0
 10
125.0232
 20
100.9576
 30
0.0
 10
125.0232
 20
100.9576
 30
0.0
 10
123.1945
 20
100.5655
 30
0.0
 10
122.4689
 20
100.1207
 30
0.0
 10
121.9175
 20
99.0543
 30
0.0
 10
121.9175
 20
99.0543
 30
0.0
 10
121.6161
 20
98.4716
 30
0.0
 10
121.4661
 20
97.7435
 30
0.0
 10
121.5839
 20
97.4364
 30
0.0
 10
121.5839
 20
97.4364
 30
0.0
 10
121.7223
 20
96.6186
 30
0.0
 10
120.8616
 20
95.2349
 30
0.0
 10
119.7881
 20
94.9655
 30
0.0
 10
119.7881
 20
94.9655
 30
0.0
 10
117.6253
 20
94.9921
 30
0.0
 10
116.4373
 20
95.6321
 30
0.0
 10
115.7211
 20
97.4166
 30
0.0
 10
115.7211
 20
97.4166
 30
0.0
 10
115.6096
 20
95.1352
 30
0.0
 10
117.7287
 20
93.1643
 30
0.0
 10
119.1698
 20
92.2241
 30
0.0
 10
119.1698
 20
92.2241
 30
0.0
 10
123.0495
 20
89.7636
 30
0.0
 10
127.7551
 20
91.8681
 30
0.0
 10
127.7617
 20
96.0666
 30
0.0
 10
127.7617
 20
96.0666
 30
0.0
 10
127.7645
 20
97.7818
 30
0.0
 10
128.3296
 20
99.24
 30
0.0
 10
129.1074
 20
99.5385
 30
0.0
 10
129.1074
 20
99.5385
 30
0.0
 10
129.8957
 20
99.8409
 30
0.0
 10
130.024
 20
99.5361
 30
0.0
 10
129.6092
 20
98.3461
 30
0.0
 10
129.6092
 20
98.3461
 30
0.0
 10
129.0779
 20
96.8219
 30
0.0
 10
129.6413
 20
95.3236
 30
0.0
 10
131.8953
 20
92.2681
 30
0.0
 10
131.8953
 20
92.2681
 30
0.0
 10
132.9473
 20
90.8419
 30
0.0
 10
133.8081
 20
89.3187
 30
0.0
 10
133.8081
 20
88.883
 30
0.0
 10
133.8081
 20
88.883
 30
0.0
 10
133.8081
 20
87.7066
 30
0.0
 10
132.6146
 20
86.4033
 30
0.0
 10
130.7231
 20
85.5142
 30
0.0
 10
130.7231
 20
85.5142
 30
0.0
 10
129.2738
 20
84.8329
 30
0.0
 10
129.1316
 20
84.6764
 30
0.0
 10
129.6826
 20
84.368
 30
0.0
 10
129.6826
 20
84.368
 30
0.0
 10
130.6627
 20
83.8195
 30
0.0
 10
133.1929
 20
84.6828
 30
0.0
 10
134.908
 20
86.1508
 30
0.0
 10
134.908
 20
86.1508
 30
0.0
 10
138.3595
 20
89.1051
 30
0.0
 10
139.0463
 20
94.1082
 30
0.0
 10
136.4782
 20
97.5891
 30
0.0
 10
136.4782
 20
97.5891
 30
0.0
 10
135.2988
 20
99.1878
 30
0.0
 10
135.3506
 20
99.4482
 30
0.0
 10
136.7943
 20
99.1773
 30
0.0
 10
136.7943
 20
99.1773
 30
0.0
 10
138.6797
 20
98.8236
 30
0.0
 10
142.9878
 20
99.6466
 30
0.0
 10
145.6418
 20
100.8676
 30
0.0
 10
145.6418
 20
100.8676
 30
0.0
 10
148.8052
 20
102.3228
 30
0.0
 10
149.1933
 20
102.015
 30
0.0
 10
148.0835
 20
98.9308
 30
0.0
 10
148.0835
 20
98.9308
 30
0.0
 10
147.1203
 20
96.2539
 30
0.0
 10
146.0129
 20
94.3131
 30
0.0
 10
144.2572
 20
92.225
 30
0.0
 10
144.2572
 20
92.225
 30
0.0
 10
140.8962
 20
88.2719
 30
0.0
 10
140.2359
 20
80.5767
 30
0.0
 10
141.909
 20
76.512
 30
0.0
 10
141.909
 20
76.512
 30
0.0
 10
143.1577
 20
73.7688
 30
0.0
 10
144.7957
 20
72.0229
 30
0.0
 10
146.9807
 20
69.9979
 30
0.0
 10
146.9807
 20
69.9979
 30
0.0
 10
148.1982
 20
68.9666
 30
0.0
 10
149.2099
 20
67.9548
 30
0.0
 10
150.6954
 20
67.0426
 30
0.0
 10
150.6954
 20
67.0426
 30
0.0
 10
149.3411
 20
66.8156
 30
0.0
 10
148.1867
 20
67.8059
 30
0.0
 10
147.0242
 20
68.7733
 30
0.0
  0
SPLINE
  5
48
330
1F
100
AcDbEntity
  8
layer 1
 62
     7
100
AcDbSpline
210
0.0
220
0.0
230
1.0
 70
    11
 71
     3
 72
    48
 73
    44
 74
     0
 42
0.0000000001
 43
0.0000000001
 12
1.0
 22
0.0
 32
0.0
 13
1.0
 23
0.0
 33
0.0
 40
0.0
 40
0.0
 40
0.0
 40
0.0
 40
0.0833333333333333
 40
0.0833333333333333
 40
0.0833333333333333
 40
0.0833333333333333
 40
0.1666666666666667
 40
0.1666666666666667
 40
0.1666666666666667
 40
0.1666666666666667
 40
0.25
 40
0.25
 40
0.25
 40
0.25
 40
0.3333333333333333
 40
0.3333333333333333
 40
0.3333333333333333
 40
0.3333333333333333
 40
0.4166666666666667
 40
0.4166666666666667
 40
0.4166666666666667
 40
0.4166666666666667
 40
0.5
 40
0.5
 40
0.5
 40
0.5
 40
0.5833333333333334
 40
0.5833333333333334
 40
0.5833333333333334
 40
0.5833333333333334
 40
0.6666666666666666
 40
0.6666666666666666
 40
0.6666666666666666
 40
0.6666666666666666
 40
0.75
 40
0.75
 40
0.75
 40
0.75
 40
0.8333333333333334
 40
0.8333333333333334
 40
0.8333333333333334
 40
0.8333333333333334
 40
1.0
 40
1.0
 40
1.0
 40
1.0
 10
88.1648
 20
92.8463
 30
0.0
 10
88.1648
 20
92.8463
 30
0.0
 10
83.5008
 20
95.2832
 30
0.0
 10
83.5008
 20
95.2832
 30
0.0
 10
83.5008
 20
95.2832
 30
0.0
 10
78.0395
 20
97.6972
 30
0.0
 10
74.1602
 20
96.4755
 30
0.0
 10
72.3017
 20
91.832
 30
0.0
 10
72.3017
 20
91.832
 30
0.0
 10
72.3017
 20
91.832
 30
0.0
 10
72.3017
 20
108.9341
 30
0.0
 10
72.3017
 20
108.9341
 30
0.0
 10
72.3017
 20
108.9341
 30
0.0
 10
72.3017
 20
108.9341
 30
0.0
 10
72.3017
 20
126.0361
 30
0.0
 10
72.3017
 20
126.0361
 30
0.0
 10
72.3017
 20
126.0361
 30
0.0
 10
72.3017
 20
126.0361
 30
0.0
 10
78.9467
 20
126.0494
 30
0.0
 10
78.9467
 20
126.0494
 30
0.0
 10
78.9467
 20
126.0494
 30
0.0
 10
78.7974
 20
125.7072
 30
0.0
 10
78.5172
 20
122.0606
 30
0.0
 10
78.4287
 20
118.7225
 30
0.0
 10
78.4287
 20
118.7225
 30
0.0
 10
78.2852
 20
113.3116
 30
0.0
 10
78.3533
 20
112.3089
 30
0.0
 10
79.0561
 20
109.4788
 30
0.0
 10
79.0561
 20
109.4788
 30
0.0
 10
80.9401
 20
101.8919
 30
0.0
 10
85.1028
 20
96.2782
 30
0.0
 10
92.4578
 20
91.4056
 30
0.0
 10
92.4578
 20
91.4056
 30
0.0
 10
95.9483
 20
89.0932
 30
0.0
 10
97.0994
 20
88.1426
 30
0.0
 10
96.7876
 20
87.8308
 30
0.0
 10
96.7876
 20
87.8308
 30
0.0
 10
96.7068
 20
87.75
 30
0.0
 10
95.849
 20
88.4458
 30
0.0
 10
94.6798
 20
89.0741
 30
0.0
 10
94.6798
 20
89.0741
 30
0.0
 10
94.6798
 20
89.1636
 30
0.0
 10
88.6259
 20
92.5706
 30
0.0
 10
88.1648
 20
92.8463
 30
0.0
  0
SPLINE
  5
49
330
1F
100
AcDbEntity
  8
layer 1
 62
     7
100
AcDbSpline
210
0.0
220
0.0
230
1.0
 70
    11
 71
     3
 72
    84
 73
    80
 74
     0
 42
0.0000000001
 43
0.0000000001
 12
1.0
 22
0.0
 32
0.0
 13
1.0
 23
0.0
 33
0.0
 40
0.0
 40
0.0
 40
0.0
 40
0.0
 40
0.0476190476190476
 40
0.0476190476190476
 40
0.0476190476190476
 40
0.0476190476190476
 40
0.0952380952380952
 40
0.0952380952380952
 40
0.0952380952380952
 40
0.0952380952380952
 40
0.1428571428571428
 40
0.1428571428571428
 40
0.1428571428571428
 40
0.1428571428571428
 40
0.1904761904761905
 40
0.1904761904761905
 40
0.1904761904761905
 40
0.1904761904761905
 40
0.2380952380952381
 40
0.2380952380952381
 40
0.2380952380952381
 40
0.2380952380952381
 40
0.2857142857142857
 40
0.2857142857142857
 40
0.2857142857142857
 40
0.2857142857142857
 40
0.3333333333333333
 40
0.3333333333333333
 40
0.3333333333333333
 40
0.3333333333333333
 40
0.3809523809523809
 40
0.3809523809523809
 40
0.3809523809523809
 40
0.3809523809523809
 40
0.4285714285714285
 40
0.4285714285714285
 40
0.4285714285714285
 40
0.4285714285714285
 40
0.4761904761904762
 40
0.4761904761904762
 40
0.4761904761904762
 40
0.4761904761904762
 40
0.5238095238095238
 40
0.5238095238095238
 40
0.5238095238095238
 40
0.5238095238095238
 40
0.5714285714285714
 40
0.5714285714285714
 40
0.5714285714285714
 40
0.5714285714285714
 40
0.6190476190476191
 40
0.6190476190476191
 40
0.6190476190476191
 40
0.6190476190476191
 40
0.6666666666666666
 40
0.6666666666666666
 40
0.6666666666666666
 40
0.6666666666666666
 40
0.7142857142857143
 40
0.7142857142857143
 40
0.7142857142857143
 40
0.7142857142857143
 40
0.7619047619047619
 40
0.7619047619047619
 40
0.7619047619047619
 40
0.7619047619047619
 40
0.8095238095238095
 40
0.8095238095238095
 40
0.8095238095238095
 40
0.8095238095238095
 40
0.8571428571428571
 40
0.8571428571428571
 40
0.8571428571428571
 40
0.8571428571428571
 40
0.9047619047619048
 40
0.9047619047619048
 40
0.9047619047619048
 40
0.9047619047619048
 40
1.0
 40
1.0
 40
1.0
 40
1.0
 10
131.4946
 20
101.3271
 30
0.0
 10
125.7539
 20
102.8321
 30
0.0
 10
121.861
 20
106.0921
 30
0.0
 10
118.7604
 20
111.2745
 30
0.0
 10
118.7604
 20
111.2745
 30
0.0
 10
115.4998
 20
116.8533
 30
0.0
 10
118.2131
 20
123.753
 30
0.0
 10
122.0568
 20
126.0364
 30
0.0
 10
122.0568
 20
126.0364
 30
0.0
 10
122.0568
 20
126.0364
 30
0.0
 10
136.7964
 20
126.0364
 30
0.0
 10
136.7964
 20
126.0364
 30
0.0
 10
136.7964
 20
126.0364
 30
0.0
 10
136.7964
 20
126.0364
 30
0.0
 10
151.5359
 20
126.0364
 30
0.0
 10
151.5359
 20
126.0364
 30
0.0
 10
151.5359
 20
126.0364
 30
0.0
 10
154.0518
 20
123.427
 30
0.0
 10
156.2891
 20
117.828
 30
0.0
 10
155.4659
 20
113.4464
 30
0.0
 10
155.4659
 20
113.4464
 30
0.0
 10
154.7613
 20
110.6478
 30
0.0
 10
152.2954
 20
108.5749
 30
0.0
 10
152.2954
 20
110.7811
 30
0.0
 10
152.2954
 20
110.7811
 30
0.0
 10
152.2954
 20
113.2131
 30
0.0
 10
149.5381
 20
116.693
 30
0.0
 10
146.5479
 20
118.0349
 30
0.0
 10
146.5479
 20
118.0349
 30
0.0
 10
142.6925
 20
119.7651
 30
0.0
 10
138.6991
 20
118.8847
 30
0.0
 10
135.714
 20
115.6463
 30
0.0
 10
135.714
 20
115.6463
 30
0.0
 10
133.7484
 20
113.5139
 30
0.0
 10
132.9745
 20
111.365
 30
0.0
 10
133.1559
 20
108.5421
 30
0.0
 10
133.1559
 20
108.5421
 30
0.0
 10
133.4861
 20
103.4053
 30
0.0
 10
136.707
 20
100.4656
 30
0.0
 10
140.451
 20
101.8842
 30
0.0
 10
140.451
 20
101.8842
 30
0.0
 10
143.0846
 20
102.8821
 30
0.0
 10
144.2181
 20
105.7098
 30
0.0
 10
142.4034
 20
107.1371
 30
0.0
 10
142.4034
 20
107.1371
 30
0.0
 10
141.3453
 20
107.9695
 30
0.0
 10
140.1948
 20
107.7494
 30
0.0
 10
139.5675
 20
107.1223
 30
0.0
 10
139.5675
 20
107.1223
 30
0.0
 10
138.9239
 20
106.4787
 30
0.0
 10
139.0552
 20
105.6906
 30
0.0
 10
139.822
 20
105.9339
 30
0.0
 10
139.822
 20
105.9339
 30
0.0
 10
140.6086
 20
106.1836
 30
0.0
 10
141.0511
 20
105.72
 30
0.0
 10
140.745
 20
104.9224
 30
0.0
 10
140.745
 20
104.9224
 30
0.0
 10
140.189
 20
103.4734
 30
0.0
 10
137.218
 20
104.6317
 30
0.0
 10
136.7871
 20
106.3486
 30
0.0
 10
136.7871
 20
106.3486
 30
0.0
 10
136.4631
 20
107.6394
 30
0.0
 10
137.455
 20
109.5276
 30
0.0
 10
138.8308
 20
110.2389
 30
0.0
 10
138.8308
 20
110.2389
 30
0.0
 10
140.4209
 20
111.0613
 30
0.0
 10
142.9925
 20
110.7621
 30
0.0
 10
144.8395
 20
109.5398
 30
0.0
 10
144.8395
 20
109.5398
 30
0.0
 10
146.5281
 20
108.4224
 30
0.0
 10
148.3845
 20
105.6931
 30
0.0
 10
148.3845
 20
104.3282
 30
0.0
 10
148.3845
 20
104.3282
 30
0.0
 10
148.3845
 20
103.5127
 30
0.0
 10
148.0863
 20
103.2459
 30
0.0
 10
146.257
 20
102.4251
 30
0.0
 10
146.257
 20
102.4251
 30
0.0
 10
141.5843
 20
100.3282
 30
0.0
 10
136.4166
 20
99.9621
 30
0.0
 10
131.4946
 20
101.3271
 30
0.0
  0
SPLINE
  5
4A
330
1F
100
AcDbEntity
  8
layer 1
 62
     7
100
AcDbSpline
210
0.0
220
0.0
230
1.0
 70
    11
 71
     3
 72
    24
 73
    20
 74
     0
 42
0.0000000001
 43
0.0000000001
 12
1.0
 22
0.0
 32
0.0
 13
1.0
 23
0.0
 33
0.0
 40
0.0
 40
0.0
 40
0.0
 40
0.0
 40
0.1666666666666667
 40
0.1666666666666667
 40
0.1666666666666667
 40
0.1666666666666667
 40
0.3333333333333333
 40
0.3333333333333333
 40
0.3333333333333333
 40
0.3333333333333333
 40
0.5
 40
0.5
 40
0.5
 40
0.5
 40
0.6666666666666666
 40
0.6666666666666666
 40
0.6666666666666666
 40
0.6666666666666666
 40
1.0
 40
1.0
 40
1.0
 40
1.0
 10
115.7788
 20
109.9189
 30
0.0
 10
111.8049
 20
113.6064
 30
0.0
 10
106.3351
 20
118.203
 30
0.0
 10
107.1434
 20
126.0363
 30
0.0
 10
107.1434
 20
126.0363
 30
0.0
 10
107.1434
 20
126.0363
 30
0.0
 10
117.2984
 20
125.9909
 30
0.0
 10
117.2984
 20
125.9909
 30
0.0
 10
117.2984
 20
125.9909
 30
0.0
 10
114.0277
 20
120.4687
 30
0.0
 10
114.7432
 20
114.5194
 30
0.0
 10
117.6275
 20
110.3353
 30
0.0
 10
117.6275
 20
110.3353
 30
0.0
 10
119.389
 20
107.7799
 30
0.0
 10
118.6627
 20
107.5944
 30
0.0
 10
115.7787
 20
109.919
 30
0.0
 10
115.7787
 20
109.919
 30
0.0
 10
115.7787
 20
109.919
 30
0.0
 10
115.7788
 20
109.9189
 30
0.0
 10
115.7788
 20
109.9189
 30
0.0
  0
SPLINE
  5
4B
330
1F
100
AcDbEntity
  8
layer 1
 62
     7
100
AcDbSpline
210
0.0
220
0.0
230
1.0
 70
    11
 71
     3
 72
    32
 73
    28
 74
     0
 42
0.0000000001
 43
0.0000000001
 12
1.0
 22
0.0
 32
0.0
 13
1.0
 23
0.0
 33
0.0
 40
0.0
 40
0.0
 40
0.0
 40
0.0
 40
0.125
 40
0.125
 40
0.125
 40
0.125
 40
0.25
 40
0.25
 40
0.25
 40
0.25
 40
0.375
 40
0.375
 40
0.375
 40
0.375
 40
0.5
 40
0.5
 40
0.5
 40
0.5
 40
0.625
 40
0.625
 40
0.625
 40
0.625
 40
0.75
 40
0.75
 40
0.75
 40
0.75
 40
1.0
 40
1.0
 40
1.0
 40
1.0
 10
72.3452
 20
-3.4837
 30
0.0
 10
72.467
 20
-3.5018
 30
0.0
 10
72.7185
 20
-3.5334
 30
0.0
 10
72.8763
 20
-3.1777
 30
0.0
 10
72.8763
 20
-3.1777
 30
0.0
 10
73.2717
 20
-2.1053
 30
0.0
 10
73.1773
 20
-1.0738
 30
0.0
 10
73.4353
 20
1.4064
 30
0.0
 10
73.4353
 20
1.4064
 30
0.0
 10
73.7556
 20
4.374
 30
0.0
 10
74.2355
 20
7.5542
 30
0.0
 10
79.3658
 20
8.3873
 30
0.0
 10
79.3658
 20
8.3873
 30
0.0
 10
74.2355
 20
9.2204
 30
0.0
 10
73.7556
 20
12.3598
 30
0.0
 10
73.4353
 20
15.3274
 30
0.0
 10
73.4353
 20
15.3274
 30
0.0
 10
73.1773
 20
17.8076
 30
0.0
 10
73.2717
 20
18.8391
 30
0.0
 10
72.8763
 20
19.9115
 30
0.0
 10
72.8763
 20
19.9115
 30
0.0
 10
72.7899
 20
20.1343
 30
0.0
 10
72.336
 20
20.1982
 30
0.0
 10
72.336
 20
20.0906
 30
0.0
 10
72.336
 20
20.0906
 30
0.0
 10
72.336
 20
20.0906
 30
0.0
 10
72.3452
 20
-3.4837
 30
0.0
 10
72.3452
 20
-3.4837
 30
0.0
  0
SPLINE
  5
4C
330
1F
100
AcDbEntity
  8
layer 1
 62
     7
100
AcDbSpline
210
0.0
220
0.0
230
1.0
 70
    11
 71
     3
 72
    20
 73
    16
 74
     0
 42
0.0000000001
 43
0.0000000001
 12
1.0
 22
0.0
 32
0.0
 13
1.0
 23
0.0
 33
0.0
 40
0.0
 40
0.0
 40
0.0
 40
0.0
 40
0.2
 40
0.2
 40
0.2
 40
0.2
 40
0.4
 40
0.4
 40
0.4
 40
0.4
 40
0.6
 40
0.6
 40
0.6
 40
0.6
 40
1.0
 40
1.0
 40
1.0
 40
1.0
 10
103.2326
 20
8.3684
 30
0.0
 10
103.2326
 20
7.7824
 30
0.0
 10
99.7179
 20
6.8472
 30
0.0
 10
97.2017
 20
6.6933
 30
0.0
 10
97.2017
 20
6.6933
 30
0.0
 10
95.5136
 20
6.5647
 30
0.0
 10
90.8662
 20
7.1366
 30
0.0
 10
90.7892
 20
8.3443
 30
0.0
 10
90.7892
 20
8.3443
 30
0.0
 10
90.8662
 20
9.5521
 30
0.0
 10
95.5136
 20
10.1691
 30
0.0
 10
97.2017
 20
10.0405
 30
0.0
 10
97.2017
 20
10.0405
 30
0.0
 10
99.7179
 20
9.8867
 30
0.0
 10
103.2326
 20
8.9544
 30
0.0
 10
103.2326
 20
8.3684
 30
0.0
  0
SPLINE
  5
4D
330
1F
100
AcDbEntity
  8
layer 1
 62
     7
100
AcDbSpline
210
0.0
220
0.0
230
1.0
 70
    11
 71
     3
 72
  1124
 73
  1120
 74
     0
 42
0.0000000001
 43
0.0000000001
 12
1.0
 22
0.0
 32
0.0
 13
1.0
 23
0.0
 33
0.0
 40
0.0
 40
0.0
 40
0.0
 40
0.0
 40
0.00355871886121
 40
0.00355871886121
 40
0.00355871886121
 40
0.00355871886121
 40
0.0071174377224199
 40
0.0071174377224199
 40
0.0071174377224199
 40
0.0071174377224199
 40
0.0106761565836299
 40
0.0106761565836299
 40
0.0106761565836299
 40
0.0106761565836299
 40
0.0142348754448399
 40
0.0142348754448399
 40
0.0142348754448399
 40
0.0142348754448399
 40
0.0177935943060498
 40
0.0177935943060498
 40
0.0177935943060498
 40
0.0177935943060498
 40
0.0213523131672598
 40
0.0213523131672598
 40
0.0213523131672598
 40
0.0213523131672598
 40
0.0249110320284698
 40
0.0249110320284698
 40
0.0249110320284698
 40
0.0249110320284698
 40
0.0284697508896797
 40
0.0284697508896797
 40
0.0284697508896797
 40
0.0284697508896797
 40
0.0320284697508897
 40
0.0320284697508897
 40
0.0320284697508897
 40
0.0320284697508897
 40
0.0355871886120996
 40
0.0355871886120996
 40
0.0355871886120996
 40
0.0355871886120996
 40
0.0391459074733096
 40
0.0391459074733096
 40
0.0391459074733096
 40
0.0391459074733096
 40
0.0427046263345196
 40
0.0427046263345196
 40
0.0427046263345196
 40
0.0427046263345196
 40
0.0462633451957295
 40
0.0462633451957295
 40
0.0462633451957295
 40
0.0462633451957295
 40
0.0498220640569395
 40
0.0498220640569395
 40
0.0498220640569395
 40
0.0498220640569395
 40
0.0533807829181495
 40
0.0533807829181495
 40
0.0533807829181495
 40
0.0533807829181495
 40
0.0569395017793594
 40
0.0569395017793594
 40
0.0569395017793594
 40
0.0569395017793594
 40
0.0604982206405694
 40
0.0604982206405694
 40
0.0604982206405694
 40
0.0604982206405694
 40
0.0640569395017794
 40
0.0640569395017794
 40
0.0640569395017794
 40
0.0640569395017794
 40
0.0676156583629893
 40
0.0676156583629893
 40
0.0676156583629893
 40
0.0676156583629893
 40
0.0711743772241993
 40
0.0711743772241993
 40
0.0711743772241993
 40
0.0711743772241993
 40
0.0747330960854092
 40
0.0747330960854092
 40
0.0747330960854092
 40
0.0747330960854092
 40
0.0782918149466192
 40
0.0782918149466192
 40
0.0782918149466192
 40
0.0782918149466192
 40
0.0818505338078292
 40
0.0818505338078292
 40
0.0818505338078292
 40
0.0818505338078292
 40
0.0854092526690391
 40
0.0854092526690391
 40
0.0854092526690391
 40
0.0854092526690391
 40
0.0889679715302491
 40
0.0889679715302491
 40
0.0889679715302491
 40
0.0889679715302491
 40
0.0925266903914591
 40
0.0925266903914591
 40
0.0925266903914591
 40
0.0925266903914591
 40
0.096085409252669
 40
0.096085409252669
 40
0.096085409252669
 40
0.096085409252669
 40
0.099644128113879
 40
0.099644128113879
 40
0.099644128113879
 40
0.099644128113879
 40
0.103202846975089
 40
0.103202846975089
 40
0.103202846975089
 40
0.103202846975089
 40
0.1067615658362989
 40
0.1067615658362989
 40
0.1067615658362989
 40
0.1067615658362989
 40
0.1103202846975089
 40
0.1103202846975089
 40
0.1103202846975089
 40
0.1103202846975089
 40
0.1138790035587189
 40
0.1138790035587189
 40
0.1138790035587189
 40
0.1138790035587189
 40
0.1174377224199288
 40
0.1174377224199288
 40
0.1174377224199288
 40
0.1174377224199288
 40
0.1209964412811388
 40
0.1209964412811388
 40
0.1209964412811388
 40
0.1209964412811388
 40
0.1245551601423488
 40
0.1245551601423488
 40
0.1245551601423488
 40
0.1245551601423488
 40
0.1281138790035587
 40
0.1281138790035587
 40
0.1281138790035587
 40
0.1281138790035587
 40
0.1316725978647687
 40
0.1316725978647687
 40
0.1316725978647687
 40
0.1316725978647687
 40
0.1352313167259787
 40
0.1352313167259787
 40
0.1352313167259787
 40
0.1352313167259787
 40
0.1387900355871886
 40
0.1387900355871886
 40
0.1387900355871886
 40
0.1387900355871886
 40
0.1423487544483986
 40
0.1423487544483986
 40
0.1423487544483986
 40
0.1423487544483986
 40
0.1459074733096085
 40
0.1459074733096085
 40
0.1459074733096085
 40
0.1459074733096085
 40
0.1494661921708185
 40
0.1494661921708185
 40
0.1494661921708185
 40
0.1494661921708185
 40
0.1530249110320285
 40
0.1530249110320285
 40
0.1530249110320285
 40
0.1530249110320285
 40
0.1565836298932384
 40
0.1565836298932384
 40
0.1565836298932384
 40
0.1565836298932384
 40
0.1601423487544484
 40
0.1601423487544484
 40
0.1601423487544484
 40
0.1601423487544484
 40
0.1637010676156584
 40
0.1637010676156584
 40
0.1637010676156584
 40
0.1637010676156584
 40
0.1672597864768683
 40
0.1672597864768683
 40
0.1672597864768683
 40
0.1672597864768683
 40
0.1708185053380783
 40
0.1708185053380783
 40
0.1708185053380783
 40
0.1708185053380783
 40
0.1743772241992882
 40
0.1743772241992882
 40
0.1743772241992882
 40
0.1743772241992882
 40
0.1779359430604982
 40
0.1779359430604982
 40
0.1779359430604982
 40
0.1779359430604982
 40
0.1814946619217082
 40
0.1814946619217082
 40
0.1814946619217082
 40
0.1814946619217082
 40
0.1850533807829181
 40
0.1850533807829181
 40
0.1850533807829181
 40
0.1850533807829181
 40
0.1886120996441281
 40
0.1886120996441281
 40
0.1886120996441281
 40
0.1886120996441281
 40
0.1921708185053381
 40
0.1921708185053381
 40
0.1921708185053381
 40
0.1921708185053381
 40
0.1957295373665481
 40
0.1957295373665481
 40
0.1957295373665481
 40
0.1957295373665481
 40
0.199288256227758
 40
0.199288256227758
 40
0.199288256227758
 40
0.199288256227758
 40
0.202846975088968
 40
0.202846975088968
 40
0.202846975088968
 40
0.202846975088968
 40
0.2064056939501779
 40
0.2064056939501779
 40
0.2064056939501779
 40
0.2064056939501779
 40
0.2099644128113879
 40
0.2099644128113879
 40
0.2099644128113879
 40
0.2099644128113879
 40
0.2135231316725979
 40
0.2135231316725979
 40
0.2135231316725979
 40
0.2135231316725979
 40
0.2170818505338078
 40
0.2170818505338078
 40
0.2170818505338078
 40
0.2170818505338078
 40
0.2206405693950178
 40
0.2206405693950178
 40
0.2206405693950178
 40
0.2206405693950178
 40
0.2241992882562278
 40
0.2241992882562278
 40
0.2241992882562278
 40
0.2241992882562278
 40
0.2277580071174377
 40
0.2277580071174377
 40
0.2277580071174377
 40
0.2277580071174377
 40
0.2313167259786477
 40
0.2313167259786477
 40
0.2313167259786477
 40
0.2313167259786477
 40
0.2348754448398576
 40
0.2348754448398576
 40
0.2348754448398576
 40
0.2348754448398576
 40
0.2384341637010676
 40
0.2384341637010676
 40
0.2384341637010676
 40
0.2384341637010676
 40
0.2419928825622776
 40
0.2419928825622776
 40
0.2419928825622776
 40
0.2419928825622776
 40
0.2455516014234875
 40
0.2455516014234875
 40
0.2455516014234875
 40
0.2455516014234875
 40
0.2491103202846975
 40
0.2491103202846975
 40
0.2491103202846975
 40
0.2491103202846975
 40
0.2526690391459075
 40
0.2526690391459075
 40
0.2526690391459075
 40
0.2526690391459075
 40
0.2562277580071174
 40
0.2562277580071174
 40
0.2562277580071174
 40
0.2562277580071174
 40
0.2597864768683274
 40
0.2597864768683274
 40
0.2597864768683274
 40
0.2597864768683274
 40
0.2633451957295374
 40
0.2633451957295374
 40
0.2633451957295374
 40
0.2633451957295374
 40
0.2669039145907473
 40
0.2669039145907473
 40
0.2669039145907473
 40
0.2669039145907473
 40
0.2704626334519573
 40
0.2704626334519573
 40
0.2704626334519573
 40
0.2704626334519573
 40
0.2740213523131673
 40
0.2740213523131673
 40
0.2740213523131673
 40
0.2740213523131673
 40
0.2775800711743772
 40
0.2775800711743772
 40
0.2775800711743772
 40
0.2775800711743772
 40
0.2811387900355872
 40
0.2811387900355872
 40
0.2811387900355872
 40
0.2811387900355872
 40
0.2846975088967972
 40
0.2846975088967972
 40
0.2846975088967972
 40
0.2846975088967972
 40
0.2882562277580071
 40
0.2882562277580071
 40
0.2882562277580071
 40
0.2882562277580071
 40
0.2918149466192171
 40
0.2918149466192171
 40
0.2918149466192171
 40
0.2918149466192171
 40
0.295373665480427
 40
0.295373665480427
 40
0.295373665480427
 40
0.295373665480427
 40
0.298932384341637
 40
0.298932384341637
 40
0.298932384341637
 40
0.298932384341637
 40
0.302491103202847
 40
0.302491103202847
 40
0.302491103202847
 40
0.302491103202847
 40
0.306049822064057
 40
0.306049822064057
 40
0.306049822064057
 40
0.306049822064057
 40
0.3096085409252669
 40
0.3096085409252669
 40
0.3096085409252669
 40
0.3096085409252669
 40
0.3131672597864769
 40
0.3131672597864769
 40
0.3131672597864769
 40
0.3131672597864769
 40
0.3167259786476868
 40
0.3167259786476868
 40
0.3167259786476868
 40
0.3167259786476868
 40
0.3202846975088968
 40
0.3202846975088968
 40
0.3202846975088968
 40
0.3202846975088968
 40
0.3238434163701068
 40
0.3238434163701068
 40
0.3238434163701068
 40
0.3238434163701068
 40
0.3274021352313167
 40
0.3274021352313167
 40
0.3274021352313167
 40
0.3274021352313167
 40
0.3309608540925267
 40
0.3309608540925267
 40
0.3309608540925267
 40
0.3309608540925267
 40
0.3345195729537366
 40
0.3345195729537366
 40
0.3345195729537366
 40
0.3345195729537366
 40
0.3380782918149466
 40
0.3380782918149466
 40
0.3380782918149466
 40
0.3380782918149466
 40
0.3416370106761566
 40
0.3416370106761566
 40
0.3416370106761566
 40
0.3416370106761566
 40
0.3451957295373665
 40
0.3451957295373665
 40
0.3451957295373665
 40
0.3451957295373665
 40
0.3487544483985765
 40
0.3487544483985765
 40
0.3487544483985765
 40
0.3487544483985765
 40
0.3523131672597865
 40
0.3523131672597865
 40
0.3523131672597865
 40
0.3523131672597865
 40
0.3558718861209965
 40
0.3558718861209965
 40
0.3558718861209965
 40
0.3558718861209965
 40
0.3594306049822064
 40
0.3594306049822064
 40
0.3594306049822064
 40
0.3594306049822064
 40
0.3629893238434164
 40
0.3629893238434164
 40
0.3629893238434164
 40
0.3629893238434164
 40
0.3665480427046263
 40
0.3665480427046263
 40
0.3665480427046263
 40
0.3665480427046263
 40
0.3701067615658363
 40
0.3701067615658363
 40
0.3701067615658363
 40
0.3701067615658363
 40
0.3736654804270463
 40
0.3736654804270463
 40
0.3736654804270463
 40
0.3736654804270463
 40
0.3772241992882562
 40
0.3772241992882562
 40
0.3772241992882562
 40
0.3772241992882562
 40
0.3807829181494662
 40
0.3807829181494662
 40
0.3807829181494662
 40
0.3807829181494662
 40
0.3843416370106761
 40
0.3843416370106761
 40
0.3843416370106761
 40
0.3843416370106761
 40
0.3879003558718861
 40
0.3879003558718861
 40
0.3879003558718861
 40
0.3879003558718861
 40
0.3914590747330961
 40
0.3914590747330961
 40
0.3914590747330961
 40
0.3914590747330961
 40
0.3950177935943061
 40
0.3950177935943061
 40
0.3950177935943061
 40
0.3950177935943061
 40
0.398576512455516
 40
0.398576512455516
 40
0.398576512455516
 40
0.398576512455516
 40
0.402135231316726
 40
0.402135231316726
 40
0.402135231316726
 40
0.402135231316726
 40
0.405693950177936
 40
0.405693950177936
 40
0.405693950177936
 40
0.405693950177936
 40
0.4092526690391459
 40
0.4092526690391459
 40
0.4092526690391459
 40
0.4092526690391459
 40
0.4128113879003559
 40
0.4128113879003559
 40
0.4128113879003559
 40
0.4128113879003559
 40
0.4163701067615658
 40
0.4163701067615658
 40
0.4163701067615658
 40
0.4163701067615658
 40
0.4199288256227758
 40
0.4199288256227758
 40
0.4199288256227758
 40
0.4199288256227758
 40
0.4234875444839858
 40
0.4234875444839858
 40
0.4234875444839858
 40
0.4234875444839858
 40
0.4270462633451957
 40
0.4270462633451957
 40
0.4270462633451957
 40
0.4270462633451957
 40
0.4306049822064057
 40
0.4306049822064057
 40
0.4306049822064057
 40
0.4306049822064057
 40
0.4341637010676156
 40
0.4341637010676156
 40
0.4341637010676156
 40
0.4341637010676156
 40
0.4377224199288256
 40
0.4377224199288256
 40
0.4377224199288256
 40
0.4377224199288256
 40
0.4412811387900356
 40
0.4412811387900356
 40
0.4412811387900356
 40
0.4412811387900356
 40
0.4448398576512456
 40
0.4448398576512456
 40
0.4448398576512456
 40
0.4448398576512456
 40
0.4483985765124555
 40
0.4483985765124555
 40
0.4483985765124555
 40
0.4483985765124555
 40
0.4519572953736655
 40
0.4519572953736655
 40
0.4519572953736655
 40
0.4519572953736655
 40
0.4555160142348754
 40
0.4555160142348754
 40
0.4555160142348754
 40
0.4555160142348754
 40
0.4590747330960854
 40
0.4590747330960854
 40
0.4590747330960854
 40
0.4590747330960854
 40
0.4626334519572954
 40
0.4626334519572954
 40
0.4626334519572954
 40
0.4626334519572954
 40
0.4661921708185053
 40
0.4661921708185053
 40
0.4661921708185053
 40
0.4661921708185053
 40
0.4697508896797153
 40
0.4697508896797153
 40
0.4697508896797153
 40
0.4697508896797153
 40
0.4733096085409252
 40
0.4733096085409252
 40
0.4733096085409252
 40
0.4733096085409252
 40
0.4768683274021353
 40
0.4768683274021353
 40
0.4768683274021353
 40
0.4768683274021353
 40
0.4804270462633452
 40
0.4804270462633452
 40
0.4804270462633452
 40
0.4804270462633452
 40
0.4839857651245552
 40
0.4839857651245552
 40
0.4839857651245552
 40
0.4839857651245552
 40
0.4875444839857651
 40
0.4875444839857651
 40
0.4875444839857651
 40
0.4875444839857651
 40
0.4911032028469751
 40
0.4911032028469751
 40
0.4911032028469751
 40
0.4911032028469751
 40
0.4946619217081851
 40
0.4946619217081851
 40
0.4946619217081851
 40
0.4946619217081851
 40
0.498220640569395
 40
0.498220640569395
 40
0.498220640569395
 40
0.498220640569395
 40
0.501779359430605
 40
0.501779359430605
 40
0.501779359430605
 40
0.501779359430605
 40
0.505338078291815
 40
0.505338078291815
 40
0.505338078291815
 40
0.505338078291815
 40
0.5088967971530249
 40
0.5088967971530249
 40
0.5088967971530249
 40
0.5088967971530249
 40
0.5124555160142349
 40
0.5124555160142349
 40
0.5124555160142349
 40
0.5124555160142349
 40
0.5160142348754448
 40
0.5160142348754448
 40
0.5160142348754448
 40
0.5160142348754448
 40
0.5195729537366548
 40
0.5195729537366548
 40
0.5195729537366548
 40
0.5195729537366548
 40
0.5231316725978647
 40
0.5231316725978647
 40
0.5231316725978647
 40
0.5231316725978647
 40
0.5266903914590747
 40
0.5266903914590747
 40
0.5266903914590747
 40
0.5266903914590747
 40
0.5302491103202847
 40
0.5302491103202847
 40
0.5302491103202847
 40
0.5302491103202847
 40
0.5338078291814946
 40
0.5338078291814946
 40
0.5338078291814946
 40
0.5338078291814946
 40
0.5373665480427047
 40
0.5373665480427047
 40
0.5373665480427047
 40
0.5373665480427047
 40
0.5409252669039146
 40
0.5409252669039146
 40
0.5409252669039146
 40
0.5409252669039146
 40
0.5444839857651246
 40
0.5444839857651246
 40
0.5444839857651246
 40
0.5444839857651246
 40
0.5480427046263345
 40
0.5480427046263345
 40
0.5480427046263345
 40
0.5480427046263345
 40
0.5516014234875445
 40
0.5516014234875445
 40
0.5516014234875445
 40
0.5516014234875445
 40
0.5551601423487544
 40
0.5551601423487544
 40
0.5551601423487544
 40
0.5551601423487544
 40
0.5587188612099644
 40
0.5587188612099644
 40
0.5587188612099644
 40
0.5587188612099644
 40
0.5622775800711743
 40
0.5622775800711743
 40
0.5622775800711743
 40
0.5622775800711743
 40
0.5658362989323843
 40
0.5658362989323843
 40
0.5658362989323843
 40
0.5658362989323843
 40
0.5693950177935944
 40
0.5693950177935944
 40
0.5693950177935944
 40
0.5693950177935944
 40
0.5729537366548043
 40
0.5729537366548043
 40
0.5729537366548043
 40
0.5729537366548043
 40
0.5765124555160143
 40
0.5765124555160143
 40
0.5765124555160143
 40
0.5765124555160143
 40
0.5800711743772242
 40
0.5800711743772242
 40
0.5800711743772242
 40
0.5800711743772242
 40
0.5836298932384342
 40
0.5836298932384342
 40
0.5836298932384342
 40
0.5836298932384342
 40
0.5871886120996441
 40
0.5871886120996441
 40
0.5871886120996441
 40
0.5871886120996441
 40
0.5907473309608541
 40
0.5907473309608541
 40
0.5907473309608541
 40
0.5907473309608541
 40
0.594306049822064
 40
0.594306049822064
 40
0.594306049822064
 40
0.594306049822064
 40
0.597864768683274
 40
0.597864768683274
 40
0.597864768683274
 40
0.597864768683274
 40
0.6014234875444839
 40
0.6014234875444839
 40
0.6014234875444839
 40
0.6014234875444839
 40
0.604982206405694
 40
0.604982206405694
 40
0.604982206405694
 40
0.604982206405694
 40
0.608540925266904
 40
0.608540925266904
 40
0.608540925266904
 40
0.608540925266904
 40
0.6120996441281139
 40
0.6120996441281139
 40
0.6120996441281139
 40
0.6120996441281139
 40
0.6156583629893239
 40
0.6156583629893239
 40
0.6156583629893239
 40
0.6156583629893239
 40
0.6192170818505338
 40
0.6192170818505338
 40
0.6192170818505338
 40
0.6192170818505338
 40
0.6227758007117438
 40
0.6227758007117438
 40
0.6227758007117438
 40
0.6227758007117438
 40
0.6263345195729537
 40
0.6263345195729537
 40
0.6263345195729537
 40
0.6263345195729537
 40
0.6298932384341637
 40
0.6298932384341637
 40
0.6298932384341637
 40
0.6298932384341637
 40
0.6334519572953736
 40
0.6334519572953736
 40
0.6334519572953736
 40
0.6334519572953736
 40
0.6370106761565836
 40
0.6370106761565836
 40
0.6370106761565836
 40
0.6370106761565836
 40
0.6405693950177936
 40
0.6405693950177936
 40
0.6405693950177936
 40
0.6405693950177936
 40
0.6441281138790036
 40
0.6441281138790036
 40
0.6441281138790036
 40
0.6441281138790036
 40
0.6476868327402135
 40
0.6476868327402135
 40
0.6476868327402135
 40
0.6476868327402135
 40
0.6512455516014235
 40
0.6512455516014235
 40
0.6512455516014235
 40
0.6512455516014235
 40
0.6548042704626335
 40
0.6548042704626335
 40
0.6548042704626335
 40
0.6548042704626335
 40
0.6583629893238434
 40
0.6583629893238434
 40
0.6583629893238434
 40
0.6583629893238434
 40
0.6619217081850534
 40
0.6619217081850534
 40
0.6619217081850534
 40
0.6619217081850534
 40
0.6654804270462633
 40
0.6654804270462633
 40
0.6654804270462633
 40
0.6654804270462633
 40
0.6690391459074733
 40
0.6690391459074733
 40
0.6690391459074733
 40
0.6690391459074733
 40
0.6725978647686833
 40
0.6725978647686833
 40
0.6725978647686833
 40
0.6725978647686833
 40
0.6761565836298933
 40
0.6761565836298933
 40
0.6761565836298933
 40
0.6761565836298933
 40
0.6797153024911032
 40
0.6797153024911032
 40
0.6797153024911032
 40
0.6797153024911032
 40
0.6832740213523132
 40
0.6832740213523132
 40
0.6832740213523132
 40
0.6832740213523132
 40
0.6868327402135231
 40
0.6868327402135231
 40
0.6868327402135231
 40
0.6868327402135231
 40
0.6903914590747331
 40
0.6903914590747331
 40
0.6903914590747331
 40
0.6903914590747331
 40
0.693950177935943
 40
0.693950177935943
 40
0.693950177935943
 40
0.693950177935943
 40
0.697508896797153
 40
0.697508896797153
 40
0.697508896797153
 40
0.697508896797153
 40
0.701067615658363
 40
0.701067615658363
 40
0.701067615658363
 40
0.701067615658363
 40
0.7046263345195729
 40
0.7046263345195729
 40
0.7046263345195729
 40
0.7046263345195729
 40
0.708185053380783
 40
0.708185053380783
 40
0.708185053380783
 40
0.708185053380783
 40
0.7117437722419929
 40
0.7117437722419929
 40
0.7117437722419929
 40
0.7117437722419929
 40
0.7153024911032029
 40
0.7153024911032029
 40
0.7153024911032029
 40
0.7153024911032029
 40
0.7188612099644128
 40
0.7188612099644128
 40
0.7188612099644128
 40
0.7188612099644128
 40
0.7224199288256228
 40
0.7224199288256228
 40
0.7224199288256228
 40
0.7224199288256228
 40
0.7259786476868327
 40
0.7259786476868327
 40
0.7259786476868327
 40
0.7259786476868327
 40
0.7295373665480427
 40
0.7295373665480427
 40
0.7295373665480427
 40
0.7295373665480427
 40
0.7330960854092526
 40
0.7330960854092526
 40
0.7330960854092526
 40
0.7330960854092526
 40
0.7366548042704626
 40
0.7366548042704626
 40
0.7366548042704626
 40
0.7366548042704626
 40
0.7402135231316725
 40
0.7402135231316725
 40
0.7402135231316725
 40
0.7402135231316725
 40
0.7437722419928826
 40
0.7437722419928826
 40
0.7437722419928826
 40
0.7437722419928826
 40
0.7473309608540926
 40
0.7473309608540926
 40
0.7473309608540926
 40
0.7473309608540926
 40
0.7508896797153025
 40
0.7508896797153025
 40
0.7508896797153025
 40
0.7508896797153025
 40
0.7544483985765125
 40
0.7544483985765125
 40
0.7544483985765125
 40
0.7544483985765125
 40
0.7580071174377224
 40
0.7580071174377224
 40
0.7580071174377224
 40
0.7580071174377224
 40
0.7615658362989324
 40
0.7615658362989324
 40
0.7615658362989324
 40
0.7615658362989324
 40
0.7651245551601423
 40
0.7651245551601423
 40
0.7651245551601423
 40
0.7651245551601423
 40
0.7686832740213523
 40
0.7686832740213523
 40
0.7686832740213523
 40
0.7686832740213523
 40
0.7722419928825622
 40
0.7722419928825622
 40
0.7722419928825622
 40
0.7722419928825622
 40
0.7758007117437722
 40
0.7758007117437722
 40
0.7758007117437722
 40
0.7758007117437722
 40
0.7793594306049823
 40
0.7793594306049823
 40
0.7793594306049823
 40
0.7793594306049823
 40
0.7829181494661922
 40
0.7829181494661922
 40
0.7829181494661922
 40
0.7829181494661922
 40
0.7864768683274022
 40
0.7864768683274022
 40
0.7864768683274022
 40
0.7864768683274022
 40
0.7900355871886121
 40
0.7900355871886121
 40
0.7900355871886121
 40
0.7900355871886121
 40
0.7935943060498221
 40
0.7935943060498221
 40
0.7935943060498221
 40
0.7935943060498221
 40
0.797153024911032
 40
0.797153024911032
 40
0.797153024911032
 40
0.797153024911032
 40
0.800711743772242
 40
0.800711743772242
 40
0.800711743772242
 40
0.800711743772242
 40
0.8042704626334519
 40
0.8042704626334519
 40
0.8042704626334519
 40
0.8042704626334519
 40
0.8078291814946619
 40
0.8078291814946619
 40
0.8078291814946619
 40
0.8078291814946619
 40
0.8113879003558719
 40
0.8113879003558719
 40
0.8113879003558719
 40
0.8113879003558719
 40
0.8149466192170819
 40
0.8149466192170819
 40
0.8149466192170819
 40
0.8149466192170819
 40
0.8185053380782918
 40
0.8185053380782918
 40
0.8185053380782918
 40
0.8185053380782918
 40
0.8220640569395018
 40
0.8220640569395018
 40
0.8220640569395018
 40
0.8220640569395018
 40
0.8256227758007118
 40
0.8256227758007118
 40
0.8256227758007118
 40
0.8256227758007118
 40
0.8291814946619217
 40
0.8291814946619217
 40
0.8291814946619217
 40
0.8291814946619217
 40
0.8327402135231317
 40
0.8327402135231317
 40
0.8327402135231317
 40
0.8327402135231317
 40
0.8362989323843416
 40
0.8362989323843416
 40
0.8362989323843416
 40
0.8362989323843416
 40
0.8398576512455516
 40
0.8398576512455516
 40
0.8398576512455516
 40
0.8398576512455516
 40
0.8434163701067615
 40
0.8434163701067615
 40
0.8434163701067615
 40
0.8434163701067615
 40
0.8469750889679716
 40
0.8469750889679716
 40
0.8469750889679716
 40
0.8469750889679716
 40
0.8505338078291815
 40
0.8505338078291815
 40
0.8505338078291815
 40
0.8505338078291815
 40
0.8540925266903915
 40
0.8540925266903915
 40
0.8540925266903915
 40
0.8540925266903915
 40
0.8576512455516014
 40
0.8576512455516014
 40
0.8576512455516014
 40
0.8576512455516014
 40
0.8612099644128114
 40
0.8612099644128114
 40
0.8612099644128114
 40
0.8612099644128114
 40
0.8647686832740213
 40
0.8647686832740213
 40
0.8647686832740213
 40
0.8647686832740213
 40
0.8683274021352313
 40
0.8683274021352313
 40
0.8683274021352313
 40
0.8683274021352313
 40
0.8718861209964412
 40
0.8718861209964412
 40
0.8718861209964412
 40
0.8718861209964412
 40
0.8754448398576512
 40
0.8754448398576512
 40
0.8754448398576512
 40
0.8754448398576512
 40
0.8790035587188612
 40
0.8790035587188612
 40
0.8790035587188612
 40
0.8790035587188612
 40
0.8825622775800712
 40
0.8825622775800712
 40
0.8825622775800712
 40
0.8825622775800712
 40
0.8861209964412812
 40
0.8861209964412812
 40
0.8861209964412812
 40
0.8861209964412812
 40
0.8896797153024911
 40
0.8896797153024911
 40
0.8896797153024911
 40
0.8896797153024911
 40
0.8932384341637011
 40
0.8932384341637011
 40
0.8932384341637011
 40
0.8932384341637011
 40
0.896797153024911
 40
0.896797153024911
 40
0.896797153024911
 40
0.896797153024911
 40
0.900355871886121
 40
0.900355871886121
 40
0.900355871886121
 40
0.900355871886121
 40
0.9039145907473309
 40
0.9039145907473309
 40
0.9039145907473309
 40
0.9039145907473309
 40
0.9074733096085409
 40
0.9074733096085409
 40
0.9074733096085409
 40
0.9074733096085409
 40
0.9110320284697508
 40
0.9110320284697508
 40
0.9110320284697508
 40
0.9110320284697508
 40
0.9145907473309609
 40
0.9145907473309609
 40
0.9145907473309609
 40
0.9145907473309609
 40
0.9181494661921709
 40
0.9181494661921709
 40
0.9181494661921709
 40
0.9181494661921709
 40
0.9217081850533808
 40
0.9217081850533808
 40
0.9217081850533808
 40
0.9217081850533808
 40
0.9252669039145908
 40
0.9252669039145908
 40
0.9252669039145908
 40
0.9252669039145908
 40
0.9288256227758007
 40
0.9288256227758007
 40
0.9288256227758007
 40
0.9288256227758007
 40
0.9323843416370107
 40
0.9323843416370107
 40
0.9323843416370107
 40
0.9323843416370107
 40
0.9359430604982206
 40
0.9359430604982206
 40
0.9359430604982206
 40
0.9359430604982206
 40
0.9395017793594306
 40
0.9395017793594306
 40
0.9395017793594306
 40
0.9395017793594306
 40
0.9430604982206405
 40
0.9430604982206405
 40
0.9430604982206405
 40
0.9430604982206405
 40
0.9466192170818505
 40
0.9466192170818505
 40
0.9466192170818505
 40
0.9466192170818505
 40
0.9501779359430605
 40
0.9501779359430605
 40
0.9501779359430605
 40
0.9501779359430605
 40
0.9537366548042705
 40
0.9537366548042705
 40
0.9537366548042705
 40
0.9537366548042705
 40
0.9572953736654805
 40
0.9572953736654805
 40
0.9572953736654805
 40
0.9572953736654805
 40
0.9608540925266904
 40
0.9608540925266904
 40
0.9608540925266904
 40
0.9608540925266904
 40
0.9644128113879004
 40
0.9644128113879004
 40
0.9644128113879004
 40
0.9644128113879004
 40
0.9679715302491103
 40
0.9679715302491103
 40
0.9679715302491103
 40
0.9679715302491103
 40
0.9715302491103203
 40
0.9715302491103203
 40
0.9715302491103203
 40
0.9715302491103203
 40
0.9750889679715302
 40
0.9750889679715302
 40
0.9750889679715302
 40
0.9750889679715302
 40
0.9786476868327402
 40
0.9786476868327402
 40
0.9786476868327402
 40
0.9786476868327402
 40
0.9822064056939501
 40
0.9822064056939501
 40
0.9822064056939501
 40
0.9822064056939501
 40
0.9857651245551602
 40
0.9857651245551602
 40
0.9857651245551602
 40
0.9857651245551602
 40
0.9893238434163701
 40
0.9893238434163701
 40
0.9893238434163701
 40
0.9893238434163701
 40
0.9928825622775801
 40
0.9928825622775801
 40
0.9928825622775801
 40
0.9928825622775801
 40
1.0
 40
1.0
 40
1.0
 40
1.0
 10
106.7561
 20
8.5326
 30
0.0
 10
109.6812
 20
10.9252
 30
0.0
 10
112.4766
 20
15.7039
 30
0.0
 10
112.4766
 20
20.8279
 30
0.0
 10
112.4766
 20
20.8279
 30
0.0
 10
112.4766
 20
24.1374
 30
0.0
 10
111.6205
 20
26.7591
 30
0.0
 10
109.7319
 20
29.2332
 30
0.0
 10
109.7319
 20
29.2332
 30
0.0
 10
109.7319
 20
29.2332
 30
0.0
 10
108.4696
 20
30.8869
 30
0.0
 10
108.4696
 20
30.8869
 30
0.0
 10
108.4696
 20
30.8869
 30
0.0
 10
108.4696
 20
30.8869
 30
0.0
 10
108.6571
 20
34.2878
 30
0.0
 10
108.6571
 20
34.2878
 30
0.0
 10
108.6571
 20
34.2878
 30
0.0
 10
108.9833
 20
40.2095
 30
0.0
 10
111.3997
 20
45.8199
 30
0.0
 10
115.5586
 20
50.3119
 30
0.0
 10
115.5586
 20
50.3119
 30
0.0
 10
119.7245
 20
54.8115
 30
0.0
 10
128.3528
 20
58.4581
 30
0.0
 10
135.0658
 20
58.5561
 30
0.0
 10
135.0658
 20
58.5561
 30
0.0
 10
136.7206
 20
58.5803
 30
0.0
 10
138.0745
 20
58.6431
 30
0.0
 10
138.0745
 20
58.6955
 30
0.0
 10
138.0745
 20
58.6955
 30
0.0
 10
135.4235
 20
59.9808
 30
0.0
 10
130.0978
 20
60.0759
 30
0.0
 10
128.2974
 20
60.0782
 30
0.0
 10
128.2974
 20
60.0782
 30
0.0
 10
121.9392
 20
60.0866
 30
0.0
 10
120.0205
 20
59.7203
 30
0.0
 10
115.5106
 20
57.6366
 30
0.0
 10
115.5106
 20
57.6366
 30
0.0
 10
112.5854
 20
56.2851
 30
0.0
 10
107.9775
 20
53.0363
 30
0.0
 10
108.742
 20
52.8644
 30
0.0
 10
108.742
 20
52.8644
 30
0.0
 10
109.0131
 20
52.8034
 30
0.0
 10
110.5086
 20
53.1557
 30
0.0
 10
112.065
 20
53.6474
 30
0.0
 10
112.065
 20
53.6474
 30
0.0
 10
114.1916
 20
54.3191
 30
0.0
 10
116.2934
 20
54.7269
 30
0.0
 10
118.4915
 20
55.0184
 30
0.0
 10
118.4915
 20
55.0184
 30
0.0
 10
118.4915
 20
55.0184
 30
0.0
 10
115.3856
 20
51.8636
 30
0.0
 10
115.3856
 20
51.8636
 30
0.0
 10
115.3856
 20
51.8636
 30
0.0
 10
113.0849
 20
49.5266
 30
0.0
 10
111.9012
 20
47.9716
 30
0.0
 10
110.8192
 20
45.8647
 30
0.0
 10
110.8192
 20
45.8647
 30
0.0
 10
108.8925
 20
42.1126
 30
0.0
 10
107.5919
 20
38.2207
 30
0.0
 10
107.2944
 20
35.3177
 30
0.0
 10
107.2944
 20
35.3177
 30
0.0
 10
106.9618
 20
32.0712
 30
0.0
 10
106.8451
 20
31.9507
 30
0.0
 10
104.9699
 20
32.9155
 30
0.0
 10
104.9699
 20
32.9155
 30
0.0
 10
103.6885
 20
33.5747
 30
0.0
 10
102.8405
 20
33.7168
 30
0.0
 10
100.211
 20
33.7127
 30
0.0
 10
100.211
 20
33.7127
 30
0.0
 10
96.3087
 20
33.7067
 30
0.0
 10
93.5069
 20
33.0129
 30
0.0
 10
89.7446
 20
31.1214
 30
0.0
 10
89.7446
 20
31.1214
 30
0.0
 10
86.7248
 20
29.6031
 30
0.0
 10
85.1657
 20
29.3718
 30
0.0
 10
83.679
 20
30.2216
 30
0.0
 10
83.679
 20
30.2216
 30
0.0
 10
83.1902
 20
30.5011
 30
0.0
 10
82.6503
 20
30.7353
 30
0.0
 10
82.4791
 20
30.7423
 30
0.0
 10
82.4791
 20
30.7423
 30
0.0
 10
81.9324
 20
30.7645
 30
0.0
 10
82.5954
 20
28.508
 30
0.0
 10
83.3812
 20
27.6715
 30
0.0
 10
83.3812
 20
27.6715
 30
0.0
 10
84.2444
 20
26.7527
 30
0.0
 10
86.2989
 20
25.9709
 30
0.0
 10
87.0712
 20
26.2673
 30
0.0
 10
87.0712
 20
26.2673
 30
0.0
 10
87.744
 20
26.5254
 30
0.0
 10
87.7338
 20
26.4359
 30
0.0
 10
86.7318
 20
23.2889
 30
0.0
 10
86.7318
 20
23.2889
 30
0.0
 10
86.2649
 20
21.8224
 30
0.0
 10
85.7092
 20
19.1934
 30
0.0
 10
85.4969
 20
17.4468
 30
0.0
 10
85.4969
 20
17.4468
 30
0.0
 10
84.9429
 20
12.8879
 30
0.0
 10
84.2576
 20
12.8113
 30
0.0
 10
82.0991
 20
17.0672
 30
0.0
 10
82.0991
 20
17.0672
 30
0.0
 10
80.6747
 20
19.8755
 30
0.0
 10
80.4033
 20
22.1888
 30
0.0
 10
80.8193
 20
27.9732
 30
0.0
 10
80.8193
 20
27.9732
 30
0.0
 10
81.1482
 20
32.5477
 30
0.0
 10
82.0874
 20
39.2365
 30
0.0
 10
82.4518
 20
39.6009
 30
0.0
 10
82.4518
 20
39.6009
 30
0.0
 10
82.6986
 20
39.8478
 30
0.0
 10
83.3974
 20
37.7412
 30
0.0
 10
83.5876
 20
36.1767
 30
0.0
 10
83.5876
 20
36.1767
 30
0.0
 10
83.6887
 20
35.3456
 30
0.0
 10
84.2612
 20
34.1829
 30
0.0
 10
84.4174
 20
34.1829
 30
0.0
 10
84.4174
 20
34.1829
 30
0.0
 10
84.643
 20
34.1829
 30
0.0
 10
85.3034
 20
34.607
 30
0.0
 10
85.4809
 20
35.8466
 30
0.0
 10
85.4809
 20
35.8466
 30
0.0
 10
85.4944
 20
35.8815
 30
0.0
 10
85.6257
 20
38.8045
 30
0.0
 10
85.7728
 20
42.3423
 30
0.0
 10
85.7728
 20
42.3423
 30
0.0
 10
86.057
 20
49.1756
 30
0.0
 10
86.3001
 20
50.0981
 30
0.0
 10
88.2915
 20
51.9003
 30
0.0
 10
88.2915
 20
51.9003
 30
0.0
 10
89.3987
 20
52.9023
 30
0.0
 10
89.5094
 20
52.3275
 30
0.0
 10
88.4967
 20
50.835
 30
0.0
 10
88.4967
 20
50.835
 30
0.0
 10
87.2389
 20
48.9816
 30
0.0
 10
86.7709
 20
46.9731
 30
0.0
 10
86.9656
 20
44.2649
 30
0.0
 10
86.9656
 20
44.2649
 30
0.0
 10
87.1791
 20
41.2951
 30
0.0
 10
88.3701
 20
38.5622
 30
0.0
 10
90.1525
 20
36.9519
 30
0.0
 10
90.1525
 20
36.9519
 30
0.0
 10
91.8908
 20
35.3815
 30
0.0
 10
92.3449
 20
35.6148
 30
0.0
 10
90.8543
 20
37.3126
 30
0.0
 10
90.8543
 20
37.3126
 30
0.0
 10
89.5571
 20
38.79
 30
0.0
 10
89.1978
 20
40.3615
 30
0.0
 10
89.4788
 20
43.3294
 30
0.0
 10
89.4788
 20
43.3294
 30
0.0
 10
89.7619
 20
46.3199
 30
0.0
 10
90.8725
 20
49.693
 30
0.0
 10
92.4706
 20
52.4153
 30
0.0
 10
92.4706
 20
52.4153
 30
0.0
 10
94.1506
 20
55.2775
 30
0.0
 10
94.9941
 20
55.6894
 30
0.0
 10
93.8546
 20
53.0914
 30
0.0
 10
93.8546
 20
53.0914
 30
0.0
 10
92.5773
 20
50.1792
 30
0.0
 10
92.0714
 20
47.5941
 30
0.0
 10
92.079
 20
44.0192
 30
0.0
 10
92.079
 20
44.0192
 30
0.0
 10
92.0855
 20
41.0231
 30
0.0
 10
92.169
 20
40.6317
 30
0.0
 10
93.0841
 20
39.3112
 30
0.0
 10
93.0841
 20
39.3112
 30
0.0
 10
95.669
 20
36.0055
 30
0.0
 10
98.8156
 20
34.7455
 30
0.0
 10
102.3441
 20
36.0317
 30
0.0
 10
102.3441
 20
36.0317
 30
0.0
 10
97.5805
 20
36.1762
 30
0.0
 10
96.134
 20
39.0602
 30
0.0
 10
97.4055
 20
42.3476
 30
0.0
 10
97.4055
 20
42.3476
 30
0.0
 10
97.8534
 20
43.4197
 30
0.0
 10
97.9246
 20
44.3248
 30
0.0
 10
97.7333
 20
46.5177
 30
0.0
 10
97.7333
 20
46.5177
 30
0.0
 10
97.4812
 20
49.4081
 30
0.0
 10
97.9452
 20
50.1192
 30
0.0
 10
98.4226
 20
47.574
 30
0.0
 10
98.4226
 20
47.574
 30
0.0
 10
98.5589
 20
46.8478
 30
0.0
 10
98.9624
 20
45.686
 30
0.0
 10
99.3191
 20
44.9925
 30
0.0
 10
99.3191
 20
44.9925
 30
0.0
 10
100.3593
 20
42.971
 30
0.0
 10
103.1829
 20
40.7096
 30
0.0
 10
104.6666
 20
40.7096
 30
0.0
 10
104.6666
 20
40.7096
 30
0.0
 10
105.4137
 20
40.7096
 30
0.0
 10
105.4137
 20
40.7103
 30
0.0
 10
104.7198
 20
41.6873
 30
0.0
 10
104.7198
 20
41.6873
 30
0.0
 10
102.5873
 20
44.6891
 30
0.0
 10
101.9698
 20
49.1903
 30
0.0
 10
103.22
 20
52.6197
 30
0.0
 10
103.22
 20
52.6197
 30
0.0
 10
104.6938
 20
56.6627
 30
0.0
 10
104.5064
 20
57.609
 30
0.0
 10
102.022
 20
58.6678
 30
0.0
 10
102.022
 20
58.6678
 30
0.0
 10
102.022
 20
58.6678
 30
0.0
 10
100.9891
 20
59.1081
 30
0.0
 10
100.9891
 20
59.1081
 30
0.0
 10
100.9891
 20
59.1081
 30
0.0
 10
107.2478
 20
62.1122
 30
0.0
 10
113.4826
 20
62.1963
 30
0.0
 10
119.0537
 20
62.1049
 30
0.0
 10
119.0537
 20
62.1049
 30
0.0
 10
124.9199
 20
62.0568
 30
0.0
 10
130.6555
 20
61.853
 30
0.0
 10
131.7996
 20
61.6517
 30
0.0
 10
131.7996
 20
61.6517
 30
0.0
 10
132.9436
 20
61.4504
 30
0.0
 10
135.8461
 20
60.6724
 30
0.0
 10
138.2493
 20
59.9226
 30
0.0
 10
138.2493
 20
59.9226
 30
0.0
 10
140.6526
 20
59.1728
 30
0.0
 10
143.1562
 20
58.4552
 30
0.0
 10
143.813
 20
58.3281
 30
0.0
 10
143.813
 20
58.3281
 30
0.0
 10
144.9537
 20
58.1072
 30
0.0
 10
144.9753
 20
58.1223
 30
0.0
 10
144.2961
 20
58.665
 30
0.0
 10
144.2961
 20
58.665
 30
0.0
 10
143.9051
 20
58.9775
 30
0.0
 10
141.4252
 20
60.2804
 30
0.0
 10
138.7855
 20
61.5602
 30
0.0
 10
138.7855
 20
61.5602
 30
0.0
 10
128.1679
 20
66.708
 30
0.0
 10
125.7008
 20
68.0068
 30
0.0
 10
122.1451
 20
70.3214
 30
0.0
 10
122.1451
 20
70.3214
 30
0.0
 10
118.6075
 20
72.6241
 30
0.0
 10
118.4635
 20
72.7657
 30
0.0
 10
119.0294
 20
73.391
 30
0.0
 10
119.0294
 20
73.391
 30
0.0
 10
120.5325
 20
75.0518
 30
0.0
 10
125.8645
 20
75.432
 30
0.0
 10
129.3188
 20
74.1244
 30
0.0
 10
129.3188
 20
74.1244
 30
0.0
 10
130.9272
 20
73.5155
 30
0.0
 10
132.1522
 20
72.6255
 30
0.0
 10
134.6518
 20
70.2494
 30
0.0
 10
134.6518
 20
70.2494
 30
0.0
 10
138.4021
 20
66.6842
 30
0.0
 10
140.1876
 20
65.3964
 30
0.0
 10
144.2261
 20
63.3442
 30
0.0
 10
144.2261
 20
63.3442
 30
0.0
 10
147.3224
 20
61.7709
 30
0.0
 10
149.609
 20
61.2261
 30
0.0
 10
152.9197
 20
61.9834
 30
0.0
 10
152.9197
 20
61.9834
 30
0.0
 10
150.3338
 20
60.6368
 30
0.0
 10
149.2957
 20
58.2052
 30
0.0
 10
149.5047
 20
54.9388
 30
0.0
 10
149.5047
 20
54.9388
 30
0.0
 10
149.3776
 20
54.9434
 30
0.0
 10
148.0737
 20
55.2811
 30
0.0
 10
146.6071
 20
55.6892
 30
0.0
 10
146.6071
 20
55.6892
 30
0.0
 10
144.7347
 20
56.2103
 30
0.0
 10
142.4587
 20
56.4844
 30
0.0
 10
138.9634
 20
56.6098
 30
0.0
 10
138.9634
 20
56.6098
 30
0.0
 10
133.2519
 20
56.8148
 30
0.0
 10
129.2669
 20
56.2381
 30
0.0
 10
125.0299
 20
54.5932
 30
0.0
 10
125.0299
 20
54.5932
 30
0.0
 10
114.5895
 20
50.5402
 30
0.0
 10
108.2046
 20
38.2814
 30
0.0
 10
112.0299
 20
29.6337
 30
0.0
 10
112.0299
 20
29.6337
 30
0.0
 10
115.1947
 20
22.4795
 30
0.0
 10
125.0678
 20
24.9947
 30
0.0
 10
125.0823
 20
32.9586
 30
0.0
 10
125.0823
 20
32.9586
 30
0.0
 10
125.0865
 20
35.2313
 30
0.0
 10
124.4364
 20
36.4143
 30
0.0
 10
122.4351
 20
37.7764
 30
0.0
 10
122.4351
 20
37.7764
 30
0.0
 10
119.7097
 20
39.6313
 30
0.0
 10
116.0319
 20
38.1592
 30
0.0
 10
116.0319
 20
35.2137
 30
0.0
 10
116.0319
 20
35.2137
 30
0.0
 10
116.0319
 20
33.5526
 30
0.0
 10
116.9333
 20
32.1769
 30
0.0
 10
118.0215
 20
32.1769
 30
0.0
 10
118.0215
 20
32.1769
 30
0.0
 10
119.119
 20
32.1769
 30
0.0
 10
119.6429
 20
33.8411
 30
0.0
 10
118.7508
 20
34.4934
 30
0.0
 10
118.7508
 20
34.4934
 30
0.0
 10
118.1204
 20
34.9545
 30
0.0
 10
117.9576
 20
35.7322
 30
0.0
 10
118.4916
 20
35.7322
 30
0.0
 10
118.4916
 20
35.7322
 30
0.0
 10
120.751
 20
35.7322
 30
0.0
 10
121.9119
 20
31.4882
 30
0.0
 10
120.1978
 20
29.4953
 30
0.0
 10
120.1978
 20
29.4953
 30
0.0
 10
118.7821
 20
27.8495
 30
0.0
 10
116.2757
 20
27.9514
 30
0.0
 10
114.826
 20
29.4013
 30
0.0
 10
114.826
 20
29.4013
 30
0.0
 10
112.1782
 20
32.0491
 30
0.0
 10
111.6986
 20
38.093
 30
0.0
 10
113.7855
 20
42.5145
 30
0.0
 10
113.7855
 20
42.5145
 30
0.0
 10
115.7285
 20
46.6313
 30
0.0
 10
120.9689
 20
50.8846
 30
0.0
 10
126.6011
 20
52.9163
 30
0.0
 10
126.6011
 20
52.9163
 30
0.0
 10
138.6699
 20
57.2697
 30
0.0
 10
152.4601
 20
51.6895
 30
0.0
 10
158.4914
 20
40.0117
 30
0.0
 10
158.4914
 20
40.0117
 30
0.0
 10
162.2564
 20
32.722
 30
0.0
 10
162.5544
 20
24.6669
 30
0.0
 10
159.2874
 20
18.4967
 30
0.0
 10
159.2874
 20
18.4967
 30
0.0
 10
157.872
 20
15.8235
 30
0.0
 10
154.7078
 20
12.7052
 30
0.0
 10
152.0374
 20
11.3521
 30
0.0
 10
152.0374
 20
11.3521
 30
0.0
 10
150.2459
 20
10.4444
 30
0.0
 10
149.5995
 20
10.3121
 30
0.0
 10
146.9554
 20
10.3121
 30
0.0
 10
146.9554
 20
10.3121
 30
0.0
 10
144.2494
 20
10.3121
 30
0.0
 10
143.6727
 20
10.4368
 30
0.0
 10
141.5537
 20
11.4799
 30
0.0
 10
141.5537
 20
11.4799
 30
0.0
 10
137.9047
 20
13.2763
 30
0.0
 10
135.9506
 20
16.1461
 30
0.0
 10
135.6657
 20
20.1276
 30
0.0
 10
135.6657
 20
20.1276
 30
0.0
 10
135.4426
 20
23.2465
 30
0.0
 10
136.2118
 20
25.5476
 30
0.0
 10
138.123
 20
27.4779
 30
0.0
 10
138.123
 20
27.4779
 30
0.0
 10
142.4935
 20
31.892
 30
0.0
 10
150.1566
 20
30.1157
 30
0.0
 10
150.7848
 20
24.5429
 30
0.0
 10
150.7848
 20
24.5429
 30
0.0
 10
151.1544
 20
21.263
 30
0.0
 10
148.9849
 20
18.3115
 30
0.0
 10
146.2039
 20
18.3115
 30
0.0
 10
146.2039
 20
18.3115
 30
0.0
 10
144.332
 20
18.3115
 30
0.0
 10
142.2249
 20
20.213
 30
0.0
 10
142.4052
 20
21.7396
 30
0.0
 10
142.4052
 20
21.7396
 30
0.0
 10
142.5558
 20
23.0151
 30
0.0
 10
143.1862
 20
23.1687
 30
0.0
 10
143.6942
 20
22.0538
 30
0.0
 10
143.6942
 20
22.0538
 30
0.0
 10
144.1436
 20
21.0678
 30
0.0
 10
145.7544
 20
20.8005
 30
0.0
 10
146.5362
 20
21.5824
 30
0.0
 10
146.5362
 20
21.5824
 30
0.0
 10
147.1945
 20
22.2407
 30
0.0
 10
147.0417
 20
23.9212
 30
0.0
 10
146.2517
 20
24.711
 30
0.0
 10
146.2517
 20
24.711
 30
0.0
 10
144.105
 20
26.8577
 30
0.0
 10
140.4968
 20
24.2493
 30
0.0
 10
141.0341
 20
20.939
 30
0.0
 10
141.0341
 20
20.939
 30
0.0
 10
141.711
 20
16.767
 30
0.0
 10
147.0429
 20
14.4873
 30
0.0
 10
151.1637
 20
16.608
 30
0.0
 10
151.1637
 20
16.608
 30
0.0
 10
155.9328
 20
19.0623
 30
0.0
 10
156.1101
 20
25.7355
 30
0.0
 10
151.5163
 20
29.8857
 30
0.0
 10
151.5163
 20
29.8857
 30
0.0
 10
150.1335
 20
31.1351
 30
0.0
 10
150.0858
 20
31.2415
 30
0.0
 10
150.706
 20
31.6951
 30
0.0
 10
150.706
 20
31.6951
 30
0.0
 10
151.0686
 20
31.9603
 30
0.0
 10
151.5346
 20
32.1821
 30
0.0
 10
151.7416
 20
32.1883
 30
0.0
 10
151.7416
 20
32.1883
 30
0.0
 10
152.524
 20
32.5665
 30
0.0
 10
154.1149
 20
33.9691
 30
0.0
 10
154.7926
 20
35.4623
 30
0.0
 10
154.7926
 20
35.4623
 30
0.0
 10
156.2819
 20
38.7434
 30
0.0
 10
155.367
 20
41.6586
 30
0.0
 10
151.7285
 20
45.2263
 30
0.0
 10
151.7285
 20
45.2263
 30
0.0
 10
150.4416
 20
46.488
 30
0.0
 10
149.3275
 20
47.4591
 30
0.0
 10
149.2527
 20
47.3843
 30
0.0
 10
149.2527
 20
47.3843
 30
0.0
 10
149.1778
 20
47.3095
 30
0.0
 10
149.457
 20
46.5601
 30
0.0
 10
149.8732
 20
45.7189
 30
0.0
 10
149.8732
 20
45.7189
 30
0.0
 10
152.0523
 20
41.3146
 30
0.0
 10
150.4112
 20
36.2389
 30
0.0
 10
146.1309
 20
34.1447
 30
0.0
 10
146.1309
 20
34.1447
 30
0.0
 10
145.0367
 20
33.6094
 30
0.0
 10
143.7528
 20
33.2412
 30
0.0
 10
143.2062
 20
33.306
 30
0.0
 10
143.2062
 20
33.306
 30
0.0
 10
143.2062
 20
33.306
 30
0.0
 10
142.2318
 20
33.4214
 30
0.0
 10
142.2318
 20
33.4214
 30
0.0
 10
142.2318
 20
33.4214
 30
0.0
 10
142.2318
 20
33.4214
 30
0.0
 10
143.8763
 20
35.3439
 30
0.0
 10
143.8763
 20
35.3439
 30
0.0
 10
143.8763
 20
35.3439
 30
0.0
 10
144.7808
 20
36.4013
 30
0.0
 10
145.7855
 20
38.063
 30
0.0
 10
146.1089
 20
39.0368
 30
0.0
 10
146.1089
 20
39.0368
 30
0.0
 10
146.8526
 20
41.2763
 30
0.0
 10
146.63
 20
44.6188
 30
0.0
 10
145.603
 20
46.6321
 30
0.0
 10
145.603
 20
46.6321
 30
0.0
 10
144.0252
 20
49.7248
 30
0.0
 10
140.1307
 20
52.0867
 30
0.0
 10
136.6092
 20
52.0867
 30
0.0
 10
136.6092
 20
52.0867
 30
0.0
 10
134.7848
 20
52.0867
 30
0.0
 10
134.6557
 20
51.64
 30
0.0
 10
136.1877
 20
50.6279
 30
0.0
 10
136.1877
 20
50.6279
 30
0.0
 10
138.9948
 20
48.7734
 30
0.0
 10
139.5634
 20
45.4033
 30
0.0
 10
137.6764
 20
41.8033
 30
0.0
 10
137.6764
 20
41.8033
 30
0.0
 10
136.5742
 20
39.7008
 30
0.0
 10
136.5699
 20
39.6713
 30
0.0
 10
137.0269
 20
37.372
 30
0.0
 10
137.0269
 20
37.372
 30
0.0
 10
137.5542
 20
34.7189
 30
0.0
 10
137.1768
 20
32.7616
 30
0.0
 10
135.918
 20
31.6224
 30
0.0
 10
135.918
 20
31.6224
 30
0.0
 10
135.18
 20
30.9546
 30
0.0
 10
135.1782
 20
30.9561
 30
0.0
 10
135.4705
 20
32.009
 30
0.0
 10
135.4705
 20
32.009
 30
0.0
 10
135.6319
 20
32.5903
 30
0.0
 10
135.7571
 20
34.1059
 30
0.0
 10
135.7491
 20
35.3769
 30
0.0
 10
135.7491
 20
35.3769
 30
0.0
 10
135.7231
 20
39.4508
 30
0.0
 10
133.5189
 20
42.9418
 30
0.0
 10
129.7367
 20
44.8994
 30
0.0
 10
129.7367
 20
44.8994
 30
0.0
 10
127.3153
 20
46.1526
 30
0.0
 10
123.4398
 20
46.1922
 30
0.0
 10
120.916
 20
44.9895
 30
0.0
 10
120.916
 20
44.9895
 30
0.0
 10
118.7942
 20
43.9784
 30
0.0
 10
118.5145
 20
43.554
 30
0.0
 10
119.9695
 20
43.554
 30
0.0
 10
119.9695
 20
43.554
 30
0.0
 10
122.9201
 20
43.554
 30
0.0
 10
125.9337
 20
41.6842
 30
0.0
 10
127.0915
 20
39.1351
 30
0.0
 10
127.0915
 20
39.1351
 30
0.0
 10
127.6311
 20
37.9468
 30
0.0
 10
127.7501
 20
36.779
 30
0.0
 10
127.7566
 20
32.6101
 30
0.0
 10
127.7566
 20
32.6101
 30
0.0
 10
127.7652
 20
27.0414
 30
0.0
 10
128.0432
 20
25.8909
 30
0.0
 10
129.7649
 20
24.3009
 30
0.0
 10
129.7649
 20
24.3009
 30
0.0
 10
130.3267
 20
23.7821
 30
0.0
 10
131.4263
 20
23.1413
 30
0.0
 10
132.2085
 20
22.8771
 30
0.0
 10
132.2085
 20
22.8771
 30
0.0
 10
133.5974
 20
22.4079
 30
0.0
 10
133.6323
 20
22.3551
 30
0.0
 10
133.7019
 20
20.6207
 30
0.0
 10
133.7019
 20
20.6207
 30
0.0
 10
133.8504
 20
16.921
 30
0.0
 10
135.7778
 20
13.6074
 30
0.0
 10
139.0386
 20
11.4459
 30
0.0
 10
139.0386
 20
11.4459
 30
0.0
 10
139.0386
 20
11.4459
 30
0.0
 10
140.8914
 20
10.2177
 30
0.0
 10
140.8914
 20
10.2177
 30
0.0
 10
140.8914
 20
10.2177
 30
0.0
 10
140.8914
 20
10.2177
 30
0.0
 10
139.7941
 20
9.9983
 30
0.0
 10
139.7941
 20
9.9983
 30
0.0
 10
139.7941
 20
9.9983
 30
0.0
 10
138.3868
 20
9.7168
 30
0.0
 10
135.4364
 20
9.7233
 30
0.0
 10
133.6913
 20
10.0116
 30
0.0
 10
133.6913
 20
10.0116
 30
0.0
 10
132.511
 20
10.2066
 30
0.0
 10
132.3603
 20
10.3361
 30
0.0
 10
132.5585
 20
10.9854
 30
0.0
 10
132.5585
 20
10.9854
 30
0.0
 10
133.2169
 20
13.1426
 30
0.0
 10
133.1641
 20
14.6535
 30
0.0
 10
132.3765
 20
16.1974
 30
0.0
 10
132.3765
 20
16.1974
 30
0.0
 10
130.863
 20
19.164
 30
0.0
 10
127.596
 20
22.4033
 30
0.0
 10
125.4535
 20
23.062
 30
0.0
 10
125.4535
 20
23.062
 30
0.0
 10
124.7746
 20
23.2707
 30
0.0
 10
124.7481
 20
23.1435
 30
0.0
 10
124.8677
 20
20.2627
 30
0.0
 10
124.8677
 20
20.2627
 30
0.0
 10
125.0051
 20
16.9579
 30
0.0
 10
124.5662
 20
16.3033
 30
0.0
 10
123.6628
 20
18.4655
 30
0.0
 10
123.6628
 20
18.4655
 30
0.0
 10
123.061
 20
19.9061
 30
0.0
 10
121.9136
 20
20.7997
 30
0.0
 10
120.6636
 20
20.8016
 30
0.0
 10
120.6636
 20
20.8016
 30
0.0
 10
120.1694
 20
20.8022
 30
0.0
 10
119.2218
 20
21.1341
 30
0.0
 10
118.5579
 20
21.5389
 30
0.0
 10
118.5579
 20
21.5389
 30
0.0
 10
118.5579
 20
21.5389
 30
0.0
 10
117.3507
 20
22.2748
 30
0.0
 10
117.3507
 20
22.2748
 30
0.0
 10
117.3507
 20
22.2748
 30
0.0
 10
117.3507
 20
22.2748
 30
0.0
 10
117.5408
 20
20.1786
 30
0.0
 10
117.5408
 20
20.1786
 30
0.0
 10
117.5408
 20
20.1786
 30
0.0
 10
117.7604
 20
17.7576
 30
0.0
 10
118.7128
 20
15.6856
 30
0.0
 10
120.3661
 20
14.0323
 30
0.0
 10
120.3661
 20
14.0323
 30
0.0
 10
121.6957
 20
12.7027
 30
0.0
 10
124.4794
 20
11.3
 30
0.0
 10
126.4313
 20
10.976
 30
0.0
 10
126.4313
 20
10.976
 30
0.0
 10
128.0427
 20
10.7085
 30
0.0
 10
128.1609
 20
10.2734
 30
0.0
 10
126.6811
 20
10.0562
 30
0.0
 10
126.6811
 20
10.0562
 30
0.0
 10
125.9434
 20
9.9479
 30
0.0
 10
124.8939
 20
10.2456
 30
0.0
 10
123.3925
 20
10.9889
 30
0.0
 10
123.3925
 20
10.9889
 30
0.0
 10
121.6362
 20
11.8583
 30
0.0
 10
120.6221
 20
12.1074
 30
0.0
 10
118.4111
 20
12.2128
 30
0.0
 10
118.4111
 20
12.2128
 30
0.0
 10
114.7069
 20
12.3891
 30
0.0
 10
112.32
 20
11.0764
 30
0.0
 10
109.8776
 20
8.4606
 30
0.0
 10
109.8776
 20
8.4606
 30
0.0
 10
112.32
 20
5.8447
 30
0.0
 10
114.7069
 20
4.5269
 30
0.0
 10
118.4111
 20
4.7032
 30
0.0
 10
118.4111
 20
4.7032
 30
0.0
 10
120.6221
 20
4.8086
 30
0.0
 10
121.6362
 20
5.0577
 30
0.0
 10
123.3925
 20
5.9271
 30
0.0
 10
123.3925
 20
5.9271
 30
0.0
 10
124.8939
 20
6.6705
 30
0.0
 10
125.9434
 20
6.9681
 30
0.0
 10
126.6811
 20
6.8598
 30
0.0
 10
126.6811
 20
6.8598
 30
0.0
 10
128.1609
 20
6.6426
 30
0.0
 10
128.0427
 20
6.2075
 30
0.0
 10
126.4313
 20
5.94
 30
0.0
 10
126.4313
 20
5.94
 30
0.0
 10
124.4794
 20
5.616
 30
0.0
 10
121.6957
 20
4.2133
 30
0.0
 10
120.3661
 20
2.8837
 30
0.0
 10
120.3661
 20
2.8837
 30
0.0
 10
118.7128
 20
1.2304
 30
0.0
 10
117.7604
 20
-0.8416
 30
0.0
 10
117.5408
 20
-3.2626
 30
0.0
 10
117.5408
 20
-3.2626
 30
0.0
 10
117.5408
 20
-3.2626
 30
0.0
 10
117.3507
 20
-5.3588
 30
0.0
 10
117.3507
 20
-5.3588
 30
0.0
 10
117.3507
 20
-5.3588
 30
0.0
 10
117.3507
 20
-5.3588
 30
0.0
 10
118.5579
 20
-4.6229
 30
0.0
 10
118.5579
 20
-4.6229
 30
0.0
 10
118.5579
 20
-4.6229
 30
0.0
 10
119.2218
 20
-4.2181
 30
0.0
 10
120.1694
 20
-3.8862
 30
0.0
 10
120.6636
 20
-3.8856
 30
0.0
 10
120.6636
 20
-3.8856
 30
0.0
 10
121.9136
 20
-3.8837
 30
0.0
 10
123.061
 20
-2.9901
 30
0.0
 10
123.6628
 20
-1.5495
 30
0.0
 10
123.6628
 20
-1.5495
 30
0.0
 10
124.5662
 20
0.6127
 30
0.0
 10
125.0051
 20
-0.0418
 30
0.0
 10
124.8677
 20
-3.3467
 30
0.0
 10
124.8677
 20
-3.3467
 30
0.0
 10
124.7481
 20
-6.2275
 30
0.0
 10
124.7746
 20
-6.3547
 30
0.0
 10
125.4535
 20
-6.146
 30
0.0
 10
125.4535
 20
-6.146
 30
0.0
 10
127.596
 20
-5.4873
 30
0.0
 10
130.863
 20
-2.248
 30
0.0
 10
132.3765
 20
0.7186
 30
0.0
 10
132.3765
 20
0.7186
 30
0.0
 10
133.1641
 20
2.2625
 30
0.0
 10
133.2169
 20
3.7734
 30
0.0
 10
132.5585
 20
5.9306
 30
0.0
 10
132.5585
 20
5.9306
 30
0.0
 10
132.3603
 20
6.5799
 30
0.0
 10
132.511
 20
6.7094
 30
0.0
 10
133.6913
 20
6.9044
 30
0.0
 10
133.6913
 20
6.9044
 30
0.0
 10
135.4364
 20
7.1928
 30
0.0
 10
138.3868
 20
7.1992
 30
0.0
 10
139.7941
 20
6.9177
 30
0.0
 10
139.7941
 20
6.9177
 30
0.0
 10
139.7941
 20
6.9177
 30
0.0
 10
140.8914
 20
6.6983
 30
0.0
 10
140.8914
 20
6.6983
 30
0.0
 10
140.8914
 20
6.6983
 30
0.0
 10
140.8914
 20
6.6983
 30
0.0
 10
139.0386
 20
5.4701
 30
0.0
 10
139.0386
 20
5.4701
 30
0.0
 10
139.0386
 20
5.4701
 30
0.0
 10
135.7778
 20
3.3086
 30
0.0
 10
133.8504
 20
-0.005
 30
0.0
 10
133.7019
 20
-3.7047
 30
0.0
 10
133.7019
 20
-3.7047
 30
0.0
 10
133.6323
 20
-5.439
 30
0.0
 10
133.5974
 20
-5.4918
 30
0.0
 10
132.2085
 20
-5.9611
 30
0.0
 10
132.2085
 20
-5.9611
 30
0.0
 10
131.4263
 20
-6.2253
 30
0.0
 10
130.3267
 20
-6.8661
 30
0.0
 10
129.7649
 20
-7.3849
 30
0.0
 10
129.7649
 20
-7.3849
 30
0.0
 10
128.0432
 20
-8.9749
 30
0.0
 10
127.7652
 20
-10.1254
 30
0.0
 10
127.7566
 20
-15.6941
 30
0.0
 10
127.7566
 20
-15.6941
 30
0.0
 10
127.7501
 20
-19.863
 30
0.0
 10
127.6311
 20
-21.0308
 30
0.0
 10
127.0915
 20
-22.219
 30
0.0
 10
127.0915
 20
-22.219
 30
0.0
 10
125.9337
 20
-24.7682
 30
0.0
 10
122.9201
 20
-26.638
 30
0.0
 10
119.9695
 20
-26.638
 30
0.0
 10
119.9695
 20
-26.638
 30
0.0
 10
118.5145
 20
-26.638
 30
0.0
 10
118.7942
 20
-27.0624
 30
0.0
 10
120.916
 20
-28.0735
 30
0.0
 10
120.916
 20
-28.0735
 30
0.0
 10
123.4398
 20
-29.2761
 30
0.0
 10
127.3153
 20
-29.2366
 30
0.0
 10
129.7367
 20
-27.9833
 30
0.0
 10
129.7367
 20
-27.9833
 30
0.0
 10
133.5189
 20
-26.0258
 30
0.0
 10
135.7231
 20
-22.5348
 30
0.0
 10
135.7491
 20
-18.4609
 30
0.0
 10
135.7491
 20
-18.4609
 30
0.0
 10
135.7571
 20
-17.1899
 30
0.0
 10
135.6319
 20
-15.6743
 30
0.0
 10
135.4705
 20
-15.093
 30
0.0
 10
135.4705
 20
-15.093
 30
0.0
 10
135.1782
 20
-14.0401
 30
0.0
 10
135.18
 20
-14.0386
 30
0.0
 10
135.918
 20
-14.7064
 30
0.0
 10
135.918
 20
-14.7064
 30
0.0
 10
137.1768
 20
-15.8456
 30
0.0
 10
137.5542
 20
-17.8029
 30
0.0
 10
137.0269
 20
-20.4559
 30
0.0
 10
137.0269
 20
-20.4559
 30
0.0
 10
136.5699
 20
-22.7553
 30
0.0
 10
136.5742
 20
-22.7848
 30
0.0
 10
137.6764
 20
-24.8873
 30
0.0
 10
137.6764
 20
-24.8873
 30
0.0
 10
139.5634
 20
-28.4872
 30
0.0
 10
138.9948
 20
-31.8574
 30
0.0
 10
136.1877
 20
-33.7119
 30
0.0
 10
136.1877
 20
-33.7119
 30
0.0
 10
134.6557
 20
-34.724
 30
0.0
 10
134.7848
 20
-35.1706
 30
0.0
 10
136.6092
 20
-35.1706
 30
0.0
 10
136.6092
 20
-35.1706
 30
0.0
 10
140.1307
 20
-35.1706
 30
0.0
 10
144.0252
 20
-32.8088
 30
0.0
 10
145.603
 20
-29.7161
 30
0.0
 10
145.603
 20
-29.7161
 30
0.0
 10
146.63
 20
-27.7028
 30
0.0
 10
146.8526
 20
-24.3603
 30
0.0
 10
146.1089
 20
-22.1208
 30
0.0
 10
146.1089
 20
-22.1208
 30
0.0
 10
145.7855
 20
-21.147
 30
0.0
 10
144.7808
 20
-19.4852
 30
0.0
 10
143.8763
 20
-18.4279
 30
0.0
 10
143.8763
 20
-18.4279
 30
0.0
 10
143.8763
 20
-18.4279
 30
0.0
 10
142.2318
 20
-16.5054
 30
0.0
 10
142.2318
 20
-16.5054
 30
0.0
 10
142.2318
 20
-16.5054
 30
0.0
 10
142.2318
 20
-16.5054
 30
0.0
 10
143.2062
 20
-16.39
 30
0.0
 10
143.2062
 20
-16.39
 30
0.0
 10
143.2062
 20
-16.39
 30
0.0
 10
143.7528
 20
-16.3252
 30
0.0
 10
145.0367
 20
-16.6934
 30
0.0
 10
146.1309
 20
-17.2287
 30
0.0
 10
146.1309
 20
-17.2287
 30
0.0
 10
150.4112
 20
-19.3229
 30
0.0
 10
152.0523
 20
-24.3986
 30
0.0
 10
149.8732
 20
-28.8029
 30
0.0
 10
149.8732
 20
-28.8029
 30
0.0
 10
149.457
 20
-29.6441
 30
0.0
 10
149.1778
 20
-30.3934
 30
0.0
 10
149.2527
 20
-30.4683
 30
0.0
 10
149.2527
 20
-30.4683
 30
0.0
 10
149.3275
 20
-30.5431
 30
0.0
 10
150.4416
 20
-29.572
 30
0.0
 10
151.7285
 20
-28.3103
 30
0.0
 10
151.7285
 20
-28.3103
 30
0.0
 10
155.367
 20
-24.7426
 30
0.0
 10
156.2819
 20
-21.8273
 30
0.0
 10
154.7926
 20
-18.5462
 30
0.0
 10
154.7926
 20
-18.5462
 30
0.0
 10
154.1149
 20
-17.0531
 30
0.0
 10
152.524
 20
-15.6505
 30
0.0
 10
151.7416
 20
-15.2723
 30
0.0
 10
151.7416
 20
-15.2723
 30
0.0
 10
151.5346
 20
-15.2661
 30
0.0
 10
151.0686
 20
-15.0442
 30
0.0
 10
150.706
 20
-14.7791
 30
0.0
 10
150.706
 20
-14.7791
 30
0.0
 10
150.0858
 20
-14.3255
 30
0.0
 10
150.1335
 20
-14.2191
 30
0.0
 10
151.5163
 20
-12.9697
 30
0.0
 10
151.5163
 20
-12.9697
 30
0.0
 10
156.1101
 20
-8.8194
 30
0.0
 10
155.9328
 20
-2.1462
 30
0.0
 10
151.1637
 20
0.3081
 30
0.0
 10
151.1637
 20
0.3081
 30
0.0
 10
147.0429
 20
2.4287
 30
0.0
 10
141.711
 20
0.149
 30
0.0
 10
141.0341
 20
-4.023
 30
0.0
 10
141.0341
 20
-4.023
 30
0.0
 10
140.4968
 20
-7.3333
 30
0.0
 10
144.105
 20
-9.9417
 30
0.0
 10
146.2517
 20
-7.795
 30
0.0
 10
146.2517
 20
-7.795
 30
0.0
 10
147.0417
 20
-7.0051
 30
0.0
 10
147.1945
 20
-5.3247
 30
0.0
 10
146.5362
 20
-4.6664
 30
0.0
 10
146.5362
 20
-4.6664
 30
0.0
 10
145.7544
 20
-3.8845
 30
0.0
 10
144.1436
 20
-4.1518
 30
0.0
 10
143.6942
 20
-5.1378
 30
0.0
 10
143.6942
 20
-5.1378
 30
0.0
 10
143.1862
 20
-6.2527
 30
0.0
 10
142.5558
 20
-6.0991
 30
0.0
 10
142.4052
 20
-4.8236
 30
0.0
 10
142.4052
 20
-4.8236
 30
0.0
 10
142.2249
 20
-3.297
 30
0.0
 10
144.332
 20
-1.3955
 30
0.0
 10
146.2039
 20
-1.3955
 30
0.0
 10
146.2039
 20
-1.3955
 30
0.0
 10
148.9849
 20
-1.3955
 30
0.0
 10
151.1544
 20
-4.347
 30
0.0
 10
150.7848
 20
-7.6269
 30
0.0
 10
150.7848
 20
-7.6269
 30
0.0
 10
150.1566
 20
-13.1997
 30
0.0
 10
142.4935
 20
-14.976
 30
0.0
 10
138.123
 20
-10.5618
 30
0.0
 10
138.123
 20
-10.5618
 30
0.0
 10
136.2118
 20
-8.6316
 30
0.0
 10
135.4426
 20
-6.3305
 30
0.0
 10
135.6657
 20
-3.2116
 30
0.0
 10
135.6657
 20
-3.2116
 30
0.0
 10
135.9506
 20
0.7699
 30
0.0
 10
137.9047
 20
3.6397
 30
0.0
 10
141.5537
 20
5.4361
 30
0.0
 10
141.5537
 20
5.4361
 30
0.0
 10
143.6727
 20
6.4792
 30
0.0
 10
144.2494
 20
6.6039
 30
0.0
 10
146.9554
 20
6.6039
 30
0.0
 10
146.9554
 20
6.6039
 30
0.0
 10
149.5995
 20
6.6039
 30
0.0
 10
150.2459
 20
6.4716
 30
0.0
 10
152.0374
 20
5.5639
 30
0.0
 10
152.0374
 20
5.5639
 30
0.0
 10
154.7078
 20
4.2108
 30
0.0
 10
157.872
 20
1.0925
 30
0.0
 10
159.2874
 20
-1.5807
 30
0.0
 10
159.2874
 20
-1.5807
 30
0.0
 10
162.5544
 20
-7.7509
 30
0.0
 10
162.2564
 20
-15.806
 30
0.0
 10
158.4914
 20
-23.0957
 30
0.0
 10
158.4914
 20
-23.0957
 30
0.0
 10
152.4601
 20
-34.7734
 30
0.0
 10
138.6699
 20
-40.3537
 30
0.0
 10
126.6011
 20
-36.0003
 30
0.0
 10
126.6011
 20
-36.0003
 30
0.0
 10
120.9689
 20
-33.9686
 30
0.0
 10
115.7285
 20
-29.7153
 30
0.0
 10
113.7855
 20
-25.5985
 30
0.0
 10
113.7855
 20
-25.5985
 30
0.0
 10
111.6986
 20
-21.177
 30
0.0
 10
112.1782
 20
-15.1331
 30
0.0
 10
114.826
 20
-12.4853
 30
0.0
 10
114.826
 20
-12.4853
 30
0.0
 10
116.2757
 20
-11.0354
 30
0.0
 10
118.7821
 20
-10.9335
 30
0.0
 10
120.1978
 20
-12.5793
 30
0.0
 10
120.1978
 20
-12.5793
 30
0.0
 10
121.9119
 20
-14.5722
 30
0.0
 10
120.751
 20
-18.8162
 30
0.0
 10
118.4916
 20
-18.8162
 30
0.0
 10
118.4916
 20
-18.8162
 30
0.0
 10
117.9576
 20
-18.8162
 30
0.0
 10
118.1204
 20
-18.0385
 30
0.0
 10
118.7508
 20
-17.5774
 30
0.0
 10
118.7508
 20
-17.5774
 30
0.0
 10
119.6429
 20
-16.925
 30
0.0
 10
119.119
 20
-15.2608
 30
0.0
 10
118.0215
 20
-15.2608
 30
0.0
 10
118.0215
 20
-15.2608
 30
0.0
 10
116.9333
 20
-15.2608
 30
0.0
 10
116.0319
 20
-16.6365
 30
0.0
 10
116.0319
 20
-18.2977
 30
0.0
 10
116.0319
 20
-18.2977
 30
0.0
 10
116.0319
 20
-21.2432
 30
0.0
 10
119.7097
 20
-22.7153
 30
0.0
 10
122.4351
 20
-20.8604
 30
0.0
 10
122.4351
 20
-20.8604
 30
0.0
 10
124.4364
 20
-19.4983
 30
0.0
 10
125.0865
 20
-18.3153
 30
0.0
 10
125.0823
 20
-16.0426
 30
0.0
 10
125.0823
 20
-16.0426
 30
0.0
 10
125.0678
 20
-8.0786
 30
0.0
 10
115.1947
 20
-5.5635
 30
0.0
 10
112.0299
 20
-12.7177
 30
0.0
 10
112.0299
 20
-12.7177
 30
0.0
 10
108.2046
 20
-21.3654
 30
0.0
 10
114.5895
 20
-33.6242
 30
0.0
 10
125.0299
 20
-37.6772
 30
0.0
 10
125.0299
 20
-37.6772
 30
0.0
 10
129.2669
 20
-39.3221
 30
0.0
 10
133.2519
 20
-39.8988
 30
0.0
 10
138.9634
 20
-39.6938
 30
0.0
 10
138.9634
 20
-39.6938
 30
0.0
 10
142.4587
 20
-39.5684
 30
0.0
 10
144.7347
 20
-39.2943
 30
0.0
 10
146.6071
 20
-38.7732
 30
0.0
 10
146.6071
 20
-38.7732
 30
0.0
 10
148.0737
 20
-38.3651
 30
0.0
 10
149.3776
 20
-38.0274
 30
0.0
 10
149.5047
 20
-38.0228
 30
0.0
 10
149.5047
 20
-38.0228
 30
0.0
 10
149.2957
 20
-41.2892
 30
0.0
 10
150.3338
 20
-43.7208
 30
0.0
 10
152.9197
 20
-45.0674
 30
0.0
 10
152.9197
 20
-45.0674
 30
0.0
 10
149.609
 20
-44.3101
 30
0.0
 10
147.3224
 20
-44.8549
 30
0.0
 10
144.2261
 20
-46.4282
 30
0.0
 10
144.2261
 20
-46.4282
 30
0.0
 10
140.1876
 20
-48.4804
 30
0.0
 10
138.4021
 20
-49.7682
 30
0.0
 10
134.6518
 20
-53.3333
 30
0.0
 10
134.6518
 20
-53.3333
 30
0.0
 10
132.1522
 20
-55.7094
 30
0.0
 10
130.9272
 20
-56.5995
 30
0.0
 10
129.3188
 20
-57.2084
 30
0.0
 10
129.3188
 20
-57.2084
 30
0.0
 10
125.8645
 20
-58.5159
 30
0.0
 10
120.5325
 20
-58.1358
 30
0.0
 10
119.0294
 20
-56.475
 30
0.0
 10
119.0294
 20
-56.475
 30
0.0
 10
118.4635
 20
-55.8497
 30
0.0
 10
118.6075
 20
-55.7081
 30
0.0
 10
122.1451
 20
-53.4054
 30
0.0
 10
122.1451
 20
-53.4054
 30
0.0
 10
125.7008
 20
-51.0908
 30
0.0
 10
128.1679
 20
-49.792
 30
0.0
 10
138.7855
 20
-44.6442
 30
0.0
 10
138.7855
 20
-44.6442
 30
0.0
 10
141.4252
 20
-43.3644
 30
0.0
 10
143.9051
 20
-42.0615
 30
0.0
 10
144.2961
 20
-41.749
 30
0.0
 10
144.2961
 20
-41.749
 30
0.0
 10
144.9753
 20
-41.2062
 30
0.0
 10
144.9537
 20
-41.1912
 30
0.0
 10
143.813
 20
-41.4121
 30
0.0
 10
143.813
 20
-41.4121
 30
0.0
 10
143.1562
 20
-41.5392
 30
0.0
 10
140.6526
 20
-42.2568
 30
0.0
 10
138.2493
 20
-43.0066
 30
0.0
 10
138.2493
 20
-43.0066
 30
0.0
 10
135.8461
 20
-43.7564
 30
0.0
 10
132.9436
 20
-44.5344
 30
0.0
 10
131.7996
 20
-44.7357
 30
0.0
 10
131.7996
 20
-44.7357
 30
0.0
 10
130.6555
 20
-44.937
 30
0.0
 10
124.9199
 20
-45.1408
 30
0.0
 10
119.0537
 20
-45.1889
 30
0.0
 10
119.0537
 20
-45.1889
 30
0.0
 10
113.4826
 20
-45.2803
 30
0.0
 10
107.2478
 20
-45.1962
 30
0.0
 10
100.9891
 20
-42.1921
 30
0.0
 10
100.9891
 20
-42.1921
 30
0.0
 10
100.9891
 20
-42.1921
 30
0.0
 10
102.022
 20
-41.7518
 30
0.0
 10
102.022
 20
-41.7518
 30
0.0
 10
102.022
 20
-41.7518
 30
0.0
 10
104.5064
 20
-40.6929
 30
0.0
 10
104.6938
 20
-39.7467
 30
0.0
 10
103.22
 20
-35.7037
 30
0.0
 10
103.22
 20
-35.7037
 30
0.0
 10
101.9698
 20
-32.2743
 30
0.0
 10
102.5873
 20
-27.7731
 30
0.0
 10
104.7198
 20
-24.7713
 30
0.0
 10
104.7198
 20
-24.7713
 30
0.0
 10
105.4137
 20
-23.7943
 30
0.0
 10
105.4137
 20
-23.7936
 30
0.0
 10
104.6666
 20
-23.7936
 30
0.0
 10
104.6666
 20
-23.7936
 30
0.0
 10
103.1829
 20
-23.7936
 30
0.0
 10
100.3593
 20
-26.055
 30
0.0
 10
99.3191
 20
-28.0765
 30
0.0
 10
99.3191
 20
-28.0765
 30
0.0
 10
98.9624
 20
-28.77
 30
0.0
 10
98.5589
 20
-29.9317
 30
0.0
 10
98.4226
 20
-30.658
 30
0.0
 10
98.4226
 20
-30.658
 30
0.0
 10
97.9452
 20
-33.2032
 30
0.0
 10
97.4812
 20
-32.4921
 30
0.0
 10
97.7333
 20
-29.6017
 30
0.0
 10
97.7333
 20
-29.6017
 30
0.0
 10
97.9246
 20
-27.4088
 30
0.0
 10
97.8534
 20
-26.5036
 30
0.0
 10
97.4055
 20
-25.4316
 30
0.0
 10
97.4055
 20
-25.4316
 30
0.0
 10
96.134
 20
-22.1442
 30
0.0
 10
97.5805
 20
-19.2602
 30
0.0
 10
102.3441
 20
-19.1157
 30
0.0
 10
102.3441
 20
-19.1157
 30
0.0
 10
98.8156
 20
-17.8295
 30
0.0
 10
95.669
 20
-19.0895
 30
0.0
 10
93.0841
 20
-22.3952
 30
0.0
 10
93.0841
 20
-22.3952
 30
0.0
 10
92.169
 20
-23.7157
 30
0.0
 10
92.0855
 20
-24.1071
 30
0.0
 10
92.079
 20
-27.1032
 30
0.0
 10
92.079
 20
-27.1032
 30
0.0
 10
92.0714
 20
-30.678
 30
0.0
 10
92.5773
 20
-33.2632
 30
0.0
 10
93.8546
 20
-36.1753
 30
0.0
 10
93.8546
 20
-36.1753
 30
0.0
 10
94.9941
 20
-38.7734
 30
0.0
 10
94.1506
 20
-38.3615
 30
0.0
 10
92.4706
 20
-35.4993
 30
0.0
 10
92.4706
 20
-35.4993
 30
0.0
 10
90.8725
 20
-32.7769
 30
0.0
 10
89.7619
 20
-29.4039
 30
0.0
 10
89.4788
 20
-26.4133
 30
0.0
 10
89.4788
 20
-26.4133
 30
0.0
 10
89.1978
 20
-23.4455
 30
0.0
 10
89.5571
 20
-21.874
 30
0.0
 10
90.8543
 20
-20.3966
 30
0.0
 10
90.8543
 20
-20.3966
 30
0.0
 10
92.3449
 20
-18.6988
 30
0.0
 10
91.8908
 20
-18.4655
 30
0.0
 10
90.1525
 20
-20.0359
 30
0.0
 10
90.1525
 20
-20.0359
 30
0.0
 10
88.3701
 20
-21.6462
 30
0.0
 10
87.1791
 20
-24.3791
 30
0.0
 10
86.9656
 20
-27.3488
 30
0.0
 10
86.9656
 20
-27.3488
 30
0.0
 10
86.7709
 20
-30.0571
 30
0.0
 10
87.2389
 20
-32.0656
 30
0.0
 10
88.4967
 20
-33.919
 30
0.0
 10
88.4967
 20
-33.919
 30
0.0
 10
89.5094
 20
-35.4114
 30
0.0
 10
89.3987
 20
-35.9863
 30
0.0
 10
88.2915
 20
-34.9843
 30
0.0
 10
88.2915
 20
-34.9843
 30
0.0
 10
86.3001
 20
-33.1821
 30
0.0
 10
86.057
 20
-32.2596
 30
0.0
 10
85.7728
 20
-25.4262
 30
0.0
 10
85.7728
 20
-25.4262
 30
0.0
 10
85.6257
 20
-21.8885
 30
0.0
 10
85.4944
 20
-18.9655
 30
0.0
 10
85.4809
 20
-18.9306
 30
0.0
 10
85.4809
 20
-18.9306
 30
0.0
 10
85.3034
 20
-17.691
 30
0.0
 10
84.643
 20
-17.2669
 30
0.0
 10
84.4174
 20
-17.2669
 30
0.0
 10
84.4174
 20
-17.2669
 30
0.0
 10
84.2612
 20
-17.2669
 30
0.0
 10
83.6887
 20
-18.4296
 30
0.0
 10
83.5876
 20
-19.2607
 30
0.0
 10
83.5876
 20
-19.2607
 30
0.0
 10
83.3974
 20
-20.8252
 30
0.0
 10
82.6986
 20
-22.9318
 30
0.0
 10
82.4518
 20
-22.6849
 30
0.0
 10
82.4518
 20
-22.6849
 30
0.0
 10
82.0874
 20
-22.3205
 30
0.0
 10
81.1482
 20
-15.6317
 30
0.0
 10
80.8193
 20
-11.0571
 30
0.0
 10
80.8193
 20
-11.0571
 30
0.0
 10
80.4033
 20
-5.2728
 30
0.0
 10
80.6747
 20
-2.9595
 30
0.0
 10
82.0991
 20
-0.1512
 30
0.0
 10
82.0991
 20
-0.1512
 30
0.0
 10
84.2576
 20
4.1047
 30
0.0
 10
84.9429
 20
4.0282
 30
0.0
 10
85.4969
 20
-0.5308
 30
0.0
 10
85.4969
 20
-0.5308
 30
0.0
 10
85.7092
 20
-2.2774
 30
0.0
 10
86.2649
 20
-4.9064
 30
0.0
 10
86.7318
 20
-6.3729
 30
0.0
 10
86.7318
 20
-6.3729
 30
0.0
 10
87.7338
 20
-9.5199
 30
0.0
 10
87.744
 20
-9.6094
 30
0.0
 10
87.0712
 20
-9.3513
 30
0.0
 10
87.0712
 20
-9.3513
 30
0.0
 10
86.2989
 20
-9.0549
 30
0.0
 10
84.2444
 20
-9.8366
 30
0.0
 10
83.3812
 20
-10.7555
 30
0.0
 10
83.3812
 20
-10.7555
 30
0.0
 10
82.5954
 20
-11.5919
 30
0.0
 10
81.9324
 20
-13.8485
 30
0.0
 10
82.4791
 20
-13.8263
 30
0.0
 10
82.4791
 20
-13.8263
 30
0.0
 10
82.6503
 20
-13.8193
 30
0.0
 10
83.1902
 20
-13.5851
 30
0.0
 10
83.679
 20
-13.3056
 30
0.0
 10
83.679
 20
-13.3056
 30
0.0
 10
85.1657
 20
-12.4558
 30
0.0
 10
86.7248
 20
-12.6871
 30
0.0
 10
89.7446
 20
-14.2054
 30
0.0
 10
89.7446
 20
-14.2054
 30
0.0
 10
93.5069
 20
-16.0969
 30
0.0
 10
96.3087
 20
-16.7907
 30
0.0
 10
100.211
 20
-16.7967
 30
0.0
 10
100.211
 20
-16.7967
 30
0.0
 10
102.8405
 20
-16.8008
 30
0.0
 10
103.6885
 20
-16.6587
 30
0.0
 10
104.9699
 20
-15.9995
 30
0.0
 10
104.9699
 20
-15.9995
 30
0.0
 10
106.8451
 20
-15.0347
 30
0.0
 10
106.9618
 20
-15.1552
 30
0.0
 10
107.2944
 20
-18.4017
 30
0.0
 10
107.2944
 20
-18.4017
 30
0.0
 10
107.5919
 20
-21.3046
 30
0.0
 10
108.8925
 20
-25.1966
 30
0.0
 10
110.8192
 20
-28.9487
 30
0.0
 10
110.8192
 20
-28.9487
 30
0.0
 10
111.9012
 20
-31.0556
 30
0.0
 10
113.0849
 20
-32.6106
 30
0.0
 10
115.3856
 20
-34.9476
 30
0.0
 10
115.3856
 20
-34.9476
 30
0.0
 10
115.3856
 20
-34.9476
 30
0.0
 10
118.4915
 20
-38.1024
 30
0.0
 10
118.4915
 20
-38.1024
 30
0.0
 10
118.4915
 20
-38.1024
 30
0.0
 10
116.2934
 20
-37.8109
 30
0.0
 10
114.1916
 20
-37.4031
 30
0.0
 10
112.065
 20
-36.7314
 30
0.0
 10
112.065
 20
-36.7314
 30
0.0
 10
110.5086
 20
-36.2397
 30
0.0
 10
109.0131
 20
-35.8874
 30
0.0
 10
108.742
 20
-35.9484
 30
0.0
 10
108.742
 20
-35.9484
 30
0.0
 10
107.9775
 20
-36.1203
 30
0.0
 10
112.5854
 20
-39.3691
 30
0.0
 10
115.5106
 20
-40.7206
 30
0.0
 10
115.5106
 20
-40.7206
 30
0.0
 10
120.0205
 20
-42.8043
 30
0.0
 10
121.9392
 20
-43.1706
 30
0.0
 10
128.2974
 20
-43.1622
 30
0.0
 10
128.2974
 20
-43.1622
 30
0.0
 10
130.0978
 20
-43.1599
 30
0.0
 10
135.4235
 20
-43.0647
 30
0.0
 10
138.0745
 20
-41.7795
 30
0.0
 10
138.0745
 20
-41.7795
 30
0.0
 10
138.0745
 20
-41.7271
 30
0.0
 10
136.7206
 20
-41.6643
 30
0.0
 10
135.0658
 20
-41.6401
 30
0.0
 10
135.0658
 20
-41.6401
 30
0.0
 10
128.3528
 20
-41.542
 30
0.0
 10
119.7245
 20
-37.8954
 30
0.0
 10
115.5586
 20
-33.3959
 30
0.0
 10
115.5586
 20
-33.3959
 30
0.0
 10
111.3997
 20
-28.9039
 30
0.0
 10
108.9833
 20
-23.2935
 30
0.0
 10
108.6571
 20
-17.3718
 30
0.0
 10
108.6571
 20
-17.3718
 30
0.0
 10
108.6571
 20
-17.3718
 30
0.0
 10
108.4696
 20
-13.9709
 30
0.0
 10
108.4696
 20
-13.9709
 30
0.0
 10
108.4696
 20
-13.9709
 30
0.0
 10
108.4696
 20
-13.9709
 30
0.0
 10
109.7319
 20
-12.3172
 30
0.0
 10
109.7319
 20
-12.3172
 30
0.0
 10
109.7319
 20
-12.3172
 30
0.0
 10
111.6205
 20
-9.8431
 30
0.0
 10
112.4766
 20
-7.2214
 30
0.0
 10
112.4766
 20
-3.9119
 30
0.0
 10
112.4766
 20
-3.9119
 30
0.0
 10
112.4766
 20
1.2121
 30
0.0
 10
109.6812
 20
6.14
 30
0.0
 10
106.7561
 20
8.5326
 30
0.0
  0
SPLINE
  5
4E
330
1F
100
AcDbEntity
  8
layer 1
 62
     7
100
AcDbSpline
210
0.0
220
0.0
230
1.0
 70
    11
 71
     3
 72
    48
 73
    44
 74
     0
 42
0.0000000001
 43
0.0000000001
 12
1.0
 22
0.0
 32
0.0
 13
1.0
 23
0.0
 33
0.0
 40
0.0
 40
0.0
 40
0.0
 40
0.0
 40
0.0833333333333333
 40
0.0833333333333333
 40
0.0833333333333333
 40
0.0833333333333333
 40
0.1666666666666667
 40
0.1666666666666667
 40
0.1666666666666667
 40
0.1666666666666667
 40
0.25
 40
0.25
 40
0.25
 40
0.25
 40
0.3333333333333333
 40
0.3333333333333333
 40
0.3333333333333333
 40
0.3333333333333333
 40
0.4166666666666667
 40
0.4166666666666667
 40
0.4166666666666667
 40
0.4166666666666667
 40
0.5
 40
0.5
 40
0.5
 40
0.5
 40
0.5833333333333334
 40
0.5833333333333334
 40
0.5833333333333334
 40
0.5833333333333334
 40
0.6666666666666666
 40
0.6666666666666666
 40
0.6666666666666666
 40
0.6666666666666666
 40
0.75
 40
0.75
 40
0.75
 40
0.75
 40
0.8333333333333334
 40
0.8333333333333334
 40
0.8333333333333334
 40
0.8333333333333334
 40
1.0
 40
1.0
 40
1.0
 40
1.0
 10
170.01
 20
-28.2036
 30
0.0
 10
168.9184
 20
-28.1099
 30
0.0
 10
168.2161
 20
-27.3003
 30
0.0
 10
167.6469
 20
-25.9266
 30
0.0
 10
167.6469
 20
-25.9266
 30
0.0
 10
166.0304
 20
-21.4035
 30
0.0
 10
165.8733
 20
-17.4378
 30
0.0
 10
165.4503
 20
-11.1681
 30
0.0
 10
165.4503
 20
-11.1681
 30
0.0
 10
164.9687
 20
-4.0281
 30
0.0
 10
163.7819
 20
-0.9209
 30
0.0
 10
160.1128
 20
2.8066
 30
0.0
 10
160.1128
 20
2.8066
 30
0.0
 10
159.0964
 20
3.8391
 30
0.0
 10
157.4007
 20
5.1715
 30
0.0
 10
156.3448
 20
5.7675
 30
0.0
 10
156.3448
 20
5.7675
 30
0.0
 10
154.7793
 20
6.651
 30
0.0
 10
154.058
 20
7.4595
 30
0.0
 10
154.1047
 20
8.4444
 30
0.0
 10
154.1047
 20
8.4444
 30
0.0
 10
154.058
 20
9.4294
 30
0.0
 10
154.7793
 20
10.265
 30
0.0
 10
156.3448
 20
11.1485
 30
0.0
 10
156.3448
 20
11.1485
 30
0.0
 10
157.4007
 20
11.7445
 30
0.0
 10
159.0964
 20
13.0769
 30
0.0
 10
160.1128
 20
14.1094
 30
0.0
 10
160.1128
 20
14.1094
 30
0.0
 10
163.7819
 20
17.8369
 30
0.0
 10
164.9687
 20
20.9441
 30
0.0
 10
165.4503
 20
28.0841
 30
0.0
 10
165.4503
 20
28.0841
 30
0.0
 10
165.8733
 20
34.3538
 30
0.0
 10
166.0304
 20
38.3196
 30
0.0
 10
167.6469
 20
42.8427
 30
0.0
 10
167.6469
 20
42.8427
 30
0.0
 10
168.2161
 20
44.2163
 30
0.0
 10
168.9184
 20
45.0259
 30
0.0
 10
170.01
 20
45.1196
 30
0.0
 10
170.01
 20
45.1196
 30
0.0
 10
170.01
 20
20.6786
 30
0.0
 10
170.01
 20
-3.7626
 30
0.0
 10
170.01
 20
-28.2036
 30
0.0
  0
SPLINE
  5
4F
330
1F
100
AcDbEntity
  8
layer 1
 62
     7
100
AcDbSpline
210
0.0
220
0.0
230
1.0
 70
    11
 71
     3
 72
    40
 73
    36
 74
     0
 42
0.0000000001
 43
0.0000000001
 12
1.0
 22
0.0
 32
0.0
 13
1.0
 23
0.0
 33
0.0
 40
0.0
 40
0.0
 40
0.0
 40
0.0
 40
0.1
 40
0.1
 40
0.1
 40
0.1
 40
0.2
 40
0.2
 40
0.2
 40
0.2
 40
0.3
 40
0.3
 40
0.3
 40
0.3
 40
0.4
 40
0.4
 40
0.4
 40
0.4
 40
0.5
 40
0.5
 40
0.5
 40
0.5
 40
0.6
 40
0.6
 40
0.6
 40
0.6
 40
0.7
 40
0.7
 40
0.7
 40
0.7
 40
0.8
 40
0.8
 40
0.8
 40
0.8
 40
1.0
 40
1.0
 40
1.0
 40
1.0
 10
170.0722
 20
-33.3995
 30
0.0
 10
170.0722
 20
-35.3831
 30
0.0
 10
170.0722
 20
-37.6411
 30
0.0
 10
170.0722
 20
-39.6258
 30
0.0
 10
170.0722
 20
-39.6258
 30
0.0
 10
169.4648
 20
-37.1384
 30
0.0
 10
166.4335
 20
-33.6307
 30
0.0
 10
163.6775
 20
-33.7678
 30
0.0
 10
163.6775
 20
-33.7678
 30
0.0
 10
160.7877
 20
-33.9116
 30
0.0
 10
158.8361
 20
-37.5748
 30
0.0
 10
160.8169
 20
-39.5208
 30
0.0
 10
160.8169
 20
-39.5208
 30
0.0
 10
162.0906
 20
-40.7944
 30
0.0
 10
163.9452
 20
-40.5881
 30
0.0
 10
164.6361
 20
-39.4817
 30
0.0
 10
164.6361
 20
-39.4817
 30
0.0
 10
165.1978
 20
-38.5822
 30
0.0
 10
166.0516
 20
-39.3295
 30
0.0
 10
166.3335
 20
-40.2177
 30
0.0
 10
166.3335
 20
-40.2177
 30
0.0
 10
166.6842
 20
-41.3226
 30
0.0
 10
165.6328
 20
-42.8894
 30
0.0
 10
164.0665
 20
-43.5957
 30
0.0
 10
164.0665
 20
-43.5957
 30
0.0
 10
161.0497
 20
-44.9559
 30
0.0
 10
157.6317
 20
-43.5396
 30
0.0
 10
155.94
 20
-40.2283
 30
0.0
 10
155.94
 20
-40.2283
 30
0.0
 10
154.5053
 20
-37.4202
 30
0.0
 10
154.8142
 20
-33.6473
 30
0.0
 10
157.3928
 20
-31.5218
 30
0.0
 10
157.3928
 20
-31.5218
 30
0.0
 10
161.7921
 20
-28.1617
 30
0.0
 10
168.0997
 20
-28.3431
 30
0.0
 10
170.0722
 20
-33.3995
 30
0.0
  0
SPLINE
  5
50
330
1F
100
AcDbEntity
  8
layer 1
 62
     7
100
AcDbSpline
210
0.0
220
0.0
230
1.0
 70
    11
 71
     3
 72
   108
 73
   104
 74
     0
 42
0.0000000001
 43
0.0000000001
 12
1.0
 22
0.0
 32
0.0
 13
1.0
 23
0.0
 33
0.0
 40
0.0
 40
0.0
 40
0.0
 40
0.0
 40
0.037037037037037
 40
0.037037037037037
 40
0.037037037037037
 40
0.037037037037037
 40
0.0740740740740741
 40
0.0740740740740741
 40
0.0740740740740741
 40
0.0740740740740741
 40
0.1111111111111111
 40
0.1111111111111111
 40
0.1111111111111111
 40
0.1111111111111111
 40
0.1481481481481481
 40
0.1481481481481481
 40
0.1481481481481481
 40
0.1481481481481481
 40
0.1851851851851852
 40
0.1851851851851852
 40
0.1851851851851852
 40
0.1851851851851852
 40
0.2222222222222222
 40
0.2222222222222222
 40
0.2222222222222222
 40
0.2222222222222222
 40
0.2592592592592592
 40
0.2592592592592592
 40
0.2592592592592592
 40
0.2592592592592592
 40
0.2962962962962963
 40
0.2962962962962963
 40
0.2962962962962963
 40
0.2962962962962963
 40
0.3333333333333333
 40
0.3333333333333333
 40
0.3333333333333333
 40
0.3333333333333333
 40
0.3703703703703703
 40
0.3703703703703703
 40
0.3703703703703703
 40
0.3703703703703703
 40
0.4074074074074074
 40
0.4074074074074074
 40
0.4074074074074074
 40
0.4074074074074074
 40
0.4444444444444444
 40
0.4444444444444444
 40
0.4444444444444444
 40
0.4444444444444444
 40
0.4814814814814815
 40
0.4814814814814815
 40
0.4814814814814815
 40
0.4814814814814815
 40
0.5185185185185185
 40
0.5185185185185185
 40
0.5185185185185185
 40
0.5185185185185185
 40
0.5555555555555556
 40
0.5555555555555556
 40
0.5555555555555556
 40
0.5555555555555556
 40
0.5925925925925926
 40
0.5925925925925926
 40
0.5925925925925926
 40
0.5925925925925926
 40
0.6296296296296297
 40
0.6296296296296297
 40
0.6296296296296297
 40
0.6296296296296297
 40
0.6666666666666666
 40
0.6666666666666666
 40
0.6666666666666666
 40
0.6666666666666666
 40
0.7037037037037037
 40
0.7037037037037037
 40
0.7037037037037037
 40
0.7037037037037037
 40
0.7407407407407407
 40
0.7407407407407407
 40
0.7407407407407407
 40
0.7407407407407407
 40
0.7777777777777778
 40
0.7777777777777778
 40
0.7777777777777778
 40
0.7777777777777778
 40
0.8148148148148148
 40
0.8148148148148148
 40
0.8148148148148148
 40
0.8148148148148148
 40
0.8518518518518519
 40
0.8518518518518519
 40
0.8518518518518519
 40
0.8518518518518519
 40
0.8888888888888888
 40
0.8888888888888888
 40
0.8888888888888888
 40
0.8888888888888888
 40
0.9259259259259259
 40
0.9259259259259259
 40
0.9259259259259259
 40
0.9259259259259259
 40
1.0
 40
1.0
 40
1.0
 40
1.0
 10
169.9816
 20
-42.4488
 30
0.0
 10
169.9816
 20
-64.3736
 30
0.0
 10
170.0722
 20
-87.1965
 30
0.0
 10
170.0722
 20
-109.1211
 30
0.0
 10
170.0722
 20
-109.1211
 30
0.0
 10
170.0722
 20
-109.1211
 30
0.0
 10
160.9535
 20
-109.1211
 30
0.0
 10
160.9535
 20
-109.1211
 30
0.0
 10
160.9535
 20
-109.1211
 30
0.0
 10
160.9535
 20
-109.1211
 30
0.0
 10
160.9683
 20
-106.188
 30
0.0
 10
160.9683
 20
-106.188
 30
0.0
 10
160.9683
 20
-106.188
 30
0.0
 10
160.9801
 20
-103.8275
 30
0.0
 10
160.7591
 20
-102.561
 30
0.0
 10
159.8357
 20
-99.6997
 30
0.0
 10
159.8357
 20
-99.6997
 30
0.0
 10
158.4703
 20
-95.469
 30
0.0
 10
157.2324
 20
-93.2114
 30
0.0
 10
154.9619
 20
-90.8115
 30
0.0
 10
154.9619
 20
-90.8115
 30
0.0
 10
153.1624
 20
-88.9093
 30
0.0
 10
152.2958
 20
-87.2954
 30
0.0
 10
152.2958
 20
-85.8455
 30
0.0
 10
152.2958
 20
-85.8455
 30
0.0
 10
152.2958
 20
-84.5495
 30
0.0
 10
152.8864
 20
-84.7372
 30
0.0
 10
153.6754
 20
-86.284
 30
0.0
 10
153.6754
 20
-86.284
 30
0.0
 10
154.3745
 20
-87.6544
 30
0.0
 10
156.5905
 20
-89.8067
 30
0.0
 10
159.3701
 20
-91.8149
 30
0.0
 10
159.3701
 20
-91.8149
 30
0.0
 10
161.5116
 20
-93.3622
 30
0.0
 10
162.2493
 20
-94.8764
 30
0.0
 10
162.256
 20
-97.7387
 30
0.0
 10
162.256
 20
-97.7387
 30
0.0
 10
162.259
 20
-99.0127
 30
0.0
 10
162.4111
 20
-100.2917
 30
0.0
 10
162.5939
 20
-100.5809
 30
0.0
 10
162.5939
 20
-100.5809
 30
0.0
 10
163.0999
 20
-101.381
 30
0.0
 10
164.6883
 20
-97.6245
 30
0.0
 10
164.9655
 20
-94.9725
 30
0.0
 10
164.9655
 20
-94.9725
 30
0.0
 10
165.5367
 20
-89.5072
 30
0.0
 10
164.0049
 20
-83.8979
 30
0.0
 10
158.379
 20
-81.7148
 30
0.0
 10
158.379
 20
-81.7148
 30
0.0
 10
156.5651
 20
-81.0108
 30
0.0
 10
156.5531
 20
-80.4763
 30
0.0
 10
158.351
 20
-80.4647
 30
0.0
 10
158.351
 20
-80.4647
 30
0.0
 10
160.1755
 20
-80.1375
 30
0.0
 10
162.41
 20
-79.5361
 30
0.0
 10
164.3472
 20
-77.3326
 30
0.0
 10
164.3472
 20
-77.3326
 30
0.0
 10
167.4543
 20
-73.9491
 30
0.0
 10
167.903
 20
-68.5519
 30
0.0
 10
165.9768
 20
-65.5147
 30
0.0
 10
165.9768
 20
-65.5147
 30
0.0
 10
163.525
 20
-60.9723
 30
0.0
 10
157.7465
 20
-60.5778
 30
0.0
 10
155.3416
 20
-63.2291
 30
0.0
 10
155.3416
 20
-63.2291
 30
0.0
 10
153.1992
 20
-65.0318
 30
0.0
 10
153.3301
 20
-68.7414
 30
0.0
 10
155.3915
 20
-70.3629
 30
0.0
 10
155.3915
 20
-70.3629
 30
0.0
 10
156.6363
 20
-71.3422
 30
0.0
 10
158.4961
 20
-71.3063
 30
0.0
 10
159.2084
 20
-70.2894
 30
0.0
 10
159.2084
 20
-70.2894
 30
0.0
 10
160.1941
 20
-68.8821
 30
0.0
 10
160.2341
 20
-66.933
 30
0.0
 10
157.451
 20
-66.2856
 30
0.0
 10
157.451
 20
-66.2856
 30
0.0
 10
156.8374
 20
-65.8322
 30
0.0
 10
157.1821
 20
-65.5165
 30
0.0
 10
157.6422
 20
-65.2086
 30
0.0
 10
157.6422
 20
-65.2086
 30
0.0
 10
159.1402
 20
-64.2872
 30
0.0
 10
160.6399
 20
-65.0271
 30
0.0
 10
161.9042
 20
-66.0566
 30
0.0
 10
161.9042
 20
-66.0566
 30
0.0
 10
166.0656
 20
-70.3357
 30
0.0
 10
160.9866
 20
-76.9705
 30
0.0
 10
154.6224
 20
-76.9739
 30
0.0
 10
154.6224
 20
-76.9739
 30
0.0
 10
151.5277
 20
-76.8509
 30
0.0
 10
149.2735
 20
-75.35
 30
0.0
 10
147.605
 20
-72.2844
 30
0.0
 10
147.605
 20
-72.2844
 30
0.0
 10
146.3423
 20
-69.9646
 30
0.0
 10
146.1997
 20
-66.4889
 30
0.0
 10
146.9232
 20
-64.0001
 30
0.0
 10
146.9232
 20
-64.0001
 30
0.0
 10
147.9334
 20
-60.5248
 30
0.0
 10
151.6079
 20
-56.42
 30
0.0
 10
157.6442
 20
-52.9255
 30
0.0
 10
157.6442
 20
-52.9255
 30
0.0
 10
162.2018
 20
-50.287
 30
0.0
 10
169.3005
 20
-48.8063
 30
0.0
 10
169.9816
 20
-42.4488
 30
0.0
  0
SPLINE
  5
51
330
1F
100
AcDbEntity
  8
layer 1
 62
     7
100
AcDbSpline
210
0.0
220
0.0
230
1.0
 70
    11
 71
     3
 72
    84
 73
    80
 74
     0
 42
0.0000000001
 43
0.0000000001
 12
1.0
 22
0.0
 32
0.0
 13
1.0
 23
0.0
 33
0.0
 40
0.0
 40
0.0
 40
0.0
 40
0.0
 40
0.0476190476190476
 40
0.0476190476190476
 40
0.0476190476190476
 40
0.0476190476190476
 40
0.0952380952380952
 40
0.0952380952380952
 40
0.0952380952380952
 40
0.0952380952380952
 40
0.1428571428571428
 40
0.1428571428571428
 40
0.1428571428571428
 40
0.1428571428571428
 40
0.1904761904761905
 40
0.1904761904761905
 40
0.1904761904761905
 40
0.1904761904761905
 40
0.2380952380952381
 40
0.2380952380952381
 40
0.2380952380952381
 40
0.2380952380952381
 40
0.2857142857142857
 40
0.2857142857142857
 40
0.2857142857142857
 40
0.2857142857142857
 40
0.3333333333333333
 40
0.3333333333333333
 40
0.3333333333333333
 40
0.3333333333333333
 40
0.3809523809523809
 40
0.3809523809523809
 40
0.3809523809523809
 40
0.3809523809523809
 40
0.4285714285714285
 40
0.4285714285714285
 40
0.4285714285714285
 40
0.4285714285714285
 40
0.4761904761904762
 40
0.4761904761904762
 40
0.4761904761904762
 40
0.4761904761904762
 40
0.5238095238095238
 40
0.5238095238095238
 40
0.5238095238095238
 40
0.5238095238095238
 40
0.5714285714285714
 40
0.5714285714285714
 40
0.5714285714285714
 40
0.5714285714285714
 40
0.6190476190476191
 40
0.6190476190476191
 40
0.6190476190476191
 40
0.6190476190476191
 40
0.6666666666666666
 40
0.6666666666666666
 40
0.6666666666666666
 40
0.6666666666666666
 40
0.7142857142857143
 40
0.7142857142857143
 40
0.7142857142857143
 40
0.7142857142857143
 40
0.7619047619047619
 40
0.7619047619047619
 40
0.7619047619047619
 40
0.7619047619047619
 40
0.8095238095238095
 40
0.8095238095238095
 40
0.8095238095238095
 40
0.8095238095238095
 40
0.8571428571428571
 40
0.8571428571428571
 40
0.8571428571428571
 40
0.8571428571428571
 40
0.9047619047619048
 40
0.9047619047619048
 40
0.9047619047619048
 40
0.9047619047619048
 40
1.0
 40
1.0
 40
1.0
 40
1.0
 10
79.1402
 20
6.266
 30
0.0
 10
77.7571
 20
5.6448
 30
0.0
 10
77.4025
 20
4.9074
 30
0.0
 10
77.93
 20
3.7495
 30
0.0
 10
77.93
 20
3.7495
 30
0.0
 10
78.3892
 20
2.7418
 30
0.0
 10
78.1118
 20
2.4854
 30
0.0
 10
77.0125
 20
2.9009
 30
0.0
 10
77.0125
 20
2.9009
 30
0.0
 10
76.5445
 20
3.0777
 30
0.0
 10
76.2126
 20
3.503
 30
0.0
 10
76.2126
 20
3.9258
 30
0.0
 10
76.2126
 20
3.9258
 30
0.0
 10
76.2126
 20
4.331
 30
0.0
 10
75.9784
 20
4.6483
 30
0.0
 10
75.6793
 20
4.6483
 30
0.0
 10
75.6793
 20
4.6483
 30
0.0
 10
74.9373
 20
4.6483
 30
0.0
 10
75.0085
 20
4.1365
 30
0.0
 10
76.0348
 20
2.0932
 30
0.0
 10
76.0348
 20
2.0932
 30
0.0
 10
77.1087
 20
-0.0448
 30
0.0
 10
77.1203
 20
-0.3274
 30
0.0
 10
76.2078
 20
-2.116
 30
0.0
 10
76.2078
 20
-2.116
 30
0.0
 10
75.5168
 20
-3.4702
 30
0.0
 10
73.2893
 20
-4.614
 30
0.0
 10
72.3474
 20
-4.5092
 30
0.0
 10
72.3474
 20
-4.5092
 30
0.0
 10
72.3474
 20
-4.5092
 30
0.0
 10
72.3134
 20
-39.6147
 30
0.0
 10
72.3134
 20
-39.6147
 30
0.0
 10
72.3134
 20
-39.6147
 30
0.0
 10
72.3134
 20
-39.6147
 30
0.0
 10
73.1075
 20
-38.2193
 30
0.0
 10
73.1075
 20
-38.2193
 30
0.0
 10
73.1075
 20
-38.2193
 30
0.0
 10
74.3102
 20
-36.1059
 30
0.0
 10
76.364
 20
-35.1706
 30
0.0
 10
79.8028
 20
-35.1706
 30
0.0
 10
79.8028
 20
-35.1706
 30
0.0
 10
81.3248
 20
-35.1706
 30
0.0
 10
82.6638
 20
-35.0189
 30
0.0
 10
82.7784
 20
-34.8335
 30
0.0
 10
82.7784
 20
-34.8335
 30
0.0
 10
82.8931
 20
-34.6481
 30
0.0
 10
82.0625
 20
-33.8211
 30
0.0
 10
80.933
 20
-32.996
 30
0.0
 10
80.933
 20
-32.996
 30
0.0
 10
75.3168
 20
-28.8933
 30
0.0
 10
74.1023
 20
-27.3081
 30
0.0
 10
74.0872
 20
-24.0605
 30
0.0
 10
74.0872
 20
-24.0605
 30
0.0
 10
74.0829
 20
-23.1317
 30
0.0
 10
74.1747
 20
-22.3717
 30
0.0
 10
74.2912
 20
-22.3717
 30
0.0
 10
74.2912
 20
-22.3717
 30
0.0
 10
74.8587
 20
-22.3717
 30
0.0
 10
76.6061
 20
-23.9491
 30
0.0
 10
77.322
 20
-25.1075
 30
0.0
 10
77.322
 20
-25.1075
 30
0.0
 10
78.5461
 20
-27.0882
 30
0.0
 10
78.5411
 20
-25.8793
 30
0.0
 10
77.3142
 20
-23.1739
 30
0.0
 10
77.3142
 20
-23.1739
 30
0.0
 10
75.854
 20
-19.9545
 30
0.0
 10
75.4534
 20
-17.894
 30
0.0
 10
75.4643
 20
-13.6614
 30
0.0
 10
75.4643
 20
-13.6614
 30
0.0
 10
75.481
 20
-7.2758
 30
0.0
 10
77.5351
 20
-1.6078
 30
0.0
 10
81.5782
 20
3.2074
 30
0.0
 10
81.5782
 20
3.2074
 30
0.0
 10
83.2455
 20
5.1932
 30
0.0
 10
83.5466
 20
5.7374
 30
0.0
 10
83.157
 20
6.0607
 30
0.0
 10
83.157
 20
6.0607
 30
0.0
 10
82.3626
 20
6.72
 30
0.0
 10
80.3769
 20
6.8215
 30
0.0
 10
79.1402
 20
6.266
 30
0.0
  0
SPLINE
  5
52
330
1F
100
AcDbEntity
  8
layer 1
 62
     7
100
AcDbSpline
210
0.0
220
0.0
230
1.0
 70
    11
 71
     3
 72
   108
 73
   104
 74
     0
 42
0.0000000001
 43
0.0000000001
 12
1.0
 22
0.0
 32
0.0
 13
1.0
 23
0.0
 33
0.0
 40
0.0
 40
0.0
 40
0.0
 40
0.0
 40
0.037037037037037
 40
0.037037037037037
 40
0.037037037037037
 40
0.037037037037037
 40
0.0740740740740741
 40
0.0740740740740741
 40
0.0740740740740741
 40
0.0740740740740741
 40
0.1111111111111111
 40
0.1111111111111111
 40
0.1111111111111111
 40
0.1111111111111111
 40
0.1481481481481481
 40
0.1481481481481481
 40
0.1481481481481481
 40
0.1481481481481481
 40
0.1851851851851852
 40
0.1851851851851852
 40
0.1851851851851852
 40
0.1851851851851852
 40
0.2222222222222222
 40
0.2222222222222222
 40
0.2222222222222222
 40
0.2222222222222222
 40
0.2592592592592592
 40
0.2592592592592592
 40
0.2592592592592592
 40
0.2592592592592592
 40
0.2962962962962963
 40
0.2962962962962963
 40
0.2962962962962963
 40
0.2962962962962963
 40
0.3333333333333333
 40
0.3333333333333333
 40
0.3333333333333333
 40
0.3333333333333333
 40
0.3703703703703703
 40
0.3703703703703703
 40
0.3703703703703703
 40
0.3703703703703703
 40
0.4074074074074074
 40
0.4074074074074074
 40
0.4074074074074074
 40
0.4074074074074074
 40
0.4444444444444444
 40
0.4444444444444444
 40
0.4444444444444444
 40
0.4444444444444444
 40
0.4814814814814815
 40
0.4814814814814815
 40
0.4814814814814815
 40
0.4814814814814815
 40
0.5185185185185185
 40
0.5185185185185185
 40
0.5185185185185185
 40
0.5185185185185185
 40
0.5555555555555556
 40
0.5555555555555556
 40
0.5555555555555556
 40
0.5555555555555556
 40
0.5925925925925926
 40
0.5925925925925926
 40
0.5925925925925926
 40
0.5925925925925926
 40
0.6296296296296297
 40
0.6296296296296297
 40
0.6296296296296297
 40
0.6296296296296297
 40
0.6666666666666666
 40
0.6666666666666666
 40
0.6666666666666666
 40
0.6666666666666666
 40
0.7037037037037037
 40
0.7037037037037037
 40
0.7037037037037037
 40
0.7037037037037037
 40
0.7407407407407407
 40
0.7407407407407407
 40
0.7407407407407407
 40
0.7407407407407407
 40
0.7777777777777778
 40
0.7777777777777778
 40
0.7777777777777778
 40
0.7777777777777778
 40
0.8148148148148148
 40
0.8148148148148148
 40
0.8148148148148148
 40
0.8148148148148148
 40
0.8518518518518519
 40
0.8518518518518519
 40
0.8518518518518519
 40
0.8518518518518519
 40
0.8888888888888888
 40
0.8888888888888888
 40
0.8888888888888888
 40
0.8888888888888888
 40
0.9259259259259259
 40
0.9259259259259259
 40
0.9259259259259259
 40
0.9259259259259259
 40
1.0
 40
1.0
 40
1.0
 40
1.0
 10
91.265
 20
6.2204
 30
0.0
 10
89.2885
 20
7.1094
 30
0.0
 10
88.977
 20
7.1589
 30
0.0
 10
88.0782
 20
6.7269
 30
0.0
 10
88.0782
 20
6.7269
 30
0.0
 10
87.5302
 20
6.4635
 30
0.0
 10
86.8558
 20
5.8446
 30
0.0
 10
86.5794
 20
5.3515
 30
0.0
 10
86.5794
 20
5.3515
 30
0.0
 10
86.1208
 20
4.5331
 30
0.0
 10
86.1906
 20
4.1512
 30
0.0
 10
87.3791
 20
0.9779
 30
0.0
 10
87.3791
 20
0.9779
 30
0.0
 10
88.0953
 20
-0.9343
 30
0.0
 10
88.838
 20
-3.3251
 30
0.0
 10
89.0294
 20
-4.3348
 30
0.0
 10
89.0294
 20
-4.3348
 30
0.0
 10
89.7014
 20
-7.8784
 30
0.0
 10
91.8683
 20
-10.9619
 30
0.0
 10
94.7112
 20
-12.4195
 30
0.0
 10
94.7112
 20
-12.4195
 30
0.0
 10
96.6325
 20
-13.4048
 30
0.0
 10
99.7579
 20
-13.8729
 30
0.0
 10
101.812
 20
-13.4834
 30
0.0
 10
101.812
 20
-13.4834
 30
0.0
 10
103.5165
 20
-13.1601
 30
0.0
 10
106.2087
 20
-12.0018
 30
0.0
 10
106.551
 20
-11.4444
 30
0.0
 10
106.551
 20
-11.4444
 30
0.0
 10
107.3127
 20
-10.0214
 30
0.0
 10
106.0906
 20
-5.3051
 30
0.0
 10
105.4226
 20
-3.9957
 30
0.0
 10
105.4226
 20
-3.9957
 30
0.0
 10
103.8695
 20
-0.9514
 30
0.0
 10
101.5013
 20
1.5257
 30
0.0
 10
98.0335
 20
0.9303
 30
0.0
 10
98.0335
 20
0.9303
 30
0.0
 10
96.1364
 20
0.5744
 30
0.0
 10
94.4257
 20
-1.1442
 30
0.0
 10
94.1521
 20
-2.9693
 30
0.0
 10
94.1521
 20
-2.9693
 30
0.0
 10
93.862
 20
-4.9041
 30
0.0
 10
94.5684
 20
-6.3697
 30
0.0
 10
96.31
 20
-7.446
 30
0.0
 10
96.31
 20
-7.446
 30
0.0
 10
97.7479
 20
-8.3348
 30
0.0
 10
98.1501
 20
-8.2162
 30
0.0
 10
97.5433
 20
-7.0824
 30
0.0
 10
97.5433
 20
-7.0824
 30
0.0
 10
96.4488
 20
-5.0375
 30
0.0
 10
99.616
 20
-2.5491
 30
0.0
 10
101.4859
 20
-3.9847
 30
0.0
 10
101.4859
 20
-3.9847
 30
0.0
 10
104.6791
 20
-6.4365
 30
0.0
 10
101.3285
 20
-11.0432
 30
0.0
 10
97.167
 20
-9.9226
 30
0.0
 10
97.167
 20
-9.9226
 30
0.0
 10
94.5566
 20
-9.2197
 30
0.0
 10
93.0767
 20
-6.8568
 30
0.0
 10
91.8135
 20
-1.3747
 30
0.0
 10
91.8135
 20
-1.3747
 30
0.0
 10
91.3491
 20
0.6404
 30
0.0
 10
90.8247
 20
1.9787
 30
0.0
 10
90.2608
 20
2.5867
 30
0.0
 10
90.2608
 20
2.5867
 30
0.0
 10
89.2827
 20
3.6417
 30
0.0
 10
89.3725
 20
3.9053
 30
0.0
 10
90.6279
 20
3.6654
 30
0.0
 10
90.6279
 20
3.6654
 30
0.0
 10
91.7161
 20
3.4573
 30
0.0
 10
92.9225
 20
1.9971
 30
0.0
 10
92.9225
 20
0.888
 30
0.0
 10
92.9225
 20
0.888
 30
0.0
 10
92.9225
 20
-0.4399
 30
0.0
 10
93.4695
 20
-0.3981
 30
0.0
 10
94.3812
 20
0.9994
 30
0.0
 10
94.3812
 20
0.9994
 30
0.0
 10
96.0488
 20
3.5554
 30
0.0
 10
99.4548
 20
4.5404
 30
0.0
 10
102.7925
 20
3.4317
 30
0.0
 10
102.7925
 20
3.4317
 30
0.0
 10
106.1628
 20
2.3122
 30
0.0
 10
108.4137
 20
-0.9048
 30
0.0
 10
108.8121
 20
-5.1719
 30
0.0
 10
108.8121
 20
-5.1719
 30
0.0
 10
109.0517
 20
-7.7383
 30
0.0
 10
109.4965
 20
-7.9382
 30
0.0
 10
110.253
 20
-5.8201
 30
0.0
 10
110.253
 20
-5.8201
 30
0.0
 10
111.1102
 20
-3.4205
 30
0.0
 10
110.6737
 20
-0.1
 30
0.0
 10
109.1408
 20
2.641
 30
0.0
 10
109.1408
 20
2.641
 30
0.0
 10
107.7048
 20
5.209
 30
0.0
 10
105.7306
 20
7.4986
 30
0.0
 10
104.9683
 20
7.4803
 30
0.0
 10
104.9683
 20
7.4803
 30
0.0
 10
104.6981
 20
7.4739
 30
0.0
 10
104.0979
 20
7.1527
 30
0.0
 10
103.6348
 20
6.7669
 30
0.0
 10
103.6348
 20
6.7669
 30
0.0
 10
99.6279
 20
4.9103
 30
0.0
 10
93.5974
 20
5.3414
 30
0.0
 10
91.265
 20
6.2204
 30
0.0
  0
SPLINE
  5
53
330
1F
100
AcDbEntity
  8
layer 1
 62
     7
100
AcDbSpline
210
0.0
220
0.0
230
1.0
 70
    11
 71
     3
 72
   260
 73
   256
 74
     0
 42
0.0000000001
 43
0.0000000001
 12
1.0
 22
0.0
 32
0.0
 13
1.0
 23
0.0
 33
0.0
 40
0.0
 40
0.0
 40
0.0
 40
0.0
 40
0.0153846153846154
 40
0.0153846153846154
 40
0.0153846153846154
 40
0.0153846153846154
 40
0.0307692307692308
 40
0.0307692307692308
 40
0.0307692307692308
 40
0.0307692307692308
 40
0.0461538461538462
 40
0.0461538461538462
 40
0.0461538461538462
 40
0.0461538461538462
 40
0.0615384615384615
 40
0.0615384615384615
 40
0.0615384615384615
 40
0.0615384615384615
 40
0.0769230769230769
 40
0.0769230769230769
 40
0.0769230769230769
 40
0.0769230769230769
 40
0.0923076923076923
 40
0.0923076923076923
 40
0.0923076923076923
 40
0.0923076923076923
 40
0.1076923076923077
 40
0.1076923076923077
 40
0.1076923076923077
 40
0.1076923076923077
 40
0.1230769230769231
 40
0.1230769230769231
 40
0.1230769230769231
 40
0.1230769230769231
 40
0.1384615384615385
 40
0.1384615384615385
 40
0.1384615384615385
 40
0.1384615384615385
 40
0.1538461538461539
 40
0.1538461538461539
 40
0.1538461538461539
 40
0.1538461538461539
 40
0.1692307692307692
 40
0.1692307692307692
 40
0.1692307692307692
 40
0.1692307692307692
 40
0.1846153846153846
 40
0.1846153846153846
 40
0.1846153846153846
 40
0.1846153846153846
 40
0.2
 40
0.2
 40
0.2
 40
0.2
 40
0.2153846153846154
 40
0.2153846153846154
 40
0.2153846153846154
 40
0.2153846153846154
 40
0.2307692307692308
 40
0.2307692307692308
 40
0.2307692307692308
 40
0.2307692307692308
 40
0.2461538461538462
 40
0.2461538461538462
 40
0.2461538461538462
 40
0.2461538461538462
 40
0.2615384615384616
 40
0.2615384615384616
 40
0.2615384615384616
 40
0.2615384615384616
 40
0.2769230769230769
 40
0.2769230769230769
 40
0.2769230769230769
 40
0.2769230769230769
 40
0.2923076923076923
 40
0.2923076923076923
 40
0.2923076923076923
 40
0.2923076923076923
 40
0.3076923076923077
 40
0.3076923076923077
 40
0.3076923076923077
 40
0.3076923076923077
 40
0.3230769230769231
 40
0.3230769230769231
 40
0.3230769230769231
 40
0.3230769230769231
 40
0.3384615384615385
 40
0.3384615384615385
 40
0.3384615384615385
 40
0.3384615384615385
 40
0.3538461538461539
 40
0.3538461538461539
 40
0.3538461538461539
 40
0.3538461538461539
 40
0.3692307692307693
 40
0.3692307692307693
 40
0.3692307692307693
 40
0.3692307692307693
 40
0.3846153846153846
 40
0.3846153846153846
 40
0.3846153846153846
 40
0.3846153846153846
 40
0.4
 40
0.4
 40
0.4
 40
0.4
 40
0.4153846153846154
 40
0.4153846153846154
 40
0.4153846153846154
 40
0.4153846153846154
 40
0.4307692307692308
 40
0.4307692307692308
 40
0.4307692307692308
 40
0.4307692307692308
 40
0.4461538461538462
 40
0.4461538461538462
 40
0.4461538461538462
 40
0.4461538461538462
 40
0.4615384615384616
 40
0.4615384615384616
 40
0.4615384615384616
 40
0.4615384615384616
 40
0.4769230769230769
 40
0.4769230769230769
 40
0.4769230769230769
 40
0.4769230769230769
 40
0.4923076923076923
 40
0.4923076923076923
 40
0.4923076923076923
 40
0.4923076923076923
 40
0.5076923076923077
 40
0.5076923076923077
 40
0.5076923076923077
 40
0.5076923076923077
 40
0.5230769230769231
 40
0.5230769230769231
 40
0.5230769230769231
 40
0.5230769230769231
 40
0.5384615384615384
 40
0.5384615384615384
 40
0.5384615384615384
 40
0.5384615384615384
 40
0.5538461538461539
 40
0.5538461538461539
 40
0.5538461538461539
 40
0.5538461538461539
 40
0.5692307692307692
 40
0.5692307692307692
 40
0.5692307692307692
 40
0.5692307692307692
 40
0.5846153846153846
 40
0.5846153846153846
 40
0.5846153846153846
 40
0.5846153846153846
 40
0.6
 40
0.6
 40
0.6
 40
0.6
 40
0.6153846153846154
 40
0.6153846153846154
 40
0.6153846153846154
 40
0.6153846153846154
 40
0.6307692307692307
 40
0.6307692307692307
 40
0.6307692307692307
 40
0.6307692307692307
 40
0.6461538461538462
 40
0.6461538461538462
 40
0.6461538461538462
 40
0.6461538461538462
 40
0.6615384615384615
 40
0.6615384615384615
 40
0.6615384615384615
 40
0.6615384615384615
 40
0.676923076923077
 40
0.676923076923077
 40
0.676923076923077
 40
0.676923076923077
 40
0.6923076923076923
 40
0.6923076923076923
 40
0.6923076923076923
 40
0.6923076923076923
 40
0.7076923076923077
 40
0.7076923076923077
 40
0.7076923076923077
 40
0.7076923076923077
 40
0.7230769230769231
 40
0.7230769230769231
 40
0.7230769230769231
 40
0.7230769230769231
 40
0.7384615384615385
 40
0.7384615384615385
 40
0.7384615384615385
 40
0.7384615384615385
 40
0.7538461538461538
 40
0.7538461538461538
 40
0.7538461538461538
 40
0.7538461538461538
 40
0.7692307692307693
 40
0.7692307692307693
 40
0.7692307692307693
 40
0.7692307692307693
 40
0.7846153846153846
 40
0.7846153846153846
 40
0.7846153846153846
 40
0.7846153846153846
 40
0.8
 40
0.8
 40
0.8
 40
0.8
 40
0.8153846153846154
 40
0.8153846153846154
 40
0.8153846153846154
 40
0.8153846153846154
 40
0.8307692307692308
 40
0.8307692307692308
 40
0.8307692307692308
 40
0.8307692307692308
 40
0.8461538461538461
 40
0.8461538461538461
 40
0.8461538461538461
 40
0.8461538461538461
 40
0.8615384615384616
 40
0.8615384615384616
 40
0.8615384615384616
 40
0.8615384615384616
 40
0.8769230769230769
 40
0.8769230769230769
 40
0.8769230769230769
 40
0.8769230769230769
 40
0.8923076923076924
 40
0.8923076923076924
 40
0.8923076923076924
 40
0.8923076923076924
 40
0.9076923076923077
 40
0.9076923076923077
 40
0.9076923076923077
 40
0.9076923076923077
 40
0.9230769230769231
 40
0.9230769230769231
 40
0.9230769230769231
 40
0.9230769230769231
 40
0.9384615384615385
 40
0.9384615384615385
 40
0.9384615384615385
 40
0.9384615384615385
 40
0.9538461538461539
 40
0.9538461538461539
 40
0.9538461538461539
 40
0.9538461538461539
 40
0.9692307692307692
 40
0.9692307692307692
 40
0.9692307692307692
 40
0.9692307692307692
 40
1.0
 40
1.0
 40
1.0
 40
1.0
 10
72.3372
 20
-43.4497
 30
0.0
 10
72.3372
 20
-43.4497
 30
0.0
 10
72.3017
 20
-68.3163
 30
0.0
 10
72.3017
 20
-68.3163
 30
0.0
 10
72.3017
 20
-68.3163
 30
0.0
 10
76.854
 20
-63.9771
 30
0.0
 10
81.3227
 20
-69.1925
 30
0.0
 10
78.9457
 20
-71.0787
 30
0.0
 10
78.9457
 20
-71.0787
 30
0.0
 10
78.7166
 20
-70.7484
 30
0.0
 10
78.2599
 20
-70.3265
 30
0.0
 10
77.6907
 20
-70.012
 30
0.0
 10
77.6907
 20
-70.012
 30
0.0
 10
73.3387
 20
-67.3278
 30
0.0
 10
71.6544
 20
-74.0867
 30
0.0
 10
75.3236
 20
-74.643
 30
0.0
 10
75.3236
 20
-74.643
 30
0.0
 10
76.8544
 20
-74.7996
 30
0.0
 10
77.3486
 20
-74.5767
 30
0.0
 10
78.9732
 20
-72.996
 30
0.0
 10
78.9732
 20
-72.996
 30
0.0
 10
81.7298
 20
-70.3141
 30
0.0
 10
83.5028
 20
-69.615
 30
0.0
 10
88.468
 20
-69.2523
 30
0.0
 10
88.468
 20
-69.2523
 30
0.0
 10
95.7583
 20
-68.7198
 30
0.0
 10
100.9042
 20
-67.6545
 30
0.0
 10
101.9919
 20
-66.4526
 30
0.0
 10
101.9919
 20
-66.4526
 30
0.0
 10
102.972
 20
-65.3697
 30
0.0
 10
102.4665
 20
-65.2815
 30
0.0
 10
100.0149
 20
-66.1073
 30
0.0
 10
100.0149
 20
-66.1073
 30
0.0
 10
96.4706
 20
-67.3013
 30
0.0
 10
94.7884
 20
-67.3786
 30
0.0
 10
92.6232
 20
-66.4471
 30
0.0
 10
92.6232
 20
-66.4471
 30
0.0
 10
91.5808
 20
-65.9986
 30
0.0
 10
90.2978
 20
-65.0867
 30
0.0
 10
89.7155
 20
-64.3804
 30
0.0
 10
89.7155
 20
-64.3804
 30
0.0
 10
89.7155
 20
-64.3804
 30
0.0
 10
88.6735
 20
-63.1162
 30
0.0
 10
88.6735
 20
-63.1162
 30
0.0
 10
88.6735
 20
-63.1162
 30
0.0
 10
88.6735
 20
-63.1162
 30
0.0
 10
87.2078
 20
-63.9399
 30
0.0
 10
87.2078
 20
-63.9399
 30
0.0
 10
87.2078
 20
-63.9399
 30
0.0
 10
85.3288
 20
-64.9959
 30
0.0
 10
83.2158
 20
-64.8203
 30
0.0
 10
81.432
 20
-63.4598
 30
0.0
 10
81.432
 20
-63.4598
 30
0.0
 10
80.7397
 20
-62.9318
 30
0.0
 10
79.6953
 20
-62.4862
 30
0.0
 10
79.1108
 20
-62.4696
 30
0.0
 10
79.1108
 20
-62.4696
 30
0.0
 10
78.1167
 20
-62.4414
 30
0.0
 10
78.0708
 20
-62.3798
 30
0.0
 10
78.3994
 20
-61.5155
 30
0.0
 10
78.3994
 20
-61.5155
 30
0.0
 10
79.1648
 20
-59.5022
 30
0.0
 10
81.0252
 20
-58.2796
 30
0.0
 10
83.3229
 20
-58.2796
 30
0.0
 10
83.3229
 20
-58.2796
 30
0.0
 10
84.8554
 20
-58.2796
 30
0.0
 10
86.4381
 20
-58.9207
 30
0.0
 10
87.2142
 20
-59.856
 30
0.0
 10
87.2142
 20
-59.856
 30
0.0
 10
87.8671
 20
-60.6428
 30
0.0
 10
88.299
 20
-60.5468
 30
0.0
 10
88.308
 20
-59.6128
 30
0.0
 10
88.308
 20
-59.6128
 30
0.0
 10
88.3213
 20
-58.2461
 30
0.0
 10
89.5896
 20
-55.9278
 30
0.0
 10
90.839
 20
-54.9863
 30
0.0
 10
90.839
 20
-54.9863
 30
0.0
 10
93.4777
 20
-52.9978
 30
0.0
 10
97.7407
 20
-52.4099
 30
0.0
 10
101.4762
 20
-53.5193
 30
0.0
 10
101.4762
 20
-53.5193
 30
0.0
 10
103.6536
 20
-54.1659
 30
0.0
 10
106.1302
 20
-54.016
 30
0.0
 10
107.8351
 20
-53.1343
 30
0.0
 10
107.8351
 20
-53.1343
 30
0.0
 10
108.7181
 20
-52.6777
 30
0.0
 10
108.9208
 20
-52.3504
 30
0.0
 10
108.9208
 20
-51.3812
 30
0.0
 10
108.9208
 20
-51.3812
 30
0.0
 10
108.9208
 20
-49.8254
 30
0.0
 10
108.0682
 20
-49.0383
 30
0.0
 10
107.511
 20
-50.0795
 30
0.0
 10
107.511
 20
-50.0795
 30
0.0
 10
106.9972
 20
-51.0395
 30
0.0
 10
105.8553
 20
-51.0174
 30
0.0
 10
105.3307
 20
-50.0375
 30
0.0
 10
105.3307
 20
-50.0375
 30
0.0
 10
104.977
 20
-49.3766
 30
0.0
 10
105.0338
 20
-49.1654
 30
0.0
 10
105.7131
 20
-48.6154
 30
0.0
 10
105.7131
 20
-48.6154
 30
0.0
 10
106.6943
 20
-47.8209
 30
0.0
 10
107.6138
 20
-47.7955
 30
0.0
 10
108.7375
 20
-48.5318
 30
0.0
 10
108.7375
 20
-48.5318
 30
0.0
 10
109.7535
 20
-49.1975
 30
0.0
 10
110.4943
 20
-51.1838
 30
0.0
 10
110.1499
 20
-52.319
 30
0.0
 10
110.1499
 20
-52.319
 30
0.0
 10
109.4673
 20
-54.5693
 30
0.0
 10
106.2592
 20
-56.3906
 30
0.0
 10
102.1533
 20
-56.8589
 30
0.0
 10
102.1533
 20
-56.8589
 30
0.0
 10
96.722
 20
-57.4783
 30
0.0
 10
95.0372
 20
-58.3065
 30
0.0
 10
94.9781
 20
-60.3859
 30
0.0
 10
94.9781
 20
-60.3859
 30
0.0
 10
94.952
 20
-61.3024
 30
0.0
 10
95.1905
 20
-61.8101
 30
0.0
 10
95.9566
 20
-62.469
 30
0.0
 10
95.9566
 20
-62.469
 30
0.0
 10
96.8858
 20
-63.2683
 30
0.0
 10
97.1954
 20
-63.3273
 30
0.0
 10
99.6991
 20
-63.1823
 30
0.0
 10
99.6991
 20
-63.1823
 30
0.0
 10
102.8455
 20
-63.0001
 30
0.0
 10
104.9605
 20
-62.0935
 30
0.0
 10
111.7651
 20
-58.0096
 30
0.0
 10
111.7651
 20
-58.0096
 30
0.0
 10
111.7651
 20
-58.0096
 30
0.0
 10
115.8536
 20
-55.5559
 30
0.0
 10
115.8536
 20
-55.5559
 30
0.0
 10
115.8536
 20
-55.5559
 30
0.0
 10
115.8536
 20
-55.5559
 30
0.0
 10
115.8832
 20
-53.6689
 30
0.0
 10
115.8832
 20
-53.6689
 30
0.0
 10
115.8832
 20
-53.6689
 30
0.0
 10
115.9211
 20
-51.253
 30
0.0
 10
116.5553
 20
-50.8655
 30
0.0
 10
117.4631
 20
-50.4394
 30
0.0
 10
117.4631
 20
-50.4394
 30
0.0
 10
117.7973
 20
-50.2826
 30
0.0
 10
117.9846
 20
-50.73
 30
0.0
 10
117.4184
 20
-51.4959
 30
0.0
 10
117.4184
 20
-51.4959
 30
0.0
 10
116.6521
 20
-52.5323
 30
0.0
 10
116.6718
 20
-54.3687
 30
0.0
 10
117.4492
 20
-54.3687
 30
0.0
 10
117.4492
 20
-54.3687
 30
0.0
 10
117.6349
 20
-54.3687
 30
0.0
 10
118.8718
 20
-53.6689
 30
0.0
 10
120.1978
 20
-52.8136
 30
0.0
 10
120.1978
 20
-52.8136
 30
0.0
 10
123.0581
 20
-50.9685
 30
0.0
 10
127.3372
 20
-48.8018
 30
0.0
 10
130.7858
 20
-47.4524
 30
0.0
 10
130.7858
 20
-47.4524
 30
0.0
 10
133.2303
 20
-46.4958
 30
0.0
 10
134.4857
 20
-45.6846
 30
0.0
 10
134.1072
 20
-45.3061
 30
0.0
 10
134.1072
 20
-45.3061
 30
0.0
 10
134.0018
 20
-45.2007
 30
0.0
 10
132.2515
 20
-45.5025
 30
0.0
 10
130.2175
 20
-45.9766
 30
0.0
 10
130.2175
 20
-45.9766
 30
0.0
 10
120.7233
 20
-48.1667
 30
0.0
 10
110.7445
 20
-47.8635
 30
0.0
 10
103.2405
 20
-45.9763
 30
0.0
 10
103.2405
 20
-45.9763
 30
0.0
 10
98.7861
 20
-44.851
 30
0.0
 10
98.8279
 20
-44.8465
 30
0.0
 10
99.0825
 20
-46.4159
 30
0.0
 10
99.0825
 20
-46.4159
 30
0.0
 10
99.3283
 20
-47.9301
 30
0.0
 10
98.6349
 20
-49.5185
 30
0.0
 10
97.4514
 20
-50.1526
 30
0.0
 10
97.4514
 20
-50.1526
 30
0.0
 10
97.0134
 20
-50.3872
 30
0.0
 10
94.4953
 20
-50.6798
 30
0.0
 10
91.8556
 20
-50.8024
 30
0.0
 10
91.8556
 20
-50.8024
 30
0.0
 10
85.685
 20
-51.0893
 30
0.0
 10
84.5601
 20
-51.6257
 30
0.0
 10
83.6743
 20
-54.7037
 30
0.0
 10
83.6743
 20
-54.7037
 30
0.0
 10
83.6743
 20
-54.7037
 30
0.0
 10
83.4125
 20
-55.6132
 30
0.0
 10
83.4125
 20
-55.6132
 30
0.0
 10
83.4125
 20
-55.6132
 30
0.0
 10
83.4125
 20
-55.6132
 30
0.0
 10
83.0123
 20
-54.6124
 30
0.0
 10
83.0123
 20
-54.6124
 30
0.0
 10
83.0123
 20
-54.6124
 30
0.0
 10
81.3513
 20
-50.4597
 30
0.0
 10
85.0281
 20
-45.87
 30
0.0
 10
90.7599
 20
-44.9415
 30
0.0
 10
90.7599
 20
-44.9415
 30
0.0
 10
93.0715
 20
-44.567
 30
0.0
 10
91.6806
 20
-43.9344
 30
0.0
 10
88.9758
 20
-44.1301
 30
0.0
 10
88.9758
 20
-44.1301
 30
0.0
 10
87.3315
 20
-44.249
 30
0.0
 10
86.5774
 20
-44.5154
 30
0.0
 10
85.4359
 20
-45.3808
 30
0.0
 10
85.4359
 20
-45.3808
 30
0.0
 10
84.6382
 20
-45.9856
 30
0.0
 10
83.3683
 20
-46.9493
 30
0.0
 10
82.6142
 20
-47.5225
 30
0.0
 10
82.6142
 20
-47.5225
 30
0.0
 10
81.86
 20
-48.0958
 30
0.0
 10
80.1148
 20
-48.9208
 30
0.0
 10
78.736
 20
-49.3559
 30
0.0
 10
78.736
 20
-49.3559
 30
0.0
 10
75.7277
 20
-50.3054
 30
0.0
 10
74.7903
 20
-51.2851
 30
0.0
 10
74.7903
 20
-53.4801
 30
0.0
 10
74.7903
 20
-53.4801
 30
0.0
 10
74.7903
 20
-55.114
 30
0.0
 10
75.7187
 20
-56.653
 30
0.0
 10
76.9378
 20
-57.0399
 30
0.0
 10
76.9378
 20
-57.0399
 30
0.0
 10
77.3267
 20
-57.1632
 30
0.0
 10
77.553
 20
-57.4127
 30
0.0
 10
77.4409
 20
-57.5942
 30
0.0
 10
77.4409
 20
-57.5942
 30
0.0
 10
76.6206
 20
-58.9215
 30
0.0
 10
73.6669
 20
-56.9811
 30
0.0
 10
72.9642
 20
-53.6712
 30
0.0
 10
72.9642
 20
-53.6712
 30
0.0
 10
72.6212
 20
-51.8456
 30
0.0
 10
73.0883
 20
-48.4165
 30
0.0
 10
74.1219
 20
-46.2812
 30
0.0
 10
74.1219
 20
-46.2812
 30
0.0
 10
75.1699
 20
-44.1162
 30
0.0
 10
77.3837
 20
-41.7173
 30
0.0
 10
79.2184
 20
-40.7584
 30
0.0
 10
79.2184
 20
-40.7584
 30
0.0
 10
80.7969
 20
-39.9335
 30
0.0
 10
83.6278
 20
-39.7912
 30
0.0
 10
88.0336
 20
-40.3152
 30
0.0
 10
88.0336
 20
-40.3152
 30
0.0
 10
89.4402
 20
-40.4825
 30
0.0
 10
90.4334
 20
-40.4673
 30
0.0
 10
90.4334
 20
-40.2787
 30
0.0
 10
90.4334
 20
-40.2787
 30
0.0
 10
90.4334
 20
-39.8037
 30
0.0
 10
85.5321
 20
-38.09
 30
0.0
 10
83.6783
 20
-37.9169
 30
0.0
 10
83.6783
 20
-37.9169
 30
0.0
 10
82.7985
 20
-37.8348
 30
0.0
 10
81.2786
 20
-37.8844
 30
0.0
 10
80.3009
 20
-38.0271
 30
0.0
 10
80.3009
 20
-38.0271
 30
0.0
 10
76.6376
 20
-38.3899
 30
0.0
 10
73.0484
 20
-41.4621
 30
0.0
 10
72.3372
 20
-43.4497
 30
0.0
  0
SPLINE
  5
54
330
1F
100
AcDbEntity
  8
layer 1
 62
     7
100
AcDbSpline
210
0.0
220
0.0
230
1.0
 70
    11
 71
     3
 72
   288
 73
   284
 74
     0
 42
0.0000000001
 43
0.0000000001
 12
1.0
 22
0.0
 32
0.0
 13
1.0
 23
0.0
 33
0.0
 40
0.0
 40
0.0
 40
0.0
 40
0.0
 40
0.0138888888888889
 40
0.0138888888888889
 40
0.0138888888888889
 40
0.0138888888888889
 40
0.0277777777777778
 40
0.0277777777777778
 40
0.0277777777777778
 40
0.0277777777777778
 40
0.0416666666666667
 40
0.0416666666666667
 40
0.0416666666666667
 40
0.0416666666666667
 40
0.0555555555555556
 40
0.0555555555555556
 40
0.0555555555555556
 40
0.0555555555555556
 40
0.0694444444444444
 40
0.0694444444444444
 40
0.0694444444444444
 40
0.0694444444444444
 40
0.0833333333333333
 40
0.0833333333333333
 40
0.0833333333333333
 40
0.0833333333333333
 40
0.0972222222222222
 40
0.0972222222222222
 40
0.0972222222222222
 40
0.0972222222222222
 40
0.1111111111111111
 40
0.1111111111111111
 40
0.1111111111111111
 40
0.1111111111111111
 40
0.125
 40
0.125
 40
0.125
 40
0.125
 40
0.1388888888888889
 40
0.1388888888888889
 40
0.1388888888888889
 40
0.1388888888888889
 40
0.1527777777777778
 40
0.1527777777777778
 40
0.1527777777777778
 40
0.1527777777777778
 40
0.1666666666666667
 40
0.1666666666666667
 40
0.1666666666666667
 40
0.1666666666666667
 40
0.1805555555555556
 40
0.1805555555555556
 40
0.1805555555555556
 40
0.1805555555555556
 40
0.1944444444444444
 40
0.1944444444444444
 40
0.1944444444444444
 40
0.1944444444444444
 40
0.2083333333333333
 40
0.2083333333333333
 40
0.2083333333333333
 40
0.2083333333333333
 40
0.2222222222222222
 40
0.2222222222222222
 40
0.2222222222222222
 40
0.2222222222222222
 40
0.2361111111111111
 40
0.2361111111111111
 40
0.2361111111111111
 40
0.2361111111111111
 40
0.25
 40
0.25
 40
0.25
 40
0.25
 40
0.2638888888888889
 40
0.2638888888888889
 40
0.2638888888888889
 40
0.2638888888888889
 40
0.2777777777777778
 40
0.2777777777777778
 40
0.2777777777777778
 40
0.2777777777777778
 40
0.2916666666666667
 40
0.2916666666666667
 40
0.2916666666666667
 40
0.2916666666666667
 40
0.3055555555555556
 40
0.3055555555555556
 40
0.3055555555555556
 40
0.3055555555555556
 40
0.3194444444444444
 40
0.3194444444444444
 40
0.3194444444444444
 40
0.3194444444444444
 40
0.3333333333333333
 40
0.3333333333333333
 40
0.3333333333333333
 40
0.3333333333333333
 40
0.3472222222222222
 40
0.3472222222222222
 40
0.3472222222222222
 40
0.3472222222222222
 40
0.3611111111111111
 40
0.3611111111111111
 40
0.3611111111111111
 40
0.3611111111111111
 40
0.375
 40
0.375
 40
0.375
 40
0.375
 40
0.3888888888888889
 40
0.3888888888888889
 40
0.3888888888888889
 40
0.3888888888888889
 40
0.4027777777777778
 40
0.4027777777777778
 40
0.4027777777777778
 40
0.4027777777777778
 40
0.4166666666666667
 40
0.4166666666666667
 40
0.4166666666666667
 40
0.4166666666666667
 40
0.4305555555555556
 40
0.4305555555555556
 40
0.4305555555555556
 40
0.4305555555555556
 40
0.4444444444444444
 40
0.4444444444444444
 40
0.4444444444444444
 40
0.4444444444444444
 40
0.4583333333333333
 40
0.4583333333333333
 40
0.4583333333333333
 40
0.4583333333333333
 40
0.4722222222222222
 40
0.4722222222222222
 40
0.4722222222222222
 40
0.4722222222222222
 40
0.4861111111111111
 40
0.4861111111111111
 40
0.4861111111111111
 40
0.4861111111111111
 40
0.5
 40
0.5
 40
0.5
 40
0.5
 40
0.5138888888888888
 40
0.5138888888888888
 40
0.5138888888888888
 40
0.5138888888888888
 40
0.5277777777777778
 40
0.5277777777777778
 40
0.5277777777777778
 40
0.5277777777777778
 40
0.5416666666666666
 40
0.5416666666666666
 40
0.5416666666666666
 40
0.5416666666666666
 40
0.5555555555555556
 40
0.5555555555555556
 40
0.5555555555555556
 40
0.5555555555555556
 40
0.5694444444444444
 40
0.5694444444444444
 40
0.5694444444444444
 40
0.5694444444444444
 40
0.5833333333333334
 40
0.5833333333333334
 40
0.5833333333333334
 40
0.5833333333333334
 40
0.5972222222222222
 40
0.5972222222222222
 40
0.5972222222222222
 40
0.5972222222222222
 40
0.6111111111111112
 40
0.6111111111111112
 40
0.6111111111111112
 40
0.6111111111111112
 40
0.625
 40
0.625
 40
0.625
 40
0.625
 40
0.6388888888888888
 40
0.6388888888888888
 40
0.6388888888888888
 40
0.6388888888888888
 40
0.6527777777777778
 40
0.6527777777777778
 40
0.6527777777777778
 40
0.6527777777777778
 40
0.6666666666666666
 40
0.6666666666666666
 40
0.6666666666666666
 40
0.6666666666666666
 40
0.6805555555555556
 40
0.6805555555555556
 40
0.6805555555555556
 40
0.6805555555555556
 40
0.6944444444444444
 40
0.6944444444444444
 40
0.6944444444444444
 40
0.6944444444444444
 40
0.7083333333333334
 40
0.7083333333333334
 40
0.7083333333333334
 40
0.7083333333333334
 40
0.7222222222222222
 40
0.7222222222222222
 40
0.7222222222222222
 40
0.7222222222222222
 40
0.7361111111111112
 40
0.7361111111111112
 40
0.7361111111111112
 40
0.7361111111111112
 40
0.75
 40
0.75
 40
0.75
 40
0.75
 40
0.7638888888888888
 40
0.7638888888888888
 40
0.7638888888888888
 40
0.7638888888888888
 40
0.7777777777777778
 40
0.7777777777777778
 40
0.7777777777777778
 40
0.7777777777777778
 40
0.7916666666666666
 40
0.7916666666666666
 40
0.7916666666666666
 40
0.7916666666666666
 40
0.8055555555555556
 40
0.8055555555555556
 40
0.8055555555555556
 40
0.8055555555555556
 40
0.8194444444444444
 40
0.8194444444444444
 40
0.8194444444444444
 40
0.8194444444444444
 40
0.8333333333333334
 40
0.8333333333333334
 40
0.8333333333333334
 40
0.8333333333333334
 40
0.8472222222222222
 40
0.8472222222222222
 40
0.8472222222222222
 40
0.8472222222222222
 40
0.8611111111111112
 40
0.8611111111111112
 40
0.8611111111111112
 40
0.8611111111111112
 40
0.875
 40
0.875
 40
0.875
 40
0.875
 40
0.8888888888888888
 40
0.8888888888888888
 40
0.8888888888888888
 40
0.8888888888888888
 40
0.9027777777777778
 40
0.9027777777777778
 40
0.9027777777777778
 40
0.9027777777777778
 40
0.9166666666666666
 40
0.9166666666666666
 40
0.9166666666666666
 40
0.9166666666666666
 40
0.9305555555555556
 40
0.9305555555555556
 40
0.9305555555555556
 40
0.9305555555555556
 40
0.9444444444444444
 40
0.9444444444444444
 40
0.9444444444444444
 40
0.9444444444444444
 40
0.9583333333333334
 40
0.9583333333333334
 40
0.9583333333333334
 40
0.9583333333333334
 40
0.9722222222222222
 40
0.9722222222222222
 40
0.9722222222222222
 40
0.9722222222222222
 40
1.0
 40
1.0
 40
1.0
 40
1.0
 10
147.0242
 20
-51.8573
 30
0.0
 10
145.8647
 20
-52.8222
 30
0.0
 10
143.9888
 20
-54.6613
 30
0.0
 10
142.8553
 20
-55.9443
 30
0.0
 10
142.8553
 20
-55.9443
 30
0.0
 10
137.1156
 20
-62.4416
 30
0.0
 10
129.189
 20
-64.2734
 30
0.0
 10
121.8445
 20
-60.8
 30
0.0
 10
121.8445
 20
-60.8
 30
0.0
 10
120.6674
 20
-60.2433
 30
0.0
 10
119.1417
 20
-59.2086
 30
0.0
 10
118.4541
 20
-58.5006
 30
0.0
 10
118.4541
 20
-58.5006
 30
0.0
 10
117.7666
 20
-57.7926
 30
0.0
 10
117.008
 20
-57.2133
 30
0.0
 10
116.7684
 20
-57.2133
 30
0.0
 10
116.7684
 20
-57.2133
 30
0.0
 10
115.3945
 20
-57.2133
 30
0.0
 10
109.0406
 20
-63.3379
 30
0.0
 10
107.2347
 20
-66.4028
 30
0.0
 10
107.2347
 20
-66.4028
 30
0.0
 10
104.8078
 20
-70.5217
 30
0.0
 10
105.8327
 20
-75.3453
 30
0.0
 10
109.1348
 20
-75.3453
 30
0.0
 10
109.1348
 20
-75.3453
 30
0.0
 10
111.6525
 20
-75.3453
 30
0.0
 10
113.3957
 20
-72.6178
 30
0.0
 10
114.2559
 20
-67.3326
 30
0.0
 10
114.2559
 20
-67.3326
 30
0.0
 10
114.6409
 20
-64.9676
 30
0.0
 10
115.7127
 20
-63.3542
 30
0.0
 10
117.3547
 20
-62.6682
 30
0.0
 10
117.3547
 20
-62.6682
 30
0.0
 10
119.3105
 20
-61.8509
 30
0.0
 10
121.4484
 20
-62.9893
 30
0.0
 10
121.9106
 20
-65.0941
 30
0.0
 10
121.9106
 20
-65.0941
 30
0.0
 10
122.1846
 20
-66.3417
 30
0.0
 10
121.3106
 20
-67.8793
 30
0.0
 10
120.3276
 20
-67.8793
 30
0.0
 10
120.3276
 20
-67.8793
 30
0.0
 10
119.3024
 20
-67.8793
 30
0.0
 10
119.1052
 20
-66.8023
 30
0.0
 10
119.9267
 20
-65.691
 30
0.0
 10
119.9267
 20
-65.691
 30
0.0
 10
120.8821
 20
-64.3989
 30
0.0
 10
120.8448
 20
-64.1038
 30
0.0
 10
119.6756
 20
-63.702
 30
0.0
 10
119.6756
 20
-63.702
 30
0.0
 10
118.2077
 20
-63.1977
 30
0.0
 10
116.9071
 20
-63.7976
 30
0.0
 10
116.1659
 20
-65.3208
 30
0.0
 10
116.1659
 20
-65.3208
 30
0.0
 10
115.6605
 20
-66.3594
 30
0.0
 10
115.5207
 20
-67.5666
 30
0.0
 10
115.4985
 20
-71.0789
 30
0.0
 10
115.4985
 20
-71.0789
 30
0.0
 10
115.4726
 20
-75.1836
 30
0.0
 10
115.3925
 20
-75.6942
 30
0.0
 10
114.4494
 20
-77.7642
 30
0.0
 10
114.4494
 20
-77.7642
 30
0.0
 10
113.3866
 20
-80.0973
 30
0.0
 10
112.4055
 20
-81.1118
 30
0.0
 10
110.4032
 20
-81.9486
 30
0.0
 10
110.4032
 20
-81.9486
 30
0.0
 10
110.4032
 20
-81.9486
 30
0.0
 10
109.2191
 20
-82.4433
 30
0.0
 10
109.2191
 20
-82.4433
 30
0.0
 10
109.2191
 20
-82.4433
 30
0.0
 10
109.2191
 20
-82.4433
 30
0.0
 10
109.9352
 20
-83.4489
 30
0.0
 10
109.9352
 20
-83.4489
 30
0.0
 10
109.9352
 20
-83.4489
 30
0.0
 10
111.8303
 20
-86.1102
 30
0.0
 10
111.1047
 20
-88.6595
 30
0.0
 10
107.8039
 20
-90.9373
 30
0.0
 10
107.8039
 20
-90.9373
 30
0.0
 10
105.7037
 20
-92.3865
 30
0.0
 10
104.7865
 20
-92.6478
 30
0.0
 10
105.7114
 20
-91.5335
 30
0.0
 10
105.7114
 20
-91.5335
 30
0.0
 10
105.999
 20
-91.1868
 30
0.0
 10
106.07
 20
-90.582
 30
0.0
 10
105.9102
 20
-89.8361
 30
0.0
 10
105.9102
 20
-89.8361
 30
0.0
 10
105.7737
 20
-89.1988
 30
0.0
 10
105.5818
 20
-87.7709
 30
0.0
 10
105.4839
 20
-86.6632
 30
0.0
 10
105.4839
 20
-86.6632
 30
0.0
 10
105.3326
 20
-84.9525
 30
0.0
 10
105.4173
 20
-84.5373
 30
0.0
 10
106.0467
 20
-83.9079
 30
0.0
 10
106.0467
 20
-83.9079
 30
0.0
 10
107.0665
 20
-82.8881
 30
0.0
 10
106.9957
 20
-82.6843
 30
0.0
 10
105.3743
 20
-81.9689
 30
0.0
 10
105.3743
 20
-81.9689
 30
0.0
 10
101.6228
 20
-80.3137
 30
0.0
 10
100.8222
 20
-75.388
 30
0.0
 10
103.3924
 20
-69.7741
 30
0.0
 10
103.3924
 20
-69.7741
 30
0.0
 10
103.8851
 20
-68.6976
 30
0.0
 10
104.6908
 20
-67.3387
 30
0.0
 10
105.1826
 20
-66.7542
 30
0.0
 10
105.1826
 20
-66.7542
 30
0.0
 10
105.6744
 20
-66.1697
 30
0.0
 10
106.0697
 20
-65.5037
 30
0.0
 10
106.0609
 20
-65.2743
 30
0.0
 10
106.0609
 20
-65.2743
 30
0.0
 10
106.0295
 20
-64.4561
 30
0.0
 10
102.8248
 20
-68.4529
 30
0.0
 10
101.7182
 20
-70.6901
 30
0.0
 10
101.7182
 20
-70.6901
 30
0.0
 10
100.6145
 20
-72.9215
 30
0.0
 10
100.5872
 20
-73.098
 30
0.0
 10
100.3699
 20
-79.4005
 30
0.0
 10
100.3699
 20
-79.4005
 30
0.0
 10
100.1379
 20
-86.1332
 30
0.0
 10
99.9864
 20
-86.8569
 30
0.0
 10
98.2364
 20
-89.5914
 30
0.0
 10
98.2364
 20
-89.5914
 30
0.0
 10
96.7647
 20
-91.8908
 30
0.0
 10
96.5961
 20
-93.1183
 30
0.0
 10
97.496
 20
-94.9773
 30
0.0
 10
97.496
 20
-94.9773
 30
0.0
 10
99.0206
 20
-98.1266
 30
0.0
 10
102.4774
 20
-98.7221
 30
0.0
 10
103.8856
 20
-96.0781
 30
0.0
 10
103.8856
 20
-96.0781
 30
0.0
 10
104.4388
 20
-95.0394
 30
0.0
 10
104.4069
 20
-94.5437
 30
0.0
 10
103.7869
 20
-94.5437
 30
0.0
 10
103.7869
 20
-94.5437
 30
0.0
 10
102.9578
 20
-94.5437
 30
0.0
 10
102.7458
 20
-93.8108
 30
0.0
 10
103.3913
 20
-93.1763
 30
0.0
 10
103.3913
 20
-93.1763
 30
0.0
 10
103.9485
 20
-92.6286
 30
0.0
 10
104.0368
 20
-92.6458
 30
0.0
 10
104.6776
 20
-93.4276
 30
0.0
 10
104.6776
 20
-93.4276
 30
0.0
 10
107.1165
 20
-96.4023
 30
0.0
 10
102.7411
 20
-100.7165
 30
0.0
 10
98.5568
 20
-99.4629
 30
0.0
 10
98.5568
 20
-99.4629
 30
0.0
 10
96.7294
 20
-98.9154
 30
0.0
 10
95.1168
 20
-97.2924
 30
0.0
 10
93.8697
 20
-94.7457
 30
0.0
 10
93.8697
 20
-94.7457
 30
0.0
 10
91.2923
 20
-87.974
 30
0.0
 10
93.8284
 20
-79.8568
 30
0.0
 10
97.2217
 20
-74.4043
 30
0.0
 10
97.2217
 20
-74.4043
 30
0.0
 10
99.1087
 20
-71.4159
 30
0.0
 10
99.4054
 20
-70.5803
 30
0.0
 10
98.201
 20
-71.6461
 30
0.0
 10
98.201
 20
-71.6461
 30
0.0
 10
96.9266
 20
-72.7738
 30
0.0
 10
94.0829
 20
-77.3666
 30
0.0
 10
93.4316
 20
-79.3488
 30
0.0
 10
93.4316
 20
-79.3488
 30
0.0
 10
91.7086
 20
-84.5934
 30
0.0
 10
88.1321
 20
-90.761
 30
0.0
 10
84.2729
 20
-95.1429
 30
0.0
 10
84.2729
 20
-95.1429
 30
0.0
 10
81.8509
 20
-97.8929
 30
0.0
 10
80.5457
 20
-101.4018
 30
0.0
 10
80.2307
 20
-106.0095
 30
0.0
 10
80.2307
 20
-106.0095
 30
0.0
 10
80.2307
 20
-106.0095
 30
0.0
 10
80.0182
 20
-109.1204
 30
0.0
 10
80.0182
 20
-109.1204
 30
0.0
 10
80.0182
 20
-109.1204
 30
0.0
 10
80.0182
 20
-109.1204
 30
0.0
 10
106.1091
 20
-109.1204
 30
0.0
 10
106.1091
 20
-109.1204
 30
0.0
 10
106.1091
 20
-109.1204
 30
0.0
 10
105.5019
 20
-105.8323
 30
0.0
 10
105.368
 20
-102.1312
 30
0.0
 10
106.2307
 20
-99.0031
 30
0.0
 10
106.2307
 20
-99.0031
 30
0.0
 10
106.6029
 20
-97.7315
 30
0.0
 10
107.0037
 20
-96.6551
 30
0.0
 10
107.5048
 20
-95.6579
 30
0.0
 10
107.5048
 20
-95.6579
 30
0.0
 10
108.398
 20
-93.8806
 30
0.0
 10
109.6098
 20
-92.3553
 30
0.0
 10
111.5467
 20
-90.4265
 30
0.0
 10
111.5467
 20
-90.4265
 30
0.0
 10
115.138
 20
-86.8505
 30
0.0
 10
118.4068
 20
-85.2915
 30
0.0
 10
122.8831
 20
-85.0199
 30
0.0
 10
122.8831
 20
-85.0199
 30
0.0
 10
125.7641
 20
-84.8451
 30
0.0
 10
126.7241
 20
-84.4063
 30
0.0
 10
125.0232
 20
-84.0416
 30
0.0
 10
125.0232
 20
-84.0416
 30
0.0
 10
123.1945
 20
-83.6495
 30
0.0
 10
122.4689
 20
-83.2047
 30
0.0
 10
121.9175
 20
-82.1383
 30
0.0
 10
121.9175
 20
-82.1383
 30
0.0
 10
121.6161
 20
-81.5555
 30
0.0
 10
121.4661
 20
-80.8275
 30
0.0
 10
121.5839
 20
-80.5203
 30
0.0
 10
121.5839
 20
-80.5203
 30
0.0
 10
121.7223
 20
-79.7026
 30
0.0
 10
120.8616
 20
-78.3189
 30
0.0
 10
119.7881
 20
-78.0495
 30
0.0
 10
119.7881
 20
-78.0495
 30
0.0
 10
117.6253
 20
-78.0761
 30
0.0
 10
116.4373
 20
-78.7161
 30
0.0
 10
115.7211
 20
-80.5006
 30
0.0
 10
115.7211
 20
-80.5006
 30
0.0
 10
115.6096
 20
-78.2192
 30
0.0
 10
117.7287
 20
-76.2482
 30
0.0
 10
119.1698
 20
-75.308
 30
0.0
 10
119.1698
 20
-75.308
 30
0.0
 10
123.0495
 20
-72.8476
 30
0.0
 10
127.7551
 20
-74.9521
 30
0.0
 10
127.7617
 20
-79.1506
 30
0.0
 10
127.7617
 20
-79.1506
 30
0.0
 10
127.7645
 20
-80.8658
 30
0.0
 10
128.3296
 20
-82.324
 30
0.0
 10
129.1074
 20
-82.6225
 30
0.0
 10
129.1074
 20
-82.6225
 30
0.0
 10
129.8957
 20
-82.9249
 30
0.0
 10
130.024
 20
-82.62
 30
0.0
 10
129.6092
 20
-81.43
 30
0.0
 10
129.6092
 20
-81.43
 30
0.0
 10
129.0779
 20
-79.9059
 30
0.0
 10
129.6413
 20
-78.4076
 30
0.0
 10
131.8953
 20
-75.3521
 30
0.0
 10
131.8953
 20
-75.3521
 30
0.0
 10
132.9473
 20
-73.9259
 30
0.0
 10
133.8081
 20
-72.4026
 30
0.0
 10
133.8081
 20
-71.967
 30
0.0
 10
133.8081
 20
-71.967
 30
0.0
 10
133.8081
 20
-70.7906
 30
0.0
 10
132.6146
 20
-69.4873
 30
0.0
 10
130.7231
 20
-68.5982
 30
0.0
 10
130.7231
 20
-68.5982
 30
0.0
 10
129.2738
 20
-67.9169
 30
0.0
 10
129.1316
 20
-67.7604
 30
0.0
 10
129.6826
 20
-67.452
 30
0.0
 10
129.6826
 20
-67.452
 30
0.0
 10
130.6627
 20
-66.9035
 30
0.0
 10
133.1929
 20
-67.7668
 30
0.0
 10
134.908
 20
-69.2348
 30
0.0
 10
134.908
 20
-69.2348
 30
0.0
 10
138.3595
 20
-72.1891
 30
0.0
 10
139.0463
 20
-77.1922
 30
0.0
 10
136.4782
 20
-80.6731
 30
0.0
 10
136.4782
 20
-80.6731
 30
0.0
 10
135.2988
 20
-82.2717
 30
0.0
 10
135.3506
 20
-82.5322
 30
0.0
 10
136.7943
 20
-82.2613
 30
0.0
 10
136.7943
 20
-82.2613
 30
0.0
 10
138.6797
 20
-81.9076
 30
0.0
 10
142.9878
 20
-82.7306
 30
0.0
 10
145.6418
 20
-83.9515
 30
0.0
 10
145.6418
 20
-83.9515
 30
0.0
 10
148.8052
 20
-85.4068
 30
0.0
 10
149.1933
 20
-85.0989
 30
0.0
 10
148.0835
 20
-82.0148
 30
0.0
 10
148.0835
 20
-82.0148
 30
0.0
 10
147.1203
 20
-79.3379
 30
0.0
 10
146.0129
 20
-77.3971
 30
0.0
 10
144.2572
 20
-75.309
 30
0.0
 10
144.2572
 20
-75.309
 30
0.0
 10
140.8962
 20
-71.3559
 30
0.0
 10
140.2359
 20
-63.6607
 30
0.0
 10
141.909
 20
-59.596
 30
0.0
 10
141.909
 20
-59.596
 30
0.0
 10
143.1577
 20
-56.8528
 30
0.0
 10
144.7957
 20
-55.1069
 30
0.0
 10
146.9807
 20
-53.0819
 30
0.0
 10
146.9807
 20
-53.0819
 30
0.0
 10
148.1982
 20
-52.0506
 30
0.0
 10
149.2099
 20
-51.0388
 30
0.0
 10
150.6954
 20
-50.1265
 30
0.0
 10
150.6954
 20
-50.1265
 30
0.0
 10
149.3411
 20
-49.8996
 30
0.0
 10
148.1867
 20
-50.8899
 30
0.0
 10
147.0242
 20
-51.8573
 30
0.0
  0
SPLINE
  5
55
330
1F
100
AcDbEntity
  8
layer 1
 62
     7
100
AcDbSpline
210
0.0
220
0.0
230
1.0
 70
    11
 71
     3
 72
    48
 73
    44
 74
     0
 42
0.0000000001
 43
0.0000000001
 12
1.0
 22
0.0
 32
0.0
 13
1.0
 23
0.0
 33
0.0
 40
0.0
 40
0.0
 40
0.0
 40
0.0
 40
0.0833333333333333
 40
0.0833333333333333
 40
0.0833333333333333
 40
0.0833333333333333
 40
0.1666666666666667
 40
0.1666666666666667
 40
0.1666666666666667
 40
0.1666666666666667
 40
0.25
 40
0.25
 40
0.25
 40
0.25
 40
0.3333333333333333
 40
0.3333333333333333
 40
0.3333333333333333
 40
0.3333333333333333
 40
0.4166666666666667
 40
0.4166666666666667
 40
0.4166666666666667
 40
0.4166666666666667
 40
0.5
 40
0.5
 40
0.5
 40
0.5
 40
0.5833333333333334
 40
0.5833333333333334
 40
0.5833333333333334
 40
0.5833333333333334
 40
0.6666666666666666
 40
0.6666666666666666
 40
0.6666666666666666
 40
0.6666666666666666
 40
0.75
 40
0.75
 40
0.75
 40
0.75
 40
0.8333333333333334
 40
0.8333333333333334
 40
0.8333333333333334
 40
0.8333333333333334
 40
1.0
 40
1.0
 40
1.0
 40
1.0
 10
88.1648
 20
-75.9303
 30
0.0
 10
88.1648
 20
-75.9303
 30
0.0
 10
83.5008
 20
-78.3672
 30
0.0
 10
83.5008
 20
-78.3672
 30
0.0
 10
83.5008
 20
-78.3672
 30
0.0
 10
78.0395
 20
-80.7812
 30
0.0
 10
74.1602
 20
-79.5594
 30
0.0
 10
72.3017
 20
-74.9159
 30
0.0
 10
72.3017
 20
-74.9159
 30
0.0
 10
72.3017
 20
-74.9159
 30
0.0
 10
72.3017
 20
-92.018
 30
0.0
 10
72.3017
 20
-92.018
 30
0.0
 10
72.3017
 20
-92.018
 30
0.0
 10
72.3017
 20
-92.018
 30
0.0
 10
72.3017
 20
-109.1201
 30
0.0
 10
72.3017
 20
-109.1201
 30
0.0
 10
72.3017
 20
-109.1201
 30
0.0
 10
72.3017
 20
-109.1201
 30
0.0
 10
78.9467
 20
-109.1334
 30
0.0
 10
78.9467
 20
-109.1334
 30
0.0
 10
78.9467
 20
-109.1334
 30
0.0
 10
78.7974
 20
-108.7912
 30
0.0
 10
78.5172
 20
-105.1446
 30
0.0
 10
78.4287
 20
-101.8065
 30
0.0
 10
78.4287
 20
-101.8065
 30
0.0
 10
78.2852
 20
-96.3956
 30
0.0
 10
78.3533
 20
-95.3929
 30
0.0
 10
79.0561
 20
-92.5628
 30
0.0
 10
79.0561
 20
-92.5628
 30
0.0
 10
80.9401
 20
-84.9759
 30
0.0
 10
85.1028
 20
-79.3622
 30
0.0
 10
92.4578
 20
-74.4896
 30
0.0
 10
92.4578
 20
-74.4896
 30
0.0
 10
95.9483
 20
-72.1772
 30
0.0
 10
97.0994
 20
-71.2266
 30
0.0
 10
96.7876
 20
-70.9147
 30
0.0
 10
96.7876
 20
-70.9147
 30
0.0
 10
96.7068
 20
-70.834
 30
0.0
 10
95.849
 20
-71.5298
 30
0.0
 10
94.6798
 20
-72.1581
 30
0.0
 10
94.6798
 20
-72.1581
 30
0.0
 10
94.6798
 20
-72.2476
 30
0.0
 10
88.6259
 20
-75.6546
 30
0.0
 10
88.1648
 20
-75.9303
 30
0.0
  0
SPLINE
  5
56
330
1F
100
AcDbEntity
  8
layer 1
 62
     7
100
AcDbSpline
210
0.0
220
0.0
230
1.0
 70
    11
 71
     3
 72
    84
 73
    80
 74
     0
 42
0.0000000001
 43
0.0000000001
 12
1.0
 22
0.0
 32
0.0
 13
1.0
 23
0.0
 33
0.0
 40
0.0
 40
0.0
 40
0.0
 40
0.0
 40
0.0476190476190476
 40
0.0476190476190476
 40
0.0476190476190476
 40
0.0476190476190476
 40
0.0952380952380952
 40
0.0952380952380952
 40
0.0952380952380952
 40
0.0952380952380952
 40
0.1428571428571428
 40
0.1428571428571428
 40
0.1428571428571428
 40
0.1428571428571428
 40
0.1904761904761905
 40
0.1904761904761905
 40
0.1904761904761905
 40
0.1904761904761905
 40
0.2380952380952381
 40
0.2380952380952381
 40
0.2380952380952381
 40
0.2380952380952381
 40
0.2857142857142857
 40
0.2857142857142857
 40
0.2857142857142857
 40
0.2857142857142857
 40
0.3333333333333333
 40
0.3333333333333333
 40
0.3333333333333333
 40
0.3333333333333333
 40
0.3809523809523809
 40
0.3809523809523809
 40
0.3809523809523809
 40
0.3809523809523809
 40
0.4285714285714285
 40
0.4285714285714285
 40
0.4285714285714285
 40
0.4285714285714285
 40
0.4761904761904762
 40
0.4761904761904762
 40
0.4761904761904762
 40
0.4761904761904762
 40
0.5238095238095238
 40
0.5238095238095238
 40
0.5238095238095238
 40
0.5238095238095238
 40
0.5714285714285714
 40
0.5714285714285714
 40
0.5714285714285714
 40
0.5714285714285714
 40
0.6190476190476191
 40
0.6190476190476191
 40
0.6190476190476191
 40
0.6190476190476191
 40
0.6666666666666666
 40
0.6666666666666666
 40
0.6666666666666666
 40
0.6666666666666666
 40
0.7142857142857143
 40
0.7142857142857143
 40
0.7142857142857143
 40
0.7142857142857143
 40
0.7619047619047619
 40
0.7619047619047619
 40
0.7619047619047619
 40
0.7619047619047619
 40
0.8095238095238095
 40
0.8095238095238095
 40
0.8095238095238095
 40
0.8095238095238095
 40
0.8571428571428571
 40
0.8571428571428571
 40
0.8571428571428571
 40
0.8571428571428571
 40
0.9047619047619048
 40
0.9047619047619048
 40
0.9047619047619048
 40
0.9047619047619048
 40
1.0
 40
1.0
 40
1.0
 40
1.0
 10
131.4946
 20
-84.4111
 30
0.0
 10
125.7539
 20
-85.9161
 30
0.0
 10
121.861
 20
-89.1761
 30
0.0
 10
118.7604
 20
-94.3585
 30
0.0
 10
118.7604
 20
-94.3585
 30
0.0
 10
115.4998
 20
-99.9373
 30
0.0
 10
118.2131
 20
-106.837
 30
0.0
 10
122.0568
 20
-109.1204
 30
0.0
 10
122.0568
 20
-109.1204
 30
0.0
 10
122.0568
 20
-109.1204
 30
0.0
 10
136.7964
 20
-109.1204
 30
0.0
 10
136.7964
 20
-109.1204
 30
0.0
 10
136.7964
 20
-109.1204
 30
0.0
 10
136.7964
 20
-109.1204
 30
0.0
 10
151.5359
 20
-109.1204
 30
0.0
 10
151.5359
 20
-109.1204
 30
0.0
 10
151.5359
 20
-109.1204
 30
0.0
 10
154.0518
 20
-106.511
 30
0.0
 10
156.2891
 20
-100.912
 30
0.0
 10
155.4659
 20
-96.5304
 30
0.0
 10
155.4659
 20
-96.5304
 30
0.0
 10
154.7613
 20
-93.7318
 30
0.0
 10
152.2954
 20
-91.6589
 30
0.0
 10
152.2954
 20
-93.8651
 30
0.0
 10
152.2954
 20
-93.8651
 30
0.0
 10
152.2954
 20
-96.2971
 30
0.0
 10
149.5381
 20
-99.777
 30
0.0
 10
146.5479
 20
-101.1189
 30
0.0
 10
146.5479
 20
-101.1189
 30
0.0
 10
142.6925
 20
-102.8491
 30
0.0
 10
138.6991
 20
-101.9687
 30
0.0
 10
135.714
 20
-98.7303
 30
0.0
 10
135.714
 20
-98.7303
 30
0.0
 10
133.7484
 20
-96.5978
 30
0.0
 10
132.9745
 20
-94.449
 30
0.0
 10
133.1559
 20
-91.6261
 30
0.0
 10
133.1559
 20
-91.6261
 30
0.0
 10
133.4861
 20
-86.4893
 30
0.0
 10
136.707
 20
-83.5496
 30
0.0
 10
140.451
 20
-84.9682
 30
0.0
 10
140.451
 20
-84.9682
 30
0.0
 10
143.0846
 20
-85.966
 30
0.0
 10
144.2181
 20
-88.7938
 30
0.0
 10
142.4034
 20
-90.2211
 30
0.0
 10
142.4034
 20
-90.2211
 30
0.0
 10
141.3453
 20
-91.0535
 30
0.0
 10
140.1948
 20
-90.8334
 30
0.0
 10
139.5675
 20
-90.2063
 30
0.0
 10
139.5675
 20
-90.2063
 30
0.0
 10
138.9239
 20
-89.5627
 30
0.0
 10
139.0552
 20
-88.7746
 30
0.0
 10
139.822
 20
-89.0179
 30
0.0
 10
139.822
 20
-89.0179
 30
0.0
 10
140.6086
 20
-89.2676
 30
0.0
 10
141.0511
 20
-88.804
 30
0.0
 10
140.745
 20
-88.0064
 30
0.0
 10
140.745
 20
-88.0064
 30
0.0
 10
140.189
 20
-86.5574
 30
0.0
 10
137.218
 20
-87.7157
 30
0.0
 10
136.7871
 20
-89.4326
 30
0.0
 10
136.7871
 20
-89.4326
 30
0.0
 10
136.4631
 20
-90.7234
 30
0.0
 10
137.455
 20
-92.6116
 30
0.0
 10
138.8308
 20
-93.3229
 30
0.0
 10
138.8308
 20
-93.3229
 30
0.0
 10
140.4209
 20
-94.1453
 30
0.0
 10
142.9925
 20
-93.846
 30
0.0
 10
144.8395
 20
-92.6238
 30
0.0
 10
144.8395
 20
-92.6238
 30
0.0
 10
146.5281
 20
-91.5063
 30
0.0
 10
148.3845
 20
-88.7771
 30
0.0
 10
148.3845
 20
-87.4122
 30
0.0
 10
148.3845
 20
-87.4122
 30
0.0
 10
148.3845
 20
-86.5967
 30
0.0
 10
148.0863
 20
-86.3299
 30
0.0
 10
146.257
 20
-85.509
 30
0.0
 10
146.257
 20
-85.509
 30
0.0
 10
141.5843
 20
-83.4122
 30
0.0
 10
136.4166
 20
-83.0461
 30
0.0
 10
131.4946
 20
-84.4111
 30
0.0
  0
SPLINE
  5
57
330
1F
100
AcDbEntity
  8
layer 1
 62
     7
100
AcDbSpline
210
0.0
220
0.0
230
1.0
 70
    11
 71
     3
 72
    24
 73
    20
 74
     0
 42
0.0000000001
 43
0.0000000001
 12
1.0
 22
0.0
 32
0.0
 13
1.0
 23
0.0
 33
0.0
 40
0.0
 40
0.0
 40
0.0
 40
0.0
 40
0.1666666666666667
 40
0.1666666666666667
 40
0.1666666666666667
 40
0.1666666666666667
 40
0.3333333333333333
 40
0.3333333333333333
 40
0.3333333333333333
 40
0.3333333333333333
 40
0.5
 40
0.5
 40
0.5
 40
0.5
 40
0.6666666666666666
 40
0.6666666666666666
 40
0.6666666666666666
 40
0.6666666666666666
 40
1.0
 40
1.0
 40
1.0
 40
1.0
 10
115.7788
 20
-93.0029
 30
0.0
 10
111.8049
 20
-96.6904
 30
0.0
 10
106.3351
 20
-101.287
 30
0.0
 10
107.1434
 20
-109.1203
 30
0.0
 10
107.1434
 20
-109.1203
 30
0.0
 10
107.1434
 20
-109.1203
 30
0.0
 10
117.2984
 20
-109.0748
 30
0.0
 10
117.2984
 20
-109.0748
 30
0.0
 10
117.2984
 20
-109.0748
 30
0.0
 10
114.0277
 20
-103.5527
 30
0.0
 10
114.7432
 20
-97.6034
 30
0.0
 10
117.6275
 20
-93.4193
 30
0.0
 10
117.6275
 20
-93.4193
 30
0.0
 10
119.389
 20
-90.8639
 30
0.0
 10
118.6627
 20
-90.6783
 30
0.0
 10
115.7787
 20
-93.003
 30
0.0
 10
115.7787
 20
-93.003
 30
0.0
 10
115.7787
 20
-93.003
 30
0.0
 10
115.7788
 20
-93.0029
 30
0.0
 10
115.7788
 20
-93.0029
 30
0.0
  0
ENDSEC
  0
SECTION
  2
OBJECTS
  0
DICTIONARY
  5
C
330
0
100
AcDbDictionary
281
     1
  3
ACAD_GROUP
350
D
  3
ACAD_LAYOUT
350
1A
  3
ACAD_MATERIAL
350
3B
  3
ACAD_MLEADERSTYLE
350
79
  3
ACAD_MLINESTYLE
350
17
  3
ACAD_PLOTSETTINGS
350
19
  3
ACAD_PLOTSTYLENAME
350
E
  3
ACAD_TABLESTYLE
350
78
  3
ACAD_VISUALSTYLE
350
2A
  0
DICTIONARY
  5
D
102
{ACAD_REACTORS
330
C
102
}
330
C
100
AcDbDictionary
281
     1
  0
DICTIONARY
  5
1A
102
{ACAD_REACTORS
330
C
102
}
330
C
100
AcDbDictionary
281
     1
  3
Layout1
350
1E
  3
Layout2
350
26
  3
Model
350
22
  0
DICTIONARY
  5
3B
102
{ACAD_REACTORS
330
C
102
}
330
C
100
AcDbDictionary
281
     1
  3
ByBlock
350
3D
  3
ByLayer
350
3C
  3
Global
350
3E
  0
DICTIONARY
  5
79
102
{ACAD_REACTORS
330
C
102
}
330
C
100
AcDbDictionary
281
     1
  0
DICTIONARY
  5
17
102
{ACAD_REACTORS
330
C
102
}
330
C
100
AcDbDictionary
281
     1
  3
Standard
350
18
  0
DICTIONARY
  5
19
102
{ACAD_REACTORS
330
C
102
}
330
C
100
AcDbDictionary
281
     1
  0
ACDBDICTIONARYWDFLT
  5
E
102
{ACAD_REACTORS
330
C
102
}
330
C
100
AcDbDictionary
281
     1
  3
Normal
350
F
100
AcDbDictionaryWithDefault
340
F
  0
DICTIONARY
  5
78
102
{ACAD_REACTORS
330
C
102
}
330
C
100
AcDbDictionary
281
     1
  0
DICTIONARY
  5
2A
102
{ACAD_REACTORS
330
C
102
}
330
C
100
AcDbDictionary
281
     1
  3
2dWireframe
350
2F
  3
3D Hidden
350
31
  3
3dWireframe
350
30
  3
Basic
350
32
  3
Brighten
350
36
  3
ColorChange
350
3A
  3
Conceptual
350
34
  3
Dim
350
35
  3
Facepattern
350
39
  3
Flat
350
2B
  3
FlatWithEdges
350
2C
  3
Gouraud
350
2D
  3
GouraudWithEdges
350
2E
  3
Linepattern
350
38
  3
Realistic
350
33
  3
Thicken
350
37
  0
LAYOUT
  5
1E
102
{ACAD_REACTORS
330
1A
102
}
330
1A
100
AcDbPlotSettings
  1

  2
none_device
  4

  6

 40
0.0
 41
0.0
 42
0.0
 43
0.0
 44
0.0
 45
0.0
 46
0.0
 47
0.0
 48
0.0
 49
0.0
140
0.0
141
0.0
142
1.0
143
1.0
 70
   688
 72
     0
 73
     0
 74
     5
  7

 75
    16
 76
     0
 77
     2
 78
   300
147
1.0
148
0.0
149
0.0
100
AcDbLayout
  1
Layout1
 70
     1
 71
     1
 10
0.0
 20
0.0
 11
12.0
 21
9.0
 12
0.0
 22
0.0
 32
0.0
 14
1.000000000000000E+20
 24
1.000000000000000E+20
 34
1.000000000000000E+20
 15
-1.000000000000000E+20
 25
-1.000000000000000E+20
 35
-1.000000000000000E+20
146
0.0
 13
0.0
 23
0.0
 33
0.0
 16
1.0
 26
0.0
 36
0.0
 17
0.0
 27
1.0
 37
0.0
 76
     0
330
1B
  0
LAYOUT
  5
26
102
{ACAD_REACTORS
330
1A
102
}
330
1A
100
AcDbPlotSettings
  1

  2
none_device
  4

  6

 40
0.0
 41
0.0
 42
0.0
 43
0.0
 44
0.0
 45
0.0
 46
0.0
 47
0.0
 48
0.0
 49
0.0
140
0.0
141
0.0
142
1.0
143
1.0
 70
   688
 72
     0
 73
     0
 74
     5
  7

 75
    16
 76
     0
 77
     2
 78
   300
147
1.0
148
0.0
149
0.0
100
AcDbLayout
  1
Layout2
 70
     1
 71
     2
 10
0.0
 20
0.0
 11
0.0
 21
0.0
 12
0.0
 22
0.0
 32
0.0
 14
0.0
 24
0.0
 34
0.0
 15
0.0
 25
0.0
 35
0.0
146
0.0
 13
0.0
 23
0.0
 33
0.0
 16
1.0
 26
0.0
 36
0.0
 17
0.0
 27
1.0
 37
0.0
 76
     0
330
23
  0
LAYOUT
  5
22
102
{ACAD_REACTORS
330
1A
102
}
330
1A
100
AcDbPlotSettings
  1

  2
none_device
  4

  6

 40
0.0
 41
0.0
 42
0.0
 43
0.0
 44
0.0
 45
0.0
 46
0.0
 47
0.0
 48
0.0
 49
0.0
140
0.0
141
0.0
142
1.0
143
1.0
 70
  1712
 72
     0
 73
     0
 74
     0
  7

 75
     0
 76
     0
 77
     2
 78
   300
147
1.0
148
0.0
149
0.0
100
AcDbLayout
  1
Model
 70
     1
 71
     0
 10
0.0
 20
0.0
 11
12.0
 21
9.0
 12
0.0
 22
0.0
 32
0.0
 14
66.4468
 24
-114.9605
 34
0.0
 15
175.9269
 25
131.8765
 35
0.0
146
0.0
 13
0.0
 23
0.0
 33
0.0
 16
1.0
 26
0.0
 36
0.0
 17
0.0
 27
1.0
 37
0.0
 76
     0
330
1F
331
29
  0
MATERIAL
  5
3D
102
{ACAD_REACTORS
330
3B
102
}
330
3B
100
AcDbMaterial
  1
ByBlock
 72
     1
 94
      127
  0
MATERIAL
  5
3C
102
{ACAD_REACTORS
330
3B
102
}
330
3B
100
AcDbMaterial
  1
ByLayer
 72
     1
 94
      127
  0
MATERIAL
  5
3E
102
{ACAD_REACTORS
330
3B
102
}
330
3B
100
AcDbMaterial
  1
Global
 72
     1
 94
      127
  0
MLINESTYLE
  5
18
102
{ACAD_REACTORS
330
17
102
}
330
17
100
AcDbMlineStyle
  2
Standard
 70
     0
  3

 62
   256
 51
90.0
 52
90.0
 71
     2
 49
0.5
 62
   256
  6
BYLAYER
 49
-0.5
 62
   256
  6
BYLAYER
  0
ACDBPLACEHOLDER
  5
F
102
{ACAD_REACTORS
330
E
102
}
330
E
  0
VISUALSTYLE
  5
2F
102
{ACAD_REACTORS
330
2A
102
}
102
{ACAD_XDICTIONARY
360
60
102
}
330
2A
100
AcDbVisualStyle
  2
2dWireframe
 70
     4
 71
     0
 72
     2
 73
     0
 90
        0
 40
-0.6
 41
-30.0
 62
     5
 63
     7
421
 16777215
 74
     1
 91
        4
 64
     7
 65
   257
 75
     1
175
     1
 42
1.0
 92
        0
 66
   257
 43
1.0
 76
     1
 77
     6
 78
     2
 67
     7
 79
     5
170
     0
171
     0
290
     0
174
     0
 93
        1
 44
0.0
173
     0
291
     0
 45
0.0
  0
VISUALSTYLE
  5
31
102
{ACAD_REACTORS
330
2A
102
}
102
{ACAD_XDICTIONARY
360
64
102
}
330
2A
100
AcDbVisualStyle
  2
3D Hidden
 70
     6
 71
     1
 72
     2
 73
     2
 90
        0
 40
-0.6
 41
-30.0
 62
     5
 63
     7
421
 16777215
 74
     2
 91
        2
 64
     7
 65
   257
 75
     2
175
     1
 42
40.0
 92
        0
 66
   257
 43
1.0
 76
     1
 77
     6
 78
     2
 67
     7
 79
     3
170
     0
171
     0
290
     0
174
     0
 93
        1
 44
0.0
173
     0
291
     0
 45
0.0
  0
VISUALSTYLE
  5
30
102
{ACAD_REACTORS
330
2A
102
}
102
{ACAD_XDICTIONARY
360
62
102
}
330
2A
100
AcDbVisualStyle
  2
3dWireframe
 70
     5
 71
     0
 72
     2
 73
     0
 90
        0
 40
-0.6
 41
-30.0
 62
     5
 63
     7
421
 16777215
 74
     1
 91
        4
 64
     7
 65
   257
 75
     1
175
     1
 42
1.0
 92
        0
 66
   257
 43
1.0
 76
     1
 77
     6
 78
     2
 67
     7
 79
     5
170
     0
171
     0
290
     0
174
     0
 93
        1
 44
0.0
173
     0
291
     0
 45
0.0
  0
VISUALSTYLE
  5
32
102
{ACAD_REACTORS
330
2A
102
}
102
{ACAD_XDICTIONARY
360
66
102
}
330
2A
100
AcDbVisualStyle
  2
Basic
 70
     7
 71
     1
 72
     0
 73
     1
 90
        0
 40
-0.6
 41
-30.0
 62
     5
 63
     7
421
 16777215
 74
     0
 91
        4
 64
     7
 65
   257
 75
     1
175
     1
 42
1.0
 92
        8
 66
     7
 43
1.0
 76
     1
 77
     6
 78
     2
 67
     7
 79
     5
170
     0
171
     0
290
     0
174
     0
 93
        1
 44
0.0
173
     0
291
     1
 45
0.0
  0
VISUALSTYLE
  5
36
102
{ACAD_REACTORS
330
2A
102
}
102
{ACAD_XDICTIONARY
360
6E
102
}
330
2A
100
AcDbVisualStyle
  2
Brighten
 70
    12
 71
     2
 72
     2
 73
     0
 90
        0
 40
-0.6
 41
-30.0
 62
     5
 63
     7
421
 16777215
 74
     1
 91
        4
 64
     7
 65
   257
 75
     1
175
     1
 42
1.0
 92
        8
 66
     7
 43
1.0
 76
     1
 77
     6
 78
     2
 67
     7
 79
     5
170
     0
171
     0
290
     0
174
     0
 93
        1
 44
50.0
173
     0
291
     1
 45
0.0
  0
VISUALSTYLE
  5
3A
102
{ACAD_REACTORS
330
2A
102
}
102
{ACAD_XDICTIONARY
360
76
102
}
330
2A
100
AcDbVisualStyle
  2
ColorChange
 70
    16
 71
     2
 72
     2
 73
     3
 90
        0
 40
-0.6
 41
-30.0
 62
     5
 63
     8
421
  8421504
 74
     1
 91
        4
 64
     7
 65
   257
 75
     1
175
     1
 42
1.0
 92
        8
 66
     8
424
  8421504
 43
1.0
 76
     1
 77
     6
 78
     2
 67
     7
 79
     5
170
     0
171
     0
290
     0
174
     0
 93
        1
 44
0.0
173
     0
291
     1
 45
0.0
  0
VISUALSTYLE
  5
34
102
{ACAD_REACTORS
330
2A
102
}
102
{ACAD_XDICTIONARY
360
6A
102
}
330
2A
100
AcDbVisualStyle
  2
Conceptual
 70
     9
 71
     3
 72
     2
 73
     0
 90
        0
 40
-0.6
 41
-30.0
 62
     5
 63
     7
421
 16777215
 74
     2
 91
        2
 64
     7
 65
   257
 75
     1
175
     1
 42
40.0
 92
        8
 66
     7
 43
1.0
 76
     1
 77
     6
 78
     2
 67
     7
 79
     3
170
     0
171
     0
290
     0
174
     0
 93
        1
 44
0.0
173
     0
291
     0
 45
0.0
  0
VISUALSTYLE
  5
35
102
{ACAD_REACTORS
330
2A
102
}
102
{ACAD_XDICTIONARY
360
6C
102
}
330
2A
100
AcDbVisualStyle
  2
Dim
 70
    11
 71
     2
 72
     2
 73
     0
 90
        0
 40
-0.6
 41
-30.0
 62
     5
 63
     7
421
 16777215
 74
     1
 91
        4
 64
     7
 65
   257
 75
     1
175
     1
 42
1.0
 92
        8
 66
     7
 43
1.0
 76
     1
 77
     6
 78
     2
 67
     7
 79
     5
170
     0
171
     0
290
     0
174
     0
 93
        1
 44
-50.0
173
     0
291
     1
 45
0.0
  0
VISUALSTYLE
  5
39
102
{ACAD_REACTORS
330
2A
102
}
102
{ACAD_XDICTIONARY
360
74
102
}
330
2A
100
AcDbVisualStyle
  2
Facepattern
 70
    15
 71
     2
 72
     2
 73
     0
 90
        0
 40
-0.6
 41
-30.0
 62
     5
 63
     7
421
 16777215
 74
     1
 91
        4
 64
     7
 65
   257
 75
     1
175
     1
 42
1.0
 92
        8
 66
     7
 43
1.0
 76
     1
 77
     6
 78
     2
 67
     7
 79
     5
170
     0
171
     0
290
     0
174
     0
 93
        1
 44
0.0
173
     0
291
     1
 45
0.0
  0
VISUALSTYLE
  5
2B
102
{ACAD_REACTORS
330
2A
102
}
102
{ACAD_XDICTIONARY
360
58
102
}
330
2A
100
AcDbVisualStyle
  2
Flat
 70
     0
 71
     2
 72
     1
 73
     1
 90
        2
 40
-0.6
 41
30.0
 62
     5
 63
     7
421
 16777215
 74
     0
 91
        4
 64
     7
 65
   257
 75
     1
175
     1
 42
1.0
 92
        8
 66
     7
 43
1.0
 76
     1
 77
     6
 78
     2
 67
     7
 79
     5
170
     0
171
     0
290
     0
174
     0
 93
       13
 44
0.0
173
     0
291
     1
 45
0.0
  0
VISUALSTYLE
  5
2C
102
{ACAD_REACTORS
330
2A
102
}
102
{ACAD_XDICTIONARY
360
5A
102
}
330
2A
100
AcDbVisualStyle
  2
FlatWithEdges
 70
     1
 71
     2
 72
     1
 73
     1
 90
        2
 40
-0.6
 41
30.0
 62
     5
 63
     7
421
 16777215
 74
     1
 91
        4
 64
     7
 65
   257
 75
     1
175
     1
 42
1.0
 92
        0
 66
   257
 43
1.0
 76
     1
 77
     6
 78
     2
 67
     7
 79
     5
170
     0
171
     0
290
     0
174
     0
 93
       13
 44
0.0
173
     0
291
     1
 45
0.0
  0
VISUALSTYLE
  5
2D
102
{ACAD_REACTORS
330
2A
102
}
102
{ACAD_XDICTIONARY
360
5C
102
}
330
2A
100
AcDbVisualStyle
  2
Gouraud
 70
     2
 71
     2
 72
     2
 73
     1
 90
        2
 40
-0.6
 41
30.0
 62
     5
 63
     7
421
 16777215
 74
     0
 91
        4
 64
     7
 65
   257
 75
     1
175
     1
 42
1.0
 92
        0
 66
     7
 43
1.0
 76
     1
 77
     6
 78
     2
 67
     7
 79
     5
170
     0
171
     0
290
     0
174
     0
 93
       13
 44
0.0
173
     0
291
     1
 45
0.0
  0
VISUALSTYLE
  5
2E
102
{ACAD_REACTORS
330
2A
102
}
102
{ACAD_XDICTIONARY
360
5E
102
}
330
2A
100
AcDbVisualStyle
  2
GouraudWithEdges
 70
     3
 71
     2
 72
     2
 73
     1
 90
        2
 40
-0.6
 41
30.0
 62
     5
 63
     7
421
 16777215
 74
     1
 91
        4
 64
     7
 65
   257
 75
     1
175
     1
 42
1.0
 92
        0
 66
   257
 43
1.0
 76
     1
 77
     6
 78
     2
 67
     7
 79
     5
170
     0
171
     0
290
     0
174
     0
 93
       13
 44
0.0
173
     0
291
     1
 45
0.0
  0
VISUALSTYLE
  5
38
102
{ACAD_REACTORS
330
2A
102
}
102
{ACAD_XDICTIONARY
360
72
102
}
330
2A
100
AcDbVisualStyle
  2
Linepattern
 70
    14
 71
     2
 72
     2
 73
     0
 90
        0
 40
-0.6
 41
-30.0
 62
     5
 63
     7
421
 16777215
 74
     1
 91
        4
 64
     7
 65
   257
 75
     7
175
     7
 42
1.0
 92
        8
 66
     7
 43
1.0
 76
     1
 77
     6
 78
     2
 67
     7
 79
     5
170
     0
171
     0
290
     0
174
     0
 93
        1
 44
0.0
173
     0
291
     1
 45
0.0
  0
VISUALSTYLE
  5
33
102
{ACAD_REACTORS
330
2A
102
}
102
{ACAD_XDICTIONARY
360
68
102
}
330
2A
100
AcDbVisualStyle
  2
Realistic
 70
     8
 71
     2
 72
     2
 73
     0
 90
        0
 40
-0.6
 41
-30.0
 62
     5
 63
     7
421
 16777215
 74
     1
 91
        0
 64
     7
 65
   257
 75
     1
175
     1
 42
1.0
 92
        8
 66
     8
424
  7895160
 43
1.0
 76
     1
 77
     6
 78
     2
 67
     7
 79
     5
170
     0
171
     0
290
     0
174
     0
 93
       13
 44
0.0
173
     0
291
     0
 45
0.0
  0
VISUALSTYLE
  5
37
102
{ACAD_REACTORS
330
2A
102
}
102
{ACAD_XDICTIONARY
360
70
102
}
330
2A
100
AcDbVisualStyle
  2
Thicken
 70
    13
 71
     2
 72
     2
 73
     0
 90
        0
 40
-0.6
 41
-30.0
 62
     5
 63
     7
421
 16777215
 74
     1
 91
        4
 64
     7
 65
   257
 75
     1
175
     1
 42
1.0
 92
       12
 66
     7
 43
1.0
 76
     1
 77
     6
 78
     2
 67
     7
 79
     5
170
     0
171
     0
290
     0
174
     0
 93
        1
 44
0.0
173
     0
291
     1
 45
0.0
  0
DICTIONARY
  5
60
330
2F
100
AcDbDictionary
280
     1
281
     1
  3
ACAD_XREC_ROUNDTRIP
360
61
  0
DICTIONARY
  5
64
330
31
100
AcDbDictionary
280
     1
281
     1
  3
ACAD_XREC_ROUNDTRIP
360
65
  0
DICTIONARY
  5
62
330
30
100
AcDbDictionary
280
     1
281
     1
  3
ACAD_XREC_ROUNDTRIP
360
63
  0
DICTIONARY
  5
66
330
32
100
AcDbDictionary
280
     1
281
     1
  3
ACAD_XREC_ROUNDTRIP
360
67
  0
DICTIONARY
  5
6E
330
36
100
AcDbDictionary
280
     1
281
     1
  3
ACAD_XREC_ROUNDTRIP
360
6F
  0
DICTIONARY
  5
76
330
3A
100
AcDbDictionary
280
     1
281
     1
  3
ACAD_XREC_ROUNDTRIP
360
77
  0
DICTIONARY
  5
6A
330
34
100
AcDbDictionary
280
     1
281
     1
  3
ACAD_XREC_ROUNDTRIP
360
6B
  0
DICTIONARY
  5
6C
330
35
100
AcDbDictionary
280
     1
281
     1
  3
ACAD_XREC_ROUNDTRIP
360
6D
  0
DICTIONARY
  5
74
330
39
100
AcDbDictionary
280
     1
281
     1
  3
ACAD_XREC_ROUNDTRIP
360
75
  0
DICTIONARY
  5
58
330
2B
100
AcDbDictionary
280
     1
281
     1
  3
ACAD_XREC_ROUNDTRIP
360
59
  0
DICTIONARY
  5
5A
330
2C
100
AcDbDictionary
280
     1
281
     1
  3
ACAD_XREC_ROUNDTRIP
360
5B
  0
DICTIONARY
  5
5C
330
2D
100
AcDbDictionary
280
     1
281
     1
  3
ACAD_XREC_ROUNDTRIP
360
5D
  0
DICTIONARY
  5
5E
330
2E
100
AcDbDictionary
280
     1
281
     1
  3
ACAD_XREC_ROUNDTRIP
360
5F
  0
DICTIONARY
  5
72
330
38
100
AcDbDictionary
280
     1
281
     1
  3
ACAD_XREC_ROUNDTRIP
360
73
  0
DICTIONARY
  5
68
330
33
100
AcDbDictionary
280
     1
281
     1
  3
ACAD_XREC_ROUNDTRIP
360
69
  0
DICTIONARY
  5
70
330
37
100
AcDbDictionary
280
     1
281
     1
  3
ACAD_XREC_ROUNDTRIP
360
71
  0
XRECORD
  5
61
102
{ACAD_REACTORS
330
60
102
}
330
60
100
AcDbXrecord
280
     1
102
RTVSPropertyOp0
 70
     1
102
RTVSPropertyOp1
 70
     1
102
RTVSPropertyOp2
 70
     1
102
RTVSPropertyOp3
 70
     1
102
RTVSPropertyOp4
 70
     1
102
RTVSPropertyOp5
 70
     1
102
RTVSPropertyOp6
 70
     1
102
RTVSPropertyOp7
 70
     1
102
RTVSPropertyOp8
 70
     1
102
RTVSPropertyOp9
 70
     1
102
RTVSPropertyOp10
 70
     1
102
RTVSPropertyOp11
 70
     1
102
RTVSPropertyOp12
 70
     1
102
RTVSPropertyOp13
 70
     1
102
RTVSPropertyOp14
 70
     1
102
RTVSPropertyOp15
 70
     1
102
RTVSPropertyOp16
 70
     1
102
RTVSPropertyOp17
 70
     1
102
RTVSPropertyOp18
 70
     1
102
RTVSPropertyOp19
 70
     1
102
RTVSPropertyOp20
 70
     1
102
RTVSPropertyOp21
 70
     1
102
RTVSPropertyOp22
 70
     1
102
RTVSPropertyOp23
 70
     1
102
RTVSPropertyOp24
 70
     1
102
RTVSPropertyOp25
 70
     1
102
RTVSPropertyOp26
 70
     1
102
RTVSPropertyOp27
 70
     1
102
RTVSPropertyOp28
 70
     1
102
RTVSPropertyOp29
 70
     1
102
RTVSPropertyOp30
 70
     1
102
RTVSPropertyOp31
 70
     1
102
RTVSPropertyOp32
 70
     1
  0
XRECORD
  5
65
102
{ACAD_REACTORS
330
64
102
}
330
64
100
AcDbXrecord
280
     1
102
RTVSPropertyOp0
 70
     1
102
RTVSPropertyOp1
 70
     1
102
RTVSPropertyOp2
 70
     1
102
RTVSPropertyOp3
 70
     1
102
RTVSPropertyOp4
 70
     1
102
RTVSPropertyOp5
 70
     1
102
RTVSPropertyOp6
 70
     1
102
RTVSPropertyOp7
 70
     1
102
RTVSPropertyOp8
 70
     1
102
RTVSPropertyOp9
 70
     1
102
RTVSPropertyOp10
 70
     1
102
RTVSPropertyOp11
 70
     1
102
RTVSPropertyOp12
 70
     1
102
RTVSPropertyOp13
 70
     1
102
RTVSPropertyOp14
 70
     1
102
RTVSPropertyOp15
 70
     1
102
RTVSPropertyOp16
 70
     1
102
RTVSPropertyOp17
 70
     1
102
RTVSPropertyOp18
 70
     1
102
RTVSPropertyOp19
 70
     1
102
RTVSPropertyOp20
 70
     1
102
RTVSPropertyOp21
 70
     1
102
RTVSPropertyOp22
 70
     1
102
RTVSPropertyOp23
 70
     1
102
RTVSPropertyOp24
 70
     1
102
RTVSPropertyOp25
 70
     1
102
RTVSPropertyOp26
 70
     1
102
RTVSPropertyOp27
 70
     1
102
RTVSPropertyOp28
 70
     1
102
RTVSPropertyOp29
 70
     1
102
RTVSPropertyOp30
 70
     1
102
RTVSPropertyOp31
 70
     1
102
RTVSPropertyOp32
 70
     1
  0
XRECORD
  5
63
102
{ACAD_REACTORS
330
62
102
}
330
62
100
AcDbXrecord
280
     1
102
RTVSPropertyOp0
 70
     1
102
RTVSPropertyOp1
 70
     1
102
RTVSPropertyOp2
 70
     1
102
RTVSPropertyOp3
 70
     1
102
RTVSPropertyOp4
 70
     1
102
RTVSPropertyOp5
 70
     1
102
RTVSPropertyOp6
 70
     1
102
RTVSPropertyOp7
 70
     1
102
RTVSPropertyOp8
 70
     1
102
RTVSPropertyOp9
 70
     1
102
RTVSPropertyOp10
 70
     1
102
RTVSPropertyOp11
 70
     1
102
RTVSPropertyOp12
 70
     1
102
RTVSPropertyOp13
 70
     1
102
RTVSPropertyOp14
 70
     1
102
RTVSPropertyOp15
 70
     1
102
RTVSPropertyOp16
 70
     1
102
RTVSPropertyOp17
 70
     1
102
RTVSPropertyOp18
 70
     1
102
RTVSPropertyOp19
 70
     1
102
RTVSPropertyOp20
 70
     1
102
RTVSPropertyOp21
 70
     1
102
RTVSPropertyOp22
 70
     1
102
RTVSPropertyOp23
 70
     1
102
RTVSPropertyOp24
 70
     1
102
RTVSPropertyOp25
 70
     1
102
RTVSPropertyOp26
 70
     1
102
RTVSPropertyOp27
 70
     1
102
RTVSPropertyOp28
 70
     1
102
RTVSPropertyOp29
 70
     1
102
RTVSPropertyOp30
 70
     1
102
RTVSPropertyOp31
 70
     1
102
RTVSPropertyOp32
 70
     1
  0
XRECORD
  5
67
102
{ACAD_REACTORS
330
66
102
}
330
66
100
AcDbXrecord
280
     1
102
RTVSPropertyOp0
 70
     1
102
RTVSPropertyOp1
 70
     1
102
RTVSPropertyOp2
 70
     1
102
RTVSPropertyOp3
 70
     1
102
RTVSPropertyOp4
 70
     1
102
RTVSPropertyOp5
 70
     1
102
RTVSPropertyOp6
 70
     1
102
RTVSPropertyOp7
 70
     1
102
RTVSPropertyOp8
 70
     1
102
RTVSPropertyOp9
 70
     1
102
RTVSPropertyOp10
 70
     1
102
RTVSPropertyOp11
 70
     1
102
RTVSPropertyOp12
 70
     1
102
RTVSPropertyOp13
 70
     1
102
RTVSPropertyOp14
 70
     1
102
RTVSPropertyOp15
 70
     1
102
RTVSPropertyOp16
 70
     1
102
RTVSPropertyOp17
 70
     1
102
RTVSPropertyOp18
 70
     1
102
RTVSPropertyOp19
 70
     1
102
RTVSPropertyOp20
 70
     1
102
RTVSPropertyOp21
 70
     1
102
RTVSPropertyOp22
 70
     1
102
RTVSPropertyOp23
 70
     1
102
RTVSPropertyOp24
 70
     1
102
RTVSPropertyOp25
 70
     1
102
RTVSPropertyOp26
 70
     1
102
RTVSPropertyOp27
 70
     1
102
RTVSPropertyOp28
 70
     1
102
RTVSPropertyOp29
 70
     1
102
RTVSPropertyOp30
 70
     1
102
RTVSPropertyOp31
 70
     1
102
RTVSPropertyOp32
 70
     1
  0
XRECORD
  5
6F
102
{ACAD_REACTORS
330
6E
102
}
330
6E
100
AcDbXrecord
280
     1
102
RTVSPropertyOp0
 70
     1
102
RTVSPropertyOp1
 70
     1
102
RTVSPropertyOp2
 70
     1
102
RTVSPropertyOp3
 70
     1
102
RTVSPropertyOp4
 70
     1
102
RTVSPropertyOp5
 70
     1
102
RTVSPropertyOp6
 70
     1
102
RTVSPropertyOp7
 70
     1
102
RTVSPropertyOp8
 70
     1
102
RTVSPropertyOp9
 70
     1
102
RTVSPropertyOp10
 70
     1
102
RTVSPropertyOp11
 70
     1
102
RTVSPropertyOp12
 70
     1
102
RTVSPropertyOp13
 70
     1
102
RTVSPropertyOp14
 70
     1
102
RTVSPropertyOp15
 70
     1
102
RTVSPropertyOp16
 70
     1
102
RTVSPropertyOp17
 70
     1
102
RTVSPropertyOp18
 70
     1
102
RTVSPropertyOp19
 70
     1
102
RTVSPropertyOp20
 70
     1
102
RTVSPropertyOp21
 70
     1
102
RTVSPropertyOp22
 70
     1
102
RTVSPropertyOp23
 70
     1
102
RTVSPropertyOp24
 70
     1
102
RTVSPropertyOp25
 70
     1
102
RTVSPropertyOp26
 70
     1
102
RTVSPropertyOp27
 70
     1
102
RTVSPropertyOp28
 70
     1
102
RTVSPropertyOp29
 70
     1
102
RTVSPropertyOp30
 70
     1
102
RTVSPropertyOp31
 70
     1
102
RTVSPropertyOp32
 70
     1
  0
XRECORD
  5
77
102
{ACAD_REACTORS
330
76
102
}
330
76
100
AcDbXrecord
280
     1
102
RTVSPropertyOp0
 70
     1
102
RTVSPropertyOp1
 70
     1
102
RTVSPropertyOp2
 70
     1
102
RTVSPropertyOp3
 70
     1
102
RTVSPropertyOp4
 70
     1
102
RTVSPropertyOp5
 70
     1
102
RTVSPropertyOp6
 70
     1
102
RTVSPropertyOp7
 70
     1
102
RTVSPropertyOp8
 70
     1
102
RTVSPropertyOp9
 70
     1
102
RTVSPropertyOp10
 70
     1
102
RTVSPropertyOp11
 70
     1
102
RTVSPropertyOp12
 70
     1
102
RTVSPropertyOp13
 70
     1
102
RTVSPropertyOp14
 70
     1
102
RTVSPropertyOp15
 70
     1
102
RTVSPropertyOp16
 70
     1
102
RTVSPropertyOp17
 70
     1
102
RTVSPropertyOp18
 70
     1
102
RTVSPropertyOp19
 70
     1
102
RTVSPropertyOp20
 70
     1
102
RTVSPropertyOp21
 70
     1
102
RTVSPropertyOp22
 70
     1
102
RTVSPropertyOp23
 70
     1
102
RTVSPropertyOp24
 70
     1
102
RTVSPropertyOp25
 70
     1
102
RTVSPropertyOp26
 70
     1
102
RTVSPropertyOp27
 70
     1
102
RTVSPropertyOp28
 70
     1
102
RTVSPropertyOp29
 70
     1
102
RTVSPropertyOp30
 70
     1
102
RTVSPropertyOp31
 70
     1
102
RTVSPropertyOp32
 70
     1
  0
XRECORD
  5
6B
102
{ACAD_REACTORS
330
6A
102
}
330
6A
100
AcDbXrecord
280
     1
102
RTVSPropertyOp0
 70
     1
102
RTVSPropertyOp1
 70
     1
102
RTVSPropertyOp2
 70
     1
102
RTVSPropertyOp3
 70
     1
102
RTVSPropertyOp4
 70
     1
102
RTVSPropertyOp5
 70
     1
102
RTVSPropertyOp6
 70
     1
102
RTVSPropertyOp7
 70
     1
102
RTVSPropertyOp8
 70
     1
102
RTVSPropertyOp9
 70
     1
102
RTVSPropertyOp10
 70
     1
102
RTVSPropertyOp11
 70
     1
102
RTVSPropertyOp12
 70
     1
102
RTVSPropertyOp13
 70
     1
102
RTVSPropertyOp14
 70
     1
102
RTVSPropertyOp15
 70
     1
102
RTVSPropertyOp16
 70
     1
102
RTVSPropertyOp17
 70
     1
102
RTVSPropertyOp18
 70
     1
102
RTVSPropertyOp19
 70
     1
102
RTVSPropertyOp20
 70
     1
102
RTVSPropertyOp21
 70
     1
102
RTVSPropertyOp22
 70
     1
102
RTVSPropertyOp23
 70
     1
102
RTVSPropertyOp24
 70
     1
102
RTVSPropertyOp25
 70
     1
102
RTVSPropertyOp26
 70
     1
102
RTVSPropertyOp27
 70
     1
102
RTVSPropertyOp28
 70
     1
102
RTVSPropertyOp29
 70
     1
102
RTVSPropertyOp30
 70
     1
102
RTVSPropertyOp31
 70
     1
102
RTVSPropertyOp32
 70
     1
  0
XRECORD
  5
6D
102
{ACAD_REACTORS
330
6C
102
}
330
6C
100
AcDbXrecord
280
     1
102
RTVSPropertyOp0
 70
     1
102
RTVSPropertyOp1
 70
     1
102
RTVSPropertyOp2
 70
     1
102
RTVSPropertyOp3
 70
     1
102
RTVSPropertyOp4
 70
     1
102
RTVSPropertyOp5
 70
     1
102
RTVSPropertyOp6
 70
     1
102
RTVSPropertyOp7
 70
     1
102
RTVSPropertyOp8
 70
     1
102
RTVSPropertyOp9
 70
     1
102
RTVSPropertyOp10
 70
     1
102
RTVSPropertyOp11
 70
     1
102
RTVSPropertyOp12
 70
     1
102
RTVSPropertyOp13
 70
     1
102
RTVSPropertyOp14
 70
     1
102
RTVSPropertyOp15
 70
     1
102
RTVSPropertyOp16
 70
     1
102
RTVSPropertyOp17
 70
     1
102
RTVSPropertyOp18
 70
     1
102
RTVSPropertyOp19
 70
     1
102
RTVSPropertyOp20
 70
     1
102
RTVSPropertyOp21
 70
     1
102
RTVSPropertyOp22
 70
     1
102
RTVSPropertyOp23
 70
     1
102
RTVSPropertyOp24
 70
     1
102
RTVSPropertyOp25
 70
     1
102
RTVSPropertyOp26
 70
     1
102
RTVSPropertyOp27
 70
     1
102
RTVSPropertyOp28
 70
     1
102
RTVSPropertyOp29
 70
     1
102
RTVSPropertyOp30
 70
     1
102
RTVSPropertyOp31
 70
     1
102
RTVSPropertyOp32
 70
     1
  0
XRECORD
  5
75
102
{ACAD_REACTORS
330
74
102
}
330
74
100
AcDbXrecord
280
     1
102
RTVSPropertyOp0
 70
     1
102
RTVSPropertyOp1
 70
     1
102
RTVSPropertyOp2
 70
     1
102
RTVSPropertyOp3
 70
     1
102
RTVSPropertyOp4
 70
     1
102
RTVSPropertyOp5
 70
     1
102
RTVSPropertyOp6
 70
     1
102
RTVSPropertyOp7
 70
     1
102
RTVSPropertyOp8
 70
     1
102
RTVSPropertyOp9
 70
     1
102
RTVSPropertyOp10
 70
     1
102
RTVSPropertyOp11
 70
     1
102
RTVSPropertyOp12
 70
     1
102
RTVSPropertyOp13
 70
     1
102
RTVSPropertyOp14
 70
     1
102
RTVSPropertyOp15
 70
     1
102
RTVSPropertyOp16
 70
     1
102
RTVSPropertyOp17
 70
     1
102
RTVSPropertyOp18
 70
     1
102
RTVSPropertyOp19
 70
     1
102
RTVSPropertyOp20
 70
     1
102
RTVSPropertyOp21
 70
     1
102
RTVSPropertyOp22
 70
     1
102
RTVSPropertyOp23
 70
     1
102
RTVSPropertyOp24
 70
     1
102
RTVSPropertyOp25
 70
     1
102
RTVSPropertyOp26
 70
     1
102
RTVSPropertyOp27
 70
     1
102
RTVSPropertyOp28
 70
     1
102
RTVSPropertyOp29
 70
     1
102
RTVSPropertyOp30
 70
     1
102
RTVSPropertyOp31
 70
     1
102
RTVSPropertyOp32
 70
     1
  0
XRECORD
  5
59
102
{ACAD_REACTORS
330
58
102
}
330
58
100
AcDbXrecord
280
     1
102
RTVSPropertyOp0
 70
     1
102
RTVSPropertyOp1
 70
     1
102
RTVSPropertyOp2
 70
     1
102
RTVSPropertyOp3
 70
     1
102
RTVSPropertyOp4
 70
     1
102
RTVSPropertyOp5
 70
     1
102
RTVSPropertyOp6
 70
     1
102
RTVSPropertyOp7
 70
     1
102
RTVSPropertyOp8
 70
     1
102
RTVSPropertyOp9
 70
     1
102
RTVSPropertyOp10
 70
     1
102
RTVSPropertyOp11
 70
     1
102
RTVSPropertyOp12
 70
     1
102
RTVSPropertyOp13
 70
     1
102
RTVSPropertyOp14
 70
     1
102
RTVSPropertyOp15
 70
     1
102
RTVSPropertyOp16
 70
     1
102
RTVSPropertyOp17
 70
     1
102
RTVSPropertyOp18
 70
     1
102
RTVSPropertyOp19
 70
     1
102
RTVSPropertyOp20
 70
     1
102
RTVSPropertyOp21
 70
     1
102
RTVSPropertyOp22
 70
     1
102
RTVSPropertyOp23
 70
     1
102
RTVSPropertyOp24
 70
     1
102
RTVSPropertyOp25
 70
     1
102
RTVSPropertyOp26
 70
     1
102
RTVSPropertyOp27
 70
     1
102
RTVSPropertyOp28
 70
     1
102
RTVSPropertyOp29
 70
     1
102
RTVSPropertyOp30
 70
     1
102
RTVSPropertyOp31
 70
     1
102
RTVSPropertyOp32
 70
     1
  0
XRECORD
  5
5B
102
{ACAD_REACTORS
330
5A
102
}
330
5A
100
AcDbXrecord
280
     1
102
RTVSPropertyOp0
 70
     1
102
RTVSPropertyOp1
 70
     1
102
RTVSPropertyOp2
 70
     1
102
RTVSPropertyOp3
 70
     1
102
RTVSPropertyOp4
 70
     1
102
RTVSPropertyOp5
 70
     1
102
RTVSPropertyOp6
 70
     1
102
RTVSPropertyOp7
 70
     1
102
RTVSPropertyOp8
 70
     1
102
RTVSPropertyOp9
 70
     1
102
RTVSPropertyOp10
 70
     1
102
RTVSPropertyOp11
 70
     1
102
RTVSPropertyOp12
 70
     1
102
RTVSPropertyOp13
 70
     1
102
RTVSPropertyOp14
 70
     1
102
RTVSPropertyOp15
 70
     1
102
RTVSPropertyOp16
 70
     1
102
RTVSPropertyOp17
 70
     1
102
RTVSPropertyOp18
 70
     1
102
RTVSPropertyOp19
 70
     1
102
RTVSPropertyOp20
 70
     1
102
RTVSPropertyOp21
 70
     1
102
RTVSPropertyOp22
 70
     1
102
RTVSPropertyOp23
 70
     1
102
RTVSPropertyOp24
 70
     1
102
RTVSPropertyOp25
 70
     1
102
RTVSPropertyOp26
 70
     1
102
RTVSPropertyOp27
 70
     1
102
RTVSPropertyOp28
 70
     1
102
RTVSPropertyOp29
 70
     1
102
RTVSPropertyOp30
 70
     1
102
RTVSPropertyOp31
 70
     1
102
RTVSPropertyOp32
 70
     1
  0
XRECORD
  5
5D
102
{ACAD_REACTORS
330
5C
102
}
330
5C
100
AcDbXrecord
280
     1
102
RTVSPropertyOp0
 70
     1
102
RTVSPropertyOp1
 70
     1
102
RTVSPropertyOp2
 70
     1
102
RTVSPropertyOp3
 70
     1
102
RTVSPropertyOp4
 70
     1
102
RTVSPropertyOp5
 70
     1
102
RTVSPropertyOp6
 70
     1
102
RTVSPropertyOp7
 70
     1
102
RTVSPropertyOp8
 70
     1
102
RTVSPropertyOp9
 70
     1
102
RTVSPropertyOp10
 70
     1
102
RTVSPropertyOp11
 70
     1
102
RTVSPropertyOp12
 70
     1
102
RTVSPropertyOp13
 70
     1
102
RTVSPropertyOp14
 70
     1
102
RTVSPropertyOp15
 70
     1
102
RTVSPropertyOp16
 70
     1
102
RTVSPropertyOp17
 70
     1
102
RTVSPropertyOp18
 70
     1
102
RTVSPropertyOp19
 70
     1
102
RTVSPropertyOp20
 70
     1
102
RTVSPropertyOp21
 70
     1
102
RTVSPropertyOp22
 70
     1
102
RTVSPropertyOp23
 70
     1
102
RTVSPropertyOp24
 70
     1
102
RTVSPropertyOp25
 70
     1
102
RTVSPropertyOp26
 70
     1
102
RTVSPropertyOp27
 70
     1
102
RTVSPropertyOp28
 70
     1
102
RTVSPropertyOp29
 70
     1
102
RTVSPropertyOp30
 70
     1
102
RTVSPropertyOp31
 70
     1
102
RTVSPropertyOp32
 70
     1
  0
XRECORD
  5
5F
102
{ACAD_REACTORS
330
5E
102
}
330
5E
100
AcDbXrecord
280
     1
102
RTVSPropertyOp0
 70
     1
102
RTVSPropertyOp1
 70
     1
102
RTVSPropertyOp2
 70
     1
102
RTVSPropertyOp3
 70
     1
102
RTVSPropertyOp4
 70
     1
102
RTVSPropertyOp5
 70
     1
102
RTVSPropertyOp6
 70
     1
102
RTVSPropertyOp7
 70
     1
102
RTVSPropertyOp8
 70
     1
102
RTVSPropertyOp9
 70
     1
102
RTVSPropertyOp10
 70
     1
102
RTVSPropertyOp11
 70
     1
102
RTVSPropertyOp12
 70
     1
102
RTVSPropertyOp13
 70
     1
102
RTVSPropertyOp14
 70
     1
102
RTVSPropertyOp15
 70
     1
102
RTVSPropertyOp16
 70
     1
102
RTVSPropertyOp17
 70
     1
102
RTVSPropertyOp18
 70
     1
102
RTVSPropertyOp19
 70
     1
102
RTVSPropertyOp20
 70
     1
102
RTVSPropertyOp21
 70
     1
102
RTVSPropertyOp22
 70
     1
102
RTVSPropertyOp23
 70
     1
102
RTVSPropertyOp24
 70
     1
102
RTVSPropertyOp25
 70
     1
102
RTVSPropertyOp26
 70
     1
102
RTVSPropertyOp27
 70
     1
102
RTVSPropertyOp28
 70
     1
102
RTVSPropertyOp29
 70
     1
102
RTVSPropertyOp30
 70
     1
102
RTVSPropertyOp31
 70
     1
102
RTVSPropertyOp32
 70
     1
  0
XRECORD
  5
73
102
{ACAD_REACTORS
330
72
102
}
330
72
100
AcDbXrecord
280
     1
102
RTVSPropertyOp0
 70
     1
102
RTVSPropertyOp1
 70
     1
102
RTVSPropertyOp2
 70
     1
102
RTVSPropertyOp3
 70
     1
102
RTVSPropertyOp4
 70
     1
102
RTVSPropertyOp5
 70
     1
102
RTVSPropertyOp6
 70
     1
102
RTVSPropertyOp7
 70
     1
102
RTVSPropertyOp8
 70
     1
102
RTVSPropertyOp9
 70
     1
102
RTVSPropertyOp10
 70
     1
102
RTVSPropertyOp11
 70
     1
102
RTVSPropertyOp12
 70
     1
102
RTVSPropertyOp13
 70
     1
102
RTVSPropertyOp14
 70
     1
102
RTVSPropertyOp15
 70
     1
102
RTVSPropertyOp16
 70
     1
102
RTVSPropertyOp17
 70
     1
102
RTVSPropertyOp18
 70
     1
102
RTVSPropertyOp19
 70
     1
102
RTVSPropertyOp20
 70
     1
102
RTVSPropertyOp21
 70
     1
102
RTVSPropertyOp22
 70
     1
102
RTVSPropertyOp23
 70
     1
102
RTVSPropertyOp24
 70
     1
102
RTVSPropertyOp25
 70
     1
102
RTVSPropertyOp26
 70
     1
102
RTVSPropertyOp27
 70
     1
102
RTVSPropertyOp28
 70
     1
102
RTVSPropertyOp29
 70
     1
102
RTVSPropertyOp30
 70
     1
102
RTVSPropertyOp31
 70
     1
102
RTVSPropertyOp32
 70
     1
  0
XRECORD
  5
69
102
{ACAD_REACTORS
330
68
102
}
330
68
100
AcDbXrecord
280
     1
102
RTVSPropertyOp0
 70
     1
102
RTVSPropertyOp1
 70
     1
102
RTVSPropertyOp2
 70
     1
102
RTVSPropertyOp3
 70
     1
102
RTVSPropertyOp4
 70
     1
102
RTVSPropertyOp5
 70
     1
102
RTVSPropertyOp6
 70
     1
102
RTVSPropertyOp7
 70
     1
102
RTVSPropertyOp8
 70
     1
102
RTVSPropertyOp9
 70
     1
102
RTVSPropertyOp10
 70
     1
102
RTVSPropertyOp11
 70
     1
102
RTVSPropertyOp12
 70
     1
102
RTVSPropertyOp13
 70
     1
102
RTVSPropertyOp14
 70
     1
102
RTVSPropertyOp15
 70
     1
102
RTVSPropertyOp16
 70
     1
102
RTVSPropertyOp17
 70
     1
102
RTVSPropertyOp18
 70
     1
102
RTVSPropertyOp19
 70
     1
102
RTVSPropertyOp20
 70
     1
102
RTVSPropertyOp21
 70
     1
102
RTVSPropertyOp22
 70
     1
102
RTVSPropertyOp23
 70
     1
102
RTVSPropertyOp24
 70
     1
102
RTVSPropertyOp25
 70
     1
102
RTVSPropertyOp26
 70
     1
102
RTVSPropertyOp27
 70
     1
102
RTVSPropertyOp28
 70
     1
102
RTVSPropertyOp29
 70
     1
102
RTVSPropertyOp30
 70
     1
102
RTVSPropertyOp31
 70
     1
102
RTVSPropertyOp32
 70
     1
  0
XRECORD
  5
71
102
{ACAD_REACTORS
330
70
102
}
330
70
100
AcDbXrecord
280
     1
102
RTVSPropertyOp0
 70
     1
102
RTVSPropertyOp1
 70
     1
102
RTVSPropertyOp2
 70
     1
102
RTVSPropertyOp3
 70
     1
102
RTVSPropertyOp4
 70
     1
102
RTVSPropertyOp5
 70
     1
102
RTVSPropertyOp6
 70
     1
102
RTVSPropertyOp7
 70
     1
102
RTVSPropertyOp8
 70
     1
102
RTVSPropertyOp9
 70
     1
102
RTVSPropertyOp10
 70
     1
102
RTVSPropertyOp11
 70
     1
102
RTVSPropertyOp12
 70
     1
102
RTVSPropertyOp13
 70
     1
102
RTVSPropertyOp14
 70
     1
102
RTVSPropertyOp15
 70
     1
102
RTVSPropertyOp16
 70
     1
102
RTVSPropertyOp17
 70
     1
102
RTVSPropertyOp18
 70
     1
102
RTVSPropertyOp19
 70
     1
102
RTVSPropertyOp20
 70
     1
102
RTVSPropertyOp21
 70
     1
102
RTVSPropertyOp22
 70
     1
102
RTVSPropertyOp23
 70
     1
102
RTVSPropertyOp24
 70
     1
102
RTVSPropertyOp25
 70
     1
102
RTVSPropertyOp26
 70
     1
102
RTVSPropertyOp27
 70
     1
102
RTVSPropertyOp28
 70
     1
102
RTVSPropertyOp29
 70
     1
102
RTVSPropertyOp30
 70
     1
102
RTVSPropertyOp31
 70
     1
102
RTVSPropertyOp32
 70
     1
  0
ENDSEC
  0
EOF
