  0
SECTION
  2
HEADER
  9
$ACADVER
  1
AC1021
  9
$ACADMAINTVER
 70
    25
  9
$DWGCODEPAGE
  3
ANSI_1252
  9
$INSBASE
 10
0.0
 20
0.0
 30
0.0
  9
$EXTMIN
 10
41.2173
 20
-115.1543
 30
0.0
  9
$EXTMAX
 10
196.3388
 20
131.8422
 30
0.0
  9
$LIMMIN
 10
0.0
 20
0.0
  9
$LIMMAX
 10
12.0
 20
9.0
  9
$ORTHOMODE
 70
     0
  9
$REGENMODE
 70
     1
  9
$FILLMODE
 70
     1
  9
$QTEXTMODE
 70
     0
  9
$MIRRTEXT
 70
     1
  9
$LTSCALE
 40
1.0
  9
$ATTMODE
 70
     1
  9
$TEXTSIZE
 40
0.2
  9
$TRACEWID
 40
0.05
  9
$TEXTSTYLE
  7
Standard
  9
$CLAYER
  8
0
  9
$CELTYPE
  6
ByLayer
  9
$CECOLOR
 62
   256
  9
$CELTSCALE
 40
1.0
  9
$DISPSILH
 70
     0
  9
$DIMSCALE
 40
1.0
  9
$DIMASZ
 40
0.18
  9
$DIMEXO
 40
0.0625
  9
$DIMDLI
 40
0.38
  9
$DIMRND
 40
0.0
  9
$DIMDLE
 40
0.0
  9
$DIMEXE
 40
0.18
  9
$DIMTP
 40
0.0
  9
$DIMTM
 40
0.0
  9
$DIMTXT
 40
0.18
  9
$DIMCEN
 40
0.09
  9
$DIMTSZ
 40
0.0
  9
$DIMTOL
 70
     0
  9
$DIMLIM
 70
     0
  9
$DIMTIH
 70
     1
  9
$DIMTOH
 70
     1
  9
$DIMSE1
 70
     0
  9
$DIMSE2
 70
     0
  9
$DIMTAD
 70
     0
  9
$DIMZIN
 70
     0
  9
$DIMBLK
  1

  9
$DIMASO
 70
     1
  9
$DIMSHO
 70
     1
  9
$DIMPOST
  1

  9
$DIMAPOST
  1

  9
$DIMALT
 70
     0
  9
$DIMALTD
 70
     2
  9
$DIMALTF
 40
25.4
  9
$DIMLFAC
 40
1.0
  9
$DIMTOFL
 70
     0
  9
$DIMTVP
 40
0.0
  9
$DIMTIX
 70
     0
  9
$DIMSOXD
 70
     0
  9
$DIMSAH
 70
     0
  9
$DIMBLK1
  1

  9
$DIMBLK2
  1

  9
$DIMSTYLE
  2
Standard
  9
$DIMCLRD
 70
     0
  9
$DIMCLRE
 70
     0
  9
$DIMCLRT
 70
     0
  9
$DIMTFAC
 40
1.0
  9
$DIMGAP
 40
0.09
  9
$DIMJUST
 70
     0
  9
$DIMSD1
 70
     0
  9
$DIMSD2
 70
     0
  9
$DIMTOLJ
 70
     1
  9
$DIMTZIN
 70
     0
  9
$DIMALTZ
 70
     0
  9
$DIMALTTZ
 70
     0
  9
$DIMUPT
 70
     0
  9
$DIMDEC
 70
     4
  9
$DIMTDEC
 70
     4
  9
$DIMALTU
 70
     2
  9
$DIMALTTD
 70
     2
  9
$DIMTXSTY
  7
Standard
  9
$DIMAUNIT
 70
     0
  9
$DIMADEC
 70
     0
  9
$DIMALTRND
 40
0.0
  9
$DIMAZIN
 70
     0
  9
$DIMDSEP
 70
    46
  9
$DIMATFIT
 70
     3
  9
$DIMFRAC
 70
     0
  9
$DIMLDRBLK
  1

  9
$DIMLUNIT
 70
     2
  9
$DIMLWD
 70
    -2
  9
$DIMLWE
 70
    -2
  9
$DIMTMOVE
 70
     0
  9
$DIMFXL
 40
1.0
  9
$DIMFXLON
 70
     0
  9
$DIMJOGANG
 40
0.7853981633974483
  9
$DIMTFILL
 70
     0
  9
$DIMTFILLCLR
 70
     0
  9
$DIMARCSYM
 70
     0
  9
$DIMLTYPE
  6

  9
$DIMLTEX1
  6

  9
$DIMLTEX2
  6

  9
$LUNITS
 70
     2
  9
$LUPREC
 70
     4
  9
$SKETCHINC
 40
0.1
  9
$FILLETRAD
 40
0.5
  9
$AUNITS
 70
     0
  9
$AUPREC
 70
     0
  9
$MENU
  1
.
  9
$ELEVATION
 40
0.0
  9
$PELEVATION
 40
0.0
  9
$THICKNESS
 40
0.0
  9
$LIMCHECK
 70
     0
  9
$CHAMFERA
 40
0.5
  9
$CHAMFERB
 40
0.5
  9
$CHAMFERC
 40
1.0
  9
$CHAMFERD
 40
0.0
  9
$SKPOLY
 70
     0
  9
$TDCREATE
 40
2458492.849461643
  9
$TDUCREATE
 40
2458492.849461643
  9
$TDUPDATE
 40
2458492.849461863
  9
$TDUUPDATE
 40
2458492.849461863
  9
$TDINDWG
 40
0.0000000116
  9
$TDUSRTIMER
 40
0.0000000116
  9
$USRTIMER
 70
     1
  9
$ANGBASE
 50
0.0
  9
$ANGDIR
 70
     0
  9
$PDMODE
 70
     0
  9
$PDSIZE
 40
0.0
  9
$PLINEWID
 40
0.0
  9
$SPLFRAME
 70
     0
  9
$SPLINETYPE
 70
     6
  9
$SPLINESEGS
 70
     8
  9
$HANDSEED
  5
B7
  9
$SURFTAB1
 70
     6
  9
$SURFTAB2
 70
     6
  9
$SURFTYPE
 70
     6
  9
$SURFU
 70
     6
  9
$SURFV
 70
     6
  9
$UCSBASE
  2

  9
$UCSNAME
  2

  9
$UCSORG
 10
0.0
 20
0.0
 30
0.0
  9
$UCSXDIR
 10
1.0
 20
0.0
 30
0.0
  9
$UCSYDIR
 10
0.0
 20
1.0
 30
0.0
  9
$UCSORTHOREF
  2

  9
$UCSORTHOVIEW
 70
     0
  9
$UCSORGTOP
 10
0.0
 20
0.0
 30
0.0
  9
$UCSORGBOTTOM
 10
0.0
 20
0.0
 30
0.0
  9
$UCSORGLEFT
 10
0.0
 20
0.0
 30
0.0
  9
$UCSORGRIGHT
 10
0.0
 20
0.0
 30
0.0
  9
$UCSORGFRONT
 10
0.0
 20
0.0
 30
0.0
  9
$UCSORGBACK
 10
0.0
 20
0.0
 30
0.0
  9
$PUCSBASE
  2

  9
$PUCSNAME
  2

  9
$PUCSORG
 10
0.0
 20
0.0
 30
0.0
  9
$PUCSXDIR
 10
1.0
 20
0.0
 30
0.0
  9
$PUCSYDIR
 10
0.0
 20
1.0
 30
0.0
  9
$PUCSORTHOREF
  2

  9
$PUCSORTHOVIEW
 70
     0
  9
$PUCSORGTOP
 10
0.0
 20
0.0
 30
0.0
  9
$PUCSORGBOTTOM
 10
0.0
 20
0.0
 30
0.0
  9
$PUCSORGLEFT
 10
0.0
 20
0.0
 30
0.0
  9
$PUCSORGRIGHT
 10
0.0
 20
0.0
 30
0.0
  9
$PUCSORGFRONT
 10
0.0
 20
0.0
 30
0.0
  9
$PUCSORGBACK
 10
0.0
 20
0.0
 30
0.0
  9
$USERI1
 70
     0
  9
$USERI2
 70
     0
  9
$USERI3
 70
     0
  9
$USERI4
 70
     0
  9
$USERI5
 70
     0
  9
$USERR1
 40
0.0
  9
$USERR2
 40
0.0
  9
$USERR3
 40
0.0
  9
$USERR4
 40
0.0
  9
$USERR5
 40
0.0
  9
$WORLDVIEW
 70
     1
  9
$SHADEDGE
 70
     3
  9
$SHADEDIF
 70
    70
  9
$TILEMODE
 70
     1
  9
$MAXACTVP
 70
    64
  9
$PINSBASE
 10
0.0
 20
0.0
 30
0.0
  9
$PLIMCHECK
 70
     0
  9
$PEXTMIN
 10
1.000000000000000E+20
 20
1.000000000000000E+20
 30
1.000000000000000E+20
  9
$PEXTMAX
 10
-1.000000000000000E+20
 20
-1.000000000000000E+20
 30
-1.000000000000000E+20
  9
$PLIMMIN
 10
0.0
 20
0.0
  9
$PLIMMAX
 10
12.0
 20
9.0
  9
$UNITMODE
 70
     0
  9
$VISRETAIN
 70
     1
  9
$PLINEGEN
 70
     0
  9
$PSLTSCALE
 70
     1
  9
$TREEDEPTH
 70
  3020
  9
$CMLSTYLE
  2
Standard
  9
$CMLJUST
 70
     0
  9
$CMLSCALE
 40
1.0
  9
$PROXYGRAPHICS
 70
     1
  9
$MEASUREMENT
 70
     0
  9
$CELWEIGHT
370
    -1
  9
$ENDCAPS
280
     0
  9
$JOINSTYLE
280
     0
  9
$LWDISPLAY
290
     0
  9
$INSUNITS
 70
     4
  9
$HYPERLINKBASE
  1

  9
$STYLESHEET
  1

  9
$XEDIT
290
     1
  9
$CEPSNTYPE
380
     0
  9
$PSTYLEMODE
290
     1
  9
$FINGERPRINTGUID
  2
{AEC50F44-8FF5-4113-87D6-A4EBBD18F0E8}
  9
$VERSIONGUID
  2
{FAEB1C32-E019-11D5-929B-00C0DF256EC4}
  9
$EXTNAMES
290
     1
  9
$PSVPSCALE
 40
0.0
  9
$OLESTARTUP
290
     0
  9
$SORTENTS
280
   127
  9
$INDEXCTL
280
     0
  9
$HIDETEXT
280
     1
  9
$XCLIPFRAME
290
     0
  9
$HALOGAP
280
     0
  9
$OBSCOLOR
 70
   257
  9
$OBSLTYPE
280
     0
  9
$INTERSECTIONDISPLAY
280
     0
  9
$INTERSECTIONCOLOR
 70
   257
  9
$DIMASSOC
280
     2
  9
$PROJECTNAME
  1

  9
$CAMERADISPLAY
290
     0
  9
$LENSLENGTH
 40
50.0
  9
$CAMERAHEIGHT
 40
0.0
  9
$STEPSPERSEC
 40
2.0
  9
$STEPSIZE
 40
6.0
  9
$3DDWFPREC
 40
2.0
  9
$PSOLWIDTH
 40
0.25
  9
$PSOLHEIGHT
 40
4.0
  9
$LOFTANG1
 40
1.570796326794897
  9
$LOFTANG2
 40
1.570796326794897
  9
$LOFTMAG1
 40
0.0
  9
$LOFTMAG2
 40
0.0
  9
$LOFTPARAM
 70
     7
  9
$LOFTNORMALS
280
     1
  9
$LATITUDE
 40
37.795
  9
$LONGITUDE
 40
-122.394
  9
$NORTHDIRECTION
 40
0.0
  9
$TIMEZONE
 70
 -8000
  9
$LIGHTGLYPHDISPLAY
280
     1
  9
$TILEMODELIGHTSYNCH
280
     1
  9
$SOLIDHIST
280
     1
  9
$SHOWHIST
280
     1
  9
$DWFFRAME
280
     2
  9
$DGNFRAME
280
     2
  9
$REALWORLDSCALE
290
     1
  9
$INTERFERECOLOR
 62
   256
  9
$CSHADOW
280
     0
  9
$SHADOWPLANELOCATION
 40
0.0
  0
ENDSEC
  0
SECTION
  2
CLASSES
  0
CLASS
  1
ACDBDICTIONARYWDFLT
  2
AcDbDictionaryWithDefault
  3
ObjectDBX Classes
 90
        0
 91
        4
280
     0
281
     0
  0
CLASS
  1
VISUALSTYLE
  2
AcDbVisualStyle
  3
ObjectDBX Classes
 90
     4095
 91
        4
280
     0
281
     0
  0
CLASS
  1
MATERIAL
  2
AcDbMaterial
  3
ObjectDBX Classes
 90
     1153
 91
        4
280
     0
281
     0
  0
ENDSEC
  0
SECTION
  2
TABLES
  0
TABLE
  2
VPORT
  5
8
330
0
100
AcDbSymbolTable
 70
     1
  0
VPORT
  5
29
330
8
100
AcDbSymbolTableRecord
100
AcDbViewportTableRecord
  2
*Active
 70
     0
 10
0.0
 20
0.0
 11
1.0
 21
1.0
 12
10.42990654205607
 22
4.5
 13
0.0
 23
0.0
 14
0.5
 24
0.5
 15
0.5
 25
0.5
 16
0.0
 26
0.0
 36
1.0
 17
0.0
 27
0.0
 37
0.0
 40
9.0
 41
1.972972972850329
 42
50.0
 43
0.0
 44
0.0
 50
0.0
 51
0.0
 71
     0
 72
   100
 73
     1
 74
     3
 75
     0
 76
     0
 77
     0
 78
     0
281
     0
 65
     1
110
0.0
120
0.0
130
0.0
111
1.0
121
0.0
131
0.0
112
0.0
122
1.0
132
0.0
 79
     0
146
0.0
 60
     3
 61
     5
292
     1
282
     1
141
0.0
142
0.0
 63
   250
  0
ENDTAB
  0
TABLE
  2
LTYPE
  5
5
330
0
100
AcDbSymbolTable
 70
     1
  0
LTYPE
  5
14
330
5
100
AcDbSymbolTableRecord
100
AcDbLinetypeTableRecord
  2
ByBlock
 70
     0
  3

 72
    65
 73
     0
 40
0.0
  0
LTYPE
  5
15
330
5
100
AcDbSymbolTableRecord
100
AcDbLinetypeTableRecord
  2
ByLayer
 70
     0
  3

 72
    65
 73
     0
 40
0.0
  0
LTYPE
  5
16
330
5
100
AcDbSymbolTableRecord
100
AcDbLinetypeTableRecord
  2
Continuous
 70
     0
  3
Solid line
 72
    65
 73
     0
 40
0.0
  0
ENDTAB
  0
TABLE
  2
LAYER
  5
2
330
0
100
AcDbSymbolTable
 70
     2
  0
LAYER
  5
10
330
2
100
AcDbSymbolTableRecord
100
AcDbLayerTableRecord
  2
0
 70
     0
 62
     7
  6
Continuous
370
    -3
390
F
347
3E
  0
LAYER
  5
40
330
2
100
AcDbSymbolTableRecord
100
AcDbLayerTableRecord
  2
layer 1
 70
     0
 62
     7
  6
Continuous
370
    -3
390
F
347
3E
  0
ENDTAB
  0
TABLE
  2
STYLE
  5
3
330
0
100
AcDbSymbolTable
 70
     1
  0
STYLE
  5
11
330
3
100
AcDbSymbolTableRecord
100
AcDbTextStyleTableRecord
  2
Standard
 70
     0
 40
0.0
 41
1.0
 50
0.0
 71
     0
 42
0.2
  3
txt
  4

  0
ENDTAB
  0
TABLE
  2
VIEW
  5
6
330
0
100
AcDbSymbolTable
 70
     0
  0
ENDTAB
  0
TABLE
  2
UCS
  5
7
330
0
100
AcDbSymbolTable
 70
     0
  0
ENDTAB
  0
TABLE
  2
APPID
  5
9
330
0
100
AcDbSymbolTable
 70
     2
  0
APPID
  5
12
330
9
100
AcDbSymbolTableRecord
100
AcDbRegAppTableRecord
  2
ACAD
 70
     0
  0
APPID
  5
3F
330
9
100
AcDbSymbolTableRecord
100
AcDbRegAppTableRecord
  2
ODA
 70
     0
  0
ENDTAB
  0
TABLE
  2
DIMSTYLE
  5
A
330
0
100
AcDbSymbolTable
 70
     1
100
AcDbDimStyleTable
  0
DIMSTYLE
105
27
330
A
100
AcDbSymbolTableRecord
100
AcDbDimStyleTableRecord
  2
Standard
 70
     0
178
     0
340
11
  0
ENDTAB
  0
TABLE
  2
BLOCK_RECORD
  5
1
330
0
100
AcDbSymbolTable
 70
     1
  0
BLOCK_RECORD
  5
1F
330
1
100
AcDbSymbolTableRecord
100
AcDbBlockTableRecord
  2
*Model_Space
340
22
 70
     0
280
     1
281
     0
  0
BLOCK_RECORD
  5
1B
330
1
100
AcDbSymbolTableRecord
100
AcDbBlockTableRecord
  2
*Paper_Space
340
1E
 70
     0
280
     1
281
     0
  0
BLOCK_RECORD
  5
23
330
1
100
AcDbSymbolTableRecord
100
AcDbBlockTableRecord
  2
*Paper_Space0
340
26
 70
     0
280
     1
281
     0
  0
ENDTAB
  0
ENDSEC
  0
SECTION
  2
BLOCKS
  0
BLOCK
  5
20
330
1F
100
AcDbEntity
  8
0
100
AcDbBlockBegin
  2
*Model_Space
 70
     0
 10
0.0
 20
0.0
 30
0.0
  3
*Model_Space
  1

  0
ENDBLK
  5
21
330
1F
100
AcDbEntity
  8
0
100
AcDbBlockEnd
  0
BLOCK
  5
1C
330
1B
100
AcDbEntity
 67
     1
  8
0
100
AcDbBlockBegin
  2
*Paper_Space
 70
     0
 10
0.0
 20
0.0
 30
0.0
  3
*Paper_Space
  1

  0
ENDBLK
  5
1D
330
1B
100
AcDbEntity
 67
     1
  8
0
100
AcDbBlockEnd
  0
BLOCK
  5
24
330
23
100
AcDbEntity
  8
0
100
AcDbBlockBegin
  2
*Paper_Space0
 70
     0
 10
0.0
 20
0.0
 30
0.0
  3
*Paper_Space0
  1

  0
ENDBLK
  5
25
330
23
100
AcDbEntity
  8
0
100
AcDbBlockEnd
  0
ENDSEC
  0
SECTION
  2
ENTITIES
  0
SPLINE
  5
41
330
1F
100
AcDbEntity
  8
layer 1
 62
   250
100
AcDbSpline
210
0.0
220
0.0
230
1.0
 70
    11
 71
     3
 72
    20
 73
    16
 74
     0
 42
0.0000000001
 43
0.0000000001
 12
1.0
 22
0.0
 32
0.0
 13
1.0
 23
0.0
 33
0.0
 40
0.0
 40
0.0
 40
0.0
 40
0.0
 40
0.2
 40
0.2
 40
0.2
 40
0.2
 40
0.4
 40
0.4
 40
0.4
 40
0.4
 40
0.6
 40
0.6
 40
0.6
 40
0.6
 40
1.0
 40
1.0
 40
1.0
 40
1.0
 10
41.2173
 20
-115.1543
 30
0.0
 10
41.2173
 20
-115.1543
 30
0.0
 10
41.2173
 20
131.8422
 30
0.0
 10
41.2173
 20
131.8422
 30
0.0
 10
41.2173
 20
131.8422
 30
0.0
 10
41.2173
 20
131.8422
 30
0.0
 10
196.3388
 20
131.8422
 30
0.0
 10
196.3388
 20
131.8422
 30
0.0
 10
196.3388
 20
131.8422
 30
0.0
 10
196.3388
 20
131.8422
 30
0.0
 10
196.3388
 20
-115.1543
 30
0.0
 10
196.3388
 20
-115.1543
 30
0.0
 10
196.3388
 20
-115.1543
 30
0.0
 10
196.3388
 20
-115.1543
 30
0.0
 10
41.2173
 20
-115.1543
 30
0.0
 10
41.2173
 20
-115.1543
 30
0.0
  0
SPLINE
  5
42
330
1F
100
AcDbEntity
  8
layer 1
 62
     7
100
AcDbSpline
210
0.0
220
0.0
230
1.0
 70
    11
 71
     3
 72
    16
 73
    12
 74
     0
 42
0.0000000001
 43
0.0000000001
 12
1.0
 22
0.0
 32
0.0
 13
1.0
 23
0.0
 33
0.0
 40
0.0
 40
0.0
 40
0.0
 40
0.0
 40
0.25
 40
0.25
 40
0.25
 40
0.25
 40
0.5
 40
0.5
 40
0.5
 40
0.5
 40
1.0
 40
1.0
 40
1.0
 40
1.0
 10
67.9582
 20
-29.4199
 30
0.0
 10
61.4242
 20
-22.2809
 30
0.0
 10
56.3425
 20
-7.8818
 30
0.0
 10
55.3742
 20
2.161
 30
0.0
 10
55.3742
 20
2.161
 30
0.0
 10
59.8513
 20
-0.7428
 30
0.0
 10
63.7233
 20
-5.0988
 30
0.0
 10
64.9334
 20
-10.6648
 30
0.0
 10
64.9334
 20
-10.6648
 30
0.0
 10
66.1435
 20
-15.9887
 30
0.0
 10
63.4815
 20
-20.7079
 30
0.0
 10
67.9582
 20
-29.4199
 30
0.0
  0
SPLINE
  5
43
330
1F
100
AcDbEntity
  8
layer 1
 62
     7
100
AcDbSpline
210
0.0
220
0.0
230
1.0
 70
    11
 71
     3
 72
    16
 73
    12
 74
     0
 42
0.0000000001
 43
0.0000000001
 12
1.0
 22
0.0
 32
0.0
 13
1.0
 23
0.0
 33
0.0
 40
0.0
 40
0.0
 40
0.0
 40
0.0
 40
0.25
 40
0.25
 40
0.25
 40
0.25
 40
0.5
 40
0.5
 40
0.5
 40
0.5
 40
1.0
 40
1.0
 40
1.0
 40
1.0
 10
67.9582
 20
45.963
 30
0.0
 10
61.4242
 20
38.9451
 30
0.0
 10
56.3425
 20
24.546
 30
0.0
 10
55.3742
 20
14.3821
 30
0.0
 10
55.3742
 20
14.3821
 30
0.0
 10
59.8513
 20
17.407
 30
0.0
 10
63.7233
 20
21.6422
 30
0.0
 10
64.9334
 20
27.329
 30
0.0
 10
64.9334
 20
27.329
 30
0.0
 10
66.1435
 20
32.6529
 30
0.0
 10
63.4815
 20
37.3721
 30
0.0
 10
67.9582
 20
45.963
 30
0.0
  0
SPLINE
  5
44
330
1F
100
AcDbEntity
  8
layer 1
 62
     7
100
AcDbSpline
210
0.0
220
0.0
230
1.0
 70
    11
 71
     3
 72
    16
 73
    12
 74
     0
 42
0.0000000001
 43
0.0000000001
 12
1.0
 22
0.0
 32
0.0
 13
1.0
 23
0.0
 33
0.0
 40
0.0
 40
0.0
 40
0.0
 40
0.0
 40
0.25
 40
0.25
 40
0.25
 40
0.25
 40
0.5
 40
0.5
 40
0.5
 40
0.5
 40
1.0
 40
1.0
 40
1.0
 40
1.0
 10
169.4771
 20
-29.4199
 30
0.0
 10
176.1322
 20
-22.2809
 30
0.0
 10
181.0932
 20
-7.8818
 30
0.0
 10
182.0611
 20
2.161
 30
0.0
 10
182.0611
 20
2.161
 30
0.0
 10
177.584
 20
-0.7428
 30
0.0
 10
173.8331
 20
-5.0988
 30
0.0
 10
172.623
 20
-10.6648
 30
0.0
 10
172.623
 20
-10.6648
 30
0.0
 10
171.4129
 20
-15.9887
 30
0.0
 10
174.0749
 20
-20.7079
 30
0.0
 10
169.4771
 20
-29.4199
 30
0.0
  0
SPLINE
  5
45
330
1F
100
AcDbEntity
  8
layer 1
 62
     7
100
AcDbSpline
210
0.0
220
0.0
230
1.0
 70
    11
 71
     3
 72
    16
 73
    12
 74
     0
 42
0.0000000001
 43
0.0000000001
 12
1.0
 22
0.0
 32
0.0
 13
1.0
 23
0.0
 33
0.0
 40
0.0
 40
0.0
 40
0.0
 40
0.0
 40
0.25
 40
0.25
 40
0.25
 40
0.25
 40
0.5
 40
0.5
 40
0.5
 40
0.5
 40
1.0
 40
1.0
 40
1.0
 40
1.0
 10
169.4771
 20
45.963
 30
0.0
 10
176.1322
 20
38.9451
 30
0.0
 10
181.0932
 20
24.546
 30
0.0
 10
182.0611
 20
14.3821
 30
0.0
 10
182.0611
 20
14.3821
 30
0.0
 10
177.584
 20
17.407
 30
0.0
 10
173.8331
 20
21.6422
 30
0.0
 10
172.623
 20
27.329
 30
0.0
 10
172.623
 20
27.329
 30
0.0
 10
171.4129
 20
32.6529
 30
0.0
 10
174.0749
 20
37.3721
 30
0.0
 10
169.4771
 20
45.963
 30
0.0
  0
SPLINE
  5
46
330
1F
100
AcDbEntity
  8
layer 1
 62
     7
100
AcDbSpline
210
0.0
220
0.0
230
1.0
 70
    11
 71
     3
 72
    20
 73
    16
 74
     0
 42
0.0000000001
 43
0.0000000001
 12
1.0
 22
0.0
 32
0.0
 13
1.0
 23
0.0
 33
0.0
 40
0.0
 40
0.0
 40
0.0
 40
0.0
 40
0.2
 40
0.2
 40
0.2
 40
0.2
 40
0.4
 40
0.4
 40
0.4
 40
0.4
 40
0.6
 40
0.6
 40
0.6
 40
0.6
 40
1.0
 40
1.0
 40
1.0
 40
1.0
 10
80.5422
 20
-42.4879
 30
0.0
 10
89.0124
 20
-49.9898
 30
0.0
 10
100.8703
 20
-53.8618
 30
0.0
 10
112.7282
 20
-55.0719
 30
0.0
 10
112.7282
 20
-55.0719
 30
0.0
 10
109.5823
 20
-49.8687
 30
0.0
 10
105.4681
 20
-45.2709
 30
0.0
 10
99.0552
 20
-45.5127
 30
0.0
 10
99.0552
 20
-45.5127
 30
0.0
 10
93.4891
 20
-45.7549
 30
0.0
 10
86.4712
 20
-44.6659
 30
0.0
 10
82.4784
 20
-42.2457
 30
0.0
 10
82.4784
 20
-42.2457
 30
0.0
 10
81.8734
 20
-41.7618
 30
0.0
 10
80.6633
 20
-42.1247
 30
0.0
 10
80.5422
 20
-42.4879
 30
0.0
  0
SPLINE
  5
47
330
1F
100
AcDbEntity
  8
layer 1
 62
     7
100
AcDbSpline
210
0.0
220
0.0
230
1.0
 70
    11
 71
     3
 72
    20
 73
    16
 74
     0
 42
0.0000000001
 43
0.0000000001
 12
1.0
 22
0.0
 32
0.0
 13
1.0
 23
0.0
 33
0.0
 40
0.0
 40
0.0
 40
0.0
 40
0.0
 40
0.2
 40
0.2
 40
0.2
 40
0.2
 40
0.4
 40
0.4
 40
0.4
 40
0.4
 40
0.6
 40
0.6
 40
0.6
 40
0.6
 40
1.0
 40
1.0
 40
1.0
 40
1.0
 10
80.5422
 20
59.1521
 30
0.0
 10
89.0124
 20
66.654
 30
0.0
 10
100.8703
 20
70.526
 30
0.0
 10
112.7282
 20
71.615
 30
0.0
 10
112.7282
 20
71.615
 30
0.0
 10
109.5823
 20
66.5329
 30
0.0
 10
105.4681
 20
61.9351
 30
0.0
 10
99.0552
 20
62.1769
 30
0.0
 10
99.0552
 20
62.1769
 30
0.0
 10
93.4891
 20
62.4191
 30
0.0
 10
86.4712
 20
61.3301
 30
0.0
 10
82.4784
 20
58.7888
 30
0.0
 10
82.4784
 20
58.7888
 30
0.0
 10
81.8734
 20
58.426
 30
0.0
 10
80.6633
 20
58.7888
 30
0.0
 10
80.5422
 20
59.1521
 30
0.0
  0
SPLINE
  5
48
330
1F
100
AcDbEntity
  8
layer 1
 62
     7
100
AcDbSpline
210
0.0
220
0.0
230
1.0
 70
    11
 71
     3
 72
    20
 73
    16
 74
     0
 42
0.0000000001
 43
0.0000000001
 12
1.0
 22
0.0
 32
0.0
 13
1.0
 23
0.0
 33
0.0
 40
0.0
 40
0.0
 40
0.0
 40
0.0
 40
0.2
 40
0.2
 40
0.2
 40
0.2
 40
0.4
 40
0.4
 40
0.4
 40
0.4
 40
0.6
 40
0.6
 40
0.6
 40
0.6
 40
1.0
 40
1.0
 40
1.0
 40
1.0
 10
157.0142
 20
-42.4879
 30
0.0
 10
148.544
 20
-49.9898
 30
0.0
 10
136.6861
 20
-53.8618
 30
0.0
 10
124.8282
 20
-55.0719
 30
0.0
 10
124.8282
 20
-55.0719
 30
0.0
 10
127.9741
 20
-49.8687
 30
0.0
 10
131.9672
 20
-45.2709
 30
0.0
 10
138.5012
 20
-45.5127
 30
0.0
 10
138.5012
 20
-45.5127
 30
0.0
 10
144.0673
 20
-45.7549
 30
0.0
 10
151.0852
 20
-44.6659
 30
0.0
 10
155.078
 20
-42.2457
 30
0.0
 10
155.078
 20
-42.2457
 30
0.0
 10
155.683
 20
-41.7618
 30
0.0
 10
156.8931
 20
-42.1247
 30
0.0
 10
157.0142
 20
-42.4879
 30
0.0
  0
SPLINE
  5
49
330
1F
100
AcDbEntity
  8
layer 1
 62
     7
100
AcDbSpline
210
0.0
220
0.0
230
1.0
 70
    11
 71
     3
 72
    20
 73
    16
 74
     0
 42
0.0000000001
 43
0.0000000001
 12
1.0
 22
0.0
 32
0.0
 13
1.0
 23
0.0
 33
0.0
 40
0.0
 40
0.0
 40
0.0
 40
0.0
 40
0.2
 40
0.2
 40
0.2
 40
0.2
 40
0.4
 40
0.4
 40
0.4
 40
0.4
 40
0.6
 40
0.6
 40
0.6
 40
0.6
 40
1.0
 40
1.0
 40
1.0
 40
1.0
 10
157.0142
 20
59.1521
 30
0.0
 10
148.544
 20
66.654
 30
0.0
 10
136.6861
 20
70.526
 30
0.0
 10
124.8282
 20
71.615
 30
0.0
 10
124.8282
 20
71.615
 30
0.0
 10
127.9741
 20
66.5329
 30
0.0
 10
131.9672
 20
61.9351
 30
0.0
 10
138.5012
 20
62.1769
 30
0.0
 10
138.5012
 20
62.1769
 30
0.0
 10
144.0673
 20
62.4191
 30
0.0
 10
151.0852
 20
61.3301
 30
0.0
 10
155.078
 20
58.7888
 30
0.0
 10
155.078
 20
58.7888
 30
0.0
 10
155.683
 20
58.426
 30
0.0
 10
156.8931
 20
58.7888
 30
0.0
 10
157.0142
 20
59.1521
 30
0.0
  0
SPLINE
  5
4A
330
1F
100
AcDbEntity
  8
layer 1
 62
     7
100
AcDbSpline
210
0.0
220
0.0
230
1.0
 70
    11
 71
     3
 72
    24
 73
    20
 74
     0
 42
0.0000000001
 43
0.0000000001
 12
1.0
 22
0.0
 32
0.0
 13
1.0
 23
0.0
 33
0.0
 40
0.0
 40
0.0
 40
0.0
 40
0.0
 40
0.1666666666666667
 40
0.1666666666666667
 40
0.1666666666666667
 40
0.1666666666666667
 40
0.3333333333333333
 40
0.3333333333333333
 40
0.3333333333333333
 40
0.3333333333333333
 40
0.5
 40
0.5
 40
0.5
 40
0.5
 40
0.6666666666666666
 40
0.6666666666666666
 40
0.6666666666666666
 40
0.6666666666666666
 40
1.0
 40
1.0
 40
1.0
 40
1.0
 10
117.0842
 20
-55.3137
 30
0.0
 10
116.6002
 20
-55.3137
 30
0.0
 10
116.1162
 20
-55.1926
 30
0.0
 10
115.5112
 20
-55.1926
 30
0.0
 10
115.5112
 20
-55.1926
 30
0.0
 10
114.5433
 20
-50.3527
 30
0.0
 10
110.4291
 20
-46.1178
 30
0.0
 10
104.3791
 20
-43.0929
 30
0.0
 10
104.3791
 20
-43.0929
 30
0.0
 10
108.3722
 20
-41.1567
 30
0.0
 10
112.1231
 20
-38.3737
 30
0.0
 10
115.3901
 20
-33.7759
 30
0.0
 10
115.3901
 20
-33.7759
 30
0.0
 10
115.3901
 20
-33.7759
 30
0.0
 10
117.0842
 20
-33.7759
 30
0.0
 10
117.0842
 20
-33.7759
 30
0.0
 10
117.0842
 20
-33.7759
 30
0.0
 10
117.0842
 20
-33.7759
 30
0.0
 10
117.0842
 20
-55.3137
 30
0.0
 10
117.0842
 20
-55.3137
 30
0.0
  0
SPLINE
  5
4B
330
1F
100
AcDbEntity
  8
layer 1
 62
     7
100
AcDbSpline
210
0.0
220
0.0
230
1.0
 70
    11
 71
     3
 72
    24
 73
    20
 74
     0
 42
0.0000000001
 43
0.0000000001
 12
1.0
 22
0.0
 32
0.0
 13
1.0
 23
0.0
 33
0.0
 40
0.0
 40
0.0
 40
0.0
 40
0.0
 40
0.1666666666666667
 40
0.1666666666666667
 40
0.1666666666666667
 40
0.1666666666666667
 40
0.3333333333333333
 40
0.3333333333333333
 40
0.3333333333333333
 40
0.3333333333333333
 40
0.5
 40
0.5
 40
0.5
 40
0.5
 40
0.6666666666666666
 40
0.6666666666666666
 40
0.6666666666666666
 40
0.6666666666666666
 40
1.0
 40
1.0
 40
1.0
 40
1.0
 10
117.0842
 20
71.9779
 30
0.0
 10
116.6002
 20
71.8568
 30
0.0
 10
116.1162
 20
71.8568
 30
0.0
 10
115.5112
 20
71.8568
 30
0.0
 10
115.5112
 20
71.8568
 30
0.0
 10
114.5433
 20
67.0169
 30
0.0
 10
110.4291
 20
62.7819
 30
0.0
 10
104.3791
 20
59.636
 30
0.0
 10
104.3791
 20
59.636
 30
0.0
 10
108.3722
 20
57.8209
 30
0.0
 10
112.1231
 20
55.0379
 30
0.0
 10
115.3901
 20
50.4401
 30
0.0
 10
115.3901
 20
50.4401
 30
0.0
 10
115.3901
 20
50.4401
 30
0.0
 10
117.0842
 20
50.4401
 30
0.0
 10
117.0842
 20
50.4401
 30
0.0
 10
117.0842
 20
50.4401
 30
0.0
 10
117.0842
 20
50.4401
 30
0.0
 10
117.0842
 20
71.9779
 30
0.0
 10
117.0842
 20
71.9779
 30
0.0
  0
SPLINE
  5
4C
330
1F
100
AcDbEntity
  8
layer 1
 62
     7
100
AcDbSpline
210
0.0
220
0.0
230
1.0
 70
    11
 71
     3
 72
    24
 73
    20
 74
     0
 42
0.0000000001
 43
0.0000000001
 12
1.0
 22
0.0
 32
0.0
 13
1.0
 23
0.0
 33
0.0
 40
0.0
 40
0.0
 40
0.0
 40
0.0
 40
0.1666666666666667
 40
0.1666666666666667
 40
0.1666666666666667
 40
0.1666666666666667
 40
0.3333333333333333
 40
0.3333333333333333
 40
0.3333333333333333
 40
0.3333333333333333
 40
0.5
 40
0.5
 40
0.5
 40
0.5
 40
0.6666666666666666
 40
0.6666666666666666
 40
0.6666666666666666
 40
0.6666666666666666
 40
1.0
 40
1.0
 40
1.0
 40
1.0
 10
120.3512
 20
-55.3137
 30
0.0
 10
120.9562
 20
-55.3137
 30
0.0
 10
121.4402
 20
-55.1926
 30
0.0
 10
122.0452
 20
-55.1926
 30
0.0
 10
122.0452
 20
-55.1926
 30
0.0
 10
122.892
 20
-50.3527
 30
0.0
 10
127.0062
 20
-46.1178
 30
0.0
 10
133.1773
 20
-43.0929
 30
0.0
 10
133.1773
 20
-43.0929
 30
0.0
 10
129.1842
 20
-41.1567
 30
0.0
 10
125.4333
 20
-38.3737
 30
0.0
 10
122.1663
 20
-33.7759
 30
0.0
 10
122.1663
 20
-33.7759
 30
0.0
 10
122.1663
 20
-33.7759
 30
0.0
 10
120.4722
 20
-33.7759
 30
0.0
 10
120.4722
 20
-33.7759
 30
0.0
 10
120.4722
 20
-33.7759
 30
0.0
 10
120.4722
 20
-33.7759
 30
0.0
 10
120.3512
 20
-55.3137
 30
0.0
 10
120.3512
 20
-55.3137
 30
0.0
  0
SPLINE
  5
4D
330
1F
100
AcDbEntity
  8
layer 1
 62
     7
100
AcDbSpline
210
0.0
220
0.0
230
1.0
 70
    11
 71
     3
 72
    24
 73
    20
 74
     0
 42
0.0000000001
 43
0.0000000001
 12
1.0
 22
0.0
 32
0.0
 13
1.0
 23
0.0
 33
0.0
 40
0.0
 40
0.0
 40
0.0
 40
0.0
 40
0.1666666666666667
 40
0.1666666666666667
 40
0.1666666666666667
 40
0.1666666666666667
 40
0.3333333333333333
 40
0.3333333333333333
 40
0.3333333333333333
 40
0.3333333333333333
 40
0.5
 40
0.5
 40
0.5
 40
0.5
 40
0.6666666666666666
 40
0.6666666666666666
 40
0.6666666666666666
 40
0.6666666666666666
 40
1.0
 40
1.0
 40
1.0
 40
1.0
 10
120.3512
 20
71.9779
 30
0.0
 10
120.9562
 20
71.8568
 30
0.0
 10
121.4402
 20
71.8568
 30
0.0
 10
122.0452
 20
71.8568
 30
0.0
 10
122.0452
 20
71.8568
 30
0.0
 10
122.892
 20
67.0169
 30
0.0
 10
127.0062
 20
62.7819
 30
0.0
 10
133.1773
 20
59.636
 30
0.0
 10
133.1773
 20
59.636
 30
0.0
 10
129.1842
 20
57.8209
 30
0.0
 10
125.4333
 20
55.0379
 30
0.0
 10
122.1663
 20
50.4401
 30
0.0
 10
122.1663
 20
50.4401
 30
0.0
 10
122.1663
 20
50.4401
 30
0.0
 10
120.4722
 20
50.4401
 30
0.0
 10
120.4722
 20
50.4401
 30
0.0
 10
120.4722
 20
50.4401
 30
0.0
 10
120.4722
 20
50.4401
 30
0.0
 10
120.3512
 20
71.9779
 30
0.0
 10
120.3512
 20
71.9779
 30
0.0
  0
SPLINE
  5
4E
330
1F
100
AcDbEntity
  8
layer 1
 62
     7
100
AcDbSpline
210
0.0
220
0.0
230
1.0
 70
    11
 71
     3
 72
    16
 73
    12
 74
     0
 42
0.0000000001
 43
0.0000000001
 12
1.0
 22
0.0
 32
0.0
 13
1.0
 23
0.0
 33
0.0
 40
0.0
 40
0.0
 40
0.0
 40
0.0
 40
0.25
 40
0.25
 40
0.25
 40
0.25
 40
0.5
 40
0.5
 40
0.5
 40
0.5
 40
1.0
 40
1.0
 40
1.0
 40
1.0
 10
55.9793
 20
6.6381
 30
0.0
 10
55.9793
 20
6.6381
 30
0.0
 10
76.5495
 20
6.6381
 30
0.0
 10
76.5495
 20
6.6381
 30
0.0
 10
76.5495
 20
6.6381
 30
0.0
 10
72.4353
 20
3.734
 30
0.0
 10
69.1683
 20
-0.1377
 30
0.0
 10
66.8692
 20
-5.462
 30
0.0
 10
66.8692
 20
-5.462
 30
0.0
 10
64.6912
 20
-0.1377
 30
0.0
 10
60.6985
 20
3.4921
 30
0.0
 10
55.9793
 20
6.6381
 30
0.0
  0
SPLINE
  5
4F
330
1F
100
AcDbEntity
  8
layer 1
 62
     7
100
AcDbSpline
210
0.0
220
0.0
230
1.0
 70
    11
 71
     3
 72
    16
 73
    12
 74
     0
 42
0.0000000001
 43
0.0000000001
 12
1.0
 22
0.0
 32
0.0
 13
1.0
 23
0.0
 33
0.0
 40
0.0
 40
0.0
 40
0.0
 40
0.0
 40
0.25
 40
0.25
 40
0.25
 40
0.25
 40
0.5
 40
0.5
 40
0.5
 40
0.5
 40
1.0
 40
1.0
 40
1.0
 40
1.0
 10
55.9793
 20
10.0261
 30
0.0
 10
55.9793
 20
10.0261
 30
0.0
 10
76.5495
 20
10.0261
 30
0.0
 10
76.5495
 20
10.0261
 30
0.0
 10
76.5495
 20
10.0261
 30
0.0
 10
72.4353
 20
12.9302
 30
0.0
 10
69.1683
 20
16.8019
 30
0.0
 10
66.8692
 20
22.0051
 30
0.0
 10
66.8692
 20
22.0051
 30
0.0
 10
64.6912
 20
16.8019
 30
0.0
 10
60.6985
 20
13.172
 30
0.0
 10
55.9793
 20
10.0261
 30
0.0
  0
SPLINE
  5
50
330
1F
100
AcDbEntity
  8
layer 1
 62
     7
100
AcDbSpline
210
0.0
220
0.0
230
1.0
 70
    11
 71
     3
 72
    16
 73
    12
 74
     0
 42
0.0000000001
 43
0.0000000001
 12
1.0
 22
0.0
 32
0.0
 13
1.0
 23
0.0
 33
0.0
 40
0.0
 40
0.0
 40
0.0
 40
0.0
 40
0.25
 40
0.25
 40
0.25
 40
0.25
 40
0.5
 40
0.5
 40
0.5
 40
0.5
 40
1.0
 40
1.0
 40
1.0
 40
1.0
 10
181.5771
 20
6.6381
 30
0.0
 10
181.5771
 20
6.6381
 30
0.0
 10
161.0069
 20
6.6381
 30
0.0
 10
161.0069
 20
6.6381
 30
0.0
 10
161.0069
 20
6.6381
 30
0.0
 10
165.1211
 20
3.734
 30
0.0
 10
168.3881
 20
-0.1377
 30
0.0
 10
170.5661
 20
-5.462
 30
0.0
 10
170.5661
 20
-5.462
 30
0.0
 10
172.7441
 20
-0.1377
 30
0.0
 10
176.8579
 20
3.4921
 30
0.0
 10
181.5771
 20
6.6381
 30
0.0
  0
SPLINE
  5
51
330
1F
100
AcDbEntity
  8
layer 1
 62
     7
100
AcDbSpline
210
0.0
220
0.0
230
1.0
 70
    11
 71
     3
 72
    16
 73
    12
 74
     0
 42
0.0000000001
 43
0.0000000001
 12
1.0
 22
0.0
 32
0.0
 13
1.0
 23
0.0
 33
0.0
 40
0.0
 40
0.0
 40
0.0
 40
0.0
 40
0.25
 40
0.25
 40
0.25
 40
0.25
 40
0.5
 40
0.5
 40
0.5
 40
0.5
 40
1.0
 40
1.0
 40
1.0
 40
1.0
 10
181.5771
 20
10.0261
 30
0.0
 10
181.5771
 20
10.0261
 30
0.0
 10
161.0069
 20
10.0261
 30
0.0
 10
161.0069
 20
10.0261
 30
0.0
 10
161.0069
 20
10.0261
 30
0.0
 10
165.1211
 20
12.9302
 30
0.0
 10
168.3881
 20
16.8019
 30
0.0
 10
170.5661
 20
22.0051
 30
0.0
 10
170.5661
 20
22.0051
 30
0.0
 10
172.7441
 20
16.8019
 30
0.0
 10
176.8579
 20
13.172
 30
0.0
 10
181.5771
 20
10.0261
 30
0.0
  0
SPLINE
  5
52
330
1F
100
AcDbEntity
  8
layer 1
 62
     7
100
AcDbSpline
210
0.0
220
0.0
230
1.0
 70
    11
 71
     3
 72
    32
 73
    28
 74
     0
 42
0.0000000001
 43
0.0000000001
 12
1.0
 22
0.0
 32
0.0
 13
1.0
 23
0.0
 33
0.0
 40
0.0
 40
0.0
 40
0.0
 40
0.0
 40
0.125
 40
0.125
 40
0.125
 40
0.125
 40
0.25
 40
0.25
 40
0.25
 40
0.25
 40
0.375
 40
0.375
 40
0.375
 40
0.375
 40
0.5
 40
0.5
 40
0.5
 40
0.5
 40
0.625
 40
0.625
 40
0.625
 40
0.625
 40
0.75
 40
0.75
 40
0.75
 40
0.75
 40
1.0
 40
1.0
 40
1.0
 40
1.0
 10
96.3932
 20
7.122
 30
0.0
 10
99.6602
 20
7.0009
 30
0.0
 10
102.5643
 20
7.122
 30
0.0
 10
104.9841
 20
6.6381
 30
0.0
 10
104.9841
 20
6.6381
 30
0.0
 10
106.6782
 20
6.2752
 30
0.0
 10
109.2194
 20
4.0972
 30
0.0
 10
108.9772
 20
1.677
 30
0.0
 10
108.9772
 20
1.677
 30
0.0
 10
108.7351
 20
-0.8638
 30
0.0
 10
106.6782
 20
-2.3157
 30
0.0
 10
104.8634
 20
-3.889
 30
0.0
 10
104.8634
 20
-3.889
 30
0.0
 10
103.6533
 20
-4.978
 30
0.0
 10
102.4432
 20
-6.1878
 30
0.0
 10
101.3542
 20
-6.7928
 30
0.0
 10
101.3542
 20
-6.7928
 30
0.0
 10
101.3542
 20
-4.373
 30
0.0
 10
101.4753
 20
-2.195
 30
0.0
 10
100.8703
 20
-0.2588
 30
0.0
 10
100.8703
 20
-0.2588
 30
0.0
 10
100.2652
 20
2.161
 30
0.0
 10
98.3294
 20
3.4921
 30
0.0
 10
96.6354
 20
5.1862
 30
0.0
 10
96.6354
 20
5.1862
 30
0.0
 10
96.3932
 20
5.5491
 30
0.0
 10
96.3932
 20
6.6381
 30
0.0
 10
96.3932
 20
7.122
 30
0.0
  0
SPLINE
  5
53
330
1F
100
AcDbEntity
  8
layer 1
 62
     7
100
AcDbSpline
210
0.0
220
0.0
230
1.0
 70
    11
 71
     3
 72
    32
 73
    28
 74
     0
 42
0.0000000001
 43
0.0000000001
 12
1.0
 22
0.0
 32
0.0
 13
1.0
 23
0.0
 33
0.0
 40
0.0
 40
0.0
 40
0.0
 40
0.0
 40
0.125
 40
0.125
 40
0.125
 40
0.125
 40
0.25
 40
0.25
 40
0.25
 40
0.25
 40
0.375
 40
0.375
 40
0.375
 40
0.375
 40
0.5
 40
0.5
 40
0.5
 40
0.5
 40
0.625
 40
0.625
 40
0.625
 40
0.625
 40
0.75
 40
0.75
 40
0.75
 40
0.75
 40
1.0
 40
1.0
 40
1.0
 40
1.0
 10
96.3932
 20
9.5422
 30
0.0
 10
99.6602
 20
9.6632
 30
0.0
 10
102.5643
 20
9.5422
 30
0.0
 10
104.9841
 20
10.0261
 30
0.0
 10
104.9841
 20
10.0261
 30
0.0
 10
106.6782
 20
10.2679
 30
0.0
 10
109.2194
 20
12.567
 30
0.0
 10
108.9772
 20
14.8661
 30
0.0
 10
108.9772
 20
14.8661
 30
0.0
 10
108.7351
 20
17.407
 30
0.0
 10
106.6782
 20
18.9799
 30
0.0
 10
104.8634
 20
20.5532
 30
0.0
 10
104.8634
 20
20.5532
 30
0.0
 10
103.6533
 20
21.6422
 30
0.0
 10
102.4432
 20
22.8519
 30
0.0
 10
101.3542
 20
23.3359
 30
0.0
 10
101.3542
 20
23.3359
 30
0.0
 10
101.3542
 20
21.0372
 30
0.0
 10
101.4753
 20
18.7381
 30
0.0
 10
100.8703
 20
16.923
 30
0.0
 10
100.8703
 20
16.923
 30
0.0
 10
100.2652
 20
14.5032
 30
0.0
 10
98.3294
 20
13.172
 30
0.0
 10
96.6354
 20
11.3569
 30
0.0
 10
96.6354
 20
11.3569
 30
0.0
 10
96.3932
 20
11.1151
 30
0.0
 10
96.3932
 20
10.0261
 30
0.0
 10
96.3932
 20
9.5422
 30
0.0
  0
SPLINE
  5
54
330
1F
100
AcDbEntity
  8
layer 1
 62
     7
100
AcDbSpline
210
0.0
220
0.0
230
1.0
 70
    11
 71
     3
 72
    32
 73
    28
 74
     0
 42
0.0000000001
 43
0.0000000001
 12
1.0
 22
0.0
 32
0.0
 13
1.0
 23
0.0
 33
0.0
 40
0.0
 40
0.0
 40
0.0
 40
0.0
 40
0.125
 40
0.125
 40
0.125
 40
0.125
 40
0.25
 40
0.25
 40
0.25
 40
0.25
 40
0.375
 40
0.375
 40
0.375
 40
0.375
 40
0.5
 40
0.5
 40
0.5
 40
0.5
 40
0.625
 40
0.625
 40
0.625
 40
0.625
 40
0.75
 40
0.75
 40
0.75
 40
0.75
 40
1.0
 40
1.0
 40
1.0
 40
1.0
 10
141.0421
 20
7.122
 30
0.0
 10
137.8962
 20
7.0009
 30
0.0
 10
134.871
 20
7.122
 30
0.0
 10
132.5723
 20
6.6381
 30
0.0
 10
132.5723
 20
6.6381
 30
0.0
 10
130.8782
 20
6.2752
 30
0.0
 10
128.337
 20
4.0972
 30
0.0
 10
128.5792
 20
1.677
 30
0.0
 10
128.5792
 20
1.677
 30
0.0
 10
128.8213
 20
-0.8638
 30
0.0
 10
130.8782
 20
-2.3157
 30
0.0
 10
132.5723
 20
-3.889
 30
0.0
 10
132.5723
 20
-3.889
 30
0.0
 10
133.9031
 20
-4.978
 30
0.0
 10
135.1132
 20
-6.1878
 30
0.0
 10
136.2022
 20
-6.7928
 30
0.0
 10
136.2022
 20
-6.7928
 30
0.0
 10
136.0811
 20
-4.373
 30
0.0
 10
136.0811
 20
-2.195
 30
0.0
 10
136.565
 20
-0.2588
 30
0.0
 10
136.565
 20
-0.2588
 30
0.0
 10
137.2911
 20
2.161
 30
0.0
 10
139.227
 20
3.4921
 30
0.0
 10
140.921
 20
5.1862
 30
0.0
 10
140.921
 20
5.1862
 30
0.0
 10
141.1632
 20
5.5491
 30
0.0
 10
141.0421
 20
6.6381
 30
0.0
 10
141.0421
 20
7.122
 30
0.0
  0
SPLINE
  5
55
330
1F
100
AcDbEntity
  8
layer 1
 62
     7
100
AcDbSpline
210
0.0
220
0.0
230
1.0
 70
    11
 71
     3
 72
    32
 73
    28
 74
     0
 42
0.0000000001
 43
0.0000000001
 12
1.0
 22
0.0
 32
0.0
 13
1.0
 23
0.0
 33
0.0
 40
0.0
 40
0.0
 40
0.0
 40
0.0
 40
0.125
 40
0.125
 40
0.125
 40
0.125
 40
0.25
 40
0.25
 40
0.25
 40
0.25
 40
0.375
 40
0.375
 40
0.375
 40
0.375
 40
0.5
 40
0.5
 40
0.5
 40
0.5
 40
0.625
 40
0.625
 40
0.625
 40
0.625
 40
0.75
 40
0.75
 40
0.75
 40
0.75
 40
1.0
 40
1.0
 40
1.0
 40
1.0
 10
141.0421
 20
9.5422
 30
0.0
 10
137.8962
 20
9.6632
 30
0.0
 10
134.871
 20
9.5422
 30
0.0
 10
132.5723
 20
10.0261
 30
0.0
 10
132.5723
 20
10.0261
 30
0.0
 10
130.8782
 20
10.2679
 30
0.0
 10
128.337
 20
12.567
 30
0.0
 10
128.5792
 20
14.8661
 30
0.0
 10
128.5792
 20
14.8661
 30
0.0
 10
128.8213
 20
17.407
 30
0.0
 10
130.8782
 20
18.9799
 30
0.0
 10
132.5723
 20
20.5532
 30
0.0
 10
132.5723
 20
20.5532
 30
0.0
 10
133.9031
 20
21.6422
 30
0.0
 10
135.1132
 20
22.8519
 30
0.0
 10
136.2022
 20
23.3359
 30
0.0
 10
136.2022
 20
23.3359
 30
0.0
 10
136.0811
 20
21.0372
 30
0.0
 10
136.0811
 20
18.7381
 30
0.0
 10
136.565
 20
16.923
 30
0.0
 10
136.565
 20
16.923
 30
0.0
 10
137.2911
 20
14.5032
 30
0.0
 10
139.227
 20
13.172
 30
0.0
 10
140.921
 20
11.3569
 30
0.0
 10
140.921
 20
11.3569
 30
0.0
 10
141.1632
 20
11.1151
 30
0.0
 10
141.0421
 20
10.0261
 30
0.0
 10
141.0421
 20
9.5422
 30
0.0
  0
SPLINE
  5
56
330
1F
100
AcDbEntity
  8
layer 1
 62
     7
100
AcDbSpline
210
0.0
220
0.0
230
1.0
 70
    11
 71
     3
 72
    24
 73
    20
 74
     0
 42
0.0000000001
 43
0.0000000001
 12
1.0
 22
0.0
 32
0.0
 13
1.0
 23
0.0
 33
0.0
 40
0.0
 40
0.0
 40
0.0
 40
0.0
 40
0.1666666666666667
 40
0.1666666666666667
 40
0.1666666666666667
 40
0.1666666666666667
 40
0.3333333333333333
 40
0.3333333333333333
 40
0.3333333333333333
 40
0.3333333333333333
 40
0.5
 40
0.5
 40
0.5
 40
0.5
 40
0.6666666666666666
 40
0.6666666666666666
 40
0.6666666666666666
 40
0.6666666666666666
 40
1.0
 40
1.0
 40
1.0
 40
1.0
 10
102.6854
 20
-8.9708
 30
0.0
 10
103.0483
 20
-7.7607
 30
0.0
 10
104.3791
 20
-6.4299
 30
0.0
 10
105.9524
 20
-4.8569
 30
0.0
 10
105.9524
 20
-4.8569
 30
0.0
 10
107.0414
 20
-3.889
 30
0.0
 10
108.1304
 20
-2.5579
 30
0.0
 10
109.5823
 20
-1.9528
 30
0.0
 10
109.5823
 20
-1.9528
 30
0.0
 10
112.4864
 20
-0.7428
 30
0.0
 10
115.5112
 20
-2.195
 30
0.0
 10
116.6002
 20
-4.8569
 30
0.0
 10
116.6002
 20
-4.8569
 30
0.0
 10
117.447
 20
-6.7928
 30
0.0
 10
116.9631
 20
-11.512
 30
0.0
 10
116.6002
 20
-13.4478
 30
0.0
 10
116.6002
 20
-13.4478
 30
0.0
 10
113.5754
 20
-10.3019
 30
0.0
 10
109.2194
 20
-8.6079
 30
0.0
 10
102.6854
 20
-8.9708
 30
0.0
  0
SPLINE
  5
57
330
1F
100
AcDbEntity
  8
layer 1
 62
     7
100
AcDbSpline
210
0.0
220
0.0
230
1.0
 70
    11
 71
     3
 72
    24
 73
    20
 74
     0
 42
0.0000000001
 43
0.0000000001
 12
1.0
 22
0.0
 32
0.0
 13
1.0
 23
0.0
 33
0.0
 40
0.0
 40
0.0
 40
0.0
 40
0.0
 40
0.1666666666666667
 40
0.1666666666666667
 40
0.1666666666666667
 40
0.1666666666666667
 40
0.3333333333333333
 40
0.3333333333333333
 40
0.3333333333333333
 40
0.3333333333333333
 40
0.5
 40
0.5
 40
0.5
 40
0.5
 40
0.6666666666666666
 40
0.6666666666666666
 40
0.6666666666666666
 40
0.6666666666666666
 40
1.0
 40
1.0
 40
1.0
 40
1.0
 10
102.6854
 20
25.635
 30
0.0
 10
103.0483
 20
24.4249
 30
0.0
 10
104.3791
 20
23.0941
 30
0.0
 10
105.9524
 20
21.5211
 30
0.0
 10
105.9524
 20
21.5211
 30
0.0
 10
107.0414
 20
20.5532
 30
0.0
 10
108.1304
 20
19.2221
 30
0.0
 10
109.5823
 20
18.617
 30
0.0
 10
109.5823
 20
18.617
 30
0.0
 10
112.4864
 20
17.407
 30
0.0
 10
115.5112
 20
18.8592
 30
0.0
 10
116.6002
 20
21.5211
 30
0.0
 10
116.6002
 20
21.5211
 30
0.0
 10
117.447
 20
23.457
 30
0.0
 10
116.9631
 20
28.0551
 30
0.0
 10
116.6002
 20
30.112
 30
0.0
 10
116.6002
 20
30.112
 30
0.0
 10
113.5754
 20
26.9661
 30
0.0
 10
109.2194
 20
25.2721
 30
0.0
 10
102.6854
 20
25.635
 30
0.0
  0
SPLINE
  5
58
330
1F
100
AcDbEntity
  8
layer 1
 62
     7
100
AcDbSpline
210
0.0
220
0.0
230
1.0
 70
    11
 71
     3
 72
    24
 73
    20
 74
     0
 42
0.0000000001
 43
0.0000000001
 12
1.0
 22
0.0
 32
0.0
 13
1.0
 23
0.0
 33
0.0
 40
0.0
 40
0.0
 40
0.0
 40
0.0
 40
0.1666666666666667
 40
0.1666666666666667
 40
0.1666666666666667
 40
0.1666666666666667
 40
0.3333333333333333
 40
0.3333333333333333
 40
0.3333333333333333
 40
0.3333333333333333
 40
0.5
 40
0.5
 40
0.5
 40
0.5
 40
0.6666666666666666
 40
0.6666666666666666
 40
0.6666666666666666
 40
0.6666666666666666
 40
1.0
 40
1.0
 40
1.0
 40
1.0
 10
134.871
 20
-8.9708
 30
0.0
 10
134.5081
 20
-7.7607
 30
0.0
 10
133.1773
 20
-6.4299
 30
0.0
 10
131.604
 20
-4.8569
 30
0.0
 10
131.604
 20
-4.8569
 30
0.0
 10
130.515
 20
-3.889
 30
0.0
 10
129.426
 20
-2.5579
 30
0.0
 10
127.9741
 20
-1.9528
 30
0.0
 10
127.9741
 20
-1.9528
 30
0.0
 10
125.07
 20
-0.7428
 30
0.0
 10
122.0452
 20
-2.195
 30
0.0
 10
120.9562
 20
-4.8569
 30
0.0
 10
120.9562
 20
-4.8569
 30
0.0
 10
120.1093
 20
-6.7928
 30
0.0
 10
120.5933
 20
-11.512
 30
0.0
 10
120.9562
 20
-13.4478
 30
0.0
 10
120.9562
 20
-13.4478
 30
0.0
 10
123.981
 20
-10.3019
 30
0.0
 10
128.337
 20
-8.6079
 30
0.0
 10
134.871
 20
-8.9708
 30
0.0
  0
SPLINE
  5
59
330
1F
100
AcDbEntity
  8
layer 1
 62
     7
100
AcDbSpline
210
0.0
220
0.0
230
1.0
 70
    11
 71
     3
 72
    24
 73
    20
 74
     0
 42
0.0000000001
 43
0.0000000001
 12
1.0
 22
0.0
 32
0.0
 13
1.0
 23
0.0
 33
0.0
 40
0.0
 40
0.0
 40
0.0
 40
0.0
 40
0.1666666666666667
 40
0.1666666666666667
 40
0.1666666666666667
 40
0.1666666666666667
 40
0.3333333333333333
 40
0.3333333333333333
 40
0.3333333333333333
 40
0.3333333333333333
 40
0.5
 40
0.5
 40
0.5
 40
0.5
 40
0.6666666666666666
 40
0.6666666666666666
 40
0.6666666666666666
 40
0.6666666666666666
 40
1.0
 40
1.0
 40
1.0
 40
1.0
 10
134.871
 20
25.635
 30
0.0
 10
134.5081
 20
24.4249
 30
0.0
 10
133.1773
 20
23.0941
 30
0.0
 10
131.604
 20
21.5211
 30
0.0
 10
131.604
 20
21.5211
 30
0.0
 10
130.515
 20
20.5532
 30
0.0
 10
129.426
 20
19.2221
 30
0.0
 10
127.9741
 20
18.617
 30
0.0
 10
127.9741
 20
18.617
 30
0.0
 10
125.07
 20
17.407
 30
0.0
 10
122.0452
 20
18.8592
 30
0.0
 10
120.9562
 20
21.5211
 30
0.0
 10
120.9562
 20
21.5211
 30
0.0
 10
120.1093
 20
23.457
 30
0.0
 10
120.5933
 20
28.0551
 30
0.0
 10
120.9562
 20
30.112
 30
0.0
 10
120.9562
 20
30.112
 30
0.0
 10
123.981
 20
26.9661
 30
0.0
 10
128.337
 20
25.2721
 30
0.0
 10
134.871
 20
25.635
 30
0.0
  0
SPLINE
  5
5A
330
1F
100
AcDbEntity
  8
layer 1
 62
     7
100
AcDbSpline
210
0.0
220
0.0
230
1.0
 70
    11
 71
     3
 72
    88
 73
    84
 74
     0
 42
0.0000000001
 43
0.0000000001
 12
1.0
 22
0.0
 32
0.0
 13
1.0
 23
0.0
 33
0.0
 40
0.0
 40
0.0
 40
0.0
 40
0.0
 40
0.0454545454545455
 40
0.0454545454545455
 40
0.0454545454545455
 40
0.0454545454545455
 40
0.0909090909090909
 40
0.0909090909090909
 40
0.0909090909090909
 40
0.0909090909090909
 40
0.1363636363636364
 40
0.1363636363636364
 40
0.1363636363636364
 40
0.1363636363636364
 40
0.1818181818181818
 40
0.1818181818181818
 40
0.1818181818181818
 40
0.1818181818181818
 40
0.2272727272727273
 40
0.2272727272727273
 40
0.2272727272727273
 40
0.2272727272727273
 40
0.2727272727272727
 40
0.2727272727272727
 40
0.2727272727272727
 40
0.2727272727272727
 40
0.3181818181818182
 40
0.3181818181818182
 40
0.3181818181818182
 40
0.3181818181818182
 40
0.3636363636363636
 40
0.3636363636363636
 40
0.3636363636363636
 40
0.3636363636363636
 40
0.4090909090909091
 40
0.4090909090909091
 40
0.4090909090909091
 40
0.4090909090909091
 40
0.4545454545454545
 40
0.4545454545454545
 40
0.4545454545454545
 40
0.4545454545454545
 40
0.5
 40
0.5
 40
0.5
 40
0.5
 40
0.5454545454545454
 40
0.5454545454545454
 40
0.5454545454545454
 40
0.5454545454545454
 40
0.5909090909090909
 40
0.5909090909090909
 40
0.5909090909090909
 40
0.5909090909090909
 40
0.6363636363636364
 40
0.6363636363636364
 40
0.6363636363636364
 40
0.6363636363636364
 40
0.6818181818181818
 40
0.6818181818181818
 40
0.6818181818181818
 40
0.6818181818181818
 40
0.7272727272727273
 40
0.7272727272727273
 40
0.7272727272727273
 40
0.7272727272727273
 40
0.7727272727272727
 40
0.7727272727272727
 40
0.7727272727272727
 40
0.7727272727272727
 40
0.8181818181818182
 40
0.8181818181818182
 40
0.8181818181818182
 40
0.8181818181818182
 40
0.8636363636363636
 40
0.8636363636363636
 40
0.8636363636363636
 40
0.8636363636363636
 40
0.9090909090909091
 40
0.9090909090909091
 40
0.9090909090909091
 40
0.9090909090909091
 40
1.0
 40
1.0
 40
1.0
 40
1.0
 10
116.3581
 20
-25.5479
 30
0.0
 10
116.3581
 20
-29.5407
 30
0.0
 10
109.7033
 20
-36.8007
 30
0.0
 10
105.3473
 20
-38.8577
 30
0.0
 10
105.3473
 20
-38.8577
 30
0.0
 10
97.3611
 20
-42.8508
 30
0.0
 10
89.3753
 20
-41.8828
 30
0.0
 10
83.5674
 20
-39.2209
 30
0.0
 10
83.5674
 20
-39.2209
 30
0.0
 10
72.7982
 20
-34.5017
 30
0.0
 10
64.0862
 20
-22.0387
 30
0.0
 10
71.4674
 20
-4.6148
 30
0.0
 10
71.4674
 20
-4.6148
 30
0.0
 10
77.1542
 20
9.0582
 30
0.0
 10
89.8592
 20
8.3321
 30
0.0
 10
95.4253
 20
1.9192
 30
0.0
 10
95.4253
 20
1.9192
 30
0.0
 10
101.2332
 20
-4.7359
 30
0.0
 10
96.2721
 20
-17.8038
 30
0.0
 10
85.1404
 20
-16.1098
 30
0.0
 10
85.1404
 20
-16.1098
 30
0.0
 10
80.1793
 20
-15.3837
 30
0.0
 10
78.8482
 20
-10.0598
 30
0.0
 10
80.6633
 20
-7.64
 30
0.0
 10
80.6633
 20
-7.64
 30
0.0
 10
81.9944
 20
-5.9459
 30
0.0
 10
86.1083
 20
-4.4937
 30
0.0
 10
88.2863
 20
-7.7607
 30
0.0
 10
88.2863
 20
-7.7607
 30
0.0
 10
88.7702
 20
-8.4868
 30
0.0
 10
88.5284
 20
-11.7538
 30
0.0
 10
91.4322
 20
-10.7859
 30
0.0
 10
91.4322
 20
-10.7859
 30
0.0
 10
92.5212
 20
-10.5437
 30
0.0
 10
92.6423
 20
-8.729
 30
0.0
 10
91.6743
 20
-6.9139
 30
0.0
 10
91.6743
 20
-6.9139
 30
0.0
 10
90.8272
 20
-5.3409
 30
0.0
 10
88.5284
 20
-3.4047
 30
0.0
 10
85.8661
 20
-2.9208
 30
0.0
 10
85.8661
 20
-2.9208
 30
0.0
 10
82.4784
 20
-2.4368
 30
0.0
 10
78.4853
 20
-3.7679
 30
0.0
 10
77.3963
 20
-7.156
 30
0.0
 10
77.3963
 20
-7.156
 30
0.0
 10
74.8554
 20
-14.779
 30
0.0
 10
81.5101
 20
-20.8287
 30
0.0
 10
91.6743
 20
-18.6507
 30
0.0
 10
91.6743
 20
-18.6507
 30
0.0
 10
91.3111
 20
-21.7969
 30
0.0
 10
91.3111
 20
-26.3947
 30
0.0
 10
92.6423
 20
-28.6938
 30
0.0
 10
92.6423
 20
-28.6938
 30
0.0
 10
95.0624
 20
-33.1709
 30
0.0
 10
100.2652
 20
-33.4127
 30
0.0
 10
102.3222
 20
-32.9287
 30
0.0
 10
102.3222
 20
-32.9287
 30
0.0
 10
107.5253
 20
-31.8397
 30
0.0
 10
109.4612
 20
-23.0067
 30
0.0
 10
105.8313
 20
-19.6189
 30
0.0
 10
105.8313
 20
-19.6189
 30
0.0
 10
104.7423
 20
-18.6507
 30
0.0
 10
100.6281
 20
-15.868
 30
0.0
 10
99.4184
 20
-18.1667
 30
0.0
 10
99.4184
 20
-18.1667
 30
0.0
 10
98.8134
 20
-19.2557
 30
0.0
 10
101.8382
 20
-20.1029
 30
0.0
 10
103.6533
 20
-21.6759
 30
0.0
 10
103.6533
 20
-21.6759
 30
0.0
 10
104.7423
 20
-22.6438
 30
0.0
 10
104.9841
 20
-24.2167
 30
0.0
 10
104.9841
 20
-24.9429
 30
0.0
 10
104.9841
 20
-24.9429
 30
0.0
 10
105.3473
 20
-30.7507
 30
0.0
 10
99.5391
 20
-32.2029
 30
0.0
 10
96.0303
 20
-28.4517
 30
0.0
 10
96.0303
 20
-28.4517
 30
0.0
 10
94.8203
 20
-26.9998
 30
0.0
 10
93.7313
 20
-22.1598
 30
0.0
 10
95.0624
 20
-19.7397
 30
0.0
 10
95.0624
 20
-19.7397
 30
0.0
 10
99.0552
 20
-7.64
 30
0.0
 10
117.0842
 20
-11.1488
 30
0.0
 10
116.3581
 20
-25.5479
 30
0.0
  0
SPLINE
  5
5B
330
1F
100
AcDbEntity
  8
layer 1
 62
     7
100
AcDbSpline
210
0.0
220
0.0
230
1.0
 70
    11
 71
     3
 72
    88
 73
    84
 74
     0
 42
0.0000000001
 43
0.0000000001
 12
1.0
 22
0.0
 32
0.0
 13
1.0
 23
0.0
 33
0.0
 40
0.0
 40
0.0
 40
0.0
 40
0.0
 40
0.0454545454545455
 40
0.0454545454545455
 40
0.0454545454545455
 40
0.0454545454545455
 40
0.0909090909090909
 40
0.0909090909090909
 40
0.0909090909090909
 40
0.0909090909090909
 40
0.1363636363636364
 40
0.1363636363636364
 40
0.1363636363636364
 40
0.1363636363636364
 40
0.1818181818181818
 40
0.1818181818181818
 40
0.1818181818181818
 40
0.1818181818181818
 40
0.2272727272727273
 40
0.2272727272727273
 40
0.2272727272727273
 40
0.2272727272727273
 40
0.2727272727272727
 40
0.2727272727272727
 40
0.2727272727272727
 40
0.2727272727272727
 40
0.3181818181818182
 40
0.3181818181818182
 40
0.3181818181818182
 40
0.3181818181818182
 40
0.3636363636363636
 40
0.3636363636363636
 40
0.3636363636363636
 40
0.3636363636363636
 40
0.4090909090909091
 40
0.4090909090909091
 40
0.4090909090909091
 40
0.4090909090909091
 40
0.4545454545454545
 40
0.4545454545454545
 40
0.4545454545454545
 40
0.4545454545454545
 40
0.5
 40
0.5
 40
0.5
 40
0.5
 40
0.5454545454545454
 40
0.5454545454545454
 40
0.5454545454545454
 40
0.5454545454545454
 40
0.5909090909090909
 40
0.5909090909090909
 40
0.5909090909090909
 40
0.5909090909090909
 40
0.6363636363636364
 40
0.6363636363636364
 40
0.6363636363636364
 40
0.6363636363636364
 40
0.6818181818181818
 40
0.6818181818181818
 40
0.6818181818181818
 40
0.6818181818181818
 40
0.7272727272727273
 40
0.7272727272727273
 40
0.7272727272727273
 40
0.7272727272727273
 40
0.7727272727272727
 40
0.7727272727272727
 40
0.7727272727272727
 40
0.7727272727272727
 40
0.8181818181818182
 40
0.8181818181818182
 40
0.8181818181818182
 40
0.8181818181818182
 40
0.8636363636363636
 40
0.8636363636363636
 40
0.8636363636363636
 40
0.8636363636363636
 40
0.9090909090909091
 40
0.9090909090909091
 40
0.9090909090909091
 40
0.9090909090909091
 40
1.0
 40
1.0
 40
1.0
 40
1.0
 10
116.3581
 20
42.2121
 30
0.0
 10
116.3581
 20
46.2048
 30
0.0
 10
109.7033
 20
53.4649
 30
0.0
 10
105.3473
 20
55.5219
 30
0.0
 10
105.3473
 20
55.5219
 30
0.0
 10
97.3611
 20
59.515
 30
0.0
 10
89.3753
 20
58.547
 30
0.0
 10
83.5674
 20
55.8851
 30
0.0
 10
83.5674
 20
55.8851
 30
0.0
 10
72.7982
 20
51.1659
 30
0.0
 10
64.0862
 20
38.7029
 30
0.0
 10
71.4674
 20
21.279
 30
0.0
 10
71.4674
 20
21.279
 30
0.0
 10
77.1542
 20
7.606
 30
0.0
 10
89.8592
 20
8.3321
 30
0.0
 10
95.4253
 20
14.745
 30
0.0
 10
95.4253
 20
14.745
 30
0.0
 10
101.2332
 20
21.4001
 30
0.0
 10
96.2721
 20
34.468
 30
0.0
 10
85.1404
 20
32.774
 30
0.0
 10
85.1404
 20
32.774
 30
0.0
 10
80.1793
 20
32.0479
 30
0.0
 10
78.8482
 20
26.724
 30
0.0
 10
80.6633
 20
24.3042
 30
0.0
 10
80.6633
 20
24.3042
 30
0.0
 10
81.9944
 20
22.6101
 30
0.0
 10
86.1083
 20
21.1579
 30
0.0
 10
88.2863
 20
24.3042
 30
0.0
 10
88.2863
 20
24.3042
 30
0.0
 10
88.7702
 20
25.0299
 30
0.0
 10
88.5284
 20
28.418
 30
0.0
 10
91.4322
 20
27.4501
 30
0.0
 10
91.4322
 20
27.4501
 30
0.0
 10
92.5212
 20
27.2079
 30
0.0
 10
92.6423
 20
25.3932
 30
0.0
 10
91.6743
 20
23.5781
 30
0.0
 10
91.6743
 20
23.5781
 30
0.0
 10
90.8272
 20
22.0051
 30
0.0
 10
88.5284
 20
20.0689
 30
0.0
 10
85.8661
 20
19.585
 30
0.0
 10
85.8661
 20
19.585
 30
0.0
 10
82.4784
 20
19.101
 30
0.0
 10
78.4853
 20
20.4321
 30
0.0
 10
77.3963
 20
23.8202
 30
0.0
 10
77.3963
 20
23.8202
 30
0.0
 10
74.8554
 20
31.3221
 30
0.0
 10
81.5101
 20
37.4929
 30
0.0
 10
91.6743
 20
35.1941
 30
0.0
 10
91.6743
 20
35.1941
 30
0.0
 10
91.3111
 20
38.4611
 30
0.0
 10
91.3111
 20
43.0589
 30
0.0
 10
92.6423
 20
45.358
 30
0.0
 10
92.6423
 20
45.358
 30
0.0
 10
95.0624
 20
49.714
 30
0.0
 10
100.2652
 20
49.9561
 30
0.0
 10
102.3222
 20
49.5929
 30
0.0
 10
102.3222
 20
49.5929
 30
0.0
 10
107.5253
 20
48.5039
 30
0.0
 10
109.4612
 20
39.6709
 30
0.0
 10
105.8313
 20
36.2831
 30
0.0
 10
105.8313
 20
36.2831
 30
0.0
 10
104.7423
 20
35.1941
 30
0.0
 10
100.6281
 20
32.5322
 30
0.0
 10
99.4184
 20
34.8309
 30
0.0
 10
99.4184
 20
34.8309
 30
0.0
 10
98.8134
 20
35.9199
 30
0.0
 10
101.8382
 20
36.7671
 30
0.0
 10
103.6533
 20
38.3401
 30
0.0
 10
103.6533
 20
38.3401
 30
0.0
 10
104.7423
 20
39.308
 30
0.0
 10
104.9841
 20
40.8809
 30
0.0
 10
104.9841
 20
41.607
 30
0.0
 10
104.9841
 20
41.607
 30
0.0
 10
105.3473
 20
47.4149
 30
0.0
 10
99.5391
 20
48.8671
 30
0.0
 10
96.0303
 20
44.9951
 30
0.0
 10
96.0303
 20
44.9951
 30
0.0
 10
94.8203
 20
43.664
 30
0.0
 10
93.7313
 20
38.824
 30
0.0
 10
95.0624
 20
36.4039
 30
0.0
 10
95.0624
 20
36.4039
 30
0.0
 10
99.0552
 20
24.3042
 30
0.0
 10
117.0842
 20
27.6919
 30
0.0
 10
116.3581
 20
42.2121
 30
0.0
  0
SPLINE
  5
5C
330
1F
100
AcDbEntity
  8
layer 1
 62
     7
100
AcDbSpline
210
0.0
220
0.0
230
1.0
 70
    11
 71
     3
 72
    88
 73
    84
 74
     0
 42
0.0000000001
 43
0.0000000001
 12
1.0
 22
0.0
 32
0.0
 13
1.0
 23
0.0
 33
0.0
 40
0.0
 40
0.0
 40
0.0
 40
0.0
 40
0.0454545454545455
 40
0.0454545454545455
 40
0.0454545454545455
 40
0.0454545454545455
 40
0.0909090909090909
 40
0.0909090909090909
 40
0.0909090909090909
 40
0.0909090909090909
 40
0.1363636363636364
 40
0.1363636363636364
 40
0.1363636363636364
 40
0.1363636363636364
 40
0.1818181818181818
 40
0.1818181818181818
 40
0.1818181818181818
 40
0.1818181818181818
 40
0.2272727272727273
 40
0.2272727272727273
 40
0.2272727272727273
 40
0.2272727272727273
 40
0.2727272727272727
 40
0.2727272727272727
 40
0.2727272727272727
 40
0.2727272727272727
 40
0.3181818181818182
 40
0.3181818181818182
 40
0.3181818181818182
 40
0.3181818181818182
 40
0.3636363636363636
 40
0.3636363636363636
 40
0.3636363636363636
 40
0.3636363636363636
 40
0.4090909090909091
 40
0.4090909090909091
 40
0.4090909090909091
 40
0.4090909090909091
 40
0.4545454545454545
 40
0.4545454545454545
 40
0.4545454545454545
 40
0.4545454545454545
 40
0.5
 40
0.5
 40
0.5
 40
0.5
 40
0.5454545454545454
 40
0.5454545454545454
 40
0.5454545454545454
 40
0.5454545454545454
 40
0.5909090909090909
 40
0.5909090909090909
 40
0.5909090909090909
 40
0.5909090909090909
 40
0.6363636363636364
 40
0.6363636363636364
 40
0.6363636363636364
 40
0.6363636363636364
 40
0.6818181818181818
 40
0.6818181818181818
 40
0.6818181818181818
 40
0.6818181818181818
 40
0.7272727272727273
 40
0.7272727272727273
 40
0.7272727272727273
 40
0.7272727272727273
 40
0.7727272727272727
 40
0.7727272727272727
 40
0.7727272727272727
 40
0.7727272727272727
 40
0.8181818181818182
 40
0.8181818181818182
 40
0.8181818181818182
 40
0.8181818181818182
 40
0.8636363636363636
 40
0.8636363636363636
 40
0.8636363636363636
 40
0.8636363636363636
 40
0.9090909090909091
 40
0.9090909090909091
 40
0.9090909090909091
 40
0.9090909090909091
 40
1.0
 40
1.0
 40
1.0
 40
1.0
 10
121.0773
 20
-25.5479
 30
0.0
 10
121.1983
 20
-29.5407
 30
0.0
 10
127.8531
 20
-36.8007
 30
0.0
 10
132.0883
 20
-38.8577
 30
0.0
 10
132.0883
 20
-38.8577
 30
0.0
 10
140.1953
 20
-42.8508
 30
0.0
 10
148.1811
 20
-41.8828
 30
0.0
 10
153.989
 20
-39.2209
 30
0.0
 10
153.989
 20
-39.2209
 30
0.0
 10
164.7582
 20
-34.5017
 30
0.0
 10
173.3491
 20
-22.0387
 30
0.0
 10
166.089
 20
-4.6148
 30
0.0
 10
166.089
 20
-4.6148
 30
0.0
 10
160.4022
 20
9.0582
 30
0.0
 10
147.6972
 20
8.3321
 30
0.0
 10
142.1311
 20
1.9192
 30
0.0
 10
142.1311
 20
1.9192
 30
0.0
 10
136.3232
 20
-4.7359
 30
0.0
 10
141.2843
 20
-17.8038
 30
0.0
 10
152.416
 20
-16.1098
 30
0.0
 10
152.416
 20
-16.1098
 30
0.0
 10
157.3771
 20
-15.3837
 30
0.0
 10
158.7082
 20
-10.0598
 30
0.0
 10
156.8931
 20
-7.64
 30
0.0
 10
156.8931
 20
-7.64
 30
0.0
 10
155.5619
 20
-5.9459
 30
0.0
 10
151.4481
 20
-4.4937
 30
0.0
 10
149.2701
 20
-7.7607
 30
0.0
 10
149.2701
 20
-7.7607
 30
0.0
 10
148.7862
 20
-8.4868
 30
0.0
 10
149.028
 20
-11.7538
 30
0.0
 10
146.0031
 20
-10.7859
 30
0.0
 10
146.0031
 20
-10.7859
 30
0.0
 10
145.0352
 20
-10.5437
 30
0.0
 10
144.9141
 20
-8.729
 30
0.0
 10
145.882
 20
-6.9139
 30
0.0
 10
145.882
 20
-6.9139
 30
0.0
 10
146.6082
 20
-5.3409
 30
0.0
 10
149.028
 20
-3.4047
 30
0.0
 10
151.6903
 20
-2.9208
 30
0.0
 10
151.6903
 20
-2.9208
 30
0.0
 10
155.078
 20
-2.4368
 30
0.0
 10
159.0711
 20
-3.7679
 30
0.0
 10
160.1601
 20
-7.156
 30
0.0
 10
160.1601
 20
-7.156
 30
0.0
 10
162.5802
 20
-14.779
 30
0.0
 10
156.0463
 20
-20.8287
 30
0.0
 10
145.761
 20
-18.6507
 30
0.0
 10
145.761
 20
-18.6507
 30
0.0
 10
146.2453
 20
-21.7969
 30
0.0
 10
146.2453
 20
-26.3947
 30
0.0
 10
144.9141
 20
-28.6938
 30
0.0
 10
144.9141
 20
-28.6938
 30
0.0
 10
142.3732
 20
-33.1709
 30
0.0
 10
137.2911
 20
-33.4127
 30
0.0
 10
135.1132
 20
-32.9287
 30
0.0
 10
135.1132
 20
-32.9287
 30
0.0
 10
130.0311
 20
-31.8397
 30
0.0
 10
128.0952
 20
-23.0067
 30
0.0
 10
131.7251
 20
-19.6189
 30
0.0
 10
131.7251
 20
-19.6189
 30
0.0
 10
132.693
 20
-18.6507
 30
0.0
 10
136.9283
 20
-15.868
 30
0.0
 10
138.138
 20
-18.1667
 30
0.0
 10
138.138
 20
-18.1667
 30
0.0
 10
138.6223
 20
-19.2557
 30
0.0
 10
135.7182
 20
-20.1029
 30
0.0
 10
133.9031
 20
-21.6759
 30
0.0
 10
133.9031
 20
-21.6759
 30
0.0
 10
132.8141
 20
-22.6438
 30
0.0
 10
132.5723
 20
-24.2167
 30
0.0
 10
132.5723
 20
-24.9429
 30
0.0
 10
132.5723
 20
-24.9429
 30
0.0
 10
132.209
 20
-30.7507
 30
0.0
 10
138.0173
 20
-32.2029
 30
0.0
 10
141.5261
 20
-28.4517
 30
0.0
 10
141.5261
 20
-28.4517
 30
0.0
 10
142.7361
 20
-26.9998
 30
0.0
 10
143.7041
 20
-22.1598
 30
0.0
 10
142.494
 20
-19.7397
 30
0.0
 10
142.494
 20
-19.7397
 30
0.0
 10
138.3801
 20
-7.64
 30
0.0
 10
120.4722
 20
-11.1488
 30
0.0
 10
121.0773
 20
-25.5479
 30
0.0
  0
SPLINE
  5
5D
330
1F
100
AcDbEntity
  8
layer 1
 62
     7
100
AcDbSpline
210
0.0
220
0.0
230
1.0
 70
    11
 71
     3
 72
    88
 73
    84
 74
     0
 42
0.0000000001
 43
0.0000000001
 12
1.0
 22
0.0
 32
0.0
 13
1.0
 23
0.0
 33
0.0
 40
0.0
 40
0.0
 40
0.0
 40
0.0
 40
0.0454545454545455
 40
0.0454545454545455
 40
0.0454545454545455
 40
0.0454545454545455
 40
0.0909090909090909
 40
0.0909090909090909
 40
0.0909090909090909
 40
0.0909090909090909
 40
0.1363636363636364
 40
0.1363636363636364
 40
0.1363636363636364
 40
0.1363636363636364
 40
0.1818181818181818
 40
0.1818181818181818
 40
0.1818181818181818
 40
0.1818181818181818
 40
0.2272727272727273
 40
0.2272727272727273
 40
0.2272727272727273
 40
0.2272727272727273
 40
0.2727272727272727
 40
0.2727272727272727
 40
0.2727272727272727
 40
0.2727272727272727
 40
0.3181818181818182
 40
0.3181818181818182
 40
0.3181818181818182
 40
0.3181818181818182
 40
0.3636363636363636
 40
0.3636363636363636
 40
0.3636363636363636
 40
0.3636363636363636
 40
0.4090909090909091
 40
0.4090909090909091
 40
0.4090909090909091
 40
0.4090909090909091
 40
0.4545454545454545
 40
0.4545454545454545
 40
0.4545454545454545
 40
0.4545454545454545
 40
0.5
 40
0.5
 40
0.5
 40
0.5
 40
0.5454545454545454
 40
0.5454545454545454
 40
0.5454545454545454
 40
0.5454545454545454
 40
0.5909090909090909
 40
0.5909090909090909
 40
0.5909090909090909
 40
0.5909090909090909
 40
0.6363636363636364
 40
0.6363636363636364
 40
0.6363636363636364
 40
0.6363636363636364
 40
0.6818181818181818
 40
0.6818181818181818
 40
0.6818181818181818
 40
0.6818181818181818
 40
0.7272727272727273
 40
0.7272727272727273
 40
0.7272727272727273
 40
0.7272727272727273
 40
0.7727272727272727
 40
0.7727272727272727
 40
0.7727272727272727
 40
0.7727272727272727
 40
0.8181818181818182
 40
0.8181818181818182
 40
0.8181818181818182
 40
0.8181818181818182
 40
0.8636363636363636
 40
0.8636363636363636
 40
0.8636363636363636
 40
0.8636363636363636
 40
0.9090909090909091
 40
0.9090909090909091
 40
0.9090909090909091
 40
0.9090909090909091
 40
1.0
 40
1.0
 40
1.0
 40
1.0
 10
121.0773
 20
42.2121
 30
0.0
 10
121.1983
 20
46.2048
 30
0.0
 10
127.8531
 20
53.4649
 30
0.0
 10
132.0883
 20
55.5219
 30
0.0
 10
132.0883
 20
55.5219
 30
0.0
 10
140.1953
 20
59.515
 30
0.0
 10
148.1811
 20
58.547
 30
0.0
 10
153.989
 20
55.8851
 30
0.0
 10
153.989
 20
55.8851
 30
0.0
 10
164.7582
 20
51.1659
 30
0.0
 10
173.3491
 20
38.7029
 30
0.0
 10
166.089
 20
21.279
 30
0.0
 10
166.089
 20
21.279
 30
0.0
 10
160.4022
 20
7.606
 30
0.0
 10
147.6972
 20
8.3321
 30
0.0
 10
142.1311
 20
14.745
 30
0.0
 10
142.1311
 20
14.745
 30
0.0
 10
136.3232
 20
21.4001
 30
0.0
 10
141.2843
 20
34.468
 30
0.0
 10
152.416
 20
32.774
 30
0.0
 10
152.416
 20
32.774
 30
0.0
 10
157.3771
 20
32.0479
 30
0.0
 10
158.7082
 20
26.724
 30
0.0
 10
156.8931
 20
24.3042
 30
0.0
 10
156.8931
 20
24.3042
 30
0.0
 10
155.5619
 20
22.6101
 30
0.0
 10
151.4481
 20
21.1579
 30
0.0
 10
149.2701
 20
24.3042
 30
0.0
 10
149.2701
 20
24.3042
 30
0.0
 10
148.7862
 20
25.0299
 30
0.0
 10
149.028
 20
28.418
 30
0.0
 10
146.0031
 20
27.4501
 30
0.0
 10
146.0031
 20
27.4501
 30
0.0
 10
145.0352
 20
27.2079
 30
0.0
 10
144.9141
 20
25.3932
 30
0.0
 10
145.882
 20
23.5781
 30
0.0
 10
145.882
 20
23.5781
 30
0.0
 10
146.6082
 20
22.0051
 30
0.0
 10
149.028
 20
20.0689
 30
0.0
 10
151.6903
 20
19.585
 30
0.0
 10
151.6903
 20
19.585
 30
0.0
 10
155.078
 20
19.101
 30
0.0
 10
159.0711
 20
20.4321
 30
0.0
 10
160.1601
 20
23.8202
 30
0.0
 10
160.1601
 20
23.8202
 30
0.0
 10
162.5802
 20
31.3221
 30
0.0
 10
156.0463
 20
37.4929
 30
0.0
 10
145.761
 20
35.1941
 30
0.0
 10
145.761
 20
35.1941
 30
0.0
 10
146.2453
 20
38.4611
 30
0.0
 10
146.2453
 20
43.0589
 30
0.0
 10
144.9141
 20
45.358
 30
0.0
 10
144.9141
 20
45.358
 30
0.0
 10
142.3732
 20
49.714
 30
0.0
 10
137.2911
 20
49.9561
 30
0.0
 10
135.1132
 20
49.5929
 30
0.0
 10
135.1132
 20
49.5929
 30
0.0
 10
130.0311
 20
48.5039
 30
0.0
 10
128.0952
 20
39.6709
 30
0.0
 10
131.7251
 20
36.2831
 30
0.0
 10
131.7251
 20
36.2831
 30
0.0
 10
132.693
 20
35.1941
 30
0.0
 10
136.9283
 20
32.5322
 30
0.0
 10
138.138
 20
34.8309
 30
0.0
 10
138.138
 20
34.8309
 30
0.0
 10
138.6223
 20
35.9199
 30
0.0
 10
135.7182
 20
36.7671
 30
0.0
 10
133.9031
 20
38.3401
 30
0.0
 10
133.9031
 20
38.3401
 30
0.0
 10
132.8141
 20
39.308
 30
0.0
 10
132.5723
 20
40.8809
 30
0.0
 10
132.5723
 20
41.607
 30
0.0
 10
132.5723
 20
41.607
 30
0.0
 10
132.209
 20
47.4149
 30
0.0
 10
138.0173
 20
48.8671
 30
0.0
 10
141.5261
 20
44.9951
 30
0.0
 10
141.5261
 20
44.9951
 30
0.0
 10
142.7361
 20
43.664
 30
0.0
 10
143.7041
 20
38.824
 30
0.0
 10
142.494
 20
36.4039
 30
0.0
 10
142.494
 20
36.4039
 30
0.0
 10
138.3801
 20
24.3042
 30
0.0
 10
120.4722
 20
27.6919
 30
0.0
 10
121.0773
 20
42.2121
 30
0.0
  0
SPLINE
  5
5E
330
1F
100
AcDbEntity
  8
layer 1
 62
     7
100
AcDbSpline
210
0.0
220
0.0
230
1.0
 70
    11
 71
     3
 72
    28
 73
    24
 74
     0
 42
0.0000000001
 43
0.0000000001
 12
1.0
 22
0.0
 32
0.0
 13
1.0
 23
0.0
 33
0.0
 40
0.0
 40
0.0
 40
0.0
 40
0.0
 40
0.1428571428571428
 40
0.1428571428571428
 40
0.1428571428571428
 40
0.1428571428571428
 40
0.2857142857142857
 40
0.2857142857142857
 40
0.2857142857142857
 40
0.2857142857142857
 40
0.4285714285714285
 40
0.4285714285714285
 40
0.4285714285714285
 40
0.4285714285714285
 40
0.5714285714285714
 40
0.5714285714285714
 40
0.5714285714285714
 40
0.5714285714285714
 40
0.7142857142857143
 40
0.7142857142857143
 40
0.7142857142857143
 40
0.7142857142857143
 40
1.0
 40
1.0
 40
1.0
 40
1.0
 10
52.8333
 20
-60.2747
 30
0.0
 10
52.8333
 20
-60.2747
 30
0.0
 10
52.8333
 20
-11.2699
 30
0.0
 10
52.8333
 20
-11.2699
 30
0.0
 10
52.8333
 20
-11.2699
 30
0.0
 10
52.8333
 20
-11.2699
 30
0.0
 10
54.2852
 20
-11.2699
 30
0.0
 10
54.2852
 20
-11.2699
 30
0.0
 10
54.2852
 20
-11.2699
 30
0.0
 10
58.0365
 20
-25.5479
 30
0.0
 10
67.1114
 20
-38.2526
 30
0.0
 10
78.3642
 20
-45.9967
 30
0.0
 10
78.3642
 20
-45.9967
 30
0.0
 10
78.3642
 20
-46.1178
 30
0.0
 10
78.2432
 20
-46.3599
 30
0.0
 10
78.1224
 20
-46.4806
 30
0.0
 10
78.1224
 20
-46.4806
 30
0.0
 10
63.1183
 20
-45.5127
 30
0.0
 10
57.7944
 20
-50.4737
 30
0.0
 10
54.2852
 20
-60.3958
 30
0.0
 10
54.2852
 20
-60.3958
 30
0.0
 10
54.2852
 20
-60.3958
 30
0.0
 10
52.8333
 20
-60.2747
 30
0.0
 10
52.8333
 20
-60.2747
 30
0.0
  0
SPLINE
  5
5F
330
1F
100
AcDbEntity
  8
layer 1
 62
     7
100
AcDbSpline
210
0.0
220
0.0
230
1.0
 70
    11
 71
     3
 72
    28
 73
    24
 74
     0
 42
0.0000000001
 43
0.0000000001
 12
1.0
 22
0.0
 32
0.0
 13
1.0
 23
0.0
 33
0.0
 40
0.0
 40
0.0
 40
0.0
 40
0.0
 40
0.1428571428571428
 40
0.1428571428571428
 40
0.1428571428571428
 40
0.1428571428571428
 40
0.2857142857142857
 40
0.2857142857142857
 40
0.2857142857142857
 40
0.2857142857142857
 40
0.4285714285714285
 40
0.4285714285714285
 40
0.4285714285714285
 40
0.4285714285714285
 40
0.5714285714285714
 40
0.5714285714285714
 40
0.5714285714285714
 40
0.5714285714285714
 40
0.7142857142857143
 40
0.7142857142857143
 40
0.7142857142857143
 40
0.7142857142857143
 40
1.0
 40
1.0
 40
1.0
 40
1.0
 10
52.8333
 20
76.9389
 30
0.0
 10
52.8333
 20
76.9389
 30
0.0
 10
52.8333
 20
27.934
 30
0.0
 10
52.8333
 20
27.934
 30
0.0
 10
52.8333
 20
27.934
 30
0.0
 10
52.8333
 20
27.934
 30
0.0
 10
54.2852
 20
27.934
 30
0.0
 10
54.2852
 20
27.934
 30
0.0
 10
54.2852
 20
27.934
 30
0.0
 10
58.0365
 20
42.2121
 30
0.0
 10
67.1114
 20
54.9168
 30
0.0
 10
78.3642
 20
62.6609
 30
0.0
 10
78.3642
 20
62.6609
 30
0.0
 10
78.3642
 20
62.7819
 30
0.0
 10
78.2432
 20
63.0241
 30
0.0
 10
78.1224
 20
63.1448
 30
0.0
 10
78.1224
 20
63.1448
 30
0.0
 10
63.1183
 20
62.1769
 30
0.0
 10
57.7944
 20
67.1379
 30
0.0
 10
54.2852
 20
77.06
 30
0.0
 10
54.2852
 20
77.06
 30
0.0
 10
54.2852
 20
77.06
 30
0.0
 10
52.8333
 20
76.9389
 30
0.0
 10
52.8333
 20
76.9389
 30
0.0
  0
SPLINE
  5
60
330
1F
100
AcDbEntity
  8
layer 1
 62
     7
100
AcDbSpline
210
0.0
220
0.0
230
1.0
 70
    11
 71
     3
 72
    28
 73
    24
 74
     0
 42
0.0000000001
 43
0.0000000001
 12
1.0
 22
0.0
 32
0.0
 13
1.0
 23
0.0
 33
0.0
 40
0.0
 40
0.0
 40
0.0
 40
0.0
 40
0.1428571428571428
 40
0.1428571428571428
 40
0.1428571428571428
 40
0.1428571428571428
 40
0.2857142857142857
 40
0.2857142857142857
 40
0.2857142857142857
 40
0.2857142857142857
 40
0.4285714285714285
 40
0.4285714285714285
 40
0.4285714285714285
 40
0.4285714285714285
 40
0.5714285714285714
 40
0.5714285714285714
 40
0.5714285714285714
 40
0.5714285714285714
 40
0.7142857142857143
 40
0.7142857142857143
 40
0.7142857142857143
 40
0.7142857142857143
 40
1.0
 40
1.0
 40
1.0
 40
1.0
 10
184.7231
 20
-60.2747
 30
0.0
 10
184.7231
 20
-60.2747
 30
0.0
 10
184.7231
 20
-11.2699
 30
0.0
 10
184.7231
 20
-11.2699
 30
0.0
 10
184.7231
 20
-11.2699
 30
0.0
 10
184.7231
 20
-11.2699
 30
0.0
 10
183.2712
 20
-11.2699
 30
0.0
 10
183.2712
 20
-11.2699
 30
0.0
 10
183.2712
 20
-11.2699
 30
0.0
 10
179.5199
 20
-25.5479
 30
0.0
 10
170.445
 20
-38.2526
 30
0.0
 10
159.1922
 20
-45.9967
 30
0.0
 10
159.1922
 20
-45.9967
 30
0.0
 10
159.1922
 20
-46.1178
 30
0.0
 10
159.3132
 20
-46.3599
 30
0.0
 10
159.434
 20
-46.4806
 30
0.0
 10
159.434
 20
-46.4806
 30
0.0
 10
174.4381
 20
-45.5127
 30
0.0
 10
179.762
 20
-50.4737
 30
0.0
 10
183.2712
 20
-60.3958
 30
0.0
 10
183.2712
 20
-60.3958
 30
0.0
 10
183.2712
 20
-60.3958
 30
0.0
 10
184.7231
 20
-60.2747
 30
0.0
 10
184.7231
 20
-60.2747
 30
0.0
  0
SPLINE
  5
61
330
1F
100
AcDbEntity
  8
layer 1
 62
     7
100
AcDbSpline
210
0.0
220
0.0
230
1.0
 70
    11
 71
     3
 72
    28
 73
    24
 74
     0
 42
0.0000000001
 43
0.0000000001
 12
1.0
 22
0.0
 32
0.0
 13
1.0
 23
0.0
 33
0.0
 40
0.0
 40
0.0
 40
0.0
 40
0.0
 40
0.1428571428571428
 40
0.1428571428571428
 40
0.1428571428571428
 40
0.1428571428571428
 40
0.2857142857142857
 40
0.2857142857142857
 40
0.2857142857142857
 40
0.2857142857142857
 40
0.4285714285714285
 40
0.4285714285714285
 40
0.4285714285714285
 40
0.4285714285714285
 40
0.5714285714285714
 40
0.5714285714285714
 40
0.5714285714285714
 40
0.5714285714285714
 40
0.7142857142857143
 40
0.7142857142857143
 40
0.7142857142857143
 40
0.7142857142857143
 40
1.0
 40
1.0
 40
1.0
 40
1.0
 10
184.7231
 20
76.9389
 30
0.0
 10
184.7231
 20
76.9389
 30
0.0
 10
184.7231
 20
27.934
 30
0.0
 10
184.7231
 20
27.934
 30
0.0
 10
184.7231
 20
27.934
 30
0.0
 10
184.7231
 20
27.934
 30
0.0
 10
183.2712
 20
27.934
 30
0.0
 10
183.2712
 20
27.934
 30
0.0
 10
183.2712
 20
27.934
 30
0.0
 10
179.5199
 20
42.2121
 30
0.0
 10
170.445
 20
54.9168
 30
0.0
 10
159.1922
 20
62.6609
 30
0.0
 10
159.1922
 20
62.6609
 30
0.0
 10
159.1922
 20
62.7819
 30
0.0
 10
159.3132
 20
63.0241
 30
0.0
 10
159.434
 20
63.1448
 30
0.0
 10
159.434
 20
63.1448
 30
0.0
 10
174.4381
 20
62.1769
 30
0.0
 10
179.762
 20
67.1379
 30
0.0
 10
183.2712
 20
77.06
 30
0.0
 10
183.2712
 20
77.06
 30
0.0
 10
183.2712
 20
77.06
 30
0.0
 10
184.7231
 20
76.9389
 30
0.0
 10
184.7231
 20
76.9389
 30
0.0
  0
SPLINE
  5
62
330
1F
100
AcDbEntity
  8
layer 1
 62
     7
100
AcDbSpline
210
0.0
220
0.0
230
1.0
 70
    11
 71
     3
 72
    24
 73
    20
 74
     0
 42
0.0000000001
 43
0.0000000001
 12
1.0
 22
0.0
 32
0.0
 13
1.0
 23
0.0
 33
0.0
 40
0.0
 40
0.0
 40
0.0
 40
0.0
 40
0.1666666666666667
 40
0.1666666666666667
 40
0.1666666666666667
 40
0.1666666666666667
 40
0.3333333333333333
 40
0.3333333333333333
 40
0.3333333333333333
 40
0.3333333333333333
 40
0.5
 40
0.5
 40
0.5
 40
0.5
 40
0.6666666666666666
 40
0.6666666666666666
 40
0.6666666666666666
 40
0.6666666666666666
 40
1.0
 40
1.0
 40
1.0
 40
1.0
 10
52.7123
 20
-83.4705
 30
0.0
 10
52.7123
 20
-83.4705
 30
0.0
 10
52.7123
 20
-71.7817
 30
0.0
 10
52.7123
 20
-71.7817
 30
0.0
 10
52.7123
 20
-71.7817
 30
0.0
 10
52.7123
 20
-71.7817
 30
0.0
 10
54.1645
 20
-71.7817
 30
0.0
 10
54.1645
 20
-71.7817
 30
0.0
 10
54.1645
 20
-71.7817
 30
0.0
 10
54.8903
 20
-77.0816
 30
0.0
 10
58.0365
 20
-80.8326
 30
0.0
 10
63.7233
 20
-81.6554
 30
0.0
 10
63.7233
 20
-81.6554
 30
0.0
 10
63.7233
 20
-81.6554
 30
0.0
 10
63.7233
 20
-83.4098
 30
0.0
 10
63.7233
 20
-83.4098
 30
0.0
 10
63.7233
 20
-83.4098
 30
0.0
 10
63.7233
 20
-83.4098
 30
0.0
 10
52.7123
 20
-83.4705
 30
0.0
 10
52.7123
 20
-83.4705
 30
0.0
  0
SPLINE
  5
63
330
1F
100
AcDbEntity
  8
layer 1
 62
     7
100
AcDbSpline
210
0.0
220
0.0
230
1.0
 70
    11
 71
     3
 72
    24
 73
    20
 74
     0
 42
0.0000000001
 43
0.0000000001
 12
1.0
 22
0.0
 32
0.0
 13
1.0
 23
0.0
 33
0.0
 40
0.0
 40
0.0
 40
0.0
 40
0.0
 40
0.1666666666666667
 40
0.1666666666666667
 40
0.1666666666666667
 40
0.1666666666666667
 40
0.3333333333333333
 40
0.3333333333333333
 40
0.3333333333333333
 40
0.3333333333333333
 40
0.5
 40
0.5
 40
0.5
 40
0.5
 40
0.6666666666666666
 40
0.6666666666666666
 40
0.6666666666666666
 40
0.6666666666666666
 40
1.0
 40
1.0
 40
1.0
 40
1.0
 10
52.7123
 20
100.1707
 30
0.0
 10
52.7123
 20
100.1707
 30
0.0
 10
52.7123
 20
88.4339
 30
0.0
 10
52.7123
 20
88.4339
 30
0.0
 10
52.7123
 20
88.4339
 30
0.0
 10
52.7123
 20
88.4339
 30
0.0
 10
54.1645
 20
88.4339
 30
0.0
 10
54.1645
 20
88.4339
 30
0.0
 10
54.1645
 20
88.4339
 30
0.0
 10
54.8903
 20
93.7578
 30
0.0
 10
58.0365
 20
97.5088
 30
0.0
 10
63.7233
 20
98.356
 30
0.0
 10
63.7233
 20
98.356
 30
0.0
 10
63.7233
 20
98.356
 30
0.0
 10
63.7233
 20
100.05
 30
0.0
 10
63.7233
 20
100.05
 30
0.0
 10
63.7233
 20
100.05
 30
0.0
 10
63.7233
 20
100.05
 30
0.0
 10
52.7123
 20
100.1707
 30
0.0
 10
52.7123
 20
100.1707
 30
0.0
  0
SPLINE
  5
64
330
1F
100
AcDbEntity
  8
layer 1
 62
     7
100
AcDbSpline
210
0.0
220
0.0
230
1.0
 70
    11
 71
     3
 72
    24
 73
    20
 74
     0
 42
0.0000000001
 43
0.0000000001
 12
1.0
 22
0.0
 32
0.0
 13
1.0
 23
0.0
 33
0.0
 40
0.0
 40
0.0
 40
0.0
 40
0.0
 40
0.1666666666666667
 40
0.1666666666666667
 40
0.1666666666666667
 40
0.1666666666666667
 40
0.3333333333333333
 40
0.3333333333333333
 40
0.3333333333333333
 40
0.3333333333333333
 40
0.5
 40
0.5
 40
0.5
 40
0.5
 40
0.6666666666666666
 40
0.6666666666666666
 40
0.6666666666666666
 40
0.6666666666666666
 40
1.0
 40
1.0
 40
1.0
 40
1.0
 10
184.8441
 20
-83.4705
 30
0.0
 10
184.8441
 20
-83.4705
 30
0.0
 10
184.8441
 20
-71.7817
 30
0.0
 10
184.8441
 20
-71.7817
 30
0.0
 10
184.8441
 20
-71.7817
 30
0.0
 10
184.8441
 20
-71.7817
 30
0.0
 10
183.2712
 20
-71.7817
 30
0.0
 10
183.2712
 20
-71.7817
 30
0.0
 10
183.2712
 20
-71.7817
 30
0.0
 10
182.6661
 20
-77.0816
 30
0.0
 10
179.3992
 20
-80.8326
 30
0.0
 10
173.8331
 20
-81.6554
 30
0.0
 10
173.8331
 20
-81.6554
 30
0.0
 10
173.8331
 20
-81.6554
 30
0.0
 10
173.8331
 20
-83.4098
 30
0.0
 10
173.8331
 20
-83.4098
 30
0.0
 10
173.8331
 20
-83.4098
 30
0.0
 10
173.8331
 20
-83.4098
 30
0.0
 10
184.8441
 20
-83.4705
 30
0.0
 10
184.8441
 20
-83.4705
 30
0.0
  0
SPLINE
  5
65
330
1F
100
AcDbEntity
  8
layer 1
 62
     7
100
AcDbSpline
210
0.0
220
0.0
230
1.0
 70
    11
 71
     3
 72
    24
 73
    20
 74
     0
 42
0.0000000001
 43
0.0000000001
 12
1.0
 22
0.0
 32
0.0
 13
1.0
 23
0.0
 33
0.0
 40
0.0
 40
0.0
 40
0.0
 40
0.0
 40
0.1666666666666667
 40
0.1666666666666667
 40
0.1666666666666667
 40
0.1666666666666667
 40
0.3333333333333333
 40
0.3333333333333333
 40
0.3333333333333333
 40
0.3333333333333333
 40
0.5
 40
0.5
 40
0.5
 40
0.5
 40
0.6666666666666666
 40
0.6666666666666666
 40
0.6666666666666666
 40
0.6666666666666666
 40
1.0
 40
1.0
 40
1.0
 40
1.0
 10
184.8441
 20
100.1707
 30
0.0
 10
184.8441
 20
100.1707
 30
0.0
 10
184.8441
 20
88.4339
 30
0.0
 10
184.8441
 20
88.4339
 30
0.0
 10
184.8441
 20
88.4339
 30
0.0
 10
184.8441
 20
88.4339
 30
0.0
 10
183.2712
 20
88.4339
 30
0.0
 10
183.2712
 20
88.4339
 30
0.0
 10
183.2712
 20
88.4339
 30
0.0
 10
182.6661
 20
93.7578
 30
0.0
 10
179.3992
 20
97.5088
 30
0.0
 10
173.8331
 20
98.356
 30
0.0
 10
173.8331
 20
98.356
 30
0.0
 10
173.8331
 20
98.356
 30
0.0
 10
173.8331
 20
100.05
 30
0.0
 10
173.8331
 20
100.05
 30
0.0
 10
173.8331
 20
100.05
 30
0.0
 10
173.8331
 20
100.05
 30
0.0
 10
184.8441
 20
100.1707
 30
0.0
 10
184.8441
 20
100.1707
 30
0.0
  0
SPLINE
  5
66
330
1F
100
AcDbEntity
  8
layer 1
 62
     7
100
AcDbSpline
210
0.0
220
0.0
230
1.0
 70
    11
 71
     3
 72
    60
 73
    56
 74
     0
 42
0.0000000001
 43
0.0000000001
 12
1.0
 22
0.0
 32
0.0
 13
1.0
 23
0.0
 33
0.0
 40
0.0
 40
0.0
 40
0.0
 40
0.0
 40
0.0666666666666667
 40
0.0666666666666667
 40
0.0666666666666667
 40
0.0666666666666667
 40
0.1333333333333333
 40
0.1333333333333333
 40
0.1333333333333333
 40
0.1333333333333333
 40
0.2
 40
0.2
 40
0.2
 40
0.2
 40
0.2666666666666667
 40
0.2666666666666667
 40
0.2666666666666667
 40
0.2666666666666667
 40
0.3333333333333333
 40
0.3333333333333333
 40
0.3333333333333333
 40
0.3333333333333333
 40
0.4
 40
0.4
 40
0.4
 40
0.4
 40
0.4666666666666667
 40
0.4666666666666667
 40
0.4666666666666667
 40
0.4666666666666667
 40
0.5333333333333333
 40
0.5333333333333333
 40
0.5333333333333333
 40
0.5333333333333333
 40
0.6
 40
0.6
 40
0.6
 40
0.6
 40
0.6666666666666666
 40
0.6666666666666666
 40
0.6666666666666666
 40
0.6666666666666666
 40
0.7333333333333333
 40
0.7333333333333333
 40
0.7333333333333333
 40
0.7333333333333333
 40
0.8
 40
0.8
 40
0.8
 40
0.8
 40
0.8666666666666667
 40
0.8666666666666667
 40
0.8666666666666667
 40
0.8666666666666667
 40
1.0
 40
1.0
 40
1.0
 40
1.0
 10
96.3932
 20
-83.4705
 30
0.0
 10
96.3932
 20
-83.4705
 30
0.0
 10
73.2825
 20
-83.4705
 30
0.0
 10
73.2825
 20
-83.4705
 30
0.0
 10
73.2825
 20
-83.4705
 30
0.0
 10
73.2825
 20
-83.4705
 30
0.0
 10
73.2825
 20
-82.0427
 30
0.0
 10
73.2825
 20
-82.0427
 30
0.0
 10
73.2825
 20
-82.0427
 30
0.0
 10
87.5602
 20
-78.1706
 30
0.0
 10
83.6881
 20
-54.1036
 30
0.0
 10
69.1683
 20
-56.8867
 30
0.0
 10
69.1683
 20
-56.8867
 30
0.0
 10
57.4315
 20
-58.9436
 30
0.0
 10
61.6664
 20
-76.053
 30
0.0
 10
69.5312
 20
-74.3833
 30
0.0
 10
69.5312
 20
-74.3833
 30
0.0
 10
70.3784
 20
-74.1895
 30
0.0
 10
70.8623
 20
-73.2823
 30
0.0
 10
70.6202
 20
-72.3628
 30
0.0
 10
70.6202
 20
-72.3628
 30
0.0
 10
70.3784
 20
-70.9225
 30
0.0
 10
68.4422
 20
-71.5519
 30
0.0
 10
67.1114
 20
-70.4386
 30
0.0
 10
67.1114
 20
-70.4386
 30
0.0
 10
64.0862
 20
-68.0188
 30
0.0
 10
64.4494
 20
-62.4527
 30
0.0
 10
68.4422
 20
-61.1216
 30
0.0
 10
68.4422
 20
-61.1216
 30
0.0
 10
74.6133
 20
-59.0646
 30
0.0
 10
81.1473
 20
-65.2357
 30
0.0
 10
78.2432
 20
-73.3183
 30
0.0
 10
78.2432
 20
-73.3183
 30
0.0
 10
76.9123
 20
-76.9486
 30
0.0
 10
73.0403
 20
-79.9857
 30
0.0
 10
68.3214
 20
-79.7679
 30
0.0
 10
68.3214
 20
-79.7679
 30
0.0
 10
58.7623
 20
-79.2596
 30
0.0
 10
55.4953
 20
-71.4188
 30
0.0
 10
56.8264
 20
-63.2996
 30
0.0
 10
56.8264
 20
-63.2996
 30
0.0
 10
58.1572
 20
-55.5558
 30
0.0
 10
64.5705
 20
-49.3847
 30
0.0
 10
72.6774
 20
-50.2316
 30
0.0
 10
72.6774
 20
-50.2316
 30
0.0
 10
83.5674
 20
-51.3206
 30
0.0
 10
88.8913
 20
-56.7656
 30
0.0
 10
89.9803
 20
-73.1732
 30
0.0
 10
89.9803
 20
-73.1732
 30
0.0
 10
90.1014
 20
-76.646
 30
0.0
 10
93.1262
 20
-80.5057
 30
0.0
 10
96.3932
 20
-81.5463
 30
0.0
 10
96.3932
 20
-81.5463
 30
0.0
 10
96.3932
 20
-81.5463
 30
0.0
 10
96.3932
 20
-83.4705
 30
0.0
 10
96.3932
 20
-83.4705
 30
0.0
  0
SPLINE
  5
67
330
1F
100
AcDbEntity
  8
layer 1
 62
     7
100
AcDbSpline
210
0.0
220
0.0
230
1.0
 70
    11
 71
     3
 72
    60
 73
    56
 74
     0
 42
0.0000000001
 43
0.0000000001
 12
1.0
 22
0.0
 32
0.0
 13
1.0
 23
0.0
 33
0.0
 40
0.0
 40
0.0
 40
0.0
 40
0.0
 40
0.0666666666666667
 40
0.0666666666666667
 40
0.0666666666666667
 40
0.0666666666666667
 40
0.1333333333333333
 40
0.1333333333333333
 40
0.1333333333333333
 40
0.1333333333333333
 40
0.2
 40
0.2
 40
0.2
 40
0.2
 40
0.2666666666666667
 40
0.2666666666666667
 40
0.2666666666666667
 40
0.2666666666666667
 40
0.3333333333333333
 40
0.3333333333333333
 40
0.3333333333333333
 40
0.3333333333333333
 40
0.4
 40
0.4
 40
0.4
 40
0.4
 40
0.4666666666666667
 40
0.4666666666666667
 40
0.4666666666666667
 40
0.4666666666666667
 40
0.5333333333333333
 40
0.5333333333333333
 40
0.5333333333333333
 40
0.5333333333333333
 40
0.6
 40
0.6
 40
0.6
 40
0.6
 40
0.6666666666666666
 40
0.6666666666666666
 40
0.6666666666666666
 40
0.6666666666666666
 40
0.7333333333333333
 40
0.7333333333333333
 40
0.7333333333333333
 40
0.7333333333333333
 40
0.8
 40
0.8
 40
0.8
 40
0.8
 40
0.8666666666666667
 40
0.8666666666666667
 40
0.8666666666666667
 40
0.8666666666666667
 40
1.0
 40
1.0
 40
1.0
 40
1.0
 10
96.3932
 20
100.1707
 30
0.0
 10
96.3932
 20
100.1707
 30
0.0
 10
73.2825
 20
100.1707
 30
0.0
 10
73.2825
 20
100.1707
 30
0.0
 10
73.2825
 20
100.1707
 30
0.0
 10
73.2825
 20
100.1707
 30
0.0
 10
73.2825
 20
98.7189
 30
0.0
 10
73.2825
 20
98.7189
 30
0.0
 10
73.2825
 20
98.7189
 30
0.0
 10
87.5602
 20
94.8468
 30
0.0
 10
83.6881
 20
70.7678
 30
0.0
 10
69.1683
 20
73.5508
 30
0.0
 10
69.1683
 20
73.5508
 30
0.0
 10
57.4315
 20
75.6078
 30
0.0
 10
61.6664
 20
92.6688
 30
0.0
 10
69.5312
 20
90.9748
 30
0.0
 10
69.5312
 20
90.9748
 30
0.0
 10
70.3784
 20
90.8537
 30
0.0
 10
70.8623
 20
89.8858
 30
0.0
 10
70.6202
 20
89.039
 30
0.0
 10
70.6202
 20
89.039
 30
0.0
 10
70.3784
 20
87.5867
 30
0.0
 10
68.4422
 20
88.1918
 30
0.0
 10
67.1114
 20
87.1028
 30
0.0
 10
67.1114
 20
87.1028
 30
0.0
 10
64.0862
 20
84.683
 30
0.0
 10
64.4494
 20
79.1169
 30
0.0
 10
68.4422
 20
77.7858
 30
0.0
 10
68.4422
 20
77.7858
 30
0.0
 10
74.6133
 20
75.6078
 30
0.0
 10
81.1473
 20
81.8999
 30
0.0
 10
78.2432
 20
90.0069
 30
0.0
 10
78.2432
 20
90.0069
 30
0.0
 10
76.9123
 20
93.6368
 30
0.0
 10
73.0403
 20
96.6619
 30
0.0
 10
68.3214
 20
96.4198
 30
0.0
 10
68.3214
 20
96.4198
 30
0.0
 10
58.7623
 20
95.9358
 30
0.0
 10
55.4953
 20
88.071
 30
0.0
 10
56.8264
 20
79.9638
 30
0.0
 10
56.8264
 20
79.9638
 30
0.0
 10
58.1572
 20
72.22
 30
0.0
 10
64.5705
 20
66.0489
 30
0.0
 10
72.6774
 20
66.8958
 30
0.0
 10
72.6774
 20
66.8958
 30
0.0
 10
83.5674
 20
67.9848
 30
0.0
 10
88.8913
 20
73.4298
 30
0.0
 10
89.9803
 20
89.7647
 30
0.0
 10
89.9803
 20
89.7647
 30
0.0
 10
90.1014
 20
93.2739
 30
0.0
 10
93.1262
 20
97.1459
 30
0.0
 10
96.3932
 20
98.2349
 30
0.0
 10
96.3932
 20
98.2349
 30
0.0
 10
96.3932
 20
98.2349
 30
0.0
 10
96.3932
 20
100.1707
 30
0.0
 10
96.3932
 20
100.1707
 30
0.0
  0
SPLINE
  5
68
330
1F
100
AcDbEntity
  8
layer 1
 62
     7
100
AcDbSpline
210
0.0
220
0.0
230
1.0
 70
    11
 71
     3
 72
    60
 73
    56
 74
     0
 42
0.0000000001
 43
0.0000000001
 12
1.0
 22
0.0
 32
0.0
 13
1.0
 23
0.0
 33
0.0
 40
0.0
 40
0.0
 40
0.0
 40
0.0
 40
0.0666666666666667
 40
0.0666666666666667
 40
0.0666666666666667
 40
0.0666666666666667
 40
0.1333333333333333
 40
0.1333333333333333
 40
0.1333333333333333
 40
0.1333333333333333
 40
0.2
 40
0.2
 40
0.2
 40
0.2
 40
0.2666666666666667
 40
0.2666666666666667
 40
0.2666666666666667
 40
0.2666666666666667
 40
0.3333333333333333
 40
0.3333333333333333
 40
0.3333333333333333
 40
0.3333333333333333
 40
0.4
 40
0.4
 40
0.4
 40
0.4
 40
0.4666666666666667
 40
0.4666666666666667
 40
0.4666666666666667
 40
0.4666666666666667
 40
0.5333333333333333
 40
0.5333333333333333
 40
0.5333333333333333
 40
0.5333333333333333
 40
0.6
 40
0.6
 40
0.6
 40
0.6
 40
0.6666666666666666
 40
0.6666666666666666
 40
0.6666666666666666
 40
0.6666666666666666
 40
0.7333333333333333
 40
0.7333333333333333
 40
0.7333333333333333
 40
0.7333333333333333
 40
0.8
 40
0.8
 40
0.8
 40
0.8
 40
0.8666666666666667
 40
0.8666666666666667
 40
0.8666666666666667
 40
0.8666666666666667
 40
1.0
 40
1.0
 40
1.0
 40
1.0
 10
141.1632
 20
-83.4705
 30
0.0
 10
141.1632
 20
-83.4705
 30
0.0
 10
164.2739
 20
-83.4705
 30
0.0
 10
164.2739
 20
-83.4705
 30
0.0
 10
164.2739
 20
-83.4705
 30
0.0
 10
164.2739
 20
-83.4705
 30
0.0
 10
164.2739
 20
-82.0427
 30
0.0
 10
164.2739
 20
-82.0427
 30
0.0
 10
164.2739
 20
-82.0427
 30
0.0
 10
149.9962
 20
-78.1706
 30
0.0
 10
153.8683
 20
-54.1036
 30
0.0
 10
168.3881
 20
-56.8867
 30
0.0
 10
168.3881
 20
-56.8867
 30
0.0
 10
180.1249
 20
-58.9436
 30
0.0
 10
175.89
 20
-76.053
 30
0.0
 10
168.0252
 20
-74.3833
 30
0.0
 10
168.0252
 20
-74.3833
 30
0.0
 10
167.178
 20
-74.1895
 30
0.0
 10
166.6941
 20
-73.2823
 30
0.0
 10
166.9362
 20
-72.3628
 30
0.0
 10
166.9362
 20
-72.3628
 30
0.0
 10
167.178
 20
-70.9225
 30
0.0
 10
169.1142
 20
-71.5519
 30
0.0
 10
170.445
 20
-70.4386
 30
0.0
 10
170.445
 20
-70.4386
 30
0.0
 10
173.4702
 20
-68.0188
 30
0.0
 10
173.107
 20
-62.4527
 30
0.0
 10
169.1142
 20
-61.1216
 30
0.0
 10
169.1142
 20
-61.1216
 30
0.0
 10
162.9431
 20
-59.0646
 30
0.0
 10
156.4091
 20
-65.2357
 30
0.0
 10
159.3132
 20
-73.3183
 30
0.0
 10
159.3132
 20
-73.3183
 30
0.0
 10
160.644
 20
-76.9486
 30
0.0
 10
164.5161
 20
-79.9857
 30
0.0
 10
169.1142
 20
-79.7679
 30
0.0
 10
169.1142
 20
-79.7679
 30
0.0
 10
178.7941
 20
-79.2596
 30
0.0
 10
182.0611
 20
-71.4188
 30
0.0
 10
180.73
 20
-63.2996
 30
0.0
 10
180.73
 20
-63.2996
 30
0.0
 10
179.3992
 20
-55.5558
 30
0.0
 10
172.8652
 20
-49.3847
 30
0.0
 10
164.879
 20
-50.2316
 30
0.0
 10
164.879
 20
-50.2316
 30
0.0
 10
153.8683
 20
-51.3206
 30
0.0
 10
148.6651
 20
-56.7656
 30
0.0
 10
147.5761
 20
-73.1732
 30
0.0
 10
147.5761
 20
-73.1732
 30
0.0
 10
147.3343
 20
-76.646
 30
0.0
 10
144.4302
 20
-80.5057
 30
0.0
 10
141.1632
 20
-81.5463
 30
0.0
 10
141.1632
 20
-81.5463
 30
0.0
 10
141.1632
 20
-81.5463
 30
0.0
 10
141.1632
 20
-83.4705
 30
0.0
 10
141.1632
 20
-83.4705
 30
0.0
  0
SPLINE
  5
69
330
1F
100
AcDbEntity
  8
layer 1
 62
     7
100
AcDbSpline
210
0.0
220
0.0
230
1.0
 70
    11
 71
     3
 72
    60
 73
    56
 74
     0
 42
0.0000000001
 43
0.0000000001
 12
1.0
 22
0.0
 32
0.0
 13
1.0
 23
0.0
 33
0.0
 40
0.0
 40
0.0
 40
0.0
 40
0.0
 40
0.0666666666666667
 40
0.0666666666666667
 40
0.0666666666666667
 40
0.0666666666666667
 40
0.1333333333333333
 40
0.1333333333333333
 40
0.1333333333333333
 40
0.1333333333333333
 40
0.2
 40
0.2
 40
0.2
 40
0.2
 40
0.2666666666666667
 40
0.2666666666666667
 40
0.2666666666666667
 40
0.2666666666666667
 40
0.3333333333333333
 40
0.3333333333333333
 40
0.3333333333333333
 40
0.3333333333333333
 40
0.4
 40
0.4
 40
0.4
 40
0.4
 40
0.4666666666666667
 40
0.4666666666666667
 40
0.4666666666666667
 40
0.4666666666666667
 40
0.5333333333333333
 40
0.5333333333333333
 40
0.5333333333333333
 40
0.5333333333333333
 40
0.6
 40
0.6
 40
0.6
 40
0.6
 40
0.6666666666666666
 40
0.6666666666666666
 40
0.6666666666666666
 40
0.6666666666666666
 40
0.7333333333333333
 40
0.7333333333333333
 40
0.7333333333333333
 40
0.7333333333333333
 40
0.8
 40
0.8
 40
0.8
 40
0.8
 40
0.8666666666666667
 40
0.8666666666666667
 40
0.8666666666666667
 40
0.8666666666666667
 40
1.0
 40
1.0
 40
1.0
 40
1.0
 10
141.1632
 20
100.1707
 30
0.0
 10
141.1632
 20
100.1707
 30
0.0
 10
164.2739
 20
100.1707
 30
0.0
 10
164.2739
 20
100.1707
 30
0.0
 10
164.2739
 20
100.1707
 30
0.0
 10
164.2739
 20
100.1707
 30
0.0
 10
164.2739
 20
98.7189
 30
0.0
 10
164.2739
 20
98.7189
 30
0.0
 10
164.2739
 20
98.7189
 30
0.0
 10
149.9962
 20
94.8468
 30
0.0
 10
153.8683
 20
70.7678
 30
0.0
 10
168.3881
 20
73.5508
 30
0.0
 10
168.3881
 20
73.5508
 30
0.0
 10
180.1249
 20
75.6078
 30
0.0
 10
175.89
 20
92.6688
 30
0.0
 10
168.0252
 20
90.9748
 30
0.0
 10
168.0252
 20
90.9748
 30
0.0
 10
167.178
 20
90.8537
 30
0.0
 10
166.6941
 20
89.8858
 30
0.0
 10
166.9362
 20
89.039
 30
0.0
 10
166.9362
 20
89.039
 30
0.0
 10
167.178
 20
87.5867
 30
0.0
 10
169.1142
 20
88.1918
 30
0.0
 10
170.445
 20
87.1028
 30
0.0
 10
170.445
 20
87.1028
 30
0.0
 10
173.4702
 20
84.683
 30
0.0
 10
173.107
 20
79.1169
 30
0.0
 10
169.1142
 20
77.7858
 30
0.0
 10
169.1142
 20
77.7858
 30
0.0
 10
162.9431
 20
75.6078
 30
0.0
 10
156.4091
 20
81.8999
 30
0.0
 10
159.3132
 20
90.0069
 30
0.0
 10
159.3132
 20
90.0069
 30
0.0
 10
160.644
 20
93.6368
 30
0.0
 10
164.5161
 20
96.6619
 30
0.0
 10
169.1142
 20
96.4198
 30
0.0
 10
169.1142
 20
96.4198
 30
0.0
 10
178.7941
 20
95.9358
 30
0.0
 10
182.0611
 20
88.071
 30
0.0
 10
180.73
 20
79.9638
 30
0.0
 10
180.73
 20
79.9638
 30
0.0
 10
179.3992
 20
72.22
 30
0.0
 10
172.8652
 20
66.0489
 30
0.0
 10
164.879
 20
66.8958
 30
0.0
 10
164.879
 20
66.8958
 30
0.0
 10
153.8683
 20
67.9848
 30
0.0
 10
148.6651
 20
73.4298
 30
0.0
 10
147.5761
 20
89.7647
 30
0.0
 10
147.5761
 20
89.7647
 30
0.0
 10
147.3343
 20
93.2739
 30
0.0
 10
144.4302
 20
97.1459
 30
0.0
 10
141.1632
 20
98.2349
 30
0.0
 10
141.1632
 20
98.2349
 30
0.0
 10
141.1632
 20
98.2349
 30
0.0
 10
141.1632
 20
100.1707
 30
0.0
 10
141.1632
 20
100.1707
 30
0.0
  0
SPLINE
  5
6A
330
1F
100
AcDbEntity
  8
layer 1
 62
     7
100
AcDbSpline
210
0.0
220
0.0
230
1.0
 70
    11
 71
     3
 72
    44
 73
    40
 74
     0
 42
0.0000000001
 43
0.0000000001
 12
1.0
 22
0.0
 32
0.0
 13
1.0
 23
0.0
 33
0.0
 40
0.0
 40
0.0
 40
0.0
 40
0.0
 40
0.0909090909090909
 40
0.0909090909090909
 40
0.0909090909090909
 40
0.0909090909090909
 40
0.1818181818181818
 40
0.1818181818181818
 40
0.1818181818181818
 40
0.1818181818181818
 40
0.2727272727272727
 40
0.2727272727272727
 40
0.2727272727272727
 40
0.2727272727272727
 40
0.3636363636363636
 40
0.3636363636363636
 40
0.3636363636363636
 40
0.3636363636363636
 40
0.4545454545454545
 40
0.4545454545454545
 40
0.4545454545454545
 40
0.4545454545454545
 40
0.5454545454545454
 40
0.5454545454545454
 40
0.5454545454545454
 40
0.5454545454545454
 40
0.6363636363636364
 40
0.6363636363636364
 40
0.6363636363636364
 40
0.6363636363636364
 40
0.7272727272727273
 40
0.7272727272727273
 40
0.7272727272727273
 40
0.7272727272727273
 40
0.8181818181818182
 40
0.8181818181818182
 40
0.8181818181818182
 40
0.8181818181818182
 40
1.0
 40
1.0
 40
1.0
 40
1.0
 10
106.5571
 20
-69.7128
 30
0.0
 10
105.9524
 20
-68.3817
 30
0.0
 10
103.8951
 20
-68.7445
 30
0.0
 10
102.9272
 20
-68.1399
 30
0.0
 10
102.9272
 20
-68.1399
 30
0.0
 10
101.1121
 20
-66.9298
 30
0.0
 10
101.2332
 20
-63.9046
 30
0.0
 10
101.5964
 20
-62.9367
 30
0.0
 10
101.5964
 20
-62.9367
 30
0.0
 10
103.6533
 20
-58.0967
 30
0.0
 10
111.7603
 20
-61.2426
 30
0.0
 10
114.1801
 20
-64.8729
 30
0.0
 10
114.1801
 20
-64.8729
 30
0.0
 10
116.9631
 20
-69.1078
 30
0.0
 10
116.6002
 20
-79.2596
 30
0.0
 10
107.0414
 20
-80.8326
 30
0.0
 10
107.0414
 20
-80.8326
 30
0.0
 10
96.6354
 20
-82.091
 30
0.0
 10
91.6743
 20
-75.0124
 30
0.0
 10
92.4001
 20
-61.8477
 30
0.0
 10
92.4001
 20
-61.8477
 30
0.0
 10
92.6423
 20
-57.7338
 30
0.0
 10
87.9234
 20
-56.2816
 30
0.0
 10
86.9551
 20
-51.3206
 30
0.0
 10
86.9551
 20
-51.3206
 30
0.0
 10
91.3111
 20
-54.1036
 30
0.0
 10
96.2721
 20
-56.2816
 30
0.0
 10
102.2011
 20
-57.2499
 30
0.0
 10
102.2011
 20
-57.2499
 30
0.0
 10
99.2973
 20
-60.1536
 30
0.0
 10
98.3294
 20
-63.1788
 30
0.0
 10
98.4501
 20
-65.8408
 30
0.0
 10
98.4501
 20
-65.8408
 30
0.0
 10
98.8134
 20
-70.9225
 30
0.0
 10
104.7423
 20
-73.4758
 30
0.0
 10
106.1942
 20
-71.9392
 30
0.0
 10
106.1942
 20
-71.9392
 30
0.0
 10
106.6782
 20
-71.5156
 30
0.0
 10
107.1621
 20
-70.8018
 30
0.0
 10
106.5571
 20
-69.7128
 30
0.0
  0
SPLINE
  5
6B
330
1F
100
AcDbEntity
  8
layer 1
 62
     7
100
AcDbSpline
210
0.0
220
0.0
230
1.0
 70
    11
 71
     3
 72
    44
 73
    40
 74
     0
 42
0.0000000001
 43
0.0000000001
 12
1.0
 22
0.0
 32
0.0
 13
1.0
 23
0.0
 33
0.0
 40
0.0
 40
0.0
 40
0.0
 40
0.0
 40
0.0909090909090909
 40
0.0909090909090909
 40
0.0909090909090909
 40
0.0909090909090909
 40
0.1818181818181818
 40
0.1818181818181818
 40
0.1818181818181818
 40
0.1818181818181818
 40
0.2727272727272727
 40
0.2727272727272727
 40
0.2727272727272727
 40
0.2727272727272727
 40
0.3636363636363636
 40
0.3636363636363636
 40
0.3636363636363636
 40
0.3636363636363636
 40
0.4545454545454545
 40
0.4545454545454545
 40
0.4545454545454545
 40
0.4545454545454545
 40
0.5454545454545454
 40
0.5454545454545454
 40
0.5454545454545454
 40
0.5454545454545454
 40
0.6363636363636364
 40
0.6363636363636364
 40
0.6363636363636364
 40
0.6363636363636364
 40
0.7272727272727273
 40
0.7272727272727273
 40
0.7272727272727273
 40
0.7272727272727273
 40
0.8181818181818182
 40
0.8181818181818182
 40
0.8181818181818182
 40
0.8181818181818182
 40
1.0
 40
1.0
 40
1.0
 40
1.0
 10
106.5571
 20
86.377
 30
0.0
 10
105.9524
 20
85.0459
 30
0.0
 10
103.8951
 20
85.4087
 30
0.0
 10
102.9272
 20
84.804
 30
0.0
 10
102.9272
 20
84.804
 30
0.0
 10
101.1121
 20
83.594
 30
0.0
 10
101.2332
 20
80.5688
 30
0.0
 10
101.5964
 20
79.6009
 30
0.0
 10
101.5964
 20
79.6009
 30
0.0
 10
103.6533
 20
74.7609
 30
0.0
 10
111.7603
 20
77.9068
 30
0.0
 10
114.1801
 20
81.416
 30
0.0
 10
114.1801
 20
81.416
 30
0.0
 10
116.9631
 20
85.772
 30
0.0
 10
116.6002
 20
95.9358
 30
0.0
 10
107.0414
 20
97.5088
 30
0.0
 10
107.0414
 20
97.5088
 30
0.0
 10
96.6354
 20
98.7189
 30
0.0
 10
91.6743
 20
91.7009
 30
0.0
 10
92.4001
 20
78.5119
 30
0.0
 10
92.4001
 20
78.5119
 30
0.0
 10
92.6423
 20
74.398
 30
0.0
 10
87.9234
 20
72.8251
 30
0.0
 10
86.9551
 20
67.9848
 30
0.0
 10
86.9551
 20
67.9848
 30
0.0
 10
91.3111
 20
70.7678
 30
0.0
 10
96.2721
 20
72.9458
 30
0.0
 10
102.2011
 20
73.9141
 30
0.0
 10
102.2011
 20
73.9141
 30
0.0
 10
99.2973
 20
76.8178
 30
0.0
 10
98.3294
 20
79.843
 30
0.0
 10
98.4501
 20
82.505
 30
0.0
 10
98.4501
 20
82.505
 30
0.0
 10
98.8134
 20
87.5867
 30
0.0
 10
104.7423
 20
90.128
 30
0.0
 10
106.1942
 20
88.555
 30
0.0
 10
106.1942
 20
88.555
 30
0.0
 10
106.6782
 20
88.1918
 30
0.0
 10
107.1621
 20
87.466
 30
0.0
 10
106.5571
 20
86.377
 30
0.0
  0
SPLINE
  5
6C
330
1F
100
AcDbEntity
  8
layer 1
 62
     7
100
AcDbSpline
210
0.0
220
0.0
230
1.0
 70
    11
 71
     3
 72
    44
 73
    40
 74
     0
 42
0.0000000001
 43
0.0000000001
 12
1.0
 22
0.0
 32
0.0
 13
1.0
 23
0.0
 33
0.0
 40
0.0
 40
0.0
 40
0.0
 40
0.0
 40
0.0909090909090909
 40
0.0909090909090909
 40
0.0909090909090909
 40
0.0909090909090909
 40
0.1818181818181818
 40
0.1818181818181818
 40
0.1818181818181818
 40
0.1818181818181818
 40
0.2727272727272727
 40
0.2727272727272727
 40
0.2727272727272727
 40
0.2727272727272727
 40
0.3636363636363636
 40
0.3636363636363636
 40
0.3636363636363636
 40
0.3636363636363636
 40
0.4545454545454545
 40
0.4545454545454545
 40
0.4545454545454545
 40
0.4545454545454545
 40
0.5454545454545454
 40
0.5454545454545454
 40
0.5454545454545454
 40
0.5454545454545454
 40
0.6363636363636364
 40
0.6363636363636364
 40
0.6363636363636364
 40
0.6363636363636364
 40
0.7272727272727273
 40
0.7272727272727273
 40
0.7272727272727273
 40
0.7272727272727273
 40
0.8181818181818182
 40
0.8181818181818182
 40
0.8181818181818182
 40
0.8181818181818182
 40
1.0
 40
1.0
 40
1.0
 40
1.0
 10
130.8782
 20
-69.7128
 30
0.0
 10
131.604
 20
-68.3817
 30
0.0
 10
133.6613
 20
-68.7445
 30
0.0
 10
134.6292
 20
-68.1399
 30
0.0
 10
134.6292
 20
-68.1399
 30
0.0
 10
136.4443
 20
-66.9298
 30
0.0
 10
136.3232
 20
-63.9046
 30
0.0
 10
135.96
 20
-62.9367
 30
0.0
 10
135.96
 20
-62.9367
 30
0.0
 10
133.9031
 20
-58.0967
 30
0.0
 10
125.6751
 20
-61.2426
 30
0.0
 10
123.3763
 20
-64.8729
 30
0.0
 10
123.3763
 20
-64.8729
 30
0.0
 10
120.5933
 20
-69.1078
 30
0.0
 10
120.9562
 20
-79.2596
 30
0.0
 10
130.515
 20
-80.8326
 30
0.0
 10
130.515
 20
-80.8326
 30
0.0
 10
140.921
 20
-82.091
 30
0.0
 10
145.761
 20
-75.0124
 30
0.0
 10
145.1563
 20
-61.8477
 30
0.0
 10
145.1563
 20
-61.8477
 30
0.0
 10
144.9141
 20
-57.7338
 30
0.0
 10
149.633
 20
-56.2816
 30
0.0
 10
150.4802
 20
-51.3206
 30
0.0
 10
150.4802
 20
-51.3206
 30
0.0
 10
146.2453
 20
-54.1036
 30
0.0
 10
141.1632
 20
-56.2816
 30
0.0
 10
135.3553
 20
-57.2499
 30
0.0
 10
135.3553
 20
-57.2499
 30
0.0
 10
138.2591
 20
-60.1536
 30
0.0
 10
139.227
 20
-63.1788
 30
0.0
 10
139.1063
 20
-65.8408
 30
0.0
 10
139.1063
 20
-65.8408
 30
0.0
 10
138.743
 20
-70.9225
 30
0.0
 10
132.8141
 20
-73.4758
 30
0.0
 10
131.3622
 20
-71.9392
 30
0.0
 10
131.3622
 20
-71.9392
 30
0.0
 10
130.8782
 20
-71.5156
 30
0.0
 10
130.2732
 20
-70.8018
 30
0.0
 10
130.8782
 20
-69.7128
 30
0.0
  0
SPLINE
  5
6D
330
1F
100
AcDbEntity
  8
layer 1
 62
     7
100
AcDbSpline
210
0.0
220
0.0
230
1.0
 70
    11
 71
     3
 72
    44
 73
    40
 74
     0
 42
0.0000000001
 43
0.0000000001
 12
1.0
 22
0.0
 32
0.0
 13
1.0
 23
0.0
 33
0.0
 40
0.0
 40
0.0
 40
0.0
 40
0.0
 40
0.0909090909090909
 40
0.0909090909090909
 40
0.0909090909090909
 40
0.0909090909090909
 40
0.1818181818181818
 40
0.1818181818181818
 40
0.1818181818181818
 40
0.1818181818181818
 40
0.2727272727272727
 40
0.2727272727272727
 40
0.2727272727272727
 40
0.2727272727272727
 40
0.3636363636363636
 40
0.3636363636363636
 40
0.3636363636363636
 40
0.3636363636363636
 40
0.4545454545454545
 40
0.4545454545454545
 40
0.4545454545454545
 40
0.4545454545454545
 40
0.5454545454545454
 40
0.5454545454545454
 40
0.5454545454545454
 40
0.5454545454545454
 40
0.6363636363636364
 40
0.6363636363636364
 40
0.6363636363636364
 40
0.6363636363636364
 40
0.7272727272727273
 40
0.7272727272727273
 40
0.7272727272727273
 40
0.7272727272727273
 40
0.8181818181818182
 40
0.8181818181818182
 40
0.8181818181818182
 40
0.8181818181818182
 40
1.0
 40
1.0
 40
1.0
 40
1.0
 10
130.8782
 20
86.377
 30
0.0
 10
131.604
 20
85.0459
 30
0.0
 10
133.6613
 20
85.4087
 30
0.0
 10
134.6292
 20
84.804
 30
0.0
 10
134.6292
 20
84.804
 30
0.0
 10
136.4443
 20
83.594
 30
0.0
 10
136.3232
 20
80.5688
 30
0.0
 10
135.96
 20
79.6009
 30
0.0
 10
135.96
 20
79.6009
 30
0.0
 10
133.9031
 20
74.7609
 30
0.0
 10
125.6751
 20
77.9068
 30
0.0
 10
123.3763
 20
81.416
 30
0.0
 10
123.3763
 20
81.416
 30
0.0
 10
120.5933
 20
85.772
 30
0.0
 10
120.9562
 20
95.9358
 30
0.0
 10
130.515
 20
97.5088
 30
0.0
 10
130.515
 20
97.5088
 30
0.0
 10
140.921
 20
98.7189
 30
0.0
 10
145.761
 20
91.7009
 30
0.0
 10
145.1563
 20
78.5119
 30
0.0
 10
145.1563
 20
78.5119
 30
0.0
 10
144.9141
 20
74.398
 30
0.0
 10
149.633
 20
72.8251
 30
0.0
 10
150.4802
 20
67.9848
 30
0.0
 10
150.4802
 20
67.9848
 30
0.0
 10
146.2453
 20
70.7678
 30
0.0
 10
141.1632
 20
72.9458
 30
0.0
 10
135.3553
 20
73.9141
 30
0.0
 10
135.3553
 20
73.9141
 30
0.0
 10
138.2591
 20
76.8178
 30
0.0
 10
139.227
 20
79.843
 30
0.0
 10
139.1063
 20
82.505
 30
0.0
 10
139.1063
 20
82.505
 30
0.0
 10
138.743
 20
87.5867
 30
0.0
 10
132.8141
 20
90.128
 30
0.0
 10
131.3622
 20
88.555
 30
0.0
 10
131.3622
 20
88.555
 30
0.0
 10
130.8782
 20
88.1918
 30
0.0
 10
130.2732
 20
87.466
 30
0.0
 10
130.8782
 20
86.377
 30
0.0
  0
SPLINE
  5
6E
330
1F
100
AcDbEntity
  8
layer 1
 62
     7
100
AcDbSpline
210
0.0
220
0.0
230
1.0
 70
    11
 71
     3
 72
    20
 73
    16
 74
     0
 42
0.0000000001
 43
0.0000000001
 12
1.0
 22
0.0
 32
0.0
 13
1.0
 23
0.0
 33
0.0
 40
0.0
 40
0.0
 40
0.0
 40
0.0
 40
0.2
 40
0.2
 40
0.2
 40
0.2
 40
0.4
 40
0.4
 40
0.4
 40
0.4
 40
0.6
 40
0.6
 40
0.6
 40
0.6
 40
1.0
 40
1.0
 40
1.0
 40
1.0
 10
110.6713
 20
8.3321
 30
0.0
 10
110.6713
 20
12.8092
 30
0.0
 10
114.3011
 20
16.318
 30
0.0
 10
118.7782
 20
16.318
 30
0.0
 10
118.7782
 20
16.318
 30
0.0
 10
123.2553
 20
16.318
 30
0.0
 10
126.7641
 20
12.8092
 30
0.0
 10
126.7641
 20
8.3321
 30
0.0
 10
126.7641
 20
8.3321
 30
0.0
 10
126.7641
 20
3.855
 30
0.0
 10
123.2553
 20
0.2252
 30
0.0
 10
118.7782
 20
0.2252
 30
0.0
 10
118.7782
 20
0.2252
 30
0.0
 10
114.3011
 20
0.2252
 30
0.0
 10
110.6713
 20
3.855
 30
0.0
 10
110.6713
 20
8.3321
 30
0.0
  0
SPLINE
  5
6F
330
1F
100
AcDbEntity
  8
layer 1
 62
     7
100
AcDbSpline
210
0.0
220
0.0
230
1.0
 70
    11
 71
     3
 72
    16
 73
    12
 74
     0
 42
0.0000000001
 43
0.0000000001
 12
1.0
 22
0.0
 32
0.0
 13
1.0
 23
0.0
 33
0.0
 40
0.0
 40
0.0
 40
0.0
 40
0.0
 40
0.25
 40
0.25
 40
0.25
 40
0.25
 40
0.5
 40
0.5
 40
0.5
 40
0.5
 40
1.0
 40
1.0
 40
1.0
 40
1.0
 10
111.7603
 20
-83.4705
 30
0.0
 10
111.7603
 20
-83.4705
 30
0.0
 10
125.6751
 20
-83.4705
 30
0.0
 10
125.6751
 20
-83.4705
 30
0.0
 10
125.6751
 20
-83.4705
 30
0.0
 10
122.6502
 20
-81.2925
 30
0.0
 10
119.8672
 20
-78.812
 30
0.0
 10
118.6571
 20
-75.9926
 30
0.0
 10
118.6571
 20
-75.9926
 30
0.0
 10
116.8424
 20
-78.824
 30
0.0
 10
114.1801
 20
-81.1591
 30
0.0
 10
111.7603
 20
-83.4705
 30
0.0
  0
SPLINE
  5
70
330
1F
100
AcDbEntity
  8
layer 1
 62
     7
100
AcDbSpline
210
0.0
220
0.0
230
1.0
 70
    11
 71
     3
 72
    16
 73
    12
 74
     0
 42
0.0000000001
 43
0.0000000001
 12
1.0
 22
0.0
 32
0.0
 13
1.0
 23
0.0
 33
0.0
 40
0.0
 40
0.0
 40
0.0
 40
0.0
 40
0.25
 40
0.25
 40
0.25
 40
0.25
 40
0.5
 40
0.5
 40
0.5
 40
0.5
 40
1.0
 40
1.0
 40
1.0
 40
1.0
 10
111.7603
 20
100.05
 30
0.0
 10
111.7603
 20
100.05
 30
0.0
 10
125.6751
 20
100.05
 30
0.0
 10
125.6751
 20
100.05
 30
0.0
 10
125.6751
 20
100.05
 30
0.0
 10
122.6502
 20
97.872
 30
0.0
 10
119.8672
 20
95.4519
 30
0.0
 10
118.6571
 20
92.5478
 30
0.0
 10
118.6571
 20
92.5478
 30
0.0
 10
116.8424
 20
95.4519
 30
0.0
 10
114.1801
 20
97.7509
 30
0.0
 10
111.7603
 20
100.05
 30
0.0
  0
SPLINE
  5
71
330
1F
100
AcDbEntity
  8
layer 1
 62
     7
100
AcDbSpline
210
0.0
220
0.0
230
1.0
 70
    11
 71
     3
 72
    16
 73
    12
 74
     0
 42
0.0000000001
 43
0.0000000001
 12
1.0
 22
0.0
 32
0.0
 13
1.0
 23
0.0
 33
0.0
 40
0.0
 40
0.0
 40
0.0
 40
0.0
 40
0.25
 40
0.25
 40
0.25
 40
0.25
 40
0.5
 40
0.5
 40
0.5
 40
0.5
 40
1.0
 40
1.0
 40
1.0
 40
1.0
 10
113.3332
 20
-58.9436
 30
0.0
 10
113.3332
 20
-58.9436
 30
0.0
 10
124.2232
 20
-58.9436
 30
0.0
 10
124.2232
 20
-58.9436
 30
0.0
 10
124.2232
 20
-58.9436
 30
0.0
 10
121.803
 20
-61.0008
 30
0.0
 10
119.625
 20
-63.4206
 30
0.0
 10
118.6571
 20
-66.2037
 30
0.0
 10
118.6571
 20
-66.2037
 30
0.0
 10
117.3263
 20
-63.4206
 30
0.0
 10
115.2691
 20
-61.1216
 30
0.0
 10
113.3332
 20
-58.9436
 30
0.0
  0
SPLINE
  5
72
330
1F
100
AcDbEntity
  8
layer 1
 62
     7
100
AcDbSpline
210
0.0
220
0.0
230
1.0
 70
    11
 71
     3
 72
    16
 73
    12
 74
     0
 42
0.0000000001
 43
0.0000000001
 12
1.0
 22
0.0
 32
0.0
 13
1.0
 23
0.0
 33
0.0
 40
0.0
 40
0.0
 40
0.0
 40
0.0
 40
0.25
 40
0.25
 40
0.25
 40
0.25
 40
0.5
 40
0.5
 40
0.5
 40
0.5
 40
1.0
 40
1.0
 40
1.0
 40
1.0
 10
113.3332
 20
75.487
 30
0.0
 10
113.3332
 20
75.487
 30
0.0
 10
124.2232
 20
75.487
 30
0.0
 10
124.2232
 20
75.487
 30
0.0
 10
124.2232
 20
75.487
 30
0.0
 10
121.803
 20
77.665
 30
0.0
 10
119.625
 20
80.0848
 30
0.0
 10
118.6571
 20
82.8679
 30
0.0
 10
118.6571
 20
82.8679
 30
0.0
 10
117.3263
 20
80.0848
 30
0.0
 10
115.2691
 20
77.7858
 30
0.0
 10
113.3332
 20
75.487
 30
0.0
  0
SPLINE
  5
73
330
1F
100
AcDbEntity
  8
layer 1
 62
     7
100
AcDbSpline
210
0.0
220
0.0
230
1.0
 70
    11
 71
     3
 72
    16
 73
    12
 74
     0
 42
0.0000000001
 43
0.0000000001
 12
1.0
 22
0.0
 32
0.0
 13
1.0
 23
0.0
 33
0.0
 40
0.0
 40
0.0
 40
0.0
 40
0.0
 40
0.25
 40
0.25
 40
0.25
 40
0.25
 40
0.5
 40
0.5
 40
0.5
 40
0.5
 40
1.0
 40
1.0
 40
1.0
 40
1.0
 10
184.8441
 20
-92.7752
 30
0.0
 10
184.8441
 20
-92.7752
 30
0.0
 10
184.7231
 20
-100.0353
 30
0.0
 10
184.7231
 20
-100.0353
 30
0.0
 10
184.7231
 20
-100.0353
 30
0.0
 10
183.7551
 20
-98.7405
 30
0.0
 10
182.424
 20
-96.9134
 30
0.0
 10
181.2139
 20
-96.2843
 30
0.0
 10
181.2139
 20
-96.2843
 30
0.0
 10
182.5451
 20
-95.5339
 30
0.0
 10
183.7551
 20
-94.0093
 30
0.0
 10
184.8441
 20
-92.7752
 30
0.0
  0
SPLINE
  5
74
330
1F
100
AcDbEntity
  8
layer 1
 62
     7
100
AcDbSpline
210
0.0
220
0.0
230
1.0
 70
    11
 71
     3
 72
    12
 73
     8
 74
     0
 42
0.0000000001
 43
0.0000000001
 12
1.0
 22
0.0
 32
0.0
 13
1.0
 23
0.0
 33
0.0
 40
0.0
 40
0.0
 40
0.0
 40
0.0
 40
0.3333333333333333
 40
0.3333333333333333
 40
0.3333333333333333
 40
0.3333333333333333
 40
1.0
 40
1.0
 40
1.0
 40
1.0
 10
144.188
 20
-95.9575
 30
0.0
 10
138.2591
 20
-92.5938
 30
0.0
 10
131.8462
 20
-93.5133
 30
0.0
 10
127.1273
 20
-95.9575
 30
0.0
 10
127.1273
 20
-95.9575
 30
0.0
 10
132.5723
 20
-99.4423
 30
0.0
 10
138.8641
 20
-99.2125
 30
0.0
 10
144.188
 20
-95.9575
 30
0.0
  0
SPLINE
  5
75
330
1F
100
AcDbEntity
  8
layer 1
 62
     7
100
AcDbSpline
210
0.0
220
0.0
230
1.0
 70
    11
 71
     3
 72
    12
 73
     8
 74
     0
 42
0.0000000001
 43
0.0000000001
 12
1.0
 22
0.0
 32
0.0
 13
1.0
 23
0.0
 33
0.0
 40
0.0
 40
0.0
 40
0.0
 40
0.0
 40
0.3333333333333333
 40
0.3333333333333333
 40
0.3333333333333333
 40
0.3333333333333333
 40
1.0
 40
1.0
 40
1.0
 40
1.0
 10
159.434
 20
-95.9575
 30
0.0
 10
165.3629
 20
-92.5938
 30
0.0
 10
171.7762
 20
-93.5133
 30
0.0
 10
176.495
 20
-95.9575
 30
0.0
 10
176.495
 20
-95.9575
 30
0.0
 10
171.0501
 20
-99.4423
 30
0.0
 10
164.7582
 20
-99.2125
 30
0.0
 10
159.434
 20
-95.9575
 30
0.0
  0
SPLINE
  5
76
330
1F
100
AcDbEntity
  8
layer 1
 62
     7
100
AcDbSpline
210
0.0
220
0.0
230
1.0
 70
    11
 71
     3
 72
    20
 73
    16
 74
     0
 42
0.0000000001
 43
0.0000000001
 12
1.0
 22
0.0
 32
0.0
 13
1.0
 23
0.0
 33
0.0
 40
0.0
 40
0.0
 40
0.0
 40
0.0
 40
0.2
 40
0.2
 40
0.2
 40
0.2
 40
0.4
 40
0.4
 40
0.4
 40
0.4
 40
0.6
 40
0.6
 40
0.6
 40
0.6
 40
1.0
 40
1.0
 40
1.0
 40
1.0
 10
119.8672
 20
-88.2498
 30
0.0
 10
119.8672
 20
-88.2498
 30
0.0
 10
151.206
 20
-88.2498
 30
0.0
 10
151.206
 20
-88.2498
 30
0.0
 10
151.206
 20
-88.2498
 30
0.0
 10
150.9642
 20
-90.1012
 30
0.0
 10
149.5123
 20
-92.6421
 30
0.0
 10
146.366
 20
-94.6507
 30
0.0
 10
146.366
 20
-94.6507
 30
0.0
 10
138.8641
 20
-90.8394
 30
0.0
 10
132.693
 20
-90.6579
 30
0.0
 10
125.1911
 20
-94.8805
 30
0.0
 10
125.1911
 20
-94.8805
 30
0.0
 10
122.1663
 20
-93.3682
 30
0.0
 10
120.714
 20
-90.8634
 30
0.0
 10
119.8672
 20
-88.2498
 30
0.0
  0
SPLINE
  5
77
330
1F
100
AcDbEntity
  8
layer 1
 62
     7
100
AcDbSpline
210
0.0
220
0.0
230
1.0
 70
    11
 71
     3
 72
    20
 73
    16
 74
     0
 42
0.0000000001
 43
0.0000000001
 12
1.0
 22
0.0
 32
0.0
 13
1.0
 23
0.0
 33
0.0
 40
0.0
 40
0.0
 40
0.0
 40
0.0
 40
0.2
 40
0.2
 40
0.2
 40
0.2
 40
0.4
 40
0.4
 40
0.4
 40
0.4
 40
0.6
 40
0.6
 40
0.6
 40
0.6
 40
1.0
 40
1.0
 40
1.0
 40
1.0
 10
183.7551
 20
-88.2498
 30
0.0
 10
183.7551
 20
-88.2498
 30
0.0
 10
152.416
 20
-88.2498
 30
0.0
 10
152.416
 20
-88.2498
 30
0.0
 10
152.416
 20
-88.2498
 30
0.0
 10
152.6582
 20
-90.1012
 30
0.0
 10
154.1101
 20
-92.6421
 30
0.0
 10
157.1352
 20
-94.6507
 30
0.0
 10
157.1352
 20
-94.6507
 30
0.0
 10
164.7582
 20
-90.8394
 30
0.0
 10
170.8079
 20
-90.6579
 30
0.0
 10
178.4309
 20
-94.8805
 30
0.0
 10
178.4309
 20
-94.8805
 30
0.0
 10
181.335
 20
-93.3682
 30
0.0
 10
182.908
 20
-90.8634
 30
0.0
 10
183.7551
 20
-88.2498
 30
0.0
  0
SPLINE
  5
78
330
1F
100
AcDbEntity
  8
layer 1
 62
     7
100
AcDbSpline
210
0.0
220
0.0
230
1.0
 70
    11
 71
     3
 72
    20
 73
    16
 74
     0
 42
0.0000000001
 43
0.0000000001
 12
1.0
 22
0.0
 32
0.0
 13
1.0
 23
0.0
 33
0.0
 40
0.0
 40
0.0
 40
0.0
 40
0.0
 40
0.2
 40
0.2
 40
0.2
 40
0.2
 40
0.4
 40
0.4
 40
0.4
 40
0.4
 40
0.6
 40
0.6
 40
0.6
 40
0.6
 40
1.0
 40
1.0
 40
1.0
 40
1.0
 10
119.5043
 20
-103.6895
 30
0.0
 10
119.5043
 20
-103.6895
 30
0.0
 10
150.9642
 20
-103.6895
 30
0.0
 10
150.9642
 20
-103.6895
 30
0.0
 10
150.9642
 20
-103.6895
 30
0.0
 10
150.722
 20
-101.9348
 30
0.0
 10
149.2701
 20
-99.527
 30
0.0
 10
146.1242
 20
-97.6151
 30
0.0
 10
146.1242
 20
-97.6151
 30
0.0
 10
138.5012
 20
-101.233
 30
0.0
 10
132.4512
 20
-101.4025
 30
0.0
 10
124.8282
 20
-97.3973
 30
0.0
 10
124.8282
 20
-97.3973
 30
0.0
 10
121.9241
 20
-98.8372
 30
0.0
 10
120.3512
 20
-101.221
 30
0.0
 10
119.5043
 20
-103.6895
 30
0.0
  0
SPLINE
  5
79
330
1F
100
AcDbEntity
  8
layer 1
 62
     7
100
AcDbSpline
210
0.0
220
0.0
230
1.0
 70
    11
 71
     3
 72
    20
 73
    16
 74
     0
 42
0.0000000001
 43
0.0000000001
 12
1.0
 22
0.0
 32
0.0
 13
1.0
 23
0.0
 33
0.0
 40
0.0
 40
0.0
 40
0.0
 40
0.0
 40
0.2
 40
0.2
 40
0.2
 40
0.2
 40
0.4
 40
0.4
 40
0.4
 40
0.4
 40
0.6
 40
0.6
 40
0.6
 40
0.6
 40
1.0
 40
1.0
 40
1.0
 40
1.0
 10
183.9969
 20
-103.6895
 30
0.0
 10
183.9969
 20
-103.6895
 30
0.0
 10
152.6582
 20
-103.6895
 30
0.0
 10
152.6582
 20
-103.6895
 30
0.0
 10
152.6582
 20
-103.6895
 30
0.0
 10
152.9
 20
-101.9348
 30
0.0
 10
154.3522
 20
-99.527
 30
0.0
 10
157.4981
 20
-97.6151
 30
0.0
 10
157.4981
 20
-97.6151
 30
0.0
 10
165.0
 20
-101.233
 30
0.0
 10
171.1711
 20
-101.4025
 30
0.0
 10
178.7941
 20
-97.3973
 30
0.0
 10
178.7941
 20
-97.3973
 30
0.0
 10
181.6979
 20
-98.8372
 30
0.0
 10
183.2712
 20
-101.221
 30
0.0
 10
183.9969
 20
-103.6895
 30
0.0
  0
SPLINE
  5
7A
330
1F
100
AcDbEntity
  8
layer 1
 62
     7
100
AcDbSpline
210
0.0
220
0.0
230
1.0
 70
    11
 71
     3
 72
    20
 73
    16
 74
     0
 42
0.0000000001
 43
0.0000000001
 12
1.0
 22
0.0
 32
0.0
 13
1.0
 23
0.0
 33
0.0
 40
0.0
 40
0.0
 40
0.0
 40
0.0
 40
0.2
 40
0.2
 40
0.2
 40
0.2
 40
0.4
 40
0.4
 40
0.4
 40
0.4
 40
0.6
 40
0.6
 40
0.6
 40
0.6
 40
1.0
 40
1.0
 40
1.0
 40
1.0
 10
148.3022
 20
-96.1029
 30
0.0
 10
149.633
 20
-97.0345
 30
0.0
 10
150.8431
 20
-98.3293
 30
0.0
 10
151.6903
 20
-99.6601
 30
0.0
 10
151.6903
 20
-99.6601
 30
0.0
 10
152.5371
 20
-98.3169
 30
0.0
 10
153.6261
 20
-96.8894
 30
0.0
 10
155.078
 20
-96.1513
 30
0.0
 10
155.078
 20
-96.1513
 30
0.0
 10
153.7472
 20
-95.3888
 30
0.0
 10
152.416
 20
-94.07
 30
0.0
 10
151.5692
 20
-92.7025
 30
0.0
 10
151.5692
 20
-92.7025
 30
0.0
 10
150.8431
 20
-94.0093
 30
0.0
 10
149.633
 20
-95.2557
 30
0.0
 10
148.3022
 20
-96.1029
 30
0.0
  0
SPLINE
  5
7B
330
1F
100
AcDbEntity
  8
layer 1
 62
     7
100
AcDbSpline
210
0.0
220
0.0
230
1.0
 70
    11
 71
     3
 72
    16
 73
    12
 74
     0
 42
0.0000000001
 43
0.0000000001
 12
1.0
 22
0.0
 32
0.0
 13
1.0
 23
0.0
 33
0.0
 40
0.0
 40
0.0
 40
0.0
 40
0.0
 40
0.25
 40
0.25
 40
0.25
 40
0.25
 40
0.5
 40
0.5
 40
0.5
 40
0.5
 40
1.0
 40
1.0
 40
1.0
 40
1.0
 10
52.7123
 20
-92.7752
 30
0.0
 10
52.7123
 20
-92.7752
 30
0.0
 10
52.7123
 20
-100.0353
 30
0.0
 10
52.7123
 20
-100.0353
 30
0.0
 10
52.7123
 20
-100.0353
 30
0.0
 10
53.8013
 20
-98.7405
 30
0.0
 10
55.1324
 20
-96.9134
 30
0.0
 10
56.3425
 20
-96.2843
 30
0.0
 10
56.3425
 20
-96.2843
 30
0.0
 10
55.0113
 20
-95.5339
 30
0.0
 10
53.8013
 20
-94.0093
 30
0.0
 10
52.7123
 20
-92.7752
 30
0.0
  0
SPLINE
  5
7C
330
1F
100
AcDbEntity
  8
layer 1
 62
     7
100
AcDbSpline
210
0.0
220
0.0
230
1.0
 70
    11
 71
     3
 72
    12
 73
     8
 74
     0
 42
0.0000000001
 43
0.0000000001
 12
1.0
 22
0.0
 32
0.0
 13
1.0
 23
0.0
 33
0.0
 40
0.0
 40
0.0
 40
0.0
 40
0.0
 40
0.3333333333333333
 40
0.3333333333333333
 40
0.3333333333333333
 40
0.3333333333333333
 40
1.0
 40
1.0
 40
1.0
 40
1.0
 10
93.3684
 20
-95.9575
 30
0.0
 10
99.2973
 20
-92.5938
 30
0.0
 10
105.7102
 20
-93.5133
 30
0.0
 10
110.4291
 20
-95.9575
 30
0.0
 10
110.4291
 20
-95.9575
 30
0.0
 10
104.9841
 20
-99.4423
 30
0.0
 10
98.6923
 20
-99.2125
 30
0.0
 10
93.3684
 20
-95.9575
 30
0.0
  0
SPLINE
  5
7D
330
1F
100
AcDbEntity
  8
layer 1
 62
     7
100
AcDbSpline
210
0.0
220
0.0
230
1.0
 70
    11
 71
     3
 72
    12
 73
     8
 74
     0
 42
0.0000000001
 43
0.0000000001
 12
1.0
 22
0.0
 32
0.0
 13
1.0
 23
0.0
 33
0.0
 40
0.0
 40
0.0
 40
0.0
 40
0.0
 40
0.3333333333333333
 40
0.3333333333333333
 40
0.3333333333333333
 40
0.3333333333333333
 40
1.0
 40
1.0
 40
1.0
 40
1.0
 10
78.1224
 20
-95.9575
 30
0.0
 10
72.1935
 20
-92.5938
 30
0.0
 10
65.7802
 20
-93.5133
 30
0.0
 10
61.0614
 20
-95.9575
 30
0.0
 10
61.0614
 20
-95.9575
 30
0.0
 10
66.5063
 20
-99.4423
 30
0.0
 10
72.7982
 20
-99.2125
 30
0.0
 10
78.1224
 20
-95.9575
 30
0.0
  0
SPLINE
  5
7E
330
1F
100
AcDbEntity
  8
layer 1
 62
     7
100
AcDbSpline
210
0.0
220
0.0
230
1.0
 70
    11
 71
     3
 72
    20
 73
    16
 74
     0
 42
0.0000000001
 43
0.0000000001
 12
1.0
 22
0.0
 32
0.0
 13
1.0
 23
0.0
 33
0.0
 40
0.0
 40
0.0
 40
0.0
 40
0.0
 40
0.2
 40
0.2
 40
0.2
 40
0.2
 40
0.4
 40
0.4
 40
0.4
 40
0.4
 40
0.6
 40
0.6
 40
0.6
 40
0.6
 40
1.0
 40
1.0
 40
1.0
 40
1.0
 10
117.6892
 20
-88.2498
 30
0.0
 10
117.6892
 20
-88.2498
 30
0.0
 10
86.3504
 20
-88.2498
 30
0.0
 10
86.3504
 20
-88.2498
 30
0.0
 10
86.3504
 20
-88.2498
 30
0.0
 10
86.5922
 20
-90.1012
 30
0.0
 10
88.0441
 20
-92.6421
 30
0.0
 10
91.0693
 20
-94.6507
 30
0.0
 10
91.0693
 20
-94.6507
 30
0.0
 10
98.6923
 20
-90.8394
 30
0.0
 10
104.7423
 20
-90.6579
 30
0.0
 10
112.3653
 20
-94.8805
 30
0.0
 10
112.3653
 20
-94.8805
 30
0.0
 10
115.2691
 20
-93.3682
 30
0.0
 10
116.8424
 20
-90.8634
 30
0.0
 10
117.6892
 20
-88.2498
 30
0.0
  0
SPLINE
  5
7F
330
1F
100
AcDbEntity
  8
layer 1
 62
     7
100
AcDbSpline
210
0.0
220
0.0
230
1.0
 70
    11
 71
     3
 72
    20
 73
    16
 74
     0
 42
0.0000000001
 43
0.0000000001
 12
1.0
 22
0.0
 32
0.0
 13
1.0
 23
0.0
 33
0.0
 40
0.0
 40
0.0
 40
0.0
 40
0.0
 40
0.2
 40
0.2
 40
0.2
 40
0.2
 40
0.4
 40
0.4
 40
0.4
 40
0.4
 40
0.6
 40
0.6
 40
0.6
 40
0.6
 40
1.0
 40
1.0
 40
1.0
 40
1.0
 10
53.8013
 20
-88.2498
 30
0.0
 10
53.8013
 20
-88.2498
 30
0.0
 10
85.1404
 20
-88.2498
 30
0.0
 10
85.1404
 20
-88.2498
 30
0.0
 10
85.1404
 20
-88.2498
 30
0.0
 10
84.8982
 20
-90.1012
 30
0.0
 10
83.4463
 20
-92.6421
 30
0.0
 10
80.3004
 20
-94.6507
 30
0.0
 10
80.3004
 20
-94.6507
 30
0.0
 10
72.7982
 20
-90.8394
 30
0.0
 10
66.6274
 20
-90.6579
 30
0.0
 10
59.1255
 20
-94.8805
 30
0.0
 10
59.1255
 20
-94.8805
 30
0.0
 10
56.2214
 20
-93.3682
 30
0.0
 10
54.6484
 20
-90.8634
 30
0.0
 10
53.8013
 20
-88.2498
 30
0.0
  0
SPLINE
  5
80
330
1F
100
AcDbEntity
  8
layer 1
 62
     7
100
AcDbSpline
210
0.0
220
0.0
230
1.0
 70
    11
 71
     3
 72
    20
 73
    16
 74
     0
 42
0.0000000001
 43
0.0000000001
 12
1.0
 22
0.0
 32
0.0
 13
1.0
 23
0.0
 33
0.0
 40
0.0
 40
0.0
 40
0.0
 40
0.0
 40
0.2
 40
0.2
 40
0.2
 40
0.2
 40
0.4
 40
0.4
 40
0.4
 40
0.4
 40
0.6
 40
0.6
 40
0.6
 40
0.6
 40
1.0
 40
1.0
 40
1.0
 40
1.0
 10
117.9314
 20
-103.6895
 30
0.0
 10
117.9314
 20
-103.6895
 30
0.0
 10
86.5922
 20
-103.6895
 30
0.0
 10
86.5922
 20
-103.6895
 30
0.0
 10
86.5922
 20
-103.6895
 30
0.0
 10
86.8344
 20
-101.9348
 30
0.0
 10
88.2863
 20
-99.527
 30
0.0
 10
91.4322
 20
-97.6151
 30
0.0
 10
91.4322
 20
-97.6151
 30
0.0
 10
98.9341
 20
-101.233
 30
0.0
 10
105.1052
 20
-101.4025
 30
0.0
 10
112.7282
 20
-97.3973
 30
0.0
 10
112.7282
 20
-97.3973
 30
0.0
 10
115.6323
 20
-98.8372
 30
0.0
 10
117.2052
 20
-101.221
 30
0.0
 10
117.9314
 20
-103.6895
 30
0.0
  0
SPLINE
  5
81
330
1F
100
AcDbEntity
  8
layer 1
 62
     7
100
AcDbSpline
210
0.0
220
0.0
230
1.0
 70
    11
 71
     3
 72
    20
 73
    16
 74
     0
 42
0.0000000001
 43
0.0000000001
 12
1.0
 22
0.0
 32
0.0
 13
1.0
 23
0.0
 33
0.0
 40
0.0
 40
0.0
 40
0.0
 40
0.0
 40
0.2
 40
0.2
 40
0.2
 40
0.2
 40
0.4
 40
0.4
 40
0.4
 40
0.4
 40
0.6
 40
0.6
 40
0.6
 40
0.6
 40
1.0
 40
1.0
 40
1.0
 40
1.0
 10
53.5594
 20
-103.6895
 30
0.0
 10
53.5594
 20
-103.6895
 30
0.0
 10
84.8982
 20
-103.6895
 30
0.0
 10
84.8982
 20
-103.6895
 30
0.0
 10
84.8982
 20
-103.6895
 30
0.0
 10
84.6564
 20
-101.9348
 30
0.0
 10
83.2042
 20
-99.527
 30
0.0
 10
80.0583
 20
-97.6151
 30
0.0
 10
80.0583
 20
-97.6151
 30
0.0
 10
72.5564
 20
-101.233
 30
0.0
 10
66.3853
 20
-101.4025
 30
0.0
 10
58.7623
 20
-97.3973
 30
0.0
 10
58.7623
 20
-97.3973
 30
0.0
 10
55.8585
 20
-98.8372
 30
0.0
 10
54.2852
 20
-101.221
 30
0.0
 10
53.5594
 20
-103.6895
 30
0.0
  0
SPLINE
  5
82
330
1F
100
AcDbEntity
  8
layer 1
 62
     7
100
AcDbSpline
210
0.0
220
0.0
230
1.0
 70
    11
 71
     3
 72
    20
 73
    16
 74
     0
 42
0.0000000001
 43
0.0000000001
 12
1.0
 22
0.0
 32
0.0
 13
1.0
 23
0.0
 33
0.0
 40
0.0
 40
0.0
 40
0.0
 40
0.0
 40
0.2
 40
0.2
 40
0.2
 40
0.2
 40
0.4
 40
0.4
 40
0.4
 40
0.4
 40
0.6
 40
0.6
 40
0.6
 40
0.6
 40
1.0
 40
1.0
 40
1.0
 40
1.0
 10
89.2542
 20
-96.1029
 30
0.0
 10
87.9234
 20
-97.0345
 30
0.0
 10
86.7133
 20
-98.3293
 30
0.0
 10
85.8661
 20
-99.6601
 30
0.0
 10
85.8661
 20
-99.6601
 30
0.0
 10
85.0193
 20
-98.3169
 30
0.0
 10
83.9303
 20
-96.8894
 30
0.0
 10
82.4784
 20
-96.1513
 30
0.0
 10
82.4784
 20
-96.1513
 30
0.0
 10
83.8092
 20
-95.3888
 30
0.0
 10
85.1404
 20
-94.07
 30
0.0
 10
85.8661
 20
-92.7025
 30
0.0
 10
85.8661
 20
-92.7025
 30
0.0
 10
86.7133
 20
-94.0093
 30
0.0
 10
87.9234
 20
-95.2557
 30
0.0
 10
89.2542
 20
-96.1029
 30
0.0
  0
SPLINE
  5
83
330
1F
100
AcDbEntity
  8
layer 1
 62
     7
100
AcDbSpline
210
0.0
220
0.0
230
1.0
 70
    11
 71
     3
 72
    20
 73
    16
 74
     0
 42
0.0000000001
 43
0.0000000001
 12
1.0
 22
0.0
 32
0.0
 13
1.0
 23
0.0
 33
0.0
 40
0.0
 40
0.0
 40
0.0
 40
0.0
 40
0.2
 40
0.2
 40
0.2
 40
0.2
 40
0.4
 40
0.4
 40
0.4
 40
0.4
 40
0.6
 40
0.6
 40
0.6
 40
0.6
 40
1.0
 40
1.0
 40
1.0
 40
1.0
 10
118.7782
 20
-100.0353
 30
0.0
 10
117.6892
 20
-98.7405
 30
0.0
 10
116.3581
 20
-96.9134
 30
0.0
 10
115.1483
 20
-96.2843
 30
0.0
 10
115.1483
 20
-96.2843
 30
0.0
 10
116.4791
 20
-95.5339
 30
0.0
 10
117.6892
 20
-94.0093
 30
0.0
 10
118.7782
 20
-92.7752
 30
0.0
 10
118.7782
 20
-92.7752
 30
0.0
 10
119.8672
 20
-94.0093
 30
0.0
 10
120.9562
 20
-95.5339
 30
0.0
 10
122.4081
 20
-96.2843
 30
0.0
 10
122.4081
 20
-96.2843
 30
0.0
 10
121.1983
 20
-96.9134
 30
0.0
 10
119.7461
 20
-98.7405
 30
0.0
 10
118.7782
 20
-100.0353
 30
0.0
  0
SPLINE
  5
84
330
1F
100
AcDbEntity
  8
layer 1
 62
     7
100
AcDbSpline
210
0.0
220
0.0
230
1.0
 70
    11
 71
     3
 72
    16
 73
    12
 74
     0
 42
0.0000000001
 43
0.0000000001
 12
1.0
 22
0.0
 32
0.0
 13
1.0
 23
0.0
 33
0.0
 40
0.0
 40
0.0
 40
0.0
 40
0.0
 40
0.25
 40
0.25
 40
0.25
 40
0.25
 40
0.5
 40
0.5
 40
0.5
 40
0.5
 40
1.0
 40
1.0
 40
1.0
 40
1.0
 10
184.8441
 20
115.7799
 30
0.0
 10
184.8441
 20
115.7799
 30
0.0
 10
184.7231
 20
108.5198
 30
0.0
 10
184.7231
 20
108.5198
 30
0.0
 10
184.7231
 20
108.5198
 30
0.0
 10
183.7551
 20
109.851
 30
0.0
 10
182.424
 20
111.6657
 30
0.0
 10
181.2139
 20
112.2708
 30
0.0
 10
181.2139
 20
112.2708
 30
0.0
 10
182.5451
 20
112.9969
 30
0.0
 10
183.7551
 20
114.5698
 30
0.0
 10
184.8441
 20
115.7799
 30
0.0
  0
SPLINE
  5
85
330
1F
100
AcDbEntity
  8
layer 1
 62
     7
100
AcDbSpline
210
0.0
220
0.0
230
1.0
 70
    11
 71
     3
 72
    12
 73
     8
 74
     0
 42
0.0000000001
 43
0.0000000001
 12
1.0
 22
0.0
 32
0.0
 13
1.0
 23
0.0
 33
0.0
 40
0.0
 40
0.0
 40
0.0
 40
0.0
 40
0.3333333333333333
 40
0.3333333333333333
 40
0.3333333333333333
 40
0.3333333333333333
 40
1.0
 40
1.0
 40
1.0
 40
1.0
 10
144.188
 20
112.6337
 30
0.0
 10
138.2591
 20
116.0217
 30
0.0
 10
131.8462
 20
115.0538
 30
0.0
 10
127.1273
 20
112.6337
 30
0.0
 10
127.1273
 20
112.6337
 30
0.0
 10
132.5723
 20
109.1249
 30
0.0
 10
138.8641
 20
109.3667
 30
0.0
 10
144.188
 20
112.6337
 30
0.0
  0
SPLINE
  5
86
330
1F
100
AcDbEntity
  8
layer 1
 62
     7
100
AcDbSpline
210
0.0
220
0.0
230
1.0
 70
    11
 71
     3
 72
    12
 73
     8
 74
     0
 42
0.0000000001
 43
0.0000000001
 12
1.0
 22
0.0
 32
0.0
 13
1.0
 23
0.0
 33
0.0
 40
0.0
 40
0.0
 40
0.0
 40
0.0
 40
0.3333333333333333
 40
0.3333333333333333
 40
0.3333333333333333
 40
0.3333333333333333
 40
1.0
 40
1.0
 40
1.0
 40
1.0
 10
159.434
 20
112.6337
 30
0.0
 10
165.3629
 20
116.0217
 30
0.0
 10
171.7762
 20
115.0538
 30
0.0
 10
176.495
 20
112.6337
 30
0.0
 10
176.495
 20
112.6337
 30
0.0
 10
171.0501
 20
109.1249
 30
0.0
 10
164.7582
 20
109.3667
 30
0.0
 10
159.434
 20
112.6337
 30
0.0
  0
SPLINE
  5
87
330
1F
100
AcDbEntity
  8
layer 1
 62
     7
100
AcDbSpline
210
0.0
220
0.0
230
1.0
 70
    11
 71
     3
 72
    20
 73
    16
 74
     0
 42
0.0000000001
 43
0.0000000001
 12
1.0
 22
0.0
 32
0.0
 13
1.0
 23
0.0
 33
0.0
 40
0.0
 40
0.0
 40
0.0
 40
0.0
 40
0.2
 40
0.2
 40
0.2
 40
0.2
 40
0.4
 40
0.4
 40
0.4
 40
0.4
 40
0.6
 40
0.6
 40
0.6
 40
0.6
 40
1.0
 40
1.0
 40
1.0
 40
1.0
 10
119.8672
 20
120.3777
 30
0.0
 10
119.8672
 20
120.3777
 30
0.0
 10
151.206
 20
120.3777
 30
0.0
 10
151.206
 20
120.3777
 30
0.0
 10
151.206
 20
120.3777
 30
0.0
 10
150.9642
 20
118.4419
 30
0.0
 10
149.5123
 20
115.9007
 30
0.0
 10
146.366
 20
113.9648
 30
0.0
 10
146.366
 20
113.9648
 30
0.0
 10
138.8641
 20
117.7158
 30
0.0
 10
132.693
 20
117.9579
 30
0.0
 10
125.1911
 20
113.7227
 30
0.0
 10
125.1911
 20
113.7227
 30
0.0
 10
122.1663
 20
115.1749
 30
0.0
 10
120.714
 20
117.7158
 30
0.0
 10
119.8672
 20
120.3777
 30
0.0
  0
SPLINE
  5
88
330
1F
100
AcDbEntity
  8
layer 1
 62
     7
100
AcDbSpline
210
0.0
220
0.0
230
1.0
 70
    11
 71
     3
 72
    20
 73
    16
 74
     0
 42
0.0000000001
 43
0.0000000001
 12
1.0
 22
0.0
 32
0.0
 13
1.0
 23
0.0
 33
0.0
 40
0.0
 40
0.0
 40
0.0
 40
0.0
 40
0.2
 40
0.2
 40
0.2
 40
0.2
 40
0.4
 40
0.4
 40
0.4
 40
0.4
 40
0.6
 40
0.6
 40
0.6
 40
0.6
 40
1.0
 40
1.0
 40
1.0
 40
1.0
 10
183.7551
 20
120.3777
 30
0.0
 10
183.7551
 20
120.3777
 30
0.0
 10
152.416
 20
120.3777
 30
0.0
 10
152.416
 20
120.3777
 30
0.0
 10
152.416
 20
120.3777
 30
0.0
 10
152.6582
 20
118.4419
 30
0.0
 10
154.1101
 20
115.9007
 30
0.0
 10
157.1352
 20
113.9648
 30
0.0
 10
157.1352
 20
113.9648
 30
0.0
 10
164.7582
 20
117.7158
 30
0.0
 10
170.8079
 20
117.9579
 30
0.0
 10
178.4309
 20
113.7227
 30
0.0
 10
178.4309
 20
113.7227
 30
0.0
 10
181.335
 20
115.1749
 30
0.0
 10
182.908
 20
117.7158
 30
0.0
 10
183.7551
 20
120.3777
 30
0.0
  0
SPLINE
  5
89
330
1F
100
AcDbEntity
  8
layer 1
 62
     7
100
AcDbSpline
210
0.0
220
0.0
230
1.0
 70
    11
 71
     3
 72
    20
 73
    16
 74
     0
 42
0.0000000001
 43
0.0000000001
 12
1.0
 22
0.0
 32
0.0
 13
1.0
 23
0.0
 33
0.0
 40
0.0
 40
0.0
 40
0.0
 40
0.0
 40
0.2
 40
0.2
 40
0.2
 40
0.2
 40
0.4
 40
0.4
 40
0.4
 40
0.4
 40
0.6
 40
0.6
 40
0.6
 40
0.6
 40
1.0
 40
1.0
 40
1.0
 40
1.0
 10
119.5043
 20
104.89
 30
0.0
 10
119.5043
 20
104.89
 30
0.0
 10
150.9642
 20
104.89
 30
0.0
 10
150.9642
 20
104.89
 30
0.0
 10
150.9642
 20
104.89
 30
0.0
 10
150.722
 20
106.7047
 30
0.0
 10
149.2701
 20
109.0038
 30
0.0
 10
146.1242
 20
110.94
 30
0.0
 10
146.1242
 20
110.94
 30
0.0
 10
138.5012
 20
107.3098
 30
0.0
 10
132.4512
 20
107.1887
 30
0.0
 10
124.8282
 20
111.1818
 30
0.0
 10
124.8282
 20
111.1818
 30
0.0
 10
121.9241
 20
109.7299
 30
0.0
 10
120.3512
 20
107.3098
 30
0.0
 10
119.5043
 20
104.89
 30
0.0
  0
SPLINE
  5
8A
330
1F
100
AcDbEntity
  8
layer 1
 62
     7
100
AcDbSpline
210
0.0
220
0.0
230
1.0
 70
    11
 71
     3
 72
    20
 73
    16
 74
     0
 42
0.0000000001
 43
0.0000000001
 12
1.0
 22
0.0
 32
0.0
 13
1.0
 23
0.0
 33
0.0
 40
0.0
 40
0.0
 40
0.0
 40
0.0
 40
0.2
 40
0.2
 40
0.2
 40
0.2
 40
0.4
 40
0.4
 40
0.4
 40
0.4
 40
0.6
 40
0.6
 40
0.6
 40
0.6
 40
1.0
 40
1.0
 40
1.0
 40
1.0
 10
183.9969
 20
104.89
 30
0.0
 10
183.9969
 20
104.89
 30
0.0
 10
152.6582
 20
104.89
 30
0.0
 10
152.6582
 20
104.89
 30
0.0
 10
152.6582
 20
104.89
 30
0.0
 10
152.9
 20
106.7047
 30
0.0
 10
154.3522
 20
109.0038
 30
0.0
 10
157.4981
 20
110.94
 30
0.0
 10
157.4981
 20
110.94
 30
0.0
 10
165.0
 20
107.3098
 30
0.0
 10
171.1711
 20
107.1887
 30
0.0
 10
178.7941
 20
111.1818
 30
0.0
 10
178.7941
 20
111.1818
 30
0.0
 10
181.6979
 20
109.7299
 30
0.0
 10
183.2712
 20
107.3098
 30
0.0
 10
183.9969
 20
104.89
 30
0.0
  0
SPLINE
  5
8B
330
1F
100
AcDbEntity
  8
layer 1
 62
     7
100
AcDbSpline
210
0.0
220
0.0
230
1.0
 70
    11
 71
     3
 72
    20
 73
    16
 74
     0
 42
0.0000000001
 43
0.0000000001
 12
1.0
 22
0.0
 32
0.0
 13
1.0
 23
0.0
 33
0.0
 40
0.0
 40
0.0
 40
0.0
 40
0.0
 40
0.2
 40
0.2
 40
0.2
 40
0.2
 40
0.4
 40
0.4
 40
0.4
 40
0.4
 40
0.6
 40
0.6
 40
0.6
 40
0.6
 40
1.0
 40
1.0
 40
1.0
 40
1.0
 10
148.3022
 20
112.5129
 30
0.0
 10
149.633
 20
111.5447
 30
0.0
 10
150.8431
 20
110.2139
 30
0.0
 10
151.6903
 20
108.8827
 30
0.0
 10
151.6903
 20
108.8827
 30
0.0
 10
152.5371
 20
110.3349
 30
0.0
 10
153.6261
 20
111.6657
 30
0.0
 10
155.078
 20
112.3919
 30
0.0
 10
155.078
 20
112.3919
 30
0.0
 10
153.7472
 20
113.2387
 30
0.0
 10
152.416
 20
114.5698
 30
0.0
 10
151.5692
 20
115.9007
 30
0.0
 10
151.5692
 20
115.9007
 30
0.0
 10
150.8431
 20
114.5698
 30
0.0
 10
149.633
 20
113.3598
 30
0.0
 10
148.3022
 20
112.5129
 30
0.0
  0
SPLINE
  5
8C
330
1F
100
AcDbEntity
  8
layer 1
 62
     7
100
AcDbSpline
210
0.0
220
0.0
230
1.0
 70
    11
 71
     3
 72
    16
 73
    12
 74
     0
 42
0.0000000001
 43
0.0000000001
 12
1.0
 22
0.0
 32
0.0
 13
1.0
 23
0.0
 33
0.0
 40
0.0
 40
0.0
 40
0.0
 40
0.0
 40
0.25
 40
0.25
 40
0.25
 40
0.25
 40
0.5
 40
0.5
 40
0.5
 40
0.5
 40
1.0
 40
1.0
 40
1.0
 40
1.0
 10
52.7123
 20
115.7799
 30
0.0
 10
52.7123
 20
115.7799
 30
0.0
 10
52.7123
 20
108.5198
 30
0.0
 10
52.7123
 20
108.5198
 30
0.0
 10
52.7123
 20
108.5198
 30
0.0
 10
53.8013
 20
109.851
 30
0.0
 10
55.1324
 20
111.6657
 30
0.0
 10
56.3425
 20
112.2708
 30
0.0
 10
56.3425
 20
112.2708
 30
0.0
 10
55.0113
 20
112.9969
 30
0.0
 10
53.8013
 20
114.5698
 30
0.0
 10
52.7123
 20
115.7799
 30
0.0
  0
SPLINE
  5
8D
330
1F
100
AcDbEntity
  8
layer 1
 62
     7
100
AcDbSpline
210
0.0
220
0.0
230
1.0
 70
    11
 71
     3
 72
    12
 73
     8
 74
     0
 42
0.0000000001
 43
0.0000000001
 12
1.0
 22
0.0
 32
0.0
 13
1.0
 23
0.0
 33
0.0
 40
0.0
 40
0.0
 40
0.0
 40
0.0
 40
0.3333333333333333
 40
0.3333333333333333
 40
0.3333333333333333
 40
0.3333333333333333
 40
1.0
 40
1.0
 40
1.0
 40
1.0
 10
93.3684
 20
112.6337
 30
0.0
 10
99.2973
 20
116.0217
 30
0.0
 10
105.7102
 20
115.0538
 30
0.0
 10
110.4291
 20
112.6337
 30
0.0
 10
110.4291
 20
112.6337
 30
0.0
 10
104.9841
 20
109.1249
 30
0.0
 10
98.6923
 20
109.3667
 30
0.0
 10
93.3684
 20
112.6337
 30
0.0
  0
SPLINE
  5
8E
330
1F
100
AcDbEntity
  8
layer 1
 62
     7
100
AcDbSpline
210
0.0
220
0.0
230
1.0
 70
    11
 71
     3
 72
    12
 73
     8
 74
     0
 42
0.0000000001
 43
0.0000000001
 12
1.0
 22
0.0
 32
0.0
 13
1.0
 23
0.0
 33
0.0
 40
0.0
 40
0.0
 40
0.0
 40
0.0
 40
0.3333333333333333
 40
0.3333333333333333
 40
0.3333333333333333
 40
0.3333333333333333
 40
1.0
 40
1.0
 40
1.0
 40
1.0
 10
78.1224
 20
112.6337
 30
0.0
 10
72.1935
 20
116.0217
 30
0.0
 10
65.7802
 20
115.0538
 30
0.0
 10
61.0614
 20
112.6337
 30
0.0
 10
61.0614
 20
112.6337
 30
0.0
 10
66.5063
 20
109.1249
 30
0.0
 10
72.7982
 20
109.3667
 30
0.0
 10
78.1224
 20
112.6337
 30
0.0
  0
SPLINE
  5
8F
330
1F
100
AcDbEntity
  8
layer 1
 62
     7
100
AcDbSpline
210
0.0
220
0.0
230
1.0
 70
    11
 71
     3
 72
    20
 73
    16
 74
     0
 42
0.0000000001
 43
0.0000000001
 12
1.0
 22
0.0
 32
0.0
 13
1.0
 23
0.0
 33
0.0
 40
0.0
 40
0.0
 40
0.0
 40
0.0
 40
0.2
 40
0.2
 40
0.2
 40
0.2
 40
0.4
 40
0.4
 40
0.4
 40
0.4
 40
0.6
 40
0.6
 40
0.6
 40
0.6
 40
1.0
 40
1.0
 40
1.0
 40
1.0
 10
117.6892
 20
120.3777
 30
0.0
 10
117.6892
 20
120.3777
 30
0.0
 10
86.3504
 20
120.3777
 30
0.0
 10
86.3504
 20
120.3777
 30
0.0
 10
86.3504
 20
120.3777
 30
0.0
 10
86.5922
 20
118.4419
 30
0.0
 10
88.0441
 20
115.9007
 30
0.0
 10
91.0693
 20
113.9648
 30
0.0
 10
91.0693
 20
113.9648
 30
0.0
 10
98.6923
 20
117.7158
 30
0.0
 10
104.7423
 20
117.9579
 30
0.0
 10
112.3653
 20
113.7227
 30
0.0
 10
112.3653
 20
113.7227
 30
0.0
 10
115.2691
 20
115.1749
 30
0.0
 10
116.8424
 20
117.7158
 30
0.0
 10
117.6892
 20
120.3777
 30
0.0
  0
SPLINE
  5
90
330
1F
100
AcDbEntity
  8
layer 1
 62
     7
100
AcDbSpline
210
0.0
220
0.0
230
1.0
 70
    11
 71
     3
 72
    20
 73
    16
 74
     0
 42
0.0000000001
 43
0.0000000001
 12
1.0
 22
0.0
 32
0.0
 13
1.0
 23
0.0
 33
0.0
 40
0.0
 40
0.0
 40
0.0
 40
0.0
 40
0.2
 40
0.2
 40
0.2
 40
0.2
 40
0.4
 40
0.4
 40
0.4
 40
0.4
 40
0.6
 40
0.6
 40
0.6
 40
0.6
 40
1.0
 40
1.0
 40
1.0
 40
1.0
 10
53.8013
 20
120.3777
 30
0.0
 10
53.8013
 20
120.3777
 30
0.0
 10
85.1404
 20
120.3777
 30
0.0
 10
85.1404
 20
120.3777
 30
0.0
 10
85.1404
 20
120.3777
 30
0.0
 10
84.8982
 20
118.4419
 30
0.0
 10
83.4463
 20
115.9007
 30
0.0
 10
80.3004
 20
113.9648
 30
0.0
 10
80.3004
 20
113.9648
 30
0.0
 10
72.7982
 20
117.7158
 30
0.0
 10
66.6274
 20
117.9579
 30
0.0
 10
59.1255
 20
113.7227
 30
0.0
 10
59.1255
 20
113.7227
 30
0.0
 10
56.2214
 20
115.1749
 30
0.0
 10
54.6484
 20
117.7158
 30
0.0
 10
53.8013
 20
120.3777
 30
0.0
  0
SPLINE
  5
91
330
1F
100
AcDbEntity
  8
layer 1
 62
     7
100
AcDbSpline
210
0.0
220
0.0
230
1.0
 70
    11
 71
     3
 72
    20
 73
    16
 74
     0
 42
0.0000000001
 43
0.0000000001
 12
1.0
 22
0.0
 32
0.0
 13
1.0
 23
0.0
 33
0.0
 40
0.0
 40
0.0
 40
0.0
 40
0.0
 40
0.2
 40
0.2
 40
0.2
 40
0.2
 40
0.4
 40
0.4
 40
0.4
 40
0.4
 40
0.6
 40
0.6
 40
0.6
 40
0.6
 40
1.0
 40
1.0
 40
1.0
 40
1.0
 10
117.9314
 20
104.89
 30
0.0
 10
117.9314
 20
104.89
 30
0.0
 10
86.5922
 20
104.89
 30
0.0
 10
86.5922
 20
104.89
 30
0.0
 10
86.5922
 20
104.89
 30
0.0
 10
86.8344
 20
106.7047
 30
0.0
 10
88.2863
 20
109.0038
 30
0.0
 10
91.4322
 20
110.94
 30
0.0
 10
91.4322
 20
110.94
 30
0.0
 10
98.9341
 20
107.3098
 30
0.0
 10
105.1052
 20
107.1887
 30
0.0
 10
112.7282
 20
111.1818
 30
0.0
 10
112.7282
 20
111.1818
 30
0.0
 10
115.6323
 20
109.7299
 30
0.0
 10
117.2052
 20
107.3098
 30
0.0
 10
117.9314
 20
104.89
 30
0.0
  0
SPLINE
  5
92
330
1F
100
AcDbEntity
  8
layer 1
 62
     7
100
AcDbSpline
210
0.0
220
0.0
230
1.0
 70
    11
 71
     3
 72
    20
 73
    16
 74
     0
 42
0.0000000001
 43
0.0000000001
 12
1.0
 22
0.0
 32
0.0
 13
1.0
 23
0.0
 33
0.0
 40
0.0
 40
0.0
 40
0.0
 40
0.0
 40
0.2
 40
0.2
 40
0.2
 40
0.2
 40
0.4
 40
0.4
 40
0.4
 40
0.4
 40
0.6
 40
0.6
 40
0.6
 40
0.6
 40
1.0
 40
1.0
 40
1.0
 40
1.0
 10
53.5594
 20
104.89
 30
0.0
 10
53.5594
 20
104.89
 30
0.0
 10
84.8982
 20
104.89
 30
0.0
 10
84.8982
 20
104.89
 30
0.0
 10
84.8982
 20
104.89
 30
0.0
 10
84.6564
 20
106.7047
 30
0.0
 10
83.2042
 20
109.0038
 30
0.0
 10
80.0583
 20
110.94
 30
0.0
 10
80.0583
 20
110.94
 30
0.0
 10
72.5564
 20
107.3098
 30
0.0
 10
66.3853
 20
107.1887
 30
0.0
 10
58.7623
 20
111.1818
 30
0.0
 10
58.7623
 20
111.1818
 30
0.0
 10
55.8585
 20
109.7299
 30
0.0
 10
54.2852
 20
107.3098
 30
0.0
 10
53.5594
 20
104.89
 30
0.0
  0
SPLINE
  5
93
330
1F
100
AcDbEntity
  8
layer 1
 62
     7
100
AcDbSpline
210
0.0
220
0.0
230
1.0
 70
    11
 71
     3
 72
    20
 73
    16
 74
     0
 42
0.0000000001
 43
0.0000000001
 12
1.0
 22
0.0
 32
0.0
 13
1.0
 23
0.0
 33
0.0
 40
0.0
 40
0.0
 40
0.0
 40
0.0
 40
0.2
 40
0.2
 40
0.2
 40
0.2
 40
0.4
 40
0.4
 40
0.4
 40
0.4
 40
0.6
 40
0.6
 40
0.6
 40
0.6
 40
1.0
 40
1.0
 40
1.0
 40
1.0
 10
89.2542
 20
112.5129
 30
0.0
 10
87.9234
 20
111.5447
 30
0.0
 10
86.7133
 20
110.2139
 30
0.0
 10
85.8661
 20
108.8827
 30
0.0
 10
85.8661
 20
108.8827
 30
0.0
 10
85.0193
 20
110.3349
 30
0.0
 10
83.9303
 20
111.6657
 30
0.0
 10
82.4784
 20
112.3919
 30
0.0
 10
82.4784
 20
112.3919
 30
0.0
 10
83.8092
 20
113.2387
 30
0.0
 10
85.1404
 20
114.5698
 30
0.0
 10
85.8661
 20
115.9007
 30
0.0
 10
85.8661
 20
115.9007
 30
0.0
 10
86.7133
 20
114.5698
 30
0.0
 10
87.9234
 20
113.3598
 30
0.0
 10
89.2542
 20
112.5129
 30
0.0
  0
SPLINE
  5
94
330
1F
100
AcDbEntity
  8
layer 1
 62
     7
100
AcDbSpline
210
0.0
220
0.0
230
1.0
 70
    11
 71
     3
 72
    20
 73
    16
 74
     0
 42
0.0000000001
 43
0.0000000001
 12
1.0
 22
0.0
 32
0.0
 13
1.0
 23
0.0
 33
0.0
 40
0.0
 40
0.0
 40
0.0
 40
0.0
 40
0.2
 40
0.2
 40
0.2
 40
0.2
 40
0.4
 40
0.4
 40
0.4
 40
0.4
 40
0.6
 40
0.6
 40
0.6
 40
0.6
 40
1.0
 40
1.0
 40
1.0
 40
1.0
 10
118.7782
 20
108.5198
 30
0.0
 10
117.6892
 20
109.851
 30
0.0
 10
116.3581
 20
111.6657
 30
0.0
 10
115.1483
 20
112.2708
 30
0.0
 10
115.1483
 20
112.2708
 30
0.0
 10
116.4791
 20
112.9969
 30
0.0
 10
117.6892
 20
114.5698
 30
0.0
 10
118.7782
 20
115.7799
 30
0.0
 10
118.7782
 20
115.7799
 30
0.0
 10
119.8672
 20
114.5698
 30
0.0
 10
120.9562
 20
112.9969
 30
0.0
 10
122.4081
 20
112.2708
 30
0.0
 10
122.4081
 20
112.2708
 30
0.0
 10
121.1983
 20
111.6657
 30
0.0
 10
119.7461
 20
109.851
 30
0.0
 10
118.7782
 20
108.5198
 30
0.0
  0
ENDSEC
  0
SECTION
  2
OBJECTS
  0
DICTIONARY
  5
C
330
0
100
AcDbDictionary
281
     1
  3
ACAD_GROUP
350
D
  3
ACAD_LAYOUT
350
1A
  3
ACAD_MATERIAL
350
3B
  3
ACAD_MLEADERSTYLE
350
B6
  3
ACAD_MLINESTYLE
350
17
  3
ACAD_PLOTSETTINGS
350
19
  3
ACAD_PLOTSTYLENAME
350
E
  3
ACAD_TABLESTYLE
350
B5
  3
ACAD_VISUALSTYLE
350
2A
  0
DICTIONARY
  5
D
102
{ACAD_REACTORS
330
C
102
}
330
C
100
AcDbDictionary
281
     1
  0
DICTIONARY
  5
1A
102
{ACAD_REACTORS
330
C
102
}
330
C
100
AcDbDictionary
281
     1
  3
Layout1
350
1E
  3
Layout2
350
26
  3
Model
350
22
  0
DICTIONARY
  5
3B
102
{ACAD_REACTORS
330
C
102
}
330
C
100
AcDbDictionary
281
     1
  3
ByBlock
350
3D
  3
ByLayer
350
3C
  3
Global
350
3E
  0
DICTIONARY
  5
B6
102
{ACAD_REACTORS
330
C
102
}
330
C
100
AcDbDictionary
281
     1
  0
DICTIONARY
  5
17
102
{ACAD_REACTORS
330
C
102
}
330
C
100
AcDbDictionary
281
     1
  3
Standard
350
18
  0
DICTIONARY
  5
19
102
{ACAD_REACTORS
330
C
102
}
330
C
100
AcDbDictionary
281
     1
  0
ACDBDICTIONARYWDFLT
  5
E
102
{ACAD_REACTORS
330
C
102
}
330
C
100
AcDbDictionary
281
     1
  3
Normal
350
F
100
AcDbDictionaryWithDefault
340
F
  0
DICTIONARY
  5
B5
102
{ACAD_REACTORS
330
C
102
}
330
C
100
AcDbDictionary
281
     1
  0
DICTIONARY
  5
2A
102
{ACAD_REACTORS
330
C
102
}
330
C
100
AcDbDictionary
281
     1
  3
2dWireframe
350
2F
  3
3D Hidden
350
31
  3
3dWireframe
350
30
  3
Basic
350
32
  3
Brighten
350
36
  3
ColorChange
350
3A
  3
Conceptual
350
34
  3
Dim
350
35
  3
Facepattern
350
39
  3
Flat
350
2B
  3
FlatWithEdges
350
2C
  3
Gouraud
350
2D
  3
GouraudWithEdges
350
2E
  3
Linepattern
350
38
  3
Realistic
350
33
  3
Thicken
350
37
  0
LAYOUT
  5
1E
102
{ACAD_REACTORS
330
1A
102
}
330
1A
100
AcDbPlotSettings
  1

  2
none_device
  4

  6

 40
0.0
 41
0.0
 42
0.0
 43
0.0
 44
0.0
 45
0.0
 46
0.0
 47
0.0
 48
0.0
 49
0.0
140
0.0
141
0.0
142
1.0
143
1.0
 70
   688
 72
     0
 73
     0
 74
     5
  7

 75
    16
 76
     0
 77
     2
 78
   300
147
1.0
148
0.0
149
0.0
100
AcDbLayout
  1
Layout1
 70
     1
 71
     1
 10
0.0
 20
0.0
 11
12.0
 21
9.0
 12
0.0
 22
0.0
 32
0.0
 14
1.000000000000000E+20
 24
1.000000000000000E+20
 34
1.000000000000000E+20
 15
-1.000000000000000E+20
 25
-1.000000000000000E+20
 35
-1.000000000000000E+20
146
0.0
 13
0.0
 23
0.0
 33
0.0
 16
1.0
 26
0.0
 36
0.0
 17
0.0
 27
1.0
 37
0.0
 76
     0
330
1B
  0
LAYOUT
  5
26
102
{ACAD_REACTORS
330
1A
102
}
330
1A
100
AcDbPlotSettings
  1

  2
none_device
  4

  6

 40
0.0
 41
0.0
 42
0.0
 43
0.0
 44
0.0
 45
0.0
 46
0.0
 47
0.0
 48
0.0
 49
0.0
140
0.0
141
0.0
142
1.0
143
1.0
 70
   688
 72
     0
 73
     0
 74
     5
  7

 75
    16
 76
     0
 77
     2
 78
   300
147
1.0
148
0.0
149
0.0
100
AcDbLayout
  1
Layout2
 70
     1
 71
     2
 10
0.0
 20
0.0
 11
0.0
 21
0.0
 12
0.0
 22
0.0
 32
0.0
 14
0.0
 24
0.0
 34
0.0
 15
0.0
 25
0.0
 35
0.0
146
0.0
 13
0.0
 23
0.0
 33
0.0
 16
1.0
 26
0.0
 36
0.0
 17
0.0
 27
1.0
 37
0.0
 76
     0
330
23
  0
LAYOUT
  5
22
102
{ACAD_REACTORS
330
1A
102
}
330
1A
100
AcDbPlotSettings
  1

  2
none_device
  4

  6

 40
0.0
 41
0.0
 42
0.0
 43
0.0
 44
0.0
 45
0.0
 46
0.0
 47
0.0
 48
0.0
 49
0.0
140
0.0
141
0.0
142
1.0
143
1.0
 70
  1712
 72
     0
 73
     0
 74
     0
  7

 75
     0
 76
     0
 77
     2
 78
   300
147
1.0
148
0.0
149
0.0
100
AcDbLayout
  1
Model
 70
     1
 71
     0
 10
0.0
 20
0.0
 11
12.0
 21
9.0
 12
0.0
 22
0.0
 32
0.0
 14
41.2173
 24
-115.1543
 34
0.0
 15
196.3388
 25
131.8422
 35
0.0
146
0.0
 13
0.0
 23
0.0
 33
0.0
 16
1.0
 26
0.0
 36
0.0
 17
0.0
 27
1.0
 37
0.0
 76
     0
330
1F
331
29
  0
MATERIAL
  5
3D
102
{ACAD_REACTORS
330
3B
102
}
330
3B
100
AcDbMaterial
  1
ByBlock
 72
     1
 94
      127
  0
MATERIAL
  5
3C
102
{ACAD_REACTORS
330
3B
102
}
330
3B
100
AcDbMaterial
  1
ByLayer
 72
     1
 94
      127
  0
MATERIAL
  5
3E
102
{ACAD_REACTORS
330
3B
102
}
330
3B
100
AcDbMaterial
  1
Global
 72
     1
 94
      127
  0
MLINESTYLE
  5
18
102
{ACAD_REACTORS
330
17
102
}
330
17
100
AcDbMlineStyle
  2
Standard
 70
     0
  3

 62
   256
 51
90.0
 52
90.0
 71
     2
 49
0.5
 62
   256
  6
BYLAYER
 49
-0.5
 62
   256
  6
BYLAYER
  0
ACDBPLACEHOLDER
  5
F
102
{ACAD_REACTORS
330
E
102
}
330
E
  0
VISUALSTYLE
  5
2F
102
{ACAD_REACTORS
330
2A
102
}
102
{ACAD_XDICTIONARY
360
9D
102
}
330
2A
100
AcDbVisualStyle
  2
2dWireframe
 70
     4
 71
     0
 72
     2
 73
     0
 90
        0
 40
-0.6
 41
-30.0
 62
     5
 63
     7
421
 16777215
 74
     1
 91
        4
 64
     7
 65
   257
 75
     1
175
     1
 42
1.0
 92
        0
 66
   257
 43
1.0
 76
     1
 77
     6
 78
     2
 67
     7
 79
     5
170
     0
171
     0
290
     0
174
     0
 93
        1
 44
0.0
173
     0
291
     0
 45
0.0
  0
VISUALSTYLE
  5
31
102
{ACAD_REACTORS
330
2A
102
}
102
{ACAD_XDICTIONARY
360
A1
102
}
330
2A
100
AcDbVisualStyle
  2
3D Hidden
 70
     6
 71
     1
 72
     2
 73
     2
 90
        0
 40
-0.6
 41
-30.0
 62
     5
 63
     7
421
 16777215
 74
     2
 91
        2
 64
     7
 65
   257
 75
     2
175
     1
 42
40.0
 92
        0
 66
   257
 43
1.0
 76
     1
 77
     6
 78
     2
 67
     7
 79
     3
170
     0
171
     0
290
     0
174
     0
 93
        1
 44
0.0
173
     0
291
     0
 45
0.0
  0
VISUALSTYLE
  5
30
102
{ACAD_REACTORS
330
2A
102
}
102
{ACAD_XDICTIONARY
360
9F
102
}
330
2A
100
AcDbVisualStyle
  2
3dWireframe
 70
     5
 71
     0
 72
     2
 73
     0
 90
        0
 40
-0.6
 41
-30.0
 62
     5
 63
     7
421
 16777215
 74
     1
 91
        4
 64
     7
 65
   257
 75
     1
175
     1
 42
1.0
 92
        0
 66
   257
 43
1.0
 76
     1
 77
     6
 78
     2
 67
     7
 79
     5
170
     0
171
     0
290
     0
174
     0
 93
        1
 44
0.0
173
     0
291
     0
 45
0.0
  0
VISUALSTYLE
  5
32
102
{ACAD_REACTORS
330
2A
102
}
102
{ACAD_XDICTIONARY
360
A3
102
}
330
2A
100
AcDbVisualStyle
  2
Basic
 70
     7
 71
     1
 72
     0
 73
     1
 90
        0
 40
-0.6
 41
-30.0
 62
     5
 63
     7
421
 16777215
 74
     0
 91
        4
 64
     7
 65
   257
 75
     1
175
     1
 42
1.0
 92
        8
 66
     7
 43
1.0
 76
     1
 77
     6
 78
     2
 67
     7
 79
     5
170
     0
171
     0
290
     0
174
     0
 93
        1
 44
0.0
173
     0
291
     1
 45
0.0
  0
VISUALSTYLE
  5
36
102
{ACAD_REACTORS
330
2A
102
}
102
{ACAD_XDICTIONARY
360
AB
102
}
330
2A
100
AcDbVisualStyle
  2
Brighten
 70
    12
 71
     2
 72
     2
 73
     0
 90
        0
 40
-0.6
 41
-30.0
 62
     5
 63
     7
421
 16777215
 74
     1
 91
        4
 64
     7
 65
   257
 75
     1
175
     1
 42
1.0
 92
        8
 66
     7
 43
1.0
 76
     1
 77
     6
 78
     2
 67
     7
 79
     5
170
     0
171
     0
290
     0
174
     0
 93
        1
 44
50.0
173
     0
291
     1
 45
0.0
  0
VISUALSTYLE
  5
3A
102
{ACAD_REACTORS
330
2A
102
}
102
{ACAD_XDICTIONARY
360
B3
102
}
330
2A
100
AcDbVisualStyle
  2
ColorChange
 70
    16
 71
     2
 72
     2
 73
     3
 90
        0
 40
-0.6
 41
-30.0
 62
     5
 63
     8
421
  8421504
 74
     1
 91
        4
 64
     7
 65
   257
 75
     1
175
     1
 42
1.0
 92
        8
 66
     8
424
  8421504
 43
1.0
 76
     1
 77
     6
 78
     2
 67
     7
 79
     5
170
     0
171
     0
290
     0
174
     0
 93
        1
 44
0.0
173
     0
291
     1
 45
0.0
  0
VISUALSTYLE
  5
34
102
{ACAD_REACTORS
330
2A
102
}
102
{ACAD_XDICTIONARY
360
A7
102
}
330
2A
100
AcDbVisualStyle
  2
Conceptual
 70
     9
 71
     3
 72
     2
 73
     0
 90
        0
 40
-0.6
 41
-30.0
 62
     5
 63
     7
421
 16777215
 74
     2
 91
        2
 64
     7
 65
   257
 75
     1
175
     1
 42
40.0
 92
        8
 66
     7
 43
1.0
 76
     1
 77
     6
 78
     2
 67
     7
 79
     3
170
     0
171
     0
290
     0
174
     0
 93
        1
 44
0.0
173
     0
291
     0
 45
0.0
  0
VISUALSTYLE
  5
35
102
{ACAD_REACTORS
330
2A
102
}
102
{ACAD_XDICTIONARY
360
A9
102
}
330
2A
100
AcDbVisualStyle
  2
Dim
 70
    11
 71
     2
 72
     2
 73
     0
 90
        0
 40
-0.6
 41
-30.0
 62
     5
 63
     7
421
 16777215
 74
     1
 91
        4
 64
     7
 65
   257
 75
     1
175
     1
 42
1.0
 92
        8
 66
     7
 43
1.0
 76
     1
 77
     6
 78
     2
 67
     7
 79
     5
170
     0
171
     0
290
     0
174
     0
 93
        1
 44
-50.0
173
     0
291
     1
 45
0.0
  0
VISUALSTYLE
  5
39
102
{ACAD_REACTORS
330
2A
102
}
102
{ACAD_XDICTIONARY
360
B1
102
}
330
2A
100
AcDbVisualStyle
  2
Facepattern
 70
    15
 71
     2
 72
     2
 73
     0
 90
        0
 40
-0.6
 41
-30.0
 62
     5
 63
     7
421
 16777215
 74
     1
 91
        4
 64
     7
 65
   257
 75
     1
175
     1
 42
1.0
 92
        8
 66
     7
 43
1.0
 76
     1
 77
     6
 78
     2
 67
     7
 79
     5
170
     0
171
     0
290
     0
174
     0
 93
        1
 44
0.0
173
     0
291
     1
 45
0.0
  0
VISUALSTYLE
  5
2B
102
{ACAD_REACTORS
330
2A
102
}
102
{ACAD_XDICTIONARY
360
95
102
}
330
2A
100
AcDbVisualStyle
  2
Flat
 70
     0
 71
     2
 72
     1
 73
     1
 90
        2
 40
-0.6
 41
30.0
 62
     5
 63
     7
421
 16777215
 74
     0
 91
        4
 64
     7
 65
   257
 75
     1
175
     1
 42
1.0
 92
        8
 66
     7
 43
1.0
 76
     1
 77
     6
 78
     2
 67
     7
 79
     5
170
     0
171
     0
290
     0
174
     0
 93
       13
 44
0.0
173
     0
291
     1
 45
0.0
  0
VISUALSTYLE
  5
2C
102
{ACAD_REACTORS
330
2A
102
}
102
{ACAD_XDICTIONARY
360
97
102
}
330
2A
100
AcDbVisualStyle
  2
FlatWithEdges
 70
     1
 71
     2
 72
     1
 73
     1
 90
        2
 40
-0.6
 41
30.0
 62
     5
 63
     7
421
 16777215
 74
     1
 91
        4
 64
     7
 65
   257
 75
     1
175
     1
 42
1.0
 92
        0
 66
   257
 43
1.0
 76
     1
 77
     6
 78
     2
 67
     7
 79
     5
170
     0
171
     0
290
     0
174
     0
 93
       13
 44
0.0
173
     0
291
     1
 45
0.0
  0
VISUALSTYLE
  5
2D
102
{ACAD_REACTORS
330
2A
102
}
102
{ACAD_XDICTIONARY
360
99
102
}
330
2A
100
AcDbVisualStyle
  2
Gouraud
 70
     2
 71
     2
 72
     2
 73
     1
 90
        2
 40
-0.6
 41
30.0
 62
     5
 63
     7
421
 16777215
 74
     0
 91
        4
 64
     7
 65
   257
 75
     1
175
     1
 42
1.0
 92
        0
 66
     7
 43
1.0
 76
     1
 77
     6
 78
     2
 67
     7
 79
     5
170
     0
171
     0
290
     0
174
     0
 93
       13
 44
0.0
173
     0
291
     1
 45
0.0
  0
VISUALSTYLE
  5
2E
102
{ACAD_REACTORS
330
2A
102
}
102
{ACAD_XDICTIONARY
360
9B
102
}
330
2A
100
AcDbVisualStyle
  2
GouraudWithEdges
 70
     3
 71
     2
 72
     2
 73
     1
 90
        2
 40
-0.6
 41
30.0
 62
     5
 63
     7
421
 16777215
 74
     1
 91
        4
 64
     7
 65
   257
 75
     1
175
     1
 42
1.0
 92
        0
 66
   257
 43
1.0
 76
     1
 77
     6
 78
     2
 67
     7
 79
     5
170
     0
171
     0
290
     0
174
     0
 93
       13
 44
0.0
173
     0
291
     1
 45
0.0
  0
VISUALSTYLE
  5
38
102
{ACAD_REACTORS
330
2A
102
}
102
{ACAD_XDICTIONARY
360
AF
102
}
330
2A
100
AcDbVisualStyle
  2
Linepattern
 70
    14
 71
     2
 72
     2
 73
     0
 90
        0
 40
-0.6
 41
-30.0
 62
     5
 63
     7
421
 16777215
 74
     1
 91
        4
 64
     7
 65
   257
 75
     7
175
     7
 42
1.0
 92
        8
 66
     7
 43
1.0
 76
     1
 77
     6
 78
     2
 67
     7
 79
     5
170
     0
171
     0
290
     0
174
     0
 93
        1
 44
0.0
173
     0
291
     1
 45
0.0
  0
VISUALSTYLE
  5
33
102
{ACAD_REACTORS
330
2A
102
}
102
{ACAD_XDICTIONARY
360
A5
102
}
330
2A
100
AcDbVisualStyle
  2
Realistic
 70
     8
 71
     2
 72
     2
 73
     0
 90
        0
 40
-0.6
 41
-30.0
 62
     5
 63
     7
421
 16777215
 74
     1
 91
        0
 64
     7
 65
   257
 75
     1
175
     1
 42
1.0
 92
        8
 66
     8
424
  7895160
 43
1.0
 76
     1
 77
     6
 78
     2
 67
     7
 79
     5
170
     0
171
     0
290
     0
174
     0
 93
       13
 44
0.0
173
     0
291
     0
 45
0.0
  0
VISUALSTYLE
  5
37
102
{ACAD_REACTORS
330
2A
102
}
102
{ACAD_XDICTIONARY
360
AD
102
}
330
2A
100
AcDbVisualStyle
  2
Thicken
 70
    13
 71
     2
 72
     2
 73
     0
 90
        0
 40
-0.6
 41
-30.0
 62
     5
 63
     7
421
 16777215
 74
     1
 91
        4
 64
     7
 65
   257
 75
     1
175
     1
 42
1.0
 92
       12
 66
     7
 43
1.0
 76
     1
 77
     6
 78
     2
 67
     7
 79
     5
170
     0
171
     0
290
     0
174
     0
 93
        1
 44
0.0
173
     0
291
     1
 45
0.0
  0
DICTIONARY
  5
9D
330
2F
100
AcDbDictionary
280
     1
281
     1
  3
ACAD_XREC_ROUNDTRIP
360
9E
  0
DICTIONARY
  5
A1
330
31
100
AcDbDictionary
280
     1
281
     1
  3
ACAD_XREC_ROUNDTRIP
360
A2
  0
DICTIONARY
  5
9F
330
30
100
AcDbDictionary
280
     1
281
     1
  3
ACAD_XREC_ROUNDTRIP
360
A0
  0
DICTIONARY
  5
A3
330
32
100
AcDbDictionary
280
     1
281
     1
  3
ACAD_XREC_ROUNDTRIP
360
A4
  0
DICTIONARY
  5
AB
330
36
100
AcDbDictionary
280
     1
281
     1
  3
ACAD_XREC_ROUNDTRIP
360
AC
  0
DICTIONARY
  5
B3
330
3A
100
AcDbDictionary
280
     1
281
     1
  3
ACAD_XREC_ROUNDTRIP
360
B4
  0
DICTIONARY
  5
A7
330
34
100
AcDbDictionary
280
     1
281
     1
  3
ACAD_XREC_ROUNDTRIP
360
A8
  0
DICTIONARY
  5
A9
330
35
100
AcDbDictionary
280
     1
281
     1
  3
ACAD_XREC_ROUNDTRIP
360
AA
  0
DICTIONARY
  5
B1
330
39
100
AcDbDictionary
280
     1
281
     1
  3
ACAD_XREC_ROUNDTRIP
360
B2
  0
DICTIONARY
  5
95
330
2B
100
AcDbDictionary
280
     1
281
     1
  3
ACAD_XREC_ROUNDTRIP
360
96
  0
DICTIONARY
  5
97
330
2C
100
AcDbDictionary
280
     1
281
     1
  3
ACAD_XREC_ROUNDTRIP
360
98
  0
DICTIONARY
  5
99
330
2D
100
AcDbDictionary
280
     1
281
     1
  3
ACAD_XREC_ROUNDTRIP
360
9A
  0
DICTIONARY
  5
9B
330
2E
100
AcDbDictionary
280
     1
281
     1
  3
ACAD_XREC_ROUNDTRIP
360
9C
  0
DICTIONARY
  5
AF
330
38
100
AcDbDictionary
280
     1
281
     1
  3
ACAD_XREC_ROUNDTRIP
360
B0
  0
DICTIONARY
  5
A5
330
33
100
AcDbDictionary
280
     1
281
     1
  3
ACAD_XREC_ROUNDTRIP
360
A6
  0
DICTIONARY
  5
AD
330
37
100
AcDbDictionary
280
     1
281
     1
  3
ACAD_XREC_ROUNDTRIP
360
AE
  0
XRECORD
  5
9E
102
{ACAD_REACTORS
330
9D
102
}
330
9D
100
AcDbXrecord
280
     1
102
RTVSPropertyOp0
 70
     1
102
RTVSPropertyOp1
 70
     1
102
RTVSPropertyOp2
 70
     1
102
RTVSPropertyOp3
 70
     1
102
RTVSPropertyOp4
 70
     1
102
RTVSPropertyOp5
 70
     1
102
RTVSPropertyOp6
 70
     1
102
RTVSPropertyOp7
 70
     1
102
RTVSPropertyOp8
 70
     1
102
RTVSPropertyOp9
 70
     1
102
RTVSPropertyOp10
 70
     1
102
RTVSPropertyOp11
 70
     1
102
RTVSPropertyOp12
 70
     1
102
RTVSPropertyOp13
 70
     1
102
RTVSPropertyOp14
 70
     1
102
RTVSPropertyOp15
 70
     1
102
RTVSPropertyOp16
 70
     1
102
RTVSPropertyOp17
 70
     1
102
RTVSPropertyOp18
 70
     1
102
RTVSPropertyOp19
 70
     1
102
RTVSPropertyOp20
 70
     1
102
RTVSPropertyOp21
 70
     1
102
RTVSPropertyOp22
 70
     1
102
RTVSPropertyOp23
 70
     1
102
RTVSPropertyOp24
 70
     1
102
RTVSPropertyOp25
 70
     1
102
RTVSPropertyOp26
 70
     1
102
RTVSPropertyOp27
 70
     1
102
RTVSPropertyOp28
 70
     1
102
RTVSPropertyOp29
 70
     1
102
RTVSPropertyOp30
 70
     1
102
RTVSPropertyOp31
 70
     1
102
RTVSPropertyOp32
 70
     1
  0
XRECORD
  5
A2
102
{ACAD_REACTORS
330
A1
102
}
330
A1
100
AcDbXrecord
280
     1
102
RTVSPropertyOp0
 70
     1
102
RTVSPropertyOp1
 70
     1
102
RTVSPropertyOp2
 70
     1
102
RTVSPropertyOp3
 70
     1
102
RTVSPropertyOp4
 70
     1
102
RTVSPropertyOp5
 70
     1
102
RTVSPropertyOp6
 70
     1
102
RTVSPropertyOp7
 70
     1
102
RTVSPropertyOp8
 70
     1
102
RTVSPropertyOp9
 70
     1
102
RTVSPropertyOp10
 70
     1
102
RTVSPropertyOp11
 70
     1
102
RTVSPropertyOp12
 70
     1
102
RTVSPropertyOp13
 70
     1
102
RTVSPropertyOp14
 70
     1
102
RTVSPropertyOp15
 70
     1
102
RTVSPropertyOp16
 70
     1
102
RTVSPropertyOp17
 70
     1
102
RTVSPropertyOp18
 70
     1
102
RTVSPropertyOp19
 70
     1
102
RTVSPropertyOp20
 70
     1
102
RTVSPropertyOp21
 70
     1
102
RTVSPropertyOp22
 70
     1
102
RTVSPropertyOp23
 70
     1
102
RTVSPropertyOp24
 70
     1
102
RTVSPropertyOp25
 70
     1
102
RTVSPropertyOp26
 70
     1
102
RTVSPropertyOp27
 70
     1
102
RTVSPropertyOp28
 70
     1
102
RTVSPropertyOp29
 70
     1
102
RTVSPropertyOp30
 70
     1
102
RTVSPropertyOp31
 70
     1
102
RTVSPropertyOp32
 70
     1
  0
XRECORD
  5
A0
102
{ACAD_REACTORS
330
9F
102
}
330
9F
100
AcDbXrecord
280
     1
102
RTVSPropertyOp0
 70
     1
102
RTVSPropertyOp1
 70
     1
102
RTVSPropertyOp2
 70
     1
102
RTVSPropertyOp3
 70
     1
102
RTVSPropertyOp4
 70
     1
102
RTVSPropertyOp5
 70
     1
102
RTVSPropertyOp6
 70
     1
102
RTVSPropertyOp7
 70
     1
102
RTVSPropertyOp8
 70
     1
102
RTVSPropertyOp9
 70
     1
102
RTVSPropertyOp10
 70
     1
102
RTVSPropertyOp11
 70
     1
102
RTVSPropertyOp12
 70
     1
102
RTVSPropertyOp13
 70
     1
102
RTVSPropertyOp14
 70
     1
102
RTVSPropertyOp15
 70
     1
102
RTVSPropertyOp16
 70
     1
102
RTVSPropertyOp17
 70
     1
102
RTVSPropertyOp18
 70
     1
102
RTVSPropertyOp19
 70
     1
102
RTVSPropertyOp20
 70
     1
102
RTVSPropertyOp21
 70
     1
102
RTVSPropertyOp22
 70
     1
102
RTVSPropertyOp23
 70
     1
102
RTVSPropertyOp24
 70
     1
102
RTVSPropertyOp25
 70
     1
102
RTVSPropertyOp26
 70
     1
102
RTVSPropertyOp27
 70
     1
102
RTVSPropertyOp28
 70
     1
102
RTVSPropertyOp29
 70
     1
102
RTVSPropertyOp30
 70
     1
102
RTVSPropertyOp31
 70
     1
102
RTVSPropertyOp32
 70
     1
  0
XRECORD
  5
A4
102
{ACAD_REACTORS
330
A3
102
}
330
A3
100
AcDbXrecord
280
     1
102
RTVSPropertyOp0
 70
     1
102
RTVSPropertyOp1
 70
     1
102
RTVSPropertyOp2
 70
     1
102
RTVSPropertyOp3
 70
     1
102
RTVSPropertyOp4
 70
     1
102
RTVSPropertyOp5
 70
     1
102
RTVSPropertyOp6
 70
     1
102
RTVSPropertyOp7
 70
     1
102
RTVSPropertyOp8
 70
     1
102
RTVSPropertyOp9
 70
     1
102
RTVSPropertyOp10
 70
     1
102
RTVSPropertyOp11
 70
     1
102
RTVSPropertyOp12
 70
     1
102
RTVSPropertyOp13
 70
     1
102
RTVSPropertyOp14
 70
     1
102
RTVSPropertyOp15
 70
     1
102
RTVSPropertyOp16
 70
     1
102
RTVSPropertyOp17
 70
     1
102
RTVSPropertyOp18
 70
     1
102
RTVSPropertyOp19
 70
     1
102
RTVSPropertyOp20
 70
     1
102
RTVSPropertyOp21
 70
     1
102
RTVSPropertyOp22
 70
     1
102
RTVSPropertyOp23
 70
     1
102
RTVSPropertyOp24
 70
     1
102
RTVSPropertyOp25
 70
     1
102
RTVSPropertyOp26
 70
     1
102
RTVSPropertyOp27
 70
     1
102
RTVSPropertyOp28
 70
     1
102
RTVSPropertyOp29
 70
     1
102
RTVSPropertyOp30
 70
     1
102
RTVSPropertyOp31
 70
     1
102
RTVSPropertyOp32
 70
     1
  0
XRECORD
  5
AC
102
{ACAD_REACTORS
330
AB
102
}
330
AB
100
AcDbXrecord
280
     1
102
RTVSPropertyOp0
 70
     1
102
RTVSPropertyOp1
 70
     1
102
RTVSPropertyOp2
 70
     1
102
RTVSPropertyOp3
 70
     1
102
RTVSPropertyOp4
 70
     1
102
RTVSPropertyOp5
 70
     1
102
RTVSPropertyOp6
 70
     1
102
RTVSPropertyOp7
 70
     1
102
RTVSPropertyOp8
 70
     1
102
RTVSPropertyOp9
 70
     1
102
RTVSPropertyOp10
 70
     1
102
RTVSPropertyOp11
 70
     1
102
RTVSPropertyOp12
 70
     1
102
RTVSPropertyOp13
 70
     1
102
RTVSPropertyOp14
 70
     1
102
RTVSPropertyOp15
 70
     1
102
RTVSPropertyOp16
 70
     1
102
RTVSPropertyOp17
 70
     1
102
RTVSPropertyOp18
 70
     1
102
RTVSPropertyOp19
 70
     1
102
RTVSPropertyOp20
 70
     1
102
RTVSPropertyOp21
 70
     1
102
RTVSPropertyOp22
 70
     1
102
RTVSPropertyOp23
 70
     1
102
RTVSPropertyOp24
 70
     1
102
RTVSPropertyOp25
 70
     1
102
RTVSPropertyOp26
 70
     1
102
RTVSPropertyOp27
 70
     1
102
RTVSPropertyOp28
 70
     1
102
RTVSPropertyOp29
 70
     1
102
RTVSPropertyOp30
 70
     1
102
RTVSPropertyOp31
 70
     1
102
RTVSPropertyOp32
 70
     1
  0
XRECORD
  5
B4
102
{ACAD_REACTORS
330
B3
102
}
330
B3
100
AcDbXrecord
280
     1
102
RTVSPropertyOp0
 70
     1
102
RTVSPropertyOp1
 70
     1
102
RTVSPropertyOp2
 70
     1
102
RTVSPropertyOp3
 70
     1
102
RTVSPropertyOp4
 70
     1
102
RTVSPropertyOp5
 70
     1
102
RTVSPropertyOp6
 70
     1
102
RTVSPropertyOp7
 70
     1
102
RTVSPropertyOp8
 70
     1
102
RTVSPropertyOp9
 70
     1
102
RTVSPropertyOp10
 70
     1
102
RTVSPropertyOp11
 70
     1
102
RTVSPropertyOp12
 70
     1
102
RTVSPropertyOp13
 70
     1
102
RTVSPropertyOp14
 70
     1
102
RTVSPropertyOp15
 70
     1
102
RTVSPropertyOp16
 70
     1
102
RTVSPropertyOp17
 70
     1
102
RTVSPropertyOp18
 70
     1
102
RTVSPropertyOp19
 70
     1
102
RTVSPropertyOp20
 70
     1
102
RTVSPropertyOp21
 70
     1
102
RTVSPropertyOp22
 70
     1
102
RTVSPropertyOp23
 70
     1
102
RTVSPropertyOp24
 70
     1
102
RTVSPropertyOp25
 70
     1
102
RTVSPropertyOp26
 70
     1
102
RTVSPropertyOp27
 70
     1
102
RTVSPropertyOp28
 70
     1
102
RTVSPropertyOp29
 70
     1
102
RTVSPropertyOp30
 70
     1
102
RTVSPropertyOp31
 70
     1
102
RTVSPropertyOp32
 70
     1
  0
XRECORD
  5
A8
102
{ACAD_REACTORS
330
A7
102
}
330
A7
100
AcDbXrecord
280
     1
102
RTVSPropertyOp0
 70
     1
102
RTVSPropertyOp1
 70
     1
102
RTVSPropertyOp2
 70
     1
102
RTVSPropertyOp3
 70
     1
102
RTVSPropertyOp4
 70
     1
102
RTVSPropertyOp5
 70
     1
102
RTVSPropertyOp6
 70
     1
102
RTVSPropertyOp7
 70
     1
102
RTVSPropertyOp8
 70
     1
102
RTVSPropertyOp9
 70
     1
102
RTVSPropertyOp10
 70
     1
102
RTVSPropertyOp11
 70
     1
102
RTVSPropertyOp12
 70
     1
102
RTVSPropertyOp13
 70
     1
102
RTVSPropertyOp14
 70
     1
102
RTVSPropertyOp15
 70
     1
102
RTVSPropertyOp16
 70
     1
102
RTVSPropertyOp17
 70
     1
102
RTVSPropertyOp18
 70
     1
102
RTVSPropertyOp19
 70
     1
102
RTVSPropertyOp20
 70
     1
102
RTVSPropertyOp21
 70
     1
102
RTVSPropertyOp22
 70
     1
102
RTVSPropertyOp23
 70
     1
102
RTVSPropertyOp24
 70
     1
102
RTVSPropertyOp25
 70
     1
102
RTVSPropertyOp26
 70
     1
102
RTVSPropertyOp27
 70
     1
102
RTVSPropertyOp28
 70
     1
102
RTVSPropertyOp29
 70
     1
102
RTVSPropertyOp30
 70
     1
102
RTVSPropertyOp31
 70
     1
102
RTVSPropertyOp32
 70
     1
  0
XRECORD
  5
AA
102
{ACAD_REACTORS
330
A9
102
}
330
A9
100
AcDbXrecord
280
     1
102
RTVSPropertyOp0
 70
     1
102
RTVSPropertyOp1
 70
     1
102
RTVSPropertyOp2
 70
     1
102
RTVSPropertyOp3
 70
     1
102
RTVSPropertyOp4
 70
     1
102
RTVSPropertyOp5
 70
     1
102
RTVSPropertyOp6
 70
     1
102
RTVSPropertyOp7
 70
     1
102
RTVSPropertyOp8
 70
     1
102
RTVSPropertyOp9
 70
     1
102
RTVSPropertyOp10
 70
     1
102
RTVSPropertyOp11
 70
     1
102
RTVSPropertyOp12
 70
     1
102
RTVSPropertyOp13
 70
     1
102
RTVSPropertyOp14
 70
     1
102
RTVSPropertyOp15
 70
     1
102
RTVSPropertyOp16
 70
     1
102
RTVSPropertyOp17
 70
     1
102
RTVSPropertyOp18
 70
     1
102
RTVSPropertyOp19
 70
     1
102
RTVSPropertyOp20
 70
     1
102
RTVSPropertyOp21
 70
     1
102
RTVSPropertyOp22
 70
     1
102
RTVSPropertyOp23
 70
     1
102
RTVSPropertyOp24
 70
     1
102
RTVSPropertyOp25
 70
     1
102
RTVSPropertyOp26
 70
     1
102
RTVSPropertyOp27
 70
     1
102
RTVSPropertyOp28
 70
     1
102
RTVSPropertyOp29
 70
     1
102
RTVSPropertyOp30
 70
     1
102
RTVSPropertyOp31
 70
     1
102
RTVSPropertyOp32
 70
     1
  0
XRECORD
  5
B2
102
{ACAD_REACTORS
330
B1
102
}
330
B1
100
AcDbXrecord
280
     1
102
RTVSPropertyOp0
 70
     1
102
RTVSPropertyOp1
 70
     1
102
RTVSPropertyOp2
 70
     1
102
RTVSPropertyOp3
 70
     1
102
RTVSPropertyOp4
 70
     1
102
RTVSPropertyOp5
 70
     1
102
RTVSPropertyOp6
 70
     1
102
RTVSPropertyOp7
 70
     1
102
RTVSPropertyOp8
 70
     1
102
RTVSPropertyOp9
 70
     1
102
RTVSPropertyOp10
 70
     1
102
RTVSPropertyOp11
 70
     1
102
RTVSPropertyOp12
 70
     1
102
RTVSPropertyOp13
 70
     1
102
RTVSPropertyOp14
 70
     1
102
RTVSPropertyOp15
 70
     1
102
RTVSPropertyOp16
 70
     1
102
RTVSPropertyOp17
 70
     1
102
RTVSPropertyOp18
 70
     1
102
RTVSPropertyOp19
 70
     1
102
RTVSPropertyOp20
 70
     1
102
RTVSPropertyOp21
 70
     1
102
RTVSPropertyOp22
 70
     1
102
RTVSPropertyOp23
 70
     1
102
RTVSPropertyOp24
 70
     1
102
RTVSPropertyOp25
 70
     1
102
RTVSPropertyOp26
 70
     1
102
RTVSPropertyOp27
 70
     1
102
RTVSPropertyOp28
 70
     1
102
RTVSPropertyOp29
 70
     1
102
RTVSPropertyOp30
 70
     1
102
RTVSPropertyOp31
 70
     1
102
RTVSPropertyOp32
 70
     1
  0
XRECORD
  5
96
102
{ACAD_REACTORS
330
95
102
}
330
95
100
AcDbXrecord
280
     1
102
RTVSPropertyOp0
 70
     1
102
RTVSPropertyOp1
 70
     1
102
RTVSPropertyOp2
 70
     1
102
RTVSPropertyOp3
 70
     1
102
RTVSPropertyOp4
 70
     1
102
RTVSPropertyOp5
 70
     1
102
RTVSPropertyOp6
 70
     1
102
RTVSPropertyOp7
 70
     1
102
RTVSPropertyOp8
 70
     1
102
RTVSPropertyOp9
 70
     1
102
RTVSPropertyOp10
 70
     1
102
RTVSPropertyOp11
 70
     1
102
RTVSPropertyOp12
 70
     1
102
RTVSPropertyOp13
 70
     1
102
RTVSPropertyOp14
 70
     1
102
RTVSPropertyOp15
 70
     1
102
RTVSPropertyOp16
 70
     1
102
RTVSPropertyOp17
 70
     1
102
RTVSPropertyOp18
 70
     1
102
RTVSPropertyOp19
 70
     1
102
RTVSPropertyOp20
 70
     1
102
RTVSPropertyOp21
 70
     1
102
RTVSPropertyOp22
 70
     1
102
RTVSPropertyOp23
 70
     1
102
RTVSPropertyOp24
 70
     1
102
RTVSPropertyOp25
 70
     1
102
RTVSPropertyOp26
 70
     1
102
RTVSPropertyOp27
 70
     1
102
RTVSPropertyOp28
 70
     1
102
RTVSPropertyOp29
 70
     1
102
RTVSPropertyOp30
 70
     1
102
RTVSPropertyOp31
 70
     1
102
RTVSPropertyOp32
 70
     1
  0
XRECORD
  5
98
102
{ACAD_REACTORS
330
97
102
}
330
97
100
AcDbXrecord
280
     1
102
RTVSPropertyOp0
 70
     1
102
RTVSPropertyOp1
 70
     1
102
RTVSPropertyOp2
 70
     1
102
RTVSPropertyOp3
 70
     1
102
RTVSPropertyOp4
 70
     1
102
RTVSPropertyOp5
 70
     1
102
RTVSPropertyOp6
 70
     1
102
RTVSPropertyOp7
 70
     1
102
RTVSPropertyOp8
 70
     1
102
RTVSPropertyOp9
 70
     1
102
RTVSPropertyOp10
 70
     1
102
RTVSPropertyOp11
 70
     1
102
RTVSPropertyOp12
 70
     1
102
RTVSPropertyOp13
 70
     1
102
RTVSPropertyOp14
 70
     1
102
RTVSPropertyOp15
 70
     1
102
RTVSPropertyOp16
 70
     1
102
RTVSPropertyOp17
 70
     1
102
RTVSPropertyOp18
 70
     1
102
RTVSPropertyOp19
 70
     1
102
RTVSPropertyOp20
 70
     1
102
RTVSPropertyOp21
 70
     1
102
RTVSPropertyOp22
 70
     1
102
RTVSPropertyOp23
 70
     1
102
RTVSPropertyOp24
 70
     1
102
RTVSPropertyOp25
 70
     1
102
RTVSPropertyOp26
 70
     1
102
RTVSPropertyOp27
 70
     1
102
RTVSPropertyOp28
 70
     1
102
RTVSPropertyOp29
 70
     1
102
RTVSPropertyOp30
 70
     1
102
RTVSPropertyOp31
 70
     1
102
RTVSPropertyOp32
 70
     1
  0
XRECORD
  5
9A
102
{ACAD_REACTORS
330
99
102
}
330
99
100
AcDbXrecord
280
     1
102
RTVSPropertyOp0
 70
     1
102
RTVSPropertyOp1
 70
     1
102
RTVSPropertyOp2
 70
     1
102
RTVSPropertyOp3
 70
     1
102
RTVSPropertyOp4
 70
     1
102
RTVSPropertyOp5
 70
     1
102
RTVSPropertyOp6
 70
     1
102
RTVSPropertyOp7
 70
     1
102
RTVSPropertyOp8
 70
     1
102
RTVSPropertyOp9
 70
     1
102
RTVSPropertyOp10
 70
     1
102
RTVSPropertyOp11
 70
     1
102
RTVSPropertyOp12
 70
     1
102
RTVSPropertyOp13
 70
     1
102
RTVSPropertyOp14
 70
     1
102
RTVSPropertyOp15
 70
     1
102
RTVSPropertyOp16
 70
     1
102
RTVSPropertyOp17
 70
     1
102
RTVSPropertyOp18
 70
     1
102
RTVSPropertyOp19
 70
     1
102
RTVSPropertyOp20
 70
     1
102
RTVSPropertyOp21
 70
     1
102
RTVSPropertyOp22
 70
     1
102
RTVSPropertyOp23
 70
     1
102
RTVSPropertyOp24
 70
     1
102
RTVSPropertyOp25
 70
     1
102
RTVSPropertyOp26
 70
     1
102
RTVSPropertyOp27
 70
     1
102
RTVSPropertyOp28
 70
     1
102
RTVSPropertyOp29
 70
     1
102
RTVSPropertyOp30
 70
     1
102
RTVSPropertyOp31
 70
     1
102
RTVSPropertyOp32
 70
     1
  0
XRECORD
  5
9C
102
{ACAD_REACTORS
330
9B
102
}
330
9B
100
AcDbXrecord
280
     1
102
RTVSPropertyOp0
 70
     1
102
RTVSPropertyOp1
 70
     1
102
RTVSPropertyOp2
 70
     1
102
RTVSPropertyOp3
 70
     1
102
RTVSPropertyOp4
 70
     1
102
RTVSPropertyOp5
 70
     1
102
RTVSPropertyOp6
 70
     1
102
RTVSPropertyOp7
 70
     1
102
RTVSPropertyOp8
 70
     1
102
RTVSPropertyOp9
 70
     1
102
RTVSPropertyOp10
 70
     1
102
RTVSPropertyOp11
 70
     1
102
RTVSPropertyOp12
 70
     1
102
RTVSPropertyOp13
 70
     1
102
RTVSPropertyOp14
 70
     1
102
RTVSPropertyOp15
 70
     1
102
RTVSPropertyOp16
 70
     1
102
RTVSPropertyOp17
 70
     1
102
RTVSPropertyOp18
 70
     1
102
RTVSPropertyOp19
 70
     1
102
RTVSPropertyOp20
 70
     1
102
RTVSPropertyOp21
 70
     1
102
RTVSPropertyOp22
 70
     1
102
RTVSPropertyOp23
 70
     1
102
RTVSPropertyOp24
 70
     1
102
RTVSPropertyOp25
 70
     1
102
RTVSPropertyOp26
 70
     1
102
RTVSPropertyOp27
 70
     1
102
RTVSPropertyOp28
 70
     1
102
RTVSPropertyOp29
 70
     1
102
RTVSPropertyOp30
 70
     1
102
RTVSPropertyOp31
 70
     1
102
RTVSPropertyOp32
 70
     1
  0
XRECORD
  5
B0
102
{ACAD_REACTORS
330
AF
102
}
330
AF
100
AcDbXrecord
280
     1
102
RTVSPropertyOp0
 70
     1
102
RTVSPropertyOp1
 70
     1
102
RTVSPropertyOp2
 70
     1
102
RTVSPropertyOp3
 70
     1
102
RTVSPropertyOp4
 70
     1
102
RTVSPropertyOp5
 70
     1
102
RTVSPropertyOp6
 70
     1
102
RTVSPropertyOp7
 70
     1
102
RTVSPropertyOp8
 70
     1
102
RTVSPropertyOp9
 70
     1
102
RTVSPropertyOp10
 70
     1
102
RTVSPropertyOp11
 70
     1
102
RTVSPropertyOp12
 70
     1
102
RTVSPropertyOp13
 70
     1
102
RTVSPropertyOp14
 70
     1
102
RTVSPropertyOp15
 70
     1
102
RTVSPropertyOp16
 70
     1
102
RTVSPropertyOp17
 70
     1
102
RTVSPropertyOp18
 70
     1
102
RTVSPropertyOp19
 70
     1
102
RTVSPropertyOp20
 70
     1
102
RTVSPropertyOp21
 70
     1
102
RTVSPropertyOp22
 70
     1
102
RTVSPropertyOp23
 70
     1
102
RTVSPropertyOp24
 70
     1
102
RTVSPropertyOp25
 70
     1
102
RTVSPropertyOp26
 70
     1
102
RTVSPropertyOp27
 70
     1
102
RTVSPropertyOp28
 70
     1
102
RTVSPropertyOp29
 70
     1
102
RTVSPropertyOp30
 70
     1
102
RTVSPropertyOp31
 70
     1
102
RTVSPropertyOp32
 70
     1
  0
XRECORD
  5
A6
102
{ACAD_REACTORS
330
A5
102
}
330
A5
100
AcDbXrecord
280
     1
102
RTVSPropertyOp0
 70
     1
102
RTVSPropertyOp1
 70
     1
102
RTVSPropertyOp2
 70
     1
102
RTVSPropertyOp3
 70
     1
102
RTVSPropertyOp4
 70
     1
102
RTVSPropertyOp5
 70
     1
102
RTVSPropertyOp6
 70
     1
102
RTVSPropertyOp7
 70
     1
102
RTVSPropertyOp8
 70
     1
102
RTVSPropertyOp9
 70
     1
102
RTVSPropertyOp10
 70
     1
102
RTVSPropertyOp11
 70
     1
102
RTVSPropertyOp12
 70
     1
102
RTVSPropertyOp13
 70
     1
102
RTVSPropertyOp14
 70
     1
102
RTVSPropertyOp15
 70
     1
102
RTVSPropertyOp16
 70
     1
102
RTVSPropertyOp17
 70
     1
102
RTVSPropertyOp18
 70
     1
102
RTVSPropertyOp19
 70
     1
102
RTVSPropertyOp20
 70
     1
102
RTVSPropertyOp21
 70
     1
102
RTVSPropertyOp22
 70
     1
102
RTVSPropertyOp23
 70
     1
102
RTVSPropertyOp24
 70
     1
102
RTVSPropertyOp25
 70
     1
102
RTVSPropertyOp26
 70
     1
102
RTVSPropertyOp27
 70
     1
102
RTVSPropertyOp28
 70
     1
102
RTVSPropertyOp29
 70
     1
102
RTVSPropertyOp30
 70
     1
102
RTVSPropertyOp31
 70
     1
102
RTVSPropertyOp32
 70
     1
  0
XRECORD
  5
AE
102
{ACAD_REACTORS
330
AD
102
}
330
AD
100
AcDbXrecord
280
     1
102
RTVSPropertyOp0
 70
     1
102
RTVSPropertyOp1
 70
     1
102
RTVSPropertyOp2
 70
     1
102
RTVSPropertyOp3
 70
     1
102
RTVSPropertyOp4
 70
     1
102
RTVSPropertyOp5
 70
     1
102
RTVSPropertyOp6
 70
     1
102
RTVSPropertyOp7
 70
     1
102
RTVSPropertyOp8
 70
     1
102
RTVSPropertyOp9
 70
     1
102
RTVSPropertyOp10
 70
     1
102
RTVSPropertyOp11
 70
     1
102
RTVSPropertyOp12
 70
     1
102
RTVSPropertyOp13
 70
     1
102
RTVSPropertyOp14
 70
     1
102
RTVSPropertyOp15
 70
     1
102
RTVSPropertyOp16
 70
     1
102
RTVSPropertyOp17
 70
     1
102
RTVSPropertyOp18
 70
     1
102
RTVSPropertyOp19
 70
     1
102
RTVSPropertyOp20
 70
     1
102
RTVSPropertyOp21
 70
     1
102
RTVSPropertyOp22
 70
     1
102
RTVSPropertyOp23
 70
     1
102
RTVSPropertyOp24
 70
     1
102
RTVSPropertyOp25
 70
     1
102
RTVSPropertyOp26
 70
     1
102
RTVSPropertyOp27
 70
     1
102
RTVSPropertyOp28
 70
     1
102
RTVSPropertyOp29
 70
     1
102
RTVSPropertyOp30
 70
     1
102
RTVSPropertyOp31
 70
     1
102
RTVSPropertyOp32
 70
     1
  0
ENDSEC
  0
EOF
