  0
SECTION
  2
HEADER
  9
$ACADVER
  1
AC1021
  9
$ACADMAINTVER
 70
    25
  9
$DWGCODEPAGE
  3
ANSI_1252
  9
$INSBASE
 10
0.0
 20
0.0
 30
0.0
  9
$EXTMIN
 10
-187.3989
 20
-115.1543
 30
0.0
  9
$EXTMAX
 10
-32.2749
 20
131.8462
 30
0.0
  9
$LIMMIN
 10
0.0
 20
0.0
  9
$LIMMAX
 10
12.0
 20
9.0
  9
$ORTHOMODE
 70
     0
  9
$REGENMODE
 70
     1
  9
$FILLMODE
 70
     1
  9
$QTEXTMODE
 70
     0
  9
$MIRRTEXT
 70
     1
  9
$LTSCALE
 40
1.0
  9
$ATTMODE
 70
     1
  9
$TEXTSIZE
 40
0.2
  9
$TRACEWID
 40
0.05
  9
$TEXTSTYLE
  7
Standard
  9
$CLAYER
  8
0
  9
$CELTYPE
  6
ByLayer
  9
$CECOLOR
 62
   256
  9
$CELTSCALE
 40
1.0
  9
$DISPSILH
 70
     0
  9
$DIMSCALE
 40
1.0
  9
$DIMASZ
 40
0.18
  9
$DIMEXO
 40
0.0625
  9
$DIMDLI
 40
0.38
  9
$DIMRND
 40
0.0
  9
$DIMDLE
 40
0.0
  9
$DIMEXE
 40
0.18
  9
$DIMTP
 40
0.0
  9
$DIMTM
 40
0.0
  9
$DIMTXT
 40
0.18
  9
$DIMCEN
 40
0.09
  9
$DIMTSZ
 40
0.0
  9
$DIMTOL
 70
     0
  9
$DIMLIM
 70
     0
  9
$DIMTIH
 70
     1
  9
$DIMTOH
 70
     1
  9
$DIMSE1
 70
     0
  9
$DIMSE2
 70
     0
  9
$DIMTAD
 70
     0
  9
$DIMZIN
 70
     0
  9
$DIMBLK
  1

  9
$DIMASO
 70
     1
  9
$DIMSHO
 70
     1
  9
$DIMPOST
  1

  9
$DIMAPOST
  1

  9
$DIMALT
 70
     0
  9
$DIMALTD
 70
     2
  9
$DIMALTF
 40
25.4
  9
$DIMLFAC
 40
1.0
  9
$DIMTOFL
 70
     0
  9
$DIMTVP
 40
0.0
  9
$DIMTIX
 70
     0
  9
$DIMSOXD
 70
     0
  9
$DIMSAH
 70
     0
  9
$DIMBLK1
  1

  9
$DIMBLK2
  1

  9
$DIMSTYLE
  2
Standard
  9
$DIMCLRD
 70
     0
  9
$DIMCLRE
 70
     0
  9
$DIMCLRT
 70
     0
  9
$DIMTFAC
 40
1.0
  9
$DIMGAP
 40
0.09
  9
$DIMJUST
 70
     0
  9
$DIMSD1
 70
     0
  9
$DIMSD2
 70
     0
  9
$DIMTOLJ
 70
     1
  9
$DIMTZIN
 70
     0
  9
$DIMALTZ
 70
     0
  9
$DIMALTTZ
 70
     0
  9
$DIMUPT
 70
     0
  9
$DIMDEC
 70
     4
  9
$DIMTDEC
 70
     4
  9
$DIMALTU
 70
     2
  9
$DIMALTTD
 70
     2
  9
$DIMTXSTY
  7
Standard
  9
$DIMAUNIT
 70
     0
  9
$DIMADEC
 70
     0
  9
$DIMALTRND
 40
0.0
  9
$DIMAZIN
 70
     0
  9
$DIMDSEP
 70
    46
  9
$DIMATFIT
 70
     3
  9
$DIMFRAC
 70
     0
  9
$DIMLDRBLK
  1

  9
$DIMLUNIT
 70
     2
  9
$DIMLWD
 70
    -2
  9
$DIMLWE
 70
    -2
  9
$DIMTMOVE
 70
     0
  9
$DIMFXL
 40
1.0
  9
$DIMFXLON
 70
     0
  9
$DIMJOGANG
 40
0.7853981633974483
  9
$DIMTFILL
 70
     0
  9
$DIMTFILLCLR
 70
     0
  9
$DIMARCSYM
 70
     0
  9
$DIMLTYPE
  6

  9
$DIMLTEX1
  6

  9
$DIMLTEX2
  6

  9
$LUNITS
 70
     2
  9
$LUPREC
 70
     4
  9
$SKETCHINC
 40
0.1
  9
$FILLETRAD
 40
0.5
  9
$AUNITS
 70
     0
  9
$AUPREC
 70
     0
  9
$MENU
  1
.
  9
$ELEVATION
 40
0.0
  9
$PELEVATION
 40
0.0
  9
$THICKNESS
 40
0.0
  9
$LIMCHECK
 70
     0
  9
$CHAMFERA
 40
0.5
  9
$CHAMFERB
 40
0.5
  9
$CHAMFERC
 40
1.0
  9
$CHAMFERD
 40
0.0
  9
$SKPOLY
 70
     0
  9
$TDCREATE
 40
2458492.849343542
  9
$TDUCREATE
 40
2458492.849343542
  9
$TDUPDATE
 40
2458492.84934382
  9
$TDUUPDATE
 40
2458492.84934382
  9
$TDINDWG
 40
0.0000000116
  9
$TDUSRTIMER
 40
0.0000000116
  9
$USRTIMER
 70
     1
  9
$ANGBASE
 50
0.0
  9
$ANGDIR
 70
     0
  9
$PDMODE
 70
     0
  9
$PDSIZE
 40
0.0
  9
$PLINEWID
 40
0.0
  9
$SPLFRAME
 70
     0
  9
$SPLINETYPE
 70
     6
  9
$SPLINESEGS
 70
     8
  9
$HANDSEED
  5
C5
  9
$SURFTAB1
 70
     6
  9
$SURFTAB2
 70
     6
  9
$SURFTYPE
 70
     6
  9
$SURFU
 70
     6
  9
$SURFV
 70
     6
  9
$UCSBASE
  2

  9
$UCSNAME
  2

  9
$UCSORG
 10
0.0
 20
0.0
 30
0.0
  9
$UCSXDIR
 10
1.0
 20
0.0
 30
0.0
  9
$UCSYDIR
 10
0.0
 20
1.0
 30
0.0
  9
$UCSORTHOREF
  2

  9
$UCSORTHOVIEW
 70
     0
  9
$UCSORGTOP
 10
0.0
 20
0.0
 30
0.0
  9
$UCSORGBOTTOM
 10
0.0
 20
0.0
 30
0.0
  9
$UCSORGLEFT
 10
0.0
 20
0.0
 30
0.0
  9
$UCSORGRIGHT
 10
0.0
 20
0.0
 30
0.0
  9
$UCSORGFRONT
 10
0.0
 20
0.0
 30
0.0
  9
$UCSORGBACK
 10
0.0
 20
0.0
 30
0.0
  9
$PUCSBASE
  2

  9
$PUCSNAME
  2

  9
$PUCSORG
 10
0.0
 20
0.0
 30
0.0
  9
$PUCSXDIR
 10
1.0
 20
0.0
 30
0.0
  9
$PUCSYDIR
 10
0.0
 20
1.0
 30
0.0
  9
$PUCSORTHOREF
  2

  9
$PUCSORTHOVIEW
 70
     0
  9
$PUCSORGTOP
 10
0.0
 20
0.0
 30
0.0
  9
$PUCSORGBOTTOM
 10
0.0
 20
0.0
 30
0.0
  9
$PUCSORGLEFT
 10
0.0
 20
0.0
 30
0.0
  9
$PUCSORGRIGHT
 10
0.0
 20
0.0
 30
0.0
  9
$PUCSORGFRONT
 10
0.0
 20
0.0
 30
0.0
  9
$PUCSORGBACK
 10
0.0
 20
0.0
 30
0.0
  9
$USERI1
 70
     0
  9
$USERI2
 70
     0
  9
$USERI3
 70
     0
  9
$USERI4
 70
     0
  9
$USERI5
 70
     0
  9
$USERR1
 40
0.0
  9
$USERR2
 40
0.0
  9
$USERR3
 40
0.0
  9
$USERR4
 40
0.0
  9
$USERR5
 40
0.0
  9
$WORLDVIEW
 70
     1
  9
$SHADEDGE
 70
     3
  9
$SHADEDIF
 70
    70
  9
$TILEMODE
 70
     1
  9
$MAXACTVP
 70
    64
  9
$PINSBASE
 10
0.0
 20
0.0
 30
0.0
  9
$PLIMCHECK
 70
     0
  9
$PEXTMIN
 10
1.000000000000000E+20
 20
1.000000000000000E+20
 30
1.000000000000000E+20
  9
$PEXTMAX
 10
-1.000000000000000E+20
 20
-1.000000000000000E+20
 30
-1.000000000000000E+20
  9
$PLIMMIN
 10
0.0
 20
0.0
  9
$PLIMMAX
 10
12.0
 20
9.0
  9
$UNITMODE
 70
     0
  9
$VISRETAIN
 70
     1
  9
$PLINEGEN
 70
     0
  9
$PSLTSCALE
 70
     1
  9
$TREEDEPTH
 70
  3020
  9
$CMLSTYLE
  2
Standard
  9
$CMLJUST
 70
     0
  9
$CMLSCALE
 40
1.0
  9
$PROXYGRAPHICS
 70
     1
  9
$MEASUREMENT
 70
     0
  9
$CELWEIGHT
370
    -1
  9
$ENDCAPS
280
     0
  9
$JOINSTYLE
280
     0
  9
$LWDISPLAY
290
     0
  9
$INSUNITS
 70
     4
  9
$HYPERLINKBASE
  1

  9
$STYLESHEET
  1

  9
$XEDIT
290
     1
  9
$CEPSNTYPE
380
     0
  9
$PSTYLEMODE
290
     1
  9
$FINGERPRINTGUID
  2
{241C82F7-135A-4F38-A357-AC500189FA56}
  9
$VERSIONGUID
  2
{FAEB1C32-E019-11D5-929B-00C0DF256EC4}
  9
$EXTNAMES
290
     1
  9
$PSVPSCALE
 40
0.0
  9
$OLESTARTUP
290
     0
  9
$SORTENTS
280
   127
  9
$INDEXCTL
280
     0
  9
$HIDETEXT
280
     1
  9
$XCLIPFRAME
290
     0
  9
$HALOGAP
280
     0
  9
$OBSCOLOR
 70
   257
  9
$OBSLTYPE
280
     0
  9
$INTERSECTIONDISPLAY
280
     0
  9
$INTERSECTIONCOLOR
 70
   257
  9
$DIMASSOC
280
     2
  9
$PROJECTNAME
  1

  9
$CAMERADISPLAY
290
     0
  9
$LENSLENGTH
 40
50.0
  9
$CAMERAHEIGHT
 40
0.0
  9
$STEPSPERSEC
 40
2.0
  9
$STEPSIZE
 40
6.0
  9
$3DDWFPREC
 40
2.0
  9
$PSOLWIDTH
 40
0.25
  9
$PSOLHEIGHT
 40
4.0
  9
$LOFTANG1
 40
1.570796326794897
  9
$LOFTANG2
 40
1.570796326794897
  9
$LOFTMAG1
 40
0.0
  9
$LOFTMAG2
 40
0.0
  9
$LOFTPARAM
 70
     7
  9
$LOFTNORMALS
280
     1
  9
$LATITUDE
 40
37.795
  9
$LONGITUDE
 40
-122.394
  9
$NORTHDIRECTION
 40
0.0
  9
$TIMEZONE
 70
 -8000
  9
$LIGHTGLYPHDISPLAY
280
     1
  9
$TILEMODELIGHTSYNCH
280
     1
  9
$SOLIDHIST
280
     1
  9
$SHOWHIST
280
     1
  9
$DWFFRAME
280
     2
  9
$DGNFRAME
280
     2
  9
$REALWORLDSCALE
290
     1
  9
$INTERFERECOLOR
 62
   256
  9
$CSHADOW
280
     0
  9
$SHADOWPLANELOCATION
 40
0.0
  0
ENDSEC
  0
SECTION
  2
CLASSES
  0
CLASS
  1
ACDBDICTIONARYWDFLT
  2
AcDbDictionaryWithDefault
  3
ObjectDBX Classes
 90
        0
 91
        4
280
     0
281
     0
  0
CLASS
  1
VISUALSTYLE
  2
AcDbVisualStyle
  3
ObjectDBX Classes
 90
     4095
 91
        4
280
     0
281
     0
  0
CLASS
  1
MATERIAL
  2
AcDbMaterial
  3
ObjectDBX Classes
 90
     1153
 91
        4
280
     0
281
     0
  0
ENDSEC
  0
SECTION
  2
TABLES
  0
TABLE
  2
VPORT
  5
8
330
0
100
AcDbSymbolTable
 70
     1
  0
VPORT
  5
29
330
8
100
AcDbSymbolTableRecord
100
AcDbViewportTableRecord
  2
*Active
 70
     0
 10
0.0
 20
0.0
 11
1.0
 21
1.0
 12
10.42990654205607
 22
4.5
 13
0.0
 23
0.0
 14
0.5
 24
0.5
 15
0.5
 25
0.5
 16
0.0
 26
0.0
 36
1.0
 17
0.0
 27
0.0
 37
0.0
 40
9.0
 41
1.972972972850329
 42
50.0
 43
0.0
 44
0.0
 50
0.0
 51
0.0
 71
     0
 72
   100
 73
     1
 74
     3
 75
     0
 76
     0
 77
     0
 78
     0
281
     0
 65
     1
110
0.0
120
0.0
130
0.0
111
1.0
121
0.0
131
0.0
112
0.0
122
1.0
132
0.0
 79
     0
146
0.0
 60
     3
 61
     5
292
     1
282
     1
141
0.0
142
0.0
 63
   250
  0
ENDTAB
  0
TABLE
  2
LTYPE
  5
5
330
0
100
AcDbSymbolTable
 70
     1
  0
LTYPE
  5
14
330
5
100
AcDbSymbolTableRecord
100
AcDbLinetypeTableRecord
  2
ByBlock
 70
     0
  3

 72
    65
 73
     0
 40
0.0
  0
LTYPE
  5
15
330
5
100
AcDbSymbolTableRecord
100
AcDbLinetypeTableRecord
  2
ByLayer
 70
     0
  3

 72
    65
 73
     0
 40
0.0
  0
LTYPE
  5
16
330
5
100
AcDbSymbolTableRecord
100
AcDbLinetypeTableRecord
  2
Continuous
 70
     0
  3
Solid line
 72
    65
 73
     0
 40
0.0
  0
ENDTAB
  0
TABLE
  2
LAYER
  5
2
330
0
100
AcDbSymbolTable
 70
     2
  0
LAYER
  5
10
330
2
100
AcDbSymbolTableRecord
100
AcDbLayerTableRecord
  2
0
 70
     0
 62
     7
  6
Continuous
370
    -3
390
F
347
3E
  0
LAYER
  5
40
330
2
100
AcDbSymbolTableRecord
100
AcDbLayerTableRecord
  2
layer 1
 70
     0
 62
     7
  6
Continuous
370
    -3
390
F
347
3E
  0
ENDTAB
  0
TABLE
  2
STYLE
  5
3
330
0
100
AcDbSymbolTable
 70
     1
  0
STYLE
  5
11
330
3
100
AcDbSymbolTableRecord
100
AcDbTextStyleTableRecord
  2
Standard
 70
     0
 40
0.0
 41
1.0
 50
0.0
 71
     0
 42
0.2
  3
txt
  4

  0
ENDTAB
  0
TABLE
  2
VIEW
  5
6
330
0
100
AcDbSymbolTable
 70
     0
  0
ENDTAB
  0
TABLE
  2
UCS
  5
7
330
0
100
AcDbSymbolTable
 70
     0
  0
ENDTAB
  0
TABLE
  2
APPID
  5
9
330
0
100
AcDbSymbolTable
 70
     2
  0
APPID
  5
12
330
9
100
AcDbSymbolTableRecord
100
AcDbRegAppTableRecord
  2
ACAD
 70
     0
  0
APPID
  5
3F
330
9
100
AcDbSymbolTableRecord
100
AcDbRegAppTableRecord
  2
ODA
 70
     0
  0
ENDTAB
  0
TABLE
  2
DIMSTYLE
  5
A
330
0
100
AcDbSymbolTable
 70
     1
100
AcDbDimStyleTable
  0
DIMSTYLE
105
27
330
A
100
AcDbSymbolTableRecord
100
AcDbDimStyleTableRecord
  2
Standard
 70
     0
178
     0
340
11
  0
ENDTAB
  0
TABLE
  2
BLOCK_RECORD
  5
1
330
0
100
AcDbSymbolTable
 70
     1
  0
BLOCK_RECORD
  5
1F
330
1
100
AcDbSymbolTableRecord
100
AcDbBlockTableRecord
  2
*Model_Space
340
22
 70
     0
280
     1
281
     0
  0
BLOCK_RECORD
  5
1B
330
1
100
AcDbSymbolTableRecord
100
AcDbBlockTableRecord
  2
*Paper_Space
340
1E
 70
     0
280
     1
281
     0
  0
BLOCK_RECORD
  5
23
330
1
100
AcDbSymbolTableRecord
100
AcDbBlockTableRecord
  2
*Paper_Space0
340
26
 70
     0
280
     1
281
     0
  0
ENDTAB
  0
ENDSEC
  0
SECTION
  2
BLOCKS
  0
BLOCK
  5
20
330
1F
100
AcDbEntity
  8
0
100
AcDbBlockBegin
  2
*Model_Space
 70
     0
 10
0.0
 20
0.0
 30
0.0
  3
*Model_Space
  1

  0
ENDBLK
  5
21
330
1F
100
AcDbEntity
  8
0
100
AcDbBlockEnd
  0
BLOCK
  5
1C
330
1B
100
AcDbEntity
 67
     1
  8
0
100
AcDbBlockBegin
  2
*Paper_Space
 70
     0
 10
0.0
 20
0.0
 30
0.0
  3
*Paper_Space
  1

  0
ENDBLK
  5
1D
330
1B
100
AcDbEntity
 67
     1
  8
0
100
AcDbBlockEnd
  0
BLOCK
  5
24
330
23
100
AcDbEntity
  8
0
100
AcDbBlockBegin
  2
*Paper_Space0
 70
     0
 10
0.0
 20
0.0
 30
0.0
  3
*Paper_Space0
  1

  0
ENDBLK
  5
25
330
23
100
AcDbEntity
  8
0
100
AcDbBlockEnd
  0
ENDSEC
  0
SECTION
  2
ENTITIES
  0
SPLINE
  5
41
330
1F
100
AcDbEntity
  8
layer 1
 62
   250
100
AcDbSpline
210
0.0
220
0.0
230
1.0
 70
    11
 71
     3
 72
    20
 73
    16
 74
     0
 42
0.0000000001
 43
0.0000000001
 12
1.0
 22
0.0
 32
0.0
 13
1.0
 23
0.0
 33
0.0
 40
0.0
 40
0.0
 40
0.0
 40
0.0
 40
0.2
 40
0.2
 40
0.2
 40
0.2
 40
0.4
 40
0.4
 40
0.4
 40
0.4
 40
0.6
 40
0.6
 40
0.6
 40
0.6
 40
1.0
 40
1.0
 40
1.0
 40
1.0
 10
-187.3989
 20
-115.1543
 30
0.0
 10
-187.3989
 20
-115.1543
 30
0.0
 10
-187.3989
 20
131.8462
 30
0.0
 10
-187.3989
 20
131.8462
 30
0.0
 10
-187.3989
 20
131.8462
 30
0.0
 10
-187.3989
 20
131.8462
 30
0.0
 10
-32.2749
 20
131.8462
 30
0.0
 10
-32.2749
 20
131.8462
 30
0.0
 10
-32.2749
 20
131.8462
 30
0.0
 10
-32.2749
 20
131.8462
 30
0.0
 10
-32.2749
 20
-115.1543
 30
0.0
 10
-32.2749
 20
-115.1543
 30
0.0
 10
-32.2749
 20
-115.1543
 30
0.0
 10
-32.2749
 20
-115.1543
 30
0.0
 10
-187.3989
 20
-115.1543
 30
0.0
 10
-187.3989
 20
-115.1543
 30
0.0
  0
SPLINE
  5
42
330
1F
100
AcDbEntity
  8
layer 1
 62
     7
100
AcDbSpline
210
0.0
220
0.0
230
1.0
 70
    11
 71
     3
 72
    20
 73
    16
 74
     0
 42
0.0000000001
 43
0.0000000001
 12
1.0
 22
0.0
 32
0.0
 13
1.0
 23
0.0
 33
0.0
 40
0.0
 40
0.0
 40
0.0
 40
0.0
 40
0.2
 40
0.2
 40
0.2
 40
0.2
 40
0.4
 40
0.4
 40
0.4
 40
0.4
 40
0.6
 40
0.6
 40
0.6
 40
0.6
 40
1.0
 40
1.0
 40
1.0
 40
1.0
 10
-134.0372
 20
-94.7594
 30
0.0
 10
-135.368
 20
-92.3028
 30
0.0
 10
-137.3042
 20
-90.1975
 30
0.0
 10
-139.9662
 20
-88.6849
 30
0.0
 10
-139.9662
 20
-88.6849
 30
0.0
 10
-137.3042
 20
-87.1603
 30
0.0
 10
-135.368
 20
-85.055
 30
0.0
 10
-134.0372
 20
-82.5988
 30
0.0
 10
-134.0372
 20
-82.5988
 30
0.0
 10
-132.8271
 20
-85.055
 30
0.0
 10
-130.8909
 20
-87.1603
 30
0.0
 10
-128.2289
 20
-88.6849
 30
0.0
 10
-128.2289
 20
-88.6849
 30
0.0
 10
-130.8909
 20
-90.1975
 30
0.0
 10
-132.8271
 20
-92.3028
 30
0.0
 10
-134.0372
 20
-94.7594
 30
0.0
  0
SPLINE
  5
43
330
1F
100
AcDbEntity
  8
layer 1
 62
     7
100
AcDbSpline
210
0.0
220
0.0
230
1.0
 70
    11
 71
     3
 72
    28
 73
    24
 74
     0
 42
0.0000000001
 43
0.0000000001
 12
1.0
 22
0.0
 32
0.0
 13
1.0
 23
0.0
 33
0.0
 40
0.0
 40
0.0
 40
0.0
 40
0.0
 40
0.1428571428571428
 40
0.1428571428571428
 40
0.1428571428571428
 40
0.1428571428571428
 40
0.2857142857142857
 40
0.2857142857142857
 40
0.2857142857142857
 40
0.2857142857142857
 40
0.4285714285714285
 40
0.4285714285714285
 40
0.4285714285714285
 40
0.4285714285714285
 40
0.5714285714285714
 40
0.5714285714285714
 40
0.5714285714285714
 40
0.5714285714285714
 40
0.7142857142857143
 40
0.7142857142857143
 40
0.7142857142857143
 40
0.7142857142857143
 40
1.0
 40
1.0
 40
1.0
 40
1.0
 10
-130.2858
 20
-103.6893
 30
0.0
 10
-130.2858
 20
-103.6893
 30
0.0
 10
-130.2858
 20
-98.3166
 30
0.0
 10
-130.2858
 20
-98.3166
 30
0.0
 10
-130.2858
 20
-98.3166
 30
0.0
 10
-128.2289
 20
-93.5009
 30
0.0
 10
-123.9939
 20
-91.456
 30
0.0
 10
-119.1539
 20
-91.5043
 30
0.0
 10
-119.1539
 20
-91.5043
 30
0.0
 10
-119.1539
 20
-91.5043
 30
0.0
 10
-119.1539
 20
-97.9901
 30
0.0
 10
-119.1539
 20
-97.9901
 30
0.0
 10
-119.1539
 20
-97.9901
 30
0.0
 10
-119.1539
 20
-97.9901
 30
0.0
 10
-112.6198
 20
-98.0021
 30
0.0
 10
-112.6198
 20
-98.0021
 30
0.0
 10
-112.6198
 20
-98.0021
 30
0.0
 10
-112.6198
 20
-100.047
 30
0.0
 10
-112.9827
 20
-101.9832
 30
0.0
 10
-113.8299
 20
-103.6893
 30
0.0
 10
-113.8299
 20
-103.6893
 30
0.0
 10
-113.8299
 20
-103.6893
 30
0.0
 10
-130.2858
 20
-103.6893
 30
0.0
 10
-130.2858
 20
-103.6893
 30
0.0
  0
SPLINE
  5
44
330
1F
100
AcDbEntity
  8
layer 1
 62
     7
100
AcDbSpline
210
0.0
220
0.0
230
1.0
 70
    11
 71
     3
 72
    28
 73
    24
 74
     0
 42
0.0000000001
 43
0.0000000001
 12
1.0
 22
0.0
 32
0.0
 13
1.0
 23
0.0
 33
0.0
 40
0.0
 40
0.0
 40
0.0
 40
0.0
 40
0.1428571428571428
 40
0.1428571428571428
 40
0.1428571428571428
 40
0.1428571428571428
 40
0.2857142857142857
 40
0.2857142857142857
 40
0.2857142857142857
 40
0.2857142857142857
 40
0.4285714285714285
 40
0.4285714285714285
 40
0.4285714285714285
 40
0.4285714285714285
 40
0.5714285714285714
 40
0.5714285714285714
 40
0.5714285714285714
 40
0.5714285714285714
 40
0.7142857142857143
 40
0.7142857142857143
 40
0.7142857142857143
 40
0.7142857142857143
 40
1.0
 40
1.0
 40
1.0
 40
1.0
 10
-105.9646
 20
-103.6893
 30
0.0
 10
-106.6907
 20
-101.9832
 30
0.0
 10
-107.0536
 20
-100.047
 30
0.0
 10
-107.0536
 20
-98.0021
 30
0.0
 10
-107.0536
 20
-98.0021
 30
0.0
 10
-107.0536
 20
-98.0021
 30
0.0
 10
-100.5196
 20
-98.0021
 30
0.0
 10
-100.5196
 20
-98.0021
 30
0.0
 10
-100.5196
 20
-98.0021
 30
0.0
 10
-100.5196
 20
-98.0021
 30
0.0
 10
-100.5196
 20
-91.5043
 30
0.0
 10
-100.5196
 20
-91.5043
 30
0.0
 10
-100.5196
 20
-91.5043
 30
0.0
 10
-95.6795
 20
-91.456
 30
0.0
 10
-91.5656
 20
-93.5009
 30
0.0
 10
-89.3876
 20
-98.3166
 30
0.0
 10
-89.3876
 20
-98.3166
 30
0.0
 10
-89.3876
 20
-98.3166
 30
0.0
 10
-89.3876
 20
-103.6893
 30
0.0
 10
-89.3876
 20
-103.6893
 30
0.0
 10
-89.3876
 20
-103.6893
 30
0.0
 10
-89.3876
 20
-103.6893
 30
0.0
 10
-105.9646
 20
-103.6893
 30
0.0
 10
-105.9646
 20
-103.6893
 30
0.0
  0
SPLINE
  5
45
330
1F
100
AcDbEntity
  8
layer 1
 62
     7
100
AcDbSpline
210
0.0
220
0.0
230
1.0
 70
    11
 71
     3
 72
    28
 73
    24
 74
     0
 42
0.0000000001
 43
0.0000000001
 12
1.0
 22
0.0
 32
0.0
 13
1.0
 23
0.0
 33
0.0
 40
0.0
 40
0.0
 40
0.0
 40
0.0
 40
0.1428571428571428
 40
0.1428571428571428
 40
0.1428571428571428
 40
0.1428571428571428
 40
0.2857142857142857
 40
0.2857142857142857
 40
0.2857142857142857
 40
0.2857142857142857
 40
0.4285714285714285
 40
0.4285714285714285
 40
0.4285714285714285
 40
0.4285714285714285
 40
0.5714285714285714
 40
0.5714285714285714
 40
0.5714285714285714
 40
0.5714285714285714
 40
0.7142857142857143
 40
0.7142857142857143
 40
0.7142857142857143
 40
0.7142857142857143
 40
1.0
 40
1.0
 40
1.0
 40
1.0
 10
-89.3876
 20
-68.2598
 30
0.0
 10
-89.3876
 20
-68.2598
 30
0.0
 10
-89.3876
 20
-79.0532
 30
0.0
 10
-89.3876
 20
-79.0532
 30
0.0
 10
-89.3876
 20
-79.0532
 30
0.0
 10
-91.5656
 20
-83.8569
 30
0.0
 10
-95.6795
 20
-85.9018
 30
0.0
 10
-100.5196
 20
-85.8658
 30
0.0
 10
-100.5196
 20
-85.8658
 30
0.0
 10
-100.5196
 20
-85.8658
 30
0.0
 10
-100.5196
 20
-79.3677
 30
0.0
 10
-100.5196
 20
-79.3677
 30
0.0
 10
-100.5196
 20
-79.3677
 30
0.0
 10
-100.5196
 20
-79.3677
 30
0.0
 10
-107.0536
 20
-79.3677
 30
0.0
 10
-107.0536
 20
-79.3677
 30
0.0
 10
-107.0536
 20
-79.3677
 30
0.0
 10
-107.0536
 20
-74.5157
 30
0.0
 10
-104.9967
 20
-70.3171
 30
0.0
 10
-100.2777
 20
-68.2598
 30
0.0
 10
-100.2777
 20
-68.2598
 30
0.0
 10
-100.2777
 20
-68.2598
 30
0.0
 10
-89.3876
 20
-68.2598
 30
0.0
 10
-89.3876
 20
-68.2598
 30
0.0
  0
SPLINE
  5
46
330
1F
100
AcDbEntity
  8
layer 1
 62
     7
100
AcDbSpline
210
0.0
220
0.0
230
1.0
 70
    11
 71
     3
 72
    28
 73
    24
 74
     0
 42
0.0000000001
 43
0.0000000001
 12
1.0
 22
0.0
 32
0.0
 13
1.0
 23
0.0
 33
0.0
 40
0.0
 40
0.0
 40
0.0
 40
0.0
 40
0.1428571428571428
 40
0.1428571428571428
 40
0.1428571428571428
 40
0.1428571428571428
 40
0.2857142857142857
 40
0.2857142857142857
 40
0.2857142857142857
 40
0.2857142857142857
 40
0.4285714285714285
 40
0.4285714285714285
 40
0.4285714285714285
 40
0.4285714285714285
 40
0.5714285714285714
 40
0.5714285714285714
 40
0.5714285714285714
 40
0.5714285714285714
 40
0.7142857142857143
 40
0.7142857142857143
 40
0.7142857142857143
 40
0.7142857142857143
 40
1.0
 40
1.0
 40
1.0
 40
1.0
 10
-130.2858
 20
-68.2598
 30
0.0
 10
-130.2858
 20
-68.2598
 30
0.0
 10
-119.5168
 20
-68.2598
 30
0.0
 10
-119.5168
 20
-68.2598
 30
0.0
 10
-119.5168
 20
-68.2598
 30
0.0
 10
-114.6767
 20
-70.3171
 30
0.0
 10
-112.6198
 20
-74.5157
 30
0.0
 10
-112.6198
 20
-79.3677
 30
0.0
 10
-112.6198
 20
-79.3677
 30
0.0
 10
-112.6198
 20
-79.3677
 30
0.0
 10
-119.1539
 20
-79.3677
 30
0.0
 10
-119.1539
 20
-79.3677
 30
0.0
 10
-119.1539
 20
-79.3677
 30
0.0
 10
-119.1539
 20
-79.3677
 30
0.0
 10
-119.1539
 20
-85.8535
 30
0.0
 10
-119.1539
 20
-85.8535
 30
0.0
 10
-119.1539
 20
-85.8535
 30
0.0
 10
-123.9939
 20
-85.9018
 30
0.0
 10
-128.2289
 20
-83.8569
 30
0.0
 10
-130.2858
 20
-79.0532
 30
0.0
 10
-130.2858
 20
-79.0532
 30
0.0
 10
-130.2858
 20
-79.0532
 30
0.0
 10
-130.2858
 20
-68.2598
 30
0.0
 10
-130.2858
 20
-68.2598
 30
0.0
  0
SPLINE
  5
47
330
1F
100
AcDbEntity
  8
layer 1
 62
     7
100
AcDbSpline
210
0.0
220
0.0
230
1.0
 70
    11
 71
     3
 72
    20
 73
    16
 74
     0
 42
0.0000000001
 43
0.0000000001
 12
1.0
 22
0.0
 32
0.0
 13
1.0
 23
0.0
 33
0.0
 40
0.0
 40
0.0
 40
0.0
 40
0.0
 40
0.2
 40
0.2
 40
0.2
 40
0.2
 40
0.4
 40
0.4
 40
0.4
 40
0.4
 40
0.6
 40
0.6
 40
0.6
 40
0.6
 40
1.0
 40
1.0
 40
1.0
 40
1.0
 10
-115.4029
 20
-94.2147
 30
0.0
 10
-115.4029
 20
-94.2147
 30
0.0
 10
-115.4029
 20
-83.1445
 30
0.0
 10
-115.4029
 20
-83.1445
 30
0.0
 10
-115.4029
 20
-83.1445
 30
0.0
 10
-115.4029
 20
-83.1445
 30
0.0
 10
-104.3337
 20
-83.1445
 30
0.0
 10
-104.3337
 20
-83.1445
 30
0.0
 10
-104.3337
 20
-83.1445
 30
0.0
 10
-104.3337
 20
-83.1445
 30
0.0
 10
-104.3337
 20
-94.2147
 30
0.0
 10
-104.3337
 20
-94.2147
 30
0.0
 10
-104.3337
 20
-94.2147
 30
0.0
 10
-104.3337
 20
-94.2147
 30
0.0
 10
-115.4029
 20
-94.2147
 30
0.0
 10
-115.4029
 20
-94.2147
 30
0.0
  0
SPLINE
  5
48
330
1F
100
AcDbEntity
  8
layer 1
 62
     7
100
AcDbSpline
210
0.0
220
0.0
230
1.0
 70
    11
 71
     3
 72
    20
 73
    16
 74
     0
 42
0.0000000001
 43
0.0000000001
 12
1.0
 22
0.0
 32
0.0
 13
1.0
 23
0.0
 33
0.0
 40
0.0
 40
0.0
 40
0.0
 40
0.0
 40
0.2
 40
0.2
 40
0.2
 40
0.2
 40
0.4
 40
0.4
 40
0.4
 40
0.4
 40
0.6
 40
0.6
 40
0.6
 40
0.6
 40
1.0
 40
1.0
 40
1.0
 40
1.0
 10
-115.8868
 20
-64.3877
 30
0.0
 10
-113.4666
 20
-63.1779
 30
0.0
 10
-111.4097
 20
-61.2417
 30
0.0
 10
-109.8367
 20
-58.5797
 30
0.0
 10
-109.8367
 20
-58.5797
 30
0.0
 10
-108.3848
 20
-61.2417
 30
0.0
 10
-106.2068
 20
-63.1779
 30
0.0
 10
-103.7866
 20
-64.3877
 30
0.0
 10
-103.7866
 20
-64.3877
 30
0.0
 10
-106.2068
 20
-65.7189
 30
0.0
 10
-108.3848
 20
-67.6547
 30
0.0
 10
-109.8367
 20
-70.3171
 30
0.0
 10
-109.8367
 20
-70.3171
 30
0.0
 10
-111.4097
 20
-67.6547
 30
0.0
 10
-113.4666
 20
-65.7189
 30
0.0
 10
-115.8868
 20
-64.3877
 30
0.0
  0
SPLINE
  5
49
330
1F
100
AcDbEntity
  8
layer 1
 62
     7
100
AcDbSpline
210
0.0
220
0.0
230
1.0
 70
    11
 71
     3
 72
    20
 73
    16
 74
     0
 42
0.0000000001
 43
0.0000000001
 12
1.0
 22
0.0
 32
0.0
 13
1.0
 23
0.0
 33
0.0
 40
0.0
 40
0.0
 40
0.0
 40
0.0
 40
0.2
 40
0.2
 40
0.2
 40
0.2
 40
0.4
 40
0.4
 40
0.4
 40
0.4
 40
0.6
 40
0.6
 40
0.6
 40
0.6
 40
1.0
 40
1.0
 40
1.0
 40
1.0
 10
-134.0372
 20
-46.2377
 30
0.0
 10
-135.368
 20
-43.8175
 30
0.0
 10
-137.3042
 20
-41.6395
 30
0.0
 10
-139.9662
 20
-40.1876
 30
0.0
 10
-139.9662
 20
-40.1876
 30
0.0
 10
-137.3042
 20
-38.6146
 30
0.0
 10
-135.368
 20
-36.5576
 30
0.0
 10
-134.0372
 20
-34.1374
 30
0.0
 10
-134.0372
 20
-34.1374
 30
0.0
 10
-132.8271
 20
-36.5576
 30
0.0
 10
-130.8909
 20
-38.6146
 30
0.0
 10
-128.2289
 20
-40.1876
 30
0.0
 10
-128.2289
 20
-40.1876
 30
0.0
 10
-130.8909
 20
-41.6395
 30
0.0
 10
-132.8271
 20
-43.8175
 30
0.0
 10
-134.0372
 20
-46.2377
 30
0.0
  0
SPLINE
  5
4A
330
1F
100
AcDbEntity
  8
layer 1
 62
     7
100
AcDbSpline
210
0.0
220
0.0
230
1.0
 70
    11
 71
     3
 72
    28
 73
    24
 74
     0
 42
0.0000000001
 43
0.0000000001
 12
1.0
 22
0.0
 32
0.0
 13
1.0
 23
0.0
 33
0.0
 40
0.0
 40
0.0
 40
0.0
 40
0.0
 40
0.1428571428571428
 40
0.1428571428571428
 40
0.1428571428571428
 40
0.1428571428571428
 40
0.2857142857142857
 40
0.2857142857142857
 40
0.2857142857142857
 40
0.2857142857142857
 40
0.4285714285714285
 40
0.4285714285714285
 40
0.4285714285714285
 40
0.4285714285714285
 40
0.5714285714285714
 40
0.5714285714285714
 40
0.5714285714285714
 40
0.5714285714285714
 40
0.7142857142857143
 40
0.7142857142857143
 40
0.7142857142857143
 40
0.7142857142857143
 40
1.0
 40
1.0
 40
1.0
 40
1.0
 10
-130.2858
 20
-60.6367
 30
0.0
 10
-130.2858
 20
-60.6367
 30
0.0
 10
-130.2858
 20
-49.7465
 30
0.0
 10
-130.2858
 20
-49.7465
 30
0.0
 10
-130.2858
 20
-49.7465
 30
0.0
 10
-128.2289
 20
-45.0276
 30
0.0
 10
-123.9939
 20
-42.9706
 30
0.0
 10
-119.1539
 20
-42.9706
 30
0.0
 10
-119.1539
 20
-42.9706
 30
0.0
 10
-119.1539
 20
-42.9706
 30
0.0
 10
-119.1539
 20
-49.5047
 30
0.0
 10
-119.1539
 20
-49.5047
 30
0.0
 10
-119.1539
 20
-49.5047
 30
0.0
 10
-119.1539
 20
-49.5047
 30
0.0
 10
-112.6198
 20
-49.5047
 30
0.0
 10
-112.6198
 20
-49.5047
 30
0.0
 10
-112.6198
 20
-49.5047
 30
0.0
 10
-112.6198
 20
-54.3448
 30
0.0
 10
-114.6767
 20
-58.4587
 30
0.0
 10
-119.5168
 20
-60.6367
 30
0.0
 10
-119.5168
 20
-60.6367
 30
0.0
 10
-119.5168
 20
-60.6367
 30
0.0
 10
-130.2858
 20
-60.6367
 30
0.0
 10
-130.2858
 20
-60.6367
 30
0.0
  0
SPLINE
  5
4B
330
1F
100
AcDbEntity
  8
layer 1
 62
     7
100
AcDbSpline
210
0.0
220
0.0
230
1.0
 70
    11
 71
     3
 72
    28
 73
    24
 74
     0
 42
0.0000000001
 43
0.0000000001
 12
1.0
 22
0.0
 32
0.0
 13
1.0
 23
0.0
 33
0.0
 40
0.0
 40
0.0
 40
0.0
 40
0.0
 40
0.1428571428571428
 40
0.1428571428571428
 40
0.1428571428571428
 40
0.1428571428571428
 40
0.2857142857142857
 40
0.2857142857142857
 40
0.2857142857142857
 40
0.2857142857142857
 40
0.4285714285714285
 40
0.4285714285714285
 40
0.4285714285714285
 40
0.4285714285714285
 40
0.5714285714285714
 40
0.5714285714285714
 40
0.5714285714285714
 40
0.5714285714285714
 40
0.7142857142857143
 40
0.7142857142857143
 40
0.7142857142857143
 40
0.7142857142857143
 40
1.0
 40
1.0
 40
1.0
 40
1.0
 10
-89.3876
 20
-60.6367
 30
0.0
 10
-89.3876
 20
-60.6367
 30
0.0
 10
-100.2777
 20
-60.6367
 30
0.0
 10
-100.2777
 20
-60.6367
 30
0.0
 10
-100.2777
 20
-60.6367
 30
0.0
 10
-104.9967
 20
-58.4587
 30
0.0
 10
-107.0536
 20
-54.3448
 30
0.0
 10
-107.0536
 20
-49.5047
 30
0.0
 10
-107.0536
 20
-49.5047
 30
0.0
 10
-107.0536
 20
-49.5047
 30
0.0
 10
-100.5196
 20
-49.5047
 30
0.0
 10
-100.5196
 20
-49.5047
 30
0.0
 10
-100.5196
 20
-49.5047
 30
0.0
 10
-100.5196
 20
-49.5047
 30
0.0
 10
-100.5196
 20
-42.9706
 30
0.0
 10
-100.5196
 20
-42.9706
 30
0.0
 10
-100.5196
 20
-42.9706
 30
0.0
 10
-95.6795
 20
-42.9706
 30
0.0
 10
-91.5656
 20
-45.0276
 30
0.0
 10
-89.3876
 20
-49.8676
 30
0.0
 10
-89.3876
 20
-49.8676
 30
0.0
 10
-89.3876
 20
-49.8676
 30
0.0
 10
-89.3876
 20
-60.6367
 30
0.0
 10
-89.3876
 20
-60.6367
 30
0.0
  0
SPLINE
  5
4C
330
1F
100
AcDbEntity
  8
layer 1
 62
     7
100
AcDbSpline
210
0.0
220
0.0
230
1.0
 70
    11
 71
     3
 72
    28
 73
    24
 74
     0
 42
0.0000000001
 43
0.0000000001
 12
1.0
 22
0.0
 32
0.0
 13
1.0
 23
0.0
 33
0.0
 40
0.0
 40
0.0
 40
0.0
 40
0.0
 40
0.1428571428571428
 40
0.1428571428571428
 40
0.1428571428571428
 40
0.1428571428571428
 40
0.2857142857142857
 40
0.2857142857142857
 40
0.2857142857142857
 40
0.2857142857142857
 40
0.4285714285714285
 40
0.4285714285714285
 40
0.4285714285714285
 40
0.4285714285714285
 40
0.5714285714285714
 40
0.5714285714285714
 40
0.5714285714285714
 40
0.5714285714285714
 40
0.7142857142857143
 40
0.7142857142857143
 40
0.7142857142857143
 40
0.7142857142857143
 40
1.0
 40
1.0
 40
1.0
 40
1.0
 10
-89.3876
 20
-19.7381
 30
0.0
 10
-89.3876
 20
-19.7381
 30
0.0
 10
-89.3876
 20
-30.5075
 30
0.0
 10
-89.3876
 20
-30.5075
 30
0.0
 10
-89.3876
 20
-30.5075
 30
0.0
 10
-91.5656
 20
-35.3475
 30
0.0
 10
-95.6795
 20
-37.4045
 30
0.0
 10
-100.5196
 20
-37.4045
 30
0.0
 10
-100.5196
 20
-37.4045
 30
0.0
 10
-100.5196
 20
-37.4045
 30
0.0
 10
-100.5196
 20
-30.8704
 30
0.0
 10
-100.5196
 20
-30.8704
 30
0.0
 10
-100.5196
 20
-30.8704
 30
0.0
 10
-100.5196
 20
-30.8704
 30
0.0
 10
-107.0536
 20
-30.8704
 30
0.0
 10
-107.0536
 20
-30.8704
 30
0.0
 10
-107.0536
 20
-30.8704
 30
0.0
 10
-107.0536
 20
-26.0304
 30
0.0
 10
-104.9967
 20
-21.7954
 30
0.0
 10
-100.2777
 20
-19.7381
 30
0.0
 10
-100.2777
 20
-19.7381
 30
0.0
 10
-100.2777
 20
-19.7381
 30
0.0
 10
-89.3876
 20
-19.7381
 30
0.0
 10
-89.3876
 20
-19.7381
 30
0.0
  0
SPLINE
  5
4D
330
1F
100
AcDbEntity
  8
layer 1
 62
     7
100
AcDbSpline
210
0.0
220
0.0
230
1.0
 70
    11
 71
     3
 72
    28
 73
    24
 74
     0
 42
0.0000000001
 43
0.0000000001
 12
1.0
 22
0.0
 32
0.0
 13
1.0
 23
0.0
 33
0.0
 40
0.0
 40
0.0
 40
0.0
 40
0.0
 40
0.1428571428571428
 40
0.1428571428571428
 40
0.1428571428571428
 40
0.1428571428571428
 40
0.2857142857142857
 40
0.2857142857142857
 40
0.2857142857142857
 40
0.2857142857142857
 40
0.4285714285714285
 40
0.4285714285714285
 40
0.4285714285714285
 40
0.4285714285714285
 40
0.5714285714285714
 40
0.5714285714285714
 40
0.5714285714285714
 40
0.5714285714285714
 40
0.7142857142857143
 40
0.7142857142857143
 40
0.7142857142857143
 40
0.7142857142857143
 40
1.0
 40
1.0
 40
1.0
 40
1.0
 10
-130.2858
 20
-19.7381
 30
0.0
 10
-130.2858
 20
-19.7381
 30
0.0
 10
-119.5168
 20
-19.7381
 30
0.0
 10
-119.5168
 20
-19.7381
 30
0.0
 10
-119.5168
 20
-19.7381
 30
0.0
 10
-114.6767
 20
-21.7954
 30
0.0
 10
-112.6198
 20
-26.0304
 30
0.0
 10
-112.6198
 20
-30.8704
 30
0.0
 10
-112.6198
 20
-30.8704
 30
0.0
 10
-112.6198
 20
-30.8704
 30
0.0
 10
-119.1539
 20
-30.8704
 30
0.0
 10
-119.1539
 20
-30.8704
 30
0.0
 10
-119.1539
 20
-30.8704
 30
0.0
 10
-119.1539
 20
-30.8704
 30
0.0
 10
-119.1539
 20
-37.4045
 30
0.0
 10
-119.1539
 20
-37.4045
 30
0.0
 10
-119.1539
 20
-37.4045
 30
0.0
 10
-123.9939
 20
-37.4045
 30
0.0
 10
-128.2289
 20
-35.3475
 30
0.0
 10
-130.2858
 20
-30.5075
 30
0.0
 10
-130.2858
 20
-30.5075
 30
0.0
 10
-130.2858
 20
-30.5075
 30
0.0
 10
-130.2858
 20
-19.7381
 30
0.0
 10
-130.2858
 20
-19.7381
 30
0.0
  0
SPLINE
  5
4E
330
1F
100
AcDbEntity
  8
layer 1
 62
     7
100
AcDbSpline
210
0.0
220
0.0
230
1.0
 70
    11
 71
     3
 72
    20
 73
    16
 74
     0
 42
0.0000000001
 43
0.0000000001
 12
1.0
 22
0.0
 32
0.0
 13
1.0
 23
0.0
 33
0.0
 40
0.0
 40
0.0
 40
0.0
 40
0.0
 40
0.2
 40
0.2
 40
0.2
 40
0.2
 40
0.4
 40
0.4
 40
0.4
 40
0.4
 40
0.6
 40
0.6
 40
0.6
 40
0.6
 40
1.0
 40
1.0
 40
1.0
 40
1.0
 10
-115.4029
 20
-45.7537
 30
0.0
 10
-115.4029
 20
-45.7537
 30
0.0
 10
-115.4029
 20
-34.6845
 30
0.0
 10
-115.4029
 20
-34.6845
 30
0.0
 10
-115.4029
 20
-34.6845
 30
0.0
 10
-115.4029
 20
-34.6845
 30
0.0
 10
-104.3337
 20
-34.6845
 30
0.0
 10
-104.3337
 20
-34.6845
 30
0.0
 10
-104.3337
 20
-34.6845
 30
0.0
 10
-104.3337
 20
-34.6845
 30
0.0
 10
-104.3337
 20
-45.7537
 30
0.0
 10
-104.3337
 20
-45.7537
 30
0.0
 10
-104.3337
 20
-45.7537
 30
0.0
 10
-104.3337
 20
-45.7537
 30
0.0
 10
-115.4029
 20
-45.7537
 30
0.0
 10
-115.4029
 20
-45.7537
 30
0.0
  0
SPLINE
  5
4F
330
1F
100
AcDbEntity
  8
layer 1
 62
     7
100
AcDbSpline
210
0.0
220
0.0
230
1.0
 70
    11
 71
     3
 72
    20
 73
    16
 74
     0
 42
0.0000000001
 43
0.0000000001
 12
1.0
 22
0.0
 32
0.0
 13
1.0
 23
0.0
 33
0.0
 40
0.0
 40
0.0
 40
0.0
 40
0.0
 40
0.2
 40
0.2
 40
0.2
 40
0.2
 40
0.4
 40
0.4
 40
0.4
 40
0.4
 40
0.6
 40
0.6
 40
0.6
 40
0.6
 40
1.0
 40
1.0
 40
1.0
 40
1.0
 10
-85.6362
 20
-94.7594
 30
0.0
 10
-86.8463
 20
-92.3028
 30
0.0
 10
-88.9033
 20
-90.1975
 30
0.0
 10
-91.4445
 20
-88.6849
 30
0.0
 10
-91.4445
 20
-88.6849
 30
0.0
 10
-88.9033
 20
-87.1603
 30
0.0
 10
-86.8463
 20
-85.055
 30
0.0
 10
-85.6362
 20
-82.5988
 30
0.0
 10
-85.6362
 20
-82.5988
 30
0.0
 10
-84.3054
 20
-85.055
 30
0.0
 10
-82.3692
 20
-87.1603
 30
0.0
 10
-79.7072
 20
-88.6849
 30
0.0
 10
-79.7072
 20
-88.6849
 30
0.0
 10
-82.3692
 20
-90.1975
 30
0.0
 10
-84.3054
 20
-92.3028
 30
0.0
 10
-85.6362
 20
-94.7594
 30
0.0
  0
SPLINE
  5
50
330
1F
100
AcDbEntity
  8
layer 1
 62
     7
100
AcDbSpline
210
0.0
220
0.0
230
1.0
 70
    11
 71
     3
 72
    28
 73
    24
 74
     0
 42
0.0000000001
 43
0.0000000001
 12
1.0
 22
0.0
 32
0.0
 13
1.0
 23
0.0
 33
0.0
 40
0.0
 40
0.0
 40
0.0
 40
0.0
 40
0.1428571428571428
 40
0.1428571428571428
 40
0.1428571428571428
 40
0.1428571428571428
 40
0.2857142857142857
 40
0.2857142857142857
 40
0.2857142857142857
 40
0.2857142857142857
 40
0.4285714285714285
 40
0.4285714285714285
 40
0.4285714285714285
 40
0.4285714285714285
 40
0.5714285714285714
 40
0.5714285714285714
 40
0.5714285714285714
 40
0.5714285714285714
 40
0.7142857142857143
 40
0.7142857142857143
 40
0.7142857142857143
 40
0.7142857142857143
 40
1.0
 40
1.0
 40
1.0
 40
1.0
 10
-81.7645
 20
-103.6893
 30
0.0
 10
-81.7645
 20
-103.6893
 30
0.0
 10
-81.7645
 20
-98.3166
 30
0.0
 10
-81.7645
 20
-98.3166
 30
0.0
 10
-81.7645
 20
-98.3166
 30
0.0
 10
-79.7072
 20
-93.5009
 30
0.0
 10
-75.4722
 20
-91.456
 30
0.0
 10
-70.6322
 20
-91.5043
 30
0.0
 10
-70.6322
 20
-91.5043
 30
0.0
 10
-70.6322
 20
-91.5043
 30
0.0
 10
-70.6322
 20
-97.9901
 30
0.0
 10
-70.6322
 20
-97.9901
 30
0.0
 10
-70.6322
 20
-97.9901
 30
0.0
 10
-70.6322
 20
-97.9901
 30
0.0
 10
-64.2192
 20
-98.0021
 30
0.0
 10
-64.2192
 20
-98.0021
 30
0.0
 10
-64.2192
 20
-98.0021
 30
0.0
 10
-64.0981
 20
-100.047
 30
0.0
 10
-64.461
 20
-101.9832
 30
0.0
 10
-65.3082
 20
-103.6893
 30
0.0
 10
-65.3082
 20
-103.6893
 30
0.0
 10
-65.3082
 20
-103.6893
 30
0.0
 10
-81.7645
 20
-103.6893
 30
0.0
 10
-81.7645
 20
-103.6893
 30
0.0
  0
SPLINE
  5
51
330
1F
100
AcDbEntity
  8
layer 1
 62
     7
100
AcDbSpline
210
0.0
220
0.0
230
1.0
 70
    11
 71
     3
 72
    28
 73
    24
 74
     0
 42
0.0000000001
 43
0.0000000001
 12
1.0
 22
0.0
 32
0.0
 13
1.0
 23
0.0
 33
0.0
 40
0.0
 40
0.0
 40
0.0
 40
0.0
 40
0.1428571428571428
 40
0.1428571428571428
 40
0.1428571428571428
 40
0.1428571428571428
 40
0.2857142857142857
 40
0.2857142857142857
 40
0.2857142857142857
 40
0.2857142857142857
 40
0.4285714285714285
 40
0.4285714285714285
 40
0.4285714285714285
 40
0.4285714285714285
 40
0.5714285714285714
 40
0.5714285714285714
 40
0.5714285714285714
 40
0.5714285714285714
 40
0.7142857142857143
 40
0.7142857142857143
 40
0.7142857142857143
 40
0.7142857142857143
 40
1.0
 40
1.0
 40
1.0
 40
1.0
 10
-57.4429
 20
-103.6893
 30
0.0
 10
-58.1691
 20
-101.9832
 30
0.0
 10
-58.532
 20
-100.047
 30
0.0
 10
-58.532
 20
-98.0021
 30
0.0
 10
-58.532
 20
-98.0021
 30
0.0
 10
-58.532
 20
-98.0021
 30
0.0
 10
-51.9979
 20
-98.0021
 30
0.0
 10
-51.9979
 20
-98.0021
 30
0.0
 10
-51.9979
 20
-98.0021
 30
0.0
 10
-51.9979
 20
-98.0021
 30
0.0
 10
-51.9979
 20
-91.5043
 30
0.0
 10
-51.9979
 20
-91.5043
 30
0.0
 10
-51.9979
 20
-91.5043
 30
0.0
 10
-48.8519
 20
-91.468
 30
0.0
 10
-45.9477
 20
-92.3272
 30
0.0
 10
-43.7697
 20
-94.2754
 30
0.0
 10
-43.7697
 20
-94.2754
 30
0.0
 10
-43.7697
 20
-94.2754
 30
0.0
 10
-43.7697
 20
-103.6893
 30
0.0
 10
-43.7697
 20
-103.6893
 30
0.0
 10
-43.7697
 20
-103.6893
 30
0.0
 10
-43.7697
 20
-103.6893
 30
0.0
 10
-57.4429
 20
-103.6893
 30
0.0
 10
-57.4429
 20
-103.6893
 30
0.0
  0
SPLINE
  5
52
330
1F
100
AcDbEntity
  8
layer 1
 62
     7
100
AcDbSpline
210
0.0
220
0.0
230
1.0
 70
    11
 71
     3
 72
    28
 73
    24
 74
     0
 42
0.0000000001
 43
0.0000000001
 12
1.0
 22
0.0
 32
0.0
 13
1.0
 23
0.0
 33
0.0
 40
0.0
 40
0.0
 40
0.0
 40
0.0
 40
0.1428571428571428
 40
0.1428571428571428
 40
0.1428571428571428
 40
0.1428571428571428
 40
0.2857142857142857
 40
0.2857142857142857
 40
0.2857142857142857
 40
0.2857142857142857
 40
0.4285714285714285
 40
0.4285714285714285
 40
0.4285714285714285
 40
0.4285714285714285
 40
0.5714285714285714
 40
0.5714285714285714
 40
0.5714285714285714
 40
0.5714285714285714
 40
0.7142857142857143
 40
0.7142857142857143
 40
0.7142857142857143
 40
0.7142857142857143
 40
1.0
 40
1.0
 40
1.0
 40
1.0
 10
-43.7697
 20
-83.0947
 30
0.0
 10
-45.9477
 20
-85.0306
 30
0.0
 10
-48.8519
 20
-85.8898
 30
0.0
 10
-51.9979
 20
-85.8658
 30
0.0
 10
-51.9979
 20
-85.8658
 30
0.0
 10
-51.9979
 20
-85.8658
 30
0.0
 10
-51.9979
 20
-79.3677
 30
0.0
 10
-51.9979
 20
-79.3677
 30
0.0
 10
-51.9979
 20
-79.3677
 30
0.0
 10
-51.9979
 20
-79.3677
 30
0.0
 10
-58.532
 20
-79.3677
 30
0.0
 10
-58.532
 20
-79.3677
 30
0.0
 10
-58.532
 20
-79.3677
 30
0.0
 10
-58.532
 20
-74.5157
 30
0.0
 10
-56.475
 20
-70.3171
 30
0.0
 10
-51.7561
 20
-68.2598
 30
0.0
 10
-51.7561
 20
-68.2598
 30
0.0
 10
-51.7561
 20
-68.2598
 30
0.0
 10
-43.7697
 20
-68.2598
 30
0.0
 10
-43.7697
 20
-68.2598
 30
0.0
 10
-43.7697
 20
-68.2598
 30
0.0
 10
-43.7697
 20
-68.2598
 30
0.0
 10
-43.7697
 20
-83.0947
 30
0.0
 10
-43.7697
 20
-83.0947
 30
0.0
  0
SPLINE
  5
53
330
1F
100
AcDbEntity
  8
layer 1
 62
     7
100
AcDbSpline
210
0.0
220
0.0
230
1.0
 70
    11
 71
     3
 72
    28
 73
    24
 74
     0
 42
0.0000000001
 43
0.0000000001
 12
1.0
 22
0.0
 32
0.0
 13
1.0
 23
0.0
 33
0.0
 40
0.0
 40
0.0
 40
0.0
 40
0.0
 40
0.1428571428571428
 40
0.1428571428571428
 40
0.1428571428571428
 40
0.1428571428571428
 40
0.2857142857142857
 40
0.2857142857142857
 40
0.2857142857142857
 40
0.2857142857142857
 40
0.4285714285714285
 40
0.4285714285714285
 40
0.4285714285714285
 40
0.4285714285714285
 40
0.5714285714285714
 40
0.5714285714285714
 40
0.5714285714285714
 40
0.5714285714285714
 40
0.7142857142857143
 40
0.7142857142857143
 40
0.7142857142857143
 40
0.7142857142857143
 40
1.0
 40
1.0
 40
1.0
 40
1.0
 10
-81.7645
 20
-68.2598
 30
0.0
 10
-81.7645
 20
-68.2598
 30
0.0
 10
-70.9951
 20
-68.2598
 30
0.0
 10
-70.9951
 20
-68.2598
 30
0.0
 10
-70.9951
 20
-68.2598
 30
0.0
 10
-66.1551
 20
-70.3171
 30
0.0
 10
-64.0981
 20
-74.5157
 30
0.0
 10
-64.2192
 20
-79.3677
 30
0.0
 10
-64.2192
 20
-79.3677
 30
0.0
 10
-64.2192
 20
-79.3677
 30
0.0
 10
-70.6322
 20
-79.3677
 30
0.0
 10
-70.6322
 20
-79.3677
 30
0.0
 10
-70.6322
 20
-79.3677
 30
0.0
 10
-70.6322
 20
-79.3677
 30
0.0
 10
-70.6322
 20
-85.8535
 30
0.0
 10
-70.6322
 20
-85.8535
 30
0.0
 10
-70.6322
 20
-85.8535
 30
0.0
 10
-75.4722
 20
-85.9018
 30
0.0
 10
-79.7072
 20
-83.8569
 30
0.0
 10
-81.7645
 20
-79.0532
 30
0.0
 10
-81.7645
 20
-79.0532
 30
0.0
 10
-81.7645
 20
-79.0532
 30
0.0
 10
-81.7645
 20
-68.2598
 30
0.0
 10
-81.7645
 20
-68.2598
 30
0.0
  0
SPLINE
  5
54
330
1F
100
AcDbEntity
  8
layer 1
 62
     7
100
AcDbSpline
210
0.0
220
0.0
230
1.0
 70
    11
 71
     3
 72
    20
 73
    16
 74
     0
 42
0.0000000001
 43
0.0000000001
 12
1.0
 22
0.0
 32
0.0
 13
1.0
 23
0.0
 33
0.0
 40
0.0
 40
0.0
 40
0.0
 40
0.0
 40
0.2
 40
0.2
 40
0.2
 40
0.2
 40
0.4
 40
0.4
 40
0.4
 40
0.4
 40
0.6
 40
0.6
 40
0.6
 40
0.6
 40
1.0
 40
1.0
 40
1.0
 40
1.0
 10
-66.8812
 20
-94.2147
 30
0.0
 10
-66.8812
 20
-94.2147
 30
0.0
 10
-66.8812
 20
-83.1445
 30
0.0
 10
-66.8812
 20
-83.1445
 30
0.0
 10
-66.8812
 20
-83.1445
 30
0.0
 10
-66.8812
 20
-83.1445
 30
0.0
 10
-55.812
 20
-83.1445
 30
0.0
 10
-55.812
 20
-83.1445
 30
0.0
 10
-55.812
 20
-83.1445
 30
0.0
 10
-55.812
 20
-83.1445
 30
0.0
 10
-55.812
 20
-94.2147
 30
0.0
 10
-55.812
 20
-94.2147
 30
0.0
 10
-55.812
 20
-94.2147
 30
0.0
 10
-55.812
 20
-94.2147
 30
0.0
 10
-66.8812
 20
-94.2147
 30
0.0
 10
-66.8812
 20
-94.2147
 30
0.0
  0
SPLINE
  5
55
330
1F
100
AcDbEntity
  8
layer 1
 62
     7
100
AcDbSpline
210
0.0
220
0.0
230
1.0
 70
    11
 71
     3
 72
    20
 73
    16
 74
     0
 42
0.0000000001
 43
0.0000000001
 12
1.0
 22
0.0
 32
0.0
 13
1.0
 23
0.0
 33
0.0
 40
0.0
 40
0.0
 40
0.0
 40
0.0
 40
0.2
 40
0.2
 40
0.2
 40
0.2
 40
0.4
 40
0.4
 40
0.4
 40
0.4
 40
0.6
 40
0.6
 40
0.6
 40
0.6
 40
1.0
 40
1.0
 40
1.0
 40
1.0
 10
-115.8868
 20
-15.9871
 30
0.0
 10
-113.4666
 20
-14.6563
 30
0.0
 10
-111.4097
 20
-12.72
 30
0.0
 10
-109.8367
 20
-10.058
 30
0.0
 10
-109.8367
 20
-10.058
 30
0.0
 10
-108.3848
 20
-12.72
 30
0.0
 10
-106.2068
 20
-14.6563
 30
0.0
 10
-103.7866
 20
-15.9871
 30
0.0
 10
-103.7866
 20
-15.9871
 30
0.0
 10
-106.2068
 20
-17.1972
 30
0.0
 10
-108.3848
 20
-19.1334
 30
0.0
 10
-109.8367
 20
-21.7954
 30
0.0
 10
-109.8367
 20
-21.7954
 30
0.0
 10
-111.4097
 20
-19.1334
 30
0.0
 10
-113.4666
 20
-17.1972
 30
0.0
 10
-115.8868
 20
-15.9871
 30
0.0
  0
SPLINE
  5
56
330
1F
100
AcDbEntity
  8
layer 1
 62
     7
100
AcDbSpline
210
0.0
220
0.0
230
1.0
 70
    11
 71
     3
 72
    20
 73
    16
 74
     0
 42
0.0000000001
 43
0.0000000001
 12
1.0
 22
0.0
 32
0.0
 13
1.0
 23
0.0
 33
0.0
 40
0.0
 40
0.0
 40
0.0
 40
0.0
 40
0.2
 40
0.2
 40
0.2
 40
0.2
 40
0.4
 40
0.4
 40
0.4
 40
0.4
 40
0.6
 40
0.6
 40
0.6
 40
0.6
 40
1.0
 40
1.0
 40
1.0
 40
1.0
 10
-134.0372
 20
2.284
 30
0.0
 10
-135.368
 20
4.7042
 30
0.0
 10
-137.3042
 20
6.7611
 30
0.0
 10
-139.9662
 20
8.3341
 30
0.0
 10
-139.9662
 20
8.3341
 30
0.0
 10
-137.3042
 20
9.9071
 30
0.0
 10
-135.368
 20
11.9641
 30
0.0
 10
-134.0372
 20
14.3842
 30
0.0
 10
-134.0372
 20
14.3842
 30
0.0
 10
-132.8271
 20
11.9641
 30
0.0
 10
-130.8909
 20
9.9071
 30
0.0
 10
-128.2289
 20
8.3341
 30
0.0
 10
-128.2289
 20
8.3341
 30
0.0
 10
-130.8909
 20
6.7611
 30
0.0
 10
-132.8271
 20
4.7042
 30
0.0
 10
-134.0372
 20
2.284
 30
0.0
  0
SPLINE
  5
57
330
1F
100
AcDbEntity
  8
layer 1
 62
     7
100
AcDbSpline
210
0.0
220
0.0
230
1.0
 70
    11
 71
     3
 72
    28
 73
    24
 74
     0
 42
0.0000000001
 43
0.0000000001
 12
1.0
 22
0.0
 32
0.0
 13
1.0
 23
0.0
 33
0.0
 40
0.0
 40
0.0
 40
0.0
 40
0.0
 40
0.1428571428571428
 40
0.1428571428571428
 40
0.1428571428571428
 40
0.1428571428571428
 40
0.2857142857142857
 40
0.2857142857142857
 40
0.2857142857142857
 40
0.2857142857142857
 40
0.4285714285714285
 40
0.4285714285714285
 40
0.4285714285714285
 40
0.4285714285714285
 40
0.5714285714285714
 40
0.5714285714285714
 40
0.5714285714285714
 40
0.5714285714285714
 40
0.7142857142857143
 40
0.7142857142857143
 40
0.7142857142857143
 40
0.7142857142857143
 40
1.0
 40
1.0
 40
1.0
 40
1.0
 10
-130.2858
 20
-12.115
 30
0.0
 10
-130.2858
 20
-12.115
 30
0.0
 10
-130.2858
 20
-1.3459
 30
0.0
 10
-130.2858
 20
-1.3459
 30
0.0
 10
-130.2858
 20
-1.3459
 30
0.0
 10
-128.2289
 20
3.4941
 30
0.0
 10
-123.9939
 20
5.551
 30
0.0
 10
-119.1539
 20
5.551
 30
0.0
 10
-119.1539
 20
5.551
 30
0.0
 10
-119.1539
 20
5.551
 30
0.0
 10
-119.1539
 20
-0.983
 30
0.0
 10
-119.1539
 20
-0.983
 30
0.0
 10
-119.1539
 20
-0.983
 30
0.0
 10
-119.1539
 20
-0.983
 30
0.0
 10
-112.6198
 20
-0.983
 30
0.0
 10
-112.6198
 20
-0.983
 30
0.0
 10
-112.6198
 20
-0.983
 30
0.0
 10
-112.6198
 20
-5.8231
 30
0.0
 10
-114.6767
 20
-10.058
 30
0.0
 10
-119.5168
 20
-12.115
 30
0.0
 10
-119.5168
 20
-12.115
 30
0.0
 10
-119.5168
 20
-12.115
 30
0.0
 10
-130.2858
 20
-12.115
 30
0.0
 10
-130.2858
 20
-12.115
 30
0.0
  0
SPLINE
  5
58
330
1F
100
AcDbEntity
  8
layer 1
 62
     7
100
AcDbSpline
210
0.0
220
0.0
230
1.0
 70
    11
 71
     3
 72
    28
 73
    24
 74
     0
 42
0.0000000001
 43
0.0000000001
 12
1.0
 22
0.0
 32
0.0
 13
1.0
 23
0.0
 33
0.0
 40
0.0
 40
0.0
 40
0.0
 40
0.0
 40
0.1428571428571428
 40
0.1428571428571428
 40
0.1428571428571428
 40
0.1428571428571428
 40
0.2857142857142857
 40
0.2857142857142857
 40
0.2857142857142857
 40
0.2857142857142857
 40
0.4285714285714285
 40
0.4285714285714285
 40
0.4285714285714285
 40
0.4285714285714285
 40
0.5714285714285714
 40
0.5714285714285714
 40
0.5714285714285714
 40
0.5714285714285714
 40
0.7142857142857143
 40
0.7142857142857143
 40
0.7142857142857143
 40
0.7142857142857143
 40
1.0
 40
1.0
 40
1.0
 40
1.0
 10
-89.3876
 20
-12.115
 30
0.0
 10
-89.3876
 20
-12.115
 30
0.0
 10
-100.2777
 20
-12.115
 30
0.0
 10
-100.2777
 20
-12.115
 30
0.0
 10
-100.2777
 20
-12.115
 30
0.0
 10
-104.9967
 20
-10.058
 30
0.0
 10
-107.0536
 20
-5.8231
 30
0.0
 10
-107.0536
 20
-0.983
 30
0.0
 10
-107.0536
 20
-0.983
 30
0.0
 10
-107.0536
 20
-0.983
 30
0.0
 10
-100.5196
 20
-0.983
 30
0.0
 10
-100.5196
 20
-0.983
 30
0.0
 10
-100.5196
 20
-0.983
 30
0.0
 10
-100.5196
 20
-0.983
 30
0.0
 10
-100.5196
 20
5.551
 30
0.0
 10
-100.5196
 20
5.551
 30
0.0
 10
-100.5196
 20
5.551
 30
0.0
 10
-95.6795
 20
5.551
 30
0.0
 10
-91.5656
 20
3.4941
 30
0.0
 10
-89.3876
 20
-1.3459
 30
0.0
 10
-89.3876
 20
-1.3459
 30
0.0
 10
-89.3876
 20
-1.3459
 30
0.0
 10
-89.3876
 20
-12.115
 30
0.0
 10
-89.3876
 20
-12.115
 30
0.0
  0
SPLINE
  5
59
330
1F
100
AcDbEntity
  8
layer 1
 62
     7
100
AcDbSpline
210
0.0
220
0.0
230
1.0
 70
    11
 71
     3
 72
    28
 73
    24
 74
     0
 42
0.0000000001
 43
0.0000000001
 12
1.0
 22
0.0
 32
0.0
 13
1.0
 23
0.0
 33
0.0
 40
0.0
 40
0.0
 40
0.0
 40
0.0
 40
0.1428571428571428
 40
0.1428571428571428
 40
0.1428571428571428
 40
0.1428571428571428
 40
0.2857142857142857
 40
0.2857142857142857
 40
0.2857142857142857
 40
0.2857142857142857
 40
0.4285714285714285
 40
0.4285714285714285
 40
0.4285714285714285
 40
0.4285714285714285
 40
0.5714285714285714
 40
0.5714285714285714
 40
0.5714285714285714
 40
0.5714285714285714
 40
0.7142857142857143
 40
0.7142857142857143
 40
0.7142857142857143
 40
0.7142857142857143
 40
1.0
 40
1.0
 40
1.0
 40
1.0
 10
-89.3876
 20
28.7832
 30
0.0
 10
-89.3876
 20
28.7832
 30
0.0
 10
-89.3876
 20
18.0142
 30
0.0
 10
-89.3876
 20
18.0142
 30
0.0
 10
-89.3876
 20
18.0142
 30
0.0
 10
-91.5656
 20
13.1741
 30
0.0
 10
-95.6795
 20
11.1172
 30
0.0
 10
-100.5196
 20
11.1172
 30
0.0
 10
-100.5196
 20
11.1172
 30
0.0
 10
-100.5196
 20
11.1172
 30
0.0
 10
-100.5196
 20
17.6513
 30
0.0
 10
-100.5196
 20
17.6513
 30
0.0
 10
-100.5196
 20
17.6513
 30
0.0
 10
-100.5196
 20
17.6513
 30
0.0
 10
-107.0536
 20
17.6513
 30
0.0
 10
-107.0536
 20
17.6513
 30
0.0
 10
-107.0536
 20
17.6513
 30
0.0
 10
-107.0536
 20
22.4913
 30
0.0
 10
-104.9967
 20
26.7263
 30
0.0
 10
-100.2777
 20
28.7832
 30
0.0
 10
-100.2777
 20
28.7832
 30
0.0
 10
-100.2777
 20
28.7832
 30
0.0
 10
-89.3876
 20
28.7832
 30
0.0
 10
-89.3876
 20
28.7832
 30
0.0
  0
SPLINE
  5
5A
330
1F
100
AcDbEntity
  8
layer 1
 62
     7
100
AcDbSpline
210
0.0
220
0.0
230
1.0
 70
    11
 71
     3
 72
    28
 73
    24
 74
     0
 42
0.0000000001
 43
0.0000000001
 12
1.0
 22
0.0
 32
0.0
 13
1.0
 23
0.0
 33
0.0
 40
0.0
 40
0.0
 40
0.0
 40
0.0
 40
0.1428571428571428
 40
0.1428571428571428
 40
0.1428571428571428
 40
0.1428571428571428
 40
0.2857142857142857
 40
0.2857142857142857
 40
0.2857142857142857
 40
0.2857142857142857
 40
0.4285714285714285
 40
0.4285714285714285
 40
0.4285714285714285
 40
0.4285714285714285
 40
0.5714285714285714
 40
0.5714285714285714
 40
0.5714285714285714
 40
0.5714285714285714
 40
0.7142857142857143
 40
0.7142857142857143
 40
0.7142857142857143
 40
0.7142857142857143
 40
1.0
 40
1.0
 40
1.0
 40
1.0
 10
-130.2858
 20
28.7832
 30
0.0
 10
-130.2858
 20
28.7832
 30
0.0
 10
-119.5168
 20
28.7832
 30
0.0
 10
-119.5168
 20
28.7832
 30
0.0
 10
-119.5168
 20
28.7832
 30
0.0
 10
-114.6767
 20
26.7263
 30
0.0
 10
-112.6198
 20
22.4913
 30
0.0
 10
-112.6198
 20
17.6513
 30
0.0
 10
-112.6198
 20
17.6513
 30
0.0
 10
-112.6198
 20
17.6513
 30
0.0
 10
-119.1539
 20
17.6513
 30
0.0
 10
-119.1539
 20
17.6513
 30
0.0
 10
-119.1539
 20
17.6513
 30
0.0
 10
-119.1539
 20
17.6513
 30
0.0
 10
-119.1539
 20
11.1172
 30
0.0
 10
-119.1539
 20
11.1172
 30
0.0
 10
-119.1539
 20
11.1172
 30
0.0
 10
-123.9939
 20
11.1172
 30
0.0
 10
-128.2289
 20
13.1741
 30
0.0
 10
-130.2858
 20
18.0142
 30
0.0
 10
-130.2858
 20
18.0142
 30
0.0
 10
-130.2858
 20
18.0142
 30
0.0
 10
-130.2858
 20
28.7832
 30
0.0
 10
-130.2858
 20
28.7832
 30
0.0
  0
SPLINE
  5
5B
330
1F
100
AcDbEntity
  8
layer 1
 62
     7
100
AcDbSpline
210
0.0
220
0.0
230
1.0
 70
    11
 71
     3
 72
    20
 73
    16
 74
     0
 42
0.0000000001
 43
0.0000000001
 12
1.0
 22
0.0
 32
0.0
 13
1.0
 23
0.0
 33
0.0
 40
0.0
 40
0.0
 40
0.0
 40
0.0
 40
0.2
 40
0.2
 40
0.2
 40
0.2
 40
0.4
 40
0.4
 40
0.4
 40
0.4
 40
0.6
 40
0.6
 40
0.6
 40
0.6
 40
1.0
 40
1.0
 40
1.0
 40
1.0
 10
-115.4029
 20
2.768
 30
0.0
 10
-115.4029
 20
2.768
 30
0.0
 10
-115.4029
 20
13.8372
 30
0.0
 10
-115.4029
 20
13.8372
 30
0.0
 10
-115.4029
 20
13.8372
 30
0.0
 10
-115.4029
 20
13.8372
 30
0.0
 10
-104.3337
 20
13.8372
 30
0.0
 10
-104.3337
 20
13.8372
 30
0.0
 10
-104.3337
 20
13.8372
 30
0.0
 10
-104.3337
 20
13.8372
 30
0.0
 10
-104.3337
 20
2.768
 30
0.0
 10
-104.3337
 20
2.768
 30
0.0
 10
-104.3337
 20
2.768
 30
0.0
 10
-104.3337
 20
2.768
 30
0.0
 10
-115.4029
 20
2.768
 30
0.0
 10
-115.4029
 20
2.768
 30
0.0
  0
SPLINE
  5
5C
330
1F
100
AcDbEntity
  8
layer 1
 62
     7
100
AcDbSpline
210
0.0
220
0.0
230
1.0
 70
    11
 71
     3
 72
    20
 73
    16
 74
     0
 42
0.0000000001
 43
0.0000000001
 12
1.0
 22
0.0
 32
0.0
 13
1.0
 23
0.0
 33
0.0
 40
0.0
 40
0.0
 40
0.0
 40
0.0
 40
0.2
 40
0.2
 40
0.2
 40
0.2
 40
0.4
 40
0.4
 40
0.4
 40
0.4
 40
0.6
 40
0.6
 40
0.6
 40
0.6
 40
1.0
 40
1.0
 40
1.0
 40
1.0
 10
-67.4862
 20
-64.3877
 30
0.0
 10
-64.945
 20
-63.1779
 30
0.0
 10
-62.888
 20
-61.2417
 30
0.0
 10
-61.315
 20
-58.5797
 30
0.0
 10
-61.315
 20
-58.5797
 30
0.0
 10
-59.8631
 20
-61.2417
 30
0.0
 10
-57.6851
 20
-63.1779
 30
0.0
 10
-55.2649
 20
-64.3877
 30
0.0
 10
-55.2649
 20
-64.3877
 30
0.0
 10
-57.6851
 20
-65.7189
 30
0.0
 10
-59.8631
 20
-67.6547
 30
0.0
 10
-61.315
 20
-70.3171
 30
0.0
 10
-61.315
 20
-70.3171
 30
0.0
 10
-62.888
 20
-67.6547
 30
0.0
 10
-64.945
 20
-65.7189
 30
0.0
 10
-67.4862
 20
-64.3877
 30
0.0
  0
SPLINE
  5
5D
330
1F
100
AcDbEntity
  8
layer 1
 62
     7
100
AcDbSpline
210
0.0
220
0.0
230
1.0
 70
    11
 71
     3
 72
    20
 73
    16
 74
     0
 42
0.0000000001
 43
0.0000000001
 12
1.0
 22
0.0
 32
0.0
 13
1.0
 23
0.0
 33
0.0
 40
0.0
 40
0.0
 40
0.0
 40
0.0
 40
0.2
 40
0.2
 40
0.2
 40
0.2
 40
0.4
 40
0.4
 40
0.4
 40
0.4
 40
0.6
 40
0.6
 40
0.6
 40
0.6
 40
1.0
 40
1.0
 40
1.0
 40
1.0
 10
-85.6362
 20
-46.2377
 30
0.0
 10
-86.8463
 20
-43.8175
 30
0.0
 10
-88.9033
 20
-41.6395
 30
0.0
 10
-91.4445
 20
-40.1876
 30
0.0
 10
-91.4445
 20
-40.1876
 30
0.0
 10
-88.9033
 20
-38.6146
 30
0.0
 10
-86.8463
 20
-36.5576
 30
0.0
 10
-85.6362
 20
-34.1374
 30
0.0
 10
-85.6362
 20
-34.1374
 30
0.0
 10
-84.3054
 20
-36.5576
 30
0.0
 10
-82.3692
 20
-38.6146
 30
0.0
 10
-79.7072
 20
-40.1876
 30
0.0
 10
-79.7072
 20
-40.1876
 30
0.0
 10
-82.3692
 20
-41.6395
 30
0.0
 10
-84.3054
 20
-43.8175
 30
0.0
 10
-85.6362
 20
-46.2377
 30
0.0
  0
SPLINE
  5
5E
330
1F
100
AcDbEntity
  8
layer 1
 62
     7
100
AcDbSpline
210
0.0
220
0.0
230
1.0
 70
    11
 71
     3
 72
    28
 73
    24
 74
     0
 42
0.0000000001
 43
0.0000000001
 12
1.0
 22
0.0
 32
0.0
 13
1.0
 23
0.0
 33
0.0
 40
0.0
 40
0.0
 40
0.0
 40
0.0
 40
0.1428571428571428
 40
0.1428571428571428
 40
0.1428571428571428
 40
0.1428571428571428
 40
0.2857142857142857
 40
0.2857142857142857
 40
0.2857142857142857
 40
0.2857142857142857
 40
0.4285714285714285
 40
0.4285714285714285
 40
0.4285714285714285
 40
0.4285714285714285
 40
0.5714285714285714
 40
0.5714285714285714
 40
0.5714285714285714
 40
0.5714285714285714
 40
0.7142857142857143
 40
0.7142857142857143
 40
0.7142857142857143
 40
0.7142857142857143
 40
1.0
 40
1.0
 40
1.0
 40
1.0
 10
-81.7645
 20
-60.6367
 30
0.0
 10
-81.7645
 20
-60.6367
 30
0.0
 10
-81.7645
 20
-49.7465
 30
0.0
 10
-81.7645
 20
-49.7465
 30
0.0
 10
-81.7645
 20
-49.7465
 30
0.0
 10
-79.7072
 20
-45.0276
 30
0.0
 10
-75.4722
 20
-42.9706
 30
0.0
 10
-70.6322
 20
-42.9706
 30
0.0
 10
-70.6322
 20
-42.9706
 30
0.0
 10
-70.6322
 20
-42.9706
 30
0.0
 10
-70.6322
 20
-49.5047
 30
0.0
 10
-70.6322
 20
-49.5047
 30
0.0
 10
-70.6322
 20
-49.5047
 30
0.0
 10
-70.6322
 20
-49.5047
 30
0.0
 10
-64.2192
 20
-49.5047
 30
0.0
 10
-64.2192
 20
-49.5047
 30
0.0
 10
-64.2192
 20
-49.5047
 30
0.0
 10
-64.0981
 20
-54.3448
 30
0.0
 10
-66.1551
 20
-58.4587
 30
0.0
 10
-70.9951
 20
-60.6367
 30
0.0
 10
-70.9951
 20
-60.6367
 30
0.0
 10
-70.9951
 20
-60.6367
 30
0.0
 10
-81.7645
 20
-60.6367
 30
0.0
 10
-81.7645
 20
-60.6367
 30
0.0
  0
SPLINE
  5
5F
330
1F
100
AcDbEntity
  8
layer 1
 62
     7
100
AcDbSpline
210
0.0
220
0.0
230
1.0
 70
    11
 71
     3
 72
    28
 73
    24
 74
     0
 42
0.0000000001
 43
0.0000000001
 12
1.0
 22
0.0
 32
0.0
 13
1.0
 23
0.0
 33
0.0
 40
0.0
 40
0.0
 40
0.0
 40
0.0
 40
0.1428571428571428
 40
0.1428571428571428
 40
0.1428571428571428
 40
0.1428571428571428
 40
0.2857142857142857
 40
0.2857142857142857
 40
0.2857142857142857
 40
0.2857142857142857
 40
0.4285714285714285
 40
0.4285714285714285
 40
0.4285714285714285
 40
0.4285714285714285
 40
0.5714285714285714
 40
0.5714285714285714
 40
0.5714285714285714
 40
0.5714285714285714
 40
0.7142857142857143
 40
0.7142857142857143
 40
0.7142857142857143
 40
0.7142857142857143
 40
1.0
 40
1.0
 40
1.0
 40
1.0
 10
-43.7697
 20
-60.6367
 30
0.0
 10
-43.7697
 20
-60.6367
 30
0.0
 10
-51.7561
 20
-60.6367
 30
0.0
 10
-51.7561
 20
-60.6367
 30
0.0
 10
-51.7561
 20
-60.6367
 30
0.0
 10
-56.475
 20
-58.4587
 30
0.0
 10
-58.532
 20
-54.3448
 30
0.0
 10
-58.532
 20
-49.5047
 30
0.0
 10
-58.532
 20
-49.5047
 30
0.0
 10
-58.532
 20
-49.5047
 30
0.0
 10
-51.9979
 20
-49.5047
 30
0.0
 10
-51.9979
 20
-49.5047
 30
0.0
 10
-51.9979
 20
-49.5047
 30
0.0
 10
-51.9979
 20
-49.5047
 30
0.0
 10
-51.9979
 20
-42.9706
 30
0.0
 10
-51.9979
 20
-42.9706
 30
0.0
 10
-51.9979
 20
-42.9706
 30
0.0
 10
-48.8519
 20
-42.9706
 30
0.0
 10
-45.9477
 20
-43.8175
 30
0.0
 10
-43.7697
 20
-45.7537
 30
0.0
 10
-43.7697
 20
-45.7537
 30
0.0
 10
-43.7697
 20
-45.7537
 30
0.0
 10
-43.7697
 20
-60.6367
 30
0.0
 10
-43.7697
 20
-60.6367
 30
0.0
  0
SPLINE
  5
60
330
1F
100
AcDbEntity
  8
layer 1
 62
     7
100
AcDbSpline
210
0.0
220
0.0
230
1.0
 70
    11
 71
     3
 72
    28
 73
    24
 74
     0
 42
0.0000000001
 43
0.0000000001
 12
1.0
 22
0.0
 32
0.0
 13
1.0
 23
0.0
 33
0.0
 40
0.0
 40
0.0
 40
0.0
 40
0.0
 40
0.1428571428571428
 40
0.1428571428571428
 40
0.1428571428571428
 40
0.1428571428571428
 40
0.2857142857142857
 40
0.2857142857142857
 40
0.2857142857142857
 40
0.2857142857142857
 40
0.4285714285714285
 40
0.4285714285714285
 40
0.4285714285714285
 40
0.4285714285714285
 40
0.5714285714285714
 40
0.5714285714285714
 40
0.5714285714285714
 40
0.5714285714285714
 40
0.7142857142857143
 40
0.7142857142857143
 40
0.7142857142857143
 40
0.7142857142857143
 40
1.0
 40
1.0
 40
1.0
 40
1.0
 10
-43.7697
 20
-34.6214
 30
0.0
 10
-45.9477
 20
-36.5576
 30
0.0
 10
-48.8519
 20
-37.4045
 30
0.0
 10
-51.9979
 20
-37.4045
 30
0.0
 10
-51.9979
 20
-37.4045
 30
0.0
 10
-51.9979
 20
-37.4045
 30
0.0
 10
-51.9979
 20
-30.8704
 30
0.0
 10
-51.9979
 20
-30.8704
 30
0.0
 10
-51.9979
 20
-30.8704
 30
0.0
 10
-51.9979
 20
-30.8704
 30
0.0
 10
-58.532
 20
-30.8704
 30
0.0
 10
-58.532
 20
-30.8704
 30
0.0
 10
-58.532
 20
-30.8704
 30
0.0
 10
-58.532
 20
-26.0304
 30
0.0
 10
-56.475
 20
-21.7954
 30
0.0
 10
-51.7561
 20
-19.7381
 30
0.0
 10
-51.7561
 20
-19.7381
 30
0.0
 10
-51.7561
 20
-19.7381
 30
0.0
 10
-43.7697
 20
-19.7381
 30
0.0
 10
-43.7697
 20
-19.7381
 30
0.0
 10
-43.7697
 20
-19.7381
 30
0.0
 10
-43.7697
 20
-19.7381
 30
0.0
 10
-43.7697
 20
-34.6214
 30
0.0
 10
-43.7697
 20
-34.6214
 30
0.0
  0
SPLINE
  5
61
330
1F
100
AcDbEntity
  8
layer 1
 62
     7
100
AcDbSpline
210
0.0
220
0.0
230
1.0
 70
    11
 71
     3
 72
    28
 73
    24
 74
     0
 42
0.0000000001
 43
0.0000000001
 12
1.0
 22
0.0
 32
0.0
 13
1.0
 23
0.0
 33
0.0
 40
0.0
 40
0.0
 40
0.0
 40
0.0
 40
0.1428571428571428
 40
0.1428571428571428
 40
0.1428571428571428
 40
0.1428571428571428
 40
0.2857142857142857
 40
0.2857142857142857
 40
0.2857142857142857
 40
0.2857142857142857
 40
0.4285714285714285
 40
0.4285714285714285
 40
0.4285714285714285
 40
0.4285714285714285
 40
0.5714285714285714
 40
0.5714285714285714
 40
0.5714285714285714
 40
0.5714285714285714
 40
0.7142857142857143
 40
0.7142857142857143
 40
0.7142857142857143
 40
0.7142857142857143
 40
1.0
 40
1.0
 40
1.0
 40
1.0
 10
-81.7645
 20
-19.7381
 30
0.0
 10
-81.7645
 20
-19.7381
 30
0.0
 10
-70.9951
 20
-19.7381
 30
0.0
 10
-70.9951
 20
-19.7381
 30
0.0
 10
-70.9951
 20
-19.7381
 30
0.0
 10
-66.1551
 20
-21.7954
 30
0.0
 10
-64.0981
 20
-26.0304
 30
0.0
 10
-64.2192
 20
-30.8704
 30
0.0
 10
-64.2192
 20
-30.8704
 30
0.0
 10
-64.2192
 20
-30.8704
 30
0.0
 10
-70.6322
 20
-30.8704
 30
0.0
 10
-70.6322
 20
-30.8704
 30
0.0
 10
-70.6322
 20
-30.8704
 30
0.0
 10
-70.6322
 20
-30.8704
 30
0.0
 10
-70.6322
 20
-37.4045
 30
0.0
 10
-70.6322
 20
-37.4045
 30
0.0
 10
-70.6322
 20
-37.4045
 30
0.0
 10
-75.4722
 20
-37.4045
 30
0.0
 10
-79.7072
 20
-35.3475
 30
0.0
 10
-81.7645
 20
-30.5075
 30
0.0
 10
-81.7645
 20
-30.5075
 30
0.0
 10
-81.7645
 20
-30.5075
 30
0.0
 10
-81.7645
 20
-19.7381
 30
0.0
 10
-81.7645
 20
-19.7381
 30
0.0
  0
SPLINE
  5
62
330
1F
100
AcDbEntity
  8
layer 1
 62
     7
100
AcDbSpline
210
0.0
220
0.0
230
1.0
 70
    11
 71
     3
 72
    20
 73
    16
 74
     0
 42
0.0000000001
 43
0.0000000001
 12
1.0
 22
0.0
 32
0.0
 13
1.0
 23
0.0
 33
0.0
 40
0.0
 40
0.0
 40
0.0
 40
0.0
 40
0.2
 40
0.2
 40
0.2
 40
0.2
 40
0.4
 40
0.4
 40
0.4
 40
0.4
 40
0.6
 40
0.6
 40
0.6
 40
0.6
 40
1.0
 40
1.0
 40
1.0
 40
1.0
 10
-66.8812
 20
-45.7537
 30
0.0
 10
-66.8812
 20
-45.7537
 30
0.0
 10
-66.8812
 20
-34.6845
 30
0.0
 10
-66.8812
 20
-34.6845
 30
0.0
 10
-66.8812
 20
-34.6845
 30
0.0
 10
-66.8812
 20
-34.6845
 30
0.0
 10
-55.812
 20
-34.6845
 30
0.0
 10
-55.812
 20
-34.6845
 30
0.0
 10
-55.812
 20
-34.6845
 30
0.0
 10
-55.812
 20
-34.6845
 30
0.0
 10
-55.812
 20
-45.7537
 30
0.0
 10
-55.812
 20
-45.7537
 30
0.0
 10
-55.812
 20
-45.7537
 30
0.0
 10
-55.812
 20
-45.7537
 30
0.0
 10
-66.8812
 20
-45.7537
 30
0.0
 10
-66.8812
 20
-45.7537
 30
0.0
  0
SPLINE
  5
63
330
1F
100
AcDbEntity
  8
layer 1
 62
     7
100
AcDbSpline
210
0.0
220
0.0
230
1.0
 70
    11
 71
     3
 72
    20
 73
    16
 74
     0
 42
0.0000000001
 43
0.0000000001
 12
1.0
 22
0.0
 32
0.0
 13
1.0
 23
0.0
 33
0.0
 40
0.0
 40
0.0
 40
0.0
 40
0.0
 40
0.2
 40
0.2
 40
0.2
 40
0.2
 40
0.4
 40
0.4
 40
0.4
 40
0.4
 40
0.6
 40
0.6
 40
0.6
 40
0.6
 40
1.0
 40
1.0
 40
1.0
 40
1.0
 10
-115.8868
 20
32.5346
 30
0.0
 10
-113.4666
 20
33.8654
 30
0.0
 10
-111.4097
 20
35.8016
 30
0.0
 10
-109.8367
 20
38.4636
 30
0.0
 10
-109.8367
 20
38.4636
 30
0.0
 10
-108.3848
 20
35.8016
 30
0.0
 10
-106.2068
 20
33.8654
 30
0.0
 10
-103.7866
 20
32.5346
 30
0.0
 10
-103.7866
 20
32.5346
 30
0.0
 10
-106.2068
 20
31.3245
 30
0.0
 10
-108.3848
 20
29.2676
 30
0.0
 10
-109.8367
 20
26.7263
 30
0.0
 10
-109.8367
 20
26.7263
 30
0.0
 10
-111.4097
 20
29.2676
 30
0.0
 10
-113.4666
 20
31.3245
 30
0.0
 10
-115.8868
 20
32.5346
 30
0.0
  0
SPLINE
  5
64
330
1F
100
AcDbEntity
  8
layer 1
 62
     7
100
AcDbSpline
210
0.0
220
0.0
230
1.0
 70
    11
 71
     3
 72
    20
 73
    16
 74
     0
 42
0.0000000001
 43
0.0000000001
 12
1.0
 22
0.0
 32
0.0
 13
1.0
 23
0.0
 33
0.0
 40
0.0
 40
0.0
 40
0.0
 40
0.0
 40
0.2
 40
0.2
 40
0.2
 40
0.2
 40
0.4
 40
0.4
 40
0.4
 40
0.4
 40
0.6
 40
0.6
 40
0.6
 40
0.6
 40
1.0
 40
1.0
 40
1.0
 40
1.0
 10
-134.0372
 20
50.8057
 30
0.0
 10
-135.368
 20
53.2259
 30
0.0
 10
-137.3042
 20
55.2828
 30
0.0
 10
-139.9662
 20
56.8558
 30
0.0
 10
-139.9662
 20
56.8558
 30
0.0
 10
-137.3042
 20
58.3077
 30
0.0
 10
-135.368
 20
60.4857
 30
0.0
 10
-134.0372
 20
62.9059
 30
0.0
 10
-134.0372
 20
62.9059
 30
0.0
 10
-132.8271
 20
60.4857
 30
0.0
 10
-130.8909
 20
58.3077
 30
0.0
 10
-128.2289
 20
56.8558
 30
0.0
 10
-128.2289
 20
56.8558
 30
0.0
 10
-130.8909
 20
55.2828
 30
0.0
 10
-132.8271
 20
53.2259
 30
0.0
 10
-134.0372
 20
50.8057
 30
0.0
  0
SPLINE
  5
65
330
1F
100
AcDbEntity
  8
layer 1
 62
     7
100
AcDbSpline
210
0.0
220
0.0
230
1.0
 70
    11
 71
     3
 72
    28
 73
    24
 74
     0
 42
0.0000000001
 43
0.0000000001
 12
1.0
 22
0.0
 32
0.0
 13
1.0
 23
0.0
 33
0.0
 40
0.0
 40
0.0
 40
0.0
 40
0.0
 40
0.1428571428571428
 40
0.1428571428571428
 40
0.1428571428571428
 40
0.1428571428571428
 40
0.2857142857142857
 40
0.2857142857142857
 40
0.2857142857142857
 40
0.2857142857142857
 40
0.4285714285714285
 40
0.4285714285714285
 40
0.4285714285714285
 40
0.4285714285714285
 40
0.5714285714285714
 40
0.5714285714285714
 40
0.5714285714285714
 40
0.5714285714285714
 40
0.7142857142857143
 40
0.7142857142857143
 40
0.7142857142857143
 40
0.7142857142857143
 40
1.0
 40
1.0
 40
1.0
 40
1.0
 10
-130.2858
 20
36.4063
 30
0.0
 10
-130.2858
 20
36.4063
 30
0.0
 10
-130.2858
 20
47.1758
 30
0.0
 10
-130.2858
 20
47.1758
 30
0.0
 10
-130.2858
 20
47.1758
 30
0.0
 10
-128.2289
 20
52.0158
 30
0.0
 10
-123.9939
 20
54.0727
 30
0.0
 10
-119.1539
 20
54.0727
 30
0.0
 10
-119.1539
 20
54.0727
 30
0.0
 10
-119.1539
 20
54.0727
 30
0.0
 10
-119.1539
 20
47.5386
 30
0.0
 10
-119.1539
 20
47.5386
 30
0.0
 10
-119.1539
 20
47.5386
 30
0.0
 10
-119.1539
 20
47.5386
 30
0.0
 10
-112.6198
 20
47.5386
 30
0.0
 10
-112.6198
 20
47.5386
 30
0.0
 10
-112.6198
 20
47.5386
 30
0.0
 10
-112.6198
 20
42.6986
 30
0.0
 10
-114.6767
 20
38.4636
 30
0.0
 10
-119.5168
 20
36.4063
 30
0.0
 10
-119.5168
 20
36.4063
 30
0.0
 10
-119.5168
 20
36.4063
 30
0.0
 10
-130.2858
 20
36.4063
 30
0.0
 10
-130.2858
 20
36.4063
 30
0.0
  0
SPLINE
  5
66
330
1F
100
AcDbEntity
  8
layer 1
 62
     7
100
AcDbSpline
210
0.0
220
0.0
230
1.0
 70
    11
 71
     3
 72
    28
 73
    24
 74
     0
 42
0.0000000001
 43
0.0000000001
 12
1.0
 22
0.0
 32
0.0
 13
1.0
 23
0.0
 33
0.0
 40
0.0
 40
0.0
 40
0.0
 40
0.0
 40
0.1428571428571428
 40
0.1428571428571428
 40
0.1428571428571428
 40
0.1428571428571428
 40
0.2857142857142857
 40
0.2857142857142857
 40
0.2857142857142857
 40
0.2857142857142857
 40
0.4285714285714285
 40
0.4285714285714285
 40
0.4285714285714285
 40
0.4285714285714285
 40
0.5714285714285714
 40
0.5714285714285714
 40
0.5714285714285714
 40
0.5714285714285714
 40
0.7142857142857143
 40
0.7142857142857143
 40
0.7142857142857143
 40
0.7142857142857143
 40
1.0
 40
1.0
 40
1.0
 40
1.0
 10
-89.3876
 20
36.4063
 30
0.0
 10
-89.3876
 20
36.4063
 30
0.0
 10
-100.2777
 20
36.4063
 30
0.0
 10
-100.2777
 20
36.4063
 30
0.0
 10
-100.2777
 20
36.4063
 30
0.0
 10
-104.9967
 20
38.4636
 30
0.0
 10
-107.0536
 20
42.6986
 30
0.0
 10
-107.0536
 20
47.5386
 30
0.0
 10
-107.0536
 20
47.5386
 30
0.0
 10
-107.0536
 20
47.5386
 30
0.0
 10
-100.5196
 20
47.5386
 30
0.0
 10
-100.5196
 20
47.5386
 30
0.0
 10
-100.5196
 20
47.5386
 30
0.0
 10
-100.5196
 20
47.5386
 30
0.0
 10
-100.5196
 20
54.0727
 30
0.0
 10
-100.5196
 20
54.0727
 30
0.0
 10
-100.5196
 20
54.0727
 30
0.0
 10
-95.6795
 20
54.0727
 30
0.0
 10
-91.5656
 20
52.0158
 30
0.0
 10
-89.3876
 20
47.1758
 30
0.0
 10
-89.3876
 20
47.1758
 30
0.0
 10
-89.3876
 20
47.1758
 30
0.0
 10
-89.3876
 20
36.4063
 30
0.0
 10
-89.3876
 20
36.4063
 30
0.0
  0
SPLINE
  5
67
330
1F
100
AcDbEntity
  8
layer 1
 62
     7
100
AcDbSpline
210
0.0
220
0.0
230
1.0
 70
    11
 71
     3
 72
    28
 73
    24
 74
     0
 42
0.0000000001
 43
0.0000000001
 12
1.0
 22
0.0
 32
0.0
 13
1.0
 23
0.0
 33
0.0
 40
0.0
 40
0.0
 40
0.0
 40
0.0
 40
0.1428571428571428
 40
0.1428571428571428
 40
0.1428571428571428
 40
0.1428571428571428
 40
0.2857142857142857
 40
0.2857142857142857
 40
0.2857142857142857
 40
0.2857142857142857
 40
0.4285714285714285
 40
0.4285714285714285
 40
0.4285714285714285
 40
0.4285714285714285
 40
0.5714285714285714
 40
0.5714285714285714
 40
0.5714285714285714
 40
0.5714285714285714
 40
0.7142857142857143
 40
0.7142857142857143
 40
0.7142857142857143
 40
0.7142857142857143
 40
1.0
 40
1.0
 40
1.0
 40
1.0
 10
-89.3876
 20
77.3049
 30
0.0
 10
-89.3876
 20
77.3049
 30
0.0
 10
-89.3876
 20
66.4148
 30
0.0
 10
-89.3876
 20
66.4148
 30
0.0
 10
-89.3876
 20
66.4148
 30
0.0
 10
-91.5656
 20
61.6958
 30
0.0
 10
-95.6795
 20
59.6389
 30
0.0
 10
-100.5196
 20
59.6389
 30
0.0
 10
-100.5196
 20
59.6389
 30
0.0
 10
-100.5196
 20
59.6389
 30
0.0
 10
-100.5196
 20
66.173
 30
0.0
 10
-100.5196
 20
66.173
 30
0.0
 10
-100.5196
 20
66.173
 30
0.0
 10
-100.5196
 20
66.173
 30
0.0
 10
-107.0536
 20
66.173
 30
0.0
 10
-107.0536
 20
66.173
 30
0.0
 10
-107.0536
 20
66.173
 30
0.0
 10
-107.0536
 20
71.013
 30
0.0
 10
-104.9967
 20
75.1269
 30
0.0
 10
-100.2777
 20
77.3049
 30
0.0
 10
-100.2777
 20
77.3049
 30
0.0
 10
-100.2777
 20
77.3049
 30
0.0
 10
-89.3876
 20
77.3049
 30
0.0
 10
-89.3876
 20
77.3049
 30
0.0
  0
SPLINE
  5
68
330
1F
100
AcDbEntity
  8
layer 1
 62
     7
100
AcDbSpline
210
0.0
220
0.0
230
1.0
 70
    11
 71
     3
 72
    28
 73
    24
 74
     0
 42
0.0000000001
 43
0.0000000001
 12
1.0
 22
0.0
 32
0.0
 13
1.0
 23
0.0
 33
0.0
 40
0.0
 40
0.0
 40
0.0
 40
0.0
 40
0.1428571428571428
 40
0.1428571428571428
 40
0.1428571428571428
 40
0.1428571428571428
 40
0.2857142857142857
 40
0.2857142857142857
 40
0.2857142857142857
 40
0.2857142857142857
 40
0.4285714285714285
 40
0.4285714285714285
 40
0.4285714285714285
 40
0.4285714285714285
 40
0.5714285714285714
 40
0.5714285714285714
 40
0.5714285714285714
 40
0.5714285714285714
 40
0.7142857142857143
 40
0.7142857142857143
 40
0.7142857142857143
 40
0.7142857142857143
 40
1.0
 40
1.0
 40
1.0
 40
1.0
 10
-130.2858
 20
77.3049
 30
0.0
 10
-130.2858
 20
77.3049
 30
0.0
 10
-119.5168
 20
77.3049
 30
0.0
 10
-119.5168
 20
77.3049
 30
0.0
 10
-119.5168
 20
77.3049
 30
0.0
 10
-114.6767
 20
75.1269
 30
0.0
 10
-112.6198
 20
71.013
 30
0.0
 10
-112.6198
 20
66.173
 30
0.0
 10
-112.6198
 20
66.173
 30
0.0
 10
-112.6198
 20
66.173
 30
0.0
 10
-119.1539
 20
66.173
 30
0.0
 10
-119.1539
 20
66.173
 30
0.0
 10
-119.1539
 20
66.173
 30
0.0
 10
-119.1539
 20
66.173
 30
0.0
 10
-119.1539
 20
59.6389
 30
0.0
 10
-119.1539
 20
59.6389
 30
0.0
 10
-119.1539
 20
59.6389
 30
0.0
 10
-123.9939
 20
59.6389
 30
0.0
 10
-128.2289
 20
61.6958
 30
0.0
 10
-130.2858
 20
66.4148
 30
0.0
 10
-130.2858
 20
66.4148
 30
0.0
 10
-130.2858
 20
66.4148
 30
0.0
 10
-130.2858
 20
77.3049
 30
0.0
 10
-130.2858
 20
77.3049
 30
0.0
  0
SPLINE
  5
69
330
1F
100
AcDbEntity
  8
layer 1
 62
     7
100
AcDbSpline
210
0.0
220
0.0
230
1.0
 70
    11
 71
     3
 72
    20
 73
    16
 74
     0
 42
0.0000000001
 43
0.0000000001
 12
1.0
 22
0.0
 32
0.0
 13
1.0
 23
0.0
 33
0.0
 40
0.0
 40
0.0
 40
0.0
 40
0.0
 40
0.2
 40
0.2
 40
0.2
 40
0.2
 40
0.4
 40
0.4
 40
0.4
 40
0.4
 40
0.6
 40
0.6
 40
0.6
 40
0.6
 40
1.0
 40
1.0
 40
1.0
 40
1.0
 10
-115.4029
 20
51.2897
 30
0.0
 10
-115.4029
 20
51.2897
 30
0.0
 10
-115.4029
 20
62.3588
 30
0.0
 10
-115.4029
 20
62.3588
 30
0.0
 10
-115.4029
 20
62.3588
 30
0.0
 10
-115.4029
 20
62.3588
 30
0.0
 10
-104.3337
 20
62.3588
 30
0.0
 10
-104.3337
 20
62.3588
 30
0.0
 10
-104.3337
 20
62.3588
 30
0.0
 10
-104.3337
 20
62.3588
 30
0.0
 10
-104.3337
 20
51.2897
 30
0.0
 10
-104.3337
 20
51.2897
 30
0.0
 10
-104.3337
 20
51.2897
 30
0.0
 10
-104.3337
 20
51.2897
 30
0.0
 10
-115.4029
 20
51.2897
 30
0.0
 10
-115.4029
 20
51.2897
 30
0.0
  0
SPLINE
  5
6A
330
1F
100
AcDbEntity
  8
layer 1
 62
     7
100
AcDbSpline
210
0.0
220
0.0
230
1.0
 70
    11
 71
     3
 72
    20
 73
    16
 74
     0
 42
0.0000000001
 43
0.0000000001
 12
1.0
 22
0.0
 32
0.0
 13
1.0
 23
0.0
 33
0.0
 40
0.0
 40
0.0
 40
0.0
 40
0.0
 40
0.2
 40
0.2
 40
0.2
 40
0.2
 40
0.4
 40
0.4
 40
0.4
 40
0.4
 40
0.6
 40
0.6
 40
0.6
 40
0.6
 40
1.0
 40
1.0
 40
1.0
 40
1.0
 10
-67.4862
 20
-15.9871
 30
0.0
 10
-64.945
 20
-14.6563
 30
0.0
 10
-62.888
 20
-12.72
 30
0.0
 10
-61.315
 20
-10.058
 30
0.0
 10
-61.315
 20
-10.058
 30
0.0
 10
-59.8631
 20
-12.72
 30
0.0
 10
-57.6851
 20
-14.6563
 30
0.0
 10
-55.2649
 20
-15.9871
 30
0.0
 10
-55.2649
 20
-15.9871
 30
0.0
 10
-57.6851
 20
-17.1972
 30
0.0
 10
-59.8631
 20
-19.1334
 30
0.0
 10
-61.315
 20
-21.7954
 30
0.0
 10
-61.315
 20
-21.7954
 30
0.0
 10
-62.888
 20
-19.1334
 30
0.0
 10
-64.945
 20
-17.1972
 30
0.0
 10
-67.4862
 20
-15.9871
 30
0.0
  0
SPLINE
  5
6B
330
1F
100
AcDbEntity
  8
layer 1
 62
     7
100
AcDbSpline
210
0.0
220
0.0
230
1.0
 70
    11
 71
     3
 72
    20
 73
    16
 74
     0
 42
0.0000000001
 43
0.0000000001
 12
1.0
 22
0.0
 32
0.0
 13
1.0
 23
0.0
 33
0.0
 40
0.0
 40
0.0
 40
0.0
 40
0.0
 40
0.2
 40
0.2
 40
0.2
 40
0.2
 40
0.4
 40
0.4
 40
0.4
 40
0.4
 40
0.6
 40
0.6
 40
0.6
 40
0.6
 40
1.0
 40
1.0
 40
1.0
 40
1.0
 10
-85.6362
 20
2.284
 30
0.0
 10
-86.8463
 20
4.7042
 30
0.0
 10
-88.9033
 20
6.7611
 30
0.0
 10
-91.4445
 20
8.3341
 30
0.0
 10
-91.4445
 20
8.3341
 30
0.0
 10
-88.9033
 20
9.9071
 30
0.0
 10
-86.8463
 20
11.9641
 30
0.0
 10
-85.6362
 20
14.3842
 30
0.0
 10
-85.6362
 20
14.3842
 30
0.0
 10
-84.3054
 20
11.9641
 30
0.0
 10
-82.3692
 20
9.9071
 30
0.0
 10
-79.7072
 20
8.3341
 30
0.0
 10
-79.7072
 20
8.3341
 30
0.0
 10
-82.3692
 20
6.7611
 30
0.0
 10
-84.3054
 20
4.7042
 30
0.0
 10
-85.6362
 20
2.284
 30
0.0
  0
SPLINE
  5
6C
330
1F
100
AcDbEntity
  8
layer 1
 62
     7
100
AcDbSpline
210
0.0
220
0.0
230
1.0
 70
    11
 71
     3
 72
    28
 73
    24
 74
     0
 42
0.0000000001
 43
0.0000000001
 12
1.0
 22
0.0
 32
0.0
 13
1.0
 23
0.0
 33
0.0
 40
0.0
 40
0.0
 40
0.0
 40
0.0
 40
0.1428571428571428
 40
0.1428571428571428
 40
0.1428571428571428
 40
0.1428571428571428
 40
0.2857142857142857
 40
0.2857142857142857
 40
0.2857142857142857
 40
0.2857142857142857
 40
0.4285714285714285
 40
0.4285714285714285
 40
0.4285714285714285
 40
0.4285714285714285
 40
0.5714285714285714
 40
0.5714285714285714
 40
0.5714285714285714
 40
0.5714285714285714
 40
0.7142857142857143
 40
0.7142857142857143
 40
0.7142857142857143
 40
0.7142857142857143
 40
1.0
 40
1.0
 40
1.0
 40
1.0
 10
-81.7645
 20
-12.115
 30
0.0
 10
-81.7645
 20
-12.115
 30
0.0
 10
-81.7645
 20
-1.3459
 30
0.0
 10
-81.7645
 20
-1.3459
 30
0.0
 10
-81.7645
 20
-1.3459
 30
0.0
 10
-79.7072
 20
3.4941
 30
0.0
 10
-75.4722
 20
5.551
 30
0.0
 10
-70.6322
 20
5.551
 30
0.0
 10
-70.6322
 20
5.551
 30
0.0
 10
-70.6322
 20
5.551
 30
0.0
 10
-70.6322
 20
-0.983
 30
0.0
 10
-70.6322
 20
-0.983
 30
0.0
 10
-70.6322
 20
-0.983
 30
0.0
 10
-70.6322
 20
-0.983
 30
0.0
 10
-64.2192
 20
-0.983
 30
0.0
 10
-64.2192
 20
-0.983
 30
0.0
 10
-64.2192
 20
-0.983
 30
0.0
 10
-64.0981
 20
-5.8231
 30
0.0
 10
-66.1551
 20
-10.058
 30
0.0
 10
-70.9951
 20
-12.115
 30
0.0
 10
-70.9951
 20
-12.115
 30
0.0
 10
-70.9951
 20
-12.115
 30
0.0
 10
-81.7645
 20
-12.115
 30
0.0
 10
-81.7645
 20
-12.115
 30
0.0
  0
SPLINE
  5
6D
330
1F
100
AcDbEntity
  8
layer 1
 62
     7
100
AcDbSpline
210
0.0
220
0.0
230
1.0
 70
    11
 71
     3
 72
    28
 73
    24
 74
     0
 42
0.0000000001
 43
0.0000000001
 12
1.0
 22
0.0
 32
0.0
 13
1.0
 23
0.0
 33
0.0
 40
0.0
 40
0.0
 40
0.0
 40
0.0
 40
0.1428571428571428
 40
0.1428571428571428
 40
0.1428571428571428
 40
0.1428571428571428
 40
0.2857142857142857
 40
0.2857142857142857
 40
0.2857142857142857
 40
0.2857142857142857
 40
0.4285714285714285
 40
0.4285714285714285
 40
0.4285714285714285
 40
0.4285714285714285
 40
0.5714285714285714
 40
0.5714285714285714
 40
0.5714285714285714
 40
0.5714285714285714
 40
0.7142857142857143
 40
0.7142857142857143
 40
0.7142857142857143
 40
0.7142857142857143
 40
1.0
 40
1.0
 40
1.0
 40
1.0
 10
-43.7697
 20
-12.115
 30
0.0
 10
-43.7697
 20
-12.115
 30
0.0
 10
-51.7561
 20
-12.115
 30
0.0
 10
-51.7561
 20
-12.115
 30
0.0
 10
-51.7561
 20
-12.115
 30
0.0
 10
-56.475
 20
-10.058
 30
0.0
 10
-58.532
 20
-5.8231
 30
0.0
 10
-58.532
 20
-0.983
 30
0.0
 10
-58.532
 20
-0.983
 30
0.0
 10
-58.532
 20
-0.983
 30
0.0
 10
-51.9979
 20
-0.983
 30
0.0
 10
-51.9979
 20
-0.983
 30
0.0
 10
-51.9979
 20
-0.983
 30
0.0
 10
-51.9979
 20
-0.983
 30
0.0
 10
-51.9979
 20
5.551
 30
0.0
 10
-51.9979
 20
5.551
 30
0.0
 10
-51.9979
 20
5.551
 30
0.0
 10
-48.8519
 20
5.551
 30
0.0
 10
-45.9477
 20
4.7042
 30
0.0
 10
-43.7697
 20
2.768
 30
0.0
 10
-43.7697
 20
2.768
 30
0.0
 10
-43.7697
 20
2.768
 30
0.0
 10
-43.7697
 20
-12.115
 30
0.0
 10
-43.7697
 20
-12.115
 30
0.0
  0
SPLINE
  5
6E
330
1F
100
AcDbEntity
  8
layer 1
 62
     7
100
AcDbSpline
210
0.0
220
0.0
230
1.0
 70
    11
 71
     3
 72
    28
 73
    24
 74
     0
 42
0.0000000001
 43
0.0000000001
 12
1.0
 22
0.0
 32
0.0
 13
1.0
 23
0.0
 33
0.0
 40
0.0
 40
0.0
 40
0.0
 40
0.0
 40
0.1428571428571428
 40
0.1428571428571428
 40
0.1428571428571428
 40
0.1428571428571428
 40
0.2857142857142857
 40
0.2857142857142857
 40
0.2857142857142857
 40
0.2857142857142857
 40
0.4285714285714285
 40
0.4285714285714285
 40
0.4285714285714285
 40
0.4285714285714285
 40
0.5714285714285714
 40
0.5714285714285714
 40
0.5714285714285714
 40
0.5714285714285714
 40
0.7142857142857143
 40
0.7142857142857143
 40
0.7142857142857143
 40
0.7142857142857143
 40
1.0
 40
1.0
 40
1.0
 40
1.0
 10
-43.7697
 20
13.9003
 30
0.0
 10
-45.9477
 20
11.9641
 30
0.0
 10
-48.8519
 20
11.1172
 30
0.0
 10
-51.9979
 20
11.1172
 30
0.0
 10
-51.9979
 20
11.1172
 30
0.0
 10
-51.9979
 20
11.1172
 30
0.0
 10
-51.9979
 20
17.6513
 30
0.0
 10
-51.9979
 20
17.6513
 30
0.0
 10
-51.9979
 20
17.6513
 30
0.0
 10
-51.9979
 20
17.6513
 30
0.0
 10
-58.532
 20
17.6513
 30
0.0
 10
-58.532
 20
17.6513
 30
0.0
 10
-58.532
 20
17.6513
 30
0.0
 10
-58.532
 20
22.4913
 30
0.0
 10
-56.475
 20
26.7263
 30
0.0
 10
-51.7561
 20
28.7832
 30
0.0
 10
-51.7561
 20
28.7832
 30
0.0
 10
-51.7561
 20
28.7832
 30
0.0
 10
-43.7697
 20
28.7832
 30
0.0
 10
-43.7697
 20
28.7832
 30
0.0
 10
-43.7697
 20
28.7832
 30
0.0
 10
-43.7697
 20
28.7832
 30
0.0
 10
-43.7697
 20
13.9003
 30
0.0
 10
-43.7697
 20
13.9003
 30
0.0
  0
SPLINE
  5
6F
330
1F
100
AcDbEntity
  8
layer 1
 62
     7
100
AcDbSpline
210
0.0
220
0.0
230
1.0
 70
    11
 71
     3
 72
    28
 73
    24
 74
     0
 42
0.0000000001
 43
0.0000000001
 12
1.0
 22
0.0
 32
0.0
 13
1.0
 23
0.0
 33
0.0
 40
0.0
 40
0.0
 40
0.0
 40
0.0
 40
0.1428571428571428
 40
0.1428571428571428
 40
0.1428571428571428
 40
0.1428571428571428
 40
0.2857142857142857
 40
0.2857142857142857
 40
0.2857142857142857
 40
0.2857142857142857
 40
0.4285714285714285
 40
0.4285714285714285
 40
0.4285714285714285
 40
0.4285714285714285
 40
0.5714285714285714
 40
0.5714285714285714
 40
0.5714285714285714
 40
0.5714285714285714
 40
0.7142857142857143
 40
0.7142857142857143
 40
0.7142857142857143
 40
0.7142857142857143
 40
1.0
 40
1.0
 40
1.0
 40
1.0
 10
-81.7645
 20
28.7832
 30
0.0
 10
-81.7645
 20
28.7832
 30
0.0
 10
-70.9951
 20
28.7832
 30
0.0
 10
-70.9951
 20
28.7832
 30
0.0
 10
-70.9951
 20
28.7832
 30
0.0
 10
-66.1551
 20
26.7263
 30
0.0
 10
-64.0981
 20
22.4913
 30
0.0
 10
-64.2192
 20
17.6513
 30
0.0
 10
-64.2192
 20
17.6513
 30
0.0
 10
-64.2192
 20
17.6513
 30
0.0
 10
-70.6322
 20
17.6513
 30
0.0
 10
-70.6322
 20
17.6513
 30
0.0
 10
-70.6322
 20
17.6513
 30
0.0
 10
-70.6322
 20
17.6513
 30
0.0
 10
-70.6322
 20
11.1172
 30
0.0
 10
-70.6322
 20
11.1172
 30
0.0
 10
-70.6322
 20
11.1172
 30
0.0
 10
-75.4722
 20
11.1172
 30
0.0
 10
-79.7072
 20
13.1741
 30
0.0
 10
-81.7645
 20
18.0142
 30
0.0
 10
-81.7645
 20
18.0142
 30
0.0
 10
-81.7645
 20
18.0142
 30
0.0
 10
-81.7645
 20
28.7832
 30
0.0
 10
-81.7645
 20
28.7832
 30
0.0
  0
SPLINE
  5
70
330
1F
100
AcDbEntity
  8
layer 1
 62
     7
100
AcDbSpline
210
0.0
220
0.0
230
1.0
 70
    11
 71
     3
 72
    20
 73
    16
 74
     0
 42
0.0000000001
 43
0.0000000001
 12
1.0
 22
0.0
 32
0.0
 13
1.0
 23
0.0
 33
0.0
 40
0.0
 40
0.0
 40
0.0
 40
0.0
 40
0.2
 40
0.2
 40
0.2
 40
0.2
 40
0.4
 40
0.4
 40
0.4
 40
0.4
 40
0.6
 40
0.6
 40
0.6
 40
0.6
 40
1.0
 40
1.0
 40
1.0
 40
1.0
 10
-66.8812
 20
2.768
 30
0.0
 10
-66.8812
 20
2.768
 30
0.0
 10
-66.8812
 20
13.8372
 30
0.0
 10
-66.8812
 20
13.8372
 30
0.0
 10
-66.8812
 20
13.8372
 30
0.0
 10
-66.8812
 20
13.8372
 30
0.0
 10
-55.812
 20
13.8372
 30
0.0
 10
-55.812
 20
13.8372
 30
0.0
 10
-55.812
 20
13.8372
 30
0.0
 10
-55.812
 20
13.8372
 30
0.0
 10
-55.812
 20
2.768
 30
0.0
 10
-55.812
 20
2.768
 30
0.0
 10
-55.812
 20
2.768
 30
0.0
 10
-55.812
 20
2.768
 30
0.0
 10
-66.8812
 20
2.768
 30
0.0
 10
-66.8812
 20
2.768
 30
0.0
  0
SPLINE
  5
71
330
1F
100
AcDbEntity
  8
layer 1
 62
     7
100
AcDbSpline
210
0.0
220
0.0
230
1.0
 70
    11
 71
     3
 72
    20
 73
    16
 74
     0
 42
0.0000000001
 43
0.0000000001
 12
1.0
 22
0.0
 32
0.0
 13
1.0
 23
0.0
 33
0.0
 40
0.0
 40
0.0
 40
0.0
 40
0.0
 40
0.2
 40
0.2
 40
0.2
 40
0.2
 40
0.4
 40
0.4
 40
0.4
 40
0.4
 40
0.6
 40
0.6
 40
0.6
 40
0.6
 40
1.0
 40
1.0
 40
1.0
 40
1.0
 10
-115.8868
 20
81.0559
 30
0.0
 10
-113.4666
 20
82.3871
 30
0.0
 10
-111.4097
 20
84.323
 30
0.0
 10
-109.8367
 20
86.9853
 30
0.0
 10
-109.8367
 20
86.9853
 30
0.0
 10
-108.3848
 20
84.323
 30
0.0
 10
-106.2068
 20
82.3871
 30
0.0
 10
-103.7866
 20
81.0559
 30
0.0
 10
-103.7866
 20
81.0559
 30
0.0
 10
-106.2068
 20
79.8462
 30
0.0
 10
-108.3848
 20
77.7889
 30
0.0
 10
-109.8367
 20
75.248
 30
0.0
 10
-109.8367
 20
75.248
 30
0.0
 10
-111.4097
 20
77.7889
 30
0.0
 10
-113.4666
 20
79.8462
 30
0.0
 10
-115.8868
 20
81.0559
 30
0.0
  0
SPLINE
  5
72
330
1F
100
AcDbEntity
  8
layer 1
 62
     7
100
AcDbSpline
210
0.0
220
0.0
230
1.0
 70
    11
 71
     3
 72
    20
 73
    16
 74
     0
 42
0.0000000001
 43
0.0000000001
 12
1.0
 22
0.0
 32
0.0
 13
1.0
 23
0.0
 33
0.0
 40
0.0
 40
0.0
 40
0.0
 40
0.0
 40
0.2
 40
0.2
 40
0.2
 40
0.2
 40
0.4
 40
0.4
 40
0.4
 40
0.4
 40
0.6
 40
0.6
 40
0.6
 40
0.6
 40
1.0
 40
1.0
 40
1.0
 40
1.0
 10
-134.0372
 20
99.2063
 30
0.0
 10
-135.368
 20
101.7472
 30
0.0
 10
-137.3042
 20
103.8045
 30
0.0
 10
-139.9662
 20
105.3775
 30
0.0
 10
-139.9662
 20
105.3775
 30
0.0
 10
-137.3042
 20
106.8294
 30
0.0
 10
-135.368
 20
109.0074
 30
0.0
 10
-134.0372
 20
111.4276
 30
0.0
 10
-134.0372
 20
111.4276
 30
0.0
 10
-132.8271
 20
109.0074
 30
0.0
 10
-130.8909
 20
106.8294
 30
0.0
 10
-128.2289
 20
105.3775
 30
0.0
 10
-128.2289
 20
105.3775
 30
0.0
 10
-130.8909
 20
103.8045
 30
0.0
 10
-132.8271
 20
101.7472
 30
0.0
 10
-134.0372
 20
99.2063
 30
0.0
  0
SPLINE
  5
73
330
1F
100
AcDbEntity
  8
layer 1
 62
     7
100
AcDbSpline
210
0.0
220
0.0
230
1.0
 70
    11
 71
     3
 72
    28
 73
    24
 74
     0
 42
0.0000000001
 43
0.0000000001
 12
1.0
 22
0.0
 32
0.0
 13
1.0
 23
0.0
 33
0.0
 40
0.0
 40
0.0
 40
0.0
 40
0.0
 40
0.1428571428571428
 40
0.1428571428571428
 40
0.1428571428571428
 40
0.1428571428571428
 40
0.2857142857142857
 40
0.2857142857142857
 40
0.2857142857142857
 40
0.2857142857142857
 40
0.4285714285714285
 40
0.4285714285714285
 40
0.4285714285714285
 40
0.4285714285714285
 40
0.5714285714285714
 40
0.5714285714285714
 40
0.5714285714285714
 40
0.5714285714285714
 40
0.7142857142857143
 40
0.7142857142857143
 40
0.7142857142857143
 40
0.7142857142857143
 40
1.0
 40
1.0
 40
1.0
 40
1.0
 10
-130.2858
 20
84.928
 30
0.0
 10
-130.2858
 20
84.928
 30
0.0
 10
-130.2858
 20
95.6974
 30
0.0
 10
-130.2858
 20
95.6974
 30
0.0
 10
-130.2858
 20
95.6974
 30
0.0
 10
-128.2289
 20
100.5375
 30
0.0
 10
-123.9939
 20
102.5944
 30
0.0
 10
-119.1539
 20
102.4733
 30
0.0
 10
-119.1539
 20
102.4733
 30
0.0
 10
-119.1539
 20
102.4733
 30
0.0
 10
-119.1539
 20
96.0603
 30
0.0
 10
-119.1539
 20
96.0603
 30
0.0
 10
-119.1539
 20
96.0603
 30
0.0
 10
-119.1539
 20
96.0603
 30
0.0
 10
-112.6198
 20
96.0603
 30
0.0
 10
-112.6198
 20
96.0603
 30
0.0
 10
-112.6198
 20
96.0603
 30
0.0
 10
-112.6198
 20
91.2203
 30
0.0
 10
-114.6767
 20
86.9853
 30
0.0
 10
-119.5168
 20
84.928
 30
0.0
 10
-119.5168
 20
84.928
 30
0.0
 10
-119.5168
 20
84.928
 30
0.0
 10
-130.2858
 20
84.928
 30
0.0
 10
-130.2858
 20
84.928
 30
0.0
  0
SPLINE
  5
74
330
1F
100
AcDbEntity
  8
layer 1
 62
     7
100
AcDbSpline
210
0.0
220
0.0
230
1.0
 70
    11
 71
     3
 72
    28
 73
    24
 74
     0
 42
0.0000000001
 43
0.0000000001
 12
1.0
 22
0.0
 32
0.0
 13
1.0
 23
0.0
 33
0.0
 40
0.0
 40
0.0
 40
0.0
 40
0.0
 40
0.1428571428571428
 40
0.1428571428571428
 40
0.1428571428571428
 40
0.1428571428571428
 40
0.2857142857142857
 40
0.2857142857142857
 40
0.2857142857142857
 40
0.2857142857142857
 40
0.4285714285714285
 40
0.4285714285714285
 40
0.4285714285714285
 40
0.4285714285714285
 40
0.5714285714285714
 40
0.5714285714285714
 40
0.5714285714285714
 40
0.5714285714285714
 40
0.7142857142857143
 40
0.7142857142857143
 40
0.7142857142857143
 40
0.7142857142857143
 40
1.0
 40
1.0
 40
1.0
 40
1.0
 10
-89.3876
 20
84.928
 30
0.0
 10
-89.3876
 20
84.928
 30
0.0
 10
-100.2777
 20
84.928
 30
0.0
 10
-100.2777
 20
84.928
 30
0.0
 10
-100.2777
 20
84.928
 30
0.0
 10
-104.9967
 20
86.9853
 30
0.0
 10
-107.0536
 20
91.2203
 30
0.0
 10
-107.0536
 20
96.0603
 30
0.0
 10
-107.0536
 20
96.0603
 30
0.0
 10
-107.0536
 20
96.0603
 30
0.0
 10
-100.5196
 20
96.0603
 30
0.0
 10
-100.5196
 20
96.0603
 30
0.0
 10
-100.5196
 20
96.0603
 30
0.0
 10
-100.5196
 20
96.0603
 30
0.0
 10
-100.5196
 20
102.4733
 30
0.0
 10
-100.5196
 20
102.4733
 30
0.0
 10
-100.5196
 20
102.4733
 30
0.0
 10
-95.6795
 20
102.5944
 30
0.0
 10
-91.5656
 20
100.5375
 30
0.0
 10
-89.3876
 20
95.6974
 30
0.0
 10
-89.3876
 20
95.6974
 30
0.0
 10
-89.3876
 20
95.6974
 30
0.0
 10
-89.3876
 20
84.928
 30
0.0
 10
-89.3876
 20
84.928
 30
0.0
  0
SPLINE
  5
75
330
1F
100
AcDbEntity
  8
layer 1
 62
     7
100
AcDbSpline
210
0.0
220
0.0
230
1.0
 70
    11
 71
     3
 72
    28
 73
    24
 74
     0
 42
0.0000000001
 43
0.0000000001
 12
1.0
 22
0.0
 32
0.0
 13
1.0
 23
0.0
 33
0.0
 40
0.0
 40
0.0
 40
0.0
 40
0.0
 40
0.1428571428571428
 40
0.1428571428571428
 40
0.1428571428571428
 40
0.1428571428571428
 40
0.2857142857142857
 40
0.2857142857142857
 40
0.2857142857142857
 40
0.2857142857142857
 40
0.4285714285714285
 40
0.4285714285714285
 40
0.4285714285714285
 40
0.4285714285714285
 40
0.5714285714285714
 40
0.5714285714285714
 40
0.5714285714285714
 40
0.5714285714285714
 40
0.7142857142857143
 40
0.7142857142857143
 40
0.7142857142857143
 40
0.7142857142857143
 40
1.0
 40
1.0
 40
1.0
 40
1.0
 10
-89.3876
 20
120.3815
 30
0.0
 10
-89.3876
 20
120.3815
 30
0.0
 10
-89.3876
 20
114.9365
 30
0.0
 10
-89.3876
 20
114.9365
 30
0.0
 10
-89.3876
 20
114.9365
 30
0.0
 10
-91.5656
 20
110.2175
 30
0.0
 10
-95.6795
 20
108.1606
 30
0.0
 10
-100.5196
 20
108.1606
 30
0.0
 10
-100.5196
 20
108.1606
 30
0.0
 10
-100.5196
 20
108.1606
 30
0.0
 10
-100.5196
 20
114.6947
 30
0.0
 10
-100.5196
 20
114.6947
 30
0.0
 10
-100.5196
 20
114.6947
 30
0.0
 10
-100.5196
 20
114.6947
 30
0.0
 10
-107.0536
 20
114.6947
 30
0.0
 10
-107.0536
 20
114.6947
 30
0.0
 10
-107.0536
 20
114.6947
 30
0.0
 10
-107.0536
 20
116.7516
 30
0.0
 10
-106.6907
 20
118.6875
 30
0.0
 10
-105.9646
 20
120.3815
 30
0.0
 10
-105.9646
 20
120.3815
 30
0.0
 10
-105.9646
 20
120.3815
 30
0.0
 10
-89.3876
 20
120.3815
 30
0.0
 10
-89.3876
 20
120.3815
 30
0.0
  0
SPLINE
  5
76
330
1F
100
AcDbEntity
  8
layer 1
 62
     7
100
AcDbSpline
210
0.0
220
0.0
230
1.0
 70
    11
 71
     3
 72
    28
 73
    24
 74
     0
 42
0.0000000001
 43
0.0000000001
 12
1.0
 22
0.0
 32
0.0
 13
1.0
 23
0.0
 33
0.0
 40
0.0
 40
0.0
 40
0.0
 40
0.0
 40
0.1428571428571428
 40
0.1428571428571428
 40
0.1428571428571428
 40
0.1428571428571428
 40
0.2857142857142857
 40
0.2857142857142857
 40
0.2857142857142857
 40
0.2857142857142857
 40
0.4285714285714285
 40
0.4285714285714285
 40
0.4285714285714285
 40
0.4285714285714285
 40
0.5714285714285714
 40
0.5714285714285714
 40
0.5714285714285714
 40
0.5714285714285714
 40
0.7142857142857143
 40
0.7142857142857143
 40
0.7142857142857143
 40
0.7142857142857143
 40
1.0
 40
1.0
 40
1.0
 40
1.0
 10
-113.8299
 20
120.3815
 30
0.0
 10
-112.9827
 20
118.6875
 30
0.0
 10
-112.6198
 20
116.7516
 30
0.0
 10
-112.6198
 20
114.6947
 30
0.0
 10
-112.6198
 20
114.6947
 30
0.0
 10
-112.6198
 20
114.6947
 30
0.0
 10
-119.1539
 20
114.6947
 30
0.0
 10
-119.1539
 20
114.6947
 30
0.0
 10
-119.1539
 20
114.6947
 30
0.0
 10
-119.1539
 20
114.6947
 30
0.0
 10
-119.1539
 20
108.1606
 30
0.0
 10
-119.1539
 20
108.1606
 30
0.0
 10
-119.1539
 20
108.1606
 30
0.0
 10
-123.9939
 20
108.1606
 30
0.0
 10
-128.2289
 20
110.2175
 30
0.0
 10
-130.2858
 20
114.9365
 30
0.0
 10
-130.2858
 20
114.9365
 30
0.0
 10
-130.2858
 20
114.9365
 30
0.0
 10
-130.2858
 20
120.3815
 30
0.0
 10
-130.2858
 20
120.3815
 30
0.0
 10
-130.2858
 20
120.3815
 30
0.0
 10
-130.2858
 20
120.3815
 30
0.0
 10
-113.8299
 20
120.3815
 30
0.0
 10
-113.8299
 20
120.3815
 30
0.0
  0
SPLINE
  5
77
330
1F
100
AcDbEntity
  8
layer 1
 62
     7
100
AcDbSpline
210
0.0
220
0.0
230
1.0
 70
    11
 71
     3
 72
    20
 73
    16
 74
     0
 42
0.0000000001
 43
0.0000000001
 12
1.0
 22
0.0
 32
0.0
 13
1.0
 23
0.0
 33
0.0
 40
0.0
 40
0.0
 40
0.0
 40
0.0
 40
0.2
 40
0.2
 40
0.2
 40
0.2
 40
0.4
 40
0.4
 40
0.4
 40
0.4
 40
0.6
 40
0.6
 40
0.6
 40
0.6
 40
1.0
 40
1.0
 40
1.0
 40
1.0
 10
-115.4029
 20
99.8113
 30
0.0
 10
-115.4029
 20
99.8113
 30
0.0
 10
-115.4029
 20
110.8819
 30
0.0
 10
-115.4029
 20
110.8819
 30
0.0
 10
-115.4029
 20
110.8819
 30
0.0
 10
-115.4029
 20
110.8819
 30
0.0
 10
-104.3337
 20
110.8819
 30
0.0
 10
-104.3337
 20
110.8819
 30
0.0
 10
-104.3337
 20
110.8819
 30
0.0
 10
-104.3337
 20
110.8819
 30
0.0
 10
-104.3337
 20
99.8113
 30
0.0
 10
-104.3337
 20
99.8113
 30
0.0
 10
-104.3337
 20
99.8113
 30
0.0
 10
-104.3337
 20
99.8113
 30
0.0
 10
-115.4029
 20
99.8113
 30
0.0
 10
-115.4029
 20
99.8113
 30
0.0
  0
SPLINE
  5
78
330
1F
100
AcDbEntity
  8
layer 1
 62
     7
100
AcDbSpline
210
0.0
220
0.0
230
1.0
 70
    11
 71
     3
 72
    20
 73
    16
 74
     0
 42
0.0000000001
 43
0.0000000001
 12
1.0
 22
0.0
 32
0.0
 13
1.0
 23
0.0
 33
0.0
 40
0.0
 40
0.0
 40
0.0
 40
0.0
 40
0.2
 40
0.2
 40
0.2
 40
0.2
 40
0.4
 40
0.4
 40
0.4
 40
0.4
 40
0.6
 40
0.6
 40
0.6
 40
0.6
 40
1.0
 40
1.0
 40
1.0
 40
1.0
 10
-67.4862
 20
32.5346
 30
0.0
 10
-64.945
 20
33.8654
 30
0.0
 10
-62.888
 20
35.8016
 30
0.0
 10
-61.315
 20
38.4636
 30
0.0
 10
-61.315
 20
38.4636
 30
0.0
 10
-59.8631
 20
35.8016
 30
0.0
 10
-57.6851
 20
33.8654
 30
0.0
 10
-55.2649
 20
32.5346
 30
0.0
 10
-55.2649
 20
32.5346
 30
0.0
 10
-57.6851
 20
31.3245
 30
0.0
 10
-59.8631
 20
29.2676
 30
0.0
 10
-61.315
 20
26.7263
 30
0.0
 10
-61.315
 20
26.7263
 30
0.0
 10
-62.888
 20
29.2676
 30
0.0
 10
-64.945
 20
31.3245
 30
0.0
 10
-67.4862
 20
32.5346
 30
0.0
  0
SPLINE
  5
79
330
1F
100
AcDbEntity
  8
layer 1
 62
     7
100
AcDbSpline
210
0.0
220
0.0
230
1.0
 70
    11
 71
     3
 72
    20
 73
    16
 74
     0
 42
0.0000000001
 43
0.0000000001
 12
1.0
 22
0.0
 32
0.0
 13
1.0
 23
0.0
 33
0.0
 40
0.0
 40
0.0
 40
0.0
 40
0.0
 40
0.2
 40
0.2
 40
0.2
 40
0.2
 40
0.4
 40
0.4
 40
0.4
 40
0.4
 40
0.6
 40
0.6
 40
0.6
 40
0.6
 40
1.0
 40
1.0
 40
1.0
 40
1.0
 10
-85.6362
 20
50.8057
 30
0.0
 10
-86.8463
 20
53.2259
 30
0.0
 10
-88.9033
 20
55.2828
 30
0.0
 10
-91.4445
 20
56.8558
 30
0.0
 10
-91.4445
 20
56.8558
 30
0.0
 10
-88.9033
 20
58.3077
 30
0.0
 10
-86.8463
 20
60.4857
 30
0.0
 10
-85.6362
 20
62.9059
 30
0.0
 10
-85.6362
 20
62.9059
 30
0.0
 10
-84.3054
 20
60.4857
 30
0.0
 10
-82.3692
 20
58.3077
 30
0.0
 10
-79.7072
 20
56.8558
 30
0.0
 10
-79.7072
 20
56.8558
 30
0.0
 10
-82.3692
 20
55.2828
 30
0.0
 10
-84.3054
 20
53.2259
 30
0.0
 10
-85.6362
 20
50.8057
 30
0.0
  0
SPLINE
  5
7A
330
1F
100
AcDbEntity
  8
layer 1
 62
     7
100
AcDbSpline
210
0.0
220
0.0
230
1.0
 70
    11
 71
     3
 72
    28
 73
    24
 74
     0
 42
0.0000000001
 43
0.0000000001
 12
1.0
 22
0.0
 32
0.0
 13
1.0
 23
0.0
 33
0.0
 40
0.0
 40
0.0
 40
0.0
 40
0.0
 40
0.1428571428571428
 40
0.1428571428571428
 40
0.1428571428571428
 40
0.1428571428571428
 40
0.2857142857142857
 40
0.2857142857142857
 40
0.2857142857142857
 40
0.2857142857142857
 40
0.4285714285714285
 40
0.4285714285714285
 40
0.4285714285714285
 40
0.4285714285714285
 40
0.5714285714285714
 40
0.5714285714285714
 40
0.5714285714285714
 40
0.5714285714285714
 40
0.7142857142857143
 40
0.7142857142857143
 40
0.7142857142857143
 40
0.7142857142857143
 40
1.0
 40
1.0
 40
1.0
 40
1.0
 10
-81.7645
 20
36.4063
 30
0.0
 10
-81.7645
 20
36.4063
 30
0.0
 10
-81.7645
 20
47.1758
 30
0.0
 10
-81.7645
 20
47.1758
 30
0.0
 10
-81.7645
 20
47.1758
 30
0.0
 10
-79.7072
 20
52.0158
 30
0.0
 10
-75.4722
 20
54.0727
 30
0.0
 10
-70.6322
 20
54.0727
 30
0.0
 10
-70.6322
 20
54.0727
 30
0.0
 10
-70.6322
 20
54.0727
 30
0.0
 10
-70.6322
 20
47.5386
 30
0.0
 10
-70.6322
 20
47.5386
 30
0.0
 10
-70.6322
 20
47.5386
 30
0.0
 10
-70.6322
 20
47.5386
 30
0.0
 10
-64.2192
 20
47.5386
 30
0.0
 10
-64.2192
 20
47.5386
 30
0.0
 10
-64.2192
 20
47.5386
 30
0.0
 10
-64.0981
 20
42.6986
 30
0.0
 10
-66.1551
 20
38.4636
 30
0.0
 10
-70.9951
 20
36.4063
 30
0.0
 10
-70.9951
 20
36.4063
 30
0.0
 10
-70.9951
 20
36.4063
 30
0.0
 10
-81.7645
 20
36.4063
 30
0.0
 10
-81.7645
 20
36.4063
 30
0.0
  0
SPLINE
  5
7B
330
1F
100
AcDbEntity
  8
layer 1
 62
     7
100
AcDbSpline
210
0.0
220
0.0
230
1.0
 70
    11
 71
     3
 72
    28
 73
    24
 74
     0
 42
0.0000000001
 43
0.0000000001
 12
1.0
 22
0.0
 32
0.0
 13
1.0
 23
0.0
 33
0.0
 40
0.0
 40
0.0
 40
0.0
 40
0.0
 40
0.1428571428571428
 40
0.1428571428571428
 40
0.1428571428571428
 40
0.1428571428571428
 40
0.2857142857142857
 40
0.2857142857142857
 40
0.2857142857142857
 40
0.2857142857142857
 40
0.4285714285714285
 40
0.4285714285714285
 40
0.4285714285714285
 40
0.4285714285714285
 40
0.5714285714285714
 40
0.5714285714285714
 40
0.5714285714285714
 40
0.5714285714285714
 40
0.7142857142857143
 40
0.7142857142857143
 40
0.7142857142857143
 40
0.7142857142857143
 40
1.0
 40
1.0
 40
1.0
 40
1.0
 10
-43.7697
 20
36.4063
 30
0.0
 10
-43.7697
 20
36.4063
 30
0.0
 10
-51.7561
 20
36.4063
 30
0.0
 10
-51.7561
 20
36.4063
 30
0.0
 10
-51.7561
 20
36.4063
 30
0.0
 10
-56.475
 20
38.4636
 30
0.0
 10
-58.532
 20
42.6986
 30
0.0
 10
-58.532
 20
47.5386
 30
0.0
 10
-58.532
 20
47.5386
 30
0.0
 10
-58.532
 20
47.5386
 30
0.0
 10
-51.9979
 20
47.5386
 30
0.0
 10
-51.9979
 20
47.5386
 30
0.0
 10
-51.9979
 20
47.5386
 30
0.0
 10
-51.9979
 20
47.5386
 30
0.0
 10
-51.9979
 20
54.0727
 30
0.0
 10
-51.9979
 20
54.0727
 30
0.0
 10
-51.9979
 20
54.0727
 30
0.0
 10
-48.8519
 20
54.0727
 30
0.0
 10
-45.9477
 20
53.2259
 30
0.0
 10
-43.7697
 20
51.2897
 30
0.0
 10
-43.7697
 20
51.2897
 30
0.0
 10
-43.7697
 20
51.2897
 30
0.0
 10
-43.7697
 20
36.4063
 30
0.0
 10
-43.7697
 20
36.4063
 30
0.0
  0
SPLINE
  5
7C
330
1F
100
AcDbEntity
  8
layer 1
 62
     7
100
AcDbSpline
210
0.0
220
0.0
230
1.0
 70
    11
 71
     3
 72
    28
 73
    24
 74
     0
 42
0.0000000001
 43
0.0000000001
 12
1.0
 22
0.0
 32
0.0
 13
1.0
 23
0.0
 33
0.0
 40
0.0
 40
0.0
 40
0.0
 40
0.0
 40
0.1428571428571428
 40
0.1428571428571428
 40
0.1428571428571428
 40
0.1428571428571428
 40
0.2857142857142857
 40
0.2857142857142857
 40
0.2857142857142857
 40
0.2857142857142857
 40
0.4285714285714285
 40
0.4285714285714285
 40
0.4285714285714285
 40
0.4285714285714285
 40
0.5714285714285714
 40
0.5714285714285714
 40
0.5714285714285714
 40
0.5714285714285714
 40
0.7142857142857143
 40
0.7142857142857143
 40
0.7142857142857143
 40
0.7142857142857143
 40
1.0
 40
1.0
 40
1.0
 40
1.0
 10
-43.7697
 20
62.422
 30
0.0
 10
-45.9477
 20
60.4857
 30
0.0
 10
-48.8519
 20
59.6389
 30
0.0
 10
-51.9979
 20
59.6389
 30
0.0
 10
-51.9979
 20
59.6389
 30
0.0
 10
-51.9979
 20
59.6389
 30
0.0
 10
-51.9979
 20
66.173
 30
0.0
 10
-51.9979
 20
66.173
 30
0.0
 10
-51.9979
 20
66.173
 30
0.0
 10
-51.9979
 20
66.173
 30
0.0
 10
-58.532
 20
66.173
 30
0.0
 10
-58.532
 20
66.173
 30
0.0
 10
-58.532
 20
66.173
 30
0.0
 10
-58.532
 20
71.013
 30
0.0
 10
-56.475
 20
75.1269
 30
0.0
 10
-51.7561
 20
77.3049
 30
0.0
 10
-51.7561
 20
77.3049
 30
0.0
 10
-51.7561
 20
77.3049
 30
0.0
 10
-43.7697
 20
77.3049
 30
0.0
 10
-43.7697
 20
77.3049
 30
0.0
 10
-43.7697
 20
77.3049
 30
0.0
 10
-43.7697
 20
77.3049
 30
0.0
 10
-43.7697
 20
62.422
 30
0.0
 10
-43.7697
 20
62.422
 30
0.0
  0
SPLINE
  5
7D
330
1F
100
AcDbEntity
  8
layer 1
 62
     7
100
AcDbSpline
210
0.0
220
0.0
230
1.0
 70
    11
 71
     3
 72
    28
 73
    24
 74
     0
 42
0.0000000001
 43
0.0000000001
 12
1.0
 22
0.0
 32
0.0
 13
1.0
 23
0.0
 33
0.0
 40
0.0
 40
0.0
 40
0.0
 40
0.0
 40
0.1428571428571428
 40
0.1428571428571428
 40
0.1428571428571428
 40
0.1428571428571428
 40
0.2857142857142857
 40
0.2857142857142857
 40
0.2857142857142857
 40
0.2857142857142857
 40
0.4285714285714285
 40
0.4285714285714285
 40
0.4285714285714285
 40
0.4285714285714285
 40
0.5714285714285714
 40
0.5714285714285714
 40
0.5714285714285714
 40
0.5714285714285714
 40
0.7142857142857143
 40
0.7142857142857143
 40
0.7142857142857143
 40
0.7142857142857143
 40
1.0
 40
1.0
 40
1.0
 40
1.0
 10
-81.7645
 20
77.3049
 30
0.0
 10
-81.7645
 20
77.3049
 30
0.0
 10
-70.9951
 20
77.3049
 30
0.0
 10
-70.9951
 20
77.3049
 30
0.0
 10
-70.9951
 20
77.3049
 30
0.0
 10
-66.1551
 20
75.1269
 30
0.0
 10
-64.0981
 20
71.013
 30
0.0
 10
-64.2192
 20
66.173
 30
0.0
 10
-64.2192
 20
66.173
 30
0.0
 10
-64.2192
 20
66.173
 30
0.0
 10
-70.6322
 20
66.173
 30
0.0
 10
-70.6322
 20
66.173
 30
0.0
 10
-70.6322
 20
66.173
 30
0.0
 10
-70.6322
 20
66.173
 30
0.0
 10
-70.6322
 20
59.6389
 30
0.0
 10
-70.6322
 20
59.6389
 30
0.0
 10
-70.6322
 20
59.6389
 30
0.0
 10
-75.4722
 20
59.6389
 30
0.0
 10
-79.7072
 20
61.6958
 30
0.0
 10
-81.7645
 20
66.4148
 30
0.0
 10
-81.7645
 20
66.4148
 30
0.0
 10
-81.7645
 20
66.4148
 30
0.0
 10
-81.7645
 20
77.3049
 30
0.0
 10
-81.7645
 20
77.3049
 30
0.0
  0
SPLINE
  5
7E
330
1F
100
AcDbEntity
  8
layer 1
 62
     7
100
AcDbSpline
210
0.0
220
0.0
230
1.0
 70
    11
 71
     3
 72
    20
 73
    16
 74
     0
 42
0.0000000001
 43
0.0000000001
 12
1.0
 22
0.0
 32
0.0
 13
1.0
 23
0.0
 33
0.0
 40
0.0
 40
0.0
 40
0.0
 40
0.0
 40
0.2
 40
0.2
 40
0.2
 40
0.2
 40
0.4
 40
0.4
 40
0.4
 40
0.4
 40
0.6
 40
0.6
 40
0.6
 40
0.6
 40
1.0
 40
1.0
 40
1.0
 40
1.0
 10
-66.8812
 20
51.2897
 30
0.0
 10
-66.8812
 20
51.2897
 30
0.0
 10
-66.8812
 20
62.3588
 30
0.0
 10
-66.8812
 20
62.3588
 30
0.0
 10
-66.8812
 20
62.3588
 30
0.0
 10
-66.8812
 20
62.3588
 30
0.0
 10
-55.812
 20
62.3588
 30
0.0
 10
-55.812
 20
62.3588
 30
0.0
 10
-55.812
 20
62.3588
 30
0.0
 10
-55.812
 20
62.3588
 30
0.0
 10
-55.812
 20
51.2897
 30
0.0
 10
-55.812
 20
51.2897
 30
0.0
 10
-55.812
 20
51.2897
 30
0.0
 10
-55.812
 20
51.2897
 30
0.0
 10
-66.8812
 20
51.2897
 30
0.0
 10
-66.8812
 20
51.2897
 30
0.0
  0
SPLINE
  5
7F
330
1F
100
AcDbEntity
  8
layer 1
 62
     7
100
AcDbSpline
210
0.0
220
0.0
230
1.0
 70
    11
 71
     3
 72
    20
 73
    16
 74
     0
 42
0.0000000001
 43
0.0000000001
 12
1.0
 22
0.0
 32
0.0
 13
1.0
 23
0.0
 33
0.0
 40
0.0
 40
0.0
 40
0.0
 40
0.0
 40
0.2
 40
0.2
 40
0.2
 40
0.2
 40
0.4
 40
0.4
 40
0.4
 40
0.4
 40
0.6
 40
0.6
 40
0.6
 40
0.6
 40
1.0
 40
1.0
 40
1.0
 40
1.0
 10
-67.4862
 20
81.0559
 30
0.0
 10
-64.945
 20
82.3871
 30
0.0
 10
-62.888
 20
84.323
 30
0.0
 10
-61.315
 20
86.9853
 30
0.0
 10
-61.315
 20
86.9853
 30
0.0
 10
-59.8631
 20
84.323
 30
0.0
 10
-57.6851
 20
82.3871
 30
0.0
 10
-55.2649
 20
81.0559
 30
0.0
 10
-55.2649
 20
81.0559
 30
0.0
 10
-57.6851
 20
79.8462
 30
0.0
 10
-59.8631
 20
77.7889
 30
0.0
 10
-61.315
 20
75.248
 30
0.0
 10
-61.315
 20
75.248
 30
0.0
 10
-62.888
 20
77.7889
 30
0.0
 10
-64.945
 20
79.8462
 30
0.0
 10
-67.4862
 20
81.0559
 30
0.0
  0
SPLINE
  5
80
330
1F
100
AcDbEntity
  8
layer 1
 62
     7
100
AcDbSpline
210
0.0
220
0.0
230
1.0
 70
    11
 71
     3
 72
    20
 73
    16
 74
     0
 42
0.0000000001
 43
0.0000000001
 12
1.0
 22
0.0
 32
0.0
 13
1.0
 23
0.0
 33
0.0
 40
0.0
 40
0.0
 40
0.0
 40
0.0
 40
0.2
 40
0.2
 40
0.2
 40
0.2
 40
0.4
 40
0.4
 40
0.4
 40
0.4
 40
0.6
 40
0.6
 40
0.6
 40
0.6
 40
1.0
 40
1.0
 40
1.0
 40
1.0
 10
-85.6362
 20
99.2063
 30
0.0
 10
-86.8463
 20
101.7472
 30
0.0
 10
-88.9033
 20
103.8045
 30
0.0
 10
-91.4445
 20
105.3775
 30
0.0
 10
-91.4445
 20
105.3775
 30
0.0
 10
-88.9033
 20
106.8294
 30
0.0
 10
-86.8463
 20
109.0074
 30
0.0
 10
-85.6362
 20
111.4276
 30
0.0
 10
-85.6362
 20
111.4276
 30
0.0
 10
-84.3054
 20
109.0074
 30
0.0
 10
-82.3692
 20
106.8294
 30
0.0
 10
-79.7072
 20
105.3775
 30
0.0
 10
-79.7072
 20
105.3775
 30
0.0
 10
-82.3692
 20
103.8045
 30
0.0
 10
-84.3054
 20
101.7472
 30
0.0
 10
-85.6362
 20
99.2063
 30
0.0
  0
SPLINE
  5
81
330
1F
100
AcDbEntity
  8
layer 1
 62
     7
100
AcDbSpline
210
0.0
220
0.0
230
1.0
 70
    11
 71
     3
 72
    28
 73
    24
 74
     0
 42
0.0000000001
 43
0.0000000001
 12
1.0
 22
0.0
 32
0.0
 13
1.0
 23
0.0
 33
0.0
 40
0.0
 40
0.0
 40
0.0
 40
0.0
 40
0.1428571428571428
 40
0.1428571428571428
 40
0.1428571428571428
 40
0.1428571428571428
 40
0.2857142857142857
 40
0.2857142857142857
 40
0.2857142857142857
 40
0.2857142857142857
 40
0.4285714285714285
 40
0.4285714285714285
 40
0.4285714285714285
 40
0.4285714285714285
 40
0.5714285714285714
 40
0.5714285714285714
 40
0.5714285714285714
 40
0.5714285714285714
 40
0.7142857142857143
 40
0.7142857142857143
 40
0.7142857142857143
 40
0.7142857142857143
 40
1.0
 40
1.0
 40
1.0
 40
1.0
 10
-81.7645
 20
84.928
 30
0.0
 10
-81.7645
 20
84.928
 30
0.0
 10
-81.7645
 20
95.6974
 30
0.0
 10
-81.7645
 20
95.6974
 30
0.0
 10
-81.7645
 20
95.6974
 30
0.0
 10
-79.7072
 20
100.5375
 30
0.0
 10
-75.4722
 20
102.5944
 30
0.0
 10
-70.6322
 20
102.4733
 30
0.0
 10
-70.6322
 20
102.4733
 30
0.0
 10
-70.6322
 20
102.4733
 30
0.0
 10
-70.6322
 20
96.0603
 30
0.0
 10
-70.6322
 20
96.0603
 30
0.0
 10
-70.6322
 20
96.0603
 30
0.0
 10
-70.6322
 20
96.0603
 30
0.0
 10
-64.2192
 20
96.0603
 30
0.0
 10
-64.2192
 20
96.0603
 30
0.0
 10
-64.2192
 20
96.0603
 30
0.0
 10
-64.0981
 20
91.2203
 30
0.0
 10
-66.1551
 20
86.9853
 30
0.0
 10
-70.9951
 20
84.928
 30
0.0
 10
-70.9951
 20
84.928
 30
0.0
 10
-70.9951
 20
84.928
 30
0.0
 10
-81.7645
 20
84.928
 30
0.0
 10
-81.7645
 20
84.928
 30
0.0
  0
SPLINE
  5
82
330
1F
100
AcDbEntity
  8
layer 1
 62
     7
100
AcDbSpline
210
0.0
220
0.0
230
1.0
 70
    11
 71
     3
 72
    28
 73
    24
 74
     0
 42
0.0000000001
 43
0.0000000001
 12
1.0
 22
0.0
 32
0.0
 13
1.0
 23
0.0
 33
0.0
 40
0.0
 40
0.0
 40
0.0
 40
0.0
 40
0.1428571428571428
 40
0.1428571428571428
 40
0.1428571428571428
 40
0.1428571428571428
 40
0.2857142857142857
 40
0.2857142857142857
 40
0.2857142857142857
 40
0.2857142857142857
 40
0.4285714285714285
 40
0.4285714285714285
 40
0.4285714285714285
 40
0.4285714285714285
 40
0.5714285714285714
 40
0.5714285714285714
 40
0.5714285714285714
 40
0.5714285714285714
 40
0.7142857142857143
 40
0.7142857142857143
 40
0.7142857142857143
 40
0.7142857142857143
 40
1.0
 40
1.0
 40
1.0
 40
1.0
 10
-43.7697
 20
84.928
 30
0.0
 10
-43.7697
 20
84.928
 30
0.0
 10
-51.7561
 20
84.928
 30
0.0
 10
-51.7561
 20
84.928
 30
0.0
 10
-51.7561
 20
84.928
 30
0.0
 10
-56.475
 20
86.9853
 30
0.0
 10
-58.532
 20
91.2203
 30
0.0
 10
-58.532
 20
96.0603
 30
0.0
 10
-58.532
 20
96.0603
 30
0.0
 10
-58.532
 20
96.0603
 30
0.0
 10
-51.9979
 20
96.0603
 30
0.0
 10
-51.9979
 20
96.0603
 30
0.0
 10
-51.9979
 20
96.0603
 30
0.0
 10
-51.9979
 20
96.0603
 30
0.0
 10
-51.9979
 20
102.4733
 30
0.0
 10
-51.9979
 20
102.4733
 30
0.0
 10
-51.9979
 20
102.4733
 30
0.0
 10
-48.8519
 20
102.5944
 30
0.0
 10
-45.9477
 20
101.7472
 30
0.0
 10
-43.7697
 20
99.8113
 30
0.0
 10
-43.7697
 20
99.8113
 30
0.0
 10
-43.7697
 20
99.8113
 30
0.0
 10
-43.7697
 20
84.928
 30
0.0
 10
-43.7697
 20
84.928
 30
0.0
  0
SPLINE
  5
83
330
1F
100
AcDbEntity
  8
layer 1
 62
     7
100
AcDbSpline
210
0.0
220
0.0
230
1.0
 70
    11
 71
     3
 72
    28
 73
    24
 74
     0
 42
0.0000000001
 43
0.0000000001
 12
1.0
 22
0.0
 32
0.0
 13
1.0
 23
0.0
 33
0.0
 40
0.0
 40
0.0
 40
0.0
 40
0.0
 40
0.1428571428571428
 40
0.1428571428571428
 40
0.1428571428571428
 40
0.1428571428571428
 40
0.2857142857142857
 40
0.2857142857142857
 40
0.2857142857142857
 40
0.2857142857142857
 40
0.4285714285714285
 40
0.4285714285714285
 40
0.4285714285714285
 40
0.4285714285714285
 40
0.5714285714285714
 40
0.5714285714285714
 40
0.5714285714285714
 40
0.5714285714285714
 40
0.7142857142857143
 40
0.7142857142857143
 40
0.7142857142857143
 40
0.7142857142857143
 40
1.0
 40
1.0
 40
1.0
 40
1.0
 10
-43.7697
 20
110.9436
 30
0.0
 10
-45.9477
 20
109.0074
 30
0.0
 10
-48.8519
 20
108.1606
 30
0.0
 10
-51.9979
 20
108.1606
 30
0.0
 10
-51.9979
 20
108.1606
 30
0.0
 10
-51.9979
 20
108.1606
 30
0.0
 10
-51.9979
 20
114.6947
 30
0.0
 10
-51.9979
 20
114.6947
 30
0.0
 10
-51.9979
 20
114.6947
 30
0.0
 10
-51.9979
 20
114.6947
 30
0.0
 10
-58.532
 20
114.6947
 30
0.0
 10
-58.532
 20
114.6947
 30
0.0
 10
-58.532
 20
114.6947
 30
0.0
 10
-58.532
 20
116.7516
 30
0.0
 10
-58.1691
 20
118.6875
 30
0.0
 10
-57.4429
 20
120.3815
 30
0.0
 10
-57.4429
 20
120.3815
 30
0.0
 10
-57.4429
 20
120.3815
 30
0.0
 10
-43.7697
 20
120.3815
 30
0.0
 10
-43.7697
 20
120.3815
 30
0.0
 10
-43.7697
 20
120.3815
 30
0.0
 10
-43.7697
 20
120.3815
 30
0.0
 10
-43.7697
 20
110.9436
 30
0.0
 10
-43.7697
 20
110.9436
 30
0.0
  0
SPLINE
  5
84
330
1F
100
AcDbEntity
  8
layer 1
 62
     7
100
AcDbSpline
210
0.0
220
0.0
230
1.0
 70
    11
 71
     3
 72
    28
 73
    24
 74
     0
 42
0.0000000001
 43
0.0000000001
 12
1.0
 22
0.0
 32
0.0
 13
1.0
 23
0.0
 33
0.0
 40
0.0
 40
0.0
 40
0.0
 40
0.0
 40
0.1428571428571428
 40
0.1428571428571428
 40
0.1428571428571428
 40
0.1428571428571428
 40
0.2857142857142857
 40
0.2857142857142857
 40
0.2857142857142857
 40
0.2857142857142857
 40
0.4285714285714285
 40
0.4285714285714285
 40
0.4285714285714285
 40
0.4285714285714285
 40
0.5714285714285714
 40
0.5714285714285714
 40
0.5714285714285714
 40
0.5714285714285714
 40
0.7142857142857143
 40
0.7142857142857143
 40
0.7142857142857143
 40
0.7142857142857143
 40
1.0
 40
1.0
 40
1.0
 40
1.0
 10
-65.3082
 20
120.3815
 30
0.0
 10
-64.461
 20
118.6875
 30
0.0
 10
-64.0981
 20
116.7516
 30
0.0
 10
-64.2192
 20
114.6947
 30
0.0
 10
-64.2192
 20
114.6947
 30
0.0
 10
-64.2192
 20
114.6947
 30
0.0
 10
-70.6322
 20
114.6947
 30
0.0
 10
-70.6322
 20
114.6947
 30
0.0
 10
-70.6322
 20
114.6947
 30
0.0
 10
-70.6322
 20
114.6947
 30
0.0
 10
-70.6322
 20
108.1606
 30
0.0
 10
-70.6322
 20
108.1606
 30
0.0
 10
-70.6322
 20
108.1606
 30
0.0
 10
-75.4722
 20
108.1606
 30
0.0
 10
-79.7072
 20
110.2175
 30
0.0
 10
-81.7645
 20
114.9365
 30
0.0
 10
-81.7645
 20
114.9365
 30
0.0
 10
-81.7645
 20
114.9365
 30
0.0
 10
-81.7645
 20
120.3815
 30
0.0
 10
-81.7645
 20
120.3815
 30
0.0
 10
-81.7645
 20
120.3815
 30
0.0
 10
-81.7645
 20
120.3815
 30
0.0
 10
-65.3082
 20
120.3815
 30
0.0
 10
-65.3082
 20
120.3815
 30
0.0
  0
SPLINE
  5
85
330
1F
100
AcDbEntity
  8
layer 1
 62
     7
100
AcDbSpline
210
0.0
220
0.0
230
1.0
 70
    11
 71
     3
 72
    20
 73
    16
 74
     0
 42
0.0000000001
 43
0.0000000001
 12
1.0
 22
0.0
 32
0.0
 13
1.0
 23
0.0
 33
0.0
 40
0.0
 40
0.0
 40
0.0
 40
0.0
 40
0.2
 40
0.2
 40
0.2
 40
0.2
 40
0.4
 40
0.4
 40
0.4
 40
0.4
 40
0.6
 40
0.6
 40
0.6
 40
0.6
 40
1.0
 40
1.0
 40
1.0
 40
1.0
 10
-66.8812
 20
99.8113
 30
0.0
 10
-66.8812
 20
99.8113
 30
0.0
 10
-66.8812
 20
110.8819
 30
0.0
 10
-66.8812
 20
110.8819
 30
0.0
 10
-66.8812
 20
110.8819
 30
0.0
 10
-66.8812
 20
110.8819
 30
0.0
 10
-55.812
 20
110.8819
 30
0.0
 10
-55.812
 20
110.8819
 30
0.0
 10
-55.812
 20
110.8819
 30
0.0
 10
-55.812
 20
110.8819
 30
0.0
 10
-55.812
 20
99.8113
 30
0.0
 10
-55.812
 20
99.8113
 30
0.0
 10
-55.812
 20
99.8113
 30
0.0
 10
-55.812
 20
99.8113
 30
0.0
 10
-66.8812
 20
99.8113
 30
0.0
 10
-66.8812
 20
99.8113
 30
0.0
  0
SPLINE
  5
86
330
1F
100
AcDbEntity
  8
layer 1
 62
     7
100
AcDbSpline
210
0.0
220
0.0
230
1.0
 70
    11
 71
     3
 72
    20
 73
    16
 74
     0
 42
0.0000000001
 43
0.0000000001
 12
1.0
 22
0.0
 32
0.0
 13
1.0
 23
0.0
 33
0.0
 40
0.0
 40
0.0
 40
0.0
 40
0.0
 40
0.2
 40
0.2
 40
0.2
 40
0.2
 40
0.4
 40
0.4
 40
0.4
 40
0.4
 40
0.6
 40
0.6
 40
0.6
 40
0.6
 40
1.0
 40
1.0
 40
1.0
 40
1.0
 10
-164.4085
 20
81.0559
 30
0.0
 10
-161.9883
 20
82.3871
 30
0.0
 10
-159.9314
 20
84.323
 30
0.0
 10
-158.3584
 20
86.9853
 30
0.0
 10
-158.3584
 20
86.9853
 30
0.0
 10
-156.7854
 20
84.323
 30
0.0
 10
-154.7285
 20
82.3871
 30
0.0
 10
-152.3083
 20
81.0559
 30
0.0
 10
-152.3083
 20
81.0559
 30
0.0
 10
-154.7285
 20
79.8462
 30
0.0
 10
-156.7854
 20
77.7889
 30
0.0
 10
-158.3584
 20
75.248
 30
0.0
 10
-158.3584
 20
75.248
 30
0.0
 10
-159.9314
 20
77.7889
 30
0.0
 10
-161.9883
 20
79.8462
 30
0.0
 10
-164.4085
 20
81.0559
 30
0.0
  0
SPLINE
  5
87
330
1F
100
AcDbEntity
  8
layer 1
 62
     7
100
AcDbSpline
210
0.0
220
0.0
230
1.0
 70
    11
 71
     3
 72
    28
 73
    24
 74
     0
 42
0.0000000001
 43
0.0000000001
 12
1.0
 22
0.0
 32
0.0
 13
1.0
 23
0.0
 33
0.0
 40
0.0
 40
0.0
 40
0.0
 40
0.0
 40
0.1428571428571428
 40
0.1428571428571428
 40
0.1428571428571428
 40
0.1428571428571428
 40
0.2857142857142857
 40
0.2857142857142857
 40
0.2857142857142857
 40
0.2857142857142857
 40
0.4285714285714285
 40
0.4285714285714285
 40
0.4285714285714285
 40
0.4285714285714285
 40
0.5714285714285714
 40
0.5714285714285714
 40
0.5714285714285714
 40
0.5714285714285714
 40
0.7142857142857143
 40
0.7142857142857143
 40
0.7142857142857143
 40
0.7142857142857143
 40
1.0
 40
1.0
 40
1.0
 40
1.0
 10
-175.9037
 20
99.8113
 30
0.0
 10
-173.7257
 20
101.7472
 30
0.0
 10
-170.8215
 20
102.5944
 30
0.0
 10
-167.6756
 20
102.4733
 30
0.0
 10
-167.6756
 20
102.4733
 30
0.0
 10
-167.6756
 20
102.4733
 30
0.0
 10
-167.6756
 20
96.0603
 30
0.0
 10
-167.6756
 20
96.0603
 30
0.0
 10
-167.6756
 20
96.0603
 30
0.0
 10
-167.6756
 20
96.0603
 30
0.0
 10
-161.1415
 20
96.0603
 30
0.0
 10
-161.1415
 20
96.0603
 30
0.0
 10
-161.1415
 20
96.0603
 30
0.0
 10
-161.1415
 20
91.2203
 30
0.0
 10
-163.1984
 20
86.9853
 30
0.0
 10
-168.0385
 20
84.928
 30
0.0
 10
-168.0385
 20
84.928
 30
0.0
 10
-168.0385
 20
84.928
 30
0.0
 10
-175.9037
 20
84.928
 30
0.0
 10
-175.9037
 20
84.928
 30
0.0
 10
-175.9037
 20
84.928
 30
0.0
 10
-175.9037
 20
84.928
 30
0.0
 10
-175.9037
 20
99.8113
 30
0.0
 10
-175.9037
 20
99.8113
 30
0.0
  0
SPLINE
  5
88
330
1F
100
AcDbEntity
  8
layer 1
 62
     7
100
AcDbSpline
210
0.0
220
0.0
230
1.0
 70
    11
 71
     3
 72
    28
 73
    24
 74
     0
 42
0.0000000001
 43
0.0000000001
 12
1.0
 22
0.0
 32
0.0
 13
1.0
 23
0.0
 33
0.0
 40
0.0
 40
0.0
 40
0.0
 40
0.0
 40
0.1428571428571428
 40
0.1428571428571428
 40
0.1428571428571428
 40
0.1428571428571428
 40
0.2857142857142857
 40
0.2857142857142857
 40
0.2857142857142857
 40
0.2857142857142857
 40
0.4285714285714285
 40
0.4285714285714285
 40
0.4285714285714285
 40
0.4285714285714285
 40
0.5714285714285714
 40
0.5714285714285714
 40
0.5714285714285714
 40
0.5714285714285714
 40
0.7142857142857143
 40
0.7142857142857143
 40
0.7142857142857143
 40
0.7142857142857143
 40
1.0
 40
1.0
 40
1.0
 40
1.0
 10
-137.9089
 20
84.928
 30
0.0
 10
-137.9089
 20
84.928
 30
0.0
 10
-148.6783
 20
84.928
 30
0.0
 10
-148.6783
 20
84.928
 30
0.0
 10
-148.6783
 20
84.928
 30
0.0
 10
-153.5184
 20
86.9853
 30
0.0
 10
-155.5753
 20
91.2203
 30
0.0
 10
-155.5753
 20
96.0603
 30
0.0
 10
-155.5753
 20
96.0603
 30
0.0
 10
-155.5753
 20
96.0603
 30
0.0
 10
-149.0412
 20
96.0603
 30
0.0
 10
-149.0412
 20
96.0603
 30
0.0
 10
-149.0412
 20
96.0603
 30
0.0
 10
-149.0412
 20
96.0603
 30
0.0
 10
-149.0412
 20
102.4733
 30
0.0
 10
-149.0412
 20
102.4733
 30
0.0
 10
-149.0412
 20
102.4733
 30
0.0
 10
-144.2012
 20
102.5944
 30
0.0
 10
-139.9662
 20
100.5375
 30
0.0
 10
-137.9089
 20
95.6974
 30
0.0
 10
-137.9089
 20
95.6974
 30
0.0
 10
-137.9089
 20
95.6974
 30
0.0
 10
-137.9089
 20
84.928
 30
0.0
 10
-137.9089
 20
84.928
 30
0.0
  0
SPLINE
  5
89
330
1F
100
AcDbEntity
  8
layer 1
 62
     7
100
AcDbSpline
210
0.0
220
0.0
230
1.0
 70
    11
 71
     3
 72
    28
 73
    24
 74
     0
 42
0.0000000001
 43
0.0000000001
 12
1.0
 22
0.0
 32
0.0
 13
1.0
 23
0.0
 33
0.0
 40
0.0
 40
0.0
 40
0.0
 40
0.0
 40
0.1428571428571428
 40
0.1428571428571428
 40
0.1428571428571428
 40
0.1428571428571428
 40
0.2857142857142857
 40
0.2857142857142857
 40
0.2857142857142857
 40
0.2857142857142857
 40
0.4285714285714285
 40
0.4285714285714285
 40
0.4285714285714285
 40
0.4285714285714285
 40
0.5714285714285714
 40
0.5714285714285714
 40
0.5714285714285714
 40
0.5714285714285714
 40
0.7142857142857143
 40
0.7142857142857143
 40
0.7142857142857143
 40
0.7142857142857143
 40
1.0
 40
1.0
 40
1.0
 40
1.0
 10
-137.9089
 20
120.3815
 30
0.0
 10
-137.9089
 20
120.3815
 30
0.0
 10
-137.9089
 20
114.9365
 30
0.0
 10
-137.9089
 20
114.9365
 30
0.0
 10
-137.9089
 20
114.9365
 30
0.0
 10
-139.9662
 20
110.2175
 30
0.0
 10
-144.2012
 20
108.1606
 30
0.0
 10
-149.0412
 20
108.1606
 30
0.0
 10
-149.0412
 20
108.1606
 30
0.0
 10
-149.0412
 20
108.1606
 30
0.0
 10
-149.0412
 20
114.6947
 30
0.0
 10
-149.0412
 20
114.6947
 30
0.0
 10
-149.0412
 20
114.6947
 30
0.0
 10
-149.0412
 20
114.6947
 30
0.0
 10
-155.5753
 20
114.6947
 30
0.0
 10
-155.5753
 20
114.6947
 30
0.0
 10
-155.5753
 20
114.6947
 30
0.0
 10
-155.5753
 20
116.7516
 30
0.0
 10
-155.2124
 20
118.6875
 30
0.0
 10
-154.4863
 20
120.3815
 30
0.0
 10
-154.4863
 20
120.3815
 30
0.0
 10
-154.4863
 20
120.3815
 30
0.0
 10
-137.9089
 20
120.3815
 30
0.0
 10
-137.9089
 20
120.3815
 30
0.0
  0
SPLINE
  5
8A
330
1F
100
AcDbEntity
  8
layer 1
 62
     7
100
AcDbSpline
210
0.0
220
0.0
230
1.0
 70
    11
 71
     3
 72
    28
 73
    24
 74
     0
 42
0.0000000001
 43
0.0000000001
 12
1.0
 22
0.0
 32
0.0
 13
1.0
 23
0.0
 33
0.0
 40
0.0
 40
0.0
 40
0.0
 40
0.0
 40
0.1428571428571428
 40
0.1428571428571428
 40
0.1428571428571428
 40
0.1428571428571428
 40
0.2857142857142857
 40
0.2857142857142857
 40
0.2857142857142857
 40
0.2857142857142857
 40
0.4285714285714285
 40
0.4285714285714285
 40
0.4285714285714285
 40
0.4285714285714285
 40
0.5714285714285714
 40
0.5714285714285714
 40
0.5714285714285714
 40
0.5714285714285714
 40
0.7142857142857143
 40
0.7142857142857143
 40
0.7142857142857143
 40
0.7142857142857143
 40
1.0
 40
1.0
 40
1.0
 40
1.0
 10
-162.3516
 20
120.3815
 30
0.0
 10
-161.5044
 20
118.6875
 30
0.0
 10
-161.1415
 20
116.7516
 30
0.0
 10
-161.1415
 20
114.6947
 30
0.0
 10
-161.1415
 20
114.6947
 30
0.0
 10
-161.1415
 20
114.6947
 30
0.0
 10
-167.6756
 20
114.6947
 30
0.0
 10
-167.6756
 20
114.6947
 30
0.0
 10
-167.6756
 20
114.6947
 30
0.0
 10
-167.6756
 20
114.6947
 30
0.0
 10
-167.6756
 20
108.1606
 30
0.0
 10
-167.6756
 20
108.1606
 30
0.0
 10
-167.6756
 20
108.1606
 30
0.0
 10
-170.8215
 20
108.1606
 30
0.0
 10
-173.7257
 20
109.0074
 30
0.0
 10
-175.9037
 20
110.9436
 30
0.0
 10
-175.9037
 20
110.9436
 30
0.0
 10
-175.9037
 20
110.9436
 30
0.0
 10
-175.9037
 20
120.3815
 30
0.0
 10
-175.9037
 20
120.3815
 30
0.0
 10
-175.9037
 20
120.3815
 30
0.0
 10
-175.9037
 20
120.3815
 30
0.0
 10
-162.3516
 20
120.3815
 30
0.0
 10
-162.3516
 20
120.3815
 30
0.0
  0
SPLINE
  5
8B
330
1F
100
AcDbEntity
  8
layer 1
 62
     7
100
AcDbSpline
210
0.0
220
0.0
230
1.0
 70
    11
 71
     3
 72
    20
 73
    16
 74
     0
 42
0.0000000001
 43
0.0000000001
 12
1.0
 22
0.0
 32
0.0
 13
1.0
 23
0.0
 33
0.0
 40
0.0
 40
0.0
 40
0.0
 40
0.0
 40
0.2
 40
0.2
 40
0.2
 40
0.2
 40
0.4
 40
0.4
 40
0.4
 40
0.4
 40
0.6
 40
0.6
 40
0.6
 40
0.6
 40
1.0
 40
1.0
 40
1.0
 40
1.0
 10
-163.9245
 20
99.8113
 30
0.0
 10
-163.9245
 20
99.8113
 30
0.0
 10
-163.9245
 20
110.8819
 30
0.0
 10
-163.9245
 20
110.8819
 30
0.0
 10
-163.9245
 20
110.8819
 30
0.0
 10
-163.9245
 20
110.8819
 30
0.0
 10
-152.8554
 20
110.8819
 30
0.0
 10
-152.8554
 20
110.8819
 30
0.0
 10
-152.8554
 20
110.8819
 30
0.0
 10
-152.8554
 20
110.8819
 30
0.0
 10
-152.8554
 20
99.8113
 30
0.0
 10
-152.8554
 20
99.8113
 30
0.0
 10
-152.8554
 20
99.8113
 30
0.0
 10
-152.8554
 20
99.8113
 30
0.0
 10
-163.9245
 20
99.8113
 30
0.0
 10
-163.9245
 20
99.8113
 30
0.0
  0
SPLINE
  5
8C
330
1F
100
AcDbEntity
  8
layer 1
 62
     7
100
AcDbSpline
210
0.0
220
0.0
230
1.0
 70
    11
 71
     3
 72
    20
 73
    16
 74
     0
 42
0.0000000001
 43
0.0000000001
 12
1.0
 22
0.0
 32
0.0
 13
1.0
 23
0.0
 33
0.0
 40
0.0
 40
0.0
 40
0.0
 40
0.0
 40
0.2
 40
0.2
 40
0.2
 40
0.2
 40
0.4
 40
0.4
 40
0.4
 40
0.4
 40
0.6
 40
0.6
 40
0.6
 40
0.6
 40
1.0
 40
1.0
 40
1.0
 40
1.0
 10
-164.4085
 20
32.5346
 30
0.0
 10
-161.9883
 20
33.8654
 30
0.0
 10
-159.9314
 20
35.8016
 30
0.0
 10
-158.3584
 20
38.4636
 30
0.0
 10
-158.3584
 20
38.4636
 30
0.0
 10
-156.7854
 20
35.8016
 30
0.0
 10
-154.7285
 20
33.8654
 30
0.0
 10
-152.3083
 20
32.5346
 30
0.0
 10
-152.3083
 20
32.5346
 30
0.0
 10
-154.7285
 20
31.3245
 30
0.0
 10
-156.7854
 20
29.2676
 30
0.0
 10
-158.3584
 20
26.7263
 30
0.0
 10
-158.3584
 20
26.7263
 30
0.0
 10
-159.9314
 20
29.2676
 30
0.0
 10
-161.9883
 20
31.3245
 30
0.0
 10
-164.4085
 20
32.5346
 30
0.0
  0
SPLINE
  5
8D
330
1F
100
AcDbEntity
  8
layer 1
 62
     7
100
AcDbSpline
210
0.0
220
0.0
230
1.0
 70
    11
 71
     3
 72
    28
 73
    24
 74
     0
 42
0.0000000001
 43
0.0000000001
 12
1.0
 22
0.0
 32
0.0
 13
1.0
 23
0.0
 33
0.0
 40
0.0
 40
0.0
 40
0.0
 40
0.0
 40
0.1428571428571428
 40
0.1428571428571428
 40
0.1428571428571428
 40
0.1428571428571428
 40
0.2857142857142857
 40
0.2857142857142857
 40
0.2857142857142857
 40
0.2857142857142857
 40
0.4285714285714285
 40
0.4285714285714285
 40
0.4285714285714285
 40
0.4285714285714285
 40
0.5714285714285714
 40
0.5714285714285714
 40
0.5714285714285714
 40
0.5714285714285714
 40
0.7142857142857143
 40
0.7142857142857143
 40
0.7142857142857143
 40
0.7142857142857143
 40
1.0
 40
1.0
 40
1.0
 40
1.0
 10
-175.9037
 20
51.2897
 30
0.0
 10
-173.7257
 20
53.2259
 30
0.0
 10
-170.8215
 20
54.0727
 30
0.0
 10
-167.6756
 20
54.0727
 30
0.0
 10
-167.6756
 20
54.0727
 30
0.0
 10
-167.6756
 20
54.0727
 30
0.0
 10
-167.6756
 20
47.5386
 30
0.0
 10
-167.6756
 20
47.5386
 30
0.0
 10
-167.6756
 20
47.5386
 30
0.0
 10
-167.6756
 20
47.5386
 30
0.0
 10
-161.1415
 20
47.5386
 30
0.0
 10
-161.1415
 20
47.5386
 30
0.0
 10
-161.1415
 20
47.5386
 30
0.0
 10
-161.1415
 20
42.6986
 30
0.0
 10
-163.1984
 20
38.4636
 30
0.0
 10
-168.0385
 20
36.4063
 30
0.0
 10
-168.0385
 20
36.4063
 30
0.0
 10
-168.0385
 20
36.4063
 30
0.0
 10
-175.9037
 20
36.4063
 30
0.0
 10
-175.9037
 20
36.4063
 30
0.0
 10
-175.9037
 20
36.4063
 30
0.0
 10
-175.9037
 20
36.4063
 30
0.0
 10
-175.9037
 20
51.2897
 30
0.0
 10
-175.9037
 20
51.2897
 30
0.0
  0
SPLINE
  5
8E
330
1F
100
AcDbEntity
  8
layer 1
 62
     7
100
AcDbSpline
210
0.0
220
0.0
230
1.0
 70
    11
 71
     3
 72
    28
 73
    24
 74
     0
 42
0.0000000001
 43
0.0000000001
 12
1.0
 22
0.0
 32
0.0
 13
1.0
 23
0.0
 33
0.0
 40
0.0
 40
0.0
 40
0.0
 40
0.0
 40
0.1428571428571428
 40
0.1428571428571428
 40
0.1428571428571428
 40
0.1428571428571428
 40
0.2857142857142857
 40
0.2857142857142857
 40
0.2857142857142857
 40
0.2857142857142857
 40
0.4285714285714285
 40
0.4285714285714285
 40
0.4285714285714285
 40
0.4285714285714285
 40
0.5714285714285714
 40
0.5714285714285714
 40
0.5714285714285714
 40
0.5714285714285714
 40
0.7142857142857143
 40
0.7142857142857143
 40
0.7142857142857143
 40
0.7142857142857143
 40
1.0
 40
1.0
 40
1.0
 40
1.0
 10
-137.9089
 20
36.4063
 30
0.0
 10
-137.9089
 20
36.4063
 30
0.0
 10
-148.6783
 20
36.4063
 30
0.0
 10
-148.6783
 20
36.4063
 30
0.0
 10
-148.6783
 20
36.4063
 30
0.0
 10
-153.5184
 20
38.4636
 30
0.0
 10
-155.5753
 20
42.6986
 30
0.0
 10
-155.5753
 20
47.5386
 30
0.0
 10
-155.5753
 20
47.5386
 30
0.0
 10
-155.5753
 20
47.5386
 30
0.0
 10
-149.0412
 20
47.5386
 30
0.0
 10
-149.0412
 20
47.5386
 30
0.0
 10
-149.0412
 20
47.5386
 30
0.0
 10
-149.0412
 20
47.5386
 30
0.0
 10
-149.0412
 20
54.0727
 30
0.0
 10
-149.0412
 20
54.0727
 30
0.0
 10
-149.0412
 20
54.0727
 30
0.0
 10
-144.2012
 20
54.0727
 30
0.0
 10
-139.9662
 20
52.0158
 30
0.0
 10
-137.9089
 20
47.1758
 30
0.0
 10
-137.9089
 20
47.1758
 30
0.0
 10
-137.9089
 20
47.1758
 30
0.0
 10
-137.9089
 20
36.4063
 30
0.0
 10
-137.9089
 20
36.4063
 30
0.0
  0
SPLINE
  5
8F
330
1F
100
AcDbEntity
  8
layer 1
 62
     7
100
AcDbSpline
210
0.0
220
0.0
230
1.0
 70
    11
 71
     3
 72
    28
 73
    24
 74
     0
 42
0.0000000001
 43
0.0000000001
 12
1.0
 22
0.0
 32
0.0
 13
1.0
 23
0.0
 33
0.0
 40
0.0
 40
0.0
 40
0.0
 40
0.0
 40
0.1428571428571428
 40
0.1428571428571428
 40
0.1428571428571428
 40
0.1428571428571428
 40
0.2857142857142857
 40
0.2857142857142857
 40
0.2857142857142857
 40
0.2857142857142857
 40
0.4285714285714285
 40
0.4285714285714285
 40
0.4285714285714285
 40
0.4285714285714285
 40
0.5714285714285714
 40
0.5714285714285714
 40
0.5714285714285714
 40
0.5714285714285714
 40
0.7142857142857143
 40
0.7142857142857143
 40
0.7142857142857143
 40
0.7142857142857143
 40
1.0
 40
1.0
 40
1.0
 40
1.0
 10
-137.9089
 20
77.3049
 30
0.0
 10
-137.9089
 20
77.3049
 30
0.0
 10
-137.9089
 20
66.4148
 30
0.0
 10
-137.9089
 20
66.4148
 30
0.0
 10
-137.9089
 20
66.4148
 30
0.0
 10
-139.9662
 20
61.6958
 30
0.0
 10
-144.2012
 20
59.6389
 30
0.0
 10
-149.0412
 20
59.6389
 30
0.0
 10
-149.0412
 20
59.6389
 30
0.0
 10
-149.0412
 20
59.6389
 30
0.0
 10
-149.0412
 20
66.173
 30
0.0
 10
-149.0412
 20
66.173
 30
0.0
 10
-149.0412
 20
66.173
 30
0.0
 10
-149.0412
 20
66.173
 30
0.0
 10
-155.5753
 20
66.173
 30
0.0
 10
-155.5753
 20
66.173
 30
0.0
 10
-155.5753
 20
66.173
 30
0.0
 10
-155.5753
 20
71.013
 30
0.0
 10
-153.5184
 20
75.1269
 30
0.0
 10
-148.6783
 20
77.3049
 30
0.0
 10
-148.6783
 20
77.3049
 30
0.0
 10
-148.6783
 20
77.3049
 30
0.0
 10
-137.9089
 20
77.3049
 30
0.0
 10
-137.9089
 20
77.3049
 30
0.0
  0
SPLINE
  5
90
330
1F
100
AcDbEntity
  8
layer 1
 62
     7
100
AcDbSpline
210
0.0
220
0.0
230
1.0
 70
    11
 71
     3
 72
    28
 73
    24
 74
     0
 42
0.0000000001
 43
0.0000000001
 12
1.0
 22
0.0
 32
0.0
 13
1.0
 23
0.0
 33
0.0
 40
0.0
 40
0.0
 40
0.0
 40
0.0
 40
0.1428571428571428
 40
0.1428571428571428
 40
0.1428571428571428
 40
0.1428571428571428
 40
0.2857142857142857
 40
0.2857142857142857
 40
0.2857142857142857
 40
0.2857142857142857
 40
0.4285714285714285
 40
0.4285714285714285
 40
0.4285714285714285
 40
0.4285714285714285
 40
0.5714285714285714
 40
0.5714285714285714
 40
0.5714285714285714
 40
0.5714285714285714
 40
0.7142857142857143
 40
0.7142857142857143
 40
0.7142857142857143
 40
0.7142857142857143
 40
1.0
 40
1.0
 40
1.0
 40
1.0
 10
-175.9037
 20
77.3049
 30
0.0
 10
-175.9037
 20
77.3049
 30
0.0
 10
-168.0385
 20
77.3049
 30
0.0
 10
-168.0385
 20
77.3049
 30
0.0
 10
-168.0385
 20
77.3049
 30
0.0
 10
-163.1984
 20
75.1269
 30
0.0
 10
-161.1415
 20
71.013
 30
0.0
 10
-161.1415
 20
66.173
 30
0.0
 10
-161.1415
 20
66.173
 30
0.0
 10
-161.1415
 20
66.173
 30
0.0
 10
-167.6756
 20
66.173
 30
0.0
 10
-167.6756
 20
66.173
 30
0.0
 10
-167.6756
 20
66.173
 30
0.0
 10
-167.6756
 20
66.173
 30
0.0
 10
-167.6756
 20
59.6389
 30
0.0
 10
-167.6756
 20
59.6389
 30
0.0
 10
-167.6756
 20
59.6389
 30
0.0
 10
-170.8215
 20
59.6389
 30
0.0
 10
-173.7257
 20
60.4857
 30
0.0
 10
-175.9037
 20
62.422
 30
0.0
 10
-175.9037
 20
62.422
 30
0.0
 10
-175.9037
 20
62.422
 30
0.0
 10
-175.9037
 20
77.3049
 30
0.0
 10
-175.9037
 20
77.3049
 30
0.0
  0
SPLINE
  5
91
330
1F
100
AcDbEntity
  8
layer 1
 62
     7
100
AcDbSpline
210
0.0
220
0.0
230
1.0
 70
    11
 71
     3
 72
    20
 73
    16
 74
     0
 42
0.0000000001
 43
0.0000000001
 12
1.0
 22
0.0
 32
0.0
 13
1.0
 23
0.0
 33
0.0
 40
0.0
 40
0.0
 40
0.0
 40
0.0
 40
0.2
 40
0.2
 40
0.2
 40
0.2
 40
0.4
 40
0.4
 40
0.4
 40
0.4
 40
0.6
 40
0.6
 40
0.6
 40
0.6
 40
1.0
 40
1.0
 40
1.0
 40
1.0
 10
-163.9245
 20
51.2897
 30
0.0
 10
-163.9245
 20
51.2897
 30
0.0
 10
-163.9245
 20
62.3588
 30
0.0
 10
-163.9245
 20
62.3588
 30
0.0
 10
-163.9245
 20
62.3588
 30
0.0
 10
-163.9245
 20
62.3588
 30
0.0
 10
-152.8554
 20
62.3588
 30
0.0
 10
-152.8554
 20
62.3588
 30
0.0
 10
-152.8554
 20
62.3588
 30
0.0
 10
-152.8554
 20
62.3588
 30
0.0
 10
-152.8554
 20
51.2897
 30
0.0
 10
-152.8554
 20
51.2897
 30
0.0
 10
-152.8554
 20
51.2897
 30
0.0
 10
-152.8554
 20
51.2897
 30
0.0
 10
-163.9245
 20
51.2897
 30
0.0
 10
-163.9245
 20
51.2897
 30
0.0
  0
SPLINE
  5
92
330
1F
100
AcDbEntity
  8
layer 1
 62
     7
100
AcDbSpline
210
0.0
220
0.0
230
1.0
 70
    11
 71
     3
 72
    20
 73
    16
 74
     0
 42
0.0000000001
 43
0.0000000001
 12
1.0
 22
0.0
 32
0.0
 13
1.0
 23
0.0
 33
0.0
 40
0.0
 40
0.0
 40
0.0
 40
0.0
 40
0.2
 40
0.2
 40
0.2
 40
0.2
 40
0.4
 40
0.4
 40
0.4
 40
0.4
 40
0.6
 40
0.6
 40
0.6
 40
0.6
 40
1.0
 40
1.0
 40
1.0
 40
1.0
 10
-164.4085
 20
-15.9871
 30
0.0
 10
-161.9883
 20
-14.6563
 30
0.0
 10
-159.9314
 20
-12.72
 30
0.0
 10
-158.3584
 20
-10.058
 30
0.0
 10
-158.3584
 20
-10.058
 30
0.0
 10
-156.7854
 20
-12.72
 30
0.0
 10
-154.7285
 20
-14.6563
 30
0.0
 10
-152.3083
 20
-15.9871
 30
0.0
 10
-152.3083
 20
-15.9871
 30
0.0
 10
-154.7285
 20
-17.1972
 30
0.0
 10
-156.7854
 20
-19.1334
 30
0.0
 10
-158.3584
 20
-21.7954
 30
0.0
 10
-158.3584
 20
-21.7954
 30
0.0
 10
-159.9314
 20
-19.1334
 30
0.0
 10
-161.9883
 20
-17.1972
 30
0.0
 10
-164.4085
 20
-15.9871
 30
0.0
  0
SPLINE
  5
93
330
1F
100
AcDbEntity
  8
layer 1
 62
     7
100
AcDbSpline
210
0.0
220
0.0
230
1.0
 70
    11
 71
     3
 72
    28
 73
    24
 74
     0
 42
0.0000000001
 43
0.0000000001
 12
1.0
 22
0.0
 32
0.0
 13
1.0
 23
0.0
 33
0.0
 40
0.0
 40
0.0
 40
0.0
 40
0.0
 40
0.1428571428571428
 40
0.1428571428571428
 40
0.1428571428571428
 40
0.1428571428571428
 40
0.2857142857142857
 40
0.2857142857142857
 40
0.2857142857142857
 40
0.2857142857142857
 40
0.4285714285714285
 40
0.4285714285714285
 40
0.4285714285714285
 40
0.4285714285714285
 40
0.5714285714285714
 40
0.5714285714285714
 40
0.5714285714285714
 40
0.5714285714285714
 40
0.7142857142857143
 40
0.7142857142857143
 40
0.7142857142857143
 40
0.7142857142857143
 40
1.0
 40
1.0
 40
1.0
 40
1.0
 10
-175.9037
 20
2.768
 30
0.0
 10
-173.7257
 20
4.7042
 30
0.0
 10
-170.8215
 20
5.551
 30
0.0
 10
-167.6756
 20
5.551
 30
0.0
 10
-167.6756
 20
5.551
 30
0.0
 10
-167.6756
 20
5.551
 30
0.0
 10
-167.6756
 20
-0.983
 30
0.0
 10
-167.6756
 20
-0.983
 30
0.0
 10
-167.6756
 20
-0.983
 30
0.0
 10
-167.6756
 20
-0.983
 30
0.0
 10
-161.1415
 20
-0.983
 30
0.0
 10
-161.1415
 20
-0.983
 30
0.0
 10
-161.1415
 20
-0.983
 30
0.0
 10
-161.1415
 20
-5.8231
 30
0.0
 10
-163.1984
 20
-10.058
 30
0.0
 10
-168.0385
 20
-12.115
 30
0.0
 10
-168.0385
 20
-12.115
 30
0.0
 10
-168.0385
 20
-12.115
 30
0.0
 10
-175.9037
 20
-12.115
 30
0.0
 10
-175.9037
 20
-12.115
 30
0.0
 10
-175.9037
 20
-12.115
 30
0.0
 10
-175.9037
 20
-12.115
 30
0.0
 10
-175.9037
 20
2.768
 30
0.0
 10
-175.9037
 20
2.768
 30
0.0
  0
SPLINE
  5
94
330
1F
100
AcDbEntity
  8
layer 1
 62
     7
100
AcDbSpline
210
0.0
220
0.0
230
1.0
 70
    11
 71
     3
 72
    28
 73
    24
 74
     0
 42
0.0000000001
 43
0.0000000001
 12
1.0
 22
0.0
 32
0.0
 13
1.0
 23
0.0
 33
0.0
 40
0.0
 40
0.0
 40
0.0
 40
0.0
 40
0.1428571428571428
 40
0.1428571428571428
 40
0.1428571428571428
 40
0.1428571428571428
 40
0.2857142857142857
 40
0.2857142857142857
 40
0.2857142857142857
 40
0.2857142857142857
 40
0.4285714285714285
 40
0.4285714285714285
 40
0.4285714285714285
 40
0.4285714285714285
 40
0.5714285714285714
 40
0.5714285714285714
 40
0.5714285714285714
 40
0.5714285714285714
 40
0.7142857142857143
 40
0.7142857142857143
 40
0.7142857142857143
 40
0.7142857142857143
 40
1.0
 40
1.0
 40
1.0
 40
1.0
 10
-137.9089
 20
-12.115
 30
0.0
 10
-137.9089
 20
-12.115
 30
0.0
 10
-148.6783
 20
-12.115
 30
0.0
 10
-148.6783
 20
-12.115
 30
0.0
 10
-148.6783
 20
-12.115
 30
0.0
 10
-153.5184
 20
-10.058
 30
0.0
 10
-155.5753
 20
-5.8231
 30
0.0
 10
-155.5753
 20
-0.983
 30
0.0
 10
-155.5753
 20
-0.983
 30
0.0
 10
-155.5753
 20
-0.983
 30
0.0
 10
-149.0412
 20
-0.983
 30
0.0
 10
-149.0412
 20
-0.983
 30
0.0
 10
-149.0412
 20
-0.983
 30
0.0
 10
-149.0412
 20
-0.983
 30
0.0
 10
-149.0412
 20
5.551
 30
0.0
 10
-149.0412
 20
5.551
 30
0.0
 10
-149.0412
 20
5.551
 30
0.0
 10
-144.2012
 20
5.551
 30
0.0
 10
-139.9662
 20
3.4941
 30
0.0
 10
-137.9089
 20
-1.3459
 30
0.0
 10
-137.9089
 20
-1.3459
 30
0.0
 10
-137.9089
 20
-1.3459
 30
0.0
 10
-137.9089
 20
-12.115
 30
0.0
 10
-137.9089
 20
-12.115
 30
0.0
  0
SPLINE
  5
95
330
1F
100
AcDbEntity
  8
layer 1
 62
     7
100
AcDbSpline
210
0.0
220
0.0
230
1.0
 70
    11
 71
     3
 72
    28
 73
    24
 74
     0
 42
0.0000000001
 43
0.0000000001
 12
1.0
 22
0.0
 32
0.0
 13
1.0
 23
0.0
 33
0.0
 40
0.0
 40
0.0
 40
0.0
 40
0.0
 40
0.1428571428571428
 40
0.1428571428571428
 40
0.1428571428571428
 40
0.1428571428571428
 40
0.2857142857142857
 40
0.2857142857142857
 40
0.2857142857142857
 40
0.2857142857142857
 40
0.4285714285714285
 40
0.4285714285714285
 40
0.4285714285714285
 40
0.4285714285714285
 40
0.5714285714285714
 40
0.5714285714285714
 40
0.5714285714285714
 40
0.5714285714285714
 40
0.7142857142857143
 40
0.7142857142857143
 40
0.7142857142857143
 40
0.7142857142857143
 40
1.0
 40
1.0
 40
1.0
 40
1.0
 10
-137.9089
 20
28.7832
 30
0.0
 10
-137.9089
 20
28.7832
 30
0.0
 10
-137.9089
 20
18.0142
 30
0.0
 10
-137.9089
 20
18.0142
 30
0.0
 10
-137.9089
 20
18.0142
 30
0.0
 10
-139.9662
 20
13.1741
 30
0.0
 10
-144.2012
 20
11.1172
 30
0.0
 10
-149.0412
 20
11.1172
 30
0.0
 10
-149.0412
 20
11.1172
 30
0.0
 10
-149.0412
 20
11.1172
 30
0.0
 10
-149.0412
 20
17.6513
 30
0.0
 10
-149.0412
 20
17.6513
 30
0.0
 10
-149.0412
 20
17.6513
 30
0.0
 10
-149.0412
 20
17.6513
 30
0.0
 10
-155.5753
 20
17.6513
 30
0.0
 10
-155.5753
 20
17.6513
 30
0.0
 10
-155.5753
 20
17.6513
 30
0.0
 10
-155.5753
 20
22.4913
 30
0.0
 10
-153.5184
 20
26.7263
 30
0.0
 10
-148.6783
 20
28.7832
 30
0.0
 10
-148.6783
 20
28.7832
 30
0.0
 10
-148.6783
 20
28.7832
 30
0.0
 10
-137.9089
 20
28.7832
 30
0.0
 10
-137.9089
 20
28.7832
 30
0.0
  0
SPLINE
  5
96
330
1F
100
AcDbEntity
  8
layer 1
 62
     7
100
AcDbSpline
210
0.0
220
0.0
230
1.0
 70
    11
 71
     3
 72
    28
 73
    24
 74
     0
 42
0.0000000001
 43
0.0000000001
 12
1.0
 22
0.0
 32
0.0
 13
1.0
 23
0.0
 33
0.0
 40
0.0
 40
0.0
 40
0.0
 40
0.0
 40
0.1428571428571428
 40
0.1428571428571428
 40
0.1428571428571428
 40
0.1428571428571428
 40
0.2857142857142857
 40
0.2857142857142857
 40
0.2857142857142857
 40
0.2857142857142857
 40
0.4285714285714285
 40
0.4285714285714285
 40
0.4285714285714285
 40
0.4285714285714285
 40
0.5714285714285714
 40
0.5714285714285714
 40
0.5714285714285714
 40
0.5714285714285714
 40
0.7142857142857143
 40
0.7142857142857143
 40
0.7142857142857143
 40
0.7142857142857143
 40
1.0
 40
1.0
 40
1.0
 40
1.0
 10
-175.9037
 20
28.7832
 30
0.0
 10
-175.9037
 20
28.7832
 30
0.0
 10
-168.0385
 20
28.7832
 30
0.0
 10
-168.0385
 20
28.7832
 30
0.0
 10
-168.0385
 20
28.7832
 30
0.0
 10
-163.1984
 20
26.7263
 30
0.0
 10
-161.1415
 20
22.4913
 30
0.0
 10
-161.1415
 20
17.6513
 30
0.0
 10
-161.1415
 20
17.6513
 30
0.0
 10
-161.1415
 20
17.6513
 30
0.0
 10
-167.6756
 20
17.6513
 30
0.0
 10
-167.6756
 20
17.6513
 30
0.0
 10
-167.6756
 20
17.6513
 30
0.0
 10
-167.6756
 20
17.6513
 30
0.0
 10
-167.6756
 20
11.1172
 30
0.0
 10
-167.6756
 20
11.1172
 30
0.0
 10
-167.6756
 20
11.1172
 30
0.0
 10
-170.8215
 20
11.1172
 30
0.0
 10
-173.7257
 20
11.9641
 30
0.0
 10
-175.9037
 20
13.9003
 30
0.0
 10
-175.9037
 20
13.9003
 30
0.0
 10
-175.9037
 20
13.9003
 30
0.0
 10
-175.9037
 20
28.7832
 30
0.0
 10
-175.9037
 20
28.7832
 30
0.0
  0
SPLINE
  5
97
330
1F
100
AcDbEntity
  8
layer 1
 62
     7
100
AcDbSpline
210
0.0
220
0.0
230
1.0
 70
    11
 71
     3
 72
    20
 73
    16
 74
     0
 42
0.0000000001
 43
0.0000000001
 12
1.0
 22
0.0
 32
0.0
 13
1.0
 23
0.0
 33
0.0
 40
0.0
 40
0.0
 40
0.0
 40
0.0
 40
0.2
 40
0.2
 40
0.2
 40
0.2
 40
0.4
 40
0.4
 40
0.4
 40
0.4
 40
0.6
 40
0.6
 40
0.6
 40
0.6
 40
1.0
 40
1.0
 40
1.0
 40
1.0
 10
-163.9245
 20
2.768
 30
0.0
 10
-163.9245
 20
2.768
 30
0.0
 10
-163.9245
 20
13.8372
 30
0.0
 10
-163.9245
 20
13.8372
 30
0.0
 10
-163.9245
 20
13.8372
 30
0.0
 10
-163.9245
 20
13.8372
 30
0.0
 10
-152.8554
 20
13.8372
 30
0.0
 10
-152.8554
 20
13.8372
 30
0.0
 10
-152.8554
 20
13.8372
 30
0.0
 10
-152.8554
 20
13.8372
 30
0.0
 10
-152.8554
 20
2.768
 30
0.0
 10
-152.8554
 20
2.768
 30
0.0
 10
-152.8554
 20
2.768
 30
0.0
 10
-152.8554
 20
2.768
 30
0.0
 10
-163.9245
 20
2.768
 30
0.0
 10
-163.9245
 20
2.768
 30
0.0
  0
SPLINE
  5
98
330
1F
100
AcDbEntity
  8
layer 1
 62
     7
100
AcDbSpline
210
0.0
220
0.0
230
1.0
 70
    11
 71
     3
 72
    20
 73
    16
 74
     0
 42
0.0000000001
 43
0.0000000001
 12
1.0
 22
0.0
 32
0.0
 13
1.0
 23
0.0
 33
0.0
 40
0.0
 40
0.0
 40
0.0
 40
0.0
 40
0.2
 40
0.2
 40
0.2
 40
0.2
 40
0.4
 40
0.4
 40
0.4
 40
0.4
 40
0.6
 40
0.6
 40
0.6
 40
0.6
 40
1.0
 40
1.0
 40
1.0
 40
1.0
 10
-164.4085
 20
-64.3877
 30
0.0
 10
-161.9883
 20
-63.1779
 30
0.0
 10
-159.9314
 20
-61.2417
 30
0.0
 10
-158.3584
 20
-58.5797
 30
0.0
 10
-158.3584
 20
-58.5797
 30
0.0
 10
-156.7854
 20
-61.2417
 30
0.0
 10
-154.7285
 20
-63.1779
 30
0.0
 10
-152.3083
 20
-64.3877
 30
0.0
 10
-152.3083
 20
-64.3877
 30
0.0
 10
-154.7285
 20
-65.7189
 30
0.0
 10
-156.7854
 20
-67.6547
 30
0.0
 10
-158.3584
 20
-70.3171
 30
0.0
 10
-158.3584
 20
-70.3171
 30
0.0
 10
-159.9314
 20
-67.6547
 30
0.0
 10
-161.9883
 20
-65.7189
 30
0.0
 10
-164.4085
 20
-64.3877
 30
0.0
  0
SPLINE
  5
99
330
1F
100
AcDbEntity
  8
layer 1
 62
     7
100
AcDbSpline
210
0.0
220
0.0
230
1.0
 70
    11
 71
     3
 72
    28
 73
    24
 74
     0
 42
0.0000000001
 43
0.0000000001
 12
1.0
 22
0.0
 32
0.0
 13
1.0
 23
0.0
 33
0.0
 40
0.0
 40
0.0
 40
0.0
 40
0.0
 40
0.1428571428571428
 40
0.1428571428571428
 40
0.1428571428571428
 40
0.1428571428571428
 40
0.2857142857142857
 40
0.2857142857142857
 40
0.2857142857142857
 40
0.2857142857142857
 40
0.4285714285714285
 40
0.4285714285714285
 40
0.4285714285714285
 40
0.4285714285714285
 40
0.5714285714285714
 40
0.5714285714285714
 40
0.5714285714285714
 40
0.5714285714285714
 40
0.7142857142857143
 40
0.7142857142857143
 40
0.7142857142857143
 40
0.7142857142857143
 40
1.0
 40
1.0
 40
1.0
 40
1.0
 10
-175.9037
 20
-45.7537
 30
0.0
 10
-173.7257
 20
-43.8175
 30
0.0
 10
-170.8215
 20
-42.9706
 30
0.0
 10
-167.6756
 20
-42.9706
 30
0.0
 10
-167.6756
 20
-42.9706
 30
0.0
 10
-167.6756
 20
-42.9706
 30
0.0
 10
-167.6756
 20
-49.5047
 30
0.0
 10
-167.6756
 20
-49.5047
 30
0.0
 10
-167.6756
 20
-49.5047
 30
0.0
 10
-167.6756
 20
-49.5047
 30
0.0
 10
-161.1415
 20
-49.5047
 30
0.0
 10
-161.1415
 20
-49.5047
 30
0.0
 10
-161.1415
 20
-49.5047
 30
0.0
 10
-161.1415
 20
-54.3448
 30
0.0
 10
-163.1984
 20
-58.4587
 30
0.0
 10
-168.0385
 20
-60.6367
 30
0.0
 10
-168.0385
 20
-60.6367
 30
0.0
 10
-168.0385
 20
-60.6367
 30
0.0
 10
-175.9037
 20
-60.6367
 30
0.0
 10
-175.9037
 20
-60.6367
 30
0.0
 10
-175.9037
 20
-60.6367
 30
0.0
 10
-175.9037
 20
-60.6367
 30
0.0
 10
-175.9037
 20
-45.7537
 30
0.0
 10
-175.9037
 20
-45.7537
 30
0.0
  0
SPLINE
  5
9A
330
1F
100
AcDbEntity
  8
layer 1
 62
     7
100
AcDbSpline
210
0.0
220
0.0
230
1.0
 70
    11
 71
     3
 72
    28
 73
    24
 74
     0
 42
0.0000000001
 43
0.0000000001
 12
1.0
 22
0.0
 32
0.0
 13
1.0
 23
0.0
 33
0.0
 40
0.0
 40
0.0
 40
0.0
 40
0.0
 40
0.1428571428571428
 40
0.1428571428571428
 40
0.1428571428571428
 40
0.1428571428571428
 40
0.2857142857142857
 40
0.2857142857142857
 40
0.2857142857142857
 40
0.2857142857142857
 40
0.4285714285714285
 40
0.4285714285714285
 40
0.4285714285714285
 40
0.4285714285714285
 40
0.5714285714285714
 40
0.5714285714285714
 40
0.5714285714285714
 40
0.5714285714285714
 40
0.7142857142857143
 40
0.7142857142857143
 40
0.7142857142857143
 40
0.7142857142857143
 40
1.0
 40
1.0
 40
1.0
 40
1.0
 10
-137.9089
 20
-60.6367
 30
0.0
 10
-137.9089
 20
-60.6367
 30
0.0
 10
-148.6783
 20
-60.6367
 30
0.0
 10
-148.6783
 20
-60.6367
 30
0.0
 10
-148.6783
 20
-60.6367
 30
0.0
 10
-153.5184
 20
-58.4587
 30
0.0
 10
-155.5753
 20
-54.3448
 30
0.0
 10
-155.5753
 20
-49.5047
 30
0.0
 10
-155.5753
 20
-49.5047
 30
0.0
 10
-155.5753
 20
-49.5047
 30
0.0
 10
-149.0412
 20
-49.5047
 30
0.0
 10
-149.0412
 20
-49.5047
 30
0.0
 10
-149.0412
 20
-49.5047
 30
0.0
 10
-149.0412
 20
-49.5047
 30
0.0
 10
-149.0412
 20
-42.9706
 30
0.0
 10
-149.0412
 20
-42.9706
 30
0.0
 10
-149.0412
 20
-42.9706
 30
0.0
 10
-144.2012
 20
-42.9706
 30
0.0
 10
-139.9662
 20
-45.0276
 30
0.0
 10
-137.9089
 20
-49.8676
 30
0.0
 10
-137.9089
 20
-49.8676
 30
0.0
 10
-137.9089
 20
-49.8676
 30
0.0
 10
-137.9089
 20
-60.6367
 30
0.0
 10
-137.9089
 20
-60.6367
 30
0.0
  0
SPLINE
  5
9B
330
1F
100
AcDbEntity
  8
layer 1
 62
     7
100
AcDbSpline
210
0.0
220
0.0
230
1.0
 70
    11
 71
     3
 72
    28
 73
    24
 74
     0
 42
0.0000000001
 43
0.0000000001
 12
1.0
 22
0.0
 32
0.0
 13
1.0
 23
0.0
 33
0.0
 40
0.0
 40
0.0
 40
0.0
 40
0.0
 40
0.1428571428571428
 40
0.1428571428571428
 40
0.1428571428571428
 40
0.1428571428571428
 40
0.2857142857142857
 40
0.2857142857142857
 40
0.2857142857142857
 40
0.2857142857142857
 40
0.4285714285714285
 40
0.4285714285714285
 40
0.4285714285714285
 40
0.4285714285714285
 40
0.5714285714285714
 40
0.5714285714285714
 40
0.5714285714285714
 40
0.5714285714285714
 40
0.7142857142857143
 40
0.7142857142857143
 40
0.7142857142857143
 40
0.7142857142857143
 40
1.0
 40
1.0
 40
1.0
 40
1.0
 10
-137.9089
 20
-19.7381
 30
0.0
 10
-137.9089
 20
-19.7381
 30
0.0
 10
-137.9089
 20
-30.5075
 30
0.0
 10
-137.9089
 20
-30.5075
 30
0.0
 10
-137.9089
 20
-30.5075
 30
0.0
 10
-139.9662
 20
-35.3475
 30
0.0
 10
-144.2012
 20
-37.4045
 30
0.0
 10
-149.0412
 20
-37.4045
 30
0.0
 10
-149.0412
 20
-37.4045
 30
0.0
 10
-149.0412
 20
-37.4045
 30
0.0
 10
-149.0412
 20
-30.8704
 30
0.0
 10
-149.0412
 20
-30.8704
 30
0.0
 10
-149.0412
 20
-30.8704
 30
0.0
 10
-149.0412
 20
-30.8704
 30
0.0
 10
-155.5753
 20
-30.8704
 30
0.0
 10
-155.5753
 20
-30.8704
 30
0.0
 10
-155.5753
 20
-30.8704
 30
0.0
 10
-155.5753
 20
-26.0304
 30
0.0
 10
-153.5184
 20
-21.7954
 30
0.0
 10
-148.6783
 20
-19.7381
 30
0.0
 10
-148.6783
 20
-19.7381
 30
0.0
 10
-148.6783
 20
-19.7381
 30
0.0
 10
-137.9089
 20
-19.7381
 30
0.0
 10
-137.9089
 20
-19.7381
 30
0.0
  0
SPLINE
  5
9C
330
1F
100
AcDbEntity
  8
layer 1
 62
     7
100
AcDbSpline
210
0.0
220
0.0
230
1.0
 70
    11
 71
     3
 72
    28
 73
    24
 74
     0
 42
0.0000000001
 43
0.0000000001
 12
1.0
 22
0.0
 32
0.0
 13
1.0
 23
0.0
 33
0.0
 40
0.0
 40
0.0
 40
0.0
 40
0.0
 40
0.1428571428571428
 40
0.1428571428571428
 40
0.1428571428571428
 40
0.1428571428571428
 40
0.2857142857142857
 40
0.2857142857142857
 40
0.2857142857142857
 40
0.2857142857142857
 40
0.4285714285714285
 40
0.4285714285714285
 40
0.4285714285714285
 40
0.4285714285714285
 40
0.5714285714285714
 40
0.5714285714285714
 40
0.5714285714285714
 40
0.5714285714285714
 40
0.7142857142857143
 40
0.7142857142857143
 40
0.7142857142857143
 40
0.7142857142857143
 40
1.0
 40
1.0
 40
1.0
 40
1.0
 10
-175.9037
 20
-19.7381
 30
0.0
 10
-175.9037
 20
-19.7381
 30
0.0
 10
-168.0385
 20
-19.7381
 30
0.0
 10
-168.0385
 20
-19.7381
 30
0.0
 10
-168.0385
 20
-19.7381
 30
0.0
 10
-163.1984
 20
-21.7954
 30
0.0
 10
-161.1415
 20
-26.0304
 30
0.0
 10
-161.1415
 20
-30.8704
 30
0.0
 10
-161.1415
 20
-30.8704
 30
0.0
 10
-161.1415
 20
-30.8704
 30
0.0
 10
-167.6756
 20
-30.8704
 30
0.0
 10
-167.6756
 20
-30.8704
 30
0.0
 10
-167.6756
 20
-30.8704
 30
0.0
 10
-167.6756
 20
-30.8704
 30
0.0
 10
-167.6756
 20
-37.4045
 30
0.0
 10
-167.6756
 20
-37.4045
 30
0.0
 10
-167.6756
 20
-37.4045
 30
0.0
 10
-170.8215
 20
-37.4045
 30
0.0
 10
-173.7257
 20
-36.5576
 30
0.0
 10
-175.9037
 20
-34.6214
 30
0.0
 10
-175.9037
 20
-34.6214
 30
0.0
 10
-175.9037
 20
-34.6214
 30
0.0
 10
-175.9037
 20
-19.7381
 30
0.0
 10
-175.9037
 20
-19.7381
 30
0.0
  0
SPLINE
  5
9D
330
1F
100
AcDbEntity
  8
layer 1
 62
     7
100
AcDbSpline
210
0.0
220
0.0
230
1.0
 70
    11
 71
     3
 72
    20
 73
    16
 74
     0
 42
0.0000000001
 43
0.0000000001
 12
1.0
 22
0.0
 32
0.0
 13
1.0
 23
0.0
 33
0.0
 40
0.0
 40
0.0
 40
0.0
 40
0.0
 40
0.2
 40
0.2
 40
0.2
 40
0.2
 40
0.4
 40
0.4
 40
0.4
 40
0.4
 40
0.6
 40
0.6
 40
0.6
 40
0.6
 40
1.0
 40
1.0
 40
1.0
 40
1.0
 10
-163.9245
 20
-45.7537
 30
0.0
 10
-163.9245
 20
-45.7537
 30
0.0
 10
-163.9245
 20
-34.6845
 30
0.0
 10
-163.9245
 20
-34.6845
 30
0.0
 10
-163.9245
 20
-34.6845
 30
0.0
 10
-163.9245
 20
-34.6845
 30
0.0
 10
-152.8554
 20
-34.6845
 30
0.0
 10
-152.8554
 20
-34.6845
 30
0.0
 10
-152.8554
 20
-34.6845
 30
0.0
 10
-152.8554
 20
-34.6845
 30
0.0
 10
-152.8554
 20
-45.7537
 30
0.0
 10
-152.8554
 20
-45.7537
 30
0.0
 10
-152.8554
 20
-45.7537
 30
0.0
 10
-152.8554
 20
-45.7537
 30
0.0
 10
-163.9245
 20
-45.7537
 30
0.0
 10
-163.9245
 20
-45.7537
 30
0.0
  0
SPLINE
  5
9E
330
1F
100
AcDbEntity
  8
layer 1
 62
     7
100
AcDbSpline
210
0.0
220
0.0
230
1.0
 70
    11
 71
     3
 72
    28
 73
    24
 74
     0
 42
0.0000000001
 43
0.0000000001
 12
1.0
 22
0.0
 32
0.0
 13
1.0
 23
0.0
 33
0.0
 40
0.0
 40
0.0
 40
0.0
 40
0.0
 40
0.1428571428571428
 40
0.1428571428571428
 40
0.1428571428571428
 40
0.1428571428571428
 40
0.2857142857142857
 40
0.2857142857142857
 40
0.2857142857142857
 40
0.2857142857142857
 40
0.4285714285714285
 40
0.4285714285714285
 40
0.4285714285714285
 40
0.4285714285714285
 40
0.5714285714285714
 40
0.5714285714285714
 40
0.5714285714285714
 40
0.5714285714285714
 40
0.7142857142857143
 40
0.7142857142857143
 40
0.7142857142857143
 40
0.7142857142857143
 40
1.0
 40
1.0
 40
1.0
 40
1.0
 10
-175.9037
 20
-94.2631
 30
0.0
 10
-173.7257
 20
-92.3272
 30
0.0
 10
-170.8215
 20
-91.468
 30
0.0
 10
-167.6756
 20
-91.5043
 30
0.0
 10
-167.6756
 20
-91.5043
 30
0.0
 10
-167.6756
 20
-91.5043
 30
0.0
 10
-167.6756
 20
-97.9901
 30
0.0
 10
-167.6756
 20
-97.9901
 30
0.0
 10
-167.6756
 20
-97.9901
 30
0.0
 10
-167.6756
 20
-97.9901
 30
0.0
 10
-161.1415
 20
-98.0021
 30
0.0
 10
-161.1415
 20
-98.0021
 30
0.0
 10
-161.1415
 20
-98.0021
 30
0.0
 10
-161.1415
 20
-100.047
 30
0.0
 10
-161.5044
 20
-101.9832
 30
0.0
 10
-162.3516
 20
-103.6893
 30
0.0
 10
-162.3516
 20
-103.6893
 30
0.0
 10
-162.3516
 20
-103.6893
 30
0.0
 10
-175.9037
 20
-103.6893
 30
0.0
 10
-175.9037
 20
-103.6893
 30
0.0
 10
-175.9037
 20
-103.6893
 30
0.0
 10
-175.9037
 20
-103.6893
 30
0.0
 10
-175.9037
 20
-94.2631
 30
0.0
 10
-175.9037
 20
-94.2631
 30
0.0
  0
SPLINE
  5
9F
330
1F
100
AcDbEntity
  8
layer 1
 62
     7
100
AcDbSpline
210
0.0
220
0.0
230
1.0
 70
    11
 71
     3
 72
    28
 73
    24
 74
     0
 42
0.0000000001
 43
0.0000000001
 12
1.0
 22
0.0
 32
0.0
 13
1.0
 23
0.0
 33
0.0
 40
0.0
 40
0.0
 40
0.0
 40
0.0
 40
0.1428571428571428
 40
0.1428571428571428
 40
0.1428571428571428
 40
0.1428571428571428
 40
0.2857142857142857
 40
0.2857142857142857
 40
0.2857142857142857
 40
0.2857142857142857
 40
0.4285714285714285
 40
0.4285714285714285
 40
0.4285714285714285
 40
0.4285714285714285
 40
0.5714285714285714
 40
0.5714285714285714
 40
0.5714285714285714
 40
0.5714285714285714
 40
0.7142857142857143
 40
0.7142857142857143
 40
0.7142857142857143
 40
0.7142857142857143
 40
1.0
 40
1.0
 40
1.0
 40
1.0
 10
-154.3652
 20
-103.6893
 30
0.0
 10
-155.2124
 20
-101.9832
 30
0.0
 10
-155.5753
 20
-100.047
 30
0.0
 10
-155.5753
 20
-98.0021
 30
0.0
 10
-155.5753
 20
-98.0021
 30
0.0
 10
-155.5753
 20
-98.0021
 30
0.0
 10
-149.0412
 20
-98.0021
 30
0.0
 10
-149.0412
 20
-98.0021
 30
0.0
 10
-149.0412
 20
-98.0021
 30
0.0
 10
-149.0412
 20
-98.0021
 30
0.0
 10
-149.0412
 20
-91.5043
 30
0.0
 10
-149.0412
 20
-91.5043
 30
0.0
 10
-149.0412
 20
-91.5043
 30
0.0
 10
-144.2012
 20
-91.456
 30
0.0
 10
-139.9662
 20
-93.5009
 30
0.0
 10
-137.9089
 20
-98.3166
 30
0.0
 10
-137.9089
 20
-98.3166
 30
0.0
 10
-137.9089
 20
-98.3166
 30
0.0
 10
-137.9089
 20
-103.6893
 30
0.0
 10
-137.9089
 20
-103.6893
 30
0.0
 10
-137.9089
 20
-103.6893
 30
0.0
 10
-137.9089
 20
-103.6893
 30
0.0
 10
-154.3652
 20
-103.6893
 30
0.0
 10
-154.3652
 20
-103.6893
 30
0.0
  0
SPLINE
  5
A0
330
1F
100
AcDbEntity
  8
layer 1
 62
     7
100
AcDbSpline
210
0.0
220
0.0
230
1.0
 70
    11
 71
     3
 72
    28
 73
    24
 74
     0
 42
0.0000000001
 43
0.0000000001
 12
1.0
 22
0.0
 32
0.0
 13
1.0
 23
0.0
 33
0.0
 40
0.0
 40
0.0
 40
0.0
 40
0.0
 40
0.1428571428571428
 40
0.1428571428571428
 40
0.1428571428571428
 40
0.1428571428571428
 40
0.2857142857142857
 40
0.2857142857142857
 40
0.2857142857142857
 40
0.2857142857142857
 40
0.4285714285714285
 40
0.4285714285714285
 40
0.4285714285714285
 40
0.4285714285714285
 40
0.5714285714285714
 40
0.5714285714285714
 40
0.5714285714285714
 40
0.5714285714285714
 40
0.7142857142857143
 40
0.7142857142857143
 40
0.7142857142857143
 40
0.7142857142857143
 40
1.0
 40
1.0
 40
1.0
 40
1.0
 10
-137.9089
 20
-68.2598
 30
0.0
 10
-137.9089
 20
-68.2598
 30
0.0
 10
-137.9089
 20
-79.0532
 30
0.0
 10
-137.9089
 20
-79.0532
 30
0.0
 10
-137.9089
 20
-79.0532
 30
0.0
 10
-139.9662
 20
-83.8569
 30
0.0
 10
-144.2012
 20
-85.9018
 30
0.0
 10
-149.0412
 20
-85.8658
 30
0.0
 10
-149.0412
 20
-85.8658
 30
0.0
 10
-149.0412
 20
-85.8658
 30
0.0
 10
-149.0412
 20
-79.3677
 30
0.0
 10
-149.0412
 20
-79.3677
 30
0.0
 10
-149.0412
 20
-79.3677
 30
0.0
 10
-149.0412
 20
-79.3677
 30
0.0
 10
-155.5753
 20
-79.3677
 30
0.0
 10
-155.5753
 20
-79.3677
 30
0.0
 10
-155.5753
 20
-79.3677
 30
0.0
 10
-155.5753
 20
-74.5157
 30
0.0
 10
-153.5184
 20
-70.3171
 30
0.0
 10
-148.6783
 20
-68.2598
 30
0.0
 10
-148.6783
 20
-68.2598
 30
0.0
 10
-148.6783
 20
-68.2598
 30
0.0
 10
-137.9089
 20
-68.2598
 30
0.0
 10
-137.9089
 20
-68.2598
 30
0.0
  0
SPLINE
  5
A1
330
1F
100
AcDbEntity
  8
layer 1
 62
     7
100
AcDbSpline
210
0.0
220
0.0
230
1.0
 70
    11
 71
     3
 72
    28
 73
    24
 74
     0
 42
0.0000000001
 43
0.0000000001
 12
1.0
 22
0.0
 32
0.0
 13
1.0
 23
0.0
 33
0.0
 40
0.0
 40
0.0
 40
0.0
 40
0.0
 40
0.1428571428571428
 40
0.1428571428571428
 40
0.1428571428571428
 40
0.1428571428571428
 40
0.2857142857142857
 40
0.2857142857142857
 40
0.2857142857142857
 40
0.2857142857142857
 40
0.4285714285714285
 40
0.4285714285714285
 40
0.4285714285714285
 40
0.4285714285714285
 40
0.5714285714285714
 40
0.5714285714285714
 40
0.5714285714285714
 40
0.5714285714285714
 40
0.7142857142857143
 40
0.7142857142857143
 40
0.7142857142857143
 40
0.7142857142857143
 40
1.0
 40
1.0
 40
1.0
 40
1.0
 10
-175.9037
 20
-68.2598
 30
0.0
 10
-175.9037
 20
-68.2598
 30
0.0
 10
-168.0385
 20
-68.2598
 30
0.0
 10
-168.0385
 20
-68.2598
 30
0.0
 10
-168.0385
 20
-68.2598
 30
0.0
 10
-163.1984
 20
-70.3171
 30
0.0
 10
-161.1415
 20
-74.5157
 30
0.0
 10
-161.1415
 20
-79.3677
 30
0.0
 10
-161.1415
 20
-79.3677
 30
0.0
 10
-161.1415
 20
-79.3677
 30
0.0
 10
-167.6756
 20
-79.3677
 30
0.0
 10
-167.6756
 20
-79.3677
 30
0.0
 10
-167.6756
 20
-79.3677
 30
0.0
 10
-167.6756
 20
-79.3677
 30
0.0
 10
-167.6756
 20
-85.8535
 30
0.0
 10
-167.6756
 20
-85.8535
 30
0.0
 10
-167.6756
 20
-85.8535
 30
0.0
 10
-170.8215
 20
-85.8898
 30
0.0
 10
-173.7257
 20
-85.0306
 30
0.0
 10
-175.9037
 20
-83.1067
 30
0.0
 10
-175.9037
 20
-83.1067
 30
0.0
 10
-175.9037
 20
-83.1067
 30
0.0
 10
-175.9037
 20
-68.2598
 30
0.0
 10
-175.9037
 20
-68.2598
 30
0.0
  0
SPLINE
  5
A2
330
1F
100
AcDbEntity
  8
layer 1
 62
     7
100
AcDbSpline
210
0.0
220
0.0
230
1.0
 70
    11
 71
     3
 72
    20
 73
    16
 74
     0
 42
0.0000000001
 43
0.0000000001
 12
1.0
 22
0.0
 32
0.0
 13
1.0
 23
0.0
 33
0.0
 40
0.0
 40
0.0
 40
0.0
 40
0.0
 40
0.2
 40
0.2
 40
0.2
 40
0.2
 40
0.4
 40
0.4
 40
0.4
 40
0.4
 40
0.6
 40
0.6
 40
0.6
 40
0.6
 40
1.0
 40
1.0
 40
1.0
 40
1.0
 10
-163.9245
 20
-94.2147
 30
0.0
 10
-163.9245
 20
-94.2147
 30
0.0
 10
-163.9245
 20
-83.1445
 30
0.0
 10
-163.9245
 20
-83.1445
 30
0.0
 10
-163.9245
 20
-83.1445
 30
0.0
 10
-163.9245
 20
-83.1445
 30
0.0
 10
-152.8554
 20
-83.1445
 30
0.0
 10
-152.8554
 20
-83.1445
 30
0.0
 10
-152.8554
 20
-83.1445
 30
0.0
 10
-152.8554
 20
-83.1445
 30
0.0
 10
-152.8554
 20
-94.2147
 30
0.0
 10
-152.8554
 20
-94.2147
 30
0.0
 10
-152.8554
 20
-94.2147
 30
0.0
 10
-152.8554
 20
-94.2147
 30
0.0
 10
-163.9245
 20
-94.2147
 30
0.0
 10
-163.9245
 20
-94.2147
 30
0.0
  0
ENDSEC
  0
SECTION
  2
OBJECTS
  0
DICTIONARY
  5
C
330
0
100
AcDbDictionary
281
     1
  3
ACAD_GROUP
350
D
  3
ACAD_LAYOUT
350
1A
  3
ACAD_MATERIAL
350
3B
  3
ACAD_MLEADERSTYLE
350
C4
  3
ACAD_MLINESTYLE
350
17
  3
ACAD_PLOTSETTINGS
350
19
  3
ACAD_PLOTSTYLENAME
350
E
  3
ACAD_TABLESTYLE
350
C3
  3
ACAD_VISUALSTYLE
350
2A
  0
DICTIONARY
  5
D
102
{ACAD_REACTORS
330
C
102
}
330
C
100
AcDbDictionary
281
     1
  0
DICTIONARY
  5
1A
102
{ACAD_REACTORS
330
C
102
}
330
C
100
AcDbDictionary
281
     1
  3
Layout1
350
1E
  3
Layout2
350
26
  3
Model
350
22
  0
DICTIONARY
  5
3B
102
{ACAD_REACTORS
330
C
102
}
330
C
100
AcDbDictionary
281
     1
  3
ByBlock
350
3D
  3
ByLayer
350
3C
  3
Global
350
3E
  0
DICTIONARY
  5
C4
102
{ACAD_REACTORS
330
C
102
}
330
C
100
AcDbDictionary
281
     1
  0
DICTIONARY
  5
17
102
{ACAD_REACTORS
330
C
102
}
330
C
100
AcDbDictionary
281
     1
  3
Standard
350
18
  0
DICTIONARY
  5
19
102
{ACAD_REACTORS
330
C
102
}
330
C
100
AcDbDictionary
281
     1
  0
ACDBDICTIONARYWDFLT
  5
E
102
{ACAD_REACTORS
330
C
102
}
330
C
100
AcDbDictionary
281
     1
  3
Normal
350
F
100
AcDbDictionaryWithDefault
340
F
  0
DICTIONARY
  5
C3
102
{ACAD_REACTORS
330
C
102
}
330
C
100
AcDbDictionary
281
     1
  0
DICTIONARY
  5
2A
102
{ACAD_REACTORS
330
C
102
}
330
C
100
AcDbDictionary
281
     1
  3
2dWireframe
350
2F
  3
3D Hidden
350
31
  3
3dWireframe
350
30
  3
Basic
350
32
  3
Brighten
350
36
  3
ColorChange
350
3A
  3
Conceptual
350
34
  3
Dim
350
35
  3
Facepattern
350
39
  3
Flat
350
2B
  3
FlatWithEdges
350
2C
  3
Gouraud
350
2D
  3
GouraudWithEdges
350
2E
  3
Linepattern
350
38
  3
Realistic
350
33
  3
Thicken
350
37
  0
LAYOUT
  5
1E
102
{ACAD_REACTORS
330
1A
102
}
330
1A
100
AcDbPlotSettings
  1

  2
none_device
  4

  6

 40
0.0
 41
0.0
 42
0.0
 43
0.0
 44
0.0
 45
0.0
 46
0.0
 47
0.0
 48
0.0
 49
0.0
140
0.0
141
0.0
142
1.0
143
1.0
 70
   688
 72
     0
 73
     0
 74
     5
  7

 75
    16
 76
     0
 77
     2
 78
   300
147
1.0
148
0.0
149
0.0
100
AcDbLayout
  1
Layout1
 70
     1
 71
     1
 10
0.0
 20
0.0
 11
12.0
 21
9.0
 12
0.0
 22
0.0
 32
0.0
 14
1.000000000000000E+20
 24
1.000000000000000E+20
 34
1.000000000000000E+20
 15
-1.000000000000000E+20
 25
-1.000000000000000E+20
 35
-1.000000000000000E+20
146
0.0
 13
0.0
 23
0.0
 33
0.0
 16
1.0
 26
0.0
 36
0.0
 17
0.0
 27
1.0
 37
0.0
 76
     0
330
1B
  0
LAYOUT
  5
26
102
{ACAD_REACTORS
330
1A
102
}
330
1A
100
AcDbPlotSettings
  1

  2
none_device
  4

  6

 40
0.0
 41
0.0
 42
0.0
 43
0.0
 44
0.0
 45
0.0
 46
0.0
 47
0.0
 48
0.0
 49
0.0
140
0.0
141
0.0
142
1.0
143
1.0
 70
   688
 72
     0
 73
     0
 74
     5
  7

 75
    16
 76
     0
 77
     2
 78
   300
147
1.0
148
0.0
149
0.0
100
AcDbLayout
  1
Layout2
 70
     1
 71
     2
 10
0.0
 20
0.0
 11
0.0
 21
0.0
 12
0.0
 22
0.0
 32
0.0
 14
0.0
 24
0.0
 34
0.0
 15
0.0
 25
0.0
 35
0.0
146
0.0
 13
0.0
 23
0.0
 33
0.0
 16
1.0
 26
0.0
 36
0.0
 17
0.0
 27
1.0
 37
0.0
 76
     0
330
23
  0
LAYOUT
  5
22
102
{ACAD_REACTORS
330
1A
102
}
330
1A
100
AcDbPlotSettings
  1

  2
none_device
  4

  6

 40
0.0
 41
0.0
 42
0.0
 43
0.0
 44
0.0
 45
0.0
 46
0.0
 47
0.0
 48
0.0
 49
0.0
140
0.0
141
0.0
142
1.0
143
1.0
 70
  1712
 72
     0
 73
     0
 74
     0
  7

 75
     0
 76
     0
 77
     2
 78
   300
147
1.0
148
0.0
149
0.0
100
AcDbLayout
  1
Model
 70
     1
 71
     0
 10
0.0
 20
0.0
 11
12.0
 21
9.0
 12
0.0
 22
0.0
 32
0.0
 14
-187.3989
 24
-115.1543
 34
0.0
 15
-32.2749
 25
131.8462
 35
0.0
146
0.0
 13
0.0
 23
0.0
 33
0.0
 16
1.0
 26
0.0
 36
0.0
 17
0.0
 27
1.0
 37
0.0
 76
     0
330
1F
331
29
  0
MATERIAL
  5
3D
102
{ACAD_REACTORS
330
3B
102
}
330
3B
100
AcDbMaterial
  1
ByBlock
 72
     1
 94
      127
  0
MATERIAL
  5
3C
102
{ACAD_REACTORS
330
3B
102
}
330
3B
100
AcDbMaterial
  1
ByLayer
 72
     1
 94
      127
  0
MATERIAL
  5
3E
102
{ACAD_REACTORS
330
3B
102
}
330
3B
100
AcDbMaterial
  1
Global
 72
     1
 94
      127
  0
MLINESTYLE
  5
18
102
{ACAD_REACTORS
330
17
102
}
330
17
100
AcDbMlineStyle
  2
Standard
 70
     0
  3

 62
   256
 51
90.0
 52
90.0
 71
     2
 49
0.5
 62
   256
  6
BYLAYER
 49
-0.5
 62
   256
  6
BYLAYER
  0
ACDBPLACEHOLDER
  5
F
102
{ACAD_REACTORS
330
E
102
}
330
E
  0
VISUALSTYLE
  5
2F
102
{ACAD_REACTORS
330
2A
102
}
102
{ACAD_XDICTIONARY
360
AB
102
}
330
2A
100
AcDbVisualStyle
  2
2dWireframe
 70
     4
 71
     0
 72
     2
 73
     0
 90
        0
 40
-0.6
 41
-30.0
 62
     5
 63
     7
421
 16777215
 74
     1
 91
        4
 64
     7
 65
   257
 75
     1
175
     1
 42
1.0
 92
        0
 66
   257
 43
1.0
 76
     1
 77
     6
 78
     2
 67
     7
 79
     5
170
     0
171
     0
290
     0
174
     0
 93
        1
 44
0.0
173
     0
291
     0
 45
0.0
  0
VISUALSTYLE
  5
31
102
{ACAD_REACTORS
330
2A
102
}
102
{ACAD_XDICTIONARY
360
AF
102
}
330
2A
100
AcDbVisualStyle
  2
3D Hidden
 70
     6
 71
     1
 72
     2
 73
     2
 90
        0
 40
-0.6
 41
-30.0
 62
     5
 63
     7
421
 16777215
 74
     2
 91
        2
 64
     7
 65
   257
 75
     2
175
     1
 42
40.0
 92
        0
 66
   257
 43
1.0
 76
     1
 77
     6
 78
     2
 67
     7
 79
     3
170
     0
171
     0
290
     0
174
     0
 93
        1
 44
0.0
173
     0
291
     0
 45
0.0
  0
VISUALSTYLE
  5
30
102
{ACAD_REACTORS
330
2A
102
}
102
{ACAD_XDICTIONARY
360
AD
102
}
330
2A
100
AcDbVisualStyle
  2
3dWireframe
 70
     5
 71
     0
 72
     2
 73
     0
 90
        0
 40
-0.6
 41
-30.0
 62
     5
 63
     7
421
 16777215
 74
     1
 91
        4
 64
     7
 65
   257
 75
     1
175
     1
 42
1.0
 92
        0
 66
   257
 43
1.0
 76
     1
 77
     6
 78
     2
 67
     7
 79
     5
170
     0
171
     0
290
     0
174
     0
 93
        1
 44
0.0
173
     0
291
     0
 45
0.0
  0
VISUALSTYLE
  5
32
102
{ACAD_REACTORS
330
2A
102
}
102
{ACAD_XDICTIONARY
360
B1
102
}
330
2A
100
AcDbVisualStyle
  2
Basic
 70
     7
 71
     1
 72
     0
 73
     1
 90
        0
 40
-0.6
 41
-30.0
 62
     5
 63
     7
421
 16777215
 74
     0
 91
        4
 64
     7
 65
   257
 75
     1
175
     1
 42
1.0
 92
        8
 66
     7
 43
1.0
 76
     1
 77
     6
 78
     2
 67
     7
 79
     5
170
     0
171
     0
290
     0
174
     0
 93
        1
 44
0.0
173
     0
291
     1
 45
0.0
  0
VISUALSTYLE
  5
36
102
{ACAD_REACTORS
330
2A
102
}
102
{ACAD_XDICTIONARY
360
B9
102
}
330
2A
100
AcDbVisualStyle
  2
Brighten
 70
    12
 71
     2
 72
     2
 73
     0
 90
        0
 40
-0.6
 41
-30.0
 62
     5
 63
     7
421
 16777215
 74
     1
 91
        4
 64
     7
 65
   257
 75
     1
175
     1
 42
1.0
 92
        8
 66
     7
 43
1.0
 76
     1
 77
     6
 78
     2
 67
     7
 79
     5
170
     0
171
     0
290
     0
174
     0
 93
        1
 44
50.0
173
     0
291
     1
 45
0.0
  0
VISUALSTYLE
  5
3A
102
{ACAD_REACTORS
330
2A
102
}
102
{ACAD_XDICTIONARY
360
C1
102
}
330
2A
100
AcDbVisualStyle
  2
ColorChange
 70
    16
 71
     2
 72
     2
 73
     3
 90
        0
 40
-0.6
 41
-30.0
 62
     5
 63
     8
421
  8421504
 74
     1
 91
        4
 64
     7
 65
   257
 75
     1
175
     1
 42
1.0
 92
        8
 66
     8
424
  8421504
 43
1.0
 76
     1
 77
     6
 78
     2
 67
     7
 79
     5
170
     0
171
     0
290
     0
174
     0
 93
        1
 44
0.0
173
     0
291
     1
 45
0.0
  0
VISUALSTYLE
  5
34
102
{ACAD_REACTORS
330
2A
102
}
102
{ACAD_XDICTIONARY
360
B5
102
}
330
2A
100
AcDbVisualStyle
  2
Conceptual
 70
     9
 71
     3
 72
     2
 73
     0
 90
        0
 40
-0.6
 41
-30.0
 62
     5
 63
     7
421
 16777215
 74
     2
 91
        2
 64
     7
 65
   257
 75
     1
175
     1
 42
40.0
 92
        8
 66
     7
 43
1.0
 76
     1
 77
     6
 78
     2
 67
     7
 79
     3
170
     0
171
     0
290
     0
174
     0
 93
        1
 44
0.0
173
     0
291
     0
 45
0.0
  0
VISUALSTYLE
  5
35
102
{ACAD_REACTORS
330
2A
102
}
102
{ACAD_XDICTIONARY
360
B7
102
}
330
2A
100
AcDbVisualStyle
  2
Dim
 70
    11
 71
     2
 72
     2
 73
     0
 90
        0
 40
-0.6
 41
-30.0
 62
     5
 63
     7
421
 16777215
 74
     1
 91
        4
 64
     7
 65
   257
 75
     1
175
     1
 42
1.0
 92
        8
 66
     7
 43
1.0
 76
     1
 77
     6
 78
     2
 67
     7
 79
     5
170
     0
171
     0
290
     0
174
     0
 93
        1
 44
-50.0
173
     0
291
     1
 45
0.0
  0
VISUALSTYLE
  5
39
102
{ACAD_REACTORS
330
2A
102
}
102
{ACAD_XDICTIONARY
360
BF
102
}
330
2A
100
AcDbVisualStyle
  2
Facepattern
 70
    15
 71
     2
 72
     2
 73
     0
 90
        0
 40
-0.6
 41
-30.0
 62
     5
 63
     7
421
 16777215
 74
     1
 91
        4
 64
     7
 65
   257
 75
     1
175
     1
 42
1.0
 92
        8
 66
     7
 43
1.0
 76
     1
 77
     6
 78
     2
 67
     7
 79
     5
170
     0
171
     0
290
     0
174
     0
 93
        1
 44
0.0
173
     0
291
     1
 45
0.0
  0
VISUALSTYLE
  5
2B
102
{ACAD_REACTORS
330
2A
102
}
102
{ACAD_XDICTIONARY
360
A3
102
}
330
2A
100
AcDbVisualStyle
  2
Flat
 70
     0
 71
     2
 72
     1
 73
     1
 90
        2
 40
-0.6
 41
30.0
 62
     5
 63
     7
421
 16777215
 74
     0
 91
        4
 64
     7
 65
   257
 75
     1
175
     1
 42
1.0
 92
        8
 66
     7
 43
1.0
 76
     1
 77
     6
 78
     2
 67
     7
 79
     5
170
     0
171
     0
290
     0
174
     0
 93
       13
 44
0.0
173
     0
291
     1
 45
0.0
  0
VISUALSTYLE
  5
2C
102
{ACAD_REACTORS
330
2A
102
}
102
{ACAD_XDICTIONARY
360
A5
102
}
330
2A
100
AcDbVisualStyle
  2
FlatWithEdges
 70
     1
 71
     2
 72
     1
 73
     1
 90
        2
 40
-0.6
 41
30.0
 62
     5
 63
     7
421
 16777215
 74
     1
 91
        4
 64
     7
 65
   257
 75
     1
175
     1
 42
1.0
 92
        0
 66
   257
 43
1.0
 76
     1
 77
     6
 78
     2
 67
     7
 79
     5
170
     0
171
     0
290
     0
174
     0
 93
       13
 44
0.0
173
     0
291
     1
 45
0.0
  0
VISUALSTYLE
  5
2D
102
{ACAD_REACTORS
330
2A
102
}
102
{ACAD_XDICTIONARY
360
A7
102
}
330
2A
100
AcDbVisualStyle
  2
Gouraud
 70
     2
 71
     2
 72
     2
 73
     1
 90
        2
 40
-0.6
 41
30.0
 62
     5
 63
     7
421
 16777215
 74
     0
 91
        4
 64
     7
 65
   257
 75
     1
175
     1
 42
1.0
 92
        0
 66
     7
 43
1.0
 76
     1
 77
     6
 78
     2
 67
     7
 79
     5
170
     0
171
     0
290
     0
174
     0
 93
       13
 44
0.0
173
     0
291
     1
 45
0.0
  0
VISUALSTYLE
  5
2E
102
{ACAD_REACTORS
330
2A
102
}
102
{ACAD_XDICTIONARY
360
A9
102
}
330
2A
100
AcDbVisualStyle
  2
GouraudWithEdges
 70
     3
 71
     2
 72
     2
 73
     1
 90
        2
 40
-0.6
 41
30.0
 62
     5
 63
     7
421
 16777215
 74
     1
 91
        4
 64
     7
 65
   257
 75
     1
175
     1
 42
1.0
 92
        0
 66
   257
 43
1.0
 76
     1
 77
     6
 78
     2
 67
     7
 79
     5
170
     0
171
     0
290
     0
174
     0
 93
       13
 44
0.0
173
     0
291
     1
 45
0.0
  0
VISUALSTYLE
  5
38
102
{ACAD_REACTORS
330
2A
102
}
102
{ACAD_XDICTIONARY
360
BD
102
}
330
2A
100
AcDbVisualStyle
  2
Linepattern
 70
    14
 71
     2
 72
     2
 73
     0
 90
        0
 40
-0.6
 41
-30.0
 62
     5
 63
     7
421
 16777215
 74
     1
 91
        4
 64
     7
 65
   257
 75
     7
175
     7
 42
1.0
 92
        8
 66
     7
 43
1.0
 76
     1
 77
     6
 78
     2
 67
     7
 79
     5
170
     0
171
     0
290
     0
174
     0
 93
        1
 44
0.0
173
     0
291
     1
 45
0.0
  0
VISUALSTYLE
  5
33
102
{ACAD_REACTORS
330
2A
102
}
102
{ACAD_XDICTIONARY
360
B3
102
}
330
2A
100
AcDbVisualStyle
  2
Realistic
 70
     8
 71
     2
 72
     2
 73
     0
 90
        0
 40
-0.6
 41
-30.0
 62
     5
 63
     7
421
 16777215
 74
     1
 91
        0
 64
     7
 65
   257
 75
     1
175
     1
 42
1.0
 92
        8
 66
     8
424
  7895160
 43
1.0
 76
     1
 77
     6
 78
     2
 67
     7
 79
     5
170
     0
171
     0
290
     0
174
     0
 93
       13
 44
0.0
173
     0
291
     0
 45
0.0
  0
VISUALSTYLE
  5
37
102
{ACAD_REACTORS
330
2A
102
}
102
{ACAD_XDICTIONARY
360
BB
102
}
330
2A
100
AcDbVisualStyle
  2
Thicken
 70
    13
 71
     2
 72
     2
 73
     0
 90
        0
 40
-0.6
 41
-30.0
 62
     5
 63
     7
421
 16777215
 74
     1
 91
        4
 64
     7
 65
   257
 75
     1
175
     1
 42
1.0
 92
       12
 66
     7
 43
1.0
 76
     1
 77
     6
 78
     2
 67
     7
 79
     5
170
     0
171
     0
290
     0
174
     0
 93
        1
 44
0.0
173
     0
291
     1
 45
0.0
  0
DICTIONARY
  5
AB
330
2F
100
AcDbDictionary
280
     1
281
     1
  3
ACAD_XREC_ROUNDTRIP
360
AC
  0
DICTIONARY
  5
AF
330
31
100
AcDbDictionary
280
     1
281
     1
  3
ACAD_XREC_ROUNDTRIP
360
B0
  0
DICTIONARY
  5
AD
330
30
100
AcDbDictionary
280
     1
281
     1
  3
ACAD_XREC_ROUNDTRIP
360
AE
  0
DICTIONARY
  5
B1
330
32
100
AcDbDictionary
280
     1
281
     1
  3
ACAD_XREC_ROUNDTRIP
360
B2
  0
DICTIONARY
  5
B9
330
36
100
AcDbDictionary
280
     1
281
     1
  3
ACAD_XREC_ROUNDTRIP
360
BA
  0
DICTIONARY
  5
C1
330
3A
100
AcDbDictionary
280
     1
281
     1
  3
ACAD_XREC_ROUNDTRIP
360
C2
  0
DICTIONARY
  5
B5
330
34
100
AcDbDictionary
280
     1
281
     1
  3
ACAD_XREC_ROUNDTRIP
360
B6
  0
DICTIONARY
  5
B7
330
35
100
AcDbDictionary
280
     1
281
     1
  3
ACAD_XREC_ROUNDTRIP
360
B8
  0
DICTIONARY
  5
BF
330
39
100
AcDbDictionary
280
     1
281
     1
  3
ACAD_XREC_ROUNDTRIP
360
C0
  0
DICTIONARY
  5
A3
330
2B
100
AcDbDictionary
280
     1
281
     1
  3
ACAD_XREC_ROUNDTRIP
360
A4
  0
DICTIONARY
  5
A5
330
2C
100
AcDbDictionary
280
     1
281
     1
  3
ACAD_XREC_ROUNDTRIP
360
A6
  0
DICTIONARY
  5
A7
330
2D
100
AcDbDictionary
280
     1
281
     1
  3
ACAD_XREC_ROUNDTRIP
360
A8
  0
DICTIONARY
  5
A9
330
2E
100
AcDbDictionary
280
     1
281
     1
  3
ACAD_XREC_ROUNDTRIP
360
AA
  0
DICTIONARY
  5
BD
330
38
100
AcDbDictionary
280
     1
281
     1
  3
ACAD_XREC_ROUNDTRIP
360
BE
  0
DICTIONARY
  5
B3
330
33
100
AcDbDictionary
280
     1
281
     1
  3
ACAD_XREC_ROUNDTRIP
360
B4
  0
DICTIONARY
  5
BB
330
37
100
AcDbDictionary
280
     1
281
     1
  3
ACAD_XREC_ROUNDTRIP
360
BC
  0
XRECORD
  5
AC
102
{ACAD_REACTORS
330
AB
102
}
330
AB
100
AcDbXrecord
280
     1
102
RTVSPropertyOp0
 70
     1
102
RTVSPropertyOp1
 70
     1
102
RTVSPropertyOp2
 70
     1
102
RTVSPropertyOp3
 70
     1
102
RTVSPropertyOp4
 70
     1
102
RTVSPropertyOp5
 70
     1
102
RTVSPropertyOp6
 70
     1
102
RTVSPropertyOp7
 70
     1
102
RTVSPropertyOp8
 70
     1
102
RTVSPropertyOp9
 70
     1
102
RTVSPropertyOp10
 70
     1
102
RTVSPropertyOp11
 70
     1
102
RTVSPropertyOp12
 70
     1
102
RTVSPropertyOp13
 70
     1
102
RTVSPropertyOp14
 70
     1
102
RTVSPropertyOp15
 70
     1
102
RTVSPropertyOp16
 70
     1
102
RTVSPropertyOp17
 70
     1
102
RTVSPropertyOp18
 70
     1
102
RTVSPropertyOp19
 70
     1
102
RTVSPropertyOp20
 70
     1
102
RTVSPropertyOp21
 70
     1
102
RTVSPropertyOp22
 70
     1
102
RTVSPropertyOp23
 70
     1
102
RTVSPropertyOp24
 70
     1
102
RTVSPropertyOp25
 70
     1
102
RTVSPropertyOp26
 70
     1
102
RTVSPropertyOp27
 70
     1
102
RTVSPropertyOp28
 70
     1
102
RTVSPropertyOp29
 70
     1
102
RTVSPropertyOp30
 70
     1
102
RTVSPropertyOp31
 70
     1
102
RTVSPropertyOp32
 70
     1
  0
XRECORD
  5
B0
102
{ACAD_REACTORS
330
AF
102
}
330
AF
100
AcDbXrecord
280
     1
102
RTVSPropertyOp0
 70
     1
102
RTVSPropertyOp1
 70
     1
102
RTVSPropertyOp2
 70
     1
102
RTVSPropertyOp3
 70
     1
102
RTVSPropertyOp4
 70
     1
102
RTVSPropertyOp5
 70
     1
102
RTVSPropertyOp6
 70
     1
102
RTVSPropertyOp7
 70
     1
102
RTVSPropertyOp8
 70
     1
102
RTVSPropertyOp9
 70
     1
102
RTVSPropertyOp10
 70
     1
102
RTVSPropertyOp11
 70
     1
102
RTVSPropertyOp12
 70
     1
102
RTVSPropertyOp13
 70
     1
102
RTVSPropertyOp14
 70
     1
102
RTVSPropertyOp15
 70
     1
102
RTVSPropertyOp16
 70
     1
102
RTVSPropertyOp17
 70
     1
102
RTVSPropertyOp18
 70
     1
102
RTVSPropertyOp19
 70
     1
102
RTVSPropertyOp20
 70
     1
102
RTVSPropertyOp21
 70
     1
102
RTVSPropertyOp22
 70
     1
102
RTVSPropertyOp23
 70
     1
102
RTVSPropertyOp24
 70
     1
102
RTVSPropertyOp25
 70
     1
102
RTVSPropertyOp26
 70
     1
102
RTVSPropertyOp27
 70
     1
102
RTVSPropertyOp28
 70
     1
102
RTVSPropertyOp29
 70
     1
102
RTVSPropertyOp30
 70
     1
102
RTVSPropertyOp31
 70
     1
102
RTVSPropertyOp32
 70
     1
  0
XRECORD
  5
AE
102
{ACAD_REACTORS
330
AD
102
}
330
AD
100
AcDbXrecord
280
     1
102
RTVSPropertyOp0
 70
     1
102
RTVSPropertyOp1
 70
     1
102
RTVSPropertyOp2
 70
     1
102
RTVSPropertyOp3
 70
     1
102
RTVSPropertyOp4
 70
     1
102
RTVSPropertyOp5
 70
     1
102
RTVSPropertyOp6
 70
     1
102
RTVSPropertyOp7
 70
     1
102
RTVSPropertyOp8
 70
     1
102
RTVSPropertyOp9
 70
     1
102
RTVSPropertyOp10
 70
     1
102
RTVSPropertyOp11
 70
     1
102
RTVSPropertyOp12
 70
     1
102
RTVSPropertyOp13
 70
     1
102
RTVSPropertyOp14
 70
     1
102
RTVSPropertyOp15
 70
     1
102
RTVSPropertyOp16
 70
     1
102
RTVSPropertyOp17
 70
     1
102
RTVSPropertyOp18
 70
     1
102
RTVSPropertyOp19
 70
     1
102
RTVSPropertyOp20
 70
     1
102
RTVSPropertyOp21
 70
     1
102
RTVSPropertyOp22
 70
     1
102
RTVSPropertyOp23
 70
     1
102
RTVSPropertyOp24
 70
     1
102
RTVSPropertyOp25
 70
     1
102
RTVSPropertyOp26
 70
     1
102
RTVSPropertyOp27
 70
     1
102
RTVSPropertyOp28
 70
     1
102
RTVSPropertyOp29
 70
     1
102
RTVSPropertyOp30
 70
     1
102
RTVSPropertyOp31
 70
     1
102
RTVSPropertyOp32
 70
     1
  0
XRECORD
  5
B2
102
{ACAD_REACTORS
330
B1
102
}
330
B1
100
AcDbXrecord
280
     1
102
RTVSPropertyOp0
 70
     1
102
RTVSPropertyOp1
 70
     1
102
RTVSPropertyOp2
 70
     1
102
RTVSPropertyOp3
 70
     1
102
RTVSPropertyOp4
 70
     1
102
RTVSPropertyOp5
 70
     1
102
RTVSPropertyOp6
 70
     1
102
RTVSPropertyOp7
 70
     1
102
RTVSPropertyOp8
 70
     1
102
RTVSPropertyOp9
 70
     1
102
RTVSPropertyOp10
 70
     1
102
RTVSPropertyOp11
 70
     1
102
RTVSPropertyOp12
 70
     1
102
RTVSPropertyOp13
 70
     1
102
RTVSPropertyOp14
 70
     1
102
RTVSPropertyOp15
 70
     1
102
RTVSPropertyOp16
 70
     1
102
RTVSPropertyOp17
 70
     1
102
RTVSPropertyOp18
 70
     1
102
RTVSPropertyOp19
 70
     1
102
RTVSPropertyOp20
 70
     1
102
RTVSPropertyOp21
 70
     1
102
RTVSPropertyOp22
 70
     1
102
RTVSPropertyOp23
 70
     1
102
RTVSPropertyOp24
 70
     1
102
RTVSPropertyOp25
 70
     1
102
RTVSPropertyOp26
 70
     1
102
RTVSPropertyOp27
 70
     1
102
RTVSPropertyOp28
 70
     1
102
RTVSPropertyOp29
 70
     1
102
RTVSPropertyOp30
 70
     1
102
RTVSPropertyOp31
 70
     1
102
RTVSPropertyOp32
 70
     1
  0
XRECORD
  5
BA
102
{ACAD_REACTORS
330
B9
102
}
330
B9
100
AcDbXrecord
280
     1
102
RTVSPropertyOp0
 70
     1
102
RTVSPropertyOp1
 70
     1
102
RTVSPropertyOp2
 70
     1
102
RTVSPropertyOp3
 70
     1
102
RTVSPropertyOp4
 70
     1
102
RTVSPropertyOp5
 70
     1
102
RTVSPropertyOp6
 70
     1
102
RTVSPropertyOp7
 70
     1
102
RTVSPropertyOp8
 70
     1
102
RTVSPropertyOp9
 70
     1
102
RTVSPropertyOp10
 70
     1
102
RTVSPropertyOp11
 70
     1
102
RTVSPropertyOp12
 70
     1
102
RTVSPropertyOp13
 70
     1
102
RTVSPropertyOp14
 70
     1
102
RTVSPropertyOp15
 70
     1
102
RTVSPropertyOp16
 70
     1
102
RTVSPropertyOp17
 70
     1
102
RTVSPropertyOp18
 70
     1
102
RTVSPropertyOp19
 70
     1
102
RTVSPropertyOp20
 70
     1
102
RTVSPropertyOp21
 70
     1
102
RTVSPropertyOp22
 70
     1
102
RTVSPropertyOp23
 70
     1
102
RTVSPropertyOp24
 70
     1
102
RTVSPropertyOp25
 70
     1
102
RTVSPropertyOp26
 70
     1
102
RTVSPropertyOp27
 70
     1
102
RTVSPropertyOp28
 70
     1
102
RTVSPropertyOp29
 70
     1
102
RTVSPropertyOp30
 70
     1
102
RTVSPropertyOp31
 70
     1
102
RTVSPropertyOp32
 70
     1
  0
XRECORD
  5
C2
102
{ACAD_REACTORS
330
C1
102
}
330
C1
100
AcDbXrecord
280
     1
102
RTVSPropertyOp0
 70
     1
102
RTVSPropertyOp1
 70
     1
102
RTVSPropertyOp2
 70
     1
102
RTVSPropertyOp3
 70
     1
102
RTVSPropertyOp4
 70
     1
102
RTVSPropertyOp5
 70
     1
102
RTVSPropertyOp6
 70
     1
102
RTVSPropertyOp7
 70
     1
102
RTVSPropertyOp8
 70
     1
102
RTVSPropertyOp9
 70
     1
102
RTVSPropertyOp10
 70
     1
102
RTVSPropertyOp11
 70
     1
102
RTVSPropertyOp12
 70
     1
102
RTVSPropertyOp13
 70
     1
102
RTVSPropertyOp14
 70
     1
102
RTVSPropertyOp15
 70
     1
102
RTVSPropertyOp16
 70
     1
102
RTVSPropertyOp17
 70
     1
102
RTVSPropertyOp18
 70
     1
102
RTVSPropertyOp19
 70
     1
102
RTVSPropertyOp20
 70
     1
102
RTVSPropertyOp21
 70
     1
102
RTVSPropertyOp22
 70
     1
102
RTVSPropertyOp23
 70
     1
102
RTVSPropertyOp24
 70
     1
102
RTVSPropertyOp25
 70
     1
102
RTVSPropertyOp26
 70
     1
102
RTVSPropertyOp27
 70
     1
102
RTVSPropertyOp28
 70
     1
102
RTVSPropertyOp29
 70
     1
102
RTVSPropertyOp30
 70
     1
102
RTVSPropertyOp31
 70
     1
102
RTVSPropertyOp32
 70
     1
  0
XRECORD
  5
B6
102
{ACAD_REACTORS
330
B5
102
}
330
B5
100
AcDbXrecord
280
     1
102
RTVSPropertyOp0
 70
     1
102
RTVSPropertyOp1
 70
     1
102
RTVSPropertyOp2
 70
     1
102
RTVSPropertyOp3
 70
     1
102
RTVSPropertyOp4
 70
     1
102
RTVSPropertyOp5
 70
     1
102
RTVSPropertyOp6
 70
     1
102
RTVSPropertyOp7
 70
     1
102
RTVSPropertyOp8
 70
     1
102
RTVSPropertyOp9
 70
     1
102
RTVSPropertyOp10
 70
     1
102
RTVSPropertyOp11
 70
     1
102
RTVSPropertyOp12
 70
     1
102
RTVSPropertyOp13
 70
     1
102
RTVSPropertyOp14
 70
     1
102
RTVSPropertyOp15
 70
     1
102
RTVSPropertyOp16
 70
     1
102
RTVSPropertyOp17
 70
     1
102
RTVSPropertyOp18
 70
     1
102
RTVSPropertyOp19
 70
     1
102
RTVSPropertyOp20
 70
     1
102
RTVSPropertyOp21
 70
     1
102
RTVSPropertyOp22
 70
     1
102
RTVSPropertyOp23
 70
     1
102
RTVSPropertyOp24
 70
     1
102
RTVSPropertyOp25
 70
     1
102
RTVSPropertyOp26
 70
     1
102
RTVSPropertyOp27
 70
     1
102
RTVSPropertyOp28
 70
     1
102
RTVSPropertyOp29
 70
     1
102
RTVSPropertyOp30
 70
     1
102
RTVSPropertyOp31
 70
     1
102
RTVSPropertyOp32
 70
     1
  0
XRECORD
  5
B8
102
{ACAD_REACTORS
330
B7
102
}
330
B7
100
AcDbXrecord
280
     1
102
RTVSPropertyOp0
 70
     1
102
RTVSPropertyOp1
 70
     1
102
RTVSPropertyOp2
 70
     1
102
RTVSPropertyOp3
 70
     1
102
RTVSPropertyOp4
 70
     1
102
RTVSPropertyOp5
 70
     1
102
RTVSPropertyOp6
 70
     1
102
RTVSPropertyOp7
 70
     1
102
RTVSPropertyOp8
 70
     1
102
RTVSPropertyOp9
 70
     1
102
RTVSPropertyOp10
 70
     1
102
RTVSPropertyOp11
 70
     1
102
RTVSPropertyOp12
 70
     1
102
RTVSPropertyOp13
 70
     1
102
RTVSPropertyOp14
 70
     1
102
RTVSPropertyOp15
 70
     1
102
RTVSPropertyOp16
 70
     1
102
RTVSPropertyOp17
 70
     1
102
RTVSPropertyOp18
 70
     1
102
RTVSPropertyOp19
 70
     1
102
RTVSPropertyOp20
 70
     1
102
RTVSPropertyOp21
 70
     1
102
RTVSPropertyOp22
 70
     1
102
RTVSPropertyOp23
 70
     1
102
RTVSPropertyOp24
 70
     1
102
RTVSPropertyOp25
 70
     1
102
RTVSPropertyOp26
 70
     1
102
RTVSPropertyOp27
 70
     1
102
RTVSPropertyOp28
 70
     1
102
RTVSPropertyOp29
 70
     1
102
RTVSPropertyOp30
 70
     1
102
RTVSPropertyOp31
 70
     1
102
RTVSPropertyOp32
 70
     1
  0
XRECORD
  5
C0
102
{ACAD_REACTORS
330
BF
102
}
330
BF
100
AcDbXrecord
280
     1
102
RTVSPropertyOp0
 70
     1
102
RTVSPropertyOp1
 70
     1
102
RTVSPropertyOp2
 70
     1
102
RTVSPropertyOp3
 70
     1
102
RTVSPropertyOp4
 70
     1
102
RTVSPropertyOp5
 70
     1
102
RTVSPropertyOp6
 70
     1
102
RTVSPropertyOp7
 70
     1
102
RTVSPropertyOp8
 70
     1
102
RTVSPropertyOp9
 70
     1
102
RTVSPropertyOp10
 70
     1
102
RTVSPropertyOp11
 70
     1
102
RTVSPropertyOp12
 70
     1
102
RTVSPropertyOp13
 70
     1
102
RTVSPropertyOp14
 70
     1
102
RTVSPropertyOp15
 70
     1
102
RTVSPropertyOp16
 70
     1
102
RTVSPropertyOp17
 70
     1
102
RTVSPropertyOp18
 70
     1
102
RTVSPropertyOp19
 70
     1
102
RTVSPropertyOp20
 70
     1
102
RTVSPropertyOp21
 70
     1
102
RTVSPropertyOp22
 70
     1
102
RTVSPropertyOp23
 70
     1
102
RTVSPropertyOp24
 70
     1
102
RTVSPropertyOp25
 70
     1
102
RTVSPropertyOp26
 70
     1
102
RTVSPropertyOp27
 70
     1
102
RTVSPropertyOp28
 70
     1
102
RTVSPropertyOp29
 70
     1
102
RTVSPropertyOp30
 70
     1
102
RTVSPropertyOp31
 70
     1
102
RTVSPropertyOp32
 70
     1
  0
XRECORD
  5
A4
102
{ACAD_REACTORS
330
A3
102
}
330
A3
100
AcDbXrecord
280
     1
102
RTVSPropertyOp0
 70
     1
102
RTVSPropertyOp1
 70
     1
102
RTVSPropertyOp2
 70
     1
102
RTVSPropertyOp3
 70
     1
102
RTVSPropertyOp4
 70
     1
102
RTVSPropertyOp5
 70
     1
102
RTVSPropertyOp6
 70
     1
102
RTVSPropertyOp7
 70
     1
102
RTVSPropertyOp8
 70
     1
102
RTVSPropertyOp9
 70
     1
102
RTVSPropertyOp10
 70
     1
102
RTVSPropertyOp11
 70
     1
102
RTVSPropertyOp12
 70
     1
102
RTVSPropertyOp13
 70
     1
102
RTVSPropertyOp14
 70
     1
102
RTVSPropertyOp15
 70
     1
102
RTVSPropertyOp16
 70
     1
102
RTVSPropertyOp17
 70
     1
102
RTVSPropertyOp18
 70
     1
102
RTVSPropertyOp19
 70
     1
102
RTVSPropertyOp20
 70
     1
102
RTVSPropertyOp21
 70
     1
102
RTVSPropertyOp22
 70
     1
102
RTVSPropertyOp23
 70
     1
102
RTVSPropertyOp24
 70
     1
102
RTVSPropertyOp25
 70
     1
102
RTVSPropertyOp26
 70
     1
102
RTVSPropertyOp27
 70
     1
102
RTVSPropertyOp28
 70
     1
102
RTVSPropertyOp29
 70
     1
102
RTVSPropertyOp30
 70
     1
102
RTVSPropertyOp31
 70
     1
102
RTVSPropertyOp32
 70
     1
  0
XRECORD
  5
A6
102
{ACAD_REACTORS
330
A5
102
}
330
A5
100
AcDbXrecord
280
     1
102
RTVSPropertyOp0
 70
     1
102
RTVSPropertyOp1
 70
     1
102
RTVSPropertyOp2
 70
     1
102
RTVSPropertyOp3
 70
     1
102
RTVSPropertyOp4
 70
     1
102
RTVSPropertyOp5
 70
     1
102
RTVSPropertyOp6
 70
     1
102
RTVSPropertyOp7
 70
     1
102
RTVSPropertyOp8
 70
     1
102
RTVSPropertyOp9
 70
     1
102
RTVSPropertyOp10
 70
     1
102
RTVSPropertyOp11
 70
     1
102
RTVSPropertyOp12
 70
     1
102
RTVSPropertyOp13
 70
     1
102
RTVSPropertyOp14
 70
     1
102
RTVSPropertyOp15
 70
     1
102
RTVSPropertyOp16
 70
     1
102
RTVSPropertyOp17
 70
     1
102
RTVSPropertyOp18
 70
     1
102
RTVSPropertyOp19
 70
     1
102
RTVSPropertyOp20
 70
     1
102
RTVSPropertyOp21
 70
     1
102
RTVSPropertyOp22
 70
     1
102
RTVSPropertyOp23
 70
     1
102
RTVSPropertyOp24
 70
     1
102
RTVSPropertyOp25
 70
     1
102
RTVSPropertyOp26
 70
     1
102
RTVSPropertyOp27
 70
     1
102
RTVSPropertyOp28
 70
     1
102
RTVSPropertyOp29
 70
     1
102
RTVSPropertyOp30
 70
     1
102
RTVSPropertyOp31
 70
     1
102
RTVSPropertyOp32
 70
     1
  0
XRECORD
  5
A8
102
{ACAD_REACTORS
330
A7
102
}
330
A7
100
AcDbXrecord
280
     1
102
RTVSPropertyOp0
 70
     1
102
RTVSPropertyOp1
 70
     1
102
RTVSPropertyOp2
 70
     1
102
RTVSPropertyOp3
 70
     1
102
RTVSPropertyOp4
 70
     1
102
RTVSPropertyOp5
 70
     1
102
RTVSPropertyOp6
 70
     1
102
RTVSPropertyOp7
 70
     1
102
RTVSPropertyOp8
 70
     1
102
RTVSPropertyOp9
 70
     1
102
RTVSPropertyOp10
 70
     1
102
RTVSPropertyOp11
 70
     1
102
RTVSPropertyOp12
 70
     1
102
RTVSPropertyOp13
 70
     1
102
RTVSPropertyOp14
 70
     1
102
RTVSPropertyOp15
 70
     1
102
RTVSPropertyOp16
 70
     1
102
RTVSPropertyOp17
 70
     1
102
RTVSPropertyOp18
 70
     1
102
RTVSPropertyOp19
 70
     1
102
RTVSPropertyOp20
 70
     1
102
RTVSPropertyOp21
 70
     1
102
RTVSPropertyOp22
 70
     1
102
RTVSPropertyOp23
 70
     1
102
RTVSPropertyOp24
 70
     1
102
RTVSPropertyOp25
 70
     1
102
RTVSPropertyOp26
 70
     1
102
RTVSPropertyOp27
 70
     1
102
RTVSPropertyOp28
 70
     1
102
RTVSPropertyOp29
 70
     1
102
RTVSPropertyOp30
 70
     1
102
RTVSPropertyOp31
 70
     1
102
RTVSPropertyOp32
 70
     1
  0
XRECORD
  5
AA
102
{ACAD_REACTORS
330
A9
102
}
330
A9
100
AcDbXrecord
280
     1
102
RTVSPropertyOp0
 70
     1
102
RTVSPropertyOp1
 70
     1
102
RTVSPropertyOp2
 70
     1
102
RTVSPropertyOp3
 70
     1
102
RTVSPropertyOp4
 70
     1
102
RTVSPropertyOp5
 70
     1
102
RTVSPropertyOp6
 70
     1
102
RTVSPropertyOp7
 70
     1
102
RTVSPropertyOp8
 70
     1
102
RTVSPropertyOp9
 70
     1
102
RTVSPropertyOp10
 70
     1
102
RTVSPropertyOp11
 70
     1
102
RTVSPropertyOp12
 70
     1
102
RTVSPropertyOp13
 70
     1
102
RTVSPropertyOp14
 70
     1
102
RTVSPropertyOp15
 70
     1
102
RTVSPropertyOp16
 70
     1
102
RTVSPropertyOp17
 70
     1
102
RTVSPropertyOp18
 70
     1
102
RTVSPropertyOp19
 70
     1
102
RTVSPropertyOp20
 70
     1
102
RTVSPropertyOp21
 70
     1
102
RTVSPropertyOp22
 70
     1
102
RTVSPropertyOp23
 70
     1
102
RTVSPropertyOp24
 70
     1
102
RTVSPropertyOp25
 70
     1
102
RTVSPropertyOp26
 70
     1
102
RTVSPropertyOp27
 70
     1
102
RTVSPropertyOp28
 70
     1
102
RTVSPropertyOp29
 70
     1
102
RTVSPropertyOp30
 70
     1
102
RTVSPropertyOp31
 70
     1
102
RTVSPropertyOp32
 70
     1
  0
XRECORD
  5
BE
102
{ACAD_REACTORS
330
BD
102
}
330
BD
100
AcDbXrecord
280
     1
102
RTVSPropertyOp0
 70
     1
102
RTVSPropertyOp1
 70
     1
102
RTVSPropertyOp2
 70
     1
102
RTVSPropertyOp3
 70
     1
102
RTVSPropertyOp4
 70
     1
102
RTVSPropertyOp5
 70
     1
102
RTVSPropertyOp6
 70
     1
102
RTVSPropertyOp7
 70
     1
102
RTVSPropertyOp8
 70
     1
102
RTVSPropertyOp9
 70
     1
102
RTVSPropertyOp10
 70
     1
102
RTVSPropertyOp11
 70
     1
102
RTVSPropertyOp12
 70
     1
102
RTVSPropertyOp13
 70
     1
102
RTVSPropertyOp14
 70
     1
102
RTVSPropertyOp15
 70
     1
102
RTVSPropertyOp16
 70
     1
102
RTVSPropertyOp17
 70
     1
102
RTVSPropertyOp18
 70
     1
102
RTVSPropertyOp19
 70
     1
102
RTVSPropertyOp20
 70
     1
102
RTVSPropertyOp21
 70
     1
102
RTVSPropertyOp22
 70
     1
102
RTVSPropertyOp23
 70
     1
102
RTVSPropertyOp24
 70
     1
102
RTVSPropertyOp25
 70
     1
102
RTVSPropertyOp26
 70
     1
102
RTVSPropertyOp27
 70
     1
102
RTVSPropertyOp28
 70
     1
102
RTVSPropertyOp29
 70
     1
102
RTVSPropertyOp30
 70
     1
102
RTVSPropertyOp31
 70
     1
102
RTVSPropertyOp32
 70
     1
  0
XRECORD
  5
B4
102
{ACAD_REACTORS
330
B3
102
}
330
B3
100
AcDbXrecord
280
     1
102
RTVSPropertyOp0
 70
     1
102
RTVSPropertyOp1
 70
     1
102
RTVSPropertyOp2
 70
     1
102
RTVSPropertyOp3
 70
     1
102
RTVSPropertyOp4
 70
     1
102
RTVSPropertyOp5
 70
     1
102
RTVSPropertyOp6
 70
     1
102
RTVSPropertyOp7
 70
     1
102
RTVSPropertyOp8
 70
     1
102
RTVSPropertyOp9
 70
     1
102
RTVSPropertyOp10
 70
     1
102
RTVSPropertyOp11
 70
     1
102
RTVSPropertyOp12
 70
     1
102
RTVSPropertyOp13
 70
     1
102
RTVSPropertyOp14
 70
     1
102
RTVSPropertyOp15
 70
     1
102
RTVSPropertyOp16
 70
     1
102
RTVSPropertyOp17
 70
     1
102
RTVSPropertyOp18
 70
     1
102
RTVSPropertyOp19
 70
     1
102
RTVSPropertyOp20
 70
     1
102
RTVSPropertyOp21
 70
     1
102
RTVSPropertyOp22
 70
     1
102
RTVSPropertyOp23
 70
     1
102
RTVSPropertyOp24
 70
     1
102
RTVSPropertyOp25
 70
     1
102
RTVSPropertyOp26
 70
     1
102
RTVSPropertyOp27
 70
     1
102
RTVSPropertyOp28
 70
     1
102
RTVSPropertyOp29
 70
     1
102
RTVSPropertyOp30
 70
     1
102
RTVSPropertyOp31
 70
     1
102
RTVSPropertyOp32
 70
     1
  0
XRECORD
  5
BC
102
{ACAD_REACTORS
330
BB
102
}
330
BB
100
AcDbXrecord
280
     1
102
RTVSPropertyOp0
 70
     1
102
RTVSPropertyOp1
 70
     1
102
RTVSPropertyOp2
 70
     1
102
RTVSPropertyOp3
 70
     1
102
RTVSPropertyOp4
 70
     1
102
RTVSPropertyOp5
 70
     1
102
RTVSPropertyOp6
 70
     1
102
RTVSPropertyOp7
 70
     1
102
RTVSPropertyOp8
 70
     1
102
RTVSPropertyOp9
 70
     1
102
RTVSPropertyOp10
 70
     1
102
RTVSPropertyOp11
 70
     1
102
RTVSPropertyOp12
 70
     1
102
RTVSPropertyOp13
 70
     1
102
RTVSPropertyOp14
 70
     1
102
RTVSPropertyOp15
 70
     1
102
RTVSPropertyOp16
 70
     1
102
RTVSPropertyOp17
 70
     1
102
RTVSPropertyOp18
 70
     1
102
RTVSPropertyOp19
 70
     1
102
RTVSPropertyOp20
 70
     1
102
RTVSPropertyOp21
 70
     1
102
RTVSPropertyOp22
 70
     1
102
RTVSPropertyOp23
 70
     1
102
RTVSPropertyOp24
 70
     1
102
RTVSPropertyOp25
 70
     1
102
RTVSPropertyOp26
 70
     1
102
RTVSPropertyOp27
 70
     1
102
RTVSPropertyOp28
 70
     1
102
RTVSPropertyOp29
 70
     1
102
RTVSPropertyOp30
 70
     1
102
RTVSPropertyOp31
 70
     1
102
RTVSPropertyOp32
 70
     1
  0
ENDSEC
  0
EOF
