  0
SECTION
  2
HEADER
  9
$ACADVER
  1
AC1021
  9
$ACADMAINTVER
 70
    25
  9
$DWGCODEPAGE
  3
ANSI_1252
  9
$INSBASE
 10
0.0
 20
0.0
 30
0.0
  9
$EXTMIN
 10
-187.4118
 20
-115.1172
 30
0.0
  9
$EXTMAX
 10
-32.3029
 20
131.8592
 30
0.0
  9
$LIMMIN
 10
0.0
 20
0.0
  9
$LIMMAX
 10
12.0
 20
9.0
  9
$ORTHOMODE
 70
     0
  9
$REGENMODE
 70
     1
  9
$FILLMODE
 70
     1
  9
$QTEXTMODE
 70
     0
  9
$MIRRTEXT
 70
     1
  9
$LTSCALE
 40
1.0
  9
$ATTMODE
 70
     1
  9
$TEXTSIZE
 40
0.2
  9
$TRACEWID
 40
0.05
  9
$TEXTSTYLE
  7
Standard
  9
$CLAYER
  8
0
  9
$CELTYPE
  6
ByLayer
  9
$CECOLOR
 62
   256
  9
$CELTSCALE
 40
1.0
  9
$DISPSILH
 70
     0
  9
$DIMSCALE
 40
1.0
  9
$DIMASZ
 40
0.18
  9
$DIMEXO
 40
0.0625
  9
$DIMDLI
 40
0.38
  9
$DIMRND
 40
0.0
  9
$DIMDLE
 40
0.0
  9
$DIMEXE
 40
0.18
  9
$DIMTP
 40
0.0
  9
$DIMTM
 40
0.0
  9
$DIMTXT
 40
0.18
  9
$DIMCEN
 40
0.09
  9
$DIMTSZ
 40
0.0
  9
$DIMTOL
 70
     0
  9
$DIMLIM
 70
     0
  9
$DIMTIH
 70
     1
  9
$DIMTOH
 70
     1
  9
$DIMSE1
 70
     0
  9
$DIMSE2
 70
     0
  9
$DIMTAD
 70
     0
  9
$DIMZIN
 70
     0
  9
$DIMBLK
  1

  9
$DIMASO
 70
     1
  9
$DIMSHO
 70
     1
  9
$DIMPOST
  1

  9
$DIMAPOST
  1

  9
$DIMALT
 70
     0
  9
$DIMALTD
 70
     2
  9
$DIMALTF
 40
25.4
  9
$DIMLFAC
 40
1.0
  9
$DIMTOFL
 70
     0
  9
$DIMTVP
 40
0.0
  9
$DIMTIX
 70
     0
  9
$DIMSOXD
 70
     0
  9
$DIMSAH
 70
     0
  9
$DIMBLK1
  1

  9
$DIMBLK2
  1

  9
$DIMSTYLE
  2
Standard
  9
$DIMCLRD
 70
     0
  9
$DIMCLRE
 70
     0
  9
$DIMCLRT
 70
     0
  9
$DIMTFAC
 40
1.0
  9
$DIMGAP
 40
0.09
  9
$DIMJUST
 70
     0
  9
$DIMSD1
 70
     0
  9
$DIMSD2
 70
     0
  9
$DIMTOLJ
 70
     1
  9
$DIMTZIN
 70
     0
  9
$DIMALTZ
 70
     0
  9
$DIMALTTZ
 70
     0
  9
$DIMUPT
 70
     0
  9
$DIMDEC
 70
     4
  9
$DIMTDEC
 70
     4
  9
$DIMALTU
 70
     2
  9
$DIMALTTD
 70
     2
  9
$DIMTXSTY
  7
Standard
  9
$DIMAUNIT
 70
     0
  9
$DIMADEC
 70
     0
  9
$DIMALTRND
 40
0.0
  9
$DIMAZIN
 70
     0
  9
$DIMDSEP
 70
    46
  9
$DIMATFIT
 70
     3
  9
$DIMFRAC
 70
     0
  9
$DIMLDRBLK
  1

  9
$DIMLUNIT
 70
     2
  9
$DIMLWD
 70
    -2
  9
$DIMLWE
 70
    -2
  9
$DIMTMOVE
 70
     0
  9
$DIMFXL
 40
1.0
  9
$DIMFXLON
 70
     0
  9
$DIMJOGANG
 40
0.7853981633974483
  9
$DIMTFILL
 70
     0
  9
$DIMTFILLCLR
 70
     0
  9
$DIMARCSYM
 70
     0
  9
$DIMLTYPE
  6

  9
$DIMLTEX1
  6

  9
$DIMLTEX2
  6

  9
$LUNITS
 70
     2
  9
$LUPREC
 70
     4
  9
$SKETCHINC
 40
0.1
  9
$FILLETRAD
 40
0.5
  9
$AUNITS
 70
     0
  9
$AUPREC
 70
     0
  9
$MENU
  1
.
  9
$ELEVATION
 40
0.0
  9
$PELEVATION
 40
0.0
  9
$THICKNESS
 40
0.0
  9
$LIMCHECK
 70
     0
  9
$CHAMFERA
 40
0.5
  9
$CHAMFERB
 40
0.5
  9
$CHAMFERC
 40
1.0
  9
$CHAMFERD
 40
0.0
  9
$SKPOLY
 70
     0
  9
$TDCREATE
 40
2458492.848448796
  9
$TDUCREATE
 40
2458492.848448796
  9
$TDUPDATE
 40
2458492.848449063
  9
$TDUUPDATE
 40
2458492.848449063
  9
$TDINDWG
 40
0.0000000116
  9
$TDUSRTIMER
 40
0.0000000116
  9
$USRTIMER
 70
     1
  9
$ANGBASE
 50
0.0
  9
$ANGDIR
 70
     0
  9
$PDMODE
 70
     0
  9
$PDSIZE
 40
0.0
  9
$PLINEWID
 40
0.0
  9
$SPLFRAME
 70
     0
  9
$SPLINETYPE
 70
     6
  9
$SPLINESEGS
 70
     8
  9
$HANDSEED
  5
AF
  9
$SURFTAB1
 70
     6
  9
$SURFTAB2
 70
     6
  9
$SURFTYPE
 70
     6
  9
$SURFU
 70
     6
  9
$SURFV
 70
     6
  9
$UCSBASE
  2

  9
$UCSNAME
  2

  9
$UCSORG
 10
0.0
 20
0.0
 30
0.0
  9
$UCSXDIR
 10
1.0
 20
0.0
 30
0.0
  9
$UCSYDIR
 10
0.0
 20
1.0
 30
0.0
  9
$UCSORTHOREF
  2

  9
$UCSORTHOVIEW
 70
     0
  9
$UCSORGTOP
 10
0.0
 20
0.0
 30
0.0
  9
$UCSORGBOTTOM
 10
0.0
 20
0.0
 30
0.0
  9
$UCSORGLEFT
 10
0.0
 20
0.0
 30
0.0
  9
$UCSORGRIGHT
 10
0.0
 20
0.0
 30
0.0
  9
$UCSORGFRONT
 10
0.0
 20
0.0
 30
0.0
  9
$UCSORGBACK
 10
0.0
 20
0.0
 30
0.0
  9
$PUCSBASE
  2

  9
$PUCSNAME
  2

  9
$PUCSORG
 10
0.0
 20
0.0
 30
0.0
  9
$PUCSXDIR
 10
1.0
 20
0.0
 30
0.0
  9
$PUCSYDIR
 10
0.0
 20
1.0
 30
0.0
  9
$PUCSORTHOREF
  2

  9
$PUCSORTHOVIEW
 70
     0
  9
$PUCSORGTOP
 10
0.0
 20
0.0
 30
0.0
  9
$PUCSORGBOTTOM
 10
0.0
 20
0.0
 30
0.0
  9
$PUCSORGLEFT
 10
0.0
 20
0.0
 30
0.0
  9
$PUCSORGRIGHT
 10
0.0
 20
0.0
 30
0.0
  9
$PUCSORGFRONT
 10
0.0
 20
0.0
 30
0.0
  9
$PUCSORGBACK
 10
0.0
 20
0.0
 30
0.0
  9
$USERI1
 70
     0
  9
$USERI2
 70
     0
  9
$USERI3
 70
     0
  9
$USERI4
 70
     0
  9
$USERI5
 70
     0
  9
$USERR1
 40
0.0
  9
$USERR2
 40
0.0
  9
$USERR3
 40
0.0
  9
$USERR4
 40
0.0
  9
$USERR5
 40
0.0
  9
$WORLDVIEW
 70
     1
  9
$SHADEDGE
 70
     3
  9
$SHADEDIF
 70
    70
  9
$TILEMODE
 70
     1
  9
$MAXACTVP
 70
    64
  9
$PINSBASE
 10
0.0
 20
0.0
 30
0.0
  9
$PLIMCHECK
 70
     0
  9
$PEXTMIN
 10
1.000000000000000E+20
 20
1.000000000000000E+20
 30
1.000000000000000E+20
  9
$PEXTMAX
 10
-1.000000000000000E+20
 20
-1.000000000000000E+20
 30
-1.000000000000000E+20
  9
$PLIMMIN
 10
0.0
 20
0.0
  9
$PLIMMAX
 10
12.0
 20
9.0
  9
$UNITMODE
 70
     0
  9
$VISRETAIN
 70
     1
  9
$PLINEGEN
 70
     0
  9
$PSLTSCALE
 70
     1
  9
$TREEDEPTH
 70
  3020
  9
$CMLSTYLE
  2
Standard
  9
$CMLJUST
 70
     0
  9
$CMLSCALE
 40
1.0
  9
$PROXYGRAPHICS
 70
     1
  9
$MEASUREMENT
 70
     0
  9
$CELWEIGHT
370
    -1
  9
$ENDCAPS
280
     0
  9
$JOINSTYLE
280
     0
  9
$LWDISPLAY
290
     0
  9
$INSUNITS
 70
     4
  9
$HYPERLINKBASE
  1

  9
$STYLESHEET
  1

  9
$XEDIT
290
     1
  9
$CEPSNTYPE
380
     0
  9
$PSTYLEMODE
290
     1
  9
$FINGERPRINTGUID
  2
{C9717591-D040-401D-8897-C348B6497AB6}
  9
$VERSIONGUID
  2
{FAEB1C32-E019-11D5-929B-00C0DF256EC4}
  9
$EXTNAMES
290
     1
  9
$PSVPSCALE
 40
0.0
  9
$OLESTARTUP
290
     0
  9
$SORTENTS
280
   127
  9
$INDEXCTL
280
     0
  9
$HIDETEXT
280
     1
  9
$XCLIPFRAME
290
     0
  9
$HALOGAP
280
     0
  9
$OBSCOLOR
 70
   257
  9
$OBSLTYPE
280
     0
  9
$INTERSECTIONDISPLAY
280
     0
  9
$INTERSECTIONCOLOR
 70
   257
  9
$DIMASSOC
280
     2
  9
$PROJECTNAME
  1

  9
$CAMERADISPLAY
290
     0
  9
$LENSLENGTH
 40
50.0
  9
$CAMERAHEIGHT
 40
0.0
  9
$STEPSPERSEC
 40
2.0
  9
$STEPSIZE
 40
6.0
  9
$3DDWFPREC
 40
2.0
  9
$PSOLWIDTH
 40
0.25
  9
$PSOLHEIGHT
 40
4.0
  9
$LOFTANG1
 40
1.570796326794897
  9
$LOFTANG2
 40
1.570796326794897
  9
$LOFTMAG1
 40
0.0
  9
$LOFTMAG2
 40
0.0
  9
$LOFTPARAM
 70
     7
  9
$LOFTNORMALS
280
     1
  9
$LATITUDE
 40
37.795
  9
$LONGITUDE
 40
-122.394
  9
$NORTHDIRECTION
 40
0.0
  9
$TIMEZONE
 70
 -8000
  9
$LIGHTGLYPHDISPLAY
280
     1
  9
$TILEMODELIGHTSYNCH
280
     1
  9
$SOLIDHIST
280
     1
  9
$SHOWHIST
280
     1
  9
$DWFFRAME
280
     2
  9
$DGNFRAME
280
     2
  9
$REALWORLDSCALE
290
     1
  9
$INTERFERECOLOR
 62
   256
  9
$CSHADOW
280
     0
  9
$SHADOWPLANELOCATION
 40
0.0
  0
ENDSEC
  0
SECTION
  2
CLASSES
  0
CLASS
  1
ACDBDICTIONARYWDFLT
  2
AcDbDictionaryWithDefault
  3
ObjectDBX Classes
 90
        0
 91
        4
280
     0
281
     0
  0
CLASS
  1
VISUALSTYLE
  2
AcDbVisualStyle
  3
ObjectDBX Classes
 90
     4095
 91
        4
280
     0
281
     0
  0
CLASS
  1
MATERIAL
  2
AcDbMaterial
  3
ObjectDBX Classes
 90
     1153
 91
        4
280
     0
281
     0
  0
ENDSEC
  0
SECTION
  2
TABLES
  0
TABLE
  2
VPORT
  5
8
330
0
100
AcDbSymbolTable
 70
     1
  0
VPORT
  5
29
330
8
100
AcDbSymbolTableRecord
100
AcDbViewportTableRecord
  2
*Active
 70
     0
 10
0.0
 20
0.0
 11
1.0
 21
1.0
 12
10.42990654205607
 22
4.5
 13
0.0
 23
0.0
 14
0.5
 24
0.5
 15
0.5
 25
0.5
 16
0.0
 26
0.0
 36
1.0
 17
0.0
 27
0.0
 37
0.0
 40
9.0
 41
1.972972972850329
 42
50.0
 43
0.0
 44
0.0
 50
0.0
 51
0.0
 71
     0
 72
   100
 73
     1
 74
     3
 75
     0
 76
     0
 77
     0
 78
     0
281
     0
 65
     1
110
0.0
120
0.0
130
0.0
111
1.0
121
0.0
131
0.0
112
0.0
122
1.0
132
0.0
 79
     0
146
0.0
 60
     3
 61
     5
292
     1
282
     1
141
0.0
142
0.0
 63
   250
  0
ENDTAB
  0
TABLE
  2
LTYPE
  5
5
330
0
100
AcDbSymbolTable
 70
     1
  0
LTYPE
  5
14
330
5
100
AcDbSymbolTableRecord
100
AcDbLinetypeTableRecord
  2
ByBlock
 70
     0
  3

 72
    65
 73
     0
 40
0.0
  0
LTYPE
  5
15
330
5
100
AcDbSymbolTableRecord
100
AcDbLinetypeTableRecord
  2
ByLayer
 70
     0
  3

 72
    65
 73
     0
 40
0.0
  0
LTYPE
  5
16
330
5
100
AcDbSymbolTableRecord
100
AcDbLinetypeTableRecord
  2
Continuous
 70
     0
  3
Solid line
 72
    65
 73
     0
 40
0.0
  0
ENDTAB
  0
TABLE
  2
LAYER
  5
2
330
0
100
AcDbSymbolTable
 70
     2
  0
LAYER
  5
10
330
2
100
AcDbSymbolTableRecord
100
AcDbLayerTableRecord
  2
0
 70
     0
 62
     7
  6
Continuous
370
    -3
390
F
347
3E
  0
LAYER
  5
40
330
2
100
AcDbSymbolTableRecord
100
AcDbLayerTableRecord
  2
layer 1
 70
     0
 62
     7
  6
Continuous
370
    -3
390
F
347
3E
  0
ENDTAB
  0
TABLE
  2
STYLE
  5
3
330
0
100
AcDbSymbolTable
 70
     1
  0
STYLE
  5
11
330
3
100
AcDbSymbolTableRecord
100
AcDbTextStyleTableRecord
  2
Standard
 70
     0
 40
0.0
 41
1.0
 50
0.0
 71
     0
 42
0.2
  3
txt
  4

  0
ENDTAB
  0
TABLE
  2
VIEW
  5
6
330
0
100
AcDbSymbolTable
 70
     0
  0
ENDTAB
  0
TABLE
  2
UCS
  5
7
330
0
100
AcDbSymbolTable
 70
     0
  0
ENDTAB
  0
TABLE
  2
APPID
  5
9
330
0
100
AcDbSymbolTable
 70
     2
  0
APPID
  5
12
330
9
100
AcDbSymbolTableRecord
100
AcDbRegAppTableRecord
  2
ACAD
 70
     0
  0
APPID
  5
3F
330
9
100
AcDbSymbolTableRecord
100
AcDbRegAppTableRecord
  2
ODA
 70
     0
  0
ENDTAB
  0
TABLE
  2
DIMSTYLE
  5
A
330
0
100
AcDbSymbolTable
 70
     1
100
AcDbDimStyleTable
  0
DIMSTYLE
105
27
330
A
100
AcDbSymbolTableRecord
100
AcDbDimStyleTableRecord
  2
Standard
 70
     0
178
     0
340
11
  0
ENDTAB
  0
TABLE
  2
BLOCK_RECORD
  5
1
330
0
100
AcDbSymbolTable
 70
     1
  0
BLOCK_RECORD
  5
1F
330
1
100
AcDbSymbolTableRecord
100
AcDbBlockTableRecord
  2
*Model_Space
340
22
 70
     0
280
     1
281
     0
  0
BLOCK_RECORD
  5
1B
330
1
100
AcDbSymbolTableRecord
100
AcDbBlockTableRecord
  2
*Paper_Space
340
1E
 70
     0
280
     1
281
     0
  0
BLOCK_RECORD
  5
23
330
1
100
AcDbSymbolTableRecord
100
AcDbBlockTableRecord
  2
*Paper_Space0
340
26
 70
     0
280
     1
281
     0
  0
ENDTAB
  0
ENDSEC
  0
SECTION
  2
BLOCKS
  0
BLOCK
  5
20
330
1F
100
AcDbEntity
  8
0
100
AcDbBlockBegin
  2
*Model_Space
 70
     0
 10
0.0
 20
0.0
 30
0.0
  3
*Model_Space
  1

  0
ENDBLK
  5
21
330
1F
100
AcDbEntity
  8
0
100
AcDbBlockEnd
  0
BLOCK
  5
1C
330
1B
100
AcDbEntity
 67
     1
  8
0
100
AcDbBlockBegin
  2
*Paper_Space
 70
     0
 10
0.0
 20
0.0
 30
0.0
  3
*Paper_Space
  1

  0
ENDBLK
  5
1D
330
1B
100
AcDbEntity
 67
     1
  8
0
100
AcDbBlockEnd
  0
BLOCK
  5
24
330
23
100
AcDbEntity
  8
0
100
AcDbBlockBegin
  2
*Paper_Space0
 70
     0
 10
0.0
 20
0.0
 30
0.0
  3
*Paper_Space0
  1

  0
ENDBLK
  5
25
330
23
100
AcDbEntity
  8
0
100
AcDbBlockEnd
  0
ENDSEC
  0
SECTION
  2
ENTITIES
  0
SPLINE
  5
41
330
1F
100
AcDbEntity
  8
layer 1
 62
   250
100
AcDbSpline
210
0.0
220
0.0
230
1.0
 70
    11
 71
     3
 72
    20
 73
    16
 74
     0
 42
0.0000000001
 43
0.0000000001
 12
1.0
 22
0.0
 32
0.0
 13
1.0
 23
0.0
 33
0.0
 40
0.0
 40
0.0
 40
0.0
 40
0.0
 40
0.2
 40
0.2
 40
0.2
 40
0.2
 40
0.4
 40
0.4
 40
0.4
 40
0.4
 40
0.6
 40
0.6
 40
0.6
 40
0.6
 40
1.0
 40
1.0
 40
1.0
 40
1.0
 10
-187.4118
 20
-115.1172
 30
0.0
 10
-187.4118
 20
-115.1172
 30
0.0
 10
-187.4118
 20
131.8592
 30
0.0
 10
-187.4118
 20
131.8592
 30
0.0
 10
-187.4118
 20
131.8592
 30
0.0
 10
-187.4118
 20
131.8592
 30
0.0
 10
-32.3029
 20
131.8592
 30
0.0
 10
-32.3029
 20
131.8592
 30
0.0
 10
-32.3029
 20
131.8592
 30
0.0
 10
-32.3029
 20
131.8592
 30
0.0
 10
-32.3029
 20
-115.1172
 30
0.0
 10
-32.3029
 20
-115.1172
 30
0.0
 10
-32.3029
 20
-115.1172
 30
0.0
 10
-32.3029
 20
-115.1172
 30
0.0
 10
-187.4118
 20
-115.1172
 30
0.0
 10
-187.4118
 20
-115.1172
 30
0.0
  0
SPLINE
  5
42
330
1F
100
AcDbEntity
  8
layer 1
 62
     7
100
AcDbSpline
210
0.0
220
0.0
230
1.0
 70
    11
 71
     3
 72
    20
 73
    16
 74
     0
 42
0.0000000001
 43
0.0000000001
 12
1.0
 22
0.0
 32
0.0
 13
1.0
 23
0.0
 33
0.0
 40
0.0
 40
0.0
 40
0.0
 40
0.0
 40
0.2
 40
0.2
 40
0.2
 40
0.2
 40
0.4
 40
0.4
 40
0.4
 40
0.4
 40
0.6
 40
0.6
 40
0.6
 40
0.6
 40
1.0
 40
1.0
 40
1.0
 40
1.0
 10
-55.291
 20
-102.6131
 30
0.0
 10
-55.291
 20
-102.6131
 30
0.0
 10
-55.291
 20
-86.5333
 30
0.0
 10
-55.291
 20
-86.5333
 30
0.0
 10
-55.291
 20
-86.5333
 30
0.0
 10
-55.291
 20
-86.5333
 30
0.0
 10
-43.7994
 20
-86.5333
 30
0.0
 10
-43.7994
 20
-86.5333
 30
0.0
 10
-43.7994
 20
-86.5333
 30
0.0
 10
-43.7994
 20
-86.5333
 30
0.0
 10
-43.7994
 20
-102.6131
 30
0.0
 10
-43.7994
 20
-102.6131
 30
0.0
 10
-43.7994
 20
-102.6131
 30
0.0
 10
-43.7994
 20
-102.6131
 30
0.0
 10
-55.291
 20
-102.6131
 30
0.0
 10
-55.291
 20
-102.6131
 30
0.0
  0
SPLINE
  5
43
330
1F
100
AcDbEntity
  8
layer 1
 62
     7
100
AcDbSpline
210
0.0
220
0.0
230
1.0
 70
    11
 71
     3
 72
    20
 73
    16
 74
     0
 42
0.0000000001
 43
0.0000000001
 12
1.0
 22
0.0
 32
0.0
 13
1.0
 23
0.0
 33
0.0
 40
0.0
 40
0.0
 40
0.0
 40
0.0
 40
0.2
 40
0.2
 40
0.2
 40
0.2
 40
0.4
 40
0.4
 40
0.4
 40
0.4
 40
0.6
 40
0.6
 40
0.6
 40
0.6
 40
1.0
 40
1.0
 40
1.0
 40
1.0
 10
-104.6551
 20
-102.6131
 30
0.0
 10
-104.6551
 20
-102.6131
 30
0.0
 10
-104.6551
 20
-86.5333
 30
0.0
 10
-104.6551
 20
-86.5333
 30
0.0
 10
-104.6551
 20
-86.5333
 30
0.0
 10
-104.6551
 20
-86.5333
 30
0.0
 10
-89.7126
 20
-86.5333
 30
0.0
 10
-89.7126
 20
-86.5333
 30
0.0
 10
-89.7126
 20
-86.5333
 30
0.0
 10
-89.7126
 20
-86.5333
 30
0.0
 10
-89.7126
 20
-102.6131
 30
0.0
 10
-89.7126
 20
-102.6131
 30
0.0
 10
-89.7126
 20
-102.6131
 30
0.0
 10
-89.7126
 20
-102.6131
 30
0.0
 10
-104.6551
 20
-102.6131
 30
0.0
 10
-104.6551
 20
-102.6131
 30
0.0
  0
SPLINE
  5
44
330
1F
100
AcDbEntity
  8
layer 1
 62
     7
100
AcDbSpline
210
0.0
220
0.0
230
1.0
 70
    11
 71
     3
 72
    20
 73
    16
 74
     0
 42
0.0000000001
 43
0.0000000001
 12
1.0
 22
0.0
 32
0.0
 13
1.0
 23
0.0
 33
0.0
 40
0.0
 40
0.0
 40
0.0
 40
0.0
 40
0.2
 40
0.2
 40
0.2
 40
0.2
 40
0.4
 40
0.4
 40
0.4
 40
0.4
 40
0.6
 40
0.6
 40
0.6
 40
0.6
 40
1.0
 40
1.0
 40
1.0
 40
1.0
 10
-124.2555
 20
-102.6131
 30
0.0
 10
-124.2555
 20
-102.6131
 30
0.0
 10
-124.2555
 20
-86.5333
 30
0.0
 10
-124.2555
 20
-86.5333
 30
0.0
 10
-124.2555
 20
-86.5333
 30
0.0
 10
-124.2555
 20
-86.5333
 30
0.0
 10
-109.3129
 20
-86.5333
 30
0.0
 10
-109.3129
 20
-86.5333
 30
0.0
 10
-109.3129
 20
-86.5333
 30
0.0
 10
-109.3129
 20
-86.5333
 30
0.0
 10
-109.3129
 20
-102.6131
 30
0.0
 10
-109.3129
 20
-102.6131
 30
0.0
 10
-109.3129
 20
-102.6131
 30
0.0
 10
-109.3129
 20
-102.6131
 30
0.0
 10
-124.2555
 20
-102.6131
 30
0.0
 10
-124.2555
 20
-102.6131
 30
0.0
  0
SPLINE
  5
45
330
1F
100
AcDbEntity
  8
layer 1
 62
     7
100
AcDbSpline
210
0.0
220
0.0
230
1.0
 70
    11
 71
     3
 72
    20
 73
    16
 74
     0
 42
0.0000000001
 43
0.0000000001
 12
1.0
 22
0.0
 32
0.0
 13
1.0
 23
0.0
 33
0.0
 40
0.0
 40
0.0
 40
0.0
 40
0.0
 40
0.2
 40
0.2
 40
0.2
 40
0.2
 40
0.4
 40
0.4
 40
0.4
 40
0.4
 40
0.6
 40
0.6
 40
0.6
 40
0.6
 40
1.0
 40
1.0
 40
1.0
 40
1.0
 10
-85.1755
 20
-102.6131
 30
0.0
 10
-85.1755
 20
-102.6131
 30
0.0
 10
-85.1755
 20
-86.5333
 30
0.0
 10
-85.1755
 20
-86.5333
 30
0.0
 10
-85.1755
 20
-86.5333
 30
0.0
 10
-85.1755
 20
-86.5333
 30
0.0
 10
-59.9128
 20
-86.5333
 30
0.0
 10
-59.9128
 20
-86.5333
 30
0.0
 10
-59.9128
 20
-86.5333
 30
0.0
 10
-59.9128
 20
-86.5333
 30
0.0
 10
-59.9128
 20
-102.6131
 30
0.0
 10
-59.9128
 20
-102.6131
 30
0.0
 10
-59.9128
 20
-102.6131
 30
0.0
 10
-59.9128
 20
-102.6131
 30
0.0
 10
-85.1755
 20
-102.6131
 30
0.0
 10
-85.1755
 20
-102.6131
 30
0.0
  0
SPLINE
  5
46
330
1F
100
AcDbEntity
  8
layer 1
 62
     7
100
AcDbSpline
210
0.0
220
0.0
230
1.0
 70
    11
 71
     3
 72
    20
 73
    16
 74
     0
 42
0.0000000001
 43
0.0000000001
 12
1.0
 22
0.0
 32
0.0
 13
1.0
 23
0.0
 33
0.0
 40
0.0
 40
0.0
 40
0.0
 40
0.0
 40
0.2
 40
0.2
 40
0.2
 40
0.2
 40
0.4
 40
0.4
 40
0.4
 40
0.4
 40
0.6
 40
0.6
 40
0.6
 40
0.6
 40
1.0
 40
1.0
 40
1.0
 40
1.0
 10
-124.2555
 20
-81.9358
 30
0.0
 10
-124.2555
 20
-81.9358
 30
0.0
 10
-124.2555
 20
-65.8564
 30
0.0
 10
-124.2555
 20
-65.8564
 30
0.0
 10
-124.2555
 20
-65.8564
 30
0.0
 10
-124.2555
 20
-65.8564
 30
0.0
 10
-109.3129
 20
-65.8564
 30
0.0
 10
-109.3129
 20
-65.8564
 30
0.0
 10
-109.3129
 20
-65.8564
 30
0.0
 10
-109.3129
 20
-65.8564
 30
0.0
 10
-109.3129
 20
-81.9358
 30
0.0
 10
-109.3129
 20
-81.9358
 30
0.0
 10
-109.3129
 20
-81.9358
 30
0.0
 10
-109.3129
 20
-81.9358
 30
0.0
 10
-124.2555
 20
-81.9358
 30
0.0
 10
-124.2555
 20
-81.9358
 30
0.0
  0
SPLINE
  5
47
330
1F
100
AcDbEntity
  8
layer 1
 62
     7
100
AcDbSpline
210
0.0
220
0.0
230
1.0
 70
    11
 71
     3
 72
    20
 73
    16
 74
     0
 42
0.0000000001
 43
0.0000000001
 12
1.0
 22
0.0
 32
0.0
 13
1.0
 23
0.0
 33
0.0
 40
0.0
 40
0.0
 40
0.0
 40
0.0
 40
0.2
 40
0.2
 40
0.2
 40
0.2
 40
0.4
 40
0.4
 40
0.4
 40
0.4
 40
0.6
 40
0.6
 40
0.6
 40
0.6
 40
1.0
 40
1.0
 40
1.0
 40
1.0
 10
-104.6551
 20
-81.9358
 30
0.0
 10
-104.6551
 20
-81.9358
 30
0.0
 10
-104.6551
 20
-65.8564
 30
0.0
 10
-104.6551
 20
-65.8564
 30
0.0
 10
-104.6551
 20
-65.8564
 30
0.0
 10
-104.6551
 20
-65.8564
 30
0.0
 10
-89.7126
 20
-65.8564
 30
0.0
 10
-89.7126
 20
-65.8564
 30
0.0
 10
-89.7126
 20
-65.8564
 30
0.0
 10
-89.7126
 20
-65.8564
 30
0.0
 10
-89.7126
 20
-81.9358
 30
0.0
 10
-89.7126
 20
-81.9358
 30
0.0
 10
-89.7126
 20
-81.9358
 30
0.0
 10
-89.7126
 20
-81.9358
 30
0.0
 10
-104.6551
 20
-81.9358
 30
0.0
 10
-104.6551
 20
-81.9358
 30
0.0
  0
SPLINE
  5
48
330
1F
100
AcDbEntity
  8
layer 1
 62
     7
100
AcDbSpline
210
0.0
220
0.0
230
1.0
 70
    11
 71
     3
 72
    20
 73
    16
 74
     0
 42
0.0000000001
 43
0.0000000001
 12
1.0
 22
0.0
 32
0.0
 13
1.0
 23
0.0
 33
0.0
 40
0.0
 40
0.0
 40
0.0
 40
0.0
 40
0.2
 40
0.2
 40
0.2
 40
0.2
 40
0.4
 40
0.4
 40
0.4
 40
0.4
 40
0.6
 40
0.6
 40
0.6
 40
0.6
 40
1.0
 40
1.0
 40
1.0
 40
1.0
 10
-104.6551
 20
-19.9528
 30
0.0
 10
-104.6551
 20
-19.9528
 30
0.0
 10
-104.6551
 20
-3.8733
 30
0.0
 10
-104.6551
 20
-3.8733
 30
0.0
 10
-104.6551
 20
-3.8733
 30
0.0
 10
-104.6551
 20
-3.8733
 30
0.0
 10
-89.7126
 20
-3.8733
 30
0.0
 10
-89.7126
 20
-3.8733
 30
0.0
 10
-89.7126
 20
-3.8733
 30
0.0
 10
-89.7126
 20
-3.8733
 30
0.0
 10
-89.7126
 20
-19.9528
 30
0.0
 10
-89.7126
 20
-19.9528
 30
0.0
 10
-89.7126
 20
-19.9528
 30
0.0
 10
-89.7126
 20
-19.9528
 30
0.0
 10
-104.6551
 20
-19.9528
 30
0.0
 10
-104.6551
 20
-19.9528
 30
0.0
  0
SPLINE
  5
49
330
1F
100
AcDbEntity
  8
layer 1
 62
     7
100
AcDbSpline
210
0.0
220
0.0
230
1.0
 70
    11
 71
     3
 72
    20
 73
    16
 74
     0
 42
0.0000000001
 43
0.0000000001
 12
1.0
 22
0.0
 32
0.0
 13
1.0
 23
0.0
 33
0.0
 40
0.0
 40
0.0
 40
0.0
 40
0.0
 40
0.2
 40
0.2
 40
0.2
 40
0.2
 40
0.4
 40
0.4
 40
0.4
 40
0.4
 40
0.6
 40
0.6
 40
0.6
 40
0.6
 40
1.0
 40
1.0
 40
1.0
 40
1.0
 10
-124.2555
 20
-19.9528
 30
0.0
 10
-124.2555
 20
-19.9528
 30
0.0
 10
-124.2555
 20
-3.8733
 30
0.0
 10
-124.2555
 20
-3.8733
 30
0.0
 10
-124.2555
 20
-3.8733
 30
0.0
 10
-124.2555
 20
-3.8733
 30
0.0
 10
-109.3129
 20
-3.8733
 30
0.0
 10
-109.3129
 20
-3.8733
 30
0.0
 10
-109.3129
 20
-3.8733
 30
0.0
 10
-109.3129
 20
-3.8733
 30
0.0
 10
-109.3129
 20
-19.9528
 30
0.0
 10
-109.3129
 20
-19.9528
 30
0.0
 10
-109.3129
 20
-19.9528
 30
0.0
 10
-109.3129
 20
-19.9528
 30
0.0
 10
-124.2555
 20
-19.9528
 30
0.0
 10
-124.2555
 20
-19.9528
 30
0.0
  0
SPLINE
  5
4A
330
1F
100
AcDbEntity
  8
layer 1
 62
     7
100
AcDbSpline
210
0.0
220
0.0
230
1.0
 70
    11
 71
     3
 72
    20
 73
    16
 74
     0
 42
0.0000000001
 43
0.0000000001
 12
1.0
 22
0.0
 32
0.0
 13
1.0
 23
0.0
 33
0.0
 40
0.0
 40
0.0
 40
0.0
 40
0.0
 40
0.2
 40
0.2
 40
0.2
 40
0.2
 40
0.4
 40
0.4
 40
0.4
 40
0.4
 40
0.6
 40
0.6
 40
0.6
 40
0.6
 40
1.0
 40
1.0
 40
1.0
 40
1.0
 10
-124.2555
 20
0.7365
 30
0.0
 10
-124.2555
 20
0.7365
 30
0.0
 10
-124.2555
 20
16.816
 30
0.0
 10
-124.2555
 20
16.816
 30
0.0
 10
-124.2555
 20
16.816
 30
0.0
 10
-124.2555
 20
16.816
 30
0.0
 10
-109.3129
 20
16.816
 30
0.0
 10
-109.3129
 20
16.816
 30
0.0
 10
-109.3129
 20
16.816
 30
0.0
 10
-109.3129
 20
16.816
 30
0.0
 10
-109.3129
 20
0.7365
 30
0.0
 10
-109.3129
 20
0.7365
 30
0.0
 10
-109.3129
 20
0.7365
 30
0.0
 10
-109.3129
 20
0.7365
 30
0.0
 10
-124.2555
 20
0.7365
 30
0.0
 10
-124.2555
 20
0.7365
 30
0.0
  0
SPLINE
  5
4B
330
1F
100
AcDbEntity
  8
layer 1
 62
     7
100
AcDbSpline
210
0.0
220
0.0
230
1.0
 70
    11
 71
     3
 72
    20
 73
    16
 74
     0
 42
0.0000000001
 43
0.0000000001
 12
1.0
 22
0.0
 32
0.0
 13
1.0
 23
0.0
 33
0.0
 40
0.0
 40
0.0
 40
0.0
 40
0.0
 40
0.2
 40
0.2
 40
0.2
 40
0.2
 40
0.4
 40
0.4
 40
0.4
 40
0.4
 40
0.6
 40
0.6
 40
0.6
 40
0.6
 40
1.0
 40
1.0
 40
1.0
 40
1.0
 10
-55.291
 20
0.7365
 30
0.0
 10
-55.291
 20
0.7365
 30
0.0
 10
-55.291
 20
16.816
 30
0.0
 10
-55.291
 20
16.816
 30
0.0
 10
-55.291
 20
16.816
 30
0.0
 10
-55.291
 20
16.816
 30
0.0
 10
-43.7994
 20
16.816
 30
0.0
 10
-43.7994
 20
16.816
 30
0.0
 10
-43.7994
 20
16.816
 30
0.0
 10
-43.7994
 20
16.816
 30
0.0
 10
-43.7994
 20
0.7365
 30
0.0
 10
-43.7994
 20
0.7365
 30
0.0
 10
-43.7994
 20
0.7365
 30
0.0
 10
-43.7994
 20
0.7365
 30
0.0
 10
-55.291
 20
0.7365
 30
0.0
 10
-55.291
 20
0.7365
 30
0.0
  0
SPLINE
  5
4C
330
1F
100
AcDbEntity
  8
layer 1
 62
     7
100
AcDbSpline
210
0.0
220
0.0
230
1.0
 70
    11
 71
     3
 72
    20
 73
    16
 74
     0
 42
0.0000000001
 43
0.0000000001
 12
1.0
 22
0.0
 32
0.0
 13
1.0
 23
0.0
 33
0.0
 40
0.0
 40
0.0
 40
0.0
 40
0.0
 40
0.2
 40
0.2
 40
0.2
 40
0.2
 40
0.4
 40
0.4
 40
0.4
 40
0.4
 40
0.6
 40
0.6
 40
0.6
 40
0.6
 40
1.0
 40
1.0
 40
1.0
 40
1.0
 10
-55.291
 20
21.4257
 30
0.0
 10
-55.291
 20
21.4257
 30
0.0
 10
-55.291
 20
37.5052
 30
0.0
 10
-55.291
 20
37.5052
 30
0.0
 10
-55.291
 20
37.5052
 30
0.0
 10
-55.291
 20
37.5052
 30
0.0
 10
-43.7994
 20
37.5052
 30
0.0
 10
-43.7994
 20
37.5052
 30
0.0
 10
-43.7994
 20
37.5052
 30
0.0
 10
-43.7994
 20
37.5052
 30
0.0
 10
-43.7994
 20
21.4257
 30
0.0
 10
-43.7994
 20
21.4257
 30
0.0
 10
-43.7994
 20
21.4257
 30
0.0
 10
-43.7994
 20
21.4257
 30
0.0
 10
-55.291
 20
21.4257
 30
0.0
 10
-55.291
 20
21.4257
 30
0.0
  0
SPLINE
  5
4D
330
1F
100
AcDbEntity
  8
layer 1
 62
     7
100
AcDbSpline
210
0.0
220
0.0
230
1.0
 70
    11
 71
     3
 72
    20
 73
    16
 74
     0
 42
0.0000000001
 43
0.0000000001
 12
1.0
 22
0.0
 32
0.0
 13
1.0
 23
0.0
 33
0.0
 40
0.0
 40
0.0
 40
0.0
 40
0.0
 40
0.2
 40
0.2
 40
0.2
 40
0.2
 40
0.4
 40
0.4
 40
0.4
 40
0.4
 40
0.6
 40
0.6
 40
0.6
 40
0.6
 40
1.0
 40
1.0
 40
1.0
 40
1.0
 10
-124.2555
 20
21.4257
 30
0.0
 10
-124.2555
 20
21.4257
 30
0.0
 10
-124.2555
 20
37.5052
 30
0.0
 10
-124.2555
 20
37.5052
 30
0.0
 10
-124.2555
 20
37.5052
 30
0.0
 10
-124.2555
 20
37.5052
 30
0.0
 10
-109.3129
 20
37.5052
 30
0.0
 10
-109.3129
 20
37.5052
 30
0.0
 10
-109.3129
 20
37.5052
 30
0.0
 10
-109.3129
 20
37.5052
 30
0.0
 10
-109.3129
 20
21.4257
 30
0.0
 10
-109.3129
 20
21.4257
 30
0.0
 10
-109.3129
 20
21.4257
 30
0.0
 10
-109.3129
 20
21.4257
 30
0.0
 10
-124.2555
 20
21.4257
 30
0.0
 10
-124.2555
 20
21.4257
 30
0.0
  0
SPLINE
  5
4E
330
1F
100
AcDbEntity
  8
layer 1
 62
     7
100
AcDbSpline
210
0.0
220
0.0
230
1.0
 70
    11
 71
     3
 72
    20
 73
    16
 74
     0
 42
0.0000000001
 43
0.0000000001
 12
1.0
 22
0.0
 32
0.0
 13
1.0
 23
0.0
 33
0.0
 40
0.0
 40
0.0
 40
0.0
 40
0.0
 40
0.2
 40
0.2
 40
0.2
 40
0.2
 40
0.4
 40
0.4
 40
0.4
 40
0.4
 40
0.6
 40
0.6
 40
0.6
 40
0.6
 40
1.0
 40
1.0
 40
1.0
 40
1.0
 10
-55.291
 20
83.4935
 30
0.0
 10
-55.291
 20
83.4935
 30
0.0
 10
-55.291
 20
99.573
 30
0.0
 10
-55.291
 20
99.573
 30
0.0
 10
-55.291
 20
99.573
 30
0.0
 10
-55.291
 20
99.573
 30
0.0
 10
-43.7994
 20
99.573
 30
0.0
 10
-43.7994
 20
99.573
 30
0.0
 10
-43.7994
 20
99.573
 30
0.0
 10
-43.7994
 20
99.573
 30
0.0
 10
-43.7994
 20
83.4935
 30
0.0
 10
-43.7994
 20
83.4935
 30
0.0
 10
-43.7994
 20
83.4935
 30
0.0
 10
-43.7994
 20
83.4935
 30
0.0
 10
-55.291
 20
83.4935
 30
0.0
 10
-55.291
 20
83.4935
 30
0.0
  0
SPLINE
  5
4F
330
1F
100
AcDbEntity
  8
layer 1
 62
     7
100
AcDbSpline
210
0.0
220
0.0
230
1.0
 70
    11
 71
     3
 72
    20
 73
    16
 74
     0
 42
0.0000000001
 43
0.0000000001
 12
1.0
 22
0.0
 32
0.0
 13
1.0
 23
0.0
 33
0.0
 40
0.0
 40
0.0
 40
0.0
 40
0.0
 40
0.2
 40
0.2
 40
0.2
 40
0.2
 40
0.4
 40
0.4
 40
0.4
 40
0.4
 40
0.6
 40
0.6
 40
0.6
 40
0.6
 40
1.0
 40
1.0
 40
1.0
 40
1.0
 10
-55.291
 20
104.1828
 30
0.0
 10
-55.291
 20
104.1828
 30
0.0
 10
-55.291
 20
120.2622
 30
0.0
 10
-55.291
 20
120.2622
 30
0.0
 10
-55.291
 20
120.2622
 30
0.0
 10
-55.291
 20
120.2622
 30
0.0
 10
-43.7994
 20
120.2622
 30
0.0
 10
-43.7994
 20
120.2622
 30
0.0
 10
-43.7994
 20
120.2622
 30
0.0
 10
-43.7994
 20
120.2622
 30
0.0
 10
-43.7994
 20
104.1828
 30
0.0
 10
-43.7994
 20
104.1828
 30
0.0
 10
-43.7994
 20
104.1828
 30
0.0
 10
-43.7994
 20
104.1828
 30
0.0
 10
-55.291
 20
104.1828
 30
0.0
 10
-55.291
 20
104.1828
 30
0.0
  0
SPLINE
  5
50
330
1F
100
AcDbEntity
  8
layer 1
 62
     7
100
AcDbSpline
210
0.0
220
0.0
230
1.0
 70
    11
 71
     3
 72
    20
 73
    16
 74
     0
 42
0.0000000001
 43
0.0000000001
 12
1.0
 22
0.0
 32
0.0
 13
1.0
 23
0.0
 33
0.0
 40
0.0
 40
0.0
 40
0.0
 40
0.0
 40
0.2
 40
0.2
 40
0.2
 40
0.2
 40
0.4
 40
0.4
 40
0.4
 40
0.4
 40
0.6
 40
0.6
 40
0.6
 40
0.6
 40
1.0
 40
1.0
 40
1.0
 40
1.0
 10
-104.6551
 20
104.1828
 30
0.0
 10
-104.6551
 20
104.1828
 30
0.0
 10
-104.6551
 20
120.2622
 30
0.0
 10
-104.6551
 20
120.2622
 30
0.0
 10
-104.6551
 20
120.2622
 30
0.0
 10
-104.6551
 20
120.2622
 30
0.0
 10
-89.7126
 20
120.2622
 30
0.0
 10
-89.7126
 20
120.2622
 30
0.0
 10
-89.7126
 20
120.2622
 30
0.0
 10
-89.7126
 20
120.2622
 30
0.0
 10
-89.7126
 20
104.1828
 30
0.0
 10
-89.7126
 20
104.1828
 30
0.0
 10
-89.7126
 20
104.1828
 30
0.0
 10
-89.7126
 20
104.1828
 30
0.0
 10
-104.6551
 20
104.1828
 30
0.0
 10
-104.6551
 20
104.1828
 30
0.0
  0
SPLINE
  5
51
330
1F
100
AcDbEntity
  8
layer 1
 62
     7
100
AcDbSpline
210
0.0
220
0.0
230
1.0
 70
    11
 71
     3
 72
    20
 73
    16
 74
     0
 42
0.0000000001
 43
0.0000000001
 12
1.0
 22
0.0
 32
0.0
 13
1.0
 23
0.0
 33
0.0
 40
0.0
 40
0.0
 40
0.0
 40
0.0
 40
0.2
 40
0.2
 40
0.2
 40
0.2
 40
0.4
 40
0.4
 40
0.4
 40
0.4
 40
0.6
 40
0.6
 40
0.6
 40
0.6
 40
1.0
 40
1.0
 40
1.0
 40
1.0
 10
-124.2555
 20
104.1828
 30
0.0
 10
-124.2555
 20
104.1828
 30
0.0
 10
-124.2555
 20
120.2622
 30
0.0
 10
-124.2555
 20
120.2622
 30
0.0
 10
-124.2555
 20
120.2622
 30
0.0
 10
-124.2555
 20
120.2622
 30
0.0
 10
-109.3129
 20
120.2622
 30
0.0
 10
-109.3129
 20
120.2622
 30
0.0
 10
-109.3129
 20
120.2622
 30
0.0
 10
-109.3129
 20
120.2622
 30
0.0
 10
-109.3129
 20
104.1828
 30
0.0
 10
-109.3129
 20
104.1828
 30
0.0
 10
-109.3129
 20
104.1828
 30
0.0
 10
-109.3129
 20
104.1828
 30
0.0
 10
-124.2555
 20
104.1828
 30
0.0
 10
-124.2555
 20
104.1828
 30
0.0
  0
SPLINE
  5
52
330
1F
100
AcDbEntity
  8
layer 1
 62
     7
100
AcDbSpline
210
0.0
220
0.0
230
1.0
 70
    11
 71
     3
 72
    20
 73
    16
 74
     0
 42
0.0000000001
 43
0.0000000001
 12
1.0
 22
0.0
 32
0.0
 13
1.0
 23
0.0
 33
0.0
 40
0.0
 40
0.0
 40
0.0
 40
0.0
 40
0.2
 40
0.2
 40
0.2
 40
0.2
 40
0.4
 40
0.4
 40
0.4
 40
0.4
 40
0.6
 40
0.6
 40
0.6
 40
0.6
 40
1.0
 40
1.0
 40
1.0
 40
1.0
 10
-85.1755
 20
104.1828
 30
0.0
 10
-85.1755
 20
104.1828
 30
0.0
 10
-85.1755
 20
120.2622
 30
0.0
 10
-85.1755
 20
120.2622
 30
0.0
 10
-85.1755
 20
120.2622
 30
0.0
 10
-85.1755
 20
120.2622
 30
0.0
 10
-59.9128
 20
120.2622
 30
0.0
 10
-59.9128
 20
120.2622
 30
0.0
 10
-59.9128
 20
120.2622
 30
0.0
 10
-59.9128
 20
120.2622
 30
0.0
 10
-59.9128
 20
104.1828
 30
0.0
 10
-59.9128
 20
104.1828
 30
0.0
 10
-59.9128
 20
104.1828
 30
0.0
 10
-59.9128
 20
104.1828
 30
0.0
 10
-85.1755
 20
104.1828
 30
0.0
 10
-85.1755
 20
104.1828
 30
0.0
  0
SPLINE
  5
53
330
1F
100
AcDbEntity
  8
layer 1
 62
     7
100
AcDbSpline
210
0.0
220
0.0
230
1.0
 70
    11
 71
     3
 72
    24
 73
    20
 74
     0
 42
0.0000000001
 43
0.0000000001
 12
1.0
 22
0.0
 32
0.0
 13
1.0
 23
0.0
 33
0.0
 40
0.0
 40
0.0
 40
0.0
 40
0.0
 40
0.1666666666666667
 40
0.1666666666666667
 40
0.1666666666666667
 40
0.1666666666666667
 40
0.3333333333333333
 40
0.3333333333333333
 40
0.3333333333333333
 40
0.3333333333333333
 40
0.5
 40
0.5
 40
0.5
 40
0.5
 40
0.6666666666666666
 40
0.6666666666666666
 40
0.6666666666666666
 40
0.6666666666666666
 40
1.0
 40
1.0
 40
1.0
 40
1.0
 10
-55.291
 20
42.115
 30
0.0
 10
-55.291
 20
42.115
 30
0.0
 10
-55.291
 20
48.7695
 30
0.0
 10
-55.291
 20
48.7695
 30
0.0
 10
-55.291
 20
48.7695
 30
0.0
 10
-51.5404
 20
50.4634
 30
0.0
 10
-48.7576
 20
53.9719
 30
0.0
 10
-48.0319
 20
58.2068
 30
0.0
 10
-48.0319
 20
58.2068
 30
0.0
 10
-48.0319
 20
58.2068
 30
0.0
 10
-43.797
 20
58.2068
 30
0.0
 10
-43.797
 20
58.2068
 30
0.0
 10
-43.797
 20
58.2068
 30
0.0
 10
-43.797
 20
58.2068
 30
0.0
 10
-43.797
 20
42.115
 30
0.0
 10
-43.797
 20
42.115
 30
0.0
 10
-43.797
 20
42.115
 30
0.0
 10
-43.797
 20
42.115
 30
0.0
 10
-55.291
 20
42.115
 30
0.0
 10
-55.291
 20
42.115
 30
0.0
  0
SPLINE
  5
54
330
1F
100
AcDbEntity
  8
layer 1
 62
     7
100
AcDbSpline
210
0.0
220
0.0
230
1.0
 70
    11
 71
     3
 72
    24
 73
    20
 74
     0
 42
0.0000000001
 43
0.0000000001
 12
1.0
 22
0.0
 32
0.0
 13
1.0
 23
0.0
 33
0.0
 40
0.0
 40
0.0
 40
0.0
 40
0.0
 40
0.1666666666666667
 40
0.1666666666666667
 40
0.1666666666666667
 40
0.1666666666666667
 40
0.3333333333333333
 40
0.3333333333333333
 40
0.3333333333333333
 40
0.3333333333333333
 40
0.5
 40
0.5
 40
0.5
 40
0.5
 40
0.6666666666666666
 40
0.6666666666666666
 40
0.6666666666666666
 40
0.6666666666666666
 40
1.0
 40
1.0
 40
1.0
 40
1.0
 10
-55.291
 20
71.7576
 30
0.0
 10
-55.291
 20
71.7576
 30
0.0
 10
-55.291
 20
78.8961
 30
0.0
 10
-55.291
 20
78.8961
 30
0.0
 10
-55.291
 20
78.8961
 30
0.0
 10
-55.291
 20
78.8961
 30
0.0
 10
-43.797
 20
78.8961
 30
0.0
 10
-43.797
 20
78.8961
 30
0.0
 10
-43.797
 20
78.8961
 30
0.0
 10
-43.797
 20
78.8961
 30
0.0
 10
-43.797
 20
62.8042
 30
0.0
 10
-43.797
 20
62.8042
 30
0.0
 10
-43.797
 20
62.8042
 30
0.0
 10
-43.797
 20
62.8042
 30
0.0
 10
-48.1526
 20
62.8042
 30
0.0
 10
-48.1526
 20
62.8042
 30
0.0
 10
-48.1526
 20
62.8042
 30
0.0
 10
-48.9997
 20
66.797
 30
0.0
 10
-51.6615
 20
70.1848
 30
0.0
 10
-55.291
 20
71.7576
 30
0.0
  0
SPLINE
  5
55
330
1F
100
AcDbEntity
  8
layer 1
 62
     7
100
AcDbSpline
210
0.0
220
0.0
230
1.0
 70
    11
 71
     3
 72
    20
 73
    16
 74
     0
 42
0.0000000001
 43
0.0000000001
 12
1.0
 22
0.0
 32
0.0
 13
1.0
 23
0.0
 33
0.0
 40
0.0
 40
0.0
 40
0.0
 40
0.0
 40
0.2
 40
0.2
 40
0.2
 40
0.2
 40
0.4
 40
0.4
 40
0.4
 40
0.4
 40
0.6
 40
0.6
 40
0.6
 40
0.6
 40
1.0
 40
1.0
 40
1.0
 40
1.0
 10
-68.6001
 20
60.2636
 30
0.0
 10
-68.6001
 20
64.7403
 30
0.0
 10
-64.9702
 20
68.3698
 30
0.0
 10
-60.4938
 20
68.3698
 30
0.0
 10
-60.4938
 20
68.3698
 30
0.0
 10
-56.1382
 20
68.3698
 30
0.0
 10
-52.5082
 20
64.7403
 30
0.0
 10
-52.5082
 20
60.2636
 30
0.0
 10
-52.5082
 20
60.2636
 30
0.0
 10
-52.5082
 20
55.7869
 30
0.0
 10
-56.1382
 20
52.2784
 30
0.0
 10
-60.4938
 20
52.2784
 30
0.0
 10
-60.4938
 20
52.2784
 30
0.0
 10
-64.9702
 20
52.2784
 30
0.0
 10
-68.6001
 20
55.7869
 30
0.0
 10
-68.6001
 20
60.2636
 30
0.0
  0
SPLINE
  5
56
330
1F
100
AcDbEntity
  8
layer 1
 62
     7
100
AcDbSpline
210
0.0
220
0.0
230
1.0
 70
    11
 71
     3
 72
    24
 73
    20
 74
     0
 42
0.0000000001
 43
0.0000000001
 12
1.0
 22
0.0
 32
0.0
 13
1.0
 23
0.0
 33
0.0
 40
0.0
 40
0.0
 40
0.0
 40
0.0
 40
0.1666666666666667
 40
0.1666666666666667
 40
0.1666666666666667
 40
0.1666666666666667
 40
0.3333333333333333
 40
0.3333333333333333
 40
0.3333333333333333
 40
0.3333333333333333
 40
0.5
 40
0.5
 40
0.5
 40
0.5
 40
0.6666666666666666
 40
0.6666666666666666
 40
0.6666666666666666
 40
0.6666666666666666
 40
1.0
 40
1.0
 40
1.0
 40
1.0
 10
-104.6551
 20
-61.2102
 30
0.0
 10
-104.6551
 20
-61.2102
 30
0.0
 10
-104.6551
 20
-53.5879
 30
0.0
 10
-104.6551
 20
-53.5879
 30
0.0
 10
-104.6551
 20
-53.5879
 30
0.0
 10
-102.598
 20
-55.1607
 30
0.0
 10
-99.9363
 20
-56.1285
 30
0.0
 10
-97.1535
 20
-56.1285
 30
0.0
 10
-97.1535
 20
-56.1285
 30
0.0
 10
-94.3707
 20
-56.1285
 30
0.0
 10
-91.83
 20
-55.2818
 30
0.0
 10
-89.7733
 20
-53.7089
 30
0.0
 10
-89.7733
 20
-53.7089
 30
0.0
 10
-89.7733
 20
-53.7089
 30
0.0
 10
-89.7733
 20
-61.2102
 30
0.0
 10
-89.7733
 20
-61.2102
 30
0.0
 10
-89.7733
 20
-61.2102
 30
0.0
 10
-89.7733
 20
-61.2102
 30
0.0
 10
-104.6551
 20
-61.2102
 30
0.0
 10
-104.6551
 20
-61.2102
 30
0.0
  0
SPLINE
  5
57
330
1F
100
AcDbEntity
  8
layer 1
 62
     7
100
AcDbSpline
210
0.0
220
0.0
230
1.0
 70
    11
 71
     3
 72
    24
 73
    20
 74
     0
 42
0.0000000001
 43
0.0000000001
 12
1.0
 22
0.0
 32
0.0
 13
1.0
 23
0.0
 33
0.0
 40
0.0
 40
0.0
 40
0.0
 40
0.0
 40
0.1666666666666667
 40
0.1666666666666667
 40
0.1666666666666667
 40
0.1666666666666667
 40
0.3333333333333333
 40
0.3333333333333333
 40
0.3333333333333333
 40
0.3333333333333333
 40
0.5
 40
0.5
 40
0.5
 40
0.5
 40
0.6666666666666666
 40
0.6666666666666666
 40
0.6666666666666666
 40
0.6666666666666666
 40
1.0
 40
1.0
 40
1.0
 40
1.0
 10
-124.2555
 20
-61.2102
 30
0.0
 10
-124.2555
 20
-61.2102
 30
0.0
 10
-124.2555
 20
-45.1187
 30
0.0
 10
-124.2555
 20
-45.1187
 30
0.0
 10
-124.2555
 20
-45.1187
 30
0.0
 10
-124.2555
 20
-45.1187
 30
0.0
 10
-109.6154
 20
-45.1187
 30
0.0
 10
-109.6154
 20
-45.1187
 30
0.0
 10
-109.6154
 20
-45.1187
 30
0.0
 10
-109.6154
 20
-45.7234
 30
0.0
 10
-109.4947
 20
-46.3284
 30
0.0
 10
-109.2525
 20
-46.9334
 30
0.0
 10
-109.2525
 20
-46.9334
 30
0.0
 10
-109.2525
 20
-46.9334
 30
0.0
 10
-109.2525
 20
-61.2102
 30
0.0
 10
-109.2525
 20
-61.2102
 30
0.0
 10
-109.2525
 20
-61.2102
 30
0.0
 10
-109.2525
 20
-61.2102
 30
0.0
 10
-124.2555
 20
-61.2102
 30
0.0
 10
-124.2555
 20
-61.2102
 30
0.0
  0
SPLINE
  5
58
330
1F
100
AcDbEntity
  8
layer 1
 62
     7
100
AcDbSpline
210
0.0
220
0.0
230
1.0
 70
    11
 71
     3
 72
    24
 73
    20
 74
     0
 42
0.0000000001
 43
0.0000000001
 12
1.0
 22
0.0
 32
0.0
 13
1.0
 23
0.0
 33
0.0
 40
0.0
 40
0.0
 40
0.0
 40
0.0
 40
0.1666666666666667
 40
0.1666666666666667
 40
0.1666666666666667
 40
0.1666666666666667
 40
0.3333333333333333
 40
0.3333333333333333
 40
0.3333333333333333
 40
0.3333333333333333
 40
0.5
 40
0.5
 40
0.5
 40
0.5
 40
0.6666666666666666
 40
0.6666666666666666
 40
0.6666666666666666
 40
0.6666666666666666
 40
1.0
 40
1.0
 40
1.0
 40
1.0
 10
-124.2555
 20
-40.642
 30
0.0
 10
-124.2555
 20
-40.642
 30
0.0
 10
-124.2555
 20
-24.5502
 30
0.0
 10
-124.2555
 20
-24.5502
 30
0.0
 10
-124.2555
 20
-24.5502
 30
0.0
 10
-124.2555
 20
-24.5502
 30
0.0
 10
-109.2525
 20
-24.5502
 30
0.0
 10
-109.2525
 20
-24.5502
 30
0.0
 10
-109.2525
 20
-24.5502
 30
0.0
 10
-109.2525
 20
-24.5502
 30
0.0
 10
-109.2525
 20
-40.0371
 30
0.0
 10
-109.2525
 20
-40.0371
 30
0.0
 10
-109.2525
 20
-40.0371
 30
0.0
 10
-109.3736
 20
-40.2788
 30
0.0
 10
-109.3736
 20
-40.3999
 30
0.0
 10
-109.4947
 20
-40.642
 30
0.0
 10
-109.4947
 20
-40.642
 30
0.0
 10
-109.4947
 20
-40.642
 30
0.0
 10
-124.2555
 20
-40.642
 30
0.0
 10
-124.2555
 20
-40.642
 30
0.0
  0
SPLINE
  5
59
330
1F
100
AcDbEntity
  8
layer 1
 62
     7
100
AcDbSpline
210
0.0
220
0.0
230
1.0
 70
    11
 71
     3
 72
    24
 73
    20
 74
     0
 42
0.0000000001
 43
0.0000000001
 12
1.0
 22
0.0
 32
0.0
 13
1.0
 23
0.0
 33
0.0
 40
0.0
 40
0.0
 40
0.0
 40
0.0
 40
0.1666666666666667
 40
0.1666666666666667
 40
0.1666666666666667
 40
0.1666666666666667
 40
0.3333333333333333
 40
0.3333333333333333
 40
0.3333333333333333
 40
0.3333333333333333
 40
0.5
 40
0.5
 40
0.5
 40
0.5
 40
0.6666666666666666
 40
0.6666666666666666
 40
0.6666666666666666
 40
0.6666666666666666
 40
1.0
 40
1.0
 40
1.0
 40
1.0
 10
-104.6551
 20
-33.3825
 30
0.0
 10
-104.6551
 20
-33.3825
 30
0.0
 10
-104.6551
 20
-24.5502
 30
0.0
 10
-104.6551
 20
-24.5502
 30
0.0
 10
-104.6551
 20
-24.5502
 30
0.0
 10
-104.6551
 20
-24.5502
 30
0.0
 10
-89.7733
 20
-24.5502
 30
0.0
 10
-89.7733
 20
-24.5502
 30
0.0
 10
-89.7733
 20
-24.5502
 30
0.0
 10
-89.7733
 20
-24.5502
 30
0.0
 10
-89.7733
 20
-33.1408
 30
0.0
 10
-89.7733
 20
-33.1408
 30
0.0
 10
-89.7733
 20
-33.1408
 30
0.0
 10
-91.83
 20
-31.6886
 30
0.0
 10
-94.3707
 20
-30.8419
 30
0.0
 10
-97.1535
 20
-30.8419
 30
0.0
 10
-97.1535
 20
-30.8419
 30
0.0
 10
-99.9363
 20
-30.8419
 30
0.0
 10
-102.598
 20
-31.8097
 30
0.0
 10
-104.6551
 20
-33.3825
 30
0.0
  0
SPLINE
  5
5A
330
1F
100
AcDbEntity
  8
layer 1
 62
     7
100
AcDbSpline
210
0.0
220
0.0
230
1.0
 70
    11
 71
     3
 72
    20
 73
    16
 74
     0
 42
0.0000000001
 43
0.0000000001
 12
1.0
 22
0.0
 32
0.0
 13
1.0
 23
0.0
 33
0.0
 40
0.0
 40
0.0
 40
0.0
 40
0.0
 40
0.2
 40
0.2
 40
0.2
 40
0.2
 40
0.4
 40
0.4
 40
0.4
 40
0.4
 40
0.6
 40
0.6
 40
0.6
 40
0.6
 40
1.0
 40
1.0
 40
1.0
 40
1.0
 10
-105.139
 20
-43.4248
 30
0.0
 10
-105.139
 20
-39.0692
 30
0.0
 10
-101.6302
 20
-35.4393
 30
0.0
 10
-97.1535
 20
-35.4393
 30
0.0
 10
-97.1535
 20
-35.4393
 30
0.0
 10
-92.6771
 20
-35.4393
 30
0.0
 10
-89.0472
 20
-39.0692
 30
0.0
 10
-89.0472
 20
-43.4248
 30
0.0
 10
-89.0472
 20
-43.4248
 30
0.0
 10
-89.0472
 20
-47.9012
 30
0.0
 10
-92.6771
 20
-51.5311
 30
0.0
 10
-97.1535
 20
-51.5311
 30
0.0
 10
-97.1535
 20
-51.5311
 30
0.0
 10
-101.6302
 20
-51.5311
 30
0.0
 10
-105.139
 20
-47.9012
 30
0.0
 10
-105.139
 20
-43.4248
 30
0.0
  0
SPLINE
  5
5B
330
1F
100
AcDbEntity
  8
layer 1
 62
     7
100
AcDbSpline
210
0.0
220
0.0
230
1.0
 70
    11
 71
     3
 72
    24
 73
    20
 74
     0
 42
0.0000000001
 43
0.0000000001
 12
1.0
 22
0.0
 32
0.0
 13
1.0
 23
0.0
 33
0.0
 40
0.0
 40
0.0
 40
0.0
 40
0.0
 40
0.1666666666666667
 40
0.1666666666666667
 40
0.1666666666666667
 40
0.1666666666666667
 40
0.3333333333333333
 40
0.3333333333333333
 40
0.3333333333333333
 40
0.3333333333333333
 40
0.5
 40
0.5
 40
0.5
 40
0.5
 40
0.6666666666666666
 40
0.6666666666666666
 40
0.6666666666666666
 40
0.6666666666666666
 40
1.0
 40
1.0
 40
1.0
 40
1.0
 10
-55.291
 20
-8.5798
 30
0.0
 10
-55.291
 20
-8.5798
 30
0.0
 10
-55.291
 20
-3.861
 30
0.0
 10
-55.291
 20
-3.861
 30
0.0
 10
-55.291
 20
-3.861
 30
0.0
 10
-55.291
 20
-3.861
 30
0.0
 10
-43.797
 20
-3.861
 30
0.0
 10
-43.797
 20
-3.861
 30
0.0
 10
-43.797
 20
-3.861
 30
0.0
 10
-43.797
 20
-3.861
 30
0.0
 10
-43.797
 20
-19.9528
 30
0.0
 10
-43.797
 20
-19.9528
 30
0.0
 10
-43.797
 20
-19.9528
 30
0.0
 10
-43.797
 20
-19.9528
 30
0.0
 10
-46.4587
 20
-19.9528
 30
0.0
 10
-46.4587
 20
-19.9528
 30
0.0
 10
-46.4587
 20
-19.9528
 30
0.0
 10
-46.8219
 20
-14.6293
 30
0.0
 10
-50.4515
 20
-10.1526
 30
0.0
 10
-55.291
 20
-8.5798
 30
0.0
  0
SPLINE
  5
5C
330
1F
100
AcDbEntity
  8
layer 1
 62
     7
100
AcDbSpline
210
0.0
220
0.0
230
1.0
 70
    11
 71
     3
 72
    24
 73
    20
 74
     0
 42
0.0000000001
 43
0.0000000001
 12
1.0
 22
0.0
 32
0.0
 13
1.0
 23
0.0
 33
0.0
 40
0.0
 40
0.0
 40
0.0
 40
0.0
 40
0.1666666666666667
 40
0.1666666666666667
 40
0.1666666666666667
 40
0.1666666666666667
 40
0.3333333333333333
 40
0.3333333333333333
 40
0.3333333333333333
 40
0.3333333333333333
 40
0.5
 40
0.5
 40
0.5
 40
0.5
 40
0.6666666666666666
 40
0.6666666666666666
 40
0.6666666666666666
 40
0.6666666666666666
 40
1.0
 40
1.0
 40
1.0
 40
1.0
 10
-85.1755
 20
-19.9528
 30
0.0
 10
-85.1755
 20
-19.9528
 30
0.0
 10
-85.1755
 20
-3.861
 30
0.0
 10
-85.1755
 20
-3.861
 30
0.0
 10
-85.1755
 20
-3.861
 30
0.0
 10
-85.1755
 20
-3.861
 30
0.0
 10
-59.8888
 20
-3.861
 30
0.0
 10
-59.8888
 20
-3.861
 30
0.0
 10
-59.8888
 20
-3.861
 30
0.0
 10
-59.8888
 20
-3.861
 30
0.0
 10
-59.8888
 20
-7.9748
 30
0.0
 10
-59.8888
 20
-7.9748
 30
0.0
 10
-59.8888
 20
-7.9748
 30
0.0
 10
-66.3012
 20
-8.4587
 30
0.0
 10
-71.3829
 20
-13.5404
 30
0.0
 10
-71.7457
 20
-19.9528
 30
0.0
 10
-71.7457
 20
-19.9528
 30
0.0
 10
-71.7457
 20
-19.9528
 30
0.0
 10
-85.1755
 20
-19.9528
 30
0.0
 10
-85.1755
 20
-19.9528
 30
0.0
  0
SPLINE
  5
5D
330
1F
100
AcDbEntity
  8
layer 1
 62
     7
100
AcDbSpline
210
0.0
220
0.0
230
1.0
 70
    11
 71
     3
 72
    20
 73
    16
 74
     0
 42
0.0000000001
 43
0.0000000001
 12
1.0
 22
0.0
 32
0.0
 13
1.0
 23
0.0
 33
0.0
 40
0.0
 40
0.0
 40
0.0
 40
0.0
 40
0.2
 40
0.2
 40
0.2
 40
0.2
 40
0.4
 40
0.4
 40
0.4
 40
0.4
 40
0.6
 40
0.6
 40
0.6
 40
0.6
 40
1.0
 40
1.0
 40
1.0
 40
1.0
 10
-67.148
 20
-20.6785
 30
0.0
 10
-67.148
 20
-16.2021
 30
0.0
 10
-63.5184
 20
-12.5722
 30
0.0
 10
-59.1628
 20
-12.5722
 30
0.0
 10
-59.1628
 20
-12.5722
 30
0.0
 10
-54.6861
 20
-12.5722
 30
0.0
 10
-51.0565
 20
-16.2021
 30
0.0
 10
-51.0565
 20
-20.6785
 30
0.0
 10
-51.0565
 20
-20.6785
 30
0.0
 10
-51.0565
 20
-25.0341
 30
0.0
 10
-54.6861
 20
-28.6641
 30
0.0
 10
-59.1628
 20
-28.6641
 30
0.0
 10
-59.1628
 20
-28.6641
 30
0.0
 10
-63.5184
 20
-28.6641
 30
0.0
 10
-67.148
 20
-25.0341
 30
0.0
 10
-67.148
 20
-20.6785
 30
0.0
  0
SPLINE
  5
5E
330
1F
100
AcDbEntity
  8
layer 1
 62
     7
100
AcDbSpline
210
0.0
220
0.0
230
1.0
 70
    11
 71
     3
 72
    24
 73
    20
 74
     0
 42
0.0000000001
 43
0.0000000001
 12
1.0
 22
0.0
 32
0.0
 13
1.0
 23
0.0
 33
0.0
 40
0.0
 40
0.0
 40
0.0
 40
0.0
 40
0.1666666666666667
 40
0.1666666666666667
 40
0.1666666666666667
 40
0.1666666666666667
 40
0.3333333333333333
 40
0.3333333333333333
 40
0.3333333333333333
 40
0.3333333333333333
 40
0.5
 40
0.5
 40
0.5
 40
0.5
 40
0.6666666666666666
 40
0.6666666666666666
 40
0.6666666666666666
 40
0.6666666666666666
 40
1.0
 40
1.0
 40
1.0
 40
1.0
 10
-85.1755
 20
83.4935
 30
0.0
 10
-85.1755
 20
83.4935
 30
0.0
 10
-85.1755
 20
99.5853
 30
0.0
 10
-85.1755
 20
99.5853
 30
0.0
 10
-85.1755
 20
99.5853
 30
0.0
 10
-85.1755
 20
99.5853
 30
0.0
 10
-59.8888
 20
99.5853
 30
0.0
 10
-59.8888
 20
99.5853
 30
0.0
 10
-59.8888
 20
99.5853
 30
0.0
 10
-59.8888
 20
99.5853
 30
0.0
 10
-59.8888
 20
83.4935
 30
0.0
 10
-59.8888
 20
83.4935
 30
0.0
 10
-59.8888
 20
83.4935
 30
0.0
 10
-59.8888
 20
83.4935
 30
0.0
 10
-85.1755
 20
83.4935
 30
0.0
 10
-85.1755
 20
83.4935
 30
0.0
 10
-85.1755
 20
83.4935
 30
0.0
 10
-85.1755
 20
83.4935
 30
0.0
 10
-85.1755
 20
83.4935
 30
0.0
 10
-85.1755
 20
83.4935
 30
0.0
  0
SPLINE
  5
5F
330
1F
100
AcDbEntity
  8
layer 1
 62
     7
100
AcDbSpline
210
0.0
220
0.0
230
1.0
 70
    11
 71
     3
 72
    32
 73
    28
 74
     0
 42
0.0000000001
 43
0.0000000001
 12
1.0
 22
0.0
 32
0.0
 13
1.0
 23
0.0
 33
0.0
 40
0.0
 40
0.0
 40
0.0
 40
0.0
 40
0.125
 40
0.125
 40
0.125
 40
0.125
 40
0.25
 40
0.25
 40
0.25
 40
0.25
 40
0.375
 40
0.375
 40
0.375
 40
0.375
 40
0.5
 40
0.5
 40
0.5
 40
0.5
 40
0.625
 40
0.625
 40
0.625
 40
0.625
 40
0.75
 40
0.75
 40
0.75
 40
0.75
 40
1.0
 40
1.0
 40
1.0
 40
1.0
 10
-82.1509
 20
78.8961
 30
0.0
 10
-82.1509
 20
78.8961
 30
0.0
 10
-59.8888
 20
78.8961
 30
0.0
 10
-59.8888
 20
78.8961
 30
0.0
 10
-59.8888
 20
78.8961
 30
0.0
 10
-59.8888
 20
78.8961
 30
0.0
 10
-59.8888
 20
72.9676
 30
0.0
 10
-59.8888
 20
72.9676
 30
0.0
 10
-59.8888
 20
72.9676
 30
0.0
 10
-60.1306
 20
72.9676
 30
0.0
 10
-60.3727
 20
72.9676
 30
0.0
 10
-60.4938
 20
72.9676
 30
0.0
 10
-60.4938
 20
72.9676
 30
0.0
 10
-66.6641
 20
72.9676
 30
0.0
 10
-71.7457
 20
68.612
 30
0.0
 10
-72.9557
 20
62.8042
 30
0.0
 10
-72.9557
 20
62.8042
 30
0.0
 10
-72.9557
 20
62.8042
 30
0.0
 10
-82.0298
 20
62.8042
 30
0.0
 10
-82.0298
 20
62.8042
 30
0.0
 10
-82.0298
 20
62.8042
 30
0.0
 10
-80.9409
 20
65.2242
 30
0.0
 10
-80.3359
 20
67.8859
 30
0.0
 10
-80.3359
 20
70.6687
 30
0.0
 10
-80.3359
 20
70.6687
 30
0.0
 10
-80.3359
 20
73.5723
 30
0.0
 10
-80.9409
 20
76.3551
 30
0.0
 10
-82.1509
 20
78.8961
 30
0.0
  0
SPLINE
  5
60
330
1F
100
AcDbEntity
  8
layer 1
 62
     7
100
AcDbSpline
210
0.0
220
0.0
230
1.0
 70
    11
 71
     3
 72
    32
 73
    28
 74
     0
 42
0.0000000001
 43
0.0000000001
 12
1.0
 22
0.0
 32
0.0
 13
1.0
 23
0.0
 33
0.0
 40
0.0
 40
0.0
 40
0.0
 40
0.0
 40
0.125
 40
0.125
 40
0.125
 40
0.125
 40
0.25
 40
0.25
 40
0.25
 40
0.25
 40
0.375
 40
0.375
 40
0.375
 40
0.375
 40
0.5
 40
0.5
 40
0.5
 40
0.5
 40
0.625
 40
0.625
 40
0.625
 40
0.625
 40
0.75
 40
0.75
 40
0.75
 40
0.75
 40
1.0
 40
1.0
 40
1.0
 40
1.0
 10
-85.1755
 20
42.115
 30
0.0
 10
-85.1755
 20
42.115
 30
0.0
 10
-85.1755
 20
57.8436
 30
0.0
 10
-85.1755
 20
57.8436
 30
0.0
 10
-85.1755
 20
57.8436
 30
0.0
 10
-85.0548
 20
57.9647
 30
0.0
 10
-84.9337
 20
58.0858
 30
0.0
 10
-84.8126
 20
58.2068
 30
0.0
 10
-84.8126
 20
58.2068
 30
0.0
 10
-84.8126
 20
58.2068
 30
0.0
 10
-72.9557
 20
58.2068
 30
0.0
 10
-72.9557
 20
58.2068
 30
0.0
 10
-72.9557
 20
58.2068
 30
0.0
 10
-71.9879
 20
52.2784
 30
0.0
 10
-66.7851
 20
47.6806
 30
0.0
 10
-60.4938
 20
47.6806
 30
0.0
 10
-60.4938
 20
47.6806
 30
0.0
 10
-60.3727
 20
47.6806
 30
0.0
 10
-60.1306
 20
47.6806
 30
0.0
 10
-59.8888
 20
47.6806
 30
0.0
 10
-59.8888
 20
47.6806
 30
0.0
 10
-59.8888
 20
47.6806
 30
0.0
 10
-59.8888
 20
42.115
 30
0.0
 10
-59.8888
 20
42.115
 30
0.0
 10
-59.8888
 20
42.115
 30
0.0
 10
-59.8888
 20
42.115
 30
0.0
 10
-85.1755
 20
42.115
 30
0.0
 10
-85.1755
 20
42.115
 30
0.0
  0
SPLINE
  5
61
330
1F
100
AcDbEntity
  8
layer 1
 62
     7
100
AcDbSpline
210
0.0
220
0.0
230
1.0
 70
    11
 71
     3
 72
    24
 73
    20
 74
     0
 42
0.0000000001
 43
0.0000000001
 12
1.0
 22
0.0
 32
0.0
 13
1.0
 23
0.0
 33
0.0
 40
0.0
 40
0.0
 40
0.0
 40
0.0
 40
0.1666666666666667
 40
0.1666666666666667
 40
0.1666666666666667
 40
0.1666666666666667
 40
0.3333333333333333
 40
0.3333333333333333
 40
0.3333333333333333
 40
0.3333333333333333
 40
0.5
 40
0.5
 40
0.5
 40
0.5
 40
0.6666666666666666
 40
0.6666666666666666
 40
0.6666666666666666
 40
0.6666666666666666
 40
1.0
 40
1.0
 40
1.0
 40
1.0
 10
-104.6551
 20
42.115
 30
0.0
 10
-104.6551
 20
42.115
 30
0.0
 10
-104.6551
 20
51.7941
 30
0.0
 10
-104.6551
 20
51.7941
 30
0.0
 10
-104.6551
 20
51.7941
 30
0.0
 10
-103.203
 20
51.4312
 30
0.0
 10
-101.5091
 20
51.1894
 30
0.0
 10
-99.8152
 20
51.1894
 30
0.0
 10
-99.8152
 20
51.1894
 30
0.0
 10
-96.1856
 20
51.1894
 30
0.0
 10
-92.6771
 20
52.2784
 30
0.0
 10
-89.7733
 20
53.9719
 30
0.0
 10
-89.7733
 20
53.9719
 30
0.0
 10
-89.7733
 20
53.9719
 30
0.0
 10
-89.7733
 20
42.115
 30
0.0
 10
-89.7733
 20
42.115
 30
0.0
 10
-89.7733
 20
42.115
 30
0.0
 10
-89.7733
 20
42.115
 30
0.0
 10
-104.6551
 20
42.115
 30
0.0
 10
-104.6551
 20
42.115
 30
0.0
  0
SPLINE
  5
62
330
1F
100
AcDbEntity
  8
layer 1
 62
     7
100
AcDbSpline
210
0.0
220
0.0
230
1.0
 70
    11
 71
     3
 72
    24
 73
    20
 74
     0
 42
0.0000000001
 43
0.0000000001
 12
1.0
 22
0.0
 32
0.0
 13
1.0
 23
0.0
 33
0.0
 40
0.0
 40
0.0
 40
0.0
 40
0.0
 40
0.1666666666666667
 40
0.1666666666666667
 40
0.1666666666666667
 40
0.1666666666666667
 40
0.3333333333333333
 40
0.3333333333333333
 40
0.3333333333333333
 40
0.3333333333333333
 40
0.5
 40
0.5
 40
0.5
 40
0.5
 40
0.6666666666666666
 40
0.6666666666666666
 40
0.6666666666666666
 40
0.6666666666666666
 40
1.0
 40
1.0
 40
1.0
 40
1.0
 10
-124.2555
 20
42.115
 30
0.0
 10
-124.2555
 20
42.115
 30
0.0
 10
-124.2555
 20
58.2068
 30
0.0
 10
-124.2555
 20
58.2068
 30
0.0
 10
-124.2555
 20
58.2068
 30
0.0
 10
-124.2555
 20
58.2068
 30
0.0
 10
-114.8181
 20
58.2068
 30
0.0
 10
-114.8181
 20
58.2068
 30
0.0
 10
-114.8181
 20
58.2068
 30
0.0
 10
-113.2453
 20
56.3919
 30
0.0
 10
-111.4304
 20
54.819
 30
0.0
 10
-109.2525
 20
53.6091
 30
0.0
 10
-109.2525
 20
53.6091
 30
0.0
 10
-109.2525
 20
53.6091
 30
0.0
 10
-109.2525
 20
42.115
 30
0.0
 10
-109.2525
 20
42.115
 30
0.0
 10
-109.2525
 20
42.115
 30
0.0
 10
-109.2525
 20
42.115
 30
0.0
 10
-124.2555
 20
42.115
 30
0.0
 10
-124.2555
 20
42.115
 30
0.0
  0
SPLINE
  5
63
330
1F
100
AcDbEntity
  8
layer 1
 62
     7
100
AcDbSpline
210
0.0
220
0.0
230
1.0
 70
    11
 71
     3
 72
    24
 73
    20
 74
     0
 42
0.0000000001
 43
0.0000000001
 12
1.0
 22
0.0
 32
0.0
 13
1.0
 23
0.0
 33
0.0
 40
0.0
 40
0.0
 40
0.0
 40
0.0
 40
0.1666666666666667
 40
0.1666666666666667
 40
0.1666666666666667
 40
0.1666666666666667
 40
0.3333333333333333
 40
0.3333333333333333
 40
0.3333333333333333
 40
0.3333333333333333
 40
0.5
 40
0.5
 40
0.5
 40
0.5
 40
0.6666666666666666
 40
0.6666666666666666
 40
0.6666666666666666
 40
0.6666666666666666
 40
1.0
 40
1.0
 40
1.0
 40
1.0
 10
-124.2555
 20
62.8042
 30
0.0
 10
-124.2555
 20
62.8042
 30
0.0
 10
-124.2555
 20
78.8961
 30
0.0
 10
-124.2555
 20
78.8961
 30
0.0
 10
-124.2555
 20
78.8961
 30
0.0
 10
-124.2555
 20
78.8961
 30
0.0
 10
-117.4799
 20
78.8961
 30
0.0
 10
-117.4799
 20
78.8961
 30
0.0
 10
-117.4799
 20
78.8961
 30
0.0
 10
-118.6899
 20
76.3551
 30
0.0
 10
-119.2948
 20
73.5723
 30
0.0
 10
-119.2948
 20
70.6687
 30
0.0
 10
-119.2948
 20
70.6687
 30
0.0
 10
-119.2948
 20
67.8859
 30
0.0
 10
-118.6899
 20
65.2242
 30
0.0
 10
-117.722
 20
62.8042
 30
0.0
 10
-117.722
 20
62.8042
 30
0.0
 10
-117.722
 20
62.8042
 30
0.0
 10
-124.2555
 20
62.8042
 30
0.0
 10
-124.2555
 20
62.8042
 30
0.0
  0
SPLINE
  5
64
330
1F
100
AcDbEntity
  8
layer 1
 62
     7
100
AcDbSpline
210
0.0
220
0.0
230
1.0
 70
    11
 71
     3
 72
    24
 73
    20
 74
     0
 42
0.0000000001
 43
0.0000000001
 12
1.0
 22
0.0
 32
0.0
 13
1.0
 23
0.0
 33
0.0
 40
0.0
 40
0.0
 40
0.0
 40
0.0
 40
0.1666666666666667
 40
0.1666666666666667
 40
0.1666666666666667
 40
0.1666666666666667
 40
0.3333333333333333
 40
0.3333333333333333
 40
0.3333333333333333
 40
0.3333333333333333
 40
0.5
 40
0.5
 40
0.5
 40
0.5
 40
0.6666666666666666
 40
0.6666666666666666
 40
0.6666666666666666
 40
0.6666666666666666
 40
1.0
 40
1.0
 40
1.0
 40
1.0
 10
-124.2555
 20
83.4935
 30
0.0
 10
-124.2555
 20
83.4935
 30
0.0
 10
-124.2555
 20
99.5853
 30
0.0
 10
-124.2555
 20
99.5853
 30
0.0
 10
-124.2555
 20
99.5853
 30
0.0
 10
-124.2555
 20
99.5853
 30
0.0
 10
-109.2525
 20
99.5853
 30
0.0
 10
-109.2525
 20
99.5853
 30
0.0
 10
-109.2525
 20
99.5853
 30
0.0
 10
-109.2525
 20
99.5853
 30
0.0
 10
-109.2525
 20
87.7281
 30
0.0
 10
-109.2525
 20
87.7281
 30
0.0
 10
-109.2525
 20
87.7281
 30
0.0
 10
-111.3093
 20
86.6392
 30
0.0
 10
-113.1243
 20
85.1874
 30
0.0
 10
-114.576
 20
83.4935
 30
0.0
 10
-114.576
 20
83.4935
 30
0.0
 10
-114.576
 20
83.4935
 30
0.0
 10
-124.2555
 20
83.4935
 30
0.0
 10
-124.2555
 20
83.4935
 30
0.0
  0
SPLINE
  5
65
330
1F
100
AcDbEntity
  8
layer 1
 62
     7
100
AcDbSpline
210
0.0
220
0.0
230
1.0
 70
    11
 71
     3
 72
    24
 73
    20
 74
     0
 42
0.0000000001
 43
0.0000000001
 12
1.0
 22
0.0
 32
0.0
 13
1.0
 23
0.0
 33
0.0
 40
0.0
 40
0.0
 40
0.0
 40
0.0
 40
0.1666666666666667
 40
0.1666666666666667
 40
0.1666666666666667
 40
0.1666666666666667
 40
0.3333333333333333
 40
0.3333333333333333
 40
0.3333333333333333
 40
0.3333333333333333
 40
0.5
 40
0.5
 40
0.5
 40
0.5
 40
0.6666666666666666
 40
0.6666666666666666
 40
0.6666666666666666
 40
0.6666666666666666
 40
1.0
 40
1.0
 40
1.0
 40
1.0
 10
-104.6551
 20
89.543
 30
0.0
 10
-104.6551
 20
89.543
 30
0.0
 10
-104.6551
 20
99.5853
 30
0.0
 10
-104.6551
 20
99.5853
 30
0.0
 10
-104.6551
 20
99.5853
 30
0.0
 10
-104.6551
 20
99.5853
 30
0.0
 10
-89.7733
 20
99.5853
 30
0.0
 10
-89.7733
 20
99.5853
 30
0.0
 10
-89.7733
 20
99.5853
 30
0.0
 10
-89.7733
 20
99.5853
 30
0.0
 10
-89.7733
 20
87.3652
 30
0.0
 10
-89.7733
 20
87.3652
 30
0.0
 10
-89.7733
 20
87.3652
 30
0.0
 10
-92.6771
 20
89.1802
 30
0.0
 10
-96.1856
 20
90.148
 30
0.0
 10
-99.8152
 20
90.148
 30
0.0
 10
-99.8152
 20
90.148
 30
0.0
 10
-101.5091
 20
90.148
 30
0.0
 10
-103.203
 20
90.0269
 30
0.0
 10
-104.6551
 20
89.543
 30
0.0
  0
SPLINE
  5
66
330
1F
100
AcDbEntity
  8
layer 1
 62
     7
100
AcDbSpline
210
0.0
220
0.0
230
1.0
 70
    11
 71
     3
 72
    20
 73
    16
 74
     0
 42
0.0000000001
 43
0.0000000001
 12
1.0
 22
0.0
 32
0.0
 13
1.0
 23
0.0
 33
0.0
 40
0.0
 40
0.0
 40
0.0
 40
0.0
 40
0.2
 40
0.2
 40
0.2
 40
0.2
 40
0.4
 40
0.4
 40
0.4
 40
0.4
 40
0.6
 40
0.6
 40
0.6
 40
0.6
 40
1.0
 40
1.0
 40
1.0
 40
1.0
 10
-114.6971
 20
70.6687
 30
0.0
 10
-114.6971
 20
78.8961
 30
0.0
 10
-108.0426
 20
85.5502
 30
0.0
 10
-99.8152
 20
85.5502
 30
0.0
 10
-99.8152
 20
85.5502
 30
0.0
 10
-91.5882
 20
85.5502
 30
0.0
 10
-84.9337
 20
78.8961
 30
0.0
 10
-84.9337
 20
70.6687
 30
0.0
 10
-84.9337
 20
70.6687
 30
0.0
 10
-84.9337
 20
62.4414
 30
0.0
 10
-91.5882
 20
55.7869
 30
0.0
 10
-99.8152
 20
55.7869
 30
0.0
 10
-99.8152
 20
55.7869
 30
0.0
 10
-108.0426
 20
55.7869
 30
0.0
 10
-114.6971
 20
62.4414
 30
0.0
 10
-114.6971
 20
70.6687
 30
0.0
  0
SPLINE
  5
67
330
1F
100
AcDbEntity
  8
layer 1
 62
     7
100
AcDbSpline
210
0.0
220
0.0
230
1.0
 70
    11
 71
     3
 72
    20
 73
    16
 74
     0
 42
0.0000000001
 43
0.0000000001
 12
1.0
 22
0.0
 32
0.0
 13
1.0
 23
0.0
 33
0.0
 40
0.0
 40
0.0
 40
0.0
 40
0.0
 40
0.2
 40
0.2
 40
0.2
 40
0.2
 40
0.4
 40
0.4
 40
0.4
 40
0.4
 40
0.6
 40
0.6
 40
0.6
 40
0.6
 40
1.0
 40
1.0
 40
1.0
 40
1.0
 10
-104.6551
 20
32.5569
 30
0.0
 10
-104.6551
 20
32.5569
 30
0.0
 10
-104.6551
 20
37.5803
 30
0.0
 10
-104.6551
 20
37.5803
 30
0.0
 10
-104.6551
 20
37.5803
 30
0.0
 10
-104.6551
 20
37.5803
 30
0.0
 10
-89.7126
 20
37.5803
 30
0.0
 10
-89.7126
 20
37.5803
 30
0.0
 10
-89.7126
 20
37.5803
 30
0.0
 10
-89.7126
 20
37.5803
 30
0.0
 10
-89.7126
 20
32.5569
 30
0.0
 10
-89.7126
 20
32.5569
 30
0.0
 10
-89.7126
 20
32.5569
 30
0.0
 10
-89.7126
 20
32.5569
 30
0.0
 10
-104.6551
 20
32.5569
 30
0.0
 10
-104.6551
 20
32.5569
 30
0.0
  0
SPLINE
  5
68
330
1F
100
AcDbEntity
  8
layer 1
 62
     7
100
AcDbSpline
210
0.0
220
0.0
230
1.0
 70
    11
 71
     3
 72
    20
 73
    16
 74
     0
 42
0.0000000001
 43
0.0000000001
 12
1.0
 22
0.0
 32
0.0
 13
1.0
 23
0.0
 33
0.0
 40
0.0
 40
0.0
 40
0.0
 40
0.0
 40
0.2
 40
0.2
 40
0.2
 40
0.2
 40
0.4
 40
0.4
 40
0.4
 40
0.4
 40
0.6
 40
0.6
 40
0.6
 40
0.6
 40
1.0
 40
1.0
 40
1.0
 40
1.0
 10
-104.6551
 20
0.7365
 30
0.0
 10
-104.6551
 20
0.7365
 30
0.0
 10
-104.6551
 20
6.0517
 30
0.0
 10
-104.6551
 20
6.0517
 30
0.0
 10
-104.6551
 20
6.0517
 30
0.0
 10
-104.6551
 20
6.0517
 30
0.0
 10
-89.7126
 20
6.0517
 30
0.0
 10
-89.7126
 20
6.0517
 30
0.0
 10
-89.7126
 20
6.0517
 30
0.0
 10
-89.7126
 20
6.0517
 30
0.0
 10
-89.7126
 20
0.7365
 30
0.0
 10
-89.7126
 20
0.7365
 30
0.0
 10
-89.7126
 20
0.7365
 30
0.0
 10
-89.7126
 20
0.7365
 30
0.0
 10
-104.6551
 20
0.7365
 30
0.0
 10
-104.6551
 20
0.7365
 30
0.0
  0
SPLINE
  5
69
330
1F
100
AcDbEntity
  8
layer 1
 62
     7
100
AcDbSpline
210
0.0
220
0.0
230
1.0
 70
    11
 71
     3
 72
    28
 73
    24
 74
     0
 42
0.0000000001
 43
0.0000000001
 12
1.0
 22
0.0
 32
0.0
 13
1.0
 23
0.0
 33
0.0
 40
0.0
 40
0.0
 40
0.0
 40
0.0
 40
0.1428571428571428
 40
0.1428571428571428
 40
0.1428571428571428
 40
0.1428571428571428
 40
0.2857142857142857
 40
0.2857142857142857
 40
0.2857142857142857
 40
0.2857142857142857
 40
0.4285714285714285
 40
0.4285714285714285
 40
0.4285714285714285
 40
0.4285714285714285
 40
0.5714285714285714
 40
0.5714285714285714
 40
0.5714285714285714
 40
0.5714285714285714
 40
0.7142857142857143
 40
0.7142857142857143
 40
0.7142857142857143
 40
0.7142857142857143
 40
1.0
 40
1.0
 40
1.0
 40
1.0
 10
-85.1755
 20
0.7365
 30
0.0
 10
-85.1755
 20
0.7365
 30
0.0
 10
-85.1755
 20
6.0599
 30
0.0
 10
-85.1755
 20
6.0599
 30
0.0
 10
-85.1755
 20
6.0599
 30
0.0
 10
-85.1755
 20
6.0599
 30
0.0
 10
-73.1975
 20
6.0599
 30
0.0
 10
-73.1975
 20
6.0599
 30
0.0
 10
-73.1975
 20
6.0599
 30
0.0
 10
-73.1975
 20
6.0599
 30
0.0
 10
-73.1975
 20
16.8283
 30
0.0
 10
-73.1975
 20
16.8283
 30
0.0
 10
-73.1975
 20
16.8283
 30
0.0
 10
-73.1975
 20
16.8283
 30
0.0
 10
-59.8888
 20
16.8283
 30
0.0
 10
-59.8888
 20
16.8283
 30
0.0
 10
-59.8888
 20
16.8283
 30
0.0
 10
-59.8888
 20
16.8283
 30
0.0
 10
-59.8888
 20
0.7365
 30
0.0
 10
-59.8888
 20
0.7365
 30
0.0
 10
-59.8888
 20
0.7365
 30
0.0
 10
-59.8888
 20
0.7365
 30
0.0
 10
-85.1755
 20
0.7365
 30
0.0
 10
-85.1755
 20
0.7365
 30
0.0
  0
SPLINE
  5
6A
330
1F
100
AcDbEntity
  8
layer 1
 62
     7
100
AcDbSpline
210
0.0
220
0.0
230
1.0
 70
    11
 71
     3
 72
    28
 73
    24
 74
     0
 42
0.0000000001
 43
0.0000000001
 12
1.0
 22
0.0
 32
0.0
 13
1.0
 23
0.0
 33
0.0
 40
0.0
 40
0.0
 40
0.0
 40
0.0
 40
0.1428571428571428
 40
0.1428571428571428
 40
0.1428571428571428
 40
0.1428571428571428
 40
0.2857142857142857
 40
0.2857142857142857
 40
0.2857142857142857
 40
0.2857142857142857
 40
0.4285714285714285
 40
0.4285714285714285
 40
0.4285714285714285
 40
0.4285714285714285
 40
0.5714285714285714
 40
0.5714285714285714
 40
0.5714285714285714
 40
0.5714285714285714
 40
0.7142857142857143
 40
0.7142857142857143
 40
0.7142857142857143
 40
0.7142857142857143
 40
1.0
 40
1.0
 40
1.0
 40
1.0
 10
-85.1755
 20
32.5569
 30
0.0
 10
-85.1755
 20
32.5569
 30
0.0
 10
-85.1755
 20
37.5176
 30
0.0
 10
-85.1755
 20
37.5176
 30
0.0
 10
-85.1755
 20
37.5176
 30
0.0
 10
-85.1755
 20
37.5176
 30
0.0
 10
-59.8888
 20
37.5176
 30
0.0
 10
-59.8888
 20
37.5176
 30
0.0
 10
-59.8888
 20
37.5176
 30
0.0
 10
-59.8888
 20
37.5176
 30
0.0
 10
-59.8888
 20
21.4257
 30
0.0
 10
-59.8888
 20
21.4257
 30
0.0
 10
-59.8888
 20
21.4257
 30
0.0
 10
-59.8888
 20
21.4257
 30
0.0
 10
-73.1975
 20
21.4257
 30
0.0
 10
-73.1975
 20
21.4257
 30
0.0
 10
-73.1975
 20
21.4257
 30
0.0
 10
-73.1975
 20
21.4257
 30
0.0
 10
-73.1975
 20
32.5569
 30
0.0
 10
-73.1975
 20
32.5569
 30
0.0
 10
-73.1975
 20
32.5569
 30
0.0
 10
-73.1975
 20
32.5569
 30
0.0
 10
-85.1755
 20
32.5569
 30
0.0
 10
-85.1755
 20
32.5569
 30
0.0
  0
SPLINE
  5
6B
330
1F
100
AcDbEntity
  8
layer 1
 62
     7
100
AcDbSpline
210
0.0
220
0.0
230
1.0
 70
    11
 71
     3
 72
    20
 73
    16
 74
     0
 42
0.0000000001
 43
0.0000000001
 12
1.0
 22
0.0
 32
0.0
 13
1.0
 23
0.0
 33
0.0
 40
0.0
 40
0.0
 40
0.0
 40
0.0
 40
0.2
 40
0.2
 40
0.2
 40
0.2
 40
0.4
 40
0.4
 40
0.4
 40
0.4
 40
0.6
 40
0.6
 40
0.6
 40
0.6
 40
1.0
 40
1.0
 40
1.0
 40
1.0
 10
-100.7834
 20
10.6577
 30
0.0
 10
-100.7834
 20
10.6577
 30
0.0
 10
-100.7834
 20
27.8868
 30
0.0
 10
-100.7834
 20
27.8868
 30
0.0
 10
-100.7834
 20
27.8868
 30
0.0
 10
-100.7834
 20
27.8868
 30
0.0
 10
-77.8073
 20
27.8868
 30
0.0
 10
-77.8073
 20
27.8868
 30
0.0
 10
-77.8073
 20
27.8868
 30
0.0
 10
-77.8073
 20
27.8868
 30
0.0
 10
-77.8073
 20
10.6577
 30
0.0
 10
-77.8073
 20
10.6577
 30
0.0
 10
-77.8073
 20
10.6577
 30
0.0
 10
-77.8073
 20
10.6577
 30
0.0
 10
-100.7834
 20
10.6577
 30
0.0
 10
-100.7834
 20
10.6577
 30
0.0
  0
SPLINE
  5
6C
330
1F
100
AcDbEntity
  8
layer 1
 62
     7
100
AcDbSpline
210
0.0
220
0.0
230
1.0
 70
    11
 71
     3
 72
    24
 73
    20
 74
     0
 42
0.0000000001
 43
0.0000000001
 12
1.0
 22
0.0
 32
0.0
 13
1.0
 23
0.0
 33
0.0
 40
0.0
 40
0.0
 40
0.0
 40
0.0
 40
0.1666666666666667
 40
0.1666666666666667
 40
0.1666666666666667
 40
0.1666666666666667
 40
0.3333333333333333
 40
0.3333333333333333
 40
0.3333333333333333
 40
0.3333333333333333
 40
0.5
 40
0.5
 40
0.5
 40
0.5
 40
0.6666666666666666
 40
0.6666666666666666
 40
0.6666666666666666
 40
0.6666666666666666
 40
1.0
 40
1.0
 40
1.0
 40
1.0
 10
-55.291
 20
-40.642
 30
0.0
 10
-55.291
 20
-40.642
 30
0.0
 10
-55.291
 20
-32.6565
 30
0.0
 10
-55.291
 20
-32.6565
 30
0.0
 10
-55.291
 20
-32.6565
 30
0.0
 10
-51.4193
 20
-31.4469
 30
0.0
 10
-48.3947
 20
-28.4219
 30
0.0
 10
-47.0637
 20
-24.5502
 30
0.0
 10
-47.0637
 20
-24.5502
 30
0.0
 10
-47.0637
 20
-24.5502
 30
0.0
 10
-43.797
 20
-24.5502
 30
0.0
 10
-43.797
 20
-24.5502
 30
0.0
 10
-43.797
 20
-24.5502
 30
0.0
 10
-43.797
 20
-24.5502
 30
0.0
 10
-43.797
 20
-40.642
 30
0.0
 10
-43.797
 20
-40.642
 30
0.0
 10
-43.797
 20
-40.642
 30
0.0
 10
-43.797
 20
-40.642
 30
0.0
 10
-55.291
 20
-40.642
 30
0.0
 10
-55.291
 20
-40.642
 30
0.0
  0
SPLINE
  5
6D
330
1F
100
AcDbEntity
  8
layer 1
 62
     7
100
AcDbSpline
210
0.0
220
0.0
230
1.0
 70
    11
 71
     3
 72
    16
 73
    12
 74
     0
 42
0.0000000001
 43
0.0000000001
 12
1.0
 22
0.0
 32
0.0
 13
1.0
 23
0.0
 33
0.0
 40
0.0
 40
0.0
 40
0.0
 40
0.0
 40
0.25
 40
0.25
 40
0.25
 40
0.25
 40
0.5
 40
0.5
 40
0.5
 40
0.5
 40
1.0
 40
1.0
 40
1.0
 40
1.0
 10
-49.3626
 20
-45.1187
 30
0.0
 10
-49.3626
 20
-45.1187
 30
0.0
 10
-43.797
 20
-45.1187
 30
0.0
 10
-43.797
 20
-45.1187
 30
0.0
 10
-43.797
 20
-45.1187
 30
0.0
 10
-43.797
 20
-45.1187
 30
0.0
 10
-43.797
 20
-52.7411
 30
0.0
 10
-43.797
 20
-52.7411
 30
0.0
 10
-43.797
 20
-52.7411
 30
0.0
 10
-45.007
 20
-49.8372
 30
0.0
 10
-46.943
 20
-47.1755
 30
0.0
 10
-49.3626
 20
-45.1187
 30
0.0
  0
SPLINE
  5
6E
330
1F
100
AcDbEntity
  8
layer 1
 62
     7
100
AcDbSpline
210
0.0
220
0.0
230
1.0
 70
    11
 71
     3
 72
    20
 73
    16
 74
     0
 42
0.0000000001
 43
0.0000000001
 12
1.0
 22
0.0
 32
0.0
 13
1.0
 23
0.0
 33
0.0
 40
0.0
 40
0.0
 40
0.0
 40
0.0
 40
0.2
 40
0.2
 40
0.2
 40
0.2
 40
0.4
 40
0.4
 40
0.4
 40
0.4
 40
0.6
 40
0.6
 40
0.6
 40
0.6
 40
1.0
 40
1.0
 40
1.0
 40
1.0
 10
-55.291
 20
-81.9358
 30
0.0
 10
-55.291
 20
-81.9358
 30
0.0
 10
-55.291
 20
-78.4513
 30
0.0
 10
-55.291
 20
-78.4513
 30
0.0
 10
-55.291
 20
-78.4513
 30
0.0
 10
-50.0886
 20
-76.588
 30
0.0
 10
-45.8541
 20
-72.5712
 30
0.0
 10
-43.797
 20
-67.5016
 30
0.0
 10
-43.797
 20
-67.5016
 30
0.0
 10
-43.797
 20
-67.5016
 30
0.0
 10
-43.797
 20
-81.9358
 30
0.0
 10
-43.797
 20
-81.9358
 30
0.0
 10
-43.797
 20
-81.9358
 30
0.0
 10
-43.797
 20
-81.9358
 30
0.0
 10
-55.291
 20
-81.9358
 30
0.0
 10
-55.291
 20
-81.9358
 30
0.0
  0
SPLINE
  5
6F
330
1F
100
AcDbEntity
  8
layer 1
 62
     7
100
AcDbSpline
210
0.0
220
0.0
230
1.0
 70
    11
 71
     3
 72
    28
 73
    24
 74
     0
 42
0.0000000001
 43
0.0000000001
 12
1.0
 22
0.0
 32
0.0
 13
1.0
 23
0.0
 33
0.0
 40
0.0
 40
0.0
 40
0.0
 40
0.0
 40
0.1428571428571428
 40
0.1428571428571428
 40
0.1428571428571428
 40
0.1428571428571428
 40
0.2857142857142857
 40
0.2857142857142857
 40
0.2857142857142857
 40
0.2857142857142857
 40
0.4285714285714285
 40
0.4285714285714285
 40
0.4285714285714285
 40
0.4285714285714285
 40
0.5714285714285714
 40
0.5714285714285714
 40
0.5714285714285714
 40
0.5714285714285714
 40
0.7142857142857143
 40
0.7142857142857143
 40
0.7142857142857143
 40
0.7142857142857143
 40
1.0
 40
1.0
 40
1.0
 40
1.0
 10
-85.1755
 20
-81.9358
 30
0.0
 10
-85.1755
 20
-81.9358
 30
0.0
 10
-85.1755
 20
-65.808
 30
0.0
 10
-85.1755
 20
-65.808
 30
0.0
 10
-85.1755
 20
-65.808
 30
0.0
 10
-85.1755
 20
-65.808
 30
0.0
 10
-80.457
 20
-65.808
 30
0.0
 10
-80.457
 20
-65.808
 30
0.0
 10
-80.457
 20
-65.808
 30
0.0
 10
-78.0371
 20
-73.8052
 30
0.0
 10
-70.6568
 20
-79.5886
 30
0.0
 10
-61.8245
 20
-79.5886
 30
0.0
 10
-61.8245
 20
-79.5886
 30
0.0
 10
-61.2195
 20
-79.5886
 30
0.0
 10
-60.4938
 20
-79.5522
 30
0.0
 10
-59.8888
 20
-79.4919
 30
0.0
 10
-59.8888
 20
-79.4919
 30
0.0
 10
-59.8888
 20
-79.4919
 30
0.0
 10
-59.8888
 20
-81.9358
 30
0.0
 10
-59.8888
 20
-81.9358
 30
0.0
 10
-59.8888
 20
-81.9358
 30
0.0
 10
-59.8888
 20
-81.9358
 30
0.0
 10
-85.1755
 20
-81.9358
 30
0.0
 10
-85.1755
 20
-81.9358
 30
0.0
  0
SPLINE
  5
70
330
1F
100
AcDbEntity
  8
layer 1
 62
     7
100
AcDbSpline
210
0.0
220
0.0
230
1.0
 70
    11
 71
     3
 72
    24
 73
    20
 74
     0
 42
0.0000000001
 43
0.0000000001
 12
1.0
 22
0.0
 32
0.0
 13
1.0
 23
0.0
 33
0.0
 40
0.0
 40
0.0
 40
0.0
 40
0.0
 40
0.1666666666666667
 40
0.1666666666666667
 40
0.1666666666666667
 40
0.1666666666666667
 40
0.3333333333333333
 40
0.3333333333333333
 40
0.3333333333333333
 40
0.3333333333333333
 40
0.5
 40
0.5
 40
0.5
 40
0.5
 40
0.6666666666666666
 40
0.6666666666666666
 40
0.6666666666666666
 40
0.6666666666666666
 40
1.0
 40
1.0
 40
1.0
 40
1.0
 10
-85.1755
 20
-61.2102
 30
0.0
 10
-85.1755
 20
-61.2102
 30
0.0
 10
-85.1755
 20
-45.1187
 30
0.0
 10
-85.1755
 20
-45.1187
 30
0.0
 10
-85.1755
 20
-45.1187
 30
0.0
 10
-85.1755
 20
-45.1187
 30
0.0
 10
-74.4075
 20
-45.1187
 30
0.0
 10
-74.4075
 20
-45.1187
 30
0.0
 10
-74.4075
 20
-45.1187
 30
0.0
 10
-78.642
 20
-48.7483
 30
0.0
 10
-81.4248
 20
-54.0718
 30
0.0
 10
-81.4248
 20
-60.1213
 30
0.0
 10
-81.4248
 20
-60.1213
 30
0.0
 10
-81.4248
 20
-60.4842
 30
0.0
 10
-81.3038
 20
-60.8474
 30
0.0
 10
-81.3038
 20
-61.2102
 30
0.0
 10
-81.3038
 20
-61.2102
 30
0.0
 10
-81.3038
 20
-61.2102
 30
0.0
 10
-85.1755
 20
-61.2102
 30
0.0
 10
-85.1755
 20
-61.2102
 30
0.0
  0
SPLINE
  5
71
330
1F
100
AcDbEntity
  8
layer 1
 62
     7
100
AcDbSpline
210
0.0
220
0.0
230
1.0
 70
    11
 71
     3
 72
    28
 73
    24
 74
     0
 42
0.0000000001
 43
0.0000000001
 12
1.0
 22
0.0
 32
0.0
 13
1.0
 23
0.0
 33
0.0
 40
0.0
 40
0.0
 40
0.0
 40
0.0
 40
0.1428571428571428
 40
0.1428571428571428
 40
0.1428571428571428
 40
0.1428571428571428
 40
0.2857142857142857
 40
0.2857142857142857
 40
0.2857142857142857
 40
0.2857142857142857
 40
0.4285714285714285
 40
0.4285714285714285
 40
0.4285714285714285
 40
0.4285714285714285
 40
0.5714285714285714
 40
0.5714285714285714
 40
0.5714285714285714
 40
0.5714285714285714
 40
0.7142857142857143
 40
0.7142857142857143
 40
0.7142857142857143
 40
0.7142857142857143
 40
1.0
 40
1.0
 40
1.0
 40
1.0
 10
-85.1755
 20
-39.4321
 30
0.0
 10
-85.1755
 20
-39.4321
 30
0.0
 10
-85.1755
 20
-24.5502
 30
0.0
 10
-85.1755
 20
-24.5502
 30
0.0
 10
-85.1755
 20
-24.5502
 30
0.0
 10
-85.1755
 20
-24.5502
 30
0.0
 10
-71.1407
 20
-24.5502
 30
0.0
 10
-71.1407
 20
-24.5502
 30
0.0
 10
-71.1407
 20
-24.5502
 30
0.0
 10
-69.5679
 20
-29.3898
 30
0.0
 10
-65.2123
 20
-32.8986
 30
0.0
 10
-59.8888
 20
-33.2615
 30
0.0
 10
-59.8888
 20
-33.2615
 30
0.0
 10
-59.8888
 20
-33.2615
 30
0.0
 10
-59.8888
 20
-40.642
 30
0.0
 10
-59.8888
 20
-40.642
 30
0.0
 10
-59.8888
 20
-40.642
 30
0.0
 10
-59.8888
 20
-40.642
 30
0.0
 10
-84.8126
 20
-40.642
 30
0.0
 10
-84.8126
 20
-40.642
 30
0.0
 10
-84.8126
 20
-40.642
 30
0.0
 10
-84.9337
 20
-40.1581
 30
0.0
 10
-85.0548
 20
-39.7949
 30
0.0
 10
-85.1755
 20
-39.4321
 30
0.0
  0
SPLINE
  5
72
330
1F
100
AcDbEntity
  8
layer 1
 62
     7
100
AcDbSpline
210
0.0
220
0.0
230
1.0
 70
    11
 71
     3
 72
    20
 73
    16
 74
     0
 42
0.0000000001
 43
0.0000000001
 12
1.0
 22
0.0
 32
0.0
 13
1.0
 23
0.0
 33
0.0
 40
0.0
 40
0.0
 40
0.0
 40
0.0
 40
0.2
 40
0.2
 40
0.2
 40
0.2
 40
0.4
 40
0.4
 40
0.4
 40
0.4
 40
0.6
 40
0.6
 40
0.6
 40
0.6
 40
1.0
 40
1.0
 40
1.0
 40
1.0
 10
-76.8274
 20
-60.1213
 30
0.0
 10
-76.8274
 20
-51.894
 30
0.0
 10
-70.0518
 20
-45.2395
 30
0.0
 10
-61.8245
 20
-45.2395
 30
0.0
 10
-61.8245
 20
-45.2395
 30
0.0
 10
-53.5972
 20
-45.2395
 30
0.0
 10
-46.943
 20
-51.894
 30
0.0
 10
-46.943
 20
-60.1213
 30
0.0
 10
-46.943
 20
-60.1213
 30
0.0
 10
-46.943
 20
-68.3487
 30
0.0
 10
-53.5972
 20
-74.9908
 30
0.0
 10
-61.8245
 20
-74.9908
 30
0.0
 10
-61.8245
 20
-74.9908
 30
0.0
 10
-70.0518
 20
-74.9908
 30
0.0
 10
-76.8274
 20
-68.3487
 30
0.0
 10
-76.8274
 20
-60.1213
 30
0.0
  0
SPLINE
  5
73
330
1F
100
AcDbEntity
  8
layer 1
 62
     7
100
AcDbSpline
210
0.0
220
0.0
230
1.0
 70
    11
 71
     3
 72
    20
 73
    16
 74
     0
 42
0.0000000001
 43
0.0000000001
 12
1.0
 22
0.0
 32
0.0
 13
1.0
 23
0.0
 33
0.0
 40
0.0
 40
0.0
 40
0.0
 40
0.0
 40
0.2
 40
0.2
 40
0.2
 40
0.2
 40
0.4
 40
0.4
 40
0.4
 40
0.4
 40
0.6
 40
0.6
 40
0.6
 40
0.6
 40
1.0
 40
1.0
 40
1.0
 40
1.0
 10
-154.1399
 20
-81.9358
 30
0.0
 10
-154.1399
 20
-81.9358
 30
0.0
 10
-154.1399
 20
-65.8564
 30
0.0
 10
-154.1399
 20
-65.8564
 30
0.0
 10
-154.1399
 20
-65.8564
 30
0.0
 10
-154.1399
 20
-65.8564
 30
0.0
 10
-128.8772
 20
-65.8564
 30
0.0
 10
-128.8772
 20
-65.8564
 30
0.0
 10
-128.8772
 20
-65.8564
 30
0.0
 10
-128.8772
 20
-65.8564
 30
0.0
 10
-128.8772
 20
-81.9358
 30
0.0
 10
-128.8772
 20
-81.9358
 30
0.0
 10
-128.8772
 20
-81.9358
 30
0.0
 10
-128.8772
 20
-81.9358
 30
0.0
 10
-154.1399
 20
-81.9358
 30
0.0
 10
-154.1399
 20
-81.9358
 30
0.0
  0
SPLINE
  5
74
330
1F
100
AcDbEntity
  8
layer 1
 62
     7
100
AcDbSpline
210
0.0
220
0.0
230
1.0
 70
    11
 71
     3
 72
    20
 73
    16
 74
     0
 42
0.0000000001
 43
0.0000000001
 12
1.0
 22
0.0
 32
0.0
 13
1.0
 23
0.0
 33
0.0
 40
0.0
 40
0.0
 40
0.0
 40
0.0
 40
0.2
 40
0.2
 40
0.2
 40
0.2
 40
0.4
 40
0.4
 40
0.4
 40
0.4
 40
0.6
 40
0.6
 40
0.6
 40
0.6
 40
1.0
 40
1.0
 40
1.0
 40
1.0
 10
-175.9181
 20
-81.9358
 30
0.0
 10
-175.9181
 20
-81.9358
 30
0.0
 10
-175.9181
 20
-65.8564
 30
0.0
 10
-175.9181
 20
-65.8564
 30
0.0
 10
-175.9181
 20
-65.8564
 30
0.0
 10
-175.9181
 20
-65.8564
 30
0.0
 10
-158.689
 20
-65.8564
 30
0.0
 10
-158.689
 20
-65.8564
 30
0.0
 10
-158.689
 20
-65.8564
 30
0.0
 10
-158.689
 20
-65.8564
 30
0.0
 10
-158.689
 20
-81.9358
 30
0.0
 10
-158.689
 20
-81.9358
 30
0.0
 10
-158.689
 20
-81.9358
 30
0.0
 10
-158.689
 20
-81.9358
 30
0.0
 10
-175.9181
 20
-81.9358
 30
0.0
 10
-175.9181
 20
-81.9358
 30
0.0
  0
SPLINE
  5
75
330
1F
100
AcDbEntity
  8
layer 1
 62
     7
100
AcDbSpline
210
0.0
220
0.0
230
1.0
 70
    11
 71
     3
 72
    20
 73
    16
 74
     0
 42
0.0000000001
 43
0.0000000001
 12
1.0
 22
0.0
 32
0.0
 13
1.0
 23
0.0
 33
0.0
 40
0.0
 40
0.0
 40
0.0
 40
0.0
 40
0.2
 40
0.2
 40
0.2
 40
0.2
 40
0.4
 40
0.4
 40
0.4
 40
0.4
 40
0.6
 40
0.6
 40
0.6
 40
0.6
 40
1.0
 40
1.0
 40
1.0
 40
1.0
 10
-154.1399
 20
-61.2102
 30
0.0
 10
-154.1399
 20
-61.2102
 30
0.0
 10
-154.1399
 20
-45.1307
 30
0.0
 10
-154.1399
 20
-45.1307
 30
0.0
 10
-154.1399
 20
-45.1307
 30
0.0
 10
-154.1399
 20
-45.1307
 30
0.0
 10
-128.8772
 20
-45.1307
 30
0.0
 10
-128.8772
 20
-45.1307
 30
0.0
 10
-128.8772
 20
-45.1307
 30
0.0
 10
-128.8772
 20
-45.1307
 30
0.0
 10
-128.8772
 20
-61.2102
 30
0.0
 10
-128.8772
 20
-61.2102
 30
0.0
 10
-128.8772
 20
-61.2102
 30
0.0
 10
-128.8772
 20
-61.2102
 30
0.0
 10
-154.1399
 20
-61.2102
 30
0.0
 10
-154.1399
 20
-61.2102
 30
0.0
  0
SPLINE
  5
76
330
1F
100
AcDbEntity
  8
layer 1
 62
     7
100
AcDbSpline
210
0.0
220
0.0
230
1.0
 70
    11
 71
     3
 72
    20
 73
    16
 74
     0
 42
0.0000000001
 43
0.0000000001
 12
1.0
 22
0.0
 32
0.0
 13
1.0
 23
0.0
 33
0.0
 40
0.0
 40
0.0
 40
0.0
 40
0.0
 40
0.2
 40
0.2
 40
0.2
 40
0.2
 40
0.4
 40
0.4
 40
0.4
 40
0.4
 40
0.6
 40
0.6
 40
0.6
 40
0.6
 40
1.0
 40
1.0
 40
1.0
 40
1.0
 10
-154.1399
 20
-40.642
 30
0.0
 10
-154.1399
 20
-40.642
 30
0.0
 10
-154.1399
 20
-24.5626
 30
0.0
 10
-154.1399
 20
-24.5626
 30
0.0
 10
-154.1399
 20
-24.5626
 30
0.0
 10
-154.1399
 20
-24.5626
 30
0.0
 10
-128.8772
 20
-24.5626
 30
0.0
 10
-128.8772
 20
-24.5626
 30
0.0
 10
-128.8772
 20
-24.5626
 30
0.0
 10
-128.8772
 20
-24.5626
 30
0.0
 10
-128.8772
 20
-40.642
 30
0.0
 10
-128.8772
 20
-40.642
 30
0.0
 10
-128.8772
 20
-40.642
 30
0.0
 10
-128.8772
 20
-40.642
 30
0.0
 10
-154.1399
 20
-40.642
 30
0.0
 10
-154.1399
 20
-40.642
 30
0.0
  0
SPLINE
  5
77
330
1F
100
AcDbEntity
  8
layer 1
 62
     7
100
AcDbSpline
210
0.0
220
0.0
230
1.0
 70
    11
 71
     3
 72
    20
 73
    16
 74
     0
 42
0.0000000001
 43
0.0000000001
 12
1.0
 22
0.0
 32
0.0
 13
1.0
 23
0.0
 33
0.0
 40
0.0
 40
0.0
 40
0.0
 40
0.0
 40
0.2
 40
0.2
 40
0.2
 40
0.2
 40
0.4
 40
0.4
 40
0.4
 40
0.4
 40
0.6
 40
0.6
 40
0.6
 40
0.6
 40
1.0
 40
1.0
 40
1.0
 40
1.0
 10
-175.9181
 20
-19.9528
 30
0.0
 10
-175.9181
 20
-19.9528
 30
0.0
 10
-175.9181
 20
-3.8733
 30
0.0
 10
-175.9181
 20
-3.8733
 30
0.0
 10
-175.9181
 20
-3.8733
 30
0.0
 10
-175.9181
 20
-3.8733
 30
0.0
 10
-158.689
 20
-3.8733
 30
0.0
 10
-158.689
 20
-3.8733
 30
0.0
 10
-158.689
 20
-3.8733
 30
0.0
 10
-158.689
 20
-3.8733
 30
0.0
 10
-158.689
 20
-19.9528
 30
0.0
 10
-158.689
 20
-19.9528
 30
0.0
 10
-158.689
 20
-19.9528
 30
0.0
 10
-158.689
 20
-19.9528
 30
0.0
 10
-175.9181
 20
-19.9528
 30
0.0
 10
-175.9181
 20
-19.9528
 30
0.0
  0
SPLINE
  5
78
330
1F
100
AcDbEntity
  8
layer 1
 62
     7
100
AcDbSpline
210
0.0
220
0.0
230
1.0
 70
    11
 71
     3
 72
    20
 73
    16
 74
     0
 42
0.0000000001
 43
0.0000000001
 12
1.0
 22
0.0
 32
0.0
 13
1.0
 23
0.0
 33
0.0
 40
0.0
 40
0.0
 40
0.0
 40
0.0
 40
0.2
 40
0.2
 40
0.2
 40
0.2
 40
0.4
 40
0.4
 40
0.4
 40
0.4
 40
0.6
 40
0.6
 40
0.6
 40
0.6
 40
1.0
 40
1.0
 40
1.0
 40
1.0
 10
-154.1399
 20
-19.9528
 30
0.0
 10
-154.1399
 20
-19.9528
 30
0.0
 10
-154.1399
 20
-3.8733
 30
0.0
 10
-154.1399
 20
-3.8733
 30
0.0
 10
-154.1399
 20
-3.8733
 30
0.0
 10
-154.1399
 20
-3.8733
 30
0.0
 10
-128.8772
 20
-3.8733
 30
0.0
 10
-128.8772
 20
-3.8733
 30
0.0
 10
-128.8772
 20
-3.8733
 30
0.0
 10
-128.8772
 20
-3.8733
 30
0.0
 10
-128.8772
 20
-19.9528
 30
0.0
 10
-128.8772
 20
-19.9528
 30
0.0
 10
-128.8772
 20
-19.9528
 30
0.0
 10
-128.8772
 20
-19.9528
 30
0.0
 10
-154.1399
 20
-19.9528
 30
0.0
 10
-154.1399
 20
-19.9528
 30
0.0
  0
SPLINE
  5
79
330
1F
100
AcDbEntity
  8
layer 1
 62
     7
100
AcDbSpline
210
0.0
220
0.0
230
1.0
 70
    11
 71
     3
 72
    20
 73
    16
 74
     0
 42
0.0000000001
 43
0.0000000001
 12
1.0
 22
0.0
 32
0.0
 13
1.0
 23
0.0
 33
0.0
 40
0.0
 40
0.0
 40
0.0
 40
0.0
 40
0.2
 40
0.2
 40
0.2
 40
0.2
 40
0.4
 40
0.4
 40
0.4
 40
0.4
 40
0.6
 40
0.6
 40
0.6
 40
0.6
 40
1.0
 40
1.0
 40
1.0
 40
1.0
 10
-154.1399
 20
0.7365
 30
0.0
 10
-154.1399
 20
0.7365
 30
0.0
 10
-154.1399
 20
16.816
 30
0.0
 10
-154.1399
 20
16.816
 30
0.0
 10
-154.1399
 20
16.816
 30
0.0
 10
-154.1399
 20
16.816
 30
0.0
 10
-128.8772
 20
16.816
 30
0.0
 10
-128.8772
 20
16.816
 30
0.0
 10
-128.8772
 20
16.816
 30
0.0
 10
-128.8772
 20
16.816
 30
0.0
 10
-128.8772
 20
0.7365
 30
0.0
 10
-128.8772
 20
0.7365
 30
0.0
 10
-128.8772
 20
0.7365
 30
0.0
 10
-128.8772
 20
0.7365
 30
0.0
 10
-154.1399
 20
0.7365
 30
0.0
 10
-154.1399
 20
0.7365
 30
0.0
  0
SPLINE
  5
7A
330
1F
100
AcDbEntity
  8
layer 1
 62
     7
100
AcDbSpline
210
0.0
220
0.0
230
1.0
 70
    11
 71
     3
 72
    20
 73
    16
 74
     0
 42
0.0000000001
 43
0.0000000001
 12
1.0
 22
0.0
 32
0.0
 13
1.0
 23
0.0
 33
0.0
 40
0.0
 40
0.0
 40
0.0
 40
0.0
 40
0.2
 40
0.2
 40
0.2
 40
0.2
 40
0.4
 40
0.4
 40
0.4
 40
0.4
 40
0.6
 40
0.6
 40
0.6
 40
0.6
 40
1.0
 40
1.0
 40
1.0
 40
1.0
 10
-175.9181
 20
0.7365
 30
0.0
 10
-175.9181
 20
0.7365
 30
0.0
 10
-175.9181
 20
16.816
 30
0.0
 10
-175.9181
 20
16.816
 30
0.0
 10
-175.9181
 20
16.816
 30
0.0
 10
-175.9181
 20
16.816
 30
0.0
 10
-158.689
 20
16.816
 30
0.0
 10
-158.689
 20
16.816
 30
0.0
 10
-158.689
 20
16.816
 30
0.0
 10
-158.689
 20
16.816
 30
0.0
 10
-158.689
 20
0.7365
 30
0.0
 10
-158.689
 20
0.7365
 30
0.0
 10
-158.689
 20
0.7365
 30
0.0
 10
-158.689
 20
0.7365
 30
0.0
 10
-175.9181
 20
0.7365
 30
0.0
 10
-175.9181
 20
0.7365
 30
0.0
  0
SPLINE
  5
7B
330
1F
100
AcDbEntity
  8
layer 1
 62
     7
100
AcDbSpline
210
0.0
220
0.0
230
1.0
 70
    11
 71
     3
 72
    20
 73
    16
 74
     0
 42
0.0000000001
 43
0.0000000001
 12
1.0
 22
0.0
 32
0.0
 13
1.0
 23
0.0
 33
0.0
 40
0.0
 40
0.0
 40
0.0
 40
0.0
 40
0.2
 40
0.2
 40
0.2
 40
0.2
 40
0.4
 40
0.4
 40
0.4
 40
0.4
 40
0.6
 40
0.6
 40
0.6
 40
0.6
 40
1.0
 40
1.0
 40
1.0
 40
1.0
 10
-175.9181
 20
21.4257
 30
0.0
 10
-175.9181
 20
21.4257
 30
0.0
 10
-175.9181
 20
37.5052
 30
0.0
 10
-175.9181
 20
37.5052
 30
0.0
 10
-175.9181
 20
37.5052
 30
0.0
 10
-175.9181
 20
37.5052
 30
0.0
 10
-158.689
 20
37.5052
 30
0.0
 10
-158.689
 20
37.5052
 30
0.0
 10
-158.689
 20
37.5052
 30
0.0
 10
-158.689
 20
37.5052
 30
0.0
 10
-158.689
 20
21.4257
 30
0.0
 10
-158.689
 20
21.4257
 30
0.0
 10
-158.689
 20
21.4257
 30
0.0
 10
-158.689
 20
21.4257
 30
0.0
 10
-175.9181
 20
21.4257
 30
0.0
 10
-175.9181
 20
21.4257
 30
0.0
  0
SPLINE
  5
7C
330
1F
100
AcDbEntity
  8
layer 1
 62
     7
100
AcDbSpline
210
0.0
220
0.0
230
1.0
 70
    11
 71
     3
 72
    20
 73
    16
 74
     0
 42
0.0000000001
 43
0.0000000001
 12
1.0
 22
0.0
 32
0.0
 13
1.0
 23
0.0
 33
0.0
 40
0.0
 40
0.0
 40
0.0
 40
0.0
 40
0.2
 40
0.2
 40
0.2
 40
0.2
 40
0.4
 40
0.4
 40
0.4
 40
0.4
 40
0.6
 40
0.6
 40
0.6
 40
0.6
 40
1.0
 40
1.0
 40
1.0
 40
1.0
 10
-154.1399
 20
21.4257
 30
0.0
 10
-154.1399
 20
21.4257
 30
0.0
 10
-154.1399
 20
37.5052
 30
0.0
 10
-154.1399
 20
37.5052
 30
0.0
 10
-154.1399
 20
37.5052
 30
0.0
 10
-154.1399
 20
37.5052
 30
0.0
 10
-128.8772
 20
37.5052
 30
0.0
 10
-128.8772
 20
37.5052
 30
0.0
 10
-128.8772
 20
37.5052
 30
0.0
 10
-128.8772
 20
37.5052
 30
0.0
 10
-128.8772
 20
21.4257
 30
0.0
 10
-128.8772
 20
21.4257
 30
0.0
 10
-128.8772
 20
21.4257
 30
0.0
 10
-128.8772
 20
21.4257
 30
0.0
 10
-154.1399
 20
21.4257
 30
0.0
 10
-154.1399
 20
21.4257
 30
0.0
  0
SPLINE
  5
7D
330
1F
100
AcDbEntity
  8
layer 1
 62
     7
100
AcDbSpline
210
0.0
220
0.0
230
1.0
 70
    11
 71
     3
 72
    32
 73
    28
 74
     0
 42
0.0000000001
 43
0.0000000001
 12
1.0
 22
0.0
 32
0.0
 13
1.0
 23
0.0
 33
0.0
 40
0.0
 40
0.0
 40
0.0
 40
0.0
 40
0.125
 40
0.125
 40
0.125
 40
0.125
 40
0.25
 40
0.25
 40
0.25
 40
0.25
 40
0.375
 40
0.375
 40
0.375
 40
0.375
 40
0.5
 40
0.5
 40
0.5
 40
0.5
 40
0.625
 40
0.625
 40
0.625
 40
0.625
 40
0.75
 40
0.75
 40
0.75
 40
0.75
 40
1.0
 40
1.0
 40
1.0
 40
1.0
 10
-154.1399
 20
83.4935
 30
0.0
 10
-154.1399
 20
83.4935
 30
0.0
 10
-154.1399
 20
87.2441
 30
0.0
 10
-154.1399
 20
87.2441
 30
0.0
 10
-154.1399
 20
87.2441
 30
0.0
 10
-152.9299
 20
86.8813
 30
0.0
 10
-151.841
 20
86.6392
 30
0.0
 10
-150.51
 20
86.6392
 30
0.0
 10
-150.51
 20
86.6392
 30
0.0
 10
-143.6137
 20
86.6392
 30
0.0
 10
-137.927
 20
92.3258
 30
0.0
 10
-137.927
 20
99.3432
 30
0.0
 10
-137.927
 20
99.3432
 30
0.0
 10
-137.927
 20
99.4643
 30
0.0
 10
-137.927
 20
99.4643
 30
0.0
 10
-137.927
 20
99.5853
 30
0.0
 10
-137.927
 20
99.5853
 30
0.0
 10
-137.927
 20
99.5853
 30
0.0
 10
-128.8529
 20
99.5853
 30
0.0
 10
-128.8529
 20
99.5853
 30
0.0
 10
-128.8529
 20
99.5853
 30
0.0
 10
-128.8529
 20
99.5853
 30
0.0
 10
-128.8529
 20
83.4935
 30
0.0
 10
-128.8529
 20
83.4935
 30
0.0
 10
-128.8529
 20
83.4935
 30
0.0
 10
-128.8529
 20
83.4935
 30
0.0
 10
-154.1399
 20
83.4935
 30
0.0
 10
-154.1399
 20
83.4935
 30
0.0
  0
SPLINE
  5
7E
330
1F
100
AcDbEntity
  8
layer 1
 62
     7
100
AcDbSpline
210
0.0
220
0.0
230
1.0
 70
    11
 71
     3
 72
    28
 73
    24
 74
     0
 42
0.0000000001
 43
0.0000000001
 12
1.0
 22
0.0
 32
0.0
 13
1.0
 23
0.0
 33
0.0
 40
0.0
 40
0.0
 40
0.0
 40
0.0
 40
0.1428571428571428
 40
0.1428571428571428
 40
0.1428571428571428
 40
0.1428571428571428
 40
0.2857142857142857
 40
0.2857142857142857
 40
0.2857142857142857
 40
0.2857142857142857
 40
0.4285714285714285
 40
0.4285714285714285
 40
0.4285714285714285
 40
0.4285714285714285
 40
0.5714285714285714
 40
0.5714285714285714
 40
0.5714285714285714
 40
0.5714285714285714
 40
0.7142857142857143
 40
0.7142857142857143
 40
0.7142857142857143
 40
0.7142857142857143
 40
1.0
 40
1.0
 40
1.0
 40
1.0
 10
-175.9181
 20
83.4935
 30
0.0
 10
-175.9181
 20
83.4935
 30
0.0
 10
-175.9181
 20
99.5853
 30
0.0
 10
-175.9181
 20
99.5853
 30
0.0
 10
-175.9181
 20
99.5853
 30
0.0
 10
-175.9181
 20
99.5853
 30
0.0
 10
-163.214
 20
99.5853
 30
0.0
 10
-163.214
 20
99.5853
 30
0.0
 10
-163.214
 20
99.5853
 30
0.0
 10
-163.214
 20
99.4643
 30
0.0
 10
-163.214
 20
99.4643
 30
0.0
 10
-163.214
 20
99.3432
 30
0.0
 10
-163.214
 20
99.3432
 30
0.0
 10
-163.214
 20
95.4715
 30
0.0
 10
-161.3991
 20
91.963
 30
0.0
 10
-158.7373
 20
89.6641
 30
0.0
 10
-158.7373
 20
89.6641
 30
0.0
 10
-158.7373
 20
89.6641
 30
0.0
 10
-158.7373
 20
83.4935
 30
0.0
 10
-158.7373
 20
83.4935
 30
0.0
 10
-158.7373
 20
83.4935
 30
0.0
 10
-158.7373
 20
83.4935
 30
0.0
 10
-175.9181
 20
83.4935
 30
0.0
 10
-175.9181
 20
83.4935
 30
0.0
  0
SPLINE
  5
7F
330
1F
100
AcDbEntity
  8
layer 1
 62
     7
100
AcDbSpline
210
0.0
220
0.0
230
1.0
 70
    11
 71
     3
 72
    24
 73
    20
 74
     0
 42
0.0000000001
 43
0.0000000001
 12
1.0
 22
0.0
 32
0.0
 13
1.0
 23
0.0
 33
0.0
 40
0.0
 40
0.0
 40
0.0
 40
0.0
 40
0.1666666666666667
 40
0.1666666666666667
 40
0.1666666666666667
 40
0.1666666666666667
 40
0.3333333333333333
 40
0.3333333333333333
 40
0.3333333333333333
 40
0.3333333333333333
 40
0.5
 40
0.5
 40
0.5
 40
0.5
 40
0.6666666666666666
 40
0.6666666666666666
 40
0.6666666666666666
 40
0.6666666666666666
 40
1.0
 40
1.0
 40
1.0
 40
1.0
 10
-175.9181
 20
104.1828
 30
0.0
 10
-175.9181
 20
104.1828
 30
0.0
 10
-175.9181
 20
120.2746
 30
0.0
 10
-175.9181
 20
120.2746
 30
0.0
 10
-175.9181
 20
120.2746
 30
0.0
 10
-175.9181
 20
120.2746
 30
0.0
 10
-158.7373
 20
120.2746
 30
0.0
 10
-158.7373
 20
120.2746
 30
0.0
 10
-158.7373
 20
120.2746
 30
0.0
 10
-158.7373
 20
120.2746
 30
0.0
 10
-158.7373
 20
109.0223
 30
0.0
 10
-158.7373
 20
109.0223
 30
0.0
 10
-158.7373
 20
109.0223
 30
0.0
 10
-160.1894
 20
107.6916
 30
0.0
 10
-161.5201
 20
105.9977
 30
0.0
 10
-162.2462
 20
104.1828
 30
0.0
 10
-162.2462
 20
104.1828
 30
0.0
 10
-162.2462
 20
104.1828
 30
0.0
 10
-175.9181
 20
104.1828
 30
0.0
 10
-175.9181
 20
104.1828
 30
0.0
  0
SPLINE
  5
80
330
1F
100
AcDbEntity
  8
layer 1
 62
     7
100
AcDbSpline
210
0.0
220
0.0
230
1.0
 70
    11
 71
     3
 72
    28
 73
    24
 74
     0
 42
0.0000000001
 43
0.0000000001
 12
1.0
 22
0.0
 32
0.0
 13
1.0
 23
0.0
 33
0.0
 40
0.0
 40
0.0
 40
0.0
 40
0.0
 40
0.1428571428571428
 40
0.1428571428571428
 40
0.1428571428571428
 40
0.1428571428571428
 40
0.2857142857142857
 40
0.2857142857142857
 40
0.2857142857142857
 40
0.2857142857142857
 40
0.4285714285714285
 40
0.4285714285714285
 40
0.4285714285714285
 40
0.4285714285714285
 40
0.5714285714285714
 40
0.5714285714285714
 40
0.5714285714285714
 40
0.5714285714285714
 40
0.7142857142857143
 40
0.7142857142857143
 40
0.7142857142857143
 40
0.7142857142857143
 40
1.0
 40
1.0
 40
1.0
 40
1.0
 10
-154.1399
 20
111.4423
 30
0.0
 10
-154.1399
 20
111.4423
 30
0.0
 10
-154.1399
 20
120.2746
 30
0.0
 10
-154.1399
 20
120.2746
 30
0.0
 10
-154.1399
 20
120.2746
 30
0.0
 10
-154.1399
 20
120.2746
 30
0.0
 10
-128.8529
 20
120.2746
 30
0.0
 10
-128.8529
 20
120.2746
 30
0.0
 10
-128.8529
 20
120.2746
 30
0.0
 10
-128.8529
 20
120.2746
 30
0.0
 10
-128.8529
 20
104.1828
 30
0.0
 10
-128.8529
 20
104.1828
 30
0.0
 10
-128.8529
 20
104.1828
 30
0.0
 10
-128.8529
 20
104.1828
 30
0.0
 10
-138.8952
 20
104.1828
 30
0.0
 10
-138.8952
 20
104.1828
 30
0.0
 10
-138.8952
 20
104.1828
 30
0.0
 10
-140.8309
 20
108.7805
 30
0.0
 10
-145.3076
 20
111.9262
 30
0.0
 10
-150.51
 20
111.9262
 30
0.0
 10
-150.51
 20
111.9262
 30
0.0
 10
-151.841
 20
111.9262
 30
0.0
 10
-152.9299
 20
111.8051
 30
0.0
 10
-154.1399
 20
111.4423
 30
0.0
  0
SPLINE
  5
81
330
1F
100
AcDbEntity
  8
layer 1
 62
     7
100
AcDbSpline
210
0.0
220
0.0
230
1.0
 70
    11
 71
     3
 72
    20
 73
    16
 74
     0
 42
0.0000000001
 43
0.0000000001
 12
1.0
 22
0.0
 32
0.0
 13
1.0
 23
0.0
 33
0.0
 40
0.0
 40
0.0
 40
0.0
 40
0.0
 40
0.2
 40
0.2
 40
0.2
 40
0.2
 40
0.4
 40
0.4
 40
0.4
 40
0.4
 40
0.6
 40
0.6
 40
0.6
 40
0.6
 40
1.0
 40
1.0
 40
1.0
 40
1.0
 10
-158.6163
 20
99.3432
 30
0.0
 10
-158.6163
 20
103.8199
 30
0.0
 10
-154.9867
 20
107.3284
 30
0.0
 10
-150.51
 20
107.3284
 30
0.0
 10
-150.51
 20
107.3284
 30
0.0
 10
-146.1544
 20
107.3284
 30
0.0
 10
-142.5248
 20
103.8199
 30
0.0
 10
-142.5248
 20
99.3432
 30
0.0
 10
-142.5248
 20
99.3432
 30
0.0
 10
-142.5248
 20
94.8665
 30
0.0
 10
-146.1544
 20
91.2369
 30
0.0
 10
-150.51
 20
91.2369
 30
0.0
 10
-150.51
 20
91.2369
 30
0.0
 10
-154.9867
 20
91.2369
 30
0.0
 10
-158.6163
 20
94.8665
 30
0.0
 10
-158.6163
 20
99.3432
 30
0.0
  0
SPLINE
  5
82
330
1F
100
AcDbEntity
  8
layer 1
 62
     7
100
AcDbSpline
210
0.0
220
0.0
230
1.0
 70
    11
 71
     3
 72
    28
 73
    24
 74
     0
 42
0.0000000001
 43
0.0000000001
 12
1.0
 22
0.0
 32
0.0
 13
1.0
 23
0.0
 33
0.0
 40
0.0
 40
0.0
 40
0.0
 40
0.0
 40
0.1428571428571428
 40
0.1428571428571428
 40
0.1428571428571428
 40
0.1428571428571428
 40
0.2857142857142857
 40
0.2857142857142857
 40
0.2857142857142857
 40
0.2857142857142857
 40
0.4285714285714285
 40
0.4285714285714285
 40
0.4285714285714285
 40
0.4285714285714285
 40
0.5714285714285714
 40
0.5714285714285714
 40
0.5714285714285714
 40
0.5714285714285714
 40
0.7142857142857143
 40
0.7142857142857143
 40
0.7142857142857143
 40
0.7142857142857143
 40
1.0
 40
1.0
 40
1.0
 40
1.0
 10
-175.9181
 20
42.115
 30
0.0
 10
-175.9181
 20
42.115
 30
0.0
 10
-175.9181
 20
58.2068
 30
0.0
 10
-175.9181
 20
58.2068
 30
0.0
 10
-175.9181
 20
58.2068
 30
0.0
 10
-175.9181
 20
58.2068
 30
0.0
 10
-169.9896
 20
58.2068
 30
0.0
 10
-169.9896
 20
58.2068
 30
0.0
 10
-169.9896
 20
58.2068
 30
0.0
 10
-169.9896
 20
58.2068
 30
0.0
 10
-169.9896
 20
45.3817
 30
0.0
 10
-169.9896
 20
45.3817
 30
0.0
 10
-169.9896
 20
45.3817
 30
0.0
 10
-169.9896
 20
45.3817
 30
0.0
 10
-158.7373
 20
45.3817
 30
0.0
 10
-158.7373
 20
45.3817
 30
0.0
 10
-158.7373
 20
45.3817
 30
0.0
 10
-158.7373
 20
45.3817
 30
0.0
 10
-158.7373
 20
42.115
 30
0.0
 10
-158.7373
 20
42.115
 30
0.0
 10
-158.7373
 20
42.115
 30
0.0
 10
-158.7373
 20
42.115
 30
0.0
 10
-175.9181
 20
42.115
 30
0.0
 10
-175.9181
 20
42.115
 30
0.0
  0
SPLINE
  5
83
330
1F
100
AcDbEntity
  8
layer 1
 62
     7
100
AcDbSpline
210
0.0
220
0.0
230
1.0
 70
    11
 71
     3
 72
    28
 73
    24
 74
     0
 42
0.0000000001
 43
0.0000000001
 12
1.0
 22
0.0
 32
0.0
 13
1.0
 23
0.0
 33
0.0
 40
0.0
 40
0.0
 40
0.0
 40
0.0
 40
0.1428571428571428
 40
0.1428571428571428
 40
0.1428571428571428
 40
0.1428571428571428
 40
0.2857142857142857
 40
0.2857142857142857
 40
0.2857142857142857
 40
0.2857142857142857
 40
0.4285714285714285
 40
0.4285714285714285
 40
0.4285714285714285
 40
0.4285714285714285
 40
0.5714285714285714
 40
0.5714285714285714
 40
0.5714285714285714
 40
0.5714285714285714
 40
0.7142857142857143
 40
0.7142857142857143
 40
0.7142857142857143
 40
0.7142857142857143
 40
1.0
 40
1.0
 40
1.0
 40
1.0
 10
-154.1399
 20
42.115
 30
0.0
 10
-154.1399
 20
42.115
 30
0.0
 10
-154.1399
 20
45.3817
 30
0.0
 10
-154.1399
 20
45.3817
 30
0.0
 10
-154.1399
 20
45.3817
 30
0.0
 10
-154.1399
 20
45.3817
 30
0.0
 10
-140.1048
 20
45.3817
 30
0.0
 10
-140.1048
 20
45.3817
 30
0.0
 10
-140.1048
 20
45.3817
 30
0.0
 10
-140.1048
 20
45.3817
 30
0.0
 10
-140.1048
 20
58.2068
 30
0.0
 10
-140.1048
 20
58.2068
 30
0.0
 10
-140.1048
 20
58.2068
 30
0.0
 10
-140.1048
 20
58.2068
 30
0.0
 10
-128.8529
 20
58.2068
 30
0.0
 10
-128.8529
 20
58.2068
 30
0.0
 10
-128.8529
 20
58.2068
 30
0.0
 10
-128.8529
 20
58.2068
 30
0.0
 10
-128.8529
 20
42.115
 30
0.0
 10
-128.8529
 20
42.115
 30
0.0
 10
-128.8529
 20
42.115
 30
0.0
 10
-128.8529
 20
42.115
 30
0.0
 10
-154.1399
 20
42.115
 30
0.0
 10
-154.1399
 20
42.115
 30
0.0
  0
SPLINE
  5
84
330
1F
100
AcDbEntity
  8
layer 1
 62
     7
100
AcDbSpline
210
0.0
220
0.0
230
1.0
 70
    11
 71
     3
 72
    28
 73
    24
 74
     0
 42
0.0000000001
 43
0.0000000001
 12
1.0
 22
0.0
 32
0.0
 13
1.0
 23
0.0
 33
0.0
 40
0.0
 40
0.0
 40
0.0
 40
0.0
 40
0.1428571428571428
 40
0.1428571428571428
 40
0.1428571428571428
 40
0.1428571428571428
 40
0.2857142857142857
 40
0.2857142857142857
 40
0.2857142857142857
 40
0.2857142857142857
 40
0.4285714285714285
 40
0.4285714285714285
 40
0.4285714285714285
 40
0.4285714285714285
 40
0.5714285714285714
 40
0.5714285714285714
 40
0.5714285714285714
 40
0.5714285714285714
 40
0.7142857142857143
 40
0.7142857142857143
 40
0.7142857142857143
 40
0.7142857142857143
 40
1.0
 40
1.0
 40
1.0
 40
1.0
 10
-154.1399
 20
75.2662
 30
0.0
 10
-154.1399
 20
75.2662
 30
0.0
 10
-154.1399
 20
78.8961
 30
0.0
 10
-154.1399
 20
78.8961
 30
0.0
 10
-154.1399
 20
78.8961
 30
0.0
 10
-154.1399
 20
78.8961
 30
0.0
 10
-128.8529
 20
78.8961
 30
0.0
 10
-128.8529
 20
78.8961
 30
0.0
 10
-128.8529
 20
78.8961
 30
0.0
 10
-128.8529
 20
78.8961
 30
0.0
 10
-128.8529
 20
62.8042
 30
0.0
 10
-128.8529
 20
62.8042
 30
0.0
 10
-128.8529
 20
62.8042
 30
0.0
 10
-128.8529
 20
62.8042
 30
0.0
 10
-140.1048
 20
62.8042
 30
0.0
 10
-140.1048
 20
62.8042
 30
0.0
 10
-140.1048
 20
62.8042
 30
0.0
 10
-140.1048
 20
62.8042
 30
0.0
 10
-140.1048
 20
75.2662
 30
0.0
 10
-140.1048
 20
75.2662
 30
0.0
 10
-140.1048
 20
75.2662
 30
0.0
 10
-140.1048
 20
75.2662
 30
0.0
 10
-154.1399
 20
75.2662
 30
0.0
 10
-154.1399
 20
75.2662
 30
0.0
  0
SPLINE
  5
85
330
1F
100
AcDbEntity
  8
layer 1
 62
     7
100
AcDbSpline
210
0.0
220
0.0
230
1.0
 70
    11
 71
     3
 72
    28
 73
    24
 74
     0
 42
0.0000000001
 43
0.0000000001
 12
1.0
 22
0.0
 32
0.0
 13
1.0
 23
0.0
 33
0.0
 40
0.0
 40
0.0
 40
0.0
 40
0.0
 40
0.1428571428571428
 40
0.1428571428571428
 40
0.1428571428571428
 40
0.1428571428571428
 40
0.2857142857142857
 40
0.2857142857142857
 40
0.2857142857142857
 40
0.2857142857142857
 40
0.4285714285714285
 40
0.4285714285714285
 40
0.4285714285714285
 40
0.4285714285714285
 40
0.5714285714285714
 40
0.5714285714285714
 40
0.5714285714285714
 40
0.5714285714285714
 40
0.7142857142857143
 40
0.7142857142857143
 40
0.7142857142857143
 40
0.7142857142857143
 40
1.0
 40
1.0
 40
1.0
 40
1.0
 10
-175.9181
 20
62.8042
 30
0.0
 10
-175.9181
 20
62.8042
 30
0.0
 10
-175.9181
 20
78.8961
 30
0.0
 10
-175.9181
 20
78.8961
 30
0.0
 10
-175.9181
 20
78.8961
 30
0.0
 10
-175.9181
 20
78.8961
 30
0.0
 10
-158.7373
 20
78.8961
 30
0.0
 10
-158.7373
 20
78.8961
 30
0.0
 10
-158.7373
 20
78.8961
 30
0.0
 10
-158.7373
 20
78.8961
 30
0.0
 10
-158.7373
 20
75.2662
 30
0.0
 10
-158.7373
 20
75.2662
 30
0.0
 10
-158.7373
 20
75.2662
 30
0.0
 10
-158.7373
 20
75.2662
 30
0.0
 10
-169.9896
 20
75.2662
 30
0.0
 10
-169.9896
 20
75.2662
 30
0.0
 10
-169.9896
 20
75.2662
 30
0.0
 10
-169.9896
 20
75.2662
 30
0.0
 10
-169.9896
 20
62.8042
 30
0.0
 10
-169.9896
 20
62.8042
 30
0.0
 10
-169.9896
 20
62.8042
 30
0.0
 10
-169.9896
 20
62.8042
 30
0.0
 10
-175.9181
 20
62.8042
 30
0.0
 10
-175.9181
 20
62.8042
 30
0.0
  0
SPLINE
  5
86
330
1F
100
AcDbEntity
  8
layer 1
 62
     7
100
AcDbSpline
210
0.0
220
0.0
230
1.0
 70
    11
 71
     3
 72
    20
 73
    16
 74
     0
 42
0.0000000001
 43
0.0000000001
 12
1.0
 22
0.0
 32
0.0
 13
1.0
 23
0.0
 33
0.0
 40
0.0
 40
0.0
 40
0.0
 40
0.0
 40
0.2
 40
0.2
 40
0.2
 40
0.2
 40
0.4
 40
0.4
 40
0.4
 40
0.4
 40
0.6
 40
0.6
 40
0.6
 40
0.6
 40
1.0
 40
1.0
 40
1.0
 40
1.0
 10
-166.1179
 20
49.3745
 30
0.0
 10
-166.1179
 20
49.3745
 30
0.0
 10
-166.1179
 20
71.4068
 30
0.0
 10
-166.1179
 20
71.4068
 30
0.0
 10
-166.1179
 20
71.4068
 30
0.0
 10
-166.1179
 20
71.4068
 30
0.0
 10
-144.0856
 20
71.4068
 30
0.0
 10
-144.0856
 20
71.4068
 30
0.0
 10
-144.0856
 20
71.4068
 30
0.0
 10
-144.0856
 20
71.4068
 30
0.0
 10
-144.0856
 20
49.3745
 30
0.0
 10
-144.0856
 20
49.3745
 30
0.0
 10
-144.0856
 20
49.3745
 30
0.0
 10
-144.0856
 20
49.3745
 30
0.0
 10
-166.1179
 20
49.3745
 30
0.0
 10
-166.1179
 20
49.3745
 30
0.0
  0
SPLINE
  5
87
330
1F
100
AcDbEntity
  8
layer 1
 62
     7
100
AcDbSpline
210
0.0
220
0.0
230
1.0
 70
    11
 71
     3
 72
    28
 73
    24
 74
     0
 42
0.0000000001
 43
0.0000000001
 12
1.0
 22
0.0
 32
0.0
 13
1.0
 23
0.0
 33
0.0
 40
0.0
 40
0.0
 40
0.0
 40
0.0
 40
0.1428571428571428
 40
0.1428571428571428
 40
0.1428571428571428
 40
0.1428571428571428
 40
0.2857142857142857
 40
0.2857142857142857
 40
0.2857142857142857
 40
0.2857142857142857
 40
0.4285714285714285
 40
0.4285714285714285
 40
0.4285714285714285
 40
0.4285714285714285
 40
0.5714285714285714
 40
0.5714285714285714
 40
0.5714285714285714
 40
0.5714285714285714
 40
0.7142857142857143
 40
0.7142857142857143
 40
0.7142857142857143
 40
0.7142857142857143
 40
1.0
 40
1.0
 40
1.0
 40
1.0
 10
-175.9181
 20
-61.2102
 30
0.0
 10
-175.9181
 20
-61.2102
 30
0.0
 10
-175.9181
 20
-47.9012
 30
0.0
 10
-175.9181
 20
-47.9012
 30
0.0
 10
-175.9181
 20
-47.9012
 30
0.0
 10
-174.8292
 20
-48.1433
 30
0.0
 10
-173.6192
 20
-48.3855
 30
0.0
 10
-172.2882
 20
-48.3855
 30
0.0
 10
-172.2882
 20
-48.3855
 30
0.0
 10
-169.1425
 20
-48.3855
 30
0.0
 10
-166.1179
 20
-47.1755
 30
0.0
 10
-163.9401
 20
-45.1187
 30
0.0
 10
-163.9401
 20
-45.1187
 30
0.0
 10
-163.9401
 20
-45.1187
 30
0.0
 10
-158.7373
 20
-45.1187
 30
0.0
 10
-158.7373
 20
-45.1187
 30
0.0
 10
-158.7373
 20
-45.1187
 30
0.0
 10
-158.7373
 20
-45.1187
 30
0.0
 10
-158.7373
 20
-61.2102
 30
0.0
 10
-158.7373
 20
-61.2102
 30
0.0
 10
-158.7373
 20
-61.2102
 30
0.0
 10
-158.7373
 20
-61.2102
 30
0.0
 10
-175.9181
 20
-61.2102
 30
0.0
 10
-175.9181
 20
-61.2102
 30
0.0
  0
SPLINE
  5
88
330
1F
100
AcDbEntity
  8
layer 1
 62
     7
100
AcDbSpline
210
0.0
220
0.0
230
1.0
 70
    11
 71
     3
 72
    24
 73
    20
 74
     0
 42
0.0000000001
 43
0.0000000001
 12
1.0
 22
0.0
 32
0.0
 13
1.0
 23
0.0
 33
0.0
 40
0.0
 40
0.0
 40
0.0
 40
0.0
 40
0.1666666666666667
 40
0.1666666666666667
 40
0.1666666666666667
 40
0.1666666666666667
 40
0.3333333333333333
 40
0.3333333333333333
 40
0.3333333333333333
 40
0.3333333333333333
 40
0.5
 40
0.5
 40
0.5
 40
0.5
 40
0.6666666666666666
 40
0.6666666666666666
 40
0.6666666666666666
 40
0.6666666666666666
 40
1.0
 40
1.0
 40
1.0
 40
1.0
 10
-166.6018
 20
-24.5502
 30
0.0
 10
-166.6018
 20
-24.5502
 30
0.0
 10
-158.7373
 20
-24.5502
 30
0.0
 10
-158.7373
 20
-24.5502
 30
0.0
 10
-158.7373
 20
-24.5502
 30
0.0
 10
-158.7373
 20
-24.5502
 30
0.0
 10
-158.7373
 20
-40.642
 30
0.0
 10
-158.7373
 20
-40.642
 30
0.0
 10
-158.7373
 20
-40.642
 30
0.0
 10
-158.7373
 20
-40.642
 30
0.0
 10
-160.6734
 20
-40.642
 30
0.0
 10
-160.6734
 20
-40.642
 30
0.0
 10
-160.6734
 20
-40.642
 30
0.0
 10
-160.0684
 20
-39.0692
 30
0.0
 10
-159.7052
 20
-37.4964
 30
0.0
 10
-159.7052
 20
-35.8025
 30
0.0
 10
-159.7052
 20
-35.8025
 30
0.0
 10
-159.7052
 20
-30.8419
 30
0.0
 10
-162.488
 20
-26.6073
 30
0.0
 10
-166.6018
 20
-24.5502
 30
0.0
  0
SPLINE
  5
89
330
1F
100
AcDbEntity
  8
layer 1
 62
     7
100
AcDbSpline
210
0.0
220
0.0
230
1.0
 70
    11
 71
     3
 72
    24
 73
    20
 74
     0
 42
0.0000000001
 43
0.0000000001
 12
1.0
 22
0.0
 32
0.0
 13
1.0
 23
0.0
 33
0.0
 40
0.0
 40
0.0
 40
0.0
 40
0.0
 40
0.1666666666666667
 40
0.1666666666666667
 40
0.1666666666666667
 40
0.1666666666666667
 40
0.3333333333333333
 40
0.3333333333333333
 40
0.3333333333333333
 40
0.3333333333333333
 40
0.5
 40
0.5
 40
0.5
 40
0.5
 40
0.6666666666666666
 40
0.6666666666666666
 40
0.6666666666666666
 40
0.6666666666666666
 40
1.0
 40
1.0
 40
1.0
 40
1.0
 10
-175.9181
 20
-28.543
 30
0.0
 10
-174.8292
 20
-28.0591
 30
0.0
 10
-173.6192
 20
-27.6962
 30
0.0
 10
-172.2882
 20
-27.6962
 30
0.0
 10
-172.2882
 20
-27.6962
 30
0.0
 10
-167.9325
 20
-27.6962
 30
0.0
 10
-164.3029
 20
-31.3258
 30
0.0
 10
-164.3029
 20
-35.8025
 30
0.0
 10
-164.3029
 20
-35.8025
 30
0.0
 10
-164.3029
 20
-40.1581
 30
0.0
 10
-167.9325
 20
-43.7877
 30
0.0
 10
-172.2882
 20
-43.7877
 30
0.0
 10
-172.2882
 20
-43.7877
 30
0.0
 10
-173.6192
 20
-43.7877
 30
0.0
 10
-174.8292
 20
-43.4248
 30
0.0
 10
-175.9181
 20
-42.9409
 30
0.0
 10
-175.9181
 20
-42.9409
 30
0.0
 10
-175.9181
 20
-42.9409
 30
0.0
 10
-175.9181
 20
-28.543
 30
0.0
 10
-175.9181
 20
-28.543
 30
0.0
  0
SPLINE
  5
8A
330
1F
100
AcDbEntity
  8
layer 1
 62
     7
100
AcDbSpline
210
0.0
220
0.0
230
1.0
 70
    11
 71
     3
 72
    24
 73
    20
 74
     0
 42
0.0000000001
 43
0.0000000001
 12
1.0
 22
0.0
 32
0.0
 13
1.0
 23
0.0
 33
0.0
 40
0.0
 40
0.0
 40
0.0
 40
0.0
 40
0.1666666666666667
 40
0.1666666666666667
 40
0.1666666666666667
 40
0.1666666666666667
 40
0.3333333333333333
 40
0.3333333333333333
 40
0.3333333333333333
 40
0.3333333333333333
 40
0.5
 40
0.5
 40
0.5
 40
0.5
 40
0.6666666666666666
 40
0.6666666666666666
 40
0.6666666666666666
 40
0.6666666666666666
 40
1.0
 40
1.0
 40
1.0
 40
1.0
 10
-154.1399
 20
-90.1752
 30
0.0
 10
-154.1399
 20
-90.1752
 30
0.0
 10
-154.1399
 20
-86.5333
 30
0.0
 10
-154.1399
 20
-86.5333
 30
0.0
 10
-154.1399
 20
-86.5333
 30
0.0
 10
-154.1399
 20
-86.5333
 30
0.0
 10
-128.8529
 20
-86.5333
 30
0.0
 10
-128.8529
 20
-86.5333
 30
0.0
 10
-128.8529
 20
-86.5333
 30
0.0
 10
-128.8529
 20
-86.5333
 30
0.0
 10
-128.8529
 20
-102.6131
 30
0.0
 10
-128.8529
 20
-102.6131
 30
0.0
 10
-128.8529
 20
-102.6131
 30
0.0
 10
-128.8529
 20
-102.6131
 30
0.0
 10
-141.678
 20
-102.6131
 30
0.0
 10
-141.678
 20
-102.6131
 30
0.0
 10
-141.678
 20
-102.6131
 30
0.0
 10
-141.7987
 20
-95.8012
 30
0.0
 10
-147.2433
 20
-90.2963
 30
0.0
 10
-154.1399
 20
-90.1752
 30
0.0
  0
SPLINE
  5
8B
330
1F
100
AcDbEntity
  8
layer 1
 62
     7
100
AcDbSpline
210
0.0
220
0.0
230
1.0
 70
    11
 71
     3
 72
    24
 73
    20
 74
     0
 42
0.0000000001
 43
0.0000000001
 12
1.0
 22
0.0
 32
0.0
 13
1.0
 23
0.0
 33
0.0
 40
0.0
 40
0.0
 40
0.0
 40
0.0
 40
0.1666666666666667
 40
0.1666666666666667
 40
0.1666666666666667
 40
0.1666666666666667
 40
0.3333333333333333
 40
0.3333333333333333
 40
0.3333333333333333
 40
0.3333333333333333
 40
0.5
 40
0.5
 40
0.5
 40
0.5
 40
0.6666666666666666
 40
0.6666666666666666
 40
0.6666666666666666
 40
0.6666666666666666
 40
1.0
 40
1.0
 40
1.0
 40
1.0
 10
-175.9181
 20
-102.6131
 30
0.0
 10
-175.9181
 20
-102.6131
 30
0.0
 10
-175.9181
 20
-86.5333
 30
0.0
 10
-175.9181
 20
-86.5333
 30
0.0
 10
-175.9181
 20
-86.5333
 30
0.0
 10
-175.9181
 20
-86.5333
 30
0.0
 10
-158.7373
 20
-86.5333
 30
0.0
 10
-158.7373
 20
-86.5333
 30
0.0
 10
-158.7373
 20
-86.5333
 30
0.0
 10
-158.7373
 20
-86.5333
 30
0.0
 10
-158.7373
 20
-90.9616
 30
0.0
 10
-158.7373
 20
-90.9616
 30
0.0
 10
-158.7373
 20
-90.9616
 30
0.0
 10
-163.4562
 20
-92.7159
 30
0.0
 10
-166.8436
 20
-97.2653
 30
0.0
 10
-166.9647
 20
-102.6131
 30
0.0
 10
-166.9647
 20
-102.6131
 30
0.0
 10
-166.9647
 20
-102.6131
 30
0.0
 10
-175.9181
 20
-102.6131
 30
0.0
 10
-175.9181
 20
-102.6131
 30
0.0
  0
SPLINE
  5
8C
330
1F
100
AcDbEntity
  8
layer 1
 62
     7
100
AcDbSpline
210
0.0
220
0.0
230
1.0
 70
    11
 71
     3
 72
    24
 73
    20
 74
     0
 42
0.0000000001
 43
0.0000000001
 12
1.0
 22
0.0
 32
0.0
 13
1.0
 23
0.0
 33
0.0
 40
0.0
 40
0.0
 40
0.0
 40
0.0
 40
0.1666666666666667
 40
0.1666666666666667
 40
0.1666666666666667
 40
0.1666666666666667
 40
0.3333333333333333
 40
0.3333333333333333
 40
0.3333333333333333
 40
0.3333333333333333
 40
0.5
 40
0.5
 40
0.5
 40
0.5
 40
0.6666666666666666
 40
0.6666666666666666
 40
0.6666666666666666
 40
0.6666666666666666
 40
1.0
 40
1.0
 40
1.0
 40
1.0
 10
-162.3673
 20
-102.8185
 30
0.0
 10
-162.3673
 20
-98.3782
 30
0.0
 10
-158.7373
 20
-94.773
 30
0.0
 10
-154.2606
 20
-94.773
 30
0.0
 10
-154.2606
 20
-94.773
 30
0.0
 10
-149.905
 20
-94.773
 30
0.0
 10
-146.2754
 20
-98.3782
 30
0.0
 10
-146.2754
 20
-102.8185
 30
0.0
 10
-146.2754
 20
-102.8185
 30
0.0
 10
-146.2754
 20
-103.0607
 30
0.0
 10
-146.2754
 20
-103.3025
 30
0.0
 10
-146.2754
 20
-103.5326
 30
0.0
 10
-146.2754
 20
-103.5326
 30
0.0
 10
-146.2754
 20
-103.5326
 30
0.0
 10
-162.3673
 20
-103.5326
 30
0.0
 10
-162.3673
 20
-103.5326
 30
0.0
 10
-162.3673
 20
-103.5326
 30
0.0
 10
-162.3673
 20
-103.3025
 30
0.0
 10
-162.3673
 20
-103.0607
 30
0.0
 10
-162.3673
 20
-102.8185
 30
0.0
  0
ENDSEC
  0
SECTION
  2
OBJECTS
  0
DICTIONARY
  5
C
330
0
100
AcDbDictionary
281
     1
  3
ACAD_GROUP
350
D
  3
ACAD_LAYOUT
350
1A
  3
ACAD_MATERIAL
350
3B
  3
ACAD_MLEADERSTYLE
350
AE
  3
ACAD_MLINESTYLE
350
17
  3
ACAD_PLOTSETTINGS
350
19
  3
ACAD_PLOTSTYLENAME
350
E
  3
ACAD_TABLESTYLE
350
AD
  3
ACAD_VISUALSTYLE
350
2A
  0
DICTIONARY
  5
D
102
{ACAD_REACTORS
330
C
102
}
330
C
100
AcDbDictionary
281
     1
  0
DICTIONARY
  5
1A
102
{ACAD_REACTORS
330
C
102
}
330
C
100
AcDbDictionary
281
     1
  3
Layout1
350
1E
  3
Layout2
350
26
  3
Model
350
22
  0
DICTIONARY
  5
3B
102
{ACAD_REACTORS
330
C
102
}
330
C
100
AcDbDictionary
281
     1
  3
ByBlock
350
3D
  3
ByLayer
350
3C
  3
Global
350
3E
  0
DICTIONARY
  5
AE
102
{ACAD_REACTORS
330
C
102
}
330
C
100
AcDbDictionary
281
     1
  0
DICTIONARY
  5
17
102
{ACAD_REACTORS
330
C
102
}
330
C
100
AcDbDictionary
281
     1
  3
Standard
350
18
  0
DICTIONARY
  5
19
102
{ACAD_REACTORS
330
C
102
}
330
C
100
AcDbDictionary
281
     1
  0
ACDBDICTIONARYWDFLT
  5
E
102
{ACAD_REACTORS
330
C
102
}
330
C
100
AcDbDictionary
281
     1
  3
Normal
350
F
100
AcDbDictionaryWithDefault
340
F
  0
DICTIONARY
  5
AD
102
{ACAD_REACTORS
330
C
102
}
330
C
100
AcDbDictionary
281
     1
  0
DICTIONARY
  5
2A
102
{ACAD_REACTORS
330
C
102
}
330
C
100
AcDbDictionary
281
     1
  3
2dWireframe
350
2F
  3
3D Hidden
350
31
  3
3dWireframe
350
30
  3
Basic
350
32
  3
Brighten
350
36
  3
ColorChange
350
3A
  3
Conceptual
350
34
  3
Dim
350
35
  3
Facepattern
350
39
  3
Flat
350
2B
  3
FlatWithEdges
350
2C
  3
Gouraud
350
2D
  3
GouraudWithEdges
350
2E
  3
Linepattern
350
38
  3
Realistic
350
33
  3
Thicken
350
37
  0
LAYOUT
  5
1E
102
{ACAD_REACTORS
330
1A
102
}
330
1A
100
AcDbPlotSettings
  1

  2
none_device
  4

  6

 40
0.0
 41
0.0
 42
0.0
 43
0.0
 44
0.0
 45
0.0
 46
0.0
 47
0.0
 48
0.0
 49
0.0
140
0.0
141
0.0
142
1.0
143
1.0
 70
   688
 72
     0
 73
     0
 74
     5
  7

 75
    16
 76
     0
 77
     2
 78
   300
147
1.0
148
0.0
149
0.0
100
AcDbLayout
  1
Layout1
 70
     1
 71
     1
 10
0.0
 20
0.0
 11
12.0
 21
9.0
 12
0.0
 22
0.0
 32
0.0
 14
1.000000000000000E+20
 24
1.000000000000000E+20
 34
1.000000000000000E+20
 15
-1.000000000000000E+20
 25
-1.000000000000000E+20
 35
-1.000000000000000E+20
146
0.0
 13
0.0
 23
0.0
 33
0.0
 16
1.0
 26
0.0
 36
0.0
 17
0.0
 27
1.0
 37
0.0
 76
     0
330
1B
  0
LAYOUT
  5
26
102
{ACAD_REACTORS
330
1A
102
}
330
1A
100
AcDbPlotSettings
  1

  2
none_device
  4

  6

 40
0.0
 41
0.0
 42
0.0
 43
0.0
 44
0.0
 45
0.0
 46
0.0
 47
0.0
 48
0.0
 49
0.0
140
0.0
141
0.0
142
1.0
143
1.0
 70
   688
 72
     0
 73
     0
 74
     5
  7

 75
    16
 76
     0
 77
     2
 78
   300
147
1.0
148
0.0
149
0.0
100
AcDbLayout
  1
Layout2
 70
     1
 71
     2
 10
0.0
 20
0.0
 11
0.0
 21
0.0
 12
0.0
 22
0.0
 32
0.0
 14
0.0
 24
0.0
 34
0.0
 15
0.0
 25
0.0
 35
0.0
146
0.0
 13
0.0
 23
0.0
 33
0.0
 16
1.0
 26
0.0
 36
0.0
 17
0.0
 27
1.0
 37
0.0
 76
     0
330
23
  0
LAYOUT
  5
22
102
{ACAD_REACTORS
330
1A
102
}
330
1A
100
AcDbPlotSettings
  1

  2
none_device
  4

  6

 40
0.0
 41
0.0
 42
0.0
 43
0.0
 44
0.0
 45
0.0
 46
0.0
 47
0.0
 48
0.0
 49
0.0
140
0.0
141
0.0
142
1.0
143
1.0
 70
  1712
 72
     0
 73
     0
 74
     0
  7

 75
     0
 76
     0
 77
     2
 78
   300
147
1.0
148
0.0
149
0.0
100
AcDbLayout
  1
Model
 70
     1
 71
     0
 10
0.0
 20
0.0
 11
12.0
 21
9.0
 12
0.0
 22
0.0
 32
0.0
 14
-187.4118
 24
-115.1172
 34
0.0
 15
-32.3029
 25
131.8592
 35
0.0
146
0.0
 13
0.0
 23
0.0
 33
0.0
 16
1.0
 26
0.0
 36
0.0
 17
0.0
 27
1.0
 37
0.0
 76
     0
330
1F
331
29
  0
MATERIAL
  5
3D
102
{ACAD_REACTORS
330
3B
102
}
330
3B
100
AcDbMaterial
  1
ByBlock
 72
     1
 94
      127
  0
MATERIAL
  5
3C
102
{ACAD_REACTORS
330
3B
102
}
330
3B
100
AcDbMaterial
  1
ByLayer
 72
     1
 94
      127
  0
MATERIAL
  5
3E
102
{ACAD_REACTORS
330
3B
102
}
330
3B
100
AcDbMaterial
  1
Global
 72
     1
 94
      127
  0
MLINESTYLE
  5
18
102
{ACAD_REACTORS
330
17
102
}
330
17
100
AcDbMlineStyle
  2
Standard
 70
     0
  3

 62
   256
 51
90.0
 52
90.0
 71
     2
 49
0.5
 62
   256
  6
BYLAYER
 49
-0.5
 62
   256
  6
BYLAYER
  0
ACDBPLACEHOLDER
  5
F
102
{ACAD_REACTORS
330
E
102
}
330
E
  0
VISUALSTYLE
  5
2F
102
{ACAD_REACTORS
330
2A
102
}
102
{ACAD_XDICTIONARY
360
95
102
}
330
2A
100
AcDbVisualStyle
  2
2dWireframe
 70
     4
 71
     0
 72
     2
 73
     0
 90
        0
 40
-0.6
 41
-30.0
 62
     5
 63
     7
421
 16777215
 74
     1
 91
        4
 64
     7
 65
   257
 75
     1
175
     1
 42
1.0
 92
        0
 66
   257
 43
1.0
 76
     1
 77
     6
 78
     2
 67
     7
 79
     5
170
     0
171
     0
290
     0
174
     0
 93
        1
 44
0.0
173
     0
291
     0
 45
0.0
  0
VISUALSTYLE
  5
31
102
{ACAD_REACTORS
330
2A
102
}
102
{ACAD_XDICTIONARY
360
99
102
}
330
2A
100
AcDbVisualStyle
  2
3D Hidden
 70
     6
 71
     1
 72
     2
 73
     2
 90
        0
 40
-0.6
 41
-30.0
 62
     5
 63
     7
421
 16777215
 74
     2
 91
        2
 64
     7
 65
   257
 75
     2
175
     1
 42
40.0
 92
        0
 66
   257
 43
1.0
 76
     1
 77
     6
 78
     2
 67
     7
 79
     3
170
     0
171
     0
290
     0
174
     0
 93
        1
 44
0.0
173
     0
291
     0
 45
0.0
  0
VISUALSTYLE
  5
30
102
{ACAD_REACTORS
330
2A
102
}
102
{ACAD_XDICTIONARY
360
97
102
}
330
2A
100
AcDbVisualStyle
  2
3dWireframe
 70
     5
 71
     0
 72
     2
 73
     0
 90
        0
 40
-0.6
 41
-30.0
 62
     5
 63
     7
421
 16777215
 74
     1
 91
        4
 64
     7
 65
   257
 75
     1
175
     1
 42
1.0
 92
        0
 66
   257
 43
1.0
 76
     1
 77
     6
 78
     2
 67
     7
 79
     5
170
     0
171
     0
290
     0
174
     0
 93
        1
 44
0.0
173
     0
291
     0
 45
0.0
  0
VISUALSTYLE
  5
32
102
{ACAD_REACTORS
330
2A
102
}
102
{ACAD_XDICTIONARY
360
9B
102
}
330
2A
100
AcDbVisualStyle
  2
Basic
 70
     7
 71
     1
 72
     0
 73
     1
 90
        0
 40
-0.6
 41
-30.0
 62
     5
 63
     7
421
 16777215
 74
     0
 91
        4
 64
     7
 65
   257
 75
     1
175
     1
 42
1.0
 92
        8
 66
     7
 43
1.0
 76
     1
 77
     6
 78
     2
 67
     7
 79
     5
170
     0
171
     0
290
     0
174
     0
 93
        1
 44
0.0
173
     0
291
     1
 45
0.0
  0
VISUALSTYLE
  5
36
102
{ACAD_REACTORS
330
2A
102
}
102
{ACAD_XDICTIONARY
360
A3
102
}
330
2A
100
AcDbVisualStyle
  2
Brighten
 70
    12
 71
     2
 72
     2
 73
     0
 90
        0
 40
-0.6
 41
-30.0
 62
     5
 63
     7
421
 16777215
 74
     1
 91
        4
 64
     7
 65
   257
 75
     1
175
     1
 42
1.0
 92
        8
 66
     7
 43
1.0
 76
     1
 77
     6
 78
     2
 67
     7
 79
     5
170
     0
171
     0
290
     0
174
     0
 93
        1
 44
50.0
173
     0
291
     1
 45
0.0
  0
VISUALSTYLE
  5
3A
102
{ACAD_REACTORS
330
2A
102
}
102
{ACAD_XDICTIONARY
360
AB
102
}
330
2A
100
AcDbVisualStyle
  2
ColorChange
 70
    16
 71
     2
 72
     2
 73
     3
 90
        0
 40
-0.6
 41
-30.0
 62
     5
 63
     8
421
  8421504
 74
     1
 91
        4
 64
     7
 65
   257
 75
     1
175
     1
 42
1.0
 92
        8
 66
     8
424
  8421504
 43
1.0
 76
     1
 77
     6
 78
     2
 67
     7
 79
     5
170
     0
171
     0
290
     0
174
     0
 93
        1
 44
0.0
173
     0
291
     1
 45
0.0
  0
VISUALSTYLE
  5
34
102
{ACAD_REACTORS
330
2A
102
}
102
{ACAD_XDICTIONARY
360
9F
102
}
330
2A
100
AcDbVisualStyle
  2
Conceptual
 70
     9
 71
     3
 72
     2
 73
     0
 90
        0
 40
-0.6
 41
-30.0
 62
     5
 63
     7
421
 16777215
 74
     2
 91
        2
 64
     7
 65
   257
 75
     1
175
     1
 42
40.0
 92
        8
 66
     7
 43
1.0
 76
     1
 77
     6
 78
     2
 67
     7
 79
     3
170
     0
171
     0
290
     0
174
     0
 93
        1
 44
0.0
173
     0
291
     0
 45
0.0
  0
VISUALSTYLE
  5
35
102
{ACAD_REACTORS
330
2A
102
}
102
{ACAD_XDICTIONARY
360
A1
102
}
330
2A
100
AcDbVisualStyle
  2
Dim
 70
    11
 71
     2
 72
     2
 73
     0
 90
        0
 40
-0.6
 41
-30.0
 62
     5
 63
     7
421
 16777215
 74
     1
 91
        4
 64
     7
 65
   257
 75
     1
175
     1
 42
1.0
 92
        8
 66
     7
 43
1.0
 76
     1
 77
     6
 78
     2
 67
     7
 79
     5
170
     0
171
     0
290
     0
174
     0
 93
        1
 44
-50.0
173
     0
291
     1
 45
0.0
  0
VISUALSTYLE
  5
39
102
{ACAD_REACTORS
330
2A
102
}
102
{ACAD_XDICTIONARY
360
A9
102
}
330
2A
100
AcDbVisualStyle
  2
Facepattern
 70
    15
 71
     2
 72
     2
 73
     0
 90
        0
 40
-0.6
 41
-30.0
 62
     5
 63
     7
421
 16777215
 74
     1
 91
        4
 64
     7
 65
   257
 75
     1
175
     1
 42
1.0
 92
        8
 66
     7
 43
1.0
 76
     1
 77
     6
 78
     2
 67
     7
 79
     5
170
     0
171
     0
290
     0
174
     0
 93
        1
 44
0.0
173
     0
291
     1
 45
0.0
  0
VISUALSTYLE
  5
2B
102
{ACAD_REACTORS
330
2A
102
}
102
{ACAD_XDICTIONARY
360
8D
102
}
330
2A
100
AcDbVisualStyle
  2
Flat
 70
     0
 71
     2
 72
     1
 73
     1
 90
        2
 40
-0.6
 41
30.0
 62
     5
 63
     7
421
 16777215
 74
     0
 91
        4
 64
     7
 65
   257
 75
     1
175
     1
 42
1.0
 92
        8
 66
     7
 43
1.0
 76
     1
 77
     6
 78
     2
 67
     7
 79
     5
170
     0
171
     0
290
     0
174
     0
 93
       13
 44
0.0
173
     0
291
     1
 45
0.0
  0
VISUALSTYLE
  5
2C
102
{ACAD_REACTORS
330
2A
102
}
102
{ACAD_XDICTIONARY
360
8F
102
}
330
2A
100
AcDbVisualStyle
  2
FlatWithEdges
 70
     1
 71
     2
 72
     1
 73
     1
 90
        2
 40
-0.6
 41
30.0
 62
     5
 63
     7
421
 16777215
 74
     1
 91
        4
 64
     7
 65
   257
 75
     1
175
     1
 42
1.0
 92
        0
 66
   257
 43
1.0
 76
     1
 77
     6
 78
     2
 67
     7
 79
     5
170
     0
171
     0
290
     0
174
     0
 93
       13
 44
0.0
173
     0
291
     1
 45
0.0
  0
VISUALSTYLE
  5
2D
102
{ACAD_REACTORS
330
2A
102
}
102
{ACAD_XDICTIONARY
360
91
102
}
330
2A
100
AcDbVisualStyle
  2
Gouraud
 70
     2
 71
     2
 72
     2
 73
     1
 90
        2
 40
-0.6
 41
30.0
 62
     5
 63
     7
421
 16777215
 74
     0
 91
        4
 64
     7
 65
   257
 75
     1
175
     1
 42
1.0
 92
        0
 66
     7
 43
1.0
 76
     1
 77
     6
 78
     2
 67
     7
 79
     5
170
     0
171
     0
290
     0
174
     0
 93
       13
 44
0.0
173
     0
291
     1
 45
0.0
  0
VISUALSTYLE
  5
2E
102
{ACAD_REACTORS
330
2A
102
}
102
{ACAD_XDICTIONARY
360
93
102
}
330
2A
100
AcDbVisualStyle
  2
GouraudWithEdges
 70
     3
 71
     2
 72
     2
 73
     1
 90
        2
 40
-0.6
 41
30.0
 62
     5
 63
     7
421
 16777215
 74
     1
 91
        4
 64
     7
 65
   257
 75
     1
175
     1
 42
1.0
 92
        0
 66
   257
 43
1.0
 76
     1
 77
     6
 78
     2
 67
     7
 79
     5
170
     0
171
     0
290
     0
174
     0
 93
       13
 44
0.0
173
     0
291
     1
 45
0.0
  0
VISUALSTYLE
  5
38
102
{ACAD_REACTORS
330
2A
102
}
102
{ACAD_XDICTIONARY
360
A7
102
}
330
2A
100
AcDbVisualStyle
  2
Linepattern
 70
    14
 71
     2
 72
     2
 73
     0
 90
        0
 40
-0.6
 41
-30.0
 62
     5
 63
     7
421
 16777215
 74
     1
 91
        4
 64
     7
 65
   257
 75
     7
175
     7
 42
1.0
 92
        8
 66
     7
 43
1.0
 76
     1
 77
     6
 78
     2
 67
     7
 79
     5
170
     0
171
     0
290
     0
174
     0
 93
        1
 44
0.0
173
     0
291
     1
 45
0.0
  0
VISUALSTYLE
  5
33
102
{ACAD_REACTORS
330
2A
102
}
102
{ACAD_XDICTIONARY
360
9D
102
}
330
2A
100
AcDbVisualStyle
  2
Realistic
 70
     8
 71
     2
 72
     2
 73
     0
 90
        0
 40
-0.6
 41
-30.0
 62
     5
 63
     7
421
 16777215
 74
     1
 91
        0
 64
     7
 65
   257
 75
     1
175
     1
 42
1.0
 92
        8
 66
     8
424
  7895160
 43
1.0
 76
     1
 77
     6
 78
     2
 67
     7
 79
     5
170
     0
171
     0
290
     0
174
     0
 93
       13
 44
0.0
173
     0
291
     0
 45
0.0
  0
VISUALSTYLE
  5
37
102
{ACAD_REACTORS
330
2A
102
}
102
{ACAD_XDICTIONARY
360
A5
102
}
330
2A
100
AcDbVisualStyle
  2
Thicken
 70
    13
 71
     2
 72
     2
 73
     0
 90
        0
 40
-0.6
 41
-30.0
 62
     5
 63
     7
421
 16777215
 74
     1
 91
        4
 64
     7
 65
   257
 75
     1
175
     1
 42
1.0
 92
       12
 66
     7
 43
1.0
 76
     1
 77
     6
 78
     2
 67
     7
 79
     5
170
     0
171
     0
290
     0
174
     0
 93
        1
 44
0.0
173
     0
291
     1
 45
0.0
  0
DICTIONARY
  5
95
330
2F
100
AcDbDictionary
280
     1
281
     1
  3
ACAD_XREC_ROUNDTRIP
360
96
  0
DICTIONARY
  5
99
330
31
100
AcDbDictionary
280
     1
281
     1
  3
ACAD_XREC_ROUNDTRIP
360
9A
  0
DICTIONARY
  5
97
330
30
100
AcDbDictionary
280
     1
281
     1
  3
ACAD_XREC_ROUNDTRIP
360
98
  0
DICTIONARY
  5
9B
330
32
100
AcDbDictionary
280
     1
281
     1
  3
ACAD_XREC_ROUNDTRIP
360
9C
  0
DICTIONARY
  5
A3
330
36
100
AcDbDictionary
280
     1
281
     1
  3
ACAD_XREC_ROUNDTRIP
360
A4
  0
DICTIONARY
  5
AB
330
3A
100
AcDbDictionary
280
     1
281
     1
  3
ACAD_XREC_ROUNDTRIP
360
AC
  0
DICTIONARY
  5
9F
330
34
100
AcDbDictionary
280
     1
281
     1
  3
ACAD_XREC_ROUNDTRIP
360
A0
  0
DICTIONARY
  5
A1
330
35
100
AcDbDictionary
280
     1
281
     1
  3
ACAD_XREC_ROUNDTRIP
360
A2
  0
DICTIONARY
  5
A9
330
39
100
AcDbDictionary
280
     1
281
     1
  3
ACAD_XREC_ROUNDTRIP
360
AA
  0
DICTIONARY
  5
8D
330
2B
100
AcDbDictionary
280
     1
281
     1
  3
ACAD_XREC_ROUNDTRIP
360
8E
  0
DICTIONARY
  5
8F
330
2C
100
AcDbDictionary
280
     1
281
     1
  3
ACAD_XREC_ROUNDTRIP
360
90
  0
DICTIONARY
  5
91
330
2D
100
AcDbDictionary
280
     1
281
     1
  3
ACAD_XREC_ROUNDTRIP
360
92
  0
DICTIONARY
  5
93
330
2E
100
AcDbDictionary
280
     1
281
     1
  3
ACAD_XREC_ROUNDTRIP
360
94
  0
DICTIONARY
  5
A7
330
38
100
AcDbDictionary
280
     1
281
     1
  3
ACAD_XREC_ROUNDTRIP
360
A8
  0
DICTIONARY
  5
9D
330
33
100
AcDbDictionary
280
     1
281
     1
  3
ACAD_XREC_ROUNDTRIP
360
9E
  0
DICTIONARY
  5
A5
330
37
100
AcDbDictionary
280
     1
281
     1
  3
ACAD_XREC_ROUNDTRIP
360
A6
  0
XRECORD
  5
96
102
{ACAD_REACTORS
330
95
102
}
330
95
100
AcDbXrecord
280
     1
102
RTVSPropertyOp0
 70
     1
102
RTVSPropertyOp1
 70
     1
102
RTVSPropertyOp2
 70
     1
102
RTVSPropertyOp3
 70
     1
102
RTVSPropertyOp4
 70
     1
102
RTVSPropertyOp5
 70
     1
102
RTVSPropertyOp6
 70
     1
102
RTVSPropertyOp7
 70
     1
102
RTVSPropertyOp8
 70
     1
102
RTVSPropertyOp9
 70
     1
102
RTVSPropertyOp10
 70
     1
102
RTVSPropertyOp11
 70
     1
102
RTVSPropertyOp12
 70
     1
102
RTVSPropertyOp13
 70
     1
102
RTVSPropertyOp14
 70
     1
102
RTVSPropertyOp15
 70
     1
102
RTVSPropertyOp16
 70
     1
102
RTVSPropertyOp17
 70
     1
102
RTVSPropertyOp18
 70
     1
102
RTVSPropertyOp19
 70
     1
102
RTVSPropertyOp20
 70
     1
102
RTVSPropertyOp21
 70
     1
102
RTVSPropertyOp22
 70
     1
102
RTVSPropertyOp23
 70
     1
102
RTVSPropertyOp24
 70
     1
102
RTVSPropertyOp25
 70
     1
102
RTVSPropertyOp26
 70
     1
102
RTVSPropertyOp27
 70
     1
102
RTVSPropertyOp28
 70
     1
102
RTVSPropertyOp29
 70
     1
102
RTVSPropertyOp30
 70
     1
102
RTVSPropertyOp31
 70
     1
102
RTVSPropertyOp32
 70
     1
  0
XRECORD
  5
9A
102
{ACAD_REACTORS
330
99
102
}
330
99
100
AcDbXrecord
280
     1
102
RTVSPropertyOp0
 70
     1
102
RTVSPropertyOp1
 70
     1
102
RTVSPropertyOp2
 70
     1
102
RTVSPropertyOp3
 70
     1
102
RTVSPropertyOp4
 70
     1
102
RTVSPropertyOp5
 70
     1
102
RTVSPropertyOp6
 70
     1
102
RTVSPropertyOp7
 70
     1
102
RTVSPropertyOp8
 70
     1
102
RTVSPropertyOp9
 70
     1
102
RTVSPropertyOp10
 70
     1
102
RTVSPropertyOp11
 70
     1
102
RTVSPropertyOp12
 70
     1
102
RTVSPropertyOp13
 70
     1
102
RTVSPropertyOp14
 70
     1
102
RTVSPropertyOp15
 70
     1
102
RTVSPropertyOp16
 70
     1
102
RTVSPropertyOp17
 70
     1
102
RTVSPropertyOp18
 70
     1
102
RTVSPropertyOp19
 70
     1
102
RTVSPropertyOp20
 70
     1
102
RTVSPropertyOp21
 70
     1
102
RTVSPropertyOp22
 70
     1
102
RTVSPropertyOp23
 70
     1
102
RTVSPropertyOp24
 70
     1
102
RTVSPropertyOp25
 70
     1
102
RTVSPropertyOp26
 70
     1
102
RTVSPropertyOp27
 70
     1
102
RTVSPropertyOp28
 70
     1
102
RTVSPropertyOp29
 70
     1
102
RTVSPropertyOp30
 70
     1
102
RTVSPropertyOp31
 70
     1
102
RTVSPropertyOp32
 70
     1
  0
XRECORD
  5
98
102
{ACAD_REACTORS
330
97
102
}
330
97
100
AcDbXrecord
280
     1
102
RTVSPropertyOp0
 70
     1
102
RTVSPropertyOp1
 70
     1
102
RTVSPropertyOp2
 70
     1
102
RTVSPropertyOp3
 70
     1
102
RTVSPropertyOp4
 70
     1
102
RTVSPropertyOp5
 70
     1
102
RTVSPropertyOp6
 70
     1
102
RTVSPropertyOp7
 70
     1
102
RTVSPropertyOp8
 70
     1
102
RTVSPropertyOp9
 70
     1
102
RTVSPropertyOp10
 70
     1
102
RTVSPropertyOp11
 70
     1
102
RTVSPropertyOp12
 70
     1
102
RTVSPropertyOp13
 70
     1
102
RTVSPropertyOp14
 70
     1
102
RTVSPropertyOp15
 70
     1
102
RTVSPropertyOp16
 70
     1
102
RTVSPropertyOp17
 70
     1
102
RTVSPropertyOp18
 70
     1
102
RTVSPropertyOp19
 70
     1
102
RTVSPropertyOp20
 70
     1
102
RTVSPropertyOp21
 70
     1
102
RTVSPropertyOp22
 70
     1
102
RTVSPropertyOp23
 70
     1
102
RTVSPropertyOp24
 70
     1
102
RTVSPropertyOp25
 70
     1
102
RTVSPropertyOp26
 70
     1
102
RTVSPropertyOp27
 70
     1
102
RTVSPropertyOp28
 70
     1
102
RTVSPropertyOp29
 70
     1
102
RTVSPropertyOp30
 70
     1
102
RTVSPropertyOp31
 70
     1
102
RTVSPropertyOp32
 70
     1
  0
XRECORD
  5
9C
102
{ACAD_REACTORS
330
9B
102
}
330
9B
100
AcDbXrecord
280
     1
102
RTVSPropertyOp0
 70
     1
102
RTVSPropertyOp1
 70
     1
102
RTVSPropertyOp2
 70
     1
102
RTVSPropertyOp3
 70
     1
102
RTVSPropertyOp4
 70
     1
102
RTVSPropertyOp5
 70
     1
102
RTVSPropertyOp6
 70
     1
102
RTVSPropertyOp7
 70
     1
102
RTVSPropertyOp8
 70
     1
102
RTVSPropertyOp9
 70
     1
102
RTVSPropertyOp10
 70
     1
102
RTVSPropertyOp11
 70
     1
102
RTVSPropertyOp12
 70
     1
102
RTVSPropertyOp13
 70
     1
102
RTVSPropertyOp14
 70
     1
102
RTVSPropertyOp15
 70
     1
102
RTVSPropertyOp16
 70
     1
102
RTVSPropertyOp17
 70
     1
102
RTVSPropertyOp18
 70
     1
102
RTVSPropertyOp19
 70
     1
102
RTVSPropertyOp20
 70
     1
102
RTVSPropertyOp21
 70
     1
102
RTVSPropertyOp22
 70
     1
102
RTVSPropertyOp23
 70
     1
102
RTVSPropertyOp24
 70
     1
102
RTVSPropertyOp25
 70
     1
102
RTVSPropertyOp26
 70
     1
102
RTVSPropertyOp27
 70
     1
102
RTVSPropertyOp28
 70
     1
102
RTVSPropertyOp29
 70
     1
102
RTVSPropertyOp30
 70
     1
102
RTVSPropertyOp31
 70
     1
102
RTVSPropertyOp32
 70
     1
  0
XRECORD
  5
A4
102
{ACAD_REACTORS
330
A3
102
}
330
A3
100
AcDbXrecord
280
     1
102
RTVSPropertyOp0
 70
     1
102
RTVSPropertyOp1
 70
     1
102
RTVSPropertyOp2
 70
     1
102
RTVSPropertyOp3
 70
     1
102
RTVSPropertyOp4
 70
     1
102
RTVSPropertyOp5
 70
     1
102
RTVSPropertyOp6
 70
     1
102
RTVSPropertyOp7
 70
     1
102
RTVSPropertyOp8
 70
     1
102
RTVSPropertyOp9
 70
     1
102
RTVSPropertyOp10
 70
     1
102
RTVSPropertyOp11
 70
     1
102
RTVSPropertyOp12
 70
     1
102
RTVSPropertyOp13
 70
     1
102
RTVSPropertyOp14
 70
     1
102
RTVSPropertyOp15
 70
     1
102
RTVSPropertyOp16
 70
     1
102
RTVSPropertyOp17
 70
     1
102
RTVSPropertyOp18
 70
     1
102
RTVSPropertyOp19
 70
     1
102
RTVSPropertyOp20
 70
     1
102
RTVSPropertyOp21
 70
     1
102
RTVSPropertyOp22
 70
     1
102
RTVSPropertyOp23
 70
     1
102
RTVSPropertyOp24
 70
     1
102
RTVSPropertyOp25
 70
     1
102
RTVSPropertyOp26
 70
     1
102
RTVSPropertyOp27
 70
     1
102
RTVSPropertyOp28
 70
     1
102
RTVSPropertyOp29
 70
     1
102
RTVSPropertyOp30
 70
     1
102
RTVSPropertyOp31
 70
     1
102
RTVSPropertyOp32
 70
     1
  0
XRECORD
  5
AC
102
{ACAD_REACTORS
330
AB
102
}
330
AB
100
AcDbXrecord
280
     1
102
RTVSPropertyOp0
 70
     1
102
RTVSPropertyOp1
 70
     1
102
RTVSPropertyOp2
 70
     1
102
RTVSPropertyOp3
 70
     1
102
RTVSPropertyOp4
 70
     1
102
RTVSPropertyOp5
 70
     1
102
RTVSPropertyOp6
 70
     1
102
RTVSPropertyOp7
 70
     1
102
RTVSPropertyOp8
 70
     1
102
RTVSPropertyOp9
 70
     1
102
RTVSPropertyOp10
 70
     1
102
RTVSPropertyOp11
 70
     1
102
RTVSPropertyOp12
 70
     1
102
RTVSPropertyOp13
 70
     1
102
RTVSPropertyOp14
 70
     1
102
RTVSPropertyOp15
 70
     1
102
RTVSPropertyOp16
 70
     1
102
RTVSPropertyOp17
 70
     1
102
RTVSPropertyOp18
 70
     1
102
RTVSPropertyOp19
 70
     1
102
RTVSPropertyOp20
 70
     1
102
RTVSPropertyOp21
 70
     1
102
RTVSPropertyOp22
 70
     1
102
RTVSPropertyOp23
 70
     1
102
RTVSPropertyOp24
 70
     1
102
RTVSPropertyOp25
 70
     1
102
RTVSPropertyOp26
 70
     1
102
RTVSPropertyOp27
 70
     1
102
RTVSPropertyOp28
 70
     1
102
RTVSPropertyOp29
 70
     1
102
RTVSPropertyOp30
 70
     1
102
RTVSPropertyOp31
 70
     1
102
RTVSPropertyOp32
 70
     1
  0
XRECORD
  5
A0
102
{ACAD_REACTORS
330
9F
102
}
330
9F
100
AcDbXrecord
280
     1
102
RTVSPropertyOp0
 70
     1
102
RTVSPropertyOp1
 70
     1
102
RTVSPropertyOp2
 70
     1
102
RTVSPropertyOp3
 70
     1
102
RTVSPropertyOp4
 70
     1
102
RTVSPropertyOp5
 70
     1
102
RTVSPropertyOp6
 70
     1
102
RTVSPropertyOp7
 70
     1
102
RTVSPropertyOp8
 70
     1
102
RTVSPropertyOp9
 70
     1
102
RTVSPropertyOp10
 70
     1
102
RTVSPropertyOp11
 70
     1
102
RTVSPropertyOp12
 70
     1
102
RTVSPropertyOp13
 70
     1
102
RTVSPropertyOp14
 70
     1
102
RTVSPropertyOp15
 70
     1
102
RTVSPropertyOp16
 70
     1
102
RTVSPropertyOp17
 70
     1
102
RTVSPropertyOp18
 70
     1
102
RTVSPropertyOp19
 70
     1
102
RTVSPropertyOp20
 70
     1
102
RTVSPropertyOp21
 70
     1
102
RTVSPropertyOp22
 70
     1
102
RTVSPropertyOp23
 70
     1
102
RTVSPropertyOp24
 70
     1
102
RTVSPropertyOp25
 70
     1
102
RTVSPropertyOp26
 70
     1
102
RTVSPropertyOp27
 70
     1
102
RTVSPropertyOp28
 70
     1
102
RTVSPropertyOp29
 70
     1
102
RTVSPropertyOp30
 70
     1
102
RTVSPropertyOp31
 70
     1
102
RTVSPropertyOp32
 70
     1
  0
XRECORD
  5
A2
102
{ACAD_REACTORS
330
A1
102
}
330
A1
100
AcDbXrecord
280
     1
102
RTVSPropertyOp0
 70
     1
102
RTVSPropertyOp1
 70
     1
102
RTVSPropertyOp2
 70
     1
102
RTVSPropertyOp3
 70
     1
102
RTVSPropertyOp4
 70
     1
102
RTVSPropertyOp5
 70
     1
102
RTVSPropertyOp6
 70
     1
102
RTVSPropertyOp7
 70
     1
102
RTVSPropertyOp8
 70
     1
102
RTVSPropertyOp9
 70
     1
102
RTVSPropertyOp10
 70
     1
102
RTVSPropertyOp11
 70
     1
102
RTVSPropertyOp12
 70
     1
102
RTVSPropertyOp13
 70
     1
102
RTVSPropertyOp14
 70
     1
102
RTVSPropertyOp15
 70
     1
102
RTVSPropertyOp16
 70
     1
102
RTVSPropertyOp17
 70
     1
102
RTVSPropertyOp18
 70
     1
102
RTVSPropertyOp19
 70
     1
102
RTVSPropertyOp20
 70
     1
102
RTVSPropertyOp21
 70
     1
102
RTVSPropertyOp22
 70
     1
102
RTVSPropertyOp23
 70
     1
102
RTVSPropertyOp24
 70
     1
102
RTVSPropertyOp25
 70
     1
102
RTVSPropertyOp26
 70
     1
102
RTVSPropertyOp27
 70
     1
102
RTVSPropertyOp28
 70
     1
102
RTVSPropertyOp29
 70
     1
102
RTVSPropertyOp30
 70
     1
102
RTVSPropertyOp31
 70
     1
102
RTVSPropertyOp32
 70
     1
  0
XRECORD
  5
AA
102
{ACAD_REACTORS
330
A9
102
}
330
A9
100
AcDbXrecord
280
     1
102
RTVSPropertyOp0
 70
     1
102
RTVSPropertyOp1
 70
     1
102
RTVSPropertyOp2
 70
     1
102
RTVSPropertyOp3
 70
     1
102
RTVSPropertyOp4
 70
     1
102
RTVSPropertyOp5
 70
     1
102
RTVSPropertyOp6
 70
     1
102
RTVSPropertyOp7
 70
     1
102
RTVSPropertyOp8
 70
     1
102
RTVSPropertyOp9
 70
     1
102
RTVSPropertyOp10
 70
     1
102
RTVSPropertyOp11
 70
     1
102
RTVSPropertyOp12
 70
     1
102
RTVSPropertyOp13
 70
     1
102
RTVSPropertyOp14
 70
     1
102
RTVSPropertyOp15
 70
     1
102
RTVSPropertyOp16
 70
     1
102
RTVSPropertyOp17
 70
     1
102
RTVSPropertyOp18
 70
     1
102
RTVSPropertyOp19
 70
     1
102
RTVSPropertyOp20
 70
     1
102
RTVSPropertyOp21
 70
     1
102
RTVSPropertyOp22
 70
     1
102
RTVSPropertyOp23
 70
     1
102
RTVSPropertyOp24
 70
     1
102
RTVSPropertyOp25
 70
     1
102
RTVSPropertyOp26
 70
     1
102
RTVSPropertyOp27
 70
     1
102
RTVSPropertyOp28
 70
     1
102
RTVSPropertyOp29
 70
     1
102
RTVSPropertyOp30
 70
     1
102
RTVSPropertyOp31
 70
     1
102
RTVSPropertyOp32
 70
     1
  0
XRECORD
  5
8E
102
{ACAD_REACTORS
330
8D
102
}
330
8D
100
AcDbXrecord
280
     1
102
RTVSPropertyOp0
 70
     1
102
RTVSPropertyOp1
 70
     1
102
RTVSPropertyOp2
 70
     1
102
RTVSPropertyOp3
 70
     1
102
RTVSPropertyOp4
 70
     1
102
RTVSPropertyOp5
 70
     1
102
RTVSPropertyOp6
 70
     1
102
RTVSPropertyOp7
 70
     1
102
RTVSPropertyOp8
 70
     1
102
RTVSPropertyOp9
 70
     1
102
RTVSPropertyOp10
 70
     1
102
RTVSPropertyOp11
 70
     1
102
RTVSPropertyOp12
 70
     1
102
RTVSPropertyOp13
 70
     1
102
RTVSPropertyOp14
 70
     1
102
RTVSPropertyOp15
 70
     1
102
RTVSPropertyOp16
 70
     1
102
RTVSPropertyOp17
 70
     1
102
RTVSPropertyOp18
 70
     1
102
RTVSPropertyOp19
 70
     1
102
RTVSPropertyOp20
 70
     1
102
RTVSPropertyOp21
 70
     1
102
RTVSPropertyOp22
 70
     1
102
RTVSPropertyOp23
 70
     1
102
RTVSPropertyOp24
 70
     1
102
RTVSPropertyOp25
 70
     1
102
RTVSPropertyOp26
 70
     1
102
RTVSPropertyOp27
 70
     1
102
RTVSPropertyOp28
 70
     1
102
RTVSPropertyOp29
 70
     1
102
RTVSPropertyOp30
 70
     1
102
RTVSPropertyOp31
 70
     1
102
RTVSPropertyOp32
 70
     1
  0
XRECORD
  5
90
102
{ACAD_REACTORS
330
8F
102
}
330
8F
100
AcDbXrecord
280
     1
102
RTVSPropertyOp0
 70
     1
102
RTVSPropertyOp1
 70
     1
102
RTVSPropertyOp2
 70
     1
102
RTVSPropertyOp3
 70
     1
102
RTVSPropertyOp4
 70
     1
102
RTVSPropertyOp5
 70
     1
102
RTVSPropertyOp6
 70
     1
102
RTVSPropertyOp7
 70
     1
102
RTVSPropertyOp8
 70
     1
102
RTVSPropertyOp9
 70
     1
102
RTVSPropertyOp10
 70
     1
102
RTVSPropertyOp11
 70
     1
102
RTVSPropertyOp12
 70
     1
102
RTVSPropertyOp13
 70
     1
102
RTVSPropertyOp14
 70
     1
102
RTVSPropertyOp15
 70
     1
102
RTVSPropertyOp16
 70
     1
102
RTVSPropertyOp17
 70
     1
102
RTVSPropertyOp18
 70
     1
102
RTVSPropertyOp19
 70
     1
102
RTVSPropertyOp20
 70
     1
102
RTVSPropertyOp21
 70
     1
102
RTVSPropertyOp22
 70
     1
102
RTVSPropertyOp23
 70
     1
102
RTVSPropertyOp24
 70
     1
102
RTVSPropertyOp25
 70
     1
102
RTVSPropertyOp26
 70
     1
102
RTVSPropertyOp27
 70
     1
102
RTVSPropertyOp28
 70
     1
102
RTVSPropertyOp29
 70
     1
102
RTVSPropertyOp30
 70
     1
102
RTVSPropertyOp31
 70
     1
102
RTVSPropertyOp32
 70
     1
  0
XRECORD
  5
92
102
{ACAD_REACTORS
330
91
102
}
330
91
100
AcDbXrecord
280
     1
102
RTVSPropertyOp0
 70
     1
102
RTVSPropertyOp1
 70
     1
102
RTVSPropertyOp2
 70
     1
102
RTVSPropertyOp3
 70
     1
102
RTVSPropertyOp4
 70
     1
102
RTVSPropertyOp5
 70
     1
102
RTVSPropertyOp6
 70
     1
102
RTVSPropertyOp7
 70
     1
102
RTVSPropertyOp8
 70
     1
102
RTVSPropertyOp9
 70
     1
102
RTVSPropertyOp10
 70
     1
102
RTVSPropertyOp11
 70
     1
102
RTVSPropertyOp12
 70
     1
102
RTVSPropertyOp13
 70
     1
102
RTVSPropertyOp14
 70
     1
102
RTVSPropertyOp15
 70
     1
102
RTVSPropertyOp16
 70
     1
102
RTVSPropertyOp17
 70
     1
102
RTVSPropertyOp18
 70
     1
102
RTVSPropertyOp19
 70
     1
102
RTVSPropertyOp20
 70
     1
102
RTVSPropertyOp21
 70
     1
102
RTVSPropertyOp22
 70
     1
102
RTVSPropertyOp23
 70
     1
102
RTVSPropertyOp24
 70
     1
102
RTVSPropertyOp25
 70
     1
102
RTVSPropertyOp26
 70
     1
102
RTVSPropertyOp27
 70
     1
102
RTVSPropertyOp28
 70
     1
102
RTVSPropertyOp29
 70
     1
102
RTVSPropertyOp30
 70
     1
102
RTVSPropertyOp31
 70
     1
102
RTVSPropertyOp32
 70
     1
  0
XRECORD
  5
94
102
{ACAD_REACTORS
330
93
102
}
330
93
100
AcDbXrecord
280
     1
102
RTVSPropertyOp0
 70
     1
102
RTVSPropertyOp1
 70
     1
102
RTVSPropertyOp2
 70
     1
102
RTVSPropertyOp3
 70
     1
102
RTVSPropertyOp4
 70
     1
102
RTVSPropertyOp5
 70
     1
102
RTVSPropertyOp6
 70
     1
102
RTVSPropertyOp7
 70
     1
102
RTVSPropertyOp8
 70
     1
102
RTVSPropertyOp9
 70
     1
102
RTVSPropertyOp10
 70
     1
102
RTVSPropertyOp11
 70
     1
102
RTVSPropertyOp12
 70
     1
102
RTVSPropertyOp13
 70
     1
102
RTVSPropertyOp14
 70
     1
102
RTVSPropertyOp15
 70
     1
102
RTVSPropertyOp16
 70
     1
102
RTVSPropertyOp17
 70
     1
102
RTVSPropertyOp18
 70
     1
102
RTVSPropertyOp19
 70
     1
102
RTVSPropertyOp20
 70
     1
102
RTVSPropertyOp21
 70
     1
102
RTVSPropertyOp22
 70
     1
102
RTVSPropertyOp23
 70
     1
102
RTVSPropertyOp24
 70
     1
102
RTVSPropertyOp25
 70
     1
102
RTVSPropertyOp26
 70
     1
102
RTVSPropertyOp27
 70
     1
102
RTVSPropertyOp28
 70
     1
102
RTVSPropertyOp29
 70
     1
102
RTVSPropertyOp30
 70
     1
102
RTVSPropertyOp31
 70
     1
102
RTVSPropertyOp32
 70
     1
  0
XRECORD
  5
A8
102
{ACAD_REACTORS
330
A7
102
}
330
A7
100
AcDbXrecord
280
     1
102
RTVSPropertyOp0
 70
     1
102
RTVSPropertyOp1
 70
     1
102
RTVSPropertyOp2
 70
     1
102
RTVSPropertyOp3
 70
     1
102
RTVSPropertyOp4
 70
     1
102
RTVSPropertyOp5
 70
     1
102
RTVSPropertyOp6
 70
     1
102
RTVSPropertyOp7
 70
     1
102
RTVSPropertyOp8
 70
     1
102
RTVSPropertyOp9
 70
     1
102
RTVSPropertyOp10
 70
     1
102
RTVSPropertyOp11
 70
     1
102
RTVSPropertyOp12
 70
     1
102
RTVSPropertyOp13
 70
     1
102
RTVSPropertyOp14
 70
     1
102
RTVSPropertyOp15
 70
     1
102
RTVSPropertyOp16
 70
     1
102
RTVSPropertyOp17
 70
     1
102
RTVSPropertyOp18
 70
     1
102
RTVSPropertyOp19
 70
     1
102
RTVSPropertyOp20
 70
     1
102
RTVSPropertyOp21
 70
     1
102
RTVSPropertyOp22
 70
     1
102
RTVSPropertyOp23
 70
     1
102
RTVSPropertyOp24
 70
     1
102
RTVSPropertyOp25
 70
     1
102
RTVSPropertyOp26
 70
     1
102
RTVSPropertyOp27
 70
     1
102
RTVSPropertyOp28
 70
     1
102
RTVSPropertyOp29
 70
     1
102
RTVSPropertyOp30
 70
     1
102
RTVSPropertyOp31
 70
     1
102
RTVSPropertyOp32
 70
     1
  0
XRECORD
  5
9E
102
{ACAD_REACTORS
330
9D
102
}
330
9D
100
AcDbXrecord
280
     1
102
RTVSPropertyOp0
 70
     1
102
RTVSPropertyOp1
 70
     1
102
RTVSPropertyOp2
 70
     1
102
RTVSPropertyOp3
 70
     1
102
RTVSPropertyOp4
 70
     1
102
RTVSPropertyOp5
 70
     1
102
RTVSPropertyOp6
 70
     1
102
RTVSPropertyOp7
 70
     1
102
RTVSPropertyOp8
 70
     1
102
RTVSPropertyOp9
 70
     1
102
RTVSPropertyOp10
 70
     1
102
RTVSPropertyOp11
 70
     1
102
RTVSPropertyOp12
 70
     1
102
RTVSPropertyOp13
 70
     1
102
RTVSPropertyOp14
 70
     1
102
RTVSPropertyOp15
 70
     1
102
RTVSPropertyOp16
 70
     1
102
RTVSPropertyOp17
 70
     1
102
RTVSPropertyOp18
 70
     1
102
RTVSPropertyOp19
 70
     1
102
RTVSPropertyOp20
 70
     1
102
RTVSPropertyOp21
 70
     1
102
RTVSPropertyOp22
 70
     1
102
RTVSPropertyOp23
 70
     1
102
RTVSPropertyOp24
 70
     1
102
RTVSPropertyOp25
 70
     1
102
RTVSPropertyOp26
 70
     1
102
RTVSPropertyOp27
 70
     1
102
RTVSPropertyOp28
 70
     1
102
RTVSPropertyOp29
 70
     1
102
RTVSPropertyOp30
 70
     1
102
RTVSPropertyOp31
 70
     1
102
RTVSPropertyOp32
 70
     1
  0
XRECORD
  5
A6
102
{ACAD_REACTORS
330
A5
102
}
330
A5
100
AcDbXrecord
280
     1
102
RTVSPropertyOp0
 70
     1
102
RTVSPropertyOp1
 70
     1
102
RTVSPropertyOp2
 70
     1
102
RTVSPropertyOp3
 70
     1
102
RTVSPropertyOp4
 70
     1
102
RTVSPropertyOp5
 70
     1
102
RTVSPropertyOp6
 70
     1
102
RTVSPropertyOp7
 70
     1
102
RTVSPropertyOp8
 70
     1
102
RTVSPropertyOp9
 70
     1
102
RTVSPropertyOp10
 70
     1
102
RTVSPropertyOp11
 70
     1
102
RTVSPropertyOp12
 70
     1
102
RTVSPropertyOp13
 70
     1
102
RTVSPropertyOp14
 70
     1
102
RTVSPropertyOp15
 70
     1
102
RTVSPropertyOp16
 70
     1
102
RTVSPropertyOp17
 70
     1
102
RTVSPropertyOp18
 70
     1
102
RTVSPropertyOp19
 70
     1
102
RTVSPropertyOp20
 70
     1
102
RTVSPropertyOp21
 70
     1
102
RTVSPropertyOp22
 70
     1
102
RTVSPropertyOp23
 70
     1
102
RTVSPropertyOp24
 70
     1
102
RTVSPropertyOp25
 70
     1
102
RTVSPropertyOp26
 70
     1
102
RTVSPropertyOp27
 70
     1
102
RTVSPropertyOp28
 70
     1
102
RTVSPropertyOp29
 70
     1
102
RTVSPropertyOp30
 70
     1
102
RTVSPropertyOp31
 70
     1
102
RTVSPropertyOp32
 70
     1
  0
ENDSEC
  0
EOF
