  0
SECTION
  2
HEADER
  9
$ACADVER
  1
AC1021
  9
$ACADMAINTVER
 70
    25
  9
$DWGCODEPAGE
  3
ANSI_1252
  9
$INSBASE
 10
0.0
 20
0.0
 30
0.0
  9
$EXTMIN
 10
-187.0514
 20
-114.8325
 30
0.0
  9
$EXTMAX
 10
-63.983
 20
131.8741
 30
0.0
  9
$LIMMIN
 10
0.0
 20
0.0
  9
$LIMMAX
 10
12.0
 20
9.0
  9
$ORTHOMODE
 70
     0
  9
$REGENMODE
 70
     1
  9
$FILLMODE
 70
     1
  9
$QTEXTMODE
 70
     0
  9
$MIRRTEXT
 70
     1
  9
$LTSCALE
 40
1.0
  9
$ATTMODE
 70
     1
  9
$TEXTSIZE
 40
0.2
  9
$TRACEWID
 40
0.05
  9
$TEXTSTYLE
  7
Standard
  9
$CLAYER
  8
0
  9
$CELTYPE
  6
ByLayer
  9
$CECOLOR
 62
   256
  9
$CELTSCALE
 40
1.0
  9
$DISPSILH
 70
     0
  9
$DIMSCALE
 40
1.0
  9
$DIMASZ
 40
0.18
  9
$DIMEXO
 40
0.0625
  9
$DIMDLI
 40
0.38
  9
$DIMRND
 40
0.0
  9
$DIMDLE
 40
0.0
  9
$DIMEXE
 40
0.18
  9
$DIMTP
 40
0.0
  9
$DIMTM
 40
0.0
  9
$DIMTXT
 40
0.18
  9
$DIMCEN
 40
0.09
  9
$DIMTSZ
 40
0.0
  9
$DIMTOL
 70
     0
  9
$DIMLIM
 70
     0
  9
$DIMTIH
 70
     1
  9
$DIMTOH
 70
     1
  9
$DIMSE1
 70
     0
  9
$DIMSE2
 70
     0
  9
$DIMTAD
 70
     0
  9
$DIMZIN
 70
     0
  9
$DIMBLK
  1

  9
$DIMASO
 70
     1
  9
$DIMSHO
 70
     1
  9
$DIMPOST
  1

  9
$DIMAPOST
  1

  9
$DIMALT
 70
     0
  9
$DIMALTD
 70
     2
  9
$DIMALTF
 40
25.4
  9
$DIMLFAC
 40
1.0
  9
$DIMTOFL
 70
     0
  9
$DIMTVP
 40
0.0
  9
$DIMTIX
 70
     0
  9
$DIMSOXD
 70
     0
  9
$DIMSAH
 70
     0
  9
$DIMBLK1
  1

  9
$DIMBLK2
  1

  9
$DIMSTYLE
  2
Standard
  9
$DIMCLRD
 70
     0
  9
$DIMCLRE
 70
     0
  9
$DIMCLRT
 70
     0
  9
$DIMTFAC
 40
1.0
  9
$DIMGAP
 40
0.09
  9
$DIMJUST
 70
     0
  9
$DIMSD1
 70
     0
  9
$DIMSD2
 70
     0
  9
$DIMTOLJ
 70
     1
  9
$DIMTZIN
 70
     0
  9
$DIMALTZ
 70
     0
  9
$DIMALTTZ
 70
     0
  9
$DIMUPT
 70
     0
  9
$DIMDEC
 70
     4
  9
$DIMTDEC
 70
     4
  9
$DIMALTU
 70
     2
  9
$DIMALTTD
 70
     2
  9
$DIMTXSTY
  7
Standard
  9
$DIMAUNIT
 70
     0
  9
$DIMADEC
 70
     0
  9
$DIMALTRND
 40
0.0
  9
$DIMAZIN
 70
     0
  9
$DIMDSEP
 70
    46
  9
$DIMATFIT
 70
     3
  9
$DIMFRAC
 70
     0
  9
$DIMLDRBLK
  1

  9
$DIMLUNIT
 70
     2
  9
$DIMLWD
 70
    -2
  9
$DIMLWE
 70
    -2
  9
$DIMTMOVE
 70
     0
  9
$DIMFXL
 40
1.0
  9
$DIMFXLON
 70
     0
  9
$DIMJOGANG
 40
0.7853981633974483
  9
$DIMTFILL
 70
     0
  9
$DIMTFILLCLR
 70
     0
  9
$DIMARCSYM
 70
     0
  9
$DIMLTYPE
  6

  9
$DIMLTEX1
  6

  9
$DIMLTEX2
  6

  9
$LUNITS
 70
     2
  9
$LUPREC
 70
     4
  9
$SKETCHINC
 40
0.1
  9
$FILLETRAD
 40
0.5
  9
$AUNITS
 70
     0
  9
$AUPREC
 70
     0
  9
$MENU
  1
.
  9
$ELEVATION
 40
0.0
  9
$PELEVATION
 40
0.0
  9
$THICKNESS
 40
0.0
  9
$LIMCHECK
 70
     0
  9
$CHAMFERA
 40
0.5
  9
$CHAMFERB
 40
0.5
  9
$CHAMFERC
 40
1.0
  9
$CHAMFERD
 40
0.0
  9
$SKPOLY
 70
     0
  9
$TDCREATE
 40
2458493.745556273
  9
$TDUCREATE
 40
2458493.745556273
  9
$TDUPDATE
 40
2458493.745556574
  9
$TDUUPDATE
 40
2458493.745556574
  9
$TDINDWG
 40
0.0000000116
  9
$TDUSRTIMER
 40
0.0000000116
  9
$USRTIMER
 70
     1
  9
$ANGBASE
 50
0.0
  9
$ANGDIR
 70
     0
  9
$PDMODE
 70
     0
  9
$PDSIZE
 40
0.0
  9
$PLINEWID
 40
0.0
  9
$SPLFRAME
 70
     0
  9
$SPLINETYPE
 70
     6
  9
$SPLINESEGS
 70
     8
  9
$HANDSEED
  5
182
  9
$SURFTAB1
 70
     6
  9
$SURFTAB2
 70
     6
  9
$SURFTYPE
 70
     6
  9
$SURFU
 70
     6
  9
$SURFV
 70
     6
  9
$UCSBASE
  2

  9
$UCSNAME
  2

  9
$UCSORG
 10
0.0
 20
0.0
 30
0.0
  9
$UCSXDIR
 10
1.0
 20
0.0
 30
0.0
  9
$UCSYDIR
 10
0.0
 20
1.0
 30
0.0
  9
$UCSORTHOREF
  2

  9
$UCSORTHOVIEW
 70
     0
  9
$UCSORGTOP
 10
0.0
 20
0.0
 30
0.0
  9
$UCSORGBOTTOM
 10
0.0
 20
0.0
 30
0.0
  9
$UCSORGLEFT
 10
0.0
 20
0.0
 30
0.0
  9
$UCSORGRIGHT
 10
0.0
 20
0.0
 30
0.0
  9
$UCSORGFRONT
 10
0.0
 20
0.0
 30
0.0
  9
$UCSORGBACK
 10
0.0
 20
0.0
 30
0.0
  9
$PUCSBASE
  2

  9
$PUCSNAME
  2

  9
$PUCSORG
 10
0.0
 20
0.0
 30
0.0
  9
$PUCSXDIR
 10
1.0
 20
0.0
 30
0.0
  9
$PUCSYDIR
 10
0.0
 20
1.0
 30
0.0
  9
$PUCSORTHOREF
  2

  9
$PUCSORTHOVIEW
 70
     0
  9
$PUCSORGTOP
 10
0.0
 20
0.0
 30
0.0
  9
$PUCSORGBOTTOM
 10
0.0
 20
0.0
 30
0.0
  9
$PUCSORGLEFT
 10
0.0
 20
0.0
 30
0.0
  9
$PUCSORGRIGHT
 10
0.0
 20
0.0
 30
0.0
  9
$PUCSORGFRONT
 10
0.0
 20
0.0
 30
0.0
  9
$PUCSORGBACK
 10
0.0
 20
0.0
 30
0.0
  9
$USERI1
 70
     0
  9
$USERI2
 70
     0
  9
$USERI3
 70
     0
  9
$USERI4
 70
     0
  9
$USERI5
 70
     0
  9
$USERR1
 40
0.0
  9
$USERR2
 40
0.0
  9
$USERR3
 40
0.0
  9
$USERR4
 40
0.0
  9
$USERR5
 40
0.0
  9
$WORLDVIEW
 70
     1
  9
$SHADEDGE
 70
     3
  9
$SHADEDIF
 70
    70
  9
$TILEMODE
 70
     1
  9
$MAXACTVP
 70
    64
  9
$PINSBASE
 10
0.0
 20
0.0
 30
0.0
  9
$PLIMCHECK
 70
     0
  9
$PEXTMIN
 10
1.000000000000000E+20
 20
1.000000000000000E+20
 30
1.000000000000000E+20
  9
$PEXTMAX
 10
-1.000000000000000E+20
 20
-1.000000000000000E+20
 30
-1.000000000000000E+20
  9
$PLIMMIN
 10
0.0
 20
0.0
  9
$PLIMMAX
 10
12.0
 20
9.0
  9
$UNITMODE
 70
     0
  9
$VISRETAIN
 70
     1
  9
$PLINEGEN
 70
     0
  9
$PSLTSCALE
 70
     1
  9
$TREEDEPTH
 70
  3020
  9
$CMLSTYLE
  2
Standard
  9
$CMLJUST
 70
     0
  9
$CMLSCALE
 40
1.0
  9
$PROXYGRAPHICS
 70
     1
  9
$MEASUREMENT
 70
     0
  9
$CELWEIGHT
370
    -1
  9
$ENDCAPS
280
     0
  9
$JOINSTYLE
280
     0
  9
$LWDISPLAY
290
     0
  9
$INSUNITS
 70
     4
  9
$HYPERLINKBASE
  1

  9
$STYLESHEET
  1

  9
$XEDIT
290
     1
  9
$CEPSNTYPE
380
     0
  9
$PSTYLEMODE
290
     1
  9
$FINGERPRINTGUID
  2
{BBA01FF3-0E0D-49CA-BB87-D8049A8220BB}
  9
$VERSIONGUID
  2
{FAEB1C32-E019-11D5-929B-00C0DF256EC4}
  9
$EXTNAMES
290
     1
  9
$PSVPSCALE
 40
0.0
  9
$OLESTARTUP
290
     0
  9
$SORTENTS
280
   127
  9
$INDEXCTL
280
     0
  9
$HIDETEXT
280
     1
  9
$XCLIPFRAME
290
     0
  9
$HALOGAP
280
     0
  9
$OBSCOLOR
 70
   257
  9
$OBSLTYPE
280
     0
  9
$INTERSECTIONDISPLAY
280
     0
  9
$INTERSECTIONCOLOR
 70
   257
  9
$DIMASSOC
280
     2
  9
$PROJECTNAME
  1

  9
$CAMERADISPLAY
290
     0
  9
$LENSLENGTH
 40
50.0
  9
$CAMERAHEIGHT
 40
0.0
  9
$STEPSPERSEC
 40
2.0
  9
$STEPSIZE
 40
6.0
  9
$3DDWFPREC
 40
2.0
  9
$PSOLWIDTH
 40
0.25
  9
$PSOLHEIGHT
 40
4.0
  9
$LOFTANG1
 40
1.570796326794897
  9
$LOFTANG2
 40
1.570796326794897
  9
$LOFTMAG1
 40
0.0
  9
$LOFTMAG2
 40
0.0
  9
$LOFTPARAM
 70
     7
  9
$LOFTNORMALS
280
     1
  9
$LATITUDE
 40
37.795
  9
$LONGITUDE
 40
-122.394
  9
$NORTHDIRECTION
 40
0.0
  9
$TIMEZONE
 70
 -8000
  9
$LIGHTGLYPHDISPLAY
280
     1
  9
$TILEMODELIGHTSYNCH
280
     1
  9
$SOLIDHIST
280
     1
  9
$SHOWHIST
280
     1
  9
$DWFFRAME
280
     2
  9
$DGNFRAME
280
     2
  9
$REALWORLDSCALE
290
     1
  9
$INTERFERECOLOR
 62
   256
  9
$CSHADOW
280
     0
  9
$SHADOWPLANELOCATION
 40
0.0
  0
ENDSEC
  0
SECTION
  2
CLASSES
  0
CLASS
  1
ACDBDICTIONARYWDFLT
  2
AcDbDictionaryWithDefault
  3
ObjectDBX Classes
 90
        0
 91
        4
280
     0
281
     0
  0
CLASS
  1
VISUALSTYLE
  2
AcDbVisualStyle
  3
ObjectDBX Classes
 90
     4095
 91
        4
280
     0
281
     0
  0
CLASS
  1
MATERIAL
  2
AcDbMaterial
  3
ObjectDBX Classes
 90
     1153
 91
        4
280
     0
281
     0
  0
ENDSEC
  0
SECTION
  2
TABLES
  0
TABLE
  2
VPORT
  5
8
330
0
100
AcDbSymbolTable
 70
     1
  0
VPORT
  5
29
330
8
100
AcDbSymbolTableRecord
100
AcDbViewportTableRecord
  2
*Active
 70
     0
 10
0.0
 20
0.0
 11
1.0
 21
1.0
 12
10.42990654205607
 22
4.5
 13
0.0
 23
0.0
 14
0.5
 24
0.5
 15
0.5
 25
0.5
 16
0.0
 26
0.0
 36
1.0
 17
0.0
 27
0.0
 37
0.0
 40
9.0
 41
1.972972972850329
 42
50.0
 43
0.0
 44
0.0
 50
0.0
 51
0.0
 71
     0
 72
   100
 73
     1
 74
     3
 75
     0
 76
     0
 77
     0
 78
     0
281
     0
 65
     1
110
0.0
120
0.0
130
0.0
111
1.0
121
0.0
131
0.0
112
0.0
122
1.0
132
0.0
 79
     0
146
0.0
 60
     3
 61
     5
292
     1
282
     1
141
0.0
142
0.0
 63
   250
  0
ENDTAB
  0
TABLE
  2
LTYPE
  5
5
330
0
100
AcDbSymbolTable
 70
     1
  0
LTYPE
  5
14
330
5
100
AcDbSymbolTableRecord
100
AcDbLinetypeTableRecord
  2
ByBlock
 70
     0
  3

 72
    65
 73
     0
 40
0.0
  0
LTYPE
  5
15
330
5
100
AcDbSymbolTableRecord
100
AcDbLinetypeTableRecord
  2
ByLayer
 70
     0
  3

 72
    65
 73
     0
 40
0.0
  0
LTYPE
  5
16
330
5
100
AcDbSymbolTableRecord
100
AcDbLinetypeTableRecord
  2
Continuous
 70
     0
  3
Solid line
 72
    65
 73
     0
 40
0.0
  0
ENDTAB
  0
TABLE
  2
LAYER
  5
2
330
0
100
AcDbSymbolTable
 70
     3
  0
LAYER
  5
10
330
2
100
AcDbSymbolTableRecord
100
AcDbLayerTableRecord
  2
0
 70
     0
 62
     7
  6
Continuous
370
    -3
390
F
347
3E
  0
LAYER
  5
40
330
2
100
AcDbSymbolTableRecord
100
AcDbLayerTableRecord
  2
layer 1
 70
     0
 62
     7
  6
Continuous
370
    -3
390
F
347
3E
  0
LAYER
  5
15F
330
2
100
AcDbSymbolTableRecord
100
AcDbLayerTableRecord
  2
Master Guides
 70
     0
 62
     7
  6
Continuous
370
    -3
390
F
347
3E
  0
ENDTAB
  0
TABLE
  2
STYLE
  5
3
330
0
100
AcDbSymbolTable
 70
     1
  0
STYLE
  5
11
330
3
100
AcDbSymbolTableRecord
100
AcDbTextStyleTableRecord
  2
Standard
 70
     0
 40
0.0
 41
1.0
 50
0.0
 71
     0
 42
0.2
  3
txt
  4

  0
ENDTAB
  0
TABLE
  2
VIEW
  5
6
330
0
100
AcDbSymbolTable
 70
     0
  0
ENDTAB
  0
TABLE
  2
UCS
  5
7
330
0
100
AcDbSymbolTable
 70
     0
  0
ENDTAB
  0
TABLE
  2
APPID
  5
9
330
0
100
AcDbSymbolTable
 70
     2
  0
APPID
  5
12
330
9
100
AcDbSymbolTableRecord
100
AcDbRegAppTableRecord
  2
ACAD
 70
     0
  0
APPID
  5
3F
330
9
100
AcDbSymbolTableRecord
100
AcDbRegAppTableRecord
  2
ODA
 70
     0
  0
ENDTAB
  0
TABLE
  2
DIMSTYLE
  5
A
330
0
100
AcDbSymbolTable
 70
     1
100
AcDbDimStyleTable
  0
DIMSTYLE
105
27
330
A
100
AcDbSymbolTableRecord
100
AcDbDimStyleTableRecord
  2
Standard
 70
     0
178
     0
340
11
  0
ENDTAB
  0
TABLE
  2
BLOCK_RECORD
  5
1
330
0
100
AcDbSymbolTable
 70
     1
  0
BLOCK_RECORD
  5
1F
330
1
100
AcDbSymbolTableRecord
100
AcDbBlockTableRecord
  2
*Model_Space
340
22
 70
     0
280
     1
281
     0
  0
BLOCK_RECORD
  5
1B
330
1
100
AcDbSymbolTableRecord
100
AcDbBlockTableRecord
  2
*Paper_Space
340
1E
 70
     0
280
     1
281
     0
  0
BLOCK_RECORD
  5
23
330
1
100
AcDbSymbolTableRecord
100
AcDbBlockTableRecord
  2
*Paper_Space0
340
26
 70
     0
280
     1
281
     0
  0
ENDTAB
  0
ENDSEC
  0
SECTION
  2
BLOCKS
  0
BLOCK
  5
20
330
1F
100
AcDbEntity
  8
0
100
AcDbBlockBegin
  2
*Model_Space
 70
     0
 10
0.0
 20
0.0
 30
0.0
  3
*Model_Space
  1

  0
ENDBLK
  5
21
330
1F
100
AcDbEntity
  8
0
100
AcDbBlockEnd
  0
BLOCK
  5
1C
330
1B
100
AcDbEntity
 67
     1
  8
0
100
AcDbBlockBegin
  2
*Paper_Space
 70
     0
 10
0.0
 20
0.0
 30
0.0
  3
*Paper_Space
  1

  0
ENDBLK
  5
1D
330
1B
100
AcDbEntity
 67
     1
  8
0
100
AcDbBlockEnd
  0
BLOCK
  5
24
330
23
100
AcDbEntity
  8
0
100
AcDbBlockBegin
  2
*Paper_Space0
 70
     0
 10
0.0
 20
0.0
 30
0.0
  3
*Paper_Space0
  1

  0
ENDBLK
  5
25
330
23
100
AcDbEntity
  8
0
100
AcDbBlockEnd
  0
ENDSEC
  0
SECTION
  2
ENTITIES
  0
SPLINE
  5
41
330
1F
100
AcDbEntity
  8
layer 1
 62
   250
100
AcDbSpline
210
0.0
220
0.0
230
1.0
 70
    11
 71
     3
 72
    20
 73
    16
 74
     0
 42
0.0000000001
 43
0.0000000001
 12
1.0
 22
0.0
 32
0.0
 13
1.0
 23
0.0
 33
0.0
 40
0.0
 40
0.0
 40
0.0
 40
0.0
 40
0.2
 40
0.2
 40
0.2
 40
0.2
 40
0.4
 40
0.4
 40
0.4
 40
0.4
 40
0.6
 40
0.6
 40
0.6
 40
0.6
 40
1.0
 40
1.0
 40
1.0
 40
1.0
 10
-187.0514
 20
131.8741
 30
0.0
 10
-187.0514
 20
131.8741
 30
0.0
 10
-63.983
 20
131.8741
 30
0.0
 10
-63.983
 20
131.8741
 30
0.0
 10
-63.983
 20
131.8741
 30
0.0
 10
-63.983
 20
131.8741
 30
0.0
 10
-63.983
 20
-114.8325
 30
0.0
 10
-63.983
 20
-114.8325
 30
0.0
 10
-63.983
 20
-114.8325
 30
0.0
 10
-63.983
 20
-114.8325
 30
0.0
 10
-187.0514
 20
-114.8325
 30
0.0
 10
-187.0514
 20
-114.8325
 30
0.0
 10
-187.0514
 20
-114.8325
 30
0.0
 10
-187.0514
 20
-114.8325
 30
0.0
 10
-187.0514
 20
131.8741
 30
0.0
 10
-187.0514
 20
131.8741
 30
0.0
  0
SPLINE
  5
42
330
1F
100
AcDbEntity
  8
layer 1
 62
     7
100
AcDbSpline
210
0.0
220
0.0
230
1.0
 70
    11
 71
     3
 72
    20
 73
    16
 74
     0
 42
0.0000000001
 43
0.0000000001
 12
1.0
 22
0.0
 32
0.0
 13
1.0
 23
0.0
 33
0.0
 40
0.0
 40
0.0
 40
0.0
 40
0.0
 40
0.2
 40
0.2
 40
0.2
 40
0.2
 40
0.4
 40
0.4
 40
0.4
 40
0.4
 40
0.6
 40
0.6
 40
0.6
 40
0.6
 40
1.0
 40
1.0
 40
1.0
 40
1.0
 10
-149.6666
 20
96.181
 30
0.0
 10
-152.8858
 20
94.6478
 30
0.0
 10
-154.2463
 20
91.8464
 30
0.0
 10
-154.2489
 20
89.0788
 30
0.0
 10
-154.2489
 20
89.0788
 30
0.0
 10
-154.2463
 20
86.3112
 30
0.0
 10
-152.8858
 20
83.5098
 30
0.0
 10
-149.6666
 20
81.9766
 30
0.0
 10
-149.6666
 20
81.9766
 30
0.0
 10
-148.8265
 20
85.4455
 30
0.0
 10
-145.8107
 20
88.6104
 30
0.0
 10
-143.5397
 20
89.0788
 30
0.0
 10
-143.5397
 20
89.0788
 30
0.0
 10
-145.8105
 20
89.5474
 30
0.0
 10
-148.8263
 20
92.7121
 30
0.0
 10
-149.6666
 20
96.181
 30
0.0
  0
SPLINE
  5
43
330
1F
100
AcDbEntity
  8
layer 1
 62
     7
100
AcDbSpline
210
0.0
220
0.0
230
1.0
 70
    11
 71
     3
 72
    20
 73
    16
 74
     0
 42
0.0000000001
 43
0.0000000001
 12
1.0
 22
0.0
 32
0.0
 13
1.0
 23
0.0
 33
0.0
 40
0.0
 40
0.0
 40
0.0
 40
0.0
 40
0.2
 40
0.2
 40
0.2
 40
0.2
 40
0.4
 40
0.4
 40
0.4
 40
0.4
 40
0.6
 40
0.6
 40
0.6
 40
0.6
 40
1.0
 40
1.0
 40
1.0
 40
1.0
 10
-134.4584
 20
81.3045
 30
0.0
 10
-136.0707
 20
84.5893
 30
0.0
 10
-138.4246
 20
86.3763
 30
0.0
 10
-140.9566
 20
86.3442
 30
0.0
 10
-140.9566
 20
86.3442
 30
0.0
 10
-143.4886
 20
86.3763
 30
0.0
 10
-145.8425
 20
84.5893
 30
0.0
 10
-147.4548
 20
81.3045
 30
0.0
 10
-147.4548
 20
81.3045
 30
0.0
 10
-144.8757
 20
80.4502
 30
0.0
 10
-141.7579
 20
77.5728
 30
0.0
 10
-140.9566
 20
74.9896
 30
0.0
 10
-140.9566
 20
74.9896
 30
0.0
 10
-140.1553
 20
77.5728
 30
0.0
 10
-137.0376
 20
80.4502
 30
0.0
 10
-134.4584
 20
81.3045
 30
0.0
  0
SPLINE
  5
44
330
1F
100
AcDbEntity
  8
layer 1
 62
     7
100
AcDbSpline
210
0.0
220
0.0
230
1.0
 70
    11
 71
     3
 72
    20
 73
    16
 74
     0
 42
0.0000000001
 43
0.0000000001
 12
1.0
 22
0.0
 32
0.0
 13
1.0
 23
0.0
 33
0.0
 40
0.0
 40
0.0
 40
0.0
 40
0.0
 40
0.2
 40
0.2
 40
0.2
 40
0.2
 40
0.4
 40
0.4
 40
0.4
 40
0.4
 40
0.6
 40
0.6
 40
0.6
 40
0.6
 40
1.0
 40
1.0
 40
1.0
 40
1.0
 10
-149.6666
 20
96.181
 30
0.0
 10
-152.8858
 20
94.6478
 30
0.0
 10
-154.2463
 20
91.8464
 30
0.0
 10
-154.2489
 20
89.0788
 30
0.0
 10
-154.2489
 20
89.0788
 30
0.0
 10
-154.2463
 20
86.3112
 30
0.0
 10
-152.8858
 20
83.5098
 30
0.0
 10
-149.6666
 20
81.9766
 30
0.0
 10
-149.6666
 20
81.9766
 30
0.0
 10
-148.8265
 20
85.4455
 30
0.0
 10
-145.8107
 20
88.6104
 30
0.0
 10
-143.5397
 20
89.0788
 30
0.0
 10
-143.5397
 20
89.0788
 30
0.0
 10
-145.8105
 20
89.5474
 30
0.0
 10
-148.8263
 20
92.7121
 30
0.0
 10
-149.6666
 20
96.181
 30
0.0
  0
SPLINE
  5
45
330
1F
100
AcDbEntity
  8
layer 1
 62
     7
100
AcDbSpline
210
0.0
220
0.0
230
1.0
 70
    11
 71
     3
 72
    20
 73
    16
 74
     0
 42
0.0000000001
 43
0.0000000001
 12
1.0
 22
0.0
 32
0.0
 13
1.0
 23
0.0
 33
0.0
 40
0.0
 40
0.0
 40
0.0
 40
0.0
 40
0.2
 40
0.2
 40
0.2
 40
0.2
 40
0.4
 40
0.4
 40
0.4
 40
0.4
 40
0.6
 40
0.6
 40
0.6
 40
0.6
 40
1.0
 40
1.0
 40
1.0
 40
1.0
 10
-134.4584
 20
81.3045
 30
0.0
 10
-136.0707
 20
84.5893
 30
0.0
 10
-138.4246
 20
86.3763
 30
0.0
 10
-140.9566
 20
86.3442
 30
0.0
 10
-140.9566
 20
86.3442
 30
0.0
 10
-143.4886
 20
86.3763
 30
0.0
 10
-145.8425
 20
84.5893
 30
0.0
 10
-147.4548
 20
81.3045
 30
0.0
 10
-147.4548
 20
81.3045
 30
0.0
 10
-144.8757
 20
80.4502
 30
0.0
 10
-141.7579
 20
77.5728
 30
0.0
 10
-140.9566
 20
74.9896
 30
0.0
 10
-140.9566
 20
74.9896
 30
0.0
 10
-140.1553
 20
77.5728
 30
0.0
 10
-137.0376
 20
80.4502
 30
0.0
 10
-134.4584
 20
81.3045
 30
0.0
  0
SPLINE
  5
46
330
1F
100
AcDbEntity
  8
layer 1
 62
     7
100
AcDbSpline
210
0.0
220
0.0
230
1.0
 70
    11
 71
     3
 72
    20
 73
    16
 74
     0
 42
0.0000000001
 43
0.0000000001
 12
1.0
 22
0.0
 32
0.0
 13
1.0
 23
0.0
 33
0.0
 40
0.0
 40
0.0
 40
0.0
 40
0.0
 40
0.2
 40
0.2
 40
0.2
 40
0.2
 40
0.4
 40
0.4
 40
0.4
 40
0.4
 40
0.6
 40
0.6
 40
0.6
 40
0.6
 40
1.0
 40
1.0
 40
1.0
 40
1.0
 10
-132.2215
 20
81.9766
 30
0.0
 10
-129.0023
 20
83.5098
 30
0.0
 10
-127.6418
 20
86.3112
 30
0.0
 10
-127.6392
 20
89.0788
 30
0.0
 10
-127.6392
 20
89.0788
 30
0.0
 10
-127.642
 20
91.8464
 30
0.0
 10
-129.0023
 20
94.6478
 30
0.0
 10
-132.2215
 20
96.181
 30
0.0
 10
-132.2215
 20
96.181
 30
0.0
 10
-133.0615
 20
92.7121
 30
0.0
 10
-136.0774
 20
89.5472
 30
0.0
 10
-138.3484
 20
89.0788
 30
0.0
 10
-138.3484
 20
89.0788
 30
0.0
 10
-136.0776
 20
88.6102
 30
0.0
 10
-133.0617
 20
85.4455
 30
0.0
 10
-132.2215
 20
81.9766
 30
0.0
  0
SPLINE
  5
47
330
1F
100
AcDbEntity
  8
layer 1
 62
     7
100
AcDbSpline
210
0.0
220
0.0
230
1.0
 70
    11
 71
     3
 72
    20
 73
    16
 74
     0
 42
0.0000000001
 43
0.0000000001
 12
1.0
 22
0.0
 32
0.0
 13
1.0
 23
0.0
 33
0.0
 40
0.0
 40
0.0
 40
0.0
 40
0.0
 40
0.2
 40
0.2
 40
0.2
 40
0.2
 40
0.4
 40
0.4
 40
0.4
 40
0.4
 40
0.6
 40
0.6
 40
0.6
 40
0.6
 40
1.0
 40
1.0
 40
1.0
 40
1.0
 10
-147.4298
 20
96.8531
 30
0.0
 10
-145.8176
 20
93.5683
 30
0.0
 10
-143.4637
 20
91.7814
 30
0.0
 10
-140.9317
 20
91.8134
 30
0.0
 10
-140.9317
 20
91.8134
 30
0.0
 10
-138.3997
 20
91.7814
 30
0.0
 10
-136.0457
 20
93.5683
 30
0.0
 10
-134.4335
 20
96.8531
 30
0.0
 10
-134.4335
 20
96.8531
 30
0.0
 10
-137.0126
 20
97.7074
 30
0.0
 10
-140.1304
 20
100.5848
 30
0.0
 10
-140.9317
 20
103.168
 30
0.0
 10
-140.9317
 20
103.168
 30
0.0
 10
-141.7329
 20
100.5848
 30
0.0
 10
-144.8507
 20
97.7074
 30
0.0
 10
-147.4298
 20
96.8531
 30
0.0
  0
SPLINE
  5
48
330
1F
100
AcDbEntity
  8
layer 1
 62
     7
100
AcDbSpline
210
0.0
220
0.0
230
1.0
 70
    11
 71
     3
 72
    20
 73
    16
 74
     0
 42
0.0000000001
 43
0.0000000001
 12
1.0
 22
0.0
 32
0.0
 13
1.0
 23
0.0
 33
0.0
 40
0.0
 40
0.0
 40
0.0
 40
0.0
 40
0.2
 40
0.2
 40
0.2
 40
0.2
 40
0.4
 40
0.4
 40
0.4
 40
0.4
 40
0.6
 40
0.6
 40
0.6
 40
0.6
 40
1.0
 40
1.0
 40
1.0
 40
1.0
 10
-118.2871
 20
96.181
 30
0.0
 10
-121.5062
 20
94.6478
 30
0.0
 10
-122.8668
 20
91.8464
 30
0.0
 10
-122.8693
 20
89.0788
 30
0.0
 10
-122.8693
 20
89.0788
 30
0.0
 10
-122.8668
 20
86.3112
 30
0.0
 10
-121.5062
 20
83.5098
 30
0.0
 10
-118.2871
 20
81.9766
 30
0.0
 10
-118.2871
 20
81.9766
 30
0.0
 10
-117.447
 20
85.4455
 30
0.0
 10
-114.4311
 20
88.6104
 30
0.0
 10
-112.1601
 20
89.0788
 30
0.0
 10
-112.1601
 20
89.0788
 30
0.0
 10
-114.4309
 20
89.5474
 30
0.0
 10
-117.4468
 20
92.7121
 30
0.0
 10
-118.2871
 20
96.181
 30
0.0
  0
SPLINE
  5
49
330
1F
100
AcDbEntity
  8
layer 1
 62
     7
100
AcDbSpline
210
0.0
220
0.0
230
1.0
 70
    11
 71
     3
 72
    20
 73
    16
 74
     0
 42
0.0000000001
 43
0.0000000001
 12
1.0
 22
0.0
 32
0.0
 13
1.0
 23
0.0
 33
0.0
 40
0.0
 40
0.0
 40
0.0
 40
0.0
 40
0.2
 40
0.2
 40
0.2
 40
0.2
 40
0.4
 40
0.4
 40
0.4
 40
0.4
 40
0.6
 40
0.6
 40
0.6
 40
0.6
 40
1.0
 40
1.0
 40
1.0
 40
1.0
 10
-103.0789
 20
81.3045
 30
0.0
 10
-104.6912
 20
84.5893
 30
0.0
 10
-107.0451
 20
86.3763
 30
0.0
 10
-109.5771
 20
86.3442
 30
0.0
 10
-109.5771
 20
86.3442
 30
0.0
 10
-112.1091
 20
86.3763
 30
0.0
 10
-114.463
 20
84.5893
 30
0.0
 10
-116.0753
 20
81.3045
 30
0.0
 10
-116.0753
 20
81.3045
 30
0.0
 10
-113.4961
 20
80.4502
 30
0.0
 10
-110.3784
 20
77.5728
 30
0.0
 10
-109.5771
 20
74.9896
 30
0.0
 10
-109.5771
 20
74.9896
 30
0.0
 10
-108.7758
 20
77.5728
 30
0.0
 10
-105.6581
 20
80.4502
 30
0.0
 10
-103.0789
 20
81.3045
 30
0.0
  0
SPLINE
  5
4A
330
1F
100
AcDbEntity
  8
layer 1
 62
     7
100
AcDbSpline
210
0.0
220
0.0
230
1.0
 70
    11
 71
     3
 72
    20
 73
    16
 74
     0
 42
0.0000000001
 43
0.0000000001
 12
1.0
 22
0.0
 32
0.0
 13
1.0
 23
0.0
 33
0.0
 40
0.0
 40
0.0
 40
0.0
 40
0.0
 40
0.2
 40
0.2
 40
0.2
 40
0.2
 40
0.4
 40
0.4
 40
0.4
 40
0.4
 40
0.6
 40
0.6
 40
0.6
 40
0.6
 40
1.0
 40
1.0
 40
1.0
 40
1.0
 10
-118.2871
 20
96.181
 30
0.0
 10
-121.5062
 20
94.6478
 30
0.0
 10
-122.8668
 20
91.8464
 30
0.0
 10
-122.8693
 20
89.0788
 30
0.0
 10
-122.8693
 20
89.0788
 30
0.0
 10
-122.8668
 20
86.3112
 30
0.0
 10
-121.5062
 20
83.5098
 30
0.0
 10
-118.2871
 20
81.9766
 30
0.0
 10
-118.2871
 20
81.9766
 30
0.0
 10
-117.447
 20
85.4455
 30
0.0
 10
-114.4311
 20
88.6104
 30
0.0
 10
-112.1601
 20
89.0788
 30
0.0
 10
-112.1601
 20
89.0788
 30
0.0
 10
-114.4309
 20
89.5474
 30
0.0
 10
-117.4468
 20
92.7121
 30
0.0
 10
-118.2871
 20
96.181
 30
0.0
  0
SPLINE
  5
4B
330
1F
100
AcDbEntity
  8
layer 1
 62
     7
100
AcDbSpline
210
0.0
220
0.0
230
1.0
 70
    11
 71
     3
 72
    20
 73
    16
 74
     0
 42
0.0000000001
 43
0.0000000001
 12
1.0
 22
0.0
 32
0.0
 13
1.0
 23
0.0
 33
0.0
 40
0.0
 40
0.0
 40
0.0
 40
0.0
 40
0.2
 40
0.2
 40
0.2
 40
0.2
 40
0.4
 40
0.4
 40
0.4
 40
0.4
 40
0.6
 40
0.6
 40
0.6
 40
0.6
 40
1.0
 40
1.0
 40
1.0
 40
1.0
 10
-103.0789
 20
81.3045
 30
0.0
 10
-104.6912
 20
84.5893
 30
0.0
 10
-107.0451
 20
86.3763
 30
0.0
 10
-109.5771
 20
86.3442
 30
0.0
 10
-109.5771
 20
86.3442
 30
0.0
 10
-112.1091
 20
86.3763
 30
0.0
 10
-114.463
 20
84.5893
 30
0.0
 10
-116.0753
 20
81.3045
 30
0.0
 10
-116.0753
 20
81.3045
 30
0.0
 10
-113.4961
 20
80.4502
 30
0.0
 10
-110.3784
 20
77.5728
 30
0.0
 10
-109.5771
 20
74.9896
 30
0.0
 10
-109.5771
 20
74.9896
 30
0.0
 10
-108.7758
 20
77.5728
 30
0.0
 10
-105.6581
 20
80.4502
 30
0.0
 10
-103.0789
 20
81.3045
 30
0.0
  0
SPLINE
  5
4C
330
1F
100
AcDbEntity
  8
layer 1
 62
     7
100
AcDbSpline
210
0.0
220
0.0
230
1.0
 70
    11
 71
     3
 72
    20
 73
    16
 74
     0
 42
0.0000000001
 43
0.0000000001
 12
1.0
 22
0.0
 32
0.0
 13
1.0
 23
0.0
 33
0.0
 40
0.0
 40
0.0
 40
0.0
 40
0.0
 40
0.2
 40
0.2
 40
0.2
 40
0.2
 40
0.4
 40
0.4
 40
0.4
 40
0.4
 40
0.6
 40
0.6
 40
0.6
 40
0.6
 40
1.0
 40
1.0
 40
1.0
 40
1.0
 10
-100.8419
 20
81.9766
 30
0.0
 10
-97.6228
 20
83.5098
 30
0.0
 10
-96.2622
 20
86.3112
 30
0.0
 10
-96.2597
 20
89.0788
 30
0.0
 10
-96.2597
 20
89.0788
 30
0.0
 10
-96.2625
 20
91.8464
 30
0.0
 10
-97.6228
 20
94.6478
 30
0.0
 10
-100.8419
 20
96.181
 30
0.0
 10
-100.8419
 20
96.181
 30
0.0
 10
-101.682
 20
92.7121
 30
0.0
 10
-104.6979
 20
89.5472
 30
0.0
 10
-106.9689
 20
89.0788
 30
0.0
 10
-106.9689
 20
89.0788
 30
0.0
 10
-104.6981
 20
88.6102
 30
0.0
 10
-101.6822
 20
85.4455
 30
0.0
 10
-100.8419
 20
81.9766
 30
0.0
  0
SPLINE
  5
4D
330
1F
100
AcDbEntity
  8
layer 1
 62
     7
100
AcDbSpline
210
0.0
220
0.0
230
1.0
 70
    11
 71
     3
 72
    20
 73
    16
 74
     0
 42
0.0000000001
 43
0.0000000001
 12
1.0
 22
0.0
 32
0.0
 13
1.0
 23
0.0
 33
0.0
 40
0.0
 40
0.0
 40
0.0
 40
0.0
 40
0.2
 40
0.2
 40
0.2
 40
0.2
 40
0.4
 40
0.4
 40
0.4
 40
0.4
 40
0.6
 40
0.6
 40
0.6
 40
0.6
 40
1.0
 40
1.0
 40
1.0
 40
1.0
 10
-116.0503
 20
96.8531
 30
0.0
 10
-114.438
 20
93.5683
 30
0.0
 10
-112.0841
 20
91.7814
 30
0.0
 10
-109.5521
 20
91.8134
 30
0.0
 10
-109.5521
 20
91.8134
 30
0.0
 10
-107.0201
 20
91.7814
 30
0.0
 10
-104.6662
 20
93.5683
 30
0.0
 10
-103.0539
 20
96.8531
 30
0.0
 10
-103.0539
 20
96.8531
 30
0.0
 10
-105.6331
 20
97.7074
 30
0.0
 10
-108.7508
 20
100.5848
 30
0.0
 10
-109.5521
 20
103.168
 30
0.0
 10
-109.5521
 20
103.168
 30
0.0
 10
-110.3534
 20
100.5848
 30
0.0
 10
-113.4711
 20
97.7074
 30
0.0
 10
-116.0503
 20
96.8531
 30
0.0
  0
SPLINE
  5
4E
330
1F
100
AcDbEntity
  8
layer 1
 62
     7
100
AcDbSpline
210
0.0
220
0.0
230
1.0
 70
    11
 71
     3
 72
    20
 73
    16
 74
     0
 42
0.0000000001
 43
0.0000000001
 12
1.0
 22
0.0
 32
0.0
 13
1.0
 23
0.0
 33
0.0
 40
0.0
 40
0.0
 40
0.0
 40
0.0
 40
0.2
 40
0.2
 40
0.2
 40
0.2
 40
0.4
 40
0.4
 40
0.4
 40
0.4
 40
0.6
 40
0.6
 40
0.6
 40
0.6
 40
1.0
 40
1.0
 40
1.0
 40
1.0
 10
-87.1517
 20
96.181
 30
0.0
 10
-90.3709
 20
94.6478
 30
0.0
 10
-91.7314
 20
91.8464
 30
0.0
 10
-91.734
 20
89.0788
 30
0.0
 10
-91.734
 20
89.0788
 30
0.0
 10
-91.7314
 20
86.3112
 30
0.0
 10
-90.3709
 20
83.5098
 30
0.0
 10
-87.1517
 20
81.9766
 30
0.0
 10
-87.1517
 20
81.9766
 30
0.0
 10
-86.3117
 20
85.4455
 30
0.0
 10
-83.2958
 20
88.6104
 30
0.0
 10
-81.0248
 20
89.0788
 30
0.0
 10
-81.0248
 20
89.0788
 30
0.0
 10
-83.2956
 20
89.5474
 30
0.0
 10
-86.3115
 20
92.7121
 30
0.0
 10
-87.1517
 20
96.181
 30
0.0
  0
SPLINE
  5
4F
330
1F
100
AcDbEntity
  8
layer 1
 62
     7
100
AcDbSpline
210
0.0
220
0.0
230
1.0
 70
    11
 71
     3
 72
    20
 73
    16
 74
     0
 42
0.0000000001
 43
0.0000000001
 12
1.0
 22
0.0
 32
0.0
 13
1.0
 23
0.0
 33
0.0
 40
0.0
 40
0.0
 40
0.0
 40
0.0
 40
0.2
 40
0.2
 40
0.2
 40
0.2
 40
0.4
 40
0.4
 40
0.4
 40
0.4
 40
0.6
 40
0.6
 40
0.6
 40
0.6
 40
1.0
 40
1.0
 40
1.0
 40
1.0
 10
-71.9436
 20
81.3045
 30
0.0
 10
-73.5558
 20
84.5893
 30
0.0
 10
-75.9098
 20
86.3763
 30
0.0
 10
-78.4418
 20
86.3442
 30
0.0
 10
-78.4418
 20
86.3442
 30
0.0
 10
-80.9738
 20
86.3763
 30
0.0
 10
-83.3277
 20
84.5893
 30
0.0
 10
-84.9399
 20
81.3045
 30
0.0
 10
-84.9399
 20
81.3045
 30
0.0
 10
-82.3608
 20
80.4502
 30
0.0
 10
-79.2431
 20
77.5728
 30
0.0
 10
-78.4418
 20
74.9896
 30
0.0
 10
-78.4418
 20
74.9896
 30
0.0
 10
-77.6405
 20
77.5728
 30
0.0
 10
-74.5227
 20
80.4502
 30
0.0
 10
-71.9436
 20
81.3045
 30
0.0
  0
SPLINE
  5
50
330
1F
100
AcDbEntity
  8
layer 1
 62
     7
100
AcDbSpline
210
0.0
220
0.0
230
1.0
 70
    11
 71
     3
 72
    20
 73
    16
 74
     0
 42
0.0000000001
 43
0.0000000001
 12
1.0
 22
0.0
 32
0.0
 13
1.0
 23
0.0
 33
0.0
 40
0.0
 40
0.0
 40
0.0
 40
0.0
 40
0.2
 40
0.2
 40
0.2
 40
0.2
 40
0.4
 40
0.4
 40
0.4
 40
0.4
 40
0.6
 40
0.6
 40
0.6
 40
0.6
 40
1.0
 40
1.0
 40
1.0
 40
1.0
 10
-87.1517
 20
96.181
 30
0.0
 10
-90.3709
 20
94.6478
 30
0.0
 10
-91.7314
 20
91.8464
 30
0.0
 10
-91.734
 20
89.0788
 30
0.0
 10
-91.734
 20
89.0788
 30
0.0
 10
-91.7314
 20
86.3112
 30
0.0
 10
-90.3709
 20
83.5098
 30
0.0
 10
-87.1517
 20
81.9766
 30
0.0
 10
-87.1517
 20
81.9766
 30
0.0
 10
-86.3117
 20
85.4455
 30
0.0
 10
-83.2958
 20
88.6104
 30
0.0
 10
-81.0248
 20
89.0788
 30
0.0
 10
-81.0248
 20
89.0788
 30
0.0
 10
-83.2956
 20
89.5474
 30
0.0
 10
-86.3115
 20
92.7121
 30
0.0
 10
-87.1517
 20
96.181
 30
0.0
  0
SPLINE
  5
51
330
1F
100
AcDbEntity
  8
layer 1
 62
     7
100
AcDbSpline
210
0.0
220
0.0
230
1.0
 70
    11
 71
     3
 72
    20
 73
    16
 74
     0
 42
0.0000000001
 43
0.0000000001
 12
1.0
 22
0.0
 32
0.0
 13
1.0
 23
0.0
 33
0.0
 40
0.0
 40
0.0
 40
0.0
 40
0.0
 40
0.2
 40
0.2
 40
0.2
 40
0.2
 40
0.4
 40
0.4
 40
0.4
 40
0.4
 40
0.6
 40
0.6
 40
0.6
 40
0.6
 40
1.0
 40
1.0
 40
1.0
 40
1.0
 10
-71.9436
 20
81.3045
 30
0.0
 10
-73.5558
 20
84.5893
 30
0.0
 10
-75.9098
 20
86.3763
 30
0.0
 10
-78.4418
 20
86.3442
 30
0.0
 10
-78.4418
 20
86.3442
 30
0.0
 10
-80.9738
 20
86.3763
 30
0.0
 10
-83.3277
 20
84.5893
 30
0.0
 10
-84.9399
 20
81.3045
 30
0.0
 10
-84.9399
 20
81.3045
 30
0.0
 10
-82.3608
 20
80.4502
 30
0.0
 10
-79.2431
 20
77.5728
 30
0.0
 10
-78.4418
 20
74.9896
 30
0.0
 10
-78.4418
 20
74.9896
 30
0.0
 10
-77.6405
 20
77.5728
 30
0.0
 10
-74.5227
 20
80.4502
 30
0.0
 10
-71.9436
 20
81.3045
 30
0.0
  0
SPLINE
  5
52
330
1F
100
AcDbEntity
  8
layer 1
 62
     7
100
AcDbSpline
210
0.0
220
0.0
230
1.0
 70
    11
 71
     3
 72
    20
 73
    16
 74
     0
 42
0.0000000001
 43
0.0000000001
 12
1.0
 22
0.0
 32
0.0
 13
1.0
 23
0.0
 33
0.0
 40
0.0
 40
0.0
 40
0.0
 40
0.0
 40
0.2
 40
0.2
 40
0.2
 40
0.2
 40
0.4
 40
0.4
 40
0.4
 40
0.4
 40
0.6
 40
0.6
 40
0.6
 40
0.6
 40
1.0
 40
1.0
 40
1.0
 40
1.0
 10
-84.915
 20
96.8531
 30
0.0
 10
-83.3027
 20
93.5683
 30
0.0
 10
-80.9488
 20
91.7814
 30
0.0
 10
-78.4168
 20
91.8134
 30
0.0
 10
-78.4168
 20
91.8134
 30
0.0
 10
-75.8848
 20
91.7814
 30
0.0
 10
-73.5309
 20
93.5683
 30
0.0
 10
-71.9186
 20
96.8531
 30
0.0
 10
-71.9186
 20
96.8531
 30
0.0
 10
-74.4978
 20
97.7074
 30
0.0
 10
-77.6155
 20
100.5848
 30
0.0
 10
-78.4168
 20
103.168
 30
0.0
 10
-78.4168
 20
103.168
 30
0.0
 10
-79.2181
 20
100.5848
 30
0.0
 10
-82.3358
 20
97.7074
 30
0.0
 10
-84.915
 20
96.8531
 30
0.0
  0
SPLINE
  5
53
330
1F
100
AcDbEntity
  8
layer 1
 62
     7
100
AcDbSpline
210
0.0
220
0.0
230
1.0
 70
    11
 71
     3
 72
    20
 73
    16
 74
     0
 42
0.0000000001
 43
0.0000000001
 12
1.0
 22
0.0
 32
0.0
 13
1.0
 23
0.0
 33
0.0
 40
0.0
 40
0.0
 40
0.0
 40
0.0
 40
0.2
 40
0.2
 40
0.2
 40
0.2
 40
0.4
 40
0.4
 40
0.4
 40
0.4
 40
0.6
 40
0.6
 40
0.6
 40
0.6
 40
1.0
 40
1.0
 40
1.0
 40
1.0
 10
-165.838
 20
81.3045
 30
0.0
 10
-167.4503
 20
84.5893
 30
0.0
 10
-169.8042
 20
86.3763
 30
0.0
 10
-172.3362
 20
86.3442
 30
0.0
 10
-172.3362
 20
86.3442
 30
0.0
 10
-174.8682
 20
86.3763
 30
0.0
 10
-177.2221
 20
84.5893
 30
0.0
 10
-178.8344
 20
81.3045
 30
0.0
 10
-178.8344
 20
81.3045
 30
0.0
 10
-176.2552
 20
80.4502
 30
0.0
 10
-173.1375
 20
77.5728
 30
0.0
 10
-172.3362
 20
74.9896
 30
0.0
 10
-172.3362
 20
74.9896
 30
0.0
 10
-171.5349
 20
77.5728
 30
0.0
 10
-168.4171
 20
80.4502
 30
0.0
 10
-165.838
 20
81.3045
 30
0.0
  0
SPLINE
  5
54
330
1F
100
AcDbEntity
  8
layer 1
 62
     7
100
AcDbSpline
210
0.0
220
0.0
230
1.0
 70
    11
 71
     3
 72
    20
 73
    16
 74
     0
 42
0.0000000001
 43
0.0000000001
 12
1.0
 22
0.0
 32
0.0
 13
1.0
 23
0.0
 33
0.0
 40
0.0
 40
0.0
 40
0.0
 40
0.0
 40
0.2
 40
0.2
 40
0.2
 40
0.2
 40
0.4
 40
0.4
 40
0.4
 40
0.4
 40
0.6
 40
0.6
 40
0.6
 40
0.6
 40
1.0
 40
1.0
 40
1.0
 40
1.0
 10
-165.838
 20
81.3045
 30
0.0
 10
-167.4503
 20
84.5893
 30
0.0
 10
-169.8042
 20
86.3763
 30
0.0
 10
-172.3362
 20
86.3442
 30
0.0
 10
-172.3362
 20
86.3442
 30
0.0
 10
-174.8682
 20
86.3763
 30
0.0
 10
-177.2221
 20
84.5893
 30
0.0
 10
-178.8344
 20
81.3045
 30
0.0
 10
-178.8344
 20
81.3045
 30
0.0
 10
-176.2552
 20
80.4502
 30
0.0
 10
-173.1375
 20
77.5728
 30
0.0
 10
-172.3362
 20
74.9896
 30
0.0
 10
-172.3362
 20
74.9896
 30
0.0
 10
-171.5349
 20
77.5728
 30
0.0
 10
-168.4171
 20
80.4502
 30
0.0
 10
-165.838
 20
81.3045
 30
0.0
  0
SPLINE
  5
55
330
1F
100
AcDbEntity
  8
layer 1
 62
     7
100
AcDbSpline
210
0.0
220
0.0
230
1.0
 70
    11
 71
     3
 72
    20
 73
    16
 74
     0
 42
0.0000000001
 43
0.0000000001
 12
1.0
 22
0.0
 32
0.0
 13
1.0
 23
0.0
 33
0.0
 40
0.0
 40
0.0
 40
0.0
 40
0.0
 40
0.2
 40
0.2
 40
0.2
 40
0.2
 40
0.4
 40
0.4
 40
0.4
 40
0.4
 40
0.6
 40
0.6
 40
0.6
 40
0.6
 40
1.0
 40
1.0
 40
1.0
 40
1.0
 10
-163.601
 20
81.9766
 30
0.0
 10
-160.3818
 20
83.5098
 30
0.0
 10
-159.0213
 20
86.3112
 30
0.0
 10
-159.0187
 20
89.0788
 30
0.0
 10
-159.0187
 20
89.0788
 30
0.0
 10
-159.0215
 20
91.8464
 30
0.0
 10
-160.3818
 20
94.6478
 30
0.0
 10
-163.601
 20
96.181
 30
0.0
 10
-163.601
 20
96.181
 30
0.0
 10
-164.4411
 20
92.7121
 30
0.0
 10
-167.4569
 20
89.5472
 30
0.0
 10
-169.7279
 20
89.0788
 30
0.0
 10
-169.7279
 20
89.0788
 30
0.0
 10
-167.4571
 20
88.6102
 30
0.0
 10
-164.4413
 20
85.4455
 30
0.0
 10
-163.601
 20
81.9766
 30
0.0
  0
SPLINE
  5
56
330
1F
100
AcDbEntity
  8
layer 1
 62
     7
100
AcDbSpline
210
0.0
220
0.0
230
1.0
 70
    11
 71
     3
 72
    20
 73
    16
 74
     0
 42
0.0000000001
 43
0.0000000001
 12
1.0
 22
0.0
 32
0.0
 13
1.0
 23
0.0
 33
0.0
 40
0.0
 40
0.0
 40
0.0
 40
0.0
 40
0.2
 40
0.2
 40
0.2
 40
0.2
 40
0.4
 40
0.4
 40
0.4
 40
0.4
 40
0.6
 40
0.6
 40
0.6
 40
0.6
 40
1.0
 40
1.0
 40
1.0
 40
1.0
 10
-178.8094
 20
96.8531
 30
0.0
 10
-177.1971
 20
93.5683
 30
0.0
 10
-174.8432
 20
91.7814
 30
0.0
 10
-172.3112
 20
91.8134
 30
0.0
 10
-172.3112
 20
91.8134
 30
0.0
 10
-169.7792
 20
91.7814
 30
0.0
 10
-167.4253
 20
93.5683
 30
0.0
 10
-165.813
 20
96.8531
 30
0.0
 10
-165.813
 20
96.8531
 30
0.0
 10
-168.3922
 20
97.7074
 30
0.0
 10
-171.5099
 20
100.5848
 30
0.0
 10
-172.3112
 20
103.168
 30
0.0
 10
-172.3112
 20
103.168
 30
0.0
 10
-173.1125
 20
100.5848
 30
0.0
 10
-176.2302
 20
97.7074
 30
0.0
 10
-178.8094
 20
96.8531
 30
0.0
  0
SPLINE
  5
57
330
1F
100
AcDbEntity
  8
layer 1
 62
     7
100
AcDbSpline
210
0.0
220
0.0
230
1.0
 70
    11
 71
     3
 72
    20
 73
    16
 74
     0
 42
0.0000000001
 43
0.0000000001
 12
1.0
 22
0.0
 32
0.0
 13
1.0
 23
0.0
 33
0.0
 40
0.0
 40
0.0
 40
0.0
 40
0.0
 40
0.2
 40
0.2
 40
0.2
 40
0.2
 40
0.4
 40
0.4
 40
0.4
 40
0.4
 40
0.6
 40
0.6
 40
0.6
 40
0.6
 40
1.0
 40
1.0
 40
1.0
 40
1.0
 10
-134.4042
 20
114.2517
 30
0.0
 10
-137.6233
 20
112.7185
 30
0.0
 10
-138.9839
 20
109.9171
 30
0.0
 10
-138.9865
 20
107.1495
 30
0.0
 10
-138.9865
 20
107.1495
 30
0.0
 10
-138.9839
 20
104.3819
 30
0.0
 10
-137.6233
 20
101.5805
 30
0.0
 10
-134.4042
 20
100.0473
 30
0.0
 10
-134.4042
 20
100.0473
 30
0.0
 10
-133.5641
 20
103.5162
 30
0.0
 10
-130.5483
 20
106.6811
 30
0.0
 10
-128.2772
 20
107.1495
 30
0.0
 10
-128.2772
 20
107.1495
 30
0.0
 10
-130.548
 20
107.6181
 30
0.0
 10
-133.5639
 20
110.7828
 30
0.0
 10
-134.4042
 20
114.2517
 30
0.0
  0
SPLINE
  5
58
330
1F
100
AcDbEntity
  8
layer 1
 62
     7
100
AcDbSpline
210
0.0
220
0.0
230
1.0
 70
    11
 71
     3
 72
    20
 73
    16
 74
     0
 42
0.0000000001
 43
0.0000000001
 12
1.0
 22
0.0
 32
0.0
 13
1.0
 23
0.0
 33
0.0
 40
0.0
 40
0.0
 40
0.0
 40
0.0
 40
0.2
 40
0.2
 40
0.2
 40
0.2
 40
0.4
 40
0.4
 40
0.4
 40
0.4
 40
0.6
 40
0.6
 40
0.6
 40
0.6
 40
1.0
 40
1.0
 40
1.0
 40
1.0
 10
-119.196
 20
99.3752
 30
0.0
 10
-120.8083
 20
102.66
 30
0.0
 10
-123.1622
 20
104.447
 30
0.0
 10
-125.6942
 20
104.4149
 30
0.0
 10
-125.6942
 20
104.4149
 30
0.0
 10
-128.2262
 20
104.447
 30
0.0
 10
-130.5801
 20
102.66
 30
0.0
 10
-132.1924
 20
99.3752
 30
0.0
 10
-132.1924
 20
99.3752
 30
0.0
 10
-129.6132
 20
98.5209
 30
0.0
 10
-126.4955
 20
95.6435
 30
0.0
 10
-125.6942
 20
93.0603
 30
0.0
 10
-125.6942
 20
93.0603
 30
0.0
 10
-124.8929
 20
95.6435
 30
0.0
 10
-121.7752
 20
98.5209
 30
0.0
 10
-119.196
 20
99.3752
 30
0.0
  0
SPLINE
  5
59
330
1F
100
AcDbEntity
  8
layer 1
 62
     7
100
AcDbSpline
210
0.0
220
0.0
230
1.0
 70
    11
 71
     3
 72
    20
 73
    16
 74
     0
 42
0.0000000001
 43
0.0000000001
 12
1.0
 22
0.0
 32
0.0
 13
1.0
 23
0.0
 33
0.0
 40
0.0
 40
0.0
 40
0.0
 40
0.0
 40
0.2
 40
0.2
 40
0.2
 40
0.2
 40
0.4
 40
0.4
 40
0.4
 40
0.4
 40
0.6
 40
0.6
 40
0.6
 40
0.6
 40
1.0
 40
1.0
 40
1.0
 40
1.0
 10
-134.4042
 20
114.2517
 30
0.0
 10
-137.6233
 20
112.7185
 30
0.0
 10
-138.9839
 20
109.9171
 30
0.0
 10
-138.9865
 20
107.1495
 30
0.0
 10
-138.9865
 20
107.1495
 30
0.0
 10
-138.9839
 20
104.3819
 30
0.0
 10
-137.6233
 20
101.5805
 30
0.0
 10
-134.4042
 20
100.0473
 30
0.0
 10
-134.4042
 20
100.0473
 30
0.0
 10
-133.5641
 20
103.5162
 30
0.0
 10
-130.5483
 20
106.6811
 30
0.0
 10
-128.2772
 20
107.1495
 30
0.0
 10
-128.2772
 20
107.1495
 30
0.0
 10
-130.548
 20
107.6181
 30
0.0
 10
-133.5639
 20
110.7828
 30
0.0
 10
-134.4042
 20
114.2517
 30
0.0
  0
SPLINE
  5
5A
330
1F
100
AcDbEntity
  8
layer 1
 62
     7
100
AcDbSpline
210
0.0
220
0.0
230
1.0
 70
    11
 71
     3
 72
    20
 73
    16
 74
     0
 42
0.0000000001
 43
0.0000000001
 12
1.0
 22
0.0
 32
0.0
 13
1.0
 23
0.0
 33
0.0
 40
0.0
 40
0.0
 40
0.0
 40
0.0
 40
0.2
 40
0.2
 40
0.2
 40
0.2
 40
0.4
 40
0.4
 40
0.4
 40
0.4
 40
0.6
 40
0.6
 40
0.6
 40
0.6
 40
1.0
 40
1.0
 40
1.0
 40
1.0
 10
-119.196
 20
99.3752
 30
0.0
 10
-120.8083
 20
102.66
 30
0.0
 10
-123.1622
 20
104.447
 30
0.0
 10
-125.6942
 20
104.4149
 30
0.0
 10
-125.6942
 20
104.4149
 30
0.0
 10
-128.2262
 20
104.447
 30
0.0
 10
-130.5801
 20
102.66
 30
0.0
 10
-132.1924
 20
99.3752
 30
0.0
 10
-132.1924
 20
99.3752
 30
0.0
 10
-129.6132
 20
98.5209
 30
0.0
 10
-126.4955
 20
95.6435
 30
0.0
 10
-125.6942
 20
93.0603
 30
0.0
 10
-125.6942
 20
93.0603
 30
0.0
 10
-124.8929
 20
95.6435
 30
0.0
 10
-121.7752
 20
98.5209
 30
0.0
 10
-119.196
 20
99.3752
 30
0.0
  0
SPLINE
  5
5B
330
1F
100
AcDbEntity
  8
layer 1
 62
     7
100
AcDbSpline
210
0.0
220
0.0
230
1.0
 70
    11
 71
     3
 72
    20
 73
    16
 74
     0
 42
0.0000000001
 43
0.0000000001
 12
1.0
 22
0.0
 32
0.0
 13
1.0
 23
0.0
 33
0.0
 40
0.0
 40
0.0
 40
0.0
 40
0.0
 40
0.2
 40
0.2
 40
0.2
 40
0.2
 40
0.4
 40
0.4
 40
0.4
 40
0.4
 40
0.6
 40
0.6
 40
0.6
 40
0.6
 40
1.0
 40
1.0
 40
1.0
 40
1.0
 10
-116.959
 20
100.0473
 30
0.0
 10
-113.7399
 20
101.5805
 30
0.0
 10
-112.3794
 20
104.3819
 30
0.0
 10
-112.3768
 20
107.1495
 30
0.0
 10
-112.3768
 20
107.1495
 30
0.0
 10
-112.3796
 20
109.9171
 30
0.0
 10
-113.7399
 20
112.7185
 30
0.0
 10
-116.959
 20
114.2517
 30
0.0
 10
-116.959
 20
114.2517
 30
0.0
 10
-117.7991
 20
110.7828
 30
0.0
 10
-120.815
 20
107.6179
 30
0.0
 10
-123.086
 20
107.1495
 30
0.0
 10
-123.086
 20
107.1495
 30
0.0
 10
-120.8152
 20
106.6809
 30
0.0
 10
-117.7993
 20
103.5162
 30
0.0
 10
-116.959
 20
100.0473
 30
0.0
  0
SPLINE
  5
5C
330
1F
100
AcDbEntity
  8
layer 1
 62
     7
100
AcDbSpline
210
0.0
220
0.0
230
1.0
 70
    11
 71
     3
 72
    20
 73
    16
 74
     0
 42
0.0000000001
 43
0.0000000001
 12
1.0
 22
0.0
 32
0.0
 13
1.0
 23
0.0
 33
0.0
 40
0.0
 40
0.0
 40
0.0
 40
0.0
 40
0.2
 40
0.2
 40
0.2
 40
0.2
 40
0.4
 40
0.4
 40
0.4
 40
0.4
 40
0.6
 40
0.6
 40
0.6
 40
0.6
 40
1.0
 40
1.0
 40
1.0
 40
1.0
 10
-132.1674
 20
114.9238
 30
0.0
 10
-130.5551
 20
111.639
 30
0.0
 10
-128.2012
 20
109.8521
 30
0.0
 10
-125.6692
 20
109.8841
 30
0.0
 10
-125.6692
 20
109.8841
 30
0.0
 10
-123.1372
 20
109.8521
 30
0.0
 10
-120.7833
 20
111.639
 30
0.0
 10
-119.171
 20
114.9238
 30
0.0
 10
-119.171
 20
114.9238
 30
0.0
 10
-121.7502
 20
115.7781
 30
0.0
 10
-124.8679
 20
118.6555
 30
0.0
 10
-125.6692
 20
121.2387
 30
0.0
 10
-125.6692
 20
121.2387
 30
0.0
 10
-126.4705
 20
118.6555
 30
0.0
 10
-129.5883
 20
115.7781
 30
0.0
 10
-132.1674
 20
114.9238
 30
0.0
  0
SPLINE
  5
5D
330
1F
100
AcDbEntity
  8
layer 1
 62
     7
100
AcDbSpline
210
0.0
220
0.0
230
1.0
 70
    11
 71
     3
 72
    20
 73
    16
 74
     0
 42
0.0000000001
 43
0.0000000001
 12
1.0
 22
0.0
 32
0.0
 13
1.0
 23
0.0
 33
0.0
 40
0.0
 40
0.0
 40
0.0
 40
0.0
 40
0.2
 40
0.2
 40
0.2
 40
0.2
 40
0.4
 40
0.4
 40
0.4
 40
0.4
 40
0.6
 40
0.6
 40
0.6
 40
0.6
 40
1.0
 40
1.0
 40
1.0
 40
1.0
 10
-103.0246
 20
114.2517
 30
0.0
 10
-106.2438
 20
112.7185
 30
0.0
 10
-107.6043
 20
109.9171
 30
0.0
 10
-107.6069
 20
107.1495
 30
0.0
 10
-107.6069
 20
107.1495
 30
0.0
 10
-107.6043
 20
104.3819
 30
0.0
 10
-106.2438
 20
101.5805
 30
0.0
 10
-103.0246
 20
100.0473
 30
0.0
 10
-103.0246
 20
100.0473
 30
0.0
 10
-102.1846
 20
103.5162
 30
0.0
 10
-99.1687
 20
106.6811
 30
0.0
 10
-96.8977
 20
107.1495
 30
0.0
 10
-96.8977
 20
107.1495
 30
0.0
 10
-99.1685
 20
107.6181
 30
0.0
 10
-102.1844
 20
110.7828
 30
0.0
 10
-103.0246
 20
114.2517
 30
0.0
  0
SPLINE
  5
5E
330
1F
100
AcDbEntity
  8
layer 1
 62
     7
100
AcDbSpline
210
0.0
220
0.0
230
1.0
 70
    11
 71
     3
 72
    20
 73
    16
 74
     0
 42
0.0000000001
 43
0.0000000001
 12
1.0
 22
0.0
 32
0.0
 13
1.0
 23
0.0
 33
0.0
 40
0.0
 40
0.0
 40
0.0
 40
0.0
 40
0.2
 40
0.2
 40
0.2
 40
0.2
 40
0.4
 40
0.4
 40
0.4
 40
0.4
 40
0.6
 40
0.6
 40
0.6
 40
0.6
 40
1.0
 40
1.0
 40
1.0
 40
1.0
 10
-87.8165
 20
99.3752
 30
0.0
 10
-89.4288
 20
102.66
 30
0.0
 10
-91.7827
 20
104.447
 30
0.0
 10
-94.3147
 20
104.4149
 30
0.0
 10
-94.3147
 20
104.4149
 30
0.0
 10
-96.8467
 20
104.447
 30
0.0
 10
-99.2006
 20
102.66
 30
0.0
 10
-100.8129
 20
99.3752
 30
0.0
 10
-100.8129
 20
99.3752
 30
0.0
 10
-98.2337
 20
98.5209
 30
0.0
 10
-95.116
 20
95.6435
 30
0.0
 10
-94.3147
 20
93.0603
 30
0.0
 10
-94.3147
 20
93.0603
 30
0.0
 10
-93.5134
 20
95.6435
 30
0.0
 10
-90.3957
 20
98.5209
 30
0.0
 10
-87.8165
 20
99.3752
 30
0.0
  0
SPLINE
  5
5F
330
1F
100
AcDbEntity
  8
layer 1
 62
     7
100
AcDbSpline
210
0.0
220
0.0
230
1.0
 70
    11
 71
     3
 72
    20
 73
    16
 74
     0
 42
0.0000000001
 43
0.0000000001
 12
1.0
 22
0.0
 32
0.0
 13
1.0
 23
0.0
 33
0.0
 40
0.0
 40
0.0
 40
0.0
 40
0.0
 40
0.2
 40
0.2
 40
0.2
 40
0.2
 40
0.4
 40
0.4
 40
0.4
 40
0.4
 40
0.6
 40
0.6
 40
0.6
 40
0.6
 40
1.0
 40
1.0
 40
1.0
 40
1.0
 10
-103.0246
 20
114.2517
 30
0.0
 10
-106.2438
 20
112.7185
 30
0.0
 10
-107.6043
 20
109.9171
 30
0.0
 10
-107.6069
 20
107.1495
 30
0.0
 10
-107.6069
 20
107.1495
 30
0.0
 10
-107.6043
 20
104.3819
 30
0.0
 10
-106.2438
 20
101.5805
 30
0.0
 10
-103.0246
 20
100.0473
 30
0.0
 10
-103.0246
 20
100.0473
 30
0.0
 10
-102.1846
 20
103.5162
 30
0.0
 10
-99.1687
 20
106.6811
 30
0.0
 10
-96.8977
 20
107.1495
 30
0.0
 10
-96.8977
 20
107.1495
 30
0.0
 10
-99.1685
 20
107.6181
 30
0.0
 10
-102.1844
 20
110.7828
 30
0.0
 10
-103.0246
 20
114.2517
 30
0.0
  0
SPLINE
  5
60
330
1F
100
AcDbEntity
  8
layer 1
 62
     7
100
AcDbSpline
210
0.0
220
0.0
230
1.0
 70
    11
 71
     3
 72
    20
 73
    16
 74
     0
 42
0.0000000001
 43
0.0000000001
 12
1.0
 22
0.0
 32
0.0
 13
1.0
 23
0.0
 33
0.0
 40
0.0
 40
0.0
 40
0.0
 40
0.0
 40
0.2
 40
0.2
 40
0.2
 40
0.2
 40
0.4
 40
0.4
 40
0.4
 40
0.4
 40
0.6
 40
0.6
 40
0.6
 40
0.6
 40
1.0
 40
1.0
 40
1.0
 40
1.0
 10
-87.8165
 20
99.3752
 30
0.0
 10
-89.4288
 20
102.66
 30
0.0
 10
-91.7827
 20
104.447
 30
0.0
 10
-94.3147
 20
104.4149
 30
0.0
 10
-94.3147
 20
104.4149
 30
0.0
 10
-96.8467
 20
104.447
 30
0.0
 10
-99.2006
 20
102.66
 30
0.0
 10
-100.8129
 20
99.3752
 30
0.0
 10
-100.8129
 20
99.3752
 30
0.0
 10
-98.2337
 20
98.5209
 30
0.0
 10
-95.116
 20
95.6435
 30
0.0
 10
-94.3147
 20
93.0603
 30
0.0
 10
-94.3147
 20
93.0603
 30
0.0
 10
-93.5134
 20
95.6435
 30
0.0
 10
-90.3957
 20
98.5209
 30
0.0
 10
-87.8165
 20
99.3752
 30
0.0
  0
SPLINE
  5
61
330
1F
100
AcDbEntity
  8
layer 1
 62
     7
100
AcDbSpline
210
0.0
220
0.0
230
1.0
 70
    11
 71
     3
 72
    20
 73
    16
 74
     0
 42
0.0000000001
 43
0.0000000001
 12
1.0
 22
0.0
 32
0.0
 13
1.0
 23
0.0
 33
0.0
 40
0.0
 40
0.0
 40
0.0
 40
0.0
 40
0.2
 40
0.2
 40
0.2
 40
0.2
 40
0.4
 40
0.4
 40
0.4
 40
0.4
 40
0.6
 40
0.6
 40
0.6
 40
0.6
 40
1.0
 40
1.0
 40
1.0
 40
1.0
 10
-85.5795
 20
100.0473
 30
0.0
 10
-82.3604
 20
101.5805
 30
0.0
 10
-80.9998
 20
104.3819
 30
0.0
 10
-80.9972
 20
107.1495
 30
0.0
 10
-80.9972
 20
107.1495
 30
0.0
 10
-81.0
 20
109.9171
 30
0.0
 10
-82.3604
 20
112.7185
 30
0.0
 10
-85.5795
 20
114.2517
 30
0.0
 10
-85.5795
 20
114.2517
 30
0.0
 10
-86.4196
 20
110.7828
 30
0.0
 10
-89.4354
 20
107.6179
 30
0.0
 10
-91.7064
 20
107.1495
 30
0.0
 10
-91.7064
 20
107.1495
 30
0.0
 10
-89.4357
 20
106.6809
 30
0.0
 10
-86.4198
 20
103.5162
 30
0.0
 10
-85.5795
 20
100.0473
 30
0.0
  0
SPLINE
  5
62
330
1F
100
AcDbEntity
  8
layer 1
 62
     7
100
AcDbSpline
210
0.0
220
0.0
230
1.0
 70
    11
 71
     3
 72
    20
 73
    16
 74
     0
 42
0.0000000001
 43
0.0000000001
 12
1.0
 22
0.0
 32
0.0
 13
1.0
 23
0.0
 33
0.0
 40
0.0
 40
0.0
 40
0.0
 40
0.0
 40
0.2
 40
0.2
 40
0.2
 40
0.2
 40
0.4
 40
0.4
 40
0.4
 40
0.4
 40
0.6
 40
0.6
 40
0.6
 40
0.6
 40
1.0
 40
1.0
 40
1.0
 40
1.0
 10
-100.7879
 20
114.9238
 30
0.0
 10
-99.1756
 20
111.639
 30
0.0
 10
-96.8217
 20
109.8521
 30
0.0
 10
-94.2897
 20
109.8841
 30
0.0
 10
-94.2897
 20
109.8841
 30
0.0
 10
-91.7577
 20
109.8521
 30
0.0
 10
-89.4038
 20
111.639
 30
0.0
 10
-87.7915
 20
114.9238
 30
0.0
 10
-87.7915
 20
114.9238
 30
0.0
 10
-90.3707
 20
115.7781
 30
0.0
 10
-93.4884
 20
118.6555
 30
0.0
 10
-94.2897
 20
121.2387
 30
0.0
 10
-94.2897
 20
121.2387
 30
0.0
 10
-95.091
 20
118.6555
 30
0.0
 10
-98.2087
 20
115.7781
 30
0.0
 10
-100.7879
 20
114.9238
 30
0.0
  0
SPLINE
  5
63
330
1F
100
AcDbEntity
  8
layer 1
 62
     7
100
AcDbSpline
210
0.0
220
0.0
230
1.0
 70
    11
 71
     3
 72
    20
 73
    16
 74
     0
 42
0.0000000001
 43
0.0000000001
 12
1.0
 22
0.0
 32
0.0
 13
1.0
 23
0.0
 33
0.0
 40
0.0
 40
0.0
 40
0.0
 40
0.0
 40
0.2
 40
0.2
 40
0.2
 40
0.2
 40
0.4
 40
0.4
 40
0.4
 40
0.4
 40
0.6
 40
0.6
 40
0.6
 40
0.6
 40
1.0
 40
1.0
 40
1.0
 40
1.0
 10
-165.7837
 20
114.2517
 30
0.0
 10
-169.0029
 20
112.7185
 30
0.0
 10
-170.3634
 20
109.9171
 30
0.0
 10
-170.366
 20
107.1495
 30
0.0
 10
-170.366
 20
107.1495
 30
0.0
 10
-170.3634
 20
104.3819
 30
0.0
 10
-169.0029
 20
101.5805
 30
0.0
 10
-165.7837
 20
100.0473
 30
0.0
 10
-165.7837
 20
100.0473
 30
0.0
 10
-164.9437
 20
103.5162
 30
0.0
 10
-161.9278
 20
106.6811
 30
0.0
 10
-159.6568
 20
107.1495
 30
0.0
 10
-159.6568
 20
107.1495
 30
0.0
 10
-161.9276
 20
107.6181
 30
0.0
 10
-164.9434
 20
110.7828
 30
0.0
 10
-165.7837
 20
114.2517
 30
0.0
  0
SPLINE
  5
64
330
1F
100
AcDbEntity
  8
layer 1
 62
     7
100
AcDbSpline
210
0.0
220
0.0
230
1.0
 70
    11
 71
     3
 72
    20
 73
    16
 74
     0
 42
0.0000000001
 43
0.0000000001
 12
1.0
 22
0.0
 32
0.0
 13
1.0
 23
0.0
 33
0.0
 40
0.0
 40
0.0
 40
0.0
 40
0.0
 40
0.2
 40
0.2
 40
0.2
 40
0.2
 40
0.4
 40
0.4
 40
0.4
 40
0.4
 40
0.6
 40
0.6
 40
0.6
 40
0.6
 40
1.0
 40
1.0
 40
1.0
 40
1.0
 10
-150.5756
 20
99.3752
 30
0.0
 10
-152.1878
 20
102.66
 30
0.0
 10
-154.5417
 20
104.447
 30
0.0
 10
-157.0737
 20
104.4149
 30
0.0
 10
-157.0737
 20
104.4149
 30
0.0
 10
-159.6057
 20
104.447
 30
0.0
 10
-161.9597
 20
102.66
 30
0.0
 10
-163.5719
 20
99.3752
 30
0.0
 10
-163.5719
 20
99.3752
 30
0.0
 10
-160.9928
 20
98.5209
 30
0.0
 10
-157.875
 20
95.6435
 30
0.0
 10
-157.0737
 20
93.0603
 30
0.0
 10
-157.0737
 20
93.0603
 30
0.0
 10
-156.2725
 20
95.6435
 30
0.0
 10
-153.1547
 20
98.5209
 30
0.0
 10
-150.5756
 20
99.3752
 30
0.0
  0
SPLINE
  5
65
330
1F
100
AcDbEntity
  8
layer 1
 62
     7
100
AcDbSpline
210
0.0
220
0.0
230
1.0
 70
    11
 71
     3
 72
    20
 73
    16
 74
     0
 42
0.0000000001
 43
0.0000000001
 12
1.0
 22
0.0
 32
0.0
 13
1.0
 23
0.0
 33
0.0
 40
0.0
 40
0.0
 40
0.0
 40
0.0
 40
0.2
 40
0.2
 40
0.2
 40
0.2
 40
0.4
 40
0.4
 40
0.4
 40
0.4
 40
0.6
 40
0.6
 40
0.6
 40
0.6
 40
1.0
 40
1.0
 40
1.0
 40
1.0
 10
-165.7837
 20
114.2517
 30
0.0
 10
-169.0029
 20
112.7185
 30
0.0
 10
-170.3634
 20
109.9171
 30
0.0
 10
-170.366
 20
107.1495
 30
0.0
 10
-170.366
 20
107.1495
 30
0.0
 10
-170.3634
 20
104.3819
 30
0.0
 10
-169.0029
 20
101.5805
 30
0.0
 10
-165.7837
 20
100.0473
 30
0.0
 10
-165.7837
 20
100.0473
 30
0.0
 10
-164.9437
 20
103.5162
 30
0.0
 10
-161.9278
 20
106.6811
 30
0.0
 10
-159.6568
 20
107.1495
 30
0.0
 10
-159.6568
 20
107.1495
 30
0.0
 10
-161.9276
 20
107.6181
 30
0.0
 10
-164.9434
 20
110.7828
 30
0.0
 10
-165.7837
 20
114.2517
 30
0.0
  0
SPLINE
  5
66
330
1F
100
AcDbEntity
  8
layer 1
 62
     7
100
AcDbSpline
210
0.0
220
0.0
230
1.0
 70
    11
 71
     3
 72
    20
 73
    16
 74
     0
 42
0.0000000001
 43
0.0000000001
 12
1.0
 22
0.0
 32
0.0
 13
1.0
 23
0.0
 33
0.0
 40
0.0
 40
0.0
 40
0.0
 40
0.0
 40
0.2
 40
0.2
 40
0.2
 40
0.2
 40
0.4
 40
0.4
 40
0.4
 40
0.4
 40
0.6
 40
0.6
 40
0.6
 40
0.6
 40
1.0
 40
1.0
 40
1.0
 40
1.0
 10
-150.5756
 20
99.3752
 30
0.0
 10
-152.1878
 20
102.66
 30
0.0
 10
-154.5417
 20
104.447
 30
0.0
 10
-157.0737
 20
104.4149
 30
0.0
 10
-157.0737
 20
104.4149
 30
0.0
 10
-159.6057
 20
104.447
 30
0.0
 10
-161.9597
 20
102.66
 30
0.0
 10
-163.5719
 20
99.3752
 30
0.0
 10
-163.5719
 20
99.3752
 30
0.0
 10
-160.9928
 20
98.5209
 30
0.0
 10
-157.875
 20
95.6435
 30
0.0
 10
-157.0737
 20
93.0603
 30
0.0
 10
-157.0737
 20
93.0603
 30
0.0
 10
-156.2725
 20
95.6435
 30
0.0
 10
-153.1547
 20
98.5209
 30
0.0
 10
-150.5756
 20
99.3752
 30
0.0
  0
SPLINE
  5
67
330
1F
100
AcDbEntity
  8
layer 1
 62
     7
100
AcDbSpline
210
0.0
220
0.0
230
1.0
 70
    11
 71
     3
 72
    20
 73
    16
 74
     0
 42
0.0000000001
 43
0.0000000001
 12
1.0
 22
0.0
 32
0.0
 13
1.0
 23
0.0
 33
0.0
 40
0.0
 40
0.0
 40
0.0
 40
0.0
 40
0.2
 40
0.2
 40
0.2
 40
0.2
 40
0.4
 40
0.4
 40
0.4
 40
0.4
 40
0.6
 40
0.6
 40
0.6
 40
0.6
 40
1.0
 40
1.0
 40
1.0
 40
1.0
 10
-148.3386
 20
100.0473
 30
0.0
 10
-145.1194
 20
101.5805
 30
0.0
 10
-143.7589
 20
104.3819
 30
0.0
 10
-143.7563
 20
107.1495
 30
0.0
 10
-143.7563
 20
107.1495
 30
0.0
 10
-143.7591
 20
109.9171
 30
0.0
 10
-145.1194
 20
112.7185
 30
0.0
 10
-148.3386
 20
114.2517
 30
0.0
 10
-148.3386
 20
114.2517
 30
0.0
 10
-149.1786
 20
110.7828
 30
0.0
 10
-152.1945
 20
107.6179
 30
0.0
 10
-154.4655
 20
107.1495
 30
0.0
 10
-154.4655
 20
107.1495
 30
0.0
 10
-152.1947
 20
106.6809
 30
0.0
 10
-149.1788
 20
103.5162
 30
0.0
 10
-148.3386
 20
100.0473
 30
0.0
  0
SPLINE
  5
68
330
1F
100
AcDbEntity
  8
layer 1
 62
     7
100
AcDbSpline
210
0.0
220
0.0
230
1.0
 70
    11
 71
     3
 72
    20
 73
    16
 74
     0
 42
0.0000000001
 43
0.0000000001
 12
1.0
 22
0.0
 32
0.0
 13
1.0
 23
0.0
 33
0.0
 40
0.0
 40
0.0
 40
0.0
 40
0.0
 40
0.2
 40
0.2
 40
0.2
 40
0.2
 40
0.4
 40
0.4
 40
0.4
 40
0.4
 40
0.6
 40
0.6
 40
0.6
 40
0.6
 40
1.0
 40
1.0
 40
1.0
 40
1.0
 10
-163.547
 20
114.9238
 30
0.0
 10
-161.9347
 20
111.639
 30
0.0
 10
-159.5808
 20
109.8521
 30
0.0
 10
-157.0488
 20
109.8841
 30
0.0
 10
-157.0488
 20
109.8841
 30
0.0
 10
-154.5168
 20
109.8521
 30
0.0
 10
-152.1629
 20
111.639
 30
0.0
 10
-150.5506
 20
114.9238
 30
0.0
 10
-150.5506
 20
114.9238
 30
0.0
 10
-153.1297
 20
115.7781
 30
0.0
 10
-156.2475
 20
118.6555
 30
0.0
 10
-157.0488
 20
121.2387
 30
0.0
 10
-157.0488
 20
121.2387
 30
0.0
 10
-157.8501
 20
118.6555
 30
0.0
 10
-160.9678
 20
115.7781
 30
0.0
 10
-163.547
 20
114.9238
 30
0.0
  0
SPLINE
  5
69
330
1F
100
AcDbEntity
  8
layer 1
 62
     7
100
AcDbSpline
210
0.0
220
0.0
230
1.0
 70
    11
 71
     3
 72
    24
 73
    20
 74
     0
 42
0.0000000001
 43
0.0000000001
 12
1.0
 22
0.0
 32
0.0
 13
1.0
 23
0.0
 33
0.0
 40
0.0
 40
0.0
 40
0.0
 40
0.0
 40
0.1666666666666667
 40
0.1666666666666667
 40
0.1666666666666667
 40
0.1666666666666667
 40
0.3333333333333333
 40
0.3333333333333333
 40
0.3333333333333333
 40
0.3333333333333333
 40
0.5
 40
0.5
 40
0.5
 40
0.5
 40
0.6666666666666666
 40
0.6666666666666666
 40
0.6666666666666666
 40
0.6666666666666666
 40
1.0
 40
1.0
 40
1.0
 40
1.0
 10
-179.3271
 20
100.0473
 30
0.0
 10
-176.1079
 20
101.5805
 30
0.0
 10
-174.7474
 20
104.3819
 30
0.0
 10
-174.7448
 20
107.1495
 30
0.0
 10
-174.7448
 20
107.1495
 30
0.0
 10
-174.7476
 20
109.9171
 30
0.0
 10
-176.1079
 20
112.7185
 30
0.0
 10
-179.3271
 20
114.2517
 30
0.0
 10
-179.3271
 20
114.2517
 30
0.0
 10
-179.6287
 20
113.0051
 30
0.0
 10
-180.2117
 20
111.7977
 30
0.0
 10
-180.9402
 20
110.7406
 30
0.0
 10
-180.9402
 20
110.7406
 30
0.0
 10
-180.9402
 20
110.7406
 30
0.0
 10
-180.988
 20
103.6269
 30
0.0
 10
-180.988
 20
103.6269
 30
0.0
 10
-180.988
 20
103.6269
 30
0.0
 10
-180.2375
 20
102.5537
 30
0.0
 10
-179.6354
 20
101.321
 30
0.0
 10
-179.3271
 20
100.0473
 30
0.0
  0
SPLINE
  5
6A
330
1F
100
AcDbEntity
  8
layer 1
 62
     7
100
AcDbSpline
210
0.0
220
0.0
230
1.0
 70
    11
 71
     3
 72
    20
 73
    16
 74
     0
 42
0.0000000001
 43
0.0000000001
 12
1.0
 22
0.0
 32
0.0
 13
1.0
 23
0.0
 33
0.0
 40
0.0
 40
0.0
 40
0.0
 40
0.0
 40
0.2
 40
0.2
 40
0.2
 40
0.2
 40
0.4
 40
0.4
 40
0.4
 40
0.4
 40
0.6
 40
0.6
 40
0.6
 40
0.6
 40
1.0
 40
1.0
 40
1.0
 40
1.0
 10
-149.6666
 20
60.4531
 30
0.0
 10
-152.8858
 20
58.9198
 30
0.0
 10
-154.2463
 20
56.1184
 30
0.0
 10
-154.2489
 20
53.3509
 30
0.0
 10
-154.2489
 20
53.3509
 30
0.0
 10
-154.2463
 20
50.5833
 30
0.0
 10
-152.8858
 20
47.7819
 30
0.0
 10
-149.6666
 20
46.2486
 30
0.0
 10
-149.6666
 20
46.2486
 30
0.0
 10
-148.8265
 20
49.7176
 30
0.0
 10
-145.8107
 20
52.8825
 30
0.0
 10
-143.5397
 20
53.3509
 30
0.0
 10
-143.5397
 20
53.3509
 30
0.0
 10
-145.8105
 20
53.8194
 30
0.0
 10
-148.8263
 20
56.9841
 30
0.0
 10
-149.6666
 20
60.4531
 30
0.0
  0
SPLINE
  5
6B
330
1F
100
AcDbEntity
  8
layer 1
 62
     7
100
AcDbSpline
210
0.0
220
0.0
230
1.0
 70
    11
 71
     3
 72
    20
 73
    16
 74
     0
 42
0.0000000001
 43
0.0000000001
 12
1.0
 22
0.0
 32
0.0
 13
1.0
 23
0.0
 33
0.0
 40
0.0
 40
0.0
 40
0.0
 40
0.0
 40
0.2
 40
0.2
 40
0.2
 40
0.2
 40
0.4
 40
0.4
 40
0.4
 40
0.4
 40
0.6
 40
0.6
 40
0.6
 40
0.6
 40
1.0
 40
1.0
 40
1.0
 40
1.0
 10
-134.4584
 20
45.5765
 30
0.0
 10
-136.0707
 20
48.8614
 30
0.0
 10
-138.4246
 20
50.6483
 30
0.0
 10
-140.9566
 20
50.6162
 30
0.0
 10
-140.9566
 20
50.6162
 30
0.0
 10
-143.4886
 20
50.6483
 30
0.0
 10
-145.8425
 20
48.8614
 30
0.0
 10
-147.4548
 20
45.5765
 30
0.0
 10
-147.4548
 20
45.5765
 30
0.0
 10
-144.8757
 20
44.7223
 30
0.0
 10
-141.7579
 20
41.8449
 30
0.0
 10
-140.9566
 20
39.2616
 30
0.0
 10
-140.9566
 20
39.2616
 30
0.0
 10
-140.1553
 20
41.8449
 30
0.0
 10
-137.0376
 20
44.7223
 30
0.0
 10
-134.4584
 20
45.5765
 30
0.0
  0
SPLINE
  5
6C
330
1F
100
AcDbEntity
  8
layer 1
 62
     7
100
AcDbSpline
210
0.0
220
0.0
230
1.0
 70
    11
 71
     3
 72
    20
 73
    16
 74
     0
 42
0.0000000001
 43
0.0000000001
 12
1.0
 22
0.0
 32
0.0
 13
1.0
 23
0.0
 33
0.0
 40
0.0
 40
0.0
 40
0.0
 40
0.0
 40
0.2
 40
0.2
 40
0.2
 40
0.2
 40
0.4
 40
0.4
 40
0.4
 40
0.4
 40
0.6
 40
0.6
 40
0.6
 40
0.6
 40
1.0
 40
1.0
 40
1.0
 40
1.0
 10
-149.6666
 20
60.4531
 30
0.0
 10
-152.8858
 20
58.9198
 30
0.0
 10
-154.2463
 20
56.1184
 30
0.0
 10
-154.2489
 20
53.3509
 30
0.0
 10
-154.2489
 20
53.3509
 30
0.0
 10
-154.2463
 20
50.5833
 30
0.0
 10
-152.8858
 20
47.7819
 30
0.0
 10
-149.6666
 20
46.2486
 30
0.0
 10
-149.6666
 20
46.2486
 30
0.0
 10
-148.8265
 20
49.7176
 30
0.0
 10
-145.8107
 20
52.8825
 30
0.0
 10
-143.5397
 20
53.3509
 30
0.0
 10
-143.5397
 20
53.3509
 30
0.0
 10
-145.8105
 20
53.8194
 30
0.0
 10
-148.8263
 20
56.9841
 30
0.0
 10
-149.6666
 20
60.4531
 30
0.0
  0
SPLINE
  5
6D
330
1F
100
AcDbEntity
  8
layer 1
 62
     7
100
AcDbSpline
210
0.0
220
0.0
230
1.0
 70
    11
 71
     3
 72
    20
 73
    16
 74
     0
 42
0.0000000001
 43
0.0000000001
 12
1.0
 22
0.0
 32
0.0
 13
1.0
 23
0.0
 33
0.0
 40
0.0
 40
0.0
 40
0.0
 40
0.0
 40
0.2
 40
0.2
 40
0.2
 40
0.2
 40
0.4
 40
0.4
 40
0.4
 40
0.4
 40
0.6
 40
0.6
 40
0.6
 40
0.6
 40
1.0
 40
1.0
 40
1.0
 40
1.0
 10
-134.4584
 20
45.5765
 30
0.0
 10
-136.0707
 20
48.8614
 30
0.0
 10
-138.4246
 20
50.6483
 30
0.0
 10
-140.9566
 20
50.6162
 30
0.0
 10
-140.9566
 20
50.6162
 30
0.0
 10
-143.4886
 20
50.6483
 30
0.0
 10
-145.8425
 20
48.8614
 30
0.0
 10
-147.4548
 20
45.5765
 30
0.0
 10
-147.4548
 20
45.5765
 30
0.0
 10
-144.8757
 20
44.7223
 30
0.0
 10
-141.7579
 20
41.8449
 30
0.0
 10
-140.9566
 20
39.2616
 30
0.0
 10
-140.9566
 20
39.2616
 30
0.0
 10
-140.1553
 20
41.8449
 30
0.0
 10
-137.0376
 20
44.7223
 30
0.0
 10
-134.4584
 20
45.5765
 30
0.0
  0
SPLINE
  5
6E
330
1F
100
AcDbEntity
  8
layer 1
 62
     7
100
AcDbSpline
210
0.0
220
0.0
230
1.0
 70
    11
 71
     3
 72
    20
 73
    16
 74
     0
 42
0.0000000001
 43
0.0000000001
 12
1.0
 22
0.0
 32
0.0
 13
1.0
 23
0.0
 33
0.0
 40
0.0
 40
0.0
 40
0.0
 40
0.0
 40
0.2
 40
0.2
 40
0.2
 40
0.2
 40
0.4
 40
0.4
 40
0.4
 40
0.4
 40
0.6
 40
0.6
 40
0.6
 40
0.6
 40
1.0
 40
1.0
 40
1.0
 40
1.0
 10
-132.2215
 20
46.2486
 30
0.0
 10
-129.0023
 20
47.7819
 30
0.0
 10
-127.6418
 20
50.5833
 30
0.0
 10
-127.6392
 20
53.3509
 30
0.0
 10
-127.6392
 20
53.3509
 30
0.0
 10
-127.642
 20
56.1184
 30
0.0
 10
-129.0023
 20
58.9198
 30
0.0
 10
-132.2215
 20
60.4531
 30
0.0
 10
-132.2215
 20
60.4531
 30
0.0
 10
-133.0615
 20
56.9841
 30
0.0
 10
-136.0774
 20
53.8192
 30
0.0
 10
-138.3484
 20
53.3509
 30
0.0
 10
-138.3484
 20
53.3509
 30
0.0
 10
-136.0776
 20
52.8823
 30
0.0
 10
-133.0617
 20
49.7176
 30
0.0
 10
-132.2215
 20
46.2486
 30
0.0
  0
SPLINE
  5
6F
330
1F
100
AcDbEntity
  8
layer 1
 62
     7
100
AcDbSpline
210
0.0
220
0.0
230
1.0
 70
    11
 71
     3
 72
    20
 73
    16
 74
     0
 42
0.0000000001
 43
0.0000000001
 12
1.0
 22
0.0
 32
0.0
 13
1.0
 23
0.0
 33
0.0
 40
0.0
 40
0.0
 40
0.0
 40
0.0
 40
0.2
 40
0.2
 40
0.2
 40
0.2
 40
0.4
 40
0.4
 40
0.4
 40
0.4
 40
0.6
 40
0.6
 40
0.6
 40
0.6
 40
1.0
 40
1.0
 40
1.0
 40
1.0
 10
-147.4298
 20
61.1252
 30
0.0
 10
-145.8176
 20
57.8403
 30
0.0
 10
-143.4637
 20
56.0534
 30
0.0
 10
-140.9317
 20
56.0855
 30
0.0
 10
-140.9317
 20
56.0855
 30
0.0
 10
-138.3997
 20
56.0534
 30
0.0
 10
-136.0457
 20
57.8403
 30
0.0
 10
-134.4335
 20
61.1252
 30
0.0
 10
-134.4335
 20
61.1252
 30
0.0
 10
-137.0126
 20
61.9794
 30
0.0
 10
-140.1304
 20
64.8568
 30
0.0
 10
-140.9317
 20
67.4401
 30
0.0
 10
-140.9317
 20
67.4401
 30
0.0
 10
-141.7329
 20
64.8568
 30
0.0
 10
-144.8507
 20
61.9794
 30
0.0
 10
-147.4298
 20
61.1252
 30
0.0
  0
SPLINE
  5
70
330
1F
100
AcDbEntity
  8
layer 1
 62
     7
100
AcDbSpline
210
0.0
220
0.0
230
1.0
 70
    11
 71
     3
 72
    20
 73
    16
 74
     0
 42
0.0000000001
 43
0.0000000001
 12
1.0
 22
0.0
 32
0.0
 13
1.0
 23
0.0
 33
0.0
 40
0.0
 40
0.0
 40
0.0
 40
0.0
 40
0.2
 40
0.2
 40
0.2
 40
0.2
 40
0.4
 40
0.4
 40
0.4
 40
0.4
 40
0.6
 40
0.6
 40
0.6
 40
0.6
 40
1.0
 40
1.0
 40
1.0
 40
1.0
 10
-118.2871
 20
60.4531
 30
0.0
 10
-121.5062
 20
58.9198
 30
0.0
 10
-122.8668
 20
56.1184
 30
0.0
 10
-122.8693
 20
53.3509
 30
0.0
 10
-122.8693
 20
53.3509
 30
0.0
 10
-122.8668
 20
50.5833
 30
0.0
 10
-121.5062
 20
47.7819
 30
0.0
 10
-118.2871
 20
46.2486
 30
0.0
 10
-118.2871
 20
46.2486
 30
0.0
 10
-117.447
 20
49.7176
 30
0.0
 10
-114.4311
 20
52.8825
 30
0.0
 10
-112.1601
 20
53.3509
 30
0.0
 10
-112.1601
 20
53.3509
 30
0.0
 10
-114.4309
 20
53.8194
 30
0.0
 10
-117.4468
 20
56.9841
 30
0.0
 10
-118.2871
 20
60.4531
 30
0.0
  0
SPLINE
  5
71
330
1F
100
AcDbEntity
  8
layer 1
 62
     7
100
AcDbSpline
210
0.0
220
0.0
230
1.0
 70
    11
 71
     3
 72
    20
 73
    16
 74
     0
 42
0.0000000001
 43
0.0000000001
 12
1.0
 22
0.0
 32
0.0
 13
1.0
 23
0.0
 33
0.0
 40
0.0
 40
0.0
 40
0.0
 40
0.0
 40
0.2
 40
0.2
 40
0.2
 40
0.2
 40
0.4
 40
0.4
 40
0.4
 40
0.4
 40
0.6
 40
0.6
 40
0.6
 40
0.6
 40
1.0
 40
1.0
 40
1.0
 40
1.0
 10
-103.0789
 20
45.5765
 30
0.0
 10
-104.6912
 20
48.8614
 30
0.0
 10
-107.0451
 20
50.6483
 30
0.0
 10
-109.5771
 20
50.6162
 30
0.0
 10
-109.5771
 20
50.6162
 30
0.0
 10
-112.1091
 20
50.6483
 30
0.0
 10
-114.463
 20
48.8614
 30
0.0
 10
-116.0753
 20
45.5765
 30
0.0
 10
-116.0753
 20
45.5765
 30
0.0
 10
-113.4961
 20
44.7223
 30
0.0
 10
-110.3784
 20
41.8449
 30
0.0
 10
-109.5771
 20
39.2616
 30
0.0
 10
-109.5771
 20
39.2616
 30
0.0
 10
-108.7758
 20
41.8449
 30
0.0
 10
-105.6581
 20
44.7223
 30
0.0
 10
-103.0789
 20
45.5765
 30
0.0
  0
SPLINE
  5
72
330
1F
100
AcDbEntity
  8
layer 1
 62
     7
100
AcDbSpline
210
0.0
220
0.0
230
1.0
 70
    11
 71
     3
 72
    20
 73
    16
 74
     0
 42
0.0000000001
 43
0.0000000001
 12
1.0
 22
0.0
 32
0.0
 13
1.0
 23
0.0
 33
0.0
 40
0.0
 40
0.0
 40
0.0
 40
0.0
 40
0.2
 40
0.2
 40
0.2
 40
0.2
 40
0.4
 40
0.4
 40
0.4
 40
0.4
 40
0.6
 40
0.6
 40
0.6
 40
0.6
 40
1.0
 40
1.0
 40
1.0
 40
1.0
 10
-118.2871
 20
60.4531
 30
0.0
 10
-121.5062
 20
58.9198
 30
0.0
 10
-122.8668
 20
56.1184
 30
0.0
 10
-122.8693
 20
53.3509
 30
0.0
 10
-122.8693
 20
53.3509
 30
0.0
 10
-122.8668
 20
50.5833
 30
0.0
 10
-121.5062
 20
47.7819
 30
0.0
 10
-118.2871
 20
46.2486
 30
0.0
 10
-118.2871
 20
46.2486
 30
0.0
 10
-117.447
 20
49.7176
 30
0.0
 10
-114.4311
 20
52.8825
 30
0.0
 10
-112.1601
 20
53.3509
 30
0.0
 10
-112.1601
 20
53.3509
 30
0.0
 10
-114.4309
 20
53.8194
 30
0.0
 10
-117.4468
 20
56.9841
 30
0.0
 10
-118.2871
 20
60.4531
 30
0.0
  0
SPLINE
  5
73
330
1F
100
AcDbEntity
  8
layer 1
 62
     7
100
AcDbSpline
210
0.0
220
0.0
230
1.0
 70
    11
 71
     3
 72
    20
 73
    16
 74
     0
 42
0.0000000001
 43
0.0000000001
 12
1.0
 22
0.0
 32
0.0
 13
1.0
 23
0.0
 33
0.0
 40
0.0
 40
0.0
 40
0.0
 40
0.0
 40
0.2
 40
0.2
 40
0.2
 40
0.2
 40
0.4
 40
0.4
 40
0.4
 40
0.4
 40
0.6
 40
0.6
 40
0.6
 40
0.6
 40
1.0
 40
1.0
 40
1.0
 40
1.0
 10
-103.0789
 20
45.5765
 30
0.0
 10
-104.6912
 20
48.8614
 30
0.0
 10
-107.0451
 20
50.6483
 30
0.0
 10
-109.5771
 20
50.6162
 30
0.0
 10
-109.5771
 20
50.6162
 30
0.0
 10
-112.1091
 20
50.6483
 30
0.0
 10
-114.463
 20
48.8614
 30
0.0
 10
-116.0753
 20
45.5765
 30
0.0
 10
-116.0753
 20
45.5765
 30
0.0
 10
-113.4961
 20
44.7223
 30
0.0
 10
-110.3784
 20
41.8449
 30
0.0
 10
-109.5771
 20
39.2616
 30
0.0
 10
-109.5771
 20
39.2616
 30
0.0
 10
-108.7758
 20
41.8449
 30
0.0
 10
-105.6581
 20
44.7223
 30
0.0
 10
-103.0789
 20
45.5765
 30
0.0
  0
SPLINE
  5
74
330
1F
100
AcDbEntity
  8
layer 1
 62
     7
100
AcDbSpline
210
0.0
220
0.0
230
1.0
 70
    11
 71
     3
 72
    20
 73
    16
 74
     0
 42
0.0000000001
 43
0.0000000001
 12
1.0
 22
0.0
 32
0.0
 13
1.0
 23
0.0
 33
0.0
 40
0.0
 40
0.0
 40
0.0
 40
0.0
 40
0.2
 40
0.2
 40
0.2
 40
0.2
 40
0.4
 40
0.4
 40
0.4
 40
0.4
 40
0.6
 40
0.6
 40
0.6
 40
0.6
 40
1.0
 40
1.0
 40
1.0
 40
1.0
 10
-100.8419
 20
46.2486
 30
0.0
 10
-97.6228
 20
47.7819
 30
0.0
 10
-96.2622
 20
50.5833
 30
0.0
 10
-96.2597
 20
53.3509
 30
0.0
 10
-96.2597
 20
53.3509
 30
0.0
 10
-96.2625
 20
56.1184
 30
0.0
 10
-97.6228
 20
58.9198
 30
0.0
 10
-100.8419
 20
60.4531
 30
0.0
 10
-100.8419
 20
60.4531
 30
0.0
 10
-101.682
 20
56.9841
 30
0.0
 10
-104.6979
 20
53.8192
 30
0.0
 10
-106.9689
 20
53.3509
 30
0.0
 10
-106.9689
 20
53.3509
 30
0.0
 10
-104.6981
 20
52.8823
 30
0.0
 10
-101.6822
 20
49.7176
 30
0.0
 10
-100.8419
 20
46.2486
 30
0.0
  0
SPLINE
  5
75
330
1F
100
AcDbEntity
  8
layer 1
 62
     7
100
AcDbSpline
210
0.0
220
0.0
230
1.0
 70
    11
 71
     3
 72
    20
 73
    16
 74
     0
 42
0.0000000001
 43
0.0000000001
 12
1.0
 22
0.0
 32
0.0
 13
1.0
 23
0.0
 33
0.0
 40
0.0
 40
0.0
 40
0.0
 40
0.0
 40
0.2
 40
0.2
 40
0.2
 40
0.2
 40
0.4
 40
0.4
 40
0.4
 40
0.4
 40
0.6
 40
0.6
 40
0.6
 40
0.6
 40
1.0
 40
1.0
 40
1.0
 40
1.0
 10
-116.0503
 20
61.1252
 30
0.0
 10
-114.438
 20
57.8403
 30
0.0
 10
-112.0841
 20
56.0534
 30
0.0
 10
-109.5521
 20
56.0855
 30
0.0
 10
-109.5521
 20
56.0855
 30
0.0
 10
-107.0201
 20
56.0534
 30
0.0
 10
-104.6662
 20
57.8403
 30
0.0
 10
-103.0539
 20
61.1252
 30
0.0
 10
-103.0539
 20
61.1252
 30
0.0
 10
-105.6331
 20
61.9794
 30
0.0
 10
-108.7508
 20
64.8568
 30
0.0
 10
-109.5521
 20
67.4401
 30
0.0
 10
-109.5521
 20
67.4401
 30
0.0
 10
-110.3534
 20
64.8568
 30
0.0
 10
-113.4711
 20
61.9794
 30
0.0
 10
-116.0503
 20
61.1252
 30
0.0
  0
SPLINE
  5
76
330
1F
100
AcDbEntity
  8
layer 1
 62
     7
100
AcDbSpline
210
0.0
220
0.0
230
1.0
 70
    11
 71
     3
 72
    20
 73
    16
 74
     0
 42
0.0000000001
 43
0.0000000001
 12
1.0
 22
0.0
 32
0.0
 13
1.0
 23
0.0
 33
0.0
 40
0.0
 40
0.0
 40
0.0
 40
0.0
 40
0.2
 40
0.2
 40
0.2
 40
0.2
 40
0.4
 40
0.4
 40
0.4
 40
0.4
 40
0.6
 40
0.6
 40
0.6
 40
0.6
 40
1.0
 40
1.0
 40
1.0
 40
1.0
 10
-87.1517
 20
60.4531
 30
0.0
 10
-90.3709
 20
58.9198
 30
0.0
 10
-91.7314
 20
56.1184
 30
0.0
 10
-91.734
 20
53.3509
 30
0.0
 10
-91.734
 20
53.3509
 30
0.0
 10
-91.7314
 20
50.5833
 30
0.0
 10
-90.3709
 20
47.7819
 30
0.0
 10
-87.1517
 20
46.2486
 30
0.0
 10
-87.1517
 20
46.2486
 30
0.0
 10
-86.3117
 20
49.7176
 30
0.0
 10
-83.2958
 20
52.8825
 30
0.0
 10
-81.0248
 20
53.3509
 30
0.0
 10
-81.0248
 20
53.3509
 30
0.0
 10
-83.2956
 20
53.8194
 30
0.0
 10
-86.3115
 20
56.9841
 30
0.0
 10
-87.1517
 20
60.4531
 30
0.0
  0
SPLINE
  5
77
330
1F
100
AcDbEntity
  8
layer 1
 62
     7
100
AcDbSpline
210
0.0
220
0.0
230
1.0
 70
    11
 71
     3
 72
    20
 73
    16
 74
     0
 42
0.0000000001
 43
0.0000000001
 12
1.0
 22
0.0
 32
0.0
 13
1.0
 23
0.0
 33
0.0
 40
0.0
 40
0.0
 40
0.0
 40
0.0
 40
0.2
 40
0.2
 40
0.2
 40
0.2
 40
0.4
 40
0.4
 40
0.4
 40
0.4
 40
0.6
 40
0.6
 40
0.6
 40
0.6
 40
1.0
 40
1.0
 40
1.0
 40
1.0
 10
-71.9436
 20
45.5765
 30
0.0
 10
-73.5558
 20
48.8614
 30
0.0
 10
-75.9098
 20
50.6483
 30
0.0
 10
-78.4418
 20
50.6162
 30
0.0
 10
-78.4418
 20
50.6162
 30
0.0
 10
-80.9738
 20
50.6483
 30
0.0
 10
-83.3277
 20
48.8614
 30
0.0
 10
-84.9399
 20
45.5765
 30
0.0
 10
-84.9399
 20
45.5765
 30
0.0
 10
-82.3608
 20
44.7223
 30
0.0
 10
-79.2431
 20
41.8449
 30
0.0
 10
-78.4418
 20
39.2616
 30
0.0
 10
-78.4418
 20
39.2616
 30
0.0
 10
-77.6405
 20
41.8449
 30
0.0
 10
-74.5227
 20
44.7223
 30
0.0
 10
-71.9436
 20
45.5765
 30
0.0
  0
SPLINE
  5
78
330
1F
100
AcDbEntity
  8
layer 1
 62
     7
100
AcDbSpline
210
0.0
220
0.0
230
1.0
 70
    11
 71
     3
 72
    20
 73
    16
 74
     0
 42
0.0000000001
 43
0.0000000001
 12
1.0
 22
0.0
 32
0.0
 13
1.0
 23
0.0
 33
0.0
 40
0.0
 40
0.0
 40
0.0
 40
0.0
 40
0.2
 40
0.2
 40
0.2
 40
0.2
 40
0.4
 40
0.4
 40
0.4
 40
0.4
 40
0.6
 40
0.6
 40
0.6
 40
0.6
 40
1.0
 40
1.0
 40
1.0
 40
1.0
 10
-87.1517
 20
60.4531
 30
0.0
 10
-90.3709
 20
58.9198
 30
0.0
 10
-91.7314
 20
56.1184
 30
0.0
 10
-91.734
 20
53.3509
 30
0.0
 10
-91.734
 20
53.3509
 30
0.0
 10
-91.7314
 20
50.5833
 30
0.0
 10
-90.3709
 20
47.7819
 30
0.0
 10
-87.1517
 20
46.2486
 30
0.0
 10
-87.1517
 20
46.2486
 30
0.0
 10
-86.3117
 20
49.7176
 30
0.0
 10
-83.2958
 20
52.8825
 30
0.0
 10
-81.0248
 20
53.3509
 30
0.0
 10
-81.0248
 20
53.3509
 30
0.0
 10
-83.2956
 20
53.8194
 30
0.0
 10
-86.3115
 20
56.9841
 30
0.0
 10
-87.1517
 20
60.4531
 30
0.0
  0
SPLINE
  5
79
330
1F
100
AcDbEntity
  8
layer 1
 62
     7
100
AcDbSpline
210
0.0
220
0.0
230
1.0
 70
    11
 71
     3
 72
    20
 73
    16
 74
     0
 42
0.0000000001
 43
0.0000000001
 12
1.0
 22
0.0
 32
0.0
 13
1.0
 23
0.0
 33
0.0
 40
0.0
 40
0.0
 40
0.0
 40
0.0
 40
0.2
 40
0.2
 40
0.2
 40
0.2
 40
0.4
 40
0.4
 40
0.4
 40
0.4
 40
0.6
 40
0.6
 40
0.6
 40
0.6
 40
1.0
 40
1.0
 40
1.0
 40
1.0
 10
-71.9436
 20
45.5765
 30
0.0
 10
-73.5558
 20
48.8614
 30
0.0
 10
-75.9098
 20
50.6483
 30
0.0
 10
-78.4418
 20
50.6162
 30
0.0
 10
-78.4418
 20
50.6162
 30
0.0
 10
-80.9738
 20
50.6483
 30
0.0
 10
-83.3277
 20
48.8614
 30
0.0
 10
-84.9399
 20
45.5765
 30
0.0
 10
-84.9399
 20
45.5765
 30
0.0
 10
-82.3608
 20
44.7223
 30
0.0
 10
-79.2431
 20
41.8449
 30
0.0
 10
-78.4418
 20
39.2616
 30
0.0
 10
-78.4418
 20
39.2616
 30
0.0
 10
-77.6405
 20
41.8449
 30
0.0
 10
-74.5227
 20
44.7223
 30
0.0
 10
-71.9436
 20
45.5765
 30
0.0
  0
SPLINE
  5
7A
330
1F
100
AcDbEntity
  8
layer 1
 62
     7
100
AcDbSpline
210
0.0
220
0.0
230
1.0
 70
    11
 71
     3
 72
    20
 73
    16
 74
     0
 42
0.0000000001
 43
0.0000000001
 12
1.0
 22
0.0
 32
0.0
 13
1.0
 23
0.0
 33
0.0
 40
0.0
 40
0.0
 40
0.0
 40
0.0
 40
0.2
 40
0.2
 40
0.2
 40
0.2
 40
0.4
 40
0.4
 40
0.4
 40
0.4
 40
0.6
 40
0.6
 40
0.6
 40
0.6
 40
1.0
 40
1.0
 40
1.0
 40
1.0
 10
-84.915
 20
61.1252
 30
0.0
 10
-83.3027
 20
57.8403
 30
0.0
 10
-80.9488
 20
56.0534
 30
0.0
 10
-78.4168
 20
56.0855
 30
0.0
 10
-78.4168
 20
56.0855
 30
0.0
 10
-75.8848
 20
56.0534
 30
0.0
 10
-73.5309
 20
57.8403
 30
0.0
 10
-71.9186
 20
61.1252
 30
0.0
 10
-71.9186
 20
61.1252
 30
0.0
 10
-74.4978
 20
61.9794
 30
0.0
 10
-77.6155
 20
64.8568
 30
0.0
 10
-78.4168
 20
67.4401
 30
0.0
 10
-78.4168
 20
67.4401
 30
0.0
 10
-79.2181
 20
64.8568
 30
0.0
 10
-82.3358
 20
61.9794
 30
0.0
 10
-84.915
 20
61.1252
 30
0.0
  0
SPLINE
  5
7B
330
1F
100
AcDbEntity
  8
layer 1
 62
     7
100
AcDbSpline
210
0.0
220
0.0
230
1.0
 70
    11
 71
     3
 72
    20
 73
    16
 74
     0
 42
0.0000000001
 43
0.0000000001
 12
1.0
 22
0.0
 32
0.0
 13
1.0
 23
0.0
 33
0.0
 40
0.0
 40
0.0
 40
0.0
 40
0.0
 40
0.2
 40
0.2
 40
0.2
 40
0.2
 40
0.4
 40
0.4
 40
0.4
 40
0.4
 40
0.6
 40
0.6
 40
0.6
 40
0.6
 40
1.0
 40
1.0
 40
1.0
 40
1.0
 10
-165.838
 20
45.5765
 30
0.0
 10
-167.4503
 20
48.8614
 30
0.0
 10
-169.8042
 20
50.6483
 30
0.0
 10
-172.3362
 20
50.6162
 30
0.0
 10
-172.3362
 20
50.6162
 30
0.0
 10
-174.8682
 20
50.6483
 30
0.0
 10
-177.2221
 20
48.8614
 30
0.0
 10
-178.8344
 20
45.5765
 30
0.0
 10
-178.8344
 20
45.5765
 30
0.0
 10
-176.2552
 20
44.7223
 30
0.0
 10
-173.1375
 20
41.8449
 30
0.0
 10
-172.3362
 20
39.2616
 30
0.0
 10
-172.3362
 20
39.2616
 30
0.0
 10
-171.5349
 20
41.8449
 30
0.0
 10
-168.4171
 20
44.7223
 30
0.0
 10
-165.838
 20
45.5765
 30
0.0
  0
SPLINE
  5
7C
330
1F
100
AcDbEntity
  8
layer 1
 62
     7
100
AcDbSpline
210
0.0
220
0.0
230
1.0
 70
    11
 71
     3
 72
    16
 73
    12
 74
     0
 42
0.0000000001
 43
0.0000000001
 12
1.0
 22
0.0
 32
0.0
 13
1.0
 23
0.0
 33
0.0
 40
0.0
 40
0.0
 40
0.0
 40
0.0
 40
0.25
 40
0.25
 40
0.25
 40
0.25
 40
0.5
 40
0.5
 40
0.5
 40
0.5
 40
1.0
 40
1.0
 40
1.0
 40
1.0
 10
-181.0461
 20
60.4531
 30
0.0
 10
-181.0461
 20
60.4531
 30
0.0
 10
-181.0461
 20
46.2486
 30
0.0
 10
-181.0461
 20
46.2486
 30
0.0
 10
-181.0461
 20
46.2486
 30
0.0
 10
-180.2061
 20
49.7176
 30
0.0
 10
-177.1902
 20
52.8825
 30
0.0
 10
-174.9192
 20
53.3509
 30
0.0
 10
-174.9192
 20
53.3509
 30
0.0
 10
-177.19
 20
53.8194
 30
0.0
 10
-180.2059
 20
56.9841
 30
0.0
 10
-181.0461
 20
60.4531
 30
0.0
  0
SPLINE
  5
7D
330
1F
100
AcDbEntity
  8
layer 1
 62
     7
100
AcDbSpline
210
0.0
220
0.0
230
1.0
 70
    11
 71
     3
 72
    20
 73
    16
 74
     0
 42
0.0000000001
 43
0.0000000001
 12
1.0
 22
0.0
 32
0.0
 13
1.0
 23
0.0
 33
0.0
 40
0.0
 40
0.0
 40
0.0
 40
0.0
 40
0.2
 40
0.2
 40
0.2
 40
0.2
 40
0.4
 40
0.4
 40
0.4
 40
0.4
 40
0.6
 40
0.6
 40
0.6
 40
0.6
 40
1.0
 40
1.0
 40
1.0
 40
1.0
 10
-165.838
 20
45.5765
 30
0.0
 10
-167.4503
 20
48.8614
 30
0.0
 10
-169.8042
 20
50.6483
 30
0.0
 10
-172.3362
 20
50.6162
 30
0.0
 10
-172.3362
 20
50.6162
 30
0.0
 10
-174.8682
 20
50.6483
 30
0.0
 10
-177.2221
 20
48.8614
 30
0.0
 10
-178.8344
 20
45.5765
 30
0.0
 10
-178.8344
 20
45.5765
 30
0.0
 10
-176.2552
 20
44.7223
 30
0.0
 10
-173.1375
 20
41.8449
 30
0.0
 10
-172.3362
 20
39.2616
 30
0.0
 10
-172.3362
 20
39.2616
 30
0.0
 10
-171.5349
 20
41.8449
 30
0.0
 10
-168.4171
 20
44.7223
 30
0.0
 10
-165.838
 20
45.5765
 30
0.0
  0
SPLINE
  5
7E
330
1F
100
AcDbEntity
  8
layer 1
 62
     7
100
AcDbSpline
210
0.0
220
0.0
230
1.0
 70
    11
 71
     3
 72
    20
 73
    16
 74
     0
 42
0.0000000001
 43
0.0000000001
 12
1.0
 22
0.0
 32
0.0
 13
1.0
 23
0.0
 33
0.0
 40
0.0
 40
0.0
 40
0.0
 40
0.0
 40
0.2
 40
0.2
 40
0.2
 40
0.2
 40
0.4
 40
0.4
 40
0.4
 40
0.4
 40
0.6
 40
0.6
 40
0.6
 40
0.6
 40
1.0
 40
1.0
 40
1.0
 40
1.0
 10
-163.601
 20
46.2486
 30
0.0
 10
-160.3818
 20
47.7819
 30
0.0
 10
-159.0213
 20
50.5833
 30
0.0
 10
-159.0187
 20
53.3509
 30
0.0
 10
-159.0187
 20
53.3509
 30
0.0
 10
-159.0215
 20
56.1184
 30
0.0
 10
-160.3818
 20
58.9198
 30
0.0
 10
-163.601
 20
60.4531
 30
0.0
 10
-163.601
 20
60.4531
 30
0.0
 10
-164.4411
 20
56.9841
 30
0.0
 10
-167.4569
 20
53.8192
 30
0.0
 10
-169.7279
 20
53.3509
 30
0.0
 10
-169.7279
 20
53.3509
 30
0.0
 10
-167.4571
 20
52.8823
 30
0.0
 10
-164.4413
 20
49.7176
 30
0.0
 10
-163.601
 20
46.2486
 30
0.0
  0
SPLINE
  5
7F
330
1F
100
AcDbEntity
  8
layer 1
 62
     7
100
AcDbSpline
210
0.0
220
0.0
230
1.0
 70
    11
 71
     3
 72
    20
 73
    16
 74
     0
 42
0.0000000001
 43
0.0000000001
 12
1.0
 22
0.0
 32
0.0
 13
1.0
 23
0.0
 33
0.0
 40
0.0
 40
0.0
 40
0.0
 40
0.0
 40
0.2
 40
0.2
 40
0.2
 40
0.2
 40
0.4
 40
0.4
 40
0.4
 40
0.4
 40
0.6
 40
0.6
 40
0.6
 40
0.6
 40
1.0
 40
1.0
 40
1.0
 40
1.0
 10
-178.8094
 20
61.1252
 30
0.0
 10
-177.1971
 20
57.8403
 30
0.0
 10
-174.8432
 20
56.0534
 30
0.0
 10
-172.3112
 20
56.0855
 30
0.0
 10
-172.3112
 20
56.0855
 30
0.0
 10
-169.7792
 20
56.0534
 30
0.0
 10
-167.4253
 20
57.8403
 30
0.0
 10
-165.813
 20
61.1252
 30
0.0
 10
-165.813
 20
61.1252
 30
0.0
 10
-168.3922
 20
61.9794
 30
0.0
 10
-171.5099
 20
64.8568
 30
0.0
 10
-172.3112
 20
67.4401
 30
0.0
 10
-172.3112
 20
67.4401
 30
0.0
 10
-173.1125
 20
64.8568
 30
0.0
 10
-176.2302
 20
61.9794
 30
0.0
 10
-178.8094
 20
61.1252
 30
0.0
  0
SPLINE
  5
80
330
1F
100
AcDbEntity
  8
layer 1
 62
     7
100
AcDbSpline
210
0.0
220
0.0
230
1.0
 70
    11
 71
     3
 72
    20
 73
    16
 74
     0
 42
0.0000000001
 43
0.0000000001
 12
1.0
 22
0.0
 32
0.0
 13
1.0
 23
0.0
 33
0.0
 40
0.0
 40
0.0
 40
0.0
 40
0.0
 40
0.2
 40
0.2
 40
0.2
 40
0.2
 40
0.4
 40
0.4
 40
0.4
 40
0.4
 40
0.6
 40
0.6
 40
0.6
 40
0.6
 40
1.0
 40
1.0
 40
1.0
 40
1.0
 10
-134.4042
 20
78.5238
 30
0.0
 10
-137.6233
 20
76.9905
 30
0.0
 10
-138.9839
 20
74.1891
 30
0.0
 10
-138.9865
 20
71.4216
 30
0.0
 10
-138.9865
 20
71.4216
 30
0.0
 10
-138.9839
 20
68.654
 30
0.0
 10
-137.6233
 20
65.8526
 30
0.0
 10
-134.4042
 20
64.3193
 30
0.0
 10
-134.4042
 20
64.3193
 30
0.0
 10
-133.5641
 20
67.7883
 30
0.0
 10
-130.5483
 20
70.9532
 30
0.0
 10
-128.2772
 20
71.4216
 30
0.0
 10
-128.2772
 20
71.4216
 30
0.0
 10
-130.548
 20
71.8901
 30
0.0
 10
-133.5639
 20
75.0548
 30
0.0
 10
-134.4042
 20
78.5238
 30
0.0
  0
SPLINE
  5
81
330
1F
100
AcDbEntity
  8
layer 1
 62
     7
100
AcDbSpline
210
0.0
220
0.0
230
1.0
 70
    11
 71
     3
 72
    20
 73
    16
 74
     0
 42
0.0000000001
 43
0.0000000001
 12
1.0
 22
0.0
 32
0.0
 13
1.0
 23
0.0
 33
0.0
 40
0.0
 40
0.0
 40
0.0
 40
0.0
 40
0.2
 40
0.2
 40
0.2
 40
0.2
 40
0.4
 40
0.4
 40
0.4
 40
0.4
 40
0.6
 40
0.6
 40
0.6
 40
0.6
 40
1.0
 40
1.0
 40
1.0
 40
1.0
 10
-119.196
 20
63.6473
 30
0.0
 10
-120.8083
 20
66.9321
 30
0.0
 10
-123.1622
 20
68.719
 30
0.0
 10
-125.6942
 20
68.6869
 30
0.0
 10
-125.6942
 20
68.6869
 30
0.0
 10
-128.2262
 20
68.719
 30
0.0
 10
-130.5801
 20
66.9321
 30
0.0
 10
-132.1924
 20
63.6473
 30
0.0
 10
-132.1924
 20
63.6473
 30
0.0
 10
-129.6132
 20
62.793
 30
0.0
 10
-126.4955
 20
59.9156
 30
0.0
 10
-125.6942
 20
57.3323
 30
0.0
 10
-125.6942
 20
57.3323
 30
0.0
 10
-124.8929
 20
59.9156
 30
0.0
 10
-121.7752
 20
62.793
 30
0.0
 10
-119.196
 20
63.6473
 30
0.0
  0
SPLINE
  5
82
330
1F
100
AcDbEntity
  8
layer 1
 62
     7
100
AcDbSpline
210
0.0
220
0.0
230
1.0
 70
    11
 71
     3
 72
    20
 73
    16
 74
     0
 42
0.0000000001
 43
0.0000000001
 12
1.0
 22
0.0
 32
0.0
 13
1.0
 23
0.0
 33
0.0
 40
0.0
 40
0.0
 40
0.0
 40
0.0
 40
0.2
 40
0.2
 40
0.2
 40
0.2
 40
0.4
 40
0.4
 40
0.4
 40
0.4
 40
0.6
 40
0.6
 40
0.6
 40
0.6
 40
1.0
 40
1.0
 40
1.0
 40
1.0
 10
-134.4042
 20
78.5238
 30
0.0
 10
-137.6233
 20
76.9905
 30
0.0
 10
-138.9839
 20
74.1891
 30
0.0
 10
-138.9865
 20
71.4216
 30
0.0
 10
-138.9865
 20
71.4216
 30
0.0
 10
-138.9839
 20
68.654
 30
0.0
 10
-137.6233
 20
65.8526
 30
0.0
 10
-134.4042
 20
64.3193
 30
0.0
 10
-134.4042
 20
64.3193
 30
0.0
 10
-133.5641
 20
67.7883
 30
0.0
 10
-130.5483
 20
70.9532
 30
0.0
 10
-128.2772
 20
71.4216
 30
0.0
 10
-128.2772
 20
71.4216
 30
0.0
 10
-130.548
 20
71.8901
 30
0.0
 10
-133.5639
 20
75.0548
 30
0.0
 10
-134.4042
 20
78.5238
 30
0.0
  0
SPLINE
  5
83
330
1F
100
AcDbEntity
  8
layer 1
 62
     7
100
AcDbSpline
210
0.0
220
0.0
230
1.0
 70
    11
 71
     3
 72
    20
 73
    16
 74
     0
 42
0.0000000001
 43
0.0000000001
 12
1.0
 22
0.0
 32
0.0
 13
1.0
 23
0.0
 33
0.0
 40
0.0
 40
0.0
 40
0.0
 40
0.0
 40
0.2
 40
0.2
 40
0.2
 40
0.2
 40
0.4
 40
0.4
 40
0.4
 40
0.4
 40
0.6
 40
0.6
 40
0.6
 40
0.6
 40
1.0
 40
1.0
 40
1.0
 40
1.0
 10
-119.196
 20
63.6473
 30
0.0
 10
-120.8083
 20
66.9321
 30
0.0
 10
-123.1622
 20
68.719
 30
0.0
 10
-125.6942
 20
68.6869
 30
0.0
 10
-125.6942
 20
68.6869
 30
0.0
 10
-128.2262
 20
68.719
 30
0.0
 10
-130.5801
 20
66.9321
 30
0.0
 10
-132.1924
 20
63.6473
 30
0.0
 10
-132.1924
 20
63.6473
 30
0.0
 10
-129.6132
 20
62.793
 30
0.0
 10
-126.4955
 20
59.9156
 30
0.0
 10
-125.6942
 20
57.3323
 30
0.0
 10
-125.6942
 20
57.3323
 30
0.0
 10
-124.8929
 20
59.9156
 30
0.0
 10
-121.7752
 20
62.793
 30
0.0
 10
-119.196
 20
63.6473
 30
0.0
  0
SPLINE
  5
84
330
1F
100
AcDbEntity
  8
layer 1
 62
     7
100
AcDbSpline
210
0.0
220
0.0
230
1.0
 70
    11
 71
     3
 72
    20
 73
    16
 74
     0
 42
0.0000000001
 43
0.0000000001
 12
1.0
 22
0.0
 32
0.0
 13
1.0
 23
0.0
 33
0.0
 40
0.0
 40
0.0
 40
0.0
 40
0.0
 40
0.2
 40
0.2
 40
0.2
 40
0.2
 40
0.4
 40
0.4
 40
0.4
 40
0.4
 40
0.6
 40
0.6
 40
0.6
 40
0.6
 40
1.0
 40
1.0
 40
1.0
 40
1.0
 10
-116.959
 20
64.3193
 30
0.0
 10
-113.7399
 20
65.8526
 30
0.0
 10
-112.3794
 20
68.654
 30
0.0
 10
-112.3768
 20
71.4216
 30
0.0
 10
-112.3768
 20
71.4216
 30
0.0
 10
-112.3796
 20
74.1891
 30
0.0
 10
-113.7399
 20
76.9905
 30
0.0
 10
-116.959
 20
78.5238
 30
0.0
 10
-116.959
 20
78.5238
 30
0.0
 10
-117.7991
 20
75.0548
 30
0.0
 10
-120.815
 20
71.8899
 30
0.0
 10
-123.086
 20
71.4216
 30
0.0
 10
-123.086
 20
71.4216
 30
0.0
 10
-120.8152
 20
70.953
 30
0.0
 10
-117.7993
 20
67.7883
 30
0.0
 10
-116.959
 20
64.3193
 30
0.0
  0
SPLINE
  5
85
330
1F
100
AcDbEntity
  8
layer 1
 62
     7
100
AcDbSpline
210
0.0
220
0.0
230
1.0
 70
    11
 71
     3
 72
    20
 73
    16
 74
     0
 42
0.0000000001
 43
0.0000000001
 12
1.0
 22
0.0
 32
0.0
 13
1.0
 23
0.0
 33
0.0
 40
0.0
 40
0.0
 40
0.0
 40
0.0
 40
0.2
 40
0.2
 40
0.2
 40
0.2
 40
0.4
 40
0.4
 40
0.4
 40
0.4
 40
0.6
 40
0.6
 40
0.6
 40
0.6
 40
1.0
 40
1.0
 40
1.0
 40
1.0
 10
-132.1674
 20
79.1959
 30
0.0
 10
-130.5551
 20
75.911
 30
0.0
 10
-128.2012
 20
74.1241
 30
0.0
 10
-125.6692
 20
74.1562
 30
0.0
 10
-125.6692
 20
74.1562
 30
0.0
 10
-123.1372
 20
74.1241
 30
0.0
 10
-120.7833
 20
75.911
 30
0.0
 10
-119.171
 20
79.1959
 30
0.0
 10
-119.171
 20
79.1959
 30
0.0
 10
-121.7502
 20
80.0501
 30
0.0
 10
-124.8679
 20
82.9275
 30
0.0
 10
-125.6692
 20
85.5108
 30
0.0
 10
-125.6692
 20
85.5108
 30
0.0
 10
-126.4705
 20
82.9275
 30
0.0
 10
-129.5883
 20
80.0501
 30
0.0
 10
-132.1674
 20
79.1959
 30
0.0
  0
SPLINE
  5
86
330
1F
100
AcDbEntity
  8
layer 1
 62
     7
100
AcDbSpline
210
0.0
220
0.0
230
1.0
 70
    11
 71
     3
 72
    20
 73
    16
 74
     0
 42
0.0000000001
 43
0.0000000001
 12
1.0
 22
0.0
 32
0.0
 13
1.0
 23
0.0
 33
0.0
 40
0.0
 40
0.0
 40
0.0
 40
0.0
 40
0.2
 40
0.2
 40
0.2
 40
0.2
 40
0.4
 40
0.4
 40
0.4
 40
0.4
 40
0.6
 40
0.6
 40
0.6
 40
0.6
 40
1.0
 40
1.0
 40
1.0
 40
1.0
 10
-103.0246
 20
78.5238
 30
0.0
 10
-106.2438
 20
76.9905
 30
0.0
 10
-107.6043
 20
74.1891
 30
0.0
 10
-107.6069
 20
71.4216
 30
0.0
 10
-107.6069
 20
71.4216
 30
0.0
 10
-107.6043
 20
68.654
 30
0.0
 10
-106.2438
 20
65.8526
 30
0.0
 10
-103.0246
 20
64.3193
 30
0.0
 10
-103.0246
 20
64.3193
 30
0.0
 10
-102.1846
 20
67.7883
 30
0.0
 10
-99.1687
 20
70.9532
 30
0.0
 10
-96.8977
 20
71.4216
 30
0.0
 10
-96.8977
 20
71.4216
 30
0.0
 10
-99.1685
 20
71.8901
 30
0.0
 10
-102.1844
 20
75.0548
 30
0.0
 10
-103.0246
 20
78.5238
 30
0.0
  0
SPLINE
  5
87
330
1F
100
AcDbEntity
  8
layer 1
 62
     7
100
AcDbSpline
210
0.0
220
0.0
230
1.0
 70
    11
 71
     3
 72
    20
 73
    16
 74
     0
 42
0.0000000001
 43
0.0000000001
 12
1.0
 22
0.0
 32
0.0
 13
1.0
 23
0.0
 33
0.0
 40
0.0
 40
0.0
 40
0.0
 40
0.0
 40
0.2
 40
0.2
 40
0.2
 40
0.2
 40
0.4
 40
0.4
 40
0.4
 40
0.4
 40
0.6
 40
0.6
 40
0.6
 40
0.6
 40
1.0
 40
1.0
 40
1.0
 40
1.0
 10
-87.8165
 20
63.6473
 30
0.0
 10
-89.4288
 20
66.9321
 30
0.0
 10
-91.7827
 20
68.719
 30
0.0
 10
-94.3147
 20
68.6869
 30
0.0
 10
-94.3147
 20
68.6869
 30
0.0
 10
-96.8467
 20
68.719
 30
0.0
 10
-99.2006
 20
66.9321
 30
0.0
 10
-100.8129
 20
63.6473
 30
0.0
 10
-100.8129
 20
63.6473
 30
0.0
 10
-98.2337
 20
62.793
 30
0.0
 10
-95.116
 20
59.9156
 30
0.0
 10
-94.3147
 20
57.3323
 30
0.0
 10
-94.3147
 20
57.3323
 30
0.0
 10
-93.5134
 20
59.9156
 30
0.0
 10
-90.3957
 20
62.793
 30
0.0
 10
-87.8165
 20
63.6473
 30
0.0
  0
SPLINE
  5
88
330
1F
100
AcDbEntity
  8
layer 1
 62
     7
100
AcDbSpline
210
0.0
220
0.0
230
1.0
 70
    11
 71
     3
 72
    20
 73
    16
 74
     0
 42
0.0000000001
 43
0.0000000001
 12
1.0
 22
0.0
 32
0.0
 13
1.0
 23
0.0
 33
0.0
 40
0.0
 40
0.0
 40
0.0
 40
0.0
 40
0.2
 40
0.2
 40
0.2
 40
0.2
 40
0.4
 40
0.4
 40
0.4
 40
0.4
 40
0.6
 40
0.6
 40
0.6
 40
0.6
 40
1.0
 40
1.0
 40
1.0
 40
1.0
 10
-103.0246
 20
78.5238
 30
0.0
 10
-106.2438
 20
76.9905
 30
0.0
 10
-107.6043
 20
74.1891
 30
0.0
 10
-107.6069
 20
71.4216
 30
0.0
 10
-107.6069
 20
71.4216
 30
0.0
 10
-107.6043
 20
68.654
 30
0.0
 10
-106.2438
 20
65.8526
 30
0.0
 10
-103.0246
 20
64.3193
 30
0.0
 10
-103.0246
 20
64.3193
 30
0.0
 10
-102.1846
 20
67.7883
 30
0.0
 10
-99.1687
 20
70.9532
 30
0.0
 10
-96.8977
 20
71.4216
 30
0.0
 10
-96.8977
 20
71.4216
 30
0.0
 10
-99.1685
 20
71.8901
 30
0.0
 10
-102.1844
 20
75.0548
 30
0.0
 10
-103.0246
 20
78.5238
 30
0.0
  0
SPLINE
  5
89
330
1F
100
AcDbEntity
  8
layer 1
 62
     7
100
AcDbSpline
210
0.0
220
0.0
230
1.0
 70
    11
 71
     3
 72
    20
 73
    16
 74
     0
 42
0.0000000001
 43
0.0000000001
 12
1.0
 22
0.0
 32
0.0
 13
1.0
 23
0.0
 33
0.0
 40
0.0
 40
0.0
 40
0.0
 40
0.0
 40
0.2
 40
0.2
 40
0.2
 40
0.2
 40
0.4
 40
0.4
 40
0.4
 40
0.4
 40
0.6
 40
0.6
 40
0.6
 40
0.6
 40
1.0
 40
1.0
 40
1.0
 40
1.0
 10
-87.8165
 20
63.6473
 30
0.0
 10
-89.4288
 20
66.9321
 30
0.0
 10
-91.7827
 20
68.719
 30
0.0
 10
-94.3147
 20
68.6869
 30
0.0
 10
-94.3147
 20
68.6869
 30
0.0
 10
-96.8467
 20
68.719
 30
0.0
 10
-99.2006
 20
66.9321
 30
0.0
 10
-100.8129
 20
63.6473
 30
0.0
 10
-100.8129
 20
63.6473
 30
0.0
 10
-98.2337
 20
62.793
 30
0.0
 10
-95.116
 20
59.9156
 30
0.0
 10
-94.3147
 20
57.3323
 30
0.0
 10
-94.3147
 20
57.3323
 30
0.0
 10
-93.5134
 20
59.9156
 30
0.0
 10
-90.3957
 20
62.793
 30
0.0
 10
-87.8165
 20
63.6473
 30
0.0
  0
SPLINE
  5
8A
330
1F
100
AcDbEntity
  8
layer 1
 62
     7
100
AcDbSpline
210
0.0
220
0.0
230
1.0
 70
    11
 71
     3
 72
    20
 73
    16
 74
     0
 42
0.0000000001
 43
0.0000000001
 12
1.0
 22
0.0
 32
0.0
 13
1.0
 23
0.0
 33
0.0
 40
0.0
 40
0.0
 40
0.0
 40
0.0
 40
0.2
 40
0.2
 40
0.2
 40
0.2
 40
0.4
 40
0.4
 40
0.4
 40
0.4
 40
0.6
 40
0.6
 40
0.6
 40
0.6
 40
1.0
 40
1.0
 40
1.0
 40
1.0
 10
-85.5795
 20
64.3193
 30
0.0
 10
-82.3604
 20
65.8526
 30
0.0
 10
-80.9998
 20
68.654
 30
0.0
 10
-80.9972
 20
71.4216
 30
0.0
 10
-80.9972
 20
71.4216
 30
0.0
 10
-81.0
 20
74.1891
 30
0.0
 10
-82.3604
 20
76.9905
 30
0.0
 10
-85.5795
 20
78.5238
 30
0.0
 10
-85.5795
 20
78.5238
 30
0.0
 10
-86.4196
 20
75.0548
 30
0.0
 10
-89.4354
 20
71.8899
 30
0.0
 10
-91.7064
 20
71.4216
 30
0.0
 10
-91.7064
 20
71.4216
 30
0.0
 10
-89.4357
 20
70.953
 30
0.0
 10
-86.4198
 20
67.7883
 30
0.0
 10
-85.5795
 20
64.3193
 30
0.0
  0
SPLINE
  5
8B
330
1F
100
AcDbEntity
  8
layer 1
 62
     7
100
AcDbSpline
210
0.0
220
0.0
230
1.0
 70
    11
 71
     3
 72
    20
 73
    16
 74
     0
 42
0.0000000001
 43
0.0000000001
 12
1.0
 22
0.0
 32
0.0
 13
1.0
 23
0.0
 33
0.0
 40
0.0
 40
0.0
 40
0.0
 40
0.0
 40
0.2
 40
0.2
 40
0.2
 40
0.2
 40
0.4
 40
0.4
 40
0.4
 40
0.4
 40
0.6
 40
0.6
 40
0.6
 40
0.6
 40
1.0
 40
1.0
 40
1.0
 40
1.0
 10
-100.7879
 20
79.1959
 30
0.0
 10
-99.1756
 20
75.911
 30
0.0
 10
-96.8217
 20
74.1241
 30
0.0
 10
-94.2897
 20
74.1562
 30
0.0
 10
-94.2897
 20
74.1562
 30
0.0
 10
-91.7577
 20
74.1241
 30
0.0
 10
-89.4038
 20
75.911
 30
0.0
 10
-87.7915
 20
79.1959
 30
0.0
 10
-87.7915
 20
79.1959
 30
0.0
 10
-90.3707
 20
80.0501
 30
0.0
 10
-93.4884
 20
82.9275
 30
0.0
 10
-94.2897
 20
85.5108
 30
0.0
 10
-94.2897
 20
85.5108
 30
0.0
 10
-95.091
 20
82.9275
 30
0.0
 10
-98.2087
 20
80.0501
 30
0.0
 10
-100.7879
 20
79.1959
 30
0.0
  0
SPLINE
  5
8C
330
1F
100
AcDbEntity
  8
layer 1
 62
     7
100
AcDbSpline
210
0.0
220
0.0
230
1.0
 70
    11
 71
     3
 72
    20
 73
    16
 74
     0
 42
0.0000000001
 43
0.0000000001
 12
1.0
 22
0.0
 32
0.0
 13
1.0
 23
0.0
 33
0.0
 40
0.0
 40
0.0
 40
0.0
 40
0.0
 40
0.2
 40
0.2
 40
0.2
 40
0.2
 40
0.4
 40
0.4
 40
0.4
 40
0.4
 40
0.6
 40
0.6
 40
0.6
 40
0.6
 40
1.0
 40
1.0
 40
1.0
 40
1.0
 10
-165.7837
 20
78.5238
 30
0.0
 10
-169.0029
 20
76.9905
 30
0.0
 10
-170.3634
 20
74.1891
 30
0.0
 10
-170.366
 20
71.4216
 30
0.0
 10
-170.366
 20
71.4216
 30
0.0
 10
-170.3634
 20
68.654
 30
0.0
 10
-169.0029
 20
65.8526
 30
0.0
 10
-165.7837
 20
64.3193
 30
0.0
 10
-165.7837
 20
64.3193
 30
0.0
 10
-164.9437
 20
67.7883
 30
0.0
 10
-161.9278
 20
70.9532
 30
0.0
 10
-159.6568
 20
71.4216
 30
0.0
 10
-159.6568
 20
71.4216
 30
0.0
 10
-161.9276
 20
71.8901
 30
0.0
 10
-164.9434
 20
75.0548
 30
0.0
 10
-165.7837
 20
78.5238
 30
0.0
  0
SPLINE
  5
8D
330
1F
100
AcDbEntity
  8
layer 1
 62
     7
100
AcDbSpline
210
0.0
220
0.0
230
1.0
 70
    11
 71
     3
 72
    20
 73
    16
 74
     0
 42
0.0000000001
 43
0.0000000001
 12
1.0
 22
0.0
 32
0.0
 13
1.0
 23
0.0
 33
0.0
 40
0.0
 40
0.0
 40
0.0
 40
0.0
 40
0.2
 40
0.2
 40
0.2
 40
0.2
 40
0.4
 40
0.4
 40
0.4
 40
0.4
 40
0.6
 40
0.6
 40
0.6
 40
0.6
 40
1.0
 40
1.0
 40
1.0
 40
1.0
 10
-150.5756
 20
63.6473
 30
0.0
 10
-152.1878
 20
66.9321
 30
0.0
 10
-154.5417
 20
68.719
 30
0.0
 10
-157.0737
 20
68.6869
 30
0.0
 10
-157.0737
 20
68.6869
 30
0.0
 10
-159.6057
 20
68.719
 30
0.0
 10
-161.9597
 20
66.9321
 30
0.0
 10
-163.5719
 20
63.6473
 30
0.0
 10
-163.5719
 20
63.6473
 30
0.0
 10
-160.9928
 20
62.793
 30
0.0
 10
-157.875
 20
59.9156
 30
0.0
 10
-157.0737
 20
57.3323
 30
0.0
 10
-157.0737
 20
57.3323
 30
0.0
 10
-156.2725
 20
59.9156
 30
0.0
 10
-153.1547
 20
62.793
 30
0.0
 10
-150.5756
 20
63.6473
 30
0.0
  0
SPLINE
  5
8E
330
1F
100
AcDbEntity
  8
layer 1
 62
     7
100
AcDbSpline
210
0.0
220
0.0
230
1.0
 70
    11
 71
     3
 72
    20
 73
    16
 74
     0
 42
0.0000000001
 43
0.0000000001
 12
1.0
 22
0.0
 32
0.0
 13
1.0
 23
0.0
 33
0.0
 40
0.0
 40
0.0
 40
0.0
 40
0.0
 40
0.2
 40
0.2
 40
0.2
 40
0.2
 40
0.4
 40
0.4
 40
0.4
 40
0.4
 40
0.6
 40
0.6
 40
0.6
 40
0.6
 40
1.0
 40
1.0
 40
1.0
 40
1.0
 10
-165.7837
 20
78.5238
 30
0.0
 10
-169.0029
 20
76.9905
 30
0.0
 10
-170.3634
 20
74.1891
 30
0.0
 10
-170.366
 20
71.4216
 30
0.0
 10
-170.366
 20
71.4216
 30
0.0
 10
-170.3634
 20
68.654
 30
0.0
 10
-169.0029
 20
65.8526
 30
0.0
 10
-165.7837
 20
64.3193
 30
0.0
 10
-165.7837
 20
64.3193
 30
0.0
 10
-164.9437
 20
67.7883
 30
0.0
 10
-161.9278
 20
70.9532
 30
0.0
 10
-159.6568
 20
71.4216
 30
0.0
 10
-159.6568
 20
71.4216
 30
0.0
 10
-161.9276
 20
71.8901
 30
0.0
 10
-164.9434
 20
75.0548
 30
0.0
 10
-165.7837
 20
78.5238
 30
0.0
  0
SPLINE
  5
8F
330
1F
100
AcDbEntity
  8
layer 1
 62
     7
100
AcDbSpline
210
0.0
220
0.0
230
1.0
 70
    11
 71
     3
 72
    20
 73
    16
 74
     0
 42
0.0000000001
 43
0.0000000001
 12
1.0
 22
0.0
 32
0.0
 13
1.0
 23
0.0
 33
0.0
 40
0.0
 40
0.0
 40
0.0
 40
0.0
 40
0.2
 40
0.2
 40
0.2
 40
0.2
 40
0.4
 40
0.4
 40
0.4
 40
0.4
 40
0.6
 40
0.6
 40
0.6
 40
0.6
 40
1.0
 40
1.0
 40
1.0
 40
1.0
 10
-150.5756
 20
63.6473
 30
0.0
 10
-152.1878
 20
66.9321
 30
0.0
 10
-154.5417
 20
68.719
 30
0.0
 10
-157.0737
 20
68.6869
 30
0.0
 10
-157.0737
 20
68.6869
 30
0.0
 10
-159.6057
 20
68.719
 30
0.0
 10
-161.9597
 20
66.9321
 30
0.0
 10
-163.5719
 20
63.6473
 30
0.0
 10
-163.5719
 20
63.6473
 30
0.0
 10
-160.9928
 20
62.793
 30
0.0
 10
-157.875
 20
59.9156
 30
0.0
 10
-157.0737
 20
57.3323
 30
0.0
 10
-157.0737
 20
57.3323
 30
0.0
 10
-156.2725
 20
59.9156
 30
0.0
 10
-153.1547
 20
62.793
 30
0.0
 10
-150.5756
 20
63.6473
 30
0.0
  0
SPLINE
  5
90
330
1F
100
AcDbEntity
  8
layer 1
 62
     7
100
AcDbSpline
210
0.0
220
0.0
230
1.0
 70
    11
 71
     3
 72
    20
 73
    16
 74
     0
 42
0.0000000001
 43
0.0000000001
 12
1.0
 22
0.0
 32
0.0
 13
1.0
 23
0.0
 33
0.0
 40
0.0
 40
0.0
 40
0.0
 40
0.0
 40
0.2
 40
0.2
 40
0.2
 40
0.2
 40
0.4
 40
0.4
 40
0.4
 40
0.4
 40
0.6
 40
0.6
 40
0.6
 40
0.6
 40
1.0
 40
1.0
 40
1.0
 40
1.0
 10
-148.3386
 20
64.3193
 30
0.0
 10
-145.1194
 20
65.8526
 30
0.0
 10
-143.7589
 20
68.654
 30
0.0
 10
-143.7563
 20
71.4216
 30
0.0
 10
-143.7563
 20
71.4216
 30
0.0
 10
-143.7591
 20
74.1891
 30
0.0
 10
-145.1194
 20
76.9905
 30
0.0
 10
-148.3386
 20
78.5238
 30
0.0
 10
-148.3386
 20
78.5238
 30
0.0
 10
-149.1786
 20
75.0548
 30
0.0
 10
-152.1945
 20
71.8899
 30
0.0
 10
-154.4655
 20
71.4216
 30
0.0
 10
-154.4655
 20
71.4216
 30
0.0
 10
-152.1947
 20
70.953
 30
0.0
 10
-149.1788
 20
67.7883
 30
0.0
 10
-148.3386
 20
64.3193
 30
0.0
  0
SPLINE
  5
91
330
1F
100
AcDbEntity
  8
layer 1
 62
     7
100
AcDbSpline
210
0.0
220
0.0
230
1.0
 70
    11
 71
     3
 72
    20
 73
    16
 74
     0
 42
0.0000000001
 43
0.0000000001
 12
1.0
 22
0.0
 32
0.0
 13
1.0
 23
0.0
 33
0.0
 40
0.0
 40
0.0
 40
0.0
 40
0.0
 40
0.2
 40
0.2
 40
0.2
 40
0.2
 40
0.4
 40
0.4
 40
0.4
 40
0.4
 40
0.6
 40
0.6
 40
0.6
 40
0.6
 40
1.0
 40
1.0
 40
1.0
 40
1.0
 10
-163.547
 20
79.1959
 30
0.0
 10
-161.9347
 20
75.911
 30
0.0
 10
-159.5808
 20
74.1241
 30
0.0
 10
-157.0488
 20
74.1562
 30
0.0
 10
-157.0488
 20
74.1562
 30
0.0
 10
-154.5168
 20
74.1241
 30
0.0
 10
-152.1629
 20
75.911
 30
0.0
 10
-150.5506
 20
79.1959
 30
0.0
 10
-150.5506
 20
79.1959
 30
0.0
 10
-153.1297
 20
80.0501
 30
0.0
 10
-156.2475
 20
82.9275
 30
0.0
 10
-157.0488
 20
85.5108
 30
0.0
 10
-157.0488
 20
85.5108
 30
0.0
 10
-157.8501
 20
82.9275
 30
0.0
 10
-160.9678
 20
80.0501
 30
0.0
 10
-163.547
 20
79.1959
 30
0.0
  0
SPLINE
  5
92
330
1F
100
AcDbEntity
  8
layer 1
 62
     7
100
AcDbSpline
210
0.0
220
0.0
230
1.0
 70
    11
 71
     3
 72
    20
 73
    16
 74
     0
 42
0.0000000001
 43
0.0000000001
 12
1.0
 22
0.0
 32
0.0
 13
1.0
 23
0.0
 33
0.0
 40
0.0
 40
0.0
 40
0.0
 40
0.0
 40
0.2
 40
0.2
 40
0.2
 40
0.2
 40
0.4
 40
0.4
 40
0.4
 40
0.4
 40
0.6
 40
0.6
 40
0.6
 40
0.6
 40
1.0
 40
1.0
 40
1.0
 40
1.0
 10
-149.6666
 20
24.6827
 30
0.0
 10
-152.8858
 20
23.1495
 30
0.0
 10
-154.2463
 20
20.3481
 30
0.0
 10
-154.2489
 20
17.5805
 30
0.0
 10
-154.2489
 20
17.5805
 30
0.0
 10
-154.2463
 20
14.8129
 30
0.0
 10
-152.8858
 20
12.0115
 30
0.0
 10
-149.6666
 20
10.4783
 30
0.0
 10
-149.6666
 20
10.4783
 30
0.0
 10
-148.8265
 20
13.9472
 30
0.0
 10
-145.8107
 20
17.1121
 30
0.0
 10
-143.5397
 20
17.5805
 30
0.0
 10
-143.5397
 20
17.5805
 30
0.0
 10
-145.8105
 20
18.0491
 30
0.0
 10
-148.8263
 20
21.2137
 30
0.0
 10
-149.6666
 20
24.6827
 30
0.0
  0
SPLINE
  5
93
330
1F
100
AcDbEntity
  8
layer 1
 62
     7
100
AcDbSpline
210
0.0
220
0.0
230
1.0
 70
    11
 71
     3
 72
    20
 73
    16
 74
     0
 42
0.0000000001
 43
0.0000000001
 12
1.0
 22
0.0
 32
0.0
 13
1.0
 23
0.0
 33
0.0
 40
0.0
 40
0.0
 40
0.0
 40
0.0
 40
0.2
 40
0.2
 40
0.2
 40
0.2
 40
0.4
 40
0.4
 40
0.4
 40
0.4
 40
0.6
 40
0.6
 40
0.6
 40
0.6
 40
1.0
 40
1.0
 40
1.0
 40
1.0
 10
-134.4584
 20
9.8062
 30
0.0
 10
-136.0707
 20
13.091
 30
0.0
 10
-138.4246
 20
14.8779
 30
0.0
 10
-140.9566
 20
14.8458
 30
0.0
 10
-140.9566
 20
14.8458
 30
0.0
 10
-143.4886
 20
14.8779
 30
0.0
 10
-145.8425
 20
13.091
 30
0.0
 10
-147.4548
 20
9.8062
 30
0.0
 10
-147.4548
 20
9.8062
 30
0.0
 10
-144.8757
 20
8.9519
 30
0.0
 10
-141.7579
 20
6.0745
 30
0.0
 10
-140.9566
 20
3.4912
 30
0.0
 10
-140.9566
 20
3.4912
 30
0.0
 10
-140.1553
 20
6.0745
 30
0.0
 10
-137.0376
 20
8.9519
 30
0.0
 10
-134.4584
 20
9.8062
 30
0.0
  0
SPLINE
  5
94
330
1F
100
AcDbEntity
  8
layer 1
 62
     7
100
AcDbSpline
210
0.0
220
0.0
230
1.0
 70
    11
 71
     3
 72
    20
 73
    16
 74
     0
 42
0.0000000001
 43
0.0000000001
 12
1.0
 22
0.0
 32
0.0
 13
1.0
 23
0.0
 33
0.0
 40
0.0
 40
0.0
 40
0.0
 40
0.0
 40
0.2
 40
0.2
 40
0.2
 40
0.2
 40
0.4
 40
0.4
 40
0.4
 40
0.4
 40
0.6
 40
0.6
 40
0.6
 40
0.6
 40
1.0
 40
1.0
 40
1.0
 40
1.0
 10
-149.6666
 20
24.6827
 30
0.0
 10
-152.8858
 20
23.1495
 30
0.0
 10
-154.2463
 20
20.3481
 30
0.0
 10
-154.2489
 20
17.5805
 30
0.0
 10
-154.2489
 20
17.5805
 30
0.0
 10
-154.2463
 20
14.8129
 30
0.0
 10
-152.8858
 20
12.0115
 30
0.0
 10
-149.6666
 20
10.4783
 30
0.0
 10
-149.6666
 20
10.4783
 30
0.0
 10
-148.8265
 20
13.9472
 30
0.0
 10
-145.8107
 20
17.1121
 30
0.0
 10
-143.5397
 20
17.5805
 30
0.0
 10
-143.5397
 20
17.5805
 30
0.0
 10
-145.8105
 20
18.0491
 30
0.0
 10
-148.8263
 20
21.2137
 30
0.0
 10
-149.6666
 20
24.6827
 30
0.0
  0
SPLINE
  5
95
330
1F
100
AcDbEntity
  8
layer 1
 62
     7
100
AcDbSpline
210
0.0
220
0.0
230
1.0
 70
    11
 71
     3
 72
    20
 73
    16
 74
     0
 42
0.0000000001
 43
0.0000000001
 12
1.0
 22
0.0
 32
0.0
 13
1.0
 23
0.0
 33
0.0
 40
0.0
 40
0.0
 40
0.0
 40
0.0
 40
0.2
 40
0.2
 40
0.2
 40
0.2
 40
0.4
 40
0.4
 40
0.4
 40
0.4
 40
0.6
 40
0.6
 40
0.6
 40
0.6
 40
1.0
 40
1.0
 40
1.0
 40
1.0
 10
-134.4584
 20
9.8062
 30
0.0
 10
-136.0707
 20
13.091
 30
0.0
 10
-138.4246
 20
14.8779
 30
0.0
 10
-140.9566
 20
14.8458
 30
0.0
 10
-140.9566
 20
14.8458
 30
0.0
 10
-143.4886
 20
14.8779
 30
0.0
 10
-145.8425
 20
13.091
 30
0.0
 10
-147.4548
 20
9.8062
 30
0.0
 10
-147.4548
 20
9.8062
 30
0.0
 10
-144.8757
 20
8.9519
 30
0.0
 10
-141.7579
 20
6.0745
 30
0.0
 10
-140.9566
 20
3.4912
 30
0.0
 10
-140.9566
 20
3.4912
 30
0.0
 10
-140.1553
 20
6.0745
 30
0.0
 10
-137.0376
 20
8.9519
 30
0.0
 10
-134.4584
 20
9.8062
 30
0.0
  0
SPLINE
  5
96
330
1F
100
AcDbEntity
  8
layer 1
 62
     7
100
AcDbSpline
210
0.0
220
0.0
230
1.0
 70
    11
 71
     3
 72
    20
 73
    16
 74
     0
 42
0.0000000001
 43
0.0000000001
 12
1.0
 22
0.0
 32
0.0
 13
1.0
 23
0.0
 33
0.0
 40
0.0
 40
0.0
 40
0.0
 40
0.0
 40
0.2
 40
0.2
 40
0.2
 40
0.2
 40
0.4
 40
0.4
 40
0.4
 40
0.4
 40
0.6
 40
0.6
 40
0.6
 40
0.6
 40
1.0
 40
1.0
 40
1.0
 40
1.0
 10
-132.2215
 20
10.4783
 30
0.0
 10
-129.0023
 20
12.0115
 30
0.0
 10
-127.6418
 20
14.8129
 30
0.0
 10
-127.6392
 20
17.5805
 30
0.0
 10
-127.6392
 20
17.5805
 30
0.0
 10
-127.642
 20
20.3481
 30
0.0
 10
-129.0023
 20
23.1495
 30
0.0
 10
-132.2215
 20
24.6827
 30
0.0
 10
-132.2215
 20
24.6827
 30
0.0
 10
-133.0615
 20
21.2137
 30
0.0
 10
-136.0774
 20
18.0488
 30
0.0
 10
-138.3484
 20
17.5805
 30
0.0
 10
-138.3484
 20
17.5805
 30
0.0
 10
-136.0776
 20
17.1119
 30
0.0
 10
-133.0617
 20
13.9472
 30
0.0
 10
-132.2215
 20
10.4783
 30
0.0
  0
SPLINE
  5
97
330
1F
100
AcDbEntity
  8
layer 1
 62
     7
100
AcDbSpline
210
0.0
220
0.0
230
1.0
 70
    11
 71
     3
 72
    20
 73
    16
 74
     0
 42
0.0000000001
 43
0.0000000001
 12
1.0
 22
0.0
 32
0.0
 13
1.0
 23
0.0
 33
0.0
 40
0.0
 40
0.0
 40
0.0
 40
0.0
 40
0.2
 40
0.2
 40
0.2
 40
0.2
 40
0.4
 40
0.4
 40
0.4
 40
0.4
 40
0.6
 40
0.6
 40
0.6
 40
0.6
 40
1.0
 40
1.0
 40
1.0
 40
1.0
 10
-147.4298
 20
25.3548
 30
0.0
 10
-145.8176
 20
22.0699
 30
0.0
 10
-143.4637
 20
20.283
 30
0.0
 10
-140.9317
 20
20.3151
 30
0.0
 10
-140.9317
 20
20.3151
 30
0.0
 10
-138.3997
 20
20.283
 30
0.0
 10
-136.0457
 20
22.0699
 30
0.0
 10
-134.4335
 20
25.3548
 30
0.0
 10
-134.4335
 20
25.3548
 30
0.0
 10
-137.0126
 20
26.209
 30
0.0
 10
-140.1304
 20
29.0865
 30
0.0
 10
-140.9317
 20
31.6697
 30
0.0
 10
-140.9317
 20
31.6697
 30
0.0
 10
-141.7329
 20
29.0865
 30
0.0
 10
-144.8507
 20
26.209
 30
0.0
 10
-147.4298
 20
25.3548
 30
0.0
  0
SPLINE
  5
98
330
1F
100
AcDbEntity
  8
layer 1
 62
     7
100
AcDbSpline
210
0.0
220
0.0
230
1.0
 70
    11
 71
     3
 72
    20
 73
    16
 74
     0
 42
0.0000000001
 43
0.0000000001
 12
1.0
 22
0.0
 32
0.0
 13
1.0
 23
0.0
 33
0.0
 40
0.0
 40
0.0
 40
0.0
 40
0.0
 40
0.2
 40
0.2
 40
0.2
 40
0.2
 40
0.4
 40
0.4
 40
0.4
 40
0.4
 40
0.6
 40
0.6
 40
0.6
 40
0.6
 40
1.0
 40
1.0
 40
1.0
 40
1.0
 10
-118.2871
 20
24.6827
 30
0.0
 10
-121.5062
 20
23.1495
 30
0.0
 10
-122.8668
 20
20.3481
 30
0.0
 10
-122.8693
 20
17.5805
 30
0.0
 10
-122.8693
 20
17.5805
 30
0.0
 10
-122.8668
 20
14.8129
 30
0.0
 10
-121.5062
 20
12.0115
 30
0.0
 10
-118.2871
 20
10.4783
 30
0.0
 10
-118.2871
 20
10.4783
 30
0.0
 10
-117.447
 20
13.9472
 30
0.0
 10
-114.4311
 20
17.1121
 30
0.0
 10
-112.1601
 20
17.5805
 30
0.0
 10
-112.1601
 20
17.5805
 30
0.0
 10
-114.4309
 20
18.0491
 30
0.0
 10
-117.4468
 20
21.2137
 30
0.0
 10
-118.2871
 20
24.6827
 30
0.0
  0
SPLINE
  5
99
330
1F
100
AcDbEntity
  8
layer 1
 62
     7
100
AcDbSpline
210
0.0
220
0.0
230
1.0
 70
    11
 71
     3
 72
    20
 73
    16
 74
     0
 42
0.0000000001
 43
0.0000000001
 12
1.0
 22
0.0
 32
0.0
 13
1.0
 23
0.0
 33
0.0
 40
0.0
 40
0.0
 40
0.0
 40
0.0
 40
0.2
 40
0.2
 40
0.2
 40
0.2
 40
0.4
 40
0.4
 40
0.4
 40
0.4
 40
0.6
 40
0.6
 40
0.6
 40
0.6
 40
1.0
 40
1.0
 40
1.0
 40
1.0
 10
-103.0789
 20
9.8062
 30
0.0
 10
-104.6912
 20
13.091
 30
0.0
 10
-107.0451
 20
14.8779
 30
0.0
 10
-109.5771
 20
14.8458
 30
0.0
 10
-109.5771
 20
14.8458
 30
0.0
 10
-112.1091
 20
14.8779
 30
0.0
 10
-114.463
 20
13.091
 30
0.0
 10
-116.0753
 20
9.8062
 30
0.0
 10
-116.0753
 20
9.8062
 30
0.0
 10
-113.4961
 20
8.9519
 30
0.0
 10
-110.3784
 20
6.0745
 30
0.0
 10
-109.5771
 20
3.4912
 30
0.0
 10
-109.5771
 20
3.4912
 30
0.0
 10
-108.7758
 20
6.0745
 30
0.0
 10
-105.6581
 20
8.9519
 30
0.0
 10
-103.0789
 20
9.8062
 30
0.0
  0
SPLINE
  5
9A
330
1F
100
AcDbEntity
  8
layer 1
 62
     7
100
AcDbSpline
210
0.0
220
0.0
230
1.0
 70
    11
 71
     3
 72
    20
 73
    16
 74
     0
 42
0.0000000001
 43
0.0000000001
 12
1.0
 22
0.0
 32
0.0
 13
1.0
 23
0.0
 33
0.0
 40
0.0
 40
0.0
 40
0.0
 40
0.0
 40
0.2
 40
0.2
 40
0.2
 40
0.2
 40
0.4
 40
0.4
 40
0.4
 40
0.4
 40
0.6
 40
0.6
 40
0.6
 40
0.6
 40
1.0
 40
1.0
 40
1.0
 40
1.0
 10
-118.2871
 20
24.6827
 30
0.0
 10
-121.5062
 20
23.1495
 30
0.0
 10
-122.8668
 20
20.3481
 30
0.0
 10
-122.8693
 20
17.5805
 30
0.0
 10
-122.8693
 20
17.5805
 30
0.0
 10
-122.8668
 20
14.8129
 30
0.0
 10
-121.5062
 20
12.0115
 30
0.0
 10
-118.2871
 20
10.4783
 30
0.0
 10
-118.2871
 20
10.4783
 30
0.0
 10
-117.447
 20
13.9472
 30
0.0
 10
-114.4311
 20
17.1121
 30
0.0
 10
-112.1601
 20
17.5805
 30
0.0
 10
-112.1601
 20
17.5805
 30
0.0
 10
-114.4309
 20
18.0491
 30
0.0
 10
-117.4468
 20
21.2137
 30
0.0
 10
-118.2871
 20
24.6827
 30
0.0
  0
SPLINE
  5
9B
330
1F
100
AcDbEntity
  8
layer 1
 62
     7
100
AcDbSpline
210
0.0
220
0.0
230
1.0
 70
    11
 71
     3
 72
    20
 73
    16
 74
     0
 42
0.0000000001
 43
0.0000000001
 12
1.0
 22
0.0
 32
0.0
 13
1.0
 23
0.0
 33
0.0
 40
0.0
 40
0.0
 40
0.0
 40
0.0
 40
0.2
 40
0.2
 40
0.2
 40
0.2
 40
0.4
 40
0.4
 40
0.4
 40
0.4
 40
0.6
 40
0.6
 40
0.6
 40
0.6
 40
1.0
 40
1.0
 40
1.0
 40
1.0
 10
-103.0789
 20
9.8062
 30
0.0
 10
-104.6912
 20
13.091
 30
0.0
 10
-107.0451
 20
14.8779
 30
0.0
 10
-109.5771
 20
14.8458
 30
0.0
 10
-109.5771
 20
14.8458
 30
0.0
 10
-112.1091
 20
14.8779
 30
0.0
 10
-114.463
 20
13.091
 30
0.0
 10
-116.0753
 20
9.8062
 30
0.0
 10
-116.0753
 20
9.8062
 30
0.0
 10
-113.4961
 20
8.9519
 30
0.0
 10
-110.3784
 20
6.0745
 30
0.0
 10
-109.5771
 20
3.4912
 30
0.0
 10
-109.5771
 20
3.4912
 30
0.0
 10
-108.7758
 20
6.0745
 30
0.0
 10
-105.6581
 20
8.9519
 30
0.0
 10
-103.0789
 20
9.8062
 30
0.0
  0
SPLINE
  5
9C
330
1F
100
AcDbEntity
  8
layer 1
 62
     7
100
AcDbSpline
210
0.0
220
0.0
230
1.0
 70
    11
 71
     3
 72
    20
 73
    16
 74
     0
 42
0.0000000001
 43
0.0000000001
 12
1.0
 22
0.0
 32
0.0
 13
1.0
 23
0.0
 33
0.0
 40
0.0
 40
0.0
 40
0.0
 40
0.0
 40
0.2
 40
0.2
 40
0.2
 40
0.2
 40
0.4
 40
0.4
 40
0.4
 40
0.4
 40
0.6
 40
0.6
 40
0.6
 40
0.6
 40
1.0
 40
1.0
 40
1.0
 40
1.0
 10
-100.8419
 20
10.4783
 30
0.0
 10
-97.6228
 20
12.0115
 30
0.0
 10
-96.2622
 20
14.8129
 30
0.0
 10
-96.2597
 20
17.5805
 30
0.0
 10
-96.2597
 20
17.5805
 30
0.0
 10
-96.2625
 20
20.3481
 30
0.0
 10
-97.6228
 20
23.1495
 30
0.0
 10
-100.8419
 20
24.6827
 30
0.0
 10
-100.8419
 20
24.6827
 30
0.0
 10
-101.682
 20
21.2137
 30
0.0
 10
-104.6979
 20
18.0488
 30
0.0
 10
-106.9689
 20
17.5805
 30
0.0
 10
-106.9689
 20
17.5805
 30
0.0
 10
-104.6981
 20
17.1119
 30
0.0
 10
-101.6822
 20
13.9472
 30
0.0
 10
-100.8419
 20
10.4783
 30
0.0
  0
SPLINE
  5
9D
330
1F
100
AcDbEntity
  8
layer 1
 62
     7
100
AcDbSpline
210
0.0
220
0.0
230
1.0
 70
    11
 71
     3
 72
    20
 73
    16
 74
     0
 42
0.0000000001
 43
0.0000000001
 12
1.0
 22
0.0
 32
0.0
 13
1.0
 23
0.0
 33
0.0
 40
0.0
 40
0.0
 40
0.0
 40
0.0
 40
0.2
 40
0.2
 40
0.2
 40
0.2
 40
0.4
 40
0.4
 40
0.4
 40
0.4
 40
0.6
 40
0.6
 40
0.6
 40
0.6
 40
1.0
 40
1.0
 40
1.0
 40
1.0
 10
-116.0503
 20
25.3548
 30
0.0
 10
-114.438
 20
22.0699
 30
0.0
 10
-112.0841
 20
20.283
 30
0.0
 10
-109.5521
 20
20.3151
 30
0.0
 10
-109.5521
 20
20.3151
 30
0.0
 10
-107.0201
 20
20.283
 30
0.0
 10
-104.6662
 20
22.0699
 30
0.0
 10
-103.0539
 20
25.3548
 30
0.0
 10
-103.0539
 20
25.3548
 30
0.0
 10
-105.6331
 20
26.209
 30
0.0
 10
-108.7508
 20
29.0865
 30
0.0
 10
-109.5521
 20
31.6697
 30
0.0
 10
-109.5521
 20
31.6697
 30
0.0
 10
-110.3534
 20
29.0865
 30
0.0
 10
-113.4711
 20
26.209
 30
0.0
 10
-116.0503
 20
25.3548
 30
0.0
  0
SPLINE
  5
9E
330
1F
100
AcDbEntity
  8
layer 1
 62
     7
100
AcDbSpline
210
0.0
220
0.0
230
1.0
 70
    11
 71
     3
 72
    20
 73
    16
 74
     0
 42
0.0000000001
 43
0.0000000001
 12
1.0
 22
0.0
 32
0.0
 13
1.0
 23
0.0
 33
0.0
 40
0.0
 40
0.0
 40
0.0
 40
0.0
 40
0.2
 40
0.2
 40
0.2
 40
0.2
 40
0.4
 40
0.4
 40
0.4
 40
0.4
 40
0.6
 40
0.6
 40
0.6
 40
0.6
 40
1.0
 40
1.0
 40
1.0
 40
1.0
 10
-87.1517
 20
24.6827
 30
0.0
 10
-90.3709
 20
23.1495
 30
0.0
 10
-91.7314
 20
20.3481
 30
0.0
 10
-91.734
 20
17.5805
 30
0.0
 10
-91.734
 20
17.5805
 30
0.0
 10
-91.7314
 20
14.8129
 30
0.0
 10
-90.3709
 20
12.0115
 30
0.0
 10
-87.1517
 20
10.4783
 30
0.0
 10
-87.1517
 20
10.4783
 30
0.0
 10
-86.3117
 20
13.9472
 30
0.0
 10
-83.2958
 20
17.1121
 30
0.0
 10
-81.0248
 20
17.5805
 30
0.0
 10
-81.0248
 20
17.5805
 30
0.0
 10
-83.2956
 20
18.0491
 30
0.0
 10
-86.3115
 20
21.2137
 30
0.0
 10
-87.1517
 20
24.6827
 30
0.0
  0
SPLINE
  5
9F
330
1F
100
AcDbEntity
  8
layer 1
 62
     7
100
AcDbSpline
210
0.0
220
0.0
230
1.0
 70
    11
 71
     3
 72
    20
 73
    16
 74
     0
 42
0.0000000001
 43
0.0000000001
 12
1.0
 22
0.0
 32
0.0
 13
1.0
 23
0.0
 33
0.0
 40
0.0
 40
0.0
 40
0.0
 40
0.0
 40
0.2
 40
0.2
 40
0.2
 40
0.2
 40
0.4
 40
0.4
 40
0.4
 40
0.4
 40
0.6
 40
0.6
 40
0.6
 40
0.6
 40
1.0
 40
1.0
 40
1.0
 40
1.0
 10
-71.9436
 20
9.8062
 30
0.0
 10
-73.5558
 20
13.091
 30
0.0
 10
-75.9098
 20
14.8779
 30
0.0
 10
-78.4418
 20
14.8458
 30
0.0
 10
-78.4418
 20
14.8458
 30
0.0
 10
-80.9738
 20
14.8779
 30
0.0
 10
-83.3277
 20
13.091
 30
0.0
 10
-84.9399
 20
9.8062
 30
0.0
 10
-84.9399
 20
9.8062
 30
0.0
 10
-82.3608
 20
8.9519
 30
0.0
 10
-79.2431
 20
6.0745
 30
0.0
 10
-78.4418
 20
3.4912
 30
0.0
 10
-78.4418
 20
3.4912
 30
0.0
 10
-77.6405
 20
6.0745
 30
0.0
 10
-74.5227
 20
8.9519
 30
0.0
 10
-71.9436
 20
9.8062
 30
0.0
  0
SPLINE
  5
A0
330
1F
100
AcDbEntity
  8
layer 1
 62
     7
100
AcDbSpline
210
0.0
220
0.0
230
1.0
 70
    11
 71
     3
 72
    20
 73
    16
 74
     0
 42
0.0000000001
 43
0.0000000001
 12
1.0
 22
0.0
 32
0.0
 13
1.0
 23
0.0
 33
0.0
 40
0.0
 40
0.0
 40
0.0
 40
0.0
 40
0.2
 40
0.2
 40
0.2
 40
0.2
 40
0.4
 40
0.4
 40
0.4
 40
0.4
 40
0.6
 40
0.6
 40
0.6
 40
0.6
 40
1.0
 40
1.0
 40
1.0
 40
1.0
 10
-87.1517
 20
24.6827
 30
0.0
 10
-90.3709
 20
23.1495
 30
0.0
 10
-91.7314
 20
20.3481
 30
0.0
 10
-91.734
 20
17.5805
 30
0.0
 10
-91.734
 20
17.5805
 30
0.0
 10
-91.7314
 20
14.8129
 30
0.0
 10
-90.3709
 20
12.0115
 30
0.0
 10
-87.1517
 20
10.4783
 30
0.0
 10
-87.1517
 20
10.4783
 30
0.0
 10
-86.3117
 20
13.9472
 30
0.0
 10
-83.2958
 20
17.1121
 30
0.0
 10
-81.0248
 20
17.5805
 30
0.0
 10
-81.0248
 20
17.5805
 30
0.0
 10
-83.2956
 20
18.0491
 30
0.0
 10
-86.3115
 20
21.2137
 30
0.0
 10
-87.1517
 20
24.6827
 30
0.0
  0
SPLINE
  5
A1
330
1F
100
AcDbEntity
  8
layer 1
 62
     7
100
AcDbSpline
210
0.0
220
0.0
230
1.0
 70
    11
 71
     3
 72
    20
 73
    16
 74
     0
 42
0.0000000001
 43
0.0000000001
 12
1.0
 22
0.0
 32
0.0
 13
1.0
 23
0.0
 33
0.0
 40
0.0
 40
0.0
 40
0.0
 40
0.0
 40
0.2
 40
0.2
 40
0.2
 40
0.2
 40
0.4
 40
0.4
 40
0.4
 40
0.4
 40
0.6
 40
0.6
 40
0.6
 40
0.6
 40
1.0
 40
1.0
 40
1.0
 40
1.0
 10
-71.9436
 20
9.8062
 30
0.0
 10
-73.5558
 20
13.091
 30
0.0
 10
-75.9098
 20
14.8779
 30
0.0
 10
-78.4418
 20
14.8458
 30
0.0
 10
-78.4418
 20
14.8458
 30
0.0
 10
-80.9738
 20
14.8779
 30
0.0
 10
-83.3277
 20
13.091
 30
0.0
 10
-84.9399
 20
9.8062
 30
0.0
 10
-84.9399
 20
9.8062
 30
0.0
 10
-82.3608
 20
8.9519
 30
0.0
 10
-79.2431
 20
6.0745
 30
0.0
 10
-78.4418
 20
3.4912
 30
0.0
 10
-78.4418
 20
3.4912
 30
0.0
 10
-77.6405
 20
6.0745
 30
0.0
 10
-74.5227
 20
8.9519
 30
0.0
 10
-71.9436
 20
9.8062
 30
0.0
  0
SPLINE
  5
A2
330
1F
100
AcDbEntity
  8
layer 1
 62
     7
100
AcDbSpline
210
0.0
220
0.0
230
1.0
 70
    11
 71
     3
 72
    20
 73
    16
 74
     0
 42
0.0000000001
 43
0.0000000001
 12
1.0
 22
0.0
 32
0.0
 13
1.0
 23
0.0
 33
0.0
 40
0.0
 40
0.0
 40
0.0
 40
0.0
 40
0.2
 40
0.2
 40
0.2
 40
0.2
 40
0.4
 40
0.4
 40
0.4
 40
0.4
 40
0.6
 40
0.6
 40
0.6
 40
0.6
 40
1.0
 40
1.0
 40
1.0
 40
1.0
 10
-84.915
 20
25.3548
 30
0.0
 10
-83.3027
 20
22.0699
 30
0.0
 10
-80.9488
 20
20.283
 30
0.0
 10
-78.4168
 20
20.3151
 30
0.0
 10
-78.4168
 20
20.3151
 30
0.0
 10
-75.8848
 20
20.283
 30
0.0
 10
-73.5309
 20
22.0699
 30
0.0
 10
-71.9186
 20
25.3548
 30
0.0
 10
-71.9186
 20
25.3548
 30
0.0
 10
-74.4978
 20
26.209
 30
0.0
 10
-77.6155
 20
29.0865
 30
0.0
 10
-78.4168
 20
31.6697
 30
0.0
 10
-78.4168
 20
31.6697
 30
0.0
 10
-79.2181
 20
29.0865
 30
0.0
 10
-82.3358
 20
26.209
 30
0.0
 10
-84.915
 20
25.3548
 30
0.0
  0
SPLINE
  5
A3
330
1F
100
AcDbEntity
  8
layer 1
 62
     7
100
AcDbSpline
210
0.0
220
0.0
230
1.0
 70
    11
 71
     3
 72
    20
 73
    16
 74
     0
 42
0.0000000001
 43
0.0000000001
 12
1.0
 22
0.0
 32
0.0
 13
1.0
 23
0.0
 33
0.0
 40
0.0
 40
0.0
 40
0.0
 40
0.0
 40
0.2
 40
0.2
 40
0.2
 40
0.2
 40
0.4
 40
0.4
 40
0.4
 40
0.4
 40
0.6
 40
0.6
 40
0.6
 40
0.6
 40
1.0
 40
1.0
 40
1.0
 40
1.0
 10
-165.838
 20
9.8062
 30
0.0
 10
-167.4503
 20
13.091
 30
0.0
 10
-169.8042
 20
14.8779
 30
0.0
 10
-172.3362
 20
14.8458
 30
0.0
 10
-172.3362
 20
14.8458
 30
0.0
 10
-174.8682
 20
14.8779
 30
0.0
 10
-177.2221
 20
13.091
 30
0.0
 10
-178.8344
 20
9.8062
 30
0.0
 10
-178.8344
 20
9.8062
 30
0.0
 10
-176.2552
 20
8.9519
 30
0.0
 10
-173.1375
 20
6.0745
 30
0.0
 10
-172.3362
 20
3.4912
 30
0.0
 10
-172.3362
 20
3.4912
 30
0.0
 10
-171.5349
 20
6.0745
 30
0.0
 10
-168.4171
 20
8.9519
 30
0.0
 10
-165.838
 20
9.8062
 30
0.0
  0
SPLINE
  5
A4
330
1F
100
AcDbEntity
  8
layer 1
 62
     7
100
AcDbSpline
210
0.0
220
0.0
230
1.0
 70
    11
 71
     3
 72
    20
 73
    16
 74
     0
 42
0.0000000001
 43
0.0000000001
 12
1.0
 22
0.0
 32
0.0
 13
1.0
 23
0.0
 33
0.0
 40
0.0
 40
0.0
 40
0.0
 40
0.0
 40
0.2
 40
0.2
 40
0.2
 40
0.2
 40
0.4
 40
0.4
 40
0.4
 40
0.4
 40
0.6
 40
0.6
 40
0.6
 40
0.6
 40
1.0
 40
1.0
 40
1.0
 40
1.0
 10
-165.838
 20
9.8062
 30
0.0
 10
-167.4503
 20
13.091
 30
0.0
 10
-169.8042
 20
14.8779
 30
0.0
 10
-172.3362
 20
14.8458
 30
0.0
 10
-172.3362
 20
14.8458
 30
0.0
 10
-174.8682
 20
14.8779
 30
0.0
 10
-177.2221
 20
13.091
 30
0.0
 10
-178.8344
 20
9.8062
 30
0.0
 10
-178.8344
 20
9.8062
 30
0.0
 10
-176.2552
 20
8.9519
 30
0.0
 10
-173.1375
 20
6.0745
 30
0.0
 10
-172.3362
 20
3.4912
 30
0.0
 10
-172.3362
 20
3.4912
 30
0.0
 10
-171.5349
 20
6.0745
 30
0.0
 10
-168.4171
 20
8.9519
 30
0.0
 10
-165.838
 20
9.8062
 30
0.0
  0
SPLINE
  5
A5
330
1F
100
AcDbEntity
  8
layer 1
 62
     7
100
AcDbSpline
210
0.0
220
0.0
230
1.0
 70
    11
 71
     3
 72
    20
 73
    16
 74
     0
 42
0.0000000001
 43
0.0000000001
 12
1.0
 22
0.0
 32
0.0
 13
1.0
 23
0.0
 33
0.0
 40
0.0
 40
0.0
 40
0.0
 40
0.0
 40
0.2
 40
0.2
 40
0.2
 40
0.2
 40
0.4
 40
0.4
 40
0.4
 40
0.4
 40
0.6
 40
0.6
 40
0.6
 40
0.6
 40
1.0
 40
1.0
 40
1.0
 40
1.0
 10
-163.601
 20
10.4783
 30
0.0
 10
-160.3818
 20
12.0115
 30
0.0
 10
-159.0213
 20
14.8129
 30
0.0
 10
-159.0187
 20
17.5805
 30
0.0
 10
-159.0187
 20
17.5805
 30
0.0
 10
-159.0215
 20
20.3481
 30
0.0
 10
-160.3818
 20
23.1495
 30
0.0
 10
-163.601
 20
24.6827
 30
0.0
 10
-163.601
 20
24.6827
 30
0.0
 10
-164.4411
 20
21.2137
 30
0.0
 10
-167.4569
 20
18.0488
 30
0.0
 10
-169.7279
 20
17.5805
 30
0.0
 10
-169.7279
 20
17.5805
 30
0.0
 10
-167.4571
 20
17.1119
 30
0.0
 10
-164.4413
 20
13.9472
 30
0.0
 10
-163.601
 20
10.4783
 30
0.0
  0
SPLINE
  5
A6
330
1F
100
AcDbEntity
  8
layer 1
 62
     7
100
AcDbSpline
210
0.0
220
0.0
230
1.0
 70
    11
 71
     3
 72
    20
 73
    16
 74
     0
 42
0.0000000001
 43
0.0000000001
 12
1.0
 22
0.0
 32
0.0
 13
1.0
 23
0.0
 33
0.0
 40
0.0
 40
0.0
 40
0.0
 40
0.0
 40
0.2
 40
0.2
 40
0.2
 40
0.2
 40
0.4
 40
0.4
 40
0.4
 40
0.4
 40
0.6
 40
0.6
 40
0.6
 40
0.6
 40
1.0
 40
1.0
 40
1.0
 40
1.0
 10
-178.8094
 20
25.3548
 30
0.0
 10
-177.1971
 20
22.0699
 30
0.0
 10
-174.8432
 20
20.283
 30
0.0
 10
-172.3112
 20
20.3151
 30
0.0
 10
-172.3112
 20
20.3151
 30
0.0
 10
-169.7792
 20
20.283
 30
0.0
 10
-167.4253
 20
22.0699
 30
0.0
 10
-165.813
 20
25.3548
 30
0.0
 10
-165.813
 20
25.3548
 30
0.0
 10
-168.3922
 20
26.209
 30
0.0
 10
-171.5099
 20
29.0865
 30
0.0
 10
-172.3112
 20
31.6697
 30
0.0
 10
-172.3112
 20
31.6697
 30
0.0
 10
-173.1125
 20
29.0865
 30
0.0
 10
-176.2302
 20
26.209
 30
0.0
 10
-178.8094
 20
25.3548
 30
0.0
  0
SPLINE
  5
A7
330
1F
100
AcDbEntity
  8
layer 1
 62
     7
100
AcDbSpline
210
0.0
220
0.0
230
1.0
 70
    11
 71
     3
 72
    20
 73
    16
 74
     0
 42
0.0000000001
 43
0.0000000001
 12
1.0
 22
0.0
 32
0.0
 13
1.0
 23
0.0
 33
0.0
 40
0.0
 40
0.0
 40
0.0
 40
0.0
 40
0.2
 40
0.2
 40
0.2
 40
0.2
 40
0.4
 40
0.4
 40
0.4
 40
0.4
 40
0.6
 40
0.6
 40
0.6
 40
0.6
 40
1.0
 40
1.0
 40
1.0
 40
1.0
 10
-134.4042
 20
42.7534
 30
0.0
 10
-137.6233
 20
41.2202
 30
0.0
 10
-138.9839
 20
38.4188
 30
0.0
 10
-138.9865
 20
35.6512
 30
0.0
 10
-138.9865
 20
35.6512
 30
0.0
 10
-138.9839
 20
32.8836
 30
0.0
 10
-137.6233
 20
30.0822
 30
0.0
 10
-134.4042
 20
28.549
 30
0.0
 10
-134.4042
 20
28.549
 30
0.0
 10
-133.5641
 20
32.0179
 30
0.0
 10
-130.5483
 20
35.1828
 30
0.0
 10
-128.2772
 20
35.6512
 30
0.0
 10
-128.2772
 20
35.6512
 30
0.0
 10
-130.548
 20
36.1198
 30
0.0
 10
-133.5639
 20
39.2844
 30
0.0
 10
-134.4042
 20
42.7534
 30
0.0
  0
SPLINE
  5
A8
330
1F
100
AcDbEntity
  8
layer 1
 62
     7
100
AcDbSpline
210
0.0
220
0.0
230
1.0
 70
    11
 71
     3
 72
    20
 73
    16
 74
     0
 42
0.0000000001
 43
0.0000000001
 12
1.0
 22
0.0
 32
0.0
 13
1.0
 23
0.0
 33
0.0
 40
0.0
 40
0.0
 40
0.0
 40
0.0
 40
0.2
 40
0.2
 40
0.2
 40
0.2
 40
0.4
 40
0.4
 40
0.4
 40
0.4
 40
0.6
 40
0.6
 40
0.6
 40
0.6
 40
1.0
 40
1.0
 40
1.0
 40
1.0
 10
-119.196
 20
27.8769
 30
0.0
 10
-120.8083
 20
31.1617
 30
0.0
 10
-123.1622
 20
32.9486
 30
0.0
 10
-125.6942
 20
32.9165
 30
0.0
 10
-125.6942
 20
32.9165
 30
0.0
 10
-128.2262
 20
32.9486
 30
0.0
 10
-130.5801
 20
31.1617
 30
0.0
 10
-132.1924
 20
27.8769
 30
0.0
 10
-132.1924
 20
27.8769
 30
0.0
 10
-129.6132
 20
27.0226
 30
0.0
 10
-126.4955
 20
24.1452
 30
0.0
 10
-125.6942
 20
21.5619
 30
0.0
 10
-125.6942
 20
21.5619
 30
0.0
 10
-124.8929
 20
24.1452
 30
0.0
 10
-121.7752
 20
27.0226
 30
0.0
 10
-119.196
 20
27.8769
 30
0.0
  0
SPLINE
  5
A9
330
1F
100
AcDbEntity
  8
layer 1
 62
     7
100
AcDbSpline
210
0.0
220
0.0
230
1.0
 70
    11
 71
     3
 72
    20
 73
    16
 74
     0
 42
0.0000000001
 43
0.0000000001
 12
1.0
 22
0.0
 32
0.0
 13
1.0
 23
0.0
 33
0.0
 40
0.0
 40
0.0
 40
0.0
 40
0.0
 40
0.2
 40
0.2
 40
0.2
 40
0.2
 40
0.4
 40
0.4
 40
0.4
 40
0.4
 40
0.6
 40
0.6
 40
0.6
 40
0.6
 40
1.0
 40
1.0
 40
1.0
 40
1.0
 10
-134.4042
 20
42.7534
 30
0.0
 10
-137.6233
 20
41.2202
 30
0.0
 10
-138.9839
 20
38.4188
 30
0.0
 10
-138.9865
 20
35.6512
 30
0.0
 10
-138.9865
 20
35.6512
 30
0.0
 10
-138.9839
 20
32.8836
 30
0.0
 10
-137.6233
 20
30.0822
 30
0.0
 10
-134.4042
 20
28.549
 30
0.0
 10
-134.4042
 20
28.549
 30
0.0
 10
-133.5641
 20
32.0179
 30
0.0
 10
-130.5483
 20
35.1828
 30
0.0
 10
-128.2772
 20
35.6512
 30
0.0
 10
-128.2772
 20
35.6512
 30
0.0
 10
-130.548
 20
36.1198
 30
0.0
 10
-133.5639
 20
39.2844
 30
0.0
 10
-134.4042
 20
42.7534
 30
0.0
  0
SPLINE
  5
AA
330
1F
100
AcDbEntity
  8
layer 1
 62
     7
100
AcDbSpline
210
0.0
220
0.0
230
1.0
 70
    11
 71
     3
 72
    20
 73
    16
 74
     0
 42
0.0000000001
 43
0.0000000001
 12
1.0
 22
0.0
 32
0.0
 13
1.0
 23
0.0
 33
0.0
 40
0.0
 40
0.0
 40
0.0
 40
0.0
 40
0.2
 40
0.2
 40
0.2
 40
0.2
 40
0.4
 40
0.4
 40
0.4
 40
0.4
 40
0.6
 40
0.6
 40
0.6
 40
0.6
 40
1.0
 40
1.0
 40
1.0
 40
1.0
 10
-119.196
 20
27.8769
 30
0.0
 10
-120.8083
 20
31.1617
 30
0.0
 10
-123.1622
 20
32.9486
 30
0.0
 10
-125.6942
 20
32.9165
 30
0.0
 10
-125.6942
 20
32.9165
 30
0.0
 10
-128.2262
 20
32.9486
 30
0.0
 10
-130.5801
 20
31.1617
 30
0.0
 10
-132.1924
 20
27.8769
 30
0.0
 10
-132.1924
 20
27.8769
 30
0.0
 10
-129.6132
 20
27.0226
 30
0.0
 10
-126.4955
 20
24.1452
 30
0.0
 10
-125.6942
 20
21.5619
 30
0.0
 10
-125.6942
 20
21.5619
 30
0.0
 10
-124.8929
 20
24.1452
 30
0.0
 10
-121.7752
 20
27.0226
 30
0.0
 10
-119.196
 20
27.8769
 30
0.0
  0
SPLINE
  5
AB
330
1F
100
AcDbEntity
  8
layer 1
 62
     7
100
AcDbSpline
210
0.0
220
0.0
230
1.0
 70
    11
 71
     3
 72
    20
 73
    16
 74
     0
 42
0.0000000001
 43
0.0000000001
 12
1.0
 22
0.0
 32
0.0
 13
1.0
 23
0.0
 33
0.0
 40
0.0
 40
0.0
 40
0.0
 40
0.0
 40
0.2
 40
0.2
 40
0.2
 40
0.2
 40
0.4
 40
0.4
 40
0.4
 40
0.4
 40
0.6
 40
0.6
 40
0.6
 40
0.6
 40
1.0
 40
1.0
 40
1.0
 40
1.0
 10
-116.959
 20
28.549
 30
0.0
 10
-113.7399
 20
30.0822
 30
0.0
 10
-112.3794
 20
32.8836
 30
0.0
 10
-112.3768
 20
35.6512
 30
0.0
 10
-112.3768
 20
35.6512
 30
0.0
 10
-112.3796
 20
38.4188
 30
0.0
 10
-113.7399
 20
41.2202
 30
0.0
 10
-116.959
 20
42.7534
 30
0.0
 10
-116.959
 20
42.7534
 30
0.0
 10
-117.7991
 20
39.2844
 30
0.0
 10
-120.815
 20
36.1196
 30
0.0
 10
-123.086
 20
35.6512
 30
0.0
 10
-123.086
 20
35.6512
 30
0.0
 10
-120.8152
 20
35.1826
 30
0.0
 10
-117.7993
 20
32.0179
 30
0.0
 10
-116.959
 20
28.549
 30
0.0
  0
SPLINE
  5
AC
330
1F
100
AcDbEntity
  8
layer 1
 62
     7
100
AcDbSpline
210
0.0
220
0.0
230
1.0
 70
    11
 71
     3
 72
    20
 73
    16
 74
     0
 42
0.0000000001
 43
0.0000000001
 12
1.0
 22
0.0
 32
0.0
 13
1.0
 23
0.0
 33
0.0
 40
0.0
 40
0.0
 40
0.0
 40
0.0
 40
0.2
 40
0.2
 40
0.2
 40
0.2
 40
0.4
 40
0.4
 40
0.4
 40
0.4
 40
0.6
 40
0.6
 40
0.6
 40
0.6
 40
1.0
 40
1.0
 40
1.0
 40
1.0
 10
-132.1674
 20
43.4255
 30
0.0
 10
-130.5551
 20
40.1406
 30
0.0
 10
-128.2012
 20
38.3537
 30
0.0
 10
-125.6692
 20
38.3858
 30
0.0
 10
-125.6692
 20
38.3858
 30
0.0
 10
-123.1372
 20
38.3537
 30
0.0
 10
-120.7833
 20
40.1406
 30
0.0
 10
-119.171
 20
43.4255
 30
0.0
 10
-119.171
 20
43.4255
 30
0.0
 10
-121.7502
 20
44.2798
 30
0.0
 10
-124.8679
 20
47.1572
 30
0.0
 10
-125.6692
 20
49.7404
 30
0.0
 10
-125.6692
 20
49.7404
 30
0.0
 10
-126.4705
 20
47.1572
 30
0.0
 10
-129.5883
 20
44.2798
 30
0.0
 10
-132.1674
 20
43.4255
 30
0.0
  0
SPLINE
  5
AD
330
1F
100
AcDbEntity
  8
layer 1
 62
     7
100
AcDbSpline
210
0.0
220
0.0
230
1.0
 70
    11
 71
     3
 72
    20
 73
    16
 74
     0
 42
0.0000000001
 43
0.0000000001
 12
1.0
 22
0.0
 32
0.0
 13
1.0
 23
0.0
 33
0.0
 40
0.0
 40
0.0
 40
0.0
 40
0.0
 40
0.2
 40
0.2
 40
0.2
 40
0.2
 40
0.4
 40
0.4
 40
0.4
 40
0.4
 40
0.6
 40
0.6
 40
0.6
 40
0.6
 40
1.0
 40
1.0
 40
1.0
 40
1.0
 10
-103.0246
 20
42.7534
 30
0.0
 10
-106.2438
 20
41.2202
 30
0.0
 10
-107.6043
 20
38.4188
 30
0.0
 10
-107.6069
 20
35.6512
 30
0.0
 10
-107.6069
 20
35.6512
 30
0.0
 10
-107.6043
 20
32.8836
 30
0.0
 10
-106.2438
 20
30.0822
 30
0.0
 10
-103.0246
 20
28.549
 30
0.0
 10
-103.0246
 20
28.549
 30
0.0
 10
-102.1846
 20
32.0179
 30
0.0
 10
-99.1687
 20
35.1828
 30
0.0
 10
-96.8977
 20
35.6512
 30
0.0
 10
-96.8977
 20
35.6512
 30
0.0
 10
-99.1685
 20
36.1198
 30
0.0
 10
-102.1844
 20
39.2844
 30
0.0
 10
-103.0246
 20
42.7534
 30
0.0
  0
SPLINE
  5
AE
330
1F
100
AcDbEntity
  8
layer 1
 62
     7
100
AcDbSpline
210
0.0
220
0.0
230
1.0
 70
    11
 71
     3
 72
    20
 73
    16
 74
     0
 42
0.0000000001
 43
0.0000000001
 12
1.0
 22
0.0
 32
0.0
 13
1.0
 23
0.0
 33
0.0
 40
0.0
 40
0.0
 40
0.0
 40
0.0
 40
0.2
 40
0.2
 40
0.2
 40
0.2
 40
0.4
 40
0.4
 40
0.4
 40
0.4
 40
0.6
 40
0.6
 40
0.6
 40
0.6
 40
1.0
 40
1.0
 40
1.0
 40
1.0
 10
-87.8165
 20
27.8769
 30
0.0
 10
-89.4288
 20
31.1617
 30
0.0
 10
-91.7827
 20
32.9486
 30
0.0
 10
-94.3147
 20
32.9165
 30
0.0
 10
-94.3147
 20
32.9165
 30
0.0
 10
-96.8467
 20
32.9486
 30
0.0
 10
-99.2006
 20
31.1617
 30
0.0
 10
-100.8129
 20
27.8769
 30
0.0
 10
-100.8129
 20
27.8769
 30
0.0
 10
-98.2337
 20
27.0226
 30
0.0
 10
-95.116
 20
24.1452
 30
0.0
 10
-94.3147
 20
21.5619
 30
0.0
 10
-94.3147
 20
21.5619
 30
0.0
 10
-93.5134
 20
24.1452
 30
0.0
 10
-90.3957
 20
27.0226
 30
0.0
 10
-87.8165
 20
27.8769
 30
0.0
  0
SPLINE
  5
AF
330
1F
100
AcDbEntity
  8
layer 1
 62
     7
100
AcDbSpline
210
0.0
220
0.0
230
1.0
 70
    11
 71
     3
 72
    20
 73
    16
 74
     0
 42
0.0000000001
 43
0.0000000001
 12
1.0
 22
0.0
 32
0.0
 13
1.0
 23
0.0
 33
0.0
 40
0.0
 40
0.0
 40
0.0
 40
0.0
 40
0.2
 40
0.2
 40
0.2
 40
0.2
 40
0.4
 40
0.4
 40
0.4
 40
0.4
 40
0.6
 40
0.6
 40
0.6
 40
0.6
 40
1.0
 40
1.0
 40
1.0
 40
1.0
 10
-103.0246
 20
42.7534
 30
0.0
 10
-106.2438
 20
41.2202
 30
0.0
 10
-107.6043
 20
38.4188
 30
0.0
 10
-107.6069
 20
35.6512
 30
0.0
 10
-107.6069
 20
35.6512
 30
0.0
 10
-107.6043
 20
32.8836
 30
0.0
 10
-106.2438
 20
30.0822
 30
0.0
 10
-103.0246
 20
28.549
 30
0.0
 10
-103.0246
 20
28.549
 30
0.0
 10
-102.1846
 20
32.0179
 30
0.0
 10
-99.1687
 20
35.1828
 30
0.0
 10
-96.8977
 20
35.6512
 30
0.0
 10
-96.8977
 20
35.6512
 30
0.0
 10
-99.1685
 20
36.1198
 30
0.0
 10
-102.1844
 20
39.2844
 30
0.0
 10
-103.0246
 20
42.7534
 30
0.0
  0
SPLINE
  5
B0
330
1F
100
AcDbEntity
  8
layer 1
 62
     7
100
AcDbSpline
210
0.0
220
0.0
230
1.0
 70
    11
 71
     3
 72
    20
 73
    16
 74
     0
 42
0.0000000001
 43
0.0000000001
 12
1.0
 22
0.0
 32
0.0
 13
1.0
 23
0.0
 33
0.0
 40
0.0
 40
0.0
 40
0.0
 40
0.0
 40
0.2
 40
0.2
 40
0.2
 40
0.2
 40
0.4
 40
0.4
 40
0.4
 40
0.4
 40
0.6
 40
0.6
 40
0.6
 40
0.6
 40
1.0
 40
1.0
 40
1.0
 40
1.0
 10
-87.8165
 20
27.8769
 30
0.0
 10
-89.4288
 20
31.1617
 30
0.0
 10
-91.7827
 20
32.9486
 30
0.0
 10
-94.3147
 20
32.9165
 30
0.0
 10
-94.3147
 20
32.9165
 30
0.0
 10
-96.8467
 20
32.9486
 30
0.0
 10
-99.2006
 20
31.1617
 30
0.0
 10
-100.8129
 20
27.8769
 30
0.0
 10
-100.8129
 20
27.8769
 30
0.0
 10
-98.2337
 20
27.0226
 30
0.0
 10
-95.116
 20
24.1452
 30
0.0
 10
-94.3147
 20
21.5619
 30
0.0
 10
-94.3147
 20
21.5619
 30
0.0
 10
-93.5134
 20
24.1452
 30
0.0
 10
-90.3957
 20
27.0226
 30
0.0
 10
-87.8165
 20
27.8769
 30
0.0
  0
SPLINE
  5
B1
330
1F
100
AcDbEntity
  8
layer 1
 62
     7
100
AcDbSpline
210
0.0
220
0.0
230
1.0
 70
    11
 71
     3
 72
    20
 73
    16
 74
     0
 42
0.0000000001
 43
0.0000000001
 12
1.0
 22
0.0
 32
0.0
 13
1.0
 23
0.0
 33
0.0
 40
0.0
 40
0.0
 40
0.0
 40
0.0
 40
0.2
 40
0.2
 40
0.2
 40
0.2
 40
0.4
 40
0.4
 40
0.4
 40
0.4
 40
0.6
 40
0.6
 40
0.6
 40
0.6
 40
1.0
 40
1.0
 40
1.0
 40
1.0
 10
-85.5795
 20
28.549
 30
0.0
 10
-82.3604
 20
30.0822
 30
0.0
 10
-80.9998
 20
32.8836
 30
0.0
 10
-80.9972
 20
35.6512
 30
0.0
 10
-80.9972
 20
35.6512
 30
0.0
 10
-81.0
 20
38.4188
 30
0.0
 10
-82.3604
 20
41.2202
 30
0.0
 10
-85.5795
 20
42.7534
 30
0.0
 10
-85.5795
 20
42.7534
 30
0.0
 10
-86.4196
 20
39.2844
 30
0.0
 10
-89.4354
 20
36.1196
 30
0.0
 10
-91.7064
 20
35.6512
 30
0.0
 10
-91.7064
 20
35.6512
 30
0.0
 10
-89.4357
 20
35.1826
 30
0.0
 10
-86.4198
 20
32.0179
 30
0.0
 10
-85.5795
 20
28.549
 30
0.0
  0
SPLINE
  5
B2
330
1F
100
AcDbEntity
  8
layer 1
 62
     7
100
AcDbSpline
210
0.0
220
0.0
230
1.0
 70
    11
 71
     3
 72
    20
 73
    16
 74
     0
 42
0.0000000001
 43
0.0000000001
 12
1.0
 22
0.0
 32
0.0
 13
1.0
 23
0.0
 33
0.0
 40
0.0
 40
0.0
 40
0.0
 40
0.0
 40
0.2
 40
0.2
 40
0.2
 40
0.2
 40
0.4
 40
0.4
 40
0.4
 40
0.4
 40
0.6
 40
0.6
 40
0.6
 40
0.6
 40
1.0
 40
1.0
 40
1.0
 40
1.0
 10
-100.7879
 20
43.4255
 30
0.0
 10
-99.1756
 20
40.1406
 30
0.0
 10
-96.8217
 20
38.3537
 30
0.0
 10
-94.2897
 20
38.3858
 30
0.0
 10
-94.2897
 20
38.3858
 30
0.0
 10
-91.7577
 20
38.3537
 30
0.0
 10
-89.4038
 20
40.1406
 30
0.0
 10
-87.7915
 20
43.4255
 30
0.0
 10
-87.7915
 20
43.4255
 30
0.0
 10
-90.3707
 20
44.2798
 30
0.0
 10
-93.4884
 20
47.1572
 30
0.0
 10
-94.2897
 20
49.7404
 30
0.0
 10
-94.2897
 20
49.7404
 30
0.0
 10
-95.091
 20
47.1572
 30
0.0
 10
-98.2087
 20
44.2798
 30
0.0
 10
-100.7879
 20
43.4255
 30
0.0
  0
SPLINE
  5
B3
330
1F
100
AcDbEntity
  8
layer 1
 62
     7
100
AcDbSpline
210
0.0
220
0.0
230
1.0
 70
    11
 71
     3
 72
    20
 73
    16
 74
     0
 42
0.0000000001
 43
0.0000000001
 12
1.0
 22
0.0
 32
0.0
 13
1.0
 23
0.0
 33
0.0
 40
0.0
 40
0.0
 40
0.0
 40
0.0
 40
0.2
 40
0.2
 40
0.2
 40
0.2
 40
0.4
 40
0.4
 40
0.4
 40
0.4
 40
0.6
 40
0.6
 40
0.6
 40
0.6
 40
1.0
 40
1.0
 40
1.0
 40
1.0
 10
-165.7837
 20
42.7534
 30
0.0
 10
-169.0029
 20
41.2202
 30
0.0
 10
-170.3634
 20
38.4188
 30
0.0
 10
-170.366
 20
35.6512
 30
0.0
 10
-170.366
 20
35.6512
 30
0.0
 10
-170.3634
 20
32.8836
 30
0.0
 10
-169.0029
 20
30.0822
 30
0.0
 10
-165.7837
 20
28.549
 30
0.0
 10
-165.7837
 20
28.549
 30
0.0
 10
-164.9437
 20
32.0179
 30
0.0
 10
-161.9278
 20
35.1828
 30
0.0
 10
-159.6568
 20
35.6512
 30
0.0
 10
-159.6568
 20
35.6512
 30
0.0
 10
-161.9276
 20
36.1198
 30
0.0
 10
-164.9434
 20
39.2844
 30
0.0
 10
-165.7837
 20
42.7534
 30
0.0
  0
SPLINE
  5
B4
330
1F
100
AcDbEntity
  8
layer 1
 62
     7
100
AcDbSpline
210
0.0
220
0.0
230
1.0
 70
    11
 71
     3
 72
    20
 73
    16
 74
     0
 42
0.0000000001
 43
0.0000000001
 12
1.0
 22
0.0
 32
0.0
 13
1.0
 23
0.0
 33
0.0
 40
0.0
 40
0.0
 40
0.0
 40
0.0
 40
0.2
 40
0.2
 40
0.2
 40
0.2
 40
0.4
 40
0.4
 40
0.4
 40
0.4
 40
0.6
 40
0.6
 40
0.6
 40
0.6
 40
1.0
 40
1.0
 40
1.0
 40
1.0
 10
-150.5756
 20
27.8769
 30
0.0
 10
-152.1878
 20
31.1617
 30
0.0
 10
-154.5417
 20
32.9486
 30
0.0
 10
-157.0737
 20
32.9165
 30
0.0
 10
-157.0737
 20
32.9165
 30
0.0
 10
-159.6057
 20
32.9486
 30
0.0
 10
-161.9597
 20
31.1617
 30
0.0
 10
-163.5719
 20
27.8769
 30
0.0
 10
-163.5719
 20
27.8769
 30
0.0
 10
-160.9928
 20
27.0226
 30
0.0
 10
-157.875
 20
24.1452
 30
0.0
 10
-157.0737
 20
21.5619
 30
0.0
 10
-157.0737
 20
21.5619
 30
0.0
 10
-156.2725
 20
24.1452
 30
0.0
 10
-153.1547
 20
27.0226
 30
0.0
 10
-150.5756
 20
27.8769
 30
0.0
  0
SPLINE
  5
B5
330
1F
100
AcDbEntity
  8
layer 1
 62
     7
100
AcDbSpline
210
0.0
220
0.0
230
1.0
 70
    11
 71
     3
 72
    20
 73
    16
 74
     0
 42
0.0000000001
 43
0.0000000001
 12
1.0
 22
0.0
 32
0.0
 13
1.0
 23
0.0
 33
0.0
 40
0.0
 40
0.0
 40
0.0
 40
0.0
 40
0.2
 40
0.2
 40
0.2
 40
0.2
 40
0.4
 40
0.4
 40
0.4
 40
0.4
 40
0.6
 40
0.6
 40
0.6
 40
0.6
 40
1.0
 40
1.0
 40
1.0
 40
1.0
 10
-165.7837
 20
42.7534
 30
0.0
 10
-169.0029
 20
41.2202
 30
0.0
 10
-170.3634
 20
38.4188
 30
0.0
 10
-170.366
 20
35.6512
 30
0.0
 10
-170.366
 20
35.6512
 30
0.0
 10
-170.3634
 20
32.8836
 30
0.0
 10
-169.0029
 20
30.0822
 30
0.0
 10
-165.7837
 20
28.549
 30
0.0
 10
-165.7837
 20
28.549
 30
0.0
 10
-164.9437
 20
32.0179
 30
0.0
 10
-161.9278
 20
35.1828
 30
0.0
 10
-159.6568
 20
35.6512
 30
0.0
 10
-159.6568
 20
35.6512
 30
0.0
 10
-161.9276
 20
36.1198
 30
0.0
 10
-164.9434
 20
39.2844
 30
0.0
 10
-165.7837
 20
42.7534
 30
0.0
  0
SPLINE
  5
B6
330
1F
100
AcDbEntity
  8
layer 1
 62
     7
100
AcDbSpline
210
0.0
220
0.0
230
1.0
 70
    11
 71
     3
 72
    20
 73
    16
 74
     0
 42
0.0000000001
 43
0.0000000001
 12
1.0
 22
0.0
 32
0.0
 13
1.0
 23
0.0
 33
0.0
 40
0.0
 40
0.0
 40
0.0
 40
0.0
 40
0.2
 40
0.2
 40
0.2
 40
0.2
 40
0.4
 40
0.4
 40
0.4
 40
0.4
 40
0.6
 40
0.6
 40
0.6
 40
0.6
 40
1.0
 40
1.0
 40
1.0
 40
1.0
 10
-150.5756
 20
27.8769
 30
0.0
 10
-152.1878
 20
31.1617
 30
0.0
 10
-154.5417
 20
32.9486
 30
0.0
 10
-157.0737
 20
32.9165
 30
0.0
 10
-157.0737
 20
32.9165
 30
0.0
 10
-159.6057
 20
32.9486
 30
0.0
 10
-161.9597
 20
31.1617
 30
0.0
 10
-163.5719
 20
27.8769
 30
0.0
 10
-163.5719
 20
27.8769
 30
0.0
 10
-160.9928
 20
27.0226
 30
0.0
 10
-157.875
 20
24.1452
 30
0.0
 10
-157.0737
 20
21.5619
 30
0.0
 10
-157.0737
 20
21.5619
 30
0.0
 10
-156.2725
 20
24.1452
 30
0.0
 10
-153.1547
 20
27.0226
 30
0.0
 10
-150.5756
 20
27.8769
 30
0.0
  0
SPLINE
  5
B7
330
1F
100
AcDbEntity
  8
layer 1
 62
     7
100
AcDbSpline
210
0.0
220
0.0
230
1.0
 70
    11
 71
     3
 72
    20
 73
    16
 74
     0
 42
0.0000000001
 43
0.0000000001
 12
1.0
 22
0.0
 32
0.0
 13
1.0
 23
0.0
 33
0.0
 40
0.0
 40
0.0
 40
0.0
 40
0.0
 40
0.2
 40
0.2
 40
0.2
 40
0.2
 40
0.4
 40
0.4
 40
0.4
 40
0.4
 40
0.6
 40
0.6
 40
0.6
 40
0.6
 40
1.0
 40
1.0
 40
1.0
 40
1.0
 10
-148.3386
 20
28.549
 30
0.0
 10
-145.1194
 20
30.0822
 30
0.0
 10
-143.7589
 20
32.8836
 30
0.0
 10
-143.7563
 20
35.6512
 30
0.0
 10
-143.7563
 20
35.6512
 30
0.0
 10
-143.7591
 20
38.4188
 30
0.0
 10
-145.1194
 20
41.2202
 30
0.0
 10
-148.3386
 20
42.7534
 30
0.0
 10
-148.3386
 20
42.7534
 30
0.0
 10
-149.1786
 20
39.2844
 30
0.0
 10
-152.1945
 20
36.1196
 30
0.0
 10
-154.4655
 20
35.6512
 30
0.0
 10
-154.4655
 20
35.6512
 30
0.0
 10
-152.1947
 20
35.1826
 30
0.0
 10
-149.1788
 20
32.0179
 30
0.0
 10
-148.3386
 20
28.549
 30
0.0
  0
SPLINE
  5
B8
330
1F
100
AcDbEntity
  8
layer 1
 62
     7
100
AcDbSpline
210
0.0
220
0.0
230
1.0
 70
    11
 71
     3
 72
    20
 73
    16
 74
     0
 42
0.0000000001
 43
0.0000000001
 12
1.0
 22
0.0
 32
0.0
 13
1.0
 23
0.0
 33
0.0
 40
0.0
 40
0.0
 40
0.0
 40
0.0
 40
0.2
 40
0.2
 40
0.2
 40
0.2
 40
0.4
 40
0.4
 40
0.4
 40
0.4
 40
0.6
 40
0.6
 40
0.6
 40
0.6
 40
1.0
 40
1.0
 40
1.0
 40
1.0
 10
-163.547
 20
43.4255
 30
0.0
 10
-161.9347
 20
40.1406
 30
0.0
 10
-159.5808
 20
38.3537
 30
0.0
 10
-157.0488
 20
38.3858
 30
0.0
 10
-157.0488
 20
38.3858
 30
0.0
 10
-154.5168
 20
38.3537
 30
0.0
 10
-152.1629
 20
40.1406
 30
0.0
 10
-150.5506
 20
43.4255
 30
0.0
 10
-150.5506
 20
43.4255
 30
0.0
 10
-153.1297
 20
44.2798
 30
0.0
 10
-156.2475
 20
47.1572
 30
0.0
 10
-157.0488
 20
49.7404
 30
0.0
 10
-157.0488
 20
49.7404
 30
0.0
 10
-157.8501
 20
47.1572
 30
0.0
 10
-160.9678
 20
44.2798
 30
0.0
 10
-163.547
 20
43.4255
 30
0.0
  0
SPLINE
  5
B9
330
1F
100
AcDbEntity
  8
layer 1
 62
     7
100
AcDbSpline
210
0.0
220
0.0
230
1.0
 70
    11
 71
     3
 72
    20
 73
    16
 74
     0
 42
0.0000000001
 43
0.0000000001
 12
1.0
 22
0.0
 32
0.0
 13
1.0
 23
0.0
 33
0.0
 40
0.0
 40
0.0
 40
0.0
 40
0.0
 40
0.2
 40
0.2
 40
0.2
 40
0.2
 40
0.4
 40
0.4
 40
0.4
 40
0.4
 40
0.6
 40
0.6
 40
0.6
 40
0.6
 40
1.0
 40
1.0
 40
1.0
 40
1.0
 10
-149.6666
 20
-11.2938
 30
0.0
 10
-152.8858
 20
-12.827
 30
0.0
 10
-154.2463
 20
-15.6284
 30
0.0
 10
-154.2489
 20
-18.396
 30
0.0
 10
-154.2489
 20
-18.396
 30
0.0
 10
-154.2463
 20
-21.1636
 30
0.0
 10
-152.8858
 20
-23.965
 30
0.0
 10
-149.6666
 20
-25.4982
 30
0.0
 10
-149.6666
 20
-25.4982
 30
0.0
 10
-148.8265
 20
-22.0292
 30
0.0
 10
-145.8107
 20
-18.8644
 30
0.0
 10
-143.5397
 20
-18.396
 30
0.0
 10
-143.5397
 20
-18.396
 30
0.0
 10
-145.8105
 20
-17.9274
 30
0.0
 10
-148.8263
 20
-14.7627
 30
0.0
 10
-149.6666
 20
-11.2938
 30
0.0
  0
SPLINE
  5
BA
330
1F
100
AcDbEntity
  8
layer 1
 62
     7
100
AcDbSpline
210
0.0
220
0.0
230
1.0
 70
    11
 71
     3
 72
    20
 73
    16
 74
     0
 42
0.0000000001
 43
0.0000000001
 12
1.0
 22
0.0
 32
0.0
 13
1.0
 23
0.0
 33
0.0
 40
0.0
 40
0.0
 40
0.0
 40
0.0
 40
0.2
 40
0.2
 40
0.2
 40
0.2
 40
0.4
 40
0.4
 40
0.4
 40
0.4
 40
0.6
 40
0.6
 40
0.6
 40
0.6
 40
1.0
 40
1.0
 40
1.0
 40
1.0
 10
-134.4584
 20
-26.1703
 30
0.0
 10
-136.0707
 20
-22.8854
 30
0.0
 10
-138.4246
 20
-21.0985
 30
0.0
 10
-140.9566
 20
-21.1306
 30
0.0
 10
-140.9566
 20
-21.1306
 30
0.0
 10
-143.4886
 20
-21.0985
 30
0.0
 10
-145.8425
 20
-22.8854
 30
0.0
 10
-147.4548
 20
-26.1703
 30
0.0
 10
-147.4548
 20
-26.1703
 30
0.0
 10
-144.8757
 20
-27.0246
 30
0.0
 10
-141.7579
 20
-29.902
 30
0.0
 10
-140.9566
 20
-32.4852
 30
0.0
 10
-140.9566
 20
-32.4852
 30
0.0
 10
-140.1553
 20
-29.902
 30
0.0
 10
-137.0376
 20
-27.0246
 30
0.0
 10
-134.4584
 20
-26.1703
 30
0.0
  0
SPLINE
  5
BB
330
1F
100
AcDbEntity
  8
layer 1
 62
     7
100
AcDbSpline
210
0.0
220
0.0
230
1.0
 70
    11
 71
     3
 72
    20
 73
    16
 74
     0
 42
0.0000000001
 43
0.0000000001
 12
1.0
 22
0.0
 32
0.0
 13
1.0
 23
0.0
 33
0.0
 40
0.0
 40
0.0
 40
0.0
 40
0.0
 40
0.2
 40
0.2
 40
0.2
 40
0.2
 40
0.4
 40
0.4
 40
0.4
 40
0.4
 40
0.6
 40
0.6
 40
0.6
 40
0.6
 40
1.0
 40
1.0
 40
1.0
 40
1.0
 10
-149.6666
 20
-11.2938
 30
0.0
 10
-152.8858
 20
-12.827
 30
0.0
 10
-154.2463
 20
-15.6284
 30
0.0
 10
-154.2489
 20
-18.396
 30
0.0
 10
-154.2489
 20
-18.396
 30
0.0
 10
-154.2463
 20
-21.1636
 30
0.0
 10
-152.8858
 20
-23.965
 30
0.0
 10
-149.6666
 20
-25.4982
 30
0.0
 10
-149.6666
 20
-25.4982
 30
0.0
 10
-148.8265
 20
-22.0292
 30
0.0
 10
-145.8107
 20
-18.8644
 30
0.0
 10
-143.5397
 20
-18.396
 30
0.0
 10
-143.5397
 20
-18.396
 30
0.0
 10
-145.8105
 20
-17.9274
 30
0.0
 10
-148.8263
 20
-14.7627
 30
0.0
 10
-149.6666
 20
-11.2938
 30
0.0
  0
SPLINE
  5
BC
330
1F
100
AcDbEntity
  8
layer 1
 62
     7
100
AcDbSpline
210
0.0
220
0.0
230
1.0
 70
    11
 71
     3
 72
    20
 73
    16
 74
     0
 42
0.0000000001
 43
0.0000000001
 12
1.0
 22
0.0
 32
0.0
 13
1.0
 23
0.0
 33
0.0
 40
0.0
 40
0.0
 40
0.0
 40
0.0
 40
0.2
 40
0.2
 40
0.2
 40
0.2
 40
0.4
 40
0.4
 40
0.4
 40
0.4
 40
0.6
 40
0.6
 40
0.6
 40
0.6
 40
1.0
 40
1.0
 40
1.0
 40
1.0
 10
-134.4584
 20
-26.1703
 30
0.0
 10
-136.0707
 20
-22.8854
 30
0.0
 10
-138.4246
 20
-21.0985
 30
0.0
 10
-140.9566
 20
-21.1306
 30
0.0
 10
-140.9566
 20
-21.1306
 30
0.0
 10
-143.4886
 20
-21.0985
 30
0.0
 10
-145.8425
 20
-22.8854
 30
0.0
 10
-147.4548
 20
-26.1703
 30
0.0
 10
-147.4548
 20
-26.1703
 30
0.0
 10
-144.8757
 20
-27.0246
 30
0.0
 10
-141.7579
 20
-29.902
 30
0.0
 10
-140.9566
 20
-32.4852
 30
0.0
 10
-140.9566
 20
-32.4852
 30
0.0
 10
-140.1553
 20
-29.902
 30
0.0
 10
-137.0376
 20
-27.0246
 30
0.0
 10
-134.4584
 20
-26.1703
 30
0.0
  0
SPLINE
  5
BD
330
1F
100
AcDbEntity
  8
layer 1
 62
     7
100
AcDbSpline
210
0.0
220
0.0
230
1.0
 70
    11
 71
     3
 72
    20
 73
    16
 74
     0
 42
0.0000000001
 43
0.0000000001
 12
1.0
 22
0.0
 32
0.0
 13
1.0
 23
0.0
 33
0.0
 40
0.0
 40
0.0
 40
0.0
 40
0.0
 40
0.2
 40
0.2
 40
0.2
 40
0.2
 40
0.4
 40
0.4
 40
0.4
 40
0.4
 40
0.6
 40
0.6
 40
0.6
 40
0.6
 40
1.0
 40
1.0
 40
1.0
 40
1.0
 10
-132.2215
 20
-25.4982
 30
0.0
 10
-129.0023
 20
-23.965
 30
0.0
 10
-127.6418
 20
-21.1636
 30
0.0
 10
-127.6392
 20
-18.396
 30
0.0
 10
-127.6392
 20
-18.396
 30
0.0
 10
-127.642
 20
-15.6284
 30
0.0
 10
-129.0023
 20
-12.827
 30
0.0
 10
-132.2215
 20
-11.2938
 30
0.0
 10
-132.2215
 20
-11.2938
 30
0.0
 10
-133.0615
 20
-14.7627
 30
0.0
 10
-136.0774
 20
-17.9276
 30
0.0
 10
-138.3484
 20
-18.396
 30
0.0
 10
-138.3484
 20
-18.396
 30
0.0
 10
-136.0776
 20
-18.8646
 30
0.0
 10
-133.0617
 20
-22.0292
 30
0.0
 10
-132.2215
 20
-25.4982
 30
0.0
  0
SPLINE
  5
BE
330
1F
100
AcDbEntity
  8
layer 1
 62
     7
100
AcDbSpline
210
0.0
220
0.0
230
1.0
 70
    11
 71
     3
 72
    20
 73
    16
 74
     0
 42
0.0000000001
 43
0.0000000001
 12
1.0
 22
0.0
 32
0.0
 13
1.0
 23
0.0
 33
0.0
 40
0.0
 40
0.0
 40
0.0
 40
0.0
 40
0.2
 40
0.2
 40
0.2
 40
0.2
 40
0.4
 40
0.4
 40
0.4
 40
0.4
 40
0.6
 40
0.6
 40
0.6
 40
0.6
 40
1.0
 40
1.0
 40
1.0
 40
1.0
 10
-147.4298
 20
-10.6217
 30
0.0
 10
-145.8176
 20
-13.9065
 30
0.0
 10
-143.4637
 20
-15.6934
 30
0.0
 10
-140.9317
 20
-15.6613
 30
0.0
 10
-140.9317
 20
-15.6613
 30
0.0
 10
-138.3997
 20
-15.6934
 30
0.0
 10
-136.0457
 20
-13.9065
 30
0.0
 10
-134.4335
 20
-10.6217
 30
0.0
 10
-134.4335
 20
-10.6217
 30
0.0
 10
-137.0126
 20
-9.7674
 30
0.0
 10
-140.1304
 20
-6.89
 30
0.0
 10
-140.9317
 20
-4.3067
 30
0.0
 10
-140.9317
 20
-4.3067
 30
0.0
 10
-141.7329
 20
-6.89
 30
0.0
 10
-144.8507
 20
-9.7674
 30
0.0
 10
-147.4298
 20
-10.6217
 30
0.0
  0
SPLINE
  5
BF
330
1F
100
AcDbEntity
  8
layer 1
 62
     7
100
AcDbSpline
210
0.0
220
0.0
230
1.0
 70
    11
 71
     3
 72
    20
 73
    16
 74
     0
 42
0.0000000001
 43
0.0000000001
 12
1.0
 22
0.0
 32
0.0
 13
1.0
 23
0.0
 33
0.0
 40
0.0
 40
0.0
 40
0.0
 40
0.0
 40
0.2
 40
0.2
 40
0.2
 40
0.2
 40
0.4
 40
0.4
 40
0.4
 40
0.4
 40
0.6
 40
0.6
 40
0.6
 40
0.6
 40
1.0
 40
1.0
 40
1.0
 40
1.0
 10
-118.2871
 20
-11.2938
 30
0.0
 10
-121.5062
 20
-12.827
 30
0.0
 10
-122.8668
 20
-15.6284
 30
0.0
 10
-122.8693
 20
-18.396
 30
0.0
 10
-122.8693
 20
-18.396
 30
0.0
 10
-122.8668
 20
-21.1636
 30
0.0
 10
-121.5062
 20
-23.965
 30
0.0
 10
-118.2871
 20
-25.4982
 30
0.0
 10
-118.2871
 20
-25.4982
 30
0.0
 10
-117.447
 20
-22.0292
 30
0.0
 10
-114.4311
 20
-18.8644
 30
0.0
 10
-112.1601
 20
-18.396
 30
0.0
 10
-112.1601
 20
-18.396
 30
0.0
 10
-114.4309
 20
-17.9274
 30
0.0
 10
-117.4468
 20
-14.7627
 30
0.0
 10
-118.2871
 20
-11.2938
 30
0.0
  0
SPLINE
  5
C0
330
1F
100
AcDbEntity
  8
layer 1
 62
     7
100
AcDbSpline
210
0.0
220
0.0
230
1.0
 70
    11
 71
     3
 72
    20
 73
    16
 74
     0
 42
0.0000000001
 43
0.0000000001
 12
1.0
 22
0.0
 32
0.0
 13
1.0
 23
0.0
 33
0.0
 40
0.0
 40
0.0
 40
0.0
 40
0.0
 40
0.2
 40
0.2
 40
0.2
 40
0.2
 40
0.4
 40
0.4
 40
0.4
 40
0.4
 40
0.6
 40
0.6
 40
0.6
 40
0.6
 40
1.0
 40
1.0
 40
1.0
 40
1.0
 10
-103.0789
 20
-26.1703
 30
0.0
 10
-104.6912
 20
-22.8854
 30
0.0
 10
-107.0451
 20
-21.0985
 30
0.0
 10
-109.5771
 20
-21.1306
 30
0.0
 10
-109.5771
 20
-21.1306
 30
0.0
 10
-112.1091
 20
-21.0985
 30
0.0
 10
-114.463
 20
-22.8854
 30
0.0
 10
-116.0753
 20
-26.1703
 30
0.0
 10
-116.0753
 20
-26.1703
 30
0.0
 10
-113.4961
 20
-27.0246
 30
0.0
 10
-110.3784
 20
-29.902
 30
0.0
 10
-109.5771
 20
-32.4852
 30
0.0
 10
-109.5771
 20
-32.4852
 30
0.0
 10
-108.7758
 20
-29.902
 30
0.0
 10
-105.6581
 20
-27.0246
 30
0.0
 10
-103.0789
 20
-26.1703
 30
0.0
  0
SPLINE
  5
C1
330
1F
100
AcDbEntity
  8
layer 1
 62
     7
100
AcDbSpline
210
0.0
220
0.0
230
1.0
 70
    11
 71
     3
 72
    20
 73
    16
 74
     0
 42
0.0000000001
 43
0.0000000001
 12
1.0
 22
0.0
 32
0.0
 13
1.0
 23
0.0
 33
0.0
 40
0.0
 40
0.0
 40
0.0
 40
0.0
 40
0.2
 40
0.2
 40
0.2
 40
0.2
 40
0.4
 40
0.4
 40
0.4
 40
0.4
 40
0.6
 40
0.6
 40
0.6
 40
0.6
 40
1.0
 40
1.0
 40
1.0
 40
1.0
 10
-118.2871
 20
-11.2938
 30
0.0
 10
-121.5062
 20
-12.827
 30
0.0
 10
-122.8668
 20
-15.6284
 30
0.0
 10
-122.8693
 20
-18.396
 30
0.0
 10
-122.8693
 20
-18.396
 30
0.0
 10
-122.8668
 20
-21.1636
 30
0.0
 10
-121.5062
 20
-23.965
 30
0.0
 10
-118.2871
 20
-25.4982
 30
0.0
 10
-118.2871
 20
-25.4982
 30
0.0
 10
-117.447
 20
-22.0292
 30
0.0
 10
-114.4311
 20
-18.8644
 30
0.0
 10
-112.1601
 20
-18.396
 30
0.0
 10
-112.1601
 20
-18.396
 30
0.0
 10
-114.4309
 20
-17.9274
 30
0.0
 10
-117.4468
 20
-14.7627
 30
0.0
 10
-118.2871
 20
-11.2938
 30
0.0
  0
SPLINE
  5
C2
330
1F
100
AcDbEntity
  8
layer 1
 62
     7
100
AcDbSpline
210
0.0
220
0.0
230
1.0
 70
    11
 71
     3
 72
    20
 73
    16
 74
     0
 42
0.0000000001
 43
0.0000000001
 12
1.0
 22
0.0
 32
0.0
 13
1.0
 23
0.0
 33
0.0
 40
0.0
 40
0.0
 40
0.0
 40
0.0
 40
0.2
 40
0.2
 40
0.2
 40
0.2
 40
0.4
 40
0.4
 40
0.4
 40
0.4
 40
0.6
 40
0.6
 40
0.6
 40
0.6
 40
1.0
 40
1.0
 40
1.0
 40
1.0
 10
-103.0789
 20
-26.1703
 30
0.0
 10
-104.6912
 20
-22.8854
 30
0.0
 10
-107.0451
 20
-21.0985
 30
0.0
 10
-109.5771
 20
-21.1306
 30
0.0
 10
-109.5771
 20
-21.1306
 30
0.0
 10
-112.1091
 20
-21.0985
 30
0.0
 10
-114.463
 20
-22.8854
 30
0.0
 10
-116.0753
 20
-26.1703
 30
0.0
 10
-116.0753
 20
-26.1703
 30
0.0
 10
-113.4961
 20
-27.0246
 30
0.0
 10
-110.3784
 20
-29.902
 30
0.0
 10
-109.5771
 20
-32.4852
 30
0.0
 10
-109.5771
 20
-32.4852
 30
0.0
 10
-108.7758
 20
-29.902
 30
0.0
 10
-105.6581
 20
-27.0246
 30
0.0
 10
-103.0789
 20
-26.1703
 30
0.0
  0
SPLINE
  5
C3
330
1F
100
AcDbEntity
  8
layer 1
 62
     7
100
AcDbSpline
210
0.0
220
0.0
230
1.0
 70
    11
 71
     3
 72
    20
 73
    16
 74
     0
 42
0.0000000001
 43
0.0000000001
 12
1.0
 22
0.0
 32
0.0
 13
1.0
 23
0.0
 33
0.0
 40
0.0
 40
0.0
 40
0.0
 40
0.0
 40
0.2
 40
0.2
 40
0.2
 40
0.2
 40
0.4
 40
0.4
 40
0.4
 40
0.4
 40
0.6
 40
0.6
 40
0.6
 40
0.6
 40
1.0
 40
1.0
 40
1.0
 40
1.0
 10
-100.8419
 20
-25.4982
 30
0.0
 10
-97.6228
 20
-23.965
 30
0.0
 10
-96.2622
 20
-21.1636
 30
0.0
 10
-96.2597
 20
-18.396
 30
0.0
 10
-96.2597
 20
-18.396
 30
0.0
 10
-96.2625
 20
-15.6284
 30
0.0
 10
-97.6228
 20
-12.827
 30
0.0
 10
-100.8419
 20
-11.2938
 30
0.0
 10
-100.8419
 20
-11.2938
 30
0.0
 10
-101.682
 20
-14.7627
 30
0.0
 10
-104.6979
 20
-17.9276
 30
0.0
 10
-106.9689
 20
-18.396
 30
0.0
 10
-106.9689
 20
-18.396
 30
0.0
 10
-104.6981
 20
-18.8646
 30
0.0
 10
-101.6822
 20
-22.0292
 30
0.0
 10
-100.8419
 20
-25.4982
 30
0.0
  0
SPLINE
  5
C4
330
1F
100
AcDbEntity
  8
layer 1
 62
     7
100
AcDbSpline
210
0.0
220
0.0
230
1.0
 70
    11
 71
     3
 72
    20
 73
    16
 74
     0
 42
0.0000000001
 43
0.0000000001
 12
1.0
 22
0.0
 32
0.0
 13
1.0
 23
0.0
 33
0.0
 40
0.0
 40
0.0
 40
0.0
 40
0.0
 40
0.2
 40
0.2
 40
0.2
 40
0.2
 40
0.4
 40
0.4
 40
0.4
 40
0.4
 40
0.6
 40
0.6
 40
0.6
 40
0.6
 40
1.0
 40
1.0
 40
1.0
 40
1.0
 10
-116.0503
 20
-10.6217
 30
0.0
 10
-114.438
 20
-13.9065
 30
0.0
 10
-112.0841
 20
-15.6934
 30
0.0
 10
-109.5521
 20
-15.6613
 30
0.0
 10
-109.5521
 20
-15.6613
 30
0.0
 10
-107.0201
 20
-15.6934
 30
0.0
 10
-104.6662
 20
-13.9065
 30
0.0
 10
-103.0539
 20
-10.6217
 30
0.0
 10
-103.0539
 20
-10.6217
 30
0.0
 10
-105.6331
 20
-9.7674
 30
0.0
 10
-108.7508
 20
-6.89
 30
0.0
 10
-109.5521
 20
-4.3067
 30
0.0
 10
-109.5521
 20
-4.3067
 30
0.0
 10
-110.3534
 20
-6.89
 30
0.0
 10
-113.4711
 20
-9.7674
 30
0.0
 10
-116.0503
 20
-10.6217
 30
0.0
  0
SPLINE
  5
C5
330
1F
100
AcDbEntity
  8
layer 1
 62
     7
100
AcDbSpline
210
0.0
220
0.0
230
1.0
 70
    11
 71
     3
 72
    20
 73
    16
 74
     0
 42
0.0000000001
 43
0.0000000001
 12
1.0
 22
0.0
 32
0.0
 13
1.0
 23
0.0
 33
0.0
 40
0.0
 40
0.0
 40
0.0
 40
0.0
 40
0.2
 40
0.2
 40
0.2
 40
0.2
 40
0.4
 40
0.4
 40
0.4
 40
0.4
 40
0.6
 40
0.6
 40
0.6
 40
0.6
 40
1.0
 40
1.0
 40
1.0
 40
1.0
 10
-87.1517
 20
-11.2938
 30
0.0
 10
-90.3709
 20
-12.827
 30
0.0
 10
-91.7314
 20
-15.6284
 30
0.0
 10
-91.734
 20
-18.396
 30
0.0
 10
-91.734
 20
-18.396
 30
0.0
 10
-91.7314
 20
-21.1636
 30
0.0
 10
-90.3709
 20
-23.965
 30
0.0
 10
-87.1517
 20
-25.4982
 30
0.0
 10
-87.1517
 20
-25.4982
 30
0.0
 10
-86.3117
 20
-22.0292
 30
0.0
 10
-83.2958
 20
-18.8644
 30
0.0
 10
-81.0248
 20
-18.396
 30
0.0
 10
-81.0248
 20
-18.396
 30
0.0
 10
-83.2956
 20
-17.9274
 30
0.0
 10
-86.3115
 20
-14.7627
 30
0.0
 10
-87.1517
 20
-11.2938
 30
0.0
  0
SPLINE
  5
C6
330
1F
100
AcDbEntity
  8
layer 1
 62
     7
100
AcDbSpline
210
0.0
220
0.0
230
1.0
 70
    11
 71
     3
 72
    20
 73
    16
 74
     0
 42
0.0000000001
 43
0.0000000001
 12
1.0
 22
0.0
 32
0.0
 13
1.0
 23
0.0
 33
0.0
 40
0.0
 40
0.0
 40
0.0
 40
0.0
 40
0.2
 40
0.2
 40
0.2
 40
0.2
 40
0.4
 40
0.4
 40
0.4
 40
0.4
 40
0.6
 40
0.6
 40
0.6
 40
0.6
 40
1.0
 40
1.0
 40
1.0
 40
1.0
 10
-71.9436
 20
-26.1703
 30
0.0
 10
-73.5558
 20
-22.8854
 30
0.0
 10
-75.9098
 20
-21.0985
 30
0.0
 10
-78.4418
 20
-21.1306
 30
0.0
 10
-78.4418
 20
-21.1306
 30
0.0
 10
-80.9738
 20
-21.0985
 30
0.0
 10
-83.3277
 20
-22.8854
 30
0.0
 10
-84.9399
 20
-26.1703
 30
0.0
 10
-84.9399
 20
-26.1703
 30
0.0
 10
-82.3608
 20
-27.0246
 30
0.0
 10
-79.2431
 20
-29.902
 30
0.0
 10
-78.4418
 20
-32.4852
 30
0.0
 10
-78.4418
 20
-32.4852
 30
0.0
 10
-77.6405
 20
-29.902
 30
0.0
 10
-74.5227
 20
-27.0246
 30
0.0
 10
-71.9436
 20
-26.1703
 30
0.0
  0
SPLINE
  5
C7
330
1F
100
AcDbEntity
  8
layer 1
 62
     7
100
AcDbSpline
210
0.0
220
0.0
230
1.0
 70
    11
 71
     3
 72
    20
 73
    16
 74
     0
 42
0.0000000001
 43
0.0000000001
 12
1.0
 22
0.0
 32
0.0
 13
1.0
 23
0.0
 33
0.0
 40
0.0
 40
0.0
 40
0.0
 40
0.0
 40
0.2
 40
0.2
 40
0.2
 40
0.2
 40
0.4
 40
0.4
 40
0.4
 40
0.4
 40
0.6
 40
0.6
 40
0.6
 40
0.6
 40
1.0
 40
1.0
 40
1.0
 40
1.0
 10
-87.1517
 20
-11.2938
 30
0.0
 10
-90.3709
 20
-12.827
 30
0.0
 10
-91.7314
 20
-15.6284
 30
0.0
 10
-91.734
 20
-18.396
 30
0.0
 10
-91.734
 20
-18.396
 30
0.0
 10
-91.7314
 20
-21.1636
 30
0.0
 10
-90.3709
 20
-23.965
 30
0.0
 10
-87.1517
 20
-25.4982
 30
0.0
 10
-87.1517
 20
-25.4982
 30
0.0
 10
-86.3117
 20
-22.0292
 30
0.0
 10
-83.2958
 20
-18.8644
 30
0.0
 10
-81.0248
 20
-18.396
 30
0.0
 10
-81.0248
 20
-18.396
 30
0.0
 10
-83.2956
 20
-17.9274
 30
0.0
 10
-86.3115
 20
-14.7627
 30
0.0
 10
-87.1517
 20
-11.2938
 30
0.0
  0
SPLINE
  5
C8
330
1F
100
AcDbEntity
  8
layer 1
 62
     7
100
AcDbSpline
210
0.0
220
0.0
230
1.0
 70
    11
 71
     3
 72
    20
 73
    16
 74
     0
 42
0.0000000001
 43
0.0000000001
 12
1.0
 22
0.0
 32
0.0
 13
1.0
 23
0.0
 33
0.0
 40
0.0
 40
0.0
 40
0.0
 40
0.0
 40
0.2
 40
0.2
 40
0.2
 40
0.2
 40
0.4
 40
0.4
 40
0.4
 40
0.4
 40
0.6
 40
0.6
 40
0.6
 40
0.6
 40
1.0
 40
1.0
 40
1.0
 40
1.0
 10
-71.9436
 20
-26.1703
 30
0.0
 10
-73.5558
 20
-22.8854
 30
0.0
 10
-75.9098
 20
-21.0985
 30
0.0
 10
-78.4418
 20
-21.1306
 30
0.0
 10
-78.4418
 20
-21.1306
 30
0.0
 10
-80.9738
 20
-21.0985
 30
0.0
 10
-83.3277
 20
-22.8854
 30
0.0
 10
-84.9399
 20
-26.1703
 30
0.0
 10
-84.9399
 20
-26.1703
 30
0.0
 10
-82.3608
 20
-27.0246
 30
0.0
 10
-79.2431
 20
-29.902
 30
0.0
 10
-78.4418
 20
-32.4852
 30
0.0
 10
-78.4418
 20
-32.4852
 30
0.0
 10
-77.6405
 20
-29.902
 30
0.0
 10
-74.5227
 20
-27.0246
 30
0.0
 10
-71.9436
 20
-26.1703
 30
0.0
  0
SPLINE
  5
C9
330
1F
100
AcDbEntity
  8
layer 1
 62
     7
100
AcDbSpline
210
0.0
220
0.0
230
1.0
 70
    11
 71
     3
 72
    20
 73
    16
 74
     0
 42
0.0000000001
 43
0.0000000001
 12
1.0
 22
0.0
 32
0.0
 13
1.0
 23
0.0
 33
0.0
 40
0.0
 40
0.0
 40
0.0
 40
0.0
 40
0.2
 40
0.2
 40
0.2
 40
0.2
 40
0.4
 40
0.4
 40
0.4
 40
0.4
 40
0.6
 40
0.6
 40
0.6
 40
0.6
 40
1.0
 40
1.0
 40
1.0
 40
1.0
 10
-84.915
 20
-10.6217
 30
0.0
 10
-83.3027
 20
-13.9065
 30
0.0
 10
-80.9488
 20
-15.6934
 30
0.0
 10
-78.4168
 20
-15.6613
 30
0.0
 10
-78.4168
 20
-15.6613
 30
0.0
 10
-75.8848
 20
-15.6934
 30
0.0
 10
-73.5309
 20
-13.9065
 30
0.0
 10
-71.9186
 20
-10.6217
 30
0.0
 10
-71.9186
 20
-10.6217
 30
0.0
 10
-74.4978
 20
-9.7674
 30
0.0
 10
-77.6155
 20
-6.89
 30
0.0
 10
-78.4168
 20
-4.3067
 30
0.0
 10
-78.4168
 20
-4.3067
 30
0.0
 10
-79.2181
 20
-6.89
 30
0.0
 10
-82.3358
 20
-9.7674
 30
0.0
 10
-84.915
 20
-10.6217
 30
0.0
  0
SPLINE
  5
CA
330
1F
100
AcDbEntity
  8
layer 1
 62
     7
100
AcDbSpline
210
0.0
220
0.0
230
1.0
 70
    11
 71
     3
 72
    20
 73
    16
 74
     0
 42
0.0000000001
 43
0.0000000001
 12
1.0
 22
0.0
 32
0.0
 13
1.0
 23
0.0
 33
0.0
 40
0.0
 40
0.0
 40
0.0
 40
0.0
 40
0.2
 40
0.2
 40
0.2
 40
0.2
 40
0.4
 40
0.4
 40
0.4
 40
0.4
 40
0.6
 40
0.6
 40
0.6
 40
0.6
 40
1.0
 40
1.0
 40
1.0
 40
1.0
 10
-165.838
 20
-26.1703
 30
0.0
 10
-167.4503
 20
-22.8854
 30
0.0
 10
-169.8042
 20
-21.0985
 30
0.0
 10
-172.3362
 20
-21.1306
 30
0.0
 10
-172.3362
 20
-21.1306
 30
0.0
 10
-174.8682
 20
-21.0985
 30
0.0
 10
-177.2221
 20
-22.8854
 30
0.0
 10
-178.8344
 20
-26.1703
 30
0.0
 10
-178.8344
 20
-26.1703
 30
0.0
 10
-176.2552
 20
-27.0246
 30
0.0
 10
-173.1375
 20
-29.902
 30
0.0
 10
-172.3362
 20
-32.4852
 30
0.0
 10
-172.3362
 20
-32.4852
 30
0.0
 10
-171.5349
 20
-29.902
 30
0.0
 10
-168.4171
 20
-27.0246
 30
0.0
 10
-165.838
 20
-26.1703
 30
0.0
  0
SPLINE
  5
CB
330
1F
100
AcDbEntity
  8
layer 1
 62
     7
100
AcDbSpline
210
0.0
220
0.0
230
1.0
 70
    11
 71
     3
 72
    20
 73
    16
 74
     0
 42
0.0000000001
 43
0.0000000001
 12
1.0
 22
0.0
 32
0.0
 13
1.0
 23
0.0
 33
0.0
 40
0.0
 40
0.0
 40
0.0
 40
0.0
 40
0.2
 40
0.2
 40
0.2
 40
0.2
 40
0.4
 40
0.4
 40
0.4
 40
0.4
 40
0.6
 40
0.6
 40
0.6
 40
0.6
 40
1.0
 40
1.0
 40
1.0
 40
1.0
 10
-165.838
 20
-26.1703
 30
0.0
 10
-167.4503
 20
-22.8854
 30
0.0
 10
-169.8042
 20
-21.0985
 30
0.0
 10
-172.3362
 20
-21.1306
 30
0.0
 10
-172.3362
 20
-21.1306
 30
0.0
 10
-174.8682
 20
-21.0985
 30
0.0
 10
-177.2221
 20
-22.8854
 30
0.0
 10
-178.8344
 20
-26.1703
 30
0.0
 10
-178.8344
 20
-26.1703
 30
0.0
 10
-176.2552
 20
-27.0246
 30
0.0
 10
-173.1375
 20
-29.902
 30
0.0
 10
-172.3362
 20
-32.4852
 30
0.0
 10
-172.3362
 20
-32.4852
 30
0.0
 10
-171.5349
 20
-29.902
 30
0.0
 10
-168.4171
 20
-27.0246
 30
0.0
 10
-165.838
 20
-26.1703
 30
0.0
  0
SPLINE
  5
CC
330
1F
100
AcDbEntity
  8
layer 1
 62
     7
100
AcDbSpline
210
0.0
220
0.0
230
1.0
 70
    11
 71
     3
 72
    20
 73
    16
 74
     0
 42
0.0000000001
 43
0.0000000001
 12
1.0
 22
0.0
 32
0.0
 13
1.0
 23
0.0
 33
0.0
 40
0.0
 40
0.0
 40
0.0
 40
0.0
 40
0.2
 40
0.2
 40
0.2
 40
0.2
 40
0.4
 40
0.4
 40
0.4
 40
0.4
 40
0.6
 40
0.6
 40
0.6
 40
0.6
 40
1.0
 40
1.0
 40
1.0
 40
1.0
 10
-163.601
 20
-25.4982
 30
0.0
 10
-160.3818
 20
-23.965
 30
0.0
 10
-159.0213
 20
-21.1636
 30
0.0
 10
-159.0187
 20
-18.396
 30
0.0
 10
-159.0187
 20
-18.396
 30
0.0
 10
-159.0215
 20
-15.6284
 30
0.0
 10
-160.3818
 20
-12.827
 30
0.0
 10
-163.601
 20
-11.2938
 30
0.0
 10
-163.601
 20
-11.2938
 30
0.0
 10
-164.4411
 20
-14.7627
 30
0.0
 10
-167.4569
 20
-17.9276
 30
0.0
 10
-169.7279
 20
-18.396
 30
0.0
 10
-169.7279
 20
-18.396
 30
0.0
 10
-167.4571
 20
-18.8646
 30
0.0
 10
-164.4413
 20
-22.0292
 30
0.0
 10
-163.601
 20
-25.4982
 30
0.0
  0
SPLINE
  5
CD
330
1F
100
AcDbEntity
  8
layer 1
 62
     7
100
AcDbSpline
210
0.0
220
0.0
230
1.0
 70
    11
 71
     3
 72
    20
 73
    16
 74
     0
 42
0.0000000001
 43
0.0000000001
 12
1.0
 22
0.0
 32
0.0
 13
1.0
 23
0.0
 33
0.0
 40
0.0
 40
0.0
 40
0.0
 40
0.0
 40
0.2
 40
0.2
 40
0.2
 40
0.2
 40
0.4
 40
0.4
 40
0.4
 40
0.4
 40
0.6
 40
0.6
 40
0.6
 40
0.6
 40
1.0
 40
1.0
 40
1.0
 40
1.0
 10
-178.8094
 20
-10.6217
 30
0.0
 10
-177.1971
 20
-13.9065
 30
0.0
 10
-174.8432
 20
-15.6934
 30
0.0
 10
-172.3112
 20
-15.6613
 30
0.0
 10
-172.3112
 20
-15.6613
 30
0.0
 10
-169.7792
 20
-15.6934
 30
0.0
 10
-167.4253
 20
-13.9065
 30
0.0
 10
-165.813
 20
-10.6217
 30
0.0
 10
-165.813
 20
-10.6217
 30
0.0
 10
-168.3922
 20
-9.7674
 30
0.0
 10
-171.5099
 20
-6.89
 30
0.0
 10
-172.3112
 20
-4.3067
 30
0.0
 10
-172.3112
 20
-4.3067
 30
0.0
 10
-173.1125
 20
-6.89
 30
0.0
 10
-176.2302
 20
-9.7674
 30
0.0
 10
-178.8094
 20
-10.6217
 30
0.0
  0
SPLINE
  5
CE
330
1F
100
AcDbEntity
  8
layer 1
 62
     7
100
AcDbSpline
210
0.0
220
0.0
230
1.0
 70
    11
 71
     3
 72
    20
 73
    16
 74
     0
 42
0.0000000001
 43
0.0000000001
 12
1.0
 22
0.0
 32
0.0
 13
1.0
 23
0.0
 33
0.0
 40
0.0
 40
0.0
 40
0.0
 40
0.0
 40
0.2
 40
0.2
 40
0.2
 40
0.2
 40
0.4
 40
0.4
 40
0.4
 40
0.4
 40
0.6
 40
0.6
 40
0.6
 40
0.6
 40
1.0
 40
1.0
 40
1.0
 40
1.0
 10
-134.4042
 20
6.7769
 30
0.0
 10
-137.6233
 20
5.2437
 30
0.0
 10
-138.9839
 20
2.4423
 30
0.0
 10
-138.9865
 20
-0.3253
 30
0.0
 10
-138.9865
 20
-0.3253
 30
0.0
 10
-138.9839
 20
-3.0929
 30
0.0
 10
-137.6233
 20
-5.8943
 30
0.0
 10
-134.4042
 20
-7.4275
 30
0.0
 10
-134.4042
 20
-7.4275
 30
0.0
 10
-133.5641
 20
-3.9585
 30
0.0
 10
-130.5483
 20
-0.7936
 30
0.0
 10
-128.2772
 20
-0.3253
 30
0.0
 10
-128.2772
 20
-0.3253
 30
0.0
 10
-130.548
 20
0.1433
 30
0.0
 10
-133.5639
 20
3.308
 30
0.0
 10
-134.4042
 20
6.7769
 30
0.0
  0
SPLINE
  5
CF
330
1F
100
AcDbEntity
  8
layer 1
 62
     7
100
AcDbSpline
210
0.0
220
0.0
230
1.0
 70
    11
 71
     3
 72
    20
 73
    16
 74
     0
 42
0.0000000001
 43
0.0000000001
 12
1.0
 22
0.0
 32
0.0
 13
1.0
 23
0.0
 33
0.0
 40
0.0
 40
0.0
 40
0.0
 40
0.0
 40
0.2
 40
0.2
 40
0.2
 40
0.2
 40
0.4
 40
0.4
 40
0.4
 40
0.4
 40
0.6
 40
0.6
 40
0.6
 40
0.6
 40
1.0
 40
1.0
 40
1.0
 40
1.0
 10
-119.196
 20
-8.0996
 30
0.0
 10
-120.8083
 20
-4.8147
 30
0.0
 10
-123.1622
 20
-3.0278
 30
0.0
 10
-125.6942
 20
-3.0599
 30
0.0
 10
-125.6942
 20
-3.0599
 30
0.0
 10
-128.2262
 20
-3.0278
 30
0.0
 10
-130.5801
 20
-4.8147
 30
0.0
 10
-132.1924
 20
-8.0996
 30
0.0
 10
-132.1924
 20
-8.0996
 30
0.0
 10
-129.6132
 20
-8.9538
 30
0.0
 10
-126.4955
 20
-11.8313
 30
0.0
 10
-125.6942
 20
-14.4145
 30
0.0
 10
-125.6942
 20
-14.4145
 30
0.0
 10
-124.8929
 20
-11.8313
 30
0.0
 10
-121.7752
 20
-8.9538
 30
0.0
 10
-119.196
 20
-8.0996
 30
0.0
  0
SPLINE
  5
D0
330
1F
100
AcDbEntity
  8
layer 1
 62
     7
100
AcDbSpline
210
0.0
220
0.0
230
1.0
 70
    11
 71
     3
 72
    20
 73
    16
 74
     0
 42
0.0000000001
 43
0.0000000001
 12
1.0
 22
0.0
 32
0.0
 13
1.0
 23
0.0
 33
0.0
 40
0.0
 40
0.0
 40
0.0
 40
0.0
 40
0.2
 40
0.2
 40
0.2
 40
0.2
 40
0.4
 40
0.4
 40
0.4
 40
0.4
 40
0.6
 40
0.6
 40
0.6
 40
0.6
 40
1.0
 40
1.0
 40
1.0
 40
1.0
 10
-134.4042
 20
6.7769
 30
0.0
 10
-137.6233
 20
5.2437
 30
0.0
 10
-138.9839
 20
2.4423
 30
0.0
 10
-138.9865
 20
-0.3253
 30
0.0
 10
-138.9865
 20
-0.3253
 30
0.0
 10
-138.9839
 20
-3.0929
 30
0.0
 10
-137.6233
 20
-5.8943
 30
0.0
 10
-134.4042
 20
-7.4275
 30
0.0
 10
-134.4042
 20
-7.4275
 30
0.0
 10
-133.5641
 20
-3.9585
 30
0.0
 10
-130.5483
 20
-0.7936
 30
0.0
 10
-128.2772
 20
-0.3253
 30
0.0
 10
-128.2772
 20
-0.3253
 30
0.0
 10
-130.548
 20
0.1433
 30
0.0
 10
-133.5639
 20
3.308
 30
0.0
 10
-134.4042
 20
6.7769
 30
0.0
  0
SPLINE
  5
D1
330
1F
100
AcDbEntity
  8
layer 1
 62
     7
100
AcDbSpline
210
0.0
220
0.0
230
1.0
 70
    11
 71
     3
 72
    20
 73
    16
 74
     0
 42
0.0000000001
 43
0.0000000001
 12
1.0
 22
0.0
 32
0.0
 13
1.0
 23
0.0
 33
0.0
 40
0.0
 40
0.0
 40
0.0
 40
0.0
 40
0.2
 40
0.2
 40
0.2
 40
0.2
 40
0.4
 40
0.4
 40
0.4
 40
0.4
 40
0.6
 40
0.6
 40
0.6
 40
0.6
 40
1.0
 40
1.0
 40
1.0
 40
1.0
 10
-119.196
 20
-8.0996
 30
0.0
 10
-120.8083
 20
-4.8147
 30
0.0
 10
-123.1622
 20
-3.0278
 30
0.0
 10
-125.6942
 20
-3.0599
 30
0.0
 10
-125.6942
 20
-3.0599
 30
0.0
 10
-128.2262
 20
-3.0278
 30
0.0
 10
-130.5801
 20
-4.8147
 30
0.0
 10
-132.1924
 20
-8.0996
 30
0.0
 10
-132.1924
 20
-8.0996
 30
0.0
 10
-129.6132
 20
-8.9538
 30
0.0
 10
-126.4955
 20
-11.8313
 30
0.0
 10
-125.6942
 20
-14.4145
 30
0.0
 10
-125.6942
 20
-14.4145
 30
0.0
 10
-124.8929
 20
-11.8313
 30
0.0
 10
-121.7752
 20
-8.9538
 30
0.0
 10
-119.196
 20
-8.0996
 30
0.0
  0
SPLINE
  5
D2
330
1F
100
AcDbEntity
  8
layer 1
 62
     7
100
AcDbSpline
210
0.0
220
0.0
230
1.0
 70
    11
 71
     3
 72
    20
 73
    16
 74
     0
 42
0.0000000001
 43
0.0000000001
 12
1.0
 22
0.0
 32
0.0
 13
1.0
 23
0.0
 33
0.0
 40
0.0
 40
0.0
 40
0.0
 40
0.0
 40
0.2
 40
0.2
 40
0.2
 40
0.2
 40
0.4
 40
0.4
 40
0.4
 40
0.4
 40
0.6
 40
0.6
 40
0.6
 40
0.6
 40
1.0
 40
1.0
 40
1.0
 40
1.0
 10
-116.959
 20
-7.4275
 30
0.0
 10
-113.7399
 20
-5.8943
 30
0.0
 10
-112.3794
 20
-3.0929
 30
0.0
 10
-112.3768
 20
-0.3253
 30
0.0
 10
-112.3768
 20
-0.3253
 30
0.0
 10
-112.3796
 20
2.4423
 30
0.0
 10
-113.7399
 20
5.2437
 30
0.0
 10
-116.959
 20
6.7769
 30
0.0
 10
-116.959
 20
6.7769
 30
0.0
 10
-117.7991
 20
3.308
 30
0.0
 10
-120.815
 20
0.1431
 30
0.0
 10
-123.086
 20
-0.3253
 30
0.0
 10
-123.086
 20
-0.3253
 30
0.0
 10
-120.8152
 20
-0.7939
 30
0.0
 10
-117.7993
 20
-3.9585
 30
0.0
 10
-116.959
 20
-7.4275
 30
0.0
  0
SPLINE
  5
D3
330
1F
100
AcDbEntity
  8
layer 1
 62
     7
100
AcDbSpline
210
0.0
220
0.0
230
1.0
 70
    11
 71
     3
 72
    20
 73
    16
 74
     0
 42
0.0000000001
 43
0.0000000001
 12
1.0
 22
0.0
 32
0.0
 13
1.0
 23
0.0
 33
0.0
 40
0.0
 40
0.0
 40
0.0
 40
0.0
 40
0.2
 40
0.2
 40
0.2
 40
0.2
 40
0.4
 40
0.4
 40
0.4
 40
0.4
 40
0.6
 40
0.6
 40
0.6
 40
0.6
 40
1.0
 40
1.0
 40
1.0
 40
1.0
 10
-132.1674
 20
7.449
 30
0.0
 10
-130.5551
 20
4.1642
 30
0.0
 10
-128.2012
 20
2.3773
 30
0.0
 10
-125.6692
 20
2.4094
 30
0.0
 10
-125.6692
 20
2.4094
 30
0.0
 10
-123.1372
 20
2.3773
 30
0.0
 10
-120.7833
 20
4.1642
 30
0.0
 10
-119.171
 20
7.449
 30
0.0
 10
-119.171
 20
7.449
 30
0.0
 10
-121.7502
 20
8.3033
 30
0.0
 10
-124.8679
 20
11.1807
 30
0.0
 10
-125.6692
 20
13.764
 30
0.0
 10
-125.6692
 20
13.764
 30
0.0
 10
-126.4705
 20
11.1807
 30
0.0
 10
-129.5883
 20
8.3033
 30
0.0
 10
-132.1674
 20
7.449
 30
0.0
  0
SPLINE
  5
D4
330
1F
100
AcDbEntity
  8
layer 1
 62
     7
100
AcDbSpline
210
0.0
220
0.0
230
1.0
 70
    11
 71
     3
 72
    20
 73
    16
 74
     0
 42
0.0000000001
 43
0.0000000001
 12
1.0
 22
0.0
 32
0.0
 13
1.0
 23
0.0
 33
0.0
 40
0.0
 40
0.0
 40
0.0
 40
0.0
 40
0.2
 40
0.2
 40
0.2
 40
0.2
 40
0.4
 40
0.4
 40
0.4
 40
0.4
 40
0.6
 40
0.6
 40
0.6
 40
0.6
 40
1.0
 40
1.0
 40
1.0
 40
1.0
 10
-103.0246
 20
6.7769
 30
0.0
 10
-106.2438
 20
5.2437
 30
0.0
 10
-107.6043
 20
2.4423
 30
0.0
 10
-107.6069
 20
-0.3253
 30
0.0
 10
-107.6069
 20
-0.3253
 30
0.0
 10
-107.6043
 20
-3.0929
 30
0.0
 10
-106.2438
 20
-5.8943
 30
0.0
 10
-103.0246
 20
-7.4275
 30
0.0
 10
-103.0246
 20
-7.4275
 30
0.0
 10
-102.1846
 20
-3.9585
 30
0.0
 10
-99.1687
 20
-0.7936
 30
0.0
 10
-96.8977
 20
-0.3253
 30
0.0
 10
-96.8977
 20
-0.3253
 30
0.0
 10
-99.1685
 20
0.1433
 30
0.0
 10
-102.1844
 20
3.308
 30
0.0
 10
-103.0246
 20
6.7769
 30
0.0
  0
SPLINE
  5
D5
330
1F
100
AcDbEntity
  8
layer 1
 62
     7
100
AcDbSpline
210
0.0
220
0.0
230
1.0
 70
    11
 71
     3
 72
    20
 73
    16
 74
     0
 42
0.0000000001
 43
0.0000000001
 12
1.0
 22
0.0
 32
0.0
 13
1.0
 23
0.0
 33
0.0
 40
0.0
 40
0.0
 40
0.0
 40
0.0
 40
0.2
 40
0.2
 40
0.2
 40
0.2
 40
0.4
 40
0.4
 40
0.4
 40
0.4
 40
0.6
 40
0.6
 40
0.6
 40
0.6
 40
1.0
 40
1.0
 40
1.0
 40
1.0
 10
-87.8165
 20
-8.0996
 30
0.0
 10
-89.4288
 20
-4.8147
 30
0.0
 10
-91.7827
 20
-3.0278
 30
0.0
 10
-94.3147
 20
-3.0599
 30
0.0
 10
-94.3147
 20
-3.0599
 30
0.0
 10
-96.8467
 20
-3.0278
 30
0.0
 10
-99.2006
 20
-4.8147
 30
0.0
 10
-100.8129
 20
-8.0996
 30
0.0
 10
-100.8129
 20
-8.0996
 30
0.0
 10
-98.2337
 20
-8.9538
 30
0.0
 10
-95.116
 20
-11.8313
 30
0.0
 10
-94.3147
 20
-14.4145
 30
0.0
 10
-94.3147
 20
-14.4145
 30
0.0
 10
-93.5134
 20
-11.8313
 30
0.0
 10
-90.3957
 20
-8.9538
 30
0.0
 10
-87.8165
 20
-8.0996
 30
0.0
  0
SPLINE
  5
D6
330
1F
100
AcDbEntity
  8
layer 1
 62
     7
100
AcDbSpline
210
0.0
220
0.0
230
1.0
 70
    11
 71
     3
 72
    20
 73
    16
 74
     0
 42
0.0000000001
 43
0.0000000001
 12
1.0
 22
0.0
 32
0.0
 13
1.0
 23
0.0
 33
0.0
 40
0.0
 40
0.0
 40
0.0
 40
0.0
 40
0.2
 40
0.2
 40
0.2
 40
0.2
 40
0.4
 40
0.4
 40
0.4
 40
0.4
 40
0.6
 40
0.6
 40
0.6
 40
0.6
 40
1.0
 40
1.0
 40
1.0
 40
1.0
 10
-103.0246
 20
6.7769
 30
0.0
 10
-106.2438
 20
5.2437
 30
0.0
 10
-107.6043
 20
2.4423
 30
0.0
 10
-107.6069
 20
-0.3253
 30
0.0
 10
-107.6069
 20
-0.3253
 30
0.0
 10
-107.6043
 20
-3.0929
 30
0.0
 10
-106.2438
 20
-5.8943
 30
0.0
 10
-103.0246
 20
-7.4275
 30
0.0
 10
-103.0246
 20
-7.4275
 30
0.0
 10
-102.1846
 20
-3.9585
 30
0.0
 10
-99.1687
 20
-0.7936
 30
0.0
 10
-96.8977
 20
-0.3253
 30
0.0
 10
-96.8977
 20
-0.3253
 30
0.0
 10
-99.1685
 20
0.1433
 30
0.0
 10
-102.1844
 20
3.308
 30
0.0
 10
-103.0246
 20
6.7769
 30
0.0
  0
SPLINE
  5
D7
330
1F
100
AcDbEntity
  8
layer 1
 62
     7
100
AcDbSpline
210
0.0
220
0.0
230
1.0
 70
    11
 71
     3
 72
    20
 73
    16
 74
     0
 42
0.0000000001
 43
0.0000000001
 12
1.0
 22
0.0
 32
0.0
 13
1.0
 23
0.0
 33
0.0
 40
0.0
 40
0.0
 40
0.0
 40
0.0
 40
0.2
 40
0.2
 40
0.2
 40
0.2
 40
0.4
 40
0.4
 40
0.4
 40
0.4
 40
0.6
 40
0.6
 40
0.6
 40
0.6
 40
1.0
 40
1.0
 40
1.0
 40
1.0
 10
-87.8165
 20
-8.0996
 30
0.0
 10
-89.4288
 20
-4.8147
 30
0.0
 10
-91.7827
 20
-3.0278
 30
0.0
 10
-94.3147
 20
-3.0599
 30
0.0
 10
-94.3147
 20
-3.0599
 30
0.0
 10
-96.8467
 20
-3.0278
 30
0.0
 10
-99.2006
 20
-4.8147
 30
0.0
 10
-100.8129
 20
-8.0996
 30
0.0
 10
-100.8129
 20
-8.0996
 30
0.0
 10
-98.2337
 20
-8.9538
 30
0.0
 10
-95.116
 20
-11.8313
 30
0.0
 10
-94.3147
 20
-14.4145
 30
0.0
 10
-94.3147
 20
-14.4145
 30
0.0
 10
-93.5134
 20
-11.8313
 30
0.0
 10
-90.3957
 20
-8.9538
 30
0.0
 10
-87.8165
 20
-8.0996
 30
0.0
  0
SPLINE
  5
D8
330
1F
100
AcDbEntity
  8
layer 1
 62
     7
100
AcDbSpline
210
0.0
220
0.0
230
1.0
 70
    11
 71
     3
 72
    20
 73
    16
 74
     0
 42
0.0000000001
 43
0.0000000001
 12
1.0
 22
0.0
 32
0.0
 13
1.0
 23
0.0
 33
0.0
 40
0.0
 40
0.0
 40
0.0
 40
0.0
 40
0.2
 40
0.2
 40
0.2
 40
0.2
 40
0.4
 40
0.4
 40
0.4
 40
0.4
 40
0.6
 40
0.6
 40
0.6
 40
0.6
 40
1.0
 40
1.0
 40
1.0
 40
1.0
 10
-85.5795
 20
-7.4275
 30
0.0
 10
-82.3604
 20
-5.8943
 30
0.0
 10
-80.9998
 20
-3.0929
 30
0.0
 10
-80.9972
 20
-0.3253
 30
0.0
 10
-80.9972
 20
-0.3253
 30
0.0
 10
-81.0
 20
2.4423
 30
0.0
 10
-82.3604
 20
5.2437
 30
0.0
 10
-85.5795
 20
6.7769
 30
0.0
 10
-85.5795
 20
6.7769
 30
0.0
 10
-86.4196
 20
3.308
 30
0.0
 10
-89.4354
 20
0.1431
 30
0.0
 10
-91.7064
 20
-0.3253
 30
0.0
 10
-91.7064
 20
-0.3253
 30
0.0
 10
-89.4357
 20
-0.7939
 30
0.0
 10
-86.4198
 20
-3.9585
 30
0.0
 10
-85.5795
 20
-7.4275
 30
0.0
  0
SPLINE
  5
D9
330
1F
100
AcDbEntity
  8
layer 1
 62
     7
100
AcDbSpline
210
0.0
220
0.0
230
1.0
 70
    11
 71
     3
 72
    20
 73
    16
 74
     0
 42
0.0000000001
 43
0.0000000001
 12
1.0
 22
0.0
 32
0.0
 13
1.0
 23
0.0
 33
0.0
 40
0.0
 40
0.0
 40
0.0
 40
0.0
 40
0.2
 40
0.2
 40
0.2
 40
0.2
 40
0.4
 40
0.4
 40
0.4
 40
0.4
 40
0.6
 40
0.6
 40
0.6
 40
0.6
 40
1.0
 40
1.0
 40
1.0
 40
1.0
 10
-100.7879
 20
7.449
 30
0.0
 10
-99.1756
 20
4.1642
 30
0.0
 10
-96.8217
 20
2.3773
 30
0.0
 10
-94.2897
 20
2.4094
 30
0.0
 10
-94.2897
 20
2.4094
 30
0.0
 10
-91.7577
 20
2.3773
 30
0.0
 10
-89.4038
 20
4.1642
 30
0.0
 10
-87.7915
 20
7.449
 30
0.0
 10
-87.7915
 20
7.449
 30
0.0
 10
-90.3707
 20
8.3033
 30
0.0
 10
-93.4884
 20
11.1807
 30
0.0
 10
-94.2897
 20
13.764
 30
0.0
 10
-94.2897
 20
13.764
 30
0.0
 10
-95.091
 20
11.1807
 30
0.0
 10
-98.2087
 20
8.3033
 30
0.0
 10
-100.7879
 20
7.449
 30
0.0
  0
SPLINE
  5
DA
330
1F
100
AcDbEntity
  8
layer 1
 62
     7
100
AcDbSpline
210
0.0
220
0.0
230
1.0
 70
    11
 71
     3
 72
    20
 73
    16
 74
     0
 42
0.0000000001
 43
0.0000000001
 12
1.0
 22
0.0
 32
0.0
 13
1.0
 23
0.0
 33
0.0
 40
0.0
 40
0.0
 40
0.0
 40
0.0
 40
0.2
 40
0.2
 40
0.2
 40
0.2
 40
0.4
 40
0.4
 40
0.4
 40
0.4
 40
0.6
 40
0.6
 40
0.6
 40
0.6
 40
1.0
 40
1.0
 40
1.0
 40
1.0
 10
-165.7837
 20
6.7769
 30
0.0
 10
-169.0029
 20
5.2437
 30
0.0
 10
-170.3634
 20
2.4423
 30
0.0
 10
-170.366
 20
-0.3253
 30
0.0
 10
-170.366
 20
-0.3253
 30
0.0
 10
-170.3634
 20
-3.0929
 30
0.0
 10
-169.0029
 20
-5.8943
 30
0.0
 10
-165.7837
 20
-7.4275
 30
0.0
 10
-165.7837
 20
-7.4275
 30
0.0
 10
-164.9437
 20
-3.9585
 30
0.0
 10
-161.9278
 20
-0.7936
 30
0.0
 10
-159.6568
 20
-0.3253
 30
0.0
 10
-159.6568
 20
-0.3253
 30
0.0
 10
-161.9276
 20
0.1433
 30
0.0
 10
-164.9434
 20
3.308
 30
0.0
 10
-165.7837
 20
6.7769
 30
0.0
  0
SPLINE
  5
DB
330
1F
100
AcDbEntity
  8
layer 1
 62
     7
100
AcDbSpline
210
0.0
220
0.0
230
1.0
 70
    11
 71
     3
 72
    20
 73
    16
 74
     0
 42
0.0000000001
 43
0.0000000001
 12
1.0
 22
0.0
 32
0.0
 13
1.0
 23
0.0
 33
0.0
 40
0.0
 40
0.0
 40
0.0
 40
0.0
 40
0.2
 40
0.2
 40
0.2
 40
0.2
 40
0.4
 40
0.4
 40
0.4
 40
0.4
 40
0.6
 40
0.6
 40
0.6
 40
0.6
 40
1.0
 40
1.0
 40
1.0
 40
1.0
 10
-150.5756
 20
-8.0996
 30
0.0
 10
-152.1878
 20
-4.8147
 30
0.0
 10
-154.5417
 20
-3.0278
 30
0.0
 10
-157.0737
 20
-3.0599
 30
0.0
 10
-157.0737
 20
-3.0599
 30
0.0
 10
-159.6057
 20
-3.0278
 30
0.0
 10
-161.9597
 20
-4.8147
 30
0.0
 10
-163.5719
 20
-8.0996
 30
0.0
 10
-163.5719
 20
-8.0996
 30
0.0
 10
-160.9928
 20
-8.9538
 30
0.0
 10
-157.875
 20
-11.8313
 30
0.0
 10
-157.0737
 20
-14.4145
 30
0.0
 10
-157.0737
 20
-14.4145
 30
0.0
 10
-156.2725
 20
-11.8313
 30
0.0
 10
-153.1547
 20
-8.9538
 30
0.0
 10
-150.5756
 20
-8.0996
 30
0.0
  0
SPLINE
  5
DC
330
1F
100
AcDbEntity
  8
layer 1
 62
     7
100
AcDbSpline
210
0.0
220
0.0
230
1.0
 70
    11
 71
     3
 72
    20
 73
    16
 74
     0
 42
0.0000000001
 43
0.0000000001
 12
1.0
 22
0.0
 32
0.0
 13
1.0
 23
0.0
 33
0.0
 40
0.0
 40
0.0
 40
0.0
 40
0.0
 40
0.2
 40
0.2
 40
0.2
 40
0.2
 40
0.4
 40
0.4
 40
0.4
 40
0.4
 40
0.6
 40
0.6
 40
0.6
 40
0.6
 40
1.0
 40
1.0
 40
1.0
 40
1.0
 10
-165.7837
 20
6.7769
 30
0.0
 10
-169.0029
 20
5.2437
 30
0.0
 10
-170.3634
 20
2.4423
 30
0.0
 10
-170.366
 20
-0.3253
 30
0.0
 10
-170.366
 20
-0.3253
 30
0.0
 10
-170.3634
 20
-3.0929
 30
0.0
 10
-169.0029
 20
-5.8943
 30
0.0
 10
-165.7837
 20
-7.4275
 30
0.0
 10
-165.7837
 20
-7.4275
 30
0.0
 10
-164.9437
 20
-3.9585
 30
0.0
 10
-161.9278
 20
-0.7936
 30
0.0
 10
-159.6568
 20
-0.3253
 30
0.0
 10
-159.6568
 20
-0.3253
 30
0.0
 10
-161.9276
 20
0.1433
 30
0.0
 10
-164.9434
 20
3.308
 30
0.0
 10
-165.7837
 20
6.7769
 30
0.0
  0
SPLINE
  5
DD
330
1F
100
AcDbEntity
  8
layer 1
 62
     7
100
AcDbSpline
210
0.0
220
0.0
230
1.0
 70
    11
 71
     3
 72
    20
 73
    16
 74
     0
 42
0.0000000001
 43
0.0000000001
 12
1.0
 22
0.0
 32
0.0
 13
1.0
 23
0.0
 33
0.0
 40
0.0
 40
0.0
 40
0.0
 40
0.0
 40
0.2
 40
0.2
 40
0.2
 40
0.2
 40
0.4
 40
0.4
 40
0.4
 40
0.4
 40
0.6
 40
0.6
 40
0.6
 40
0.6
 40
1.0
 40
1.0
 40
1.0
 40
1.0
 10
-150.5756
 20
-8.0996
 30
0.0
 10
-152.1878
 20
-4.8147
 30
0.0
 10
-154.5417
 20
-3.0278
 30
0.0
 10
-157.0737
 20
-3.0599
 30
0.0
 10
-157.0737
 20
-3.0599
 30
0.0
 10
-159.6057
 20
-3.0278
 30
0.0
 10
-161.9597
 20
-4.8147
 30
0.0
 10
-163.5719
 20
-8.0996
 30
0.0
 10
-163.5719
 20
-8.0996
 30
0.0
 10
-160.9928
 20
-8.9538
 30
0.0
 10
-157.875
 20
-11.8313
 30
0.0
 10
-157.0737
 20
-14.4145
 30
0.0
 10
-157.0737
 20
-14.4145
 30
0.0
 10
-156.2725
 20
-11.8313
 30
0.0
 10
-153.1547
 20
-8.9538
 30
0.0
 10
-150.5756
 20
-8.0996
 30
0.0
  0
SPLINE
  5
DE
330
1F
100
AcDbEntity
  8
layer 1
 62
     7
100
AcDbSpline
210
0.0
220
0.0
230
1.0
 70
    11
 71
     3
 72
    20
 73
    16
 74
     0
 42
0.0000000001
 43
0.0000000001
 12
1.0
 22
0.0
 32
0.0
 13
1.0
 23
0.0
 33
0.0
 40
0.0
 40
0.0
 40
0.0
 40
0.0
 40
0.2
 40
0.2
 40
0.2
 40
0.2
 40
0.4
 40
0.4
 40
0.4
 40
0.4
 40
0.6
 40
0.6
 40
0.6
 40
0.6
 40
1.0
 40
1.0
 40
1.0
 40
1.0
 10
-148.3386
 20
-7.4275
 30
0.0
 10
-145.1194
 20
-5.8943
 30
0.0
 10
-143.7589
 20
-3.0929
 30
0.0
 10
-143.7563
 20
-0.3253
 30
0.0
 10
-143.7563
 20
-0.3253
 30
0.0
 10
-143.7591
 20
2.4423
 30
0.0
 10
-145.1194
 20
5.2437
 30
0.0
 10
-148.3386
 20
6.7769
 30
0.0
 10
-148.3386
 20
6.7769
 30
0.0
 10
-149.1786
 20
3.308
 30
0.0
 10
-152.1945
 20
0.1431
 30
0.0
 10
-154.4655
 20
-0.3253
 30
0.0
 10
-154.4655
 20
-0.3253
 30
0.0
 10
-152.1947
 20
-0.7939
 30
0.0
 10
-149.1788
 20
-3.9585
 30
0.0
 10
-148.3386
 20
-7.4275
 30
0.0
  0
SPLINE
  5
DF
330
1F
100
AcDbEntity
  8
layer 1
 62
     7
100
AcDbSpline
210
0.0
220
0.0
230
1.0
 70
    11
 71
     3
 72
    20
 73
    16
 74
     0
 42
0.0000000001
 43
0.0000000001
 12
1.0
 22
0.0
 32
0.0
 13
1.0
 23
0.0
 33
0.0
 40
0.0
 40
0.0
 40
0.0
 40
0.0
 40
0.2
 40
0.2
 40
0.2
 40
0.2
 40
0.4
 40
0.4
 40
0.4
 40
0.4
 40
0.6
 40
0.6
 40
0.6
 40
0.6
 40
1.0
 40
1.0
 40
1.0
 40
1.0
 10
-163.547
 20
7.449
 30
0.0
 10
-161.9347
 20
4.1642
 30
0.0
 10
-159.5808
 20
2.3773
 30
0.0
 10
-157.0488
 20
2.4094
 30
0.0
 10
-157.0488
 20
2.4094
 30
0.0
 10
-154.5168
 20
2.3773
 30
0.0
 10
-152.1629
 20
4.1642
 30
0.0
 10
-150.5506
 20
7.449
 30
0.0
 10
-150.5506
 20
7.449
 30
0.0
 10
-153.1297
 20
8.3033
 30
0.0
 10
-156.2475
 20
11.1807
 30
0.0
 10
-157.0488
 20
13.764
 30
0.0
 10
-157.0488
 20
13.764
 30
0.0
 10
-157.8501
 20
11.1807
 30
0.0
 10
-160.9678
 20
8.3033
 30
0.0
 10
-163.547
 20
7.449
 30
0.0
  0
SPLINE
  5
E0
330
1F
100
AcDbEntity
  8
layer 1
 62
     7
100
AcDbSpline
210
0.0
220
0.0
230
1.0
 70
    11
 71
     3
 72
    20
 73
    16
 74
     0
 42
0.0000000001
 43
0.0000000001
 12
1.0
 22
0.0
 32
0.0
 13
1.0
 23
0.0
 33
0.0
 40
0.0
 40
0.0
 40
0.0
 40
0.0
 40
0.2
 40
0.2
 40
0.2
 40
0.2
 40
0.4
 40
0.4
 40
0.4
 40
0.4
 40
0.6
 40
0.6
 40
0.6
 40
0.6
 40
1.0
 40
1.0
 40
1.0
 40
1.0
 10
-149.6666
 20
-47.3548
 30
0.0
 10
-152.8858
 20
-48.8881
 30
0.0
 10
-154.2463
 20
-51.6895
 30
0.0
 10
-154.2489
 20
-54.4571
 30
0.0
 10
-154.2489
 20
-54.4571
 30
0.0
 10
-154.2463
 20
-57.2247
 30
0.0
 10
-152.8858
 20
-60.026
 30
0.0
 10
-149.6666
 20
-61.5593
 30
0.0
 10
-149.6666
 20
-61.5593
 30
0.0
 10
-148.8265
 20
-58.0903
 30
0.0
 10
-145.8107
 20
-54.9254
 30
0.0
 10
-143.5397
 20
-54.4571
 30
0.0
 10
-143.5397
 20
-54.4571
 30
0.0
 10
-145.8105
 20
-53.9885
 30
0.0
 10
-148.8263
 20
-50.8238
 30
0.0
 10
-149.6666
 20
-47.3548
 30
0.0
  0
SPLINE
  5
E1
330
1F
100
AcDbEntity
  8
layer 1
 62
     7
100
AcDbSpline
210
0.0
220
0.0
230
1.0
 70
    11
 71
     3
 72
    20
 73
    16
 74
     0
 42
0.0000000001
 43
0.0000000001
 12
1.0
 22
0.0
 32
0.0
 13
1.0
 23
0.0
 33
0.0
 40
0.0
 40
0.0
 40
0.0
 40
0.0
 40
0.2
 40
0.2
 40
0.2
 40
0.2
 40
0.4
 40
0.4
 40
0.4
 40
0.4
 40
0.6
 40
0.6
 40
0.6
 40
0.6
 40
1.0
 40
1.0
 40
1.0
 40
1.0
 10
-134.4584
 20
-62.2314
 30
0.0
 10
-136.0707
 20
-58.9465
 30
0.0
 10
-138.4246
 20
-57.1596
 30
0.0
 10
-140.9566
 20
-57.1917
 30
0.0
 10
-140.9566
 20
-57.1917
 30
0.0
 10
-143.4886
 20
-57.1596
 30
0.0
 10
-145.8425
 20
-58.9465
 30
0.0
 10
-147.4548
 20
-62.2314
 30
0.0
 10
-147.4548
 20
-62.2314
 30
0.0
 10
-144.8757
 20
-63.0856
 30
0.0
 10
-141.7579
 20
-65.963
 30
0.0
 10
-140.9566
 20
-68.5463
 30
0.0
 10
-140.9566
 20
-68.5463
 30
0.0
 10
-140.1553
 20
-65.963
 30
0.0
 10
-137.0376
 20
-63.0856
 30
0.0
 10
-134.4584
 20
-62.2314
 30
0.0
  0
SPLINE
  5
E2
330
1F
100
AcDbEntity
  8
layer 1
 62
     7
100
AcDbSpline
210
0.0
220
0.0
230
1.0
 70
    11
 71
     3
 72
    20
 73
    16
 74
     0
 42
0.0000000001
 43
0.0000000001
 12
1.0
 22
0.0
 32
0.0
 13
1.0
 23
0.0
 33
0.0
 40
0.0
 40
0.0
 40
0.0
 40
0.0
 40
0.2
 40
0.2
 40
0.2
 40
0.2
 40
0.4
 40
0.4
 40
0.4
 40
0.4
 40
0.6
 40
0.6
 40
0.6
 40
0.6
 40
1.0
 40
1.0
 40
1.0
 40
1.0
 10
-149.6666
 20
-47.3548
 30
0.0
 10
-152.8858
 20
-48.8881
 30
0.0
 10
-154.2463
 20
-51.6895
 30
0.0
 10
-154.2489
 20
-54.4571
 30
0.0
 10
-154.2489
 20
-54.4571
 30
0.0
 10
-154.2463
 20
-57.2247
 30
0.0
 10
-152.8858
 20
-60.026
 30
0.0
 10
-149.6666
 20
-61.5593
 30
0.0
 10
-149.6666
 20
-61.5593
 30
0.0
 10
-148.8265
 20
-58.0903
 30
0.0
 10
-145.8107
 20
-54.9254
 30
0.0
 10
-143.5397
 20
-54.4571
 30
0.0
 10
-143.5397
 20
-54.4571
 30
0.0
 10
-145.8105
 20
-53.9885
 30
0.0
 10
-148.8263
 20
-50.8238
 30
0.0
 10
-149.6666
 20
-47.3548
 30
0.0
  0
SPLINE
  5
E3
330
1F
100
AcDbEntity
  8
layer 1
 62
     7
100
AcDbSpline
210
0.0
220
0.0
230
1.0
 70
    11
 71
     3
 72
    20
 73
    16
 74
     0
 42
0.0000000001
 43
0.0000000001
 12
1.0
 22
0.0
 32
0.0
 13
1.0
 23
0.0
 33
0.0
 40
0.0
 40
0.0
 40
0.0
 40
0.0
 40
0.2
 40
0.2
 40
0.2
 40
0.2
 40
0.4
 40
0.4
 40
0.4
 40
0.4
 40
0.6
 40
0.6
 40
0.6
 40
0.6
 40
1.0
 40
1.0
 40
1.0
 40
1.0
 10
-134.4584
 20
-62.2314
 30
0.0
 10
-136.0707
 20
-58.9465
 30
0.0
 10
-138.4246
 20
-57.1596
 30
0.0
 10
-140.9566
 20
-57.1917
 30
0.0
 10
-140.9566
 20
-57.1917
 30
0.0
 10
-143.4886
 20
-57.1596
 30
0.0
 10
-145.8425
 20
-58.9465
 30
0.0
 10
-147.4548
 20
-62.2314
 30
0.0
 10
-147.4548
 20
-62.2314
 30
0.0
 10
-144.8757
 20
-63.0856
 30
0.0
 10
-141.7579
 20
-65.963
 30
0.0
 10
-140.9566
 20
-68.5463
 30
0.0
 10
-140.9566
 20
-68.5463
 30
0.0
 10
-140.1553
 20
-65.963
 30
0.0
 10
-137.0376
 20
-63.0856
 30
0.0
 10
-134.4584
 20
-62.2314
 30
0.0
  0
SPLINE
  5
E4
330
1F
100
AcDbEntity
  8
layer 1
 62
     7
100
AcDbSpline
210
0.0
220
0.0
230
1.0
 70
    11
 71
     3
 72
    20
 73
    16
 74
     0
 42
0.0000000001
 43
0.0000000001
 12
1.0
 22
0.0
 32
0.0
 13
1.0
 23
0.0
 33
0.0
 40
0.0
 40
0.0
 40
0.0
 40
0.0
 40
0.2
 40
0.2
 40
0.2
 40
0.2
 40
0.4
 40
0.4
 40
0.4
 40
0.4
 40
0.6
 40
0.6
 40
0.6
 40
0.6
 40
1.0
 40
1.0
 40
1.0
 40
1.0
 10
-132.2215
 20
-61.5593
 30
0.0
 10
-129.0023
 20
-60.026
 30
0.0
 10
-127.6418
 20
-57.2247
 30
0.0
 10
-127.6392
 20
-54.4571
 30
0.0
 10
-127.6392
 20
-54.4571
 30
0.0
 10
-127.642
 20
-51.6895
 30
0.0
 10
-129.0023
 20
-48.8881
 30
0.0
 10
-132.2215
 20
-47.3548
 30
0.0
 10
-132.2215
 20
-47.3548
 30
0.0
 10
-133.0615
 20
-50.8238
 30
0.0
 10
-136.0774
 20
-53.9887
 30
0.0
 10
-138.3484
 20
-54.4571
 30
0.0
 10
-138.3484
 20
-54.4571
 30
0.0
 10
-136.0776
 20
-54.9257
 30
0.0
 10
-133.0617
 20
-58.0903
 30
0.0
 10
-132.2215
 20
-61.5593
 30
0.0
  0
SPLINE
  5
E5
330
1F
100
AcDbEntity
  8
layer 1
 62
     7
100
AcDbSpline
210
0.0
220
0.0
230
1.0
 70
    11
 71
     3
 72
    20
 73
    16
 74
     0
 42
0.0000000001
 43
0.0000000001
 12
1.0
 22
0.0
 32
0.0
 13
1.0
 23
0.0
 33
0.0
 40
0.0
 40
0.0
 40
0.0
 40
0.0
 40
0.2
 40
0.2
 40
0.2
 40
0.2
 40
0.4
 40
0.4
 40
0.4
 40
0.4
 40
0.6
 40
0.6
 40
0.6
 40
0.6
 40
1.0
 40
1.0
 40
1.0
 40
1.0
 10
-147.4298
 20
-46.6828
 30
0.0
 10
-145.8176
 20
-49.9676
 30
0.0
 10
-143.4637
 20
-51.7545
 30
0.0
 10
-140.9317
 20
-51.7224
 30
0.0
 10
-140.9317
 20
-51.7224
 30
0.0
 10
-138.3997
 20
-51.7545
 30
0.0
 10
-136.0457
 20
-49.9676
 30
0.0
 10
-134.4335
 20
-46.6828
 30
0.0
 10
-134.4335
 20
-46.6828
 30
0.0
 10
-137.0126
 20
-45.8285
 30
0.0
 10
-140.1304
 20
-42.9511
 30
0.0
 10
-140.9317
 20
-40.3678
 30
0.0
 10
-140.9317
 20
-40.3678
 30
0.0
 10
-141.7329
 20
-42.9511
 30
0.0
 10
-144.8507
 20
-45.8285
 30
0.0
 10
-147.4298
 20
-46.6828
 30
0.0
  0
SPLINE
  5
E6
330
1F
100
AcDbEntity
  8
layer 1
 62
     7
100
AcDbSpline
210
0.0
220
0.0
230
1.0
 70
    11
 71
     3
 72
    20
 73
    16
 74
     0
 42
0.0000000001
 43
0.0000000001
 12
1.0
 22
0.0
 32
0.0
 13
1.0
 23
0.0
 33
0.0
 40
0.0
 40
0.0
 40
0.0
 40
0.0
 40
0.2
 40
0.2
 40
0.2
 40
0.2
 40
0.4
 40
0.4
 40
0.4
 40
0.4
 40
0.6
 40
0.6
 40
0.6
 40
0.6
 40
1.0
 40
1.0
 40
1.0
 40
1.0
 10
-118.2871
 20
-47.3548
 30
0.0
 10
-121.5062
 20
-48.8881
 30
0.0
 10
-122.8668
 20
-51.6895
 30
0.0
 10
-122.8693
 20
-54.4571
 30
0.0
 10
-122.8693
 20
-54.4571
 30
0.0
 10
-122.8668
 20
-57.2247
 30
0.0
 10
-121.5062
 20
-60.026
 30
0.0
 10
-118.2871
 20
-61.5593
 30
0.0
 10
-118.2871
 20
-61.5593
 30
0.0
 10
-117.447
 20
-58.0903
 30
0.0
 10
-114.4311
 20
-54.9254
 30
0.0
 10
-112.1601
 20
-54.4571
 30
0.0
 10
-112.1601
 20
-54.4571
 30
0.0
 10
-114.4309
 20
-53.9885
 30
0.0
 10
-117.4468
 20
-50.8238
 30
0.0
 10
-118.2871
 20
-47.3548
 30
0.0
  0
SPLINE
  5
E7
330
1F
100
AcDbEntity
  8
layer 1
 62
     7
100
AcDbSpline
210
0.0
220
0.0
230
1.0
 70
    11
 71
     3
 72
    20
 73
    16
 74
     0
 42
0.0000000001
 43
0.0000000001
 12
1.0
 22
0.0
 32
0.0
 13
1.0
 23
0.0
 33
0.0
 40
0.0
 40
0.0
 40
0.0
 40
0.0
 40
0.2
 40
0.2
 40
0.2
 40
0.2
 40
0.4
 40
0.4
 40
0.4
 40
0.4
 40
0.6
 40
0.6
 40
0.6
 40
0.6
 40
1.0
 40
1.0
 40
1.0
 40
1.0
 10
-103.0789
 20
-62.2314
 30
0.0
 10
-104.6912
 20
-58.9465
 30
0.0
 10
-107.0451
 20
-57.1596
 30
0.0
 10
-109.5771
 20
-57.1917
 30
0.0
 10
-109.5771
 20
-57.1917
 30
0.0
 10
-112.1091
 20
-57.1596
 30
0.0
 10
-114.463
 20
-58.9465
 30
0.0
 10
-116.0753
 20
-62.2314
 30
0.0
 10
-116.0753
 20
-62.2314
 30
0.0
 10
-113.4961
 20
-63.0856
 30
0.0
 10
-110.3784
 20
-65.963
 30
0.0
 10
-109.5771
 20
-68.5463
 30
0.0
 10
-109.5771
 20
-68.5463
 30
0.0
 10
-108.7758
 20
-65.963
 30
0.0
 10
-105.6581
 20
-63.0856
 30
0.0
 10
-103.0789
 20
-62.2314
 30
0.0
  0
SPLINE
  5
E8
330
1F
100
AcDbEntity
  8
layer 1
 62
     7
100
AcDbSpline
210
0.0
220
0.0
230
1.0
 70
    11
 71
     3
 72
    20
 73
    16
 74
     0
 42
0.0000000001
 43
0.0000000001
 12
1.0
 22
0.0
 32
0.0
 13
1.0
 23
0.0
 33
0.0
 40
0.0
 40
0.0
 40
0.0
 40
0.0
 40
0.2
 40
0.2
 40
0.2
 40
0.2
 40
0.4
 40
0.4
 40
0.4
 40
0.4
 40
0.6
 40
0.6
 40
0.6
 40
0.6
 40
1.0
 40
1.0
 40
1.0
 40
1.0
 10
-118.2871
 20
-47.3548
 30
0.0
 10
-121.5062
 20
-48.8881
 30
0.0
 10
-122.8668
 20
-51.6895
 30
0.0
 10
-122.8693
 20
-54.4571
 30
0.0
 10
-122.8693
 20
-54.4571
 30
0.0
 10
-122.8668
 20
-57.2247
 30
0.0
 10
-121.5062
 20
-60.026
 30
0.0
 10
-118.2871
 20
-61.5593
 30
0.0
 10
-118.2871
 20
-61.5593
 30
0.0
 10
-117.447
 20
-58.0903
 30
0.0
 10
-114.4311
 20
-54.9254
 30
0.0
 10
-112.1601
 20
-54.4571
 30
0.0
 10
-112.1601
 20
-54.4571
 30
0.0
 10
-114.4309
 20
-53.9885
 30
0.0
 10
-117.4468
 20
-50.8238
 30
0.0
 10
-118.2871
 20
-47.3548
 30
0.0
  0
SPLINE
  5
E9
330
1F
100
AcDbEntity
  8
layer 1
 62
     7
100
AcDbSpline
210
0.0
220
0.0
230
1.0
 70
    11
 71
     3
 72
    20
 73
    16
 74
     0
 42
0.0000000001
 43
0.0000000001
 12
1.0
 22
0.0
 32
0.0
 13
1.0
 23
0.0
 33
0.0
 40
0.0
 40
0.0
 40
0.0
 40
0.0
 40
0.2
 40
0.2
 40
0.2
 40
0.2
 40
0.4
 40
0.4
 40
0.4
 40
0.4
 40
0.6
 40
0.6
 40
0.6
 40
0.6
 40
1.0
 40
1.0
 40
1.0
 40
1.0
 10
-103.0789
 20
-62.2314
 30
0.0
 10
-104.6912
 20
-58.9465
 30
0.0
 10
-107.0451
 20
-57.1596
 30
0.0
 10
-109.5771
 20
-57.1917
 30
0.0
 10
-109.5771
 20
-57.1917
 30
0.0
 10
-112.1091
 20
-57.1596
 30
0.0
 10
-114.463
 20
-58.9465
 30
0.0
 10
-116.0753
 20
-62.2314
 30
0.0
 10
-116.0753
 20
-62.2314
 30
0.0
 10
-113.4961
 20
-63.0856
 30
0.0
 10
-110.3784
 20
-65.963
 30
0.0
 10
-109.5771
 20
-68.5463
 30
0.0
 10
-109.5771
 20
-68.5463
 30
0.0
 10
-108.7758
 20
-65.963
 30
0.0
 10
-105.6581
 20
-63.0856
 30
0.0
 10
-103.0789
 20
-62.2314
 30
0.0
  0
SPLINE
  5
EA
330
1F
100
AcDbEntity
  8
layer 1
 62
     7
100
AcDbSpline
210
0.0
220
0.0
230
1.0
 70
    11
 71
     3
 72
    20
 73
    16
 74
     0
 42
0.0000000001
 43
0.0000000001
 12
1.0
 22
0.0
 32
0.0
 13
1.0
 23
0.0
 33
0.0
 40
0.0
 40
0.0
 40
0.0
 40
0.0
 40
0.2
 40
0.2
 40
0.2
 40
0.2
 40
0.4
 40
0.4
 40
0.4
 40
0.4
 40
0.6
 40
0.6
 40
0.6
 40
0.6
 40
1.0
 40
1.0
 40
1.0
 40
1.0
 10
-100.8419
 20
-61.5593
 30
0.0
 10
-97.6228
 20
-60.026
 30
0.0
 10
-96.2622
 20
-57.2247
 30
0.0
 10
-96.2597
 20
-54.4571
 30
0.0
 10
-96.2597
 20
-54.4571
 30
0.0
 10
-96.2625
 20
-51.6895
 30
0.0
 10
-97.6228
 20
-48.8881
 30
0.0
 10
-100.8419
 20
-47.3548
 30
0.0
 10
-100.8419
 20
-47.3548
 30
0.0
 10
-101.682
 20
-50.8238
 30
0.0
 10
-104.6979
 20
-53.9887
 30
0.0
 10
-106.9689
 20
-54.4571
 30
0.0
 10
-106.9689
 20
-54.4571
 30
0.0
 10
-104.6981
 20
-54.9257
 30
0.0
 10
-101.6822
 20
-58.0903
 30
0.0
 10
-100.8419
 20
-61.5593
 30
0.0
  0
SPLINE
  5
EB
330
1F
100
AcDbEntity
  8
layer 1
 62
     7
100
AcDbSpline
210
0.0
220
0.0
230
1.0
 70
    11
 71
     3
 72
    20
 73
    16
 74
     0
 42
0.0000000001
 43
0.0000000001
 12
1.0
 22
0.0
 32
0.0
 13
1.0
 23
0.0
 33
0.0
 40
0.0
 40
0.0
 40
0.0
 40
0.0
 40
0.2
 40
0.2
 40
0.2
 40
0.2
 40
0.4
 40
0.4
 40
0.4
 40
0.4
 40
0.6
 40
0.6
 40
0.6
 40
0.6
 40
1.0
 40
1.0
 40
1.0
 40
1.0
 10
-116.0503
 20
-46.6828
 30
0.0
 10
-114.438
 20
-49.9676
 30
0.0
 10
-112.0841
 20
-51.7545
 30
0.0
 10
-109.5521
 20
-51.7224
 30
0.0
 10
-109.5521
 20
-51.7224
 30
0.0
 10
-107.0201
 20
-51.7545
 30
0.0
 10
-104.6662
 20
-49.9676
 30
0.0
 10
-103.0539
 20
-46.6828
 30
0.0
 10
-103.0539
 20
-46.6828
 30
0.0
 10
-105.6331
 20
-45.8285
 30
0.0
 10
-108.7508
 20
-42.9511
 30
0.0
 10
-109.5521
 20
-40.3678
 30
0.0
 10
-109.5521
 20
-40.3678
 30
0.0
 10
-110.3534
 20
-42.9511
 30
0.0
 10
-113.4711
 20
-45.8285
 30
0.0
 10
-116.0503
 20
-46.6828
 30
0.0
  0
SPLINE
  5
EC
330
1F
100
AcDbEntity
  8
layer 1
 62
     7
100
AcDbSpline
210
0.0
220
0.0
230
1.0
 70
    11
 71
     3
 72
    20
 73
    16
 74
     0
 42
0.0000000001
 43
0.0000000001
 12
1.0
 22
0.0
 32
0.0
 13
1.0
 23
0.0
 33
0.0
 40
0.0
 40
0.0
 40
0.0
 40
0.0
 40
0.2
 40
0.2
 40
0.2
 40
0.2
 40
0.4
 40
0.4
 40
0.4
 40
0.4
 40
0.6
 40
0.6
 40
0.6
 40
0.6
 40
1.0
 40
1.0
 40
1.0
 40
1.0
 10
-87.1517
 20
-47.3548
 30
0.0
 10
-90.3709
 20
-48.8881
 30
0.0
 10
-91.7314
 20
-51.6895
 30
0.0
 10
-91.734
 20
-54.4571
 30
0.0
 10
-91.734
 20
-54.4571
 30
0.0
 10
-91.7314
 20
-57.2247
 30
0.0
 10
-90.3709
 20
-60.026
 30
0.0
 10
-87.1517
 20
-61.5593
 30
0.0
 10
-87.1517
 20
-61.5593
 30
0.0
 10
-86.3117
 20
-58.0903
 30
0.0
 10
-83.2958
 20
-54.9254
 30
0.0
 10
-81.0248
 20
-54.4571
 30
0.0
 10
-81.0248
 20
-54.4571
 30
0.0
 10
-83.2956
 20
-53.9885
 30
0.0
 10
-86.3115
 20
-50.8238
 30
0.0
 10
-87.1517
 20
-47.3548
 30
0.0
  0
SPLINE
  5
ED
330
1F
100
AcDbEntity
  8
layer 1
 62
     7
100
AcDbSpline
210
0.0
220
0.0
230
1.0
 70
    11
 71
     3
 72
    20
 73
    16
 74
     0
 42
0.0000000001
 43
0.0000000001
 12
1.0
 22
0.0
 32
0.0
 13
1.0
 23
0.0
 33
0.0
 40
0.0
 40
0.0
 40
0.0
 40
0.0
 40
0.2
 40
0.2
 40
0.2
 40
0.2
 40
0.4
 40
0.4
 40
0.4
 40
0.4
 40
0.6
 40
0.6
 40
0.6
 40
0.6
 40
1.0
 40
1.0
 40
1.0
 40
1.0
 10
-71.9436
 20
-62.2314
 30
0.0
 10
-73.5558
 20
-58.9465
 30
0.0
 10
-75.9098
 20
-57.1596
 30
0.0
 10
-78.4418
 20
-57.1917
 30
0.0
 10
-78.4418
 20
-57.1917
 30
0.0
 10
-80.9738
 20
-57.1596
 30
0.0
 10
-83.3277
 20
-58.9465
 30
0.0
 10
-84.9399
 20
-62.2314
 30
0.0
 10
-84.9399
 20
-62.2314
 30
0.0
 10
-82.3608
 20
-63.0856
 30
0.0
 10
-79.2431
 20
-65.963
 30
0.0
 10
-78.4418
 20
-68.5463
 30
0.0
 10
-78.4418
 20
-68.5463
 30
0.0
 10
-77.6405
 20
-65.963
 30
0.0
 10
-74.5227
 20
-63.0856
 30
0.0
 10
-71.9436
 20
-62.2314
 30
0.0
  0
SPLINE
  5
EE
330
1F
100
AcDbEntity
  8
layer 1
 62
     7
100
AcDbSpline
210
0.0
220
0.0
230
1.0
 70
    11
 71
     3
 72
    20
 73
    16
 74
     0
 42
0.0000000001
 43
0.0000000001
 12
1.0
 22
0.0
 32
0.0
 13
1.0
 23
0.0
 33
0.0
 40
0.0
 40
0.0
 40
0.0
 40
0.0
 40
0.2
 40
0.2
 40
0.2
 40
0.2
 40
0.4
 40
0.4
 40
0.4
 40
0.4
 40
0.6
 40
0.6
 40
0.6
 40
0.6
 40
1.0
 40
1.0
 40
1.0
 40
1.0
 10
-87.1517
 20
-47.3548
 30
0.0
 10
-90.3709
 20
-48.8881
 30
0.0
 10
-91.7314
 20
-51.6895
 30
0.0
 10
-91.734
 20
-54.4571
 30
0.0
 10
-91.734
 20
-54.4571
 30
0.0
 10
-91.7314
 20
-57.2247
 30
0.0
 10
-90.3709
 20
-60.026
 30
0.0
 10
-87.1517
 20
-61.5593
 30
0.0
 10
-87.1517
 20
-61.5593
 30
0.0
 10
-86.3117
 20
-58.0903
 30
0.0
 10
-83.2958
 20
-54.9254
 30
0.0
 10
-81.0248
 20
-54.4571
 30
0.0
 10
-81.0248
 20
-54.4571
 30
0.0
 10
-83.2956
 20
-53.9885
 30
0.0
 10
-86.3115
 20
-50.8238
 30
0.0
 10
-87.1517
 20
-47.3548
 30
0.0
  0
SPLINE
  5
EF
330
1F
100
AcDbEntity
  8
layer 1
 62
     7
100
AcDbSpline
210
0.0
220
0.0
230
1.0
 70
    11
 71
     3
 72
    20
 73
    16
 74
     0
 42
0.0000000001
 43
0.0000000001
 12
1.0
 22
0.0
 32
0.0
 13
1.0
 23
0.0
 33
0.0
 40
0.0
 40
0.0
 40
0.0
 40
0.0
 40
0.2
 40
0.2
 40
0.2
 40
0.2
 40
0.4
 40
0.4
 40
0.4
 40
0.4
 40
0.6
 40
0.6
 40
0.6
 40
0.6
 40
1.0
 40
1.0
 40
1.0
 40
1.0
 10
-71.9436
 20
-62.2314
 30
0.0
 10
-73.5558
 20
-58.9465
 30
0.0
 10
-75.9098
 20
-57.1596
 30
0.0
 10
-78.4418
 20
-57.1917
 30
0.0
 10
-78.4418
 20
-57.1917
 30
0.0
 10
-80.9738
 20
-57.1596
 30
0.0
 10
-83.3277
 20
-58.9465
 30
0.0
 10
-84.9399
 20
-62.2314
 30
0.0
 10
-84.9399
 20
-62.2314
 30
0.0
 10
-82.3608
 20
-63.0856
 30
0.0
 10
-79.2431
 20
-65.963
 30
0.0
 10
-78.4418
 20
-68.5463
 30
0.0
 10
-78.4418
 20
-68.5463
 30
0.0
 10
-77.6405
 20
-65.963
 30
0.0
 10
-74.5227
 20
-63.0856
 30
0.0
 10
-71.9436
 20
-62.2314
 30
0.0
  0
SPLINE
  5
F0
330
1F
100
AcDbEntity
  8
layer 1
 62
     7
100
AcDbSpline
210
0.0
220
0.0
230
1.0
 70
    11
 71
     3
 72
    20
 73
    16
 74
     0
 42
0.0000000001
 43
0.0000000001
 12
1.0
 22
0.0
 32
0.0
 13
1.0
 23
0.0
 33
0.0
 40
0.0
 40
0.0
 40
0.0
 40
0.0
 40
0.2
 40
0.2
 40
0.2
 40
0.2
 40
0.4
 40
0.4
 40
0.4
 40
0.4
 40
0.6
 40
0.6
 40
0.6
 40
0.6
 40
1.0
 40
1.0
 40
1.0
 40
1.0
 10
-84.915
 20
-46.6828
 30
0.0
 10
-83.3027
 20
-49.9676
 30
0.0
 10
-80.9488
 20
-51.7545
 30
0.0
 10
-78.4168
 20
-51.7224
 30
0.0
 10
-78.4168
 20
-51.7224
 30
0.0
 10
-75.8848
 20
-51.7545
 30
0.0
 10
-73.5309
 20
-49.9676
 30
0.0
 10
-71.9186
 20
-46.6828
 30
0.0
 10
-71.9186
 20
-46.6828
 30
0.0
 10
-74.4978
 20
-45.8285
 30
0.0
 10
-77.6155
 20
-42.9511
 30
0.0
 10
-78.4168
 20
-40.3678
 30
0.0
 10
-78.4168
 20
-40.3678
 30
0.0
 10
-79.2181
 20
-42.9511
 30
0.0
 10
-82.3358
 20
-45.8285
 30
0.0
 10
-84.915
 20
-46.6828
 30
0.0
  0
SPLINE
  5
F1
330
1F
100
AcDbEntity
  8
layer 1
 62
     7
100
AcDbSpline
210
0.0
220
0.0
230
1.0
 70
    11
 71
     3
 72
    20
 73
    16
 74
     0
 42
0.0000000001
 43
0.0000000001
 12
1.0
 22
0.0
 32
0.0
 13
1.0
 23
0.0
 33
0.0
 40
0.0
 40
0.0
 40
0.0
 40
0.0
 40
0.2
 40
0.2
 40
0.2
 40
0.2
 40
0.4
 40
0.4
 40
0.4
 40
0.4
 40
0.6
 40
0.6
 40
0.6
 40
0.6
 40
1.0
 40
1.0
 40
1.0
 40
1.0
 10
-165.838
 20
-62.2314
 30
0.0
 10
-167.4503
 20
-58.9465
 30
0.0
 10
-169.8042
 20
-57.1596
 30
0.0
 10
-172.3362
 20
-57.1917
 30
0.0
 10
-172.3362
 20
-57.1917
 30
0.0
 10
-174.8682
 20
-57.1596
 30
0.0
 10
-177.2221
 20
-58.9465
 30
0.0
 10
-178.8344
 20
-62.2314
 30
0.0
 10
-178.8344
 20
-62.2314
 30
0.0
 10
-176.2552
 20
-63.0856
 30
0.0
 10
-173.1375
 20
-65.963
 30
0.0
 10
-172.3362
 20
-68.5463
 30
0.0
 10
-172.3362
 20
-68.5463
 30
0.0
 10
-171.5349
 20
-65.963
 30
0.0
 10
-168.4171
 20
-63.0856
 30
0.0
 10
-165.838
 20
-62.2314
 30
0.0
  0
SPLINE
  5
F2
330
1F
100
AcDbEntity
  8
layer 1
 62
     7
100
AcDbSpline
210
0.0
220
0.0
230
1.0
 70
    11
 71
     3
 72
    20
 73
    16
 74
     0
 42
0.0000000001
 43
0.0000000001
 12
1.0
 22
0.0
 32
0.0
 13
1.0
 23
0.0
 33
0.0
 40
0.0
 40
0.0
 40
0.0
 40
0.0
 40
0.2
 40
0.2
 40
0.2
 40
0.2
 40
0.4
 40
0.4
 40
0.4
 40
0.4
 40
0.6
 40
0.6
 40
0.6
 40
0.6
 40
1.0
 40
1.0
 40
1.0
 40
1.0
 10
-165.838
 20
-62.2314
 30
0.0
 10
-167.4503
 20
-58.9465
 30
0.0
 10
-169.8042
 20
-57.1596
 30
0.0
 10
-172.3362
 20
-57.1917
 30
0.0
 10
-172.3362
 20
-57.1917
 30
0.0
 10
-174.8682
 20
-57.1596
 30
0.0
 10
-177.2221
 20
-58.9465
 30
0.0
 10
-178.8344
 20
-62.2314
 30
0.0
 10
-178.8344
 20
-62.2314
 30
0.0
 10
-176.2552
 20
-63.0856
 30
0.0
 10
-173.1375
 20
-65.963
 30
0.0
 10
-172.3362
 20
-68.5463
 30
0.0
 10
-172.3362
 20
-68.5463
 30
0.0
 10
-171.5349
 20
-65.963
 30
0.0
 10
-168.4171
 20
-63.0856
 30
0.0
 10
-165.838
 20
-62.2314
 30
0.0
  0
SPLINE
  5
F3
330
1F
100
AcDbEntity
  8
layer 1
 62
     7
100
AcDbSpline
210
0.0
220
0.0
230
1.0
 70
    11
 71
     3
 72
    20
 73
    16
 74
     0
 42
0.0000000001
 43
0.0000000001
 12
1.0
 22
0.0
 32
0.0
 13
1.0
 23
0.0
 33
0.0
 40
0.0
 40
0.0
 40
0.0
 40
0.0
 40
0.2
 40
0.2
 40
0.2
 40
0.2
 40
0.4
 40
0.4
 40
0.4
 40
0.4
 40
0.6
 40
0.6
 40
0.6
 40
0.6
 40
1.0
 40
1.0
 40
1.0
 40
1.0
 10
-163.601
 20
-61.5593
 30
0.0
 10
-160.3818
 20
-60.026
 30
0.0
 10
-159.0213
 20
-57.2247
 30
0.0
 10
-159.0187
 20
-54.4571
 30
0.0
 10
-159.0187
 20
-54.4571
 30
0.0
 10
-159.0215
 20
-51.6895
 30
0.0
 10
-160.3818
 20
-48.8881
 30
0.0
 10
-163.601
 20
-47.3548
 30
0.0
 10
-163.601
 20
-47.3548
 30
0.0
 10
-164.4411
 20
-50.8238
 30
0.0
 10
-167.4569
 20
-53.9887
 30
0.0
 10
-169.7279
 20
-54.4571
 30
0.0
 10
-169.7279
 20
-54.4571
 30
0.0
 10
-167.4571
 20
-54.9257
 30
0.0
 10
-164.4413
 20
-58.0903
 30
0.0
 10
-163.601
 20
-61.5593
 30
0.0
  0
SPLINE
  5
F4
330
1F
100
AcDbEntity
  8
layer 1
 62
     7
100
AcDbSpline
210
0.0
220
0.0
230
1.0
 70
    11
 71
     3
 72
    20
 73
    16
 74
     0
 42
0.0000000001
 43
0.0000000001
 12
1.0
 22
0.0
 32
0.0
 13
1.0
 23
0.0
 33
0.0
 40
0.0
 40
0.0
 40
0.0
 40
0.0
 40
0.2
 40
0.2
 40
0.2
 40
0.2
 40
0.4
 40
0.4
 40
0.4
 40
0.4
 40
0.6
 40
0.6
 40
0.6
 40
0.6
 40
1.0
 40
1.0
 40
1.0
 40
1.0
 10
-178.8094
 20
-46.6828
 30
0.0
 10
-177.1971
 20
-49.9676
 30
0.0
 10
-174.8432
 20
-51.7545
 30
0.0
 10
-172.3112
 20
-51.7224
 30
0.0
 10
-172.3112
 20
-51.7224
 30
0.0
 10
-169.7792
 20
-51.7545
 30
0.0
 10
-167.4253
 20
-49.9676
 30
0.0
 10
-165.813
 20
-46.6828
 30
0.0
 10
-165.813
 20
-46.6828
 30
0.0
 10
-168.3922
 20
-45.8285
 30
0.0
 10
-171.5099
 20
-42.9511
 30
0.0
 10
-172.3112
 20
-40.3678
 30
0.0
 10
-172.3112
 20
-40.3678
 30
0.0
 10
-173.1125
 20
-42.9511
 30
0.0
 10
-176.2302
 20
-45.8285
 30
0.0
 10
-178.8094
 20
-46.6828
 30
0.0
  0
SPLINE
  5
F5
330
1F
100
AcDbEntity
  8
layer 1
 62
     7
100
AcDbSpline
210
0.0
220
0.0
230
1.0
 70
    11
 71
     3
 72
    20
 73
    16
 74
     0
 42
0.0000000001
 43
0.0000000001
 12
1.0
 22
0.0
 32
0.0
 13
1.0
 23
0.0
 33
0.0
 40
0.0
 40
0.0
 40
0.0
 40
0.0
 40
0.2
 40
0.2
 40
0.2
 40
0.2
 40
0.4
 40
0.4
 40
0.4
 40
0.4
 40
0.6
 40
0.6
 40
0.6
 40
0.6
 40
1.0
 40
1.0
 40
1.0
 40
1.0
 10
-134.4042
 20
-29.2841
 30
0.0
 10
-137.6233
 20
-30.8174
 30
0.0
 10
-138.9839
 20
-33.6188
 30
0.0
 10
-138.9865
 20
-36.3864
 30
0.0
 10
-138.9865
 20
-36.3864
 30
0.0
 10
-138.9839
 20
-39.1539
 30
0.0
 10
-137.6233
 20
-41.9553
 30
0.0
 10
-134.4042
 20
-43.4886
 30
0.0
 10
-134.4042
 20
-43.4886
 30
0.0
 10
-133.5641
 20
-40.0196
 30
0.0
 10
-130.5483
 20
-36.8547
 30
0.0
 10
-128.2772
 20
-36.3864
 30
0.0
 10
-128.2772
 20
-36.3864
 30
0.0
 10
-130.548
 20
-35.9178
 30
0.0
 10
-133.5639
 20
-32.7531
 30
0.0
 10
-134.4042
 20
-29.2841
 30
0.0
  0
SPLINE
  5
F6
330
1F
100
AcDbEntity
  8
layer 1
 62
     7
100
AcDbSpline
210
0.0
220
0.0
230
1.0
 70
    11
 71
     3
 72
    20
 73
    16
 74
     0
 42
0.0000000001
 43
0.0000000001
 12
1.0
 22
0.0
 32
0.0
 13
1.0
 23
0.0
 33
0.0
 40
0.0
 40
0.0
 40
0.0
 40
0.0
 40
0.2
 40
0.2
 40
0.2
 40
0.2
 40
0.4
 40
0.4
 40
0.4
 40
0.4
 40
0.6
 40
0.6
 40
0.6
 40
0.6
 40
1.0
 40
1.0
 40
1.0
 40
1.0
 10
-119.196
 20
-44.1607
 30
0.0
 10
-120.8083
 20
-40.8758
 30
0.0
 10
-123.1622
 20
-39.0889
 30
0.0
 10
-125.6942
 20
-39.121
 30
0.0
 10
-125.6942
 20
-39.121
 30
0.0
 10
-128.2262
 20
-39.0889
 30
0.0
 10
-130.5801
 20
-40.8758
 30
0.0
 10
-132.1924
 20
-44.1607
 30
0.0
 10
-132.1924
 20
-44.1607
 30
0.0
 10
-129.6132
 20
-45.0149
 30
0.0
 10
-126.4955
 20
-47.8923
 30
0.0
 10
-125.6942
 20
-50.4756
 30
0.0
 10
-125.6942
 20
-50.4756
 30
0.0
 10
-124.8929
 20
-47.8923
 30
0.0
 10
-121.7752
 20
-45.0149
 30
0.0
 10
-119.196
 20
-44.1607
 30
0.0
  0
SPLINE
  5
F7
330
1F
100
AcDbEntity
  8
layer 1
 62
     7
100
AcDbSpline
210
0.0
220
0.0
230
1.0
 70
    11
 71
     3
 72
    20
 73
    16
 74
     0
 42
0.0000000001
 43
0.0000000001
 12
1.0
 22
0.0
 32
0.0
 13
1.0
 23
0.0
 33
0.0
 40
0.0
 40
0.0
 40
0.0
 40
0.0
 40
0.2
 40
0.2
 40
0.2
 40
0.2
 40
0.4
 40
0.4
 40
0.4
 40
0.4
 40
0.6
 40
0.6
 40
0.6
 40
0.6
 40
1.0
 40
1.0
 40
1.0
 40
1.0
 10
-134.4042
 20
-29.2841
 30
0.0
 10
-137.6233
 20
-30.8174
 30
0.0
 10
-138.9839
 20
-33.6188
 30
0.0
 10
-138.9865
 20
-36.3864
 30
0.0
 10
-138.9865
 20
-36.3864
 30
0.0
 10
-138.9839
 20
-39.1539
 30
0.0
 10
-137.6233
 20
-41.9553
 30
0.0
 10
-134.4042
 20
-43.4886
 30
0.0
 10
-134.4042
 20
-43.4886
 30
0.0
 10
-133.5641
 20
-40.0196
 30
0.0
 10
-130.5483
 20
-36.8547
 30
0.0
 10
-128.2772
 20
-36.3864
 30
0.0
 10
-128.2772
 20
-36.3864
 30
0.0
 10
-130.548
 20
-35.9178
 30
0.0
 10
-133.5639
 20
-32.7531
 30
0.0
 10
-134.4042
 20
-29.2841
 30
0.0
  0
SPLINE
  5
F8
330
1F
100
AcDbEntity
  8
layer 1
 62
     7
100
AcDbSpline
210
0.0
220
0.0
230
1.0
 70
    11
 71
     3
 72
    20
 73
    16
 74
     0
 42
0.0000000001
 43
0.0000000001
 12
1.0
 22
0.0
 32
0.0
 13
1.0
 23
0.0
 33
0.0
 40
0.0
 40
0.0
 40
0.0
 40
0.0
 40
0.2
 40
0.2
 40
0.2
 40
0.2
 40
0.4
 40
0.4
 40
0.4
 40
0.4
 40
0.6
 40
0.6
 40
0.6
 40
0.6
 40
1.0
 40
1.0
 40
1.0
 40
1.0
 10
-119.196
 20
-44.1607
 30
0.0
 10
-120.8083
 20
-40.8758
 30
0.0
 10
-123.1622
 20
-39.0889
 30
0.0
 10
-125.6942
 20
-39.121
 30
0.0
 10
-125.6942
 20
-39.121
 30
0.0
 10
-128.2262
 20
-39.0889
 30
0.0
 10
-130.5801
 20
-40.8758
 30
0.0
 10
-132.1924
 20
-44.1607
 30
0.0
 10
-132.1924
 20
-44.1607
 30
0.0
 10
-129.6132
 20
-45.0149
 30
0.0
 10
-126.4955
 20
-47.8923
 30
0.0
 10
-125.6942
 20
-50.4756
 30
0.0
 10
-125.6942
 20
-50.4756
 30
0.0
 10
-124.8929
 20
-47.8923
 30
0.0
 10
-121.7752
 20
-45.0149
 30
0.0
 10
-119.196
 20
-44.1607
 30
0.0
  0
SPLINE
  5
F9
330
1F
100
AcDbEntity
  8
layer 1
 62
     7
100
AcDbSpline
210
0.0
220
0.0
230
1.0
 70
    11
 71
     3
 72
    20
 73
    16
 74
     0
 42
0.0000000001
 43
0.0000000001
 12
1.0
 22
0.0
 32
0.0
 13
1.0
 23
0.0
 33
0.0
 40
0.0
 40
0.0
 40
0.0
 40
0.0
 40
0.2
 40
0.2
 40
0.2
 40
0.2
 40
0.4
 40
0.4
 40
0.4
 40
0.4
 40
0.6
 40
0.6
 40
0.6
 40
0.6
 40
1.0
 40
1.0
 40
1.0
 40
1.0
 10
-116.959
 20
-43.4886
 30
0.0
 10
-113.7399
 20
-41.9553
 30
0.0
 10
-112.3794
 20
-39.1539
 30
0.0
 10
-112.3768
 20
-36.3864
 30
0.0
 10
-112.3768
 20
-36.3864
 30
0.0
 10
-112.3796
 20
-33.6188
 30
0.0
 10
-113.7399
 20
-30.8174
 30
0.0
 10
-116.959
 20
-29.2841
 30
0.0
 10
-116.959
 20
-29.2841
 30
0.0
 10
-117.7991
 20
-32.7531
 30
0.0
 10
-120.815
 20
-35.918
 30
0.0
 10
-123.086
 20
-36.3864
 30
0.0
 10
-123.086
 20
-36.3864
 30
0.0
 10
-120.8152
 20
-36.8549
 30
0.0
 10
-117.7993
 20
-40.0196
 30
0.0
 10
-116.959
 20
-43.4886
 30
0.0
  0
SPLINE
  5
FA
330
1F
100
AcDbEntity
  8
layer 1
 62
     7
100
AcDbSpline
210
0.0
220
0.0
230
1.0
 70
    11
 71
     3
 72
    20
 73
    16
 74
     0
 42
0.0000000001
 43
0.0000000001
 12
1.0
 22
0.0
 32
0.0
 13
1.0
 23
0.0
 33
0.0
 40
0.0
 40
0.0
 40
0.0
 40
0.0
 40
0.2
 40
0.2
 40
0.2
 40
0.2
 40
0.4
 40
0.4
 40
0.4
 40
0.4
 40
0.6
 40
0.6
 40
0.6
 40
0.6
 40
1.0
 40
1.0
 40
1.0
 40
1.0
 10
-132.1674
 20
-28.6121
 30
0.0
 10
-130.5551
 20
-31.8969
 30
0.0
 10
-128.2012
 20
-33.6838
 30
0.0
 10
-125.6692
 20
-33.6517
 30
0.0
 10
-125.6692
 20
-33.6517
 30
0.0
 10
-123.1372
 20
-33.6838
 30
0.0
 10
-120.7833
 20
-31.8969
 30
0.0
 10
-119.171
 20
-28.6121
 30
0.0
 10
-119.171
 20
-28.6121
 30
0.0
 10
-121.7502
 20
-27.7578
 30
0.0
 10
-124.8679
 20
-24.8804
 30
0.0
 10
-125.6692
 20
-22.2971
 30
0.0
 10
-125.6692
 20
-22.2971
 30
0.0
 10
-126.4705
 20
-24.8804
 30
0.0
 10
-129.5883
 20
-27.7578
 30
0.0
 10
-132.1674
 20
-28.6121
 30
0.0
  0
SPLINE
  5
FB
330
1F
100
AcDbEntity
  8
layer 1
 62
     7
100
AcDbSpline
210
0.0
220
0.0
230
1.0
 70
    11
 71
     3
 72
    20
 73
    16
 74
     0
 42
0.0000000001
 43
0.0000000001
 12
1.0
 22
0.0
 32
0.0
 13
1.0
 23
0.0
 33
0.0
 40
0.0
 40
0.0
 40
0.0
 40
0.0
 40
0.2
 40
0.2
 40
0.2
 40
0.2
 40
0.4
 40
0.4
 40
0.4
 40
0.4
 40
0.6
 40
0.6
 40
0.6
 40
0.6
 40
1.0
 40
1.0
 40
1.0
 40
1.0
 10
-103.0246
 20
-29.2841
 30
0.0
 10
-106.2438
 20
-30.8174
 30
0.0
 10
-107.6043
 20
-33.6188
 30
0.0
 10
-107.6069
 20
-36.3864
 30
0.0
 10
-107.6069
 20
-36.3864
 30
0.0
 10
-107.6043
 20
-39.1539
 30
0.0
 10
-106.2438
 20
-41.9553
 30
0.0
 10
-103.0246
 20
-43.4886
 30
0.0
 10
-103.0246
 20
-43.4886
 30
0.0
 10
-102.1846
 20
-40.0196
 30
0.0
 10
-99.1687
 20
-36.8547
 30
0.0
 10
-96.8977
 20
-36.3864
 30
0.0
 10
-96.8977
 20
-36.3864
 30
0.0
 10
-99.1685
 20
-35.9178
 30
0.0
 10
-102.1844
 20
-32.7531
 30
0.0
 10
-103.0246
 20
-29.2841
 30
0.0
  0
SPLINE
  5
FC
330
1F
100
AcDbEntity
  8
layer 1
 62
     7
100
AcDbSpline
210
0.0
220
0.0
230
1.0
 70
    11
 71
     3
 72
    20
 73
    16
 74
     0
 42
0.0000000001
 43
0.0000000001
 12
1.0
 22
0.0
 32
0.0
 13
1.0
 23
0.0
 33
0.0
 40
0.0
 40
0.0
 40
0.0
 40
0.0
 40
0.2
 40
0.2
 40
0.2
 40
0.2
 40
0.4
 40
0.4
 40
0.4
 40
0.4
 40
0.6
 40
0.6
 40
0.6
 40
0.6
 40
1.0
 40
1.0
 40
1.0
 40
1.0
 10
-87.8165
 20
-44.1607
 30
0.0
 10
-89.4288
 20
-40.8758
 30
0.0
 10
-91.7827
 20
-39.0889
 30
0.0
 10
-94.3147
 20
-39.121
 30
0.0
 10
-94.3147
 20
-39.121
 30
0.0
 10
-96.8467
 20
-39.0889
 30
0.0
 10
-99.2006
 20
-40.8758
 30
0.0
 10
-100.8129
 20
-44.1607
 30
0.0
 10
-100.8129
 20
-44.1607
 30
0.0
 10
-98.2337
 20
-45.0149
 30
0.0
 10
-95.116
 20
-47.8923
 30
0.0
 10
-94.3147
 20
-50.4756
 30
0.0
 10
-94.3147
 20
-50.4756
 30
0.0
 10
-93.5134
 20
-47.8923
 30
0.0
 10
-90.3957
 20
-45.0149
 30
0.0
 10
-87.8165
 20
-44.1607
 30
0.0
  0
SPLINE
  5
FD
330
1F
100
AcDbEntity
  8
layer 1
 62
     7
100
AcDbSpline
210
0.0
220
0.0
230
1.0
 70
    11
 71
     3
 72
    20
 73
    16
 74
     0
 42
0.0000000001
 43
0.0000000001
 12
1.0
 22
0.0
 32
0.0
 13
1.0
 23
0.0
 33
0.0
 40
0.0
 40
0.0
 40
0.0
 40
0.0
 40
0.2
 40
0.2
 40
0.2
 40
0.2
 40
0.4
 40
0.4
 40
0.4
 40
0.4
 40
0.6
 40
0.6
 40
0.6
 40
0.6
 40
1.0
 40
1.0
 40
1.0
 40
1.0
 10
-103.0246
 20
-29.2841
 30
0.0
 10
-106.2438
 20
-30.8174
 30
0.0
 10
-107.6043
 20
-33.6188
 30
0.0
 10
-107.6069
 20
-36.3864
 30
0.0
 10
-107.6069
 20
-36.3864
 30
0.0
 10
-107.6043
 20
-39.1539
 30
0.0
 10
-106.2438
 20
-41.9553
 30
0.0
 10
-103.0246
 20
-43.4886
 30
0.0
 10
-103.0246
 20
-43.4886
 30
0.0
 10
-102.1846
 20
-40.0196
 30
0.0
 10
-99.1687
 20
-36.8547
 30
0.0
 10
-96.8977
 20
-36.3864
 30
0.0
 10
-96.8977
 20
-36.3864
 30
0.0
 10
-99.1685
 20
-35.9178
 30
0.0
 10
-102.1844
 20
-32.7531
 30
0.0
 10
-103.0246
 20
-29.2841
 30
0.0
  0
SPLINE
  5
FE
330
1F
100
AcDbEntity
  8
layer 1
 62
     7
100
AcDbSpline
210
0.0
220
0.0
230
1.0
 70
    11
 71
     3
 72
    20
 73
    16
 74
     0
 42
0.0000000001
 43
0.0000000001
 12
1.0
 22
0.0
 32
0.0
 13
1.0
 23
0.0
 33
0.0
 40
0.0
 40
0.0
 40
0.0
 40
0.0
 40
0.2
 40
0.2
 40
0.2
 40
0.2
 40
0.4
 40
0.4
 40
0.4
 40
0.4
 40
0.6
 40
0.6
 40
0.6
 40
0.6
 40
1.0
 40
1.0
 40
1.0
 40
1.0
 10
-87.8165
 20
-44.1607
 30
0.0
 10
-89.4288
 20
-40.8758
 30
0.0
 10
-91.7827
 20
-39.0889
 30
0.0
 10
-94.3147
 20
-39.121
 30
0.0
 10
-94.3147
 20
-39.121
 30
0.0
 10
-96.8467
 20
-39.0889
 30
0.0
 10
-99.2006
 20
-40.8758
 30
0.0
 10
-100.8129
 20
-44.1607
 30
0.0
 10
-100.8129
 20
-44.1607
 30
0.0
 10
-98.2337
 20
-45.0149
 30
0.0
 10
-95.116
 20
-47.8923
 30
0.0
 10
-94.3147
 20
-50.4756
 30
0.0
 10
-94.3147
 20
-50.4756
 30
0.0
 10
-93.5134
 20
-47.8923
 30
0.0
 10
-90.3957
 20
-45.0149
 30
0.0
 10
-87.8165
 20
-44.1607
 30
0.0
  0
SPLINE
  5
FF
330
1F
100
AcDbEntity
  8
layer 1
 62
     7
100
AcDbSpline
210
0.0
220
0.0
230
1.0
 70
    11
 71
     3
 72
    20
 73
    16
 74
     0
 42
0.0000000001
 43
0.0000000001
 12
1.0
 22
0.0
 32
0.0
 13
1.0
 23
0.0
 33
0.0
 40
0.0
 40
0.0
 40
0.0
 40
0.0
 40
0.2
 40
0.2
 40
0.2
 40
0.2
 40
0.4
 40
0.4
 40
0.4
 40
0.4
 40
0.6
 40
0.6
 40
0.6
 40
0.6
 40
1.0
 40
1.0
 40
1.0
 40
1.0
 10
-85.5795
 20
-43.4886
 30
0.0
 10
-82.3604
 20
-41.9553
 30
0.0
 10
-80.9998
 20
-39.1539
 30
0.0
 10
-80.9972
 20
-36.3864
 30
0.0
 10
-80.9972
 20
-36.3864
 30
0.0
 10
-81.0
 20
-33.6188
 30
0.0
 10
-82.3604
 20
-30.8174
 30
0.0
 10
-85.5795
 20
-29.2841
 30
0.0
 10
-85.5795
 20
-29.2841
 30
0.0
 10
-86.4196
 20
-32.7531
 30
0.0
 10
-89.4354
 20
-35.918
 30
0.0
 10
-91.7064
 20
-36.3864
 30
0.0
 10
-91.7064
 20
-36.3864
 30
0.0
 10
-89.4357
 20
-36.8549
 30
0.0
 10
-86.4198
 20
-40.0196
 30
0.0
 10
-85.5795
 20
-43.4886
 30
0.0
  0
SPLINE
  5
100
330
1F
100
AcDbEntity
  8
layer 1
 62
     7
100
AcDbSpline
210
0.0
220
0.0
230
1.0
 70
    11
 71
     3
 72
    20
 73
    16
 74
     0
 42
0.0000000001
 43
0.0000000001
 12
1.0
 22
0.0
 32
0.0
 13
1.0
 23
0.0
 33
0.0
 40
0.0
 40
0.0
 40
0.0
 40
0.0
 40
0.2
 40
0.2
 40
0.2
 40
0.2
 40
0.4
 40
0.4
 40
0.4
 40
0.4
 40
0.6
 40
0.6
 40
0.6
 40
0.6
 40
1.0
 40
1.0
 40
1.0
 40
1.0
 10
-100.7879
 20
-28.6121
 30
0.0
 10
-99.1756
 20
-31.8969
 30
0.0
 10
-96.8217
 20
-33.6838
 30
0.0
 10
-94.2897
 20
-33.6517
 30
0.0
 10
-94.2897
 20
-33.6517
 30
0.0
 10
-91.7577
 20
-33.6838
 30
0.0
 10
-89.4038
 20
-31.8969
 30
0.0
 10
-87.7915
 20
-28.6121
 30
0.0
 10
-87.7915
 20
-28.6121
 30
0.0
 10
-90.3707
 20
-27.7578
 30
0.0
 10
-93.4884
 20
-24.8804
 30
0.0
 10
-94.2897
 20
-22.2971
 30
0.0
 10
-94.2897
 20
-22.2971
 30
0.0
 10
-95.091
 20
-24.8804
 30
0.0
 10
-98.2087
 20
-27.7578
 30
0.0
 10
-100.7879
 20
-28.6121
 30
0.0
  0
SPLINE
  5
101
330
1F
100
AcDbEntity
  8
layer 1
 62
     7
100
AcDbSpline
210
0.0
220
0.0
230
1.0
 70
    11
 71
     3
 72
    20
 73
    16
 74
     0
 42
0.0000000001
 43
0.0000000001
 12
1.0
 22
0.0
 32
0.0
 13
1.0
 23
0.0
 33
0.0
 40
0.0
 40
0.0
 40
0.0
 40
0.0
 40
0.2
 40
0.2
 40
0.2
 40
0.2
 40
0.4
 40
0.4
 40
0.4
 40
0.4
 40
0.6
 40
0.6
 40
0.6
 40
0.6
 40
1.0
 40
1.0
 40
1.0
 40
1.0
 10
-165.7837
 20
-29.2841
 30
0.0
 10
-169.0029
 20
-30.8174
 30
0.0
 10
-170.3634
 20
-33.6188
 30
0.0
 10
-170.366
 20
-36.3864
 30
0.0
 10
-170.366
 20
-36.3864
 30
0.0
 10
-170.3634
 20
-39.1539
 30
0.0
 10
-169.0029
 20
-41.9553
 30
0.0
 10
-165.7837
 20
-43.4886
 30
0.0
 10
-165.7837
 20
-43.4886
 30
0.0
 10
-164.9437
 20
-40.0196
 30
0.0
 10
-161.9278
 20
-36.8547
 30
0.0
 10
-159.6568
 20
-36.3864
 30
0.0
 10
-159.6568
 20
-36.3864
 30
0.0
 10
-161.9276
 20
-35.9178
 30
0.0
 10
-164.9434
 20
-32.7531
 30
0.0
 10
-165.7837
 20
-29.2841
 30
0.0
  0
SPLINE
  5
102
330
1F
100
AcDbEntity
  8
layer 1
 62
     7
100
AcDbSpline
210
0.0
220
0.0
230
1.0
 70
    11
 71
     3
 72
    20
 73
    16
 74
     0
 42
0.0000000001
 43
0.0000000001
 12
1.0
 22
0.0
 32
0.0
 13
1.0
 23
0.0
 33
0.0
 40
0.0
 40
0.0
 40
0.0
 40
0.0
 40
0.2
 40
0.2
 40
0.2
 40
0.2
 40
0.4
 40
0.4
 40
0.4
 40
0.4
 40
0.6
 40
0.6
 40
0.6
 40
0.6
 40
1.0
 40
1.0
 40
1.0
 40
1.0
 10
-150.5756
 20
-44.1607
 30
0.0
 10
-152.1878
 20
-40.8758
 30
0.0
 10
-154.5417
 20
-39.0889
 30
0.0
 10
-157.0737
 20
-39.121
 30
0.0
 10
-157.0737
 20
-39.121
 30
0.0
 10
-159.6057
 20
-39.0889
 30
0.0
 10
-161.9597
 20
-40.8758
 30
0.0
 10
-163.5719
 20
-44.1607
 30
0.0
 10
-163.5719
 20
-44.1607
 30
0.0
 10
-160.9928
 20
-45.0149
 30
0.0
 10
-157.875
 20
-47.8923
 30
0.0
 10
-157.0737
 20
-50.4756
 30
0.0
 10
-157.0737
 20
-50.4756
 30
0.0
 10
-156.2725
 20
-47.8923
 30
0.0
 10
-153.1547
 20
-45.0149
 30
0.0
 10
-150.5756
 20
-44.1607
 30
0.0
  0
SPLINE
  5
103
330
1F
100
AcDbEntity
  8
layer 1
 62
     7
100
AcDbSpline
210
0.0
220
0.0
230
1.0
 70
    11
 71
     3
 72
    20
 73
    16
 74
     0
 42
0.0000000001
 43
0.0000000001
 12
1.0
 22
0.0
 32
0.0
 13
1.0
 23
0.0
 33
0.0
 40
0.0
 40
0.0
 40
0.0
 40
0.0
 40
0.2
 40
0.2
 40
0.2
 40
0.2
 40
0.4
 40
0.4
 40
0.4
 40
0.4
 40
0.6
 40
0.6
 40
0.6
 40
0.6
 40
1.0
 40
1.0
 40
1.0
 40
1.0
 10
-165.7837
 20
-29.2841
 30
0.0
 10
-169.0029
 20
-30.8174
 30
0.0
 10
-170.3634
 20
-33.6188
 30
0.0
 10
-170.366
 20
-36.3864
 30
0.0
 10
-170.366
 20
-36.3864
 30
0.0
 10
-170.3634
 20
-39.1539
 30
0.0
 10
-169.0029
 20
-41.9553
 30
0.0
 10
-165.7837
 20
-43.4886
 30
0.0
 10
-165.7837
 20
-43.4886
 30
0.0
 10
-164.9437
 20
-40.0196
 30
0.0
 10
-161.9278
 20
-36.8547
 30
0.0
 10
-159.6568
 20
-36.3864
 30
0.0
 10
-159.6568
 20
-36.3864
 30
0.0
 10
-161.9276
 20
-35.9178
 30
0.0
 10
-164.9434
 20
-32.7531
 30
0.0
 10
-165.7837
 20
-29.2841
 30
0.0
  0
SPLINE
  5
104
330
1F
100
AcDbEntity
  8
layer 1
 62
     7
100
AcDbSpline
210
0.0
220
0.0
230
1.0
 70
    11
 71
     3
 72
    20
 73
    16
 74
     0
 42
0.0000000001
 43
0.0000000001
 12
1.0
 22
0.0
 32
0.0
 13
1.0
 23
0.0
 33
0.0
 40
0.0
 40
0.0
 40
0.0
 40
0.0
 40
0.2
 40
0.2
 40
0.2
 40
0.2
 40
0.4
 40
0.4
 40
0.4
 40
0.4
 40
0.6
 40
0.6
 40
0.6
 40
0.6
 40
1.0
 40
1.0
 40
1.0
 40
1.0
 10
-150.5756
 20
-44.1607
 30
0.0
 10
-152.1878
 20
-40.8758
 30
0.0
 10
-154.5417
 20
-39.0889
 30
0.0
 10
-157.0737
 20
-39.121
 30
0.0
 10
-157.0737
 20
-39.121
 30
0.0
 10
-159.6057
 20
-39.0889
 30
0.0
 10
-161.9597
 20
-40.8758
 30
0.0
 10
-163.5719
 20
-44.1607
 30
0.0
 10
-163.5719
 20
-44.1607
 30
0.0
 10
-160.9928
 20
-45.0149
 30
0.0
 10
-157.875
 20
-47.8923
 30
0.0
 10
-157.0737
 20
-50.4756
 30
0.0
 10
-157.0737
 20
-50.4756
 30
0.0
 10
-156.2725
 20
-47.8923
 30
0.0
 10
-153.1547
 20
-45.0149
 30
0.0
 10
-150.5756
 20
-44.1607
 30
0.0
  0
SPLINE
  5
105
330
1F
100
AcDbEntity
  8
layer 1
 62
     7
100
AcDbSpline
210
0.0
220
0.0
230
1.0
 70
    11
 71
     3
 72
    20
 73
    16
 74
     0
 42
0.0000000001
 43
0.0000000001
 12
1.0
 22
0.0
 32
0.0
 13
1.0
 23
0.0
 33
0.0
 40
0.0
 40
0.0
 40
0.0
 40
0.0
 40
0.2
 40
0.2
 40
0.2
 40
0.2
 40
0.4
 40
0.4
 40
0.4
 40
0.4
 40
0.6
 40
0.6
 40
0.6
 40
0.6
 40
1.0
 40
1.0
 40
1.0
 40
1.0
 10
-148.3386
 20
-43.4886
 30
0.0
 10
-145.1194
 20
-41.9553
 30
0.0
 10
-143.7589
 20
-39.1539
 30
0.0
 10
-143.7563
 20
-36.3864
 30
0.0
 10
-143.7563
 20
-36.3864
 30
0.0
 10
-143.7591
 20
-33.6188
 30
0.0
 10
-145.1194
 20
-30.8174
 30
0.0
 10
-148.3386
 20
-29.2841
 30
0.0
 10
-148.3386
 20
-29.2841
 30
0.0
 10
-149.1786
 20
-32.7531
 30
0.0
 10
-152.1945
 20
-35.918
 30
0.0
 10
-154.4655
 20
-36.3864
 30
0.0
 10
-154.4655
 20
-36.3864
 30
0.0
 10
-152.1947
 20
-36.8549
 30
0.0
 10
-149.1788
 20
-40.0196
 30
0.0
 10
-148.3386
 20
-43.4886
 30
0.0
  0
SPLINE
  5
106
330
1F
100
AcDbEntity
  8
layer 1
 62
     7
100
AcDbSpline
210
0.0
220
0.0
230
1.0
 70
    11
 71
     3
 72
    20
 73
    16
 74
     0
 42
0.0000000001
 43
0.0000000001
 12
1.0
 22
0.0
 32
0.0
 13
1.0
 23
0.0
 33
0.0
 40
0.0
 40
0.0
 40
0.0
 40
0.0
 40
0.2
 40
0.2
 40
0.2
 40
0.2
 40
0.4
 40
0.4
 40
0.4
 40
0.4
 40
0.6
 40
0.6
 40
0.6
 40
0.6
 40
1.0
 40
1.0
 40
1.0
 40
1.0
 10
-163.547
 20
-28.6121
 30
0.0
 10
-161.9347
 20
-31.8969
 30
0.0
 10
-159.5808
 20
-33.6838
 30
0.0
 10
-157.0488
 20
-33.6517
 30
0.0
 10
-157.0488
 20
-33.6517
 30
0.0
 10
-154.5168
 20
-33.6838
 30
0.0
 10
-152.1629
 20
-31.8969
 30
0.0
 10
-150.5506
 20
-28.6121
 30
0.0
 10
-150.5506
 20
-28.6121
 30
0.0
 10
-153.1297
 20
-27.7578
 30
0.0
 10
-156.2475
 20
-24.8804
 30
0.0
 10
-157.0488
 20
-22.2971
 30
0.0
 10
-157.0488
 20
-22.2971
 30
0.0
 10
-157.8501
 20
-24.8804
 30
0.0
 10
-160.9678
 20
-27.7578
 30
0.0
 10
-163.547
 20
-28.6121
 30
0.0
  0
SPLINE
  5
107
330
1F
100
AcDbEntity
  8
layer 1
 62
     7
100
AcDbSpline
210
0.0
220
0.0
230
1.0
 70
    11
 71
     3
 72
    20
 73
    16
 74
     0
 42
0.0000000001
 43
0.0000000001
 12
1.0
 22
0.0
 32
0.0
 13
1.0
 23
0.0
 33
0.0
 40
0.0
 40
0.0
 40
0.0
 40
0.0
 40
0.2
 40
0.2
 40
0.2
 40
0.2
 40
0.4
 40
0.4
 40
0.4
 40
0.4
 40
0.6
 40
0.6
 40
0.6
 40
0.6
 40
1.0
 40
1.0
 40
1.0
 40
1.0
 10
-149.6666
 20
-82.8115
 30
0.0
 10
-152.8858
 20
-84.3447
 30
0.0
 10
-154.2463
 20
-87.1461
 30
0.0
 10
-154.2489
 20
-89.9137
 30
0.0
 10
-154.2489
 20
-89.9137
 30
0.0
 10
-154.2463
 20
-92.6813
 30
0.0
 10
-152.8858
 20
-95.4827
 30
0.0
 10
-149.6666
 20
-97.0159
 30
0.0
 10
-149.6666
 20
-97.0159
 30
0.0
 10
-148.8265
 20
-93.547
 30
0.0
 10
-145.8107
 20
-90.3821
 30
0.0
 10
-143.5397
 20
-89.9137
 30
0.0
 10
-143.5397
 20
-89.9137
 30
0.0
 10
-145.8105
 20
-89.4451
 30
0.0
 10
-148.8263
 20
-86.2804
 30
0.0
 10
-149.6666
 20
-82.8115
 30
0.0
  0
SPLINE
  5
108
330
1F
100
AcDbEntity
  8
layer 1
 62
     7
100
AcDbSpline
210
0.0
220
0.0
230
1.0
 70
    11
 71
     3
 72
    20
 73
    16
 74
     0
 42
0.0000000001
 43
0.0000000001
 12
1.0
 22
0.0
 32
0.0
 13
1.0
 23
0.0
 33
0.0
 40
0.0
 40
0.0
 40
0.0
 40
0.0
 40
0.2
 40
0.2
 40
0.2
 40
0.2
 40
0.4
 40
0.4
 40
0.4
 40
0.4
 40
0.6
 40
0.6
 40
0.6
 40
0.6
 40
1.0
 40
1.0
 40
1.0
 40
1.0
 10
-134.4584
 20
-97.688
 30
0.0
 10
-136.0707
 20
-94.4032
 30
0.0
 10
-138.4246
 20
-92.6162
 30
0.0
 10
-140.9566
 20
-92.6483
 30
0.0
 10
-140.9566
 20
-92.6483
 30
0.0
 10
-143.4886
 20
-92.6162
 30
0.0
 10
-145.8425
 20
-94.4032
 30
0.0
 10
-147.4548
 20
-97.688
 30
0.0
 10
-147.4548
 20
-97.688
 30
0.0
 10
-144.8757
 20
-98.5423
 30
0.0
 10
-141.7579
 20
-101.4197
 30
0.0
 10
-140.9566
 20
-104.0029
 30
0.0
 10
-140.9566
 20
-104.0029
 30
0.0
 10
-140.1553
 20
-101.4197
 30
0.0
 10
-137.0376
 20
-98.5423
 30
0.0
 10
-134.4584
 20
-97.688
 30
0.0
  0
SPLINE
  5
109
330
1F
100
AcDbEntity
  8
layer 1
 62
     7
100
AcDbSpline
210
0.0
220
0.0
230
1.0
 70
    11
 71
     3
 72
    20
 73
    16
 74
     0
 42
0.0000000001
 43
0.0000000001
 12
1.0
 22
0.0
 32
0.0
 13
1.0
 23
0.0
 33
0.0
 40
0.0
 40
0.0
 40
0.0
 40
0.0
 40
0.2
 40
0.2
 40
0.2
 40
0.2
 40
0.4
 40
0.4
 40
0.4
 40
0.4
 40
0.6
 40
0.6
 40
0.6
 40
0.6
 40
1.0
 40
1.0
 40
1.0
 40
1.0
 10
-149.6666
 20
-82.8115
 30
0.0
 10
-152.8858
 20
-84.3447
 30
0.0
 10
-154.2463
 20
-87.1461
 30
0.0
 10
-154.2489
 20
-89.9137
 30
0.0
 10
-154.2489
 20
-89.9137
 30
0.0
 10
-154.2463
 20
-92.6813
 30
0.0
 10
-152.8858
 20
-95.4827
 30
0.0
 10
-149.6666
 20
-97.0159
 30
0.0
 10
-149.6666
 20
-97.0159
 30
0.0
 10
-148.8265
 20
-93.547
 30
0.0
 10
-145.8107
 20
-90.3821
 30
0.0
 10
-143.5397
 20
-89.9137
 30
0.0
 10
-143.5397
 20
-89.9137
 30
0.0
 10
-145.8105
 20
-89.4451
 30
0.0
 10
-148.8263
 20
-86.2804
 30
0.0
 10
-149.6666
 20
-82.8115
 30
0.0
  0
SPLINE
  5
10A
330
1F
100
AcDbEntity
  8
layer 1
 62
     7
100
AcDbSpline
210
0.0
220
0.0
230
1.0
 70
    11
 71
     3
 72
    20
 73
    16
 74
     0
 42
0.0000000001
 43
0.0000000001
 12
1.0
 22
0.0
 32
0.0
 13
1.0
 23
0.0
 33
0.0
 40
0.0
 40
0.0
 40
0.0
 40
0.0
 40
0.2
 40
0.2
 40
0.2
 40
0.2
 40
0.4
 40
0.4
 40
0.4
 40
0.4
 40
0.6
 40
0.6
 40
0.6
 40
0.6
 40
1.0
 40
1.0
 40
1.0
 40
1.0
 10
-134.4584
 20
-97.688
 30
0.0
 10
-136.0707
 20
-94.4032
 30
0.0
 10
-138.4246
 20
-92.6162
 30
0.0
 10
-140.9566
 20
-92.6483
 30
0.0
 10
-140.9566
 20
-92.6483
 30
0.0
 10
-143.4886
 20
-92.6162
 30
0.0
 10
-145.8425
 20
-94.4032
 30
0.0
 10
-147.4548
 20
-97.688
 30
0.0
 10
-147.4548
 20
-97.688
 30
0.0
 10
-144.8757
 20
-98.5423
 30
0.0
 10
-141.7579
 20
-101.4197
 30
0.0
 10
-140.9566
 20
-104.0029
 30
0.0
 10
-140.9566
 20
-104.0029
 30
0.0
 10
-140.1553
 20
-101.4197
 30
0.0
 10
-137.0376
 20
-98.5423
 30
0.0
 10
-134.4584
 20
-97.688
 30
0.0
  0
SPLINE
  5
10B
330
1F
100
AcDbEntity
  8
layer 1
 62
     7
100
AcDbSpline
210
0.0
220
0.0
230
1.0
 70
    11
 71
     3
 72
    20
 73
    16
 74
     0
 42
0.0000000001
 43
0.0000000001
 12
1.0
 22
0.0
 32
0.0
 13
1.0
 23
0.0
 33
0.0
 40
0.0
 40
0.0
 40
0.0
 40
0.0
 40
0.2
 40
0.2
 40
0.2
 40
0.2
 40
0.4
 40
0.4
 40
0.4
 40
0.4
 40
0.6
 40
0.6
 40
0.6
 40
0.6
 40
1.0
 40
1.0
 40
1.0
 40
1.0
 10
-132.2215
 20
-97.0159
 30
0.0
 10
-129.0023
 20
-95.4827
 30
0.0
 10
-127.6418
 20
-92.6813
 30
0.0
 10
-127.6392
 20
-89.9137
 30
0.0
 10
-127.6392
 20
-89.9137
 30
0.0
 10
-127.642
 20
-87.1461
 30
0.0
 10
-129.0023
 20
-84.3447
 30
0.0
 10
-132.2215
 20
-82.8115
 30
0.0
 10
-132.2215
 20
-82.8115
 30
0.0
 10
-133.0615
 20
-86.2804
 30
0.0
 10
-136.0774
 20
-89.4453
 30
0.0
 10
-138.3484
 20
-89.9137
 30
0.0
 10
-138.3484
 20
-89.9137
 30
0.0
 10
-136.0776
 20
-90.3823
 30
0.0
 10
-133.0617
 20
-93.547
 30
0.0
 10
-132.2215
 20
-97.0159
 30
0.0
  0
SPLINE
  5
10C
330
1F
100
AcDbEntity
  8
layer 1
 62
     7
100
AcDbSpline
210
0.0
220
0.0
230
1.0
 70
    11
 71
     3
 72
    20
 73
    16
 74
     0
 42
0.0000000001
 43
0.0000000001
 12
1.0
 22
0.0
 32
0.0
 13
1.0
 23
0.0
 33
0.0
 40
0.0
 40
0.0
 40
0.0
 40
0.0
 40
0.2
 40
0.2
 40
0.2
 40
0.2
 40
0.4
 40
0.4
 40
0.4
 40
0.4
 40
0.6
 40
0.6
 40
0.6
 40
0.6
 40
1.0
 40
1.0
 40
1.0
 40
1.0
 10
-147.4298
 20
-82.1394
 30
0.0
 10
-145.8176
 20
-85.4242
 30
0.0
 10
-143.4637
 20
-87.2111
 30
0.0
 10
-140.9317
 20
-87.179
 30
0.0
 10
-140.9317
 20
-87.179
 30
0.0
 10
-138.3997
 20
-87.2111
 30
0.0
 10
-136.0457
 20
-85.4242
 30
0.0
 10
-134.4335
 20
-82.1394
 30
0.0
 10
-134.4335
 20
-82.1394
 30
0.0
 10
-137.0126
 20
-81.2851
 30
0.0
 10
-140.1304
 20
-78.4077
 30
0.0
 10
-140.9317
 20
-75.8245
 30
0.0
 10
-140.9317
 20
-75.8245
 30
0.0
 10
-141.7329
 20
-78.4077
 30
0.0
 10
-144.8507
 20
-81.2851
 30
0.0
 10
-147.4298
 20
-82.1394
 30
0.0
  0
SPLINE
  5
10D
330
1F
100
AcDbEntity
  8
layer 1
 62
     7
100
AcDbSpline
210
0.0
220
0.0
230
1.0
 70
    11
 71
     3
 72
    20
 73
    16
 74
     0
 42
0.0000000001
 43
0.0000000001
 12
1.0
 22
0.0
 32
0.0
 13
1.0
 23
0.0
 33
0.0
 40
0.0
 40
0.0
 40
0.0
 40
0.0
 40
0.2
 40
0.2
 40
0.2
 40
0.2
 40
0.4
 40
0.4
 40
0.4
 40
0.4
 40
0.6
 40
0.6
 40
0.6
 40
0.6
 40
1.0
 40
1.0
 40
1.0
 40
1.0
 10
-118.2871
 20
-82.8115
 30
0.0
 10
-121.5062
 20
-84.3447
 30
0.0
 10
-122.8668
 20
-87.1461
 30
0.0
 10
-122.8693
 20
-89.9137
 30
0.0
 10
-122.8693
 20
-89.9137
 30
0.0
 10
-122.8668
 20
-92.6813
 30
0.0
 10
-121.5062
 20
-95.4827
 30
0.0
 10
-118.2871
 20
-97.0159
 30
0.0
 10
-118.2871
 20
-97.0159
 30
0.0
 10
-117.447
 20
-93.547
 30
0.0
 10
-114.4311
 20
-90.3821
 30
0.0
 10
-112.1601
 20
-89.9137
 30
0.0
 10
-112.1601
 20
-89.9137
 30
0.0
 10
-114.4309
 20
-89.4451
 30
0.0
 10
-117.4468
 20
-86.2804
 30
0.0
 10
-118.2871
 20
-82.8115
 30
0.0
  0
SPLINE
  5
10E
330
1F
100
AcDbEntity
  8
layer 1
 62
     7
100
AcDbSpline
210
0.0
220
0.0
230
1.0
 70
    11
 71
     3
 72
    20
 73
    16
 74
     0
 42
0.0000000001
 43
0.0000000001
 12
1.0
 22
0.0
 32
0.0
 13
1.0
 23
0.0
 33
0.0
 40
0.0
 40
0.0
 40
0.0
 40
0.0
 40
0.2
 40
0.2
 40
0.2
 40
0.2
 40
0.4
 40
0.4
 40
0.4
 40
0.4
 40
0.6
 40
0.6
 40
0.6
 40
0.6
 40
1.0
 40
1.0
 40
1.0
 40
1.0
 10
-103.0789
 20
-97.688
 30
0.0
 10
-104.6912
 20
-94.4032
 30
0.0
 10
-107.0451
 20
-92.6162
 30
0.0
 10
-109.5771
 20
-92.6483
 30
0.0
 10
-109.5771
 20
-92.6483
 30
0.0
 10
-112.1091
 20
-92.6162
 30
0.0
 10
-114.463
 20
-94.4032
 30
0.0
 10
-116.0753
 20
-97.688
 30
0.0
 10
-116.0753
 20
-97.688
 30
0.0
 10
-113.4961
 20
-98.5423
 30
0.0
 10
-110.3784
 20
-101.4197
 30
0.0
 10
-109.5771
 20
-104.0029
 30
0.0
 10
-109.5771
 20
-104.0029
 30
0.0
 10
-108.7758
 20
-101.4197
 30
0.0
 10
-105.6581
 20
-98.5423
 30
0.0
 10
-103.0789
 20
-97.688
 30
0.0
  0
SPLINE
  5
10F
330
1F
100
AcDbEntity
  8
layer 1
 62
     7
100
AcDbSpline
210
0.0
220
0.0
230
1.0
 70
    11
 71
     3
 72
    20
 73
    16
 74
     0
 42
0.0000000001
 43
0.0000000001
 12
1.0
 22
0.0
 32
0.0
 13
1.0
 23
0.0
 33
0.0
 40
0.0
 40
0.0
 40
0.0
 40
0.0
 40
0.2
 40
0.2
 40
0.2
 40
0.2
 40
0.4
 40
0.4
 40
0.4
 40
0.4
 40
0.6
 40
0.6
 40
0.6
 40
0.6
 40
1.0
 40
1.0
 40
1.0
 40
1.0
 10
-118.2871
 20
-82.8115
 30
0.0
 10
-121.5062
 20
-84.3447
 30
0.0
 10
-122.8668
 20
-87.1461
 30
0.0
 10
-122.8693
 20
-89.9137
 30
0.0
 10
-122.8693
 20
-89.9137
 30
0.0
 10
-122.8668
 20
-92.6813
 30
0.0
 10
-121.5062
 20
-95.4827
 30
0.0
 10
-118.2871
 20
-97.0159
 30
0.0
 10
-118.2871
 20
-97.0159
 30
0.0
 10
-117.447
 20
-93.547
 30
0.0
 10
-114.4311
 20
-90.3821
 30
0.0
 10
-112.1601
 20
-89.9137
 30
0.0
 10
-112.1601
 20
-89.9137
 30
0.0
 10
-114.4309
 20
-89.4451
 30
0.0
 10
-117.4468
 20
-86.2804
 30
0.0
 10
-118.2871
 20
-82.8115
 30
0.0
  0
SPLINE
  5
110
330
1F
100
AcDbEntity
  8
layer 1
 62
     7
100
AcDbSpline
210
0.0
220
0.0
230
1.0
 70
    11
 71
     3
 72
    20
 73
    16
 74
     0
 42
0.0000000001
 43
0.0000000001
 12
1.0
 22
0.0
 32
0.0
 13
1.0
 23
0.0
 33
0.0
 40
0.0
 40
0.0
 40
0.0
 40
0.0
 40
0.2
 40
0.2
 40
0.2
 40
0.2
 40
0.4
 40
0.4
 40
0.4
 40
0.4
 40
0.6
 40
0.6
 40
0.6
 40
0.6
 40
1.0
 40
1.0
 40
1.0
 40
1.0
 10
-103.0789
 20
-97.688
 30
0.0
 10
-104.6912
 20
-94.4032
 30
0.0
 10
-107.0451
 20
-92.6162
 30
0.0
 10
-109.5771
 20
-92.6483
 30
0.0
 10
-109.5771
 20
-92.6483
 30
0.0
 10
-112.1091
 20
-92.6162
 30
0.0
 10
-114.463
 20
-94.4032
 30
0.0
 10
-116.0753
 20
-97.688
 30
0.0
 10
-116.0753
 20
-97.688
 30
0.0
 10
-113.4961
 20
-98.5423
 30
0.0
 10
-110.3784
 20
-101.4197
 30
0.0
 10
-109.5771
 20
-104.0029
 30
0.0
 10
-109.5771
 20
-104.0029
 30
0.0
 10
-108.7758
 20
-101.4197
 30
0.0
 10
-105.6581
 20
-98.5423
 30
0.0
 10
-103.0789
 20
-97.688
 30
0.0
  0
SPLINE
  5
111
330
1F
100
AcDbEntity
  8
layer 1
 62
     7
100
AcDbSpline
210
0.0
220
0.0
230
1.0
 70
    11
 71
     3
 72
    20
 73
    16
 74
     0
 42
0.0000000001
 43
0.0000000001
 12
1.0
 22
0.0
 32
0.0
 13
1.0
 23
0.0
 33
0.0
 40
0.0
 40
0.0
 40
0.0
 40
0.0
 40
0.2
 40
0.2
 40
0.2
 40
0.2
 40
0.4
 40
0.4
 40
0.4
 40
0.4
 40
0.6
 40
0.6
 40
0.6
 40
0.6
 40
1.0
 40
1.0
 40
1.0
 40
1.0
 10
-100.8419
 20
-97.0159
 30
0.0
 10
-97.6228
 20
-95.4827
 30
0.0
 10
-96.2622
 20
-92.6813
 30
0.0
 10
-96.2597
 20
-89.9137
 30
0.0
 10
-96.2597
 20
-89.9137
 30
0.0
 10
-96.2625
 20
-87.1461
 30
0.0
 10
-97.6228
 20
-84.3447
 30
0.0
 10
-100.8419
 20
-82.8115
 30
0.0
 10
-100.8419
 20
-82.8115
 30
0.0
 10
-101.682
 20
-86.2804
 30
0.0
 10
-104.6979
 20
-89.4453
 30
0.0
 10
-106.9689
 20
-89.9137
 30
0.0
 10
-106.9689
 20
-89.9137
 30
0.0
 10
-104.6981
 20
-90.3823
 30
0.0
 10
-101.6822
 20
-93.547
 30
0.0
 10
-100.8419
 20
-97.0159
 30
0.0
  0
SPLINE
  5
112
330
1F
100
AcDbEntity
  8
layer 1
 62
     7
100
AcDbSpline
210
0.0
220
0.0
230
1.0
 70
    11
 71
     3
 72
    20
 73
    16
 74
     0
 42
0.0000000001
 43
0.0000000001
 12
1.0
 22
0.0
 32
0.0
 13
1.0
 23
0.0
 33
0.0
 40
0.0
 40
0.0
 40
0.0
 40
0.0
 40
0.2
 40
0.2
 40
0.2
 40
0.2
 40
0.4
 40
0.4
 40
0.4
 40
0.4
 40
0.6
 40
0.6
 40
0.6
 40
0.6
 40
1.0
 40
1.0
 40
1.0
 40
1.0
 10
-116.0503
 20
-82.1394
 30
0.0
 10
-114.438
 20
-85.4242
 30
0.0
 10
-112.0841
 20
-87.2111
 30
0.0
 10
-109.5521
 20
-87.179
 30
0.0
 10
-109.5521
 20
-87.179
 30
0.0
 10
-107.0201
 20
-87.2111
 30
0.0
 10
-104.6662
 20
-85.4242
 30
0.0
 10
-103.0539
 20
-82.1394
 30
0.0
 10
-103.0539
 20
-82.1394
 30
0.0
 10
-105.6331
 20
-81.2851
 30
0.0
 10
-108.7508
 20
-78.4077
 30
0.0
 10
-109.5521
 20
-75.8245
 30
0.0
 10
-109.5521
 20
-75.8245
 30
0.0
 10
-110.3534
 20
-78.4077
 30
0.0
 10
-113.4711
 20
-81.2851
 30
0.0
 10
-116.0503
 20
-82.1394
 30
0.0
  0
SPLINE
  5
113
330
1F
100
AcDbEntity
  8
layer 1
 62
     7
100
AcDbSpline
210
0.0
220
0.0
230
1.0
 70
    11
 71
     3
 72
    20
 73
    16
 74
     0
 42
0.0000000001
 43
0.0000000001
 12
1.0
 22
0.0
 32
0.0
 13
1.0
 23
0.0
 33
0.0
 40
0.0
 40
0.0
 40
0.0
 40
0.0
 40
0.2
 40
0.2
 40
0.2
 40
0.2
 40
0.4
 40
0.4
 40
0.4
 40
0.4
 40
0.6
 40
0.6
 40
0.6
 40
0.6
 40
1.0
 40
1.0
 40
1.0
 40
1.0
 10
-87.1517
 20
-82.8115
 30
0.0
 10
-90.3709
 20
-84.3447
 30
0.0
 10
-91.7314
 20
-87.1461
 30
0.0
 10
-91.734
 20
-89.9137
 30
0.0
 10
-91.734
 20
-89.9137
 30
0.0
 10
-91.7314
 20
-92.6813
 30
0.0
 10
-90.3709
 20
-95.4827
 30
0.0
 10
-87.1517
 20
-97.0159
 30
0.0
 10
-87.1517
 20
-97.0159
 30
0.0
 10
-86.3117
 20
-93.547
 30
0.0
 10
-83.2958
 20
-90.3821
 30
0.0
 10
-81.0248
 20
-89.9137
 30
0.0
 10
-81.0248
 20
-89.9137
 30
0.0
 10
-83.2956
 20
-89.4451
 30
0.0
 10
-86.3115
 20
-86.2804
 30
0.0
 10
-87.1517
 20
-82.8115
 30
0.0
  0
SPLINE
  5
114
330
1F
100
AcDbEntity
  8
layer 1
 62
     7
100
AcDbSpline
210
0.0
220
0.0
230
1.0
 70
    11
 71
     3
 72
    20
 73
    16
 74
     0
 42
0.0000000001
 43
0.0000000001
 12
1.0
 22
0.0
 32
0.0
 13
1.0
 23
0.0
 33
0.0
 40
0.0
 40
0.0
 40
0.0
 40
0.0
 40
0.2
 40
0.2
 40
0.2
 40
0.2
 40
0.4
 40
0.4
 40
0.4
 40
0.4
 40
0.6
 40
0.6
 40
0.6
 40
0.6
 40
1.0
 40
1.0
 40
1.0
 40
1.0
 10
-71.9436
 20
-97.688
 30
0.0
 10
-73.5558
 20
-94.4032
 30
0.0
 10
-75.9098
 20
-92.6162
 30
0.0
 10
-78.4418
 20
-92.6483
 30
0.0
 10
-78.4418
 20
-92.6483
 30
0.0
 10
-80.9738
 20
-92.6162
 30
0.0
 10
-83.3277
 20
-94.4032
 30
0.0
 10
-84.9399
 20
-97.688
 30
0.0
 10
-84.9399
 20
-97.688
 30
0.0
 10
-82.3608
 20
-98.5423
 30
0.0
 10
-79.2431
 20
-101.4197
 30
0.0
 10
-78.4418
 20
-104.0029
 30
0.0
 10
-78.4418
 20
-104.0029
 30
0.0
 10
-77.6405
 20
-101.4197
 30
0.0
 10
-74.5227
 20
-98.5423
 30
0.0
 10
-71.9436
 20
-97.688
 30
0.0
  0
SPLINE
  5
115
330
1F
100
AcDbEntity
  8
layer 1
 62
     7
100
AcDbSpline
210
0.0
220
0.0
230
1.0
 70
    11
 71
     3
 72
    20
 73
    16
 74
     0
 42
0.0000000001
 43
0.0000000001
 12
1.0
 22
0.0
 32
0.0
 13
1.0
 23
0.0
 33
0.0
 40
0.0
 40
0.0
 40
0.0
 40
0.0
 40
0.2
 40
0.2
 40
0.2
 40
0.2
 40
0.4
 40
0.4
 40
0.4
 40
0.4
 40
0.6
 40
0.6
 40
0.6
 40
0.6
 40
1.0
 40
1.0
 40
1.0
 40
1.0
 10
-87.1517
 20
-82.8115
 30
0.0
 10
-90.3709
 20
-84.3447
 30
0.0
 10
-91.7314
 20
-87.1461
 30
0.0
 10
-91.734
 20
-89.9137
 30
0.0
 10
-91.734
 20
-89.9137
 30
0.0
 10
-91.7314
 20
-92.6813
 30
0.0
 10
-90.3709
 20
-95.4827
 30
0.0
 10
-87.1517
 20
-97.0159
 30
0.0
 10
-87.1517
 20
-97.0159
 30
0.0
 10
-86.3117
 20
-93.547
 30
0.0
 10
-83.2958
 20
-90.3821
 30
0.0
 10
-81.0248
 20
-89.9137
 30
0.0
 10
-81.0248
 20
-89.9137
 30
0.0
 10
-83.2956
 20
-89.4451
 30
0.0
 10
-86.3115
 20
-86.2804
 30
0.0
 10
-87.1517
 20
-82.8115
 30
0.0
  0
SPLINE
  5
116
330
1F
100
AcDbEntity
  8
layer 1
 62
     7
100
AcDbSpline
210
0.0
220
0.0
230
1.0
 70
    11
 71
     3
 72
    20
 73
    16
 74
     0
 42
0.0000000001
 43
0.0000000001
 12
1.0
 22
0.0
 32
0.0
 13
1.0
 23
0.0
 33
0.0
 40
0.0
 40
0.0
 40
0.0
 40
0.0
 40
0.2
 40
0.2
 40
0.2
 40
0.2
 40
0.4
 40
0.4
 40
0.4
 40
0.4
 40
0.6
 40
0.6
 40
0.6
 40
0.6
 40
1.0
 40
1.0
 40
1.0
 40
1.0
 10
-71.9436
 20
-97.688
 30
0.0
 10
-73.5558
 20
-94.4032
 30
0.0
 10
-75.9098
 20
-92.6162
 30
0.0
 10
-78.4418
 20
-92.6483
 30
0.0
 10
-78.4418
 20
-92.6483
 30
0.0
 10
-80.9738
 20
-92.6162
 30
0.0
 10
-83.3277
 20
-94.4032
 30
0.0
 10
-84.9399
 20
-97.688
 30
0.0
 10
-84.9399
 20
-97.688
 30
0.0
 10
-82.3608
 20
-98.5423
 30
0.0
 10
-79.2431
 20
-101.4197
 30
0.0
 10
-78.4418
 20
-104.0029
 30
0.0
 10
-78.4418
 20
-104.0029
 30
0.0
 10
-77.6405
 20
-101.4197
 30
0.0
 10
-74.5227
 20
-98.5423
 30
0.0
 10
-71.9436
 20
-97.688
 30
0.0
  0
SPLINE
  5
117
330
1F
100
AcDbEntity
  8
layer 1
 62
     7
100
AcDbSpline
210
0.0
220
0.0
230
1.0
 70
    11
 71
     3
 72
    20
 73
    16
 74
     0
 42
0.0000000001
 43
0.0000000001
 12
1.0
 22
0.0
 32
0.0
 13
1.0
 23
0.0
 33
0.0
 40
0.0
 40
0.0
 40
0.0
 40
0.0
 40
0.2
 40
0.2
 40
0.2
 40
0.2
 40
0.4
 40
0.4
 40
0.4
 40
0.4
 40
0.6
 40
0.6
 40
0.6
 40
0.6
 40
1.0
 40
1.0
 40
1.0
 40
1.0
 10
-84.915
 20
-82.1394
 30
0.0
 10
-83.3027
 20
-85.4242
 30
0.0
 10
-80.9488
 20
-87.2111
 30
0.0
 10
-78.4168
 20
-87.179
 30
0.0
 10
-78.4168
 20
-87.179
 30
0.0
 10
-75.8848
 20
-87.2111
 30
0.0
 10
-73.5309
 20
-85.4242
 30
0.0
 10
-71.9186
 20
-82.1394
 30
0.0
 10
-71.9186
 20
-82.1394
 30
0.0
 10
-74.4978
 20
-81.2851
 30
0.0
 10
-77.6155
 20
-78.4077
 30
0.0
 10
-78.4168
 20
-75.8245
 30
0.0
 10
-78.4168
 20
-75.8245
 30
0.0
 10
-79.2181
 20
-78.4077
 30
0.0
 10
-82.3358
 20
-81.2851
 30
0.0
 10
-84.915
 20
-82.1394
 30
0.0
  0
SPLINE
  5
118
330
1F
100
AcDbEntity
  8
layer 1
 62
     7
100
AcDbSpline
210
0.0
220
0.0
230
1.0
 70
    11
 71
     3
 72
    20
 73
    16
 74
     0
 42
0.0000000001
 43
0.0000000001
 12
1.0
 22
0.0
 32
0.0
 13
1.0
 23
0.0
 33
0.0
 40
0.0
 40
0.0
 40
0.0
 40
0.0
 40
0.2
 40
0.2
 40
0.2
 40
0.2
 40
0.4
 40
0.4
 40
0.4
 40
0.4
 40
0.6
 40
0.6
 40
0.6
 40
0.6
 40
1.0
 40
1.0
 40
1.0
 40
1.0
 10
-165.838
 20
-97.688
 30
0.0
 10
-167.4503
 20
-94.4032
 30
0.0
 10
-169.8042
 20
-92.6162
 30
0.0
 10
-172.3362
 20
-92.6483
 30
0.0
 10
-172.3362
 20
-92.6483
 30
0.0
 10
-174.8682
 20
-92.6162
 30
0.0
 10
-177.2221
 20
-94.4032
 30
0.0
 10
-178.8344
 20
-97.688
 30
0.0
 10
-178.8344
 20
-97.688
 30
0.0
 10
-176.2552
 20
-98.5423
 30
0.0
 10
-173.1375
 20
-101.4197
 30
0.0
 10
-172.3362
 20
-104.0029
 30
0.0
 10
-172.3362
 20
-104.0029
 30
0.0
 10
-171.5349
 20
-101.4197
 30
0.0
 10
-168.4171
 20
-98.5423
 30
0.0
 10
-165.838
 20
-97.688
 30
0.0
  0
SPLINE
  5
119
330
1F
100
AcDbEntity
  8
layer 1
 62
     7
100
AcDbSpline
210
0.0
220
0.0
230
1.0
 70
    11
 71
     3
 72
    20
 73
    16
 74
     0
 42
0.0000000001
 43
0.0000000001
 12
1.0
 22
0.0
 32
0.0
 13
1.0
 23
0.0
 33
0.0
 40
0.0
 40
0.0
 40
0.0
 40
0.0
 40
0.2
 40
0.2
 40
0.2
 40
0.2
 40
0.4
 40
0.4
 40
0.4
 40
0.4
 40
0.6
 40
0.6
 40
0.6
 40
0.6
 40
1.0
 40
1.0
 40
1.0
 40
1.0
 10
-165.838
 20
-97.688
 30
0.0
 10
-167.4503
 20
-94.4032
 30
0.0
 10
-169.8042
 20
-92.6162
 30
0.0
 10
-172.3362
 20
-92.6483
 30
0.0
 10
-172.3362
 20
-92.6483
 30
0.0
 10
-174.8682
 20
-92.6162
 30
0.0
 10
-177.2221
 20
-94.4032
 30
0.0
 10
-178.8344
 20
-97.688
 30
0.0
 10
-178.8344
 20
-97.688
 30
0.0
 10
-176.2552
 20
-98.5423
 30
0.0
 10
-173.1375
 20
-101.4197
 30
0.0
 10
-172.3362
 20
-104.0029
 30
0.0
 10
-172.3362
 20
-104.0029
 30
0.0
 10
-171.5349
 20
-101.4197
 30
0.0
 10
-168.4171
 20
-98.5423
 30
0.0
 10
-165.838
 20
-97.688
 30
0.0
  0
SPLINE
  5
11A
330
1F
100
AcDbEntity
  8
layer 1
 62
     7
100
AcDbSpline
210
0.0
220
0.0
230
1.0
 70
    11
 71
     3
 72
    20
 73
    16
 74
     0
 42
0.0000000001
 43
0.0000000001
 12
1.0
 22
0.0
 32
0.0
 13
1.0
 23
0.0
 33
0.0
 40
0.0
 40
0.0
 40
0.0
 40
0.0
 40
0.2
 40
0.2
 40
0.2
 40
0.2
 40
0.4
 40
0.4
 40
0.4
 40
0.4
 40
0.6
 40
0.6
 40
0.6
 40
0.6
 40
1.0
 40
1.0
 40
1.0
 40
1.0
 10
-163.601
 20
-97.0159
 30
0.0
 10
-160.3818
 20
-95.4827
 30
0.0
 10
-159.0213
 20
-92.6813
 30
0.0
 10
-159.0187
 20
-89.9137
 30
0.0
 10
-159.0187
 20
-89.9137
 30
0.0
 10
-159.0215
 20
-87.1461
 30
0.0
 10
-160.3818
 20
-84.3447
 30
0.0
 10
-163.601
 20
-82.8115
 30
0.0
 10
-163.601
 20
-82.8115
 30
0.0
 10
-164.4411
 20
-86.2804
 30
0.0
 10
-167.4569
 20
-89.4453
 30
0.0
 10
-169.7279
 20
-89.9137
 30
0.0
 10
-169.7279
 20
-89.9137
 30
0.0
 10
-167.4571
 20
-90.3823
 30
0.0
 10
-164.4413
 20
-93.547
 30
0.0
 10
-163.601
 20
-97.0159
 30
0.0
  0
SPLINE
  5
11B
330
1F
100
AcDbEntity
  8
layer 1
 62
     7
100
AcDbSpline
210
0.0
220
0.0
230
1.0
 70
    11
 71
     3
 72
    20
 73
    16
 74
     0
 42
0.0000000001
 43
0.0000000001
 12
1.0
 22
0.0
 32
0.0
 13
1.0
 23
0.0
 33
0.0
 40
0.0
 40
0.0
 40
0.0
 40
0.0
 40
0.2
 40
0.2
 40
0.2
 40
0.2
 40
0.4
 40
0.4
 40
0.4
 40
0.4
 40
0.6
 40
0.6
 40
0.6
 40
0.6
 40
1.0
 40
1.0
 40
1.0
 40
1.0
 10
-178.8094
 20
-82.1394
 30
0.0
 10
-177.1971
 20
-85.4242
 30
0.0
 10
-174.8432
 20
-87.2111
 30
0.0
 10
-172.3112
 20
-87.179
 30
0.0
 10
-172.3112
 20
-87.179
 30
0.0
 10
-169.7792
 20
-87.2111
 30
0.0
 10
-167.4253
 20
-85.4242
 30
0.0
 10
-165.813
 20
-82.1394
 30
0.0
 10
-165.813
 20
-82.1394
 30
0.0
 10
-168.3922
 20
-81.2851
 30
0.0
 10
-171.5099
 20
-78.4077
 30
0.0
 10
-172.3112
 20
-75.8245
 30
0.0
 10
-172.3112
 20
-75.8245
 30
0.0
 10
-173.1125
 20
-78.4077
 30
0.0
 10
-176.2302
 20
-81.2851
 30
0.0
 10
-178.8094
 20
-82.1394
 30
0.0
  0
SPLINE
  5
11C
330
1F
100
AcDbEntity
  8
layer 1
 62
     7
100
AcDbSpline
210
0.0
220
0.0
230
1.0
 70
    11
 71
     3
 72
    20
 73
    16
 74
     0
 42
0.0000000001
 43
0.0000000001
 12
1.0
 22
0.0
 32
0.0
 13
1.0
 23
0.0
 33
0.0
 40
0.0
 40
0.0
 40
0.0
 40
0.0
 40
0.2
 40
0.2
 40
0.2
 40
0.2
 40
0.4
 40
0.4
 40
0.4
 40
0.4
 40
0.6
 40
0.6
 40
0.6
 40
0.6
 40
1.0
 40
1.0
 40
1.0
 40
1.0
 10
-134.4042
 20
-64.7408
 30
0.0
 10
-137.6233
 20
-66.274
 30
0.0
 10
-138.9839
 20
-69.0754
 30
0.0
 10
-138.9865
 20
-71.843
 30
0.0
 10
-138.9865
 20
-71.843
 30
0.0
 10
-138.9839
 20
-74.6106
 30
0.0
 10
-137.6233
 20
-77.412
 30
0.0
 10
-134.4042
 20
-78.9452
 30
0.0
 10
-134.4042
 20
-78.9452
 30
0.0
 10
-133.5641
 20
-75.4762
 30
0.0
 10
-130.5483
 20
-72.3114
 30
0.0
 10
-128.2772
 20
-71.843
 30
0.0
 10
-128.2772
 20
-71.843
 30
0.0
 10
-130.548
 20
-71.3744
 30
0.0
 10
-133.5639
 20
-68.2097
 30
0.0
 10
-134.4042
 20
-64.7408
 30
0.0
  0
SPLINE
  5
11D
330
1F
100
AcDbEntity
  8
layer 1
 62
     7
100
AcDbSpline
210
0.0
220
0.0
230
1.0
 70
    11
 71
     3
 72
    20
 73
    16
 74
     0
 42
0.0000000001
 43
0.0000000001
 12
1.0
 22
0.0
 32
0.0
 13
1.0
 23
0.0
 33
0.0
 40
0.0
 40
0.0
 40
0.0
 40
0.0
 40
0.2
 40
0.2
 40
0.2
 40
0.2
 40
0.4
 40
0.4
 40
0.4
 40
0.4
 40
0.6
 40
0.6
 40
0.6
 40
0.6
 40
1.0
 40
1.0
 40
1.0
 40
1.0
 10
-119.196
 20
-79.6173
 30
0.0
 10
-120.8083
 20
-76.3324
 30
0.0
 10
-123.1622
 20
-74.5455
 30
0.0
 10
-125.6942
 20
-74.5776
 30
0.0
 10
-125.6942
 20
-74.5776
 30
0.0
 10
-128.2262
 20
-74.5455
 30
0.0
 10
-130.5801
 20
-76.3324
 30
0.0
 10
-132.1924
 20
-79.6173
 30
0.0
 10
-132.1924
 20
-79.6173
 30
0.0
 10
-129.6132
 20
-80.4716
 30
0.0
 10
-126.4955
 20
-83.349
 30
0.0
 10
-125.6942
 20
-85.9322
 30
0.0
 10
-125.6942
 20
-85.9322
 30
0.0
 10
-124.8929
 20
-83.349
 30
0.0
 10
-121.7752
 20
-80.4716
 30
0.0
 10
-119.196
 20
-79.6173
 30
0.0
  0
SPLINE
  5
11E
330
1F
100
AcDbEntity
  8
layer 1
 62
     7
100
AcDbSpline
210
0.0
220
0.0
230
1.0
 70
    11
 71
     3
 72
    20
 73
    16
 74
     0
 42
0.0000000001
 43
0.0000000001
 12
1.0
 22
0.0
 32
0.0
 13
1.0
 23
0.0
 33
0.0
 40
0.0
 40
0.0
 40
0.0
 40
0.0
 40
0.2
 40
0.2
 40
0.2
 40
0.2
 40
0.4
 40
0.4
 40
0.4
 40
0.4
 40
0.6
 40
0.6
 40
0.6
 40
0.6
 40
1.0
 40
1.0
 40
1.0
 40
1.0
 10
-134.4042
 20
-64.7408
 30
0.0
 10
-137.6233
 20
-66.274
 30
0.0
 10
-138.9839
 20
-69.0754
 30
0.0
 10
-138.9865
 20
-71.843
 30
0.0
 10
-138.9865
 20
-71.843
 30
0.0
 10
-138.9839
 20
-74.6106
 30
0.0
 10
-137.6233
 20
-77.412
 30
0.0
 10
-134.4042
 20
-78.9452
 30
0.0
 10
-134.4042
 20
-78.9452
 30
0.0
 10
-133.5641
 20
-75.4762
 30
0.0
 10
-130.5483
 20
-72.3114
 30
0.0
 10
-128.2772
 20
-71.843
 30
0.0
 10
-128.2772
 20
-71.843
 30
0.0
 10
-130.548
 20
-71.3744
 30
0.0
 10
-133.5639
 20
-68.2097
 30
0.0
 10
-134.4042
 20
-64.7408
 30
0.0
  0
SPLINE
  5
11F
330
1F
100
AcDbEntity
  8
layer 1
 62
     7
100
AcDbSpline
210
0.0
220
0.0
230
1.0
 70
    11
 71
     3
 72
    20
 73
    16
 74
     0
 42
0.0000000001
 43
0.0000000001
 12
1.0
 22
0.0
 32
0.0
 13
1.0
 23
0.0
 33
0.0
 40
0.0
 40
0.0
 40
0.0
 40
0.0
 40
0.2
 40
0.2
 40
0.2
 40
0.2
 40
0.4
 40
0.4
 40
0.4
 40
0.4
 40
0.6
 40
0.6
 40
0.6
 40
0.6
 40
1.0
 40
1.0
 40
1.0
 40
1.0
 10
-119.196
 20
-79.6173
 30
0.0
 10
-120.8083
 20
-76.3324
 30
0.0
 10
-123.1622
 20
-74.5455
 30
0.0
 10
-125.6942
 20
-74.5776
 30
0.0
 10
-125.6942
 20
-74.5776
 30
0.0
 10
-128.2262
 20
-74.5455
 30
0.0
 10
-130.5801
 20
-76.3324
 30
0.0
 10
-132.1924
 20
-79.6173
 30
0.0
 10
-132.1924
 20
-79.6173
 30
0.0
 10
-129.6132
 20
-80.4716
 30
0.0
 10
-126.4955
 20
-83.349
 30
0.0
 10
-125.6942
 20
-85.9322
 30
0.0
 10
-125.6942
 20
-85.9322
 30
0.0
 10
-124.8929
 20
-83.349
 30
0.0
 10
-121.7752
 20
-80.4716
 30
0.0
 10
-119.196
 20
-79.6173
 30
0.0
  0
SPLINE
  5
120
330
1F
100
AcDbEntity
  8
layer 1
 62
     7
100
AcDbSpline
210
0.0
220
0.0
230
1.0
 70
    11
 71
     3
 72
    20
 73
    16
 74
     0
 42
0.0000000001
 43
0.0000000001
 12
1.0
 22
0.0
 32
0.0
 13
1.0
 23
0.0
 33
0.0
 40
0.0
 40
0.0
 40
0.0
 40
0.0
 40
0.2
 40
0.2
 40
0.2
 40
0.2
 40
0.4
 40
0.4
 40
0.4
 40
0.4
 40
0.6
 40
0.6
 40
0.6
 40
0.6
 40
1.0
 40
1.0
 40
1.0
 40
1.0
 10
-116.959
 20
-78.9452
 30
0.0
 10
-113.7399
 20
-77.412
 30
0.0
 10
-112.3794
 20
-74.6106
 30
0.0
 10
-112.3768
 20
-71.843
 30
0.0
 10
-112.3768
 20
-71.843
 30
0.0
 10
-112.3796
 20
-69.0754
 30
0.0
 10
-113.7399
 20
-66.274
 30
0.0
 10
-116.959
 20
-64.7408
 30
0.0
 10
-116.959
 20
-64.7408
 30
0.0
 10
-117.7991
 20
-68.2097
 30
0.0
 10
-120.815
 20
-71.3746
 30
0.0
 10
-123.086
 20
-71.843
 30
0.0
 10
-123.086
 20
-71.843
 30
0.0
 10
-120.8152
 20
-72.3116
 30
0.0
 10
-117.7993
 20
-75.4762
 30
0.0
 10
-116.959
 20
-78.9452
 30
0.0
  0
SPLINE
  5
121
330
1F
100
AcDbEntity
  8
layer 1
 62
     7
100
AcDbSpline
210
0.0
220
0.0
230
1.0
 70
    11
 71
     3
 72
    20
 73
    16
 74
     0
 42
0.0000000001
 43
0.0000000001
 12
1.0
 22
0.0
 32
0.0
 13
1.0
 23
0.0
 33
0.0
 40
0.0
 40
0.0
 40
0.0
 40
0.0
 40
0.2
 40
0.2
 40
0.2
 40
0.2
 40
0.4
 40
0.4
 40
0.4
 40
0.4
 40
0.6
 40
0.6
 40
0.6
 40
0.6
 40
1.0
 40
1.0
 40
1.0
 40
1.0
 10
-132.1674
 20
-64.0687
 30
0.0
 10
-130.5551
 20
-67.3535
 30
0.0
 10
-128.2012
 20
-69.1404
 30
0.0
 10
-125.6692
 20
-69.1083
 30
0.0
 10
-125.6692
 20
-69.1083
 30
0.0
 10
-123.1372
 20
-69.1404
 30
0.0
 10
-120.7833
 20
-67.3535
 30
0.0
 10
-119.171
 20
-64.0687
 30
0.0
 10
-119.171
 20
-64.0687
 30
0.0
 10
-121.7502
 20
-63.2144
 30
0.0
 10
-124.8679
 20
-60.337
 30
0.0
 10
-125.6692
 20
-57.7538
 30
0.0
 10
-125.6692
 20
-57.7538
 30
0.0
 10
-126.4705
 20
-60.337
 30
0.0
 10
-129.5883
 20
-63.2144
 30
0.0
 10
-132.1674
 20
-64.0687
 30
0.0
  0
SPLINE
  5
122
330
1F
100
AcDbEntity
  8
layer 1
 62
     7
100
AcDbSpline
210
0.0
220
0.0
230
1.0
 70
    11
 71
     3
 72
    20
 73
    16
 74
     0
 42
0.0000000001
 43
0.0000000001
 12
1.0
 22
0.0
 32
0.0
 13
1.0
 23
0.0
 33
0.0
 40
0.0
 40
0.0
 40
0.0
 40
0.0
 40
0.2
 40
0.2
 40
0.2
 40
0.2
 40
0.4
 40
0.4
 40
0.4
 40
0.4
 40
0.6
 40
0.6
 40
0.6
 40
0.6
 40
1.0
 40
1.0
 40
1.0
 40
1.0
 10
-103.0246
 20
-64.7408
 30
0.0
 10
-106.2438
 20
-66.274
 30
0.0
 10
-107.6043
 20
-69.0754
 30
0.0
 10
-107.6069
 20
-71.843
 30
0.0
 10
-107.6069
 20
-71.843
 30
0.0
 10
-107.6043
 20
-74.6106
 30
0.0
 10
-106.2438
 20
-77.412
 30
0.0
 10
-103.0246
 20
-78.9452
 30
0.0
 10
-103.0246
 20
-78.9452
 30
0.0
 10
-102.1846
 20
-75.4762
 30
0.0
 10
-99.1687
 20
-72.3114
 30
0.0
 10
-96.8977
 20
-71.843
 30
0.0
 10
-96.8977
 20
-71.843
 30
0.0
 10
-99.1685
 20
-71.3744
 30
0.0
 10
-102.1844
 20
-68.2097
 30
0.0
 10
-103.0246
 20
-64.7408
 30
0.0
  0
SPLINE
  5
123
330
1F
100
AcDbEntity
  8
layer 1
 62
     7
100
AcDbSpline
210
0.0
220
0.0
230
1.0
 70
    11
 71
     3
 72
    20
 73
    16
 74
     0
 42
0.0000000001
 43
0.0000000001
 12
1.0
 22
0.0
 32
0.0
 13
1.0
 23
0.0
 33
0.0
 40
0.0
 40
0.0
 40
0.0
 40
0.0
 40
0.2
 40
0.2
 40
0.2
 40
0.2
 40
0.4
 40
0.4
 40
0.4
 40
0.4
 40
0.6
 40
0.6
 40
0.6
 40
0.6
 40
1.0
 40
1.0
 40
1.0
 40
1.0
 10
-87.8165
 20
-79.6173
 30
0.0
 10
-89.4288
 20
-76.3324
 30
0.0
 10
-91.7827
 20
-74.5455
 30
0.0
 10
-94.3147
 20
-74.5776
 30
0.0
 10
-94.3147
 20
-74.5776
 30
0.0
 10
-96.8467
 20
-74.5455
 30
0.0
 10
-99.2006
 20
-76.3324
 30
0.0
 10
-100.8129
 20
-79.6173
 30
0.0
 10
-100.8129
 20
-79.6173
 30
0.0
 10
-98.2337
 20
-80.4716
 30
0.0
 10
-95.116
 20
-83.349
 30
0.0
 10
-94.3147
 20
-85.9322
 30
0.0
 10
-94.3147
 20
-85.9322
 30
0.0
 10
-93.5134
 20
-83.349
 30
0.0
 10
-90.3957
 20
-80.4716
 30
0.0
 10
-87.8165
 20
-79.6173
 30
0.0
  0
SPLINE
  5
124
330
1F
100
AcDbEntity
  8
layer 1
 62
     7
100
AcDbSpline
210
0.0
220
0.0
230
1.0
 70
    11
 71
     3
 72
    20
 73
    16
 74
     0
 42
0.0000000001
 43
0.0000000001
 12
1.0
 22
0.0
 32
0.0
 13
1.0
 23
0.0
 33
0.0
 40
0.0
 40
0.0
 40
0.0
 40
0.0
 40
0.2
 40
0.2
 40
0.2
 40
0.2
 40
0.4
 40
0.4
 40
0.4
 40
0.4
 40
0.6
 40
0.6
 40
0.6
 40
0.6
 40
1.0
 40
1.0
 40
1.0
 40
1.0
 10
-103.0246
 20
-64.7408
 30
0.0
 10
-106.2438
 20
-66.274
 30
0.0
 10
-107.6043
 20
-69.0754
 30
0.0
 10
-107.6069
 20
-71.843
 30
0.0
 10
-107.6069
 20
-71.843
 30
0.0
 10
-107.6043
 20
-74.6106
 30
0.0
 10
-106.2438
 20
-77.412
 30
0.0
 10
-103.0246
 20
-78.9452
 30
0.0
 10
-103.0246
 20
-78.9452
 30
0.0
 10
-102.1846
 20
-75.4762
 30
0.0
 10
-99.1687
 20
-72.3114
 30
0.0
 10
-96.8977
 20
-71.843
 30
0.0
 10
-96.8977
 20
-71.843
 30
0.0
 10
-99.1685
 20
-71.3744
 30
0.0
 10
-102.1844
 20
-68.2097
 30
0.0
 10
-103.0246
 20
-64.7408
 30
0.0
  0
SPLINE
  5
125
330
1F
100
AcDbEntity
  8
layer 1
 62
     7
100
AcDbSpline
210
0.0
220
0.0
230
1.0
 70
    11
 71
     3
 72
    20
 73
    16
 74
     0
 42
0.0000000001
 43
0.0000000001
 12
1.0
 22
0.0
 32
0.0
 13
1.0
 23
0.0
 33
0.0
 40
0.0
 40
0.0
 40
0.0
 40
0.0
 40
0.2
 40
0.2
 40
0.2
 40
0.2
 40
0.4
 40
0.4
 40
0.4
 40
0.4
 40
0.6
 40
0.6
 40
0.6
 40
0.6
 40
1.0
 40
1.0
 40
1.0
 40
1.0
 10
-87.8165
 20
-79.6173
 30
0.0
 10
-89.4288
 20
-76.3324
 30
0.0
 10
-91.7827
 20
-74.5455
 30
0.0
 10
-94.3147
 20
-74.5776
 30
0.0
 10
-94.3147
 20
-74.5776
 30
0.0
 10
-96.8467
 20
-74.5455
 30
0.0
 10
-99.2006
 20
-76.3324
 30
0.0
 10
-100.8129
 20
-79.6173
 30
0.0
 10
-100.8129
 20
-79.6173
 30
0.0
 10
-98.2337
 20
-80.4716
 30
0.0
 10
-95.116
 20
-83.349
 30
0.0
 10
-94.3147
 20
-85.9322
 30
0.0
 10
-94.3147
 20
-85.9322
 30
0.0
 10
-93.5134
 20
-83.349
 30
0.0
 10
-90.3957
 20
-80.4716
 30
0.0
 10
-87.8165
 20
-79.6173
 30
0.0
  0
SPLINE
  5
126
330
1F
100
AcDbEntity
  8
layer 1
 62
     7
100
AcDbSpline
210
0.0
220
0.0
230
1.0
 70
    11
 71
     3
 72
    20
 73
    16
 74
     0
 42
0.0000000001
 43
0.0000000001
 12
1.0
 22
0.0
 32
0.0
 13
1.0
 23
0.0
 33
0.0
 40
0.0
 40
0.0
 40
0.0
 40
0.0
 40
0.2
 40
0.2
 40
0.2
 40
0.2
 40
0.4
 40
0.4
 40
0.4
 40
0.4
 40
0.6
 40
0.6
 40
0.6
 40
0.6
 40
1.0
 40
1.0
 40
1.0
 40
1.0
 10
-85.5795
 20
-78.9452
 30
0.0
 10
-82.3604
 20
-77.412
 30
0.0
 10
-80.9998
 20
-74.6106
 30
0.0
 10
-80.9972
 20
-71.843
 30
0.0
 10
-80.9972
 20
-71.843
 30
0.0
 10
-81.0
 20
-69.0754
 30
0.0
 10
-82.3604
 20
-66.274
 30
0.0
 10
-85.5795
 20
-64.7408
 30
0.0
 10
-85.5795
 20
-64.7408
 30
0.0
 10
-86.4196
 20
-68.2097
 30
0.0
 10
-89.4354
 20
-71.3746
 30
0.0
 10
-91.7064
 20
-71.843
 30
0.0
 10
-91.7064
 20
-71.843
 30
0.0
 10
-89.4357
 20
-72.3116
 30
0.0
 10
-86.4198
 20
-75.4762
 30
0.0
 10
-85.5795
 20
-78.9452
 30
0.0
  0
SPLINE
  5
127
330
1F
100
AcDbEntity
  8
layer 1
 62
     7
100
AcDbSpline
210
0.0
220
0.0
230
1.0
 70
    11
 71
     3
 72
    20
 73
    16
 74
     0
 42
0.0000000001
 43
0.0000000001
 12
1.0
 22
0.0
 32
0.0
 13
1.0
 23
0.0
 33
0.0
 40
0.0
 40
0.0
 40
0.0
 40
0.0
 40
0.2
 40
0.2
 40
0.2
 40
0.2
 40
0.4
 40
0.4
 40
0.4
 40
0.4
 40
0.6
 40
0.6
 40
0.6
 40
0.6
 40
1.0
 40
1.0
 40
1.0
 40
1.0
 10
-100.7879
 20
-64.0687
 30
0.0
 10
-99.1756
 20
-67.3535
 30
0.0
 10
-96.8217
 20
-69.1404
 30
0.0
 10
-94.2897
 20
-69.1083
 30
0.0
 10
-94.2897
 20
-69.1083
 30
0.0
 10
-91.7577
 20
-69.1404
 30
0.0
 10
-89.4038
 20
-67.3535
 30
0.0
 10
-87.7915
 20
-64.0687
 30
0.0
 10
-87.7915
 20
-64.0687
 30
0.0
 10
-90.3707
 20
-63.2144
 30
0.0
 10
-93.4884
 20
-60.337
 30
0.0
 10
-94.2897
 20
-57.7538
 30
0.0
 10
-94.2897
 20
-57.7538
 30
0.0
 10
-95.091
 20
-60.337
 30
0.0
 10
-98.2087
 20
-63.2144
 30
0.0
 10
-100.7879
 20
-64.0687
 30
0.0
  0
SPLINE
  5
128
330
1F
100
AcDbEntity
  8
layer 1
 62
     7
100
AcDbSpline
210
0.0
220
0.0
230
1.0
 70
    11
 71
     3
 72
    20
 73
    16
 74
     0
 42
0.0000000001
 43
0.0000000001
 12
1.0
 22
0.0
 32
0.0
 13
1.0
 23
0.0
 33
0.0
 40
0.0
 40
0.0
 40
0.0
 40
0.0
 40
0.2
 40
0.2
 40
0.2
 40
0.2
 40
0.4
 40
0.4
 40
0.4
 40
0.4
 40
0.6
 40
0.6
 40
0.6
 40
0.6
 40
1.0
 40
1.0
 40
1.0
 40
1.0
 10
-165.7837
 20
-64.7408
 30
0.0
 10
-169.0029
 20
-66.274
 30
0.0
 10
-170.3634
 20
-69.0754
 30
0.0
 10
-170.366
 20
-71.843
 30
0.0
 10
-170.366
 20
-71.843
 30
0.0
 10
-170.3634
 20
-74.6106
 30
0.0
 10
-169.0029
 20
-77.412
 30
0.0
 10
-165.7837
 20
-78.9452
 30
0.0
 10
-165.7837
 20
-78.9452
 30
0.0
 10
-164.9437
 20
-75.4762
 30
0.0
 10
-161.9278
 20
-72.3114
 30
0.0
 10
-159.6568
 20
-71.843
 30
0.0
 10
-159.6568
 20
-71.843
 30
0.0
 10
-161.9276
 20
-71.3744
 30
0.0
 10
-164.9434
 20
-68.2097
 30
0.0
 10
-165.7837
 20
-64.7408
 30
0.0
  0
SPLINE
  5
129
330
1F
100
AcDbEntity
  8
layer 1
 62
     7
100
AcDbSpline
210
0.0
220
0.0
230
1.0
 70
    11
 71
     3
 72
    20
 73
    16
 74
     0
 42
0.0000000001
 43
0.0000000001
 12
1.0
 22
0.0
 32
0.0
 13
1.0
 23
0.0
 33
0.0
 40
0.0
 40
0.0
 40
0.0
 40
0.0
 40
0.2
 40
0.2
 40
0.2
 40
0.2
 40
0.4
 40
0.4
 40
0.4
 40
0.4
 40
0.6
 40
0.6
 40
0.6
 40
0.6
 40
1.0
 40
1.0
 40
1.0
 40
1.0
 10
-150.5756
 20
-79.6173
 30
0.0
 10
-152.1878
 20
-76.3324
 30
0.0
 10
-154.5417
 20
-74.5455
 30
0.0
 10
-157.0737
 20
-74.5776
 30
0.0
 10
-157.0737
 20
-74.5776
 30
0.0
 10
-159.6057
 20
-74.5455
 30
0.0
 10
-161.9597
 20
-76.3324
 30
0.0
 10
-163.5719
 20
-79.6173
 30
0.0
 10
-163.5719
 20
-79.6173
 30
0.0
 10
-160.9928
 20
-80.4716
 30
0.0
 10
-157.875
 20
-83.349
 30
0.0
 10
-157.0737
 20
-85.9322
 30
0.0
 10
-157.0737
 20
-85.9322
 30
0.0
 10
-156.2725
 20
-83.349
 30
0.0
 10
-153.1547
 20
-80.4716
 30
0.0
 10
-150.5756
 20
-79.6173
 30
0.0
  0
SPLINE
  5
12A
330
1F
100
AcDbEntity
  8
layer 1
 62
     7
100
AcDbSpline
210
0.0
220
0.0
230
1.0
 70
    11
 71
     3
 72
    20
 73
    16
 74
     0
 42
0.0000000001
 43
0.0000000001
 12
1.0
 22
0.0
 32
0.0
 13
1.0
 23
0.0
 33
0.0
 40
0.0
 40
0.0
 40
0.0
 40
0.0
 40
0.2
 40
0.2
 40
0.2
 40
0.2
 40
0.4
 40
0.4
 40
0.4
 40
0.4
 40
0.6
 40
0.6
 40
0.6
 40
0.6
 40
1.0
 40
1.0
 40
1.0
 40
1.0
 10
-165.7837
 20
-64.7408
 30
0.0
 10
-169.0029
 20
-66.274
 30
0.0
 10
-170.3634
 20
-69.0754
 30
0.0
 10
-170.366
 20
-71.843
 30
0.0
 10
-170.366
 20
-71.843
 30
0.0
 10
-170.3634
 20
-74.6106
 30
0.0
 10
-169.0029
 20
-77.412
 30
0.0
 10
-165.7837
 20
-78.9452
 30
0.0
 10
-165.7837
 20
-78.9452
 30
0.0
 10
-164.9437
 20
-75.4762
 30
0.0
 10
-161.9278
 20
-72.3114
 30
0.0
 10
-159.6568
 20
-71.843
 30
0.0
 10
-159.6568
 20
-71.843
 30
0.0
 10
-161.9276
 20
-71.3744
 30
0.0
 10
-164.9434
 20
-68.2097
 30
0.0
 10
-165.7837
 20
-64.7408
 30
0.0
  0
SPLINE
  5
12B
330
1F
100
AcDbEntity
  8
layer 1
 62
     7
100
AcDbSpline
210
0.0
220
0.0
230
1.0
 70
    11
 71
     3
 72
    20
 73
    16
 74
     0
 42
0.0000000001
 43
0.0000000001
 12
1.0
 22
0.0
 32
0.0
 13
1.0
 23
0.0
 33
0.0
 40
0.0
 40
0.0
 40
0.0
 40
0.0
 40
0.2
 40
0.2
 40
0.2
 40
0.2
 40
0.4
 40
0.4
 40
0.4
 40
0.4
 40
0.6
 40
0.6
 40
0.6
 40
0.6
 40
1.0
 40
1.0
 40
1.0
 40
1.0
 10
-150.5756
 20
-79.6173
 30
0.0
 10
-152.1878
 20
-76.3324
 30
0.0
 10
-154.5417
 20
-74.5455
 30
0.0
 10
-157.0737
 20
-74.5776
 30
0.0
 10
-157.0737
 20
-74.5776
 30
0.0
 10
-159.6057
 20
-74.5455
 30
0.0
 10
-161.9597
 20
-76.3324
 30
0.0
 10
-163.5719
 20
-79.6173
 30
0.0
 10
-163.5719
 20
-79.6173
 30
0.0
 10
-160.9928
 20
-80.4716
 30
0.0
 10
-157.875
 20
-83.349
 30
0.0
 10
-157.0737
 20
-85.9322
 30
0.0
 10
-157.0737
 20
-85.9322
 30
0.0
 10
-156.2725
 20
-83.349
 30
0.0
 10
-153.1547
 20
-80.4716
 30
0.0
 10
-150.5756
 20
-79.6173
 30
0.0
  0
SPLINE
  5
12C
330
1F
100
AcDbEntity
  8
layer 1
 62
     7
100
AcDbSpline
210
0.0
220
0.0
230
1.0
 70
    11
 71
     3
 72
    20
 73
    16
 74
     0
 42
0.0000000001
 43
0.0000000001
 12
1.0
 22
0.0
 32
0.0
 13
1.0
 23
0.0
 33
0.0
 40
0.0
 40
0.0
 40
0.0
 40
0.0
 40
0.2
 40
0.2
 40
0.2
 40
0.2
 40
0.4
 40
0.4
 40
0.4
 40
0.4
 40
0.6
 40
0.6
 40
0.6
 40
0.6
 40
1.0
 40
1.0
 40
1.0
 40
1.0
 10
-148.3386
 20
-78.9452
 30
0.0
 10
-145.1194
 20
-77.412
 30
0.0
 10
-143.7589
 20
-74.6106
 30
0.0
 10
-143.7563
 20
-71.843
 30
0.0
 10
-143.7563
 20
-71.843
 30
0.0
 10
-143.7591
 20
-69.0754
 30
0.0
 10
-145.1194
 20
-66.274
 30
0.0
 10
-148.3386
 20
-64.7408
 30
0.0
 10
-148.3386
 20
-64.7408
 30
0.0
 10
-149.1786
 20
-68.2097
 30
0.0
 10
-152.1945
 20
-71.3746
 30
0.0
 10
-154.4655
 20
-71.843
 30
0.0
 10
-154.4655
 20
-71.843
 30
0.0
 10
-152.1947
 20
-72.3116
 30
0.0
 10
-149.1788
 20
-75.4762
 30
0.0
 10
-148.3386
 20
-78.9452
 30
0.0
  0
SPLINE
  5
12D
330
1F
100
AcDbEntity
  8
layer 1
 62
     7
100
AcDbSpline
210
0.0
220
0.0
230
1.0
 70
    11
 71
     3
 72
    20
 73
    16
 74
     0
 42
0.0000000001
 43
0.0000000001
 12
1.0
 22
0.0
 32
0.0
 13
1.0
 23
0.0
 33
0.0
 40
0.0
 40
0.0
 40
0.0
 40
0.0
 40
0.2
 40
0.2
 40
0.2
 40
0.2
 40
0.4
 40
0.4
 40
0.4
 40
0.4
 40
0.6
 40
0.6
 40
0.6
 40
0.6
 40
1.0
 40
1.0
 40
1.0
 40
1.0
 10
-163.547
 20
-64.0687
 30
0.0
 10
-161.9347
 20
-67.3535
 30
0.0
 10
-159.5808
 20
-69.1404
 30
0.0
 10
-157.0488
 20
-69.1083
 30
0.0
 10
-157.0488
 20
-69.1083
 30
0.0
 10
-154.5168
 20
-69.1404
 30
0.0
 10
-152.1629
 20
-67.3535
 30
0.0
 10
-150.5506
 20
-64.0687
 30
0.0
 10
-150.5506
 20
-64.0687
 30
0.0
 10
-153.1297
 20
-63.2144
 30
0.0
 10
-156.2475
 20
-60.337
 30
0.0
 10
-157.0488
 20
-57.7538
 30
0.0
 10
-157.0488
 20
-57.7538
 30
0.0
 10
-157.8501
 20
-60.337
 30
0.0
 10
-160.9678
 20
-63.2144
 30
0.0
 10
-163.547
 20
-64.0687
 30
0.0
  0
SPLINE
  5
12E
330
1F
100
AcDbEntity
  8
layer 1
 62
     7
100
AcDbSpline
210
0.0
220
0.0
230
1.0
 70
    11
 71
     3
 72
    20
 73
    16
 74
     0
 42
0.0000000001
 43
0.0000000001
 12
1.0
 22
0.0
 32
0.0
 13
1.0
 23
0.0
 33
0.0
 40
0.0
 40
0.0
 40
0.0
 40
0.0
 40
0.2
 40
0.2
 40
0.2
 40
0.2
 40
0.4
 40
0.4
 40
0.4
 40
0.4
 40
0.6
 40
0.6
 40
0.6
 40
0.6
 40
1.0
 40
1.0
 40
1.0
 40
1.0
 10
-132.1674
 20
-100.3813
 30
0.0
 10
-130.5551
 20
-103.6661
 30
0.0
 10
-128.2012
 20
-105.453
 30
0.0
 10
-125.6692
 20
-105.421
 30
0.0
 10
-125.6692
 20
-105.421
 30
0.0
 10
-123.1372
 20
-105.453
 30
0.0
 10
-120.7833
 20
-103.6661
 30
0.0
 10
-119.171
 20
-100.3813
 30
0.0
 10
-119.171
 20
-100.3813
 30
0.0
 10
-121.7502
 20
-99.527
 30
0.0
 10
-124.8679
 20
-96.6496
 30
0.0
 10
-125.6692
 20
-94.0664
 30
0.0
 10
-125.6692
 20
-94.0664
 30
0.0
 10
-126.4705
 20
-96.6496
 30
0.0
 10
-129.5883
 20
-99.527
 30
0.0
 10
-132.1674
 20
-100.3813
 30
0.0
  0
SPLINE
  5
12F
330
1F
100
AcDbEntity
  8
layer 1
 62
     7
100
AcDbSpline
210
0.0
220
0.0
230
1.0
 70
    11
 71
     3
 72
    20
 73
    16
 74
     0
 42
0.0000000001
 43
0.0000000001
 12
1.0
 22
0.0
 32
0.0
 13
1.0
 23
0.0
 33
0.0
 40
0.0
 40
0.0
 40
0.0
 40
0.0
 40
0.2
 40
0.2
 40
0.2
 40
0.2
 40
0.4
 40
0.4
 40
0.4
 40
0.4
 40
0.6
 40
0.6
 40
0.6
 40
0.6
 40
1.0
 40
1.0
 40
1.0
 40
1.0
 10
-100.7879
 20
-100.3813
 30
0.0
 10
-99.1756
 20
-103.6661
 30
0.0
 10
-96.8217
 20
-105.453
 30
0.0
 10
-94.2897
 20
-105.421
 30
0.0
 10
-94.2897
 20
-105.421
 30
0.0
 10
-91.7577
 20
-105.453
 30
0.0
 10
-89.4038
 20
-103.6661
 30
0.0
 10
-87.7915
 20
-100.3813
 30
0.0
 10
-87.7915
 20
-100.3813
 30
0.0
 10
-90.3707
 20
-99.527
 30
0.0
 10
-93.4884
 20
-96.6496
 30
0.0
 10
-94.2897
 20
-94.0664
 30
0.0
 10
-94.2897
 20
-94.0664
 30
0.0
 10
-95.091
 20
-96.6496
 30
0.0
 10
-98.2087
 20
-99.527
 30
0.0
 10
-100.7879
 20
-100.3813
 30
0.0
  0
SPLINE
  5
130
330
1F
100
AcDbEntity
  8
layer 1
 62
     7
100
AcDbSpline
210
0.0
220
0.0
230
1.0
 70
    11
 71
     3
 72
    20
 73
    16
 74
     0
 42
0.0000000001
 43
0.0000000001
 12
1.0
 22
0.0
 32
0.0
 13
1.0
 23
0.0
 33
0.0
 40
0.0
 40
0.0
 40
0.0
 40
0.0
 40
0.2
 40
0.2
 40
0.2
 40
0.2
 40
0.4
 40
0.4
 40
0.4
 40
0.4
 40
0.6
 40
0.6
 40
0.6
 40
0.6
 40
1.0
 40
1.0
 40
1.0
 40
1.0
 10
-163.547
 20
-100.3813
 30
0.0
 10
-161.9347
 20
-103.6661
 30
0.0
 10
-159.5808
 20
-105.453
 30
0.0
 10
-157.0488
 20
-105.421
 30
0.0
 10
-157.0488
 20
-105.421
 30
0.0
 10
-154.5168
 20
-105.453
 30
0.0
 10
-152.1629
 20
-103.6661
 30
0.0
 10
-150.5506
 20
-100.3813
 30
0.0
 10
-150.5506
 20
-100.3813
 30
0.0
 10
-153.1297
 20
-99.527
 30
0.0
 10
-156.2475
 20
-96.6496
 30
0.0
 10
-157.0488
 20
-94.0664
 30
0.0
 10
-157.0488
 20
-94.0664
 30
0.0
 10
-157.8501
 20
-96.6496
 30
0.0
 10
-160.9678
 20
-99.527
 30
0.0
 10
-163.547
 20
-100.3813
 30
0.0
  0
SPLINE
  5
131
330
1F
100
AcDbEntity
  8
layer 1
 62
     7
100
AcDbSpline
210
0.0
220
0.0
230
1.0
 70
    11
 71
     3
 72
    20
 73
    16
 74
     0
 42
0.0000000001
 43
0.0000000001
 12
1.0
 22
0.0
 32
0.0
 13
1.0
 23
0.0
 33
0.0
 40
0.0
 40
0.0
 40
0.0
 40
0.0
 40
0.2
 40
0.2
 40
0.2
 40
0.2
 40
0.4
 40
0.4
 40
0.4
 40
0.4
 40
0.6
 40
0.6
 40
0.6
 40
0.6
 40
1.0
 40
1.0
 40
1.0
 40
1.0
 10
-134.6738
 20
117.3415
 30
0.0
 10
-136.2861
 20
120.6263
 30
0.0
 10
-138.64
 20
122.4132
 30
0.0
 10
-141.172
 20
122.3811
 30
0.0
 10
-141.172
 20
122.3811
 30
0.0
 10
-143.704
 20
122.4132
 30
0.0
 10
-146.0579
 20
120.6263
 30
0.0
 10
-147.6702
 20
117.3415
 30
0.0
 10
-147.6702
 20
117.3415
 30
0.0
 10
-145.091
 20
116.4872
 30
0.0
 10
-141.9733
 20
113.6098
 30
0.0
 10
-141.172
 20
111.0265
 30
0.0
 10
-141.172
 20
111.0265
 30
0.0
 10
-140.3707
 20
113.6098
 30
0.0
 10
-137.253
 20
116.4872
 30
0.0
 10
-134.6738
 20
117.3415
 30
0.0
  0
SPLINE
  5
132
330
1F
100
AcDbEntity
  8
layer 1
 62
     7
100
AcDbSpline
210
0.0
220
0.0
230
1.0
 70
    11
 71
     3
 72
    16
 73
    12
 74
     0
 42
0.0000000001
 43
0.0000000001
 12
1.0
 22
0.0
 32
0.0
 13
1.0
 23
0.0
 33
0.0
 40
0.0
 40
0.0
 40
0.0
 40
0.0
 40
0.25
 40
0.25
 40
0.25
 40
0.25
 40
0.5
 40
0.5
 40
0.5
 40
0.5
 40
1.0
 40
1.0
 40
1.0
 40
1.0
 10
-154.4642
 20
125.1158
 30
0.0
 10
-154.4616
 20
122.3482
 30
0.0
 10
-153.1011
 20
119.5468
 30
0.0
 10
-149.8819
 20
118.0136
 30
0.0
 10
-149.8819
 20
118.0136
 30
0.0
 10
-149.0419
 20
121.4825
 30
0.0
 10
-146.026
 20
124.6474
 30
0.0
 10
-143.755
 20
125.1158
 30
0.0
 10
-143.755
 20
125.1158
 30
0.0
 10
-143.755
 20
125.1158
 30
0.0
 10
-154.4642
 20
125.1158
 30
0.0
 10
-154.4642
 20
125.1158
 30
0.0
  0
SPLINE
  5
133
330
1F
100
AcDbEntity
  8
layer 1
 62
     7
100
AcDbSpline
210
0.0
220
0.0
230
1.0
 70
    11
 71
     3
 72
    20
 73
    16
 74
     0
 42
0.0000000001
 43
0.0000000001
 12
1.0
 22
0.0
 32
0.0
 13
1.0
 23
0.0
 33
0.0
 40
0.0
 40
0.0
 40
0.0
 40
0.0
 40
0.2
 40
0.2
 40
0.2
 40
0.2
 40
0.4
 40
0.4
 40
0.4
 40
0.4
 40
0.6
 40
0.6
 40
0.6
 40
0.6
 40
1.0
 40
1.0
 40
1.0
 40
1.0
 10
-134.6738
 20
117.3415
 30
0.0
 10
-136.2861
 20
120.6263
 30
0.0
 10
-138.64
 20
122.4132
 30
0.0
 10
-141.172
 20
122.3811
 30
0.0
 10
-141.172
 20
122.3811
 30
0.0
 10
-143.704
 20
122.4132
 30
0.0
 10
-146.0579
 20
120.6263
 30
0.0
 10
-147.6702
 20
117.3415
 30
0.0
 10
-147.6702
 20
117.3415
 30
0.0
 10
-145.091
 20
116.4872
 30
0.0
 10
-141.9733
 20
113.6098
 30
0.0
 10
-141.172
 20
111.0265
 30
0.0
 10
-141.172
 20
111.0265
 30
0.0
 10
-140.3707
 20
113.6098
 30
0.0
 10
-137.253
 20
116.4872
 30
0.0
 10
-134.6738
 20
117.3415
 30
0.0
  0
SPLINE
  5
134
330
1F
100
AcDbEntity
  8
layer 1
 62
     7
100
AcDbSpline
210
0.0
220
0.0
230
1.0
 70
    11
 71
     3
 72
    16
 73
    12
 74
     0
 42
0.0000000001
 43
0.0000000001
 12
1.0
 22
0.0
 32
0.0
 13
1.0
 23
0.0
 33
0.0
 40
0.0
 40
0.0
 40
0.0
 40
0.0
 40
0.25
 40
0.25
 40
0.25
 40
0.25
 40
0.5
 40
0.5
 40
0.5
 40
0.5
 40
1.0
 40
1.0
 40
1.0
 40
1.0
 10
-132.4368
 20
118.0136
 30
0.0
 10
-129.2177
 20
119.5468
 30
0.0
 10
-127.8571
 20
122.3482
 30
0.0
 10
-127.8545
 20
125.1158
 30
0.0
 10
-127.8545
 20
125.1158
 30
0.0
 10
-127.8545
 20
125.1158
 30
0.0
 10
-138.5637
 20
125.1158
 30
0.0
 10
-138.5637
 20
125.1158
 30
0.0
 10
-138.5637
 20
125.1158
 30
0.0
 10
-136.293
 20
124.6472
 30
0.0
 10
-133.2771
 20
121.4825
 30
0.0
 10
-132.4368
 20
118.0136
 30
0.0
  0
SPLINE
  5
135
330
1F
100
AcDbEntity
  8
layer 1
 62
     7
100
AcDbSpline
210
0.0
220
0.0
230
1.0
 70
    11
 71
     3
 72
    20
 73
    16
 74
     0
 42
0.0000000001
 43
0.0000000001
 12
1.0
 22
0.0
 32
0.0
 13
1.0
 23
0.0
 33
0.0
 40
0.0
 40
0.0
 40
0.0
 40
0.0
 40
0.2
 40
0.2
 40
0.2
 40
0.2
 40
0.4
 40
0.4
 40
0.4
 40
0.4
 40
0.6
 40
0.6
 40
0.6
 40
0.6
 40
1.0
 40
1.0
 40
1.0
 40
1.0
 10
-103.2943
 20
117.3415
 30
0.0
 10
-104.9065
 20
120.6263
 30
0.0
 10
-107.2604
 20
122.4132
 30
0.0
 10
-109.7924
 20
122.3811
 30
0.0
 10
-109.7924
 20
122.3811
 30
0.0
 10
-112.3244
 20
122.4132
 30
0.0
 10
-114.6784
 20
120.6263
 30
0.0
 10
-116.2906
 20
117.3415
 30
0.0
 10
-116.2906
 20
117.3415
 30
0.0
 10
-113.7115
 20
116.4872
 30
0.0
 10
-110.5937
 20
113.6098
 30
0.0
 10
-109.7924
 20
111.0265
 30
0.0
 10
-109.7924
 20
111.0265
 30
0.0
 10
-108.9911
 20
113.6098
 30
0.0
 10
-105.8734
 20
116.4872
 30
0.0
 10
-103.2943
 20
117.3415
 30
0.0
  0
SPLINE
  5
136
330
1F
100
AcDbEntity
  8
layer 1
 62
     7
100
AcDbSpline
210
0.0
220
0.0
230
1.0
 70
    11
 71
     3
 72
    16
 73
    12
 74
     0
 42
0.0000000001
 43
0.0000000001
 12
1.0
 22
0.0
 32
0.0
 13
1.0
 23
0.0
 33
0.0
 40
0.0
 40
0.0
 40
0.0
 40
0.0
 40
0.25
 40
0.25
 40
0.25
 40
0.25
 40
0.5
 40
0.5
 40
0.5
 40
0.5
 40
1.0
 40
1.0
 40
1.0
 40
1.0
 10
-123.0847
 20
125.1158
 30
0.0
 10
-123.0821
 20
122.3482
 30
0.0
 10
-121.7216
 20
119.5468
 30
0.0
 10
-118.5024
 20
118.0136
 30
0.0
 10
-118.5024
 20
118.0136
 30
0.0
 10
-117.6624
 20
121.4825
 30
0.0
 10
-114.6465
 20
124.6474
 30
0.0
 10
-112.3755
 20
125.1158
 30
0.0
 10
-112.3755
 20
125.1158
 30
0.0
 10
-112.3755
 20
125.1158
 30
0.0
 10
-123.0847
 20
125.1158
 30
0.0
 10
-123.0847
 20
125.1158
 30
0.0
  0
SPLINE
  5
137
330
1F
100
AcDbEntity
  8
layer 1
 62
     7
100
AcDbSpline
210
0.0
220
0.0
230
1.0
 70
    11
 71
     3
 72
    20
 73
    16
 74
     0
 42
0.0000000001
 43
0.0000000001
 12
1.0
 22
0.0
 32
0.0
 13
1.0
 23
0.0
 33
0.0
 40
0.0
 40
0.0
 40
0.0
 40
0.0
 40
0.2
 40
0.2
 40
0.2
 40
0.2
 40
0.4
 40
0.4
 40
0.4
 40
0.4
 40
0.6
 40
0.6
 40
0.6
 40
0.6
 40
1.0
 40
1.0
 40
1.0
 40
1.0
 10
-103.2943
 20
117.3415
 30
0.0
 10
-104.9065
 20
120.6263
 30
0.0
 10
-107.2604
 20
122.4132
 30
0.0
 10
-109.7924
 20
122.3811
 30
0.0
 10
-109.7924
 20
122.3811
 30
0.0
 10
-112.3244
 20
122.4132
 30
0.0
 10
-114.6784
 20
120.6263
 30
0.0
 10
-116.2906
 20
117.3415
 30
0.0
 10
-116.2906
 20
117.3415
 30
0.0
 10
-113.7115
 20
116.4872
 30
0.0
 10
-110.5937
 20
113.6098
 30
0.0
 10
-109.7924
 20
111.0265
 30
0.0
 10
-109.7924
 20
111.0265
 30
0.0
 10
-108.9911
 20
113.6098
 30
0.0
 10
-105.8734
 20
116.4872
 30
0.0
 10
-103.2943
 20
117.3415
 30
0.0
  0
SPLINE
  5
138
330
1F
100
AcDbEntity
  8
layer 1
 62
     7
100
AcDbSpline
210
0.0
220
0.0
230
1.0
 70
    11
 71
     3
 72
    16
 73
    12
 74
     0
 42
0.0000000001
 43
0.0000000001
 12
1.0
 22
0.0
 32
0.0
 13
1.0
 23
0.0
 33
0.0
 40
0.0
 40
0.0
 40
0.0
 40
0.0
 40
0.25
 40
0.25
 40
0.25
 40
0.25
 40
0.5
 40
0.5
 40
0.5
 40
0.5
 40
1.0
 40
1.0
 40
1.0
 40
1.0
 10
-101.0573
 20
118.0136
 30
0.0
 10
-97.8381
 20
119.5468
 30
0.0
 10
-96.4776
 20
122.3482
 30
0.0
 10
-96.475
 20
125.1158
 30
0.0
 10
-96.475
 20
125.1158
 30
0.0
 10
-96.475
 20
125.1158
 30
0.0
 10
-107.1842
 20
125.1158
 30
0.0
 10
-107.1842
 20
125.1158
 30
0.0
 10
-107.1842
 20
125.1158
 30
0.0
 10
-104.9134
 20
124.6472
 30
0.0
 10
-101.8975
 20
121.4825
 30
0.0
 10
-101.0573
 20
118.0136
 30
0.0
  0
SPLINE
  5
139
330
1F
100
AcDbEntity
  8
layer 1
 62
     7
100
AcDbSpline
210
0.0
220
0.0
230
1.0
 70
    11
 71
     3
 72
    20
 73
    16
 74
     0
 42
0.0000000001
 43
0.0000000001
 12
1.0
 22
0.0
 32
0.0
 13
1.0
 23
0.0
 33
0.0
 40
0.0
 40
0.0
 40
0.0
 40
0.0
 40
0.2
 40
0.2
 40
0.2
 40
0.2
 40
0.4
 40
0.4
 40
0.4
 40
0.4
 40
0.6
 40
0.6
 40
0.6
 40
0.6
 40
1.0
 40
1.0
 40
1.0
 40
1.0
 10
-72.1589
 20
117.3415
 30
0.0
 10
-73.7712
 20
120.6263
 30
0.0
 10
-76.1251
 20
122.4132
 30
0.0
 10
-78.6571
 20
122.3811
 30
0.0
 10
-78.6571
 20
122.3811
 30
0.0
 10
-81.1891
 20
122.4132
 30
0.0
 10
-83.543
 20
120.6263
 30
0.0
 10
-85.1553
 20
117.3415
 30
0.0
 10
-85.1553
 20
117.3415
 30
0.0
 10
-82.5761
 20
116.4872
 30
0.0
 10
-79.4584
 20
113.6098
 30
0.0
 10
-78.6571
 20
111.0265
 30
0.0
 10
-78.6571
 20
111.0265
 30
0.0
 10
-77.8558
 20
113.6098
 30
0.0
 10
-74.7381
 20
116.4872
 30
0.0
 10
-72.1589
 20
117.3415
 30
0.0
  0
SPLINE
  5
13A
330
1F
100
AcDbEntity
  8
layer 1
 62
     7
100
AcDbSpline
210
0.0
220
0.0
230
1.0
 70
    11
 71
     3
 72
    16
 73
    12
 74
     0
 42
0.0000000001
 43
0.0000000001
 12
1.0
 22
0.0
 32
0.0
 13
1.0
 23
0.0
 33
0.0
 40
0.0
 40
0.0
 40
0.0
 40
0.0
 40
0.25
 40
0.25
 40
0.25
 40
0.25
 40
0.5
 40
0.5
 40
0.5
 40
0.5
 40
1.0
 40
1.0
 40
1.0
 40
1.0
 10
-91.9494
 20
125.1158
 30
0.0
 10
-91.9468
 20
122.3482
 30
0.0
 10
-90.5862
 20
119.5468
 30
0.0
 10
-87.3671
 20
118.0136
 30
0.0
 10
-87.3671
 20
118.0136
 30
0.0
 10
-86.527
 20
121.4825
 30
0.0
 10
-83.5111
 20
124.6474
 30
0.0
 10
-81.2401
 20
125.1158
 30
0.0
 10
-81.2401
 20
125.1158
 30
0.0
 10
-81.2401
 20
125.1158
 30
0.0
 10
-91.9494
 20
125.1158
 30
0.0
 10
-91.9494
 20
125.1158
 30
0.0
  0
SPLINE
  5
13B
330
1F
100
AcDbEntity
  8
layer 1
 62
     7
100
AcDbSpline
210
0.0
220
0.0
230
1.0
 70
    11
 71
     3
 72
    20
 73
    16
 74
     0
 42
0.0000000001
 43
0.0000000001
 12
1.0
 22
0.0
 32
0.0
 13
1.0
 23
0.0
 33
0.0
 40
0.0
 40
0.0
 40
0.0
 40
0.0
 40
0.2
 40
0.2
 40
0.2
 40
0.2
 40
0.4
 40
0.4
 40
0.4
 40
0.4
 40
0.6
 40
0.6
 40
0.6
 40
0.6
 40
1.0
 40
1.0
 40
1.0
 40
1.0
 10
-72.1589
 20
117.3415
 30
0.0
 10
-73.7712
 20
120.6263
 30
0.0
 10
-76.1251
 20
122.4132
 30
0.0
 10
-78.6571
 20
122.3811
 30
0.0
 10
-78.6571
 20
122.3811
 30
0.0
 10
-81.1891
 20
122.4132
 30
0.0
 10
-83.543
 20
120.6263
 30
0.0
 10
-85.1553
 20
117.3415
 30
0.0
 10
-85.1553
 20
117.3415
 30
0.0
 10
-82.5761
 20
116.4872
 30
0.0
 10
-79.4584
 20
113.6098
 30
0.0
 10
-78.6571
 20
111.0265
 30
0.0
 10
-78.6571
 20
111.0265
 30
0.0
 10
-77.8558
 20
113.6098
 30
0.0
 10
-74.7381
 20
116.4872
 30
0.0
 10
-72.1589
 20
117.3415
 30
0.0
  0
SPLINE
  5
13C
330
1F
100
AcDbEntity
  8
layer 1
 62
     7
100
AcDbSpline
210
0.0
220
0.0
230
1.0
 70
    11
 71
     3
 72
    20
 73
    16
 74
     0
 42
0.0000000001
 43
0.0000000001
 12
1.0
 22
0.0
 32
0.0
 13
1.0
 23
0.0
 33
0.0
 40
0.0
 40
0.0
 40
0.0
 40
0.0
 40
0.2
 40
0.2
 40
0.2
 40
0.2
 40
0.4
 40
0.4
 40
0.4
 40
0.4
 40
0.6
 40
0.6
 40
0.6
 40
0.6
 40
1.0
 40
1.0
 40
1.0
 40
1.0
 10
-166.0533
 20
117.3415
 30
0.0
 10
-167.6656
 20
120.6263
 30
0.0
 10
-170.0195
 20
122.4132
 30
0.0
 10
-172.5515
 20
122.3811
 30
0.0
 10
-172.5515
 20
122.3811
 30
0.0
 10
-175.0835
 20
122.4132
 30
0.0
 10
-177.4374
 20
120.6263
 30
0.0
 10
-179.0497
 20
117.3415
 30
0.0
 10
-179.0497
 20
117.3415
 30
0.0
 10
-176.4705
 20
116.4872
 30
0.0
 10
-173.3528
 20
113.6098
 30
0.0
 10
-172.5515
 20
111.0265
 30
0.0
 10
-172.5515
 20
111.0265
 30
0.0
 10
-171.7502
 20
113.6098
 30
0.0
 10
-168.6325
 20
116.4872
 30
0.0
 10
-166.0533
 20
117.3415
 30
0.0
  0
SPLINE
  5
13D
330
1F
100
AcDbEntity
  8
layer 1
 62
     7
100
AcDbSpline
210
0.0
220
0.0
230
1.0
 70
    11
 71
     3
 72
    20
 73
    16
 74
     0
 42
0.0000000001
 43
0.0000000001
 12
1.0
 22
0.0
 32
0.0
 13
1.0
 23
0.0
 33
0.0
 40
0.0
 40
0.0
 40
0.0
 40
0.0
 40
0.2
 40
0.2
 40
0.2
 40
0.2
 40
0.4
 40
0.4
 40
0.4
 40
0.4
 40
0.6
 40
0.6
 40
0.6
 40
0.6
 40
1.0
 40
1.0
 40
1.0
 40
1.0
 10
-166.0533
 20
117.3415
 30
0.0
 10
-167.6656
 20
120.6263
 30
0.0
 10
-170.0195
 20
122.4132
 30
0.0
 10
-172.5515
 20
122.3811
 30
0.0
 10
-172.5515
 20
122.3811
 30
0.0
 10
-175.0835
 20
122.4132
 30
0.0
 10
-177.4374
 20
120.6263
 30
0.0
 10
-179.0497
 20
117.3415
 30
0.0
 10
-179.0497
 20
117.3415
 30
0.0
 10
-176.4705
 20
116.4872
 30
0.0
 10
-173.3528
 20
113.6098
 30
0.0
 10
-172.5515
 20
111.0265
 30
0.0
 10
-172.5515
 20
111.0265
 30
0.0
 10
-171.7502
 20
113.6098
 30
0.0
 10
-168.6325
 20
116.4872
 30
0.0
 10
-166.0533
 20
117.3415
 30
0.0
  0
SPLINE
  5
13E
330
1F
100
AcDbEntity
  8
layer 1
 62
     7
100
AcDbSpline
210
0.0
220
0.0
230
1.0
 70
    11
 71
     3
 72
    16
 73
    12
 74
     0
 42
0.0000000001
 43
0.0000000001
 12
1.0
 22
0.0
 32
0.0
 13
1.0
 23
0.0
 33
0.0
 40
0.0
 40
0.0
 40
0.0
 40
0.0
 40
0.25
 40
0.25
 40
0.25
 40
0.25
 40
0.5
 40
0.5
 40
0.5
 40
0.5
 40
1.0
 40
1.0
 40
1.0
 40
1.0
 10
-163.8163
 20
118.0136
 30
0.0
 10
-160.5972
 20
119.5468
 30
0.0
 10
-159.2366
 20
122.3482
 30
0.0
 10
-159.2341
 20
125.1158
 30
0.0
 10
-159.2341
 20
125.1158
 30
0.0
 10
-159.2341
 20
125.1158
 30
0.0
 10
-169.9433
 20
125.1158
 30
0.0
 10
-169.9433
 20
125.1158
 30
0.0
 10
-169.9433
 20
125.1158
 30
0.0
 10
-167.6725
 20
124.6472
 30
0.0
 10
-164.6566
 20
121.4825
 30
0.0
 10
-163.8163
 20
118.0136
 30
0.0
  0
SPLINE
  5
13F
330
1F
100
AcDbEntity
  8
layer 1
 62
     7
100
AcDbSpline
210
0.0
220
0.0
230
1.0
 70
    11
 71
     3
 72
    16
 73
    12
 74
     0
 42
0.0000000001
 43
0.0000000001
 12
1.0
 22
0.0
 32
0.0
 13
1.0
 23
0.0
 33
0.0
 40
0.0
 40
0.0
 40
0.0
 40
0.0
 40
0.25
 40
0.25
 40
0.25
 40
0.25
 40
0.5
 40
0.5
 40
0.5
 40
0.5
 40
1.0
 40
1.0
 40
1.0
 40
1.0
 10
-181.2285
 20
118.0136
 30
0.0
 10
-181.2285
 20
118.0136
 30
0.0
 10
-181.2488
 20
125.1158
 30
0.0
 10
-181.2488
 20
125.1158
 30
0.0
 10
-181.2488
 20
125.1158
 30
0.0
 10
-181.2488
 20
125.1158
 30
0.0
 10
-175.0219
 20
125.1158
 30
0.0
 10
-175.0219
 20
125.1158
 30
0.0
 10
-175.0219
 20
125.1158
 30
0.0
 10
-177.2927
 20
124.6472
 30
0.0
 10
-180.3883
 20
121.4825
 30
0.0
 10
-181.2285
 20
118.0136
 30
0.0
  0
SPLINE
  5
140
330
1F
100
AcDbEntity
  8
layer 1
 62
     7
100
AcDbSpline
210
0.0
220
0.0
230
1.0
 70
    11
 71
     3
 72
    16
 73
    12
 74
     0
 42
0.0000000001
 43
0.0000000001
 12
1.0
 22
0.0
 32
0.0
 13
1.0
 23
0.0
 33
0.0
 40
0.0
 40
0.0
 40
0.0
 40
0.0
 40
0.25
 40
0.25
 40
0.25
 40
0.25
 40
0.5
 40
0.5
 40
0.5
 40
0.5
 40
1.0
 40
1.0
 40
1.0
 40
1.0
 10
-143.317
 20
-108.0742
 30
0.0
 10
-143.3196
 20
-105.3066
 30
0.0
 10
-144.6801
 20
-102.5052
 30
0.0
 10
-147.8993
 20
-100.972
 30
0.0
 10
-147.8993
 20
-100.972
 30
0.0
 10
-148.7393
 20
-104.4409
 30
0.0
 10
-151.7552
 20
-107.6058
 30
0.0
 10
-154.0262
 20
-108.0742
 30
0.0
 10
-154.0262
 20
-108.0742
 30
0.0
 10
-154.0262
 20
-108.0742
 30
0.0
 10
-143.317
 20
-108.0742
 30
0.0
 10
-143.317
 20
-108.0742
 30
0.0
  0
SPLINE
  5
141
330
1F
100
AcDbEntity
  8
layer 1
 62
     7
100
AcDbSpline
210
0.0
220
0.0
230
1.0
 70
    11
 71
     3
 72
    16
 73
    12
 74
     0
 42
0.0000000001
 43
0.0000000001
 12
1.0
 22
0.0
 32
0.0
 13
1.0
 23
0.0
 33
0.0
 40
0.0
 40
0.0
 40
0.0
 40
0.0
 40
0.25
 40
0.25
 40
0.25
 40
0.25
 40
0.5
 40
0.5
 40
0.5
 40
0.5
 40
1.0
 40
1.0
 40
1.0
 40
1.0
 10
-134.3006
 20
-100.972
 30
0.0
 10
-137.5198
 20
-102.5052
 30
0.0
 10
-138.8803
 20
-105.3066
 30
0.0
 10
-138.8829
 20
-108.0742
 30
0.0
 10
-138.8829
 20
-108.0742
 30
0.0
 10
-138.8829
 20
-108.0742
 30
0.0
 10
-128.1737
 20
-108.0742
 30
0.0
 10
-128.1737
 20
-108.0742
 30
0.0
 10
-128.1737
 20
-108.0742
 30
0.0
 10
-130.4445
 20
-107.6056
 30
0.0
 10
-133.4603
 20
-104.4409
 30
0.0
 10
-134.3006
 20
-100.972
 30
0.0
  0
SPLINE
  5
142
330
1F
100
AcDbEntity
  8
layer 1
 62
     7
100
AcDbSpline
210
0.0
220
0.0
230
1.0
 70
    11
 71
     3
 72
    16
 73
    12
 74
     0
 42
0.0000000001
 43
0.0000000001
 12
1.0
 22
0.0
 32
0.0
 13
1.0
 23
0.0
 33
0.0
 40
0.0
 40
0.0
 40
0.0
 40
0.0
 40
0.25
 40
0.25
 40
0.25
 40
0.25
 40
0.5
 40
0.5
 40
0.5
 40
0.5
 40
1.0
 40
1.0
 40
1.0
 40
1.0
 10
-111.6595
 20
-108.0742
 30
0.0
 10
-111.662
 20
-105.3066
 30
0.0
 10
-113.0226
 20
-102.5052
 30
0.0
 10
-116.2417
 20
-100.972
 30
0.0
 10
-116.2417
 20
-100.972
 30
0.0
 10
-117.0818
 20
-104.4409
 30
0.0
 10
-120.0977
 20
-107.6058
 30
0.0
 10
-122.3687
 20
-108.0742
 30
0.0
 10
-122.3687
 20
-108.0742
 30
0.0
 10
-122.3687
 20
-108.0742
 30
0.0
 10
-111.6595
 20
-108.0742
 30
0.0
 10
-111.6595
 20
-108.0742
 30
0.0
  0
SPLINE
  5
143
330
1F
100
AcDbEntity
  8
layer 1
 62
     7
100
AcDbSpline
210
0.0
220
0.0
230
1.0
 70
    11
 71
     3
 72
    16
 73
    12
 74
     0
 42
0.0000000001
 43
0.0000000001
 12
1.0
 22
0.0
 32
0.0
 13
1.0
 23
0.0
 33
0.0
 40
0.0
 40
0.0
 40
0.0
 40
0.0
 40
0.25
 40
0.25
 40
0.25
 40
0.25
 40
0.5
 40
0.5
 40
0.5
 40
0.5
 40
1.0
 40
1.0
 40
1.0
 40
1.0
 10
-102.8175
 20
-100.972
 30
0.0
 10
-106.0366
 20
-102.5052
 30
0.0
 10
-107.3972
 20
-105.3066
 30
0.0
 10
-107.3998
 20
-108.0742
 30
0.0
 10
-107.3998
 20
-108.0742
 30
0.0
 10
-107.3998
 20
-108.0742
 30
0.0
 10
-96.6906
 20
-108.0742
 30
0.0
 10
-96.6906
 20
-108.0742
 30
0.0
 10
-96.6906
 20
-108.0742
 30
0.0
 10
-98.9613
 20
-107.6056
 30
0.0
 10
-101.9772
 20
-104.4409
 30
0.0
 10
-102.8175
 20
-100.972
 30
0.0
  0
SPLINE
  5
144
330
1F
100
AcDbEntity
  8
layer 1
 62
     7
100
AcDbSpline
210
0.0
220
0.0
230
1.0
 70
    11
 71
     3
 72
    16
 73
    12
 74
     0
 42
0.0000000001
 43
0.0000000001
 12
1.0
 22
0.0
 32
0.0
 13
1.0
 23
0.0
 33
0.0
 40
0.0
 40
0.0
 40
0.0
 40
0.0
 40
0.25
 40
0.25
 40
0.25
 40
0.25
 40
0.5
 40
0.5
 40
0.5
 40
0.5
 40
1.0
 40
1.0
 40
1.0
 40
1.0
 10
-80.5711
 20
-108.0742
 30
0.0
 10
-80.5737
 20
-105.3066
 30
0.0
 10
-81.9342
 20
-102.5052
 30
0.0
 10
-85.1533
 20
-100.972
 30
0.0
 10
-85.1533
 20
-100.972
 30
0.0
 10
-85.9934
 20
-104.4409
 30
0.0
 10
-89.0093
 20
-107.6058
 30
0.0
 10
-91.2803
 20
-108.0742
 30
0.0
 10
-91.2803
 20
-108.0742
 30
0.0
 10
-91.2803
 20
-108.0742
 30
0.0
 10
-80.5711
 20
-108.0742
 30
0.0
 10
-80.5711
 20
-108.0742
 30
0.0
  0
SPLINE
  5
145
330
1F
100
AcDbEntity
  8
layer 1
 62
     7
100
AcDbSpline
210
0.0
220
0.0
230
1.0
 70
    11
 71
     3
 72
    16
 73
    12
 74
     0
 42
0.0000000001
 43
0.0000000001
 12
1.0
 22
0.0
 32
0.0
 13
1.0
 23
0.0
 33
0.0
 40
0.0
 40
0.0
 40
0.0
 40
0.0
 40
0.25
 40
0.25
 40
0.25
 40
0.25
 40
0.5
 40
0.5
 40
0.5
 40
0.5
 40
1.0
 40
1.0
 40
1.0
 40
1.0
 10
-165.7915
 20
-100.972
 30
0.0
 10
-169.0106
 20
-102.5052
 30
0.0
 10
-170.3712
 20
-105.3066
 30
0.0
 10
-170.3737
 20
-108.0742
 30
0.0
 10
-170.3737
 20
-108.0742
 30
0.0
 10
-170.3737
 20
-108.0742
 30
0.0
 10
-159.6645
 20
-108.0742
 30
0.0
 10
-159.6645
 20
-108.0742
 30
0.0
 10
-159.6645
 20
-108.0742
 30
0.0
 10
-161.9353
 20
-107.6056
 30
0.0
 10
-164.9512
 20
-104.4409
 30
0.0
 10
-165.7915
 20
-100.972
 30
0.0
  0
SPLINE
  5
146
330
1F
100
AcDbEntity
  8
layer 1
 62
     7
100
AcDbSpline
210
0.0
220
0.0
230
1.0
 70
    11
 71
     3
 72
    16
 73
    12
 74
     0
 42
0.0000000001
 43
0.0000000001
 12
1.0
 22
0.0
 32
0.0
 13
1.0
 23
0.0
 33
0.0
 40
0.0
 40
0.0
 40
0.0
 40
0.0
 40
0.25
 40
0.25
 40
0.25
 40
0.25
 40
0.5
 40
0.5
 40
0.5
 40
0.5
 40
1.0
 40
1.0
 40
1.0
 40
1.0
 10
-181.2602
 20
-100.972
 30
0.0
 10
-181.2602
 20
-100.972
 30
0.0
 10
-181.2817
 20
-108.0742
 30
0.0
 10
-181.2817
 20
-108.0742
 30
0.0
 10
-181.2817
 20
-108.0742
 30
0.0
 10
-181.2817
 20
-108.0742
 30
0.0
 10
-175.1333
 20
-108.0742
 30
0.0
 10
-175.1333
 20
-108.0742
 30
0.0
 10
-175.1333
 20
-108.0742
 30
0.0
 10
-175.5629
 20
-104.8023
 30
0.0
 10
-177.8274
 20
-101.6527
 30
0.0
 10
-181.2602
 20
-100.972
 30
0.0
  0
SPLINE
  5
147
330
1F
100
AcDbEntity
  8
layer 1
 62
     7
100
AcDbSpline
210
0.0
220
0.0
230
1.0
 70
    11
 71
     3
 72
    16
 73
    12
 74
     0
 42
0.0000000001
 43
0.0000000001
 12
1.0
 22
0.0
 32
0.0
 13
1.0
 23
0.0
 33
0.0
 40
0.0
 40
0.0
 40
0.0
 40
0.0
 40
0.25
 40
0.25
 40
0.25
 40
0.25
 40
0.5
 40
0.5
 40
0.5
 40
0.5
 40
1.0
 40
1.0
 40
1.0
 40
1.0
 10
-181.0461
 20
96.1799
 30
0.0
 10
-181.0461
 20
96.1799
 30
0.0
 10
-181.0461
 20
81.9755
 30
0.0
 10
-181.0461
 20
81.9755
 30
0.0
 10
-181.0461
 20
81.9755
 30
0.0
 10
-180.2061
 20
85.4445
 30
0.0
 10
-177.1902
 20
88.6094
 30
0.0
 10
-174.9192
 20
89.0777
 30
0.0
 10
-174.9192
 20
89.0777
 30
0.0
 10
-177.19
 20
89.5463
 30
0.0
 10
-180.2059
 20
92.711
 30
0.0
 10
-181.0461
 20
96.1799
 30
0.0
  0
SPLINE
  5
148
330
1F
100
AcDbEntity
  8
layer 1
 62
     7
100
AcDbSpline
210
0.0
220
0.0
230
1.0
 70
    11
 71
     3
 72
    24
 73
    20
 74
     0
 42
0.0000000001
 43
0.0000000001
 12
1.0
 22
0.0
 32
0.0
 13
1.0
 23
0.0
 33
0.0
 40
0.0
 40
0.0
 40
0.0
 40
0.0
 40
0.1666666666666667
 40
0.1666666666666667
 40
0.1666666666666667
 40
0.1666666666666667
 40
0.3333333333333333
 40
0.3333333333333333
 40
0.3333333333333333
 40
0.3333333333333333
 40
0.5
 40
0.5
 40
0.5
 40
0.5
 40
0.6666666666666666
 40
0.6666666666666666
 40
0.6666666666666666
 40
0.6666666666666666
 40
1.0
 40
1.0
 40
1.0
 40
1.0
 10
-179.3271
 20
64.505
 30
0.0
 10
-176.1079
 20
66.0382
 30
0.0
 10
-174.7474
 20
68.8396
 30
0.0
 10
-174.7448
 20
71.6072
 30
0.0
 10
-174.7448
 20
71.6072
 30
0.0
 10
-174.7476
 20
74.3748
 30
0.0
 10
-176.1079
 20
77.1762
 30
0.0
 10
-179.3271
 20
78.7094
 30
0.0
 10
-179.3271
 20
78.7094
 30
0.0
 10
-179.6287
 20
77.4628
 30
0.0
 10
-180.2117
 20
76.2554
 30
0.0
 10
-180.9402
 20
75.1982
 30
0.0
 10
-180.9402
 20
75.1982
 30
0.0
 10
-180.9402
 20
75.1982
 30
0.0
 10
-180.988
 20
68.0846
 30
0.0
 10
-180.988
 20
68.0846
 30
0.0
 10
-180.988
 20
68.0846
 30
0.0
 10
-180.2375
 20
67.0113
 30
0.0
 10
-179.6354
 20
65.7787
 30
0.0
 10
-179.3271
 20
64.505
 30
0.0
  0
SPLINE
  5
149
330
1F
100
AcDbEntity
  8
layer 1
 62
     7
100
AcDbSpline
210
0.0
220
0.0
230
1.0
 70
    11
 71
     3
 72
    16
 73
    12
 74
     0
 42
0.0000000001
 43
0.0000000001
 12
1.0
 22
0.0
 32
0.0
 13
1.0
 23
0.0
 33
0.0
 40
0.0
 40
0.0
 40
0.0
 40
0.0
 40
0.25
 40
0.25
 40
0.25
 40
0.25
 40
0.5
 40
0.5
 40
0.5
 40
0.5
 40
1.0
 40
1.0
 40
1.0
 40
1.0
 10
-181.0461
 20
24.4241
 30
0.0
 10
-181.0461
 20
24.4241
 30
0.0
 10
-181.0461
 20
10.2196
 30
0.0
 10
-181.0461
 20
10.2196
 30
0.0
 10
-181.0461
 20
10.2196
 30
0.0
 10
-180.2061
 20
13.6886
 30
0.0
 10
-177.1902
 20
16.8535
 30
0.0
 10
-174.9192
 20
17.3219
 30
0.0
 10
-174.9192
 20
17.3219
 30
0.0
 10
-177.19
 20
17.7904
 30
0.0
 10
-180.2059
 20
20.9551
 30
0.0
 10
-181.0461
 20
24.4241
 30
0.0
  0
SPLINE
  5
14A
330
1F
100
AcDbEntity
  8
layer 1
 62
     7
100
AcDbSpline
210
0.0
220
0.0
230
1.0
 70
    11
 71
     3
 72
    24
 73
    20
 74
     0
 42
0.0000000001
 43
0.0000000001
 12
1.0
 22
0.0
 32
0.0
 13
1.0
 23
0.0
 33
0.0
 40
0.0
 40
0.0
 40
0.0
 40
0.0
 40
0.1666666666666667
 40
0.1666666666666667
 40
0.1666666666666667
 40
0.1666666666666667
 40
0.3333333333333333
 40
0.3333333333333333
 40
0.3333333333333333
 40
0.3333333333333333
 40
0.5
 40
0.5
 40
0.5
 40
0.5
 40
0.6666666666666666
 40
0.6666666666666666
 40
0.6666666666666666
 40
0.6666666666666666
 40
1.0
 40
1.0
 40
1.0
 40
1.0
 10
-179.3271
 20
28.476
 30
0.0
 10
-176.1079
 20
30.0092
 30
0.0
 10
-174.7474
 20
32.8106
 30
0.0
 10
-174.7448
 20
35.5782
 30
0.0
 10
-174.7448
 20
35.5782
 30
0.0
 10
-174.7476
 20
38.3458
 30
0.0
 10
-176.1079
 20
41.1472
 30
0.0
 10
-179.3271
 20
42.6804
 30
0.0
 10
-179.3271
 20
42.6804
 30
0.0
 10
-179.6287
 20
41.4338
 30
0.0
 10
-180.2117
 20
40.2264
 30
0.0
 10
-180.9402
 20
39.1692
 30
0.0
 10
-180.9402
 20
39.1692
 30
0.0
 10
-180.9402
 20
39.1692
 30
0.0
 10
-180.988
 20
32.0556
 30
0.0
 10
-180.988
 20
32.0556
 30
0.0
 10
-180.988
 20
32.0556
 30
0.0
 10
-180.2375
 20
30.9823
 30
0.0
 10
-179.6354
 20
29.7497
 30
0.0
 10
-179.3271
 20
28.476
 30
0.0
  0
SPLINE
  5
14B
330
1F
100
AcDbEntity
  8
layer 1
 62
     7
100
AcDbSpline
210
0.0
220
0.0
230
1.0
 70
    11
 71
     3
 72
    16
 73
    12
 74
     0
 42
0.0000000001
 43
0.0000000001
 12
1.0
 22
0.0
 32
0.0
 13
1.0
 23
0.0
 33
0.0
 40
0.0
 40
0.0
 40
0.0
 40
0.0
 40
0.25
 40
0.25
 40
0.25
 40
0.25
 40
0.5
 40
0.5
 40
0.5
 40
0.5
 40
1.0
 40
1.0
 40
1.0
 40
1.0
 10
-181.0461
 20
-11.437
 30
0.0
 10
-181.0461
 20
-11.437
 30
0.0
 10
-181.0461
 20
-25.6414
 30
0.0
 10
-181.0461
 20
-25.6414
 30
0.0
 10
-181.0461
 20
-25.6414
 30
0.0
 10
-180.2061
 20
-22.1724
 30
0.0
 10
-177.1902
 20
-19.0076
 30
0.0
 10
-174.9192
 20
-18.5392
 30
0.0
 10
-174.9192
 20
-18.5392
 30
0.0
 10
-177.19
 20
-18.0706
 30
0.0
 10
-180.2059
 20
-14.9059
 30
0.0
 10
-181.0461
 20
-11.437
 30
0.0
  0
SPLINE
  5
14C
330
1F
100
AcDbEntity
  8
layer 1
 62
     7
100
AcDbSpline
210
0.0
220
0.0
230
1.0
 70
    11
 71
     3
 72
    24
 73
    20
 74
     0
 42
0.0000000001
 43
0.0000000001
 12
1.0
 22
0.0
 32
0.0
 13
1.0
 23
0.0
 33
0.0
 40
0.0
 40
0.0
 40
0.0
 40
0.0
 40
0.1666666666666667
 40
0.1666666666666667
 40
0.1666666666666667
 40
0.1666666666666667
 40
0.3333333333333333
 40
0.3333333333333333
 40
0.3333333333333333
 40
0.3333333333333333
 40
0.5
 40
0.5
 40
0.5
 40
0.5
 40
0.6666666666666666
 40
0.6666666666666666
 40
0.6666666666666666
 40
0.6666666666666666
 40
1.0
 40
1.0
 40
1.0
 40
1.0
 10
-179.3271
 20
-7.3851
 30
0.0
 10
-176.1079
 20
-5.8518
 30
0.0
 10
-174.7474
 20
-3.0504
 30
0.0
 10
-174.7448
 20
-0.2829
 30
0.0
 10
-174.7448
 20
-0.2829
 30
0.0
 10
-174.7476
 20
2.4847
 30
0.0
 10
-176.1079
 20
5.2861
 30
0.0
 10
-179.3271
 20
6.8194
 30
0.0
 10
-179.3271
 20
6.8194
 30
0.0
 10
-179.6287
 20
5.5727
 30
0.0
 10
-180.2117
 20
4.3653
 30
0.0
 10
-180.9402
 20
3.3082
 30
0.0
 10
-180.9402
 20
3.3082
 30
0.0
 10
-180.9402
 20
3.3082
 30
0.0
 10
-180.988
 20
-3.8054
 30
0.0
 10
-180.988
 20
-3.8054
 30
0.0
 10
-180.988
 20
-3.8054
 30
0.0
 10
-180.2375
 20
-4.8787
 30
0.0
 10
-179.6354
 20
-6.1113
 30
0.0
 10
-179.3271
 20
-7.3851
 30
0.0
  0
SPLINE
  5
14D
330
1F
100
AcDbEntity
  8
layer 1
 62
     7
100
AcDbSpline
210
0.0
220
0.0
230
1.0
 70
    11
 71
     3
 72
    16
 73
    12
 74
     0
 42
0.0000000001
 43
0.0000000001
 12
1.0
 22
0.0
 32
0.0
 13
1.0
 23
0.0
 33
0.0
 40
0.0
 40
0.0
 40
0.0
 40
0.0
 40
0.25
 40
0.25
 40
0.25
 40
0.25
 40
0.5
 40
0.5
 40
0.5
 40
0.5
 40
1.0
 40
1.0
 40
1.0
 40
1.0
 10
-181.0461
 20
-47.6081
 30
0.0
 10
-181.0461
 20
-47.6081
 30
0.0
 10
-181.0461
 20
-61.8125
 30
0.0
 10
-181.0461
 20
-61.8125
 30
0.0
 10
-181.0461
 20
-61.8125
 30
0.0
 10
-180.2061
 20
-58.3436
 30
0.0
 10
-177.1902
 20
-55.1787
 30
0.0
 10
-174.9192
 20
-54.7103
 30
0.0
 10
-174.9192
 20
-54.7103
 30
0.0
 10
-177.19
 20
-54.2417
 30
0.0
 10
-180.2059
 20
-51.077
 30
0.0
 10
-181.0461
 20
-47.6081
 30
0.0
  0
SPLINE
  5
14E
330
1F
100
AcDbEntity
  8
layer 1
 62
     7
100
AcDbSpline
210
0.0
220
0.0
230
1.0
 70
    11
 71
     3
 72
    24
 73
    20
 74
     0
 42
0.0000000001
 43
0.0000000001
 12
1.0
 22
0.0
 32
0.0
 13
1.0
 23
0.0
 33
0.0
 40
0.0
 40
0.0
 40
0.0
 40
0.0
 40
0.1666666666666667
 40
0.1666666666666667
 40
0.1666666666666667
 40
0.1666666666666667
 40
0.3333333333333333
 40
0.3333333333333333
 40
0.3333333333333333
 40
0.3333333333333333
 40
0.5
 40
0.5
 40
0.5
 40
0.5
 40
0.6666666666666666
 40
0.6666666666666666
 40
0.6666666666666666
 40
0.6666666666666666
 40
1.0
 40
1.0
 40
1.0
 40
1.0
 10
-179.3271
 20
-43.5562
 30
0.0
 10
-176.1079
 20
-42.023
 30
0.0
 10
-174.7474
 20
-39.2216
 30
0.0
 10
-174.7448
 20
-36.454
 30
0.0
 10
-174.7448
 20
-36.454
 30
0.0
 10
-174.7476
 20
-33.6864
 30
0.0
 10
-176.1079
 20
-30.885
 30
0.0
 10
-179.3271
 20
-29.3518
 30
0.0
 10
-179.3271
 20
-29.3518
 30
0.0
 10
-179.6287
 20
-30.5984
 30
0.0
 10
-180.2117
 20
-31.8058
 30
0.0
 10
-180.9402
 20
-32.8629
 30
0.0
 10
-180.9402
 20
-32.8629
 30
0.0
 10
-180.9402
 20
-32.8629
 30
0.0
 10
-180.988
 20
-39.9766
 30
0.0
 10
-180.988
 20
-39.9766
 30
0.0
 10
-180.988
 20
-39.9766
 30
0.0
 10
-180.2375
 20
-41.0498
 30
0.0
 10
-179.6354
 20
-42.2824
 30
0.0
 10
-179.3271
 20
-43.5562
 30
0.0
  0
SPLINE
  5
14F
330
1F
100
AcDbEntity
  8
layer 1
 62
     7
100
AcDbSpline
210
0.0
220
0.0
230
1.0
 70
    11
 71
     3
 72
    16
 73
    12
 74
     0
 42
0.0000000001
 43
0.0000000001
 12
1.0
 22
0.0
 32
0.0
 13
1.0
 23
0.0
 33
0.0
 40
0.0
 40
0.0
 40
0.0
 40
0.0
 40
0.25
 40
0.25
 40
0.25
 40
0.25
 40
0.5
 40
0.5
 40
0.5
 40
0.5
 40
1.0
 40
1.0
 40
1.0
 40
1.0
 10
-181.0461
 20
-83.0384
 30
0.0
 10
-181.0461
 20
-83.0384
 30
0.0
 10
-181.0461
 20
-97.2429
 30
0.0
 10
-181.0461
 20
-97.2429
 30
0.0
 10
-181.0461
 20
-97.2429
 30
0.0
 10
-180.2061
 20
-93.7739
 30
0.0
 10
-177.1902
 20
-90.609
 30
0.0
 10
-174.9192
 20
-90.1407
 30
0.0
 10
-174.9192
 20
-90.1407
 30
0.0
 10
-177.19
 20
-89.6721
 30
0.0
 10
-180.2059
 20
-86.5074
 30
0.0
 10
-181.0461
 20
-83.0384
 30
0.0
  0
SPLINE
  5
150
330
1F
100
AcDbEntity
  8
layer 1
 62
     7
100
AcDbSpline
210
0.0
220
0.0
230
1.0
 70
    11
 71
     3
 72
    24
 73
    20
 74
     0
 42
0.0000000001
 43
0.0000000001
 12
1.0
 22
0.0
 32
0.0
 13
1.0
 23
0.0
 33
0.0
 40
0.0
 40
0.0
 40
0.0
 40
0.0
 40
0.1666666666666667
 40
0.1666666666666667
 40
0.1666666666666667
 40
0.1666666666666667
 40
0.3333333333333333
 40
0.3333333333333333
 40
0.3333333333333333
 40
0.3333333333333333
 40
0.5
 40
0.5
 40
0.5
 40
0.5
 40
0.6666666666666666
 40
0.6666666666666666
 40
0.6666666666666666
 40
0.6666666666666666
 40
1.0
 40
1.0
 40
1.0
 40
1.0
 10
-179.3271
 20
-78.9865
 30
0.0
 10
-176.1079
 20
-77.4533
 30
0.0
 10
-174.7474
 20
-74.6519
 30
0.0
 10
-174.7448
 20
-71.8843
 30
0.0
 10
-174.7448
 20
-71.8843
 30
0.0
 10
-174.7476
 20
-69.1167
 30
0.0
 10
-176.1079
 20
-66.3153
 30
0.0
 10
-179.3271
 20
-64.7821
 30
0.0
 10
-179.3271
 20
-64.7821
 30
0.0
 10
-179.6287
 20
-66.0287
 30
0.0
 10
-180.2117
 20
-67.2362
 30
0.0
 10
-180.9402
 20
-68.2933
 30
0.0
 10
-180.9402
 20
-68.2933
 30
0.0
 10
-180.9402
 20
-68.2933
 30
0.0
 10
-180.988
 20
-75.4069
 30
0.0
 10
-180.988
 20
-75.4069
 30
0.0
 10
-180.988
 20
-75.4069
 30
0.0
 10
-180.2375
 20
-76.4802
 30
0.0
 10
-179.6354
 20
-77.7128
 30
0.0
 10
-179.3271
 20
-78.9865
 30
0.0
  0
SPLINE
  5
151
330
1F
100
AcDbEntity
  8
layer 1
 62
     7
100
AcDbSpline
210
0.0
220
0.0
230
1.0
 70
    11
 71
     3
 72
    24
 73
    20
 74
     0
 42
0.0000000001
 43
0.0000000001
 12
1.0
 22
0.0
 32
0.0
 13
1.0
 23
0.0
 33
0.0
 40
0.0
 40
0.0
 40
0.0
 40
0.0
 40
0.1666666666666667
 40
0.1666666666666667
 40
0.1666666666666667
 40
0.1666666666666667
 40
0.3333333333333333
 40
0.3333333333333333
 40
0.3333333333333333
 40
0.3333333333333333
 40
0.5
 40
0.5
 40
0.5
 40
0.5
 40
0.6666666666666666
 40
0.6666666666666666
 40
0.6666666666666666
 40
0.6666666666666666
 40
1.0
 40
1.0
 40
1.0
 40
1.0
 10
-71.7073
 20
100.0473
 30
0.0
 10
-74.9265
 20
101.5805
 30
0.0
 10
-76.287
 20
104.3819
 30
0.0
 10
-76.2896
 20
107.1495
 30
0.0
 10
-76.2896
 20
107.1495
 30
0.0
 10
-76.2868
 20
109.9171
 30
0.0
 10
-74.9265
 20
112.7185
 30
0.0
 10
-71.7073
 20
114.2517
 30
0.0
 10
-71.7073
 20
114.2517
 30
0.0
 10
-71.4056
 20
113.0051
 30
0.0
 10
-70.8227
 20
111.7977
 30
0.0
 10
-70.0942
 20
110.7406
 30
0.0
 10
-70.0942
 20
110.7406
 30
0.0
 10
-70.0942
 20
110.7406
 30
0.0
 10
-70.0464
 20
103.6269
 30
0.0
 10
-70.0464
 20
103.6269
 30
0.0
 10
-70.0464
 20
103.6269
 30
0.0
 10
-70.7969
 20
102.5537
 30
0.0
 10
-71.399
 20
101.321
 30
0.0
 10
-71.7073
 20
100.0473
 30
0.0
  0
SPLINE
  5
152
330
1F
100
AcDbEntity
  8
layer 1
 62
     7
100
AcDbSpline
210
0.0
220
0.0
230
1.0
 70
    11
 71
     3
 72
    16
 73
    12
 74
     0
 42
0.0000000001
 43
0.0000000001
 12
1.0
 22
0.0
 32
0.0
 13
1.0
 23
0.0
 33
0.0
 40
0.0
 40
0.0
 40
0.0
 40
0.0
 40
0.25
 40
0.25
 40
0.25
 40
0.25
 40
0.5
 40
0.5
 40
0.5
 40
0.5
 40
1.0
 40
1.0
 40
1.0
 40
1.0
 10
-69.9883
 20
60.4531
 30
0.0
 10
-69.9883
 20
60.4531
 30
0.0
 10
-69.9883
 20
46.2486
 30
0.0
 10
-69.9883
 20
46.2486
 30
0.0
 10
-69.9883
 20
46.2486
 30
0.0
 10
-70.8283
 20
49.7176
 30
0.0
 10
-73.8442
 20
52.8825
 30
0.0
 10
-76.1152
 20
53.3509
 30
0.0
 10
-76.1152
 20
53.3509
 30
0.0
 10
-73.8444
 20
53.8194
 30
0.0
 10
-70.8285
 20
56.9841
 30
0.0
 10
-69.9883
 20
60.4531
 30
0.0
  0
SPLINE
  5
153
330
1F
100
AcDbEntity
  8
layer 1
 62
     7
100
AcDbSpline
210
0.0
220
0.0
230
1.0
 70
    11
 71
     3
 72
    16
 73
    12
 74
     0
 42
0.0000000001
 43
0.0000000001
 12
1.0
 22
0.0
 32
0.0
 13
1.0
 23
0.0
 33
0.0
 40
0.0
 40
0.0
 40
0.0
 40
0.0
 40
0.25
 40
0.25
 40
0.25
 40
0.25
 40
0.5
 40
0.5
 40
0.5
 40
0.5
 40
1.0
 40
1.0
 40
1.0
 40
1.0
 10
-69.8059
 20
118.0136
 30
0.0
 10
-69.8059
 20
118.0136
 30
0.0
 10
-69.7856
 20
125.1158
 30
0.0
 10
-69.7856
 20
125.1158
 30
0.0
 10
-69.7856
 20
125.1158
 30
0.0
 10
-69.7856
 20
125.1158
 30
0.0
 10
-76.0125
 20
125.1158
 30
0.0
 10
-76.0125
 20
125.1158
 30
0.0
 10
-76.0125
 20
125.1158
 30
0.0
 10
-73.7417
 20
124.6472
 30
0.0
 10
-70.6461
 20
121.4825
 30
0.0
 10
-69.8059
 20
118.0136
 30
0.0
  0
SPLINE
  5
154
330
1F
100
AcDbEntity
  8
layer 1
 62
     7
100
AcDbSpline
210
0.0
220
0.0
230
1.0
 70
    11
 71
     3
 72
    16
 73
    12
 74
     0
 42
0.0000000001
 43
0.0000000001
 12
1.0
 22
0.0
 32
0.0
 13
1.0
 23
0.0
 33
0.0
 40
0.0
 40
0.0
 40
0.0
 40
0.0
 40
0.25
 40
0.25
 40
0.25
 40
0.25
 40
0.5
 40
0.5
 40
0.5
 40
0.5
 40
1.0
 40
1.0
 40
1.0
 40
1.0
 10
-69.7742
 20
-100.972
 30
0.0
 10
-69.7742
 20
-100.972
 30
0.0
 10
-69.7527
 20
-108.0742
 30
0.0
 10
-69.7527
 20
-108.0742
 30
0.0
 10
-69.7527
 20
-108.0742
 30
0.0
 10
-69.7527
 20
-108.0742
 30
0.0
 10
-75.9011
 20
-108.0742
 30
0.0
 10
-75.9011
 20
-108.0742
 30
0.0
 10
-75.9011
 20
-108.0742
 30
0.0
 10
-75.4715
 20
-104.8023
 30
0.0
 10
-73.207
 20
-101.6527
 30
0.0
 10
-69.7742
 20
-100.972
 30
0.0
  0
SPLINE
  5
155
330
1F
100
AcDbEntity
  8
layer 1
 62
     7
100
AcDbSpline
210
0.0
220
0.0
230
1.0
 70
    11
 71
     3
 72
    16
 73
    12
 74
     0
 42
0.0000000001
 43
0.0000000001
 12
1.0
 22
0.0
 32
0.0
 13
1.0
 23
0.0
 33
0.0
 40
0.0
 40
0.0
 40
0.0
 40
0.0
 40
0.25
 40
0.25
 40
0.25
 40
0.25
 40
0.5
 40
0.5
 40
0.5
 40
0.5
 40
1.0
 40
1.0
 40
1.0
 40
1.0
 10
-69.9883
 20
96.1799
 30
0.0
 10
-69.9883
 20
96.1799
 30
0.0
 10
-69.9883
 20
81.9755
 30
0.0
 10
-69.9883
 20
81.9755
 30
0.0
 10
-69.9883
 20
81.9755
 30
0.0
 10
-70.8283
 20
85.4445
 30
0.0
 10
-73.8442
 20
88.6094
 30
0.0
 10
-76.1152
 20
89.0777
 30
0.0
 10
-76.1152
 20
89.0777
 30
0.0
 10
-73.8444
 20
89.5463
 30
0.0
 10
-70.8285
 20
92.711
 30
0.0
 10
-69.9883
 20
96.1799
 30
0.0
  0
SPLINE
  5
156
330
1F
100
AcDbEntity
  8
layer 1
 62
     7
100
AcDbSpline
210
0.0
220
0.0
230
1.0
 70
    11
 71
     3
 72
    24
 73
    20
 74
     0
 42
0.0000000001
 43
0.0000000001
 12
1.0
 22
0.0
 32
0.0
 13
1.0
 23
0.0
 33
0.0
 40
0.0
 40
0.0
 40
0.0
 40
0.0
 40
0.1666666666666667
 40
0.1666666666666667
 40
0.1666666666666667
 40
0.1666666666666667
 40
0.3333333333333333
 40
0.3333333333333333
 40
0.3333333333333333
 40
0.3333333333333333
 40
0.5
 40
0.5
 40
0.5
 40
0.5
 40
0.6666666666666666
 40
0.6666666666666666
 40
0.6666666666666666
 40
0.6666666666666666
 40
1.0
 40
1.0
 40
1.0
 40
1.0
 10
-71.7073
 20
64.505
 30
0.0
 10
-74.9265
 20
66.0382
 30
0.0
 10
-76.287
 20
68.8396
 30
0.0
 10
-76.2896
 20
71.6072
 30
0.0
 10
-76.2896
 20
71.6072
 30
0.0
 10
-76.2868
 20
74.3748
 30
0.0
 10
-74.9265
 20
77.1762
 30
0.0
 10
-71.7073
 20
78.7094
 30
0.0
 10
-71.7073
 20
78.7094
 30
0.0
 10
-71.4056
 20
77.4628
 30
0.0
 10
-70.8227
 20
76.2554
 30
0.0
 10
-70.0942
 20
75.1982
 30
0.0
 10
-70.0942
 20
75.1982
 30
0.0
 10
-70.0942
 20
75.1982
 30
0.0
 10
-70.0464
 20
68.0846
 30
0.0
 10
-70.0464
 20
68.0846
 30
0.0
 10
-70.0464
 20
68.0846
 30
0.0
 10
-70.7969
 20
67.0113
 30
0.0
 10
-71.399
 20
65.7787
 30
0.0
 10
-71.7073
 20
64.505
 30
0.0
  0
SPLINE
  5
157
330
1F
100
AcDbEntity
  8
layer 1
 62
     7
100
AcDbSpline
210
0.0
220
0.0
230
1.0
 70
    11
 71
     3
 72
    16
 73
    12
 74
     0
 42
0.0000000001
 43
0.0000000001
 12
1.0
 22
0.0
 32
0.0
 13
1.0
 23
0.0
 33
0.0
 40
0.0
 40
0.0
 40
0.0
 40
0.0
 40
0.25
 40
0.25
 40
0.25
 40
0.25
 40
0.5
 40
0.5
 40
0.5
 40
0.5
 40
1.0
 40
1.0
 40
1.0
 40
1.0
 10
-69.9883
 20
24.4241
 30
0.0
 10
-69.9883
 20
24.4241
 30
0.0
 10
-69.9883
 20
10.2196
 30
0.0
 10
-69.9883
 20
10.2196
 30
0.0
 10
-69.9883
 20
10.2196
 30
0.0
 10
-70.8283
 20
13.6886
 30
0.0
 10
-73.8442
 20
16.8535
 30
0.0
 10
-76.1152
 20
17.3219
 30
0.0
 10
-76.1152
 20
17.3219
 30
0.0
 10
-73.8444
 20
17.7904
 30
0.0
 10
-70.8285
 20
20.9551
 30
0.0
 10
-69.9883
 20
24.4241
 30
0.0
  0
SPLINE
  5
158
330
1F
100
AcDbEntity
  8
layer 1
 62
     7
100
AcDbSpline
210
0.0
220
0.0
230
1.0
 70
    11
 71
     3
 72
    24
 73
    20
 74
     0
 42
0.0000000001
 43
0.0000000001
 12
1.0
 22
0.0
 32
0.0
 13
1.0
 23
0.0
 33
0.0
 40
0.0
 40
0.0
 40
0.0
 40
0.0
 40
0.1666666666666667
 40
0.1666666666666667
 40
0.1666666666666667
 40
0.1666666666666667
 40
0.3333333333333333
 40
0.3333333333333333
 40
0.3333333333333333
 40
0.3333333333333333
 40
0.5
 40
0.5
 40
0.5
 40
0.5
 40
0.6666666666666666
 40
0.6666666666666666
 40
0.6666666666666666
 40
0.6666666666666666
 40
1.0
 40
1.0
 40
1.0
 40
1.0
 10
-71.7073
 20
28.476
 30
0.0
 10
-74.9265
 20
30.0092
 30
0.0
 10
-76.287
 20
32.8106
 30
0.0
 10
-76.2896
 20
35.5782
 30
0.0
 10
-76.2896
 20
35.5782
 30
0.0
 10
-76.2868
 20
38.3458
 30
0.0
 10
-74.9265
 20
41.1472
 30
0.0
 10
-71.7073
 20
42.6804
 30
0.0
 10
-71.7073
 20
42.6804
 30
0.0
 10
-71.4056
 20
41.4338
 30
0.0
 10
-70.8227
 20
40.2264
 30
0.0
 10
-70.0942
 20
39.1692
 30
0.0
 10
-70.0942
 20
39.1692
 30
0.0
 10
-70.0942
 20
39.1692
 30
0.0
 10
-70.0464
 20
32.0556
 30
0.0
 10
-70.0464
 20
32.0556
 30
0.0
 10
-70.0464
 20
32.0556
 30
0.0
 10
-70.7969
 20
30.9823
 30
0.0
 10
-71.399
 20
29.7497
 30
0.0
 10
-71.7073
 20
28.476
 30
0.0
  0
SPLINE
  5
159
330
1F
100
AcDbEntity
  8
layer 1
 62
     7
100
AcDbSpline
210
0.0
220
0.0
230
1.0
 70
    11
 71
     3
 72
    16
 73
    12
 74
     0
 42
0.0000000001
 43
0.0000000001
 12
1.0
 22
0.0
 32
0.0
 13
1.0
 23
0.0
 33
0.0
 40
0.0
 40
0.0
 40
0.0
 40
0.0
 40
0.25
 40
0.25
 40
0.25
 40
0.25
 40
0.5
 40
0.5
 40
0.5
 40
0.5
 40
1.0
 40
1.0
 40
1.0
 40
1.0
 10
-69.9883
 20
-11.437
 30
0.0
 10
-69.9883
 20
-11.437
 30
0.0
 10
-69.9883
 20
-25.6414
 30
0.0
 10
-69.9883
 20
-25.6414
 30
0.0
 10
-69.9883
 20
-25.6414
 30
0.0
 10
-70.8283
 20
-22.1724
 30
0.0
 10
-73.8442
 20
-19.0076
 30
0.0
 10
-76.1152
 20
-18.5392
 30
0.0
 10
-76.1152
 20
-18.5392
 30
0.0
 10
-73.8444
 20
-18.0706
 30
0.0
 10
-70.8285
 20
-14.9059
 30
0.0
 10
-69.9883
 20
-11.437
 30
0.0
  0
SPLINE
  5
15A
330
1F
100
AcDbEntity
  8
layer 1
 62
     7
100
AcDbSpline
210
0.0
220
0.0
230
1.0
 70
    11
 71
     3
 72
    24
 73
    20
 74
     0
 42
0.0000000001
 43
0.0000000001
 12
1.0
 22
0.0
 32
0.0
 13
1.0
 23
0.0
 33
0.0
 40
0.0
 40
0.0
 40
0.0
 40
0.0
 40
0.1666666666666667
 40
0.1666666666666667
 40
0.1666666666666667
 40
0.1666666666666667
 40
0.3333333333333333
 40
0.3333333333333333
 40
0.3333333333333333
 40
0.3333333333333333
 40
0.5
 40
0.5
 40
0.5
 40
0.5
 40
0.6666666666666666
 40
0.6666666666666666
 40
0.6666666666666666
 40
0.6666666666666666
 40
1.0
 40
1.0
 40
1.0
 40
1.0
 10
-71.7073
 20
-7.3851
 30
0.0
 10
-74.9265
 20
-5.8518
 30
0.0
 10
-76.287
 20
-3.0504
 30
0.0
 10
-76.2896
 20
-0.2829
 30
0.0
 10
-76.2896
 20
-0.2829
 30
0.0
 10
-76.2868
 20
2.4847
 30
0.0
 10
-74.9265
 20
5.2861
 30
0.0
 10
-71.7073
 20
6.8194
 30
0.0
 10
-71.7073
 20
6.8194
 30
0.0
 10
-71.4056
 20
5.5727
 30
0.0
 10
-70.8227
 20
4.3653
 30
0.0
 10
-70.0942
 20
3.3082
 30
0.0
 10
-70.0942
 20
3.3082
 30
0.0
 10
-70.0942
 20
3.3082
 30
0.0
 10
-70.0464
 20
-3.8054
 30
0.0
 10
-70.0464
 20
-3.8054
 30
0.0
 10
-70.0464
 20
-3.8054
 30
0.0
 10
-70.7969
 20
-4.8787
 30
0.0
 10
-71.399
 20
-6.1113
 30
0.0
 10
-71.7073
 20
-7.3851
 30
0.0
  0
SPLINE
  5
15B
330
1F
100
AcDbEntity
  8
layer 1
 62
     7
100
AcDbSpline
210
0.0
220
0.0
230
1.0
 70
    11
 71
     3
 72
    16
 73
    12
 74
     0
 42
0.0000000001
 43
0.0000000001
 12
1.0
 22
0.0
 32
0.0
 13
1.0
 23
0.0
 33
0.0
 40
0.0
 40
0.0
 40
0.0
 40
0.0
 40
0.25
 40
0.25
 40
0.25
 40
0.25
 40
0.5
 40
0.5
 40
0.5
 40
0.5
 40
1.0
 40
1.0
 40
1.0
 40
1.0
 10
-69.9883
 20
-47.6081
 30
0.0
 10
-69.9883
 20
-47.6081
 30
0.0
 10
-69.9883
 20
-61.8125
 30
0.0
 10
-69.9883
 20
-61.8125
 30
0.0
 10
-69.9883
 20
-61.8125
 30
0.0
 10
-70.8283
 20
-58.3436
 30
0.0
 10
-73.8442
 20
-55.1787
 30
0.0
 10
-76.1152
 20
-54.7103
 30
0.0
 10
-76.1152
 20
-54.7103
 30
0.0
 10
-73.8444
 20
-54.2417
 30
0.0
 10
-70.8285
 20
-51.077
 30
0.0
 10
-69.9883
 20
-47.6081
 30
0.0
  0
SPLINE
  5
15C
330
1F
100
AcDbEntity
  8
layer 1
 62
     7
100
AcDbSpline
210
0.0
220
0.0
230
1.0
 70
    11
 71
     3
 72
    24
 73
    20
 74
     0
 42
0.0000000001
 43
0.0000000001
 12
1.0
 22
0.0
 32
0.0
 13
1.0
 23
0.0
 33
0.0
 40
0.0
 40
0.0
 40
0.0
 40
0.0
 40
0.1666666666666667
 40
0.1666666666666667
 40
0.1666666666666667
 40
0.1666666666666667
 40
0.3333333333333333
 40
0.3333333333333333
 40
0.3333333333333333
 40
0.3333333333333333
 40
0.5
 40
0.5
 40
0.5
 40
0.5
 40
0.6666666666666666
 40
0.6666666666666666
 40
0.6666666666666666
 40
0.6666666666666666
 40
1.0
 40
1.0
 40
1.0
 40
1.0
 10
-71.7073
 20
-43.5562
 30
0.0
 10
-74.9265
 20
-42.023
 30
0.0
 10
-76.287
 20
-39.2216
 30
0.0
 10
-76.2896
 20
-36.454
 30
0.0
 10
-76.2896
 20
-36.454
 30
0.0
 10
-76.2868
 20
-33.6864
 30
0.0
 10
-74.9265
 20
-30.885
 30
0.0
 10
-71.7073
 20
-29.3518
 30
0.0
 10
-71.7073
 20
-29.3518
 30
0.0
 10
-71.4056
 20
-30.5984
 30
0.0
 10
-70.8227
 20
-31.8058
 30
0.0
 10
-70.0942
 20
-32.8629
 30
0.0
 10
-70.0942
 20
-32.8629
 30
0.0
 10
-70.0942
 20
-32.8629
 30
0.0
 10
-70.0464
 20
-39.9766
 30
0.0
 10
-70.0464
 20
-39.9766
 30
0.0
 10
-70.0464
 20
-39.9766
 30
0.0
 10
-70.7969
 20
-41.0498
 30
0.0
 10
-71.399
 20
-42.2824
 30
0.0
 10
-71.7073
 20
-43.5562
 30
0.0
  0
SPLINE
  5
15D
330
1F
100
AcDbEntity
  8
layer 1
 62
     7
100
AcDbSpline
210
0.0
220
0.0
230
1.0
 70
    11
 71
     3
 72
    16
 73
    12
 74
     0
 42
0.0000000001
 43
0.0000000001
 12
1.0
 22
0.0
 32
0.0
 13
1.0
 23
0.0
 33
0.0
 40
0.0
 40
0.0
 40
0.0
 40
0.0
 40
0.25
 40
0.25
 40
0.25
 40
0.25
 40
0.5
 40
0.5
 40
0.5
 40
0.5
 40
1.0
 40
1.0
 40
1.0
 40
1.0
 10
-69.9883
 20
-83.0384
 30
0.0
 10
-69.9883
 20
-83.0384
 30
0.0
 10
-69.9883
 20
-97.2429
 30
0.0
 10
-69.9883
 20
-97.2429
 30
0.0
 10
-69.9883
 20
-97.2429
 30
0.0
 10
-70.8283
 20
-93.7739
 30
0.0
 10
-73.8442
 20
-90.609
 30
0.0
 10
-76.1152
 20
-90.1407
 30
0.0
 10
-76.1152
 20
-90.1407
 30
0.0
 10
-73.8444
 20
-89.6721
 30
0.0
 10
-70.8285
 20
-86.5074
 30
0.0
 10
-69.9883
 20
-83.0384
 30
0.0
  0
SPLINE
  5
15E
330
1F
100
AcDbEntity
  8
layer 1
 62
     7
100
AcDbSpline
210
0.0
220
0.0
230
1.0
 70
    11
 71
     3
 72
    24
 73
    20
 74
     0
 42
0.0000000001
 43
0.0000000001
 12
1.0
 22
0.0
 32
0.0
 13
1.0
 23
0.0
 33
0.0
 40
0.0
 40
0.0
 40
0.0
 40
0.0
 40
0.1666666666666667
 40
0.1666666666666667
 40
0.1666666666666667
 40
0.1666666666666667
 40
0.3333333333333333
 40
0.3333333333333333
 40
0.3333333333333333
 40
0.3333333333333333
 40
0.5
 40
0.5
 40
0.5
 40
0.5
 40
0.6666666666666666
 40
0.6666666666666666
 40
0.6666666666666666
 40
0.6666666666666666
 40
1.0
 40
1.0
 40
1.0
 40
1.0
 10
-71.7073
 20
-78.9865
 30
0.0
 10
-74.9265
 20
-77.4533
 30
0.0
 10
-76.287
 20
-74.6519
 30
0.0
 10
-76.2896
 20
-71.8843
 30
0.0
 10
-76.2896
 20
-71.8843
 30
0.0
 10
-76.2868
 20
-69.1167
 30
0.0
 10
-74.9265
 20
-66.3153
 30
0.0
 10
-71.7073
 20
-64.7821
 30
0.0
 10
-71.7073
 20
-64.7821
 30
0.0
 10
-71.4056
 20
-66.0287
 30
0.0
 10
-70.8227
 20
-67.2362
 30
0.0
 10
-70.0942
 20
-68.2933
 30
0.0
 10
-70.0942
 20
-68.2933
 30
0.0
 10
-70.0942
 20
-68.2933
 30
0.0
 10
-70.0464
 20
-75.4069
 30
0.0
 10
-70.0464
 20
-75.4069
 30
0.0
 10
-70.0464
 20
-75.4069
 30
0.0
 10
-70.7969
 20
-76.4802
 30
0.0
 10
-71.399
 20
-77.7128
 30
0.0
 10
-71.7073
 20
-78.9865
 30
0.0
  0
ENDSEC
  0
SECTION
  2
OBJECTS
  0
DICTIONARY
  5
C
330
0
100
AcDbDictionary
281
     1
  3
ACAD_GROUP
350
D
  3
ACAD_LAYOUT
350
1A
  3
ACAD_MATERIAL
350
3B
  3
ACAD_MLEADERSTYLE
350
181
  3
ACAD_MLINESTYLE
350
17
  3
ACAD_PLOTSETTINGS
350
19
  3
ACAD_PLOTSTYLENAME
350
E
  3
ACAD_TABLESTYLE
350
180
  3
ACAD_VISUALSTYLE
350
2A
  0
DICTIONARY
  5
D
102
{ACAD_REACTORS
330
C
102
}
330
C
100
AcDbDictionary
281
     1
  0
DICTIONARY
  5
1A
102
{ACAD_REACTORS
330
C
102
}
330
C
100
AcDbDictionary
281
     1
  3
Layout1
350
1E
  3
Layout2
350
26
  3
Model
350
22
  0
DICTIONARY
  5
3B
102
{ACAD_REACTORS
330
C
102
}
330
C
100
AcDbDictionary
281
     1
  3
ByBlock
350
3D
  3
ByLayer
350
3C
  3
Global
350
3E
  0
DICTIONARY
  5
181
102
{ACAD_REACTORS
330
C
102
}
330
C
100
AcDbDictionary
281
     1
  0
DICTIONARY
  5
17
102
{ACAD_REACTORS
330
C
102
}
330
C
100
AcDbDictionary
281
     1
  3
Standard
350
18
  0
DICTIONARY
  5
19
102
{ACAD_REACTORS
330
C
102
}
330
C
100
AcDbDictionary
281
     1
  0
ACDBDICTIONARYWDFLT
  5
E
102
{ACAD_REACTORS
330
C
102
}
330
C
100
AcDbDictionary
281
     1
  3
Normal
350
F
100
AcDbDictionaryWithDefault
340
F
  0
DICTIONARY
  5
180
102
{ACAD_REACTORS
330
C
102
}
330
C
100
AcDbDictionary
281
     1
  0
DICTIONARY
  5
2A
102
{ACAD_REACTORS
330
C
102
}
330
C
100
AcDbDictionary
281
     1
  3
2dWireframe
350
2F
  3
3D Hidden
350
31
  3
3dWireframe
350
30
  3
Basic
350
32
  3
Brighten
350
36
  3
ColorChange
350
3A
  3
Conceptual
350
34
  3
Dim
350
35
  3
Facepattern
350
39
  3
Flat
350
2B
  3
FlatWithEdges
350
2C
  3
Gouraud
350
2D
  3
GouraudWithEdges
350
2E
  3
Linepattern
350
38
  3
Realistic
350
33
  3
Thicken
350
37
  0
LAYOUT
  5
1E
102
{ACAD_REACTORS
330
1A
102
}
330
1A
100
AcDbPlotSettings
  1

  2
none_device
  4

  6

 40
0.0
 41
0.0
 42
0.0
 43
0.0
 44
0.0
 45
0.0
 46
0.0
 47
0.0
 48
0.0
 49
0.0
140
0.0
141
0.0
142
1.0
143
1.0
 70
   688
 72
     0
 73
     0
 74
     5
  7

 75
    16
 76
     0
 77
     2
 78
   300
147
1.0
148
0.0
149
0.0
100
AcDbLayout
  1
Layout1
 70
     1
 71
     1
 10
0.0
 20
0.0
 11
12.0
 21
9.0
 12
0.0
 22
0.0
 32
0.0
 14
1.000000000000000E+20
 24
1.000000000000000E+20
 34
1.000000000000000E+20
 15
-1.000000000000000E+20
 25
-1.000000000000000E+20
 35
-1.000000000000000E+20
146
0.0
 13
0.0
 23
0.0
 33
0.0
 16
1.0
 26
0.0
 36
0.0
 17
0.0
 27
1.0
 37
0.0
 76
     0
330
1B
  0
LAYOUT
  5
26
102
{ACAD_REACTORS
330
1A
102
}
330
1A
100
AcDbPlotSettings
  1

  2
none_device
  4

  6

 40
0.0
 41
0.0
 42
0.0
 43
0.0
 44
0.0
 45
0.0
 46
0.0
 47
0.0
 48
0.0
 49
0.0
140
0.0
141
0.0
142
1.0
143
1.0
 70
   688
 72
     0
 73
     0
 74
     5
  7

 75
    16
 76
     0
 77
     2
 78
   300
147
1.0
148
0.0
149
0.0
100
AcDbLayout
  1
Layout2
 70
     1
 71
     2
 10
0.0
 20
0.0
 11
0.0
 21
0.0
 12
0.0
 22
0.0
 32
0.0
 14
0.0
 24
0.0
 34
0.0
 15
0.0
 25
0.0
 35
0.0
146
0.0
 13
0.0
 23
0.0
 33
0.0
 16
1.0
 26
0.0
 36
0.0
 17
0.0
 27
1.0
 37
0.0
 76
     0
330
23
  0
LAYOUT
  5
22
102
{ACAD_REACTORS
330
1A
102
}
330
1A
100
AcDbPlotSettings
  1

  2
none_device
  4

  6

 40
0.0
 41
0.0
 42
0.0
 43
0.0
 44
0.0
 45
0.0
 46
0.0
 47
0.0
 48
0.0
 49
0.0
140
0.0
141
0.0
142
1.0
143
1.0
 70
  1712
 72
     0
 73
     0
 74
     0
  7

 75
     0
 76
     0
 77
     2
 78
   300
147
1.0
148
0.0
149
0.0
100
AcDbLayout
  1
Model
 70
     1
 71
     0
 10
0.0
 20
0.0
 11
12.0
 21
9.0
 12
0.0
 22
0.0
 32
0.0
 14
-187.0514
 24
-114.8325
 34
0.0
 15
-63.983
 25
131.8741
 35
0.0
146
0.0
 13
0.0
 23
0.0
 33
0.0
 16
1.0
 26
0.0
 36
0.0
 17
0.0
 27
1.0
 37
0.0
 76
     0
330
1F
331
29
  0
MATERIAL
  5
3D
102
{ACAD_REACTORS
330
3B
102
}
330
3B
100
AcDbMaterial
  1
ByBlock
 72
     1
 94
      127
  0
MATERIAL
  5
3C
102
{ACAD_REACTORS
330
3B
102
}
330
3B
100
AcDbMaterial
  1
ByLayer
 72
     1
 94
      127
  0
MATERIAL
  5
3E
102
{ACAD_REACTORS
330
3B
102
}
330
3B
100
AcDbMaterial
  1
Global
 72
     1
 94
      127
  0
MLINESTYLE
  5
18
102
{ACAD_REACTORS
330
17
102
}
330
17
100
AcDbMlineStyle
  2
Standard
 70
     0
  3

 62
   256
 51
90.0
 52
90.0
 71
     2
 49
0.5
 62
   256
  6
BYLAYER
 49
-0.5
 62
   256
  6
BYLAYER
  0
ACDBPLACEHOLDER
  5
F
102
{ACAD_REACTORS
330
E
102
}
330
E
  0
VISUALSTYLE
  5
2F
102
{ACAD_REACTORS
330
2A
102
}
102
{ACAD_XDICTIONARY
360
168
102
}
330
2A
100
AcDbVisualStyle
  2
2dWireframe
 70
     4
 71
     0
 72
     2
 73
     0
 90
        0
 40
-0.6
 41
-30.0
 62
     5
 63
     7
421
 16777215
 74
     1
 91
        4
 64
     7
 65
   257
 75
     1
175
     1
 42
1.0
 92
        0
 66
   257
 43
1.0
 76
     1
 77
     6
 78
     2
 67
     7
 79
     5
170
     0
171
     0
290
     0
174
     0
 93
        1
 44
0.0
173
     0
291
     0
 45
0.0
  0
VISUALSTYLE
  5
31
102
{ACAD_REACTORS
330
2A
102
}
102
{ACAD_XDICTIONARY
360
16C
102
}
330
2A
100
AcDbVisualStyle
  2
3D Hidden
 70
     6
 71
     1
 72
     2
 73
     2
 90
        0
 40
-0.6
 41
-30.0
 62
     5
 63
     7
421
 16777215
 74
     2
 91
        2
 64
     7
 65
   257
 75
     2
175
     1
 42
40.0
 92
        0
 66
   257
 43
1.0
 76
     1
 77
     6
 78
     2
 67
     7
 79
     3
170
     0
171
     0
290
     0
174
     0
 93
        1
 44
0.0
173
     0
291
     0
 45
0.0
  0
VISUALSTYLE
  5
30
102
{ACAD_REACTORS
330
2A
102
}
102
{ACAD_XDICTIONARY
360
16A
102
}
330
2A
100
AcDbVisualStyle
  2
3dWireframe
 70
     5
 71
     0
 72
     2
 73
     0
 90
        0
 40
-0.6
 41
-30.0
 62
     5
 63
     7
421
 16777215
 74
     1
 91
        4
 64
     7
 65
   257
 75
     1
175
     1
 42
1.0
 92
        0
 66
   257
 43
1.0
 76
     1
 77
     6
 78
     2
 67
     7
 79
     5
170
     0
171
     0
290
     0
174
     0
 93
        1
 44
0.0
173
     0
291
     0
 45
0.0
  0
VISUALSTYLE
  5
32
102
{ACAD_REACTORS
330
2A
102
}
102
{ACAD_XDICTIONARY
360
16E
102
}
330
2A
100
AcDbVisualStyle
  2
Basic
 70
     7
 71
     1
 72
     0
 73
     1
 90
        0
 40
-0.6
 41
-30.0
 62
     5
 63
     7
421
 16777215
 74
     0
 91
        4
 64
     7
 65
   257
 75
     1
175
     1
 42
1.0
 92
        8
 66
     7
 43
1.0
 76
     1
 77
     6
 78
     2
 67
     7
 79
     5
170
     0
171
     0
290
     0
174
     0
 93
        1
 44
0.0
173
     0
291
     1
 45
0.0
  0
VISUALSTYLE
  5
36
102
{ACAD_REACTORS
330
2A
102
}
102
{ACAD_XDICTIONARY
360
176
102
}
330
2A
100
AcDbVisualStyle
  2
Brighten
 70
    12
 71
     2
 72
     2
 73
     0
 90
        0
 40
-0.6
 41
-30.0
 62
     5
 63
     7
421
 16777215
 74
     1
 91
        4
 64
     7
 65
   257
 75
     1
175
     1
 42
1.0
 92
        8
 66
     7
 43
1.0
 76
     1
 77
     6
 78
     2
 67
     7
 79
     5
170
     0
171
     0
290
     0
174
     0
 93
        1
 44
50.0
173
     0
291
     1
 45
0.0
  0
VISUALSTYLE
  5
3A
102
{ACAD_REACTORS
330
2A
102
}
102
{ACAD_XDICTIONARY
360
17E
102
}
330
2A
100
AcDbVisualStyle
  2
ColorChange
 70
    16
 71
     2
 72
     2
 73
     3
 90
        0
 40
-0.6
 41
-30.0
 62
     5
 63
     8
421
  8421504
 74
     1
 91
        4
 64
     7
 65
   257
 75
     1
175
     1
 42
1.0
 92
        8
 66
     8
424
  8421504
 43
1.0
 76
     1
 77
     6
 78
     2
 67
     7
 79
     5
170
     0
171
     0
290
     0
174
     0
 93
        1
 44
0.0
173
     0
291
     1
 45
0.0
  0
VISUALSTYLE
  5
34
102
{ACAD_REACTORS
330
2A
102
}
102
{ACAD_XDICTIONARY
360
172
102
}
330
2A
100
AcDbVisualStyle
  2
Conceptual
 70
     9
 71
     3
 72
     2
 73
     0
 90
        0
 40
-0.6
 41
-30.0
 62
     5
 63
     7
421
 16777215
 74
     2
 91
        2
 64
     7
 65
   257
 75
     1
175
     1
 42
40.0
 92
        8
 66
     7
 43
1.0
 76
     1
 77
     6
 78
     2
 67
     7
 79
     3
170
     0
171
     0
290
     0
174
     0
 93
        1
 44
0.0
173
     0
291
     0
 45
0.0
  0
VISUALSTYLE
  5
35
102
{ACAD_REACTORS
330
2A
102
}
102
{ACAD_XDICTIONARY
360
174
102
}
330
2A
100
AcDbVisualStyle
  2
Dim
 70
    11
 71
     2
 72
     2
 73
     0
 90
        0
 40
-0.6
 41
-30.0
 62
     5
 63
     7
421
 16777215
 74
     1
 91
        4
 64
     7
 65
   257
 75
     1
175
     1
 42
1.0
 92
        8
 66
     7
 43
1.0
 76
     1
 77
     6
 78
     2
 67
     7
 79
     5
170
     0
171
     0
290
     0
174
     0
 93
        1
 44
-50.0
173
     0
291
     1
 45
0.0
  0
VISUALSTYLE
  5
39
102
{ACAD_REACTORS
330
2A
102
}
102
{ACAD_XDICTIONARY
360
17C
102
}
330
2A
100
AcDbVisualStyle
  2
Facepattern
 70
    15
 71
     2
 72
     2
 73
     0
 90
        0
 40
-0.6
 41
-30.0
 62
     5
 63
     7
421
 16777215
 74
     1
 91
        4
 64
     7
 65
   257
 75
     1
175
     1
 42
1.0
 92
        8
 66
     7
 43
1.0
 76
     1
 77
     6
 78
     2
 67
     7
 79
     5
170
     0
171
     0
290
     0
174
     0
 93
        1
 44
0.0
173
     0
291
     1
 45
0.0
  0
VISUALSTYLE
  5
2B
102
{ACAD_REACTORS
330
2A
102
}
102
{ACAD_XDICTIONARY
360
160
102
}
330
2A
100
AcDbVisualStyle
  2
Flat
 70
     0
 71
     2
 72
     1
 73
     1
 90
        2
 40
-0.6
 41
30.0
 62
     5
 63
     7
421
 16777215
 74
     0
 91
        4
 64
     7
 65
   257
 75
     1
175
     1
 42
1.0
 92
        8
 66
     7
 43
1.0
 76
     1
 77
     6
 78
     2
 67
     7
 79
     5
170
     0
171
     0
290
     0
174
     0
 93
       13
 44
0.0
173
     0
291
     1
 45
0.0
  0
VISUALSTYLE
  5
2C
102
{ACAD_REACTORS
330
2A
102
}
102
{ACAD_XDICTIONARY
360
162
102
}
330
2A
100
AcDbVisualStyle
  2
FlatWithEdges
 70
     1
 71
     2
 72
     1
 73
     1
 90
        2
 40
-0.6
 41
30.0
 62
     5
 63
     7
421
 16777215
 74
     1
 91
        4
 64
     7
 65
   257
 75
     1
175
     1
 42
1.0
 92
        0
 66
   257
 43
1.0
 76
     1
 77
     6
 78
     2
 67
     7
 79
     5
170
     0
171
     0
290
     0
174
     0
 93
       13
 44
0.0
173
     0
291
     1
 45
0.0
  0
VISUALSTYLE
  5
2D
102
{ACAD_REACTORS
330
2A
102
}
102
{ACAD_XDICTIONARY
360
164
102
}
330
2A
100
AcDbVisualStyle
  2
Gouraud
 70
     2
 71
     2
 72
     2
 73
     1
 90
        2
 40
-0.6
 41
30.0
 62
     5
 63
     7
421
 16777215
 74
     0
 91
        4
 64
     7
 65
   257
 75
     1
175
     1
 42
1.0
 92
        0
 66
     7
 43
1.0
 76
     1
 77
     6
 78
     2
 67
     7
 79
     5
170
     0
171
     0
290
     0
174
     0
 93
       13
 44
0.0
173
     0
291
     1
 45
0.0
  0
VISUALSTYLE
  5
2E
102
{ACAD_REACTORS
330
2A
102
}
102
{ACAD_XDICTIONARY
360
166
102
}
330
2A
100
AcDbVisualStyle
  2
GouraudWithEdges
 70
     3
 71
     2
 72
     2
 73
     1
 90
        2
 40
-0.6
 41
30.0
 62
     5
 63
     7
421
 16777215
 74
     1
 91
        4
 64
     7
 65
   257
 75
     1
175
     1
 42
1.0
 92
        0
 66
   257
 43
1.0
 76
     1
 77
     6
 78
     2
 67
     7
 79
     5
170
     0
171
     0
290
     0
174
     0
 93
       13
 44
0.0
173
     0
291
     1
 45
0.0
  0
VISUALSTYLE
  5
38
102
{ACAD_REACTORS
330
2A
102
}
102
{ACAD_XDICTIONARY
360
17A
102
}
330
2A
100
AcDbVisualStyle
  2
Linepattern
 70
    14
 71
     2
 72
     2
 73
     0
 90
        0
 40
-0.6
 41
-30.0
 62
     5
 63
     7
421
 16777215
 74
     1
 91
        4
 64
     7
 65
   257
 75
     7
175
     7
 42
1.0
 92
        8
 66
     7
 43
1.0
 76
     1
 77
     6
 78
     2
 67
     7
 79
     5
170
     0
171
     0
290
     0
174
     0
 93
        1
 44
0.0
173
     0
291
     1
 45
0.0
  0
VISUALSTYLE
  5
33
102
{ACAD_REACTORS
330
2A
102
}
102
{ACAD_XDICTIONARY
360
170
102
}
330
2A
100
AcDbVisualStyle
  2
Realistic
 70
     8
 71
     2
 72
     2
 73
     0
 90
        0
 40
-0.6
 41
-30.0
 62
     5
 63
     7
421
 16777215
 74
     1
 91
        0
 64
     7
 65
   257
 75
     1
175
     1
 42
1.0
 92
        8
 66
     8
424
  7895160
 43
1.0
 76
     1
 77
     6
 78
     2
 67
     7
 79
     5
170
     0
171
     0
290
     0
174
     0
 93
       13
 44
0.0
173
     0
291
     0
 45
0.0
  0
VISUALSTYLE
  5
37
102
{ACAD_REACTORS
330
2A
102
}
102
{ACAD_XDICTIONARY
360
178
102
}
330
2A
100
AcDbVisualStyle
  2
Thicken
 70
    13
 71
     2
 72
     2
 73
     0
 90
        0
 40
-0.6
 41
-30.0
 62
     5
 63
     7
421
 16777215
 74
     1
 91
        4
 64
     7
 65
   257
 75
     1
175
     1
 42
1.0
 92
       12
 66
     7
 43
1.0
 76
     1
 77
     6
 78
     2
 67
     7
 79
     5
170
     0
171
     0
290
     0
174
     0
 93
        1
 44
0.0
173
     0
291
     1
 45
0.0
  0
DICTIONARY
  5
168
330
2F
100
AcDbDictionary
280
     1
281
     1
  3
ACAD_XREC_ROUNDTRIP
360
169
  0
DICTIONARY
  5
16C
330
31
100
AcDbDictionary
280
     1
281
     1
  3
ACAD_XREC_ROUNDTRIP
360
16D
  0
DICTIONARY
  5
16A
330
30
100
AcDbDictionary
280
     1
281
     1
  3
ACAD_XREC_ROUNDTRIP
360
16B
  0
DICTIONARY
  5
16E
330
32
100
AcDbDictionary
280
     1
281
     1
  3
ACAD_XREC_ROUNDTRIP
360
16F
  0
DICTIONARY
  5
176
330
36
100
AcDbDictionary
280
     1
281
     1
  3
ACAD_XREC_ROUNDTRIP
360
177
  0
DICTIONARY
  5
17E
330
3A
100
AcDbDictionary
280
     1
281
     1
  3
ACAD_XREC_ROUNDTRIP
360
17F
  0
DICTIONARY
  5
172
330
34
100
AcDbDictionary
280
     1
281
     1
  3
ACAD_XREC_ROUNDTRIP
360
173
  0
DICTIONARY
  5
174
330
35
100
AcDbDictionary
280
     1
281
     1
  3
ACAD_XREC_ROUNDTRIP
360
175
  0
DICTIONARY
  5
17C
330
39
100
AcDbDictionary
280
     1
281
     1
  3
ACAD_XREC_ROUNDTRIP
360
17D
  0
DICTIONARY
  5
160
330
2B
100
AcDbDictionary
280
     1
281
     1
  3
ACAD_XREC_ROUNDTRIP
360
161
  0
DICTIONARY
  5
162
330
2C
100
AcDbDictionary
280
     1
281
     1
  3
ACAD_XREC_ROUNDTRIP
360
163
  0
DICTIONARY
  5
164
330
2D
100
AcDbDictionary
280
     1
281
     1
  3
ACAD_XREC_ROUNDTRIP
360
165
  0
DICTIONARY
  5
166
330
2E
100
AcDbDictionary
280
     1
281
     1
  3
ACAD_XREC_ROUNDTRIP
360
167
  0
DICTIONARY
  5
17A
330
38
100
AcDbDictionary
280
     1
281
     1
  3
ACAD_XREC_ROUNDTRIP
360
17B
  0
DICTIONARY
  5
170
330
33
100
AcDbDictionary
280
     1
281
     1
  3
ACAD_XREC_ROUNDTRIP
360
171
  0
DICTIONARY
  5
178
330
37
100
AcDbDictionary
280
     1
281
     1
  3
ACAD_XREC_ROUNDTRIP
360
179
  0
XRECORD
  5
169
102
{ACAD_REACTORS
330
168
102
}
330
168
100
AcDbXrecord
280
     1
102
RTVSPropertyOp0
 70
     1
102
RTVSPropertyOp1
 70
     1
102
RTVSPropertyOp2
 70
     1
102
RTVSPropertyOp3
 70
     1
102
RTVSPropertyOp4
 70
     1
102
RTVSPropertyOp5
 70
     1
102
RTVSPropertyOp6
 70
     1
102
RTVSPropertyOp7
 70
     1
102
RTVSPropertyOp8
 70
     1
102
RTVSPropertyOp9
 70
     1
102
RTVSPropertyOp10
 70
     1
102
RTVSPropertyOp11
 70
     1
102
RTVSPropertyOp12
 70
     1
102
RTVSPropertyOp13
 70
     1
102
RTVSPropertyOp14
 70
     1
102
RTVSPropertyOp15
 70
     1
102
RTVSPropertyOp16
 70
     1
102
RTVSPropertyOp17
 70
     1
102
RTVSPropertyOp18
 70
     1
102
RTVSPropertyOp19
 70
     1
102
RTVSPropertyOp20
 70
     1
102
RTVSPropertyOp21
 70
     1
102
RTVSPropertyOp22
 70
     1
102
RTVSPropertyOp23
 70
     1
102
RTVSPropertyOp24
 70
     1
102
RTVSPropertyOp25
 70
     1
102
RTVSPropertyOp26
 70
     1
102
RTVSPropertyOp27
 70
     1
102
RTVSPropertyOp28
 70
     1
102
RTVSPropertyOp29
 70
     1
102
RTVSPropertyOp30
 70
     1
102
RTVSPropertyOp31
 70
     1
102
RTVSPropertyOp32
 70
     1
  0
XRECORD
  5
16D
102
{ACAD_REACTORS
330
16C
102
}
330
16C
100
AcDbXrecord
280
     1
102
RTVSPropertyOp0
 70
     1
102
RTVSPropertyOp1
 70
     1
102
RTVSPropertyOp2
 70
     1
102
RTVSPropertyOp3
 70
     1
102
RTVSPropertyOp4
 70
     1
102
RTVSPropertyOp5
 70
     1
102
RTVSPropertyOp6
 70
     1
102
RTVSPropertyOp7
 70
     1
102
RTVSPropertyOp8
 70
     1
102
RTVSPropertyOp9
 70
     1
102
RTVSPropertyOp10
 70
     1
102
RTVSPropertyOp11
 70
     1
102
RTVSPropertyOp12
 70
     1
102
RTVSPropertyOp13
 70
     1
102
RTVSPropertyOp14
 70
     1
102
RTVSPropertyOp15
 70
     1
102
RTVSPropertyOp16
 70
     1
102
RTVSPropertyOp17
 70
     1
102
RTVSPropertyOp18
 70
     1
102
RTVSPropertyOp19
 70
     1
102
RTVSPropertyOp20
 70
     1
102
RTVSPropertyOp21
 70
     1
102
RTVSPropertyOp22
 70
     1
102
RTVSPropertyOp23
 70
     1
102
RTVSPropertyOp24
 70
     1
102
RTVSPropertyOp25
 70
     1
102
RTVSPropertyOp26
 70
     1
102
RTVSPropertyOp27
 70
     1
102
RTVSPropertyOp28
 70
     1
102
RTVSPropertyOp29
 70
     1
102
RTVSPropertyOp30
 70
     1
102
RTVSPropertyOp31
 70
     1
102
RTVSPropertyOp32
 70
     1
  0
XRECORD
  5
16B
102
{ACAD_REACTORS
330
16A
102
}
330
16A
100
AcDbXrecord
280
     1
102
RTVSPropertyOp0
 70
     1
102
RTVSPropertyOp1
 70
     1
102
RTVSPropertyOp2
 70
     1
102
RTVSPropertyOp3
 70
     1
102
RTVSPropertyOp4
 70
     1
102
RTVSPropertyOp5
 70
     1
102
RTVSPropertyOp6
 70
     1
102
RTVSPropertyOp7
 70
     1
102
RTVSPropertyOp8
 70
     1
102
RTVSPropertyOp9
 70
     1
102
RTVSPropertyOp10
 70
     1
102
RTVSPropertyOp11
 70
     1
102
RTVSPropertyOp12
 70
     1
102
RTVSPropertyOp13
 70
     1
102
RTVSPropertyOp14
 70
     1
102
RTVSPropertyOp15
 70
     1
102
RTVSPropertyOp16
 70
     1
102
RTVSPropertyOp17
 70
     1
102
RTVSPropertyOp18
 70
     1
102
RTVSPropertyOp19
 70
     1
102
RTVSPropertyOp20
 70
     1
102
RTVSPropertyOp21
 70
     1
102
RTVSPropertyOp22
 70
     1
102
RTVSPropertyOp23
 70
     1
102
RTVSPropertyOp24
 70
     1
102
RTVSPropertyOp25
 70
     1
102
RTVSPropertyOp26
 70
     1
102
RTVSPropertyOp27
 70
     1
102
RTVSPropertyOp28
 70
     1
102
RTVSPropertyOp29
 70
     1
102
RTVSPropertyOp30
 70
     1
102
RTVSPropertyOp31
 70
     1
102
RTVSPropertyOp32
 70
     1
  0
XRECORD
  5
16F
102
{ACAD_REACTORS
330
16E
102
}
330
16E
100
AcDbXrecord
280
     1
102
RTVSPropertyOp0
 70
     1
102
RTVSPropertyOp1
 70
     1
102
RTVSPropertyOp2
 70
     1
102
RTVSPropertyOp3
 70
     1
102
RTVSPropertyOp4
 70
     1
102
RTVSPropertyOp5
 70
     1
102
RTVSPropertyOp6
 70
     1
102
RTVSPropertyOp7
 70
     1
102
RTVSPropertyOp8
 70
     1
102
RTVSPropertyOp9
 70
     1
102
RTVSPropertyOp10
 70
     1
102
RTVSPropertyOp11
 70
     1
102
RTVSPropertyOp12
 70
     1
102
RTVSPropertyOp13
 70
     1
102
RTVSPropertyOp14
 70
     1
102
RTVSPropertyOp15
 70
     1
102
RTVSPropertyOp16
 70
     1
102
RTVSPropertyOp17
 70
     1
102
RTVSPropertyOp18
 70
     1
102
RTVSPropertyOp19
 70
     1
102
RTVSPropertyOp20
 70
     1
102
RTVSPropertyOp21
 70
     1
102
RTVSPropertyOp22
 70
     1
102
RTVSPropertyOp23
 70
     1
102
RTVSPropertyOp24
 70
     1
102
RTVSPropertyOp25
 70
     1
102
RTVSPropertyOp26
 70
     1
102
RTVSPropertyOp27
 70
     1
102
RTVSPropertyOp28
 70
     1
102
RTVSPropertyOp29
 70
     1
102
RTVSPropertyOp30
 70
     1
102
RTVSPropertyOp31
 70
     1
102
RTVSPropertyOp32
 70
     1
  0
XRECORD
  5
177
102
{ACAD_REACTORS
330
176
102
}
330
176
100
AcDbXrecord
280
     1
102
RTVSPropertyOp0
 70
     1
102
RTVSPropertyOp1
 70
     1
102
RTVSPropertyOp2
 70
     1
102
RTVSPropertyOp3
 70
     1
102
RTVSPropertyOp4
 70
     1
102
RTVSPropertyOp5
 70
     1
102
RTVSPropertyOp6
 70
     1
102
RTVSPropertyOp7
 70
     1
102
RTVSPropertyOp8
 70
     1
102
RTVSPropertyOp9
 70
     1
102
RTVSPropertyOp10
 70
     1
102
RTVSPropertyOp11
 70
     1
102
RTVSPropertyOp12
 70
     1
102
RTVSPropertyOp13
 70
     1
102
RTVSPropertyOp14
 70
     1
102
RTVSPropertyOp15
 70
     1
102
RTVSPropertyOp16
 70
     1
102
RTVSPropertyOp17
 70
     1
102
RTVSPropertyOp18
 70
     1
102
RTVSPropertyOp19
 70
     1
102
RTVSPropertyOp20
 70
     1
102
RTVSPropertyOp21
 70
     1
102
RTVSPropertyOp22
 70
     1
102
RTVSPropertyOp23
 70
     1
102
RTVSPropertyOp24
 70
     1
102
RTVSPropertyOp25
 70
     1
102
RTVSPropertyOp26
 70
     1
102
RTVSPropertyOp27
 70
     1
102
RTVSPropertyOp28
 70
     1
102
RTVSPropertyOp29
 70
     1
102
RTVSPropertyOp30
 70
     1
102
RTVSPropertyOp31
 70
     1
102
RTVSPropertyOp32
 70
     1
  0
XRECORD
  5
17F
102
{ACAD_REACTORS
330
17E
102
}
330
17E
100
AcDbXrecord
280
     1
102
RTVSPropertyOp0
 70
     1
102
RTVSPropertyOp1
 70
     1
102
RTVSPropertyOp2
 70
     1
102
RTVSPropertyOp3
 70
     1
102
RTVSPropertyOp4
 70
     1
102
RTVSPropertyOp5
 70
     1
102
RTVSPropertyOp6
 70
     1
102
RTVSPropertyOp7
 70
     1
102
RTVSPropertyOp8
 70
     1
102
RTVSPropertyOp9
 70
     1
102
RTVSPropertyOp10
 70
     1
102
RTVSPropertyOp11
 70
     1
102
RTVSPropertyOp12
 70
     1
102
RTVSPropertyOp13
 70
     1
102
RTVSPropertyOp14
 70
     1
102
RTVSPropertyOp15
 70
     1
102
RTVSPropertyOp16
 70
     1
102
RTVSPropertyOp17
 70
     1
102
RTVSPropertyOp18
 70
     1
102
RTVSPropertyOp19
 70
     1
102
RTVSPropertyOp20
 70
     1
102
RTVSPropertyOp21
 70
     1
102
RTVSPropertyOp22
 70
     1
102
RTVSPropertyOp23
 70
     1
102
RTVSPropertyOp24
 70
     1
102
RTVSPropertyOp25
 70
     1
102
RTVSPropertyOp26
 70
     1
102
RTVSPropertyOp27
 70
     1
102
RTVSPropertyOp28
 70
     1
102
RTVSPropertyOp29
 70
     1
102
RTVSPropertyOp30
 70
     1
102
RTVSPropertyOp31
 70
     1
102
RTVSPropertyOp32
 70
     1
  0
XRECORD
  5
173
102
{ACAD_REACTORS
330
172
102
}
330
172
100
AcDbXrecord
280
     1
102
RTVSPropertyOp0
 70
     1
102
RTVSPropertyOp1
 70
     1
102
RTVSPropertyOp2
 70
     1
102
RTVSPropertyOp3
 70
     1
102
RTVSPropertyOp4
 70
     1
102
RTVSPropertyOp5
 70
     1
102
RTVSPropertyOp6
 70
     1
102
RTVSPropertyOp7
 70
     1
102
RTVSPropertyOp8
 70
     1
102
RTVSPropertyOp9
 70
     1
102
RTVSPropertyOp10
 70
     1
102
RTVSPropertyOp11
 70
     1
102
RTVSPropertyOp12
 70
     1
102
RTVSPropertyOp13
 70
     1
102
RTVSPropertyOp14
 70
     1
102
RTVSPropertyOp15
 70
     1
102
RTVSPropertyOp16
 70
     1
102
RTVSPropertyOp17
 70
     1
102
RTVSPropertyOp18
 70
     1
102
RTVSPropertyOp19
 70
     1
102
RTVSPropertyOp20
 70
     1
102
RTVSPropertyOp21
 70
     1
102
RTVSPropertyOp22
 70
     1
102
RTVSPropertyOp23
 70
     1
102
RTVSPropertyOp24
 70
     1
102
RTVSPropertyOp25
 70
     1
102
RTVSPropertyOp26
 70
     1
102
RTVSPropertyOp27
 70
     1
102
RTVSPropertyOp28
 70
     1
102
RTVSPropertyOp29
 70
     1
102
RTVSPropertyOp30
 70
     1
102
RTVSPropertyOp31
 70
     1
102
RTVSPropertyOp32
 70
     1
  0
XRECORD
  5
175
102
{ACAD_REACTORS
330
174
102
}
330
174
100
AcDbXrecord
280
     1
102
RTVSPropertyOp0
 70
     1
102
RTVSPropertyOp1
 70
     1
102
RTVSPropertyOp2
 70
     1
102
RTVSPropertyOp3
 70
     1
102
RTVSPropertyOp4
 70
     1
102
RTVSPropertyOp5
 70
     1
102
RTVSPropertyOp6
 70
     1
102
RTVSPropertyOp7
 70
     1
102
RTVSPropertyOp8
 70
     1
102
RTVSPropertyOp9
 70
     1
102
RTVSPropertyOp10
 70
     1
102
RTVSPropertyOp11
 70
     1
102
RTVSPropertyOp12
 70
     1
102
RTVSPropertyOp13
 70
     1
102
RTVSPropertyOp14
 70
     1
102
RTVSPropertyOp15
 70
     1
102
RTVSPropertyOp16
 70
     1
102
RTVSPropertyOp17
 70
     1
102
RTVSPropertyOp18
 70
     1
102
RTVSPropertyOp19
 70
     1
102
RTVSPropertyOp20
 70
     1
102
RTVSPropertyOp21
 70
     1
102
RTVSPropertyOp22
 70
     1
102
RTVSPropertyOp23
 70
     1
102
RTVSPropertyOp24
 70
     1
102
RTVSPropertyOp25
 70
     1
102
RTVSPropertyOp26
 70
     1
102
RTVSPropertyOp27
 70
     1
102
RTVSPropertyOp28
 70
     1
102
RTVSPropertyOp29
 70
     1
102
RTVSPropertyOp30
 70
     1
102
RTVSPropertyOp31
 70
     1
102
RTVSPropertyOp32
 70
     1
  0
XRECORD
  5
17D
102
{ACAD_REACTORS
330
17C
102
}
330
17C
100
AcDbXrecord
280
     1
102
RTVSPropertyOp0
 70
     1
102
RTVSPropertyOp1
 70
     1
102
RTVSPropertyOp2
 70
     1
102
RTVSPropertyOp3
 70
     1
102
RTVSPropertyOp4
 70
     1
102
RTVSPropertyOp5
 70
     1
102
RTVSPropertyOp6
 70
     1
102
RTVSPropertyOp7
 70
     1
102
RTVSPropertyOp8
 70
     1
102
RTVSPropertyOp9
 70
     1
102
RTVSPropertyOp10
 70
     1
102
RTVSPropertyOp11
 70
     1
102
RTVSPropertyOp12
 70
     1
102
RTVSPropertyOp13
 70
     1
102
RTVSPropertyOp14
 70
     1
102
RTVSPropertyOp15
 70
     1
102
RTVSPropertyOp16
 70
     1
102
RTVSPropertyOp17
 70
     1
102
RTVSPropertyOp18
 70
     1
102
RTVSPropertyOp19
 70
     1
102
RTVSPropertyOp20
 70
     1
102
RTVSPropertyOp21
 70
     1
102
RTVSPropertyOp22
 70
     1
102
RTVSPropertyOp23
 70
     1
102
RTVSPropertyOp24
 70
     1
102
RTVSPropertyOp25
 70
     1
102
RTVSPropertyOp26
 70
     1
102
RTVSPropertyOp27
 70
     1
102
RTVSPropertyOp28
 70
     1
102
RTVSPropertyOp29
 70
     1
102
RTVSPropertyOp30
 70
     1
102
RTVSPropertyOp31
 70
     1
102
RTVSPropertyOp32
 70
     1
  0
XRECORD
  5
161
102
{ACAD_REACTORS
330
160
102
}
330
160
100
AcDbXrecord
280
     1
102
RTVSPropertyOp0
 70
     1
102
RTVSPropertyOp1
 70
     1
102
RTVSPropertyOp2
 70
     1
102
RTVSPropertyOp3
 70
     1
102
RTVSPropertyOp4
 70
     1
102
RTVSPropertyOp5
 70
     1
102
RTVSPropertyOp6
 70
     1
102
RTVSPropertyOp7
 70
     1
102
RTVSPropertyOp8
 70
     1
102
RTVSPropertyOp9
 70
     1
102
RTVSPropertyOp10
 70
     1
102
RTVSPropertyOp11
 70
     1
102
RTVSPropertyOp12
 70
     1
102
RTVSPropertyOp13
 70
     1
102
RTVSPropertyOp14
 70
     1
102
RTVSPropertyOp15
 70
     1
102
RTVSPropertyOp16
 70
     1
102
RTVSPropertyOp17
 70
     1
102
RTVSPropertyOp18
 70
     1
102
RTVSPropertyOp19
 70
     1
102
RTVSPropertyOp20
 70
     1
102
RTVSPropertyOp21
 70
     1
102
RTVSPropertyOp22
 70
     1
102
RTVSPropertyOp23
 70
     1
102
RTVSPropertyOp24
 70
     1
102
RTVSPropertyOp25
 70
     1
102
RTVSPropertyOp26
 70
     1
102
RTVSPropertyOp27
 70
     1
102
RTVSPropertyOp28
 70
     1
102
RTVSPropertyOp29
 70
     1
102
RTVSPropertyOp30
 70
     1
102
RTVSPropertyOp31
 70
     1
102
RTVSPropertyOp32
 70
     1
  0
XRECORD
  5
163
102
{ACAD_REACTORS
330
162
102
}
330
162
100
AcDbXrecord
280
     1
102
RTVSPropertyOp0
 70
     1
102
RTVSPropertyOp1
 70
     1
102
RTVSPropertyOp2
 70
     1
102
RTVSPropertyOp3
 70
     1
102
RTVSPropertyOp4
 70
     1
102
RTVSPropertyOp5
 70
     1
102
RTVSPropertyOp6
 70
     1
102
RTVSPropertyOp7
 70
     1
102
RTVSPropertyOp8
 70
     1
102
RTVSPropertyOp9
 70
     1
102
RTVSPropertyOp10
 70
     1
102
RTVSPropertyOp11
 70
     1
102
RTVSPropertyOp12
 70
     1
102
RTVSPropertyOp13
 70
     1
102
RTVSPropertyOp14
 70
     1
102
RTVSPropertyOp15
 70
     1
102
RTVSPropertyOp16
 70
     1
102
RTVSPropertyOp17
 70
     1
102
RTVSPropertyOp18
 70
     1
102
RTVSPropertyOp19
 70
     1
102
RTVSPropertyOp20
 70
     1
102
RTVSPropertyOp21
 70
     1
102
RTVSPropertyOp22
 70
     1
102
RTVSPropertyOp23
 70
     1
102
RTVSPropertyOp24
 70
     1
102
RTVSPropertyOp25
 70
     1
102
RTVSPropertyOp26
 70
     1
102
RTVSPropertyOp27
 70
     1
102
RTVSPropertyOp28
 70
     1
102
RTVSPropertyOp29
 70
     1
102
RTVSPropertyOp30
 70
     1
102
RTVSPropertyOp31
 70
     1
102
RTVSPropertyOp32
 70
     1
  0
XRECORD
  5
165
102
{ACAD_REACTORS
330
164
102
}
330
164
100
AcDbXrecord
280
     1
102
RTVSPropertyOp0
 70
     1
102
RTVSPropertyOp1
 70
     1
102
RTVSPropertyOp2
 70
     1
102
RTVSPropertyOp3
 70
     1
102
RTVSPropertyOp4
 70
     1
102
RTVSPropertyOp5
 70
     1
102
RTVSPropertyOp6
 70
     1
102
RTVSPropertyOp7
 70
     1
102
RTVSPropertyOp8
 70
     1
102
RTVSPropertyOp9
 70
     1
102
RTVSPropertyOp10
 70
     1
102
RTVSPropertyOp11
 70
     1
102
RTVSPropertyOp12
 70
     1
102
RTVSPropertyOp13
 70
     1
102
RTVSPropertyOp14
 70
     1
102
RTVSPropertyOp15
 70
     1
102
RTVSPropertyOp16
 70
     1
102
RTVSPropertyOp17
 70
     1
102
RTVSPropertyOp18
 70
     1
102
RTVSPropertyOp19
 70
     1
102
RTVSPropertyOp20
 70
     1
102
RTVSPropertyOp21
 70
     1
102
RTVSPropertyOp22
 70
     1
102
RTVSPropertyOp23
 70
     1
102
RTVSPropertyOp24
 70
     1
102
RTVSPropertyOp25
 70
     1
102
RTVSPropertyOp26
 70
     1
102
RTVSPropertyOp27
 70
     1
102
RTVSPropertyOp28
 70
     1
102
RTVSPropertyOp29
 70
     1
102
RTVSPropertyOp30
 70
     1
102
RTVSPropertyOp31
 70
     1
102
RTVSPropertyOp32
 70
     1
  0
XRECORD
  5
167
102
{ACAD_REACTORS
330
166
102
}
330
166
100
AcDbXrecord
280
     1
102
RTVSPropertyOp0
 70
     1
102
RTVSPropertyOp1
 70
     1
102
RTVSPropertyOp2
 70
     1
102
RTVSPropertyOp3
 70
     1
102
RTVSPropertyOp4
 70
     1
102
RTVSPropertyOp5
 70
     1
102
RTVSPropertyOp6
 70
     1
102
RTVSPropertyOp7
 70
     1
102
RTVSPropertyOp8
 70
     1
102
RTVSPropertyOp9
 70
     1
102
RTVSPropertyOp10
 70
     1
102
RTVSPropertyOp11
 70
     1
102
RTVSPropertyOp12
 70
     1
102
RTVSPropertyOp13
 70
     1
102
RTVSPropertyOp14
 70
     1
102
RTVSPropertyOp15
 70
     1
102
RTVSPropertyOp16
 70
     1
102
RTVSPropertyOp17
 70
     1
102
RTVSPropertyOp18
 70
     1
102
RTVSPropertyOp19
 70
     1
102
RTVSPropertyOp20
 70
     1
102
RTVSPropertyOp21
 70
     1
102
RTVSPropertyOp22
 70
     1
102
RTVSPropertyOp23
 70
     1
102
RTVSPropertyOp24
 70
     1
102
RTVSPropertyOp25
 70
     1
102
RTVSPropertyOp26
 70
     1
102
RTVSPropertyOp27
 70
     1
102
RTVSPropertyOp28
 70
     1
102
RTVSPropertyOp29
 70
     1
102
RTVSPropertyOp30
 70
     1
102
RTVSPropertyOp31
 70
     1
102
RTVSPropertyOp32
 70
     1
  0
XRECORD
  5
17B
102
{ACAD_REACTORS
330
17A
102
}
330
17A
100
AcDbXrecord
280
     1
102
RTVSPropertyOp0
 70
     1
102
RTVSPropertyOp1
 70
     1
102
RTVSPropertyOp2
 70
     1
102
RTVSPropertyOp3
 70
     1
102
RTVSPropertyOp4
 70
     1
102
RTVSPropertyOp5
 70
     1
102
RTVSPropertyOp6
 70
     1
102
RTVSPropertyOp7
 70
     1
102
RTVSPropertyOp8
 70
     1
102
RTVSPropertyOp9
 70
     1
102
RTVSPropertyOp10
 70
     1
102
RTVSPropertyOp11
 70
     1
102
RTVSPropertyOp12
 70
     1
102
RTVSPropertyOp13
 70
     1
102
RTVSPropertyOp14
 70
     1
102
RTVSPropertyOp15
 70
     1
102
RTVSPropertyOp16
 70
     1
102
RTVSPropertyOp17
 70
     1
102
RTVSPropertyOp18
 70
     1
102
RTVSPropertyOp19
 70
     1
102
RTVSPropertyOp20
 70
     1
102
RTVSPropertyOp21
 70
     1
102
RTVSPropertyOp22
 70
     1
102
RTVSPropertyOp23
 70
     1
102
RTVSPropertyOp24
 70
     1
102
RTVSPropertyOp25
 70
     1
102
RTVSPropertyOp26
 70
     1
102
RTVSPropertyOp27
 70
     1
102
RTVSPropertyOp28
 70
     1
102
RTVSPropertyOp29
 70
     1
102
RTVSPropertyOp30
 70
     1
102
RTVSPropertyOp31
 70
     1
102
RTVSPropertyOp32
 70
     1
  0
XRECORD
  5
171
102
{ACAD_REACTORS
330
170
102
}
330
170
100
AcDbXrecord
280
     1
102
RTVSPropertyOp0
 70
     1
102
RTVSPropertyOp1
 70
     1
102
RTVSPropertyOp2
 70
     1
102
RTVSPropertyOp3
 70
     1
102
RTVSPropertyOp4
 70
     1
102
RTVSPropertyOp5
 70
     1
102
RTVSPropertyOp6
 70
     1
102
RTVSPropertyOp7
 70
     1
102
RTVSPropertyOp8
 70
     1
102
RTVSPropertyOp9
 70
     1
102
RTVSPropertyOp10
 70
     1
102
RTVSPropertyOp11
 70
     1
102
RTVSPropertyOp12
 70
     1
102
RTVSPropertyOp13
 70
     1
102
RTVSPropertyOp14
 70
     1
102
RTVSPropertyOp15
 70
     1
102
RTVSPropertyOp16
 70
     1
102
RTVSPropertyOp17
 70
     1
102
RTVSPropertyOp18
 70
     1
102
RTVSPropertyOp19
 70
     1
102
RTVSPropertyOp20
 70
     1
102
RTVSPropertyOp21
 70
     1
102
RTVSPropertyOp22
 70
     1
102
RTVSPropertyOp23
 70
     1
102
RTVSPropertyOp24
 70
     1
102
RTVSPropertyOp25
 70
     1
102
RTVSPropertyOp26
 70
     1
102
RTVSPropertyOp27
 70
     1
102
RTVSPropertyOp28
 70
     1
102
RTVSPropertyOp29
 70
     1
102
RTVSPropertyOp30
 70
     1
102
RTVSPropertyOp31
 70
     1
102
RTVSPropertyOp32
 70
     1
  0
XRECORD
  5
179
102
{ACAD_REACTORS
330
178
102
}
330
178
100
AcDbXrecord
280
     1
102
RTVSPropertyOp0
 70
     1
102
RTVSPropertyOp1
 70
     1
102
RTVSPropertyOp2
 70
     1
102
RTVSPropertyOp3
 70
     1
102
RTVSPropertyOp4
 70
     1
102
RTVSPropertyOp5
 70
     1
102
RTVSPropertyOp6
 70
     1
102
RTVSPropertyOp7
 70
     1
102
RTVSPropertyOp8
 70
     1
102
RTVSPropertyOp9
 70
     1
102
RTVSPropertyOp10
 70
     1
102
RTVSPropertyOp11
 70
     1
102
RTVSPropertyOp12
 70
     1
102
RTVSPropertyOp13
 70
     1
102
RTVSPropertyOp14
 70
     1
102
RTVSPropertyOp15
 70
     1
102
RTVSPropertyOp16
 70
     1
102
RTVSPropertyOp17
 70
     1
102
RTVSPropertyOp18
 70
     1
102
RTVSPropertyOp19
 70
     1
102
RTVSPropertyOp20
 70
     1
102
RTVSPropertyOp21
 70
     1
102
RTVSPropertyOp22
 70
     1
102
RTVSPropertyOp23
 70
     1
102
RTVSPropertyOp24
 70
     1
102
RTVSPropertyOp25
 70
     1
102
RTVSPropertyOp26
 70
     1
102
RTVSPropertyOp27
 70
     1
102
RTVSPropertyOp28
 70
     1
102
RTVSPropertyOp29
 70
     1
102
RTVSPropertyOp30
 70
     1
102
RTVSPropertyOp31
 70
     1
102
RTVSPropertyOp32
 70
     1
  0
ENDSEC
  0
EOF
