  0
SECTION
  2
HEADER
  9
$ACADVER
  1
AC1021
  9
$ACADMAINTVER
 70
    25
  9
$DWGCODEPAGE
  3
ANSI_1252
  9
$INSBASE
 10
0.0
 20
0.0
 30
0.0
  9
$EXTMIN
 10
-46.2286
 20
-97.1797
 30
0.0
  9
$EXTMAX
 10
73.8891
 20
120.546
 30
0.0
  9
$LIMMIN
 10
0.0
 20
0.0
  9
$LIMMAX
 10
12.0
 20
9.0
  9
$ORTHOMODE
 70
     0
  9
$REGENMODE
 70
     1
  9
$FILLMODE
 70
     1
  9
$QTEXTMODE
 70
     0
  9
$MIRRTEXT
 70
     1
  9
$LTSCALE
 40
1.0
  9
$ATTMODE
 70
     1
  9
$TEXTSIZE
 40
0.2
  9
$TRACEWID
 40
0.05
  9
$TEXTSTYLE
  7
Standard
  9
$CLAYER
  8
0
  9
$CELTYPE
  6
ByLayer
  9
$CECOLOR
 62
   256
  9
$CELTSCALE
 40
1.0
  9
$DISPSILH
 70
     0
  9
$DIMSCALE
 40
1.0
  9
$DIMASZ
 40
0.18
  9
$DIMEXO
 40
0.0625
  9
$DIMDLI
 40
0.38
  9
$DIMRND
 40
0.0
  9
$DIMDLE
 40
0.0
  9
$DIMEXE
 40
0.18
  9
$DIMTP
 40
0.0
  9
$DIMTM
 40
0.0
  9
$DIMTXT
 40
0.18
  9
$DIMCEN
 40
0.09
  9
$DIMTSZ
 40
0.0
  9
$DIMTOL
 70
     0
  9
$DIMLIM
 70
     0
  9
$DIMTIH
 70
     1
  9
$DIMTOH
 70
     1
  9
$DIMSE1
 70
     0
  9
$DIMSE2
 70
     0
  9
$DIMTAD
 70
     0
  9
$DIMZIN
 70
     0
  9
$DIMBLK
  1

  9
$DIMASO
 70
     1
  9
$DIMSHO
 70
     1
  9
$DIMPOST
  1

  9
$DIMAPOST
  1

  9
$DIMALT
 70
     0
  9
$DIMALTD
 70
     2
  9
$DIMALTF
 40
25.4
  9
$DIMLFAC
 40
1.0
  9
$DIMTOFL
 70
     0
  9
$DIMTVP
 40
0.0
  9
$DIMTIX
 70
     0
  9
$DIMSOXD
 70
     0
  9
$DIMSAH
 70
     0
  9
$DIMBLK1
  1

  9
$DIMBLK2
  1

  9
$DIMSTYLE
  2
Standard
  9
$DIMCLRD
 70
     0
  9
$DIMCLRE
 70
     0
  9
$DIMCLRT
 70
     0
  9
$DIMTFAC
 40
1.0
  9
$DIMGAP
 40
0.09
  9
$DIMJUST
 70
     0
  9
$DIMSD1
 70
     0
  9
$DIMSD2
 70
     0
  9
$DIMTOLJ
 70
     1
  9
$DIMTZIN
 70
     0
  9
$DIMALTZ
 70
     0
  9
$DIMALTTZ
 70
     0
  9
$DIMUPT
 70
     0
  9
$DIMDEC
 70
     4
  9
$DIMTDEC
 70
     4
  9
$DIMALTU
 70
     2
  9
$DIMALTTD
 70
     2
  9
$DIMTXSTY
  7
Standard
  9
$DIMAUNIT
 70
     0
  9
$DIMADEC
 70
     0
  9
$DIMALTRND
 40
0.0
  9
$DIMAZIN
 70
     0
  9
$DIMDSEP
 70
    46
  9
$DIMATFIT
 70
     3
  9
$DIMFRAC
 70
     0
  9
$DIMLDRBLK
  1

  9
$DIMLUNIT
 70
     2
  9
$DIMLWD
 70
    -2
  9
$DIMLWE
 70
    -2
  9
$DIMTMOVE
 70
     0
  9
$DIMFXL
 40
1.0
  9
$DIMFXLON
 70
     0
  9
$DIMJOGANG
 40
0.7853981633974483
  9
$DIMTFILL
 70
     0
  9
$DIMTFILLCLR
 70
     0
  9
$DIMARCSYM
 70
     0
  9
$DIMLTYPE
  6

  9
$DIMLTEX1
  6

  9
$DIMLTEX2
  6

  9
$LUNITS
 70
     2
  9
$LUPREC
 70
     4
  9
$SKETCHINC
 40
0.1
  9
$FILLETRAD
 40
0.5
  9
$AUNITS
 70
     0
  9
$AUPREC
 70
     0
  9
$MENU
  1
.
  9
$ELEVATION
 40
0.0
  9
$PELEVATION
 40
0.0
  9
$THICKNESS
 40
0.0
  9
$LIMCHECK
 70
     0
  9
$CHAMFERA
 40
0.5
  9
$CHAMFERB
 40
0.5
  9
$CHAMFERC
 40
1.0
  9
$CHAMFERD
 40
0.0
  9
$SKPOLY
 70
     0
  9
$TDCREATE
 40
2458493.741602049
  9
$TDUCREATE
 40
2458493.741602049
  9
$TDUPDATE
 40
2458493.741602153
  9
$TDUUPDATE
 40
2458493.741602153
  9
$TDINDWG
 40
0.0000000116
  9
$TDUSRTIMER
 40
0.0000000116
  9
$USRTIMER
 70
     1
  9
$ANGBASE
 50
0.0
  9
$ANGDIR
 70
     0
  9
$PDMODE
 70
     0
  9
$PDSIZE
 40
0.0
  9
$PLINEWID
 40
0.0
  9
$SPLFRAME
 70
     0
  9
$SPLINETYPE
 70
     6
  9
$SPLINESEGS
 70
     8
  9
$HANDSEED
  5
9A
  9
$SURFTAB1
 70
     6
  9
$SURFTAB2
 70
     6
  9
$SURFTYPE
 70
     6
  9
$SURFU
 70
     6
  9
$SURFV
 70
     6
  9
$UCSBASE
  2

  9
$UCSNAME
  2

  9
$UCSORG
 10
0.0
 20
0.0
 30
0.0
  9
$UCSXDIR
 10
1.0
 20
0.0
 30
0.0
  9
$UCSYDIR
 10
0.0
 20
1.0
 30
0.0
  9
$UCSORTHOREF
  2

  9
$UCSORTHOVIEW
 70
     0
  9
$UCSORGTOP
 10
0.0
 20
0.0
 30
0.0
  9
$UCSORGBOTTOM
 10
0.0
 20
0.0
 30
0.0
  9
$UCSORGLEFT
 10
0.0
 20
0.0
 30
0.0
  9
$UCSORGRIGHT
 10
0.0
 20
0.0
 30
0.0
  9
$UCSORGFRONT
 10
0.0
 20
0.0
 30
0.0
  9
$UCSORGBACK
 10
0.0
 20
0.0
 30
0.0
  9
$PUCSBASE
  2

  9
$PUCSNAME
  2

  9
$PUCSORG
 10
0.0
 20
0.0
 30
0.0
  9
$PUCSXDIR
 10
1.0
 20
0.0
 30
0.0
  9
$PUCSYDIR
 10
0.0
 20
1.0
 30
0.0
  9
$PUCSORTHOREF
  2

  9
$PUCSORTHOVIEW
 70
     0
  9
$PUCSORGTOP
 10
0.0
 20
0.0
 30
0.0
  9
$PUCSORGBOTTOM
 10
0.0
 20
0.0
 30
0.0
  9
$PUCSORGLEFT
 10
0.0
 20
0.0
 30
0.0
  9
$PUCSORGRIGHT
 10
0.0
 20
0.0
 30
0.0
  9
$PUCSORGFRONT
 10
0.0
 20
0.0
 30
0.0
  9
$PUCSORGBACK
 10
0.0
 20
0.0
 30
0.0
  9
$USERI1
 70
     0
  9
$USERI2
 70
     0
  9
$USERI3
 70
     0
  9
$USERI4
 70
     0
  9
$USERI5
 70
     0
  9
$USERR1
 40
0.0
  9
$USERR2
 40
0.0
  9
$USERR3
 40
0.0
  9
$USERR4
 40
0.0
  9
$USERR5
 40
0.0
  9
$WORLDVIEW
 70
     1
  9
$SHADEDGE
 70
     3
  9
$SHADEDIF
 70
    70
  9
$TILEMODE
 70
     1
  9
$MAXACTVP
 70
    64
  9
$PINSBASE
 10
0.0
 20
0.0
 30
0.0
  9
$PLIMCHECK
 70
     0
  9
$PEXTMIN
 10
1.000000000000000E+20
 20
1.000000000000000E+20
 30
1.000000000000000E+20
  9
$PEXTMAX
 10
-1.000000000000000E+20
 20
-1.000000000000000E+20
 30
-1.000000000000000E+20
  9
$PLIMMIN
 10
0.0
 20
0.0
  9
$PLIMMAX
 10
12.0
 20
9.0
  9
$UNITMODE
 70
     0
  9
$VISRETAIN
 70
     1
  9
$PLINEGEN
 70
     0
  9
$PSLTSCALE
 70
     1
  9
$TREEDEPTH
 70
  3020
  9
$CMLSTYLE
  2
Standard
  9
$CMLJUST
 70
     0
  9
$CMLSCALE
 40
1.0
  9
$PROXYGRAPHICS
 70
     1
  9
$MEASUREMENT
 70
     0
  9
$CELWEIGHT
370
    -1
  9
$ENDCAPS
280
     0
  9
$JOINSTYLE
280
     0
  9
$LWDISPLAY
290
     0
  9
$INSUNITS
 70
     4
  9
$HYPERLINKBASE
  1

  9
$STYLESHEET
  1

  9
$XEDIT
290
     1
  9
$CEPSNTYPE
380
     0
  9
$PSTYLEMODE
290
     1
  9
$FINGERPRINTGUID
  2
{7A244EDF-DC31-4FE8-A5C7-10A8E59CB4DE}
  9
$VERSIONGUID
  2
{FAEB1C32-E019-11D5-929B-00C0DF256EC4}
  9
$EXTNAMES
290
     1
  9
$PSVPSCALE
 40
0.0
  9
$OLESTARTUP
290
     0
  9
$SORTENTS
280
   127
  9
$INDEXCTL
280
     0
  9
$HIDETEXT
280
     1
  9
$XCLIPFRAME
290
     0
  9
$HALOGAP
280
     0
  9
$OBSCOLOR
 70
   257
  9
$OBSLTYPE
280
     0
  9
$INTERSECTIONDISPLAY
280
     0
  9
$INTERSECTIONCOLOR
 70
   257
  9
$DIMASSOC
280
     2
  9
$PROJECTNAME
  1

  9
$CAMERADISPLAY
290
     0
  9
$LENSLENGTH
 40
50.0
  9
$CAMERAHEIGHT
 40
0.0
  9
$STEPSPERSEC
 40
2.0
  9
$STEPSIZE
 40
6.0
  9
$3DDWFPREC
 40
2.0
  9
$PSOLWIDTH
 40
0.25
  9
$PSOLHEIGHT
 40
4.0
  9
$LOFTANG1
 40
1.570796326794897
  9
$LOFTANG2
 40
1.570796326794897
  9
$LOFTMAG1
 40
0.0
  9
$LOFTMAG2
 40
0.0
  9
$LOFTPARAM
 70
     7
  9
$LOFTNORMALS
280
     1
  9
$LATITUDE
 40
37.795
  9
$LONGITUDE
 40
-122.394
  9
$NORTHDIRECTION
 40
0.0
  9
$TIMEZONE
 70
 -8000
  9
$LIGHTGLYPHDISPLAY
280
     1
  9
$TILEMODELIGHTSYNCH
280
     1
  9
$SOLIDHIST
280
     1
  9
$SHOWHIST
280
     1
  9
$DWFFRAME
280
     2
  9
$DGNFRAME
280
     2
  9
$REALWORLDSCALE
290
     1
  9
$INTERFERECOLOR
 62
   256
  9
$CSHADOW
280
     0
  9
$SHADOWPLANELOCATION
 40
0.0
  0
ENDSEC
  0
SECTION
  2
CLASSES
  0
CLASS
  1
ACDBDICTIONARYWDFLT
  2
AcDbDictionaryWithDefault
  3
ObjectDBX Classes
 90
        0
 91
        4
280
     0
281
     0
  0
CLASS
  1
VISUALSTYLE
  2
AcDbVisualStyle
  3
ObjectDBX Classes
 90
     4095
 91
        4
280
     0
281
     0
  0
CLASS
  1
MATERIAL
  2
AcDbMaterial
  3
ObjectDBX Classes
 90
     1153
 91
        4
280
     0
281
     0
  0
ENDSEC
  0
SECTION
  2
TABLES
  0
TABLE
  2
VPORT
  5
8
330
0
100
AcDbSymbolTable
 70
     1
  0
VPORT
  5
29
330
8
100
AcDbSymbolTableRecord
100
AcDbViewportTableRecord
  2
*Active
 70
     0
 10
0.0
 20
0.0
 11
1.0
 21
1.0
 12
10.42990654205607
 22
4.5
 13
0.0
 23
0.0
 14
0.5
 24
0.5
 15
0.5
 25
0.5
 16
0.0
 26
0.0
 36
1.0
 17
0.0
 27
0.0
 37
0.0
 40
9.0
 41
1.972972972850329
 42
50.0
 43
0.0
 44
0.0
 50
0.0
 51
0.0
 71
     0
 72
   100
 73
     1
 74
     3
 75
     0
 76
     0
 77
     0
 78
     0
281
     0
 65
     1
110
0.0
120
0.0
130
0.0
111
1.0
121
0.0
131
0.0
112
0.0
122
1.0
132
0.0
 79
     0
146
0.0
 60
     3
 61
     5
292
     1
282
     1
141
0.0
142
0.0
 63
   250
  0
ENDTAB
  0
TABLE
  2
LTYPE
  5
5
330
0
100
AcDbSymbolTable
 70
     1
  0
LTYPE
  5
14
330
5
100
AcDbSymbolTableRecord
100
AcDbLinetypeTableRecord
  2
ByBlock
 70
     0
  3

 72
    65
 73
     0
 40
0.0
  0
LTYPE
  5
15
330
5
100
AcDbSymbolTableRecord
100
AcDbLinetypeTableRecord
  2
ByLayer
 70
     0
  3

 72
    65
 73
     0
 40
0.0
  0
LTYPE
  5
16
330
5
100
AcDbSymbolTableRecord
100
AcDbLinetypeTableRecord
  2
Continuous
 70
     0
  3
Solid line
 72
    65
 73
     0
 40
0.0
  0
ENDTAB
  0
TABLE
  2
LAYER
  5
2
330
0
100
AcDbSymbolTable
 70
     3
  0
LAYER
  5
10
330
2
100
AcDbSymbolTableRecord
100
AcDbLayerTableRecord
  2
0
 70
     0
 62
     7
  6
Continuous
370
    -3
390
F
347
3E
  0
LAYER
  5
40
330
2
100
AcDbSymbolTableRecord
100
AcDbLayerTableRecord
  2
layer 1
 70
     0
 62
     7
  6
Continuous
370
    -3
390
F
347
3E
  0
LAYER
  5
77
330
2
100
AcDbSymbolTableRecord
100
AcDbLayerTableRecord
  2
Master Guides
 70
     0
 62
     7
  6
Continuous
370
    -3
390
F
347
3E
  0
ENDTAB
  0
TABLE
  2
STYLE
  5
3
330
0
100
AcDbSymbolTable
 70
     1
  0
STYLE
  5
11
330
3
100
AcDbSymbolTableRecord
100
AcDbTextStyleTableRecord
  2
Standard
 70
     0
 40
0.0
 41
1.0
 50
0.0
 71
     0
 42
0.2
  3
txt
  4

  0
ENDTAB
  0
TABLE
  2
VIEW
  5
6
330
0
100
AcDbSymbolTable
 70
     0
  0
ENDTAB
  0
TABLE
  2
UCS
  5
7
330
0
100
AcDbSymbolTable
 70
     0
  0
ENDTAB
  0
TABLE
  2
APPID
  5
9
330
0
100
AcDbSymbolTable
 70
     2
  0
APPID
  5
12
330
9
100
AcDbSymbolTableRecord
100
AcDbRegAppTableRecord
  2
ACAD
 70
     0
  0
APPID
  5
3F
330
9
100
AcDbSymbolTableRecord
100
AcDbRegAppTableRecord
  2
ODA
 70
     0
  0
ENDTAB
  0
TABLE
  2
DIMSTYLE
  5
A
330
0
100
AcDbSymbolTable
 70
     1
100
AcDbDimStyleTable
  0
DIMSTYLE
105
27
330
A
100
AcDbSymbolTableRecord
100
AcDbDimStyleTableRecord
  2
Standard
 70
     0
178
     0
340
11
  0
ENDTAB
  0
TABLE
  2
BLOCK_RECORD
  5
1
330
0
100
AcDbSymbolTable
 70
     1
  0
BLOCK_RECORD
  5
1F
330
1
100
AcDbSymbolTableRecord
100
AcDbBlockTableRecord
  2
*Model_Space
340
22
 70
     0
280
     1
281
     0
  0
BLOCK_RECORD
  5
1B
330
1
100
AcDbSymbolTableRecord
100
AcDbBlockTableRecord
  2
*Paper_Space
340
1E
 70
     0
280
     1
281
     0
  0
BLOCK_RECORD
  5
23
330
1
100
AcDbSymbolTableRecord
100
AcDbBlockTableRecord
  2
*Paper_Space0
340
26
 70
     0
280
     1
281
     0
  0
ENDTAB
  0
ENDSEC
  0
SECTION
  2
BLOCKS
  0
BLOCK
  5
20
330
1F
100
AcDbEntity
  8
0
100
AcDbBlockBegin
  2
*Model_Space
 70
     0
 10
0.0
 20
0.0
 30
0.0
  3
*Model_Space
  1

  0
ENDBLK
  5
21
330
1F
100
AcDbEntity
  8
0
100
AcDbBlockEnd
  0
BLOCK
  5
1C
330
1B
100
AcDbEntity
 67
     1
  8
0
100
AcDbBlockBegin
  2
*Paper_Space
 70
     0
 10
0.0
 20
0.0
 30
0.0
  3
*Paper_Space
  1

  0
ENDBLK
  5
1D
330
1B
100
AcDbEntity
 67
     1
  8
0
100
AcDbBlockEnd
  0
BLOCK
  5
24
330
23
100
AcDbEntity
  8
0
100
AcDbBlockBegin
  2
*Paper_Space0
 70
     0
 10
0.0
 20
0.0
 30
0.0
  3
*Paper_Space0
  1

  0
ENDBLK
  5
25
330
23
100
AcDbEntity
  8
0
100
AcDbBlockEnd
  0
ENDSEC
  0
SECTION
  2
ENTITIES
  0
LWPOLYLINE
  5
41
330
1F
100
AcDbEntity
  8
layer 1
 62
   250
100
AcDbPolyline
 90
        5
 70
     1
 43
0.0
 10
-46.2286
 20
-97.1796
 10
73.889
 20
-97.1796
 10
73.889
 20
120.546
 10
-46.2286
 20
120.546
 10
-46.2286
 20
-97.1796
  0
SPLINE
  5
42
330
1F
100
AcDbEntity
  8
layer 1
 62
     7
100
AcDbSpline
210
0.0
220
0.0
230
1.0
 70
    11
 71
     3
 72
    68
 73
    64
 74
     0
 42
0.0000000001
 43
0.0000000001
 12
1.0
 22
0.0
 32
0.0
 13
1.0
 23
0.0
 33
0.0
 40
0.0
 40
0.0
 40
0.0
 40
0.0
 40
0.0588235294117647
 40
0.0588235294117647
 40
0.0588235294117647
 40
0.0588235294117647
 40
0.1176470588235294
 40
0.1176470588235294
 40
0.1176470588235294
 40
0.1176470588235294
 40
0.1764705882352941
 40
0.1764705882352941
 40
0.1764705882352941
 40
0.1764705882352941
 40
0.2352941176470588
 40
0.2352941176470588
 40
0.2352941176470588
 40
0.2352941176470588
 40
0.2941176470588235
 40
0.2941176470588235
 40
0.2941176470588235
 40
0.2941176470588235
 40
0.3529411764705883
 40
0.3529411764705883
 40
0.3529411764705883
 40
0.3529411764705883
 40
0.4117647058823529
 40
0.4117647058823529
 40
0.4117647058823529
 40
0.4117647058823529
 40
0.4705882352941176
 40
0.4705882352941176
 40
0.4705882352941176
 40
0.4705882352941176
 40
0.5294117647058824
 40
0.5294117647058824
 40
0.5294117647058824
 40
0.5294117647058824
 40
0.5882352941176471
 40
0.5882352941176471
 40
0.5882352941176471
 40
0.5882352941176471
 40
0.6470588235294118
 40
0.6470588235294118
 40
0.6470588235294118
 40
0.6470588235294118
 40
0.7058823529411765
 40
0.7058823529411765
 40
0.7058823529411765
 40
0.7058823529411765
 40
0.7647058823529411
 40
0.7647058823529411
 40
0.7647058823529411
 40
0.7647058823529411
 40
0.8235294117647058
 40
0.8235294117647058
 40
0.8235294117647058
 40
0.8235294117647058
 40
0.8823529411764706
 40
0.8823529411764706
 40
0.8823529411764706
 40
0.8823529411764706
 40
1.0
 40
1.0
 40
1.0
 40
1.0
 10
23.7448
 20
84.4456
 30
0.0
 10
23.7448
 20
84.4456
 30
0.0
 10
26.584
 20
84.478
 30
0.0
 10
26.584
 20
84.478
 30
0.0
 10
26.584
 20
84.478
 30
0.0
 10
26.584
 20
84.478
 30
0.0
 10
26.6148
 20
87.3715
 30
0.0
 10
26.6148
 20
87.3715
 30
0.0
 10
26.6148
 20
87.3715
 30
0.0
 10
29.0047
 20
88.1526
 30
0.0
 10
30.3071
 20
89.1765
 30
0.0
 10
31.1057
 20
91.0636
 30
0.0
 10
31.1057
 20
91.0636
 30
0.0
 10
31.9042
 20
89.1765
 30
0.0
 10
33.2066
 20
88.1526
 30
0.0
 10
35.5965
 20
87.3715
 30
0.0
 10
35.5965
 20
87.3715
 30
0.0
 10
35.5965
 20
87.3715
 30
0.0
 10
35.6273
 20
84.478
 30
0.0
 10
35.6273
 20
84.478
 30
0.0
 10
35.6273
 20
84.478
 30
0.0
 10
35.6273
 20
84.478
 30
0.0
 10
38.4665
 20
84.4456
 30
0.0
 10
38.4665
 20
84.4456
 30
0.0
 10
38.4665
 20
84.4456
 30
0.0
 10
39.1322
 20
82.0788
 30
0.0
 10
40.1141
 20
81.0741
 30
0.0
 10
42.1869
 20
79.9563
 30
0.0
 10
42.1869
 20
79.9563
 30
0.0
 10
40.1141
 20
78.8385
 30
0.0
 10
39.1322
 20
77.8338
 30
0.0
 10
38.4665
 20
75.467
 30
0.0
 10
38.4665
 20
75.467
 30
0.0
 10
38.4665
 20
75.467
 30
0.0
 10
35.6273
 20
75.4347
 30
0.0
 10
35.6273
 20
75.4347
 30
0.0
 10
35.6273
 20
75.4347
 30
0.0
 10
35.6273
 20
75.4347
 30
0.0
 10
35.5965
 20
72.5411
 30
0.0
 10
35.5965
 20
72.5411
 30
0.0
 10
35.5965
 20
72.5411
 30
0.0
 10
33.2066
 20
71.7601
 30
0.0
 10
31.9042
 20
70.7361
 30
0.0
 10
31.1057
 20
68.8491
 30
0.0
 10
31.1057
 20
68.8491
 30
0.0
 10
30.3071
 20
70.7361
 30
0.0
 10
29.0047
 20
71.7601
 30
0.0
 10
26.6148
 20
72.5411
 30
0.0
 10
26.6148
 20
72.5411
 30
0.0
 10
26.6148
 20
72.5411
 30
0.0
 10
26.584
 20
75.4347
 30
0.0
 10
26.584
 20
75.4347
 30
0.0
 10
26.584
 20
75.4347
 30
0.0
 10
26.584
 20
75.4347
 30
0.0
 10
23.7448
 20
75.467
 30
0.0
 10
23.7448
 20
75.467
 30
0.0
 10
23.7448
 20
75.467
 30
0.0
 10
23.0792
 20
77.8338
 30
0.0
 10
22.0972
 20
78.8385
 30
0.0
 10
20.0244
 20
79.9563
 30
0.0
 10
20.0244
 20
79.9563
 30
0.0
 10
22.0972
 20
81.0741
 30
0.0
 10
23.0792
 20
82.0788
 30
0.0
 10
23.7448
 20
84.4456
 30
0.0
  0
SPLINE
  5
43
330
1F
100
AcDbEntity
  8
layer 1
 62
     7
100
AcDbSpline
210
0.0
220
0.0
230
1.0
 70
    11
 71
     3
 72
    68
 73
    64
 74
     0
 42
0.0000000001
 43
0.0000000001
 12
1.0
 22
0.0
 32
0.0
 13
1.0
 23
0.0
 33
0.0
 40
0.0
 40
0.0
 40
0.0
 40
0.0
 40
0.0588235294117647
 40
0.0588235294117647
 40
0.0588235294117647
 40
0.0588235294117647
 40
0.1176470588235294
 40
0.1176470588235294
 40
0.1176470588235294
 40
0.1176470588235294
 40
0.1764705882352941
 40
0.1764705882352941
 40
0.1764705882352941
 40
0.1764705882352941
 40
0.2352941176470588
 40
0.2352941176470588
 40
0.2352941176470588
 40
0.2352941176470588
 40
0.2941176470588235
 40
0.2941176470588235
 40
0.2941176470588235
 40
0.2941176470588235
 40
0.3529411764705883
 40
0.3529411764705883
 40
0.3529411764705883
 40
0.3529411764705883
 40
0.4117647058823529
 40
0.4117647058823529
 40
0.4117647058823529
 40
0.4117647058823529
 40
0.4705882352941176
 40
0.4705882352941176
 40
0.4705882352941176
 40
0.4705882352941176
 40
0.5294117647058824
 40
0.5294117647058824
 40
0.5294117647058824
 40
0.5294117647058824
 40
0.5882352941176471
 40
0.5882352941176471
 40
0.5882352941176471
 40
0.5882352941176471
 40
0.6470588235294118
 40
0.6470588235294118
 40
0.6470588235294118
 40
0.6470588235294118
 40
0.7058823529411765
 40
0.7058823529411765
 40
0.7058823529411765
 40
0.7058823529411765
 40
0.7647058823529411
 40
0.7647058823529411
 40
0.7647058823529411
 40
0.7647058823529411
 40
0.8235294117647058
 40
0.8235294117647058
 40
0.8235294117647058
 40
0.8235294117647058
 40
0.8823529411764706
 40
0.8823529411764706
 40
0.8823529411764706
 40
0.8823529411764706
 40
1.0
 40
1.0
 40
1.0
 40
1.0
 10
7.9744
 20
88.6346
 30
0.0
 10
7.9744
 20
88.6346
 30
0.0
 10
5.3583
 20
88.7018
 30
0.0
 10
5.3583
 20
88.7018
 30
0.0
 10
5.3583
 20
88.7018
 30
0.0
 10
5.3583
 20
88.7018
 30
0.0
 10
5.3393
 20
91.2977
 30
0.0
 10
5.3393
 20
91.2977
 30
0.0
 10
5.3393
 20
91.2977
 30
0.0
 10
0.7238
 20
91.2937
 30
0.0
 10
-1.4764
 20
93.4686
 30
0.0
 10
-1.534
 20
97.2244
 30
0.0
 10
-1.534
 20
97.2244
 30
0.0
 10
-1.4764
 20
100.9803
 30
0.0
 10
0.7238
 20
103.1552
 30
0.0
 10
5.3393
 20
103.1511
 30
0.0
 10
5.3393
 20
103.1511
 30
0.0
 10
5.3393
 20
103.1511
 30
0.0
 10
5.3583
 20
105.747
 30
0.0
 10
5.3583
 20
105.747
 30
0.0
 10
5.3583
 20
105.747
 30
0.0
 10
5.3583
 20
105.747
 30
0.0
 10
7.9744
 20
105.8143
 30
0.0
 10
7.9744
 20
105.8143
 30
0.0
 10
7.9744
 20
105.8143
 30
0.0
 10
7.9363
 20
109.026
 30
0.0
 10
9.6321
 20
112.4929
 30
0.0
 10
13.8168
 20
112.4135
 30
0.0
 10
13.8168
 20
112.4135
 30
0.0
 10
18.0015
 20
112.4929
 30
0.0
 10
19.7822
 20
109.026
 30
0.0
 10
19.7441
 20
105.8143
 30
0.0
 10
19.7441
 20
105.8143
 30
0.0
 10
19.7441
 20
105.8143
 30
0.0
 10
22.3602
 20
105.747
 30
0.0
 10
22.3602
 20
105.747
 30
0.0
 10
22.3602
 20
105.747
 30
0.0
 10
22.3602
 20
105.747
 30
0.0
 10
22.3792
 20
103.1511
 30
0.0
 10
22.3792
 20
103.1511
 30
0.0
 10
22.3792
 20
103.1511
 30
0.0
 10
26.9947
 20
103.1552
 30
0.0
 10
29.1949
 20
100.9803
 30
0.0
 10
29.2525
 20
97.2244
 30
0.0
 10
29.2525
 20
97.2244
 30
0.0
 10
29.1949
 20
93.4686
 30
0.0
 10
26.9947
 20
91.2937
 30
0.0
 10
22.3792
 20
91.2977
 30
0.0
 10
22.3792
 20
91.2977
 30
0.0
 10
22.3792
 20
91.2977
 30
0.0
 10
22.3602
 20
88.7018
 30
0.0
 10
22.3602
 20
88.7018
 30
0.0
 10
22.3602
 20
88.7018
 30
0.0
 10
22.3602
 20
88.7018
 30
0.0
 10
19.7441
 20
88.6346
 30
0.0
 10
19.7441
 20
88.6346
 30
0.0
 10
19.7441
 20
88.6346
 30
0.0
 10
19.7822
 20
85.4228
 30
0.0
 10
18.0015
 20
81.9559
 30
0.0
 10
13.8168
 20
82.0353
 30
0.0
 10
13.8168
 20
82.0353
 30
0.0
 10
9.6321
 20
81.9559
 30
0.0
 10
7.9363
 20
85.4228
 30
0.0
 10
7.9744
 20
88.6346
 30
0.0
  0
SPLINE
  5
44
330
1F
100
AcDbEntity
  8
layer 1
 62
     7
100
AcDbSpline
210
0.0
220
0.0
230
1.0
 70
    11
 71
     3
 72
    68
 73
    64
 74
     0
 42
0.0000000001
 43
0.0000000001
 12
1.0
 22
0.0
 32
0.0
 13
1.0
 23
0.0
 33
0.0
 40
0.0
 40
0.0
 40
0.0
 40
0.0
 40
0.0588235294117647
 40
0.0588235294117647
 40
0.0588235294117647
 40
0.0588235294117647
 40
0.1176470588235294
 40
0.1176470588235294
 40
0.1176470588235294
 40
0.1176470588235294
 40
0.1764705882352941
 40
0.1764705882352941
 40
0.1764705882352941
 40
0.1764705882352941
 40
0.2352941176470588
 40
0.2352941176470588
 40
0.2352941176470588
 40
0.2352941176470588
 40
0.2941176470588235
 40
0.2941176470588235
 40
0.2941176470588235
 40
0.2941176470588235
 40
0.3529411764705883
 40
0.3529411764705883
 40
0.3529411764705883
 40
0.3529411764705883
 40
0.4117647058823529
 40
0.4117647058823529
 40
0.4117647058823529
 40
0.4117647058823529
 40
0.4705882352941176
 40
0.4705882352941176
 40
0.4705882352941176
 40
0.4705882352941176
 40
0.5294117647058824
 40
0.5294117647058824
 40
0.5294117647058824
 40
0.5294117647058824
 40
0.5882352941176471
 40
0.5882352941176471
 40
0.5882352941176471
 40
0.5882352941176471
 40
0.6470588235294118
 40
0.6470588235294118
 40
0.6470588235294118
 40
0.6470588235294118
 40
0.7058823529411765
 40
0.7058823529411765
 40
0.7058823529411765
 40
0.7058823529411765
 40
0.7647058823529411
 40
0.7647058823529411
 40
0.7647058823529411
 40
0.7647058823529411
 40
0.8235294117647058
 40
0.8235294117647058
 40
0.8235294117647058
 40
0.8235294117647058
 40
0.8823529411764706
 40
0.8823529411764706
 40
0.8823529411764706
 40
0.8823529411764706
 40
1.0
 40
1.0
 40
1.0
 40
1.0
 10
-26.834
 20
88.6346
 30
0.0
 10
-26.834
 20
88.6346
 30
0.0
 10
-29.4501
 20
88.7018
 30
0.0
 10
-29.4501
 20
88.7018
 30
0.0
 10
-29.4501
 20
88.7018
 30
0.0
 10
-29.4501
 20
88.7018
 30
0.0
 10
-29.4691
 20
91.2977
 30
0.0
 10
-29.4691
 20
91.2977
 30
0.0
 10
-29.4691
 20
91.2977
 30
0.0
 10
-34.0846
 20
91.2937
 30
0.0
 10
-36.2848
 20
93.4686
 30
0.0
 10
-36.3424
 20
97.2244
 30
0.0
 10
-36.3424
 20
97.2244
 30
0.0
 10
-36.2848
 20
100.9803
 30
0.0
 10
-34.0846
 20
103.1552
 30
0.0
 10
-29.4691
 20
103.1511
 30
0.0
 10
-29.4691
 20
103.1511
 30
0.0
 10
-29.4691
 20
103.1511
 30
0.0
 10
-29.4501
 20
105.747
 30
0.0
 10
-29.4501
 20
105.747
 30
0.0
 10
-29.4501
 20
105.747
 30
0.0
 10
-29.4501
 20
105.747
 30
0.0
 10
-26.834
 20
105.8143
 30
0.0
 10
-26.834
 20
105.8143
 30
0.0
 10
-26.834
 20
105.8143
 30
0.0
 10
-26.8721
 20
109.026
 30
0.0
 10
-25.1763
 20
112.4929
 30
0.0
 10
-20.9916
 20
112.4135
 30
0.0
 10
-20.9916
 20
112.4135
 30
0.0
 10
-16.8069
 20
112.4929
 30
0.0
 10
-15.0262
 20
109.026
 30
0.0
 10
-15.0643
 20
105.8143
 30
0.0
 10
-15.0643
 20
105.8143
 30
0.0
 10
-15.0643
 20
105.8143
 30
0.0
 10
-12.4482
 20
105.747
 30
0.0
 10
-12.4482
 20
105.747
 30
0.0
 10
-12.4482
 20
105.747
 30
0.0
 10
-12.4482
 20
105.747
 30
0.0
 10
-12.4292
 20
103.1511
 30
0.0
 10
-12.4292
 20
103.1511
 30
0.0
 10
-12.4292
 20
103.1511
 30
0.0
 10
-7.8137
 20
103.1552
 30
0.0
 10
-5.6135
 20
100.9803
 30
0.0
 10
-5.5559
 20
97.2244
 30
0.0
 10
-5.5559
 20
97.2244
 30
0.0
 10
-5.6135
 20
93.4686
 30
0.0
 10
-7.8137
 20
91.2937
 30
0.0
 10
-12.4292
 20
91.2977
 30
0.0
 10
-12.4292
 20
91.2977
 30
0.0
 10
-12.4292
 20
91.2977
 30
0.0
 10
-12.4482
 20
88.7018
 30
0.0
 10
-12.4482
 20
88.7018
 30
0.0
 10
-12.4482
 20
88.7018
 30
0.0
 10
-12.4482
 20
88.7018
 30
0.0
 10
-15.0643
 20
88.6346
 30
0.0
 10
-15.0643
 20
88.6346
 30
0.0
 10
-15.0643
 20
88.6346
 30
0.0
 10
-15.0262
 20
85.4228
 30
0.0
 10
-16.8069
 20
81.9559
 30
0.0
 10
-20.9916
 20
82.0353
 30
0.0
 10
-20.9916
 20
82.0353
 30
0.0
 10
-25.1763
 20
81.9559
 30
0.0
 10
-26.8721
 20
85.4228
 30
0.0
 10
-26.834
 20
88.6346
 30
0.0
  0
SPLINE
  5
45
330
1F
100
AcDbEntity
  8
layer 1
 62
     7
100
AcDbSpline
210
0.0
220
0.0
230
1.0
 70
    11
 71
     3
 72
    68
 73
    64
 74
     0
 42
0.0000000001
 43
0.0000000001
 12
1.0
 22
0.0
 32
0.0
 13
1.0
 23
0.0
 33
0.0
 40
0.0
 40
0.0
 40
0.0
 40
0.0
 40
0.0588235294117647
 40
0.0588235294117647
 40
0.0588235294117647
 40
0.0588235294117647
 40
0.1176470588235294
 40
0.1176470588235294
 40
0.1176470588235294
 40
0.1176470588235294
 40
0.1764705882352941
 40
0.1764705882352941
 40
0.1764705882352941
 40
0.1764705882352941
 40
0.2352941176470588
 40
0.2352941176470588
 40
0.2352941176470588
 40
0.2352941176470588
 40
0.2941176470588235
 40
0.2941176470588235
 40
0.2941176470588235
 40
0.2941176470588235
 40
0.3529411764705883
 40
0.3529411764705883
 40
0.3529411764705883
 40
0.3529411764705883
 40
0.4117647058823529
 40
0.4117647058823529
 40
0.4117647058823529
 40
0.4117647058823529
 40
0.4705882352941176
 40
0.4705882352941176
 40
0.4705882352941176
 40
0.4705882352941176
 40
0.5294117647058824
 40
0.5294117647058824
 40
0.5294117647058824
 40
0.5294117647058824
 40
0.5882352941176471
 40
0.5882352941176471
 40
0.5882352941176471
 40
0.5882352941176471
 40
0.6470588235294118
 40
0.6470588235294118
 40
0.6470588235294118
 40
0.6470588235294118
 40
0.7058823529411765
 40
0.7058823529411765
 40
0.7058823529411765
 40
0.7058823529411765
 40
0.7647058823529411
 40
0.7647058823529411
 40
0.7647058823529411
 40
0.7647058823529411
 40
0.8235294117647058
 40
0.8235294117647058
 40
0.8235294117647058
 40
0.8235294117647058
 40
0.8823529411764706
 40
0.8823529411764706
 40
0.8823529411764706
 40
0.8823529411764706
 40
1.0
 40
1.0
 40
1.0
 40
1.0
 10
-11.0636
 20
84.4456
 30
0.0
 10
-11.0636
 20
84.4456
 30
0.0
 10
-8.2244
 20
84.478
 30
0.0
 10
-8.2244
 20
84.478
 30
0.0
 10
-8.2244
 20
84.478
 30
0.0
 10
-8.2244
 20
84.478
 30
0.0
 10
-8.1936
 20
87.3715
 30
0.0
 10
-8.1936
 20
87.3715
 30
0.0
 10
-8.1936
 20
87.3715
 30
0.0
 10
-5.8037
 20
88.1526
 30
0.0
 10
-4.5013
 20
89.1765
 30
0.0
 10
-3.7027
 20
91.0636
 30
0.0
 10
-3.7027
 20
91.0636
 30
0.0
 10
-2.9042
 20
89.1765
 30
0.0
 10
-1.6018
 20
88.1526
 30
0.0
 10
0.7881
 20
87.3715
 30
0.0
 10
0.7881
 20
87.3715
 30
0.0
 10
0.7881
 20
87.3715
 30
0.0
 10
0.8189
 20
84.478
 30
0.0
 10
0.8189
 20
84.478
 30
0.0
 10
0.8189
 20
84.478
 30
0.0
 10
0.8189
 20
84.478
 30
0.0
 10
3.6581
 20
84.4456
 30
0.0
 10
3.6581
 20
84.4456
 30
0.0
 10
3.6581
 20
84.4456
 30
0.0
 10
4.3238
 20
82.0788
 30
0.0
 10
5.3057
 20
81.0741
 30
0.0
 10
7.3785
 20
79.9563
 30
0.0
 10
7.3785
 20
79.9563
 30
0.0
 10
5.3057
 20
78.8385
 30
0.0
 10
4.3238
 20
77.8338
 30
0.0
 10
3.6581
 20
75.467
 30
0.0
 10
3.6581
 20
75.467
 30
0.0
 10
3.6581
 20
75.467
 30
0.0
 10
0.8189
 20
75.4347
 30
0.0
 10
0.8189
 20
75.4347
 30
0.0
 10
0.8189
 20
75.4347
 30
0.0
 10
0.8189
 20
75.4347
 30
0.0
 10
0.7881
 20
72.5411
 30
0.0
 10
0.7881
 20
72.5411
 30
0.0
 10
0.7881
 20
72.5411
 30
0.0
 10
-1.6018
 20
71.7601
 30
0.0
 10
-2.9042
 20
70.7361
 30
0.0
 10
-3.7027
 20
68.8491
 30
0.0
 10
-3.7027
 20
68.8491
 30
0.0
 10
-4.5013
 20
70.7361
 30
0.0
 10
-5.8037
 20
71.7601
 30
0.0
 10
-8.1936
 20
72.5411
 30
0.0
 10
-8.1936
 20
72.5411
 30
0.0
 10
-8.1936
 20
72.5411
 30
0.0
 10
-8.2244
 20
75.4347
 30
0.0
 10
-8.2244
 20
75.4347
 30
0.0
 10
-8.2244
 20
75.4347
 30
0.0
 10
-8.2244
 20
75.4347
 30
0.0
 10
-11.0636
 20
75.467
 30
0.0
 10
-11.0636
 20
75.467
 30
0.0
 10
-11.0636
 20
75.467
 30
0.0
 10
-11.7292
 20
77.8338
 30
0.0
 10
-12.7112
 20
78.8385
 30
0.0
 10
-14.784
 20
79.9563
 30
0.0
 10
-14.784
 20
79.9563
 30
0.0
 10
-12.7112
 20
81.0741
 30
0.0
 10
-11.7292
 20
82.0788
 30
0.0
 10
-11.0636
 20
84.4456
 30
0.0
  0
SPLINE
  5
46
330
1F
100
AcDbEntity
  8
layer 1
 62
     7
100
AcDbSpline
210
0.0
220
0.0
230
1.0
 70
    11
 71
     3
 72
    68
 73
    64
 74
     0
 42
0.0000000001
 43
0.0000000001
 12
1.0
 22
0.0
 32
0.0
 13
1.0
 23
0.0
 33
0.0
 40
0.0
 40
0.0
 40
0.0
 40
0.0
 40
0.0588235294117647
 40
0.0588235294117647
 40
0.0588235294117647
 40
0.0588235294117647
 40
0.1176470588235294
 40
0.1176470588235294
 40
0.1176470588235294
 40
0.1176470588235294
 40
0.1764705882352941
 40
0.1764705882352941
 40
0.1764705882352941
 40
0.1764705882352941
 40
0.2352941176470588
 40
0.2352941176470588
 40
0.2352941176470588
 40
0.2352941176470588
 40
0.2941176470588235
 40
0.2941176470588235
 40
0.2941176470588235
 40
0.2941176470588235
 40
0.3529411764705883
 40
0.3529411764705883
 40
0.3529411764705883
 40
0.3529411764705883
 40
0.4117647058823529
 40
0.4117647058823529
 40
0.4117647058823529
 40
0.4117647058823529
 40
0.4705882352941176
 40
0.4705882352941176
 40
0.4705882352941176
 40
0.4705882352941176
 40
0.5294117647058824
 40
0.5294117647058824
 40
0.5294117647058824
 40
0.5294117647058824
 40
0.5882352941176471
 40
0.5882352941176471
 40
0.5882352941176471
 40
0.5882352941176471
 40
0.6470588235294118
 40
0.6470588235294118
 40
0.6470588235294118
 40
0.6470588235294118
 40
0.7058823529411765
 40
0.7058823529411765
 40
0.7058823529411765
 40
0.7058823529411765
 40
0.7647058823529411
 40
0.7647058823529411
 40
0.7647058823529411
 40
0.7647058823529411
 40
0.8235294117647058
 40
0.8235294117647058
 40
0.8235294117647058
 40
0.8235294117647058
 40
0.8823529411764706
 40
0.8823529411764706
 40
0.8823529411764706
 40
0.8823529411764706
 40
1.0
 40
1.0
 40
1.0
 40
1.0
 10
42.8526
 20
88.6346
 30
0.0
 10
42.8526
 20
88.6346
 30
0.0
 10
40.2365
 20
88.7018
 30
0.0
 10
40.2365
 20
88.7018
 30
0.0
 10
40.2365
 20
88.7018
 30
0.0
 10
40.2365
 20
88.7018
 30
0.0
 10
40.2174
 20
91.2977
 30
0.0
 10
40.2174
 20
91.2977
 30
0.0
 10
40.2174
 20
91.2977
 30
0.0
 10
35.6019
 20
91.2937
 30
0.0
 10
33.4018
 20
93.4686
 30
0.0
 10
33.3441
 20
97.2244
 30
0.0
 10
33.3441
 20
97.2244
 30
0.0
 10
33.4018
 20
100.9803
 30
0.0
 10
35.6019
 20
103.1552
 30
0.0
 10
40.2174
 20
103.1511
 30
0.0
 10
40.2174
 20
103.1511
 30
0.0
 10
40.2174
 20
103.1511
 30
0.0
 10
40.2365
 20
105.747
 30
0.0
 10
40.2365
 20
105.747
 30
0.0
 10
40.2365
 20
105.747
 30
0.0
 10
40.2365
 20
105.747
 30
0.0
 10
42.8526
 20
105.8143
 30
0.0
 10
42.8526
 20
105.8143
 30
0.0
 10
42.8526
 20
105.8143
 30
0.0
 10
42.8144
 20
109.026
 30
0.0
 10
44.5102
 20
112.4929
 30
0.0
 10
48.6949
 20
112.4135
 30
0.0
 10
48.6949
 20
112.4135
 30
0.0
 10
52.8796
 20
112.4929
 30
0.0
 10
54.6604
 20
109.026
 30
0.0
 10
54.6222
 20
105.8143
 30
0.0
 10
54.6222
 20
105.8143
 30
0.0
 10
54.6222
 20
105.8143
 30
0.0
 10
57.2383
 20
105.747
 30
0.0
 10
57.2383
 20
105.747
 30
0.0
 10
57.2383
 20
105.747
 30
0.0
 10
57.2383
 20
105.747
 30
0.0
 10
57.2574
 20
103.1511
 30
0.0
 10
57.2574
 20
103.1511
 30
0.0
 10
57.2574
 20
103.1511
 30
0.0
 10
61.8729
 20
103.1552
 30
0.0
 10
64.073
 20
100.9803
 30
0.0
 10
64.1306
 20
97.2244
 30
0.0
 10
64.1306
 20
97.2244
 30
0.0
 10
64.073
 20
93.4686
 30
0.0
 10
61.8729
 20
91.2937
 30
0.0
 10
57.2574
 20
91.2977
 30
0.0
 10
57.2574
 20
91.2977
 30
0.0
 10
57.2574
 20
91.2977
 30
0.0
 10
57.2383
 20
88.7018
 30
0.0
 10
57.2383
 20
88.7018
 30
0.0
 10
57.2383
 20
88.7018
 30
0.0
 10
57.2383
 20
88.7018
 30
0.0
 10
54.6222
 20
88.6346
 30
0.0
 10
54.6222
 20
88.6346
 30
0.0
 10
54.6222
 20
88.6346
 30
0.0
 10
54.6604
 20
85.4228
 30
0.0
 10
52.8796
 20
81.9559
 30
0.0
 10
48.6949
 20
82.0353
 30
0.0
 10
48.6949
 20
82.0353
 30
0.0
 10
44.5102
 20
81.9559
 30
0.0
 10
42.8144
 20
85.4228
 30
0.0
 10
42.8526
 20
88.6346
 30
0.0
  0
SPLINE
  5
47
330
1F
100
AcDbEntity
  8
layer 1
 62
     7
100
AcDbSpline
210
0.0
220
0.0
230
1.0
 70
    11
 71
     3
 72
    40
 73
    36
 74
     0
 42
0.0000000001
 43
0.0000000001
 12
1.0
 22
0.0
 32
0.0
 13
1.0
 23
0.0
 33
0.0
 40
0.0
 40
0.0
 40
0.0
 40
0.0
 40
0.1
 40
0.1
 40
0.1
 40
0.1
 40
0.2
 40
0.2
 40
0.2
 40
0.2
 40
0.3
 40
0.3
 40
0.3
 40
0.3
 40
0.4
 40
0.4
 40
0.4
 40
0.4
 40
0.5
 40
0.5
 40
0.5
 40
0.5
 40
0.6
 40
0.6
 40
0.6
 40
0.6
 40
0.7
 40
0.7
 40
0.7
 40
0.7
 40
0.8
 40
0.8
 40
0.8
 40
0.8
 40
1.0
 40
1.0
 40
1.0
 40
1.0
 10
-38.3345
 20
91.0636
 30
0.0
 10
-37.5359
 20
89.1765
 30
0.0
 10
-36.2335
 20
88.1526
 30
0.0
 10
-33.8436
 20
87.3715
 30
0.0
 10
-33.8436
 20
87.3715
 30
0.0
 10
-33.8436
 20
87.3715
 30
0.0
 10
-33.8128
 20
84.478
 30
0.0
 10
-33.8128
 20
84.478
 30
0.0
 10
-33.8128
 20
84.478
 30
0.0
 10
-33.8128
 20
84.478
 30
0.0
 10
-30.9736
 20
84.4456
 30
0.0
 10
-30.9736
 20
84.4456
 30
0.0
 10
-30.9736
 20
84.4456
 30
0.0
 10
-30.308
 20
82.0788
 30
0.0
 10
-29.326
 20
81.0741
 30
0.0
 10
-27.2532
 20
79.9563
 30
0.0
 10
-27.2532
 20
79.9563
 30
0.0
 10
-29.326
 20
78.8385
 30
0.0
 10
-30.308
 20
77.8338
 30
0.0
 10
-30.9736
 20
75.467
 30
0.0
 10
-30.9736
 20
75.467
 30
0.0
 10
-30.9736
 20
75.467
 30
0.0
 10
-33.8128
 20
75.4347
 30
0.0
 10
-33.8128
 20
75.4347
 30
0.0
 10
-33.8128
 20
75.4347
 30
0.0
 10
-33.8128
 20
75.4347
 30
0.0
 10
-33.8436
 20
72.5411
 30
0.0
 10
-33.8436
 20
72.5411
 30
0.0
 10
-33.8436
 20
72.5411
 30
0.0
 10
-36.2335
 20
71.7601
 30
0.0
 10
-37.5359
 20
70.7361
 30
0.0
 10
-38.3345
 20
68.8491
 30
0.0
 10
-38.3345
 20
68.8491
 30
0.0
 10
-38.3345
 20
68.8491
 30
0.0
 10
-38.3345
 20
91.0636
 30
0.0
 10
-38.3345
 20
91.0636
 30
0.0
  0
SPLINE
  5
48
330
1F
100
AcDbEntity
  8
layer 1
 62
     7
100
AcDbSpline
210
0.0
220
0.0
230
1.0
 70
    11
 71
     3
 72
    40
 73
    36
 74
     0
 42
0.0000000001
 43
0.0000000001
 12
1.0
 22
0.0
 32
0.0
 13
1.0
 23
0.0
 33
0.0
 40
0.0
 40
0.0
 40
0.0
 40
0.0
 40
0.1
 40
0.1
 40
0.1
 40
0.1
 40
0.2
 40
0.2
 40
0.2
 40
0.2
 40
0.3
 40
0.3
 40
0.3
 40
0.3
 40
0.4
 40
0.4
 40
0.4
 40
0.4
 40
0.5
 40
0.5
 40
0.5
 40
0.5
 40
0.6
 40
0.6
 40
0.6
 40
0.6
 40
0.7
 40
0.7
 40
0.7
 40
0.7
 40
0.8
 40
0.8
 40
0.8
 40
0.8
 40
1.0
 40
1.0
 40
1.0
 40
1.0
 10
58.6341
 20
84.4456
 30
0.0
 10
58.6341
 20
84.4456
 30
0.0
 10
61.4733
 20
84.478
 30
0.0
 10
61.4733
 20
84.478
 30
0.0
 10
61.4733
 20
84.478
 30
0.0
 10
61.4733
 20
84.478
 30
0.0
 10
61.5041
 20
87.3715
 30
0.0
 10
61.5041
 20
87.3715
 30
0.0
 10
61.5041
 20
87.3715
 30
0.0
 10
63.894
 20
88.1526
 30
0.0
 10
65.1964
 20
89.1765
 30
0.0
 10
65.995
 20
91.0636
 30
0.0
 10
65.995
 20
91.0636
 30
0.0
 10
65.995
 20
91.0636
 30
0.0
 10
65.995
 20
68.8491
 30
0.0
 10
65.995
 20
68.8491
 30
0.0
 10
65.995
 20
68.8491
 30
0.0
 10
65.1964
 20
70.7361
 30
0.0
 10
63.894
 20
71.7601
 30
0.0
 10
61.5041
 20
72.5411
 30
0.0
 10
61.5041
 20
72.5411
 30
0.0
 10
61.5041
 20
72.5411
 30
0.0
 10
61.4733
 20
75.4347
 30
0.0
 10
61.4733
 20
75.4347
 30
0.0
 10
61.4733
 20
75.4347
 30
0.0
 10
61.4733
 20
75.4347
 30
0.0
 10
58.6341
 20
75.467
 30
0.0
 10
58.6341
 20
75.467
 30
0.0
 10
58.6341
 20
75.467
 30
0.0
 10
57.9685
 20
77.8338
 30
0.0
 10
56.9865
 20
78.8385
 30
0.0
 10
54.9137
 20
79.9563
 30
0.0
 10
54.9137
 20
79.9563
 30
0.0
 10
56.9865
 20
81.0741
 30
0.0
 10
57.9685
 20
82.0788
 30
0.0
 10
58.6341
 20
84.4456
 30
0.0
  0
SPLINE
  5
49
330
1F
100
AcDbEntity
  8
layer 1
 62
     7
100
AcDbSpline
210
0.0
220
0.0
230
1.0
 70
    11
 71
     3
 72
    68
 73
    64
 74
     0
 42
0.0000000001
 43
0.0000000001
 12
1.0
 22
0.0
 32
0.0
 13
1.0
 23
0.0
 33
0.0
 40
0.0
 40
0.0
 40
0.0
 40
0.0
 40
0.0588235294117647
 40
0.0588235294117647
 40
0.0588235294117647
 40
0.0588235294117647
 40
0.1176470588235294
 40
0.1176470588235294
 40
0.1176470588235294
 40
0.1176470588235294
 40
0.1764705882352941
 40
0.1764705882352941
 40
0.1764705882352941
 40
0.1764705882352941
 40
0.2352941176470588
 40
0.2352941176470588
 40
0.2352941176470588
 40
0.2352941176470588
 40
0.2941176470588235
 40
0.2941176470588235
 40
0.2941176470588235
 40
0.2941176470588235
 40
0.3529411764705883
 40
0.3529411764705883
 40
0.3529411764705883
 40
0.3529411764705883
 40
0.4117647058823529
 40
0.4117647058823529
 40
0.4117647058823529
 40
0.4117647058823529
 40
0.4705882352941176
 40
0.4705882352941176
 40
0.4705882352941176
 40
0.4705882352941176
 40
0.5294117647058824
 40
0.5294117647058824
 40
0.5294117647058824
 40
0.5294117647058824
 40
0.5882352941176471
 40
0.5882352941176471
 40
0.5882352941176471
 40
0.5882352941176471
 40
0.6470588235294118
 40
0.6470588235294118
 40
0.6470588235294118
 40
0.6470588235294118
 40
0.7058823529411765
 40
0.7058823529411765
 40
0.7058823529411765
 40
0.7058823529411765
 40
0.7647058823529411
 40
0.7647058823529411
 40
0.7647058823529411
 40
0.7647058823529411
 40
0.8235294117647058
 40
0.8235294117647058
 40
0.8235294117647058
 40
0.8235294117647058
 40
0.8823529411764706
 40
0.8823529411764706
 40
0.8823529411764706
 40
0.8823529411764706
 40
1.0
 40
1.0
 40
1.0
 40
1.0
 10
23.7448
 20
50.2961
 30
0.0
 10
23.7448
 20
50.2961
 30
0.0
 10
26.584
 20
50.3285
 30
0.0
 10
26.584
 20
50.3285
 30
0.0
 10
26.584
 20
50.3285
 30
0.0
 10
26.584
 20
50.3285
 30
0.0
 10
26.6148
 20
53.222
 30
0.0
 10
26.6148
 20
53.222
 30
0.0
 10
26.6148
 20
53.222
 30
0.0
 10
29.0047
 20
54.0031
 30
0.0
 10
30.3071
 20
55.027
 30
0.0
 10
31.1057
 20
56.9141
 30
0.0
 10
31.1057
 20
56.9141
 30
0.0
 10
31.9042
 20
55.027
 30
0.0
 10
33.2066
 20
54.0031
 30
0.0
 10
35.5965
 20
53.222
 30
0.0
 10
35.5965
 20
53.222
 30
0.0
 10
35.5965
 20
53.222
 30
0.0
 10
35.6273
 20
50.3285
 30
0.0
 10
35.6273
 20
50.3285
 30
0.0
 10
35.6273
 20
50.3285
 30
0.0
 10
35.6273
 20
50.3285
 30
0.0
 10
38.4665
 20
50.2961
 30
0.0
 10
38.4665
 20
50.2961
 30
0.0
 10
38.4665
 20
50.2961
 30
0.0
 10
39.1322
 20
47.9293
 30
0.0
 10
40.1141
 20
46.9246
 30
0.0
 10
42.1869
 20
45.8068
 30
0.0
 10
42.1869
 20
45.8068
 30
0.0
 10
40.1141
 20
44.689
 30
0.0
 10
39.1322
 20
43.6843
 30
0.0
 10
38.4665
 20
41.3175
 30
0.0
 10
38.4665
 20
41.3175
 30
0.0
 10
38.4665
 20
41.3175
 30
0.0
 10
35.6273
 20
41.2852
 30
0.0
 10
35.6273
 20
41.2852
 30
0.0
 10
35.6273
 20
41.2852
 30
0.0
 10
35.6273
 20
41.2852
 30
0.0
 10
35.5965
 20
38.3916
 30
0.0
 10
35.5965
 20
38.3916
 30
0.0
 10
35.5965
 20
38.3916
 30
0.0
 10
33.2066
 20
37.6106
 30
0.0
 10
31.9042
 20
36.5866
 30
0.0
 10
31.1057
 20
34.6996
 30
0.0
 10
31.1057
 20
34.6996
 30
0.0
 10
30.3071
 20
36.5866
 30
0.0
 10
29.0047
 20
37.6106
 30
0.0
 10
26.6148
 20
38.3916
 30
0.0
 10
26.6148
 20
38.3916
 30
0.0
 10
26.6148
 20
38.3916
 30
0.0
 10
26.584
 20
41.2852
 30
0.0
 10
26.584
 20
41.2852
 30
0.0
 10
26.584
 20
41.2852
 30
0.0
 10
26.584
 20
41.2852
 30
0.0
 10
23.7448
 20
41.3175
 30
0.0
 10
23.7448
 20
41.3175
 30
0.0
 10
23.7448
 20
41.3175
 30
0.0
 10
23.0792
 20
43.6843
 30
0.0
 10
22.0972
 20
44.689
 30
0.0
 10
20.0244
 20
45.8068
 30
0.0
 10
20.0244
 20
45.8068
 30
0.0
 10
22.0972
 20
46.9246
 30
0.0
 10
23.0792
 20
47.9293
 30
0.0
 10
23.7448
 20
50.2961
 30
0.0
  0
SPLINE
  5
4A
330
1F
100
AcDbEntity
  8
layer 1
 62
     7
100
AcDbSpline
210
0.0
220
0.0
230
1.0
 70
    11
 71
     3
 72
    68
 73
    64
 74
     0
 42
0.0000000001
 43
0.0000000001
 12
1.0
 22
0.0
 32
0.0
 13
1.0
 23
0.0
 33
0.0
 40
0.0
 40
0.0
 40
0.0
 40
0.0
 40
0.0588235294117647
 40
0.0588235294117647
 40
0.0588235294117647
 40
0.0588235294117647
 40
0.1176470588235294
 40
0.1176470588235294
 40
0.1176470588235294
 40
0.1176470588235294
 40
0.1764705882352941
 40
0.1764705882352941
 40
0.1764705882352941
 40
0.1764705882352941
 40
0.2352941176470588
 40
0.2352941176470588
 40
0.2352941176470588
 40
0.2352941176470588
 40
0.2941176470588235
 40
0.2941176470588235
 40
0.2941176470588235
 40
0.2941176470588235
 40
0.3529411764705883
 40
0.3529411764705883
 40
0.3529411764705883
 40
0.3529411764705883
 40
0.4117647058823529
 40
0.4117647058823529
 40
0.4117647058823529
 40
0.4117647058823529
 40
0.4705882352941176
 40
0.4705882352941176
 40
0.4705882352941176
 40
0.4705882352941176
 40
0.5294117647058824
 40
0.5294117647058824
 40
0.5294117647058824
 40
0.5294117647058824
 40
0.5882352941176471
 40
0.5882352941176471
 40
0.5882352941176471
 40
0.5882352941176471
 40
0.6470588235294118
 40
0.6470588235294118
 40
0.6470588235294118
 40
0.6470588235294118
 40
0.7058823529411765
 40
0.7058823529411765
 40
0.7058823529411765
 40
0.7058823529411765
 40
0.7647058823529411
 40
0.7647058823529411
 40
0.7647058823529411
 40
0.7647058823529411
 40
0.8235294117647058
 40
0.8235294117647058
 40
0.8235294117647058
 40
0.8235294117647058
 40
0.8823529411764706
 40
0.8823529411764706
 40
0.8823529411764706
 40
0.8823529411764706
 40
1.0
 40
1.0
 40
1.0
 40
1.0
 10
7.9744
 20
54.4851
 30
0.0
 10
7.9744
 20
54.4851
 30
0.0
 10
5.3583
 20
54.5523
 30
0.0
 10
5.3583
 20
54.5523
 30
0.0
 10
5.3583
 20
54.5523
 30
0.0
 10
5.3583
 20
54.5523
 30
0.0
 10
5.3393
 20
57.1482
 30
0.0
 10
5.3393
 20
57.1482
 30
0.0
 10
5.3393
 20
57.1482
 30
0.0
 10
0.7238
 20
57.1442
 30
0.0
 10
-1.4764
 20
59.3191
 30
0.0
 10
-1.534
 20
63.0749
 30
0.0
 10
-1.534
 20
63.0749
 30
0.0
 10
-1.4764
 20
66.8308
 30
0.0
 10
0.7238
 20
69.0057
 30
0.0
 10
5.3393
 20
69.0016
 30
0.0
 10
5.3393
 20
69.0016
 30
0.0
 10
5.3393
 20
69.0016
 30
0.0
 10
5.3583
 20
71.5975
 30
0.0
 10
5.3583
 20
71.5975
 30
0.0
 10
5.3583
 20
71.5975
 30
0.0
 10
5.3583
 20
71.5975
 30
0.0
 10
7.9744
 20
71.6647
 30
0.0
 10
7.9744
 20
71.6647
 30
0.0
 10
7.9744
 20
71.6647
 30
0.0
 10
7.9363
 20
74.8765
 30
0.0
 10
9.6321
 20
78.3434
 30
0.0
 10
13.8168
 20
78.264
 30
0.0
 10
13.8168
 20
78.264
 30
0.0
 10
18.0015
 20
78.3434
 30
0.0
 10
19.7822
 20
74.8765
 30
0.0
 10
19.7441
 20
71.6647
 30
0.0
 10
19.7441
 20
71.6647
 30
0.0
 10
19.7441
 20
71.6647
 30
0.0
 10
22.3602
 20
71.5975
 30
0.0
 10
22.3602
 20
71.5975
 30
0.0
 10
22.3602
 20
71.5975
 30
0.0
 10
22.3602
 20
71.5975
 30
0.0
 10
22.3792
 20
69.0016
 30
0.0
 10
22.3792
 20
69.0016
 30
0.0
 10
22.3792
 20
69.0016
 30
0.0
 10
26.9947
 20
69.0057
 30
0.0
 10
29.1949
 20
66.8308
 30
0.0
 10
29.2525
 20
63.0749
 30
0.0
 10
29.2525
 20
63.0749
 30
0.0
 10
29.1949
 20
59.3191
 30
0.0
 10
26.9947
 20
57.1442
 30
0.0
 10
22.3792
 20
57.1482
 30
0.0
 10
22.3792
 20
57.1482
 30
0.0
 10
22.3792
 20
57.1482
 30
0.0
 10
22.3602
 20
54.5523
 30
0.0
 10
22.3602
 20
54.5523
 30
0.0
 10
22.3602
 20
54.5523
 30
0.0
 10
22.3602
 20
54.5523
 30
0.0
 10
19.7441
 20
54.4851
 30
0.0
 10
19.7441
 20
54.4851
 30
0.0
 10
19.7441
 20
54.4851
 30
0.0
 10
19.7822
 20
51.2733
 30
0.0
 10
18.0015
 20
47.8064
 30
0.0
 10
13.8168
 20
47.8858
 30
0.0
 10
13.8168
 20
47.8858
 30
0.0
 10
9.6321
 20
47.8064
 30
0.0
 10
7.9363
 20
51.2733
 30
0.0
 10
7.9744
 20
54.4851
 30
0.0
  0
SPLINE
  5
4B
330
1F
100
AcDbEntity
  8
layer 1
 62
     7
100
AcDbSpline
210
0.0
220
0.0
230
1.0
 70
    11
 71
     3
 72
    68
 73
    64
 74
     0
 42
0.0000000001
 43
0.0000000001
 12
1.0
 22
0.0
 32
0.0
 13
1.0
 23
0.0
 33
0.0
 40
0.0
 40
0.0
 40
0.0
 40
0.0
 40
0.0588235294117647
 40
0.0588235294117647
 40
0.0588235294117647
 40
0.0588235294117647
 40
0.1176470588235294
 40
0.1176470588235294
 40
0.1176470588235294
 40
0.1176470588235294
 40
0.1764705882352941
 40
0.1764705882352941
 40
0.1764705882352941
 40
0.1764705882352941
 40
0.2352941176470588
 40
0.2352941176470588
 40
0.2352941176470588
 40
0.2352941176470588
 40
0.2941176470588235
 40
0.2941176470588235
 40
0.2941176470588235
 40
0.2941176470588235
 40
0.3529411764705883
 40
0.3529411764705883
 40
0.3529411764705883
 40
0.3529411764705883
 40
0.4117647058823529
 40
0.4117647058823529
 40
0.4117647058823529
 40
0.4117647058823529
 40
0.4705882352941176
 40
0.4705882352941176
 40
0.4705882352941176
 40
0.4705882352941176
 40
0.5294117647058824
 40
0.5294117647058824
 40
0.5294117647058824
 40
0.5294117647058824
 40
0.5882352941176471
 40
0.5882352941176471
 40
0.5882352941176471
 40
0.5882352941176471
 40
0.6470588235294118
 40
0.6470588235294118
 40
0.6470588235294118
 40
0.6470588235294118
 40
0.7058823529411765
 40
0.7058823529411765
 40
0.7058823529411765
 40
0.7058823529411765
 40
0.7647058823529411
 40
0.7647058823529411
 40
0.7647058823529411
 40
0.7647058823529411
 40
0.8235294117647058
 40
0.8235294117647058
 40
0.8235294117647058
 40
0.8235294117647058
 40
0.8823529411764706
 40
0.8823529411764706
 40
0.8823529411764706
 40
0.8823529411764706
 40
1.0
 40
1.0
 40
1.0
 40
1.0
 10
-26.834
 20
54.4851
 30
0.0
 10
-26.834
 20
54.4851
 30
0.0
 10
-29.4501
 20
54.5523
 30
0.0
 10
-29.4501
 20
54.5523
 30
0.0
 10
-29.4501
 20
54.5523
 30
0.0
 10
-29.4501
 20
54.5523
 30
0.0
 10
-29.4691
 20
57.1482
 30
0.0
 10
-29.4691
 20
57.1482
 30
0.0
 10
-29.4691
 20
57.1482
 30
0.0
 10
-34.0846
 20
57.1442
 30
0.0
 10
-36.2848
 20
59.3191
 30
0.0
 10
-36.3424
 20
63.0749
 30
0.0
 10
-36.3424
 20
63.0749
 30
0.0
 10
-36.2848
 20
66.8308
 30
0.0
 10
-34.0846
 20
69.0057
 30
0.0
 10
-29.4691
 20
69.0016
 30
0.0
 10
-29.4691
 20
69.0016
 30
0.0
 10
-29.4691
 20
69.0016
 30
0.0
 10
-29.4501
 20
71.5975
 30
0.0
 10
-29.4501
 20
71.5975
 30
0.0
 10
-29.4501
 20
71.5975
 30
0.0
 10
-29.4501
 20
71.5975
 30
0.0
 10
-26.834
 20
71.6647
 30
0.0
 10
-26.834
 20
71.6647
 30
0.0
 10
-26.834
 20
71.6647
 30
0.0
 10
-26.8721
 20
74.8765
 30
0.0
 10
-25.1763
 20
78.3434
 30
0.0
 10
-20.9916
 20
78.264
 30
0.0
 10
-20.9916
 20
78.264
 30
0.0
 10
-16.8069
 20
78.3434
 30
0.0
 10
-15.0262
 20
74.8765
 30
0.0
 10
-15.0643
 20
71.6647
 30
0.0
 10
-15.0643
 20
71.6647
 30
0.0
 10
-15.0643
 20
71.6647
 30
0.0
 10
-12.4482
 20
71.5975
 30
0.0
 10
-12.4482
 20
71.5975
 30
0.0
 10
-12.4482
 20
71.5975
 30
0.0
 10
-12.4482
 20
71.5975
 30
0.0
 10
-12.4292
 20
69.0016
 30
0.0
 10
-12.4292
 20
69.0016
 30
0.0
 10
-12.4292
 20
69.0016
 30
0.0
 10
-7.8137
 20
69.0057
 30
0.0
 10
-5.6135
 20
66.8308
 30
0.0
 10
-5.5559
 20
63.0749
 30
0.0
 10
-5.5559
 20
63.0749
 30
0.0
 10
-5.6135
 20
59.3191
 30
0.0
 10
-7.8137
 20
57.1442
 30
0.0
 10
-12.4292
 20
57.1482
 30
0.0
 10
-12.4292
 20
57.1482
 30
0.0
 10
-12.4292
 20
57.1482
 30
0.0
 10
-12.4482
 20
54.5523
 30
0.0
 10
-12.4482
 20
54.5523
 30
0.0
 10
-12.4482
 20
54.5523
 30
0.0
 10
-12.4482
 20
54.5523
 30
0.0
 10
-15.0643
 20
54.4851
 30
0.0
 10
-15.0643
 20
54.4851
 30
0.0
 10
-15.0643
 20
54.4851
 30
0.0
 10
-15.0262
 20
51.2733
 30
0.0
 10
-16.8069
 20
47.8064
 30
0.0
 10
-20.9916
 20
47.8858
 30
0.0
 10
-20.9916
 20
47.8858
 30
0.0
 10
-25.1763
 20
47.8064
 30
0.0
 10
-26.8721
 20
51.2733
 30
0.0
 10
-26.834
 20
54.4851
 30
0.0
  0
SPLINE
  5
4C
330
1F
100
AcDbEntity
  8
layer 1
 62
     7
100
AcDbSpline
210
0.0
220
0.0
230
1.0
 70
    11
 71
     3
 72
    68
 73
    64
 74
     0
 42
0.0000000001
 43
0.0000000001
 12
1.0
 22
0.0
 32
0.0
 13
1.0
 23
0.0
 33
0.0
 40
0.0
 40
0.0
 40
0.0
 40
0.0
 40
0.0588235294117647
 40
0.0588235294117647
 40
0.0588235294117647
 40
0.0588235294117647
 40
0.1176470588235294
 40
0.1176470588235294
 40
0.1176470588235294
 40
0.1176470588235294
 40
0.1764705882352941
 40
0.1764705882352941
 40
0.1764705882352941
 40
0.1764705882352941
 40
0.2352941176470588
 40
0.2352941176470588
 40
0.2352941176470588
 40
0.2352941176470588
 40
0.2941176470588235
 40
0.2941176470588235
 40
0.2941176470588235
 40
0.2941176470588235
 40
0.3529411764705883
 40
0.3529411764705883
 40
0.3529411764705883
 40
0.3529411764705883
 40
0.4117647058823529
 40
0.4117647058823529
 40
0.4117647058823529
 40
0.4117647058823529
 40
0.4705882352941176
 40
0.4705882352941176
 40
0.4705882352941176
 40
0.4705882352941176
 40
0.5294117647058824
 40
0.5294117647058824
 40
0.5294117647058824
 40
0.5294117647058824
 40
0.5882352941176471
 40
0.5882352941176471
 40
0.5882352941176471
 40
0.5882352941176471
 40
0.6470588235294118
 40
0.6470588235294118
 40
0.6470588235294118
 40
0.6470588235294118
 40
0.7058823529411765
 40
0.7058823529411765
 40
0.7058823529411765
 40
0.7058823529411765
 40
0.7647058823529411
 40
0.7647058823529411
 40
0.7647058823529411
 40
0.7647058823529411
 40
0.8235294117647058
 40
0.8235294117647058
 40
0.8235294117647058
 40
0.8235294117647058
 40
0.8823529411764706
 40
0.8823529411764706
 40
0.8823529411764706
 40
0.8823529411764706
 40
1.0
 40
1.0
 40
1.0
 40
1.0
 10
-11.0636
 20
50.2961
 30
0.0
 10
-11.0636
 20
50.2961
 30
0.0
 10
-8.2244
 20
50.3285
 30
0.0
 10
-8.2244
 20
50.3285
 30
0.0
 10
-8.2244
 20
50.3285
 30
0.0
 10
-8.2244
 20
50.3285
 30
0.0
 10
-8.1936
 20
53.222
 30
0.0
 10
-8.1936
 20
53.222
 30
0.0
 10
-8.1936
 20
53.222
 30
0.0
 10
-5.8037
 20
54.0031
 30
0.0
 10
-4.5013
 20
55.027
 30
0.0
 10
-3.7027
 20
56.9141
 30
0.0
 10
-3.7027
 20
56.9141
 30
0.0
 10
-2.9042
 20
55.027
 30
0.0
 10
-1.6018
 20
54.0031
 30
0.0
 10
0.7881
 20
53.222
 30
0.0
 10
0.7881
 20
53.222
 30
0.0
 10
0.7881
 20
53.222
 30
0.0
 10
0.8189
 20
50.3285
 30
0.0
 10
0.8189
 20
50.3285
 30
0.0
 10
0.8189
 20
50.3285
 30
0.0
 10
0.8189
 20
50.3285
 30
0.0
 10
3.6581
 20
50.2961
 30
0.0
 10
3.6581
 20
50.2961
 30
0.0
 10
3.6581
 20
50.2961
 30
0.0
 10
4.3238
 20
47.9293
 30
0.0
 10
5.3057
 20
46.9246
 30
0.0
 10
7.3785
 20
45.8068
 30
0.0
 10
7.3785
 20
45.8068
 30
0.0
 10
5.3057
 20
44.689
 30
0.0
 10
4.3238
 20
43.6843
 30
0.0
 10
3.6581
 20
41.3175
 30
0.0
 10
3.6581
 20
41.3175
 30
0.0
 10
3.6581
 20
41.3175
 30
0.0
 10
0.8189
 20
41.2852
 30
0.0
 10
0.8189
 20
41.2852
 30
0.0
 10
0.8189
 20
41.2852
 30
0.0
 10
0.8189
 20
41.2852
 30
0.0
 10
0.7881
 20
38.3916
 30
0.0
 10
0.7881
 20
38.3916
 30
0.0
 10
0.7881
 20
38.3916
 30
0.0
 10
-1.6018
 20
37.6106
 30
0.0
 10
-2.9042
 20
36.5866
 30
0.0
 10
-3.7027
 20
34.6996
 30
0.0
 10
-3.7027
 20
34.6996
 30
0.0
 10
-4.5013
 20
36.5866
 30
0.0
 10
-5.8037
 20
37.6106
 30
0.0
 10
-8.1936
 20
38.3916
 30
0.0
 10
-8.1936
 20
38.3916
 30
0.0
 10
-8.1936
 20
38.3916
 30
0.0
 10
-8.2244
 20
41.2852
 30
0.0
 10
-8.2244
 20
41.2852
 30
0.0
 10
-8.2244
 20
41.2852
 30
0.0
 10
-8.2244
 20
41.2852
 30
0.0
 10
-11.0636
 20
41.3175
 30
0.0
 10
-11.0636
 20
41.3175
 30
0.0
 10
-11.0636
 20
41.3175
 30
0.0
 10
-11.7292
 20
43.6843
 30
0.0
 10
-12.7112
 20
44.689
 30
0.0
 10
-14.784
 20
45.8068
 30
0.0
 10
-14.784
 20
45.8068
 30
0.0
 10
-12.7112
 20
46.9246
 30
0.0
 10
-11.7292
 20
47.9293
 30
0.0
 10
-11.0636
 20
50.2961
 30
0.0
  0
SPLINE
  5
4D
330
1F
100
AcDbEntity
  8
layer 1
 62
     7
100
AcDbSpline
210
0.0
220
0.0
230
1.0
 70
    11
 71
     3
 72
    68
 73
    64
 74
     0
 42
0.0000000001
 43
0.0000000001
 12
1.0
 22
0.0
 32
0.0
 13
1.0
 23
0.0
 33
0.0
 40
0.0
 40
0.0
 40
0.0
 40
0.0
 40
0.0588235294117647
 40
0.0588235294117647
 40
0.0588235294117647
 40
0.0588235294117647
 40
0.1176470588235294
 40
0.1176470588235294
 40
0.1176470588235294
 40
0.1176470588235294
 40
0.1764705882352941
 40
0.1764705882352941
 40
0.1764705882352941
 40
0.1764705882352941
 40
0.2352941176470588
 40
0.2352941176470588
 40
0.2352941176470588
 40
0.2352941176470588
 40
0.2941176470588235
 40
0.2941176470588235
 40
0.2941176470588235
 40
0.2941176470588235
 40
0.3529411764705883
 40
0.3529411764705883
 40
0.3529411764705883
 40
0.3529411764705883
 40
0.4117647058823529
 40
0.4117647058823529
 40
0.4117647058823529
 40
0.4117647058823529
 40
0.4705882352941176
 40
0.4705882352941176
 40
0.4705882352941176
 40
0.4705882352941176
 40
0.5294117647058824
 40
0.5294117647058824
 40
0.5294117647058824
 40
0.5294117647058824
 40
0.5882352941176471
 40
0.5882352941176471
 40
0.5882352941176471
 40
0.5882352941176471
 40
0.6470588235294118
 40
0.6470588235294118
 40
0.6470588235294118
 40
0.6470588235294118
 40
0.7058823529411765
 40
0.7058823529411765
 40
0.7058823529411765
 40
0.7058823529411765
 40
0.7647058823529411
 40
0.7647058823529411
 40
0.7647058823529411
 40
0.7647058823529411
 40
0.8235294117647058
 40
0.8235294117647058
 40
0.8235294117647058
 40
0.8235294117647058
 40
0.8823529411764706
 40
0.8823529411764706
 40
0.8823529411764706
 40
0.8823529411764706
 40
1.0
 40
1.0
 40
1.0
 40
1.0
 10
42.8526
 20
54.4851
 30
0.0
 10
42.8526
 20
54.4851
 30
0.0
 10
40.2365
 20
54.5523
 30
0.0
 10
40.2365
 20
54.5523
 30
0.0
 10
40.2365
 20
54.5523
 30
0.0
 10
40.2365
 20
54.5523
 30
0.0
 10
40.2174
 20
57.1482
 30
0.0
 10
40.2174
 20
57.1482
 30
0.0
 10
40.2174
 20
57.1482
 30
0.0
 10
35.6019
 20
57.1442
 30
0.0
 10
33.4018
 20
59.3191
 30
0.0
 10
33.3441
 20
63.0749
 30
0.0
 10
33.3441
 20
63.0749
 30
0.0
 10
33.4018
 20
66.8308
 30
0.0
 10
35.6019
 20
69.0057
 30
0.0
 10
40.2174
 20
69.0016
 30
0.0
 10
40.2174
 20
69.0016
 30
0.0
 10
40.2174
 20
69.0016
 30
0.0
 10
40.2365
 20
71.5975
 30
0.0
 10
40.2365
 20
71.5975
 30
0.0
 10
40.2365
 20
71.5975
 30
0.0
 10
40.2365
 20
71.5975
 30
0.0
 10
42.8526
 20
71.6647
 30
0.0
 10
42.8526
 20
71.6647
 30
0.0
 10
42.8526
 20
71.6647
 30
0.0
 10
42.8144
 20
74.8765
 30
0.0
 10
44.5102
 20
78.3434
 30
0.0
 10
48.6949
 20
78.264
 30
0.0
 10
48.6949
 20
78.264
 30
0.0
 10
52.8796
 20
78.3434
 30
0.0
 10
54.6604
 20
74.8765
 30
0.0
 10
54.6222
 20
71.6647
 30
0.0
 10
54.6222
 20
71.6647
 30
0.0
 10
54.6222
 20
71.6647
 30
0.0
 10
57.2383
 20
71.5975
 30
0.0
 10
57.2383
 20
71.5975
 30
0.0
 10
57.2383
 20
71.5975
 30
0.0
 10
57.2383
 20
71.5975
 30
0.0
 10
57.2574
 20
69.0016
 30
0.0
 10
57.2574
 20
69.0016
 30
0.0
 10
57.2574
 20
69.0016
 30
0.0
 10
61.8729
 20
69.0057
 30
0.0
 10
64.073
 20
66.8308
 30
0.0
 10
64.1306
 20
63.0749
 30
0.0
 10
64.1306
 20
63.0749
 30
0.0
 10
64.073
 20
59.3191
 30
0.0
 10
61.8729
 20
57.1442
 30
0.0
 10
57.2574
 20
57.1482
 30
0.0
 10
57.2574
 20
57.1482
 30
0.0
 10
57.2574
 20
57.1482
 30
0.0
 10
57.2383
 20
54.5523
 30
0.0
 10
57.2383
 20
54.5523
 30
0.0
 10
57.2383
 20
54.5523
 30
0.0
 10
57.2383
 20
54.5523
 30
0.0
 10
54.6222
 20
54.4851
 30
0.0
 10
54.6222
 20
54.4851
 30
0.0
 10
54.6222
 20
54.4851
 30
0.0
 10
54.6604
 20
51.2733
 30
0.0
 10
52.8796
 20
47.8064
 30
0.0
 10
48.6949
 20
47.8858
 30
0.0
 10
48.6949
 20
47.8858
 30
0.0
 10
44.5102
 20
47.8064
 30
0.0
 10
42.8144
 20
51.2733
 30
0.0
 10
42.8526
 20
54.4851
 30
0.0
  0
SPLINE
  5
4E
330
1F
100
AcDbEntity
  8
layer 1
 62
     7
100
AcDbSpline
210
0.0
220
0.0
230
1.0
 70
    11
 71
     3
 72
    40
 73
    36
 74
     0
 42
0.0000000001
 43
0.0000000001
 12
1.0
 22
0.0
 32
0.0
 13
1.0
 23
0.0
 33
0.0
 40
0.0
 40
0.0
 40
0.0
 40
0.0
 40
0.1
 40
0.1
 40
0.1
 40
0.1
 40
0.2
 40
0.2
 40
0.2
 40
0.2
 40
0.3
 40
0.3
 40
0.3
 40
0.3
 40
0.4
 40
0.4
 40
0.4
 40
0.4
 40
0.5
 40
0.5
 40
0.5
 40
0.5
 40
0.6
 40
0.6
 40
0.6
 40
0.6
 40
0.7
 40
0.7
 40
0.7
 40
0.7
 40
0.8
 40
0.8
 40
0.8
 40
0.8
 40
1.0
 40
1.0
 40
1.0
 40
1.0
 10
-38.3345
 20
56.9141
 30
0.0
 10
-37.5359
 20
55.027
 30
0.0
 10
-36.2335
 20
54.0031
 30
0.0
 10
-33.8436
 20
53.222
 30
0.0
 10
-33.8436
 20
53.222
 30
0.0
 10
-33.8436
 20
53.222
 30
0.0
 10
-33.8128
 20
50.3285
 30
0.0
 10
-33.8128
 20
50.3285
 30
0.0
 10
-33.8128
 20
50.3285
 30
0.0
 10
-33.8128
 20
50.3285
 30
0.0
 10
-30.9736
 20
50.2961
 30
0.0
 10
-30.9736
 20
50.2961
 30
0.0
 10
-30.9736
 20
50.2961
 30
0.0
 10
-30.308
 20
47.9293
 30
0.0
 10
-29.326
 20
46.9246
 30
0.0
 10
-27.2532
 20
45.8068
 30
0.0
 10
-27.2532
 20
45.8068
 30
0.0
 10
-29.326
 20
44.689
 30
0.0
 10
-30.308
 20
43.6843
 30
0.0
 10
-30.9736
 20
41.3175
 30
0.0
 10
-30.9736
 20
41.3175
 30
0.0
 10
-30.9736
 20
41.3175
 30
0.0
 10
-33.8128
 20
41.2852
 30
0.0
 10
-33.8128
 20
41.2852
 30
0.0
 10
-33.8128
 20
41.2852
 30
0.0
 10
-33.8128
 20
41.2852
 30
0.0
 10
-33.8436
 20
38.3916
 30
0.0
 10
-33.8436
 20
38.3916
 30
0.0
 10
-33.8436
 20
38.3916
 30
0.0
 10
-36.2335
 20
37.6106
 30
0.0
 10
-37.5359
 20
36.5866
 30
0.0
 10
-38.3345
 20
34.6996
 30
0.0
 10
-38.3345
 20
34.6996
 30
0.0
 10
-38.3345
 20
34.6996
 30
0.0
 10
-38.3345
 20
56.9141
 30
0.0
 10
-38.3345
 20
56.9141
 30
0.0
  0
SPLINE
  5
4F
330
1F
100
AcDbEntity
  8
layer 1
 62
     7
100
AcDbSpline
210
0.0
220
0.0
230
1.0
 70
    11
 71
     3
 72
    40
 73
    36
 74
     0
 42
0.0000000001
 43
0.0000000001
 12
1.0
 22
0.0
 32
0.0
 13
1.0
 23
0.0
 33
0.0
 40
0.0
 40
0.0
 40
0.0
 40
0.0
 40
0.1
 40
0.1
 40
0.1
 40
0.1
 40
0.2
 40
0.2
 40
0.2
 40
0.2
 40
0.3
 40
0.3
 40
0.3
 40
0.3
 40
0.4
 40
0.4
 40
0.4
 40
0.4
 40
0.5
 40
0.5
 40
0.5
 40
0.5
 40
0.6
 40
0.6
 40
0.6
 40
0.6
 40
0.7
 40
0.7
 40
0.7
 40
0.7
 40
0.8
 40
0.8
 40
0.8
 40
0.8
 40
1.0
 40
1.0
 40
1.0
 40
1.0
 10
58.6341
 20
50.2961
 30
0.0
 10
58.6341
 20
50.2961
 30
0.0
 10
61.4733
 20
50.3285
 30
0.0
 10
61.4733
 20
50.3285
 30
0.0
 10
61.4733
 20
50.3285
 30
0.0
 10
61.4733
 20
50.3285
 30
0.0
 10
61.5041
 20
53.222
 30
0.0
 10
61.5041
 20
53.222
 30
0.0
 10
61.5041
 20
53.222
 30
0.0
 10
63.894
 20
54.0031
 30
0.0
 10
65.1964
 20
55.027
 30
0.0
 10
65.995
 20
56.9141
 30
0.0
 10
65.995
 20
56.9141
 30
0.0
 10
65.995
 20
56.9141
 30
0.0
 10
65.995
 20
34.6996
 30
0.0
 10
65.995
 20
34.6996
 30
0.0
 10
65.995
 20
34.6996
 30
0.0
 10
65.1964
 20
36.5866
 30
0.0
 10
63.894
 20
37.6106
 30
0.0
 10
61.5041
 20
38.3916
 30
0.0
 10
61.5041
 20
38.3916
 30
0.0
 10
61.5041
 20
38.3916
 30
0.0
 10
61.4733
 20
41.2852
 30
0.0
 10
61.4733
 20
41.2852
 30
0.0
 10
61.4733
 20
41.2852
 30
0.0
 10
61.4733
 20
41.2852
 30
0.0
 10
58.6341
 20
41.3175
 30
0.0
 10
58.6341
 20
41.3175
 30
0.0
 10
58.6341
 20
41.3175
 30
0.0
 10
57.9685
 20
43.6843
 30
0.0
 10
56.9865
 20
44.689
 30
0.0
 10
54.9137
 20
45.8068
 30
0.0
 10
54.9137
 20
45.8068
 30
0.0
 10
56.9865
 20
46.9246
 30
0.0
 10
57.9685
 20
47.9293
 30
0.0
 10
58.6341
 20
50.2961
 30
0.0
  0
SPLINE
  5
50
330
1F
100
AcDbEntity
  8
layer 1
 62
     7
100
AcDbSpline
210
0.0
220
0.0
230
1.0
 70
    11
 71
     3
 72
    68
 73
    64
 74
     0
 42
0.0000000001
 43
0.0000000001
 12
1.0
 22
0.0
 32
0.0
 13
1.0
 23
0.0
 33
0.0
 40
0.0
 40
0.0
 40
0.0
 40
0.0
 40
0.0588235294117647
 40
0.0588235294117647
 40
0.0588235294117647
 40
0.0588235294117647
 40
0.1176470588235294
 40
0.1176470588235294
 40
0.1176470588235294
 40
0.1176470588235294
 40
0.1764705882352941
 40
0.1764705882352941
 40
0.1764705882352941
 40
0.1764705882352941
 40
0.2352941176470588
 40
0.2352941176470588
 40
0.2352941176470588
 40
0.2352941176470588
 40
0.2941176470588235
 40
0.2941176470588235
 40
0.2941176470588235
 40
0.2941176470588235
 40
0.3529411764705883
 40
0.3529411764705883
 40
0.3529411764705883
 40
0.3529411764705883
 40
0.4117647058823529
 40
0.4117647058823529
 40
0.4117647058823529
 40
0.4117647058823529
 40
0.4705882352941176
 40
0.4705882352941176
 40
0.4705882352941176
 40
0.4705882352941176
 40
0.5294117647058824
 40
0.5294117647058824
 40
0.5294117647058824
 40
0.5294117647058824
 40
0.5882352941176471
 40
0.5882352941176471
 40
0.5882352941176471
 40
0.5882352941176471
 40
0.6470588235294118
 40
0.6470588235294118
 40
0.6470588235294118
 40
0.6470588235294118
 40
0.7058823529411765
 40
0.7058823529411765
 40
0.7058823529411765
 40
0.7058823529411765
 40
0.7647058823529411
 40
0.7647058823529411
 40
0.7647058823529411
 40
0.7647058823529411
 40
0.8235294117647058
 40
0.8235294117647058
 40
0.8235294117647058
 40
0.8235294117647058
 40
0.8823529411764706
 40
0.8823529411764706
 40
0.8823529411764706
 40
0.8823529411764706
 40
1.0
 40
1.0
 40
1.0
 40
1.0
 10
23.7448
 20
15.9212
 30
0.0
 10
23.7448
 20
15.9212
 30
0.0
 10
26.584
 20
15.9536
 30
0.0
 10
26.584
 20
15.9536
 30
0.0
 10
26.584
 20
15.9536
 30
0.0
 10
26.584
 20
15.9536
 30
0.0
 10
26.6148
 20
18.8471
 30
0.0
 10
26.6148
 20
18.8471
 30
0.0
 10
26.6148
 20
18.8471
 30
0.0
 10
29.0047
 20
19.6282
 30
0.0
 10
30.3071
 20
20.6521
 30
0.0
 10
31.1057
 20
22.5392
 30
0.0
 10
31.1057
 20
22.5392
 30
0.0
 10
31.9042
 20
20.6521
 30
0.0
 10
33.2066
 20
19.6282
 30
0.0
 10
35.5965
 20
18.8471
 30
0.0
 10
35.5965
 20
18.8471
 30
0.0
 10
35.5965
 20
18.8471
 30
0.0
 10
35.6273
 20
15.9536
 30
0.0
 10
35.6273
 20
15.9536
 30
0.0
 10
35.6273
 20
15.9536
 30
0.0
 10
35.6273
 20
15.9536
 30
0.0
 10
38.4665
 20
15.9212
 30
0.0
 10
38.4665
 20
15.9212
 30
0.0
 10
38.4665
 20
15.9212
 30
0.0
 10
39.1322
 20
13.5544
 30
0.0
 10
40.1141
 20
12.5497
 30
0.0
 10
42.1869
 20
11.4319
 30
0.0
 10
42.1869
 20
11.4319
 30
0.0
 10
40.1141
 20
10.3141
 30
0.0
 10
39.1322
 20
9.3094
 30
0.0
 10
38.4665
 20
6.9426
 30
0.0
 10
38.4665
 20
6.9426
 30
0.0
 10
38.4665
 20
6.9426
 30
0.0
 10
35.6273
 20
6.9103
 30
0.0
 10
35.6273
 20
6.9103
 30
0.0
 10
35.6273
 20
6.9103
 30
0.0
 10
35.6273
 20
6.9103
 30
0.0
 10
35.5965
 20
4.0167
 30
0.0
 10
35.5965
 20
4.0167
 30
0.0
 10
35.5965
 20
4.0167
 30
0.0
 10
33.2066
 20
3.2357
 30
0.0
 10
31.9042
 20
2.2117
 30
0.0
 10
31.1057
 20
0.3246
 30
0.0
 10
31.1057
 20
0.3246
 30
0.0
 10
30.3071
 20
2.2117
 30
0.0
 10
29.0047
 20
3.2357
 30
0.0
 10
26.6148
 20
4.0167
 30
0.0
 10
26.6148
 20
4.0167
 30
0.0
 10
26.6148
 20
4.0167
 30
0.0
 10
26.584
 20
6.9103
 30
0.0
 10
26.584
 20
6.9103
 30
0.0
 10
26.584
 20
6.9103
 30
0.0
 10
26.584
 20
6.9103
 30
0.0
 10
23.7448
 20
6.9426
 30
0.0
 10
23.7448
 20
6.9426
 30
0.0
 10
23.7448
 20
6.9426
 30
0.0
 10
23.0792
 20
9.3094
 30
0.0
 10
22.0972
 20
10.3141
 30
0.0
 10
20.0244
 20
11.4319
 30
0.0
 10
20.0244
 20
11.4319
 30
0.0
 10
22.0972
 20
12.5497
 30
0.0
 10
23.0792
 20
13.5544
 30
0.0
 10
23.7448
 20
15.9212
 30
0.0
  0
SPLINE
  5
51
330
1F
100
AcDbEntity
  8
layer 1
 62
     7
100
AcDbSpline
210
0.0
220
0.0
230
1.0
 70
    11
 71
     3
 72
    68
 73
    64
 74
     0
 42
0.0000000001
 43
0.0000000001
 12
1.0
 22
0.0
 32
0.0
 13
1.0
 23
0.0
 33
0.0
 40
0.0
 40
0.0
 40
0.0
 40
0.0
 40
0.0588235294117647
 40
0.0588235294117647
 40
0.0588235294117647
 40
0.0588235294117647
 40
0.1176470588235294
 40
0.1176470588235294
 40
0.1176470588235294
 40
0.1176470588235294
 40
0.1764705882352941
 40
0.1764705882352941
 40
0.1764705882352941
 40
0.1764705882352941
 40
0.2352941176470588
 40
0.2352941176470588
 40
0.2352941176470588
 40
0.2352941176470588
 40
0.2941176470588235
 40
0.2941176470588235
 40
0.2941176470588235
 40
0.2941176470588235
 40
0.3529411764705883
 40
0.3529411764705883
 40
0.3529411764705883
 40
0.3529411764705883
 40
0.4117647058823529
 40
0.4117647058823529
 40
0.4117647058823529
 40
0.4117647058823529
 40
0.4705882352941176
 40
0.4705882352941176
 40
0.4705882352941176
 40
0.4705882352941176
 40
0.5294117647058824
 40
0.5294117647058824
 40
0.5294117647058824
 40
0.5294117647058824
 40
0.5882352941176471
 40
0.5882352941176471
 40
0.5882352941176471
 40
0.5882352941176471
 40
0.6470588235294118
 40
0.6470588235294118
 40
0.6470588235294118
 40
0.6470588235294118
 40
0.7058823529411765
 40
0.7058823529411765
 40
0.7058823529411765
 40
0.7058823529411765
 40
0.7647058823529411
 40
0.7647058823529411
 40
0.7647058823529411
 40
0.7647058823529411
 40
0.8235294117647058
 40
0.8235294117647058
 40
0.8235294117647058
 40
0.8235294117647058
 40
0.8823529411764706
 40
0.8823529411764706
 40
0.8823529411764706
 40
0.8823529411764706
 40
1.0
 40
1.0
 40
1.0
 40
1.0
 10
7.9744
 20
20.1102
 30
0.0
 10
7.9744
 20
20.1102
 30
0.0
 10
5.3583
 20
20.1774
 30
0.0
 10
5.3583
 20
20.1774
 30
0.0
 10
5.3583
 20
20.1774
 30
0.0
 10
5.3583
 20
20.1774
 30
0.0
 10
5.3393
 20
22.7733
 30
0.0
 10
5.3393
 20
22.7733
 30
0.0
 10
5.3393
 20
22.7733
 30
0.0
 10
0.7238
 20
22.7692
 30
0.0
 10
-1.4764
 20
24.9441
 30
0.0
 10
-1.534
 20
28.7
 30
0.0
 10
-1.534
 20
28.7
 30
0.0
 10
-1.4764
 20
32.4559
 30
0.0
 10
0.7238
 20
34.6308
 30
0.0
 10
5.3393
 20
34.6267
 30
0.0
 10
5.3393
 20
34.6267
 30
0.0
 10
5.3393
 20
34.6267
 30
0.0
 10
5.3583
 20
37.2226
 30
0.0
 10
5.3583
 20
37.2226
 30
0.0
 10
5.3583
 20
37.2226
 30
0.0
 10
5.3583
 20
37.2226
 30
0.0
 10
7.9744
 20
37.2898
 30
0.0
 10
7.9744
 20
37.2898
 30
0.0
 10
7.9744
 20
37.2898
 30
0.0
 10
7.9363
 20
40.5016
 30
0.0
 10
9.6321
 20
43.9685
 30
0.0
 10
13.8168
 20
43.8891
 30
0.0
 10
13.8168
 20
43.8891
 30
0.0
 10
18.0015
 20
43.9685
 30
0.0
 10
19.7822
 20
40.5016
 30
0.0
 10
19.7441
 20
37.2898
 30
0.0
 10
19.7441
 20
37.2898
 30
0.0
 10
19.7441
 20
37.2898
 30
0.0
 10
22.3602
 20
37.2226
 30
0.0
 10
22.3602
 20
37.2226
 30
0.0
 10
22.3602
 20
37.2226
 30
0.0
 10
22.3602
 20
37.2226
 30
0.0
 10
22.3792
 20
34.6267
 30
0.0
 10
22.3792
 20
34.6267
 30
0.0
 10
22.3792
 20
34.6267
 30
0.0
 10
26.9947
 20
34.6308
 30
0.0
 10
29.1949
 20
32.4559
 30
0.0
 10
29.2525
 20
28.7
 30
0.0
 10
29.2525
 20
28.7
 30
0.0
 10
29.1949
 20
24.9441
 30
0.0
 10
26.9947
 20
22.7692
 30
0.0
 10
22.3792
 20
22.7733
 30
0.0
 10
22.3792
 20
22.7733
 30
0.0
 10
22.3792
 20
22.7733
 30
0.0
 10
22.3602
 20
20.1774
 30
0.0
 10
22.3602
 20
20.1774
 30
0.0
 10
22.3602
 20
20.1774
 30
0.0
 10
22.3602
 20
20.1774
 30
0.0
 10
19.7441
 20
20.1102
 30
0.0
 10
19.7441
 20
20.1102
 30
0.0
 10
19.7441
 20
20.1102
 30
0.0
 10
19.7822
 20
16.8984
 30
0.0
 10
18.0015
 20
13.4315
 30
0.0
 10
13.8168
 20
13.5109
 30
0.0
 10
13.8168
 20
13.5109
 30
0.0
 10
9.6321
 20
13.4315
 30
0.0
 10
7.9363
 20
16.8984
 30
0.0
 10
7.9744
 20
20.1102
 30
0.0
  0
SPLINE
  5
52
330
1F
100
AcDbEntity
  8
layer 1
 62
     7
100
AcDbSpline
210
0.0
220
0.0
230
1.0
 70
    11
 71
     3
 72
    68
 73
    64
 74
     0
 42
0.0000000001
 43
0.0000000001
 12
1.0
 22
0.0
 32
0.0
 13
1.0
 23
0.0
 33
0.0
 40
0.0
 40
0.0
 40
0.0
 40
0.0
 40
0.0588235294117647
 40
0.0588235294117647
 40
0.0588235294117647
 40
0.0588235294117647
 40
0.1176470588235294
 40
0.1176470588235294
 40
0.1176470588235294
 40
0.1176470588235294
 40
0.1764705882352941
 40
0.1764705882352941
 40
0.1764705882352941
 40
0.1764705882352941
 40
0.2352941176470588
 40
0.2352941176470588
 40
0.2352941176470588
 40
0.2352941176470588
 40
0.2941176470588235
 40
0.2941176470588235
 40
0.2941176470588235
 40
0.2941176470588235
 40
0.3529411764705883
 40
0.3529411764705883
 40
0.3529411764705883
 40
0.3529411764705883
 40
0.4117647058823529
 40
0.4117647058823529
 40
0.4117647058823529
 40
0.4117647058823529
 40
0.4705882352941176
 40
0.4705882352941176
 40
0.4705882352941176
 40
0.4705882352941176
 40
0.5294117647058824
 40
0.5294117647058824
 40
0.5294117647058824
 40
0.5294117647058824
 40
0.5882352941176471
 40
0.5882352941176471
 40
0.5882352941176471
 40
0.5882352941176471
 40
0.6470588235294118
 40
0.6470588235294118
 40
0.6470588235294118
 40
0.6470588235294118
 40
0.7058823529411765
 40
0.7058823529411765
 40
0.7058823529411765
 40
0.7058823529411765
 40
0.7647058823529411
 40
0.7647058823529411
 40
0.7647058823529411
 40
0.7647058823529411
 40
0.8235294117647058
 40
0.8235294117647058
 40
0.8235294117647058
 40
0.8235294117647058
 40
0.8823529411764706
 40
0.8823529411764706
 40
0.8823529411764706
 40
0.8823529411764706
 40
1.0
 40
1.0
 40
1.0
 40
1.0
 10
-26.834
 20
20.1102
 30
0.0
 10
-26.834
 20
20.1102
 30
0.0
 10
-29.4501
 20
20.1774
 30
0.0
 10
-29.4501
 20
20.1774
 30
0.0
 10
-29.4501
 20
20.1774
 30
0.0
 10
-29.4501
 20
20.1774
 30
0.0
 10
-29.4691
 20
22.7733
 30
0.0
 10
-29.4691
 20
22.7733
 30
0.0
 10
-29.4691
 20
22.7733
 30
0.0
 10
-34.0846
 20
22.7692
 30
0.0
 10
-36.2848
 20
24.9441
 30
0.0
 10
-36.3424
 20
28.7
 30
0.0
 10
-36.3424
 20
28.7
 30
0.0
 10
-36.2848
 20
32.4559
 30
0.0
 10
-34.0846
 20
34.6308
 30
0.0
 10
-29.4691
 20
34.6267
 30
0.0
 10
-29.4691
 20
34.6267
 30
0.0
 10
-29.4691
 20
34.6267
 30
0.0
 10
-29.4501
 20
37.2226
 30
0.0
 10
-29.4501
 20
37.2226
 30
0.0
 10
-29.4501
 20
37.2226
 30
0.0
 10
-29.4501
 20
37.2226
 30
0.0
 10
-26.834
 20
37.2898
 30
0.0
 10
-26.834
 20
37.2898
 30
0.0
 10
-26.834
 20
37.2898
 30
0.0
 10
-26.8721
 20
40.5016
 30
0.0
 10
-25.1763
 20
43.9685
 30
0.0
 10
-20.9916
 20
43.8891
 30
0.0
 10
-20.9916
 20
43.8891
 30
0.0
 10
-16.8069
 20
43.9685
 30
0.0
 10
-15.0262
 20
40.5016
 30
0.0
 10
-15.0643
 20
37.2898
 30
0.0
 10
-15.0643
 20
37.2898
 30
0.0
 10
-15.0643
 20
37.2898
 30
0.0
 10
-12.4482
 20
37.2226
 30
0.0
 10
-12.4482
 20
37.2226
 30
0.0
 10
-12.4482
 20
37.2226
 30
0.0
 10
-12.4482
 20
37.2226
 30
0.0
 10
-12.4292
 20
34.6267
 30
0.0
 10
-12.4292
 20
34.6267
 30
0.0
 10
-12.4292
 20
34.6267
 30
0.0
 10
-7.8137
 20
34.6308
 30
0.0
 10
-5.6135
 20
32.4559
 30
0.0
 10
-5.5559
 20
28.7
 30
0.0
 10
-5.5559
 20
28.7
 30
0.0
 10
-5.6135
 20
24.9441
 30
0.0
 10
-7.8137
 20
22.7692
 30
0.0
 10
-12.4292
 20
22.7733
 30
0.0
 10
-12.4292
 20
22.7733
 30
0.0
 10
-12.4292
 20
22.7733
 30
0.0
 10
-12.4482
 20
20.1774
 30
0.0
 10
-12.4482
 20
20.1774
 30
0.0
 10
-12.4482
 20
20.1774
 30
0.0
 10
-12.4482
 20
20.1774
 30
0.0
 10
-15.0643
 20
20.1102
 30
0.0
 10
-15.0643
 20
20.1102
 30
0.0
 10
-15.0643
 20
20.1102
 30
0.0
 10
-15.0262
 20
16.8984
 30
0.0
 10
-16.8069
 20
13.4315
 30
0.0
 10
-20.9916
 20
13.5109
 30
0.0
 10
-20.9916
 20
13.5109
 30
0.0
 10
-25.1763
 20
13.4315
 30
0.0
 10
-26.8721
 20
16.8984
 30
0.0
 10
-26.834
 20
20.1102
 30
0.0
  0
SPLINE
  5
53
330
1F
100
AcDbEntity
  8
layer 1
 62
     7
100
AcDbSpline
210
0.0
220
0.0
230
1.0
 70
    11
 71
     3
 72
    68
 73
    64
 74
     0
 42
0.0000000001
 43
0.0000000001
 12
1.0
 22
0.0
 32
0.0
 13
1.0
 23
0.0
 33
0.0
 40
0.0
 40
0.0
 40
0.0
 40
0.0
 40
0.0588235294117647
 40
0.0588235294117647
 40
0.0588235294117647
 40
0.0588235294117647
 40
0.1176470588235294
 40
0.1176470588235294
 40
0.1176470588235294
 40
0.1176470588235294
 40
0.1764705882352941
 40
0.1764705882352941
 40
0.1764705882352941
 40
0.1764705882352941
 40
0.2352941176470588
 40
0.2352941176470588
 40
0.2352941176470588
 40
0.2352941176470588
 40
0.2941176470588235
 40
0.2941176470588235
 40
0.2941176470588235
 40
0.2941176470588235
 40
0.3529411764705883
 40
0.3529411764705883
 40
0.3529411764705883
 40
0.3529411764705883
 40
0.4117647058823529
 40
0.4117647058823529
 40
0.4117647058823529
 40
0.4117647058823529
 40
0.4705882352941176
 40
0.4705882352941176
 40
0.4705882352941176
 40
0.4705882352941176
 40
0.5294117647058824
 40
0.5294117647058824
 40
0.5294117647058824
 40
0.5294117647058824
 40
0.5882352941176471
 40
0.5882352941176471
 40
0.5882352941176471
 40
0.5882352941176471
 40
0.6470588235294118
 40
0.6470588235294118
 40
0.6470588235294118
 40
0.6470588235294118
 40
0.7058823529411765
 40
0.7058823529411765
 40
0.7058823529411765
 40
0.7058823529411765
 40
0.7647058823529411
 40
0.7647058823529411
 40
0.7647058823529411
 40
0.7647058823529411
 40
0.8235294117647058
 40
0.8235294117647058
 40
0.8235294117647058
 40
0.8235294117647058
 40
0.8823529411764706
 40
0.8823529411764706
 40
0.8823529411764706
 40
0.8823529411764706
 40
1.0
 40
1.0
 40
1.0
 40
1.0
 10
-11.0636
 20
15.9212
 30
0.0
 10
-11.0636
 20
15.9212
 30
0.0
 10
-8.2244
 20
15.9536
 30
0.0
 10
-8.2244
 20
15.9536
 30
0.0
 10
-8.2244
 20
15.9536
 30
0.0
 10
-8.2244
 20
15.9536
 30
0.0
 10
-8.1936
 20
18.8471
 30
0.0
 10
-8.1936
 20
18.8471
 30
0.0
 10
-8.1936
 20
18.8471
 30
0.0
 10
-5.8037
 20
19.6282
 30
0.0
 10
-4.5013
 20
20.6521
 30
0.0
 10
-3.7027
 20
22.5392
 30
0.0
 10
-3.7027
 20
22.5392
 30
0.0
 10
-2.9042
 20
20.6521
 30
0.0
 10
-1.6018
 20
19.6282
 30
0.0
 10
0.7881
 20
18.8471
 30
0.0
 10
0.7881
 20
18.8471
 30
0.0
 10
0.7881
 20
18.8471
 30
0.0
 10
0.8189
 20
15.9536
 30
0.0
 10
0.8189
 20
15.9536
 30
0.0
 10
0.8189
 20
15.9536
 30
0.0
 10
0.8189
 20
15.9536
 30
0.0
 10
3.6581
 20
15.9212
 30
0.0
 10
3.6581
 20
15.9212
 30
0.0
 10
3.6581
 20
15.9212
 30
0.0
 10
4.3238
 20
13.5544
 30
0.0
 10
5.3057
 20
12.5497
 30
0.0
 10
7.3785
 20
11.4319
 30
0.0
 10
7.3785
 20
11.4319
 30
0.0
 10
5.3057
 20
10.3141
 30
0.0
 10
4.3238
 20
9.3094
 30
0.0
 10
3.6581
 20
6.9426
 30
0.0
 10
3.6581
 20
6.9426
 30
0.0
 10
3.6581
 20
6.9426
 30
0.0
 10
0.8189
 20
6.9103
 30
0.0
 10
0.8189
 20
6.9103
 30
0.0
 10
0.8189
 20
6.9103
 30
0.0
 10
0.8189
 20
6.9103
 30
0.0
 10
0.7881
 20
4.0167
 30
0.0
 10
0.7881
 20
4.0167
 30
0.0
 10
0.7881
 20
4.0167
 30
0.0
 10
-1.6018
 20
3.2357
 30
0.0
 10
-2.9042
 20
2.2117
 30
0.0
 10
-3.7027
 20
0.3246
 30
0.0
 10
-3.7027
 20
0.3246
 30
0.0
 10
-4.5013
 20
2.2117
 30
0.0
 10
-5.8037
 20
3.2357
 30
0.0
 10
-8.1936
 20
4.0167
 30
0.0
 10
-8.1936
 20
4.0167
 30
0.0
 10
-8.1936
 20
4.0167
 30
0.0
 10
-8.2244
 20
6.9103
 30
0.0
 10
-8.2244
 20
6.9103
 30
0.0
 10
-8.2244
 20
6.9103
 30
0.0
 10
-8.2244
 20
6.9103
 30
0.0
 10
-11.0636
 20
6.9426
 30
0.0
 10
-11.0636
 20
6.9426
 30
0.0
 10
-11.0636
 20
6.9426
 30
0.0
 10
-11.7292
 20
9.3094
 30
0.0
 10
-12.7112
 20
10.3141
 30
0.0
 10
-14.784
 20
11.4319
 30
0.0
 10
-14.784
 20
11.4319
 30
0.0
 10
-12.7112
 20
12.5497
 30
0.0
 10
-11.7292
 20
13.5544
 30
0.0
 10
-11.0636
 20
15.9212
 30
0.0
  0
SPLINE
  5
54
330
1F
100
AcDbEntity
  8
layer 1
 62
     7
100
AcDbSpline
210
0.0
220
0.0
230
1.0
 70
    11
 71
     3
 72
    68
 73
    64
 74
     0
 42
0.0000000001
 43
0.0000000001
 12
1.0
 22
0.0
 32
0.0
 13
1.0
 23
0.0
 33
0.0
 40
0.0
 40
0.0
 40
0.0
 40
0.0
 40
0.0588235294117647
 40
0.0588235294117647
 40
0.0588235294117647
 40
0.0588235294117647
 40
0.1176470588235294
 40
0.1176470588235294
 40
0.1176470588235294
 40
0.1176470588235294
 40
0.1764705882352941
 40
0.1764705882352941
 40
0.1764705882352941
 40
0.1764705882352941
 40
0.2352941176470588
 40
0.2352941176470588
 40
0.2352941176470588
 40
0.2352941176470588
 40
0.2941176470588235
 40
0.2941176470588235
 40
0.2941176470588235
 40
0.2941176470588235
 40
0.3529411764705883
 40
0.3529411764705883
 40
0.3529411764705883
 40
0.3529411764705883
 40
0.4117647058823529
 40
0.4117647058823529
 40
0.4117647058823529
 40
0.4117647058823529
 40
0.4705882352941176
 40
0.4705882352941176
 40
0.4705882352941176
 40
0.4705882352941176
 40
0.5294117647058824
 40
0.5294117647058824
 40
0.5294117647058824
 40
0.5294117647058824
 40
0.5882352941176471
 40
0.5882352941176471
 40
0.5882352941176471
 40
0.5882352941176471
 40
0.6470588235294118
 40
0.6470588235294118
 40
0.6470588235294118
 40
0.6470588235294118
 40
0.7058823529411765
 40
0.7058823529411765
 40
0.7058823529411765
 40
0.7058823529411765
 40
0.7647058823529411
 40
0.7647058823529411
 40
0.7647058823529411
 40
0.7647058823529411
 40
0.8235294117647058
 40
0.8235294117647058
 40
0.8235294117647058
 40
0.8235294117647058
 40
0.8823529411764706
 40
0.8823529411764706
 40
0.8823529411764706
 40
0.8823529411764706
 40
1.0
 40
1.0
 40
1.0
 40
1.0
 10
42.8526
 20
20.1102
 30
0.0
 10
42.8526
 20
20.1102
 30
0.0
 10
40.2365
 20
20.1774
 30
0.0
 10
40.2365
 20
20.1774
 30
0.0
 10
40.2365
 20
20.1774
 30
0.0
 10
40.2365
 20
20.1774
 30
0.0
 10
40.2174
 20
22.7733
 30
0.0
 10
40.2174
 20
22.7733
 30
0.0
 10
40.2174
 20
22.7733
 30
0.0
 10
35.6019
 20
22.7692
 30
0.0
 10
33.4018
 20
24.9441
 30
0.0
 10
33.3441
 20
28.7
 30
0.0
 10
33.3441
 20
28.7
 30
0.0
 10
33.4018
 20
32.4559
 30
0.0
 10
35.6019
 20
34.6308
 30
0.0
 10
40.2174
 20
34.6267
 30
0.0
 10
40.2174
 20
34.6267
 30
0.0
 10
40.2174
 20
34.6267
 30
0.0
 10
40.2365
 20
37.2226
 30
0.0
 10
40.2365
 20
37.2226
 30
0.0
 10
40.2365
 20
37.2226
 30
0.0
 10
40.2365
 20
37.2226
 30
0.0
 10
42.8526
 20
37.2898
 30
0.0
 10
42.8526
 20
37.2898
 30
0.0
 10
42.8526
 20
37.2898
 30
0.0
 10
42.8144
 20
40.5016
 30
0.0
 10
44.5102
 20
43.9685
 30
0.0
 10
48.6949
 20
43.8891
 30
0.0
 10
48.6949
 20
43.8891
 30
0.0
 10
52.8796
 20
43.9685
 30
0.0
 10
54.6604
 20
40.5016
 30
0.0
 10
54.6222
 20
37.2898
 30
0.0
 10
54.6222
 20
37.2898
 30
0.0
 10
54.6222
 20
37.2898
 30
0.0
 10
57.2383
 20
37.2226
 30
0.0
 10
57.2383
 20
37.2226
 30
0.0
 10
57.2383
 20
37.2226
 30
0.0
 10
57.2383
 20
37.2226
 30
0.0
 10
57.2574
 20
34.6267
 30
0.0
 10
57.2574
 20
34.6267
 30
0.0
 10
57.2574
 20
34.6267
 30
0.0
 10
61.8729
 20
34.6308
 30
0.0
 10
64.073
 20
32.4559
 30
0.0
 10
64.1306
 20
28.7
 30
0.0
 10
64.1306
 20
28.7
 30
0.0
 10
64.073
 20
24.9441
 30
0.0
 10
61.8729
 20
22.7692
 30
0.0
 10
57.2574
 20
22.7733
 30
0.0
 10
57.2574
 20
22.7733
 30
0.0
 10
57.2574
 20
22.7733
 30
0.0
 10
57.2383
 20
20.1774
 30
0.0
 10
57.2383
 20
20.1774
 30
0.0
 10
57.2383
 20
20.1774
 30
0.0
 10
57.2383
 20
20.1774
 30
0.0
 10
54.6222
 20
20.1102
 30
0.0
 10
54.6222
 20
20.1102
 30
0.0
 10
54.6222
 20
20.1102
 30
0.0
 10
54.6604
 20
16.8984
 30
0.0
 10
52.8796
 20
13.4315
 30
0.0
 10
48.6949
 20
13.5109
 30
0.0
 10
48.6949
 20
13.5109
 30
0.0
 10
44.5102
 20
13.4315
 30
0.0
 10
42.8144
 20
16.8984
 30
0.0
 10
42.8526
 20
20.1102
 30
0.0
  0
SPLINE
  5
55
330
1F
100
AcDbEntity
  8
layer 1
 62
     7
100
AcDbSpline
210
0.0
220
0.0
230
1.0
 70
    11
 71
     3
 72
    40
 73
    36
 74
     0
 42
0.0000000001
 43
0.0000000001
 12
1.0
 22
0.0
 32
0.0
 13
1.0
 23
0.0
 33
0.0
 40
0.0
 40
0.0
 40
0.0
 40
0.0
 40
0.1
 40
0.1
 40
0.1
 40
0.1
 40
0.2
 40
0.2
 40
0.2
 40
0.2
 40
0.3
 40
0.3
 40
0.3
 40
0.3
 40
0.4
 40
0.4
 40
0.4
 40
0.4
 40
0.5
 40
0.5
 40
0.5
 40
0.5
 40
0.6
 40
0.6
 40
0.6
 40
0.6
 40
0.7
 40
0.7
 40
0.7
 40
0.7
 40
0.8
 40
0.8
 40
0.8
 40
0.8
 40
1.0
 40
1.0
 40
1.0
 40
1.0
 10
-38.3345
 20
22.5392
 30
0.0
 10
-37.5359
 20
20.6521
 30
0.0
 10
-36.2335
 20
19.6282
 30
0.0
 10
-33.8436
 20
18.8471
 30
0.0
 10
-33.8436
 20
18.8471
 30
0.0
 10
-33.8436
 20
18.8471
 30
0.0
 10
-33.8128
 20
15.9536
 30
0.0
 10
-33.8128
 20
15.9536
 30
0.0
 10
-33.8128
 20
15.9536
 30
0.0
 10
-33.8128
 20
15.9536
 30
0.0
 10
-30.9736
 20
15.9212
 30
0.0
 10
-30.9736
 20
15.9212
 30
0.0
 10
-30.9736
 20
15.9212
 30
0.0
 10
-30.308
 20
13.5544
 30
0.0
 10
-29.326
 20
12.5497
 30
0.0
 10
-27.2532
 20
11.4319
 30
0.0
 10
-27.2532
 20
11.4319
 30
0.0
 10
-29.326
 20
10.3141
 30
0.0
 10
-30.308
 20
9.3094
 30
0.0
 10
-30.9736
 20
6.9426
 30
0.0
 10
-30.9736
 20
6.9426
 30
0.0
 10
-30.9736
 20
6.9426
 30
0.0
 10
-33.8128
 20
6.9103
 30
0.0
 10
-33.8128
 20
6.9103
 30
0.0
 10
-33.8128
 20
6.9103
 30
0.0
 10
-33.8128
 20
6.9103
 30
0.0
 10
-33.8436
 20
4.0167
 30
0.0
 10
-33.8436
 20
4.0167
 30
0.0
 10
-33.8436
 20
4.0167
 30
0.0
 10
-36.2335
 20
3.2357
 30
0.0
 10
-37.5359
 20
2.2117
 30
0.0
 10
-38.3345
 20
0.3246
 30
0.0
 10
-38.3345
 20
0.3246
 30
0.0
 10
-38.3345
 20
0.3246
 30
0.0
 10
-38.3345
 20
22.5392
 30
0.0
 10
-38.3345
 20
22.5392
 30
0.0
  0
SPLINE
  5
56
330
1F
100
AcDbEntity
  8
layer 1
 62
     7
100
AcDbSpline
210
0.0
220
0.0
230
1.0
 70
    11
 71
     3
 72
    40
 73
    36
 74
     0
 42
0.0000000001
 43
0.0000000001
 12
1.0
 22
0.0
 32
0.0
 13
1.0
 23
0.0
 33
0.0
 40
0.0
 40
0.0
 40
0.0
 40
0.0
 40
0.1
 40
0.1
 40
0.1
 40
0.1
 40
0.2
 40
0.2
 40
0.2
 40
0.2
 40
0.3
 40
0.3
 40
0.3
 40
0.3
 40
0.4
 40
0.4
 40
0.4
 40
0.4
 40
0.5
 40
0.5
 40
0.5
 40
0.5
 40
0.6
 40
0.6
 40
0.6
 40
0.6
 40
0.7
 40
0.7
 40
0.7
 40
0.7
 40
0.8
 40
0.8
 40
0.8
 40
0.8
 40
1.0
 40
1.0
 40
1.0
 40
1.0
 10
58.6341
 20
15.9212
 30
0.0
 10
58.6341
 20
15.9212
 30
0.0
 10
61.4733
 20
15.9536
 30
0.0
 10
61.4733
 20
15.9536
 30
0.0
 10
61.4733
 20
15.9536
 30
0.0
 10
61.4733
 20
15.9536
 30
0.0
 10
61.5041
 20
18.8471
 30
0.0
 10
61.5041
 20
18.8471
 30
0.0
 10
61.5041
 20
18.8471
 30
0.0
 10
63.894
 20
19.6282
 30
0.0
 10
65.1964
 20
20.6521
 30
0.0
 10
65.995
 20
22.5392
 30
0.0
 10
65.995
 20
22.5392
 30
0.0
 10
65.995
 20
22.5392
 30
0.0
 10
65.995
 20
0.3246
 30
0.0
 10
65.995
 20
0.3246
 30
0.0
 10
65.995
 20
0.3246
 30
0.0
 10
65.1964
 20
2.2117
 30
0.0
 10
63.894
 20
3.2357
 30
0.0
 10
61.5041
 20
4.0167
 30
0.0
 10
61.5041
 20
4.0167
 30
0.0
 10
61.5041
 20
4.0167
 30
0.0
 10
61.4733
 20
6.9103
 30
0.0
 10
61.4733
 20
6.9103
 30
0.0
 10
61.4733
 20
6.9103
 30
0.0
 10
61.4733
 20
6.9103
 30
0.0
 10
58.6341
 20
6.9426
 30
0.0
 10
58.6341
 20
6.9426
 30
0.0
 10
58.6341
 20
6.9426
 30
0.0
 10
57.9685
 20
9.3094
 30
0.0
 10
56.9865
 20
10.3141
 30
0.0
 10
54.9137
 20
11.4319
 30
0.0
 10
54.9137
 20
11.4319
 30
0.0
 10
56.9865
 20
12.5497
 30
0.0
 10
57.9685
 20
13.5544
 30
0.0
 10
58.6341
 20
15.9212
 30
0.0
  0
SPLINE
  5
57
330
1F
100
AcDbEntity
  8
layer 1
 62
     7
100
AcDbSpline
210
0.0
220
0.0
230
1.0
 70
    11
 71
     3
 72
    68
 73
    64
 74
     0
 42
0.0000000001
 43
0.0000000001
 12
1.0
 22
0.0
 32
0.0
 13
1.0
 23
0.0
 33
0.0
 40
0.0
 40
0.0
 40
0.0
 40
0.0
 40
0.0588235294117647
 40
0.0588235294117647
 40
0.0588235294117647
 40
0.0588235294117647
 40
0.1176470588235294
 40
0.1176470588235294
 40
0.1176470588235294
 40
0.1176470588235294
 40
0.1764705882352941
 40
0.1764705882352941
 40
0.1764705882352941
 40
0.1764705882352941
 40
0.2352941176470588
 40
0.2352941176470588
 40
0.2352941176470588
 40
0.2352941176470588
 40
0.2941176470588235
 40
0.2941176470588235
 40
0.2941176470588235
 40
0.2941176470588235
 40
0.3529411764705883
 40
0.3529411764705883
 40
0.3529411764705883
 40
0.3529411764705883
 40
0.4117647058823529
 40
0.4117647058823529
 40
0.4117647058823529
 40
0.4117647058823529
 40
0.4705882352941176
 40
0.4705882352941176
 40
0.4705882352941176
 40
0.4705882352941176
 40
0.5294117647058824
 40
0.5294117647058824
 40
0.5294117647058824
 40
0.5294117647058824
 40
0.5882352941176471
 40
0.5882352941176471
 40
0.5882352941176471
 40
0.5882352941176471
 40
0.6470588235294118
 40
0.6470588235294118
 40
0.6470588235294118
 40
0.6470588235294118
 40
0.7058823529411765
 40
0.7058823529411765
 40
0.7058823529411765
 40
0.7058823529411765
 40
0.7647058823529411
 40
0.7647058823529411
 40
0.7647058823529411
 40
0.7647058823529411
 40
0.8235294117647058
 40
0.8235294117647058
 40
0.8235294117647058
 40
0.8235294117647058
 40
0.8823529411764706
 40
0.8823529411764706
 40
0.8823529411764706
 40
0.8823529411764706
 40
1.0
 40
1.0
 40
1.0
 40
1.0
 10
23.7448
 20
-18.341
 30
0.0
 10
23.7448
 20
-18.341
 30
0.0
 10
26.584
 20
-18.3086
 30
0.0
 10
26.584
 20
-18.3086
 30
0.0
 10
26.584
 20
-18.3086
 30
0.0
 10
26.584
 20
-18.3086
 30
0.0
 10
26.6148
 20
-15.4151
 30
0.0
 10
26.6148
 20
-15.4151
 30
0.0
 10
26.6148
 20
-15.4151
 30
0.0
 10
29.0047
 20
-14.6341
 30
0.0
 10
30.3071
 20
-13.6101
 30
0.0
 10
31.1057
 20
-11.723
 30
0.0
 10
31.1057
 20
-11.723
 30
0.0
 10
31.9042
 20
-13.6101
 30
0.0
 10
33.2066
 20
-14.6341
 30
0.0
 10
35.5965
 20
-15.4151
 30
0.0
 10
35.5965
 20
-15.4151
 30
0.0
 10
35.5965
 20
-15.4151
 30
0.0
 10
35.6273
 20
-18.3086
 30
0.0
 10
35.6273
 20
-18.3086
 30
0.0
 10
35.6273
 20
-18.3086
 30
0.0
 10
35.6273
 20
-18.3086
 30
0.0
 10
38.4665
 20
-18.341
 30
0.0
 10
38.4665
 20
-18.341
 30
0.0
 10
38.4665
 20
-18.341
 30
0.0
 10
39.1322
 20
-20.7078
 30
0.0
 10
40.1141
 20
-21.7125
 30
0.0
 10
42.1869
 20
-22.8303
 30
0.0
 10
42.1869
 20
-22.8303
 30
0.0
 10
40.1141
 20
-23.9481
 30
0.0
 10
39.1322
 20
-24.9528
 30
0.0
 10
38.4665
 20
-27.3196
 30
0.0
 10
38.4665
 20
-27.3196
 30
0.0
 10
38.4665
 20
-27.3196
 30
0.0
 10
35.6273
 20
-27.352
 30
0.0
 10
35.6273
 20
-27.352
 30
0.0
 10
35.6273
 20
-27.352
 30
0.0
 10
35.6273
 20
-27.352
 30
0.0
 10
35.5965
 20
-30.2455
 30
0.0
 10
35.5965
 20
-30.2455
 30
0.0
 10
35.5965
 20
-30.2455
 30
0.0
 10
33.2066
 20
-31.0265
 30
0.0
 10
31.9042
 20
-32.0505
 30
0.0
 10
31.1057
 20
-33.9376
 30
0.0
 10
31.1057
 20
-33.9376
 30
0.0
 10
30.3071
 20
-32.0505
 30
0.0
 10
29.0047
 20
-31.0265
 30
0.0
 10
26.6148
 20
-30.2455
 30
0.0
 10
26.6148
 20
-30.2455
 30
0.0
 10
26.6148
 20
-30.2455
 30
0.0
 10
26.584
 20
-27.352
 30
0.0
 10
26.584
 20
-27.352
 30
0.0
 10
26.584
 20
-27.352
 30
0.0
 10
26.584
 20
-27.352
 30
0.0
 10
23.7448
 20
-27.3196
 30
0.0
 10
23.7448
 20
-27.3196
 30
0.0
 10
23.7448
 20
-27.3196
 30
0.0
 10
23.0792
 20
-24.9528
 30
0.0
 10
22.0972
 20
-23.9481
 30
0.0
 10
20.0244
 20
-22.8303
 30
0.0
 10
20.0244
 20
-22.8303
 30
0.0
 10
22.0972
 20
-21.7125
 30
0.0
 10
23.0792
 20
-20.7078
 30
0.0
 10
23.7448
 20
-18.341
 30
0.0
  0
SPLINE
  5
58
330
1F
100
AcDbEntity
  8
layer 1
 62
     7
100
AcDbSpline
210
0.0
220
0.0
230
1.0
 70
    11
 71
     3
 72
    68
 73
    64
 74
     0
 42
0.0000000001
 43
0.0000000001
 12
1.0
 22
0.0
 32
0.0
 13
1.0
 23
0.0
 33
0.0
 40
0.0
 40
0.0
 40
0.0
 40
0.0
 40
0.0588235294117647
 40
0.0588235294117647
 40
0.0588235294117647
 40
0.0588235294117647
 40
0.1176470588235294
 40
0.1176470588235294
 40
0.1176470588235294
 40
0.1176470588235294
 40
0.1764705882352941
 40
0.1764705882352941
 40
0.1764705882352941
 40
0.1764705882352941
 40
0.2352941176470588
 40
0.2352941176470588
 40
0.2352941176470588
 40
0.2352941176470588
 40
0.2941176470588235
 40
0.2941176470588235
 40
0.2941176470588235
 40
0.2941176470588235
 40
0.3529411764705883
 40
0.3529411764705883
 40
0.3529411764705883
 40
0.3529411764705883
 40
0.4117647058823529
 40
0.4117647058823529
 40
0.4117647058823529
 40
0.4117647058823529
 40
0.4705882352941176
 40
0.4705882352941176
 40
0.4705882352941176
 40
0.4705882352941176
 40
0.5294117647058824
 40
0.5294117647058824
 40
0.5294117647058824
 40
0.5294117647058824
 40
0.5882352941176471
 40
0.5882352941176471
 40
0.5882352941176471
 40
0.5882352941176471
 40
0.6470588235294118
 40
0.6470588235294118
 40
0.6470588235294118
 40
0.6470588235294118
 40
0.7058823529411765
 40
0.7058823529411765
 40
0.7058823529411765
 40
0.7058823529411765
 40
0.7647058823529411
 40
0.7647058823529411
 40
0.7647058823529411
 40
0.7647058823529411
 40
0.8235294117647058
 40
0.8235294117647058
 40
0.8235294117647058
 40
0.8235294117647058
 40
0.8823529411764706
 40
0.8823529411764706
 40
0.8823529411764706
 40
0.8823529411764706
 40
1.0
 40
1.0
 40
1.0
 40
1.0
 10
7.9744
 20
-14.152
 30
0.0
 10
7.9744
 20
-14.152
 30
0.0
 10
5.3583
 20
-14.0848
 30
0.0
 10
5.3583
 20
-14.0848
 30
0.0
 10
5.3583
 20
-14.0848
 30
0.0
 10
5.3583
 20
-14.0848
 30
0.0
 10
5.3393
 20
-11.4889
 30
0.0
 10
5.3393
 20
-11.4889
 30
0.0
 10
5.3393
 20
-11.4889
 30
0.0
 10
0.7238
 20
-11.493
 30
0.0
 10
-1.4764
 20
-9.3181
 30
0.0
 10
-1.534
 20
-5.5622
 30
0.0
 10
-1.534
 20
-5.5622
 30
0.0
 10
-1.4764
 20
-1.8063
 30
0.0
 10
0.7238
 20
0.3686
 30
0.0
 10
5.3393
 20
0.3645
 30
0.0
 10
5.3393
 20
0.3645
 30
0.0
 10
5.3393
 20
0.3645
 30
0.0
 10
5.3583
 20
2.9604
 30
0.0
 10
5.3583
 20
2.9604
 30
0.0
 10
5.3583
 20
2.9604
 30
0.0
 10
5.3583
 20
2.9604
 30
0.0
 10
7.9744
 20
3.0276
 30
0.0
 10
7.9744
 20
3.0276
 30
0.0
 10
7.9744
 20
3.0276
 30
0.0
 10
7.9363
 20
6.2394
 30
0.0
 10
9.6321
 20
9.7063
 30
0.0
 10
13.8168
 20
9.6269
 30
0.0
 10
13.8168
 20
9.6269
 30
0.0
 10
18.0015
 20
9.7063
 30
0.0
 10
19.7822
 20
6.2394
 30
0.0
 10
19.7441
 20
3.0276
 30
0.0
 10
19.7441
 20
3.0276
 30
0.0
 10
19.7441
 20
3.0276
 30
0.0
 10
22.3602
 20
2.9604
 30
0.0
 10
22.3602
 20
2.9604
 30
0.0
 10
22.3602
 20
2.9604
 30
0.0
 10
22.3602
 20
2.9604
 30
0.0
 10
22.3792
 20
0.3645
 30
0.0
 10
22.3792
 20
0.3645
 30
0.0
 10
22.3792
 20
0.3645
 30
0.0
 10
26.9947
 20
0.3686
 30
0.0
 10
29.1949
 20
-1.8063
 30
0.0
 10
29.2525
 20
-5.5622
 30
0.0
 10
29.2525
 20
-5.5622
 30
0.0
 10
29.1949
 20
-9.3181
 30
0.0
 10
26.9947
 20
-11.493
 30
0.0
 10
22.3792
 20
-11.4889
 30
0.0
 10
22.3792
 20
-11.4889
 30
0.0
 10
22.3792
 20
-11.4889
 30
0.0
 10
22.3602
 20
-14.0848
 30
0.0
 10
22.3602
 20
-14.0848
 30
0.0
 10
22.3602
 20
-14.0848
 30
0.0
 10
22.3602
 20
-14.0848
 30
0.0
 10
19.7441
 20
-14.152
 30
0.0
 10
19.7441
 20
-14.152
 30
0.0
 10
19.7441
 20
-14.152
 30
0.0
 10
19.7822
 20
-17.3638
 30
0.0
 10
18.0015
 20
-20.8307
 30
0.0
 10
13.8168
 20
-20.7513
 30
0.0
 10
13.8168
 20
-20.7513
 30
0.0
 10
9.6321
 20
-20.8307
 30
0.0
 10
7.9363
 20
-17.3638
 30
0.0
 10
7.9744
 20
-14.152
 30
0.0
  0
SPLINE
  5
59
330
1F
100
AcDbEntity
  8
layer 1
 62
     7
100
AcDbSpline
210
0.0
220
0.0
230
1.0
 70
    11
 71
     3
 72
    68
 73
    64
 74
     0
 42
0.0000000001
 43
0.0000000001
 12
1.0
 22
0.0
 32
0.0
 13
1.0
 23
0.0
 33
0.0
 40
0.0
 40
0.0
 40
0.0
 40
0.0
 40
0.0588235294117647
 40
0.0588235294117647
 40
0.0588235294117647
 40
0.0588235294117647
 40
0.1176470588235294
 40
0.1176470588235294
 40
0.1176470588235294
 40
0.1176470588235294
 40
0.1764705882352941
 40
0.1764705882352941
 40
0.1764705882352941
 40
0.1764705882352941
 40
0.2352941176470588
 40
0.2352941176470588
 40
0.2352941176470588
 40
0.2352941176470588
 40
0.2941176470588235
 40
0.2941176470588235
 40
0.2941176470588235
 40
0.2941176470588235
 40
0.3529411764705883
 40
0.3529411764705883
 40
0.3529411764705883
 40
0.3529411764705883
 40
0.4117647058823529
 40
0.4117647058823529
 40
0.4117647058823529
 40
0.4117647058823529
 40
0.4705882352941176
 40
0.4705882352941176
 40
0.4705882352941176
 40
0.4705882352941176
 40
0.5294117647058824
 40
0.5294117647058824
 40
0.5294117647058824
 40
0.5294117647058824
 40
0.5882352941176471
 40
0.5882352941176471
 40
0.5882352941176471
 40
0.5882352941176471
 40
0.6470588235294118
 40
0.6470588235294118
 40
0.6470588235294118
 40
0.6470588235294118
 40
0.7058823529411765
 40
0.7058823529411765
 40
0.7058823529411765
 40
0.7058823529411765
 40
0.7647058823529411
 40
0.7647058823529411
 40
0.7647058823529411
 40
0.7647058823529411
 40
0.8235294117647058
 40
0.8235294117647058
 40
0.8235294117647058
 40
0.8235294117647058
 40
0.8823529411764706
 40
0.8823529411764706
 40
0.8823529411764706
 40
0.8823529411764706
 40
1.0
 40
1.0
 40
1.0
 40
1.0
 10
-26.834
 20
-14.152
 30
0.0
 10
-26.834
 20
-14.152
 30
0.0
 10
-29.4501
 20
-14.0848
 30
0.0
 10
-29.4501
 20
-14.0848
 30
0.0
 10
-29.4501
 20
-14.0848
 30
0.0
 10
-29.4501
 20
-14.0848
 30
0.0
 10
-29.4691
 20
-11.4889
 30
0.0
 10
-29.4691
 20
-11.4889
 30
0.0
 10
-29.4691
 20
-11.4889
 30
0.0
 10
-34.0846
 20
-11.493
 30
0.0
 10
-36.2848
 20
-9.3181
 30
0.0
 10
-36.3424
 20
-5.5622
 30
0.0
 10
-36.3424
 20
-5.5622
 30
0.0
 10
-36.2848
 20
-1.8063
 30
0.0
 10
-34.0846
 20
0.3686
 30
0.0
 10
-29.4691
 20
0.3645
 30
0.0
 10
-29.4691
 20
0.3645
 30
0.0
 10
-29.4691
 20
0.3645
 30
0.0
 10
-29.4501
 20
2.9604
 30
0.0
 10
-29.4501
 20
2.9604
 30
0.0
 10
-29.4501
 20
2.9604
 30
0.0
 10
-29.4501
 20
2.9604
 30
0.0
 10
-26.834
 20
3.0276
 30
0.0
 10
-26.834
 20
3.0276
 30
0.0
 10
-26.834
 20
3.0276
 30
0.0
 10
-26.8721
 20
6.2394
 30
0.0
 10
-25.1763
 20
9.7063
 30
0.0
 10
-20.9916
 20
9.6269
 30
0.0
 10
-20.9916
 20
9.6269
 30
0.0
 10
-16.8069
 20
9.7063
 30
0.0
 10
-15.0262
 20
6.2394
 30
0.0
 10
-15.0643
 20
3.0276
 30
0.0
 10
-15.0643
 20
3.0276
 30
0.0
 10
-15.0643
 20
3.0276
 30
0.0
 10
-12.4482
 20
2.9604
 30
0.0
 10
-12.4482
 20
2.9604
 30
0.0
 10
-12.4482
 20
2.9604
 30
0.0
 10
-12.4482
 20
2.9604
 30
0.0
 10
-12.4292
 20
0.3645
 30
0.0
 10
-12.4292
 20
0.3645
 30
0.0
 10
-12.4292
 20
0.3645
 30
0.0
 10
-7.8137
 20
0.3686
 30
0.0
 10
-5.6135
 20
-1.8063
 30
0.0
 10
-5.5559
 20
-5.5622
 30
0.0
 10
-5.5559
 20
-5.5622
 30
0.0
 10
-5.6135
 20
-9.3181
 30
0.0
 10
-7.8137
 20
-11.493
 30
0.0
 10
-12.4292
 20
-11.4889
 30
0.0
 10
-12.4292
 20
-11.4889
 30
0.0
 10
-12.4292
 20
-11.4889
 30
0.0
 10
-12.4482
 20
-14.0848
 30
0.0
 10
-12.4482
 20
-14.0848
 30
0.0
 10
-12.4482
 20
-14.0848
 30
0.0
 10
-12.4482
 20
-14.0848
 30
0.0
 10
-15.0643
 20
-14.152
 30
0.0
 10
-15.0643
 20
-14.152
 30
0.0
 10
-15.0643
 20
-14.152
 30
0.0
 10
-15.0262
 20
-17.3638
 30
0.0
 10
-16.8069
 20
-20.8307
 30
0.0
 10
-20.9916
 20
-20.7513
 30
0.0
 10
-20.9916
 20
-20.7513
 30
0.0
 10
-25.1763
 20
-20.8307
 30
0.0
 10
-26.8721
 20
-17.3638
 30
0.0
 10
-26.834
 20
-14.152
 30
0.0
  0
SPLINE
  5
5A
330
1F
100
AcDbEntity
  8
layer 1
 62
     7
100
AcDbSpline
210
0.0
220
0.0
230
1.0
 70
    11
 71
     3
 72
    68
 73
    64
 74
     0
 42
0.0000000001
 43
0.0000000001
 12
1.0
 22
0.0
 32
0.0
 13
1.0
 23
0.0
 33
0.0
 40
0.0
 40
0.0
 40
0.0
 40
0.0
 40
0.0588235294117647
 40
0.0588235294117647
 40
0.0588235294117647
 40
0.0588235294117647
 40
0.1176470588235294
 40
0.1176470588235294
 40
0.1176470588235294
 40
0.1176470588235294
 40
0.1764705882352941
 40
0.1764705882352941
 40
0.1764705882352941
 40
0.1764705882352941
 40
0.2352941176470588
 40
0.2352941176470588
 40
0.2352941176470588
 40
0.2352941176470588
 40
0.2941176470588235
 40
0.2941176470588235
 40
0.2941176470588235
 40
0.2941176470588235
 40
0.3529411764705883
 40
0.3529411764705883
 40
0.3529411764705883
 40
0.3529411764705883
 40
0.4117647058823529
 40
0.4117647058823529
 40
0.4117647058823529
 40
0.4117647058823529
 40
0.4705882352941176
 40
0.4705882352941176
 40
0.4705882352941176
 40
0.4705882352941176
 40
0.5294117647058824
 40
0.5294117647058824
 40
0.5294117647058824
 40
0.5294117647058824
 40
0.5882352941176471
 40
0.5882352941176471
 40
0.5882352941176471
 40
0.5882352941176471
 40
0.6470588235294118
 40
0.6470588235294118
 40
0.6470588235294118
 40
0.6470588235294118
 40
0.7058823529411765
 40
0.7058823529411765
 40
0.7058823529411765
 40
0.7058823529411765
 40
0.7647058823529411
 40
0.7647058823529411
 40
0.7647058823529411
 40
0.7647058823529411
 40
0.8235294117647058
 40
0.8235294117647058
 40
0.8235294117647058
 40
0.8235294117647058
 40
0.8823529411764706
 40
0.8823529411764706
 40
0.8823529411764706
 40
0.8823529411764706
 40
1.0
 40
1.0
 40
1.0
 40
1.0
 10
-11.0636
 20
-18.341
 30
0.0
 10
-11.0636
 20
-18.341
 30
0.0
 10
-8.2244
 20
-18.3086
 30
0.0
 10
-8.2244
 20
-18.3086
 30
0.0
 10
-8.2244
 20
-18.3086
 30
0.0
 10
-8.2244
 20
-18.3086
 30
0.0
 10
-8.1936
 20
-15.4151
 30
0.0
 10
-8.1936
 20
-15.4151
 30
0.0
 10
-8.1936
 20
-15.4151
 30
0.0
 10
-5.8037
 20
-14.6341
 30
0.0
 10
-4.5013
 20
-13.6101
 30
0.0
 10
-3.7027
 20
-11.723
 30
0.0
 10
-3.7027
 20
-11.723
 30
0.0
 10
-2.9042
 20
-13.6101
 30
0.0
 10
-1.6018
 20
-14.6341
 30
0.0
 10
0.7881
 20
-15.4151
 30
0.0
 10
0.7881
 20
-15.4151
 30
0.0
 10
0.7881
 20
-15.4151
 30
0.0
 10
0.8189
 20
-18.3086
 30
0.0
 10
0.8189
 20
-18.3086
 30
0.0
 10
0.8189
 20
-18.3086
 30
0.0
 10
0.8189
 20
-18.3086
 30
0.0
 10
3.6581
 20
-18.341
 30
0.0
 10
3.6581
 20
-18.341
 30
0.0
 10
3.6581
 20
-18.341
 30
0.0
 10
4.3238
 20
-20.7078
 30
0.0
 10
5.3057
 20
-21.7125
 30
0.0
 10
7.3785
 20
-22.8303
 30
0.0
 10
7.3785
 20
-22.8303
 30
0.0
 10
5.3057
 20
-23.9481
 30
0.0
 10
4.3238
 20
-24.9528
 30
0.0
 10
3.6581
 20
-27.3196
 30
0.0
 10
3.6581
 20
-27.3196
 30
0.0
 10
3.6581
 20
-27.3196
 30
0.0
 10
0.8189
 20
-27.352
 30
0.0
 10
0.8189
 20
-27.352
 30
0.0
 10
0.8189
 20
-27.352
 30
0.0
 10
0.8189
 20
-27.352
 30
0.0
 10
0.7881
 20
-30.2455
 30
0.0
 10
0.7881
 20
-30.2455
 30
0.0
 10
0.7881
 20
-30.2455
 30
0.0
 10
-1.6018
 20
-31.0265
 30
0.0
 10
-2.9042
 20
-32.0505
 30
0.0
 10
-3.7027
 20
-33.9376
 30
0.0
 10
-3.7027
 20
-33.9376
 30
0.0
 10
-4.5013
 20
-32.0505
 30
0.0
 10
-5.8037
 20
-31.0265
 30
0.0
 10
-8.1936
 20
-30.2455
 30
0.0
 10
-8.1936
 20
-30.2455
 30
0.0
 10
-8.1936
 20
-30.2455
 30
0.0
 10
-8.2244
 20
-27.352
 30
0.0
 10
-8.2244
 20
-27.352
 30
0.0
 10
-8.2244
 20
-27.352
 30
0.0
 10
-8.2244
 20
-27.352
 30
0.0
 10
-11.0636
 20
-27.3196
 30
0.0
 10
-11.0636
 20
-27.3196
 30
0.0
 10
-11.0636
 20
-27.3196
 30
0.0
 10
-11.7292
 20
-24.9528
 30
0.0
 10
-12.7112
 20
-23.9481
 30
0.0
 10
-14.784
 20
-22.8303
 30
0.0
 10
-14.784
 20
-22.8303
 30
0.0
 10
-12.7112
 20
-21.7125
 30
0.0
 10
-11.7292
 20
-20.7078
 30
0.0
 10
-11.0636
 20
-18.341
 30
0.0
  0
SPLINE
  5
5B
330
1F
100
AcDbEntity
  8
layer 1
 62
     7
100
AcDbSpline
210
0.0
220
0.0
230
1.0
 70
    11
 71
     3
 72
    68
 73
    64
 74
     0
 42
0.0000000001
 43
0.0000000001
 12
1.0
 22
0.0
 32
0.0
 13
1.0
 23
0.0
 33
0.0
 40
0.0
 40
0.0
 40
0.0
 40
0.0
 40
0.0588235294117647
 40
0.0588235294117647
 40
0.0588235294117647
 40
0.0588235294117647
 40
0.1176470588235294
 40
0.1176470588235294
 40
0.1176470588235294
 40
0.1176470588235294
 40
0.1764705882352941
 40
0.1764705882352941
 40
0.1764705882352941
 40
0.1764705882352941
 40
0.2352941176470588
 40
0.2352941176470588
 40
0.2352941176470588
 40
0.2352941176470588
 40
0.2941176470588235
 40
0.2941176470588235
 40
0.2941176470588235
 40
0.2941176470588235
 40
0.3529411764705883
 40
0.3529411764705883
 40
0.3529411764705883
 40
0.3529411764705883
 40
0.4117647058823529
 40
0.4117647058823529
 40
0.4117647058823529
 40
0.4117647058823529
 40
0.4705882352941176
 40
0.4705882352941176
 40
0.4705882352941176
 40
0.4705882352941176
 40
0.5294117647058824
 40
0.5294117647058824
 40
0.5294117647058824
 40
0.5294117647058824
 40
0.5882352941176471
 40
0.5882352941176471
 40
0.5882352941176471
 40
0.5882352941176471
 40
0.6470588235294118
 40
0.6470588235294118
 40
0.6470588235294118
 40
0.6470588235294118
 40
0.7058823529411765
 40
0.7058823529411765
 40
0.7058823529411765
 40
0.7058823529411765
 40
0.7647058823529411
 40
0.7647058823529411
 40
0.7647058823529411
 40
0.7647058823529411
 40
0.8235294117647058
 40
0.8235294117647058
 40
0.8235294117647058
 40
0.8235294117647058
 40
0.8823529411764706
 40
0.8823529411764706
 40
0.8823529411764706
 40
0.8823529411764706
 40
1.0
 40
1.0
 40
1.0
 40
1.0
 10
42.8526
 20
-14.152
 30
0.0
 10
42.8526
 20
-14.152
 30
0.0
 10
40.2365
 20
-14.0848
 30
0.0
 10
40.2365
 20
-14.0848
 30
0.0
 10
40.2365
 20
-14.0848
 30
0.0
 10
40.2365
 20
-14.0848
 30
0.0
 10
40.2174
 20
-11.4889
 30
0.0
 10
40.2174
 20
-11.4889
 30
0.0
 10
40.2174
 20
-11.4889
 30
0.0
 10
35.6019
 20
-11.493
 30
0.0
 10
33.4018
 20
-9.3181
 30
0.0
 10
33.3441
 20
-5.5622
 30
0.0
 10
33.3441
 20
-5.5622
 30
0.0
 10
33.4018
 20
-1.8063
 30
0.0
 10
35.6019
 20
0.3686
 30
0.0
 10
40.2174
 20
0.3645
 30
0.0
 10
40.2174
 20
0.3645
 30
0.0
 10
40.2174
 20
0.3645
 30
0.0
 10
40.2365
 20
2.9604
 30
0.0
 10
40.2365
 20
2.9604
 30
0.0
 10
40.2365
 20
2.9604
 30
0.0
 10
40.2365
 20
2.9604
 30
0.0
 10
42.8526
 20
3.0276
 30
0.0
 10
42.8526
 20
3.0276
 30
0.0
 10
42.8526
 20
3.0276
 30
0.0
 10
42.8144
 20
6.2394
 30
0.0
 10
44.5102
 20
9.7063
 30
0.0
 10
48.6949
 20
9.6269
 30
0.0
 10
48.6949
 20
9.6269
 30
0.0
 10
52.8796
 20
9.7063
 30
0.0
 10
54.6604
 20
6.2394
 30
0.0
 10
54.6222
 20
3.0276
 30
0.0
 10
54.6222
 20
3.0276
 30
0.0
 10
54.6222
 20
3.0276
 30
0.0
 10
57.2383
 20
2.9604
 30
0.0
 10
57.2383
 20
2.9604
 30
0.0
 10
57.2383
 20
2.9604
 30
0.0
 10
57.2383
 20
2.9604
 30
0.0
 10
57.2574
 20
0.3645
 30
0.0
 10
57.2574
 20
0.3645
 30
0.0
 10
57.2574
 20
0.3645
 30
0.0
 10
61.8729
 20
0.3686
 30
0.0
 10
64.073
 20
-1.8063
 30
0.0
 10
64.1306
 20
-5.5622
 30
0.0
 10
64.1306
 20
-5.5622
 30
0.0
 10
64.073
 20
-9.3181
 30
0.0
 10
61.8729
 20
-11.493
 30
0.0
 10
57.2574
 20
-11.4889
 30
0.0
 10
57.2574
 20
-11.4889
 30
0.0
 10
57.2574
 20
-11.4889
 30
0.0
 10
57.2383
 20
-14.0848
 30
0.0
 10
57.2383
 20
-14.0848
 30
0.0
 10
57.2383
 20
-14.0848
 30
0.0
 10
57.2383
 20
-14.0848
 30
0.0
 10
54.6222
 20
-14.152
 30
0.0
 10
54.6222
 20
-14.152
 30
0.0
 10
54.6222
 20
-14.152
 30
0.0
 10
54.6604
 20
-17.3638
 30
0.0
 10
52.8796
 20
-20.8307
 30
0.0
 10
48.6949
 20
-20.7513
 30
0.0
 10
48.6949
 20
-20.7513
 30
0.0
 10
44.5102
 20
-20.8307
 30
0.0
 10
42.8144
 20
-17.3638
 30
0.0
 10
42.8526
 20
-14.152
 30
0.0
  0
SPLINE
  5
5C
330
1F
100
AcDbEntity
  8
layer 1
 62
     7
100
AcDbSpline
210
0.0
220
0.0
230
1.0
 70
    11
 71
     3
 72
    40
 73
    36
 74
     0
 42
0.0000000001
 43
0.0000000001
 12
1.0
 22
0.0
 32
0.0
 13
1.0
 23
0.0
 33
0.0
 40
0.0
 40
0.0
 40
0.0
 40
0.0
 40
0.1
 40
0.1
 40
0.1
 40
0.1
 40
0.2
 40
0.2
 40
0.2
 40
0.2
 40
0.3
 40
0.3
 40
0.3
 40
0.3
 40
0.4
 40
0.4
 40
0.4
 40
0.4
 40
0.5
 40
0.5
 40
0.5
 40
0.5
 40
0.6
 40
0.6
 40
0.6
 40
0.6
 40
0.7
 40
0.7
 40
0.7
 40
0.7
 40
0.8
 40
0.8
 40
0.8
 40
0.8
 40
1.0
 40
1.0
 40
1.0
 40
1.0
 10
-38.3345
 20
-11.723
 30
0.0
 10
-37.5359
 20
-13.6101
 30
0.0
 10
-36.2335
 20
-14.6341
 30
0.0
 10
-33.8436
 20
-15.4151
 30
0.0
 10
-33.8436
 20
-15.4151
 30
0.0
 10
-33.8436
 20
-15.4151
 30
0.0
 10
-33.8128
 20
-18.3086
 30
0.0
 10
-33.8128
 20
-18.3086
 30
0.0
 10
-33.8128
 20
-18.3086
 30
0.0
 10
-33.8128
 20
-18.3086
 30
0.0
 10
-30.9736
 20
-18.341
 30
0.0
 10
-30.9736
 20
-18.341
 30
0.0
 10
-30.9736
 20
-18.341
 30
0.0
 10
-30.308
 20
-20.7078
 30
0.0
 10
-29.326
 20
-21.7125
 30
0.0
 10
-27.2532
 20
-22.8303
 30
0.0
 10
-27.2532
 20
-22.8303
 30
0.0
 10
-29.326
 20
-23.9481
 30
0.0
 10
-30.308
 20
-24.9528
 30
0.0
 10
-30.9736
 20
-27.3196
 30
0.0
 10
-30.9736
 20
-27.3196
 30
0.0
 10
-30.9736
 20
-27.3196
 30
0.0
 10
-33.8128
 20
-27.352
 30
0.0
 10
-33.8128
 20
-27.352
 30
0.0
 10
-33.8128
 20
-27.352
 30
0.0
 10
-33.8128
 20
-27.352
 30
0.0
 10
-33.8436
 20
-30.2455
 30
0.0
 10
-33.8436
 20
-30.2455
 30
0.0
 10
-33.8436
 20
-30.2455
 30
0.0
 10
-36.2335
 20
-31.0265
 30
0.0
 10
-37.5359
 20
-32.0505
 30
0.0
 10
-38.3345
 20
-33.9376
 30
0.0
 10
-38.3345
 20
-33.9376
 30
0.0
 10
-38.3345
 20
-33.9376
 30
0.0
 10
-38.3345
 20
-11.723
 30
0.0
 10
-38.3345
 20
-11.723
 30
0.0
  0
SPLINE
  5
5D
330
1F
100
AcDbEntity
  8
layer 1
 62
     7
100
AcDbSpline
210
0.0
220
0.0
230
1.0
 70
    11
 71
     3
 72
    40
 73
    36
 74
     0
 42
0.0000000001
 43
0.0000000001
 12
1.0
 22
0.0
 32
0.0
 13
1.0
 23
0.0
 33
0.0
 40
0.0
 40
0.0
 40
0.0
 40
0.0
 40
0.1
 40
0.1
 40
0.1
 40
0.1
 40
0.2
 40
0.2
 40
0.2
 40
0.2
 40
0.3
 40
0.3
 40
0.3
 40
0.3
 40
0.4
 40
0.4
 40
0.4
 40
0.4
 40
0.5
 40
0.5
 40
0.5
 40
0.5
 40
0.6
 40
0.6
 40
0.6
 40
0.6
 40
0.7
 40
0.7
 40
0.7
 40
0.7
 40
0.8
 40
0.8
 40
0.8
 40
0.8
 40
1.0
 40
1.0
 40
1.0
 40
1.0
 10
58.6341
 20
-18.341
 30
0.0
 10
58.6341
 20
-18.341
 30
0.0
 10
61.4733
 20
-18.3086
 30
0.0
 10
61.4733
 20
-18.3086
 30
0.0
 10
61.4733
 20
-18.3086
 30
0.0
 10
61.4733
 20
-18.3086
 30
0.0
 10
61.5041
 20
-15.4151
 30
0.0
 10
61.5041
 20
-15.4151
 30
0.0
 10
61.5041
 20
-15.4151
 30
0.0
 10
63.894
 20
-14.6341
 30
0.0
 10
65.1964
 20
-13.6101
 30
0.0
 10
65.995
 20
-11.723
 30
0.0
 10
65.995
 20
-11.723
 30
0.0
 10
65.995
 20
-11.723
 30
0.0
 10
65.995
 20
-33.9376
 30
0.0
 10
65.995
 20
-33.9376
 30
0.0
 10
65.995
 20
-33.9376
 30
0.0
 10
65.1964
 20
-32.0505
 30
0.0
 10
63.894
 20
-31.0265
 30
0.0
 10
61.5041
 20
-30.2455
 30
0.0
 10
61.5041
 20
-30.2455
 30
0.0
 10
61.5041
 20
-30.2455
 30
0.0
 10
61.4733
 20
-27.352
 30
0.0
 10
61.4733
 20
-27.352
 30
0.0
 10
61.4733
 20
-27.352
 30
0.0
 10
61.4733
 20
-27.352
 30
0.0
 10
58.6341
 20
-27.3196
 30
0.0
 10
58.6341
 20
-27.3196
 30
0.0
 10
58.6341
 20
-27.3196
 30
0.0
 10
57.9685
 20
-24.9528
 30
0.0
 10
56.9865
 20
-23.9481
 30
0.0
 10
54.9137
 20
-22.8303
 30
0.0
 10
54.9137
 20
-22.8303
 30
0.0
 10
56.9865
 20
-21.7125
 30
0.0
 10
57.9685
 20
-20.7078
 30
0.0
 10
58.6341
 20
-18.341
 30
0.0
  0
SPLINE
  5
5E
330
1F
100
AcDbEntity
  8
layer 1
 62
     7
100
AcDbSpline
210
0.0
220
0.0
230
1.0
 70
    11
 71
     3
 72
    68
 73
    64
 74
     0
 42
0.0000000001
 43
0.0000000001
 12
1.0
 22
0.0
 32
0.0
 13
1.0
 23
0.0
 33
0.0
 40
0.0
 40
0.0
 40
0.0
 40
0.0
 40
0.0588235294117647
 40
0.0588235294117647
 40
0.0588235294117647
 40
0.0588235294117647
 40
0.1176470588235294
 40
0.1176470588235294
 40
0.1176470588235294
 40
0.1176470588235294
 40
0.1764705882352941
 40
0.1764705882352941
 40
0.1764705882352941
 40
0.1764705882352941
 40
0.2352941176470588
 40
0.2352941176470588
 40
0.2352941176470588
 40
0.2352941176470588
 40
0.2941176470588235
 40
0.2941176470588235
 40
0.2941176470588235
 40
0.2941176470588235
 40
0.3529411764705883
 40
0.3529411764705883
 40
0.3529411764705883
 40
0.3529411764705883
 40
0.4117647058823529
 40
0.4117647058823529
 40
0.4117647058823529
 40
0.4117647058823529
 40
0.4705882352941176
 40
0.4705882352941176
 40
0.4705882352941176
 40
0.4705882352941176
 40
0.5294117647058824
 40
0.5294117647058824
 40
0.5294117647058824
 40
0.5294117647058824
 40
0.5882352941176471
 40
0.5882352941176471
 40
0.5882352941176471
 40
0.5882352941176471
 40
0.6470588235294118
 40
0.6470588235294118
 40
0.6470588235294118
 40
0.6470588235294118
 40
0.7058823529411765
 40
0.7058823529411765
 40
0.7058823529411765
 40
0.7058823529411765
 40
0.7647058823529411
 40
0.7647058823529411
 40
0.7647058823529411
 40
0.7647058823529411
 40
0.8235294117647058
 40
0.8235294117647058
 40
0.8235294117647058
 40
0.8235294117647058
 40
0.8823529411764706
 40
0.8823529411764706
 40
0.8823529411764706
 40
0.8823529411764706
 40
1.0
 40
1.0
 40
1.0
 40
1.0
 10
23.7448
 20
-52.6032
 30
0.0
 10
23.7448
 20
-52.6032
 30
0.0
 10
26.584
 20
-52.5708
 30
0.0
 10
26.584
 20
-52.5708
 30
0.0
 10
26.584
 20
-52.5708
 30
0.0
 10
26.584
 20
-52.5708
 30
0.0
 10
26.6148
 20
-49.6773
 30
0.0
 10
26.6148
 20
-49.6773
 30
0.0
 10
26.6148
 20
-49.6773
 30
0.0
 10
29.0047
 20
-48.8963
 30
0.0
 10
30.3071
 20
-47.8723
 30
0.0
 10
31.1057
 20
-45.9852
 30
0.0
 10
31.1057
 20
-45.9852
 30
0.0
 10
31.9042
 20
-47.8723
 30
0.0
 10
33.2066
 20
-48.8963
 30
0.0
 10
35.5965
 20
-49.6773
 30
0.0
 10
35.5965
 20
-49.6773
 30
0.0
 10
35.5965
 20
-49.6773
 30
0.0
 10
35.6273
 20
-52.5708
 30
0.0
 10
35.6273
 20
-52.5708
 30
0.0
 10
35.6273
 20
-52.5708
 30
0.0
 10
35.6273
 20
-52.5708
 30
0.0
 10
38.4665
 20
-52.6032
 30
0.0
 10
38.4665
 20
-52.6032
 30
0.0
 10
38.4665
 20
-52.6032
 30
0.0
 10
39.1322
 20
-54.97
 30
0.0
 10
40.1141
 20
-55.9747
 30
0.0
 10
42.1869
 20
-57.0925
 30
0.0
 10
42.1869
 20
-57.0925
 30
0.0
 10
40.1141
 20
-58.2103
 30
0.0
 10
39.1322
 20
-59.215
 30
0.0
 10
38.4665
 20
-61.5818
 30
0.0
 10
38.4665
 20
-61.5818
 30
0.0
 10
38.4665
 20
-61.5818
 30
0.0
 10
35.6273
 20
-61.6142
 30
0.0
 10
35.6273
 20
-61.6142
 30
0.0
 10
35.6273
 20
-61.6142
 30
0.0
 10
35.6273
 20
-61.6142
 30
0.0
 10
35.5965
 20
-64.5077
 30
0.0
 10
35.5965
 20
-64.5077
 30
0.0
 10
35.5965
 20
-64.5077
 30
0.0
 10
33.2066
 20
-65.2887
 30
0.0
 10
31.9042
 20
-66.3127
 30
0.0
 10
31.1057
 20
-68.1998
 30
0.0
 10
31.1057
 20
-68.1998
 30
0.0
 10
30.3071
 20
-66.3127
 30
0.0
 10
29.0047
 20
-65.2887
 30
0.0
 10
26.6148
 20
-64.5077
 30
0.0
 10
26.6148
 20
-64.5077
 30
0.0
 10
26.6148
 20
-64.5077
 30
0.0
 10
26.584
 20
-61.6142
 30
0.0
 10
26.584
 20
-61.6142
 30
0.0
 10
26.584
 20
-61.6142
 30
0.0
 10
26.584
 20
-61.6142
 30
0.0
 10
23.7448
 20
-61.5818
 30
0.0
 10
23.7448
 20
-61.5818
 30
0.0
 10
23.7448
 20
-61.5818
 30
0.0
 10
23.0792
 20
-59.215
 30
0.0
 10
22.0972
 20
-58.2103
 30
0.0
 10
20.0244
 20
-57.0925
 30
0.0
 10
20.0244
 20
-57.0925
 30
0.0
 10
22.0972
 20
-55.9747
 30
0.0
 10
23.0792
 20
-54.97
 30
0.0
 10
23.7448
 20
-52.6032
 30
0.0
  0
SPLINE
  5
5F
330
1F
100
AcDbEntity
  8
layer 1
 62
     7
100
AcDbSpline
210
0.0
220
0.0
230
1.0
 70
    11
 71
     3
 72
    68
 73
    64
 74
     0
 42
0.0000000001
 43
0.0000000001
 12
1.0
 22
0.0
 32
0.0
 13
1.0
 23
0.0
 33
0.0
 40
0.0
 40
0.0
 40
0.0
 40
0.0
 40
0.0588235294117647
 40
0.0588235294117647
 40
0.0588235294117647
 40
0.0588235294117647
 40
0.1176470588235294
 40
0.1176470588235294
 40
0.1176470588235294
 40
0.1176470588235294
 40
0.1764705882352941
 40
0.1764705882352941
 40
0.1764705882352941
 40
0.1764705882352941
 40
0.2352941176470588
 40
0.2352941176470588
 40
0.2352941176470588
 40
0.2352941176470588
 40
0.2941176470588235
 40
0.2941176470588235
 40
0.2941176470588235
 40
0.2941176470588235
 40
0.3529411764705883
 40
0.3529411764705883
 40
0.3529411764705883
 40
0.3529411764705883
 40
0.4117647058823529
 40
0.4117647058823529
 40
0.4117647058823529
 40
0.4117647058823529
 40
0.4705882352941176
 40
0.4705882352941176
 40
0.4705882352941176
 40
0.4705882352941176
 40
0.5294117647058824
 40
0.5294117647058824
 40
0.5294117647058824
 40
0.5294117647058824
 40
0.5882352941176471
 40
0.5882352941176471
 40
0.5882352941176471
 40
0.5882352941176471
 40
0.6470588235294118
 40
0.6470588235294118
 40
0.6470588235294118
 40
0.6470588235294118
 40
0.7058823529411765
 40
0.7058823529411765
 40
0.7058823529411765
 40
0.7058823529411765
 40
0.7647058823529411
 40
0.7647058823529411
 40
0.7647058823529411
 40
0.7647058823529411
 40
0.8235294117647058
 40
0.8235294117647058
 40
0.8235294117647058
 40
0.8235294117647058
 40
0.8823529411764706
 40
0.8823529411764706
 40
0.8823529411764706
 40
0.8823529411764706
 40
1.0
 40
1.0
 40
1.0
 40
1.0
 10
7.9744
 20
-48.4142
 30
0.0
 10
7.9744
 20
-48.4142
 30
0.0
 10
5.3583
 20
-48.347
 30
0.0
 10
5.3583
 20
-48.347
 30
0.0
 10
5.3583
 20
-48.347
 30
0.0
 10
5.3583
 20
-48.347
 30
0.0
 10
5.3393
 20
-45.7511
 30
0.0
 10
5.3393
 20
-45.7511
 30
0.0
 10
5.3393
 20
-45.7511
 30
0.0
 10
0.7238
 20
-45.7552
 30
0.0
 10
-1.4764
 20
-43.5803
 30
0.0
 10
-1.534
 20
-39.8244
 30
0.0
 10
-1.534
 20
-39.8244
 30
0.0
 10
-1.4764
 20
-36.0686
 30
0.0
 10
0.7238
 20
-33.8936
 30
0.0
 10
5.3393
 20
-33.8977
 30
0.0
 10
5.3393
 20
-33.8977
 30
0.0
 10
5.3393
 20
-33.8977
 30
0.0
 10
5.3583
 20
-31.3018
 30
0.0
 10
5.3583
 20
-31.3018
 30
0.0
 10
5.3583
 20
-31.3018
 30
0.0
 10
5.3583
 20
-31.3018
 30
0.0
 10
7.9744
 20
-31.2346
 30
0.0
 10
7.9744
 20
-31.2346
 30
0.0
 10
7.9744
 20
-31.2346
 30
0.0
 10
7.9363
 20
-28.0228
 30
0.0
 10
9.6321
 20
-24.5559
 30
0.0
 10
13.8168
 20
-24.6353
 30
0.0
 10
13.8168
 20
-24.6353
 30
0.0
 10
18.0015
 20
-24.5559
 30
0.0
 10
19.7822
 20
-28.0228
 30
0.0
 10
19.7441
 20
-31.2346
 30
0.0
 10
19.7441
 20
-31.2346
 30
0.0
 10
19.7441
 20
-31.2346
 30
0.0
 10
22.3602
 20
-31.3018
 30
0.0
 10
22.3602
 20
-31.3018
 30
0.0
 10
22.3602
 20
-31.3018
 30
0.0
 10
22.3602
 20
-31.3018
 30
0.0
 10
22.3792
 20
-33.8977
 30
0.0
 10
22.3792
 20
-33.8977
 30
0.0
 10
22.3792
 20
-33.8977
 30
0.0
 10
26.9947
 20
-33.8936
 30
0.0
 10
29.1949
 20
-36.0686
 30
0.0
 10
29.2525
 20
-39.8244
 30
0.0
 10
29.2525
 20
-39.8244
 30
0.0
 10
29.1949
 20
-43.5803
 30
0.0
 10
26.9947
 20
-45.7552
 30
0.0
 10
22.3792
 20
-45.7511
 30
0.0
 10
22.3792
 20
-45.7511
 30
0.0
 10
22.3792
 20
-45.7511
 30
0.0
 10
22.3602
 20
-48.347
 30
0.0
 10
22.3602
 20
-48.347
 30
0.0
 10
22.3602
 20
-48.347
 30
0.0
 10
22.3602
 20
-48.347
 30
0.0
 10
19.7441
 20
-48.4142
 30
0.0
 10
19.7441
 20
-48.4142
 30
0.0
 10
19.7441
 20
-48.4142
 30
0.0
 10
19.7822
 20
-51.626
 30
0.0
 10
18.0015
 20
-55.0929
 30
0.0
 10
13.8168
 20
-55.0135
 30
0.0
 10
13.8168
 20
-55.0135
 30
0.0
 10
9.6321
 20
-55.0929
 30
0.0
 10
7.9363
 20
-51.626
 30
0.0
 10
7.9744
 20
-48.4142
 30
0.0
  0
SPLINE
  5
60
330
1F
100
AcDbEntity
  8
layer 1
 62
     7
100
AcDbSpline
210
0.0
220
0.0
230
1.0
 70
    11
 71
     3
 72
    68
 73
    64
 74
     0
 42
0.0000000001
 43
0.0000000001
 12
1.0
 22
0.0
 32
0.0
 13
1.0
 23
0.0
 33
0.0
 40
0.0
 40
0.0
 40
0.0
 40
0.0
 40
0.0588235294117647
 40
0.0588235294117647
 40
0.0588235294117647
 40
0.0588235294117647
 40
0.1176470588235294
 40
0.1176470588235294
 40
0.1176470588235294
 40
0.1176470588235294
 40
0.1764705882352941
 40
0.1764705882352941
 40
0.1764705882352941
 40
0.1764705882352941
 40
0.2352941176470588
 40
0.2352941176470588
 40
0.2352941176470588
 40
0.2352941176470588
 40
0.2941176470588235
 40
0.2941176470588235
 40
0.2941176470588235
 40
0.2941176470588235
 40
0.3529411764705883
 40
0.3529411764705883
 40
0.3529411764705883
 40
0.3529411764705883
 40
0.4117647058823529
 40
0.4117647058823529
 40
0.4117647058823529
 40
0.4117647058823529
 40
0.4705882352941176
 40
0.4705882352941176
 40
0.4705882352941176
 40
0.4705882352941176
 40
0.5294117647058824
 40
0.5294117647058824
 40
0.5294117647058824
 40
0.5294117647058824
 40
0.5882352941176471
 40
0.5882352941176471
 40
0.5882352941176471
 40
0.5882352941176471
 40
0.6470588235294118
 40
0.6470588235294118
 40
0.6470588235294118
 40
0.6470588235294118
 40
0.7058823529411765
 40
0.7058823529411765
 40
0.7058823529411765
 40
0.7058823529411765
 40
0.7647058823529411
 40
0.7647058823529411
 40
0.7647058823529411
 40
0.7647058823529411
 40
0.8235294117647058
 40
0.8235294117647058
 40
0.8235294117647058
 40
0.8235294117647058
 40
0.8823529411764706
 40
0.8823529411764706
 40
0.8823529411764706
 40
0.8823529411764706
 40
1.0
 40
1.0
 40
1.0
 40
1.0
 10
-26.834
 20
-48.4142
 30
0.0
 10
-26.834
 20
-48.4142
 30
0.0
 10
-29.4501
 20
-48.347
 30
0.0
 10
-29.4501
 20
-48.347
 30
0.0
 10
-29.4501
 20
-48.347
 30
0.0
 10
-29.4501
 20
-48.347
 30
0.0
 10
-29.4691
 20
-45.7511
 30
0.0
 10
-29.4691
 20
-45.7511
 30
0.0
 10
-29.4691
 20
-45.7511
 30
0.0
 10
-34.0846
 20
-45.7552
 30
0.0
 10
-36.2848
 20
-43.5803
 30
0.0
 10
-36.3424
 20
-39.8244
 30
0.0
 10
-36.3424
 20
-39.8244
 30
0.0
 10
-36.2848
 20
-36.0686
 30
0.0
 10
-34.0846
 20
-33.8936
 30
0.0
 10
-29.4691
 20
-33.8977
 30
0.0
 10
-29.4691
 20
-33.8977
 30
0.0
 10
-29.4691
 20
-33.8977
 30
0.0
 10
-29.4501
 20
-31.3018
 30
0.0
 10
-29.4501
 20
-31.3018
 30
0.0
 10
-29.4501
 20
-31.3018
 30
0.0
 10
-29.4501
 20
-31.3018
 30
0.0
 10
-26.834
 20
-31.2346
 30
0.0
 10
-26.834
 20
-31.2346
 30
0.0
 10
-26.834
 20
-31.2346
 30
0.0
 10
-26.8721
 20
-28.0228
 30
0.0
 10
-25.1763
 20
-24.5559
 30
0.0
 10
-20.9916
 20
-24.6353
 30
0.0
 10
-20.9916
 20
-24.6353
 30
0.0
 10
-16.8069
 20
-24.5559
 30
0.0
 10
-15.0262
 20
-28.0228
 30
0.0
 10
-15.0643
 20
-31.2346
 30
0.0
 10
-15.0643
 20
-31.2346
 30
0.0
 10
-15.0643
 20
-31.2346
 30
0.0
 10
-12.4482
 20
-31.3018
 30
0.0
 10
-12.4482
 20
-31.3018
 30
0.0
 10
-12.4482
 20
-31.3018
 30
0.0
 10
-12.4482
 20
-31.3018
 30
0.0
 10
-12.4292
 20
-33.8977
 30
0.0
 10
-12.4292
 20
-33.8977
 30
0.0
 10
-12.4292
 20
-33.8977
 30
0.0
 10
-7.8137
 20
-33.8936
 30
0.0
 10
-5.6135
 20
-36.0686
 30
0.0
 10
-5.5559
 20
-39.8244
 30
0.0
 10
-5.5559
 20
-39.8244
 30
0.0
 10
-5.6135
 20
-43.5803
 30
0.0
 10
-7.8137
 20
-45.7552
 30
0.0
 10
-12.4292
 20
-45.7511
 30
0.0
 10
-12.4292
 20
-45.7511
 30
0.0
 10
-12.4292
 20
-45.7511
 30
0.0
 10
-12.4482
 20
-48.347
 30
0.0
 10
-12.4482
 20
-48.347
 30
0.0
 10
-12.4482
 20
-48.347
 30
0.0
 10
-12.4482
 20
-48.347
 30
0.0
 10
-15.0643
 20
-48.4142
 30
0.0
 10
-15.0643
 20
-48.4142
 30
0.0
 10
-15.0643
 20
-48.4142
 30
0.0
 10
-15.0262
 20
-51.626
 30
0.0
 10
-16.8069
 20
-55.0929
 30
0.0
 10
-20.9916
 20
-55.0135
 30
0.0
 10
-20.9916
 20
-55.0135
 30
0.0
 10
-25.1763
 20
-55.0929
 30
0.0
 10
-26.8721
 20
-51.626
 30
0.0
 10
-26.834
 20
-48.4142
 30
0.0
  0
SPLINE
  5
61
330
1F
100
AcDbEntity
  8
layer 1
 62
     7
100
AcDbSpline
210
0.0
220
0.0
230
1.0
 70
    11
 71
     3
 72
    68
 73
    64
 74
     0
 42
0.0000000001
 43
0.0000000001
 12
1.0
 22
0.0
 32
0.0
 13
1.0
 23
0.0
 33
0.0
 40
0.0
 40
0.0
 40
0.0
 40
0.0
 40
0.0588235294117647
 40
0.0588235294117647
 40
0.0588235294117647
 40
0.0588235294117647
 40
0.1176470588235294
 40
0.1176470588235294
 40
0.1176470588235294
 40
0.1176470588235294
 40
0.1764705882352941
 40
0.1764705882352941
 40
0.1764705882352941
 40
0.1764705882352941
 40
0.2352941176470588
 40
0.2352941176470588
 40
0.2352941176470588
 40
0.2352941176470588
 40
0.2941176470588235
 40
0.2941176470588235
 40
0.2941176470588235
 40
0.2941176470588235
 40
0.3529411764705883
 40
0.3529411764705883
 40
0.3529411764705883
 40
0.3529411764705883
 40
0.4117647058823529
 40
0.4117647058823529
 40
0.4117647058823529
 40
0.4117647058823529
 40
0.4705882352941176
 40
0.4705882352941176
 40
0.4705882352941176
 40
0.4705882352941176
 40
0.5294117647058824
 40
0.5294117647058824
 40
0.5294117647058824
 40
0.5294117647058824
 40
0.5882352941176471
 40
0.5882352941176471
 40
0.5882352941176471
 40
0.5882352941176471
 40
0.6470588235294118
 40
0.6470588235294118
 40
0.6470588235294118
 40
0.6470588235294118
 40
0.7058823529411765
 40
0.7058823529411765
 40
0.7058823529411765
 40
0.7058823529411765
 40
0.7647058823529411
 40
0.7647058823529411
 40
0.7647058823529411
 40
0.7647058823529411
 40
0.8235294117647058
 40
0.8235294117647058
 40
0.8235294117647058
 40
0.8235294117647058
 40
0.8823529411764706
 40
0.8823529411764706
 40
0.8823529411764706
 40
0.8823529411764706
 40
1.0
 40
1.0
 40
1.0
 40
1.0
 10
-11.0636
 20
-52.6032
 30
0.0
 10
-11.0636
 20
-52.6032
 30
0.0
 10
-8.2244
 20
-52.5708
 30
0.0
 10
-8.2244
 20
-52.5708
 30
0.0
 10
-8.2244
 20
-52.5708
 30
0.0
 10
-8.2244
 20
-52.5708
 30
0.0
 10
-8.1936
 20
-49.6773
 30
0.0
 10
-8.1936
 20
-49.6773
 30
0.0
 10
-8.1936
 20
-49.6773
 30
0.0
 10
-5.8037
 20
-48.8963
 30
0.0
 10
-4.5013
 20
-47.8723
 30
0.0
 10
-3.7027
 20
-45.9852
 30
0.0
 10
-3.7027
 20
-45.9852
 30
0.0
 10
-2.9042
 20
-47.8723
 30
0.0
 10
-1.6018
 20
-48.8963
 30
0.0
 10
0.7881
 20
-49.6773
 30
0.0
 10
0.7881
 20
-49.6773
 30
0.0
 10
0.7881
 20
-49.6773
 30
0.0
 10
0.8189
 20
-52.5708
 30
0.0
 10
0.8189
 20
-52.5708
 30
0.0
 10
0.8189
 20
-52.5708
 30
0.0
 10
0.8189
 20
-52.5708
 30
0.0
 10
3.6581
 20
-52.6032
 30
0.0
 10
3.6581
 20
-52.6032
 30
0.0
 10
3.6581
 20
-52.6032
 30
0.0
 10
4.3238
 20
-54.97
 30
0.0
 10
5.3057
 20
-55.9747
 30
0.0
 10
7.3785
 20
-57.0925
 30
0.0
 10
7.3785
 20
-57.0925
 30
0.0
 10
5.3057
 20
-58.2103
 30
0.0
 10
4.3238
 20
-59.215
 30
0.0
 10
3.6581
 20
-61.5818
 30
0.0
 10
3.6581
 20
-61.5818
 30
0.0
 10
3.6581
 20
-61.5818
 30
0.0
 10
0.8189
 20
-61.6142
 30
0.0
 10
0.8189
 20
-61.6142
 30
0.0
 10
0.8189
 20
-61.6142
 30
0.0
 10
0.8189
 20
-61.6142
 30
0.0
 10
0.7881
 20
-64.5077
 30
0.0
 10
0.7881
 20
-64.5077
 30
0.0
 10
0.7881
 20
-64.5077
 30
0.0
 10
-1.6018
 20
-65.2887
 30
0.0
 10
-2.9042
 20
-66.3127
 30
0.0
 10
-3.7027
 20
-68.1998
 30
0.0
 10
-3.7027
 20
-68.1998
 30
0.0
 10
-4.5013
 20
-66.3127
 30
0.0
 10
-5.8037
 20
-65.2887
 30
0.0
 10
-8.1936
 20
-64.5077
 30
0.0
 10
-8.1936
 20
-64.5077
 30
0.0
 10
-8.1936
 20
-64.5077
 30
0.0
 10
-8.2244
 20
-61.6142
 30
0.0
 10
-8.2244
 20
-61.6142
 30
0.0
 10
-8.2244
 20
-61.6142
 30
0.0
 10
-8.2244
 20
-61.6142
 30
0.0
 10
-11.0636
 20
-61.5818
 30
0.0
 10
-11.0636
 20
-61.5818
 30
0.0
 10
-11.0636
 20
-61.5818
 30
0.0
 10
-11.7292
 20
-59.215
 30
0.0
 10
-12.7112
 20
-58.2103
 30
0.0
 10
-14.784
 20
-57.0925
 30
0.0
 10
-14.784
 20
-57.0925
 30
0.0
 10
-12.7112
 20
-55.9747
 30
0.0
 10
-11.7292
 20
-54.97
 30
0.0
 10
-11.0636
 20
-52.6032
 30
0.0
  0
SPLINE
  5
62
330
1F
100
AcDbEntity
  8
layer 1
 62
     7
100
AcDbSpline
210
0.0
220
0.0
230
1.0
 70
    11
 71
     3
 72
    68
 73
    64
 74
     0
 42
0.0000000001
 43
0.0000000001
 12
1.0
 22
0.0
 32
0.0
 13
1.0
 23
0.0
 33
0.0
 40
0.0
 40
0.0
 40
0.0
 40
0.0
 40
0.0588235294117647
 40
0.0588235294117647
 40
0.0588235294117647
 40
0.0588235294117647
 40
0.1176470588235294
 40
0.1176470588235294
 40
0.1176470588235294
 40
0.1176470588235294
 40
0.1764705882352941
 40
0.1764705882352941
 40
0.1764705882352941
 40
0.1764705882352941
 40
0.2352941176470588
 40
0.2352941176470588
 40
0.2352941176470588
 40
0.2352941176470588
 40
0.2941176470588235
 40
0.2941176470588235
 40
0.2941176470588235
 40
0.2941176470588235
 40
0.3529411764705883
 40
0.3529411764705883
 40
0.3529411764705883
 40
0.3529411764705883
 40
0.4117647058823529
 40
0.4117647058823529
 40
0.4117647058823529
 40
0.4117647058823529
 40
0.4705882352941176
 40
0.4705882352941176
 40
0.4705882352941176
 40
0.4705882352941176
 40
0.5294117647058824
 40
0.5294117647058824
 40
0.5294117647058824
 40
0.5294117647058824
 40
0.5882352941176471
 40
0.5882352941176471
 40
0.5882352941176471
 40
0.5882352941176471
 40
0.6470588235294118
 40
0.6470588235294118
 40
0.6470588235294118
 40
0.6470588235294118
 40
0.7058823529411765
 40
0.7058823529411765
 40
0.7058823529411765
 40
0.7058823529411765
 40
0.7647058823529411
 40
0.7647058823529411
 40
0.7647058823529411
 40
0.7647058823529411
 40
0.8235294117647058
 40
0.8235294117647058
 40
0.8235294117647058
 40
0.8235294117647058
 40
0.8823529411764706
 40
0.8823529411764706
 40
0.8823529411764706
 40
0.8823529411764706
 40
1.0
 40
1.0
 40
1.0
 40
1.0
 10
42.8526
 20
-48.4142
 30
0.0
 10
42.8526
 20
-48.4142
 30
0.0
 10
40.2365
 20
-48.347
 30
0.0
 10
40.2365
 20
-48.347
 30
0.0
 10
40.2365
 20
-48.347
 30
0.0
 10
40.2365
 20
-48.347
 30
0.0
 10
40.2174
 20
-45.7511
 30
0.0
 10
40.2174
 20
-45.7511
 30
0.0
 10
40.2174
 20
-45.7511
 30
0.0
 10
35.6019
 20
-45.7552
 30
0.0
 10
33.4018
 20
-43.5803
 30
0.0
 10
33.3441
 20
-39.8244
 30
0.0
 10
33.3441
 20
-39.8244
 30
0.0
 10
33.4018
 20
-36.0686
 30
0.0
 10
35.6019
 20
-33.8936
 30
0.0
 10
40.2174
 20
-33.8977
 30
0.0
 10
40.2174
 20
-33.8977
 30
0.0
 10
40.2174
 20
-33.8977
 30
0.0
 10
40.2365
 20
-31.3018
 30
0.0
 10
40.2365
 20
-31.3018
 30
0.0
 10
40.2365
 20
-31.3018
 30
0.0
 10
40.2365
 20
-31.3018
 30
0.0
 10
42.8526
 20
-31.2346
 30
0.0
 10
42.8526
 20
-31.2346
 30
0.0
 10
42.8526
 20
-31.2346
 30
0.0
 10
42.8144
 20
-28.0228
 30
0.0
 10
44.5102
 20
-24.5559
 30
0.0
 10
48.6949
 20
-24.6353
 30
0.0
 10
48.6949
 20
-24.6353
 30
0.0
 10
52.8796
 20
-24.5559
 30
0.0
 10
54.6604
 20
-28.0228
 30
0.0
 10
54.6222
 20
-31.2346
 30
0.0
 10
54.6222
 20
-31.2346
 30
0.0
 10
54.6222
 20
-31.2346
 30
0.0
 10
57.2383
 20
-31.3018
 30
0.0
 10
57.2383
 20
-31.3018
 30
0.0
 10
57.2383
 20
-31.3018
 30
0.0
 10
57.2383
 20
-31.3018
 30
0.0
 10
57.2574
 20
-33.8977
 30
0.0
 10
57.2574
 20
-33.8977
 30
0.0
 10
57.2574
 20
-33.8977
 30
0.0
 10
61.8729
 20
-33.8936
 30
0.0
 10
64.073
 20
-36.0686
 30
0.0
 10
64.1306
 20
-39.8244
 30
0.0
 10
64.1306
 20
-39.8244
 30
0.0
 10
64.073
 20
-43.5803
 30
0.0
 10
61.8729
 20
-45.7552
 30
0.0
 10
57.2574
 20
-45.7511
 30
0.0
 10
57.2574
 20
-45.7511
 30
0.0
 10
57.2574
 20
-45.7511
 30
0.0
 10
57.2383
 20
-48.347
 30
0.0
 10
57.2383
 20
-48.347
 30
0.0
 10
57.2383
 20
-48.347
 30
0.0
 10
57.2383
 20
-48.347
 30
0.0
 10
54.6222
 20
-48.4142
 30
0.0
 10
54.6222
 20
-48.4142
 30
0.0
 10
54.6222
 20
-48.4142
 30
0.0
 10
54.6604
 20
-51.626
 30
0.0
 10
52.8796
 20
-55.0929
 30
0.0
 10
48.6949
 20
-55.0135
 30
0.0
 10
48.6949
 20
-55.0135
 30
0.0
 10
44.5102
 20
-55.0929
 30
0.0
 10
42.8144
 20
-51.626
 30
0.0
 10
42.8526
 20
-48.4142
 30
0.0
  0
SPLINE
  5
63
330
1F
100
AcDbEntity
  8
layer 1
 62
     7
100
AcDbSpline
210
0.0
220
0.0
230
1.0
 70
    11
 71
     3
 72
    40
 73
    36
 74
     0
 42
0.0000000001
 43
0.0000000001
 12
1.0
 22
0.0
 32
0.0
 13
1.0
 23
0.0
 33
0.0
 40
0.0
 40
0.0
 40
0.0
 40
0.0
 40
0.1
 40
0.1
 40
0.1
 40
0.1
 40
0.2
 40
0.2
 40
0.2
 40
0.2
 40
0.3
 40
0.3
 40
0.3
 40
0.3
 40
0.4
 40
0.4
 40
0.4
 40
0.4
 40
0.5
 40
0.5
 40
0.5
 40
0.5
 40
0.6
 40
0.6
 40
0.6
 40
0.6
 40
0.7
 40
0.7
 40
0.7
 40
0.7
 40
0.8
 40
0.8
 40
0.8
 40
0.8
 40
1.0
 40
1.0
 40
1.0
 40
1.0
 10
-38.3345
 20
-45.9852
 30
0.0
 10
-37.5359
 20
-47.8723
 30
0.0
 10
-36.2335
 20
-48.8963
 30
0.0
 10
-33.8436
 20
-49.6773
 30
0.0
 10
-33.8436
 20
-49.6773
 30
0.0
 10
-33.8436
 20
-49.6773
 30
0.0
 10
-33.8128
 20
-52.5708
 30
0.0
 10
-33.8128
 20
-52.5708
 30
0.0
 10
-33.8128
 20
-52.5708
 30
0.0
 10
-33.8128
 20
-52.5708
 30
0.0
 10
-30.9736
 20
-52.6032
 30
0.0
 10
-30.9736
 20
-52.6032
 30
0.0
 10
-30.9736
 20
-52.6032
 30
0.0
 10
-30.308
 20
-54.97
 30
0.0
 10
-29.326
 20
-55.9747
 30
0.0
 10
-27.2532
 20
-57.0925
 30
0.0
 10
-27.2532
 20
-57.0925
 30
0.0
 10
-29.326
 20
-58.2103
 30
0.0
 10
-30.308
 20
-59.215
 30
0.0
 10
-30.9736
 20
-61.5818
 30
0.0
 10
-30.9736
 20
-61.5818
 30
0.0
 10
-30.9736
 20
-61.5818
 30
0.0
 10
-33.8128
 20
-61.6142
 30
0.0
 10
-33.8128
 20
-61.6142
 30
0.0
 10
-33.8128
 20
-61.6142
 30
0.0
 10
-33.8128
 20
-61.6142
 30
0.0
 10
-33.8436
 20
-64.5077
 30
0.0
 10
-33.8436
 20
-64.5077
 30
0.0
 10
-33.8436
 20
-64.5077
 30
0.0
 10
-36.2335
 20
-65.2887
 30
0.0
 10
-37.5359
 20
-66.3127
 30
0.0
 10
-38.3345
 20
-68.1998
 30
0.0
 10
-38.3345
 20
-68.1998
 30
0.0
 10
-38.3345
 20
-68.1998
 30
0.0
 10
-38.3345
 20
-45.9852
 30
0.0
 10
-38.3345
 20
-45.9852
 30
0.0
  0
SPLINE
  5
64
330
1F
100
AcDbEntity
  8
layer 1
 62
     7
100
AcDbSpline
210
0.0
220
0.0
230
1.0
 70
    11
 71
     3
 72
    40
 73
    36
 74
     0
 42
0.0000000001
 43
0.0000000001
 12
1.0
 22
0.0
 32
0.0
 13
1.0
 23
0.0
 33
0.0
 40
0.0
 40
0.0
 40
0.0
 40
0.0
 40
0.1
 40
0.1
 40
0.1
 40
0.1
 40
0.2
 40
0.2
 40
0.2
 40
0.2
 40
0.3
 40
0.3
 40
0.3
 40
0.3
 40
0.4
 40
0.4
 40
0.4
 40
0.4
 40
0.5
 40
0.5
 40
0.5
 40
0.5
 40
0.6
 40
0.6
 40
0.6
 40
0.6
 40
0.7
 40
0.7
 40
0.7
 40
0.7
 40
0.8
 40
0.8
 40
0.8
 40
0.8
 40
1.0
 40
1.0
 40
1.0
 40
1.0
 10
58.6341
 20
-52.6032
 30
0.0
 10
58.6341
 20
-52.6032
 30
0.0
 10
61.4733
 20
-52.5708
 30
0.0
 10
61.4733
 20
-52.5708
 30
0.0
 10
61.4733
 20
-52.5708
 30
0.0
 10
61.4733
 20
-52.5708
 30
0.0
 10
61.5041
 20
-49.6773
 30
0.0
 10
61.5041
 20
-49.6773
 30
0.0
 10
61.5041
 20
-49.6773
 30
0.0
 10
63.894
 20
-48.8963
 30
0.0
 10
65.1964
 20
-47.8723
 30
0.0
 10
65.995
 20
-45.9852
 30
0.0
 10
65.995
 20
-45.9852
 30
0.0
 10
65.995
 20
-45.9852
 30
0.0
 10
65.995
 20
-68.1998
 30
0.0
 10
65.995
 20
-68.1998
 30
0.0
 10
65.995
 20
-68.1998
 30
0.0
 10
65.1964
 20
-66.3127
 30
0.0
 10
63.894
 20
-65.2887
 30
0.0
 10
61.5041
 20
-64.5077
 30
0.0
 10
61.5041
 20
-64.5077
 30
0.0
 10
61.5041
 20
-64.5077
 30
0.0
 10
61.4733
 20
-61.6142
 30
0.0
 10
61.4733
 20
-61.6142
 30
0.0
 10
61.4733
 20
-61.6142
 30
0.0
 10
61.4733
 20
-61.6142
 30
0.0
 10
58.6341
 20
-61.5818
 30
0.0
 10
58.6341
 20
-61.5818
 30
0.0
 10
58.6341
 20
-61.5818
 30
0.0
 10
57.9685
 20
-59.215
 30
0.0
 10
56.9865
 20
-58.2103
 30
0.0
 10
54.9137
 20
-57.0925
 30
0.0
 10
54.9137
 20
-57.0925
 30
0.0
 10
56.9865
 20
-55.9747
 30
0.0
 10
57.9685
 20
-54.97
 30
0.0
 10
58.6341
 20
-52.6032
 30
0.0
  0
SPLINE
  5
65
330
1F
100
AcDbEntity
  8
layer 1
 62
     7
100
AcDbSpline
210
0.0
220
0.0
230
1.0
 70
    11
 71
     3
 72
    68
 73
    64
 74
     0
 42
0.0000000001
 43
0.0000000001
 12
1.0
 22
0.0
 32
0.0
 13
1.0
 23
0.0
 33
0.0
 40
0.0
 40
0.0
 40
0.0
 40
0.0
 40
0.0588235294117647
 40
0.0588235294117647
 40
0.0588235294117647
 40
0.0588235294117647
 40
0.1176470588235294
 40
0.1176470588235294
 40
0.1176470588235294
 40
0.1176470588235294
 40
0.1764705882352941
 40
0.1764705882352941
 40
0.1764705882352941
 40
0.1764705882352941
 40
0.2352941176470588
 40
0.2352941176470588
 40
0.2352941176470588
 40
0.2352941176470588
 40
0.2941176470588235
 40
0.2941176470588235
 40
0.2941176470588235
 40
0.2941176470588235
 40
0.3529411764705883
 40
0.3529411764705883
 40
0.3529411764705883
 40
0.3529411764705883
 40
0.4117647058823529
 40
0.4117647058823529
 40
0.4117647058823529
 40
0.4117647058823529
 40
0.4705882352941176
 40
0.4705882352941176
 40
0.4705882352941176
 40
0.4705882352941176
 40
0.5294117647058824
 40
0.5294117647058824
 40
0.5294117647058824
 40
0.5294117647058824
 40
0.5882352941176471
 40
0.5882352941176471
 40
0.5882352941176471
 40
0.5882352941176471
 40
0.6470588235294118
 40
0.6470588235294118
 40
0.6470588235294118
 40
0.6470588235294118
 40
0.7058823529411765
 40
0.7058823529411765
 40
0.7058823529411765
 40
0.7058823529411765
 40
0.7647058823529411
 40
0.7647058823529411
 40
0.7647058823529411
 40
0.7647058823529411
 40
0.8235294117647058
 40
0.8235294117647058
 40
0.8235294117647058
 40
0.8235294117647058
 40
0.8823529411764706
 40
0.8823529411764706
 40
0.8823529411764706
 40
0.8823529411764706
 40
1.0
 40
1.0
 40
1.0
 40
1.0
 10
23.7448
 20
-52.488
 30
0.0
 10
23.7448
 20
-52.488
 30
0.0
 10
26.584
 20
-52.4556
 30
0.0
 10
26.584
 20
-52.4556
 30
0.0
 10
26.584
 20
-52.4556
 30
0.0
 10
26.584
 20
-52.4556
 30
0.0
 10
26.6148
 20
-49.5621
 30
0.0
 10
26.6148
 20
-49.5621
 30
0.0
 10
26.6148
 20
-49.5621
 30
0.0
 10
29.0047
 20
-48.7811
 30
0.0
 10
30.3071
 20
-47.7571
 30
0.0
 10
31.1057
 20
-45.87
 30
0.0
 10
31.1057
 20
-45.87
 30
0.0
 10
31.9042
 20
-47.7571
 30
0.0
 10
33.2066
 20
-48.7811
 30
0.0
 10
35.5965
 20
-49.5621
 30
0.0
 10
35.5965
 20
-49.5621
 30
0.0
 10
35.5965
 20
-49.5621
 30
0.0
 10
35.6273
 20
-52.4556
 30
0.0
 10
35.6273
 20
-52.4556
 30
0.0
 10
35.6273
 20
-52.4556
 30
0.0
 10
35.6273
 20
-52.4556
 30
0.0
 10
38.4665
 20
-52.488
 30
0.0
 10
38.4665
 20
-52.488
 30
0.0
 10
38.4665
 20
-52.488
 30
0.0
 10
39.1322
 20
-54.8548
 30
0.0
 10
40.1141
 20
-55.8595
 30
0.0
 10
42.1869
 20
-56.9773
 30
0.0
 10
42.1869
 20
-56.9773
 30
0.0
 10
40.1141
 20
-58.0951
 30
0.0
 10
39.1322
 20
-59.0998
 30
0.0
 10
38.4665
 20
-61.4666
 30
0.0
 10
38.4665
 20
-61.4666
 30
0.0
 10
38.4665
 20
-61.4666
 30
0.0
 10
35.6273
 20
-61.499
 30
0.0
 10
35.6273
 20
-61.499
 30
0.0
 10
35.6273
 20
-61.499
 30
0.0
 10
35.6273
 20
-61.499
 30
0.0
 10
35.5965
 20
-64.3925
 30
0.0
 10
35.5965
 20
-64.3925
 30
0.0
 10
35.5965
 20
-64.3925
 30
0.0
 10
33.2066
 20
-65.1735
 30
0.0
 10
31.9042
 20
-66.1975
 30
0.0
 10
31.1057
 20
-68.0846
 30
0.0
 10
31.1057
 20
-68.0846
 30
0.0
 10
30.3071
 20
-66.1975
 30
0.0
 10
29.0047
 20
-65.1735
 30
0.0
 10
26.6148
 20
-64.3925
 30
0.0
 10
26.6148
 20
-64.3925
 30
0.0
 10
26.6148
 20
-64.3925
 30
0.0
 10
26.584
 20
-61.499
 30
0.0
 10
26.584
 20
-61.499
 30
0.0
 10
26.584
 20
-61.499
 30
0.0
 10
26.584
 20
-61.499
 30
0.0
 10
23.7448
 20
-61.4666
 30
0.0
 10
23.7448
 20
-61.4666
 30
0.0
 10
23.7448
 20
-61.4666
 30
0.0
 10
23.0792
 20
-59.0998
 30
0.0
 10
22.0972
 20
-58.0951
 30
0.0
 10
20.0244
 20
-56.9773
 30
0.0
 10
20.0244
 20
-56.9773
 30
0.0
 10
22.0972
 20
-55.8595
 30
0.0
 10
23.0792
 20
-54.8548
 30
0.0
 10
23.7448
 20
-52.488
 30
0.0
  0
SPLINE
  5
66
330
1F
100
AcDbEntity
  8
layer 1
 62
     7
100
AcDbSpline
210
0.0
220
0.0
230
1.0
 70
    11
 71
     3
 72
    68
 73
    64
 74
     0
 42
0.0000000001
 43
0.0000000001
 12
1.0
 22
0.0
 32
0.0
 13
1.0
 23
0.0
 33
0.0
 40
0.0
 40
0.0
 40
0.0
 40
0.0
 40
0.0588235294117647
 40
0.0588235294117647
 40
0.0588235294117647
 40
0.0588235294117647
 40
0.1176470588235294
 40
0.1176470588235294
 40
0.1176470588235294
 40
0.1176470588235294
 40
0.1764705882352941
 40
0.1764705882352941
 40
0.1764705882352941
 40
0.1764705882352941
 40
0.2352941176470588
 40
0.2352941176470588
 40
0.2352941176470588
 40
0.2352941176470588
 40
0.2941176470588235
 40
0.2941176470588235
 40
0.2941176470588235
 40
0.2941176470588235
 40
0.3529411764705883
 40
0.3529411764705883
 40
0.3529411764705883
 40
0.3529411764705883
 40
0.4117647058823529
 40
0.4117647058823529
 40
0.4117647058823529
 40
0.4117647058823529
 40
0.4705882352941176
 40
0.4705882352941176
 40
0.4705882352941176
 40
0.4705882352941176
 40
0.5294117647058824
 40
0.5294117647058824
 40
0.5294117647058824
 40
0.5294117647058824
 40
0.5882352941176471
 40
0.5882352941176471
 40
0.5882352941176471
 40
0.5882352941176471
 40
0.6470588235294118
 40
0.6470588235294118
 40
0.6470588235294118
 40
0.6470588235294118
 40
0.7058823529411765
 40
0.7058823529411765
 40
0.7058823529411765
 40
0.7058823529411765
 40
0.7647058823529411
 40
0.7647058823529411
 40
0.7647058823529411
 40
0.7647058823529411
 40
0.8235294117647058
 40
0.8235294117647058
 40
0.8235294117647058
 40
0.8235294117647058
 40
0.8823529411764706
 40
0.8823529411764706
 40
0.8823529411764706
 40
0.8823529411764706
 40
1.0
 40
1.0
 40
1.0
 40
1.0
 10
7.9744
 20
-48.299
 30
0.0
 10
7.9744
 20
-48.299
 30
0.0
 10
5.3583
 20
-48.2318
 30
0.0
 10
5.3583
 20
-48.2318
 30
0.0
 10
5.3583
 20
-48.2318
 30
0.0
 10
5.3583
 20
-48.2318
 30
0.0
 10
5.3393
 20
-45.6359
 30
0.0
 10
5.3393
 20
-45.6359
 30
0.0
 10
5.3393
 20
-45.6359
 30
0.0
 10
0.7238
 20
-45.64
 30
0.0
 10
-1.4764
 20
-43.4651
 30
0.0
 10
-1.534
 20
-39.7092
 30
0.0
 10
-1.534
 20
-39.7092
 30
0.0
 10
-1.4764
 20
-35.9533
 30
0.0
 10
0.7238
 20
-33.7784
 30
0.0
 10
5.3393
 20
-33.7825
 30
0.0
 10
5.3393
 20
-33.7825
 30
0.0
 10
5.3393
 20
-33.7825
 30
0.0
 10
5.3583
 20
-31.1866
 30
0.0
 10
5.3583
 20
-31.1866
 30
0.0
 10
5.3583
 20
-31.1866
 30
0.0
 10
5.3583
 20
-31.1866
 30
0.0
 10
7.9744
 20
-31.1194
 30
0.0
 10
7.9744
 20
-31.1194
 30
0.0
 10
7.9744
 20
-31.1194
 30
0.0
 10
7.9363
 20
-27.9076
 30
0.0
 10
9.6321
 20
-24.4407
 30
0.0
 10
13.8168
 20
-24.5201
 30
0.0
 10
13.8168
 20
-24.5201
 30
0.0
 10
18.0015
 20
-24.4407
 30
0.0
 10
19.7822
 20
-27.9076
 30
0.0
 10
19.7441
 20
-31.1194
 30
0.0
 10
19.7441
 20
-31.1194
 30
0.0
 10
19.7441
 20
-31.1194
 30
0.0
 10
22.3602
 20
-31.1866
 30
0.0
 10
22.3602
 20
-31.1866
 30
0.0
 10
22.3602
 20
-31.1866
 30
0.0
 10
22.3602
 20
-31.1866
 30
0.0
 10
22.3792
 20
-33.7825
 30
0.0
 10
22.3792
 20
-33.7825
 30
0.0
 10
22.3792
 20
-33.7825
 30
0.0
 10
26.9947
 20
-33.7784
 30
0.0
 10
29.1949
 20
-35.9533
 30
0.0
 10
29.2525
 20
-39.7092
 30
0.0
 10
29.2525
 20
-39.7092
 30
0.0
 10
29.1949
 20
-43.4651
 30
0.0
 10
26.9947
 20
-45.64
 30
0.0
 10
22.3792
 20
-45.6359
 30
0.0
 10
22.3792
 20
-45.6359
 30
0.0
 10
22.3792
 20
-45.6359
 30
0.0
 10
22.3602
 20
-48.2318
 30
0.0
 10
22.3602
 20
-48.2318
 30
0.0
 10
22.3602
 20
-48.2318
 30
0.0
 10
22.3602
 20
-48.2318
 30
0.0
 10
19.7441
 20
-48.299
 30
0.0
 10
19.7441
 20
-48.299
 30
0.0
 10
19.7441
 20
-48.299
 30
0.0
 10
19.7822
 20
-51.5108
 30
0.0
 10
18.0015
 20
-54.9777
 30
0.0
 10
13.8168
 20
-54.8983
 30
0.0
 10
13.8168
 20
-54.8983
 30
0.0
 10
9.6321
 20
-54.9777
 30
0.0
 10
7.9363
 20
-51.5108
 30
0.0
 10
7.9744
 20
-48.299
 30
0.0
  0
SPLINE
  5
67
330
1F
100
AcDbEntity
  8
layer 1
 62
     7
100
AcDbSpline
210
0.0
220
0.0
230
1.0
 70
    11
 71
     3
 72
    68
 73
    64
 74
     0
 42
0.0000000001
 43
0.0000000001
 12
1.0
 22
0.0
 32
0.0
 13
1.0
 23
0.0
 33
0.0
 40
0.0
 40
0.0
 40
0.0
 40
0.0
 40
0.0588235294117647
 40
0.0588235294117647
 40
0.0588235294117647
 40
0.0588235294117647
 40
0.1176470588235294
 40
0.1176470588235294
 40
0.1176470588235294
 40
0.1176470588235294
 40
0.1764705882352941
 40
0.1764705882352941
 40
0.1764705882352941
 40
0.1764705882352941
 40
0.2352941176470588
 40
0.2352941176470588
 40
0.2352941176470588
 40
0.2352941176470588
 40
0.2941176470588235
 40
0.2941176470588235
 40
0.2941176470588235
 40
0.2941176470588235
 40
0.3529411764705883
 40
0.3529411764705883
 40
0.3529411764705883
 40
0.3529411764705883
 40
0.4117647058823529
 40
0.4117647058823529
 40
0.4117647058823529
 40
0.4117647058823529
 40
0.4705882352941176
 40
0.4705882352941176
 40
0.4705882352941176
 40
0.4705882352941176
 40
0.5294117647058824
 40
0.5294117647058824
 40
0.5294117647058824
 40
0.5294117647058824
 40
0.5882352941176471
 40
0.5882352941176471
 40
0.5882352941176471
 40
0.5882352941176471
 40
0.6470588235294118
 40
0.6470588235294118
 40
0.6470588235294118
 40
0.6470588235294118
 40
0.7058823529411765
 40
0.7058823529411765
 40
0.7058823529411765
 40
0.7058823529411765
 40
0.7647058823529411
 40
0.7647058823529411
 40
0.7647058823529411
 40
0.7647058823529411
 40
0.8235294117647058
 40
0.8235294117647058
 40
0.8235294117647058
 40
0.8235294117647058
 40
0.8823529411764706
 40
0.8823529411764706
 40
0.8823529411764706
 40
0.8823529411764706
 40
1.0
 40
1.0
 40
1.0
 40
1.0
 10
-26.834
 20
-48.299
 30
0.0
 10
-26.834
 20
-48.299
 30
0.0
 10
-29.4501
 20
-48.2318
 30
0.0
 10
-29.4501
 20
-48.2318
 30
0.0
 10
-29.4501
 20
-48.2318
 30
0.0
 10
-29.4501
 20
-48.2318
 30
0.0
 10
-29.4691
 20
-45.6359
 30
0.0
 10
-29.4691
 20
-45.6359
 30
0.0
 10
-29.4691
 20
-45.6359
 30
0.0
 10
-34.0846
 20
-45.64
 30
0.0
 10
-36.2848
 20
-43.4651
 30
0.0
 10
-36.3424
 20
-39.7092
 30
0.0
 10
-36.3424
 20
-39.7092
 30
0.0
 10
-36.2848
 20
-35.9533
 30
0.0
 10
-34.0846
 20
-33.7784
 30
0.0
 10
-29.4691
 20
-33.7825
 30
0.0
 10
-29.4691
 20
-33.7825
 30
0.0
 10
-29.4691
 20
-33.7825
 30
0.0
 10
-29.4501
 20
-31.1866
 30
0.0
 10
-29.4501
 20
-31.1866
 30
0.0
 10
-29.4501
 20
-31.1866
 30
0.0
 10
-29.4501
 20
-31.1866
 30
0.0
 10
-26.834
 20
-31.1194
 30
0.0
 10
-26.834
 20
-31.1194
 30
0.0
 10
-26.834
 20
-31.1194
 30
0.0
 10
-26.8721
 20
-27.9076
 30
0.0
 10
-25.1763
 20
-24.4407
 30
0.0
 10
-20.9916
 20
-24.5201
 30
0.0
 10
-20.9916
 20
-24.5201
 30
0.0
 10
-16.8069
 20
-24.4407
 30
0.0
 10
-15.0262
 20
-27.9076
 30
0.0
 10
-15.0643
 20
-31.1194
 30
0.0
 10
-15.0643
 20
-31.1194
 30
0.0
 10
-15.0643
 20
-31.1194
 30
0.0
 10
-12.4482
 20
-31.1866
 30
0.0
 10
-12.4482
 20
-31.1866
 30
0.0
 10
-12.4482
 20
-31.1866
 30
0.0
 10
-12.4482
 20
-31.1866
 30
0.0
 10
-12.4292
 20
-33.7825
 30
0.0
 10
-12.4292
 20
-33.7825
 30
0.0
 10
-12.4292
 20
-33.7825
 30
0.0
 10
-7.8137
 20
-33.7784
 30
0.0
 10
-5.6135
 20
-35.9533
 30
0.0
 10
-5.5559
 20
-39.7092
 30
0.0
 10
-5.5559
 20
-39.7092
 30
0.0
 10
-5.6135
 20
-43.4651
 30
0.0
 10
-7.8137
 20
-45.64
 30
0.0
 10
-12.4292
 20
-45.6359
 30
0.0
 10
-12.4292
 20
-45.6359
 30
0.0
 10
-12.4292
 20
-45.6359
 30
0.0
 10
-12.4482
 20
-48.2318
 30
0.0
 10
-12.4482
 20
-48.2318
 30
0.0
 10
-12.4482
 20
-48.2318
 30
0.0
 10
-12.4482
 20
-48.2318
 30
0.0
 10
-15.0643
 20
-48.299
 30
0.0
 10
-15.0643
 20
-48.299
 30
0.0
 10
-15.0643
 20
-48.299
 30
0.0
 10
-15.0262
 20
-51.5108
 30
0.0
 10
-16.8069
 20
-54.9777
 30
0.0
 10
-20.9916
 20
-54.8983
 30
0.0
 10
-20.9916
 20
-54.8983
 30
0.0
 10
-25.1763
 20
-54.9777
 30
0.0
 10
-26.8721
 20
-51.5108
 30
0.0
 10
-26.834
 20
-48.299
 30
0.0
  0
SPLINE
  5
68
330
1F
100
AcDbEntity
  8
layer 1
 62
     7
100
AcDbSpline
210
0.0
220
0.0
230
1.0
 70
    11
 71
     3
 72
    68
 73
    64
 74
     0
 42
0.0000000001
 43
0.0000000001
 12
1.0
 22
0.0
 32
0.0
 13
1.0
 23
0.0
 33
0.0
 40
0.0
 40
0.0
 40
0.0
 40
0.0
 40
0.0588235294117647
 40
0.0588235294117647
 40
0.0588235294117647
 40
0.0588235294117647
 40
0.1176470588235294
 40
0.1176470588235294
 40
0.1176470588235294
 40
0.1176470588235294
 40
0.1764705882352941
 40
0.1764705882352941
 40
0.1764705882352941
 40
0.1764705882352941
 40
0.2352941176470588
 40
0.2352941176470588
 40
0.2352941176470588
 40
0.2352941176470588
 40
0.2941176470588235
 40
0.2941176470588235
 40
0.2941176470588235
 40
0.2941176470588235
 40
0.3529411764705883
 40
0.3529411764705883
 40
0.3529411764705883
 40
0.3529411764705883
 40
0.4117647058823529
 40
0.4117647058823529
 40
0.4117647058823529
 40
0.4117647058823529
 40
0.4705882352941176
 40
0.4705882352941176
 40
0.4705882352941176
 40
0.4705882352941176
 40
0.5294117647058824
 40
0.5294117647058824
 40
0.5294117647058824
 40
0.5294117647058824
 40
0.5882352941176471
 40
0.5882352941176471
 40
0.5882352941176471
 40
0.5882352941176471
 40
0.6470588235294118
 40
0.6470588235294118
 40
0.6470588235294118
 40
0.6470588235294118
 40
0.7058823529411765
 40
0.7058823529411765
 40
0.7058823529411765
 40
0.7058823529411765
 40
0.7647058823529411
 40
0.7647058823529411
 40
0.7647058823529411
 40
0.7647058823529411
 40
0.8235294117647058
 40
0.8235294117647058
 40
0.8235294117647058
 40
0.8235294117647058
 40
0.8823529411764706
 40
0.8823529411764706
 40
0.8823529411764706
 40
0.8823529411764706
 40
1.0
 40
1.0
 40
1.0
 40
1.0
 10
-11.0636
 20
-52.488
 30
0.0
 10
-11.0636
 20
-52.488
 30
0.0
 10
-8.2244
 20
-52.4556
 30
0.0
 10
-8.2244
 20
-52.4556
 30
0.0
 10
-8.2244
 20
-52.4556
 30
0.0
 10
-8.2244
 20
-52.4556
 30
0.0
 10
-8.1936
 20
-49.5621
 30
0.0
 10
-8.1936
 20
-49.5621
 30
0.0
 10
-8.1936
 20
-49.5621
 30
0.0
 10
-5.8037
 20
-48.7811
 30
0.0
 10
-4.5013
 20
-47.7571
 30
0.0
 10
-3.7027
 20
-45.87
 30
0.0
 10
-3.7027
 20
-45.87
 30
0.0
 10
-2.9042
 20
-47.7571
 30
0.0
 10
-1.6018
 20
-48.7811
 30
0.0
 10
0.7881
 20
-49.5621
 30
0.0
 10
0.7881
 20
-49.5621
 30
0.0
 10
0.7881
 20
-49.5621
 30
0.0
 10
0.8189
 20
-52.4556
 30
0.0
 10
0.8189
 20
-52.4556
 30
0.0
 10
0.8189
 20
-52.4556
 30
0.0
 10
0.8189
 20
-52.4556
 30
0.0
 10
3.6581
 20
-52.488
 30
0.0
 10
3.6581
 20
-52.488
 30
0.0
 10
3.6581
 20
-52.488
 30
0.0
 10
4.3238
 20
-54.8548
 30
0.0
 10
5.3057
 20
-55.8595
 30
0.0
 10
7.3785
 20
-56.9773
 30
0.0
 10
7.3785
 20
-56.9773
 30
0.0
 10
5.3057
 20
-58.0951
 30
0.0
 10
4.3238
 20
-59.0998
 30
0.0
 10
3.6581
 20
-61.4666
 30
0.0
 10
3.6581
 20
-61.4666
 30
0.0
 10
3.6581
 20
-61.4666
 30
0.0
 10
0.8189
 20
-61.499
 30
0.0
 10
0.8189
 20
-61.499
 30
0.0
 10
0.8189
 20
-61.499
 30
0.0
 10
0.8189
 20
-61.499
 30
0.0
 10
0.7881
 20
-64.3925
 30
0.0
 10
0.7881
 20
-64.3925
 30
0.0
 10
0.7881
 20
-64.3925
 30
0.0
 10
-1.6018
 20
-65.1735
 30
0.0
 10
-2.9042
 20
-66.1975
 30
0.0
 10
-3.7027
 20
-68.0846
 30
0.0
 10
-3.7027
 20
-68.0846
 30
0.0
 10
-4.5013
 20
-66.1975
 30
0.0
 10
-5.8037
 20
-65.1735
 30
0.0
 10
-8.1936
 20
-64.3925
 30
0.0
 10
-8.1936
 20
-64.3925
 30
0.0
 10
-8.1936
 20
-64.3925
 30
0.0
 10
-8.2244
 20
-61.499
 30
0.0
 10
-8.2244
 20
-61.499
 30
0.0
 10
-8.2244
 20
-61.499
 30
0.0
 10
-8.2244
 20
-61.499
 30
0.0
 10
-11.0636
 20
-61.4666
 30
0.0
 10
-11.0636
 20
-61.4666
 30
0.0
 10
-11.0636
 20
-61.4666
 30
0.0
 10
-11.7292
 20
-59.0998
 30
0.0
 10
-12.7112
 20
-58.0951
 30
0.0
 10
-14.784
 20
-56.9773
 30
0.0
 10
-14.784
 20
-56.9773
 30
0.0
 10
-12.7112
 20
-55.8595
 30
0.0
 10
-11.7292
 20
-54.8548
 30
0.0
 10
-11.0636
 20
-52.488
 30
0.0
  0
SPLINE
  5
69
330
1F
100
AcDbEntity
  8
layer 1
 62
     7
100
AcDbSpline
210
0.0
220
0.0
230
1.0
 70
    11
 71
     3
 72
    68
 73
    64
 74
     0
 42
0.0000000001
 43
0.0000000001
 12
1.0
 22
0.0
 32
0.0
 13
1.0
 23
0.0
 33
0.0
 40
0.0
 40
0.0
 40
0.0
 40
0.0
 40
0.0588235294117647
 40
0.0588235294117647
 40
0.0588235294117647
 40
0.0588235294117647
 40
0.1176470588235294
 40
0.1176470588235294
 40
0.1176470588235294
 40
0.1176470588235294
 40
0.1764705882352941
 40
0.1764705882352941
 40
0.1764705882352941
 40
0.1764705882352941
 40
0.2352941176470588
 40
0.2352941176470588
 40
0.2352941176470588
 40
0.2352941176470588
 40
0.2941176470588235
 40
0.2941176470588235
 40
0.2941176470588235
 40
0.2941176470588235
 40
0.3529411764705883
 40
0.3529411764705883
 40
0.3529411764705883
 40
0.3529411764705883
 40
0.4117647058823529
 40
0.4117647058823529
 40
0.4117647058823529
 40
0.4117647058823529
 40
0.4705882352941176
 40
0.4705882352941176
 40
0.4705882352941176
 40
0.4705882352941176
 40
0.5294117647058824
 40
0.5294117647058824
 40
0.5294117647058824
 40
0.5294117647058824
 40
0.5882352941176471
 40
0.5882352941176471
 40
0.5882352941176471
 40
0.5882352941176471
 40
0.6470588235294118
 40
0.6470588235294118
 40
0.6470588235294118
 40
0.6470588235294118
 40
0.7058823529411765
 40
0.7058823529411765
 40
0.7058823529411765
 40
0.7058823529411765
 40
0.7647058823529411
 40
0.7647058823529411
 40
0.7647058823529411
 40
0.7647058823529411
 40
0.8235294117647058
 40
0.8235294117647058
 40
0.8235294117647058
 40
0.8235294117647058
 40
0.8823529411764706
 40
0.8823529411764706
 40
0.8823529411764706
 40
0.8823529411764706
 40
1.0
 40
1.0
 40
1.0
 40
1.0
 10
42.8526
 20
-48.299
 30
0.0
 10
42.8526
 20
-48.299
 30
0.0
 10
40.2365
 20
-48.2318
 30
0.0
 10
40.2365
 20
-48.2318
 30
0.0
 10
40.2365
 20
-48.2318
 30
0.0
 10
40.2365
 20
-48.2318
 30
0.0
 10
40.2174
 20
-45.6359
 30
0.0
 10
40.2174
 20
-45.6359
 30
0.0
 10
40.2174
 20
-45.6359
 30
0.0
 10
35.6019
 20
-45.64
 30
0.0
 10
33.4018
 20
-43.4651
 30
0.0
 10
33.3441
 20
-39.7092
 30
0.0
 10
33.3441
 20
-39.7092
 30
0.0
 10
33.4018
 20
-35.9533
 30
0.0
 10
35.6019
 20
-33.7784
 30
0.0
 10
40.2174
 20
-33.7825
 30
0.0
 10
40.2174
 20
-33.7825
 30
0.0
 10
40.2174
 20
-33.7825
 30
0.0
 10
40.2365
 20
-31.1866
 30
0.0
 10
40.2365
 20
-31.1866
 30
0.0
 10
40.2365
 20
-31.1866
 30
0.0
 10
40.2365
 20
-31.1866
 30
0.0
 10
42.8526
 20
-31.1194
 30
0.0
 10
42.8526
 20
-31.1194
 30
0.0
 10
42.8526
 20
-31.1194
 30
0.0
 10
42.8144
 20
-27.9076
 30
0.0
 10
44.5102
 20
-24.4407
 30
0.0
 10
48.6949
 20
-24.5201
 30
0.0
 10
48.6949
 20
-24.5201
 30
0.0
 10
52.8796
 20
-24.4407
 30
0.0
 10
54.6604
 20
-27.9076
 30
0.0
 10
54.6222
 20
-31.1194
 30
0.0
 10
54.6222
 20
-31.1194
 30
0.0
 10
54.6222
 20
-31.1194
 30
0.0
 10
57.2383
 20
-31.1866
 30
0.0
 10
57.2383
 20
-31.1866
 30
0.0
 10
57.2383
 20
-31.1866
 30
0.0
 10
57.2383
 20
-31.1866
 30
0.0
 10
57.2574
 20
-33.7825
 30
0.0
 10
57.2574
 20
-33.7825
 30
0.0
 10
57.2574
 20
-33.7825
 30
0.0
 10
61.8729
 20
-33.7784
 30
0.0
 10
64.073
 20
-35.9533
 30
0.0
 10
64.1306
 20
-39.7092
 30
0.0
 10
64.1306
 20
-39.7092
 30
0.0
 10
64.073
 20
-43.4651
 30
0.0
 10
61.8729
 20
-45.64
 30
0.0
 10
57.2574
 20
-45.6359
 30
0.0
 10
57.2574
 20
-45.6359
 30
0.0
 10
57.2574
 20
-45.6359
 30
0.0
 10
57.2383
 20
-48.2318
 30
0.0
 10
57.2383
 20
-48.2318
 30
0.0
 10
57.2383
 20
-48.2318
 30
0.0
 10
57.2383
 20
-48.2318
 30
0.0
 10
54.6222
 20
-48.299
 30
0.0
 10
54.6222
 20
-48.299
 30
0.0
 10
54.6222
 20
-48.299
 30
0.0
 10
54.6604
 20
-51.5108
 30
0.0
 10
52.8796
 20
-54.9777
 30
0.0
 10
48.6949
 20
-54.8983
 30
0.0
 10
48.6949
 20
-54.8983
 30
0.0
 10
44.5102
 20
-54.9777
 30
0.0
 10
42.8144
 20
-51.5108
 30
0.0
 10
42.8526
 20
-48.299
 30
0.0
  0
SPLINE
  5
6A
330
1F
100
AcDbEntity
  8
layer 1
 62
     7
100
AcDbSpline
210
0.0
220
0.0
230
1.0
 70
    11
 71
     3
 72
    40
 73
    36
 74
     0
 42
0.0000000001
 43
0.0000000001
 12
1.0
 22
0.0
 32
0.0
 13
1.0
 23
0.0
 33
0.0
 40
0.0
 40
0.0
 40
0.0
 40
0.0
 40
0.1
 40
0.1
 40
0.1
 40
0.1
 40
0.2
 40
0.2
 40
0.2
 40
0.2
 40
0.3
 40
0.3
 40
0.3
 40
0.3
 40
0.4
 40
0.4
 40
0.4
 40
0.4
 40
0.5
 40
0.5
 40
0.5
 40
0.5
 40
0.6
 40
0.6
 40
0.6
 40
0.6
 40
0.7
 40
0.7
 40
0.7
 40
0.7
 40
0.8
 40
0.8
 40
0.8
 40
0.8
 40
1.0
 40
1.0
 40
1.0
 40
1.0
 10
-38.3345
 20
-45.87
 30
0.0
 10
-37.5359
 20
-47.7571
 30
0.0
 10
-36.2335
 20
-48.7811
 30
0.0
 10
-33.8436
 20
-49.5621
 30
0.0
 10
-33.8436
 20
-49.5621
 30
0.0
 10
-33.8436
 20
-49.5621
 30
0.0
 10
-33.8128
 20
-52.4556
 30
0.0
 10
-33.8128
 20
-52.4556
 30
0.0
 10
-33.8128
 20
-52.4556
 30
0.0
 10
-33.8128
 20
-52.4556
 30
0.0
 10
-30.9736
 20
-52.488
 30
0.0
 10
-30.9736
 20
-52.488
 30
0.0
 10
-30.9736
 20
-52.488
 30
0.0
 10
-30.308
 20
-54.8548
 30
0.0
 10
-29.326
 20
-55.8595
 30
0.0
 10
-27.2532
 20
-56.9773
 30
0.0
 10
-27.2532
 20
-56.9773
 30
0.0
 10
-29.326
 20
-58.0951
 30
0.0
 10
-30.308
 20
-59.0998
 30
0.0
 10
-30.9736
 20
-61.4666
 30
0.0
 10
-30.9736
 20
-61.4666
 30
0.0
 10
-30.9736
 20
-61.4666
 30
0.0
 10
-33.8128
 20
-61.499
 30
0.0
 10
-33.8128
 20
-61.499
 30
0.0
 10
-33.8128
 20
-61.499
 30
0.0
 10
-33.8128
 20
-61.499
 30
0.0
 10
-33.8436
 20
-64.3925
 30
0.0
 10
-33.8436
 20
-64.3925
 30
0.0
 10
-33.8436
 20
-64.3925
 30
0.0
 10
-36.2335
 20
-65.1735
 30
0.0
 10
-37.5359
 20
-66.1975
 30
0.0
 10
-38.3345
 20
-68.0846
 30
0.0
 10
-38.3345
 20
-68.0846
 30
0.0
 10
-38.3345
 20
-68.0846
 30
0.0
 10
-38.3345
 20
-45.87
 30
0.0
 10
-38.3345
 20
-45.87
 30
0.0
  0
SPLINE
  5
6B
330
1F
100
AcDbEntity
  8
layer 1
 62
     7
100
AcDbSpline
210
0.0
220
0.0
230
1.0
 70
    11
 71
     3
 72
    40
 73
    36
 74
     0
 42
0.0000000001
 43
0.0000000001
 12
1.0
 22
0.0
 32
0.0
 13
1.0
 23
0.0
 33
0.0
 40
0.0
 40
0.0
 40
0.0
 40
0.0
 40
0.1
 40
0.1
 40
0.1
 40
0.1
 40
0.2
 40
0.2
 40
0.2
 40
0.2
 40
0.3
 40
0.3
 40
0.3
 40
0.3
 40
0.4
 40
0.4
 40
0.4
 40
0.4
 40
0.5
 40
0.5
 40
0.5
 40
0.5
 40
0.6
 40
0.6
 40
0.6
 40
0.6
 40
0.7
 40
0.7
 40
0.7
 40
0.7
 40
0.8
 40
0.8
 40
0.8
 40
0.8
 40
1.0
 40
1.0
 40
1.0
 40
1.0
 10
58.6341
 20
-52.488
 30
0.0
 10
58.6341
 20
-52.488
 30
0.0
 10
61.4733
 20
-52.4556
 30
0.0
 10
61.4733
 20
-52.4556
 30
0.0
 10
61.4733
 20
-52.4556
 30
0.0
 10
61.4733
 20
-52.4556
 30
0.0
 10
61.5041
 20
-49.5621
 30
0.0
 10
61.5041
 20
-49.5621
 30
0.0
 10
61.5041
 20
-49.5621
 30
0.0
 10
63.894
 20
-48.7811
 30
0.0
 10
65.1964
 20
-47.7571
 30
0.0
 10
65.995
 20
-45.87
 30
0.0
 10
65.995
 20
-45.87
 30
0.0
 10
65.995
 20
-45.87
 30
0.0
 10
65.995
 20
-68.0846
 30
0.0
 10
65.995
 20
-68.0846
 30
0.0
 10
65.995
 20
-68.0846
 30
0.0
 10
65.1964
 20
-66.1975
 30
0.0
 10
63.894
 20
-65.1735
 30
0.0
 10
61.5041
 20
-64.3925
 30
0.0
 10
61.5041
 20
-64.3925
 30
0.0
 10
61.5041
 20
-64.3925
 30
0.0
 10
61.4733
 20
-61.499
 30
0.0
 10
61.4733
 20
-61.499
 30
0.0
 10
61.4733
 20
-61.499
 30
0.0
 10
61.4733
 20
-61.499
 30
0.0
 10
58.6341
 20
-61.4666
 30
0.0
 10
58.6341
 20
-61.4666
 30
0.0
 10
58.6341
 20
-61.4666
 30
0.0
 10
57.9685
 20
-59.0998
 30
0.0
 10
56.9865
 20
-58.0951
 30
0.0
 10
54.9137
 20
-56.9773
 30
0.0
 10
54.9137
 20
-56.9773
 30
0.0
 10
56.9865
 20
-55.8595
 30
0.0
 10
57.9685
 20
-54.8548
 30
0.0
 10
58.6341
 20
-52.488
 30
0.0
  0
SPLINE
  5
6C
330
1F
100
AcDbEntity
  8
layer 1
 62
     7
100
AcDbSpline
210
0.0
220
0.0
230
1.0
 70
    11
 71
     3
 72
    40
 73
    36
 74
     0
 42
0.0000000001
 43
0.0000000001
 12
1.0
 22
0.0
 32
0.0
 13
1.0
 23
0.0
 33
0.0
 40
0.0
 40
0.0
 40
0.0
 40
0.0
 40
0.1
 40
0.1
 40
0.1
 40
0.1
 40
0.2
 40
0.2
 40
0.2
 40
0.2
 40
0.3
 40
0.3
 40
0.3
 40
0.3
 40
0.4
 40
0.4
 40
0.4
 40
0.4
 40
0.5
 40
0.5
 40
0.5
 40
0.5
 40
0.6
 40
0.6
 40
0.6
 40
0.6
 40
0.7
 40
0.7
 40
0.7
 40
0.7
 40
0.8
 40
0.8
 40
0.8
 40
0.8
 40
1.0
 40
1.0
 40
1.0
 40
1.0
 10
23.7448
 20
-86.7502
 30
0.0
 10
23.7448
 20
-86.7502
 30
0.0
 10
26.584
 20
-86.7178
 30
0.0
 10
26.584
 20
-86.7178
 30
0.0
 10
26.584
 20
-86.7178
 30
0.0
 10
26.584
 20
-86.7178
 30
0.0
 10
26.6148
 20
-83.8243
 30
0.0
 10
26.6148
 20
-83.8243
 30
0.0
 10
26.6148
 20
-83.8243
 30
0.0
 10
29.0047
 20
-83.0433
 30
0.0
 10
30.3071
 20
-82.0193
 30
0.0
 10
31.1057
 20
-80.1322
 30
0.0
 10
31.1057
 20
-80.1322
 30
0.0
 10
31.9042
 20
-82.0193
 30
0.0
 10
33.2066
 20
-83.0433
 30
0.0
 10
35.5965
 20
-83.8243
 30
0.0
 10
35.5965
 20
-83.8243
 30
0.0
 10
35.5965
 20
-83.8243
 30
0.0
 10
35.6273
 20
-86.7178
 30
0.0
 10
35.6273
 20
-86.7178
 30
0.0
 10
35.6273
 20
-86.7178
 30
0.0
 10
35.6273
 20
-86.7178
 30
0.0
 10
38.4665
 20
-86.7502
 30
0.0
 10
38.4665
 20
-86.7502
 30
0.0
 10
38.4665
 20
-86.7502
 30
0.0
 10
39.1322
 20
-89.117
 30
0.0
 10
40.1141
 20
-90.1217
 30
0.0
 10
42.1869
 20
-91.2395
 30
0.0
 10
42.1869
 20
-91.2395
 30
0.0
 10
42.1869
 20
-91.2395
 30
0.0
 10
20.0244
 20
-91.2395
 30
0.0
 10
20.0244
 20
-91.2395
 30
0.0
 10
20.0244
 20
-91.2395
 30
0.0
 10
22.0972
 20
-90.1217
 30
0.0
 10
23.0792
 20
-89.117
 30
0.0
 10
23.7448
 20
-86.7502
 30
0.0
  0
SPLINE
  5
6D
330
1F
100
AcDbEntity
  8
layer 1
 62
     7
100
AcDbSpline
210
0.0
220
0.0
230
1.0
 70
    11
 71
     3
 72
    68
 73
    64
 74
     0
 42
0.0000000001
 43
0.0000000001
 12
1.0
 22
0.0
 32
0.0
 13
1.0
 23
0.0
 33
0.0
 40
0.0
 40
0.0
 40
0.0
 40
0.0
 40
0.0588235294117647
 40
0.0588235294117647
 40
0.0588235294117647
 40
0.0588235294117647
 40
0.1176470588235294
 40
0.1176470588235294
 40
0.1176470588235294
 40
0.1176470588235294
 40
0.1764705882352941
 40
0.1764705882352941
 40
0.1764705882352941
 40
0.1764705882352941
 40
0.2352941176470588
 40
0.2352941176470588
 40
0.2352941176470588
 40
0.2352941176470588
 40
0.2941176470588235
 40
0.2941176470588235
 40
0.2941176470588235
 40
0.2941176470588235
 40
0.3529411764705883
 40
0.3529411764705883
 40
0.3529411764705883
 40
0.3529411764705883
 40
0.4117647058823529
 40
0.4117647058823529
 40
0.4117647058823529
 40
0.4117647058823529
 40
0.4705882352941176
 40
0.4705882352941176
 40
0.4705882352941176
 40
0.4705882352941176
 40
0.5294117647058824
 40
0.5294117647058824
 40
0.5294117647058824
 40
0.5294117647058824
 40
0.5882352941176471
 40
0.5882352941176471
 40
0.5882352941176471
 40
0.5882352941176471
 40
0.6470588235294118
 40
0.6470588235294118
 40
0.6470588235294118
 40
0.6470588235294118
 40
0.7058823529411765
 40
0.7058823529411765
 40
0.7058823529411765
 40
0.7058823529411765
 40
0.7647058823529411
 40
0.7647058823529411
 40
0.7647058823529411
 40
0.7647058823529411
 40
0.8235294117647058
 40
0.8235294117647058
 40
0.8235294117647058
 40
0.8235294117647058
 40
0.8823529411764706
 40
0.8823529411764706
 40
0.8823529411764706
 40
0.8823529411764706
 40
1.0
 40
1.0
 40
1.0
 40
1.0
 10
7.9744
 20
-82.5612
 30
0.0
 10
7.9744
 20
-82.5612
 30
0.0
 10
5.3583
 20
-82.494
 30
0.0
 10
5.3583
 20
-82.494
 30
0.0
 10
5.3583
 20
-82.494
 30
0.0
 10
5.3583
 20
-82.494
 30
0.0
 10
5.3393
 20
-79.8981
 30
0.0
 10
5.3393
 20
-79.8981
 30
0.0
 10
5.3393
 20
-79.8981
 30
0.0
 10
0.7238
 20
-79.9022
 30
0.0
 10
-1.4764
 20
-77.7273
 30
0.0
 10
-1.534
 20
-73.9714
 30
0.0
 10
-1.534
 20
-73.9714
 30
0.0
 10
-1.4764
 20
-70.2156
 30
0.0
 10
0.7238
 20
-68.0406
 30
0.0
 10
5.3393
 20
-68.0447
 30
0.0
 10
5.3393
 20
-68.0447
 30
0.0
 10
5.3393
 20
-68.0447
 30
0.0
 10
5.3583
 20
-65.4488
 30
0.0
 10
5.3583
 20
-65.4488
 30
0.0
 10
5.3583
 20
-65.4488
 30
0.0
 10
5.3583
 20
-65.4488
 30
0.0
 10
7.9744
 20
-65.3816
 30
0.0
 10
7.9744
 20
-65.3816
 30
0.0
 10
7.9744
 20
-65.3816
 30
0.0
 10
7.9363
 20
-62.1698
 30
0.0
 10
9.6321
 20
-58.7029
 30
0.0
 10
13.8168
 20
-58.7823
 30
0.0
 10
13.8168
 20
-58.7823
 30
0.0
 10
18.0015
 20
-58.7029
 30
0.0
 10
19.7822
 20
-62.1698
 30
0.0
 10
19.7441
 20
-65.3816
 30
0.0
 10
19.7441
 20
-65.3816
 30
0.0
 10
19.7441
 20
-65.3816
 30
0.0
 10
22.3602
 20
-65.4488
 30
0.0
 10
22.3602
 20
-65.4488
 30
0.0
 10
22.3602
 20
-65.4488
 30
0.0
 10
22.3602
 20
-65.4488
 30
0.0
 10
22.3792
 20
-68.0447
 30
0.0
 10
22.3792
 20
-68.0447
 30
0.0
 10
22.3792
 20
-68.0447
 30
0.0
 10
26.9947
 20
-68.0406
 30
0.0
 10
29.1949
 20
-70.2156
 30
0.0
 10
29.2525
 20
-73.9714
 30
0.0
 10
29.2525
 20
-73.9714
 30
0.0
 10
29.1949
 20
-77.7273
 30
0.0
 10
26.9947
 20
-79.9022
 30
0.0
 10
22.3792
 20
-79.8981
 30
0.0
 10
22.3792
 20
-79.8981
 30
0.0
 10
22.3792
 20
-79.8981
 30
0.0
 10
22.3602
 20
-82.494
 30
0.0
 10
22.3602
 20
-82.494
 30
0.0
 10
22.3602
 20
-82.494
 30
0.0
 10
22.3602
 20
-82.494
 30
0.0
 10
19.7441
 20
-82.5612
 30
0.0
 10
19.7441
 20
-82.5612
 30
0.0
 10
19.7441
 20
-82.5612
 30
0.0
 10
19.7822
 20
-85.773
 30
0.0
 10
18.0015
 20
-89.2399
 30
0.0
 10
13.8168
 20
-89.1605
 30
0.0
 10
13.8168
 20
-89.1605
 30
0.0
 10
9.6321
 20
-89.2399
 30
0.0
 10
7.9363
 20
-85.773
 30
0.0
 10
7.9744
 20
-82.5612
 30
0.0
  0
SPLINE
  5
6E
330
1F
100
AcDbEntity
  8
layer 1
 62
     7
100
AcDbSpline
210
0.0
220
0.0
230
1.0
 70
    11
 71
     3
 72
    68
 73
    64
 74
     0
 42
0.0000000001
 43
0.0000000001
 12
1.0
 22
0.0
 32
0.0
 13
1.0
 23
0.0
 33
0.0
 40
0.0
 40
0.0
 40
0.0
 40
0.0
 40
0.0588235294117647
 40
0.0588235294117647
 40
0.0588235294117647
 40
0.0588235294117647
 40
0.1176470588235294
 40
0.1176470588235294
 40
0.1176470588235294
 40
0.1176470588235294
 40
0.1764705882352941
 40
0.1764705882352941
 40
0.1764705882352941
 40
0.1764705882352941
 40
0.2352941176470588
 40
0.2352941176470588
 40
0.2352941176470588
 40
0.2352941176470588
 40
0.2941176470588235
 40
0.2941176470588235
 40
0.2941176470588235
 40
0.2941176470588235
 40
0.3529411764705883
 40
0.3529411764705883
 40
0.3529411764705883
 40
0.3529411764705883
 40
0.4117647058823529
 40
0.4117647058823529
 40
0.4117647058823529
 40
0.4117647058823529
 40
0.4705882352941176
 40
0.4705882352941176
 40
0.4705882352941176
 40
0.4705882352941176
 40
0.5294117647058824
 40
0.5294117647058824
 40
0.5294117647058824
 40
0.5294117647058824
 40
0.5882352941176471
 40
0.5882352941176471
 40
0.5882352941176471
 40
0.5882352941176471
 40
0.6470588235294118
 40
0.6470588235294118
 40
0.6470588235294118
 40
0.6470588235294118
 40
0.7058823529411765
 40
0.7058823529411765
 40
0.7058823529411765
 40
0.7058823529411765
 40
0.7647058823529411
 40
0.7647058823529411
 40
0.7647058823529411
 40
0.7647058823529411
 40
0.8235294117647058
 40
0.8235294117647058
 40
0.8235294117647058
 40
0.8235294117647058
 40
0.8823529411764706
 40
0.8823529411764706
 40
0.8823529411764706
 40
0.8823529411764706
 40
1.0
 40
1.0
 40
1.0
 40
1.0
 10
-26.834
 20
-82.5612
 30
0.0
 10
-26.834
 20
-82.5612
 30
0.0
 10
-29.4501
 20
-82.494
 30
0.0
 10
-29.4501
 20
-82.494
 30
0.0
 10
-29.4501
 20
-82.494
 30
0.0
 10
-29.4501
 20
-82.494
 30
0.0
 10
-29.4691
 20
-79.8981
 30
0.0
 10
-29.4691
 20
-79.8981
 30
0.0
 10
-29.4691
 20
-79.8981
 30
0.0
 10
-34.0846
 20
-79.9022
 30
0.0
 10
-36.2848
 20
-77.7273
 30
0.0
 10
-36.3424
 20
-73.9714
 30
0.0
 10
-36.3424
 20
-73.9714
 30
0.0
 10
-36.2848
 20
-70.2156
 30
0.0
 10
-34.0846
 20
-68.0406
 30
0.0
 10
-29.4691
 20
-68.0447
 30
0.0
 10
-29.4691
 20
-68.0447
 30
0.0
 10
-29.4691
 20
-68.0447
 30
0.0
 10
-29.4501
 20
-65.4488
 30
0.0
 10
-29.4501
 20
-65.4488
 30
0.0
 10
-29.4501
 20
-65.4488
 30
0.0
 10
-29.4501
 20
-65.4488
 30
0.0
 10
-26.834
 20
-65.3816
 30
0.0
 10
-26.834
 20
-65.3816
 30
0.0
 10
-26.834
 20
-65.3816
 30
0.0
 10
-26.8721
 20
-62.1698
 30
0.0
 10
-25.1763
 20
-58.7029
 30
0.0
 10
-20.9916
 20
-58.7823
 30
0.0
 10
-20.9916
 20
-58.7823
 30
0.0
 10
-16.8069
 20
-58.7029
 30
0.0
 10
-15.0262
 20
-62.1698
 30
0.0
 10
-15.0643
 20
-65.3816
 30
0.0
 10
-15.0643
 20
-65.3816
 30
0.0
 10
-15.0643
 20
-65.3816
 30
0.0
 10
-12.4482
 20
-65.4488
 30
0.0
 10
-12.4482
 20
-65.4488
 30
0.0
 10
-12.4482
 20
-65.4488
 30
0.0
 10
-12.4482
 20
-65.4488
 30
0.0
 10
-12.4292
 20
-68.0447
 30
0.0
 10
-12.4292
 20
-68.0447
 30
0.0
 10
-12.4292
 20
-68.0447
 30
0.0
 10
-7.8137
 20
-68.0406
 30
0.0
 10
-5.6135
 20
-70.2156
 30
0.0
 10
-5.5559
 20
-73.9714
 30
0.0
 10
-5.5559
 20
-73.9714
 30
0.0
 10
-5.6135
 20
-77.7273
 30
0.0
 10
-7.8137
 20
-79.9022
 30
0.0
 10
-12.4292
 20
-79.8981
 30
0.0
 10
-12.4292
 20
-79.8981
 30
0.0
 10
-12.4292
 20
-79.8981
 30
0.0
 10
-12.4482
 20
-82.494
 30
0.0
 10
-12.4482
 20
-82.494
 30
0.0
 10
-12.4482
 20
-82.494
 30
0.0
 10
-12.4482
 20
-82.494
 30
0.0
 10
-15.0643
 20
-82.5612
 30
0.0
 10
-15.0643
 20
-82.5612
 30
0.0
 10
-15.0643
 20
-82.5612
 30
0.0
 10
-15.0262
 20
-85.773
 30
0.0
 10
-16.8069
 20
-89.2399
 30
0.0
 10
-20.9916
 20
-89.1605
 30
0.0
 10
-20.9916
 20
-89.1605
 30
0.0
 10
-25.1763
 20
-89.2399
 30
0.0
 10
-26.8721
 20
-85.773
 30
0.0
 10
-26.834
 20
-82.5612
 30
0.0
  0
SPLINE
  5
6F
330
1F
100
AcDbEntity
  8
layer 1
 62
     7
100
AcDbSpline
210
0.0
220
0.0
230
1.0
 70
    11
 71
     3
 72
    40
 73
    36
 74
     0
 42
0.0000000001
 43
0.0000000001
 12
1.0
 22
0.0
 32
0.0
 13
1.0
 23
0.0
 33
0.0
 40
0.0
 40
0.0
 40
0.0
 40
0.0
 40
0.1
 40
0.1
 40
0.1
 40
0.1
 40
0.2
 40
0.2
 40
0.2
 40
0.2
 40
0.3
 40
0.3
 40
0.3
 40
0.3
 40
0.4
 40
0.4
 40
0.4
 40
0.4
 40
0.5
 40
0.5
 40
0.5
 40
0.5
 40
0.6
 40
0.6
 40
0.6
 40
0.6
 40
0.7
 40
0.7
 40
0.7
 40
0.7
 40
0.8
 40
0.8
 40
0.8
 40
0.8
 40
1.0
 40
1.0
 40
1.0
 40
1.0
 10
-11.0636
 20
-86.7502
 30
0.0
 10
-11.0636
 20
-86.7502
 30
0.0
 10
-8.2244
 20
-86.7178
 30
0.0
 10
-8.2244
 20
-86.7178
 30
0.0
 10
-8.2244
 20
-86.7178
 30
0.0
 10
-8.2244
 20
-86.7178
 30
0.0
 10
-8.1936
 20
-83.8243
 30
0.0
 10
-8.1936
 20
-83.8243
 30
0.0
 10
-8.1936
 20
-83.8243
 30
0.0
 10
-5.8037
 20
-83.0433
 30
0.0
 10
-4.5013
 20
-82.0193
 30
0.0
 10
-3.7027
 20
-80.1322
 30
0.0
 10
-3.7027
 20
-80.1322
 30
0.0
 10
-2.9042
 20
-82.0193
 30
0.0
 10
-1.6018
 20
-83.0433
 30
0.0
 10
0.7881
 20
-83.8243
 30
0.0
 10
0.7881
 20
-83.8243
 30
0.0
 10
0.7881
 20
-83.8243
 30
0.0
 10
0.8189
 20
-86.7178
 30
0.0
 10
0.8189
 20
-86.7178
 30
0.0
 10
0.8189
 20
-86.7178
 30
0.0
 10
0.8189
 20
-86.7178
 30
0.0
 10
3.6581
 20
-86.7502
 30
0.0
 10
3.6581
 20
-86.7502
 30
0.0
 10
3.6581
 20
-86.7502
 30
0.0
 10
4.3238
 20
-89.117
 30
0.0
 10
5.3057
 20
-90.1217
 30
0.0
 10
7.3785
 20
-91.2395
 30
0.0
 10
7.3785
 20
-91.2395
 30
0.0
 10
7.3785
 20
-91.2395
 30
0.0
 10
-14.784
 20
-91.2395
 30
0.0
 10
-14.784
 20
-91.2395
 30
0.0
 10
-14.784
 20
-91.2395
 30
0.0
 10
-12.7112
 20
-90.1217
 30
0.0
 10
-11.7292
 20
-89.117
 30
0.0
 10
-11.0636
 20
-86.7502
 30
0.0
  0
SPLINE
  5
70
330
1F
100
AcDbEntity
  8
layer 1
 62
     7
100
AcDbSpline
210
0.0
220
0.0
230
1.0
 70
    11
 71
     3
 72
    68
 73
    64
 74
     0
 42
0.0000000001
 43
0.0000000001
 12
1.0
 22
0.0
 32
0.0
 13
1.0
 23
0.0
 33
0.0
 40
0.0
 40
0.0
 40
0.0
 40
0.0
 40
0.0588235294117647
 40
0.0588235294117647
 40
0.0588235294117647
 40
0.0588235294117647
 40
0.1176470588235294
 40
0.1176470588235294
 40
0.1176470588235294
 40
0.1176470588235294
 40
0.1764705882352941
 40
0.1764705882352941
 40
0.1764705882352941
 40
0.1764705882352941
 40
0.2352941176470588
 40
0.2352941176470588
 40
0.2352941176470588
 40
0.2352941176470588
 40
0.2941176470588235
 40
0.2941176470588235
 40
0.2941176470588235
 40
0.2941176470588235
 40
0.3529411764705883
 40
0.3529411764705883
 40
0.3529411764705883
 40
0.3529411764705883
 40
0.4117647058823529
 40
0.4117647058823529
 40
0.4117647058823529
 40
0.4117647058823529
 40
0.4705882352941176
 40
0.4705882352941176
 40
0.4705882352941176
 40
0.4705882352941176
 40
0.5294117647058824
 40
0.5294117647058824
 40
0.5294117647058824
 40
0.5294117647058824
 40
0.5882352941176471
 40
0.5882352941176471
 40
0.5882352941176471
 40
0.5882352941176471
 40
0.6470588235294118
 40
0.6470588235294118
 40
0.6470588235294118
 40
0.6470588235294118
 40
0.7058823529411765
 40
0.7058823529411765
 40
0.7058823529411765
 40
0.7058823529411765
 40
0.7647058823529411
 40
0.7647058823529411
 40
0.7647058823529411
 40
0.7647058823529411
 40
0.8235294117647058
 40
0.8235294117647058
 40
0.8235294117647058
 40
0.8235294117647058
 40
0.8823529411764706
 40
0.8823529411764706
 40
0.8823529411764706
 40
0.8823529411764706
 40
1.0
 40
1.0
 40
1.0
 40
1.0
 10
42.8526
 20
-82.5612
 30
0.0
 10
42.8526
 20
-82.5612
 30
0.0
 10
40.2365
 20
-82.494
 30
0.0
 10
40.2365
 20
-82.494
 30
0.0
 10
40.2365
 20
-82.494
 30
0.0
 10
40.2365
 20
-82.494
 30
0.0
 10
40.2174
 20
-79.8981
 30
0.0
 10
40.2174
 20
-79.8981
 30
0.0
 10
40.2174
 20
-79.8981
 30
0.0
 10
35.6019
 20
-79.9022
 30
0.0
 10
33.4018
 20
-77.7273
 30
0.0
 10
33.3441
 20
-73.9714
 30
0.0
 10
33.3441
 20
-73.9714
 30
0.0
 10
33.4018
 20
-70.2156
 30
0.0
 10
35.6019
 20
-68.0406
 30
0.0
 10
40.2174
 20
-68.0447
 30
0.0
 10
40.2174
 20
-68.0447
 30
0.0
 10
40.2174
 20
-68.0447
 30
0.0
 10
40.2365
 20
-65.4488
 30
0.0
 10
40.2365
 20
-65.4488
 30
0.0
 10
40.2365
 20
-65.4488
 30
0.0
 10
40.2365
 20
-65.4488
 30
0.0
 10
42.8526
 20
-65.3816
 30
0.0
 10
42.8526
 20
-65.3816
 30
0.0
 10
42.8526
 20
-65.3816
 30
0.0
 10
42.8144
 20
-62.1698
 30
0.0
 10
44.5102
 20
-58.7029
 30
0.0
 10
48.6949
 20
-58.7823
 30
0.0
 10
48.6949
 20
-58.7823
 30
0.0
 10
52.8796
 20
-58.7029
 30
0.0
 10
54.6604
 20
-62.1698
 30
0.0
 10
54.6222
 20
-65.3816
 30
0.0
 10
54.6222
 20
-65.3816
 30
0.0
 10
54.6222
 20
-65.3816
 30
0.0
 10
57.2383
 20
-65.4488
 30
0.0
 10
57.2383
 20
-65.4488
 30
0.0
 10
57.2383
 20
-65.4488
 30
0.0
 10
57.2383
 20
-65.4488
 30
0.0
 10
57.2574
 20
-68.0447
 30
0.0
 10
57.2574
 20
-68.0447
 30
0.0
 10
57.2574
 20
-68.0447
 30
0.0
 10
61.8729
 20
-68.0406
 30
0.0
 10
64.073
 20
-70.2156
 30
0.0
 10
64.1306
 20
-73.9714
 30
0.0
 10
64.1306
 20
-73.9714
 30
0.0
 10
64.073
 20
-77.7273
 30
0.0
 10
61.8729
 20
-79.9022
 30
0.0
 10
57.2574
 20
-79.8981
 30
0.0
 10
57.2574
 20
-79.8981
 30
0.0
 10
57.2574
 20
-79.8981
 30
0.0
 10
57.2383
 20
-82.494
 30
0.0
 10
57.2383
 20
-82.494
 30
0.0
 10
57.2383
 20
-82.494
 30
0.0
 10
57.2383
 20
-82.494
 30
0.0
 10
54.6222
 20
-82.5612
 30
0.0
 10
54.6222
 20
-82.5612
 30
0.0
 10
54.6222
 20
-82.5612
 30
0.0
 10
54.6604
 20
-85.773
 30
0.0
 10
52.8796
 20
-89.2399
 30
0.0
 10
48.6949
 20
-89.1605
 30
0.0
 10
48.6949
 20
-89.1605
 30
0.0
 10
44.5102
 20
-89.2399
 30
0.0
 10
42.8144
 20
-85.773
 30
0.0
 10
42.8526
 20
-82.5612
 30
0.0
  0
SPLINE
  5
71
330
1F
100
AcDbEntity
  8
layer 1
 62
     7
100
AcDbSpline
210
0.0
220
0.0
230
1.0
 70
    11
 71
     3
 72
    28
 73
    24
 74
     0
 42
0.0000000001
 43
0.0000000001
 12
1.0
 22
0.0
 32
0.0
 13
1.0
 23
0.0
 33
0.0
 40
0.0
 40
0.0
 40
0.0
 40
0.0
 40
0.1428571428571428
 40
0.1428571428571428
 40
0.1428571428571428
 40
0.1428571428571428
 40
0.2857142857142857
 40
0.2857142857142857
 40
0.2857142857142857
 40
0.2857142857142857
 40
0.4285714285714285
 40
0.4285714285714285
 40
0.4285714285714285
 40
0.4285714285714285
 40
0.5714285714285714
 40
0.5714285714285714
 40
0.5714285714285714
 40
0.5714285714285714
 40
0.7142857142857143
 40
0.7142857142857143
 40
0.7142857142857143
 40
0.7142857142857143
 40
1.0
 40
1.0
 40
1.0
 40
1.0
 10
-38.3345
 20
-80.1322
 30
0.0
 10
-37.5359
 20
-82.0193
 30
0.0
 10
-36.2335
 20
-83.0433
 30
0.0
 10
-33.8436
 20
-83.8243
 30
0.0
 10
-33.8436
 20
-83.8243
 30
0.0
 10
-33.8436
 20
-83.8243
 30
0.0
 10
-33.8128
 20
-86.7178
 30
0.0
 10
-33.8128
 20
-86.7178
 30
0.0
 10
-33.8128
 20
-86.7178
 30
0.0
 10
-33.8128
 20
-86.7178
 30
0.0
 10
-30.9736
 20
-86.7502
 30
0.0
 10
-30.9736
 20
-86.7502
 30
0.0
 10
-30.9736
 20
-86.7502
 30
0.0
 10
-30.308
 20
-89.117
 30
0.0
 10
-29.326
 20
-90.1217
 30
0.0
 10
-27.2532
 20
-91.2395
 30
0.0
 10
-27.2532
 20
-91.2395
 30
0.0
 10
-27.2532
 20
-91.2395
 30
0.0
 10
-38.3345
 20
-91.2395
 30
0.0
 10
-38.3345
 20
-91.2395
 30
0.0
 10
-38.3345
 20
-91.2395
 30
0.0
 10
-38.3345
 20
-91.2395
 30
0.0
 10
-38.3345
 20
-80.1322
 30
0.0
 10
-38.3345
 20
-80.1322
 30
0.0
  0
SPLINE
  5
72
330
1F
100
AcDbEntity
  8
layer 1
 62
     7
100
AcDbSpline
210
0.0
220
0.0
230
1.0
 70
    11
 71
     3
 72
    28
 73
    24
 74
     0
 42
0.0000000001
 43
0.0000000001
 12
1.0
 22
0.0
 32
0.0
 13
1.0
 23
0.0
 33
0.0
 40
0.0
 40
0.0
 40
0.0
 40
0.0
 40
0.1428571428571428
 40
0.1428571428571428
 40
0.1428571428571428
 40
0.1428571428571428
 40
0.2857142857142857
 40
0.2857142857142857
 40
0.2857142857142857
 40
0.2857142857142857
 40
0.4285714285714285
 40
0.4285714285714285
 40
0.4285714285714285
 40
0.4285714285714285
 40
0.5714285714285714
 40
0.5714285714285714
 40
0.5714285714285714
 40
0.5714285714285714
 40
0.7142857142857143
 40
0.7142857142857143
 40
0.7142857142857143
 40
0.7142857142857143
 40
1.0
 40
1.0
 40
1.0
 40
1.0
 10
58.6341
 20
-86.7502
 30
0.0
 10
58.6341
 20
-86.7502
 30
0.0
 10
61.4733
 20
-86.7178
 30
0.0
 10
61.4733
 20
-86.7178
 30
0.0
 10
61.4733
 20
-86.7178
 30
0.0
 10
61.4733
 20
-86.7178
 30
0.0
 10
61.5041
 20
-83.8243
 30
0.0
 10
61.5041
 20
-83.8243
 30
0.0
 10
61.5041
 20
-83.8243
 30
0.0
 10
63.894
 20
-83.0433
 30
0.0
 10
65.1964
 20
-82.0193
 30
0.0
 10
65.995
 20
-80.1322
 30
0.0
 10
65.995
 20
-80.1322
 30
0.0
 10
65.995
 20
-80.1322
 30
0.0
 10
65.995
 20
-91.2395
 30
0.0
 10
65.995
 20
-91.2395
 30
0.0
 10
65.995
 20
-91.2395
 30
0.0
 10
65.995
 20
-91.2395
 30
0.0
 10
54.9137
 20
-91.2395
 30
0.0
 10
54.9137
 20
-91.2395
 30
0.0
 10
54.9137
 20
-91.2395
 30
0.0
 10
56.9865
 20
-90.1217
 30
0.0
 10
57.9685
 20
-89.117
 30
0.0
 10
58.6341
 20
-86.7502
 30
0.0
  0
SPLINE
  5
73
330
1F
100
AcDbEntity
  8
layer 1
 62
     7
100
AcDbSpline
210
0.0
220
0.0
230
1.0
 70
    11
 71
     3
 72
    40
 73
    36
 74
     0
 42
0.0000000001
 43
0.0000000001
 12
1.0
 22
0.0
 32
0.0
 13
1.0
 23
0.0
 33
0.0
 40
0.0
 40
0.0
 40
0.0
 40
0.0
 40
0.1
 40
0.1
 40
0.1
 40
0.1
 40
0.2
 40
0.2
 40
0.2
 40
0.2
 40
0.3
 40
0.3
 40
0.3
 40
0.3
 40
0.4
 40
0.4
 40
0.4
 40
0.4
 40
0.5
 40
0.5
 40
0.5
 40
0.5
 40
0.6
 40
0.6
 40
0.6
 40
0.6
 40
0.7
 40
0.7
 40
0.7
 40
0.7
 40
0.8
 40
0.8
 40
0.8
 40
0.8
 40
1.0
 40
1.0
 40
1.0
 40
1.0
 10
23.7448
 20
110.1167
 30
0.0
 10
23.7448
 20
110.1167
 30
0.0
 10
26.584
 20
110.0843
 30
0.0
 10
26.584
 20
110.0843
 30
0.0
 10
26.584
 20
110.0843
 30
0.0
 10
26.584
 20
110.0843
 30
0.0
 10
26.6148
 20
107.1908
 30
0.0
 10
26.6148
 20
107.1908
 30
0.0
 10
26.6148
 20
107.1908
 30
0.0
 10
29.0047
 20
106.4098
 30
0.0
 10
30.3071
 20
105.3858
 30
0.0
 10
31.1057
 20
103.4987
 30
0.0
 10
31.1057
 20
103.4987
 30
0.0
 10
31.9042
 20
105.3858
 30
0.0
 10
33.2066
 20
106.4098
 30
0.0
 10
35.5965
 20
107.1908
 30
0.0
 10
35.5965
 20
107.1908
 30
0.0
 10
35.5965
 20
107.1908
 30
0.0
 10
35.6273
 20
110.0843
 30
0.0
 10
35.6273
 20
110.0843
 30
0.0
 10
35.6273
 20
110.0843
 30
0.0
 10
35.6273
 20
110.0843
 30
0.0
 10
38.4665
 20
110.1167
 30
0.0
 10
38.4665
 20
110.1167
 30
0.0
 10
38.4665
 20
110.1167
 30
0.0
 10
39.1322
 20
112.4835
 30
0.0
 10
40.1141
 20
113.4882
 30
0.0
 10
42.1869
 20
114.606
 30
0.0
 10
42.1869
 20
114.606
 30
0.0
 10
42.1869
 20
114.606
 30
0.0
 10
20.0244
 20
114.606
 30
0.0
 10
20.0244
 20
114.606
 30
0.0
 10
20.0244
 20
114.606
 30
0.0
 10
22.0972
 20
113.4882
 30
0.0
 10
23.0792
 20
112.4835
 30
0.0
 10
23.7448
 20
110.1167
 30
0.0
  0
SPLINE
  5
74
330
1F
100
AcDbEntity
  8
layer 1
 62
     7
100
AcDbSpline
210
0.0
220
0.0
230
1.0
 70
    11
 71
     3
 72
    40
 73
    36
 74
     0
 42
0.0000000001
 43
0.0000000001
 12
1.0
 22
0.0
 32
0.0
 13
1.0
 23
0.0
 33
0.0
 40
0.0
 40
0.0
 40
0.0
 40
0.0
 40
0.1
 40
0.1
 40
0.1
 40
0.1
 40
0.2
 40
0.2
 40
0.2
 40
0.2
 40
0.3
 40
0.3
 40
0.3
 40
0.3
 40
0.4
 40
0.4
 40
0.4
 40
0.4
 40
0.5
 40
0.5
 40
0.5
 40
0.5
 40
0.6
 40
0.6
 40
0.6
 40
0.6
 40
0.7
 40
0.7
 40
0.7
 40
0.7
 40
0.8
 40
0.8
 40
0.8
 40
0.8
 40
1.0
 40
1.0
 40
1.0
 40
1.0
 10
-11.0636
 20
110.1167
 30
0.0
 10
-11.0636
 20
110.1167
 30
0.0
 10
-8.2244
 20
110.0843
 30
0.0
 10
-8.2244
 20
110.0843
 30
0.0
 10
-8.2244
 20
110.0843
 30
0.0
 10
-8.2244
 20
110.0843
 30
0.0
 10
-8.1936
 20
107.1908
 30
0.0
 10
-8.1936
 20
107.1908
 30
0.0
 10
-8.1936
 20
107.1908
 30
0.0
 10
-5.8037
 20
106.4098
 30
0.0
 10
-4.5013
 20
105.3858
 30
0.0
 10
-3.7027
 20
103.4987
 30
0.0
 10
-3.7027
 20
103.4987
 30
0.0
 10
-2.9042
 20
105.3858
 30
0.0
 10
-1.6018
 20
106.4098
 30
0.0
 10
0.7881
 20
107.1908
 30
0.0
 10
0.7881
 20
107.1908
 30
0.0
 10
0.7881
 20
107.1908
 30
0.0
 10
0.8189
 20
110.0843
 30
0.0
 10
0.8189
 20
110.0843
 30
0.0
 10
0.8189
 20
110.0843
 30
0.0
 10
0.8189
 20
110.0843
 30
0.0
 10
3.6581
 20
110.1167
 30
0.0
 10
3.6581
 20
110.1167
 30
0.0
 10
3.6581
 20
110.1167
 30
0.0
 10
4.3238
 20
112.4835
 30
0.0
 10
5.3057
 20
113.4882
 30
0.0
 10
7.3785
 20
114.606
 30
0.0
 10
7.3785
 20
114.606
 30
0.0
 10
7.3785
 20
114.606
 30
0.0
 10
-14.784
 20
114.606
 30
0.0
 10
-14.784
 20
114.606
 30
0.0
 10
-14.784
 20
114.606
 30
0.0
 10
-12.7112
 20
113.4882
 30
0.0
 10
-11.7292
 20
112.4835
 30
0.0
 10
-11.0636
 20
110.1167
 30
0.0
  0
SPLINE
  5
75
330
1F
100
AcDbEntity
  8
layer 1
 62
     7
100
AcDbSpline
210
0.0
220
0.0
230
1.0
 70
    11
 71
     3
 72
    28
 73
    24
 74
     0
 42
0.0000000001
 43
0.0000000001
 12
1.0
 22
0.0
 32
0.0
 13
1.0
 23
0.0
 33
0.0
 40
0.0
 40
0.0
 40
0.0
 40
0.0
 40
0.1428571428571428
 40
0.1428571428571428
 40
0.1428571428571428
 40
0.1428571428571428
 40
0.2857142857142857
 40
0.2857142857142857
 40
0.2857142857142857
 40
0.2857142857142857
 40
0.4285714285714285
 40
0.4285714285714285
 40
0.4285714285714285
 40
0.4285714285714285
 40
0.5714285714285714
 40
0.5714285714285714
 40
0.5714285714285714
 40
0.5714285714285714
 40
0.7142857142857143
 40
0.7142857142857143
 40
0.7142857142857143
 40
0.7142857142857143
 40
1.0
 40
1.0
 40
1.0
 40
1.0
 10
-38.3345
 20
103.4987
 30
0.0
 10
-37.5359
 20
105.3858
 30
0.0
 10
-36.2335
 20
106.4098
 30
0.0
 10
-33.8436
 20
107.1908
 30
0.0
 10
-33.8436
 20
107.1908
 30
0.0
 10
-33.8436
 20
107.1908
 30
0.0
 10
-33.8128
 20
110.0843
 30
0.0
 10
-33.8128
 20
110.0843
 30
0.0
 10
-33.8128
 20
110.0843
 30
0.0
 10
-33.8128
 20
110.0843
 30
0.0
 10
-30.9736
 20
110.1167
 30
0.0
 10
-30.9736
 20
110.1167
 30
0.0
 10
-30.9736
 20
110.1167
 30
0.0
 10
-30.308
 20
112.4835
 30
0.0
 10
-29.326
 20
113.4882
 30
0.0
 10
-27.2532
 20
114.606
 30
0.0
 10
-27.2532
 20
114.606
 30
0.0
 10
-27.2532
 20
114.606
 30
0.0
 10
-38.3345
 20
114.606
 30
0.0
 10
-38.3345
 20
114.606
 30
0.0
 10
-38.3345
 20
114.606
 30
0.0
 10
-38.3345
 20
114.606
 30
0.0
 10
-38.3345
 20
103.4987
 30
0.0
 10
-38.3345
 20
103.4987
 30
0.0
  0
SPLINE
  5
76
330
1F
100
AcDbEntity
  8
layer 1
 62
     7
100
AcDbSpline
210
0.0
220
0.0
230
1.0
 70
    11
 71
     3
 72
    28
 73
    24
 74
     0
 42
0.0000000001
 43
0.0000000001
 12
1.0
 22
0.0
 32
0.0
 13
1.0
 23
0.0
 33
0.0
 40
0.0
 40
0.0
 40
0.0
 40
0.0
 40
0.1428571428571428
 40
0.1428571428571428
 40
0.1428571428571428
 40
0.1428571428571428
 40
0.2857142857142857
 40
0.2857142857142857
 40
0.2857142857142857
 40
0.2857142857142857
 40
0.4285714285714285
 40
0.4285714285714285
 40
0.4285714285714285
 40
0.4285714285714285
 40
0.5714285714285714
 40
0.5714285714285714
 40
0.5714285714285714
 40
0.5714285714285714
 40
0.7142857142857143
 40
0.7142857142857143
 40
0.7142857142857143
 40
0.7142857142857143
 40
1.0
 40
1.0
 40
1.0
 40
1.0
 10
58.6341
 20
110.1167
 30
0.0
 10
58.6341
 20
110.1167
 30
0.0
 10
61.4733
 20
110.0843
 30
0.0
 10
61.4733
 20
110.0843
 30
0.0
 10
61.4733
 20
110.0843
 30
0.0
 10
61.4733
 20
110.0843
 30
0.0
 10
61.5041
 20
107.1908
 30
0.0
 10
61.5041
 20
107.1908
 30
0.0
 10
61.5041
 20
107.1908
 30
0.0
 10
63.894
 20
106.4098
 30
0.0
 10
65.1964
 20
105.3858
 30
0.0
 10
65.995
 20
103.4987
 30
0.0
 10
65.995
 20
103.4987
 30
0.0
 10
65.995
 20
103.4987
 30
0.0
 10
65.995
 20
114.606
 30
0.0
 10
65.995
 20
114.606
 30
0.0
 10
65.995
 20
114.606
 30
0.0
 10
65.995
 20
114.606
 30
0.0
 10
54.9137
 20
114.606
 30
0.0
 10
54.9137
 20
114.606
 30
0.0
 10
54.9137
 20
114.606
 30
0.0
 10
56.9865
 20
113.4882
 30
0.0
 10
57.9685
 20
112.4835
 30
0.0
 10
58.6341
 20
110.1167
 30
0.0
  0
ENDSEC
  0
SECTION
  2
OBJECTS
  0
DICTIONARY
  5
C
330
0
100
AcDbDictionary
281
     1
  3
ACAD_GROUP
350
D
  3
ACAD_LAYOUT
350
1A
  3
ACAD_MATERIAL
350
3B
  3
ACAD_MLEADERSTYLE
350
99
  3
ACAD_MLINESTYLE
350
17
  3
ACAD_PLOTSETTINGS
350
19
  3
ACAD_PLOTSTYLENAME
350
E
  3
ACAD_TABLESTYLE
350
98
  3
ACAD_VISUALSTYLE
350
2A
  0
DICTIONARY
  5
D
102
{ACAD_REACTORS
330
C
102
}
330
C
100
AcDbDictionary
281
     1
  0
DICTIONARY
  5
1A
102
{ACAD_REACTORS
330
C
102
}
330
C
100
AcDbDictionary
281
     1
  3
Layout1
350
1E
  3
Layout2
350
26
  3
Model
350
22
  0
DICTIONARY
  5
3B
102
{ACAD_REACTORS
330
C
102
}
330
C
100
AcDbDictionary
281
     1
  3
ByBlock
350
3D
  3
ByLayer
350
3C
  3
Global
350
3E
  0
DICTIONARY
  5
99
102
{ACAD_REACTORS
330
C
102
}
330
C
100
AcDbDictionary
281
     1
  0
DICTIONARY
  5
17
102
{ACAD_REACTORS
330
C
102
}
330
C
100
AcDbDictionary
281
     1
  3
Standard
350
18
  0
DICTIONARY
  5
19
102
{ACAD_REACTORS
330
C
102
}
330
C
100
AcDbDictionary
281
     1
  0
ACDBDICTIONARYWDFLT
  5
E
102
{ACAD_REACTORS
330
C
102
}
330
C
100
AcDbDictionary
281
     1
  3
Normal
350
F
100
AcDbDictionaryWithDefault
340
F
  0
DICTIONARY
  5
98
102
{ACAD_REACTORS
330
C
102
}
330
C
100
AcDbDictionary
281
     1
  0
DICTIONARY
  5
2A
102
{ACAD_REACTORS
330
C
102
}
330
C
100
AcDbDictionary
281
     1
  3
2dWireframe
350
2F
  3
3D Hidden
350
31
  3
3dWireframe
350
30
  3
Basic
350
32
  3
Brighten
350
36
  3
ColorChange
350
3A
  3
Conceptual
350
34
  3
Dim
350
35
  3
Facepattern
350
39
  3
Flat
350
2B
  3
FlatWithEdges
350
2C
  3
Gouraud
350
2D
  3
GouraudWithEdges
350
2E
  3
Linepattern
350
38
  3
Realistic
350
33
  3
Thicken
350
37
  0
LAYOUT
  5
1E
102
{ACAD_REACTORS
330
1A
102
}
330
1A
100
AcDbPlotSettings
  1

  2
none_device
  4

  6

 40
0.0
 41
0.0
 42
0.0
 43
0.0
 44
0.0
 45
0.0
 46
0.0
 47
0.0
 48
0.0
 49
0.0
140
0.0
141
0.0
142
1.0
143
1.0
 70
   688
 72
     0
 73
     0
 74
     5
  7

 75
    16
 76
     0
 77
     2
 78
   300
147
1.0
148
0.0
149
0.0
100
AcDbLayout
  1
Layout1
 70
     1
 71
     1
 10
0.0
 20
0.0
 11
12.0
 21
9.0
 12
0.0
 22
0.0
 32
0.0
 14
1.000000000000000E+20
 24
1.000000000000000E+20
 34
1.000000000000000E+20
 15
-1.000000000000000E+20
 25
-1.000000000000000E+20
 35
-1.000000000000000E+20
146
0.0
 13
0.0
 23
0.0
 33
0.0
 16
1.0
 26
0.0
 36
0.0
 17
0.0
 27
1.0
 37
0.0
 76
     0
330
1B
  0
LAYOUT
  5
26
102
{ACAD_REACTORS
330
1A
102
}
330
1A
100
AcDbPlotSettings
  1

  2
none_device
  4

  6

 40
0.0
 41
0.0
 42
0.0
 43
0.0
 44
0.0
 45
0.0
 46
0.0
 47
0.0
 48
0.0
 49
0.0
140
0.0
141
0.0
142
1.0
143
1.0
 70
   688
 72
     0
 73
     0
 74
     5
  7

 75
    16
 76
     0
 77
     2
 78
   300
147
1.0
148
0.0
149
0.0
100
AcDbLayout
  1
Layout2
 70
     1
 71
     2
 10
0.0
 20
0.0
 11
0.0
 21
0.0
 12
0.0
 22
0.0
 32
0.0
 14
0.0
 24
0.0
 34
0.0
 15
0.0
 25
0.0
 35
0.0
146
0.0
 13
0.0
 23
0.0
 33
0.0
 16
1.0
 26
0.0
 36
0.0
 17
0.0
 27
1.0
 37
0.0
 76
     0
330
23
  0
LAYOUT
  5
22
102
{ACAD_REACTORS
330
1A
102
}
330
1A
100
AcDbPlotSettings
  1

  2
none_device
  4

  6

 40
0.0
 41
0.0
 42
0.0
 43
0.0
 44
0.0
 45
0.0
 46
0.0
 47
0.0
 48
0.0
 49
0.0
140
0.0
141
0.0
142
1.0
143
1.0
 70
  1712
 72
     0
 73
     0
 74
     0
  7

 75
     0
 76
     0
 77
     2
 78
   300
147
1.0
148
0.0
149
0.0
100
AcDbLayout
  1
Model
 70
     1
 71
     0
 10
0.0
 20
0.0
 11
12.0
 21
9.0
 12
0.0
 22
0.0
 32
0.0
 14
-46.2286
 24
-97.1797
 34
0.0
 15
73.8891
 25
120.546
 35
0.0
146
0.0
 13
0.0
 23
0.0
 33
0.0
 16
1.0
 26
0.0
 36
0.0
 17
0.0
 27
1.0
 37
0.0
 76
     0
330
1F
331
29
  0
MATERIAL
  5
3D
102
{ACAD_REACTORS
330
3B
102
}
330
3B
100
AcDbMaterial
  1
ByBlock
 72
     1
 94
      127
  0
MATERIAL
  5
3C
102
{ACAD_REACTORS
330
3B
102
}
330
3B
100
AcDbMaterial
  1
ByLayer
 72
     1
 94
      127
  0
MATERIAL
  5
3E
102
{ACAD_REACTORS
330
3B
102
}
330
3B
100
AcDbMaterial
  1
Global
 72
     1
 94
      127
  0
MLINESTYLE
  5
18
102
{ACAD_REACTORS
330
17
102
}
330
17
100
AcDbMlineStyle
  2
Standard
 70
     0
  3

 62
   256
 51
90.0
 52
90.0
 71
     2
 49
0.5
 62
   256
  6
BYLAYER
 49
-0.5
 62
   256
  6
BYLAYER
  0
ACDBPLACEHOLDER
  5
F
102
{ACAD_REACTORS
330
E
102
}
330
E
  0
VISUALSTYLE
  5
2F
102
{ACAD_REACTORS
330
2A
102
}
102
{ACAD_XDICTIONARY
360
80
102
}
330
2A
100
AcDbVisualStyle
  2
2dWireframe
 70
     4
 71
     0
 72
     2
 73
     0
 90
        0
 40
-0.6
 41
-30.0
 62
     5
 63
     7
421
 16777215
 74
     1
 91
        4
 64
     7
 65
   257
 75
     1
175
     1
 42
1.0
 92
        0
 66
   257
 43
1.0
 76
     1
 77
     6
 78
     2
 67
     7
 79
     5
170
     0
171
     0
290
     0
174
     0
 93
        1
 44
0.0
173
     0
291
     0
 45
0.0
  0
VISUALSTYLE
  5
31
102
{ACAD_REACTORS
330
2A
102
}
102
{ACAD_XDICTIONARY
360
84
102
}
330
2A
100
AcDbVisualStyle
  2
3D Hidden
 70
     6
 71
     1
 72
     2
 73
     2
 90
        0
 40
-0.6
 41
-30.0
 62
     5
 63
     7
421
 16777215
 74
     2
 91
        2
 64
     7
 65
   257
 75
     2
175
     1
 42
40.0
 92
        0
 66
   257
 43
1.0
 76
     1
 77
     6
 78
     2
 67
     7
 79
     3
170
     0
171
     0
290
     0
174
     0
 93
        1
 44
0.0
173
     0
291
     0
 45
0.0
  0
VISUALSTYLE
  5
30
102
{ACAD_REACTORS
330
2A
102
}
102
{ACAD_XDICTIONARY
360
82
102
}
330
2A
100
AcDbVisualStyle
  2
3dWireframe
 70
     5
 71
     0
 72
     2
 73
     0
 90
        0
 40
-0.6
 41
-30.0
 62
     5
 63
     7
421
 16777215
 74
     1
 91
        4
 64
     7
 65
   257
 75
     1
175
     1
 42
1.0
 92
        0
 66
   257
 43
1.0
 76
     1
 77
     6
 78
     2
 67
     7
 79
     5
170
     0
171
     0
290
     0
174
     0
 93
        1
 44
0.0
173
     0
291
     0
 45
0.0
  0
VISUALSTYLE
  5
32
102
{ACAD_REACTORS
330
2A
102
}
102
{ACAD_XDICTIONARY
360
86
102
}
330
2A
100
AcDbVisualStyle
  2
Basic
 70
     7
 71
     1
 72
     0
 73
     1
 90
        0
 40
-0.6
 41
-30.0
 62
     5
 63
     7
421
 16777215
 74
     0
 91
        4
 64
     7
 65
   257
 75
     1
175
     1
 42
1.0
 92
        8
 66
     7
 43
1.0
 76
     1
 77
     6
 78
     2
 67
     7
 79
     5
170
     0
171
     0
290
     0
174
     0
 93
        1
 44
0.0
173
     0
291
     1
 45
0.0
  0
VISUALSTYLE
  5
36
102
{ACAD_REACTORS
330
2A
102
}
102
{ACAD_XDICTIONARY
360
8E
102
}
330
2A
100
AcDbVisualStyle
  2
Brighten
 70
    12
 71
     2
 72
     2
 73
     0
 90
        0
 40
-0.6
 41
-30.0
 62
     5
 63
     7
421
 16777215
 74
     1
 91
        4
 64
     7
 65
   257
 75
     1
175
     1
 42
1.0
 92
        8
 66
     7
 43
1.0
 76
     1
 77
     6
 78
     2
 67
     7
 79
     5
170
     0
171
     0
290
     0
174
     0
 93
        1
 44
50.0
173
     0
291
     1
 45
0.0
  0
VISUALSTYLE
  5
3A
102
{ACAD_REACTORS
330
2A
102
}
102
{ACAD_XDICTIONARY
360
96
102
}
330
2A
100
AcDbVisualStyle
  2
ColorChange
 70
    16
 71
     2
 72
     2
 73
     3
 90
        0
 40
-0.6
 41
-30.0
 62
     5
 63
     8
421
  8421504
 74
     1
 91
        4
 64
     7
 65
   257
 75
     1
175
     1
 42
1.0
 92
        8
 66
     8
424
  8421504
 43
1.0
 76
     1
 77
     6
 78
     2
 67
     7
 79
     5
170
     0
171
     0
290
     0
174
     0
 93
        1
 44
0.0
173
     0
291
     1
 45
0.0
  0
VISUALSTYLE
  5
34
102
{ACAD_REACTORS
330
2A
102
}
102
{ACAD_XDICTIONARY
360
8A
102
}
330
2A
100
AcDbVisualStyle
  2
Conceptual
 70
     9
 71
     3
 72
     2
 73
     0
 90
        0
 40
-0.6
 41
-30.0
 62
     5
 63
     7
421
 16777215
 74
     2
 91
        2
 64
     7
 65
   257
 75
     1
175
     1
 42
40.0
 92
        8
 66
     7
 43
1.0
 76
     1
 77
     6
 78
     2
 67
     7
 79
     3
170
     0
171
     0
290
     0
174
     0
 93
        1
 44
0.0
173
     0
291
     0
 45
0.0
  0
VISUALSTYLE
  5
35
102
{ACAD_REACTORS
330
2A
102
}
102
{ACAD_XDICTIONARY
360
8C
102
}
330
2A
100
AcDbVisualStyle
  2
Dim
 70
    11
 71
     2
 72
     2
 73
     0
 90
        0
 40
-0.6
 41
-30.0
 62
     5
 63
     7
421
 16777215
 74
     1
 91
        4
 64
     7
 65
   257
 75
     1
175
     1
 42
1.0
 92
        8
 66
     7
 43
1.0
 76
     1
 77
     6
 78
     2
 67
     7
 79
     5
170
     0
171
     0
290
     0
174
     0
 93
        1
 44
-50.0
173
     0
291
     1
 45
0.0
  0
VISUALSTYLE
  5
39
102
{ACAD_REACTORS
330
2A
102
}
102
{ACAD_XDICTIONARY
360
94
102
}
330
2A
100
AcDbVisualStyle
  2
Facepattern
 70
    15
 71
     2
 72
     2
 73
     0
 90
        0
 40
-0.6
 41
-30.0
 62
     5
 63
     7
421
 16777215
 74
     1
 91
        4
 64
     7
 65
   257
 75
     1
175
     1
 42
1.0
 92
        8
 66
     7
 43
1.0
 76
     1
 77
     6
 78
     2
 67
     7
 79
     5
170
     0
171
     0
290
     0
174
     0
 93
        1
 44
0.0
173
     0
291
     1
 45
0.0
  0
VISUALSTYLE
  5
2B
102
{ACAD_REACTORS
330
2A
102
}
102
{ACAD_XDICTIONARY
360
78
102
}
330
2A
100
AcDbVisualStyle
  2
Flat
 70
     0
 71
     2
 72
     1
 73
     1
 90
        2
 40
-0.6
 41
30.0
 62
     5
 63
     7
421
 16777215
 74
     0
 91
        4
 64
     7
 65
   257
 75
     1
175
     1
 42
1.0
 92
        8
 66
     7
 43
1.0
 76
     1
 77
     6
 78
     2
 67
     7
 79
     5
170
     0
171
     0
290
     0
174
     0
 93
       13
 44
0.0
173
     0
291
     1
 45
0.0
  0
VISUALSTYLE
  5
2C
102
{ACAD_REACTORS
330
2A
102
}
102
{ACAD_XDICTIONARY
360
7A
102
}
330
2A
100
AcDbVisualStyle
  2
FlatWithEdges
 70
     1
 71
     2
 72
     1
 73
     1
 90
        2
 40
-0.6
 41
30.0
 62
     5
 63
     7
421
 16777215
 74
     1
 91
        4
 64
     7
 65
   257
 75
     1
175
     1
 42
1.0
 92
        0
 66
   257
 43
1.0
 76
     1
 77
     6
 78
     2
 67
     7
 79
     5
170
     0
171
     0
290
     0
174
     0
 93
       13
 44
0.0
173
     0
291
     1
 45
0.0
  0
VISUALSTYLE
  5
2D
102
{ACAD_REACTORS
330
2A
102
}
102
{ACAD_XDICTIONARY
360
7C
102
}
330
2A
100
AcDbVisualStyle
  2
Gouraud
 70
     2
 71
     2
 72
     2
 73
     1
 90
        2
 40
-0.6
 41
30.0
 62
     5
 63
     7
421
 16777215
 74
     0
 91
        4
 64
     7
 65
   257
 75
     1
175
     1
 42
1.0
 92
        0
 66
     7
 43
1.0
 76
     1
 77
     6
 78
     2
 67
     7
 79
     5
170
     0
171
     0
290
     0
174
     0
 93
       13
 44
0.0
173
     0
291
     1
 45
0.0
  0
VISUALSTYLE
  5
2E
102
{ACAD_REACTORS
330
2A
102
}
102
{ACAD_XDICTIONARY
360
7E
102
}
330
2A
100
AcDbVisualStyle
  2
GouraudWithEdges
 70
     3
 71
     2
 72
     2
 73
     1
 90
        2
 40
-0.6
 41
30.0
 62
     5
 63
     7
421
 16777215
 74
     1
 91
        4
 64
     7
 65
   257
 75
     1
175
     1
 42
1.0
 92
        0
 66
   257
 43
1.0
 76
     1
 77
     6
 78
     2
 67
     7
 79
     5
170
     0
171
     0
290
     0
174
     0
 93
       13
 44
0.0
173
     0
291
     1
 45
0.0
  0
VISUALSTYLE
  5
38
102
{ACAD_REACTORS
330
2A
102
}
102
{ACAD_XDICTIONARY
360
92
102
}
330
2A
100
AcDbVisualStyle
  2
Linepattern
 70
    14
 71
     2
 72
     2
 73
     0
 90
        0
 40
-0.6
 41
-30.0
 62
     5
 63
     7
421
 16777215
 74
     1
 91
        4
 64
     7
 65
   257
 75
     7
175
     7
 42
1.0
 92
        8
 66
     7
 43
1.0
 76
     1
 77
     6
 78
     2
 67
     7
 79
     5
170
     0
171
     0
290
     0
174
     0
 93
        1
 44
0.0
173
     0
291
     1
 45
0.0
  0
VISUALSTYLE
  5
33
102
{ACAD_REACTORS
330
2A
102
}
102
{ACAD_XDICTIONARY
360
88
102
}
330
2A
100
AcDbVisualStyle
  2
Realistic
 70
     8
 71
     2
 72
     2
 73
     0
 90
        0
 40
-0.6
 41
-30.0
 62
     5
 63
     7
421
 16777215
 74
     1
 91
        0
 64
     7
 65
   257
 75
     1
175
     1
 42
1.0
 92
        8
 66
     8
424
  7895160
 43
1.0
 76
     1
 77
     6
 78
     2
 67
     7
 79
     5
170
     0
171
     0
290
     0
174
     0
 93
       13
 44
0.0
173
     0
291
     0
 45
0.0
  0
VISUALSTYLE
  5
37
102
{ACAD_REACTORS
330
2A
102
}
102
{ACAD_XDICTIONARY
360
90
102
}
330
2A
100
AcDbVisualStyle
  2
Thicken
 70
    13
 71
     2
 72
     2
 73
     0
 90
        0
 40
-0.6
 41
-30.0
 62
     5
 63
     7
421
 16777215
 74
     1
 91
        4
 64
     7
 65
   257
 75
     1
175
     1
 42
1.0
 92
       12
 66
     7
 43
1.0
 76
     1
 77
     6
 78
     2
 67
     7
 79
     5
170
     0
171
     0
290
     0
174
     0
 93
        1
 44
0.0
173
     0
291
     1
 45
0.0
  0
DICTIONARY
  5
80
330
2F
100
AcDbDictionary
280
     1
281
     1
  3
ACAD_XREC_ROUNDTRIP
360
81
  0
DICTIONARY
  5
84
330
31
100
AcDbDictionary
280
     1
281
     1
  3
ACAD_XREC_ROUNDTRIP
360
85
  0
DICTIONARY
  5
82
330
30
100
AcDbDictionary
280
     1
281
     1
  3
ACAD_XREC_ROUNDTRIP
360
83
  0
DICTIONARY
  5
86
330
32
100
AcDbDictionary
280
     1
281
     1
  3
ACAD_XREC_ROUNDTRIP
360
87
  0
DICTIONARY
  5
8E
330
36
100
AcDbDictionary
280
     1
281
     1
  3
ACAD_XREC_ROUNDTRIP
360
8F
  0
DICTIONARY
  5
96
330
3A
100
AcDbDictionary
280
     1
281
     1
  3
ACAD_XREC_ROUNDTRIP
360
97
  0
DICTIONARY
  5
8A
330
34
100
AcDbDictionary
280
     1
281
     1
  3
ACAD_XREC_ROUNDTRIP
360
8B
  0
DICTIONARY
  5
8C
330
35
100
AcDbDictionary
280
     1
281
     1
  3
ACAD_XREC_ROUNDTRIP
360
8D
  0
DICTIONARY
  5
94
330
39
100
AcDbDictionary
280
     1
281
     1
  3
ACAD_XREC_ROUNDTRIP
360
95
  0
DICTIONARY
  5
78
330
2B
100
AcDbDictionary
280
     1
281
     1
  3
ACAD_XREC_ROUNDTRIP
360
79
  0
DICTIONARY
  5
7A
330
2C
100
AcDbDictionary
280
     1
281
     1
  3
ACAD_XREC_ROUNDTRIP
360
7B
  0
DICTIONARY
  5
7C
330
2D
100
AcDbDictionary
280
     1
281
     1
  3
ACAD_XREC_ROUNDTRIP
360
7D
  0
DICTIONARY
  5
7E
330
2E
100
AcDbDictionary
280
     1
281
     1
  3
ACAD_XREC_ROUNDTRIP
360
7F
  0
DICTIONARY
  5
92
330
38
100
AcDbDictionary
280
     1
281
     1
  3
ACAD_XREC_ROUNDTRIP
360
93
  0
DICTIONARY
  5
88
330
33
100
AcDbDictionary
280
     1
281
     1
  3
ACAD_XREC_ROUNDTRIP
360
89
  0
DICTIONARY
  5
90
330
37
100
AcDbDictionary
280
     1
281
     1
  3
ACAD_XREC_ROUNDTRIP
360
91
  0
XRECORD
  5
81
102
{ACAD_REACTORS
330
80
102
}
330
80
100
AcDbXrecord
280
     1
102
RTVSPropertyOp0
 70
     1
102
RTVSPropertyOp1
 70
     1
102
RTVSPropertyOp2
 70
     1
102
RTVSPropertyOp3
 70
     1
102
RTVSPropertyOp4
 70
     1
102
RTVSPropertyOp5
 70
     1
102
RTVSPropertyOp6
 70
     1
102
RTVSPropertyOp7
 70
     1
102
RTVSPropertyOp8
 70
     1
102
RTVSPropertyOp9
 70
     1
102
RTVSPropertyOp10
 70
     1
102
RTVSPropertyOp11
 70
     1
102
RTVSPropertyOp12
 70
     1
102
RTVSPropertyOp13
 70
     1
102
RTVSPropertyOp14
 70
     1
102
RTVSPropertyOp15
 70
     1
102
RTVSPropertyOp16
 70
     1
102
RTVSPropertyOp17
 70
     1
102
RTVSPropertyOp18
 70
     1
102
RTVSPropertyOp19
 70
     1
102
RTVSPropertyOp20
 70
     1
102
RTVSPropertyOp21
 70
     1
102
RTVSPropertyOp22
 70
     1
102
RTVSPropertyOp23
 70
     1
102
RTVSPropertyOp24
 70
     1
102
RTVSPropertyOp25
 70
     1
102
RTVSPropertyOp26
 70
     1
102
RTVSPropertyOp27
 70
     1
102
RTVSPropertyOp28
 70
     1
102
RTVSPropertyOp29
 70
     1
102
RTVSPropertyOp30
 70
     1
102
RTVSPropertyOp31
 70
     1
102
RTVSPropertyOp32
 70
     1
  0
XRECORD
  5
85
102
{ACAD_REACTORS
330
84
102
}
330
84
100
AcDbXrecord
280
     1
102
RTVSPropertyOp0
 70
     1
102
RTVSPropertyOp1
 70
     1
102
RTVSPropertyOp2
 70
     1
102
RTVSPropertyOp3
 70
     1
102
RTVSPropertyOp4
 70
     1
102
RTVSPropertyOp5
 70
     1
102
RTVSPropertyOp6
 70
     1
102
RTVSPropertyOp7
 70
     1
102
RTVSPropertyOp8
 70
     1
102
RTVSPropertyOp9
 70
     1
102
RTVSPropertyOp10
 70
     1
102
RTVSPropertyOp11
 70
     1
102
RTVSPropertyOp12
 70
     1
102
RTVSPropertyOp13
 70
     1
102
RTVSPropertyOp14
 70
     1
102
RTVSPropertyOp15
 70
     1
102
RTVSPropertyOp16
 70
     1
102
RTVSPropertyOp17
 70
     1
102
RTVSPropertyOp18
 70
     1
102
RTVSPropertyOp19
 70
     1
102
RTVSPropertyOp20
 70
     1
102
RTVSPropertyOp21
 70
     1
102
RTVSPropertyOp22
 70
     1
102
RTVSPropertyOp23
 70
     1
102
RTVSPropertyOp24
 70
     1
102
RTVSPropertyOp25
 70
     1
102
RTVSPropertyOp26
 70
     1
102
RTVSPropertyOp27
 70
     1
102
RTVSPropertyOp28
 70
     1
102
RTVSPropertyOp29
 70
     1
102
RTVSPropertyOp30
 70
     1
102
RTVSPropertyOp31
 70
     1
102
RTVSPropertyOp32
 70
     1
  0
XRECORD
  5
83
102
{ACAD_REACTORS
330
82
102
}
330
82
100
AcDbXrecord
280
     1
102
RTVSPropertyOp0
 70
     1
102
RTVSPropertyOp1
 70
     1
102
RTVSPropertyOp2
 70
     1
102
RTVSPropertyOp3
 70
     1
102
RTVSPropertyOp4
 70
     1
102
RTVSPropertyOp5
 70
     1
102
RTVSPropertyOp6
 70
     1
102
RTVSPropertyOp7
 70
     1
102
RTVSPropertyOp8
 70
     1
102
RTVSPropertyOp9
 70
     1
102
RTVSPropertyOp10
 70
     1
102
RTVSPropertyOp11
 70
     1
102
RTVSPropertyOp12
 70
     1
102
RTVSPropertyOp13
 70
     1
102
RTVSPropertyOp14
 70
     1
102
RTVSPropertyOp15
 70
     1
102
RTVSPropertyOp16
 70
     1
102
RTVSPropertyOp17
 70
     1
102
RTVSPropertyOp18
 70
     1
102
RTVSPropertyOp19
 70
     1
102
RTVSPropertyOp20
 70
     1
102
RTVSPropertyOp21
 70
     1
102
RTVSPropertyOp22
 70
     1
102
RTVSPropertyOp23
 70
     1
102
RTVSPropertyOp24
 70
     1
102
RTVSPropertyOp25
 70
     1
102
RTVSPropertyOp26
 70
     1
102
RTVSPropertyOp27
 70
     1
102
RTVSPropertyOp28
 70
     1
102
RTVSPropertyOp29
 70
     1
102
RTVSPropertyOp30
 70
     1
102
RTVSPropertyOp31
 70
     1
102
RTVSPropertyOp32
 70
     1
  0
XRECORD
  5
87
102
{ACAD_REACTORS
330
86
102
}
330
86
100
AcDbXrecord
280
     1
102
RTVSPropertyOp0
 70
     1
102
RTVSPropertyOp1
 70
     1
102
RTVSPropertyOp2
 70
     1
102
RTVSPropertyOp3
 70
     1
102
RTVSPropertyOp4
 70
     1
102
RTVSPropertyOp5
 70
     1
102
RTVSPropertyOp6
 70
     1
102
RTVSPropertyOp7
 70
     1
102
RTVSPropertyOp8
 70
     1
102
RTVSPropertyOp9
 70
     1
102
RTVSPropertyOp10
 70
     1
102
RTVSPropertyOp11
 70
     1
102
RTVSPropertyOp12
 70
     1
102
RTVSPropertyOp13
 70
     1
102
RTVSPropertyOp14
 70
     1
102
RTVSPropertyOp15
 70
     1
102
RTVSPropertyOp16
 70
     1
102
RTVSPropertyOp17
 70
     1
102
RTVSPropertyOp18
 70
     1
102
RTVSPropertyOp19
 70
     1
102
RTVSPropertyOp20
 70
     1
102
RTVSPropertyOp21
 70
     1
102
RTVSPropertyOp22
 70
     1
102
RTVSPropertyOp23
 70
     1
102
RTVSPropertyOp24
 70
     1
102
RTVSPropertyOp25
 70
     1
102
RTVSPropertyOp26
 70
     1
102
RTVSPropertyOp27
 70
     1
102
RTVSPropertyOp28
 70
     1
102
RTVSPropertyOp29
 70
     1
102
RTVSPropertyOp30
 70
     1
102
RTVSPropertyOp31
 70
     1
102
RTVSPropertyOp32
 70
     1
  0
XRECORD
  5
8F
102
{ACAD_REACTORS
330
8E
102
}
330
8E
100
AcDbXrecord
280
     1
102
RTVSPropertyOp0
 70
     1
102
RTVSPropertyOp1
 70
     1
102
RTVSPropertyOp2
 70
     1
102
RTVSPropertyOp3
 70
     1
102
RTVSPropertyOp4
 70
     1
102
RTVSPropertyOp5
 70
     1
102
RTVSPropertyOp6
 70
     1
102
RTVSPropertyOp7
 70
     1
102
RTVSPropertyOp8
 70
     1
102
RTVSPropertyOp9
 70
     1
102
RTVSPropertyOp10
 70
     1
102
RTVSPropertyOp11
 70
     1
102
RTVSPropertyOp12
 70
     1
102
RTVSPropertyOp13
 70
     1
102
RTVSPropertyOp14
 70
     1
102
RTVSPropertyOp15
 70
     1
102
RTVSPropertyOp16
 70
     1
102
RTVSPropertyOp17
 70
     1
102
RTVSPropertyOp18
 70
     1
102
RTVSPropertyOp19
 70
     1
102
RTVSPropertyOp20
 70
     1
102
RTVSPropertyOp21
 70
     1
102
RTVSPropertyOp22
 70
     1
102
RTVSPropertyOp23
 70
     1
102
RTVSPropertyOp24
 70
     1
102
RTVSPropertyOp25
 70
     1
102
RTVSPropertyOp26
 70
     1
102
RTVSPropertyOp27
 70
     1
102
RTVSPropertyOp28
 70
     1
102
RTVSPropertyOp29
 70
     1
102
RTVSPropertyOp30
 70
     1
102
RTVSPropertyOp31
 70
     1
102
RTVSPropertyOp32
 70
     1
  0
XRECORD
  5
97
102
{ACAD_REACTORS
330
96
102
}
330
96
100
AcDbXrecord
280
     1
102
RTVSPropertyOp0
 70
     1
102
RTVSPropertyOp1
 70
     1
102
RTVSPropertyOp2
 70
     1
102
RTVSPropertyOp3
 70
     1
102
RTVSPropertyOp4
 70
     1
102
RTVSPropertyOp5
 70
     1
102
RTVSPropertyOp6
 70
     1
102
RTVSPropertyOp7
 70
     1
102
RTVSPropertyOp8
 70
     1
102
RTVSPropertyOp9
 70
     1
102
RTVSPropertyOp10
 70
     1
102
RTVSPropertyOp11
 70
     1
102
RTVSPropertyOp12
 70
     1
102
RTVSPropertyOp13
 70
     1
102
RTVSPropertyOp14
 70
     1
102
RTVSPropertyOp15
 70
     1
102
RTVSPropertyOp16
 70
     1
102
RTVSPropertyOp17
 70
     1
102
RTVSPropertyOp18
 70
     1
102
RTVSPropertyOp19
 70
     1
102
RTVSPropertyOp20
 70
     1
102
RTVSPropertyOp21
 70
     1
102
RTVSPropertyOp22
 70
     1
102
RTVSPropertyOp23
 70
     1
102
RTVSPropertyOp24
 70
     1
102
RTVSPropertyOp25
 70
     1
102
RTVSPropertyOp26
 70
     1
102
RTVSPropertyOp27
 70
     1
102
RTVSPropertyOp28
 70
     1
102
RTVSPropertyOp29
 70
     1
102
RTVSPropertyOp30
 70
     1
102
RTVSPropertyOp31
 70
     1
102
RTVSPropertyOp32
 70
     1
  0
XRECORD
  5
8B
102
{ACAD_REACTORS
330
8A
102
}
330
8A
100
AcDbXrecord
280
     1
102
RTVSPropertyOp0
 70
     1
102
RTVSPropertyOp1
 70
     1
102
RTVSPropertyOp2
 70
     1
102
RTVSPropertyOp3
 70
     1
102
RTVSPropertyOp4
 70
     1
102
RTVSPropertyOp5
 70
     1
102
RTVSPropertyOp6
 70
     1
102
RTVSPropertyOp7
 70
     1
102
RTVSPropertyOp8
 70
     1
102
RTVSPropertyOp9
 70
     1
102
RTVSPropertyOp10
 70
     1
102
RTVSPropertyOp11
 70
     1
102
RTVSPropertyOp12
 70
     1
102
RTVSPropertyOp13
 70
     1
102
RTVSPropertyOp14
 70
     1
102
RTVSPropertyOp15
 70
     1
102
RTVSPropertyOp16
 70
     1
102
RTVSPropertyOp17
 70
     1
102
RTVSPropertyOp18
 70
     1
102
RTVSPropertyOp19
 70
     1
102
RTVSPropertyOp20
 70
     1
102
RTVSPropertyOp21
 70
     1
102
RTVSPropertyOp22
 70
     1
102
RTVSPropertyOp23
 70
     1
102
RTVSPropertyOp24
 70
     1
102
RTVSPropertyOp25
 70
     1
102
RTVSPropertyOp26
 70
     1
102
RTVSPropertyOp27
 70
     1
102
RTVSPropertyOp28
 70
     1
102
RTVSPropertyOp29
 70
     1
102
RTVSPropertyOp30
 70
     1
102
RTVSPropertyOp31
 70
     1
102
RTVSPropertyOp32
 70
     1
  0
XRECORD
  5
8D
102
{ACAD_REACTORS
330
8C
102
}
330
8C
100
AcDbXrecord
280
     1
102
RTVSPropertyOp0
 70
     1
102
RTVSPropertyOp1
 70
     1
102
RTVSPropertyOp2
 70
     1
102
RTVSPropertyOp3
 70
     1
102
RTVSPropertyOp4
 70
     1
102
RTVSPropertyOp5
 70
     1
102
RTVSPropertyOp6
 70
     1
102
RTVSPropertyOp7
 70
     1
102
RTVSPropertyOp8
 70
     1
102
RTVSPropertyOp9
 70
     1
102
RTVSPropertyOp10
 70
     1
102
RTVSPropertyOp11
 70
     1
102
RTVSPropertyOp12
 70
     1
102
RTVSPropertyOp13
 70
     1
102
RTVSPropertyOp14
 70
     1
102
RTVSPropertyOp15
 70
     1
102
RTVSPropertyOp16
 70
     1
102
RTVSPropertyOp17
 70
     1
102
RTVSPropertyOp18
 70
     1
102
RTVSPropertyOp19
 70
     1
102
RTVSPropertyOp20
 70
     1
102
RTVSPropertyOp21
 70
     1
102
RTVSPropertyOp22
 70
     1
102
RTVSPropertyOp23
 70
     1
102
RTVSPropertyOp24
 70
     1
102
RTVSPropertyOp25
 70
     1
102
RTVSPropertyOp26
 70
     1
102
RTVSPropertyOp27
 70
     1
102
RTVSPropertyOp28
 70
     1
102
RTVSPropertyOp29
 70
     1
102
RTVSPropertyOp30
 70
     1
102
RTVSPropertyOp31
 70
     1
102
RTVSPropertyOp32
 70
     1
  0
XRECORD
  5
95
102
{ACAD_REACTORS
330
94
102
}
330
94
100
AcDbXrecord
280
     1
102
RTVSPropertyOp0
 70
     1
102
RTVSPropertyOp1
 70
     1
102
RTVSPropertyOp2
 70
     1
102
RTVSPropertyOp3
 70
     1
102
RTVSPropertyOp4
 70
     1
102
RTVSPropertyOp5
 70
     1
102
RTVSPropertyOp6
 70
     1
102
RTVSPropertyOp7
 70
     1
102
RTVSPropertyOp8
 70
     1
102
RTVSPropertyOp9
 70
     1
102
RTVSPropertyOp10
 70
     1
102
RTVSPropertyOp11
 70
     1
102
RTVSPropertyOp12
 70
     1
102
RTVSPropertyOp13
 70
     1
102
RTVSPropertyOp14
 70
     1
102
RTVSPropertyOp15
 70
     1
102
RTVSPropertyOp16
 70
     1
102
RTVSPropertyOp17
 70
     1
102
RTVSPropertyOp18
 70
     1
102
RTVSPropertyOp19
 70
     1
102
RTVSPropertyOp20
 70
     1
102
RTVSPropertyOp21
 70
     1
102
RTVSPropertyOp22
 70
     1
102
RTVSPropertyOp23
 70
     1
102
RTVSPropertyOp24
 70
     1
102
RTVSPropertyOp25
 70
     1
102
RTVSPropertyOp26
 70
     1
102
RTVSPropertyOp27
 70
     1
102
RTVSPropertyOp28
 70
     1
102
RTVSPropertyOp29
 70
     1
102
RTVSPropertyOp30
 70
     1
102
RTVSPropertyOp31
 70
     1
102
RTVSPropertyOp32
 70
     1
  0
XRECORD
  5
79
102
{ACAD_REACTORS
330
78
102
}
330
78
100
AcDbXrecord
280
     1
102
RTVSPropertyOp0
 70
     1
102
RTVSPropertyOp1
 70
     1
102
RTVSPropertyOp2
 70
     1
102
RTVSPropertyOp3
 70
     1
102
RTVSPropertyOp4
 70
     1
102
RTVSPropertyOp5
 70
     1
102
RTVSPropertyOp6
 70
     1
102
RTVSPropertyOp7
 70
     1
102
RTVSPropertyOp8
 70
     1
102
RTVSPropertyOp9
 70
     1
102
RTVSPropertyOp10
 70
     1
102
RTVSPropertyOp11
 70
     1
102
RTVSPropertyOp12
 70
     1
102
RTVSPropertyOp13
 70
     1
102
RTVSPropertyOp14
 70
     1
102
RTVSPropertyOp15
 70
     1
102
RTVSPropertyOp16
 70
     1
102
RTVSPropertyOp17
 70
     1
102
RTVSPropertyOp18
 70
     1
102
RTVSPropertyOp19
 70
     1
102
RTVSPropertyOp20
 70
     1
102
RTVSPropertyOp21
 70
     1
102
RTVSPropertyOp22
 70
     1
102
RTVSPropertyOp23
 70
     1
102
RTVSPropertyOp24
 70
     1
102
RTVSPropertyOp25
 70
     1
102
RTVSPropertyOp26
 70
     1
102
RTVSPropertyOp27
 70
     1
102
RTVSPropertyOp28
 70
     1
102
RTVSPropertyOp29
 70
     1
102
RTVSPropertyOp30
 70
     1
102
RTVSPropertyOp31
 70
     1
102
RTVSPropertyOp32
 70
     1
  0
XRECORD
  5
7B
102
{ACAD_REACTORS
330
7A
102
}
330
7A
100
AcDbXrecord
280
     1
102
RTVSPropertyOp0
 70
     1
102
RTVSPropertyOp1
 70
     1
102
RTVSPropertyOp2
 70
     1
102
RTVSPropertyOp3
 70
     1
102
RTVSPropertyOp4
 70
     1
102
RTVSPropertyOp5
 70
     1
102
RTVSPropertyOp6
 70
     1
102
RTVSPropertyOp7
 70
     1
102
RTVSPropertyOp8
 70
     1
102
RTVSPropertyOp9
 70
     1
102
RTVSPropertyOp10
 70
     1
102
RTVSPropertyOp11
 70
     1
102
RTVSPropertyOp12
 70
     1
102
RTVSPropertyOp13
 70
     1
102
RTVSPropertyOp14
 70
     1
102
RTVSPropertyOp15
 70
     1
102
RTVSPropertyOp16
 70
     1
102
RTVSPropertyOp17
 70
     1
102
RTVSPropertyOp18
 70
     1
102
RTVSPropertyOp19
 70
     1
102
RTVSPropertyOp20
 70
     1
102
RTVSPropertyOp21
 70
     1
102
RTVSPropertyOp22
 70
     1
102
RTVSPropertyOp23
 70
     1
102
RTVSPropertyOp24
 70
     1
102
RTVSPropertyOp25
 70
     1
102
RTVSPropertyOp26
 70
     1
102
RTVSPropertyOp27
 70
     1
102
RTVSPropertyOp28
 70
     1
102
RTVSPropertyOp29
 70
     1
102
RTVSPropertyOp30
 70
     1
102
RTVSPropertyOp31
 70
     1
102
RTVSPropertyOp32
 70
     1
  0
XRECORD
  5
7D
102
{ACAD_REACTORS
330
7C
102
}
330
7C
100
AcDbXrecord
280
     1
102
RTVSPropertyOp0
 70
     1
102
RTVSPropertyOp1
 70
     1
102
RTVSPropertyOp2
 70
     1
102
RTVSPropertyOp3
 70
     1
102
RTVSPropertyOp4
 70
     1
102
RTVSPropertyOp5
 70
     1
102
RTVSPropertyOp6
 70
     1
102
RTVSPropertyOp7
 70
     1
102
RTVSPropertyOp8
 70
     1
102
RTVSPropertyOp9
 70
     1
102
RTVSPropertyOp10
 70
     1
102
RTVSPropertyOp11
 70
     1
102
RTVSPropertyOp12
 70
     1
102
RTVSPropertyOp13
 70
     1
102
RTVSPropertyOp14
 70
     1
102
RTVSPropertyOp15
 70
     1
102
RTVSPropertyOp16
 70
     1
102
RTVSPropertyOp17
 70
     1
102
RTVSPropertyOp18
 70
     1
102
RTVSPropertyOp19
 70
     1
102
RTVSPropertyOp20
 70
     1
102
RTVSPropertyOp21
 70
     1
102
RTVSPropertyOp22
 70
     1
102
RTVSPropertyOp23
 70
     1
102
RTVSPropertyOp24
 70
     1
102
RTVSPropertyOp25
 70
     1
102
RTVSPropertyOp26
 70
     1
102
RTVSPropertyOp27
 70
     1
102
RTVSPropertyOp28
 70
     1
102
RTVSPropertyOp29
 70
     1
102
RTVSPropertyOp30
 70
     1
102
RTVSPropertyOp31
 70
     1
102
RTVSPropertyOp32
 70
     1
  0
XRECORD
  5
7F
102
{ACAD_REACTORS
330
7E
102
}
330
7E
100
AcDbXrecord
280
     1
102
RTVSPropertyOp0
 70
     1
102
RTVSPropertyOp1
 70
     1
102
RTVSPropertyOp2
 70
     1
102
RTVSPropertyOp3
 70
     1
102
RTVSPropertyOp4
 70
     1
102
RTVSPropertyOp5
 70
     1
102
RTVSPropertyOp6
 70
     1
102
RTVSPropertyOp7
 70
     1
102
RTVSPropertyOp8
 70
     1
102
RTVSPropertyOp9
 70
     1
102
RTVSPropertyOp10
 70
     1
102
RTVSPropertyOp11
 70
     1
102
RTVSPropertyOp12
 70
     1
102
RTVSPropertyOp13
 70
     1
102
RTVSPropertyOp14
 70
     1
102
RTVSPropertyOp15
 70
     1
102
RTVSPropertyOp16
 70
     1
102
RTVSPropertyOp17
 70
     1
102
RTVSPropertyOp18
 70
     1
102
RTVSPropertyOp19
 70
     1
102
RTVSPropertyOp20
 70
     1
102
RTVSPropertyOp21
 70
     1
102
RTVSPropertyOp22
 70
     1
102
RTVSPropertyOp23
 70
     1
102
RTVSPropertyOp24
 70
     1
102
RTVSPropertyOp25
 70
     1
102
RTVSPropertyOp26
 70
     1
102
RTVSPropertyOp27
 70
     1
102
RTVSPropertyOp28
 70
     1
102
RTVSPropertyOp29
 70
     1
102
RTVSPropertyOp30
 70
     1
102
RTVSPropertyOp31
 70
     1
102
RTVSPropertyOp32
 70
     1
  0
XRECORD
  5
93
102
{ACAD_REACTORS
330
92
102
}
330
92
100
AcDbXrecord
280
     1
102
RTVSPropertyOp0
 70
     1
102
RTVSPropertyOp1
 70
     1
102
RTVSPropertyOp2
 70
     1
102
RTVSPropertyOp3
 70
     1
102
RTVSPropertyOp4
 70
     1
102
RTVSPropertyOp5
 70
     1
102
RTVSPropertyOp6
 70
     1
102
RTVSPropertyOp7
 70
     1
102
RTVSPropertyOp8
 70
     1
102
RTVSPropertyOp9
 70
     1
102
RTVSPropertyOp10
 70
     1
102
RTVSPropertyOp11
 70
     1
102
RTVSPropertyOp12
 70
     1
102
RTVSPropertyOp13
 70
     1
102
RTVSPropertyOp14
 70
     1
102
RTVSPropertyOp15
 70
     1
102
RTVSPropertyOp16
 70
     1
102
RTVSPropertyOp17
 70
     1
102
RTVSPropertyOp18
 70
     1
102
RTVSPropertyOp19
 70
     1
102
RTVSPropertyOp20
 70
     1
102
RTVSPropertyOp21
 70
     1
102
RTVSPropertyOp22
 70
     1
102
RTVSPropertyOp23
 70
     1
102
RTVSPropertyOp24
 70
     1
102
RTVSPropertyOp25
 70
     1
102
RTVSPropertyOp26
 70
     1
102
RTVSPropertyOp27
 70
     1
102
RTVSPropertyOp28
 70
     1
102
RTVSPropertyOp29
 70
     1
102
RTVSPropertyOp30
 70
     1
102
RTVSPropertyOp31
 70
     1
102
RTVSPropertyOp32
 70
     1
  0
XRECORD
  5
89
102
{ACAD_REACTORS
330
88
102
}
330
88
100
AcDbXrecord
280
     1
102
RTVSPropertyOp0
 70
     1
102
RTVSPropertyOp1
 70
     1
102
RTVSPropertyOp2
 70
     1
102
RTVSPropertyOp3
 70
     1
102
RTVSPropertyOp4
 70
     1
102
RTVSPropertyOp5
 70
     1
102
RTVSPropertyOp6
 70
     1
102
RTVSPropertyOp7
 70
     1
102
RTVSPropertyOp8
 70
     1
102
RTVSPropertyOp9
 70
     1
102
RTVSPropertyOp10
 70
     1
102
RTVSPropertyOp11
 70
     1
102
RTVSPropertyOp12
 70
     1
102
RTVSPropertyOp13
 70
     1
102
RTVSPropertyOp14
 70
     1
102
RTVSPropertyOp15
 70
     1
102
RTVSPropertyOp16
 70
     1
102
RTVSPropertyOp17
 70
     1
102
RTVSPropertyOp18
 70
     1
102
RTVSPropertyOp19
 70
     1
102
RTVSPropertyOp20
 70
     1
102
RTVSPropertyOp21
 70
     1
102
RTVSPropertyOp22
 70
     1
102
RTVSPropertyOp23
 70
     1
102
RTVSPropertyOp24
 70
     1
102
RTVSPropertyOp25
 70
     1
102
RTVSPropertyOp26
 70
     1
102
RTVSPropertyOp27
 70
     1
102
RTVSPropertyOp28
 70
     1
102
RTVSPropertyOp29
 70
     1
102
RTVSPropertyOp30
 70
     1
102
RTVSPropertyOp31
 70
     1
102
RTVSPropertyOp32
 70
     1
  0
XRECORD
  5
91
102
{ACAD_REACTORS
330
90
102
}
330
90
100
AcDbXrecord
280
     1
102
RTVSPropertyOp0
 70
     1
102
RTVSPropertyOp1
 70
     1
102
RTVSPropertyOp2
 70
     1
102
RTVSPropertyOp3
 70
     1
102
RTVSPropertyOp4
 70
     1
102
RTVSPropertyOp5
 70
     1
102
RTVSPropertyOp6
 70
     1
102
RTVSPropertyOp7
 70
     1
102
RTVSPropertyOp8
 70
     1
102
RTVSPropertyOp9
 70
     1
102
RTVSPropertyOp10
 70
     1
102
RTVSPropertyOp11
 70
     1
102
RTVSPropertyOp12
 70
     1
102
RTVSPropertyOp13
 70
     1
102
RTVSPropertyOp14
 70
     1
102
RTVSPropertyOp15
 70
     1
102
RTVSPropertyOp16
 70
     1
102
RTVSPropertyOp17
 70
     1
102
RTVSPropertyOp18
 70
     1
102
RTVSPropertyOp19
 70
     1
102
RTVSPropertyOp20
 70
     1
102
RTVSPropertyOp21
 70
     1
102
RTVSPropertyOp22
 70
     1
102
RTVSPropertyOp23
 70
     1
102
RTVSPropertyOp24
 70
     1
102
RTVSPropertyOp25
 70
     1
102
RTVSPropertyOp26
 70
     1
102
RTVSPropertyOp27
 70
     1
102
RTVSPropertyOp28
 70
     1
102
RTVSPropertyOp29
 70
     1
102
RTVSPropertyOp30
 70
     1
102
RTVSPropertyOp31
 70
     1
102
RTVSPropertyOp32
 70
     1
  0
ENDSEC
  0
EOF
