  0
SECTION
  2
HEADER
  9
$ACADVER
  1
AC1021
  9
$ACADMAINTVER
 70
    25
  9
$DWGCODEPAGE
  3
ANSI_1252
  9
$INSBASE
 10
0.0
 20
0.0
 30
0.0
  9
$EXTMIN
 10
-109.55
 20
-94.3724
 30
0.0
  9
$EXTMAX
 10
35.4118
 20
122.1799
 30
0.0
  9
$LIMMIN
 10
0.0
 20
0.0
  9
$LIMMAX
 10
12.0
 20
9.0
  9
$ORTHOMODE
 70
     0
  9
$REGENMODE
 70
     1
  9
$FILLMODE
 70
     1
  9
$QTEXTMODE
 70
     0
  9
$MIRRTEXT
 70
     1
  9
$LTSCALE
 40
1.0
  9
$ATTMODE
 70
     1
  9
$TEXTSIZE
 40
0.2
  9
$TRACEWID
 40
0.05
  9
$TEXTSTYLE
  7
Standard
  9
$CLAYER
  8
0
  9
$CELTYPE
  6
ByLayer
  9
$CECOLOR
 62
   256
  9
$CELTSCALE
 40
1.0
  9
$DISPSILH
 70
     0
  9
$DIMSCALE
 40
1.0
  9
$DIMASZ
 40
0.18
  9
$DIMEXO
 40
0.0625
  9
$DIMDLI
 40
0.38
  9
$DIMRND
 40
0.0
  9
$DIMDLE
 40
0.0
  9
$DIMEXE
 40
0.18
  9
$DIMTP
 40
0.0
  9
$DIMTM
 40
0.0
  9
$DIMTXT
 40
0.18
  9
$DIMCEN
 40
0.09
  9
$DIMTSZ
 40
0.0
  9
$DIMTOL
 70
     0
  9
$DIMLIM
 70
     0
  9
$DIMTIH
 70
     1
  9
$DIMTOH
 70
     1
  9
$DIMSE1
 70
     0
  9
$DIMSE2
 70
     0
  9
$DIMTAD
 70
     0
  9
$DIMZIN
 70
     0
  9
$DIMBLK
  1

  9
$DIMASO
 70
     1
  9
$DIMSHO
 70
     1
  9
$DIMPOST
  1

  9
$DIMAPOST
  1

  9
$DIMALT
 70
     0
  9
$DIMALTD
 70
     2
  9
$DIMALTF
 40
25.4
  9
$DIMLFAC
 40
1.0
  9
$DIMTOFL
 70
     0
  9
$DIMTVP
 40
0.0
  9
$DIMTIX
 70
     0
  9
$DIMSOXD
 70
     0
  9
$DIMSAH
 70
     0
  9
$DIMBLK1
  1

  9
$DIMBLK2
  1

  9
$DIMSTYLE
  2
Standard
  9
$DIMCLRD
 70
     0
  9
$DIMCLRE
 70
     0
  9
$DIMCLRT
 70
     0
  9
$DIMTFAC
 40
1.0
  9
$DIMGAP
 40
0.09
  9
$DIMJUST
 70
     0
  9
$DIMSD1
 70
     0
  9
$DIMSD2
 70
     0
  9
$DIMTOLJ
 70
     1
  9
$DIMTZIN
 70
     0
  9
$DIMALTZ
 70
     0
  9
$DIMALTTZ
 70
     0
  9
$DIMUPT
 70
     0
  9
$DIMDEC
 70
     4
  9
$DIMTDEC
 70
     4
  9
$DIMALTU
 70
     2
  9
$DIMALTTD
 70
     2
  9
$DIMTXSTY
  7
Standard
  9
$DIMAUNIT
 70
     0
  9
$DIMADEC
 70
     0
  9
$DIMALTRND
 40
0.0
  9
$DIMAZIN
 70
     0
  9
$DIMDSEP
 70
    46
  9
$DIMATFIT
 70
     3
  9
$DIMFRAC
 70
     0
  9
$DIMLDRBLK
  1

  9
$DIMLUNIT
 70
     2
  9
$DIMLWD
 70
    -2
  9
$DIMLWE
 70
    -2
  9
$DIMTMOVE
 70
     0
  9
$DIMFXL
 40
1.0
  9
$DIMFXLON
 70
     0
  9
$DIMJOGANG
 40
0.7853981633974483
  9
$DIMTFILL
 70
     0
  9
$DIMTFILLCLR
 70
     0
  9
$DIMARCSYM
 70
     0
  9
$DIMLTYPE
  6

  9
$DIMLTEX1
  6

  9
$DIMLTEX2
  6

  9
$LUNITS
 70
     2
  9
$LUPREC
 70
     4
  9
$SKETCHINC
 40
0.1
  9
$FILLETRAD
 40
0.5
  9
$AUNITS
 70
     0
  9
$AUPREC
 70
     0
  9
$MENU
  1
.
  9
$ELEVATION
 40
0.0
  9
$PELEVATION
 40
0.0
  9
$THICKNESS
 40
0.0
  9
$LIMCHECK
 70
     0
  9
$CHAMFERA
 40
0.5
  9
$CHAMFERB
 40
0.5
  9
$CHAMFERC
 40
1.0
  9
$CHAMFERD
 40
0.0
  9
$SKPOLY
 70
     0
  9
$TDCREATE
 40
2458493.737974687
  9
$TDUCREATE
 40
2458493.737974687
  9
$TDUPDATE
 40
2458493.737974965
  9
$TDUUPDATE
 40
2458493.737974965
  9
$TDINDWG
 40
0.0000000116
  9
$TDUSRTIMER
 40
0.0000000116
  9
$USRTIMER
 70
     1
  9
$ANGBASE
 50
0.0
  9
$ANGDIR
 70
     0
  9
$PDMODE
 70
     0
  9
$PDSIZE
 40
0.0
  9
$PLINEWID
 40
0.0
  9
$SPLFRAME
 70
     0
  9
$SPLINETYPE
 70
     6
  9
$SPLINESEGS
 70
     8
  9
$HANDSEED
  5
AD
  9
$SURFTAB1
 70
     6
  9
$SURFTAB2
 70
     6
  9
$SURFTYPE
 70
     6
  9
$SURFU
 70
     6
  9
$SURFV
 70
     6
  9
$UCSBASE
  2

  9
$UCSNAME
  2

  9
$UCSORG
 10
0.0
 20
0.0
 30
0.0
  9
$UCSXDIR
 10
1.0
 20
0.0
 30
0.0
  9
$UCSYDIR
 10
0.0
 20
1.0
 30
0.0
  9
$UCSORTHOREF
  2

  9
$UCSORTHOVIEW
 70
     0
  9
$UCSORGTOP
 10
0.0
 20
0.0
 30
0.0
  9
$UCSORGBOTTOM
 10
0.0
 20
0.0
 30
0.0
  9
$UCSORGLEFT
 10
0.0
 20
0.0
 30
0.0
  9
$UCSORGRIGHT
 10
0.0
 20
0.0
 30
0.0
  9
$UCSORGFRONT
 10
0.0
 20
0.0
 30
0.0
  9
$UCSORGBACK
 10
0.0
 20
0.0
 30
0.0
  9
$PUCSBASE
  2

  9
$PUCSNAME
  2

  9
$PUCSORG
 10
0.0
 20
0.0
 30
0.0
  9
$PUCSXDIR
 10
1.0
 20
0.0
 30
0.0
  9
$PUCSYDIR
 10
0.0
 20
1.0
 30
0.0
  9
$PUCSORTHOREF
  2

  9
$PUCSORTHOVIEW
 70
     0
  9
$PUCSORGTOP
 10
0.0
 20
0.0
 30
0.0
  9
$PUCSORGBOTTOM
 10
0.0
 20
0.0
 30
0.0
  9
$PUCSORGLEFT
 10
0.0
 20
0.0
 30
0.0
  9
$PUCSORGRIGHT
 10
0.0
 20
0.0
 30
0.0
  9
$PUCSORGFRONT
 10
0.0
 20
0.0
 30
0.0
  9
$PUCSORGBACK
 10
0.0
 20
0.0
 30
0.0
  9
$USERI1
 70
     0
  9
$USERI2
 70
     0
  9
$USERI3
 70
     0
  9
$USERI4
 70
     0
  9
$USERI5
 70
     0
  9
$USERR1
 40
0.0
  9
$USERR2
 40
0.0
  9
$USERR3
 40
0.0
  9
$USERR4
 40
0.0
  9
$USERR5
 40
0.0
  9
$WORLDVIEW
 70
     1
  9
$SHADEDGE
 70
     3
  9
$SHADEDIF
 70
    70
  9
$TILEMODE
 70
     1
  9
$MAXACTVP
 70
    64
  9
$PINSBASE
 10
0.0
 20
0.0
 30
0.0
  9
$PLIMCHECK
 70
     0
  9
$PEXTMIN
 10
1.000000000000000E+20
 20
1.000000000000000E+20
 30
1.000000000000000E+20
  9
$PEXTMAX
 10
-1.000000000000000E+20
 20
-1.000000000000000E+20
 30
-1.000000000000000E+20
  9
$PLIMMIN
 10
0.0
 20
0.0
  9
$PLIMMAX
 10
12.0
 20
9.0
  9
$UNITMODE
 70
     0
  9
$VISRETAIN
 70
     1
  9
$PLINEGEN
 70
     0
  9
$PSLTSCALE
 70
     1
  9
$TREEDEPTH
 70
  3020
  9
$CMLSTYLE
  2
Standard
  9
$CMLJUST
 70
     0
  9
$CMLSCALE
 40
1.0
  9
$PROXYGRAPHICS
 70
     1
  9
$MEASUREMENT
 70
     0
  9
$CELWEIGHT
370
    -1
  9
$ENDCAPS
280
     0
  9
$JOINSTYLE
280
     0
  9
$LWDISPLAY
290
     0
  9
$INSUNITS
 70
     4
  9
$HYPERLINKBASE
  1

  9
$STYLESHEET
  1

  9
$XEDIT
290
     1
  9
$CEPSNTYPE
380
     0
  9
$PSTYLEMODE
290
     1
  9
$FINGERPRINTGUID
  2
{2B37E82F-9835-4CBB-93CC-702EDF261715}
  9
$VERSIONGUID
  2
{FAEB1C32-E019-11D5-929B-00C0DF256EC4}
  9
$EXTNAMES
290
     1
  9
$PSVPSCALE
 40
0.0
  9
$OLESTARTUP
290
     0
  9
$SORTENTS
280
   127
  9
$INDEXCTL
280
     0
  9
$HIDETEXT
280
     1
  9
$XCLIPFRAME
290
     0
  9
$HALOGAP
280
     0
  9
$OBSCOLOR
 70
   257
  9
$OBSLTYPE
280
     0
  9
$INTERSECTIONDISPLAY
280
     0
  9
$INTERSECTIONCOLOR
 70
   257
  9
$DIMASSOC
280
     2
  9
$PROJECTNAME
  1

  9
$CAMERADISPLAY
290
     0
  9
$LENSLENGTH
 40
50.0
  9
$CAMERAHEIGHT
 40
0.0
  9
$STEPSPERSEC
 40
2.0
  9
$STEPSIZE
 40
6.0
  9
$3DDWFPREC
 40
2.0
  9
$PSOLWIDTH
 40
0.25
  9
$PSOLHEIGHT
 40
4.0
  9
$LOFTANG1
 40
1.570796326794897
  9
$LOFTANG2
 40
1.570796326794897
  9
$LOFTMAG1
 40
0.0
  9
$LOFTMAG2
 40
0.0
  9
$LOFTPARAM
 70
     7
  9
$LOFTNORMALS
280
     1
  9
$LATITUDE
 40
37.795
  9
$LONGITUDE
 40
-122.394
  9
$NORTHDIRECTION
 40
0.0
  9
$TIMEZONE
 70
 -8000
  9
$LIGHTGLYPHDISPLAY
280
     1
  9
$TILEMODELIGHTSYNCH
280
     1
  9
$SOLIDHIST
280
     1
  9
$SHOWHIST
280
     1
  9
$DWFFRAME
280
     2
  9
$DGNFRAME
280
     2
  9
$REALWORLDSCALE
290
     1
  9
$INTERFERECOLOR
 62
   256
  9
$CSHADOW
280
     0
  9
$SHADOWPLANELOCATION
 40
0.0
  0
ENDSEC
  0
SECTION
  2
CLASSES
  0
CLASS
  1
ACDBDICTIONARYWDFLT
  2
AcDbDictionaryWithDefault
  3
ObjectDBX Classes
 90
        0
 91
        4
280
     0
281
     0
  0
CLASS
  1
VISUALSTYLE
  2
AcDbVisualStyle
  3
ObjectDBX Classes
 90
     4095
 91
        4
280
     0
281
     0
  0
CLASS
  1
MATERIAL
  2
AcDbMaterial
  3
ObjectDBX Classes
 90
     1153
 91
        4
280
     0
281
     0
  0
ENDSEC
  0
SECTION
  2
TABLES
  0
TABLE
  2
VPORT
  5
8
330
0
100
AcDbSymbolTable
 70
     1
  0
VPORT
  5
29
330
8
100
AcDbSymbolTableRecord
100
AcDbViewportTableRecord
  2
*Active
 70
     0
 10
0.0
 20
0.0
 11
1.0
 21
1.0
 12
10.42990654205607
 22
4.5
 13
0.0
 23
0.0
 14
0.5
 24
0.5
 15
0.5
 25
0.5
 16
0.0
 26
0.0
 36
1.0
 17
0.0
 27
0.0
 37
0.0
 40
9.0
 41
1.972972972850329
 42
50.0
 43
0.0
 44
0.0
 50
0.0
 51
0.0
 71
     0
 72
   100
 73
     1
 74
     3
 75
     0
 76
     0
 77
     0
 78
     0
281
     0
 65
     1
110
0.0
120
0.0
130
0.0
111
1.0
121
0.0
131
0.0
112
0.0
122
1.0
132
0.0
 79
     0
146
0.0
 60
     3
 61
     5
292
     1
282
     1
141
0.0
142
0.0
 63
   250
  0
ENDTAB
  0
TABLE
  2
LTYPE
  5
5
330
0
100
AcDbSymbolTable
 70
     1
  0
LTYPE
  5
14
330
5
100
AcDbSymbolTableRecord
100
AcDbLinetypeTableRecord
  2
ByBlock
 70
     0
  3

 72
    65
 73
     0
 40
0.0
  0
LTYPE
  5
15
330
5
100
AcDbSymbolTableRecord
100
AcDbLinetypeTableRecord
  2
ByLayer
 70
     0
  3

 72
    65
 73
     0
 40
0.0
  0
LTYPE
  5
16
330
5
100
AcDbSymbolTableRecord
100
AcDbLinetypeTableRecord
  2
Continuous
 70
     0
  3
Solid line
 72
    65
 73
     0
 40
0.0
  0
ENDTAB
  0
TABLE
  2
LAYER
  5
2
330
0
100
AcDbSymbolTable
 70
     3
  0
LAYER
  5
10
330
2
100
AcDbSymbolTableRecord
100
AcDbLayerTableRecord
  2
0
 70
     0
 62
     7
  6
Continuous
370
    -3
390
F
347
3E
  0
LAYER
  5
40
330
2
100
AcDbSymbolTableRecord
100
AcDbLayerTableRecord
  2
layer 1
 70
     0
 62
     7
  6
Continuous
370
    -3
390
F
347
3E
  0
LAYER
  5
8A
330
2
100
AcDbSymbolTableRecord
100
AcDbLayerTableRecord
  2
Master Guides
 70
     0
 62
     7
  6
Continuous
370
    -3
390
F
347
3E
  0
ENDTAB
  0
TABLE
  2
STYLE
  5
3
330
0
100
AcDbSymbolTable
 70
     1
  0
STYLE
  5
11
330
3
100
AcDbSymbolTableRecord
100
AcDbTextStyleTableRecord
  2
Standard
 70
     0
 40
0.0
 41
1.0
 50
0.0
 71
     0
 42
0.2
  3
txt
  4

  0
ENDTAB
  0
TABLE
  2
VIEW
  5
6
330
0
100
AcDbSymbolTable
 70
     0
  0
ENDTAB
  0
TABLE
  2
UCS
  5
7
330
0
100
AcDbSymbolTable
 70
     0
  0
ENDTAB
  0
TABLE
  2
APPID
  5
9
330
0
100
AcDbSymbolTable
 70
     2
  0
APPID
  5
12
330
9
100
AcDbSymbolTableRecord
100
AcDbRegAppTableRecord
  2
ACAD
 70
     0
  0
APPID
  5
3F
330
9
100
AcDbSymbolTableRecord
100
AcDbRegAppTableRecord
  2
ODA
 70
     0
  0
ENDTAB
  0
TABLE
  2
DIMSTYLE
  5
A
330
0
100
AcDbSymbolTable
 70
     1
100
AcDbDimStyleTable
  0
DIMSTYLE
105
27
330
A
100
AcDbSymbolTableRecord
100
AcDbDimStyleTableRecord
  2
Standard
 70
     0
178
     0
340
11
  0
ENDTAB
  0
TABLE
  2
BLOCK_RECORD
  5
1
330
0
100
AcDbSymbolTable
 70
     1
  0
BLOCK_RECORD
  5
1F
330
1
100
AcDbSymbolTableRecord
100
AcDbBlockTableRecord
  2
*Model_Space
340
22
 70
     0
280
     1
281
     0
  0
BLOCK_RECORD
  5
1B
330
1
100
AcDbSymbolTableRecord
100
AcDbBlockTableRecord
  2
*Paper_Space
340
1E
 70
     0
280
     1
281
     0
  0
BLOCK_RECORD
  5
23
330
1
100
AcDbSymbolTableRecord
100
AcDbBlockTableRecord
  2
*Paper_Space0
340
26
 70
     0
280
     1
281
     0
  0
ENDTAB
  0
ENDSEC
  0
SECTION
  2
BLOCKS
  0
BLOCK
  5
20
330
1F
100
AcDbEntity
  8
0
100
AcDbBlockBegin
  2
*Model_Space
 70
     0
 10
0.0
 20
0.0
 30
0.0
  3
*Model_Space
  1

  0
ENDBLK
  5
21
330
1F
100
AcDbEntity
  8
0
100
AcDbBlockEnd
  0
BLOCK
  5
1C
330
1B
100
AcDbEntity
 67
     1
  8
0
100
AcDbBlockBegin
  2
*Paper_Space
 70
     0
 10
0.0
 20
0.0
 30
0.0
  3
*Paper_Space
  1

  0
ENDBLK
  5
1D
330
1B
100
AcDbEntity
 67
     1
  8
0
100
AcDbBlockEnd
  0
BLOCK
  5
24
330
23
100
AcDbEntity
  8
0
100
AcDbBlockBegin
  2
*Paper_Space0
 70
     0
 10
0.0
 20
0.0
 30
0.0
  3
*Paper_Space0
  1

  0
ENDBLK
  5
25
330
23
100
AcDbEntity
  8
0
100
AcDbBlockEnd
  0
ENDSEC
  0
SECTION
  2
ENTITIES
  0
LWPOLYLINE
  5
41
330
1F
100
AcDbEntity
  8
layer 1
 62
   250
370
     9
100
AcDbPolyline
 90
        5
 70
     1
 43
0.0
 10
-109.5119
 20
-94.3342
 10
35.3737
 20
-94.3342
 10
35.3737
 20
122.1418
 10
-109.5119
 20
122.1418
 10
-109.5119
 20
-94.3342
  0
SPLINE
  5
42
330
1F
100
AcDbEntity
  8
layer 1
 62
     7
100
AcDbSpline
210
0.0
220
0.0
230
1.0
 70
    11
 71
     3
 72
    52
 73
    48
 74
     0
 42
0.0000000001
 43
0.0000000001
 12
1.0
 22
0.0
 32
0.0
 13
1.0
 23
0.0
 33
0.0
 40
0.0
 40
0.0
 40
0.0
 40
0.0
 40
0.0769230769230769
 40
0.0769230769230769
 40
0.0769230769230769
 40
0.0769230769230769
 40
0.1538461538461539
 40
0.1538461538461539
 40
0.1538461538461539
 40
0.1538461538461539
 40
0.2307692307692308
 40
0.2307692307692308
 40
0.2307692307692308
 40
0.2307692307692308
 40
0.3076923076923077
 40
0.3076923076923077
 40
0.3076923076923077
 40
0.3076923076923077
 40
0.3846153846153846
 40
0.3846153846153846
 40
0.3846153846153846
 40
0.3846153846153846
 40
0.4615384615384616
 40
0.4615384615384616
 40
0.4615384615384616
 40
0.4615384615384616
 40
0.5384615384615384
 40
0.5384615384615384
 40
0.5384615384615384
 40
0.5384615384615384
 40
0.6153846153846154
 40
0.6153846153846154
 40
0.6153846153846154
 40
0.6153846153846154
 40
0.6923076923076923
 40
0.6923076923076923
 40
0.6923076923076923
 40
0.6923076923076923
 40
0.7692307692307693
 40
0.7692307692307693
 40
0.7692307692307693
 40
0.7692307692307693
 40
0.8461538461538461
 40
0.8461538461538461
 40
0.8461538461538461
 40
0.8461538461538461
 40
1.0
 40
1.0
 40
1.0
 40
1.0
 10
-86.5067
 20
105.7056
 30
0.0
 10
-86.5067
 20
105.7056
 30
0.0
 10
-86.5246
 20
107.9149
 30
0.0
 10
-86.5246
 20
107.9149
 30
0.0
 10
-86.5246
 20
107.9149
 30
0.0
 10
-89.1109
 20
108.7954
 30
0.0
 10
-90.1877
 20
110.4269
 30
0.0
 10
-91.4217
 20
112.4604
 30
0.0
 10
-91.4217
 20
112.4604
 30
0.0
 10
-92.6557
 20
110.4268
 30
0.0
 10
-93.7324
 20
108.7954
 30
0.0
 10
-96.3187
 20
107.9149
 30
0.0
 10
-96.3187
 20
107.9149
 30
0.0
 10
-96.3187
 20
107.9149
 30
0.0
 10
-96.3366
 20
105.7056
 30
0.0
 10
-96.3366
 20
105.7056
 30
0.0
 10
-96.3366
 20
105.7056
 30
0.0
 10
-99.1031
 20
105.6303
 30
0.0
 10
-102.0306
 20
105.0526
 30
0.0
 10
-102.0092
 20
100.1868
 30
0.0
 10
-102.0092
 20
100.1868
 30
0.0
 10
-102.0306
 20
95.3212
 30
0.0
 10
-99.1031
 20
94.7434
 30
0.0
 10
-96.3366
 20
94.6681
 30
0.0
 10
-96.3366
 20
94.6681
 30
0.0
 10
-96.3366
 20
94.6681
 30
0.0
 10
-96.3187
 20
92.4588
 30
0.0
 10
-96.3187
 20
92.4588
 30
0.0
 10
-96.3187
 20
92.4588
 30
0.0
 10
-93.7324
 20
91.5783
 30
0.0
 10
-92.6557
 20
89.9468
 30
0.0
 10
-91.4217
 20
87.9133
 30
0.0
 10
-91.4217
 20
87.9133
 30
0.0
 10
-90.1877
 20
89.9469
 30
0.0
 10
-89.1109
 20
91.5783
 30
0.0
 10
-86.5246
 20
92.4588
 30
0.0
 10
-86.5246
 20
92.4588
 30
0.0
 10
-86.5246
 20
92.4588
 30
0.0
 10
-86.5067
 20
94.6681
 30
0.0
 10
-86.5067
 20
94.6681
 30
0.0
 10
-86.5067
 20
94.6681
 30
0.0
 10
-83.7402
 20
94.7434
 30
0.0
 10
-80.8127
 20
95.3211
 30
0.0
 10
-80.8341
 20
100.1868
 30
0.0
 10
-80.8341
 20
100.1868
 30
0.0
 10
-80.8127
 20
105.0524
 30
0.0
 10
-83.7402
 20
105.6303
 30
0.0
 10
-86.5067
 20
105.7056
 30
0.0
  0
SPLINE
  5
43
330
1F
100
AcDbEntity
  8
layer 1
 62
     7
100
AcDbSpline
210
0.0
220
0.0
230
1.0
 70
    11
 71
     3
 72
    52
 73
    48
 74
     0
 42
0.0000000001
 43
0.0000000001
 12
1.0
 22
0.0
 32
0.0
 13
1.0
 23
0.0
 33
0.0
 40
0.0
 40
0.0
 40
0.0
 40
0.0
 40
0.0769230769230769
 40
0.0769230769230769
 40
0.0769230769230769
 40
0.0769230769230769
 40
0.1538461538461539
 40
0.1538461538461539
 40
0.1538461538461539
 40
0.1538461538461539
 40
0.2307692307692308
 40
0.2307692307692308
 40
0.2307692307692308
 40
0.2307692307692308
 40
0.3076923076923077
 40
0.3076923076923077
 40
0.3076923076923077
 40
0.3076923076923077
 40
0.3846153846153846
 40
0.3846153846153846
 40
0.3846153846153846
 40
0.3846153846153846
 40
0.4615384615384616
 40
0.4615384615384616
 40
0.4615384615384616
 40
0.4615384615384616
 40
0.5384615384615384
 40
0.5384615384615384
 40
0.5384615384615384
 40
0.5384615384615384
 40
0.6153846153846154
 40
0.6153846153846154
 40
0.6153846153846154
 40
0.6153846153846154
 40
0.6923076923076923
 40
0.6923076923076923
 40
0.6923076923076923
 40
0.6923076923076923
 40
0.7692307692307693
 40
0.7692307692307693
 40
0.7692307692307693
 40
0.7692307692307693
 40
0.8461538461538461
 40
0.8461538461538461
 40
0.8461538461538461
 40
0.8461538461538461
 40
1.0
 40
1.0
 40
1.0
 40
1.0
 10
-59.3173
 20
105.7056
 30
0.0
 10
-59.3173
 20
105.7056
 30
0.0
 10
-59.3353
 20
107.9149
 30
0.0
 10
-59.3353
 20
107.9149
 30
0.0
 10
-59.3353
 20
107.9149
 30
0.0
 10
-61.9215
 20
108.7954
 30
0.0
 10
-62.9983
 20
110.4269
 30
0.0
 10
-64.2323
 20
112.4604
 30
0.0
 10
-64.2323
 20
112.4604
 30
0.0
 10
-65.4663
 20
110.4268
 30
0.0
 10
-66.5431
 20
108.7954
 30
0.0
 10
-69.1293
 20
107.9149
 30
0.0
 10
-69.1293
 20
107.9149
 30
0.0
 10
-69.1293
 20
107.9149
 30
0.0
 10
-69.1472
 20
105.7056
 30
0.0
 10
-69.1472
 20
105.7056
 30
0.0
 10
-69.1472
 20
105.7056
 30
0.0
 10
-71.9138
 20
105.6303
 30
0.0
 10
-74.8412
 20
105.0526
 30
0.0
 10
-74.8198
 20
100.1868
 30
0.0
 10
-74.8198
 20
100.1868
 30
0.0
 10
-74.8412
 20
95.3212
 30
0.0
 10
-71.9138
 20
94.7434
 30
0.0
 10
-69.1472
 20
94.6681
 30
0.0
 10
-69.1472
 20
94.6681
 30
0.0
 10
-69.1472
 20
94.6681
 30
0.0
 10
-69.1293
 20
92.4588
 30
0.0
 10
-69.1293
 20
92.4588
 30
0.0
 10
-69.1293
 20
92.4588
 30
0.0
 10
-66.5431
 20
91.5783
 30
0.0
 10
-65.4663
 20
89.9468
 30
0.0
 10
-64.2323
 20
87.9133
 30
0.0
 10
-64.2323
 20
87.9133
 30
0.0
 10
-62.9983
 20
89.9469
 30
0.0
 10
-61.9215
 20
91.5783
 30
0.0
 10
-59.3353
 20
92.4588
 30
0.0
 10
-59.3353
 20
92.4588
 30
0.0
 10
-59.3353
 20
92.4588
 30
0.0
 10
-59.3173
 20
94.6681
 30
0.0
 10
-59.3173
 20
94.6681
 30
0.0
 10
-59.3173
 20
94.6681
 30
0.0
 10
-56.5508
 20
94.7434
 30
0.0
 10
-53.6233
 20
95.3211
 30
0.0
 10
-53.6448
 20
100.1868
 30
0.0
 10
-53.6448
 20
100.1868
 30
0.0
 10
-53.6233
 20
105.0524
 30
0.0
 10
-56.5508
 20
105.6303
 30
0.0
 10
-59.3173
 20
105.7056
 30
0.0
  0
SPLINE
  5
44
330
1F
100
AcDbEntity
  8
layer 1
 62
     7
100
AcDbSpline
210
0.0
220
0.0
230
1.0
 70
    11
 71
     3
 72
    52
 73
    48
 74
     0
 42
0.0000000001
 43
0.0000000001
 12
1.0
 22
0.0
 32
0.0
 13
1.0
 23
0.0
 33
0.0
 40
0.0
 40
0.0
 40
0.0
 40
0.0
 40
0.0769230769230769
 40
0.0769230769230769
 40
0.0769230769230769
 40
0.0769230769230769
 40
0.1538461538461539
 40
0.1538461538461539
 40
0.1538461538461539
 40
0.1538461538461539
 40
0.2307692307692308
 40
0.2307692307692308
 40
0.2307692307692308
 40
0.2307692307692308
 40
0.3076923076923077
 40
0.3076923076923077
 40
0.3076923076923077
 40
0.3076923076923077
 40
0.3846153846153846
 40
0.3846153846153846
 40
0.3846153846153846
 40
0.3846153846153846
 40
0.4615384615384616
 40
0.4615384615384616
 40
0.4615384615384616
 40
0.4615384615384616
 40
0.5384615384615384
 40
0.5384615384615384
 40
0.5384615384615384
 40
0.5384615384615384
 40
0.6153846153846154
 40
0.6153846153846154
 40
0.6153846153846154
 40
0.6153846153846154
 40
0.6923076923076923
 40
0.6923076923076923
 40
0.6923076923076923
 40
0.6923076923076923
 40
0.7692307692307693
 40
0.7692307692307693
 40
0.7692307692307693
 40
0.7692307692307693
 40
0.8461538461538461
 40
0.8461538461538461
 40
0.8461538461538461
 40
0.8461538461538461
 40
1.0
 40
1.0
 40
1.0
 40
1.0
 10
-32.128
 20
105.7056
 30
0.0
 10
-32.128
 20
105.7056
 30
0.0
 10
-32.1459
 20
107.9149
 30
0.0
 10
-32.1459
 20
107.9149
 30
0.0
 10
-32.1459
 20
107.9149
 30
0.0
 10
-34.7322
 20
108.7954
 30
0.0
 10
-35.8089
 20
110.4269
 30
0.0
 10
-37.0429
 20
112.4604
 30
0.0
 10
-37.0429
 20
112.4604
 30
0.0
 10
-38.2769
 20
110.4268
 30
0.0
 10
-39.3537
 20
108.7954
 30
0.0
 10
-41.9399
 20
107.9149
 30
0.0
 10
-41.9399
 20
107.9149
 30
0.0
 10
-41.9399
 20
107.9149
 30
0.0
 10
-41.9579
 20
105.7056
 30
0.0
 10
-41.9579
 20
105.7056
 30
0.0
 10
-41.9579
 20
105.7056
 30
0.0
 10
-44.7244
 20
105.6303
 30
0.0
 10
-47.6519
 20
105.0526
 30
0.0
 10
-47.6305
 20
100.1868
 30
0.0
 10
-47.6305
 20
100.1868
 30
0.0
 10
-47.6519
 20
95.3212
 30
0.0
 10
-44.7244
 20
94.7434
 30
0.0
 10
-41.9579
 20
94.6681
 30
0.0
 10
-41.9579
 20
94.6681
 30
0.0
 10
-41.9579
 20
94.6681
 30
0.0
 10
-41.9399
 20
92.4588
 30
0.0
 10
-41.9399
 20
92.4588
 30
0.0
 10
-41.9399
 20
92.4588
 30
0.0
 10
-39.3537
 20
91.5783
 30
0.0
 10
-38.2769
 20
89.9468
 30
0.0
 10
-37.0429
 20
87.9133
 30
0.0
 10
-37.0429
 20
87.9133
 30
0.0
 10
-35.8089
 20
89.9469
 30
0.0
 10
-34.7322
 20
91.5783
 30
0.0
 10
-32.1459
 20
92.4588
 30
0.0
 10
-32.1459
 20
92.4588
 30
0.0
 10
-32.1459
 20
92.4588
 30
0.0
 10
-32.128
 20
94.6681
 30
0.0
 10
-32.128
 20
94.6681
 30
0.0
 10
-32.128
 20
94.6681
 30
0.0
 10
-29.3615
 20
94.7434
 30
0.0
 10
-26.434
 20
95.3211
 30
0.0
 10
-26.4554
 20
100.1868
 30
0.0
 10
-26.4554
 20
100.1868
 30
0.0
 10
-26.434
 20
105.0524
 30
0.0
 10
-29.3615
 20
105.6303
 30
0.0
 10
-32.128
 20
105.7056
 30
0.0
  0
SPLINE
  5
45
330
1F
100
AcDbEntity
  8
layer 1
 62
     7
100
AcDbSpline
210
0.0
220
0.0
230
1.0
 70
    11
 71
     3
 72
    52
 73
    48
 74
     0
 42
0.0000000001
 43
0.0000000001
 12
1.0
 22
0.0
 32
0.0
 13
1.0
 23
0.0
 33
0.0
 40
0.0
 40
0.0
 40
0.0
 40
0.0
 40
0.0769230769230769
 40
0.0769230769230769
 40
0.0769230769230769
 40
0.0769230769230769
 40
0.1538461538461539
 40
0.1538461538461539
 40
0.1538461538461539
 40
0.1538461538461539
 40
0.2307692307692308
 40
0.2307692307692308
 40
0.2307692307692308
 40
0.2307692307692308
 40
0.3076923076923077
 40
0.3076923076923077
 40
0.3076923076923077
 40
0.3076923076923077
 40
0.3846153846153846
 40
0.3846153846153846
 40
0.3846153846153846
 40
0.3846153846153846
 40
0.4615384615384616
 40
0.4615384615384616
 40
0.4615384615384616
 40
0.4615384615384616
 40
0.5384615384615384
 40
0.5384615384615384
 40
0.5384615384615384
 40
0.5384615384615384
 40
0.6153846153846154
 40
0.6153846153846154
 40
0.6153846153846154
 40
0.6153846153846154
 40
0.6923076923076923
 40
0.6923076923076923
 40
0.6923076923076923
 40
0.6923076923076923
 40
0.7692307692307693
 40
0.7692307692307693
 40
0.7692307692307693
 40
0.7692307692307693
 40
0.8461538461538461
 40
0.8461538461538461
 40
0.8461538461538461
 40
0.8461538461538461
 40
1.0
 40
1.0
 40
1.0
 40
1.0
 10
-4.9386
 20
105.7056
 30
0.0
 10
-4.9386
 20
105.7056
 30
0.0
 10
-4.9565
 20
107.9149
 30
0.0
 10
-4.9565
 20
107.9149
 30
0.0
 10
-4.9565
 20
107.9149
 30
0.0
 10
-7.5428
 20
108.7954
 30
0.0
 10
-8.6196
 20
110.4269
 30
0.0
 10
-9.8536
 20
112.4604
 30
0.0
 10
-9.8536
 20
112.4604
 30
0.0
 10
-11.0876
 20
110.4268
 30
0.0
 10
-12.1643
 20
108.7954
 30
0.0
 10
-14.7506
 20
107.9149
 30
0.0
 10
-14.7506
 20
107.9149
 30
0.0
 10
-14.7506
 20
107.9149
 30
0.0
 10
-14.7685
 20
105.7056
 30
0.0
 10
-14.7685
 20
105.7056
 30
0.0
 10
-14.7685
 20
105.7056
 30
0.0
 10
-17.535
 20
105.6303
 30
0.0
 10
-20.4625
 20
105.0526
 30
0.0
 10
-20.4411
 20
100.1868
 30
0.0
 10
-20.4411
 20
100.1868
 30
0.0
 10
-20.4625
 20
95.3212
 30
0.0
 10
-17.535
 20
94.7434
 30
0.0
 10
-14.7685
 20
94.6681
 30
0.0
 10
-14.7685
 20
94.6681
 30
0.0
 10
-14.7685
 20
94.6681
 30
0.0
 10
-14.7506
 20
92.4588
 30
0.0
 10
-14.7506
 20
92.4588
 30
0.0
 10
-14.7506
 20
92.4588
 30
0.0
 10
-12.1643
 20
91.5783
 30
0.0
 10
-11.0876
 20
89.9468
 30
0.0
 10
-9.8536
 20
87.9133
 30
0.0
 10
-9.8536
 20
87.9133
 30
0.0
 10
-8.6196
 20
89.9469
 30
0.0
 10
-7.5428
 20
91.5783
 30
0.0
 10
-4.9565
 20
92.4588
 30
0.0
 10
-4.9565
 20
92.4588
 30
0.0
 10
-4.9565
 20
92.4588
 30
0.0
 10
-4.9386
 20
94.6681
 30
0.0
 10
-4.9386
 20
94.6681
 30
0.0
 10
-4.9386
 20
94.6681
 30
0.0
 10
-2.1721
 20
94.7434
 30
0.0
 10
0.7554
 20
95.3211
 30
0.0
 10
0.734
 20
100.1868
 30
0.0
 10
0.734
 20
100.1868
 30
0.0
 10
0.7554
 20
105.0524
 30
0.0
 10
-2.1721
 20
105.6303
 30
0.0
 10
-4.9386
 20
105.7056
 30
0.0
  0
SPLINE
  5
46
330
1F
100
AcDbEntity
  8
layer 1
 62
     7
100
AcDbSpline
210
0.0
220
0.0
230
1.0
 70
    11
 71
     3
 72
    52
 73
    48
 74
     0
 42
0.0000000001
 43
0.0000000001
 12
1.0
 22
0.0
 32
0.0
 13
1.0
 23
0.0
 33
0.0
 40
0.0
 40
0.0
 40
0.0
 40
0.0
 40
0.0769230769230769
 40
0.0769230769230769
 40
0.0769230769230769
 40
0.0769230769230769
 40
0.1538461538461539
 40
0.1538461538461539
 40
0.1538461538461539
 40
0.1538461538461539
 40
0.2307692307692308
 40
0.2307692307692308
 40
0.2307692307692308
 40
0.2307692307692308
 40
0.3076923076923077
 40
0.3076923076923077
 40
0.3076923076923077
 40
0.3076923076923077
 40
0.3846153846153846
 40
0.3846153846153846
 40
0.3846153846153846
 40
0.3846153846153846
 40
0.4615384615384616
 40
0.4615384615384616
 40
0.4615384615384616
 40
0.4615384615384616
 40
0.5384615384615384
 40
0.5384615384615384
 40
0.5384615384615384
 40
0.5384615384615384
 40
0.6153846153846154
 40
0.6153846153846154
 40
0.6153846153846154
 40
0.6153846153846154
 40
0.6923076923076923
 40
0.6923076923076923
 40
0.6923076923076923
 40
0.6923076923076923
 40
0.7692307692307693
 40
0.7692307692307693
 40
0.7692307692307693
 40
0.7692307692307693
 40
0.8461538461538461
 40
0.8461538461538461
 40
0.8461538461538461
 40
0.8461538461538461
 40
1.0
 40
1.0
 40
1.0
 40
1.0
 10
22.2508
 20
105.7056
 30
0.0
 10
22.2508
 20
105.7056
 30
0.0
 10
22.2328
 20
107.9149
 30
0.0
 10
22.2328
 20
107.9149
 30
0.0
 10
22.2328
 20
107.9149
 30
0.0
 10
19.6466
 20
108.7954
 30
0.0
 10
18.5698
 20
110.4269
 30
0.0
 10
17.3358
 20
112.4604
 30
0.0
 10
17.3358
 20
112.4604
 30
0.0
 10
16.1018
 20
110.4268
 30
0.0
 10
15.025
 20
108.7954
 30
0.0
 10
12.4388
 20
107.9149
 30
0.0
 10
12.4388
 20
107.9149
 30
0.0
 10
12.4388
 20
107.9149
 30
0.0
 10
12.4209
 20
105.7056
 30
0.0
 10
12.4209
 20
105.7056
 30
0.0
 10
12.4209
 20
105.7056
 30
0.0
 10
9.6543
 20
105.6303
 30
0.0
 10
6.7269
 20
105.0526
 30
0.0
 10
6.7483
 20
100.1868
 30
0.0
 10
6.7483
 20
100.1868
 30
0.0
 10
6.7269
 20
95.3212
 30
0.0
 10
9.6543
 20
94.7434
 30
0.0
 10
12.4209
 20
94.6681
 30
0.0
 10
12.4209
 20
94.6681
 30
0.0
 10
12.4209
 20
94.6681
 30
0.0
 10
12.4388
 20
92.4588
 30
0.0
 10
12.4388
 20
92.4588
 30
0.0
 10
12.4388
 20
92.4588
 30
0.0
 10
15.025
 20
91.5783
 30
0.0
 10
16.1018
 20
89.9468
 30
0.0
 10
17.3358
 20
87.9133
 30
0.0
 10
17.3358
 20
87.9133
 30
0.0
 10
18.5698
 20
89.9469
 30
0.0
 10
19.6466
 20
91.5783
 30
0.0
 10
22.2328
 20
92.4588
 30
0.0
 10
22.2328
 20
92.4588
 30
0.0
 10
22.2328
 20
92.4588
 30
0.0
 10
22.2508
 20
94.6681
 30
0.0
 10
22.2508
 20
94.6681
 30
0.0
 10
22.2508
 20
94.6681
 30
0.0
 10
25.0173
 20
94.7434
 30
0.0
 10
27.9448
 20
95.3211
 30
0.0
 10
27.9233
 20
100.1868
 30
0.0
 10
27.9233
 20
100.1868
 30
0.0
 10
27.9448
 20
105.0524
 30
0.0
 10
25.0173
 20
105.6303
 30
0.0
 10
22.2508
 20
105.7056
 30
0.0
  0
SPLINE
  5
47
330
1F
100
AcDbEntity
  8
layer 1
 62
     7
100
AcDbSpline
210
0.0
220
0.0
230
1.0
 70
    11
 71
     3
 72
    52
 73
    48
 74
     0
 42
0.0000000001
 43
0.0000000001
 12
1.0
 22
0.0
 32
0.0
 13
1.0
 23
0.0
 33
0.0
 40
0.0
 40
0.0
 40
0.0
 40
0.0
 40
0.0769230769230769
 40
0.0769230769230769
 40
0.0769230769230769
 40
0.0769230769230769
 40
0.1538461538461539
 40
0.1538461538461539
 40
0.1538461538461539
 40
0.1538461538461539
 40
0.2307692307692308
 40
0.2307692307692308
 40
0.2307692307692308
 40
0.2307692307692308
 40
0.3076923076923077
 40
0.3076923076923077
 40
0.3076923076923077
 40
0.3076923076923077
 40
0.3846153846153846
 40
0.3846153846153846
 40
0.3846153846153846
 40
0.3846153846153846
 40
0.4615384615384616
 40
0.4615384615384616
 40
0.4615384615384616
 40
0.4615384615384616
 40
0.5384615384615384
 40
0.5384615384615384
 40
0.5384615384615384
 40
0.5384615384615384
 40
0.6153846153846154
 40
0.6153846153846154
 40
0.6153846153846154
 40
0.6153846153846154
 40
0.6923076923076923
 40
0.6923076923076923
 40
0.6923076923076923
 40
0.6923076923076923
 40
0.7692307692307693
 40
0.7692307692307693
 40
0.7692307692307693
 40
0.7692307692307693
 40
0.8461538461538461
 40
0.8461538461538461
 40
0.8461538461538461
 40
0.8461538461538461
 40
1.0
 40
1.0
 40
1.0
 40
1.0
 10
-72.7355
 20
88.2973
 30
0.0
 10
-72.7355
 20
88.2973
 30
0.0
 10
-72.7535
 20
90.5066
 30
0.0
 10
-72.7535
 20
90.5066
 30
0.0
 10
-72.7535
 20
90.5066
 30
0.0
 10
-75.3397
 20
91.3872
 30
0.0
 10
-76.4165
 20
93.0186
 30
0.0
 10
-77.6505
 20
95.0522
 30
0.0
 10
-77.6505
 20
95.0522
 30
0.0
 10
-78.8845
 20
93.0185
 30
0.0
 10
-79.9613
 20
91.3872
 30
0.0
 10
-82.5475
 20
90.5066
 30
0.0
 10
-82.5475
 20
90.5066
 30
0.0
 10
-82.5475
 20
90.5066
 30
0.0
 10
-82.5654
 20
88.2973
 30
0.0
 10
-82.5654
 20
88.2973
 30
0.0
 10
-82.5654
 20
88.2973
 30
0.0
 10
-85.3319
 20
88.222
 30
0.0
 10
-88.2594
 20
87.6443
 30
0.0
 10
-88.238
 20
82.7786
 30
0.0
 10
-88.238
 20
82.7786
 30
0.0
 10
-88.2594
 20
77.913
 30
0.0
 10
-85.3319
 20
77.3352
 30
0.0
 10
-82.5654
 20
77.2599
 30
0.0
 10
-82.5654
 20
77.2599
 30
0.0
 10
-82.5654
 20
77.2599
 30
0.0
 10
-82.5475
 20
75.0506
 30
0.0
 10
-82.5475
 20
75.0506
 30
0.0
 10
-82.5475
 20
75.0506
 30
0.0
 10
-79.9613
 20
74.17
 30
0.0
 10
-78.8845
 20
72.5386
 30
0.0
 10
-77.6505
 20
70.505
 30
0.0
 10
-77.6505
 20
70.505
 30
0.0
 10
-76.4165
 20
72.5387
 30
0.0
 10
-75.3397
 20
74.17
 30
0.0
 10
-72.7535
 20
75.0506
 30
0.0
 10
-72.7535
 20
75.0506
 30
0.0
 10
-72.7535
 20
75.0506
 30
0.0
 10
-72.7355
 20
77.2599
 30
0.0
 10
-72.7355
 20
77.2599
 30
0.0
 10
-72.7355
 20
77.2599
 30
0.0
 10
-69.969
 20
77.3352
 30
0.0
 10
-67.0415
 20
77.9129
 30
0.0
 10
-67.0629
 20
82.7786
 30
0.0
 10
-67.0629
 20
82.7786
 30
0.0
 10
-67.0415
 20
87.6442
 30
0.0
 10
-69.969
 20
88.222
 30
0.0
 10
-72.7355
 20
88.2973
 30
0.0
  0
SPLINE
  5
48
330
1F
100
AcDbEntity
  8
layer 1
 62
     7
100
AcDbSpline
210
0.0
220
0.0
230
1.0
 70
    11
 71
     3
 72
    52
 73
    48
 74
     0
 42
0.0000000001
 43
0.0000000001
 12
1.0
 22
0.0
 32
0.0
 13
1.0
 23
0.0
 33
0.0
 40
0.0
 40
0.0
 40
0.0
 40
0.0
 40
0.0769230769230769
 40
0.0769230769230769
 40
0.0769230769230769
 40
0.0769230769230769
 40
0.1538461538461539
 40
0.1538461538461539
 40
0.1538461538461539
 40
0.1538461538461539
 40
0.2307692307692308
 40
0.2307692307692308
 40
0.2307692307692308
 40
0.2307692307692308
 40
0.3076923076923077
 40
0.3076923076923077
 40
0.3076923076923077
 40
0.3076923076923077
 40
0.3846153846153846
 40
0.3846153846153846
 40
0.3846153846153846
 40
0.3846153846153846
 40
0.4615384615384616
 40
0.4615384615384616
 40
0.4615384615384616
 40
0.4615384615384616
 40
0.5384615384615384
 40
0.5384615384615384
 40
0.5384615384615384
 40
0.5384615384615384
 40
0.6153846153846154
 40
0.6153846153846154
 40
0.6153846153846154
 40
0.6153846153846154
 40
0.6923076923076923
 40
0.6923076923076923
 40
0.6923076923076923
 40
0.6923076923076923
 40
0.7692307692307693
 40
0.7692307692307693
 40
0.7692307692307693
 40
0.7692307692307693
 40
0.8461538461538461
 40
0.8461538461538461
 40
0.8461538461538461
 40
0.8461538461538461
 40
1.0
 40
1.0
 40
1.0
 40
1.0
 10
-45.7163
 20
88.2973
 30
0.0
 10
-45.7163
 20
88.2973
 30
0.0
 10
-45.7342
 20
90.5066
 30
0.0
 10
-45.7342
 20
90.5066
 30
0.0
 10
-45.7342
 20
90.5066
 30
0.0
 10
-48.3205
 20
91.3872
 30
0.0
 10
-49.3973
 20
93.0186
 30
0.0
 10
-50.6313
 20
95.0522
 30
0.0
 10
-50.6313
 20
95.0522
 30
0.0
 10
-51.8653
 20
93.0185
 30
0.0
 10
-52.942
 20
91.3872
 30
0.0
 10
-55.5283
 20
90.5066
 30
0.0
 10
-55.5283
 20
90.5066
 30
0.0
 10
-55.5283
 20
90.5066
 30
0.0
 10
-55.5462
 20
88.2973
 30
0.0
 10
-55.5462
 20
88.2973
 30
0.0
 10
-55.5462
 20
88.2973
 30
0.0
 10
-58.3127
 20
88.222
 30
0.0
 10
-61.2402
 20
87.6443
 30
0.0
 10
-61.2188
 20
82.7786
 30
0.0
 10
-61.2188
 20
82.7786
 30
0.0
 10
-61.2402
 20
77.913
 30
0.0
 10
-58.3127
 20
77.3352
 30
0.0
 10
-55.5462
 20
77.2599
 30
0.0
 10
-55.5462
 20
77.2599
 30
0.0
 10
-55.5462
 20
77.2599
 30
0.0
 10
-55.5283
 20
75.0506
 30
0.0
 10
-55.5283
 20
75.0506
 30
0.0
 10
-55.5283
 20
75.0506
 30
0.0
 10
-52.942
 20
74.17
 30
0.0
 10
-51.8653
 20
72.5386
 30
0.0
 10
-50.6313
 20
70.505
 30
0.0
 10
-50.6313
 20
70.505
 30
0.0
 10
-49.3973
 20
72.5387
 30
0.0
 10
-48.3205
 20
74.17
 30
0.0
 10
-45.7342
 20
75.0506
 30
0.0
 10
-45.7342
 20
75.0506
 30
0.0
 10
-45.7342
 20
75.0506
 30
0.0
 10
-45.7163
 20
77.2599
 30
0.0
 10
-45.7163
 20
77.2599
 30
0.0
 10
-45.7163
 20
77.2599
 30
0.0
 10
-42.9498
 20
77.3352
 30
0.0
 10
-40.0223
 20
77.9129
 30
0.0
 10
-40.0437
 20
82.7786
 30
0.0
 10
-40.0437
 20
82.7786
 30
0.0
 10
-40.0223
 20
87.6442
 30
0.0
 10
-42.9498
 20
88.222
 30
0.0
 10
-45.7163
 20
88.2973
 30
0.0
  0
SPLINE
  5
49
330
1F
100
AcDbEntity
  8
layer 1
 62
     7
100
AcDbSpline
210
0.0
220
0.0
230
1.0
 70
    11
 71
     3
 72
    52
 73
    48
 74
     0
 42
0.0000000001
 43
0.0000000001
 12
1.0
 22
0.0
 32
0.0
 13
1.0
 23
0.0
 33
0.0
 40
0.0
 40
0.0
 40
0.0
 40
0.0
 40
0.0769230769230769
 40
0.0769230769230769
 40
0.0769230769230769
 40
0.0769230769230769
 40
0.1538461538461539
 40
0.1538461538461539
 40
0.1538461538461539
 40
0.1538461538461539
 40
0.2307692307692308
 40
0.2307692307692308
 40
0.2307692307692308
 40
0.2307692307692308
 40
0.3076923076923077
 40
0.3076923076923077
 40
0.3076923076923077
 40
0.3076923076923077
 40
0.3846153846153846
 40
0.3846153846153846
 40
0.3846153846153846
 40
0.3846153846153846
 40
0.4615384615384616
 40
0.4615384615384616
 40
0.4615384615384616
 40
0.4615384615384616
 40
0.5384615384615384
 40
0.5384615384615384
 40
0.5384615384615384
 40
0.5384615384615384
 40
0.6153846153846154
 40
0.6153846153846154
 40
0.6153846153846154
 40
0.6153846153846154
 40
0.6923076923076923
 40
0.6923076923076923
 40
0.6923076923076923
 40
0.6923076923076923
 40
0.7692307692307693
 40
0.7692307692307693
 40
0.7692307692307693
 40
0.7692307692307693
 40
0.8461538461538461
 40
0.8461538461538461
 40
0.8461538461538461
 40
0.8461538461538461
 40
1.0
 40
1.0
 40
1.0
 40
1.0
 10
-18.6971
 20
88.2973
 30
0.0
 10
-18.6971
 20
88.2973
 30
0.0
 10
-18.715
 20
90.5066
 30
0.0
 10
-18.715
 20
90.5066
 30
0.0
 10
-18.715
 20
90.5066
 30
0.0
 10
-21.3013
 20
91.3872
 30
0.0
 10
-22.378
 20
93.0186
 30
0.0
 10
-23.6121
 20
95.0522
 30
0.0
 10
-23.6121
 20
95.0522
 30
0.0
 10
-24.8461
 20
93.0185
 30
0.0
 10
-25.9228
 20
91.3872
 30
0.0
 10
-28.5091
 20
90.5066
 30
0.0
 10
-28.5091
 20
90.5066
 30
0.0
 10
-28.5091
 20
90.5066
 30
0.0
 10
-28.527
 20
88.2973
 30
0.0
 10
-28.527
 20
88.2973
 30
0.0
 10
-28.527
 20
88.2973
 30
0.0
 10
-31.2935
 20
88.222
 30
0.0
 10
-34.221
 20
87.6443
 30
0.0
 10
-34.1996
 20
82.7786
 30
0.0
 10
-34.1996
 20
82.7786
 30
0.0
 10
-34.221
 20
77.913
 30
0.0
 10
-31.2935
 20
77.3352
 30
0.0
 10
-28.527
 20
77.2599
 30
0.0
 10
-28.527
 20
77.2599
 30
0.0
 10
-28.527
 20
77.2599
 30
0.0
 10
-28.5091
 20
75.0506
 30
0.0
 10
-28.5091
 20
75.0506
 30
0.0
 10
-28.5091
 20
75.0506
 30
0.0
 10
-25.9228
 20
74.17
 30
0.0
 10
-24.8461
 20
72.5386
 30
0.0
 10
-23.6121
 20
70.505
 30
0.0
 10
-23.6121
 20
70.505
 30
0.0
 10
-22.378
 20
72.5387
 30
0.0
 10
-21.3013
 20
74.17
 30
0.0
 10
-18.715
 20
75.0506
 30
0.0
 10
-18.715
 20
75.0506
 30
0.0
 10
-18.715
 20
75.0506
 30
0.0
 10
-18.6971
 20
77.2599
 30
0.0
 10
-18.6971
 20
77.2599
 30
0.0
 10
-18.6971
 20
77.2599
 30
0.0
 10
-15.9306
 20
77.3352
 30
0.0
 10
-13.0031
 20
77.9129
 30
0.0
 10
-13.0245
 20
82.7786
 30
0.0
 10
-13.0245
 20
82.7786
 30
0.0
 10
-13.0031
 20
87.6442
 30
0.0
 10
-15.9306
 20
88.222
 30
0.0
 10
-18.6971
 20
88.2973
 30
0.0
  0
SPLINE
  5
4A
330
1F
100
AcDbEntity
  8
layer 1
 62
     7
100
AcDbSpline
210
0.0
220
0.0
230
1.0
 70
    11
 71
     3
 72
    52
 73
    48
 74
     0
 42
0.0000000001
 43
0.0000000001
 12
1.0
 22
0.0
 32
0.0
 13
1.0
 23
0.0
 33
0.0
 40
0.0
 40
0.0
 40
0.0
 40
0.0
 40
0.0769230769230769
 40
0.0769230769230769
 40
0.0769230769230769
 40
0.0769230769230769
 40
0.1538461538461539
 40
0.1538461538461539
 40
0.1538461538461539
 40
0.1538461538461539
 40
0.2307692307692308
 40
0.2307692307692308
 40
0.2307692307692308
 40
0.2307692307692308
 40
0.3076923076923077
 40
0.3076923076923077
 40
0.3076923076923077
 40
0.3076923076923077
 40
0.3846153846153846
 40
0.3846153846153846
 40
0.3846153846153846
 40
0.3846153846153846
 40
0.4615384615384616
 40
0.4615384615384616
 40
0.4615384615384616
 40
0.4615384615384616
 40
0.5384615384615384
 40
0.5384615384615384
 40
0.5384615384615384
 40
0.5384615384615384
 40
0.6153846153846154
 40
0.6153846153846154
 40
0.6153846153846154
 40
0.6153846153846154
 40
0.6923076923076923
 40
0.6923076923076923
 40
0.6923076923076923
 40
0.6923076923076923
 40
0.7692307692307693
 40
0.7692307692307693
 40
0.7692307692307693
 40
0.7692307692307693
 40
0.8461538461538461
 40
0.8461538461538461
 40
0.8461538461538461
 40
0.8461538461538461
 40
1.0
 40
1.0
 40
1.0
 40
1.0
 10
8.3221
 20
88.2973
 30
0.0
 10
8.3221
 20
88.2973
 30
0.0
 10
8.3042
 20
90.5066
 30
0.0
 10
8.3042
 20
90.5066
 30
0.0
 10
8.3042
 20
90.5066
 30
0.0
 10
5.7179
 20
91.3872
 30
0.0
 10
4.6412
 20
93.0186
 30
0.0
 10
3.4072
 20
95.0522
 30
0.0
 10
3.4072
 20
95.0522
 30
0.0
 10
2.1732
 20
93.0185
 30
0.0
 10
1.0964
 20
91.3872
 30
0.0
 10
-1.4899
 20
90.5066
 30
0.0
 10
-1.4899
 20
90.5066
 30
0.0
 10
-1.4899
 20
90.5066
 30
0.0
 10
-1.5078
 20
88.2973
 30
0.0
 10
-1.5078
 20
88.2973
 30
0.0
 10
-1.5078
 20
88.2973
 30
0.0
 10
-4.2743
 20
88.222
 30
0.0
 10
-7.2018
 20
87.6443
 30
0.0
 10
-7.1804
 20
82.7786
 30
0.0
 10
-7.1804
 20
82.7786
 30
0.0
 10
-7.2018
 20
77.913
 30
0.0
 10
-4.2743
 20
77.3352
 30
0.0
 10
-1.5078
 20
77.2599
 30
0.0
 10
-1.5078
 20
77.2599
 30
0.0
 10
-1.5078
 20
77.2599
 30
0.0
 10
-1.4899
 20
75.0506
 30
0.0
 10
-1.4899
 20
75.0506
 30
0.0
 10
-1.4899
 20
75.0506
 30
0.0
 10
1.0964
 20
74.17
 30
0.0
 10
2.1732
 20
72.5386
 30
0.0
 10
3.4072
 20
70.505
 30
0.0
 10
3.4072
 20
70.505
 30
0.0
 10
4.6412
 20
72.5387
 30
0.0
 10
5.7179
 20
74.17
 30
0.0
 10
8.3042
 20
75.0506
 30
0.0
 10
8.3042
 20
75.0506
 30
0.0
 10
8.3042
 20
75.0506
 30
0.0
 10
8.3221
 20
77.2599
 30
0.0
 10
8.3221
 20
77.2599
 30
0.0
 10
8.3221
 20
77.2599
 30
0.0
 10
11.0886
 20
77.3352
 30
0.0
 10
14.0161
 20
77.9129
 30
0.0
 10
13.9947
 20
82.7786
 30
0.0
 10
13.9947
 20
82.7786
 30
0.0
 10
14.0161
 20
87.6442
 30
0.0
 10
11.0886
 20
88.222
 30
0.0
 10
8.3221
 20
88.2973
 30
0.0
  0
SPLINE
  5
4B
330
1F
100
AcDbEntity
  8
layer 1
 62
     7
100
AcDbSpline
210
0.0
220
0.0
230
1.0
 70
    11
 71
     3
 72
    52
 73
    48
 74
     0
 42
0.0000000001
 43
0.0000000001
 12
1.0
 22
0.0
 32
0.0
 13
1.0
 23
0.0
 33
0.0
 40
0.0
 40
0.0
 40
0.0
 40
0.0
 40
0.0769230769230769
 40
0.0769230769230769
 40
0.0769230769230769
 40
0.0769230769230769
 40
0.1538461538461539
 40
0.1538461538461539
 40
0.1538461538461539
 40
0.1538461538461539
 40
0.2307692307692308
 40
0.2307692307692308
 40
0.2307692307692308
 40
0.2307692307692308
 40
0.3076923076923077
 40
0.3076923076923077
 40
0.3076923076923077
 40
0.3076923076923077
 40
0.3846153846153846
 40
0.3846153846153846
 40
0.3846153846153846
 40
0.3846153846153846
 40
0.4615384615384616
 40
0.4615384615384616
 40
0.4615384615384616
 40
0.4615384615384616
 40
0.5384615384615384
 40
0.5384615384615384
 40
0.5384615384615384
 40
0.5384615384615384
 40
0.6153846153846154
 40
0.6153846153846154
 40
0.6153846153846154
 40
0.6153846153846154
 40
0.6923076923076923
 40
0.6923076923076923
 40
0.6923076923076923
 40
0.6923076923076923
 40
0.7692307692307693
 40
0.7692307692307693
 40
0.7692307692307693
 40
0.7692307692307693
 40
0.8461538461538461
 40
0.8461538461538461
 40
0.8461538461538461
 40
0.8461538461538461
 40
1.0
 40
1.0
 40
1.0
 40
1.0
 10
-86.5067
 20
71.6231
 30
0.0
 10
-86.5067
 20
71.6231
 30
0.0
 10
-86.5246
 20
73.8324
 30
0.0
 10
-86.5246
 20
73.8324
 30
0.0
 10
-86.5246
 20
73.8324
 30
0.0
 10
-89.1109
 20
74.713
 30
0.0
 10
-90.1877
 20
76.3444
 30
0.0
 10
-91.4217
 20
78.378
 30
0.0
 10
-91.4217
 20
78.378
 30
0.0
 10
-92.6557
 20
76.3443
 30
0.0
 10
-93.7324
 20
74.713
 30
0.0
 10
-96.3187
 20
73.8324
 30
0.0
 10
-96.3187
 20
73.8324
 30
0.0
 10
-96.3187
 20
73.8324
 30
0.0
 10
-96.3366
 20
71.6231
 30
0.0
 10
-96.3366
 20
71.6231
 30
0.0
 10
-96.3366
 20
71.6231
 30
0.0
 10
-99.1031
 20
71.5478
 30
0.0
 10
-102.0306
 20
70.9701
 30
0.0
 10
-102.0092
 20
66.1044
 30
0.0
 10
-102.0092
 20
66.1044
 30
0.0
 10
-102.0306
 20
61.2388
 30
0.0
 10
-99.1031
 20
60.661
 30
0.0
 10
-96.3366
 20
60.5857
 30
0.0
 10
-96.3366
 20
60.5857
 30
0.0
 10
-96.3366
 20
60.5857
 30
0.0
 10
-96.3187
 20
58.3764
 30
0.0
 10
-96.3187
 20
58.3764
 30
0.0
 10
-96.3187
 20
58.3764
 30
0.0
 10
-93.7324
 20
57.4958
 30
0.0
 10
-92.6557
 20
55.8644
 30
0.0
 10
-91.4217
 20
53.8308
 30
0.0
 10
-91.4217
 20
53.8308
 30
0.0
 10
-90.1877
 20
55.8645
 30
0.0
 10
-89.1109
 20
57.4958
 30
0.0
 10
-86.5246
 20
58.3764
 30
0.0
 10
-86.5246
 20
58.3764
 30
0.0
 10
-86.5246
 20
58.3764
 30
0.0
 10
-86.5067
 20
60.5857
 30
0.0
 10
-86.5067
 20
60.5857
 30
0.0
 10
-86.5067
 20
60.5857
 30
0.0
 10
-83.7402
 20
60.661
 30
0.0
 10
-80.8127
 20
61.2387
 30
0.0
 10
-80.8341
 20
66.1044
 30
0.0
 10
-80.8341
 20
66.1044
 30
0.0
 10
-80.8127
 20
70.97
 30
0.0
 10
-83.7402
 20
71.5478
 30
0.0
 10
-86.5067
 20
71.6231
 30
0.0
  0
SPLINE
  5
4C
330
1F
100
AcDbEntity
  8
layer 1
 62
     7
100
AcDbSpline
210
0.0
220
0.0
230
1.0
 70
    11
 71
     3
 72
    52
 73
    48
 74
     0
 42
0.0000000001
 43
0.0000000001
 12
1.0
 22
0.0
 32
0.0
 13
1.0
 23
0.0
 33
0.0
 40
0.0
 40
0.0
 40
0.0
 40
0.0
 40
0.0769230769230769
 40
0.0769230769230769
 40
0.0769230769230769
 40
0.0769230769230769
 40
0.1538461538461539
 40
0.1538461538461539
 40
0.1538461538461539
 40
0.1538461538461539
 40
0.2307692307692308
 40
0.2307692307692308
 40
0.2307692307692308
 40
0.2307692307692308
 40
0.3076923076923077
 40
0.3076923076923077
 40
0.3076923076923077
 40
0.3076923076923077
 40
0.3846153846153846
 40
0.3846153846153846
 40
0.3846153846153846
 40
0.3846153846153846
 40
0.4615384615384616
 40
0.4615384615384616
 40
0.4615384615384616
 40
0.4615384615384616
 40
0.5384615384615384
 40
0.5384615384615384
 40
0.5384615384615384
 40
0.5384615384615384
 40
0.6153846153846154
 40
0.6153846153846154
 40
0.6153846153846154
 40
0.6153846153846154
 40
0.6923076923076923
 40
0.6923076923076923
 40
0.6923076923076923
 40
0.6923076923076923
 40
0.7692307692307693
 40
0.7692307692307693
 40
0.7692307692307693
 40
0.7692307692307693
 40
0.8461538461538461
 40
0.8461538461538461
 40
0.8461538461538461
 40
0.8461538461538461
 40
1.0
 40
1.0
 40
1.0
 40
1.0
 10
-59.3173
 20
71.6231
 30
0.0
 10
-59.3173
 20
71.6231
 30
0.0
 10
-59.3353
 20
73.8324
 30
0.0
 10
-59.3353
 20
73.8324
 30
0.0
 10
-59.3353
 20
73.8324
 30
0.0
 10
-61.9215
 20
74.713
 30
0.0
 10
-62.9983
 20
76.3444
 30
0.0
 10
-64.2323
 20
78.378
 30
0.0
 10
-64.2323
 20
78.378
 30
0.0
 10
-65.4663
 20
76.3443
 30
0.0
 10
-66.5431
 20
74.713
 30
0.0
 10
-69.1293
 20
73.8324
 30
0.0
 10
-69.1293
 20
73.8324
 30
0.0
 10
-69.1293
 20
73.8324
 30
0.0
 10
-69.1472
 20
71.6231
 30
0.0
 10
-69.1472
 20
71.6231
 30
0.0
 10
-69.1472
 20
71.6231
 30
0.0
 10
-71.9138
 20
71.5478
 30
0.0
 10
-74.8412
 20
70.9701
 30
0.0
 10
-74.8198
 20
66.1044
 30
0.0
 10
-74.8198
 20
66.1044
 30
0.0
 10
-74.8412
 20
61.2388
 30
0.0
 10
-71.9138
 20
60.661
 30
0.0
 10
-69.1472
 20
60.5857
 30
0.0
 10
-69.1472
 20
60.5857
 30
0.0
 10
-69.1472
 20
60.5857
 30
0.0
 10
-69.1293
 20
58.3764
 30
0.0
 10
-69.1293
 20
58.3764
 30
0.0
 10
-69.1293
 20
58.3764
 30
0.0
 10
-66.5431
 20
57.4958
 30
0.0
 10
-65.4663
 20
55.8644
 30
0.0
 10
-64.2323
 20
53.8308
 30
0.0
 10
-64.2323
 20
53.8308
 30
0.0
 10
-62.9983
 20
55.8645
 30
0.0
 10
-61.9215
 20
57.4958
 30
0.0
 10
-59.3353
 20
58.3764
 30
0.0
 10
-59.3353
 20
58.3764
 30
0.0
 10
-59.3353
 20
58.3764
 30
0.0
 10
-59.3173
 20
60.5857
 30
0.0
 10
-59.3173
 20
60.5857
 30
0.0
 10
-59.3173
 20
60.5857
 30
0.0
 10
-56.5508
 20
60.661
 30
0.0
 10
-53.6233
 20
61.2387
 30
0.0
 10
-53.6448
 20
66.1044
 30
0.0
 10
-53.6448
 20
66.1044
 30
0.0
 10
-53.6233
 20
70.97
 30
0.0
 10
-56.5508
 20
71.5478
 30
0.0
 10
-59.3173
 20
71.6231
 30
0.0
  0
SPLINE
  5
4D
330
1F
100
AcDbEntity
  8
layer 1
 62
     7
100
AcDbSpline
210
0.0
220
0.0
230
1.0
 70
    11
 71
     3
 72
    52
 73
    48
 74
     0
 42
0.0000000001
 43
0.0000000001
 12
1.0
 22
0.0
 32
0.0
 13
1.0
 23
0.0
 33
0.0
 40
0.0
 40
0.0
 40
0.0
 40
0.0
 40
0.0769230769230769
 40
0.0769230769230769
 40
0.0769230769230769
 40
0.0769230769230769
 40
0.1538461538461539
 40
0.1538461538461539
 40
0.1538461538461539
 40
0.1538461538461539
 40
0.2307692307692308
 40
0.2307692307692308
 40
0.2307692307692308
 40
0.2307692307692308
 40
0.3076923076923077
 40
0.3076923076923077
 40
0.3076923076923077
 40
0.3076923076923077
 40
0.3846153846153846
 40
0.3846153846153846
 40
0.3846153846153846
 40
0.3846153846153846
 40
0.4615384615384616
 40
0.4615384615384616
 40
0.4615384615384616
 40
0.4615384615384616
 40
0.5384615384615384
 40
0.5384615384615384
 40
0.5384615384615384
 40
0.5384615384615384
 40
0.6153846153846154
 40
0.6153846153846154
 40
0.6153846153846154
 40
0.6153846153846154
 40
0.6923076923076923
 40
0.6923076923076923
 40
0.6923076923076923
 40
0.6923076923076923
 40
0.7692307692307693
 40
0.7692307692307693
 40
0.7692307692307693
 40
0.7692307692307693
 40
0.8461538461538461
 40
0.8461538461538461
 40
0.8461538461538461
 40
0.8461538461538461
 40
1.0
 40
1.0
 40
1.0
 40
1.0
 10
-32.128
 20
71.6231
 30
0.0
 10
-32.128
 20
71.6231
 30
0.0
 10
-32.1459
 20
73.8324
 30
0.0
 10
-32.1459
 20
73.8324
 30
0.0
 10
-32.1459
 20
73.8324
 30
0.0
 10
-34.7322
 20
74.713
 30
0.0
 10
-35.8089
 20
76.3444
 30
0.0
 10
-37.0429
 20
78.378
 30
0.0
 10
-37.0429
 20
78.378
 30
0.0
 10
-38.2769
 20
76.3443
 30
0.0
 10
-39.3537
 20
74.713
 30
0.0
 10
-41.9399
 20
73.8324
 30
0.0
 10
-41.9399
 20
73.8324
 30
0.0
 10
-41.9399
 20
73.8324
 30
0.0
 10
-41.9579
 20
71.6231
 30
0.0
 10
-41.9579
 20
71.6231
 30
0.0
 10
-41.9579
 20
71.6231
 30
0.0
 10
-44.7244
 20
71.5478
 30
0.0
 10
-47.6519
 20
70.9701
 30
0.0
 10
-47.6305
 20
66.1044
 30
0.0
 10
-47.6305
 20
66.1044
 30
0.0
 10
-47.6519
 20
61.2388
 30
0.0
 10
-44.7244
 20
60.661
 30
0.0
 10
-41.9579
 20
60.5857
 30
0.0
 10
-41.9579
 20
60.5857
 30
0.0
 10
-41.9579
 20
60.5857
 30
0.0
 10
-41.9399
 20
58.3764
 30
0.0
 10
-41.9399
 20
58.3764
 30
0.0
 10
-41.9399
 20
58.3764
 30
0.0
 10
-39.3537
 20
57.4958
 30
0.0
 10
-38.2769
 20
55.8644
 30
0.0
 10
-37.0429
 20
53.8308
 30
0.0
 10
-37.0429
 20
53.8308
 30
0.0
 10
-35.8089
 20
55.8645
 30
0.0
 10
-34.7322
 20
57.4958
 30
0.0
 10
-32.1459
 20
58.3764
 30
0.0
 10
-32.1459
 20
58.3764
 30
0.0
 10
-32.1459
 20
58.3764
 30
0.0
 10
-32.128
 20
60.5857
 30
0.0
 10
-32.128
 20
60.5857
 30
0.0
 10
-32.128
 20
60.5857
 30
0.0
 10
-29.3615
 20
60.661
 30
0.0
 10
-26.434
 20
61.2387
 30
0.0
 10
-26.4554
 20
66.1044
 30
0.0
 10
-26.4554
 20
66.1044
 30
0.0
 10
-26.434
 20
70.97
 30
0.0
 10
-29.3615
 20
71.5478
 30
0.0
 10
-32.128
 20
71.6231
 30
0.0
  0
SPLINE
  5
4E
330
1F
100
AcDbEntity
  8
layer 1
 62
     7
100
AcDbSpline
210
0.0
220
0.0
230
1.0
 70
    11
 71
     3
 72
    52
 73
    48
 74
     0
 42
0.0000000001
 43
0.0000000001
 12
1.0
 22
0.0
 32
0.0
 13
1.0
 23
0.0
 33
0.0
 40
0.0
 40
0.0
 40
0.0
 40
0.0
 40
0.0769230769230769
 40
0.0769230769230769
 40
0.0769230769230769
 40
0.0769230769230769
 40
0.1538461538461539
 40
0.1538461538461539
 40
0.1538461538461539
 40
0.1538461538461539
 40
0.2307692307692308
 40
0.2307692307692308
 40
0.2307692307692308
 40
0.2307692307692308
 40
0.3076923076923077
 40
0.3076923076923077
 40
0.3076923076923077
 40
0.3076923076923077
 40
0.3846153846153846
 40
0.3846153846153846
 40
0.3846153846153846
 40
0.3846153846153846
 40
0.4615384615384616
 40
0.4615384615384616
 40
0.4615384615384616
 40
0.4615384615384616
 40
0.5384615384615384
 40
0.5384615384615384
 40
0.5384615384615384
 40
0.5384615384615384
 40
0.6153846153846154
 40
0.6153846153846154
 40
0.6153846153846154
 40
0.6153846153846154
 40
0.6923076923076923
 40
0.6923076923076923
 40
0.6923076923076923
 40
0.6923076923076923
 40
0.7692307692307693
 40
0.7692307692307693
 40
0.7692307692307693
 40
0.7692307692307693
 40
0.8461538461538461
 40
0.8461538461538461
 40
0.8461538461538461
 40
0.8461538461538461
 40
1.0
 40
1.0
 40
1.0
 40
1.0
 10
-4.9386
 20
71.6231
 30
0.0
 10
-4.9386
 20
71.6231
 30
0.0
 10
-4.9565
 20
73.8324
 30
0.0
 10
-4.9565
 20
73.8324
 30
0.0
 10
-4.9565
 20
73.8324
 30
0.0
 10
-7.5428
 20
74.713
 30
0.0
 10
-8.6196
 20
76.3444
 30
0.0
 10
-9.8536
 20
78.378
 30
0.0
 10
-9.8536
 20
78.378
 30
0.0
 10
-11.0876
 20
76.3443
 30
0.0
 10
-12.1643
 20
74.713
 30
0.0
 10
-14.7506
 20
73.8324
 30
0.0
 10
-14.7506
 20
73.8324
 30
0.0
 10
-14.7506
 20
73.8324
 30
0.0
 10
-14.7685
 20
71.6231
 30
0.0
 10
-14.7685
 20
71.6231
 30
0.0
 10
-14.7685
 20
71.6231
 30
0.0
 10
-17.535
 20
71.5478
 30
0.0
 10
-20.4625
 20
70.9701
 30
0.0
 10
-20.4411
 20
66.1044
 30
0.0
 10
-20.4411
 20
66.1044
 30
0.0
 10
-20.4625
 20
61.2388
 30
0.0
 10
-17.535
 20
60.661
 30
0.0
 10
-14.7685
 20
60.5857
 30
0.0
 10
-14.7685
 20
60.5857
 30
0.0
 10
-14.7685
 20
60.5857
 30
0.0
 10
-14.7506
 20
58.3764
 30
0.0
 10
-14.7506
 20
58.3764
 30
0.0
 10
-14.7506
 20
58.3764
 30
0.0
 10
-12.1643
 20
57.4958
 30
0.0
 10
-11.0876
 20
55.8644
 30
0.0
 10
-9.8536
 20
53.8308
 30
0.0
 10
-9.8536
 20
53.8308
 30
0.0
 10
-8.6196
 20
55.8645
 30
0.0
 10
-7.5428
 20
57.4958
 30
0.0
 10
-4.9565
 20
58.3764
 30
0.0
 10
-4.9565
 20
58.3764
 30
0.0
 10
-4.9565
 20
58.3764
 30
0.0
 10
-4.9386
 20
60.5857
 30
0.0
 10
-4.9386
 20
60.5857
 30
0.0
 10
-4.9386
 20
60.5857
 30
0.0
 10
-2.1721
 20
60.661
 30
0.0
 10
0.7554
 20
61.2387
 30
0.0
 10
0.734
 20
66.1044
 30
0.0
 10
0.734
 20
66.1044
 30
0.0
 10
0.7554
 20
70.97
 30
0.0
 10
-2.1721
 20
71.5478
 30
0.0
 10
-4.9386
 20
71.6231
 30
0.0
  0
SPLINE
  5
4F
330
1F
100
AcDbEntity
  8
layer 1
 62
     7
100
AcDbSpline
210
0.0
220
0.0
230
1.0
 70
    11
 71
     3
 72
    52
 73
    48
 74
     0
 42
0.0000000001
 43
0.0000000001
 12
1.0
 22
0.0
 32
0.0
 13
1.0
 23
0.0
 33
0.0
 40
0.0
 40
0.0
 40
0.0
 40
0.0
 40
0.0769230769230769
 40
0.0769230769230769
 40
0.0769230769230769
 40
0.0769230769230769
 40
0.1538461538461539
 40
0.1538461538461539
 40
0.1538461538461539
 40
0.1538461538461539
 40
0.2307692307692308
 40
0.2307692307692308
 40
0.2307692307692308
 40
0.2307692307692308
 40
0.3076923076923077
 40
0.3076923076923077
 40
0.3076923076923077
 40
0.3076923076923077
 40
0.3846153846153846
 40
0.3846153846153846
 40
0.3846153846153846
 40
0.3846153846153846
 40
0.4615384615384616
 40
0.4615384615384616
 40
0.4615384615384616
 40
0.4615384615384616
 40
0.5384615384615384
 40
0.5384615384615384
 40
0.5384615384615384
 40
0.5384615384615384
 40
0.6153846153846154
 40
0.6153846153846154
 40
0.6153846153846154
 40
0.6153846153846154
 40
0.6923076923076923
 40
0.6923076923076923
 40
0.6923076923076923
 40
0.6923076923076923
 40
0.7692307692307693
 40
0.7692307692307693
 40
0.7692307692307693
 40
0.7692307692307693
 40
0.8461538461538461
 40
0.8461538461538461
 40
0.8461538461538461
 40
0.8461538461538461
 40
1.0
 40
1.0
 40
1.0
 40
1.0
 10
22.2508
 20
71.6231
 30
0.0
 10
22.2508
 20
71.6231
 30
0.0
 10
22.2328
 20
73.8324
 30
0.0
 10
22.2328
 20
73.8324
 30
0.0
 10
22.2328
 20
73.8324
 30
0.0
 10
19.6466
 20
74.713
 30
0.0
 10
18.5698
 20
76.3444
 30
0.0
 10
17.3358
 20
78.378
 30
0.0
 10
17.3358
 20
78.378
 30
0.0
 10
16.1018
 20
76.3443
 30
0.0
 10
15.025
 20
74.713
 30
0.0
 10
12.4388
 20
73.8324
 30
0.0
 10
12.4388
 20
73.8324
 30
0.0
 10
12.4388
 20
73.8324
 30
0.0
 10
12.4209
 20
71.6231
 30
0.0
 10
12.4209
 20
71.6231
 30
0.0
 10
12.4209
 20
71.6231
 30
0.0
 10
9.6543
 20
71.5478
 30
0.0
 10
6.7269
 20
70.9701
 30
0.0
 10
6.7483
 20
66.1044
 30
0.0
 10
6.7483
 20
66.1044
 30
0.0
 10
6.7269
 20
61.2388
 30
0.0
 10
9.6543
 20
60.661
 30
0.0
 10
12.4209
 20
60.5857
 30
0.0
 10
12.4209
 20
60.5857
 30
0.0
 10
12.4209
 20
60.5857
 30
0.0
 10
12.4388
 20
58.3764
 30
0.0
 10
12.4388
 20
58.3764
 30
0.0
 10
12.4388
 20
58.3764
 30
0.0
 10
15.025
 20
57.4958
 30
0.0
 10
16.1018
 20
55.8644
 30
0.0
 10
17.3358
 20
53.8308
 30
0.0
 10
17.3358
 20
53.8308
 30
0.0
 10
18.5698
 20
55.8645
 30
0.0
 10
19.6466
 20
57.4958
 30
0.0
 10
22.2328
 20
58.3764
 30
0.0
 10
22.2328
 20
58.3764
 30
0.0
 10
22.2328
 20
58.3764
 30
0.0
 10
22.2508
 20
60.5857
 30
0.0
 10
22.2508
 20
60.5857
 30
0.0
 10
22.2508
 20
60.5857
 30
0.0
 10
25.0173
 20
60.661
 30
0.0
 10
27.9448
 20
61.2387
 30
0.0
 10
27.9233
 20
66.1044
 30
0.0
 10
27.9233
 20
66.1044
 30
0.0
 10
27.9448
 20
70.97
 30
0.0
 10
25.0173
 20
71.5478
 30
0.0
 10
22.2508
 20
71.6231
 30
0.0
  0
SPLINE
  5
50
330
1F
100
AcDbEntity
  8
layer 1
 62
     7
100
AcDbSpline
210
0.0
220
0.0
230
1.0
 70
    11
 71
     3
 72
    32
 73
    28
 74
     0
 42
0.0000000001
 43
0.0000000001
 12
1.0
 22
0.0
 32
0.0
 13
1.0
 23
0.0
 33
0.0
 40
0.0
 40
0.0
 40
0.0
 40
0.0
 40
0.125
 40
0.125
 40
0.125
 40
0.125
 40
0.25
 40
0.25
 40
0.25
 40
0.25
 40
0.375
 40
0.375
 40
0.375
 40
0.375
 40
0.5
 40
0.5
 40
0.5
 40
0.5
 40
0.625
 40
0.625
 40
0.625
 40
0.625
 40
0.75
 40
0.75
 40
0.75
 40
0.75
 40
1.0
 40
1.0
 40
1.0
 40
1.0
 10
-99.9006
 20
88.2973
 30
0.0
 10
-99.9006
 20
88.2973
 30
0.0
 10
-99.9185
 20
90.5066
 30
0.0
 10
-99.9185
 20
90.5066
 30
0.0
 10
-99.9185
 20
90.5066
 30
0.0
 10
-102.5048
 20
91.3872
 30
0.0
 10
-103.5815
 20
93.0186
 30
0.0
 10
-104.8155
 20
95.0522
 30
0.0
 10
-104.8155
 20
95.0522
 30
0.0
 10
-104.8155
 20
95.0522
 30
0.0
 10
-104.8155
 20
70.505
 30
0.0
 10
-104.8155
 20
70.505
 30
0.0
 10
-104.8155
 20
70.505
 30
0.0
 10
-103.5815
 20
72.5387
 30
0.0
 10
-102.5048
 20
74.17
 30
0.0
 10
-99.9185
 20
75.0506
 30
0.0
 10
-99.9185
 20
75.0506
 30
0.0
 10
-99.9185
 20
75.0506
 30
0.0
 10
-99.9006
 20
77.2599
 30
0.0
 10
-99.9006
 20
77.2599
 30
0.0
 10
-99.9006
 20
77.2599
 30
0.0
 10
-97.1341
 20
77.3352
 30
0.0
 10
-94.2066
 20
77.9129
 30
0.0
 10
-94.228
 20
82.7786
 30
0.0
 10
-94.228
 20
82.7786
 30
0.0
 10
-94.2066
 20
87.6442
 30
0.0
 10
-97.1341
 20
88.222
 30
0.0
 10
-99.9006
 20
88.2973
 30
0.0
  0
SPLINE
  5
51
330
1F
100
AcDbEntity
  8
layer 1
 62
     7
100
AcDbSpline
210
0.0
220
0.0
230
1.0
 70
    11
 71
     3
 72
    32
 73
    28
 74
     0
 42
0.0000000001
 43
0.0000000001
 12
1.0
 22
0.0
 32
0.0
 13
1.0
 23
0.0
 33
0.0
 40
0.0
 40
0.0
 40
0.0
 40
0.0
 40
0.125
 40
0.125
 40
0.125
 40
0.125
 40
0.25
 40
0.25
 40
0.25
 40
0.25
 40
0.375
 40
0.375
 40
0.375
 40
0.375
 40
0.5
 40
0.5
 40
0.5
 40
0.5
 40
0.625
 40
0.625
 40
0.625
 40
0.625
 40
0.75
 40
0.75
 40
0.75
 40
0.75
 40
1.0
 40
1.0
 40
1.0
 40
1.0
 10
25.7619
 20
88.2973
 30
0.0
 10
25.7619
 20
88.2973
 30
0.0
 10
25.7798
 20
90.5066
 30
0.0
 10
25.7798
 20
90.5066
 30
0.0
 10
25.7798
 20
90.5066
 30
0.0
 10
28.3661
 20
91.3872
 30
0.0
 10
29.4428
 20
93.0186
 30
0.0
 10
30.6768
 20
95.0522
 30
0.0
 10
30.6768
 20
95.0522
 30
0.0
 10
30.6768
 20
95.0522
 30
0.0
 10
30.6768
 20
70.505
 30
0.0
 10
30.6768
 20
70.505
 30
0.0
 10
30.6768
 20
70.505
 30
0.0
 10
29.4428
 20
72.5387
 30
0.0
 10
28.3661
 20
74.17
 30
0.0
 10
25.7798
 20
75.0506
 30
0.0
 10
25.7798
 20
75.0506
 30
0.0
 10
25.7798
 20
75.0506
 30
0.0
 10
25.7619
 20
77.2599
 30
0.0
 10
25.7619
 20
77.2599
 30
0.0
 10
25.7619
 20
77.2599
 30
0.0
 10
22.9954
 20
77.3352
 30
0.0
 10
20.0679
 20
77.9129
 30
0.0
 10
20.0893
 20
82.7786
 30
0.0
 10
20.0893
 20
82.7786
 30
0.0
 10
20.0679
 20
87.6442
 30
0.0
 10
22.9954
 20
88.222
 30
0.0
 10
25.7619
 20
88.2973
 30
0.0
  0
SPLINE
  5
52
330
1F
100
AcDbEntity
  8
layer 1
 62
     7
100
AcDbSpline
210
0.0
220
0.0
230
1.0
 70
    11
 71
     3
 72
    52
 73
    48
 74
     0
 42
0.0000000001
 43
0.0000000001
 12
1.0
 22
0.0
 32
0.0
 13
1.0
 23
0.0
 33
0.0
 40
0.0
 40
0.0
 40
0.0
 40
0.0
 40
0.0769230769230769
 40
0.0769230769230769
 40
0.0769230769230769
 40
0.0769230769230769
 40
0.1538461538461539
 40
0.1538461538461539
 40
0.1538461538461539
 40
0.1538461538461539
 40
0.2307692307692308
 40
0.2307692307692308
 40
0.2307692307692308
 40
0.2307692307692308
 40
0.3076923076923077
 40
0.3076923076923077
 40
0.3076923076923077
 40
0.3076923076923077
 40
0.3846153846153846
 40
0.3846153846153846
 40
0.3846153846153846
 40
0.3846153846153846
 40
0.4615384615384616
 40
0.4615384615384616
 40
0.4615384615384616
 40
0.4615384615384616
 40
0.5384615384615384
 40
0.5384615384615384
 40
0.5384615384615384
 40
0.5384615384615384
 40
0.6153846153846154
 40
0.6153846153846154
 40
0.6153846153846154
 40
0.6153846153846154
 40
0.6923076923076923
 40
0.6923076923076923
 40
0.6923076923076923
 40
0.6923076923076923
 40
0.7692307692307693
 40
0.7692307692307693
 40
0.7692307692307693
 40
0.7692307692307693
 40
0.8461538461538461
 40
0.8461538461538461
 40
0.8461538461538461
 40
0.8461538461538461
 40
1.0
 40
1.0
 40
1.0
 40
1.0
 10
-86.5067
 20
36.4081
 30
0.0
 10
-86.5067
 20
36.4081
 30
0.0
 10
-86.5246
 20
38.6174
 30
0.0
 10
-86.5246
 20
38.6174
 30
0.0
 10
-86.5246
 20
38.6174
 30
0.0
 10
-89.1109
 20
39.498
 30
0.0
 10
-90.1877
 20
41.1294
 30
0.0
 10
-91.4217
 20
43.163
 30
0.0
 10
-91.4217
 20
43.163
 30
0.0
 10
-92.6557
 20
41.1293
 30
0.0
 10
-93.7324
 20
39.498
 30
0.0
 10
-96.3187
 20
38.6174
 30
0.0
 10
-96.3187
 20
38.6174
 30
0.0
 10
-96.3187
 20
38.6174
 30
0.0
 10
-96.3366
 20
36.4081
 30
0.0
 10
-96.3366
 20
36.4081
 30
0.0
 10
-96.3366
 20
36.4081
 30
0.0
 10
-99.1031
 20
36.3328
 30
0.0
 10
-102.0306
 20
35.7551
 30
0.0
 10
-102.0092
 20
30.8894
 30
0.0
 10
-102.0092
 20
30.8894
 30
0.0
 10
-102.0306
 20
26.0238
 30
0.0
 10
-99.1031
 20
25.446
 30
0.0
 10
-96.3366
 20
25.3707
 30
0.0
 10
-96.3366
 20
25.3707
 30
0.0
 10
-96.3366
 20
25.3707
 30
0.0
 10
-96.3187
 20
23.1614
 30
0.0
 10
-96.3187
 20
23.1614
 30
0.0
 10
-96.3187
 20
23.1614
 30
0.0
 10
-93.7324
 20
22.2808
 30
0.0
 10
-92.6557
 20
20.6494
 30
0.0
 10
-91.4217
 20
18.6158
 30
0.0
 10
-91.4217
 20
18.6158
 30
0.0
 10
-90.1877
 20
20.6495
 30
0.0
 10
-89.1109
 20
22.2808
 30
0.0
 10
-86.5246
 20
23.1614
 30
0.0
 10
-86.5246
 20
23.1614
 30
0.0
 10
-86.5246
 20
23.1614
 30
0.0
 10
-86.5067
 20
25.3707
 30
0.0
 10
-86.5067
 20
25.3707
 30
0.0
 10
-86.5067
 20
25.3707
 30
0.0
 10
-83.7402
 20
25.446
 30
0.0
 10
-80.8127
 20
26.0237
 30
0.0
 10
-80.8341
 20
30.8894
 30
0.0
 10
-80.8341
 20
30.8894
 30
0.0
 10
-80.8127
 20
35.755
 30
0.0
 10
-83.7402
 20
36.3328
 30
0.0
 10
-86.5067
 20
36.4081
 30
0.0
  0
SPLINE
  5
53
330
1F
100
AcDbEntity
  8
layer 1
 62
     7
100
AcDbSpline
210
0.0
220
0.0
230
1.0
 70
    11
 71
     3
 72
    52
 73
    48
 74
     0
 42
0.0000000001
 43
0.0000000001
 12
1.0
 22
0.0
 32
0.0
 13
1.0
 23
0.0
 33
0.0
 40
0.0
 40
0.0
 40
0.0
 40
0.0
 40
0.0769230769230769
 40
0.0769230769230769
 40
0.0769230769230769
 40
0.0769230769230769
 40
0.1538461538461539
 40
0.1538461538461539
 40
0.1538461538461539
 40
0.1538461538461539
 40
0.2307692307692308
 40
0.2307692307692308
 40
0.2307692307692308
 40
0.2307692307692308
 40
0.3076923076923077
 40
0.3076923076923077
 40
0.3076923076923077
 40
0.3076923076923077
 40
0.3846153846153846
 40
0.3846153846153846
 40
0.3846153846153846
 40
0.3846153846153846
 40
0.4615384615384616
 40
0.4615384615384616
 40
0.4615384615384616
 40
0.4615384615384616
 40
0.5384615384615384
 40
0.5384615384615384
 40
0.5384615384615384
 40
0.5384615384615384
 40
0.6153846153846154
 40
0.6153846153846154
 40
0.6153846153846154
 40
0.6153846153846154
 40
0.6923076923076923
 40
0.6923076923076923
 40
0.6923076923076923
 40
0.6923076923076923
 40
0.7692307692307693
 40
0.7692307692307693
 40
0.7692307692307693
 40
0.7692307692307693
 40
0.8461538461538461
 40
0.8461538461538461
 40
0.8461538461538461
 40
0.8461538461538461
 40
1.0
 40
1.0
 40
1.0
 40
1.0
 10
-86.5067
 20
1.1932
 30
0.0
 10
-86.5067
 20
1.1932
 30
0.0
 10
-86.5246
 20
3.4025
 30
0.0
 10
-86.5246
 20
3.4025
 30
0.0
 10
-86.5246
 20
3.4025
 30
0.0
 10
-89.1109
 20
4.283
 30
0.0
 10
-90.1877
 20
5.9145
 30
0.0
 10
-91.4217
 20
7.948
 30
0.0
 10
-91.4217
 20
7.948
 30
0.0
 10
-92.6557
 20
5.9143
 30
0.0
 10
-93.7324
 20
4.283
 30
0.0
 10
-96.3187
 20
3.4025
 30
0.0
 10
-96.3187
 20
3.4025
 30
0.0
 10
-96.3187
 20
3.4025
 30
0.0
 10
-96.3366
 20
1.1932
 30
0.0
 10
-96.3366
 20
1.1932
 30
0.0
 10
-96.3366
 20
1.1932
 30
0.0
 10
-99.1031
 20
1.1179
 30
0.0
 10
-102.0306
 20
0.5401
 30
0.0
 10
-102.0092
 20
-4.3256
 30
0.0
 10
-102.0092
 20
-4.3256
 30
0.0
 10
-102.0306
 20
-9.1912
 30
0.0
 10
-99.1031
 20
-9.769
 30
0.0
 10
-96.3366
 20
-9.8443
 30
0.0
 10
-96.3366
 20
-9.8443
 30
0.0
 10
-96.3366
 20
-9.8443
 30
0.0
 10
-96.3187
 20
-12.0536
 30
0.0
 10
-96.3187
 20
-12.0536
 30
0.0
 10
-96.3187
 20
-12.0536
 30
0.0
 10
-93.7324
 20
-12.9341
 30
0.0
 10
-92.6557
 20
-14.5656
 30
0.0
 10
-91.4217
 20
-16.5991
 30
0.0
 10
-91.4217
 20
-16.5991
 30
0.0
 10
-90.1877
 20
-14.5655
 30
0.0
 10
-89.1109
 20
-12.9341
 30
0.0
 10
-86.5246
 20
-12.0536
 30
0.0
 10
-86.5246
 20
-12.0536
 30
0.0
 10
-86.5246
 20
-12.0536
 30
0.0
 10
-86.5067
 20
-9.8443
 30
0.0
 10
-86.5067
 20
-9.8443
 30
0.0
 10
-86.5067
 20
-9.8443
 30
0.0
 10
-83.7402
 20
-9.769
 30
0.0
 10
-80.8127
 20
-9.1913
 30
0.0
 10
-80.8341
 20
-4.3256
 30
0.0
 10
-80.8341
 20
-4.3256
 30
0.0
 10
-80.8127
 20
0.54
 30
0.0
 10
-83.7402
 20
1.1179
 30
0.0
 10
-86.5067
 20
1.1932
 30
0.0
  0
SPLINE
  5
54
330
1F
100
AcDbEntity
  8
layer 1
 62
     7
100
AcDbSpline
210
0.0
220
0.0
230
1.0
 70
    11
 71
     3
 72
    52
 73
    48
 74
     0
 42
0.0000000001
 43
0.0000000001
 12
1.0
 22
0.0
 32
0.0
 13
1.0
 23
0.0
 33
0.0
 40
0.0
 40
0.0
 40
0.0
 40
0.0
 40
0.0769230769230769
 40
0.0769230769230769
 40
0.0769230769230769
 40
0.0769230769230769
 40
0.1538461538461539
 40
0.1538461538461539
 40
0.1538461538461539
 40
0.1538461538461539
 40
0.2307692307692308
 40
0.2307692307692308
 40
0.2307692307692308
 40
0.2307692307692308
 40
0.3076923076923077
 40
0.3076923076923077
 40
0.3076923076923077
 40
0.3076923076923077
 40
0.3846153846153846
 40
0.3846153846153846
 40
0.3846153846153846
 40
0.3846153846153846
 40
0.4615384615384616
 40
0.4615384615384616
 40
0.4615384615384616
 40
0.4615384615384616
 40
0.5384615384615384
 40
0.5384615384615384
 40
0.5384615384615384
 40
0.5384615384615384
 40
0.6153846153846154
 40
0.6153846153846154
 40
0.6153846153846154
 40
0.6153846153846154
 40
0.6923076923076923
 40
0.6923076923076923
 40
0.6923076923076923
 40
0.6923076923076923
 40
0.7692307692307693
 40
0.7692307692307693
 40
0.7692307692307693
 40
0.7692307692307693
 40
0.8461538461538461
 40
0.8461538461538461
 40
0.8461538461538461
 40
0.8461538461538461
 40
1.0
 40
1.0
 40
1.0
 40
1.0
 10
-86.5067
 20
-34.0218
 30
0.0
 10
-86.5067
 20
-34.0218
 30
0.0
 10
-86.5246
 20
-31.8125
 30
0.0
 10
-86.5246
 20
-31.8125
 30
0.0
 10
-86.5246
 20
-31.8125
 30
0.0
 10
-89.1109
 20
-30.932
 30
0.0
 10
-90.1877
 20
-29.3005
 30
0.0
 10
-91.4217
 20
-27.267
 30
0.0
 10
-91.4217
 20
-27.267
 30
0.0
 10
-92.6557
 20
-29.3006
 30
0.0
 10
-93.7324
 20
-30.932
 30
0.0
 10
-96.3187
 20
-31.8125
 30
0.0
 10
-96.3187
 20
-31.8125
 30
0.0
 10
-96.3187
 20
-31.8125
 30
0.0
 10
-96.3366
 20
-34.0218
 30
0.0
 10
-96.3366
 20
-34.0218
 30
0.0
 10
-96.3366
 20
-34.0218
 30
0.0
 10
-99.1031
 20
-34.0971
 30
0.0
 10
-102.0306
 20
-34.6748
 30
0.0
 10
-102.0092
 20
-39.5405
 30
0.0
 10
-102.0092
 20
-39.5405
 30
0.0
 10
-102.0306
 20
-44.4061
 30
0.0
 10
-99.1031
 20
-44.984
 30
0.0
 10
-96.3366
 20
-45.0593
 30
0.0
 10
-96.3366
 20
-45.0593
 30
0.0
 10
-96.3366
 20
-45.0593
 30
0.0
 10
-96.3187
 20
-47.2686
 30
0.0
 10
-96.3187
 20
-47.2686
 30
0.0
 10
-96.3187
 20
-47.2686
 30
0.0
 10
-93.7324
 20
-48.1491
 30
0.0
 10
-92.6557
 20
-49.7806
 30
0.0
 10
-91.4217
 20
-51.8141
 30
0.0
 10
-91.4217
 20
-51.8141
 30
0.0
 10
-90.1877
 20
-49.7804
 30
0.0
 10
-89.1109
 20
-48.1491
 30
0.0
 10
-86.5246
 20
-47.2686
 30
0.0
 10
-86.5246
 20
-47.2686
 30
0.0
 10
-86.5246
 20
-47.2686
 30
0.0
 10
-86.5067
 20
-45.0593
 30
0.0
 10
-86.5067
 20
-45.0593
 30
0.0
 10
-86.5067
 20
-45.0593
 30
0.0
 10
-83.7402
 20
-44.984
 30
0.0
 10
-80.8127
 20
-44.4063
 30
0.0
 10
-80.8341
 20
-39.5405
 30
0.0
 10
-80.8341
 20
-39.5405
 30
0.0
 10
-80.8127
 20
-34.6749
 30
0.0
 10
-83.7402
 20
-34.0971
 30
0.0
 10
-86.5067
 20
-34.0218
 30
0.0
  0
SPLINE
  5
55
330
1F
100
AcDbEntity
  8
layer 1
 62
     7
100
AcDbSpline
210
0.0
220
0.0
230
1.0
 70
    11
 71
     3
 72
    52
 73
    48
 74
     0
 42
0.0000000001
 43
0.0000000001
 12
1.0
 22
0.0
 32
0.0
 13
1.0
 23
0.0
 33
0.0
 40
0.0
 40
0.0
 40
0.0
 40
0.0
 40
0.0769230769230769
 40
0.0769230769230769
 40
0.0769230769230769
 40
0.0769230769230769
 40
0.1538461538461539
 40
0.1538461538461539
 40
0.1538461538461539
 40
0.1538461538461539
 40
0.2307692307692308
 40
0.2307692307692308
 40
0.2307692307692308
 40
0.2307692307692308
 40
0.3076923076923077
 40
0.3076923076923077
 40
0.3076923076923077
 40
0.3076923076923077
 40
0.3846153846153846
 40
0.3846153846153846
 40
0.3846153846153846
 40
0.3846153846153846
 40
0.4615384615384616
 40
0.4615384615384616
 40
0.4615384615384616
 40
0.4615384615384616
 40
0.5384615384615384
 40
0.5384615384615384
 40
0.5384615384615384
 40
0.5384615384615384
 40
0.6153846153846154
 40
0.6153846153846154
 40
0.6153846153846154
 40
0.6153846153846154
 40
0.6923076923076923
 40
0.6923076923076923
 40
0.6923076923076923
 40
0.6923076923076923
 40
0.7692307692307693
 40
0.7692307692307693
 40
0.7692307692307693
 40
0.7692307692307693
 40
0.8461538461538461
 40
0.8461538461538461
 40
0.8461538461538461
 40
0.8461538461538461
 40
1.0
 40
1.0
 40
1.0
 40
1.0
 10
-86.5067
 20
-67.3165
 30
0.0
 10
-86.5067
 20
-67.3165
 30
0.0
 10
-86.5246
 20
-65.1072
 30
0.0
 10
-86.5246
 20
-65.1072
 30
0.0
 10
-86.5246
 20
-65.1072
 30
0.0
 10
-89.1109
 20
-64.2266
 30
0.0
 10
-90.1877
 20
-62.5952
 30
0.0
 10
-91.4217
 20
-60.5616
 30
0.0
 10
-91.4217
 20
-60.5616
 30
0.0
 10
-92.6557
 20
-62.5953
 30
0.0
 10
-93.7324
 20
-64.2266
 30
0.0
 10
-96.3187
 20
-65.1072
 30
0.0
 10
-96.3187
 20
-65.1072
 30
0.0
 10
-96.3187
 20
-65.1072
 30
0.0
 10
-96.3366
 20
-67.3165
 30
0.0
 10
-96.3366
 20
-67.3165
 30
0.0
 10
-96.3366
 20
-67.3165
 30
0.0
 10
-99.1031
 20
-67.3918
 30
0.0
 10
-102.0306
 20
-67.9695
 30
0.0
 10
-102.0092
 20
-72.8352
 30
0.0
 10
-102.0092
 20
-72.8352
 30
0.0
 10
-102.0306
 20
-77.7008
 30
0.0
 10
-99.1031
 20
-78.2787
 30
0.0
 10
-96.3366
 20
-78.354
 30
0.0
 10
-96.3366
 20
-78.354
 30
0.0
 10
-96.3366
 20
-78.354
 30
0.0
 10
-96.3187
 20
-80.5632
 30
0.0
 10
-96.3187
 20
-80.5632
 30
0.0
 10
-96.3187
 20
-80.5632
 30
0.0
 10
-93.7324
 20
-81.4438
 30
0.0
 10
-92.6557
 20
-83.0752
 30
0.0
 10
-91.4217
 20
-85.1088
 30
0.0
 10
-91.4217
 20
-85.1088
 30
0.0
 10
-90.1877
 20
-83.0751
 30
0.0
 10
-89.1109
 20
-81.4438
 30
0.0
 10
-86.5246
 20
-80.5632
 30
0.0
 10
-86.5246
 20
-80.5632
 30
0.0
 10
-86.5246
 20
-80.5632
 30
0.0
 10
-86.5067
 20
-78.354
 30
0.0
 10
-86.5067
 20
-78.354
 30
0.0
 10
-86.5067
 20
-78.354
 30
0.0
 10
-83.7402
 20
-78.2787
 30
0.0
 10
-80.8127
 20
-77.7009
 30
0.0
 10
-80.8341
 20
-72.8352
 30
0.0
 10
-80.8341
 20
-72.8352
 30
0.0
 10
-80.8127
 20
-67.9696
 30
0.0
 10
-83.7402
 20
-67.3918
 30
0.0
 10
-86.5067
 20
-67.3165
 30
0.0
  0
SPLINE
  5
56
330
1F
100
AcDbEntity
  8
layer 1
 62
     7
100
AcDbSpline
210
0.0
220
0.0
230
1.0
 70
    11
 71
     3
 72
    52
 73
    48
 74
     0
 42
0.0000000001
 43
0.0000000001
 12
1.0
 22
0.0
 32
0.0
 13
1.0
 23
0.0
 33
0.0
 40
0.0
 40
0.0
 40
0.0
 40
0.0
 40
0.0769230769230769
 40
0.0769230769230769
 40
0.0769230769230769
 40
0.0769230769230769
 40
0.1538461538461539
 40
0.1538461538461539
 40
0.1538461538461539
 40
0.1538461538461539
 40
0.2307692307692308
 40
0.2307692307692308
 40
0.2307692307692308
 40
0.2307692307692308
 40
0.3076923076923077
 40
0.3076923076923077
 40
0.3076923076923077
 40
0.3076923076923077
 40
0.3846153846153846
 40
0.3846153846153846
 40
0.3846153846153846
 40
0.3846153846153846
 40
0.4615384615384616
 40
0.4615384615384616
 40
0.4615384615384616
 40
0.4615384615384616
 40
0.5384615384615384
 40
0.5384615384615384
 40
0.5384615384615384
 40
0.5384615384615384
 40
0.6153846153846154
 40
0.6153846153846154
 40
0.6153846153846154
 40
0.6153846153846154
 40
0.6923076923076923
 40
0.6923076923076923
 40
0.6923076923076923
 40
0.6923076923076923
 40
0.7692307692307693
 40
0.7692307692307693
 40
0.7692307692307693
 40
0.7692307692307693
 40
0.8461538461538461
 40
0.8461538461538461
 40
0.8461538461538461
 40
0.8461538461538461
 40
1.0
 40
1.0
 40
1.0
 40
1.0
 10
-59.3173
 20
36.4081
 30
0.0
 10
-59.3173
 20
36.4081
 30
0.0
 10
-59.3353
 20
38.6174
 30
0.0
 10
-59.3353
 20
38.6174
 30
0.0
 10
-59.3353
 20
38.6174
 30
0.0
 10
-61.9215
 20
39.498
 30
0.0
 10
-62.9983
 20
41.1294
 30
0.0
 10
-64.2323
 20
43.163
 30
0.0
 10
-64.2323
 20
43.163
 30
0.0
 10
-65.4663
 20
41.1293
 30
0.0
 10
-66.5431
 20
39.498
 30
0.0
 10
-69.1293
 20
38.6174
 30
0.0
 10
-69.1293
 20
38.6174
 30
0.0
 10
-69.1293
 20
38.6174
 30
0.0
 10
-69.1472
 20
36.4081
 30
0.0
 10
-69.1472
 20
36.4081
 30
0.0
 10
-69.1472
 20
36.4081
 30
0.0
 10
-71.9138
 20
36.3328
 30
0.0
 10
-74.8412
 20
35.7551
 30
0.0
 10
-74.8198
 20
30.8894
 30
0.0
 10
-74.8198
 20
30.8894
 30
0.0
 10
-74.8412
 20
26.0238
 30
0.0
 10
-71.9138
 20
25.446
 30
0.0
 10
-69.1472
 20
25.3707
 30
0.0
 10
-69.1472
 20
25.3707
 30
0.0
 10
-69.1472
 20
25.3707
 30
0.0
 10
-69.1293
 20
23.1614
 30
0.0
 10
-69.1293
 20
23.1614
 30
0.0
 10
-69.1293
 20
23.1614
 30
0.0
 10
-66.5431
 20
22.2808
 30
0.0
 10
-65.4663
 20
20.6494
 30
0.0
 10
-64.2323
 20
18.6158
 30
0.0
 10
-64.2323
 20
18.6158
 30
0.0
 10
-62.9983
 20
20.6495
 30
0.0
 10
-61.9215
 20
22.2808
 30
0.0
 10
-59.3353
 20
23.1614
 30
0.0
 10
-59.3353
 20
23.1614
 30
0.0
 10
-59.3353
 20
23.1614
 30
0.0
 10
-59.3173
 20
25.3707
 30
0.0
 10
-59.3173
 20
25.3707
 30
0.0
 10
-59.3173
 20
25.3707
 30
0.0
 10
-56.5508
 20
25.446
 30
0.0
 10
-53.6233
 20
26.0237
 30
0.0
 10
-53.6448
 20
30.8894
 30
0.0
 10
-53.6448
 20
30.8894
 30
0.0
 10
-53.6233
 20
35.755
 30
0.0
 10
-56.5508
 20
36.3328
 30
0.0
 10
-59.3173
 20
36.4081
 30
0.0
  0
SPLINE
  5
57
330
1F
100
AcDbEntity
  8
layer 1
 62
     7
100
AcDbSpline
210
0.0
220
0.0
230
1.0
 70
    11
 71
     3
 72
    52
 73
    48
 74
     0
 42
0.0000000001
 43
0.0000000001
 12
1.0
 22
0.0
 32
0.0
 13
1.0
 23
0.0
 33
0.0
 40
0.0
 40
0.0
 40
0.0
 40
0.0
 40
0.0769230769230769
 40
0.0769230769230769
 40
0.0769230769230769
 40
0.0769230769230769
 40
0.1538461538461539
 40
0.1538461538461539
 40
0.1538461538461539
 40
0.1538461538461539
 40
0.2307692307692308
 40
0.2307692307692308
 40
0.2307692307692308
 40
0.2307692307692308
 40
0.3076923076923077
 40
0.3076923076923077
 40
0.3076923076923077
 40
0.3076923076923077
 40
0.3846153846153846
 40
0.3846153846153846
 40
0.3846153846153846
 40
0.3846153846153846
 40
0.4615384615384616
 40
0.4615384615384616
 40
0.4615384615384616
 40
0.4615384615384616
 40
0.5384615384615384
 40
0.5384615384615384
 40
0.5384615384615384
 40
0.5384615384615384
 40
0.6153846153846154
 40
0.6153846153846154
 40
0.6153846153846154
 40
0.6153846153846154
 40
0.6923076923076923
 40
0.6923076923076923
 40
0.6923076923076923
 40
0.6923076923076923
 40
0.7692307692307693
 40
0.7692307692307693
 40
0.7692307692307693
 40
0.7692307692307693
 40
0.8461538461538461
 40
0.8461538461538461
 40
0.8461538461538461
 40
0.8461538461538461
 40
1.0
 40
1.0
 40
1.0
 40
1.0
 10
-59.3173
 20
1.1932
 30
0.0
 10
-59.3173
 20
1.1932
 30
0.0
 10
-59.3353
 20
3.4025
 30
0.0
 10
-59.3353
 20
3.4025
 30
0.0
 10
-59.3353
 20
3.4025
 30
0.0
 10
-61.9215
 20
4.283
 30
0.0
 10
-62.9983
 20
5.9145
 30
0.0
 10
-64.2323
 20
7.948
 30
0.0
 10
-64.2323
 20
7.948
 30
0.0
 10
-65.4663
 20
5.9143
 30
0.0
 10
-66.5431
 20
4.283
 30
0.0
 10
-69.1293
 20
3.4025
 30
0.0
 10
-69.1293
 20
3.4025
 30
0.0
 10
-69.1293
 20
3.4025
 30
0.0
 10
-69.1472
 20
1.1932
 30
0.0
 10
-69.1472
 20
1.1932
 30
0.0
 10
-69.1472
 20
1.1932
 30
0.0
 10
-71.9138
 20
1.1179
 30
0.0
 10
-74.8412
 20
0.5401
 30
0.0
 10
-74.8198
 20
-4.3256
 30
0.0
 10
-74.8198
 20
-4.3256
 30
0.0
 10
-74.8412
 20
-9.1912
 30
0.0
 10
-71.9138
 20
-9.769
 30
0.0
 10
-69.1472
 20
-9.8443
 30
0.0
 10
-69.1472
 20
-9.8443
 30
0.0
 10
-69.1472
 20
-9.8443
 30
0.0
 10
-69.1293
 20
-12.0536
 30
0.0
 10
-69.1293
 20
-12.0536
 30
0.0
 10
-69.1293
 20
-12.0536
 30
0.0
 10
-66.5431
 20
-12.9341
 30
0.0
 10
-65.4663
 20
-14.5656
 30
0.0
 10
-64.2323
 20
-16.5991
 30
0.0
 10
-64.2323
 20
-16.5991
 30
0.0
 10
-62.9983
 20
-14.5655
 30
0.0
 10
-61.9215
 20
-12.9341
 30
0.0
 10
-59.3353
 20
-12.0536
 30
0.0
 10
-59.3353
 20
-12.0536
 30
0.0
 10
-59.3353
 20
-12.0536
 30
0.0
 10
-59.3173
 20
-9.8443
 30
0.0
 10
-59.3173
 20
-9.8443
 30
0.0
 10
-59.3173
 20
-9.8443
 30
0.0
 10
-56.5508
 20
-9.769
 30
0.0
 10
-53.6233
 20
-9.1913
 30
0.0
 10
-53.6448
 20
-4.3256
 30
0.0
 10
-53.6448
 20
-4.3256
 30
0.0
 10
-53.6233
 20
0.54
 30
0.0
 10
-56.5508
 20
1.1179
 30
0.0
 10
-59.3173
 20
1.1932
 30
0.0
  0
SPLINE
  5
58
330
1F
100
AcDbEntity
  8
layer 1
 62
     7
100
AcDbSpline
210
0.0
220
0.0
230
1.0
 70
    11
 71
     3
 72
    52
 73
    48
 74
     0
 42
0.0000000001
 43
0.0000000001
 12
1.0
 22
0.0
 32
0.0
 13
1.0
 23
0.0
 33
0.0
 40
0.0
 40
0.0
 40
0.0
 40
0.0
 40
0.0769230769230769
 40
0.0769230769230769
 40
0.0769230769230769
 40
0.0769230769230769
 40
0.1538461538461539
 40
0.1538461538461539
 40
0.1538461538461539
 40
0.1538461538461539
 40
0.2307692307692308
 40
0.2307692307692308
 40
0.2307692307692308
 40
0.2307692307692308
 40
0.3076923076923077
 40
0.3076923076923077
 40
0.3076923076923077
 40
0.3076923076923077
 40
0.3846153846153846
 40
0.3846153846153846
 40
0.3846153846153846
 40
0.3846153846153846
 40
0.4615384615384616
 40
0.4615384615384616
 40
0.4615384615384616
 40
0.4615384615384616
 40
0.5384615384615384
 40
0.5384615384615384
 40
0.5384615384615384
 40
0.5384615384615384
 40
0.6153846153846154
 40
0.6153846153846154
 40
0.6153846153846154
 40
0.6153846153846154
 40
0.6923076923076923
 40
0.6923076923076923
 40
0.6923076923076923
 40
0.6923076923076923
 40
0.7692307692307693
 40
0.7692307692307693
 40
0.7692307692307693
 40
0.7692307692307693
 40
0.8461538461538461
 40
0.8461538461538461
 40
0.8461538461538461
 40
0.8461538461538461
 40
1.0
 40
1.0
 40
1.0
 40
1.0
 10
-59.3173
 20
-34.0218
 30
0.0
 10
-59.3173
 20
-34.0218
 30
0.0
 10
-59.3353
 20
-31.8125
 30
0.0
 10
-59.3353
 20
-31.8125
 30
0.0
 10
-59.3353
 20
-31.8125
 30
0.0
 10
-61.9215
 20
-30.932
 30
0.0
 10
-62.9983
 20
-29.3005
 30
0.0
 10
-64.2323
 20
-27.267
 30
0.0
 10
-64.2323
 20
-27.267
 30
0.0
 10
-65.4663
 20
-29.3006
 30
0.0
 10
-66.5431
 20
-30.932
 30
0.0
 10
-69.1293
 20
-31.8125
 30
0.0
 10
-69.1293
 20
-31.8125
 30
0.0
 10
-69.1293
 20
-31.8125
 30
0.0
 10
-69.1472
 20
-34.0218
 30
0.0
 10
-69.1472
 20
-34.0218
 30
0.0
 10
-69.1472
 20
-34.0218
 30
0.0
 10
-71.9138
 20
-34.0971
 30
0.0
 10
-74.8412
 20
-34.6748
 30
0.0
 10
-74.8198
 20
-39.5405
 30
0.0
 10
-74.8198
 20
-39.5405
 30
0.0
 10
-74.8412
 20
-44.4061
 30
0.0
 10
-71.9138
 20
-44.984
 30
0.0
 10
-69.1472
 20
-45.0593
 30
0.0
 10
-69.1472
 20
-45.0593
 30
0.0
 10
-69.1472
 20
-45.0593
 30
0.0
 10
-69.1293
 20
-47.2686
 30
0.0
 10
-69.1293
 20
-47.2686
 30
0.0
 10
-69.1293
 20
-47.2686
 30
0.0
 10
-66.5431
 20
-48.1491
 30
0.0
 10
-65.4663
 20
-49.7806
 30
0.0
 10
-64.2323
 20
-51.8141
 30
0.0
 10
-64.2323
 20
-51.8141
 30
0.0
 10
-62.9983
 20
-49.7804
 30
0.0
 10
-61.9215
 20
-48.1491
 30
0.0
 10
-59.3353
 20
-47.2686
 30
0.0
 10
-59.3353
 20
-47.2686
 30
0.0
 10
-59.3353
 20
-47.2686
 30
0.0
 10
-59.3173
 20
-45.0593
 30
0.0
 10
-59.3173
 20
-45.0593
 30
0.0
 10
-59.3173
 20
-45.0593
 30
0.0
 10
-56.5508
 20
-44.984
 30
0.0
 10
-53.6233
 20
-44.4063
 30
0.0
 10
-53.6448
 20
-39.5405
 30
0.0
 10
-53.6448
 20
-39.5405
 30
0.0
 10
-53.6233
 20
-34.6749
 30
0.0
 10
-56.5508
 20
-34.0971
 30
0.0
 10
-59.3173
 20
-34.0218
 30
0.0
  0
SPLINE
  5
59
330
1F
100
AcDbEntity
  8
layer 1
 62
     7
100
AcDbSpline
210
0.0
220
0.0
230
1.0
 70
    11
 71
     3
 72
    52
 73
    48
 74
     0
 42
0.0000000001
 43
0.0000000001
 12
1.0
 22
0.0
 32
0.0
 13
1.0
 23
0.0
 33
0.0
 40
0.0
 40
0.0
 40
0.0
 40
0.0
 40
0.0769230769230769
 40
0.0769230769230769
 40
0.0769230769230769
 40
0.0769230769230769
 40
0.1538461538461539
 40
0.1538461538461539
 40
0.1538461538461539
 40
0.1538461538461539
 40
0.2307692307692308
 40
0.2307692307692308
 40
0.2307692307692308
 40
0.2307692307692308
 40
0.3076923076923077
 40
0.3076923076923077
 40
0.3076923076923077
 40
0.3076923076923077
 40
0.3846153846153846
 40
0.3846153846153846
 40
0.3846153846153846
 40
0.3846153846153846
 40
0.4615384615384616
 40
0.4615384615384616
 40
0.4615384615384616
 40
0.4615384615384616
 40
0.5384615384615384
 40
0.5384615384615384
 40
0.5384615384615384
 40
0.5384615384615384
 40
0.6153846153846154
 40
0.6153846153846154
 40
0.6153846153846154
 40
0.6153846153846154
 40
0.6923076923076923
 40
0.6923076923076923
 40
0.6923076923076923
 40
0.6923076923076923
 40
0.7692307692307693
 40
0.7692307692307693
 40
0.7692307692307693
 40
0.7692307692307693
 40
0.8461538461538461
 40
0.8461538461538461
 40
0.8461538461538461
 40
0.8461538461538461
 40
1.0
 40
1.0
 40
1.0
 40
1.0
 10
-59.3173
 20
-67.3165
 30
0.0
 10
-59.3173
 20
-67.3165
 30
0.0
 10
-59.3353
 20
-65.1072
 30
0.0
 10
-59.3353
 20
-65.1072
 30
0.0
 10
-59.3353
 20
-65.1072
 30
0.0
 10
-61.9215
 20
-64.2266
 30
0.0
 10
-62.9983
 20
-62.5952
 30
0.0
 10
-64.2323
 20
-60.5616
 30
0.0
 10
-64.2323
 20
-60.5616
 30
0.0
 10
-65.4663
 20
-62.5953
 30
0.0
 10
-66.5431
 20
-64.2266
 30
0.0
 10
-69.1293
 20
-65.1072
 30
0.0
 10
-69.1293
 20
-65.1072
 30
0.0
 10
-69.1293
 20
-65.1072
 30
0.0
 10
-69.1472
 20
-67.3165
 30
0.0
 10
-69.1472
 20
-67.3165
 30
0.0
 10
-69.1472
 20
-67.3165
 30
0.0
 10
-71.9138
 20
-67.3918
 30
0.0
 10
-74.8412
 20
-67.9695
 30
0.0
 10
-74.8198
 20
-72.8352
 30
0.0
 10
-74.8198
 20
-72.8352
 30
0.0
 10
-74.8412
 20
-77.7008
 30
0.0
 10
-71.9138
 20
-78.2787
 30
0.0
 10
-69.1472
 20
-78.354
 30
0.0
 10
-69.1472
 20
-78.354
 30
0.0
 10
-69.1472
 20
-78.354
 30
0.0
 10
-69.1293
 20
-80.5632
 30
0.0
 10
-69.1293
 20
-80.5632
 30
0.0
 10
-69.1293
 20
-80.5632
 30
0.0
 10
-66.5431
 20
-81.4438
 30
0.0
 10
-65.4663
 20
-83.0752
 30
0.0
 10
-64.2323
 20
-85.1088
 30
0.0
 10
-64.2323
 20
-85.1088
 30
0.0
 10
-62.9983
 20
-83.0751
 30
0.0
 10
-61.9215
 20
-81.4438
 30
0.0
 10
-59.3353
 20
-80.5632
 30
0.0
 10
-59.3353
 20
-80.5632
 30
0.0
 10
-59.3353
 20
-80.5632
 30
0.0
 10
-59.3173
 20
-78.354
 30
0.0
 10
-59.3173
 20
-78.354
 30
0.0
 10
-59.3173
 20
-78.354
 30
0.0
 10
-56.5508
 20
-78.2787
 30
0.0
 10
-53.6233
 20
-77.7009
 30
0.0
 10
-53.6448
 20
-72.8352
 30
0.0
 10
-53.6448
 20
-72.8352
 30
0.0
 10
-53.6233
 20
-67.9696
 30
0.0
 10
-56.5508
 20
-67.3918
 30
0.0
 10
-59.3173
 20
-67.3165
 30
0.0
  0
SPLINE
  5
5A
330
1F
100
AcDbEntity
  8
layer 1
 62
     7
100
AcDbSpline
210
0.0
220
0.0
230
1.0
 70
    11
 71
     3
 72
    52
 73
    48
 74
     0
 42
0.0000000001
 43
0.0000000001
 12
1.0
 22
0.0
 32
0.0
 13
1.0
 23
0.0
 33
0.0
 40
0.0
 40
0.0
 40
0.0
 40
0.0
 40
0.0769230769230769
 40
0.0769230769230769
 40
0.0769230769230769
 40
0.0769230769230769
 40
0.1538461538461539
 40
0.1538461538461539
 40
0.1538461538461539
 40
0.1538461538461539
 40
0.2307692307692308
 40
0.2307692307692308
 40
0.2307692307692308
 40
0.2307692307692308
 40
0.3076923076923077
 40
0.3076923076923077
 40
0.3076923076923077
 40
0.3076923076923077
 40
0.3846153846153846
 40
0.3846153846153846
 40
0.3846153846153846
 40
0.3846153846153846
 40
0.4615384615384616
 40
0.4615384615384616
 40
0.4615384615384616
 40
0.4615384615384616
 40
0.5384615384615384
 40
0.5384615384615384
 40
0.5384615384615384
 40
0.5384615384615384
 40
0.6153846153846154
 40
0.6153846153846154
 40
0.6153846153846154
 40
0.6153846153846154
 40
0.6923076923076923
 40
0.6923076923076923
 40
0.6923076923076923
 40
0.6923076923076923
 40
0.7692307692307693
 40
0.7692307692307693
 40
0.7692307692307693
 40
0.7692307692307693
 40
0.8461538461538461
 40
0.8461538461538461
 40
0.8461538461538461
 40
0.8461538461538461
 40
1.0
 40
1.0
 40
1.0
 40
1.0
 10
-32.128
 20
36.4081
 30
0.0
 10
-32.128
 20
36.4081
 30
0.0
 10
-32.1459
 20
38.6174
 30
0.0
 10
-32.1459
 20
38.6174
 30
0.0
 10
-32.1459
 20
38.6174
 30
0.0
 10
-34.7322
 20
39.498
 30
0.0
 10
-35.8089
 20
41.1294
 30
0.0
 10
-37.0429
 20
43.163
 30
0.0
 10
-37.0429
 20
43.163
 30
0.0
 10
-38.2769
 20
41.1293
 30
0.0
 10
-39.3537
 20
39.498
 30
0.0
 10
-41.9399
 20
38.6174
 30
0.0
 10
-41.9399
 20
38.6174
 30
0.0
 10
-41.9399
 20
38.6174
 30
0.0
 10
-41.9579
 20
36.4081
 30
0.0
 10
-41.9579
 20
36.4081
 30
0.0
 10
-41.9579
 20
36.4081
 30
0.0
 10
-44.7244
 20
36.3328
 30
0.0
 10
-47.6519
 20
35.7551
 30
0.0
 10
-47.6305
 20
30.8894
 30
0.0
 10
-47.6305
 20
30.8894
 30
0.0
 10
-47.6519
 20
26.0238
 30
0.0
 10
-44.7244
 20
25.446
 30
0.0
 10
-41.9579
 20
25.3707
 30
0.0
 10
-41.9579
 20
25.3707
 30
0.0
 10
-41.9579
 20
25.3707
 30
0.0
 10
-41.9399
 20
23.1614
 30
0.0
 10
-41.9399
 20
23.1614
 30
0.0
 10
-41.9399
 20
23.1614
 30
0.0
 10
-39.3537
 20
22.2808
 30
0.0
 10
-38.2769
 20
20.6494
 30
0.0
 10
-37.0429
 20
18.6158
 30
0.0
 10
-37.0429
 20
18.6158
 30
0.0
 10
-35.8089
 20
20.6495
 30
0.0
 10
-34.7322
 20
22.2808
 30
0.0
 10
-32.1459
 20
23.1614
 30
0.0
 10
-32.1459
 20
23.1614
 30
0.0
 10
-32.1459
 20
23.1614
 30
0.0
 10
-32.128
 20
25.3707
 30
0.0
 10
-32.128
 20
25.3707
 30
0.0
 10
-32.128
 20
25.3707
 30
0.0
 10
-29.3615
 20
25.446
 30
0.0
 10
-26.434
 20
26.0237
 30
0.0
 10
-26.4554
 20
30.8894
 30
0.0
 10
-26.4554
 20
30.8894
 30
0.0
 10
-26.434
 20
35.755
 30
0.0
 10
-29.3615
 20
36.3328
 30
0.0
 10
-32.128
 20
36.4081
 30
0.0
  0
SPLINE
  5
5B
330
1F
100
AcDbEntity
  8
layer 1
 62
     7
100
AcDbSpline
210
0.0
220
0.0
230
1.0
 70
    11
 71
     3
 72
    52
 73
    48
 74
     0
 42
0.0000000001
 43
0.0000000001
 12
1.0
 22
0.0
 32
0.0
 13
1.0
 23
0.0
 33
0.0
 40
0.0
 40
0.0
 40
0.0
 40
0.0
 40
0.0769230769230769
 40
0.0769230769230769
 40
0.0769230769230769
 40
0.0769230769230769
 40
0.1538461538461539
 40
0.1538461538461539
 40
0.1538461538461539
 40
0.1538461538461539
 40
0.2307692307692308
 40
0.2307692307692308
 40
0.2307692307692308
 40
0.2307692307692308
 40
0.3076923076923077
 40
0.3076923076923077
 40
0.3076923076923077
 40
0.3076923076923077
 40
0.3846153846153846
 40
0.3846153846153846
 40
0.3846153846153846
 40
0.3846153846153846
 40
0.4615384615384616
 40
0.4615384615384616
 40
0.4615384615384616
 40
0.4615384615384616
 40
0.5384615384615384
 40
0.5384615384615384
 40
0.5384615384615384
 40
0.5384615384615384
 40
0.6153846153846154
 40
0.6153846153846154
 40
0.6153846153846154
 40
0.6153846153846154
 40
0.6923076923076923
 40
0.6923076923076923
 40
0.6923076923076923
 40
0.6923076923076923
 40
0.7692307692307693
 40
0.7692307692307693
 40
0.7692307692307693
 40
0.7692307692307693
 40
0.8461538461538461
 40
0.8461538461538461
 40
0.8461538461538461
 40
0.8461538461538461
 40
1.0
 40
1.0
 40
1.0
 40
1.0
 10
-32.128
 20
1.1932
 30
0.0
 10
-32.128
 20
1.1932
 30
0.0
 10
-32.1459
 20
3.4025
 30
0.0
 10
-32.1459
 20
3.4025
 30
0.0
 10
-32.1459
 20
3.4025
 30
0.0
 10
-34.7322
 20
4.283
 30
0.0
 10
-35.8089
 20
5.9145
 30
0.0
 10
-37.0429
 20
7.948
 30
0.0
 10
-37.0429
 20
7.948
 30
0.0
 10
-38.2769
 20
5.9143
 30
0.0
 10
-39.3537
 20
4.283
 30
0.0
 10
-41.9399
 20
3.4025
 30
0.0
 10
-41.9399
 20
3.4025
 30
0.0
 10
-41.9399
 20
3.4025
 30
0.0
 10
-41.9579
 20
1.1932
 30
0.0
 10
-41.9579
 20
1.1932
 30
0.0
 10
-41.9579
 20
1.1932
 30
0.0
 10
-44.7244
 20
1.1179
 30
0.0
 10
-47.6519
 20
0.5401
 30
0.0
 10
-47.6305
 20
-4.3256
 30
0.0
 10
-47.6305
 20
-4.3256
 30
0.0
 10
-47.6519
 20
-9.1912
 30
0.0
 10
-44.7244
 20
-9.769
 30
0.0
 10
-41.9579
 20
-9.8443
 30
0.0
 10
-41.9579
 20
-9.8443
 30
0.0
 10
-41.9579
 20
-9.8443
 30
0.0
 10
-41.9399
 20
-12.0536
 30
0.0
 10
-41.9399
 20
-12.0536
 30
0.0
 10
-41.9399
 20
-12.0536
 30
0.0
 10
-39.3537
 20
-12.9341
 30
0.0
 10
-38.2769
 20
-14.5656
 30
0.0
 10
-37.0429
 20
-16.5991
 30
0.0
 10
-37.0429
 20
-16.5991
 30
0.0
 10
-35.8089
 20
-14.5655
 30
0.0
 10
-34.7322
 20
-12.9341
 30
0.0
 10
-32.1459
 20
-12.0536
 30
0.0
 10
-32.1459
 20
-12.0536
 30
0.0
 10
-32.1459
 20
-12.0536
 30
0.0
 10
-32.128
 20
-9.8443
 30
0.0
 10
-32.128
 20
-9.8443
 30
0.0
 10
-32.128
 20
-9.8443
 30
0.0
 10
-29.3615
 20
-9.769
 30
0.0
 10
-26.434
 20
-9.1913
 30
0.0
 10
-26.4554
 20
-4.3256
 30
0.0
 10
-26.4554
 20
-4.3256
 30
0.0
 10
-26.434
 20
0.54
 30
0.0
 10
-29.3615
 20
1.1179
 30
0.0
 10
-32.128
 20
1.1932
 30
0.0
  0
SPLINE
  5
5C
330
1F
100
AcDbEntity
  8
layer 1
 62
     7
100
AcDbSpline
210
0.0
220
0.0
230
1.0
 70
    11
 71
     3
 72
    52
 73
    48
 74
     0
 42
0.0000000001
 43
0.0000000001
 12
1.0
 22
0.0
 32
0.0
 13
1.0
 23
0.0
 33
0.0
 40
0.0
 40
0.0
 40
0.0
 40
0.0
 40
0.0769230769230769
 40
0.0769230769230769
 40
0.0769230769230769
 40
0.0769230769230769
 40
0.1538461538461539
 40
0.1538461538461539
 40
0.1538461538461539
 40
0.1538461538461539
 40
0.2307692307692308
 40
0.2307692307692308
 40
0.2307692307692308
 40
0.2307692307692308
 40
0.3076923076923077
 40
0.3076923076923077
 40
0.3076923076923077
 40
0.3076923076923077
 40
0.3846153846153846
 40
0.3846153846153846
 40
0.3846153846153846
 40
0.3846153846153846
 40
0.4615384615384616
 40
0.4615384615384616
 40
0.4615384615384616
 40
0.4615384615384616
 40
0.5384615384615384
 40
0.5384615384615384
 40
0.5384615384615384
 40
0.5384615384615384
 40
0.6153846153846154
 40
0.6153846153846154
 40
0.6153846153846154
 40
0.6153846153846154
 40
0.6923076923076923
 40
0.6923076923076923
 40
0.6923076923076923
 40
0.6923076923076923
 40
0.7692307692307693
 40
0.7692307692307693
 40
0.7692307692307693
 40
0.7692307692307693
 40
0.8461538461538461
 40
0.8461538461538461
 40
0.8461538461538461
 40
0.8461538461538461
 40
1.0
 40
1.0
 40
1.0
 40
1.0
 10
-32.128
 20
-34.0218
 30
0.0
 10
-32.128
 20
-34.0218
 30
0.0
 10
-32.1459
 20
-31.8125
 30
0.0
 10
-32.1459
 20
-31.8125
 30
0.0
 10
-32.1459
 20
-31.8125
 30
0.0
 10
-34.7322
 20
-30.932
 30
0.0
 10
-35.8089
 20
-29.3005
 30
0.0
 10
-37.0429
 20
-27.267
 30
0.0
 10
-37.0429
 20
-27.267
 30
0.0
 10
-38.2769
 20
-29.3006
 30
0.0
 10
-39.3537
 20
-30.932
 30
0.0
 10
-41.9399
 20
-31.8125
 30
0.0
 10
-41.9399
 20
-31.8125
 30
0.0
 10
-41.9399
 20
-31.8125
 30
0.0
 10
-41.9579
 20
-34.0218
 30
0.0
 10
-41.9579
 20
-34.0218
 30
0.0
 10
-41.9579
 20
-34.0218
 30
0.0
 10
-44.7244
 20
-34.0971
 30
0.0
 10
-47.6519
 20
-34.6748
 30
0.0
 10
-47.6305
 20
-39.5405
 30
0.0
 10
-47.6305
 20
-39.5405
 30
0.0
 10
-47.6519
 20
-44.4061
 30
0.0
 10
-44.7244
 20
-44.984
 30
0.0
 10
-41.9579
 20
-45.0593
 30
0.0
 10
-41.9579
 20
-45.0593
 30
0.0
 10
-41.9579
 20
-45.0593
 30
0.0
 10
-41.9399
 20
-47.2686
 30
0.0
 10
-41.9399
 20
-47.2686
 30
0.0
 10
-41.9399
 20
-47.2686
 30
0.0
 10
-39.3537
 20
-48.1491
 30
0.0
 10
-38.2769
 20
-49.7806
 30
0.0
 10
-37.0429
 20
-51.8141
 30
0.0
 10
-37.0429
 20
-51.8141
 30
0.0
 10
-35.8089
 20
-49.7804
 30
0.0
 10
-34.7322
 20
-48.1491
 30
0.0
 10
-32.1459
 20
-47.2686
 30
0.0
 10
-32.1459
 20
-47.2686
 30
0.0
 10
-32.1459
 20
-47.2686
 30
0.0
 10
-32.128
 20
-45.0593
 30
0.0
 10
-32.128
 20
-45.0593
 30
0.0
 10
-32.128
 20
-45.0593
 30
0.0
 10
-29.3615
 20
-44.984
 30
0.0
 10
-26.434
 20
-44.4063
 30
0.0
 10
-26.4554
 20
-39.5405
 30
0.0
 10
-26.4554
 20
-39.5405
 30
0.0
 10
-26.434
 20
-34.6749
 30
0.0
 10
-29.3615
 20
-34.0971
 30
0.0
 10
-32.128
 20
-34.0218
 30
0.0
  0
SPLINE
  5
5D
330
1F
100
AcDbEntity
  8
layer 1
 62
     7
100
AcDbSpline
210
0.0
220
0.0
230
1.0
 70
    11
 71
     3
 72
    52
 73
    48
 74
     0
 42
0.0000000001
 43
0.0000000001
 12
1.0
 22
0.0
 32
0.0
 13
1.0
 23
0.0
 33
0.0
 40
0.0
 40
0.0
 40
0.0
 40
0.0
 40
0.0769230769230769
 40
0.0769230769230769
 40
0.0769230769230769
 40
0.0769230769230769
 40
0.1538461538461539
 40
0.1538461538461539
 40
0.1538461538461539
 40
0.1538461538461539
 40
0.2307692307692308
 40
0.2307692307692308
 40
0.2307692307692308
 40
0.2307692307692308
 40
0.3076923076923077
 40
0.3076923076923077
 40
0.3076923076923077
 40
0.3076923076923077
 40
0.3846153846153846
 40
0.3846153846153846
 40
0.3846153846153846
 40
0.3846153846153846
 40
0.4615384615384616
 40
0.4615384615384616
 40
0.4615384615384616
 40
0.4615384615384616
 40
0.5384615384615384
 40
0.5384615384615384
 40
0.5384615384615384
 40
0.5384615384615384
 40
0.6153846153846154
 40
0.6153846153846154
 40
0.6153846153846154
 40
0.6153846153846154
 40
0.6923076923076923
 40
0.6923076923076923
 40
0.6923076923076923
 40
0.6923076923076923
 40
0.7692307692307693
 40
0.7692307692307693
 40
0.7692307692307693
 40
0.7692307692307693
 40
0.8461538461538461
 40
0.8461538461538461
 40
0.8461538461538461
 40
0.8461538461538461
 40
1.0
 40
1.0
 40
1.0
 40
1.0
 10
-32.128
 20
-67.3165
 30
0.0
 10
-32.128
 20
-67.3165
 30
0.0
 10
-32.1459
 20
-65.1072
 30
0.0
 10
-32.1459
 20
-65.1072
 30
0.0
 10
-32.1459
 20
-65.1072
 30
0.0
 10
-34.7322
 20
-64.2266
 30
0.0
 10
-35.8089
 20
-62.5952
 30
0.0
 10
-37.0429
 20
-60.5616
 30
0.0
 10
-37.0429
 20
-60.5616
 30
0.0
 10
-38.2769
 20
-62.5953
 30
0.0
 10
-39.3537
 20
-64.2266
 30
0.0
 10
-41.9399
 20
-65.1072
 30
0.0
 10
-41.9399
 20
-65.1072
 30
0.0
 10
-41.9399
 20
-65.1072
 30
0.0
 10
-41.9579
 20
-67.3165
 30
0.0
 10
-41.9579
 20
-67.3165
 30
0.0
 10
-41.9579
 20
-67.3165
 30
0.0
 10
-44.7244
 20
-67.3918
 30
0.0
 10
-47.6519
 20
-67.9695
 30
0.0
 10
-47.6305
 20
-72.8352
 30
0.0
 10
-47.6305
 20
-72.8352
 30
0.0
 10
-47.6519
 20
-77.7008
 30
0.0
 10
-44.7244
 20
-78.2787
 30
0.0
 10
-41.9579
 20
-78.354
 30
0.0
 10
-41.9579
 20
-78.354
 30
0.0
 10
-41.9579
 20
-78.354
 30
0.0
 10
-41.9399
 20
-80.5632
 30
0.0
 10
-41.9399
 20
-80.5632
 30
0.0
 10
-41.9399
 20
-80.5632
 30
0.0
 10
-39.3537
 20
-81.4438
 30
0.0
 10
-38.2769
 20
-83.0752
 30
0.0
 10
-37.0429
 20
-85.1088
 30
0.0
 10
-37.0429
 20
-85.1088
 30
0.0
 10
-35.8089
 20
-83.0751
 30
0.0
 10
-34.7322
 20
-81.4438
 30
0.0
 10
-32.1459
 20
-80.5632
 30
0.0
 10
-32.1459
 20
-80.5632
 30
0.0
 10
-32.1459
 20
-80.5632
 30
0.0
 10
-32.128
 20
-78.354
 30
0.0
 10
-32.128
 20
-78.354
 30
0.0
 10
-32.128
 20
-78.354
 30
0.0
 10
-29.3615
 20
-78.2787
 30
0.0
 10
-26.434
 20
-77.7009
 30
0.0
 10
-26.4554
 20
-72.8352
 30
0.0
 10
-26.4554
 20
-72.8352
 30
0.0
 10
-26.434
 20
-67.9696
 30
0.0
 10
-29.3615
 20
-67.3918
 30
0.0
 10
-32.128
 20
-67.3165
 30
0.0
  0
SPLINE
  5
5E
330
1F
100
AcDbEntity
  8
layer 1
 62
     7
100
AcDbSpline
210
0.0
220
0.0
230
1.0
 70
    11
 71
     3
 72
    52
 73
    48
 74
     0
 42
0.0000000001
 43
0.0000000001
 12
1.0
 22
0.0
 32
0.0
 13
1.0
 23
0.0
 33
0.0
 40
0.0
 40
0.0
 40
0.0
 40
0.0
 40
0.0769230769230769
 40
0.0769230769230769
 40
0.0769230769230769
 40
0.0769230769230769
 40
0.1538461538461539
 40
0.1538461538461539
 40
0.1538461538461539
 40
0.1538461538461539
 40
0.2307692307692308
 40
0.2307692307692308
 40
0.2307692307692308
 40
0.2307692307692308
 40
0.3076923076923077
 40
0.3076923076923077
 40
0.3076923076923077
 40
0.3076923076923077
 40
0.3846153846153846
 40
0.3846153846153846
 40
0.3846153846153846
 40
0.3846153846153846
 40
0.4615384615384616
 40
0.4615384615384616
 40
0.4615384615384616
 40
0.4615384615384616
 40
0.5384615384615384
 40
0.5384615384615384
 40
0.5384615384615384
 40
0.5384615384615384
 40
0.6153846153846154
 40
0.6153846153846154
 40
0.6153846153846154
 40
0.6153846153846154
 40
0.6923076923076923
 40
0.6923076923076923
 40
0.6923076923076923
 40
0.6923076923076923
 40
0.7692307692307693
 40
0.7692307692307693
 40
0.7692307692307693
 40
0.7692307692307693
 40
0.8461538461538461
 40
0.8461538461538461
 40
0.8461538461538461
 40
0.8461538461538461
 40
1.0
 40
1.0
 40
1.0
 40
1.0
 10
-4.9386
 20
36.4081
 30
0.0
 10
-4.9386
 20
36.4081
 30
0.0
 10
-4.9565
 20
38.6174
 30
0.0
 10
-4.9565
 20
38.6174
 30
0.0
 10
-4.9565
 20
38.6174
 30
0.0
 10
-7.5428
 20
39.498
 30
0.0
 10
-8.6196
 20
41.1294
 30
0.0
 10
-9.8536
 20
43.163
 30
0.0
 10
-9.8536
 20
43.163
 30
0.0
 10
-11.0876
 20
41.1293
 30
0.0
 10
-12.1643
 20
39.498
 30
0.0
 10
-14.7506
 20
38.6174
 30
0.0
 10
-14.7506
 20
38.6174
 30
0.0
 10
-14.7506
 20
38.6174
 30
0.0
 10
-14.7685
 20
36.4081
 30
0.0
 10
-14.7685
 20
36.4081
 30
0.0
 10
-14.7685
 20
36.4081
 30
0.0
 10
-17.535
 20
36.3328
 30
0.0
 10
-20.4625
 20
35.7551
 30
0.0
 10
-20.4411
 20
30.8894
 30
0.0
 10
-20.4411
 20
30.8894
 30
0.0
 10
-20.4625
 20
26.0238
 30
0.0
 10
-17.535
 20
25.446
 30
0.0
 10
-14.7685
 20
25.3707
 30
0.0
 10
-14.7685
 20
25.3707
 30
0.0
 10
-14.7685
 20
25.3707
 30
0.0
 10
-14.7506
 20
23.1614
 30
0.0
 10
-14.7506
 20
23.1614
 30
0.0
 10
-14.7506
 20
23.1614
 30
0.0
 10
-12.1643
 20
22.2808
 30
0.0
 10
-11.0876
 20
20.6494
 30
0.0
 10
-9.8536
 20
18.6158
 30
0.0
 10
-9.8536
 20
18.6158
 30
0.0
 10
-8.6196
 20
20.6495
 30
0.0
 10
-7.5428
 20
22.2808
 30
0.0
 10
-4.9565
 20
23.1614
 30
0.0
 10
-4.9565
 20
23.1614
 30
0.0
 10
-4.9565
 20
23.1614
 30
0.0
 10
-4.9386
 20
25.3707
 30
0.0
 10
-4.9386
 20
25.3707
 30
0.0
 10
-4.9386
 20
25.3707
 30
0.0
 10
-2.1721
 20
25.446
 30
0.0
 10
0.7554
 20
26.0237
 30
0.0
 10
0.734
 20
30.8894
 30
0.0
 10
0.734
 20
30.8894
 30
0.0
 10
0.7554
 20
35.755
 30
0.0
 10
-2.1721
 20
36.3328
 30
0.0
 10
-4.9386
 20
36.4081
 30
0.0
  0
SPLINE
  5
5F
330
1F
100
AcDbEntity
  8
layer 1
 62
     7
100
AcDbSpline
210
0.0
220
0.0
230
1.0
 70
    11
 71
     3
 72
    52
 73
    48
 74
     0
 42
0.0000000001
 43
0.0000000001
 12
1.0
 22
0.0
 32
0.0
 13
1.0
 23
0.0
 33
0.0
 40
0.0
 40
0.0
 40
0.0
 40
0.0
 40
0.0769230769230769
 40
0.0769230769230769
 40
0.0769230769230769
 40
0.0769230769230769
 40
0.1538461538461539
 40
0.1538461538461539
 40
0.1538461538461539
 40
0.1538461538461539
 40
0.2307692307692308
 40
0.2307692307692308
 40
0.2307692307692308
 40
0.2307692307692308
 40
0.3076923076923077
 40
0.3076923076923077
 40
0.3076923076923077
 40
0.3076923076923077
 40
0.3846153846153846
 40
0.3846153846153846
 40
0.3846153846153846
 40
0.3846153846153846
 40
0.4615384615384616
 40
0.4615384615384616
 40
0.4615384615384616
 40
0.4615384615384616
 40
0.5384615384615384
 40
0.5384615384615384
 40
0.5384615384615384
 40
0.5384615384615384
 40
0.6153846153846154
 40
0.6153846153846154
 40
0.6153846153846154
 40
0.6153846153846154
 40
0.6923076923076923
 40
0.6923076923076923
 40
0.6923076923076923
 40
0.6923076923076923
 40
0.7692307692307693
 40
0.7692307692307693
 40
0.7692307692307693
 40
0.7692307692307693
 40
0.8461538461538461
 40
0.8461538461538461
 40
0.8461538461538461
 40
0.8461538461538461
 40
1.0
 40
1.0
 40
1.0
 40
1.0
 10
-4.9386
 20
1.1932
 30
0.0
 10
-4.9386
 20
1.1932
 30
0.0
 10
-4.9565
 20
3.4025
 30
0.0
 10
-4.9565
 20
3.4025
 30
0.0
 10
-4.9565
 20
3.4025
 30
0.0
 10
-7.5428
 20
4.283
 30
0.0
 10
-8.6196
 20
5.9145
 30
0.0
 10
-9.8536
 20
7.948
 30
0.0
 10
-9.8536
 20
7.948
 30
0.0
 10
-11.0876
 20
5.9143
 30
0.0
 10
-12.1643
 20
4.283
 30
0.0
 10
-14.7506
 20
3.4025
 30
0.0
 10
-14.7506
 20
3.4025
 30
0.0
 10
-14.7506
 20
3.4025
 30
0.0
 10
-14.7685
 20
1.1932
 30
0.0
 10
-14.7685
 20
1.1932
 30
0.0
 10
-14.7685
 20
1.1932
 30
0.0
 10
-17.535
 20
1.1179
 30
0.0
 10
-20.4625
 20
0.5401
 30
0.0
 10
-20.4411
 20
-4.3256
 30
0.0
 10
-20.4411
 20
-4.3256
 30
0.0
 10
-20.4625
 20
-9.1912
 30
0.0
 10
-17.535
 20
-9.769
 30
0.0
 10
-14.7685
 20
-9.8443
 30
0.0
 10
-14.7685
 20
-9.8443
 30
0.0
 10
-14.7685
 20
-9.8443
 30
0.0
 10
-14.7506
 20
-12.0536
 30
0.0
 10
-14.7506
 20
-12.0536
 30
0.0
 10
-14.7506
 20
-12.0536
 30
0.0
 10
-12.1643
 20
-12.9341
 30
0.0
 10
-11.0876
 20
-14.5656
 30
0.0
 10
-9.8536
 20
-16.5991
 30
0.0
 10
-9.8536
 20
-16.5991
 30
0.0
 10
-8.6196
 20
-14.5655
 30
0.0
 10
-7.5428
 20
-12.9341
 30
0.0
 10
-4.9565
 20
-12.0536
 30
0.0
 10
-4.9565
 20
-12.0536
 30
0.0
 10
-4.9565
 20
-12.0536
 30
0.0
 10
-4.9386
 20
-9.8443
 30
0.0
 10
-4.9386
 20
-9.8443
 30
0.0
 10
-4.9386
 20
-9.8443
 30
0.0
 10
-2.1721
 20
-9.769
 30
0.0
 10
0.7554
 20
-9.1913
 30
0.0
 10
0.734
 20
-4.3256
 30
0.0
 10
0.734
 20
-4.3256
 30
0.0
 10
0.7554
 20
0.54
 30
0.0
 10
-2.1721
 20
1.1179
 30
0.0
 10
-4.9386
 20
1.1932
 30
0.0
  0
SPLINE
  5
60
330
1F
100
AcDbEntity
  8
layer 1
 62
     7
100
AcDbSpline
210
0.0
220
0.0
230
1.0
 70
    11
 71
     3
 72
    52
 73
    48
 74
     0
 42
0.0000000001
 43
0.0000000001
 12
1.0
 22
0.0
 32
0.0
 13
1.0
 23
0.0
 33
0.0
 40
0.0
 40
0.0
 40
0.0
 40
0.0
 40
0.0769230769230769
 40
0.0769230769230769
 40
0.0769230769230769
 40
0.0769230769230769
 40
0.1538461538461539
 40
0.1538461538461539
 40
0.1538461538461539
 40
0.1538461538461539
 40
0.2307692307692308
 40
0.2307692307692308
 40
0.2307692307692308
 40
0.2307692307692308
 40
0.3076923076923077
 40
0.3076923076923077
 40
0.3076923076923077
 40
0.3076923076923077
 40
0.3846153846153846
 40
0.3846153846153846
 40
0.3846153846153846
 40
0.3846153846153846
 40
0.4615384615384616
 40
0.4615384615384616
 40
0.4615384615384616
 40
0.4615384615384616
 40
0.5384615384615384
 40
0.5384615384615384
 40
0.5384615384615384
 40
0.5384615384615384
 40
0.6153846153846154
 40
0.6153846153846154
 40
0.6153846153846154
 40
0.6153846153846154
 40
0.6923076923076923
 40
0.6923076923076923
 40
0.6923076923076923
 40
0.6923076923076923
 40
0.7692307692307693
 40
0.7692307692307693
 40
0.7692307692307693
 40
0.7692307692307693
 40
0.8461538461538461
 40
0.8461538461538461
 40
0.8461538461538461
 40
0.8461538461538461
 40
1.0
 40
1.0
 40
1.0
 40
1.0
 10
-4.9386
 20
-34.0218
 30
0.0
 10
-4.9386
 20
-34.0218
 30
0.0
 10
-4.9565
 20
-31.8125
 30
0.0
 10
-4.9565
 20
-31.8125
 30
0.0
 10
-4.9565
 20
-31.8125
 30
0.0
 10
-7.5428
 20
-30.932
 30
0.0
 10
-8.6196
 20
-29.3005
 30
0.0
 10
-9.8536
 20
-27.267
 30
0.0
 10
-9.8536
 20
-27.267
 30
0.0
 10
-11.0876
 20
-29.3006
 30
0.0
 10
-12.1643
 20
-30.932
 30
0.0
 10
-14.7506
 20
-31.8125
 30
0.0
 10
-14.7506
 20
-31.8125
 30
0.0
 10
-14.7506
 20
-31.8125
 30
0.0
 10
-14.7685
 20
-34.0218
 30
0.0
 10
-14.7685
 20
-34.0218
 30
0.0
 10
-14.7685
 20
-34.0218
 30
0.0
 10
-17.535
 20
-34.0971
 30
0.0
 10
-20.4625
 20
-34.6748
 30
0.0
 10
-20.4411
 20
-39.5405
 30
0.0
 10
-20.4411
 20
-39.5405
 30
0.0
 10
-20.4625
 20
-44.4061
 30
0.0
 10
-17.535
 20
-44.984
 30
0.0
 10
-14.7685
 20
-45.0593
 30
0.0
 10
-14.7685
 20
-45.0593
 30
0.0
 10
-14.7685
 20
-45.0593
 30
0.0
 10
-14.7506
 20
-47.2686
 30
0.0
 10
-14.7506
 20
-47.2686
 30
0.0
 10
-14.7506
 20
-47.2686
 30
0.0
 10
-12.1643
 20
-48.1491
 30
0.0
 10
-11.0876
 20
-49.7806
 30
0.0
 10
-9.8536
 20
-51.8141
 30
0.0
 10
-9.8536
 20
-51.8141
 30
0.0
 10
-8.6196
 20
-49.7804
 30
0.0
 10
-7.5428
 20
-48.1491
 30
0.0
 10
-4.9565
 20
-47.2686
 30
0.0
 10
-4.9565
 20
-47.2686
 30
0.0
 10
-4.9565
 20
-47.2686
 30
0.0
 10
-4.9386
 20
-45.0593
 30
0.0
 10
-4.9386
 20
-45.0593
 30
0.0
 10
-4.9386
 20
-45.0593
 30
0.0
 10
-2.1721
 20
-44.984
 30
0.0
 10
0.7554
 20
-44.4063
 30
0.0
 10
0.734
 20
-39.5405
 30
0.0
 10
0.734
 20
-39.5405
 30
0.0
 10
0.7554
 20
-34.6749
 30
0.0
 10
-2.1721
 20
-34.0971
 30
0.0
 10
-4.9386
 20
-34.0218
 30
0.0
  0
SPLINE
  5
61
330
1F
100
AcDbEntity
  8
layer 1
 62
     7
100
AcDbSpline
210
0.0
220
0.0
230
1.0
 70
    11
 71
     3
 72
    52
 73
    48
 74
     0
 42
0.0000000001
 43
0.0000000001
 12
1.0
 22
0.0
 32
0.0
 13
1.0
 23
0.0
 33
0.0
 40
0.0
 40
0.0
 40
0.0
 40
0.0
 40
0.0769230769230769
 40
0.0769230769230769
 40
0.0769230769230769
 40
0.0769230769230769
 40
0.1538461538461539
 40
0.1538461538461539
 40
0.1538461538461539
 40
0.1538461538461539
 40
0.2307692307692308
 40
0.2307692307692308
 40
0.2307692307692308
 40
0.2307692307692308
 40
0.3076923076923077
 40
0.3076923076923077
 40
0.3076923076923077
 40
0.3076923076923077
 40
0.3846153846153846
 40
0.3846153846153846
 40
0.3846153846153846
 40
0.3846153846153846
 40
0.4615384615384616
 40
0.4615384615384616
 40
0.4615384615384616
 40
0.4615384615384616
 40
0.5384615384615384
 40
0.5384615384615384
 40
0.5384615384615384
 40
0.5384615384615384
 40
0.6153846153846154
 40
0.6153846153846154
 40
0.6153846153846154
 40
0.6153846153846154
 40
0.6923076923076923
 40
0.6923076923076923
 40
0.6923076923076923
 40
0.6923076923076923
 40
0.7692307692307693
 40
0.7692307692307693
 40
0.7692307692307693
 40
0.7692307692307693
 40
0.8461538461538461
 40
0.8461538461538461
 40
0.8461538461538461
 40
0.8461538461538461
 40
1.0
 40
1.0
 40
1.0
 40
1.0
 10
-4.9386
 20
-67.3165
 30
0.0
 10
-4.9386
 20
-67.3165
 30
0.0
 10
-4.9565
 20
-65.1072
 30
0.0
 10
-4.9565
 20
-65.1072
 30
0.0
 10
-4.9565
 20
-65.1072
 30
0.0
 10
-7.5428
 20
-64.2266
 30
0.0
 10
-8.6196
 20
-62.5952
 30
0.0
 10
-9.8536
 20
-60.5616
 30
0.0
 10
-9.8536
 20
-60.5616
 30
0.0
 10
-11.0876
 20
-62.5953
 30
0.0
 10
-12.1643
 20
-64.2266
 30
0.0
 10
-14.7506
 20
-65.1072
 30
0.0
 10
-14.7506
 20
-65.1072
 30
0.0
 10
-14.7506
 20
-65.1072
 30
0.0
 10
-14.7685
 20
-67.3165
 30
0.0
 10
-14.7685
 20
-67.3165
 30
0.0
 10
-14.7685
 20
-67.3165
 30
0.0
 10
-17.535
 20
-67.3918
 30
0.0
 10
-20.4625
 20
-67.9695
 30
0.0
 10
-20.4411
 20
-72.8352
 30
0.0
 10
-20.4411
 20
-72.8352
 30
0.0
 10
-20.4625
 20
-77.7008
 30
0.0
 10
-17.535
 20
-78.2787
 30
0.0
 10
-14.7685
 20
-78.354
 30
0.0
 10
-14.7685
 20
-78.354
 30
0.0
 10
-14.7685
 20
-78.354
 30
0.0
 10
-14.7506
 20
-80.5632
 30
0.0
 10
-14.7506
 20
-80.5632
 30
0.0
 10
-14.7506
 20
-80.5632
 30
0.0
 10
-12.1643
 20
-81.4438
 30
0.0
 10
-11.0876
 20
-83.0752
 30
0.0
 10
-9.8536
 20
-85.1088
 30
0.0
 10
-9.8536
 20
-85.1088
 30
0.0
 10
-8.6196
 20
-83.0751
 30
0.0
 10
-7.5428
 20
-81.4438
 30
0.0
 10
-4.9565
 20
-80.5632
 30
0.0
 10
-4.9565
 20
-80.5632
 30
0.0
 10
-4.9565
 20
-80.5632
 30
0.0
 10
-4.9386
 20
-78.354
 30
0.0
 10
-4.9386
 20
-78.354
 30
0.0
 10
-4.9386
 20
-78.354
 30
0.0
 10
-2.1721
 20
-78.2787
 30
0.0
 10
0.7554
 20
-77.7009
 30
0.0
 10
0.734
 20
-72.8352
 30
0.0
 10
0.734
 20
-72.8352
 30
0.0
 10
0.7554
 20
-67.9696
 30
0.0
 10
-2.1721
 20
-67.3918
 30
0.0
 10
-4.9386
 20
-67.3165
 30
0.0
  0
SPLINE
  5
62
330
1F
100
AcDbEntity
  8
layer 1
 62
     7
100
AcDbSpline
210
0.0
220
0.0
230
1.0
 70
    11
 71
     3
 72
    52
 73
    48
 74
     0
 42
0.0000000001
 43
0.0000000001
 12
1.0
 22
0.0
 32
0.0
 13
1.0
 23
0.0
 33
0.0
 40
0.0
 40
0.0
 40
0.0
 40
0.0
 40
0.0769230769230769
 40
0.0769230769230769
 40
0.0769230769230769
 40
0.0769230769230769
 40
0.1538461538461539
 40
0.1538461538461539
 40
0.1538461538461539
 40
0.1538461538461539
 40
0.2307692307692308
 40
0.2307692307692308
 40
0.2307692307692308
 40
0.2307692307692308
 40
0.3076923076923077
 40
0.3076923076923077
 40
0.3076923076923077
 40
0.3076923076923077
 40
0.3846153846153846
 40
0.3846153846153846
 40
0.3846153846153846
 40
0.3846153846153846
 40
0.4615384615384616
 40
0.4615384615384616
 40
0.4615384615384616
 40
0.4615384615384616
 40
0.5384615384615384
 40
0.5384615384615384
 40
0.5384615384615384
 40
0.5384615384615384
 40
0.6153846153846154
 40
0.6153846153846154
 40
0.6153846153846154
 40
0.6153846153846154
 40
0.6923076923076923
 40
0.6923076923076923
 40
0.6923076923076923
 40
0.6923076923076923
 40
0.7692307692307693
 40
0.7692307692307693
 40
0.7692307692307693
 40
0.7692307692307693
 40
0.8461538461538461
 40
0.8461538461538461
 40
0.8461538461538461
 40
0.8461538461538461
 40
1.0
 40
1.0
 40
1.0
 40
1.0
 10
22.2508
 20
36.4081
 30
0.0
 10
22.2508
 20
36.4081
 30
0.0
 10
22.2328
 20
38.6174
 30
0.0
 10
22.2328
 20
38.6174
 30
0.0
 10
22.2328
 20
38.6174
 30
0.0
 10
19.6466
 20
39.498
 30
0.0
 10
18.5698
 20
41.1294
 30
0.0
 10
17.3358
 20
43.163
 30
0.0
 10
17.3358
 20
43.163
 30
0.0
 10
16.1018
 20
41.1293
 30
0.0
 10
15.025
 20
39.498
 30
0.0
 10
12.4388
 20
38.6174
 30
0.0
 10
12.4388
 20
38.6174
 30
0.0
 10
12.4388
 20
38.6174
 30
0.0
 10
12.4209
 20
36.4081
 30
0.0
 10
12.4209
 20
36.4081
 30
0.0
 10
12.4209
 20
36.4081
 30
0.0
 10
9.6543
 20
36.3328
 30
0.0
 10
6.7269
 20
35.7551
 30
0.0
 10
6.7483
 20
30.8894
 30
0.0
 10
6.7483
 20
30.8894
 30
0.0
 10
6.7269
 20
26.0238
 30
0.0
 10
9.6543
 20
25.446
 30
0.0
 10
12.4209
 20
25.3707
 30
0.0
 10
12.4209
 20
25.3707
 30
0.0
 10
12.4209
 20
25.3707
 30
0.0
 10
12.4388
 20
23.1614
 30
0.0
 10
12.4388
 20
23.1614
 30
0.0
 10
12.4388
 20
23.1614
 30
0.0
 10
15.025
 20
22.2808
 30
0.0
 10
16.1018
 20
20.6494
 30
0.0
 10
17.3358
 20
18.6158
 30
0.0
 10
17.3358
 20
18.6158
 30
0.0
 10
18.5698
 20
20.6495
 30
0.0
 10
19.6466
 20
22.2808
 30
0.0
 10
22.2328
 20
23.1614
 30
0.0
 10
22.2328
 20
23.1614
 30
0.0
 10
22.2328
 20
23.1614
 30
0.0
 10
22.2508
 20
25.3707
 30
0.0
 10
22.2508
 20
25.3707
 30
0.0
 10
22.2508
 20
25.3707
 30
0.0
 10
25.0173
 20
25.446
 30
0.0
 10
27.9448
 20
26.0237
 30
0.0
 10
27.9233
 20
30.8894
 30
0.0
 10
27.9233
 20
30.8894
 30
0.0
 10
27.9448
 20
35.755
 30
0.0
 10
25.0173
 20
36.3328
 30
0.0
 10
22.2508
 20
36.4081
 30
0.0
  0
SPLINE
  5
63
330
1F
100
AcDbEntity
  8
layer 1
 62
     7
100
AcDbSpline
210
0.0
220
0.0
230
1.0
 70
    11
 71
     3
 72
    52
 73
    48
 74
     0
 42
0.0000000001
 43
0.0000000001
 12
1.0
 22
0.0
 32
0.0
 13
1.0
 23
0.0
 33
0.0
 40
0.0
 40
0.0
 40
0.0
 40
0.0
 40
0.0769230769230769
 40
0.0769230769230769
 40
0.0769230769230769
 40
0.0769230769230769
 40
0.1538461538461539
 40
0.1538461538461539
 40
0.1538461538461539
 40
0.1538461538461539
 40
0.2307692307692308
 40
0.2307692307692308
 40
0.2307692307692308
 40
0.2307692307692308
 40
0.3076923076923077
 40
0.3076923076923077
 40
0.3076923076923077
 40
0.3076923076923077
 40
0.3846153846153846
 40
0.3846153846153846
 40
0.3846153846153846
 40
0.3846153846153846
 40
0.4615384615384616
 40
0.4615384615384616
 40
0.4615384615384616
 40
0.4615384615384616
 40
0.5384615384615384
 40
0.5384615384615384
 40
0.5384615384615384
 40
0.5384615384615384
 40
0.6153846153846154
 40
0.6153846153846154
 40
0.6153846153846154
 40
0.6153846153846154
 40
0.6923076923076923
 40
0.6923076923076923
 40
0.6923076923076923
 40
0.6923076923076923
 40
0.7692307692307693
 40
0.7692307692307693
 40
0.7692307692307693
 40
0.7692307692307693
 40
0.8461538461538461
 40
0.8461538461538461
 40
0.8461538461538461
 40
0.8461538461538461
 40
1.0
 40
1.0
 40
1.0
 40
1.0
 10
22.2508
 20
1.1932
 30
0.0
 10
22.2508
 20
1.1932
 30
0.0
 10
22.2328
 20
3.4025
 30
0.0
 10
22.2328
 20
3.4025
 30
0.0
 10
22.2328
 20
3.4025
 30
0.0
 10
19.6466
 20
4.283
 30
0.0
 10
18.5698
 20
5.9145
 30
0.0
 10
17.3358
 20
7.948
 30
0.0
 10
17.3358
 20
7.948
 30
0.0
 10
16.1018
 20
5.9143
 30
0.0
 10
15.025
 20
4.283
 30
0.0
 10
12.4388
 20
3.4025
 30
0.0
 10
12.4388
 20
3.4025
 30
0.0
 10
12.4388
 20
3.4025
 30
0.0
 10
12.4209
 20
1.1932
 30
0.0
 10
12.4209
 20
1.1932
 30
0.0
 10
12.4209
 20
1.1932
 30
0.0
 10
9.6543
 20
1.1179
 30
0.0
 10
6.7269
 20
0.5401
 30
0.0
 10
6.7483
 20
-4.3256
 30
0.0
 10
6.7483
 20
-4.3256
 30
0.0
 10
6.7269
 20
-9.1912
 30
0.0
 10
9.6543
 20
-9.769
 30
0.0
 10
12.4209
 20
-9.8443
 30
0.0
 10
12.4209
 20
-9.8443
 30
0.0
 10
12.4209
 20
-9.8443
 30
0.0
 10
12.4388
 20
-12.0536
 30
0.0
 10
12.4388
 20
-12.0536
 30
0.0
 10
12.4388
 20
-12.0536
 30
0.0
 10
15.025
 20
-12.9341
 30
0.0
 10
16.1018
 20
-14.5656
 30
0.0
 10
17.3358
 20
-16.5991
 30
0.0
 10
17.3358
 20
-16.5991
 30
0.0
 10
18.5698
 20
-14.5655
 30
0.0
 10
19.6466
 20
-12.9341
 30
0.0
 10
22.2328
 20
-12.0536
 30
0.0
 10
22.2328
 20
-12.0536
 30
0.0
 10
22.2328
 20
-12.0536
 30
0.0
 10
22.2508
 20
-9.8443
 30
0.0
 10
22.2508
 20
-9.8443
 30
0.0
 10
22.2508
 20
-9.8443
 30
0.0
 10
25.0173
 20
-9.769
 30
0.0
 10
27.9448
 20
-9.1913
 30
0.0
 10
27.9233
 20
-4.3256
 30
0.0
 10
27.9233
 20
-4.3256
 30
0.0
 10
27.9448
 20
0.54
 30
0.0
 10
25.0173
 20
1.1179
 30
0.0
 10
22.2508
 20
1.1932
 30
0.0
  0
SPLINE
  5
64
330
1F
100
AcDbEntity
  8
layer 1
 62
     7
100
AcDbSpline
210
0.0
220
0.0
230
1.0
 70
    11
 71
     3
 72
    52
 73
    48
 74
     0
 42
0.0000000001
 43
0.0000000001
 12
1.0
 22
0.0
 32
0.0
 13
1.0
 23
0.0
 33
0.0
 40
0.0
 40
0.0
 40
0.0
 40
0.0
 40
0.0769230769230769
 40
0.0769230769230769
 40
0.0769230769230769
 40
0.0769230769230769
 40
0.1538461538461539
 40
0.1538461538461539
 40
0.1538461538461539
 40
0.1538461538461539
 40
0.2307692307692308
 40
0.2307692307692308
 40
0.2307692307692308
 40
0.2307692307692308
 40
0.3076923076923077
 40
0.3076923076923077
 40
0.3076923076923077
 40
0.3076923076923077
 40
0.3846153846153846
 40
0.3846153846153846
 40
0.3846153846153846
 40
0.3846153846153846
 40
0.4615384615384616
 40
0.4615384615384616
 40
0.4615384615384616
 40
0.4615384615384616
 40
0.5384615384615384
 40
0.5384615384615384
 40
0.5384615384615384
 40
0.5384615384615384
 40
0.6153846153846154
 40
0.6153846153846154
 40
0.6153846153846154
 40
0.6153846153846154
 40
0.6923076923076923
 40
0.6923076923076923
 40
0.6923076923076923
 40
0.6923076923076923
 40
0.7692307692307693
 40
0.7692307692307693
 40
0.7692307692307693
 40
0.7692307692307693
 40
0.8461538461538461
 40
0.8461538461538461
 40
0.8461538461538461
 40
0.8461538461538461
 40
1.0
 40
1.0
 40
1.0
 40
1.0
 10
22.2508
 20
-34.0218
 30
0.0
 10
22.2508
 20
-34.0218
 30
0.0
 10
22.2328
 20
-31.8125
 30
0.0
 10
22.2328
 20
-31.8125
 30
0.0
 10
22.2328
 20
-31.8125
 30
0.0
 10
19.6466
 20
-30.932
 30
0.0
 10
18.5698
 20
-29.3005
 30
0.0
 10
17.3358
 20
-27.267
 30
0.0
 10
17.3358
 20
-27.267
 30
0.0
 10
16.1018
 20
-29.3006
 30
0.0
 10
15.025
 20
-30.932
 30
0.0
 10
12.4388
 20
-31.8125
 30
0.0
 10
12.4388
 20
-31.8125
 30
0.0
 10
12.4388
 20
-31.8125
 30
0.0
 10
12.4209
 20
-34.0218
 30
0.0
 10
12.4209
 20
-34.0218
 30
0.0
 10
12.4209
 20
-34.0218
 30
0.0
 10
9.6543
 20
-34.0971
 30
0.0
 10
6.7269
 20
-34.6748
 30
0.0
 10
6.7483
 20
-39.5405
 30
0.0
 10
6.7483
 20
-39.5405
 30
0.0
 10
6.7269
 20
-44.4061
 30
0.0
 10
9.6543
 20
-44.984
 30
0.0
 10
12.4209
 20
-45.0593
 30
0.0
 10
12.4209
 20
-45.0593
 30
0.0
 10
12.4209
 20
-45.0593
 30
0.0
 10
12.4388
 20
-47.2686
 30
0.0
 10
12.4388
 20
-47.2686
 30
0.0
 10
12.4388
 20
-47.2686
 30
0.0
 10
15.025
 20
-48.1491
 30
0.0
 10
16.1018
 20
-49.7806
 30
0.0
 10
17.3358
 20
-51.8141
 30
0.0
 10
17.3358
 20
-51.8141
 30
0.0
 10
18.5698
 20
-49.7804
 30
0.0
 10
19.6466
 20
-48.1491
 30
0.0
 10
22.2328
 20
-47.2686
 30
0.0
 10
22.2328
 20
-47.2686
 30
0.0
 10
22.2328
 20
-47.2686
 30
0.0
 10
22.2508
 20
-45.0593
 30
0.0
 10
22.2508
 20
-45.0593
 30
0.0
 10
22.2508
 20
-45.0593
 30
0.0
 10
25.0173
 20
-44.984
 30
0.0
 10
27.9448
 20
-44.4063
 30
0.0
 10
27.9233
 20
-39.5405
 30
0.0
 10
27.9233
 20
-39.5405
 30
0.0
 10
27.9448
 20
-34.6749
 30
0.0
 10
25.0173
 20
-34.0971
 30
0.0
 10
22.2508
 20
-34.0218
 30
0.0
  0
SPLINE
  5
65
330
1F
100
AcDbEntity
  8
layer 1
 62
     7
100
AcDbSpline
210
0.0
220
0.0
230
1.0
 70
    11
 71
     3
 72
    52
 73
    48
 74
     0
 42
0.0000000001
 43
0.0000000001
 12
1.0
 22
0.0
 32
0.0
 13
1.0
 23
0.0
 33
0.0
 40
0.0
 40
0.0
 40
0.0
 40
0.0
 40
0.0769230769230769
 40
0.0769230769230769
 40
0.0769230769230769
 40
0.0769230769230769
 40
0.1538461538461539
 40
0.1538461538461539
 40
0.1538461538461539
 40
0.1538461538461539
 40
0.2307692307692308
 40
0.2307692307692308
 40
0.2307692307692308
 40
0.2307692307692308
 40
0.3076923076923077
 40
0.3076923076923077
 40
0.3076923076923077
 40
0.3076923076923077
 40
0.3846153846153846
 40
0.3846153846153846
 40
0.3846153846153846
 40
0.3846153846153846
 40
0.4615384615384616
 40
0.4615384615384616
 40
0.4615384615384616
 40
0.4615384615384616
 40
0.5384615384615384
 40
0.5384615384615384
 40
0.5384615384615384
 40
0.5384615384615384
 40
0.6153846153846154
 40
0.6153846153846154
 40
0.6153846153846154
 40
0.6153846153846154
 40
0.6923076923076923
 40
0.6923076923076923
 40
0.6923076923076923
 40
0.6923076923076923
 40
0.7692307692307693
 40
0.7692307692307693
 40
0.7692307692307693
 40
0.7692307692307693
 40
0.8461538461538461
 40
0.8461538461538461
 40
0.8461538461538461
 40
0.8461538461538461
 40
1.0
 40
1.0
 40
1.0
 40
1.0
 10
22.2508
 20
-67.3165
 30
0.0
 10
22.2508
 20
-67.3165
 30
0.0
 10
22.2328
 20
-65.1072
 30
0.0
 10
22.2328
 20
-65.1072
 30
0.0
 10
22.2328
 20
-65.1072
 30
0.0
 10
19.6466
 20
-64.2266
 30
0.0
 10
18.5698
 20
-62.5952
 30
0.0
 10
17.3358
 20
-60.5616
 30
0.0
 10
17.3358
 20
-60.5616
 30
0.0
 10
16.1018
 20
-62.5953
 30
0.0
 10
15.025
 20
-64.2266
 30
0.0
 10
12.4388
 20
-65.1072
 30
0.0
 10
12.4388
 20
-65.1072
 30
0.0
 10
12.4388
 20
-65.1072
 30
0.0
 10
12.4209
 20
-67.3165
 30
0.0
 10
12.4209
 20
-67.3165
 30
0.0
 10
12.4209
 20
-67.3165
 30
0.0
 10
9.6543
 20
-67.3918
 30
0.0
 10
6.7269
 20
-67.9695
 30
0.0
 10
6.7483
 20
-72.8352
 30
0.0
 10
6.7483
 20
-72.8352
 30
0.0
 10
6.7269
 20
-77.7008
 30
0.0
 10
9.6543
 20
-78.2787
 30
0.0
 10
12.4209
 20
-78.354
 30
0.0
 10
12.4209
 20
-78.354
 30
0.0
 10
12.4209
 20
-78.354
 30
0.0
 10
12.4388
 20
-80.5632
 30
0.0
 10
12.4388
 20
-80.5632
 30
0.0
 10
12.4388
 20
-80.5632
 30
0.0
 10
15.025
 20
-81.4438
 30
0.0
 10
16.1018
 20
-83.0752
 30
0.0
 10
17.3358
 20
-85.1088
 30
0.0
 10
17.3358
 20
-85.1088
 30
0.0
 10
18.5698
 20
-83.0751
 30
0.0
 10
19.6466
 20
-81.4438
 30
0.0
 10
22.2328
 20
-80.5632
 30
0.0
 10
22.2328
 20
-80.5632
 30
0.0
 10
22.2328
 20
-80.5632
 30
0.0
 10
22.2508
 20
-78.354
 30
0.0
 10
22.2508
 20
-78.354
 30
0.0
 10
22.2508
 20
-78.354
 30
0.0
 10
25.0173
 20
-78.2787
 30
0.0
 10
27.9448
 20
-77.7009
 30
0.0
 10
27.9233
 20
-72.8352
 30
0.0
 10
27.9233
 20
-72.8352
 30
0.0
 10
27.9448
 20
-67.9696
 30
0.0
 10
25.0173
 20
-67.3918
 30
0.0
 10
22.2508
 20
-67.3165
 30
0.0
  0
SPLINE
  5
66
330
1F
100
AcDbEntity
  8
layer 1
 62
     7
100
AcDbSpline
210
0.0
220
0.0
230
1.0
 70
    11
 71
     3
 72
    52
 73
    48
 74
     0
 42
0.0000000001
 43
0.0000000001
 12
1.0
 22
0.0
 32
0.0
 13
1.0
 23
0.0
 33
0.0
 40
0.0
 40
0.0
 40
0.0
 40
0.0
 40
0.0769230769230769
 40
0.0769230769230769
 40
0.0769230769230769
 40
0.0769230769230769
 40
0.1538461538461539
 40
0.1538461538461539
 40
0.1538461538461539
 40
0.1538461538461539
 40
0.2307692307692308
 40
0.2307692307692308
 40
0.2307692307692308
 40
0.2307692307692308
 40
0.3076923076923077
 40
0.3076923076923077
 40
0.3076923076923077
 40
0.3076923076923077
 40
0.3846153846153846
 40
0.3846153846153846
 40
0.3846153846153846
 40
0.3846153846153846
 40
0.4615384615384616
 40
0.4615384615384616
 40
0.4615384615384616
 40
0.4615384615384616
 40
0.5384615384615384
 40
0.5384615384615384
 40
0.5384615384615384
 40
0.5384615384615384
 40
0.6153846153846154
 40
0.6153846153846154
 40
0.6153846153846154
 40
0.6153846153846154
 40
0.6923076923076923
 40
0.6923076923076923
 40
0.6923076923076923
 40
0.6923076923076923
 40
0.7692307692307693
 40
0.7692307692307693
 40
0.7692307692307693
 40
0.7692307692307693
 40
0.8461538461538461
 40
0.8461538461538461
 40
0.8461538461538461
 40
0.8461538461538461
 40
1.0
 40
1.0
 40
1.0
 40
1.0
 10
-72.7355
 20
53.8036
 30
0.0
 10
-72.7355
 20
53.8036
 30
0.0
 10
-72.7535
 20
56.0129
 30
0.0
 10
-72.7535
 20
56.0129
 30
0.0
 10
-72.7535
 20
56.0129
 30
0.0
 10
-75.3397
 20
56.8934
 30
0.0
 10
-76.4165
 20
58.5249
 30
0.0
 10
-77.6505
 20
60.5584
 30
0.0
 10
-77.6505
 20
60.5584
 30
0.0
 10
-78.8845
 20
58.5248
 30
0.0
 10
-79.9613
 20
56.8934
 30
0.0
 10
-82.5475
 20
56.0129
 30
0.0
 10
-82.5475
 20
56.0129
 30
0.0
 10
-82.5475
 20
56.0129
 30
0.0
 10
-82.5654
 20
53.8036
 30
0.0
 10
-82.5654
 20
53.8036
 30
0.0
 10
-82.5654
 20
53.8036
 30
0.0
 10
-85.3319
 20
53.7283
 30
0.0
 10
-88.2594
 20
53.1506
 30
0.0
 10
-88.238
 20
48.2848
 30
0.0
 10
-88.238
 20
48.2848
 30
0.0
 10
-88.2594
 20
43.4193
 30
0.0
 10
-85.3319
 20
42.8414
 30
0.0
 10
-82.5654
 20
42.7661
 30
0.0
 10
-82.5654
 20
42.7661
 30
0.0
 10
-82.5654
 20
42.7661
 30
0.0
 10
-82.5475
 20
40.5568
 30
0.0
 10
-82.5475
 20
40.5568
 30
0.0
 10
-82.5475
 20
40.5568
 30
0.0
 10
-79.9613
 20
39.6763
 30
0.0
 10
-78.8845
 20
38.0448
 30
0.0
 10
-77.6505
 20
36.0113
 30
0.0
 10
-77.6505
 20
36.0113
 30
0.0
 10
-76.4165
 20
38.0449
 30
0.0
 10
-75.3397
 20
39.6763
 30
0.0
 10
-72.7535
 20
40.5568
 30
0.0
 10
-72.7535
 20
40.5568
 30
0.0
 10
-72.7535
 20
40.5568
 30
0.0
 10
-72.7355
 20
42.7661
 30
0.0
 10
-72.7355
 20
42.7661
 30
0.0
 10
-72.7355
 20
42.7661
 30
0.0
 10
-69.969
 20
42.8414
 30
0.0
 10
-67.0415
 20
43.4191
 30
0.0
 10
-67.0629
 20
48.2848
 30
0.0
 10
-67.0629
 20
48.2848
 30
0.0
 10
-67.0415
 20
53.1504
 30
0.0
 10
-69.969
 20
53.7283
 30
0.0
 10
-72.7355
 20
53.8036
 30
0.0
  0
SPLINE
  5
67
330
1F
100
AcDbEntity
  8
layer 1
 62
     7
100
AcDbSpline
210
0.0
220
0.0
230
1.0
 70
    11
 71
     3
 72
    52
 73
    48
 74
     0
 42
0.0000000001
 43
0.0000000001
 12
1.0
 22
0.0
 32
0.0
 13
1.0
 23
0.0
 33
0.0
 40
0.0
 40
0.0
 40
0.0
 40
0.0
 40
0.0769230769230769
 40
0.0769230769230769
 40
0.0769230769230769
 40
0.0769230769230769
 40
0.1538461538461539
 40
0.1538461538461539
 40
0.1538461538461539
 40
0.1538461538461539
 40
0.2307692307692308
 40
0.2307692307692308
 40
0.2307692307692308
 40
0.2307692307692308
 40
0.3076923076923077
 40
0.3076923076923077
 40
0.3076923076923077
 40
0.3076923076923077
 40
0.3846153846153846
 40
0.3846153846153846
 40
0.3846153846153846
 40
0.3846153846153846
 40
0.4615384615384616
 40
0.4615384615384616
 40
0.4615384615384616
 40
0.4615384615384616
 40
0.5384615384615384
 40
0.5384615384615384
 40
0.5384615384615384
 40
0.5384615384615384
 40
0.6153846153846154
 40
0.6153846153846154
 40
0.6153846153846154
 40
0.6153846153846154
 40
0.6923076923076923
 40
0.6923076923076923
 40
0.6923076923076923
 40
0.6923076923076923
 40
0.7692307692307693
 40
0.7692307692307693
 40
0.7692307692307693
 40
0.7692307692307693
 40
0.8461538461538461
 40
0.8461538461538461
 40
0.8461538461538461
 40
0.8461538461538461
 40
1.0
 40
1.0
 40
1.0
 40
1.0
 10
-72.7355
 20
19.3098
 30
0.0
 10
-72.7355
 20
19.3098
 30
0.0
 10
-72.7535
 20
21.5191
 30
0.0
 10
-72.7535
 20
21.5191
 30
0.0
 10
-72.7535
 20
21.5191
 30
0.0
 10
-75.3397
 20
22.3997
 30
0.0
 10
-76.4165
 20
24.0311
 30
0.0
 10
-77.6505
 20
26.0647
 30
0.0
 10
-77.6505
 20
26.0647
 30
0.0
 10
-78.8845
 20
24.031
 30
0.0
 10
-79.9613
 20
22.3997
 30
0.0
 10
-82.5475
 20
21.5191
 30
0.0
 10
-82.5475
 20
21.5191
 30
0.0
 10
-82.5475
 20
21.5191
 30
0.0
 10
-82.5654
 20
19.3098
 30
0.0
 10
-82.5654
 20
19.3098
 30
0.0
 10
-82.5654
 20
19.3098
 30
0.0
 10
-85.3319
 20
19.2345
 30
0.0
 10
-88.2594
 20
18.6568
 30
0.0
 10
-88.238
 20
13.7911
 30
0.0
 10
-88.238
 20
13.7911
 30
0.0
 10
-88.2594
 20
8.9255
 30
0.0
 10
-85.3319
 20
8.3477
 30
0.0
 10
-82.5654
 20
8.2724
 30
0.0
 10
-82.5654
 20
8.2724
 30
0.0
 10
-82.5654
 20
8.2724
 30
0.0
 10
-82.5475
 20
6.0631
 30
0.0
 10
-82.5475
 20
6.0631
 30
0.0
 10
-82.5475
 20
6.0631
 30
0.0
 10
-79.9613
 20
5.1825
 30
0.0
 10
-78.8845
 20
3.5511
 30
0.0
 10
-77.6505
 20
1.5175
 30
0.0
 10
-77.6505
 20
1.5175
 30
0.0
 10
-76.4165
 20
3.5512
 30
0.0
 10
-75.3397
 20
5.1825
 30
0.0
 10
-72.7535
 20
6.0631
 30
0.0
 10
-72.7535
 20
6.0631
 30
0.0
 10
-72.7535
 20
6.0631
 30
0.0
 10
-72.7355
 20
8.2724
 30
0.0
 10
-72.7355
 20
8.2724
 30
0.0
 10
-72.7355
 20
8.2724
 30
0.0
 10
-69.969
 20
8.3477
 30
0.0
 10
-67.0415
 20
8.9254
 30
0.0
 10
-67.0629
 20
13.7911
 30
0.0
 10
-67.0629
 20
13.7911
 30
0.0
 10
-67.0415
 20
18.6567
 30
0.0
 10
-69.969
 20
19.2345
 30
0.0
 10
-72.7355
 20
19.3098
 30
0.0
  0
SPLINE
  5
68
330
1F
100
AcDbEntity
  8
layer 1
 62
     7
100
AcDbSpline
210
0.0
220
0.0
230
1.0
 70
    11
 71
     3
 72
    52
 73
    48
 74
     0
 42
0.0000000001
 43
0.0000000001
 12
1.0
 22
0.0
 32
0.0
 13
1.0
 23
0.0
 33
0.0
 40
0.0
 40
0.0
 40
0.0
 40
0.0
 40
0.0769230769230769
 40
0.0769230769230769
 40
0.0769230769230769
 40
0.0769230769230769
 40
0.1538461538461539
 40
0.1538461538461539
 40
0.1538461538461539
 40
0.1538461538461539
 40
0.2307692307692308
 40
0.2307692307692308
 40
0.2307692307692308
 40
0.2307692307692308
 40
0.3076923076923077
 40
0.3076923076923077
 40
0.3076923076923077
 40
0.3076923076923077
 40
0.3846153846153846
 40
0.3846153846153846
 40
0.3846153846153846
 40
0.3846153846153846
 40
0.4615384615384616
 40
0.4615384615384616
 40
0.4615384615384616
 40
0.4615384615384616
 40
0.5384615384615384
 40
0.5384615384615384
 40
0.5384615384615384
 40
0.5384615384615384
 40
0.6153846153846154
 40
0.6153846153846154
 40
0.6153846153846154
 40
0.6153846153846154
 40
0.6923076923076923
 40
0.6923076923076923
 40
0.6923076923076923
 40
0.6923076923076923
 40
0.7692307692307693
 40
0.7692307692307693
 40
0.7692307692307693
 40
0.7692307692307693
 40
0.8461538461538461
 40
0.8461538461538461
 40
0.8461538461538461
 40
0.8461538461538461
 40
1.0
 40
1.0
 40
1.0
 40
1.0
 10
-72.7355
 20
-15.1839
 30
0.0
 10
-72.7355
 20
-15.1839
 30
0.0
 10
-72.7535
 20
-12.9746
 30
0.0
 10
-72.7535
 20
-12.9746
 30
0.0
 10
-72.7535
 20
-12.9746
 30
0.0
 10
-75.3397
 20
-12.0941
 30
0.0
 10
-76.4165
 20
-10.4626
 30
0.0
 10
-77.6505
 20
-8.4291
 30
0.0
 10
-77.6505
 20
-8.4291
 30
0.0
 10
-78.8845
 20
-10.4628
 30
0.0
 10
-79.9613
 20
-12.0941
 30
0.0
 10
-82.5475
 20
-12.9746
 30
0.0
 10
-82.5475
 20
-12.9746
 30
0.0
 10
-82.5475
 20
-12.9746
 30
0.0
 10
-82.5654
 20
-15.1839
 30
0.0
 10
-82.5654
 20
-15.1839
 30
0.0
 10
-82.5654
 20
-15.1839
 30
0.0
 10
-85.3319
 20
-15.2592
 30
0.0
 10
-88.2594
 20
-15.8369
 30
0.0
 10
-88.238
 20
-20.7027
 30
0.0
 10
-88.238
 20
-20.7027
 30
0.0
 10
-88.2594
 20
-25.5683
 30
0.0
 10
-85.3319
 20
-26.1461
 30
0.0
 10
-82.5654
 20
-26.2214
 30
0.0
 10
-82.5654
 20
-26.2214
 30
0.0
 10
-82.5654
 20
-26.2214
 30
0.0
 10
-82.5475
 20
-28.4307
 30
0.0
 10
-82.5475
 20
-28.4307
 30
0.0
 10
-82.5475
 20
-28.4307
 30
0.0
 10
-79.9613
 20
-29.3112
 30
0.0
 10
-78.8845
 20
-30.9427
 30
0.0
 10
-77.6505
 20
-32.9762
 30
0.0
 10
-77.6505
 20
-32.9762
 30
0.0
 10
-76.4165
 20
-30.9426
 30
0.0
 10
-75.3397
 20
-29.3112
 30
0.0
 10
-72.7535
 20
-28.4307
 30
0.0
 10
-72.7535
 20
-28.4307
 30
0.0
 10
-72.7535
 20
-28.4307
 30
0.0
 10
-72.7355
 20
-26.2214
 30
0.0
 10
-72.7355
 20
-26.2214
 30
0.0
 10
-72.7355
 20
-26.2214
 30
0.0
 10
-69.969
 20
-26.1461
 30
0.0
 10
-67.0415
 20
-25.5684
 30
0.0
 10
-67.0629
 20
-20.7027
 30
0.0
 10
-67.0629
 20
-20.7027
 30
0.0
 10
-67.0415
 20
-15.8371
 30
0.0
 10
-69.969
 20
-15.2592
 30
0.0
 10
-72.7355
 20
-15.1839
 30
0.0
  0
SPLINE
  5
69
330
1F
100
AcDbEntity
  8
layer 1
 62
     7
100
AcDbSpline
210
0.0
220
0.0
230
1.0
 70
    11
 71
     3
 72
    52
 73
    48
 74
     0
 42
0.0000000001
 43
0.0000000001
 12
1.0
 22
0.0
 32
0.0
 13
1.0
 23
0.0
 33
0.0
 40
0.0
 40
0.0
 40
0.0
 40
0.0
 40
0.0769230769230769
 40
0.0769230769230769
 40
0.0769230769230769
 40
0.0769230769230769
 40
0.1538461538461539
 40
0.1538461538461539
 40
0.1538461538461539
 40
0.1538461538461539
 40
0.2307692307692308
 40
0.2307692307692308
 40
0.2307692307692308
 40
0.2307692307692308
 40
0.3076923076923077
 40
0.3076923076923077
 40
0.3076923076923077
 40
0.3076923076923077
 40
0.3846153846153846
 40
0.3846153846153846
 40
0.3846153846153846
 40
0.3846153846153846
 40
0.4615384615384616
 40
0.4615384615384616
 40
0.4615384615384616
 40
0.4615384615384616
 40
0.5384615384615384
 40
0.5384615384615384
 40
0.5384615384615384
 40
0.5384615384615384
 40
0.6153846153846154
 40
0.6153846153846154
 40
0.6153846153846154
 40
0.6153846153846154
 40
0.6923076923076923
 40
0.6923076923076923
 40
0.6923076923076923
 40
0.6923076923076923
 40
0.7692307692307693
 40
0.7692307692307693
 40
0.7692307692307693
 40
0.7692307692307693
 40
0.8461538461538461
 40
0.8461538461538461
 40
0.8461538461538461
 40
0.8461538461538461
 40
1.0
 40
1.0
 40
1.0
 40
1.0
 10
-72.7355
 20
-49.6777
 30
0.0
 10
-72.7355
 20
-49.6777
 30
0.0
 10
-72.7535
 20
-47.4684
 30
0.0
 10
-72.7535
 20
-47.4684
 30
0.0
 10
-72.7535
 20
-47.4684
 30
0.0
 10
-75.3397
 20
-46.5878
 30
0.0
 10
-76.4165
 20
-44.9564
 30
0.0
 10
-77.6505
 20
-42.9229
 30
0.0
 10
-77.6505
 20
-42.9229
 30
0.0
 10
-78.8845
 20
-44.9565
 30
0.0
 10
-79.9613
 20
-46.5878
 30
0.0
 10
-82.5475
 20
-47.4684
 30
0.0
 10
-82.5475
 20
-47.4684
 30
0.0
 10
-82.5475
 20
-47.4684
 30
0.0
 10
-82.5654
 20
-49.6777
 30
0.0
 10
-82.5654
 20
-49.6777
 30
0.0
 10
-82.5654
 20
-49.6777
 30
0.0
 10
-85.3319
 20
-49.753
 30
0.0
 10
-88.2594
 20
-50.3307
 30
0.0
 10
-88.238
 20
-55.1964
 30
0.0
 10
-88.238
 20
-55.1964
 30
0.0
 10
-88.2594
 20
-60.062
 30
0.0
 10
-85.3319
 20
-60.6399
 30
0.0
 10
-82.5654
 20
-60.7152
 30
0.0
 10
-82.5654
 20
-60.7152
 30
0.0
 10
-82.5654
 20
-60.7152
 30
0.0
 10
-82.5475
 20
-62.9244
 30
0.0
 10
-82.5475
 20
-62.9244
 30
0.0
 10
-82.5475
 20
-62.9244
 30
0.0
 10
-79.9613
 20
-63.805
 30
0.0
 10
-78.8845
 20
-65.4364
 30
0.0
 10
-77.6505
 20
-67.47
 30
0.0
 10
-77.6505
 20
-67.47
 30
0.0
 10
-76.4165
 20
-65.4363
 30
0.0
 10
-75.3397
 20
-63.805
 30
0.0
 10
-72.7535
 20
-62.9244
 30
0.0
 10
-72.7535
 20
-62.9244
 30
0.0
 10
-72.7535
 20
-62.9244
 30
0.0
 10
-72.7355
 20
-60.7152
 30
0.0
 10
-72.7355
 20
-60.7152
 30
0.0
 10
-72.7355
 20
-60.7152
 30
0.0
 10
-69.969
 20
-60.6399
 30
0.0
 10
-67.0415
 20
-60.0621
 30
0.0
 10
-67.0629
 20
-55.1964
 30
0.0
 10
-67.0629
 20
-55.1964
 30
0.0
 10
-67.0415
 20
-50.3308
 30
0.0
 10
-69.969
 20
-49.753
 30
0.0
 10
-72.7355
 20
-49.6777
 30
0.0
  0
SPLINE
  5
6A
330
1F
100
AcDbEntity
  8
layer 1
 62
     7
100
AcDbSpline
210
0.0
220
0.0
230
1.0
 70
    11
 71
     3
 72
    32
 73
    28
 74
     0
 42
0.0000000001
 43
0.0000000001
 12
1.0
 22
0.0
 32
0.0
 13
1.0
 23
0.0
 33
0.0
 40
0.0
 40
0.0
 40
0.0
 40
0.0
 40
0.125
 40
0.125
 40
0.125
 40
0.125
 40
0.25
 40
0.25
 40
0.25
 40
0.25
 40
0.375
 40
0.375
 40
0.375
 40
0.375
 40
0.5
 40
0.5
 40
0.5
 40
0.5
 40
0.625
 40
0.625
 40
0.625
 40
0.625
 40
0.75
 40
0.75
 40
0.75
 40
0.75
 40
1.0
 40
1.0
 40
1.0
 40
1.0
 10
-72.7355
 20
-84.1714
 30
0.0
 10
-72.7355
 20
-84.1714
 30
0.0
 10
-72.7535
 20
-81.9622
 30
0.0
 10
-72.7535
 20
-81.9622
 30
0.0
 10
-72.7535
 20
-81.9622
 30
0.0
 10
-75.3397
 20
-81.0816
 30
0.0
 10
-76.4165
 20
-79.4502
 30
0.0
 10
-77.6505
 20
-77.4166
 30
0.0
 10
-77.6505
 20
-77.4166
 30
0.0
 10
-78.8845
 20
-79.4503
 30
0.0
 10
-79.9613
 20
-81.0816
 30
0.0
 10
-82.5475
 20
-81.9622
 30
0.0
 10
-82.5475
 20
-81.9622
 30
0.0
 10
-82.5475
 20
-81.9622
 30
0.0
 10
-82.5654
 20
-84.1714
 30
0.0
 10
-82.5654
 20
-84.1714
 30
0.0
 10
-82.5654
 20
-84.1714
 30
0.0
 10
-85.3319
 20
-84.2467
 30
0.0
 10
-88.2594
 20
-84.8245
 30
0.0
 10
-88.238
 20
-89.6902
 30
0.0
 10
-88.238
 20
-89.6902
 30
0.0
 10
-88.238
 20
-89.6902
 30
0.0
 10
-67.0629
 20
-89.6902
 30
0.0
 10
-67.0629
 20
-89.6902
 30
0.0
 10
-67.0629
 20
-89.6902
 30
0.0
 10
-67.0415
 20
-84.8246
 30
0.0
 10
-69.969
 20
-84.2467
 30
0.0
 10
-72.7355
 20
-84.1714
 30
0.0
  0
SPLINE
  5
6B
330
1F
100
AcDbEntity
  8
layer 1
 62
     7
100
AcDbSpline
210
0.0
220
0.0
230
1.0
 70
    11
 71
     3
 72
    52
 73
    48
 74
     0
 42
0.0000000001
 43
0.0000000001
 12
1.0
 22
0.0
 32
0.0
 13
1.0
 23
0.0
 33
0.0
 40
0.0
 40
0.0
 40
0.0
 40
0.0
 40
0.0769230769230769
 40
0.0769230769230769
 40
0.0769230769230769
 40
0.0769230769230769
 40
0.1538461538461539
 40
0.1538461538461539
 40
0.1538461538461539
 40
0.1538461538461539
 40
0.2307692307692308
 40
0.2307692307692308
 40
0.2307692307692308
 40
0.2307692307692308
 40
0.3076923076923077
 40
0.3076923076923077
 40
0.3076923076923077
 40
0.3076923076923077
 40
0.3846153846153846
 40
0.3846153846153846
 40
0.3846153846153846
 40
0.3846153846153846
 40
0.4615384615384616
 40
0.4615384615384616
 40
0.4615384615384616
 40
0.4615384615384616
 40
0.5384615384615384
 40
0.5384615384615384
 40
0.5384615384615384
 40
0.5384615384615384
 40
0.6153846153846154
 40
0.6153846153846154
 40
0.6153846153846154
 40
0.6153846153846154
 40
0.6923076923076923
 40
0.6923076923076923
 40
0.6923076923076923
 40
0.6923076923076923
 40
0.7692307692307693
 40
0.7692307692307693
 40
0.7692307692307693
 40
0.7692307692307693
 40
0.8461538461538461
 40
0.8461538461538461
 40
0.8461538461538461
 40
0.8461538461538461
 40
1.0
 40
1.0
 40
1.0
 40
1.0
 10
-45.7163
 20
53.8036
 30
0.0
 10
-45.7163
 20
53.8036
 30
0.0
 10
-45.7342
 20
56.0129
 30
0.0
 10
-45.7342
 20
56.0129
 30
0.0
 10
-45.7342
 20
56.0129
 30
0.0
 10
-48.3205
 20
56.8934
 30
0.0
 10
-49.3973
 20
58.5249
 30
0.0
 10
-50.6313
 20
60.5584
 30
0.0
 10
-50.6313
 20
60.5584
 30
0.0
 10
-51.8653
 20
58.5248
 30
0.0
 10
-52.942
 20
56.8934
 30
0.0
 10
-55.5283
 20
56.0129
 30
0.0
 10
-55.5283
 20
56.0129
 30
0.0
 10
-55.5283
 20
56.0129
 30
0.0
 10
-55.5462
 20
53.8036
 30
0.0
 10
-55.5462
 20
53.8036
 30
0.0
 10
-55.5462
 20
53.8036
 30
0.0
 10
-58.3127
 20
53.7283
 30
0.0
 10
-61.2402
 20
53.1506
 30
0.0
 10
-61.2188
 20
48.2848
 30
0.0
 10
-61.2188
 20
48.2848
 30
0.0
 10
-61.2402
 20
43.4193
 30
0.0
 10
-58.3127
 20
42.8414
 30
0.0
 10
-55.5462
 20
42.7661
 30
0.0
 10
-55.5462
 20
42.7661
 30
0.0
 10
-55.5462
 20
42.7661
 30
0.0
 10
-55.5283
 20
40.5568
 30
0.0
 10
-55.5283
 20
40.5568
 30
0.0
 10
-55.5283
 20
40.5568
 30
0.0
 10
-52.942
 20
39.6763
 30
0.0
 10
-51.8653
 20
38.0448
 30
0.0
 10
-50.6313
 20
36.0113
 30
0.0
 10
-50.6313
 20
36.0113
 30
0.0
 10
-49.3973
 20
38.0449
 30
0.0
 10
-48.3205
 20
39.6763
 30
0.0
 10
-45.7342
 20
40.5568
 30
0.0
 10
-45.7342
 20
40.5568
 30
0.0
 10
-45.7342
 20
40.5568
 30
0.0
 10
-45.7163
 20
42.7661
 30
0.0
 10
-45.7163
 20
42.7661
 30
0.0
 10
-45.7163
 20
42.7661
 30
0.0
 10
-42.9498
 20
42.8414
 30
0.0
 10
-40.0223
 20
43.4191
 30
0.0
 10
-40.0437
 20
48.2848
 30
0.0
 10
-40.0437
 20
48.2848
 30
0.0
 10
-40.0223
 20
53.1504
 30
0.0
 10
-42.9498
 20
53.7283
 30
0.0
 10
-45.7163
 20
53.8036
 30
0.0
  0
SPLINE
  5
6C
330
1F
100
AcDbEntity
  8
layer 1
 62
     7
100
AcDbSpline
210
0.0
220
0.0
230
1.0
 70
    11
 71
     3
 72
    52
 73
    48
 74
     0
 42
0.0000000001
 43
0.0000000001
 12
1.0
 22
0.0
 32
0.0
 13
1.0
 23
0.0
 33
0.0
 40
0.0
 40
0.0
 40
0.0
 40
0.0
 40
0.0769230769230769
 40
0.0769230769230769
 40
0.0769230769230769
 40
0.0769230769230769
 40
0.1538461538461539
 40
0.1538461538461539
 40
0.1538461538461539
 40
0.1538461538461539
 40
0.2307692307692308
 40
0.2307692307692308
 40
0.2307692307692308
 40
0.2307692307692308
 40
0.3076923076923077
 40
0.3076923076923077
 40
0.3076923076923077
 40
0.3076923076923077
 40
0.3846153846153846
 40
0.3846153846153846
 40
0.3846153846153846
 40
0.3846153846153846
 40
0.4615384615384616
 40
0.4615384615384616
 40
0.4615384615384616
 40
0.4615384615384616
 40
0.5384615384615384
 40
0.5384615384615384
 40
0.5384615384615384
 40
0.5384615384615384
 40
0.6153846153846154
 40
0.6153846153846154
 40
0.6153846153846154
 40
0.6153846153846154
 40
0.6923076923076923
 40
0.6923076923076923
 40
0.6923076923076923
 40
0.6923076923076923
 40
0.7692307692307693
 40
0.7692307692307693
 40
0.7692307692307693
 40
0.7692307692307693
 40
0.8461538461538461
 40
0.8461538461538461
 40
0.8461538461538461
 40
0.8461538461538461
 40
1.0
 40
1.0
 40
1.0
 40
1.0
 10
-45.7163
 20
19.3098
 30
0.0
 10
-45.7163
 20
19.3098
 30
0.0
 10
-45.7342
 20
21.5191
 30
0.0
 10
-45.7342
 20
21.5191
 30
0.0
 10
-45.7342
 20
21.5191
 30
0.0
 10
-48.3205
 20
22.3997
 30
0.0
 10
-49.3973
 20
24.0311
 30
0.0
 10
-50.6313
 20
26.0647
 30
0.0
 10
-50.6313
 20
26.0647
 30
0.0
 10
-51.8653
 20
24.031
 30
0.0
 10
-52.942
 20
22.3997
 30
0.0
 10
-55.5283
 20
21.5191
 30
0.0
 10
-55.5283
 20
21.5191
 30
0.0
 10
-55.5283
 20
21.5191
 30
0.0
 10
-55.5462
 20
19.3098
 30
0.0
 10
-55.5462
 20
19.3098
 30
0.0
 10
-55.5462
 20
19.3098
 30
0.0
 10
-58.3127
 20
19.2345
 30
0.0
 10
-61.2402
 20
18.6568
 30
0.0
 10
-61.2188
 20
13.7911
 30
0.0
 10
-61.2188
 20
13.7911
 30
0.0
 10
-61.2402
 20
8.9255
 30
0.0
 10
-58.3127
 20
8.3477
 30
0.0
 10
-55.5462
 20
8.2724
 30
0.0
 10
-55.5462
 20
8.2724
 30
0.0
 10
-55.5462
 20
8.2724
 30
0.0
 10
-55.5283
 20
6.0631
 30
0.0
 10
-55.5283
 20
6.0631
 30
0.0
 10
-55.5283
 20
6.0631
 30
0.0
 10
-52.942
 20
5.1825
 30
0.0
 10
-51.8653
 20
3.5511
 30
0.0
 10
-50.6313
 20
1.5175
 30
0.0
 10
-50.6313
 20
1.5175
 30
0.0
 10
-49.3973
 20
3.5512
 30
0.0
 10
-48.3205
 20
5.1825
 30
0.0
 10
-45.7342
 20
6.0631
 30
0.0
 10
-45.7342
 20
6.0631
 30
0.0
 10
-45.7342
 20
6.0631
 30
0.0
 10
-45.7163
 20
8.2724
 30
0.0
 10
-45.7163
 20
8.2724
 30
0.0
 10
-45.7163
 20
8.2724
 30
0.0
 10
-42.9498
 20
8.3477
 30
0.0
 10
-40.0223
 20
8.9254
 30
0.0
 10
-40.0437
 20
13.7911
 30
0.0
 10
-40.0437
 20
13.7911
 30
0.0
 10
-40.0223
 20
18.6567
 30
0.0
 10
-42.9498
 20
19.2345
 30
0.0
 10
-45.7163
 20
19.3098
 30
0.0
  0
SPLINE
  5
6D
330
1F
100
AcDbEntity
  8
layer 1
 62
     7
100
AcDbSpline
210
0.0
220
0.0
230
1.0
 70
    11
 71
     3
 72
    52
 73
    48
 74
     0
 42
0.0000000001
 43
0.0000000001
 12
1.0
 22
0.0
 32
0.0
 13
1.0
 23
0.0
 33
0.0
 40
0.0
 40
0.0
 40
0.0
 40
0.0
 40
0.0769230769230769
 40
0.0769230769230769
 40
0.0769230769230769
 40
0.0769230769230769
 40
0.1538461538461539
 40
0.1538461538461539
 40
0.1538461538461539
 40
0.1538461538461539
 40
0.2307692307692308
 40
0.2307692307692308
 40
0.2307692307692308
 40
0.2307692307692308
 40
0.3076923076923077
 40
0.3076923076923077
 40
0.3076923076923077
 40
0.3076923076923077
 40
0.3846153846153846
 40
0.3846153846153846
 40
0.3846153846153846
 40
0.3846153846153846
 40
0.4615384615384616
 40
0.4615384615384616
 40
0.4615384615384616
 40
0.4615384615384616
 40
0.5384615384615384
 40
0.5384615384615384
 40
0.5384615384615384
 40
0.5384615384615384
 40
0.6153846153846154
 40
0.6153846153846154
 40
0.6153846153846154
 40
0.6153846153846154
 40
0.6923076923076923
 40
0.6923076923076923
 40
0.6923076923076923
 40
0.6923076923076923
 40
0.7692307692307693
 40
0.7692307692307693
 40
0.7692307692307693
 40
0.7692307692307693
 40
0.8461538461538461
 40
0.8461538461538461
 40
0.8461538461538461
 40
0.8461538461538461
 40
1.0
 40
1.0
 40
1.0
 40
1.0
 10
-45.7163
 20
-15.1839
 30
0.0
 10
-45.7163
 20
-15.1839
 30
0.0
 10
-45.7342
 20
-12.9746
 30
0.0
 10
-45.7342
 20
-12.9746
 30
0.0
 10
-45.7342
 20
-12.9746
 30
0.0
 10
-48.3205
 20
-12.0941
 30
0.0
 10
-49.3973
 20
-10.4626
 30
0.0
 10
-50.6313
 20
-8.4291
 30
0.0
 10
-50.6313
 20
-8.4291
 30
0.0
 10
-51.8653
 20
-10.4628
 30
0.0
 10
-52.942
 20
-12.0941
 30
0.0
 10
-55.5283
 20
-12.9746
 30
0.0
 10
-55.5283
 20
-12.9746
 30
0.0
 10
-55.5283
 20
-12.9746
 30
0.0
 10
-55.5462
 20
-15.1839
 30
0.0
 10
-55.5462
 20
-15.1839
 30
0.0
 10
-55.5462
 20
-15.1839
 30
0.0
 10
-58.3127
 20
-15.2592
 30
0.0
 10
-61.2402
 20
-15.8369
 30
0.0
 10
-61.2188
 20
-20.7027
 30
0.0
 10
-61.2188
 20
-20.7027
 30
0.0
 10
-61.2402
 20
-25.5683
 30
0.0
 10
-58.3127
 20
-26.1461
 30
0.0
 10
-55.5462
 20
-26.2214
 30
0.0
 10
-55.5462
 20
-26.2214
 30
0.0
 10
-55.5462
 20
-26.2214
 30
0.0
 10
-55.5283
 20
-28.4307
 30
0.0
 10
-55.5283
 20
-28.4307
 30
0.0
 10
-55.5283
 20
-28.4307
 30
0.0
 10
-52.942
 20
-29.3112
 30
0.0
 10
-51.8653
 20
-30.9427
 30
0.0
 10
-50.6313
 20
-32.9762
 30
0.0
 10
-50.6313
 20
-32.9762
 30
0.0
 10
-49.3973
 20
-30.9426
 30
0.0
 10
-48.3205
 20
-29.3112
 30
0.0
 10
-45.7342
 20
-28.4307
 30
0.0
 10
-45.7342
 20
-28.4307
 30
0.0
 10
-45.7342
 20
-28.4307
 30
0.0
 10
-45.7163
 20
-26.2214
 30
0.0
 10
-45.7163
 20
-26.2214
 30
0.0
 10
-45.7163
 20
-26.2214
 30
0.0
 10
-42.9498
 20
-26.1461
 30
0.0
 10
-40.0223
 20
-25.5684
 30
0.0
 10
-40.0437
 20
-20.7027
 30
0.0
 10
-40.0437
 20
-20.7027
 30
0.0
 10
-40.0223
 20
-15.8371
 30
0.0
 10
-42.9498
 20
-15.2592
 30
0.0
 10
-45.7163
 20
-15.1839
 30
0.0
  0
SPLINE
  5
6E
330
1F
100
AcDbEntity
  8
layer 1
 62
     7
100
AcDbSpline
210
0.0
220
0.0
230
1.0
 70
    11
 71
     3
 72
    52
 73
    48
 74
     0
 42
0.0000000001
 43
0.0000000001
 12
1.0
 22
0.0
 32
0.0
 13
1.0
 23
0.0
 33
0.0
 40
0.0
 40
0.0
 40
0.0
 40
0.0
 40
0.0769230769230769
 40
0.0769230769230769
 40
0.0769230769230769
 40
0.0769230769230769
 40
0.1538461538461539
 40
0.1538461538461539
 40
0.1538461538461539
 40
0.1538461538461539
 40
0.2307692307692308
 40
0.2307692307692308
 40
0.2307692307692308
 40
0.2307692307692308
 40
0.3076923076923077
 40
0.3076923076923077
 40
0.3076923076923077
 40
0.3076923076923077
 40
0.3846153846153846
 40
0.3846153846153846
 40
0.3846153846153846
 40
0.3846153846153846
 40
0.4615384615384616
 40
0.4615384615384616
 40
0.4615384615384616
 40
0.4615384615384616
 40
0.5384615384615384
 40
0.5384615384615384
 40
0.5384615384615384
 40
0.5384615384615384
 40
0.6153846153846154
 40
0.6153846153846154
 40
0.6153846153846154
 40
0.6153846153846154
 40
0.6923076923076923
 40
0.6923076923076923
 40
0.6923076923076923
 40
0.6923076923076923
 40
0.7692307692307693
 40
0.7692307692307693
 40
0.7692307692307693
 40
0.7692307692307693
 40
0.8461538461538461
 40
0.8461538461538461
 40
0.8461538461538461
 40
0.8461538461538461
 40
1.0
 40
1.0
 40
1.0
 40
1.0
 10
-45.7163
 20
-49.6777
 30
0.0
 10
-45.7163
 20
-49.6777
 30
0.0
 10
-45.7342
 20
-47.4684
 30
0.0
 10
-45.7342
 20
-47.4684
 30
0.0
 10
-45.7342
 20
-47.4684
 30
0.0
 10
-48.3205
 20
-46.5878
 30
0.0
 10
-49.3973
 20
-44.9564
 30
0.0
 10
-50.6313
 20
-42.9229
 30
0.0
 10
-50.6313
 20
-42.9229
 30
0.0
 10
-51.8653
 20
-44.9565
 30
0.0
 10
-52.942
 20
-46.5878
 30
0.0
 10
-55.5283
 20
-47.4684
 30
0.0
 10
-55.5283
 20
-47.4684
 30
0.0
 10
-55.5283
 20
-47.4684
 30
0.0
 10
-55.5462
 20
-49.6777
 30
0.0
 10
-55.5462
 20
-49.6777
 30
0.0
 10
-55.5462
 20
-49.6777
 30
0.0
 10
-58.3127
 20
-49.753
 30
0.0
 10
-61.2402
 20
-50.3307
 30
0.0
 10
-61.2188
 20
-55.1964
 30
0.0
 10
-61.2188
 20
-55.1964
 30
0.0
 10
-61.2402
 20
-60.062
 30
0.0
 10
-58.3127
 20
-60.6399
 30
0.0
 10
-55.5462
 20
-60.7152
 30
0.0
 10
-55.5462
 20
-60.7152
 30
0.0
 10
-55.5462
 20
-60.7152
 30
0.0
 10
-55.5283
 20
-62.9244
 30
0.0
 10
-55.5283
 20
-62.9244
 30
0.0
 10
-55.5283
 20
-62.9244
 30
0.0
 10
-52.942
 20
-63.805
 30
0.0
 10
-51.8653
 20
-65.4364
 30
0.0
 10
-50.6313
 20
-67.47
 30
0.0
 10
-50.6313
 20
-67.47
 30
0.0
 10
-49.3973
 20
-65.4363
 30
0.0
 10
-48.3205
 20
-63.805
 30
0.0
 10
-45.7342
 20
-62.9244
 30
0.0
 10
-45.7342
 20
-62.9244
 30
0.0
 10
-45.7342
 20
-62.9244
 30
0.0
 10
-45.7163
 20
-60.7152
 30
0.0
 10
-45.7163
 20
-60.7152
 30
0.0
 10
-45.7163
 20
-60.7152
 30
0.0
 10
-42.9498
 20
-60.6399
 30
0.0
 10
-40.0223
 20
-60.0621
 30
0.0
 10
-40.0437
 20
-55.1964
 30
0.0
 10
-40.0437
 20
-55.1964
 30
0.0
 10
-40.0223
 20
-50.3308
 30
0.0
 10
-42.9498
 20
-49.753
 30
0.0
 10
-45.7163
 20
-49.6777
 30
0.0
  0
SPLINE
  5
6F
330
1F
100
AcDbEntity
  8
layer 1
 62
     7
100
AcDbSpline
210
0.0
220
0.0
230
1.0
 70
    11
 71
     3
 72
    52
 73
    48
 74
     0
 42
0.0000000001
 43
0.0000000001
 12
1.0
 22
0.0
 32
0.0
 13
1.0
 23
0.0
 33
0.0
 40
0.0
 40
0.0
 40
0.0
 40
0.0
 40
0.0769230769230769
 40
0.0769230769230769
 40
0.0769230769230769
 40
0.0769230769230769
 40
0.1538461538461539
 40
0.1538461538461539
 40
0.1538461538461539
 40
0.1538461538461539
 40
0.2307692307692308
 40
0.2307692307692308
 40
0.2307692307692308
 40
0.2307692307692308
 40
0.3076923076923077
 40
0.3076923076923077
 40
0.3076923076923077
 40
0.3076923076923077
 40
0.3846153846153846
 40
0.3846153846153846
 40
0.3846153846153846
 40
0.3846153846153846
 40
0.4615384615384616
 40
0.4615384615384616
 40
0.4615384615384616
 40
0.4615384615384616
 40
0.5384615384615384
 40
0.5384615384615384
 40
0.5384615384615384
 40
0.5384615384615384
 40
0.6153846153846154
 40
0.6153846153846154
 40
0.6153846153846154
 40
0.6153846153846154
 40
0.6923076923076923
 40
0.6923076923076923
 40
0.6923076923076923
 40
0.6923076923076923
 40
0.7692307692307693
 40
0.7692307692307693
 40
0.7692307692307693
 40
0.7692307692307693
 40
0.8461538461538461
 40
0.8461538461538461
 40
0.8461538461538461
 40
0.8461538461538461
 40
1.0
 40
1.0
 40
1.0
 40
1.0
 10
-18.6971
 20
53.8036
 30
0.0
 10
-18.6971
 20
53.8036
 30
0.0
 10
-18.715
 20
56.0129
 30
0.0
 10
-18.715
 20
56.0129
 30
0.0
 10
-18.715
 20
56.0129
 30
0.0
 10
-21.3013
 20
56.8934
 30
0.0
 10
-22.378
 20
58.5249
 30
0.0
 10
-23.6121
 20
60.5584
 30
0.0
 10
-23.6121
 20
60.5584
 30
0.0
 10
-24.8461
 20
58.5248
 30
0.0
 10
-25.9228
 20
56.8934
 30
0.0
 10
-28.5091
 20
56.0129
 30
0.0
 10
-28.5091
 20
56.0129
 30
0.0
 10
-28.5091
 20
56.0129
 30
0.0
 10
-28.527
 20
53.8036
 30
0.0
 10
-28.527
 20
53.8036
 30
0.0
 10
-28.527
 20
53.8036
 30
0.0
 10
-31.2935
 20
53.7283
 30
0.0
 10
-34.221
 20
53.1506
 30
0.0
 10
-34.1996
 20
48.2848
 30
0.0
 10
-34.1996
 20
48.2848
 30
0.0
 10
-34.221
 20
43.4193
 30
0.0
 10
-31.2935
 20
42.8414
 30
0.0
 10
-28.527
 20
42.7661
 30
0.0
 10
-28.527
 20
42.7661
 30
0.0
 10
-28.527
 20
42.7661
 30
0.0
 10
-28.5091
 20
40.5568
 30
0.0
 10
-28.5091
 20
40.5568
 30
0.0
 10
-28.5091
 20
40.5568
 30
0.0
 10
-25.9228
 20
39.6763
 30
0.0
 10
-24.8461
 20
38.0448
 30
0.0
 10
-23.6121
 20
36.0113
 30
0.0
 10
-23.6121
 20
36.0113
 30
0.0
 10
-22.378
 20
38.0449
 30
0.0
 10
-21.3013
 20
39.6763
 30
0.0
 10
-18.715
 20
40.5568
 30
0.0
 10
-18.715
 20
40.5568
 30
0.0
 10
-18.715
 20
40.5568
 30
0.0
 10
-18.6971
 20
42.7661
 30
0.0
 10
-18.6971
 20
42.7661
 30
0.0
 10
-18.6971
 20
42.7661
 30
0.0
 10
-15.9306
 20
42.8414
 30
0.0
 10
-13.0031
 20
43.4191
 30
0.0
 10
-13.0245
 20
48.2848
 30
0.0
 10
-13.0245
 20
48.2848
 30
0.0
 10
-13.0031
 20
53.1504
 30
0.0
 10
-15.9306
 20
53.7283
 30
0.0
 10
-18.6971
 20
53.8036
 30
0.0
  0
SPLINE
  5
70
330
1F
100
AcDbEntity
  8
layer 1
 62
     7
100
AcDbSpline
210
0.0
220
0.0
230
1.0
 70
    11
 71
     3
 72
    52
 73
    48
 74
     0
 42
0.0000000001
 43
0.0000000001
 12
1.0
 22
0.0
 32
0.0
 13
1.0
 23
0.0
 33
0.0
 40
0.0
 40
0.0
 40
0.0
 40
0.0
 40
0.0769230769230769
 40
0.0769230769230769
 40
0.0769230769230769
 40
0.0769230769230769
 40
0.1538461538461539
 40
0.1538461538461539
 40
0.1538461538461539
 40
0.1538461538461539
 40
0.2307692307692308
 40
0.2307692307692308
 40
0.2307692307692308
 40
0.2307692307692308
 40
0.3076923076923077
 40
0.3076923076923077
 40
0.3076923076923077
 40
0.3076923076923077
 40
0.3846153846153846
 40
0.3846153846153846
 40
0.3846153846153846
 40
0.3846153846153846
 40
0.4615384615384616
 40
0.4615384615384616
 40
0.4615384615384616
 40
0.4615384615384616
 40
0.5384615384615384
 40
0.5384615384615384
 40
0.5384615384615384
 40
0.5384615384615384
 40
0.6153846153846154
 40
0.6153846153846154
 40
0.6153846153846154
 40
0.6153846153846154
 40
0.6923076923076923
 40
0.6923076923076923
 40
0.6923076923076923
 40
0.6923076923076923
 40
0.7692307692307693
 40
0.7692307692307693
 40
0.7692307692307693
 40
0.7692307692307693
 40
0.8461538461538461
 40
0.8461538461538461
 40
0.8461538461538461
 40
0.8461538461538461
 40
1.0
 40
1.0
 40
1.0
 40
1.0
 10
-18.6971
 20
19.3098
 30
0.0
 10
-18.6971
 20
19.3098
 30
0.0
 10
-18.715
 20
21.5191
 30
0.0
 10
-18.715
 20
21.5191
 30
0.0
 10
-18.715
 20
21.5191
 30
0.0
 10
-21.3013
 20
22.3997
 30
0.0
 10
-22.378
 20
24.0311
 30
0.0
 10
-23.6121
 20
26.0647
 30
0.0
 10
-23.6121
 20
26.0647
 30
0.0
 10
-24.8461
 20
24.031
 30
0.0
 10
-25.9228
 20
22.3997
 30
0.0
 10
-28.5091
 20
21.5191
 30
0.0
 10
-28.5091
 20
21.5191
 30
0.0
 10
-28.5091
 20
21.5191
 30
0.0
 10
-28.527
 20
19.3098
 30
0.0
 10
-28.527
 20
19.3098
 30
0.0
 10
-28.527
 20
19.3098
 30
0.0
 10
-31.2935
 20
19.2345
 30
0.0
 10
-34.221
 20
18.6568
 30
0.0
 10
-34.1996
 20
13.7911
 30
0.0
 10
-34.1996
 20
13.7911
 30
0.0
 10
-34.221
 20
8.9255
 30
0.0
 10
-31.2935
 20
8.3477
 30
0.0
 10
-28.527
 20
8.2724
 30
0.0
 10
-28.527
 20
8.2724
 30
0.0
 10
-28.527
 20
8.2724
 30
0.0
 10
-28.5091
 20
6.0631
 30
0.0
 10
-28.5091
 20
6.0631
 30
0.0
 10
-28.5091
 20
6.0631
 30
0.0
 10
-25.9228
 20
5.1825
 30
0.0
 10
-24.8461
 20
3.5511
 30
0.0
 10
-23.6121
 20
1.5175
 30
0.0
 10
-23.6121
 20
1.5175
 30
0.0
 10
-22.378
 20
3.5512
 30
0.0
 10
-21.3013
 20
5.1825
 30
0.0
 10
-18.715
 20
6.0631
 30
0.0
 10
-18.715
 20
6.0631
 30
0.0
 10
-18.715
 20
6.0631
 30
0.0
 10
-18.6971
 20
8.2724
 30
0.0
 10
-18.6971
 20
8.2724
 30
0.0
 10
-18.6971
 20
8.2724
 30
0.0
 10
-15.9306
 20
8.3477
 30
0.0
 10
-13.0031
 20
8.9254
 30
0.0
 10
-13.0245
 20
13.7911
 30
0.0
 10
-13.0245
 20
13.7911
 30
0.0
 10
-13.0031
 20
18.6567
 30
0.0
 10
-15.9306
 20
19.2345
 30
0.0
 10
-18.6971
 20
19.3098
 30
0.0
  0
SPLINE
  5
71
330
1F
100
AcDbEntity
  8
layer 1
 62
     7
100
AcDbSpline
210
0.0
220
0.0
230
1.0
 70
    11
 71
     3
 72
    52
 73
    48
 74
     0
 42
0.0000000001
 43
0.0000000001
 12
1.0
 22
0.0
 32
0.0
 13
1.0
 23
0.0
 33
0.0
 40
0.0
 40
0.0
 40
0.0
 40
0.0
 40
0.0769230769230769
 40
0.0769230769230769
 40
0.0769230769230769
 40
0.0769230769230769
 40
0.1538461538461539
 40
0.1538461538461539
 40
0.1538461538461539
 40
0.1538461538461539
 40
0.2307692307692308
 40
0.2307692307692308
 40
0.2307692307692308
 40
0.2307692307692308
 40
0.3076923076923077
 40
0.3076923076923077
 40
0.3076923076923077
 40
0.3076923076923077
 40
0.3846153846153846
 40
0.3846153846153846
 40
0.3846153846153846
 40
0.3846153846153846
 40
0.4615384615384616
 40
0.4615384615384616
 40
0.4615384615384616
 40
0.4615384615384616
 40
0.5384615384615384
 40
0.5384615384615384
 40
0.5384615384615384
 40
0.5384615384615384
 40
0.6153846153846154
 40
0.6153846153846154
 40
0.6153846153846154
 40
0.6153846153846154
 40
0.6923076923076923
 40
0.6923076923076923
 40
0.6923076923076923
 40
0.6923076923076923
 40
0.7692307692307693
 40
0.7692307692307693
 40
0.7692307692307693
 40
0.7692307692307693
 40
0.8461538461538461
 40
0.8461538461538461
 40
0.8461538461538461
 40
0.8461538461538461
 40
1.0
 40
1.0
 40
1.0
 40
1.0
 10
-18.6971
 20
-15.1839
 30
0.0
 10
-18.6971
 20
-15.1839
 30
0.0
 10
-18.715
 20
-12.9746
 30
0.0
 10
-18.715
 20
-12.9746
 30
0.0
 10
-18.715
 20
-12.9746
 30
0.0
 10
-21.3013
 20
-12.0941
 30
0.0
 10
-22.378
 20
-10.4626
 30
0.0
 10
-23.6121
 20
-8.4291
 30
0.0
 10
-23.6121
 20
-8.4291
 30
0.0
 10
-24.8461
 20
-10.4628
 30
0.0
 10
-25.9228
 20
-12.0941
 30
0.0
 10
-28.5091
 20
-12.9746
 30
0.0
 10
-28.5091
 20
-12.9746
 30
0.0
 10
-28.5091
 20
-12.9746
 30
0.0
 10
-28.527
 20
-15.1839
 30
0.0
 10
-28.527
 20
-15.1839
 30
0.0
 10
-28.527
 20
-15.1839
 30
0.0
 10
-31.2935
 20
-15.2592
 30
0.0
 10
-34.221
 20
-15.8369
 30
0.0
 10
-34.1996
 20
-20.7027
 30
0.0
 10
-34.1996
 20
-20.7027
 30
0.0
 10
-34.221
 20
-25.5683
 30
0.0
 10
-31.2935
 20
-26.1461
 30
0.0
 10
-28.527
 20
-26.2214
 30
0.0
 10
-28.527
 20
-26.2214
 30
0.0
 10
-28.527
 20
-26.2214
 30
0.0
 10
-28.5091
 20
-28.4307
 30
0.0
 10
-28.5091
 20
-28.4307
 30
0.0
 10
-28.5091
 20
-28.4307
 30
0.0
 10
-25.9228
 20
-29.3112
 30
0.0
 10
-24.8461
 20
-30.9427
 30
0.0
 10
-23.6121
 20
-32.9762
 30
0.0
 10
-23.6121
 20
-32.9762
 30
0.0
 10
-22.378
 20
-30.9426
 30
0.0
 10
-21.3013
 20
-29.3112
 30
0.0
 10
-18.715
 20
-28.4307
 30
0.0
 10
-18.715
 20
-28.4307
 30
0.0
 10
-18.715
 20
-28.4307
 30
0.0
 10
-18.6971
 20
-26.2214
 30
0.0
 10
-18.6971
 20
-26.2214
 30
0.0
 10
-18.6971
 20
-26.2214
 30
0.0
 10
-15.9306
 20
-26.1461
 30
0.0
 10
-13.0031
 20
-25.5684
 30
0.0
 10
-13.0245
 20
-20.7027
 30
0.0
 10
-13.0245
 20
-20.7027
 30
0.0
 10
-13.0031
 20
-15.8371
 30
0.0
 10
-15.9306
 20
-15.2592
 30
0.0
 10
-18.6971
 20
-15.1839
 30
0.0
  0
SPLINE
  5
72
330
1F
100
AcDbEntity
  8
layer 1
 62
     7
100
AcDbSpline
210
0.0
220
0.0
230
1.0
 70
    11
 71
     3
 72
    52
 73
    48
 74
     0
 42
0.0000000001
 43
0.0000000001
 12
1.0
 22
0.0
 32
0.0
 13
1.0
 23
0.0
 33
0.0
 40
0.0
 40
0.0
 40
0.0
 40
0.0
 40
0.0769230769230769
 40
0.0769230769230769
 40
0.0769230769230769
 40
0.0769230769230769
 40
0.1538461538461539
 40
0.1538461538461539
 40
0.1538461538461539
 40
0.1538461538461539
 40
0.2307692307692308
 40
0.2307692307692308
 40
0.2307692307692308
 40
0.2307692307692308
 40
0.3076923076923077
 40
0.3076923076923077
 40
0.3076923076923077
 40
0.3076923076923077
 40
0.3846153846153846
 40
0.3846153846153846
 40
0.3846153846153846
 40
0.3846153846153846
 40
0.4615384615384616
 40
0.4615384615384616
 40
0.4615384615384616
 40
0.4615384615384616
 40
0.5384615384615384
 40
0.5384615384615384
 40
0.5384615384615384
 40
0.5384615384615384
 40
0.6153846153846154
 40
0.6153846153846154
 40
0.6153846153846154
 40
0.6153846153846154
 40
0.6923076923076923
 40
0.6923076923076923
 40
0.6923076923076923
 40
0.6923076923076923
 40
0.7692307692307693
 40
0.7692307692307693
 40
0.7692307692307693
 40
0.7692307692307693
 40
0.8461538461538461
 40
0.8461538461538461
 40
0.8461538461538461
 40
0.8461538461538461
 40
1.0
 40
1.0
 40
1.0
 40
1.0
 10
-18.6971
 20
-49.6777
 30
0.0
 10
-18.6971
 20
-49.6777
 30
0.0
 10
-18.715
 20
-47.4684
 30
0.0
 10
-18.715
 20
-47.4684
 30
0.0
 10
-18.715
 20
-47.4684
 30
0.0
 10
-21.3013
 20
-46.5878
 30
0.0
 10
-22.378
 20
-44.9564
 30
0.0
 10
-23.6121
 20
-42.9229
 30
0.0
 10
-23.6121
 20
-42.9229
 30
0.0
 10
-24.8461
 20
-44.9565
 30
0.0
 10
-25.9228
 20
-46.5878
 30
0.0
 10
-28.5091
 20
-47.4684
 30
0.0
 10
-28.5091
 20
-47.4684
 30
0.0
 10
-28.5091
 20
-47.4684
 30
0.0
 10
-28.527
 20
-49.6777
 30
0.0
 10
-28.527
 20
-49.6777
 30
0.0
 10
-28.527
 20
-49.6777
 30
0.0
 10
-31.2935
 20
-49.753
 30
0.0
 10
-34.221
 20
-50.3307
 30
0.0
 10
-34.1996
 20
-55.1964
 30
0.0
 10
-34.1996
 20
-55.1964
 30
0.0
 10
-34.221
 20
-60.062
 30
0.0
 10
-31.2935
 20
-60.6399
 30
0.0
 10
-28.527
 20
-60.7152
 30
0.0
 10
-28.527
 20
-60.7152
 30
0.0
 10
-28.527
 20
-60.7152
 30
0.0
 10
-28.5091
 20
-62.9244
 30
0.0
 10
-28.5091
 20
-62.9244
 30
0.0
 10
-28.5091
 20
-62.9244
 30
0.0
 10
-25.9228
 20
-63.805
 30
0.0
 10
-24.8461
 20
-65.4364
 30
0.0
 10
-23.6121
 20
-67.47
 30
0.0
 10
-23.6121
 20
-67.47
 30
0.0
 10
-22.378
 20
-65.4363
 30
0.0
 10
-21.3013
 20
-63.805
 30
0.0
 10
-18.715
 20
-62.9244
 30
0.0
 10
-18.715
 20
-62.9244
 30
0.0
 10
-18.715
 20
-62.9244
 30
0.0
 10
-18.6971
 20
-60.7152
 30
0.0
 10
-18.6971
 20
-60.7152
 30
0.0
 10
-18.6971
 20
-60.7152
 30
0.0
 10
-15.9306
 20
-60.6399
 30
0.0
 10
-13.0031
 20
-60.0621
 30
0.0
 10
-13.0245
 20
-55.1964
 30
0.0
 10
-13.0245
 20
-55.1964
 30
0.0
 10
-13.0031
 20
-50.3308
 30
0.0
 10
-15.9306
 20
-49.753
 30
0.0
 10
-18.6971
 20
-49.6777
 30
0.0
  0
SPLINE
  5
73
330
1F
100
AcDbEntity
  8
layer 1
 62
     7
100
AcDbSpline
210
0.0
220
0.0
230
1.0
 70
    11
 71
     3
 72
    52
 73
    48
 74
     0
 42
0.0000000001
 43
0.0000000001
 12
1.0
 22
0.0
 32
0.0
 13
1.0
 23
0.0
 33
0.0
 40
0.0
 40
0.0
 40
0.0
 40
0.0
 40
0.0769230769230769
 40
0.0769230769230769
 40
0.0769230769230769
 40
0.0769230769230769
 40
0.1538461538461539
 40
0.1538461538461539
 40
0.1538461538461539
 40
0.1538461538461539
 40
0.2307692307692308
 40
0.2307692307692308
 40
0.2307692307692308
 40
0.2307692307692308
 40
0.3076923076923077
 40
0.3076923076923077
 40
0.3076923076923077
 40
0.3076923076923077
 40
0.3846153846153846
 40
0.3846153846153846
 40
0.3846153846153846
 40
0.3846153846153846
 40
0.4615384615384616
 40
0.4615384615384616
 40
0.4615384615384616
 40
0.4615384615384616
 40
0.5384615384615384
 40
0.5384615384615384
 40
0.5384615384615384
 40
0.5384615384615384
 40
0.6153846153846154
 40
0.6153846153846154
 40
0.6153846153846154
 40
0.6153846153846154
 40
0.6923076923076923
 40
0.6923076923076923
 40
0.6923076923076923
 40
0.6923076923076923
 40
0.7692307692307693
 40
0.7692307692307693
 40
0.7692307692307693
 40
0.7692307692307693
 40
0.8461538461538461
 40
0.8461538461538461
 40
0.8461538461538461
 40
0.8461538461538461
 40
1.0
 40
1.0
 40
1.0
 40
1.0
 10
8.3221
 20
53.8036
 30
0.0
 10
8.3221
 20
53.8036
 30
0.0
 10
8.3042
 20
56.0129
 30
0.0
 10
8.3042
 20
56.0129
 30
0.0
 10
8.3042
 20
56.0129
 30
0.0
 10
5.7179
 20
56.8934
 30
0.0
 10
4.6412
 20
58.5249
 30
0.0
 10
3.4072
 20
60.5584
 30
0.0
 10
3.4072
 20
60.5584
 30
0.0
 10
2.1732
 20
58.5248
 30
0.0
 10
1.0964
 20
56.8934
 30
0.0
 10
-1.4899
 20
56.0129
 30
0.0
 10
-1.4899
 20
56.0129
 30
0.0
 10
-1.4899
 20
56.0129
 30
0.0
 10
-1.5078
 20
53.8036
 30
0.0
 10
-1.5078
 20
53.8036
 30
0.0
 10
-1.5078
 20
53.8036
 30
0.0
 10
-4.2743
 20
53.7283
 30
0.0
 10
-7.2018
 20
53.1506
 30
0.0
 10
-7.1804
 20
48.2848
 30
0.0
 10
-7.1804
 20
48.2848
 30
0.0
 10
-7.2018
 20
43.4193
 30
0.0
 10
-4.2743
 20
42.8414
 30
0.0
 10
-1.5078
 20
42.7661
 30
0.0
 10
-1.5078
 20
42.7661
 30
0.0
 10
-1.5078
 20
42.7661
 30
0.0
 10
-1.4899
 20
40.5568
 30
0.0
 10
-1.4899
 20
40.5568
 30
0.0
 10
-1.4899
 20
40.5568
 30
0.0
 10
1.0964
 20
39.6763
 30
0.0
 10
2.1732
 20
38.0448
 30
0.0
 10
3.4072
 20
36.0113
 30
0.0
 10
3.4072
 20
36.0113
 30
0.0
 10
4.6412
 20
38.0449
 30
0.0
 10
5.7179
 20
39.6763
 30
0.0
 10
8.3042
 20
40.5568
 30
0.0
 10
8.3042
 20
40.5568
 30
0.0
 10
8.3042
 20
40.5568
 30
0.0
 10
8.3221
 20
42.7661
 30
0.0
 10
8.3221
 20
42.7661
 30
0.0
 10
8.3221
 20
42.7661
 30
0.0
 10
11.0886
 20
42.8414
 30
0.0
 10
14.0161
 20
43.4191
 30
0.0
 10
13.9947
 20
48.2848
 30
0.0
 10
13.9947
 20
48.2848
 30
0.0
 10
14.0161
 20
53.1504
 30
0.0
 10
11.0886
 20
53.7283
 30
0.0
 10
8.3221
 20
53.8036
 30
0.0
  0
SPLINE
  5
74
330
1F
100
AcDbEntity
  8
layer 1
 62
     7
100
AcDbSpline
210
0.0
220
0.0
230
1.0
 70
    11
 71
     3
 72
    52
 73
    48
 74
     0
 42
0.0000000001
 43
0.0000000001
 12
1.0
 22
0.0
 32
0.0
 13
1.0
 23
0.0
 33
0.0
 40
0.0
 40
0.0
 40
0.0
 40
0.0
 40
0.0769230769230769
 40
0.0769230769230769
 40
0.0769230769230769
 40
0.0769230769230769
 40
0.1538461538461539
 40
0.1538461538461539
 40
0.1538461538461539
 40
0.1538461538461539
 40
0.2307692307692308
 40
0.2307692307692308
 40
0.2307692307692308
 40
0.2307692307692308
 40
0.3076923076923077
 40
0.3076923076923077
 40
0.3076923076923077
 40
0.3076923076923077
 40
0.3846153846153846
 40
0.3846153846153846
 40
0.3846153846153846
 40
0.3846153846153846
 40
0.4615384615384616
 40
0.4615384615384616
 40
0.4615384615384616
 40
0.4615384615384616
 40
0.5384615384615384
 40
0.5384615384615384
 40
0.5384615384615384
 40
0.5384615384615384
 40
0.6153846153846154
 40
0.6153846153846154
 40
0.6153846153846154
 40
0.6153846153846154
 40
0.6923076923076923
 40
0.6923076923076923
 40
0.6923076923076923
 40
0.6923076923076923
 40
0.7692307692307693
 40
0.7692307692307693
 40
0.7692307692307693
 40
0.7692307692307693
 40
0.8461538461538461
 40
0.8461538461538461
 40
0.8461538461538461
 40
0.8461538461538461
 40
1.0
 40
1.0
 40
1.0
 40
1.0
 10
8.3221
 20
19.3098
 30
0.0
 10
8.3221
 20
19.3098
 30
0.0
 10
8.3042
 20
21.5191
 30
0.0
 10
8.3042
 20
21.5191
 30
0.0
 10
8.3042
 20
21.5191
 30
0.0
 10
5.7179
 20
22.3997
 30
0.0
 10
4.6412
 20
24.0311
 30
0.0
 10
3.4072
 20
26.0647
 30
0.0
 10
3.4072
 20
26.0647
 30
0.0
 10
2.1732
 20
24.031
 30
0.0
 10
1.0964
 20
22.3997
 30
0.0
 10
-1.4899
 20
21.5191
 30
0.0
 10
-1.4899
 20
21.5191
 30
0.0
 10
-1.4899
 20
21.5191
 30
0.0
 10
-1.5078
 20
19.3098
 30
0.0
 10
-1.5078
 20
19.3098
 30
0.0
 10
-1.5078
 20
19.3098
 30
0.0
 10
-4.2743
 20
19.2345
 30
0.0
 10
-7.2018
 20
18.6568
 30
0.0
 10
-7.1804
 20
13.7911
 30
0.0
 10
-7.1804
 20
13.7911
 30
0.0
 10
-7.2018
 20
8.9255
 30
0.0
 10
-4.2743
 20
8.3477
 30
0.0
 10
-1.5078
 20
8.2724
 30
0.0
 10
-1.5078
 20
8.2724
 30
0.0
 10
-1.5078
 20
8.2724
 30
0.0
 10
-1.4899
 20
6.0631
 30
0.0
 10
-1.4899
 20
6.0631
 30
0.0
 10
-1.4899
 20
6.0631
 30
0.0
 10
1.0964
 20
5.1825
 30
0.0
 10
2.1732
 20
3.5511
 30
0.0
 10
3.4072
 20
1.5175
 30
0.0
 10
3.4072
 20
1.5175
 30
0.0
 10
4.6412
 20
3.5512
 30
0.0
 10
5.7179
 20
5.1825
 30
0.0
 10
8.3042
 20
6.0631
 30
0.0
 10
8.3042
 20
6.0631
 30
0.0
 10
8.3042
 20
6.0631
 30
0.0
 10
8.3221
 20
8.2724
 30
0.0
 10
8.3221
 20
8.2724
 30
0.0
 10
8.3221
 20
8.2724
 30
0.0
 10
11.0886
 20
8.3477
 30
0.0
 10
14.0161
 20
8.9254
 30
0.0
 10
13.9947
 20
13.7911
 30
0.0
 10
13.9947
 20
13.7911
 30
0.0
 10
14.0161
 20
18.6567
 30
0.0
 10
11.0886
 20
19.2345
 30
0.0
 10
8.3221
 20
19.3098
 30
0.0
  0
SPLINE
  5
75
330
1F
100
AcDbEntity
  8
layer 1
 62
     7
100
AcDbSpline
210
0.0
220
0.0
230
1.0
 70
    11
 71
     3
 72
    52
 73
    48
 74
     0
 42
0.0000000001
 43
0.0000000001
 12
1.0
 22
0.0
 32
0.0
 13
1.0
 23
0.0
 33
0.0
 40
0.0
 40
0.0
 40
0.0
 40
0.0
 40
0.0769230769230769
 40
0.0769230769230769
 40
0.0769230769230769
 40
0.0769230769230769
 40
0.1538461538461539
 40
0.1538461538461539
 40
0.1538461538461539
 40
0.1538461538461539
 40
0.2307692307692308
 40
0.2307692307692308
 40
0.2307692307692308
 40
0.2307692307692308
 40
0.3076923076923077
 40
0.3076923076923077
 40
0.3076923076923077
 40
0.3076923076923077
 40
0.3846153846153846
 40
0.3846153846153846
 40
0.3846153846153846
 40
0.3846153846153846
 40
0.4615384615384616
 40
0.4615384615384616
 40
0.4615384615384616
 40
0.4615384615384616
 40
0.5384615384615384
 40
0.5384615384615384
 40
0.5384615384615384
 40
0.5384615384615384
 40
0.6153846153846154
 40
0.6153846153846154
 40
0.6153846153846154
 40
0.6153846153846154
 40
0.6923076923076923
 40
0.6923076923076923
 40
0.6923076923076923
 40
0.6923076923076923
 40
0.7692307692307693
 40
0.7692307692307693
 40
0.7692307692307693
 40
0.7692307692307693
 40
0.8461538461538461
 40
0.8461538461538461
 40
0.8461538461538461
 40
0.8461538461538461
 40
1.0
 40
1.0
 40
1.0
 40
1.0
 10
8.3221
 20
-15.1839
 30
0.0
 10
8.3221
 20
-15.1839
 30
0.0
 10
8.3042
 20
-12.9746
 30
0.0
 10
8.3042
 20
-12.9746
 30
0.0
 10
8.3042
 20
-12.9746
 30
0.0
 10
5.7179
 20
-12.0941
 30
0.0
 10
4.6412
 20
-10.4626
 30
0.0
 10
3.4072
 20
-8.4291
 30
0.0
 10
3.4072
 20
-8.4291
 30
0.0
 10
2.1732
 20
-10.4628
 30
0.0
 10
1.0964
 20
-12.0941
 30
0.0
 10
-1.4899
 20
-12.9746
 30
0.0
 10
-1.4899
 20
-12.9746
 30
0.0
 10
-1.4899
 20
-12.9746
 30
0.0
 10
-1.5078
 20
-15.1839
 30
0.0
 10
-1.5078
 20
-15.1839
 30
0.0
 10
-1.5078
 20
-15.1839
 30
0.0
 10
-4.2743
 20
-15.2592
 30
0.0
 10
-7.2018
 20
-15.8369
 30
0.0
 10
-7.1804
 20
-20.7027
 30
0.0
 10
-7.1804
 20
-20.7027
 30
0.0
 10
-7.2018
 20
-25.5683
 30
0.0
 10
-4.2743
 20
-26.1461
 30
0.0
 10
-1.5078
 20
-26.2214
 30
0.0
 10
-1.5078
 20
-26.2214
 30
0.0
 10
-1.5078
 20
-26.2214
 30
0.0
 10
-1.4899
 20
-28.4307
 30
0.0
 10
-1.4899
 20
-28.4307
 30
0.0
 10
-1.4899
 20
-28.4307
 30
0.0
 10
1.0964
 20
-29.3112
 30
0.0
 10
2.1732
 20
-30.9427
 30
0.0
 10
3.4072
 20
-32.9762
 30
0.0
 10
3.4072
 20
-32.9762
 30
0.0
 10
4.6412
 20
-30.9426
 30
0.0
 10
5.7179
 20
-29.3112
 30
0.0
 10
8.3042
 20
-28.4307
 30
0.0
 10
8.3042
 20
-28.4307
 30
0.0
 10
8.3042
 20
-28.4307
 30
0.0
 10
8.3221
 20
-26.2214
 30
0.0
 10
8.3221
 20
-26.2214
 30
0.0
 10
8.3221
 20
-26.2214
 30
0.0
 10
11.0886
 20
-26.1461
 30
0.0
 10
14.0161
 20
-25.5684
 30
0.0
 10
13.9947
 20
-20.7027
 30
0.0
 10
13.9947
 20
-20.7027
 30
0.0
 10
14.0161
 20
-15.8371
 30
0.0
 10
11.0886
 20
-15.2592
 30
0.0
 10
8.3221
 20
-15.1839
 30
0.0
  0
SPLINE
  5
76
330
1F
100
AcDbEntity
  8
layer 1
 62
     7
100
AcDbSpline
210
0.0
220
0.0
230
1.0
 70
    11
 71
     3
 72
    52
 73
    48
 74
     0
 42
0.0000000001
 43
0.0000000001
 12
1.0
 22
0.0
 32
0.0
 13
1.0
 23
0.0
 33
0.0
 40
0.0
 40
0.0
 40
0.0
 40
0.0
 40
0.0769230769230769
 40
0.0769230769230769
 40
0.0769230769230769
 40
0.0769230769230769
 40
0.1538461538461539
 40
0.1538461538461539
 40
0.1538461538461539
 40
0.1538461538461539
 40
0.2307692307692308
 40
0.2307692307692308
 40
0.2307692307692308
 40
0.2307692307692308
 40
0.3076923076923077
 40
0.3076923076923077
 40
0.3076923076923077
 40
0.3076923076923077
 40
0.3846153846153846
 40
0.3846153846153846
 40
0.3846153846153846
 40
0.3846153846153846
 40
0.4615384615384616
 40
0.4615384615384616
 40
0.4615384615384616
 40
0.4615384615384616
 40
0.5384615384615384
 40
0.5384615384615384
 40
0.5384615384615384
 40
0.5384615384615384
 40
0.6153846153846154
 40
0.6153846153846154
 40
0.6153846153846154
 40
0.6153846153846154
 40
0.6923076923076923
 40
0.6923076923076923
 40
0.6923076923076923
 40
0.6923076923076923
 40
0.7692307692307693
 40
0.7692307692307693
 40
0.7692307692307693
 40
0.7692307692307693
 40
0.8461538461538461
 40
0.8461538461538461
 40
0.8461538461538461
 40
0.8461538461538461
 40
1.0
 40
1.0
 40
1.0
 40
1.0
 10
8.3221
 20
-49.6777
 30
0.0
 10
8.3221
 20
-49.6777
 30
0.0
 10
8.3042
 20
-47.4684
 30
0.0
 10
8.3042
 20
-47.4684
 30
0.0
 10
8.3042
 20
-47.4684
 30
0.0
 10
5.7179
 20
-46.5878
 30
0.0
 10
4.6412
 20
-44.9564
 30
0.0
 10
3.4072
 20
-42.9229
 30
0.0
 10
3.4072
 20
-42.9229
 30
0.0
 10
2.1732
 20
-44.9565
 30
0.0
 10
1.0964
 20
-46.5878
 30
0.0
 10
-1.4899
 20
-47.4684
 30
0.0
 10
-1.4899
 20
-47.4684
 30
0.0
 10
-1.4899
 20
-47.4684
 30
0.0
 10
-1.5078
 20
-49.6777
 30
0.0
 10
-1.5078
 20
-49.6777
 30
0.0
 10
-1.5078
 20
-49.6777
 30
0.0
 10
-4.2743
 20
-49.753
 30
0.0
 10
-7.2018
 20
-50.3307
 30
0.0
 10
-7.1804
 20
-55.1964
 30
0.0
 10
-7.1804
 20
-55.1964
 30
0.0
 10
-7.2018
 20
-60.062
 30
0.0
 10
-4.2743
 20
-60.6399
 30
0.0
 10
-1.5078
 20
-60.7152
 30
0.0
 10
-1.5078
 20
-60.7152
 30
0.0
 10
-1.5078
 20
-60.7152
 30
0.0
 10
-1.4899
 20
-62.9244
 30
0.0
 10
-1.4899
 20
-62.9244
 30
0.0
 10
-1.4899
 20
-62.9244
 30
0.0
 10
1.0964
 20
-63.805
 30
0.0
 10
2.1732
 20
-65.4364
 30
0.0
 10
3.4072
 20
-67.47
 30
0.0
 10
3.4072
 20
-67.47
 30
0.0
 10
4.6412
 20
-65.4363
 30
0.0
 10
5.7179
 20
-63.805
 30
0.0
 10
8.3042
 20
-62.9244
 30
0.0
 10
8.3042
 20
-62.9244
 30
0.0
 10
8.3042
 20
-62.9244
 30
0.0
 10
8.3221
 20
-60.7152
 30
0.0
 10
8.3221
 20
-60.7152
 30
0.0
 10
8.3221
 20
-60.7152
 30
0.0
 10
11.0886
 20
-60.6399
 30
0.0
 10
14.0161
 20
-60.0621
 30
0.0
 10
13.9947
 20
-55.1964
 30
0.0
 10
13.9947
 20
-55.1964
 30
0.0
 10
14.0161
 20
-50.3308
 30
0.0
 10
11.0886
 20
-49.753
 30
0.0
 10
8.3221
 20
-49.6777
 30
0.0
  0
SPLINE
  5
77
330
1F
100
AcDbEntity
  8
layer 1
 62
     7
100
AcDbSpline
210
0.0
220
0.0
230
1.0
 70
    11
 71
     3
 72
    32
 73
    28
 74
     0
 42
0.0000000001
 43
0.0000000001
 12
1.0
 22
0.0
 32
0.0
 13
1.0
 23
0.0
 33
0.0
 40
0.0
 40
0.0
 40
0.0
 40
0.0
 40
0.125
 40
0.125
 40
0.125
 40
0.125
 40
0.25
 40
0.25
 40
0.25
 40
0.25
 40
0.375
 40
0.375
 40
0.375
 40
0.375
 40
0.5
 40
0.5
 40
0.5
 40
0.5
 40
0.625
 40
0.625
 40
0.625
 40
0.625
 40
0.75
 40
0.75
 40
0.75
 40
0.75
 40
1.0
 40
1.0
 40
1.0
 40
1.0
 10
-99.9006
 20
53.8036
 30
0.0
 10
-99.9006
 20
53.8036
 30
0.0
 10
-99.9185
 20
56.0129
 30
0.0
 10
-99.9185
 20
56.0129
 30
0.0
 10
-99.9185
 20
56.0129
 30
0.0
 10
-102.5048
 20
56.8934
 30
0.0
 10
-103.5815
 20
58.5249
 30
0.0
 10
-104.8155
 20
60.5584
 30
0.0
 10
-104.8155
 20
60.5584
 30
0.0
 10
-104.8155
 20
60.5584
 30
0.0
 10
-104.8155
 20
36.0113
 30
0.0
 10
-104.8155
 20
36.0113
 30
0.0
 10
-104.8155
 20
36.0113
 30
0.0
 10
-103.5815
 20
38.0449
 30
0.0
 10
-102.5048
 20
39.6763
 30
0.0
 10
-99.9185
 20
40.5568
 30
0.0
 10
-99.9185
 20
40.5568
 30
0.0
 10
-99.9185
 20
40.5568
 30
0.0
 10
-99.9006
 20
42.7661
 30
0.0
 10
-99.9006
 20
42.7661
 30
0.0
 10
-99.9006
 20
42.7661
 30
0.0
 10
-97.1341
 20
42.8414
 30
0.0
 10
-94.2066
 20
43.4191
 30
0.0
 10
-94.228
 20
48.2848
 30
0.0
 10
-94.228
 20
48.2848
 30
0.0
 10
-94.2066
 20
53.1504
 30
0.0
 10
-97.1341
 20
53.7283
 30
0.0
 10
-99.9006
 20
53.8036
 30
0.0
  0
SPLINE
  5
78
330
1F
100
AcDbEntity
  8
layer 1
 62
     7
100
AcDbSpline
210
0.0
220
0.0
230
1.0
 70
    11
 71
     3
 72
    32
 73
    28
 74
     0
 42
0.0000000001
 43
0.0000000001
 12
1.0
 22
0.0
 32
0.0
 13
1.0
 23
0.0
 33
0.0
 40
0.0
 40
0.0
 40
0.0
 40
0.0
 40
0.125
 40
0.125
 40
0.125
 40
0.125
 40
0.25
 40
0.25
 40
0.25
 40
0.25
 40
0.375
 40
0.375
 40
0.375
 40
0.375
 40
0.5
 40
0.5
 40
0.5
 40
0.5
 40
0.625
 40
0.625
 40
0.625
 40
0.625
 40
0.75
 40
0.75
 40
0.75
 40
0.75
 40
1.0
 40
1.0
 40
1.0
 40
1.0
 10
-99.9006
 20
19.3098
 30
0.0
 10
-99.9006
 20
19.3098
 30
0.0
 10
-99.9185
 20
21.5191
 30
0.0
 10
-99.9185
 20
21.5191
 30
0.0
 10
-99.9185
 20
21.5191
 30
0.0
 10
-102.5048
 20
22.3997
 30
0.0
 10
-103.5815
 20
24.0311
 30
0.0
 10
-104.8155
 20
26.0647
 30
0.0
 10
-104.8155
 20
26.0647
 30
0.0
 10
-104.8155
 20
26.0647
 30
0.0
 10
-104.8155
 20
1.5175
 30
0.0
 10
-104.8155
 20
1.5175
 30
0.0
 10
-104.8155
 20
1.5175
 30
0.0
 10
-103.5815
 20
3.5512
 30
0.0
 10
-102.5048
 20
5.1825
 30
0.0
 10
-99.9185
 20
6.0631
 30
0.0
 10
-99.9185
 20
6.0631
 30
0.0
 10
-99.9185
 20
6.0631
 30
0.0
 10
-99.9006
 20
8.2724
 30
0.0
 10
-99.9006
 20
8.2724
 30
0.0
 10
-99.9006
 20
8.2724
 30
0.0
 10
-97.1341
 20
8.3477
 30
0.0
 10
-94.2066
 20
8.9254
 30
0.0
 10
-94.228
 20
13.7911
 30
0.0
 10
-94.228
 20
13.7911
 30
0.0
 10
-94.2066
 20
18.6567
 30
0.0
 10
-97.1341
 20
19.2345
 30
0.0
 10
-99.9006
 20
19.3098
 30
0.0
  0
SPLINE
  5
79
330
1F
100
AcDbEntity
  8
layer 1
 62
     7
100
AcDbSpline
210
0.0
220
0.0
230
1.0
 70
    11
 71
     3
 72
    32
 73
    28
 74
     0
 42
0.0000000001
 43
0.0000000001
 12
1.0
 22
0.0
 32
0.0
 13
1.0
 23
0.0
 33
0.0
 40
0.0
 40
0.0
 40
0.0
 40
0.0
 40
0.125
 40
0.125
 40
0.125
 40
0.125
 40
0.25
 40
0.25
 40
0.25
 40
0.25
 40
0.375
 40
0.375
 40
0.375
 40
0.375
 40
0.5
 40
0.5
 40
0.5
 40
0.5
 40
0.625
 40
0.625
 40
0.625
 40
0.625
 40
0.75
 40
0.75
 40
0.75
 40
0.75
 40
1.0
 40
1.0
 40
1.0
 40
1.0
 10
-99.9006
 20
-15.1839
 30
0.0
 10
-99.9006
 20
-15.1839
 30
0.0
 10
-99.9185
 20
-12.9746
 30
0.0
 10
-99.9185
 20
-12.9746
 30
0.0
 10
-99.9185
 20
-12.9746
 30
0.0
 10
-102.5048
 20
-12.0941
 30
0.0
 10
-103.5815
 20
-10.4626
 30
0.0
 10
-104.8155
 20
-8.4291
 30
0.0
 10
-104.8155
 20
-8.4291
 30
0.0
 10
-104.8155
 20
-8.4291
 30
0.0
 10
-104.8155
 20
-32.9762
 30
0.0
 10
-104.8155
 20
-32.9762
 30
0.0
 10
-104.8155
 20
-32.9762
 30
0.0
 10
-103.5815
 20
-30.9426
 30
0.0
 10
-102.5048
 20
-29.3112
 30
0.0
 10
-99.9185
 20
-28.4307
 30
0.0
 10
-99.9185
 20
-28.4307
 30
0.0
 10
-99.9185
 20
-28.4307
 30
0.0
 10
-99.9006
 20
-26.2214
 30
0.0
 10
-99.9006
 20
-26.2214
 30
0.0
 10
-99.9006
 20
-26.2214
 30
0.0
 10
-97.1341
 20
-26.1461
 30
0.0
 10
-94.2066
 20
-25.5684
 30
0.0
 10
-94.228
 20
-20.7027
 30
0.0
 10
-94.228
 20
-20.7027
 30
0.0
 10
-94.2066
 20
-15.8371
 30
0.0
 10
-97.1341
 20
-15.2592
 30
0.0
 10
-99.9006
 20
-15.1839
 30
0.0
  0
SPLINE
  5
7A
330
1F
100
AcDbEntity
  8
layer 1
 62
     7
100
AcDbSpline
210
0.0
220
0.0
230
1.0
 70
    11
 71
     3
 72
    32
 73
    28
 74
     0
 42
0.0000000001
 43
0.0000000001
 12
1.0
 22
0.0
 32
0.0
 13
1.0
 23
0.0
 33
0.0
 40
0.0
 40
0.0
 40
0.0
 40
0.0
 40
0.125
 40
0.125
 40
0.125
 40
0.125
 40
0.25
 40
0.25
 40
0.25
 40
0.25
 40
0.375
 40
0.375
 40
0.375
 40
0.375
 40
0.5
 40
0.5
 40
0.5
 40
0.5
 40
0.625
 40
0.625
 40
0.625
 40
0.625
 40
0.75
 40
0.75
 40
0.75
 40
0.75
 40
1.0
 40
1.0
 40
1.0
 40
1.0
 10
-99.9006
 20
-49.6777
 30
0.0
 10
-99.9006
 20
-49.6777
 30
0.0
 10
-99.9185
 20
-47.4684
 30
0.0
 10
-99.9185
 20
-47.4684
 30
0.0
 10
-99.9185
 20
-47.4684
 30
0.0
 10
-102.5048
 20
-46.5878
 30
0.0
 10
-103.5815
 20
-44.9564
 30
0.0
 10
-104.8155
 20
-42.9229
 30
0.0
 10
-104.8155
 20
-42.9229
 30
0.0
 10
-104.8155
 20
-42.9229
 30
0.0
 10
-104.8155
 20
-67.47
 30
0.0
 10
-104.8155
 20
-67.47
 30
0.0
 10
-104.8155
 20
-67.47
 30
0.0
 10
-103.5815
 20
-65.4363
 30
0.0
 10
-102.5048
 20
-63.805
 30
0.0
 10
-99.9185
 20
-62.9244
 30
0.0
 10
-99.9185
 20
-62.9244
 30
0.0
 10
-99.9185
 20
-62.9244
 30
0.0
 10
-99.9006
 20
-60.7152
 30
0.0
 10
-99.9006
 20
-60.7152
 30
0.0
 10
-99.9006
 20
-60.7152
 30
0.0
 10
-97.1341
 20
-60.6399
 30
0.0
 10
-94.2066
 20
-60.0621
 30
0.0
 10
-94.228
 20
-55.1964
 30
0.0
 10
-94.228
 20
-55.1964
 30
0.0
 10
-94.2066
 20
-50.3308
 30
0.0
 10
-97.1341
 20
-49.753
 30
0.0
 10
-99.9006
 20
-49.6777
 30
0.0
  0
SPLINE
  5
7B
330
1F
100
AcDbEntity
  8
layer 1
 62
     7
100
AcDbSpline
210
0.0
220
0.0
230
1.0
 70
    11
 71
     3
 72
    24
 73
    20
 74
     0
 42
0.0000000001
 43
0.0000000001
 12
1.0
 22
0.0
 32
0.0
 13
1.0
 23
0.0
 33
0.0
 40
0.0
 40
0.0
 40
0.0
 40
0.0
 40
0.1666666666666667
 40
0.1666666666666667
 40
0.1666666666666667
 40
0.1666666666666667
 40
0.3333333333333333
 40
0.3333333333333333
 40
0.3333333333333333
 40
0.3333333333333333
 40
0.5
 40
0.5
 40
0.5
 40
0.5
 40
0.6666666666666666
 40
0.6666666666666666
 40
0.6666666666666666
 40
0.6666666666666666
 40
1.0
 40
1.0
 40
1.0
 40
1.0
 10
-99.9006
 20
-84.1714
 30
0.0
 10
-99.9006
 20
-84.1714
 30
0.0
 10
-99.9185
 20
-81.9622
 30
0.0
 10
-99.9185
 20
-81.9622
 30
0.0
 10
-99.9185
 20
-81.9622
 30
0.0
 10
-102.5048
 20
-81.0816
 30
0.0
 10
-103.5815
 20
-79.4502
 30
0.0
 10
-104.8155
 20
-77.4166
 30
0.0
 10
-104.8155
 20
-77.4166
 30
0.0
 10
-104.8155
 20
-77.4166
 30
0.0
 10
-104.8155
 20
-89.6678
 30
0.0
 10
-104.8155
 20
-89.6678
 30
0.0
 10
-104.8155
 20
-89.6678
 30
0.0
 10
-104.8155
 20
-89.6678
 30
0.0
 10
-94.228
 20
-89.6902
 30
0.0
 10
-94.228
 20
-89.6902
 30
0.0
 10
-94.228
 20
-89.6902
 30
0.0
 10
-94.2066
 20
-84.8246
 30
0.0
 10
-97.1341
 20
-84.2467
 30
0.0
 10
-99.9006
 20
-84.1714
 30
0.0
  0
SPLINE
  5
7C
330
1F
100
AcDbEntity
  8
layer 1
 62
     7
100
AcDbSpline
210
0.0
220
0.0
230
1.0
 70
    11
 71
     3
 72
    32
 73
    28
 74
     0
 42
0.0000000001
 43
0.0000000001
 12
1.0
 22
0.0
 32
0.0
 13
1.0
 23
0.0
 33
0.0
 40
0.0
 40
0.0
 40
0.0
 40
0.0
 40
0.125
 40
0.125
 40
0.125
 40
0.125
 40
0.25
 40
0.25
 40
0.25
 40
0.25
 40
0.375
 40
0.375
 40
0.375
 40
0.375
 40
0.5
 40
0.5
 40
0.5
 40
0.5
 40
0.625
 40
0.625
 40
0.625
 40
0.625
 40
0.75
 40
0.75
 40
0.75
 40
0.75
 40
1.0
 40
1.0
 40
1.0
 40
1.0
 10
25.7619
 20
53.8036
 30
0.0
 10
25.7619
 20
53.8036
 30
0.0
 10
25.7798
 20
56.0129
 30
0.0
 10
25.7798
 20
56.0129
 30
0.0
 10
25.7798
 20
56.0129
 30
0.0
 10
28.3661
 20
56.8934
 30
0.0
 10
29.4428
 20
58.5249
 30
0.0
 10
30.6768
 20
60.5584
 30
0.0
 10
30.6768
 20
60.5584
 30
0.0
 10
30.6768
 20
60.5584
 30
0.0
 10
30.6768
 20
36.0113
 30
0.0
 10
30.6768
 20
36.0113
 30
0.0
 10
30.6768
 20
36.0113
 30
0.0
 10
29.4428
 20
38.0449
 30
0.0
 10
28.3661
 20
39.6763
 30
0.0
 10
25.7798
 20
40.5568
 30
0.0
 10
25.7798
 20
40.5568
 30
0.0
 10
25.7798
 20
40.5568
 30
0.0
 10
25.7619
 20
42.7661
 30
0.0
 10
25.7619
 20
42.7661
 30
0.0
 10
25.7619
 20
42.7661
 30
0.0
 10
22.9954
 20
42.8414
 30
0.0
 10
20.0679
 20
43.4191
 30
0.0
 10
20.0893
 20
48.2848
 30
0.0
 10
20.0893
 20
48.2848
 30
0.0
 10
20.0679
 20
53.1504
 30
0.0
 10
22.9954
 20
53.7283
 30
0.0
 10
25.7619
 20
53.8036
 30
0.0
  0
SPLINE
  5
7D
330
1F
100
AcDbEntity
  8
layer 1
 62
     7
100
AcDbSpline
210
0.0
220
0.0
230
1.0
 70
    11
 71
     3
 72
    32
 73
    28
 74
     0
 42
0.0000000001
 43
0.0000000001
 12
1.0
 22
0.0
 32
0.0
 13
1.0
 23
0.0
 33
0.0
 40
0.0
 40
0.0
 40
0.0
 40
0.0
 40
0.125
 40
0.125
 40
0.125
 40
0.125
 40
0.25
 40
0.25
 40
0.25
 40
0.25
 40
0.375
 40
0.375
 40
0.375
 40
0.375
 40
0.5
 40
0.5
 40
0.5
 40
0.5
 40
0.625
 40
0.625
 40
0.625
 40
0.625
 40
0.75
 40
0.75
 40
0.75
 40
0.75
 40
1.0
 40
1.0
 40
1.0
 40
1.0
 10
25.7619
 20
19.3098
 30
0.0
 10
25.7619
 20
19.3098
 30
0.0
 10
25.7798
 20
21.5191
 30
0.0
 10
25.7798
 20
21.5191
 30
0.0
 10
25.7798
 20
21.5191
 30
0.0
 10
28.3661
 20
22.3997
 30
0.0
 10
29.4428
 20
24.0311
 30
0.0
 10
30.6768
 20
26.0647
 30
0.0
 10
30.6768
 20
26.0647
 30
0.0
 10
30.6768
 20
26.0647
 30
0.0
 10
30.6768
 20
1.5175
 30
0.0
 10
30.6768
 20
1.5175
 30
0.0
 10
30.6768
 20
1.5175
 30
0.0
 10
29.4428
 20
3.5512
 30
0.0
 10
28.3661
 20
5.1825
 30
0.0
 10
25.7798
 20
6.0631
 30
0.0
 10
25.7798
 20
6.0631
 30
0.0
 10
25.7798
 20
6.0631
 30
0.0
 10
25.7619
 20
8.2724
 30
0.0
 10
25.7619
 20
8.2724
 30
0.0
 10
25.7619
 20
8.2724
 30
0.0
 10
22.9954
 20
8.3477
 30
0.0
 10
20.0679
 20
8.9254
 30
0.0
 10
20.0893
 20
13.7911
 30
0.0
 10
20.0893
 20
13.7911
 30
0.0
 10
20.0679
 20
18.6567
 30
0.0
 10
22.9954
 20
19.2345
 30
0.0
 10
25.7619
 20
19.3098
 30
0.0
  0
SPLINE
  5
7E
330
1F
100
AcDbEntity
  8
layer 1
 62
     7
100
AcDbSpline
210
0.0
220
0.0
230
1.0
 70
    11
 71
     3
 72
    32
 73
    28
 74
     0
 42
0.0000000001
 43
0.0000000001
 12
1.0
 22
0.0
 32
0.0
 13
1.0
 23
0.0
 33
0.0
 40
0.0
 40
0.0
 40
0.0
 40
0.0
 40
0.125
 40
0.125
 40
0.125
 40
0.125
 40
0.25
 40
0.25
 40
0.25
 40
0.25
 40
0.375
 40
0.375
 40
0.375
 40
0.375
 40
0.5
 40
0.5
 40
0.5
 40
0.5
 40
0.625
 40
0.625
 40
0.625
 40
0.625
 40
0.75
 40
0.75
 40
0.75
 40
0.75
 40
1.0
 40
1.0
 40
1.0
 40
1.0
 10
25.7619
 20
-15.1839
 30
0.0
 10
25.7619
 20
-15.1839
 30
0.0
 10
25.7798
 20
-12.9746
 30
0.0
 10
25.7798
 20
-12.9746
 30
0.0
 10
25.7798
 20
-12.9746
 30
0.0
 10
28.3661
 20
-12.0941
 30
0.0
 10
29.4428
 20
-10.4626
 30
0.0
 10
30.6768
 20
-8.4291
 30
0.0
 10
30.6768
 20
-8.4291
 30
0.0
 10
30.6768
 20
-8.4291
 30
0.0
 10
30.6768
 20
-32.9762
 30
0.0
 10
30.6768
 20
-32.9762
 30
0.0
 10
30.6768
 20
-32.9762
 30
0.0
 10
29.4428
 20
-30.9426
 30
0.0
 10
28.3661
 20
-29.3112
 30
0.0
 10
25.7798
 20
-28.4307
 30
0.0
 10
25.7798
 20
-28.4307
 30
0.0
 10
25.7798
 20
-28.4307
 30
0.0
 10
25.7619
 20
-26.2214
 30
0.0
 10
25.7619
 20
-26.2214
 30
0.0
 10
25.7619
 20
-26.2214
 30
0.0
 10
22.9954
 20
-26.1461
 30
0.0
 10
20.0679
 20
-25.5684
 30
0.0
 10
20.0893
 20
-20.7027
 30
0.0
 10
20.0893
 20
-20.7027
 30
0.0
 10
20.0679
 20
-15.8371
 30
0.0
 10
22.9954
 20
-15.2592
 30
0.0
 10
25.7619
 20
-15.1839
 30
0.0
  0
SPLINE
  5
7F
330
1F
100
AcDbEntity
  8
layer 1
 62
     7
100
AcDbSpline
210
0.0
220
0.0
230
1.0
 70
    11
 71
     3
 72
    32
 73
    28
 74
     0
 42
0.0000000001
 43
0.0000000001
 12
1.0
 22
0.0
 32
0.0
 13
1.0
 23
0.0
 33
0.0
 40
0.0
 40
0.0
 40
0.0
 40
0.0
 40
0.125
 40
0.125
 40
0.125
 40
0.125
 40
0.25
 40
0.25
 40
0.25
 40
0.25
 40
0.375
 40
0.375
 40
0.375
 40
0.375
 40
0.5
 40
0.5
 40
0.5
 40
0.5
 40
0.625
 40
0.625
 40
0.625
 40
0.625
 40
0.75
 40
0.75
 40
0.75
 40
0.75
 40
1.0
 40
1.0
 40
1.0
 40
1.0
 10
25.7619
 20
-49.6777
 30
0.0
 10
25.7619
 20
-49.6777
 30
0.0
 10
25.7798
 20
-47.4684
 30
0.0
 10
25.7798
 20
-47.4684
 30
0.0
 10
25.7798
 20
-47.4684
 30
0.0
 10
28.3661
 20
-46.5878
 30
0.0
 10
29.4428
 20
-44.9564
 30
0.0
 10
30.6768
 20
-42.9229
 30
0.0
 10
30.6768
 20
-42.9229
 30
0.0
 10
30.6768
 20
-42.9229
 30
0.0
 10
30.6768
 20
-67.47
 30
0.0
 10
30.6768
 20
-67.47
 30
0.0
 10
30.6768
 20
-67.47
 30
0.0
 10
29.4428
 20
-65.4363
 30
0.0
 10
28.3661
 20
-63.805
 30
0.0
 10
25.7798
 20
-62.9244
 30
0.0
 10
25.7798
 20
-62.9244
 30
0.0
 10
25.7798
 20
-62.9244
 30
0.0
 10
25.7619
 20
-60.7152
 30
0.0
 10
25.7619
 20
-60.7152
 30
0.0
 10
25.7619
 20
-60.7152
 30
0.0
 10
22.9954
 20
-60.6399
 30
0.0
 10
20.0679
 20
-60.0621
 30
0.0
 10
20.0893
 20
-55.1964
 30
0.0
 10
20.0893
 20
-55.1964
 30
0.0
 10
20.0679
 20
-50.3308
 30
0.0
 10
22.9954
 20
-49.753
 30
0.0
 10
25.7619
 20
-49.6777
 30
0.0
  0
SPLINE
  5
80
330
1F
100
AcDbEntity
  8
layer 1
 62
     7
100
AcDbSpline
210
0.0
220
0.0
230
1.0
 70
    11
 71
     3
 72
    32
 73
    28
 74
     0
 42
0.0000000001
 43
0.0000000001
 12
1.0
 22
0.0
 32
0.0
 13
1.0
 23
0.0
 33
0.0
 40
0.0
 40
0.0
 40
0.0
 40
0.0
 40
0.125
 40
0.125
 40
0.125
 40
0.125
 40
0.25
 40
0.25
 40
0.25
 40
0.25
 40
0.375
 40
0.375
 40
0.375
 40
0.375
 40
0.5
 40
0.5
 40
0.5
 40
0.5
 40
0.625
 40
0.625
 40
0.625
 40
0.625
 40
0.75
 40
0.75
 40
0.75
 40
0.75
 40
1.0
 40
1.0
 40
1.0
 40
1.0
 10
-45.6901
 20
-84.1714
 30
0.0
 10
-45.6901
 20
-84.1714
 30
0.0
 10
-45.7081
 20
-81.9622
 30
0.0
 10
-45.7081
 20
-81.9622
 30
0.0
 10
-45.7081
 20
-81.9622
 30
0.0
 10
-48.2943
 20
-81.0816
 30
0.0
 10
-49.3711
 20
-79.4502
 30
0.0
 10
-50.6051
 20
-77.4166
 30
0.0
 10
-50.6051
 20
-77.4166
 30
0.0
 10
-51.8391
 20
-79.4503
 30
0.0
 10
-52.9159
 20
-81.0816
 30
0.0
 10
-55.5021
 20
-81.9622
 30
0.0
 10
-55.5021
 20
-81.9622
 30
0.0
 10
-55.5021
 20
-81.9622
 30
0.0
 10
-55.52
 20
-84.1714
 30
0.0
 10
-55.52
 20
-84.1714
 30
0.0
 10
-55.52
 20
-84.1714
 30
0.0
 10
-58.2865
 20
-84.2467
 30
0.0
 10
-61.214
 20
-84.8245
 30
0.0
 10
-61.1926
 20
-89.6902
 30
0.0
 10
-61.1926
 20
-89.6902
 30
0.0
 10
-61.1926
 20
-89.6902
 30
0.0
 10
-40.0175
 20
-89.6902
 30
0.0
 10
-40.0175
 20
-89.6902
 30
0.0
 10
-40.0175
 20
-89.6902
 30
0.0
 10
-39.9961
 20
-84.8246
 30
0.0
 10
-42.9236
 20
-84.2467
 30
0.0
 10
-45.6901
 20
-84.1714
 30
0.0
  0
SPLINE
  5
81
330
1F
100
AcDbEntity
  8
layer 1
 62
     7
100
AcDbSpline
210
0.0
220
0.0
230
1.0
 70
    11
 71
     3
 72
    32
 73
    28
 74
     0
 42
0.0000000001
 43
0.0000000001
 12
1.0
 22
0.0
 32
0.0
 13
1.0
 23
0.0
 33
0.0
 40
0.0
 40
0.0
 40
0.0
 40
0.0
 40
0.125
 40
0.125
 40
0.125
 40
0.125
 40
0.25
 40
0.25
 40
0.25
 40
0.25
 40
0.375
 40
0.375
 40
0.375
 40
0.375
 40
0.5
 40
0.5
 40
0.5
 40
0.5
 40
0.625
 40
0.625
 40
0.625
 40
0.625
 40
0.75
 40
0.75
 40
0.75
 40
0.75
 40
1.0
 40
1.0
 40
1.0
 40
1.0
 10
-18.7105
 20
-84.1714
 30
0.0
 10
-18.7105
 20
-84.1714
 30
0.0
 10
-18.7284
 20
-81.9622
 30
0.0
 10
-18.7284
 20
-81.9622
 30
0.0
 10
-18.7284
 20
-81.9622
 30
0.0
 10
-21.3147
 20
-81.0816
 30
0.0
 10
-22.3914
 20
-79.4502
 30
0.0
 10
-23.6254
 20
-77.4166
 30
0.0
 10
-23.6254
 20
-77.4166
 30
0.0
 10
-24.8594
 20
-79.4503
 30
0.0
 10
-25.9362
 20
-81.0816
 30
0.0
 10
-28.5225
 20
-81.9622
 30
0.0
 10
-28.5225
 20
-81.9622
 30
0.0
 10
-28.5225
 20
-81.9622
 30
0.0
 10
-28.5404
 20
-84.1714
 30
0.0
 10
-28.5404
 20
-84.1714
 30
0.0
 10
-28.5404
 20
-84.1714
 30
0.0
 10
-31.3069
 20
-84.2467
 30
0.0
 10
-34.2344
 20
-84.8245
 30
0.0
 10
-34.213
 20
-89.6902
 30
0.0
 10
-34.213
 20
-89.6902
 30
0.0
 10
-34.213
 20
-89.6902
 30
0.0
 10
-13.0379
 20
-89.6902
 30
0.0
 10
-13.0379
 20
-89.6902
 30
0.0
 10
-13.0379
 20
-89.6902
 30
0.0
 10
-13.0165
 20
-84.8246
 30
0.0
 10
-15.944
 20
-84.2467
 30
0.0
 10
-18.7105
 20
-84.1714
 30
0.0
  0
SPLINE
  5
82
330
1F
100
AcDbEntity
  8
layer 1
 62
     7
100
AcDbSpline
210
0.0
220
0.0
230
1.0
 70
    11
 71
     3
 72
    32
 73
    28
 74
     0
 42
0.0000000001
 43
0.0000000001
 12
1.0
 22
0.0
 32
0.0
 13
1.0
 23
0.0
 33
0.0
 40
0.0
 40
0.0
 40
0.0
 40
0.0
 40
0.125
 40
0.125
 40
0.125
 40
0.125
 40
0.25
 40
0.25
 40
0.25
 40
0.25
 40
0.375
 40
0.375
 40
0.375
 40
0.375
 40
0.5
 40
0.5
 40
0.5
 40
0.5
 40
0.625
 40
0.625
 40
0.625
 40
0.625
 40
0.75
 40
0.75
 40
0.75
 40
0.75
 40
1.0
 40
1.0
 40
1.0
 40
1.0
 10
8.2692
 20
-84.1714
 30
0.0
 10
8.2692
 20
-84.1714
 30
0.0
 10
8.2512
 20
-81.9622
 30
0.0
 10
8.2512
 20
-81.9622
 30
0.0
 10
8.2512
 20
-81.9622
 30
0.0
 10
5.665
 20
-81.0816
 30
0.0
 10
4.5882
 20
-79.4502
 30
0.0
 10
3.3542
 20
-77.4166
 30
0.0
 10
3.3542
 20
-77.4166
 30
0.0
 10
2.1202
 20
-79.4503
 30
0.0
 10
1.0434
 20
-81.0816
 30
0.0
 10
-1.5428
 20
-81.9622
 30
0.0
 10
-1.5428
 20
-81.9622
 30
0.0
 10
-1.5428
 20
-81.9622
 30
0.0
 10
-1.5607
 20
-84.1714
 30
0.0
 10
-1.5607
 20
-84.1714
 30
0.0
 10
-1.5607
 20
-84.1714
 30
0.0
 10
-4.3273
 20
-84.2467
 30
0.0
 10
-7.2547
 20
-84.8245
 30
0.0
 10
-7.2333
 20
-89.6902
 30
0.0
 10
-7.2333
 20
-89.6902
 30
0.0
 10
-7.2333
 20
-89.6902
 30
0.0
 10
13.9417
 20
-89.6902
 30
0.0
 10
13.9417
 20
-89.6902
 30
0.0
 10
13.9417
 20
-89.6902
 30
0.0
 10
13.9632
 20
-84.8246
 30
0.0
 10
11.0357
 20
-84.2467
 30
0.0
 10
8.2692
 20
-84.1714
 30
0.0
  0
SPLINE
  5
83
330
1F
100
AcDbEntity
  8
layer 1
 62
     7
100
AcDbSpline
210
0.0
220
0.0
230
1.0
 70
    11
 71
     3
 72
    24
 73
    20
 74
     0
 42
0.0000000001
 43
0.0000000001
 12
1.0
 22
0.0
 32
0.0
 13
1.0
 23
0.0
 33
0.0
 40
0.0
 40
0.0
 40
0.0
 40
0.0
 40
0.1666666666666667
 40
0.1666666666666667
 40
0.1666666666666667
 40
0.1666666666666667
 40
0.3333333333333333
 40
0.3333333333333333
 40
0.3333333333333333
 40
0.3333333333333333
 40
0.5
 40
0.5
 40
0.5
 40
0.5
 40
0.6666666666666666
 40
0.6666666666666666
 40
0.6666666666666666
 40
0.6666666666666666
 40
1.0
 40
1.0
 40
1.0
 40
1.0
 10
25.7625
 20
-84.1714
 30
0.0
 10
25.7625
 20
-84.1714
 30
0.0
 10
25.7804
 20
-81.9622
 30
0.0
 10
25.7804
 20
-81.9622
 30
0.0
 10
25.7804
 20
-81.9622
 30
0.0
 10
28.3666
 20
-81.0816
 30
0.0
 10
29.4434
 20
-79.4502
 30
0.0
 10
30.6774
 20
-77.4166
 30
0.0
 10
30.6774
 20
-77.4166
 30
0.0
 10
30.6774
 20
-77.4166
 30
0.0
 10
30.6774
 20
-89.6678
 30
0.0
 10
30.6774
 20
-89.6678
 30
0.0
 10
30.6774
 20
-89.6678
 30
0.0
 10
30.6774
 20
-89.6678
 30
0.0
 10
20.0899
 20
-89.6902
 30
0.0
 10
20.0899
 20
-89.6902
 30
0.0
 10
20.0899
 20
-89.6902
 30
0.0
 10
20.0685
 20
-84.8246
 30
0.0
 10
22.9959
 20
-84.2467
 30
0.0
 10
25.7625
 20
-84.1714
 30
0.0
  0
SPLINE
  5
84
330
1F
100
AcDbEntity
  8
layer 1
 62
     7
100
AcDbSpline
210
0.0
220
0.0
230
1.0
 70
    11
 71
     3
 72
    32
 73
    28
 74
     0
 42
0.0000000001
 43
0.0000000001
 12
1.0
 22
0.0
 32
0.0
 13
1.0
 23
0.0
 33
0.0
 40
0.0
 40
0.0
 40
0.0
 40
0.0
 40
0.125
 40
0.125
 40
0.125
 40
0.125
 40
0.25
 40
0.25
 40
0.25
 40
0.25
 40
0.375
 40
0.375
 40
0.375
 40
0.375
 40
0.5
 40
0.5
 40
0.5
 40
0.5
 40
0.625
 40
0.625
 40
0.625
 40
0.625
 40
0.75
 40
0.75
 40
0.75
 40
0.75
 40
1.0
 40
1.0
 40
1.0
 40
1.0
 10
-72.7355
 20
111.9791
 30
0.0
 10
-72.7355
 20
111.9791
 30
0.0
 10
-72.7535
 20
109.7698
 30
0.0
 10
-72.7535
 20
109.7698
 30
0.0
 10
-72.7535
 20
109.7698
 30
0.0
 10
-75.3397
 20
108.8892
 30
0.0
 10
-76.4165
 20
107.2578
 30
0.0
 10
-77.6505
 20
105.2242
 30
0.0
 10
-77.6505
 20
105.2242
 30
0.0
 10
-78.8845
 20
107.2579
 30
0.0
 10
-79.9613
 20
108.8892
 30
0.0
 10
-82.5475
 20
109.7698
 30
0.0
 10
-82.5475
 20
109.7698
 30
0.0
 10
-82.5475
 20
109.7698
 30
0.0
 10
-82.5654
 20
111.9791
 30
0.0
 10
-82.5654
 20
111.9791
 30
0.0
 10
-82.5654
 20
111.9791
 30
0.0
 10
-85.3319
 20
112.0544
 30
0.0
 10
-88.2594
 20
112.6321
 30
0.0
 10
-88.238
 20
117.4978
 30
0.0
 10
-88.238
 20
117.4978
 30
0.0
 10
-88.238
 20
117.4978
 30
0.0
 10
-67.0629
 20
117.4978
 30
0.0
 10
-67.0629
 20
117.4978
 30
0.0
 10
-67.0629
 20
117.4978
 30
0.0
 10
-67.0415
 20
112.6322
 30
0.0
 10
-69.969
 20
112.0544
 30
0.0
 10
-72.7355
 20
111.9791
 30
0.0
  0
SPLINE
  5
85
330
1F
100
AcDbEntity
  8
layer 1
 62
     7
100
AcDbSpline
210
0.0
220
0.0
230
1.0
 70
    11
 71
     3
 72
    24
 73
    20
 74
     0
 42
0.0000000001
 43
0.0000000001
 12
1.0
 22
0.0
 32
0.0
 13
1.0
 23
0.0
 33
0.0
 40
0.0
 40
0.0
 40
0.0
 40
0.0
 40
0.1666666666666667
 40
0.1666666666666667
 40
0.1666666666666667
 40
0.1666666666666667
 40
0.3333333333333333
 40
0.3333333333333333
 40
0.3333333333333333
 40
0.3333333333333333
 40
0.5
 40
0.5
 40
0.5
 40
0.5
 40
0.6666666666666666
 40
0.6666666666666666
 40
0.6666666666666666
 40
0.6666666666666666
 40
1.0
 40
1.0
 40
1.0
 40
1.0
 10
-99.9006
 20
111.9791
 30
0.0
 10
-99.9006
 20
111.9791
 30
0.0
 10
-99.9185
 20
109.7698
 30
0.0
 10
-99.9185
 20
109.7698
 30
0.0
 10
-99.9185
 20
109.7698
 30
0.0
 10
-102.5048
 20
108.8892
 30
0.0
 10
-103.5815
 20
107.2578
 30
0.0
 10
-104.8155
 20
105.2242
 30
0.0
 10
-104.8155
 20
105.2242
 30
0.0
 10
-104.8155
 20
105.2242
 30
0.0
 10
-104.8155
 20
117.4754
 30
0.0
 10
-104.8155
 20
117.4754
 30
0.0
 10
-104.8155
 20
117.4754
 30
0.0
 10
-104.8155
 20
117.4754
 30
0.0
 10
-94.228
 20
117.4978
 30
0.0
 10
-94.228
 20
117.4978
 30
0.0
 10
-94.228
 20
117.4978
 30
0.0
 10
-94.2066
 20
112.6322
 30
0.0
 10
-97.1341
 20
112.0544
 30
0.0
 10
-99.9006
 20
111.9791
 30
0.0
  0
SPLINE
  5
86
330
1F
100
AcDbEntity
  8
layer 1
 62
     7
100
AcDbSpline
210
0.0
220
0.0
230
1.0
 70
    11
 71
     3
 72
    32
 73
    28
 74
     0
 42
0.0000000001
 43
0.0000000001
 12
1.0
 22
0.0
 32
0.0
 13
1.0
 23
0.0
 33
0.0
 40
0.0
 40
0.0
 40
0.0
 40
0.0
 40
0.125
 40
0.125
 40
0.125
 40
0.125
 40
0.25
 40
0.25
 40
0.25
 40
0.25
 40
0.375
 40
0.375
 40
0.375
 40
0.375
 40
0.5
 40
0.5
 40
0.5
 40
0.5
 40
0.625
 40
0.625
 40
0.625
 40
0.625
 40
0.75
 40
0.75
 40
0.75
 40
0.75
 40
1.0
 40
1.0
 40
1.0
 40
1.0
 10
-45.6901
 20
111.9791
 30
0.0
 10
-45.6901
 20
111.9791
 30
0.0
 10
-45.7081
 20
109.7698
 30
0.0
 10
-45.7081
 20
109.7698
 30
0.0
 10
-45.7081
 20
109.7698
 30
0.0
 10
-48.2943
 20
108.8892
 30
0.0
 10
-49.3711
 20
107.2578
 30
0.0
 10
-50.6051
 20
105.2242
 30
0.0
 10
-50.6051
 20
105.2242
 30
0.0
 10
-51.8391
 20
107.2579
 30
0.0
 10
-52.9159
 20
108.8892
 30
0.0
 10
-55.5021
 20
109.7698
 30
0.0
 10
-55.5021
 20
109.7698
 30
0.0
 10
-55.5021
 20
109.7698
 30
0.0
 10
-55.52
 20
111.9791
 30
0.0
 10
-55.52
 20
111.9791
 30
0.0
 10
-55.52
 20
111.9791
 30
0.0
 10
-58.2865
 20
112.0544
 30
0.0
 10
-61.214
 20
112.6321
 30
0.0
 10
-61.1926
 20
117.4978
 30
0.0
 10
-61.1926
 20
117.4978
 30
0.0
 10
-61.1926
 20
117.4978
 30
0.0
 10
-40.0175
 20
117.4978
 30
0.0
 10
-40.0175
 20
117.4978
 30
0.0
 10
-40.0175
 20
117.4978
 30
0.0
 10
-39.9961
 20
112.6322
 30
0.0
 10
-42.9236
 20
112.0544
 30
0.0
 10
-45.6901
 20
111.9791
 30
0.0
  0
SPLINE
  5
87
330
1F
100
AcDbEntity
  8
layer 1
 62
     7
100
AcDbSpline
210
0.0
220
0.0
230
1.0
 70
    11
 71
     3
 72
    32
 73
    28
 74
     0
 42
0.0000000001
 43
0.0000000001
 12
1.0
 22
0.0
 32
0.0
 13
1.0
 23
0.0
 33
0.0
 40
0.0
 40
0.0
 40
0.0
 40
0.0
 40
0.125
 40
0.125
 40
0.125
 40
0.125
 40
0.25
 40
0.25
 40
0.25
 40
0.25
 40
0.375
 40
0.375
 40
0.375
 40
0.375
 40
0.5
 40
0.5
 40
0.5
 40
0.5
 40
0.625
 40
0.625
 40
0.625
 40
0.625
 40
0.75
 40
0.75
 40
0.75
 40
0.75
 40
1.0
 40
1.0
 40
1.0
 40
1.0
 10
-18.7105
 20
111.9791
 30
0.0
 10
-18.7105
 20
111.9791
 30
0.0
 10
-18.7284
 20
109.7698
 30
0.0
 10
-18.7284
 20
109.7698
 30
0.0
 10
-18.7284
 20
109.7698
 30
0.0
 10
-21.3147
 20
108.8892
 30
0.0
 10
-22.3914
 20
107.2578
 30
0.0
 10
-23.6254
 20
105.2242
 30
0.0
 10
-23.6254
 20
105.2242
 30
0.0
 10
-24.8594
 20
107.2579
 30
0.0
 10
-25.9362
 20
108.8892
 30
0.0
 10
-28.5225
 20
109.7698
 30
0.0
 10
-28.5225
 20
109.7698
 30
0.0
 10
-28.5225
 20
109.7698
 30
0.0
 10
-28.5404
 20
111.9791
 30
0.0
 10
-28.5404
 20
111.9791
 30
0.0
 10
-28.5404
 20
111.9791
 30
0.0
 10
-31.3069
 20
112.0544
 30
0.0
 10
-34.2344
 20
112.6321
 30
0.0
 10
-34.213
 20
117.4978
 30
0.0
 10
-34.213
 20
117.4978
 30
0.0
 10
-34.213
 20
117.4978
 30
0.0
 10
-13.0379
 20
117.4978
 30
0.0
 10
-13.0379
 20
117.4978
 30
0.0
 10
-13.0379
 20
117.4978
 30
0.0
 10
-13.0165
 20
112.6322
 30
0.0
 10
-15.944
 20
112.0544
 30
0.0
 10
-18.7105
 20
111.9791
 30
0.0
  0
SPLINE
  5
88
330
1F
100
AcDbEntity
  8
layer 1
 62
     7
100
AcDbSpline
210
0.0
220
0.0
230
1.0
 70
    11
 71
     3
 72
    32
 73
    28
 74
     0
 42
0.0000000001
 43
0.0000000001
 12
1.0
 22
0.0
 32
0.0
 13
1.0
 23
0.0
 33
0.0
 40
0.0
 40
0.0
 40
0.0
 40
0.0
 40
0.125
 40
0.125
 40
0.125
 40
0.125
 40
0.25
 40
0.25
 40
0.25
 40
0.25
 40
0.375
 40
0.375
 40
0.375
 40
0.375
 40
0.5
 40
0.5
 40
0.5
 40
0.5
 40
0.625
 40
0.625
 40
0.625
 40
0.625
 40
0.75
 40
0.75
 40
0.75
 40
0.75
 40
1.0
 40
1.0
 40
1.0
 40
1.0
 10
8.2692
 20
111.9791
 30
0.0
 10
8.2692
 20
111.9791
 30
0.0
 10
8.2512
 20
109.7698
 30
0.0
 10
8.2512
 20
109.7698
 30
0.0
 10
8.2512
 20
109.7698
 30
0.0
 10
5.665
 20
108.8892
 30
0.0
 10
4.5882
 20
107.2578
 30
0.0
 10
3.3542
 20
105.2242
 30
0.0
 10
3.3542
 20
105.2242
 30
0.0
 10
2.1202
 20
107.2579
 30
0.0
 10
1.0434
 20
108.8892
 30
0.0
 10
-1.5428
 20
109.7698
 30
0.0
 10
-1.5428
 20
109.7698
 30
0.0
 10
-1.5428
 20
109.7698
 30
0.0
 10
-1.5607
 20
111.9791
 30
0.0
 10
-1.5607
 20
111.9791
 30
0.0
 10
-1.5607
 20
111.9791
 30
0.0
 10
-4.3273
 20
112.0544
 30
0.0
 10
-7.2547
 20
112.6321
 30
0.0
 10
-7.2333
 20
117.4978
 30
0.0
 10
-7.2333
 20
117.4978
 30
0.0
 10
-7.2333
 20
117.4978
 30
0.0
 10
13.9417
 20
117.4978
 30
0.0
 10
13.9417
 20
117.4978
 30
0.0
 10
13.9417
 20
117.4978
 30
0.0
 10
13.9632
 20
112.6322
 30
0.0
 10
11.0357
 20
112.0544
 30
0.0
 10
8.2692
 20
111.9791
 30
0.0
  0
SPLINE
  5
89
330
1F
100
AcDbEntity
  8
layer 1
 62
     7
100
AcDbSpline
210
0.0
220
0.0
230
1.0
 70
    11
 71
     3
 72
    24
 73
    20
 74
     0
 42
0.0000000001
 43
0.0000000001
 12
1.0
 22
0.0
 32
0.0
 13
1.0
 23
0.0
 33
0.0
 40
0.0
 40
0.0
 40
0.0
 40
0.0
 40
0.1666666666666667
 40
0.1666666666666667
 40
0.1666666666666667
 40
0.1666666666666667
 40
0.3333333333333333
 40
0.3333333333333333
 40
0.3333333333333333
 40
0.3333333333333333
 40
0.5
 40
0.5
 40
0.5
 40
0.5
 40
0.6666666666666666
 40
0.6666666666666666
 40
0.6666666666666666
 40
0.6666666666666666
 40
1.0
 40
1.0
 40
1.0
 40
1.0
 10
25.7625
 20
111.9791
 30
0.0
 10
25.7625
 20
111.9791
 30
0.0
 10
25.7804
 20
109.7698
 30
0.0
 10
25.7804
 20
109.7698
 30
0.0
 10
25.7804
 20
109.7698
 30
0.0
 10
28.3666
 20
108.8892
 30
0.0
 10
29.4434
 20
107.2578
 30
0.0
 10
30.6774
 20
105.2242
 30
0.0
 10
30.6774
 20
105.2242
 30
0.0
 10
30.6774
 20
105.2242
 30
0.0
 10
30.6774
 20
117.4754
 30
0.0
 10
30.6774
 20
117.4754
 30
0.0
 10
30.6774
 20
117.4754
 30
0.0
 10
30.6774
 20
117.4754
 30
0.0
 10
20.0899
 20
117.4978
 30
0.0
 10
20.0899
 20
117.4978
 30
0.0
 10
20.0899
 20
117.4978
 30
0.0
 10
20.0685
 20
112.6322
 30
0.0
 10
22.9959
 20
112.0544
 30
0.0
 10
25.7625
 20
111.9791
 30
0.0
  0
ENDSEC
  0
SECTION
  2
OBJECTS
  0
DICTIONARY
  5
C
330
0
100
AcDbDictionary
281
     1
  3
ACAD_GROUP
350
D
  3
ACAD_LAYOUT
350
1A
  3
ACAD_MATERIAL
350
3B
  3
ACAD_MLEADERSTYLE
350
AC
  3
ACAD_MLINESTYLE
350
17
  3
ACAD_PLOTSETTINGS
350
19
  3
ACAD_PLOTSTYLENAME
350
E
  3
ACAD_TABLESTYLE
350
AB
  3
ACAD_VISUALSTYLE
350
2A
  0
DICTIONARY
  5
D
102
{ACAD_REACTORS
330
C
102
}
330
C
100
AcDbDictionary
281
     1
  0
DICTIONARY
  5
1A
102
{ACAD_REACTORS
330
C
102
}
330
C
100
AcDbDictionary
281
     1
  3
Layout1
350
1E
  3
Layout2
350
26
  3
Model
350
22
  0
DICTIONARY
  5
3B
102
{ACAD_REACTORS
330
C
102
}
330
C
100
AcDbDictionary
281
     1
  3
ByBlock
350
3D
  3
ByLayer
350
3C
  3
Global
350
3E
  0
DICTIONARY
  5
AC
102
{ACAD_REACTORS
330
C
102
}
330
C
100
AcDbDictionary
281
     1
  0
DICTIONARY
  5
17
102
{ACAD_REACTORS
330
C
102
}
330
C
100
AcDbDictionary
281
     1
  3
Standard
350
18
  0
DICTIONARY
  5
19
102
{ACAD_REACTORS
330
C
102
}
330
C
100
AcDbDictionary
281
     1
  0
ACDBDICTIONARYWDFLT
  5
E
102
{ACAD_REACTORS
330
C
102
}
330
C
100
AcDbDictionary
281
     1
  3
Normal
350
F
100
AcDbDictionaryWithDefault
340
F
  0
DICTIONARY
  5
AB
102
{ACAD_REACTORS
330
C
102
}
330
C
100
AcDbDictionary
281
     1
  0
DICTIONARY
  5
2A
102
{ACAD_REACTORS
330
C
102
}
330
C
100
AcDbDictionary
281
     1
  3
2dWireframe
350
2F
  3
3D Hidden
350
31
  3
3dWireframe
350
30
  3
Basic
350
32
  3
Brighten
350
36
  3
ColorChange
350
3A
  3
Conceptual
350
34
  3
Dim
350
35
  3
Facepattern
350
39
  3
Flat
350
2B
  3
FlatWithEdges
350
2C
  3
Gouraud
350
2D
  3
GouraudWithEdges
350
2E
  3
Linepattern
350
38
  3
Realistic
350
33
  3
Thicken
350
37
  0
LAYOUT
  5
1E
102
{ACAD_REACTORS
330
1A
102
}
330
1A
100
AcDbPlotSettings
  1

  2
none_device
  4

  6

 40
0.0
 41
0.0
 42
0.0
 43
0.0
 44
0.0
 45
0.0
 46
0.0
 47
0.0
 48
0.0
 49
0.0
140
0.0
141
0.0
142
1.0
143
1.0
 70
   688
 72
     0
 73
     0
 74
     5
  7

 75
    16
 76
     0
 77
     2
 78
   300
147
1.0
148
0.0
149
0.0
100
AcDbLayout
  1
Layout1
 70
     1
 71
     1
 10
0.0
 20
0.0
 11
12.0
 21
9.0
 12
0.0
 22
0.0
 32
0.0
 14
1.000000000000000E+20
 24
1.000000000000000E+20
 34
1.000000000000000E+20
 15
-1.000000000000000E+20
 25
-1.000000000000000E+20
 35
-1.000000000000000E+20
146
0.0
 13
0.0
 23
0.0
 33
0.0
 16
1.0
 26
0.0
 36
0.0
 17
0.0
 27
1.0
 37
0.0
 76
     0
330
1B
  0
LAYOUT
  5
26
102
{ACAD_REACTORS
330
1A
102
}
330
1A
100
AcDbPlotSettings
  1

  2
none_device
  4

  6

 40
0.0
 41
0.0
 42
0.0
 43
0.0
 44
0.0
 45
0.0
 46
0.0
 47
0.0
 48
0.0
 49
0.0
140
0.0
141
0.0
142
1.0
143
1.0
 70
   688
 72
     0
 73
     0
 74
     5
  7

 75
    16
 76
     0
 77
     2
 78
   300
147
1.0
148
0.0
149
0.0
100
AcDbLayout
  1
Layout2
 70
     1
 71
     2
 10
0.0
 20
0.0
 11
0.0
 21
0.0
 12
0.0
 22
0.0
 32
0.0
 14
0.0
 24
0.0
 34
0.0
 15
0.0
 25
0.0
 35
0.0
146
0.0
 13
0.0
 23
0.0
 33
0.0
 16
1.0
 26
0.0
 36
0.0
 17
0.0
 27
1.0
 37
0.0
 76
     0
330
23
  0
LAYOUT
  5
22
102
{ACAD_REACTORS
330
1A
102
}
330
1A
100
AcDbPlotSettings
  1

  2
none_device
  4

  6

 40
0.0
 41
0.0
 42
0.0
 43
0.0
 44
0.0
 45
0.0
 46
0.0
 47
0.0
 48
0.0
 49
0.0
140
0.0
141
0.0
142
1.0
143
1.0
 70
  1712
 72
     0
 73
     0
 74
     0
  7

 75
     0
 76
     0
 77
     2
 78
   300
147
1.0
148
0.0
149
0.0
100
AcDbLayout
  1
Model
 70
     1
 71
     0
 10
0.0
 20
0.0
 11
12.0
 21
9.0
 12
0.0
 22
0.0
 32
0.0
 14
-109.55
 24
-94.3724
 34
0.0
 15
35.4118
 25
122.1799
 35
0.0
146
0.0
 13
0.0
 23
0.0
 33
0.0
 16
1.0
 26
0.0
 36
0.0
 17
0.0
 27
1.0
 37
0.0
 76
     0
330
1F
331
29
  0
MATERIAL
  5
3D
102
{ACAD_REACTORS
330
3B
102
}
330
3B
100
AcDbMaterial
  1
ByBlock
 72
     1
 94
      127
  0
MATERIAL
  5
3C
102
{ACAD_REACTORS
330
3B
102
}
330
3B
100
AcDbMaterial
  1
ByLayer
 72
     1
 94
      127
  0
MATERIAL
  5
3E
102
{ACAD_REACTORS
330
3B
102
}
330
3B
100
AcDbMaterial
  1
Global
 72
     1
 94
      127
  0
MLINESTYLE
  5
18
102
{ACAD_REACTORS
330
17
102
}
330
17
100
AcDbMlineStyle
  2
Standard
 70
     0
  3

 62
   256
 51
90.0
 52
90.0
 71
     2
 49
0.5
 62
   256
  6
BYLAYER
 49
-0.5
 62
   256
  6
BYLAYER
  0
ACDBPLACEHOLDER
  5
F
102
{ACAD_REACTORS
330
E
102
}
330
E
  0
VISUALSTYLE
  5
2F
102
{ACAD_REACTORS
330
2A
102
}
102
{ACAD_XDICTIONARY
360
93
102
}
330
2A
100
AcDbVisualStyle
  2
2dWireframe
 70
     4
 71
     0
 72
     2
 73
     0
 90
        0
 40
-0.6
 41
-30.0
 62
     5
 63
     7
421
 16777215
 74
     1
 91
        4
 64
     7
 65
   257
 75
     1
175
     1
 42
1.0
 92
        0
 66
   257
 43
1.0
 76
     1
 77
     6
 78
     2
 67
     7
 79
     5
170
     0
171
     0
290
     0
174
     0
 93
        1
 44
0.0
173
     0
291
     0
 45
0.0
  0
VISUALSTYLE
  5
31
102
{ACAD_REACTORS
330
2A
102
}
102
{ACAD_XDICTIONARY
360
97
102
}
330
2A
100
AcDbVisualStyle
  2
3D Hidden
 70
     6
 71
     1
 72
     2
 73
     2
 90
        0
 40
-0.6
 41
-30.0
 62
     5
 63
     7
421
 16777215
 74
     2
 91
        2
 64
     7
 65
   257
 75
     2
175
     1
 42
40.0
 92
        0
 66
   257
 43
1.0
 76
     1
 77
     6
 78
     2
 67
     7
 79
     3
170
     0
171
     0
290
     0
174
     0
 93
        1
 44
0.0
173
     0
291
     0
 45
0.0
  0
VISUALSTYLE
  5
30
102
{ACAD_REACTORS
330
2A
102
}
102
{ACAD_XDICTIONARY
360
95
102
}
330
2A
100
AcDbVisualStyle
  2
3dWireframe
 70
     5
 71
     0
 72
     2
 73
     0
 90
        0
 40
-0.6
 41
-30.0
 62
     5
 63
     7
421
 16777215
 74
     1
 91
        4
 64
     7
 65
   257
 75
     1
175
     1
 42
1.0
 92
        0
 66
   257
 43
1.0
 76
     1
 77
     6
 78
     2
 67
     7
 79
     5
170
     0
171
     0
290
     0
174
     0
 93
        1
 44
0.0
173
     0
291
     0
 45
0.0
  0
VISUALSTYLE
  5
32
102
{ACAD_REACTORS
330
2A
102
}
102
{ACAD_XDICTIONARY
360
99
102
}
330
2A
100
AcDbVisualStyle
  2
Basic
 70
     7
 71
     1
 72
     0
 73
     1
 90
        0
 40
-0.6
 41
-30.0
 62
     5
 63
     7
421
 16777215
 74
     0
 91
        4
 64
     7
 65
   257
 75
     1
175
     1
 42
1.0
 92
        8
 66
     7
 43
1.0
 76
     1
 77
     6
 78
     2
 67
     7
 79
     5
170
     0
171
     0
290
     0
174
     0
 93
        1
 44
0.0
173
     0
291
     1
 45
0.0
  0
VISUALSTYLE
  5
36
102
{ACAD_REACTORS
330
2A
102
}
102
{ACAD_XDICTIONARY
360
A1
102
}
330
2A
100
AcDbVisualStyle
  2
Brighten
 70
    12
 71
     2
 72
     2
 73
     0
 90
        0
 40
-0.6
 41
-30.0
 62
     5
 63
     7
421
 16777215
 74
     1
 91
        4
 64
     7
 65
   257
 75
     1
175
     1
 42
1.0
 92
        8
 66
     7
 43
1.0
 76
     1
 77
     6
 78
     2
 67
     7
 79
     5
170
     0
171
     0
290
     0
174
     0
 93
        1
 44
50.0
173
     0
291
     1
 45
0.0
  0
VISUALSTYLE
  5
3A
102
{ACAD_REACTORS
330
2A
102
}
102
{ACAD_XDICTIONARY
360
A9
102
}
330
2A
100
AcDbVisualStyle
  2
ColorChange
 70
    16
 71
     2
 72
     2
 73
     3
 90
        0
 40
-0.6
 41
-30.0
 62
     5
 63
     8
421
  8421504
 74
     1
 91
        4
 64
     7
 65
   257
 75
     1
175
     1
 42
1.0
 92
        8
 66
     8
424
  8421504
 43
1.0
 76
     1
 77
     6
 78
     2
 67
     7
 79
     5
170
     0
171
     0
290
     0
174
     0
 93
        1
 44
0.0
173
     0
291
     1
 45
0.0
  0
VISUALSTYLE
  5
34
102
{ACAD_REACTORS
330
2A
102
}
102
{ACAD_XDICTIONARY
360
9D
102
}
330
2A
100
AcDbVisualStyle
  2
Conceptual
 70
     9
 71
     3
 72
     2
 73
     0
 90
        0
 40
-0.6
 41
-30.0
 62
     5
 63
     7
421
 16777215
 74
     2
 91
        2
 64
     7
 65
   257
 75
     1
175
     1
 42
40.0
 92
        8
 66
     7
 43
1.0
 76
     1
 77
     6
 78
     2
 67
     7
 79
     3
170
     0
171
     0
290
     0
174
     0
 93
        1
 44
0.0
173
     0
291
     0
 45
0.0
  0
VISUALSTYLE
  5
35
102
{ACAD_REACTORS
330
2A
102
}
102
{ACAD_XDICTIONARY
360
9F
102
}
330
2A
100
AcDbVisualStyle
  2
Dim
 70
    11
 71
     2
 72
     2
 73
     0
 90
        0
 40
-0.6
 41
-30.0
 62
     5
 63
     7
421
 16777215
 74
     1
 91
        4
 64
     7
 65
   257
 75
     1
175
     1
 42
1.0
 92
        8
 66
     7
 43
1.0
 76
     1
 77
     6
 78
     2
 67
     7
 79
     5
170
     0
171
     0
290
     0
174
     0
 93
        1
 44
-50.0
173
     0
291
     1
 45
0.0
  0
VISUALSTYLE
  5
39
102
{ACAD_REACTORS
330
2A
102
}
102
{ACAD_XDICTIONARY
360
A7
102
}
330
2A
100
AcDbVisualStyle
  2
Facepattern
 70
    15
 71
     2
 72
     2
 73
     0
 90
        0
 40
-0.6
 41
-30.0
 62
     5
 63
     7
421
 16777215
 74
     1
 91
        4
 64
     7
 65
   257
 75
     1
175
     1
 42
1.0
 92
        8
 66
     7
 43
1.0
 76
     1
 77
     6
 78
     2
 67
     7
 79
     5
170
     0
171
     0
290
     0
174
     0
 93
        1
 44
0.0
173
     0
291
     1
 45
0.0
  0
VISUALSTYLE
  5
2B
102
{ACAD_REACTORS
330
2A
102
}
102
{ACAD_XDICTIONARY
360
8B
102
}
330
2A
100
AcDbVisualStyle
  2
Flat
 70
     0
 71
     2
 72
     1
 73
     1
 90
        2
 40
-0.6
 41
30.0
 62
     5
 63
     7
421
 16777215
 74
     0
 91
        4
 64
     7
 65
   257
 75
     1
175
     1
 42
1.0
 92
        8
 66
     7
 43
1.0
 76
     1
 77
     6
 78
     2
 67
     7
 79
     5
170
     0
171
     0
290
     0
174
     0
 93
       13
 44
0.0
173
     0
291
     1
 45
0.0
  0
VISUALSTYLE
  5
2C
102
{ACAD_REACTORS
330
2A
102
}
102
{ACAD_XDICTIONARY
360
8D
102
}
330
2A
100
AcDbVisualStyle
  2
FlatWithEdges
 70
     1
 71
     2
 72
     1
 73
     1
 90
        2
 40
-0.6
 41
30.0
 62
     5
 63
     7
421
 16777215
 74
     1
 91
        4
 64
     7
 65
   257
 75
     1
175
     1
 42
1.0
 92
        0
 66
   257
 43
1.0
 76
     1
 77
     6
 78
     2
 67
     7
 79
     5
170
     0
171
     0
290
     0
174
     0
 93
       13
 44
0.0
173
     0
291
     1
 45
0.0
  0
VISUALSTYLE
  5
2D
102
{ACAD_REACTORS
330
2A
102
}
102
{ACAD_XDICTIONARY
360
8F
102
}
330
2A
100
AcDbVisualStyle
  2
Gouraud
 70
     2
 71
     2
 72
     2
 73
     1
 90
        2
 40
-0.6
 41
30.0
 62
     5
 63
     7
421
 16777215
 74
     0
 91
        4
 64
     7
 65
   257
 75
     1
175
     1
 42
1.0
 92
        0
 66
     7
 43
1.0
 76
     1
 77
     6
 78
     2
 67
     7
 79
     5
170
     0
171
     0
290
     0
174
     0
 93
       13
 44
0.0
173
     0
291
     1
 45
0.0
  0
VISUALSTYLE
  5
2E
102
{ACAD_REACTORS
330
2A
102
}
102
{ACAD_XDICTIONARY
360
91
102
}
330
2A
100
AcDbVisualStyle
  2
GouraudWithEdges
 70
     3
 71
     2
 72
     2
 73
     1
 90
        2
 40
-0.6
 41
30.0
 62
     5
 63
     7
421
 16777215
 74
     1
 91
        4
 64
     7
 65
   257
 75
     1
175
     1
 42
1.0
 92
        0
 66
   257
 43
1.0
 76
     1
 77
     6
 78
     2
 67
     7
 79
     5
170
     0
171
     0
290
     0
174
     0
 93
       13
 44
0.0
173
     0
291
     1
 45
0.0
  0
VISUALSTYLE
  5
38
102
{ACAD_REACTORS
330
2A
102
}
102
{ACAD_XDICTIONARY
360
A5
102
}
330
2A
100
AcDbVisualStyle
  2
Linepattern
 70
    14
 71
     2
 72
     2
 73
     0
 90
        0
 40
-0.6
 41
-30.0
 62
     5
 63
     7
421
 16777215
 74
     1
 91
        4
 64
     7
 65
   257
 75
     7
175
     7
 42
1.0
 92
        8
 66
     7
 43
1.0
 76
     1
 77
     6
 78
     2
 67
     7
 79
     5
170
     0
171
     0
290
     0
174
     0
 93
        1
 44
0.0
173
     0
291
     1
 45
0.0
  0
VISUALSTYLE
  5
33
102
{ACAD_REACTORS
330
2A
102
}
102
{ACAD_XDICTIONARY
360
9B
102
}
330
2A
100
AcDbVisualStyle
  2
Realistic
 70
     8
 71
     2
 72
     2
 73
     0
 90
        0
 40
-0.6
 41
-30.0
 62
     5
 63
     7
421
 16777215
 74
     1
 91
        0
 64
     7
 65
   257
 75
     1
175
     1
 42
1.0
 92
        8
 66
     8
424
  7895160
 43
1.0
 76
     1
 77
     6
 78
     2
 67
     7
 79
     5
170
     0
171
     0
290
     0
174
     0
 93
       13
 44
0.0
173
     0
291
     0
 45
0.0
  0
VISUALSTYLE
  5
37
102
{ACAD_REACTORS
330
2A
102
}
102
{ACAD_XDICTIONARY
360
A3
102
}
330
2A
100
AcDbVisualStyle
  2
Thicken
 70
    13
 71
     2
 72
     2
 73
     0
 90
        0
 40
-0.6
 41
-30.0
 62
     5
 63
     7
421
 16777215
 74
     1
 91
        4
 64
     7
 65
   257
 75
     1
175
     1
 42
1.0
 92
       12
 66
     7
 43
1.0
 76
     1
 77
     6
 78
     2
 67
     7
 79
     5
170
     0
171
     0
290
     0
174
     0
 93
        1
 44
0.0
173
     0
291
     1
 45
0.0
  0
DICTIONARY
  5
93
330
2F
100
AcDbDictionary
280
     1
281
     1
  3
ACAD_XREC_ROUNDTRIP
360
94
  0
DICTIONARY
  5
97
330
31
100
AcDbDictionary
280
     1
281
     1
  3
ACAD_XREC_ROUNDTRIP
360
98
  0
DICTIONARY
  5
95
330
30
100
AcDbDictionary
280
     1
281
     1
  3
ACAD_XREC_ROUNDTRIP
360
96
  0
DICTIONARY
  5
99
330
32
100
AcDbDictionary
280
     1
281
     1
  3
ACAD_XREC_ROUNDTRIP
360
9A
  0
DICTIONARY
  5
A1
330
36
100
AcDbDictionary
280
     1
281
     1
  3
ACAD_XREC_ROUNDTRIP
360
A2
  0
DICTIONARY
  5
A9
330
3A
100
AcDbDictionary
280
     1
281
     1
  3
ACAD_XREC_ROUNDTRIP
360
AA
  0
DICTIONARY
  5
9D
330
34
100
AcDbDictionary
280
     1
281
     1
  3
ACAD_XREC_ROUNDTRIP
360
9E
  0
DICTIONARY
  5
9F
330
35
100
AcDbDictionary
280
     1
281
     1
  3
ACAD_XREC_ROUNDTRIP
360
A0
  0
DICTIONARY
  5
A7
330
39
100
AcDbDictionary
280
     1
281
     1
  3
ACAD_XREC_ROUNDTRIP
360
A8
  0
DICTIONARY
  5
8B
330
2B
100
AcDbDictionary
280
     1
281
     1
  3
ACAD_XREC_ROUNDTRIP
360
8C
  0
DICTIONARY
  5
8D
330
2C
100
AcDbDictionary
280
     1
281
     1
  3
ACAD_XREC_ROUNDTRIP
360
8E
  0
DICTIONARY
  5
8F
330
2D
100
AcDbDictionary
280
     1
281
     1
  3
ACAD_XREC_ROUNDTRIP
360
90
  0
DICTIONARY
  5
91
330
2E
100
AcDbDictionary
280
     1
281
     1
  3
ACAD_XREC_ROUNDTRIP
360
92
  0
DICTIONARY
  5
A5
330
38
100
AcDbDictionary
280
     1
281
     1
  3
ACAD_XREC_ROUNDTRIP
360
A6
  0
DICTIONARY
  5
9B
330
33
100
AcDbDictionary
280
     1
281
     1
  3
ACAD_XREC_ROUNDTRIP
360
9C
  0
DICTIONARY
  5
A3
330
37
100
AcDbDictionary
280
     1
281
     1
  3
ACAD_XREC_ROUNDTRIP
360
A4
  0
XRECORD
  5
94
102
{ACAD_REACTORS
330
93
102
}
330
93
100
AcDbXrecord
280
     1
102
RTVSPropertyOp0
 70
     1
102
RTVSPropertyOp1
 70
     1
102
RTVSPropertyOp2
 70
     1
102
RTVSPropertyOp3
 70
     1
102
RTVSPropertyOp4
 70
     1
102
RTVSPropertyOp5
 70
     1
102
RTVSPropertyOp6
 70
     1
102
RTVSPropertyOp7
 70
     1
102
RTVSPropertyOp8
 70
     1
102
RTVSPropertyOp9
 70
     1
102
RTVSPropertyOp10
 70
     1
102
RTVSPropertyOp11
 70
     1
102
RTVSPropertyOp12
 70
     1
102
RTVSPropertyOp13
 70
     1
102
RTVSPropertyOp14
 70
     1
102
RTVSPropertyOp15
 70
     1
102
RTVSPropertyOp16
 70
     1
102
RTVSPropertyOp17
 70
     1
102
RTVSPropertyOp18
 70
     1
102
RTVSPropertyOp19
 70
     1
102
RTVSPropertyOp20
 70
     1
102
RTVSPropertyOp21
 70
     1
102
RTVSPropertyOp22
 70
     1
102
RTVSPropertyOp23
 70
     1
102
RTVSPropertyOp24
 70
     1
102
RTVSPropertyOp25
 70
     1
102
RTVSPropertyOp26
 70
     1
102
RTVSPropertyOp27
 70
     1
102
RTVSPropertyOp28
 70
     1
102
RTVSPropertyOp29
 70
     1
102
RTVSPropertyOp30
 70
     1
102
RTVSPropertyOp31
 70
     1
102
RTVSPropertyOp32
 70
     1
  0
XRECORD
  5
98
102
{ACAD_REACTORS
330
97
102
}
330
97
100
AcDbXrecord
280
     1
102
RTVSPropertyOp0
 70
     1
102
RTVSPropertyOp1
 70
     1
102
RTVSPropertyOp2
 70
     1
102
RTVSPropertyOp3
 70
     1
102
RTVSPropertyOp4
 70
     1
102
RTVSPropertyOp5
 70
     1
102
RTVSPropertyOp6
 70
     1
102
RTVSPropertyOp7
 70
     1
102
RTVSPropertyOp8
 70
     1
102
RTVSPropertyOp9
 70
     1
102
RTVSPropertyOp10
 70
     1
102
RTVSPropertyOp11
 70
     1
102
RTVSPropertyOp12
 70
     1
102
RTVSPropertyOp13
 70
     1
102
RTVSPropertyOp14
 70
     1
102
RTVSPropertyOp15
 70
     1
102
RTVSPropertyOp16
 70
     1
102
RTVSPropertyOp17
 70
     1
102
RTVSPropertyOp18
 70
     1
102
RTVSPropertyOp19
 70
     1
102
RTVSPropertyOp20
 70
     1
102
RTVSPropertyOp21
 70
     1
102
RTVSPropertyOp22
 70
     1
102
RTVSPropertyOp23
 70
     1
102
RTVSPropertyOp24
 70
     1
102
RTVSPropertyOp25
 70
     1
102
RTVSPropertyOp26
 70
     1
102
RTVSPropertyOp27
 70
     1
102
RTVSPropertyOp28
 70
     1
102
RTVSPropertyOp29
 70
     1
102
RTVSPropertyOp30
 70
     1
102
RTVSPropertyOp31
 70
     1
102
RTVSPropertyOp32
 70
     1
  0
XRECORD
  5
96
102
{ACAD_REACTORS
330
95
102
}
330
95
100
AcDbXrecord
280
     1
102
RTVSPropertyOp0
 70
     1
102
RTVSPropertyOp1
 70
     1
102
RTVSPropertyOp2
 70
     1
102
RTVSPropertyOp3
 70
     1
102
RTVSPropertyOp4
 70
     1
102
RTVSPropertyOp5
 70
     1
102
RTVSPropertyOp6
 70
     1
102
RTVSPropertyOp7
 70
     1
102
RTVSPropertyOp8
 70
     1
102
RTVSPropertyOp9
 70
     1
102
RTVSPropertyOp10
 70
     1
102
RTVSPropertyOp11
 70
     1
102
RTVSPropertyOp12
 70
     1
102
RTVSPropertyOp13
 70
     1
102
RTVSPropertyOp14
 70
     1
102
RTVSPropertyOp15
 70
     1
102
RTVSPropertyOp16
 70
     1
102
RTVSPropertyOp17
 70
     1
102
RTVSPropertyOp18
 70
     1
102
RTVSPropertyOp19
 70
     1
102
RTVSPropertyOp20
 70
     1
102
RTVSPropertyOp21
 70
     1
102
RTVSPropertyOp22
 70
     1
102
RTVSPropertyOp23
 70
     1
102
RTVSPropertyOp24
 70
     1
102
RTVSPropertyOp25
 70
     1
102
RTVSPropertyOp26
 70
     1
102
RTVSPropertyOp27
 70
     1
102
RTVSPropertyOp28
 70
     1
102
RTVSPropertyOp29
 70
     1
102
RTVSPropertyOp30
 70
     1
102
RTVSPropertyOp31
 70
     1
102
RTVSPropertyOp32
 70
     1
  0
XRECORD
  5
9A
102
{ACAD_REACTORS
330
99
102
}
330
99
100
AcDbXrecord
280
     1
102
RTVSPropertyOp0
 70
     1
102
RTVSPropertyOp1
 70
     1
102
RTVSPropertyOp2
 70
     1
102
RTVSPropertyOp3
 70
     1
102
RTVSPropertyOp4
 70
     1
102
RTVSPropertyOp5
 70
     1
102
RTVSPropertyOp6
 70
     1
102
RTVSPropertyOp7
 70
     1
102
RTVSPropertyOp8
 70
     1
102
RTVSPropertyOp9
 70
     1
102
RTVSPropertyOp10
 70
     1
102
RTVSPropertyOp11
 70
     1
102
RTVSPropertyOp12
 70
     1
102
RTVSPropertyOp13
 70
     1
102
RTVSPropertyOp14
 70
     1
102
RTVSPropertyOp15
 70
     1
102
RTVSPropertyOp16
 70
     1
102
RTVSPropertyOp17
 70
     1
102
RTVSPropertyOp18
 70
     1
102
RTVSPropertyOp19
 70
     1
102
RTVSPropertyOp20
 70
     1
102
RTVSPropertyOp21
 70
     1
102
RTVSPropertyOp22
 70
     1
102
RTVSPropertyOp23
 70
     1
102
RTVSPropertyOp24
 70
     1
102
RTVSPropertyOp25
 70
     1
102
RTVSPropertyOp26
 70
     1
102
RTVSPropertyOp27
 70
     1
102
RTVSPropertyOp28
 70
     1
102
RTVSPropertyOp29
 70
     1
102
RTVSPropertyOp30
 70
     1
102
RTVSPropertyOp31
 70
     1
102
RTVSPropertyOp32
 70
     1
  0
XRECORD
  5
A2
102
{ACAD_REACTORS
330
A1
102
}
330
A1
100
AcDbXrecord
280
     1
102
RTVSPropertyOp0
 70
     1
102
RTVSPropertyOp1
 70
     1
102
RTVSPropertyOp2
 70
     1
102
RTVSPropertyOp3
 70
     1
102
RTVSPropertyOp4
 70
     1
102
RTVSPropertyOp5
 70
     1
102
RTVSPropertyOp6
 70
     1
102
RTVSPropertyOp7
 70
     1
102
RTVSPropertyOp8
 70
     1
102
RTVSPropertyOp9
 70
     1
102
RTVSPropertyOp10
 70
     1
102
RTVSPropertyOp11
 70
     1
102
RTVSPropertyOp12
 70
     1
102
RTVSPropertyOp13
 70
     1
102
RTVSPropertyOp14
 70
     1
102
RTVSPropertyOp15
 70
     1
102
RTVSPropertyOp16
 70
     1
102
RTVSPropertyOp17
 70
     1
102
RTVSPropertyOp18
 70
     1
102
RTVSPropertyOp19
 70
     1
102
RTVSPropertyOp20
 70
     1
102
RTVSPropertyOp21
 70
     1
102
RTVSPropertyOp22
 70
     1
102
RTVSPropertyOp23
 70
     1
102
RTVSPropertyOp24
 70
     1
102
RTVSPropertyOp25
 70
     1
102
RTVSPropertyOp26
 70
     1
102
RTVSPropertyOp27
 70
     1
102
RTVSPropertyOp28
 70
     1
102
RTVSPropertyOp29
 70
     1
102
RTVSPropertyOp30
 70
     1
102
RTVSPropertyOp31
 70
     1
102
RTVSPropertyOp32
 70
     1
  0
XRECORD
  5
AA
102
{ACAD_REACTORS
330
A9
102
}
330
A9
100
AcDbXrecord
280
     1
102
RTVSPropertyOp0
 70
     1
102
RTVSPropertyOp1
 70
     1
102
RTVSPropertyOp2
 70
     1
102
RTVSPropertyOp3
 70
     1
102
RTVSPropertyOp4
 70
     1
102
RTVSPropertyOp5
 70
     1
102
RTVSPropertyOp6
 70
     1
102
RTVSPropertyOp7
 70
     1
102
RTVSPropertyOp8
 70
     1
102
RTVSPropertyOp9
 70
     1
102
RTVSPropertyOp10
 70
     1
102
RTVSPropertyOp11
 70
     1
102
RTVSPropertyOp12
 70
     1
102
RTVSPropertyOp13
 70
     1
102
RTVSPropertyOp14
 70
     1
102
RTVSPropertyOp15
 70
     1
102
RTVSPropertyOp16
 70
     1
102
RTVSPropertyOp17
 70
     1
102
RTVSPropertyOp18
 70
     1
102
RTVSPropertyOp19
 70
     1
102
RTVSPropertyOp20
 70
     1
102
RTVSPropertyOp21
 70
     1
102
RTVSPropertyOp22
 70
     1
102
RTVSPropertyOp23
 70
     1
102
RTVSPropertyOp24
 70
     1
102
RTVSPropertyOp25
 70
     1
102
RTVSPropertyOp26
 70
     1
102
RTVSPropertyOp27
 70
     1
102
RTVSPropertyOp28
 70
     1
102
RTVSPropertyOp29
 70
     1
102
RTVSPropertyOp30
 70
     1
102
RTVSPropertyOp31
 70
     1
102
RTVSPropertyOp32
 70
     1
  0
XRECORD
  5
9E
102
{ACAD_REACTORS
330
9D
102
}
330
9D
100
AcDbXrecord
280
     1
102
RTVSPropertyOp0
 70
     1
102
RTVSPropertyOp1
 70
     1
102
RTVSPropertyOp2
 70
     1
102
RTVSPropertyOp3
 70
     1
102
RTVSPropertyOp4
 70
     1
102
RTVSPropertyOp5
 70
     1
102
RTVSPropertyOp6
 70
     1
102
RTVSPropertyOp7
 70
     1
102
RTVSPropertyOp8
 70
     1
102
RTVSPropertyOp9
 70
     1
102
RTVSPropertyOp10
 70
     1
102
RTVSPropertyOp11
 70
     1
102
RTVSPropertyOp12
 70
     1
102
RTVSPropertyOp13
 70
     1
102
RTVSPropertyOp14
 70
     1
102
RTVSPropertyOp15
 70
     1
102
RTVSPropertyOp16
 70
     1
102
RTVSPropertyOp17
 70
     1
102
RTVSPropertyOp18
 70
     1
102
RTVSPropertyOp19
 70
     1
102
RTVSPropertyOp20
 70
     1
102
RTVSPropertyOp21
 70
     1
102
RTVSPropertyOp22
 70
     1
102
RTVSPropertyOp23
 70
     1
102
RTVSPropertyOp24
 70
     1
102
RTVSPropertyOp25
 70
     1
102
RTVSPropertyOp26
 70
     1
102
RTVSPropertyOp27
 70
     1
102
RTVSPropertyOp28
 70
     1
102
RTVSPropertyOp29
 70
     1
102
RTVSPropertyOp30
 70
     1
102
RTVSPropertyOp31
 70
     1
102
RTVSPropertyOp32
 70
     1
  0
XRECORD
  5
A0
102
{ACAD_REACTORS
330
9F
102
}
330
9F
100
AcDbXrecord
280
     1
102
RTVSPropertyOp0
 70
     1
102
RTVSPropertyOp1
 70
     1
102
RTVSPropertyOp2
 70
     1
102
RTVSPropertyOp3
 70
     1
102
RTVSPropertyOp4
 70
     1
102
RTVSPropertyOp5
 70
     1
102
RTVSPropertyOp6
 70
     1
102
RTVSPropertyOp7
 70
     1
102
RTVSPropertyOp8
 70
     1
102
RTVSPropertyOp9
 70
     1
102
RTVSPropertyOp10
 70
     1
102
RTVSPropertyOp11
 70
     1
102
RTVSPropertyOp12
 70
     1
102
RTVSPropertyOp13
 70
     1
102
RTVSPropertyOp14
 70
     1
102
RTVSPropertyOp15
 70
     1
102
RTVSPropertyOp16
 70
     1
102
RTVSPropertyOp17
 70
     1
102
RTVSPropertyOp18
 70
     1
102
RTVSPropertyOp19
 70
     1
102
RTVSPropertyOp20
 70
     1
102
RTVSPropertyOp21
 70
     1
102
RTVSPropertyOp22
 70
     1
102
RTVSPropertyOp23
 70
     1
102
RTVSPropertyOp24
 70
     1
102
RTVSPropertyOp25
 70
     1
102
RTVSPropertyOp26
 70
     1
102
RTVSPropertyOp27
 70
     1
102
RTVSPropertyOp28
 70
     1
102
RTVSPropertyOp29
 70
     1
102
RTVSPropertyOp30
 70
     1
102
RTVSPropertyOp31
 70
     1
102
RTVSPropertyOp32
 70
     1
  0
XRECORD
  5
A8
102
{ACAD_REACTORS
330
A7
102
}
330
A7
100
AcDbXrecord
280
     1
102
RTVSPropertyOp0
 70
     1
102
RTVSPropertyOp1
 70
     1
102
RTVSPropertyOp2
 70
     1
102
RTVSPropertyOp3
 70
     1
102
RTVSPropertyOp4
 70
     1
102
RTVSPropertyOp5
 70
     1
102
RTVSPropertyOp6
 70
     1
102
RTVSPropertyOp7
 70
     1
102
RTVSPropertyOp8
 70
     1
102
RTVSPropertyOp9
 70
     1
102
RTVSPropertyOp10
 70
     1
102
RTVSPropertyOp11
 70
     1
102
RTVSPropertyOp12
 70
     1
102
RTVSPropertyOp13
 70
     1
102
RTVSPropertyOp14
 70
     1
102
RTVSPropertyOp15
 70
     1
102
RTVSPropertyOp16
 70
     1
102
RTVSPropertyOp17
 70
     1
102
RTVSPropertyOp18
 70
     1
102
RTVSPropertyOp19
 70
     1
102
RTVSPropertyOp20
 70
     1
102
RTVSPropertyOp21
 70
     1
102
RTVSPropertyOp22
 70
     1
102
RTVSPropertyOp23
 70
     1
102
RTVSPropertyOp24
 70
     1
102
RTVSPropertyOp25
 70
     1
102
RTVSPropertyOp26
 70
     1
102
RTVSPropertyOp27
 70
     1
102
RTVSPropertyOp28
 70
     1
102
RTVSPropertyOp29
 70
     1
102
RTVSPropertyOp30
 70
     1
102
RTVSPropertyOp31
 70
     1
102
RTVSPropertyOp32
 70
     1
  0
XRECORD
  5
8C
102
{ACAD_REACTORS
330
8B
102
}
330
8B
100
AcDbXrecord
280
     1
102
RTVSPropertyOp0
 70
     1
102
RTVSPropertyOp1
 70
     1
102
RTVSPropertyOp2
 70
     1
102
RTVSPropertyOp3
 70
     1
102
RTVSPropertyOp4
 70
     1
102
RTVSPropertyOp5
 70
     1
102
RTVSPropertyOp6
 70
     1
102
RTVSPropertyOp7
 70
     1
102
RTVSPropertyOp8
 70
     1
102
RTVSPropertyOp9
 70
     1
102
RTVSPropertyOp10
 70
     1
102
RTVSPropertyOp11
 70
     1
102
RTVSPropertyOp12
 70
     1
102
RTVSPropertyOp13
 70
     1
102
RTVSPropertyOp14
 70
     1
102
RTVSPropertyOp15
 70
     1
102
RTVSPropertyOp16
 70
     1
102
RTVSPropertyOp17
 70
     1
102
RTVSPropertyOp18
 70
     1
102
RTVSPropertyOp19
 70
     1
102
RTVSPropertyOp20
 70
     1
102
RTVSPropertyOp21
 70
     1
102
RTVSPropertyOp22
 70
     1
102
RTVSPropertyOp23
 70
     1
102
RTVSPropertyOp24
 70
     1
102
RTVSPropertyOp25
 70
     1
102
RTVSPropertyOp26
 70
     1
102
RTVSPropertyOp27
 70
     1
102
RTVSPropertyOp28
 70
     1
102
RTVSPropertyOp29
 70
     1
102
RTVSPropertyOp30
 70
     1
102
RTVSPropertyOp31
 70
     1
102
RTVSPropertyOp32
 70
     1
  0
XRECORD
  5
8E
102
{ACAD_REACTORS
330
8D
102
}
330
8D
100
AcDbXrecord
280
     1
102
RTVSPropertyOp0
 70
     1
102
RTVSPropertyOp1
 70
     1
102
RTVSPropertyOp2
 70
     1
102
RTVSPropertyOp3
 70
     1
102
RTVSPropertyOp4
 70
     1
102
RTVSPropertyOp5
 70
     1
102
RTVSPropertyOp6
 70
     1
102
RTVSPropertyOp7
 70
     1
102
RTVSPropertyOp8
 70
     1
102
RTVSPropertyOp9
 70
     1
102
RTVSPropertyOp10
 70
     1
102
RTVSPropertyOp11
 70
     1
102
RTVSPropertyOp12
 70
     1
102
RTVSPropertyOp13
 70
     1
102
RTVSPropertyOp14
 70
     1
102
RTVSPropertyOp15
 70
     1
102
RTVSPropertyOp16
 70
     1
102
RTVSPropertyOp17
 70
     1
102
RTVSPropertyOp18
 70
     1
102
RTVSPropertyOp19
 70
     1
102
RTVSPropertyOp20
 70
     1
102
RTVSPropertyOp21
 70
     1
102
RTVSPropertyOp22
 70
     1
102
RTVSPropertyOp23
 70
     1
102
RTVSPropertyOp24
 70
     1
102
RTVSPropertyOp25
 70
     1
102
RTVSPropertyOp26
 70
     1
102
RTVSPropertyOp27
 70
     1
102
RTVSPropertyOp28
 70
     1
102
RTVSPropertyOp29
 70
     1
102
RTVSPropertyOp30
 70
     1
102
RTVSPropertyOp31
 70
     1
102
RTVSPropertyOp32
 70
     1
  0
XRECORD
  5
90
102
{ACAD_REACTORS
330
8F
102
}
330
8F
100
AcDbXrecord
280
     1
102
RTVSPropertyOp0
 70
     1
102
RTVSPropertyOp1
 70
     1
102
RTVSPropertyOp2
 70
     1
102
RTVSPropertyOp3
 70
     1
102
RTVSPropertyOp4
 70
     1
102
RTVSPropertyOp5
 70
     1
102
RTVSPropertyOp6
 70
     1
102
RTVSPropertyOp7
 70
     1
102
RTVSPropertyOp8
 70
     1
102
RTVSPropertyOp9
 70
     1
102
RTVSPropertyOp10
 70
     1
102
RTVSPropertyOp11
 70
     1
102
RTVSPropertyOp12
 70
     1
102
RTVSPropertyOp13
 70
     1
102
RTVSPropertyOp14
 70
     1
102
RTVSPropertyOp15
 70
     1
102
RTVSPropertyOp16
 70
     1
102
RTVSPropertyOp17
 70
     1
102
RTVSPropertyOp18
 70
     1
102
RTVSPropertyOp19
 70
     1
102
RTVSPropertyOp20
 70
     1
102
RTVSPropertyOp21
 70
     1
102
RTVSPropertyOp22
 70
     1
102
RTVSPropertyOp23
 70
     1
102
RTVSPropertyOp24
 70
     1
102
RTVSPropertyOp25
 70
     1
102
RTVSPropertyOp26
 70
     1
102
RTVSPropertyOp27
 70
     1
102
RTVSPropertyOp28
 70
     1
102
RTVSPropertyOp29
 70
     1
102
RTVSPropertyOp30
 70
     1
102
RTVSPropertyOp31
 70
     1
102
RTVSPropertyOp32
 70
     1
  0
XRECORD
  5
92
102
{ACAD_REACTORS
330
91
102
}
330
91
100
AcDbXrecord
280
     1
102
RTVSPropertyOp0
 70
     1
102
RTVSPropertyOp1
 70
     1
102
RTVSPropertyOp2
 70
     1
102
RTVSPropertyOp3
 70
     1
102
RTVSPropertyOp4
 70
     1
102
RTVSPropertyOp5
 70
     1
102
RTVSPropertyOp6
 70
     1
102
RTVSPropertyOp7
 70
     1
102
RTVSPropertyOp8
 70
     1
102
RTVSPropertyOp9
 70
     1
102
RTVSPropertyOp10
 70
     1
102
RTVSPropertyOp11
 70
     1
102
RTVSPropertyOp12
 70
     1
102
RTVSPropertyOp13
 70
     1
102
RTVSPropertyOp14
 70
     1
102
RTVSPropertyOp15
 70
     1
102
RTVSPropertyOp16
 70
     1
102
RTVSPropertyOp17
 70
     1
102
RTVSPropertyOp18
 70
     1
102
RTVSPropertyOp19
 70
     1
102
RTVSPropertyOp20
 70
     1
102
RTVSPropertyOp21
 70
     1
102
RTVSPropertyOp22
 70
     1
102
RTVSPropertyOp23
 70
     1
102
RTVSPropertyOp24
 70
     1
102
RTVSPropertyOp25
 70
     1
102
RTVSPropertyOp26
 70
     1
102
RTVSPropertyOp27
 70
     1
102
RTVSPropertyOp28
 70
     1
102
RTVSPropertyOp29
 70
     1
102
RTVSPropertyOp30
 70
     1
102
RTVSPropertyOp31
 70
     1
102
RTVSPropertyOp32
 70
     1
  0
XRECORD
  5
A6
102
{ACAD_REACTORS
330
A5
102
}
330
A5
100
AcDbXrecord
280
     1
102
RTVSPropertyOp0
 70
     1
102
RTVSPropertyOp1
 70
     1
102
RTVSPropertyOp2
 70
     1
102
RTVSPropertyOp3
 70
     1
102
RTVSPropertyOp4
 70
     1
102
RTVSPropertyOp5
 70
     1
102
RTVSPropertyOp6
 70
     1
102
RTVSPropertyOp7
 70
     1
102
RTVSPropertyOp8
 70
     1
102
RTVSPropertyOp9
 70
     1
102
RTVSPropertyOp10
 70
     1
102
RTVSPropertyOp11
 70
     1
102
RTVSPropertyOp12
 70
     1
102
RTVSPropertyOp13
 70
     1
102
RTVSPropertyOp14
 70
     1
102
RTVSPropertyOp15
 70
     1
102
RTVSPropertyOp16
 70
     1
102
RTVSPropertyOp17
 70
     1
102
RTVSPropertyOp18
 70
     1
102
RTVSPropertyOp19
 70
     1
102
RTVSPropertyOp20
 70
     1
102
RTVSPropertyOp21
 70
     1
102
RTVSPropertyOp22
 70
     1
102
RTVSPropertyOp23
 70
     1
102
RTVSPropertyOp24
 70
     1
102
RTVSPropertyOp25
 70
     1
102
RTVSPropertyOp26
 70
     1
102
RTVSPropertyOp27
 70
     1
102
RTVSPropertyOp28
 70
     1
102
RTVSPropertyOp29
 70
     1
102
RTVSPropertyOp30
 70
     1
102
RTVSPropertyOp31
 70
     1
102
RTVSPropertyOp32
 70
     1
  0
XRECORD
  5
9C
102
{ACAD_REACTORS
330
9B
102
}
330
9B
100
AcDbXrecord
280
     1
102
RTVSPropertyOp0
 70
     1
102
RTVSPropertyOp1
 70
     1
102
RTVSPropertyOp2
 70
     1
102
RTVSPropertyOp3
 70
     1
102
RTVSPropertyOp4
 70
     1
102
RTVSPropertyOp5
 70
     1
102
RTVSPropertyOp6
 70
     1
102
RTVSPropertyOp7
 70
     1
102
RTVSPropertyOp8
 70
     1
102
RTVSPropertyOp9
 70
     1
102
RTVSPropertyOp10
 70
     1
102
RTVSPropertyOp11
 70
     1
102
RTVSPropertyOp12
 70
     1
102
RTVSPropertyOp13
 70
     1
102
RTVSPropertyOp14
 70
     1
102
RTVSPropertyOp15
 70
     1
102
RTVSPropertyOp16
 70
     1
102
RTVSPropertyOp17
 70
     1
102
RTVSPropertyOp18
 70
     1
102
RTVSPropertyOp19
 70
     1
102
RTVSPropertyOp20
 70
     1
102
RTVSPropertyOp21
 70
     1
102
RTVSPropertyOp22
 70
     1
102
RTVSPropertyOp23
 70
     1
102
RTVSPropertyOp24
 70
     1
102
RTVSPropertyOp25
 70
     1
102
RTVSPropertyOp26
 70
     1
102
RTVSPropertyOp27
 70
     1
102
RTVSPropertyOp28
 70
     1
102
RTVSPropertyOp29
 70
     1
102
RTVSPropertyOp30
 70
     1
102
RTVSPropertyOp31
 70
     1
102
RTVSPropertyOp32
 70
     1
  0
XRECORD
  5
A4
102
{ACAD_REACTORS
330
A3
102
}
330
A3
100
AcDbXrecord
280
     1
102
RTVSPropertyOp0
 70
     1
102
RTVSPropertyOp1
 70
     1
102
RTVSPropertyOp2
 70
     1
102
RTVSPropertyOp3
 70
     1
102
RTVSPropertyOp4
 70
     1
102
RTVSPropertyOp5
 70
     1
102
RTVSPropertyOp6
 70
     1
102
RTVSPropertyOp7
 70
     1
102
RTVSPropertyOp8
 70
     1
102
RTVSPropertyOp9
 70
     1
102
RTVSPropertyOp10
 70
     1
102
RTVSPropertyOp11
 70
     1
102
RTVSPropertyOp12
 70
     1
102
RTVSPropertyOp13
 70
     1
102
RTVSPropertyOp14
 70
     1
102
RTVSPropertyOp15
 70
     1
102
RTVSPropertyOp16
 70
     1
102
RTVSPropertyOp17
 70
     1
102
RTVSPropertyOp18
 70
     1
102
RTVSPropertyOp19
 70
     1
102
RTVSPropertyOp20
 70
     1
102
RTVSPropertyOp21
 70
     1
102
RTVSPropertyOp22
 70
     1
102
RTVSPropertyOp23
 70
     1
102
RTVSPropertyOp24
 70
     1
102
RTVSPropertyOp25
 70
     1
102
RTVSPropertyOp26
 70
     1
102
RTVSPropertyOp27
 70
     1
102
RTVSPropertyOp28
 70
     1
102
RTVSPropertyOp29
 70
     1
102
RTVSPropertyOp30
 70
     1
102
RTVSPropertyOp31
 70
     1
102
RTVSPropertyOp32
 70
     1
  0
ENDSEC
  0
EOF
