  0
SECTION
  2
HEADER
  9
$ACADVER
  1
AC1021
  9
$ACADMAINTVER
 70
    25
  9
$DWGCODEPAGE
  3
ANSI_1252
  9
$INSBASE
 10
0.0
 20
0.0
 30
0.0
  9
$EXTMIN
 10
21.0214
 20
-114.8534
 30
0.0
  9
$EXTMAX
 10
190.7833
 20
131.8235
 30
0.0
  9
$LIMMIN
 10
0.0
 20
0.0
  9
$LIMMAX
 10
12.0
 20
9.0
  9
$ORTHOMODE
 70
     0
  9
$REGENMODE
 70
     1
  9
$FILLMODE
 70
     1
  9
$QTEXTMODE
 70
     0
  9
$MIRRTEXT
 70
     1
  9
$LTSCALE
 40
1.0
  9
$ATTMODE
 70
     1
  9
$TEXTSIZE
 40
0.2
  9
$TRACEWID
 40
0.05
  9
$TEXTSTYLE
  7
Standard
  9
$CLAYER
  8
0
  9
$CELTYPE
  6
ByLayer
  9
$CECOLOR
 62
   256
  9
$CELTSCALE
 40
1.0
  9
$DISPSILH
 70
     0
  9
$DIMSCALE
 40
1.0
  9
$DIMASZ
 40
0.18
  9
$DIMEXO
 40
0.0625
  9
$DIMDLI
 40
0.38
  9
$DIMRND
 40
0.0
  9
$DIMDLE
 40
0.0
  9
$DIMEXE
 40
0.18
  9
$DIMTP
 40
0.0
  9
$DIMTM
 40
0.0
  9
$DIMTXT
 40
0.18
  9
$DIMCEN
 40
0.09
  9
$DIMTSZ
 40
0.0
  9
$DIMTOL
 70
     0
  9
$DIMLIM
 70
     0
  9
$DIMTIH
 70
     1
  9
$DIMTOH
 70
     1
  9
$DIMSE1
 70
     0
  9
$DIMSE2
 70
     0
  9
$DIMTAD
 70
     0
  9
$DIMZIN
 70
     0
  9
$DIMBLK
  1

  9
$DIMASO
 70
     1
  9
$DIMSHO
 70
     1
  9
$DIMPOST
  1

  9
$DIMAPOST
  1

  9
$DIMALT
 70
     0
  9
$DIMALTD
 70
     2
  9
$DIMALTF
 40
25.4
  9
$DIMLFAC
 40
1.0
  9
$DIMTOFL
 70
     0
  9
$DIMTVP
 40
0.0
  9
$DIMTIX
 70
     0
  9
$DIMSOXD
 70
     0
  9
$DIMSAH
 70
     0
  9
$DIMBLK1
  1

  9
$DIMBLK2
  1

  9
$DIMSTYLE
  2
Standard
  9
$DIMCLRD
 70
     0
  9
$DIMCLRE
 70
     0
  9
$DIMCLRT
 70
     0
  9
$DIMTFAC
 40
1.0
  9
$DIMGAP
 40
0.09
  9
$DIMJUST
 70
     0
  9
$DIMSD1
 70
     0
  9
$DIMSD2
 70
     0
  9
$DIMTOLJ
 70
     1
  9
$DIMTZIN
 70
     0
  9
$DIMALTZ
 70
     0
  9
$DIMALTTZ
 70
     0
  9
$DIMUPT
 70
     0
  9
$DIMDEC
 70
     4
  9
$DIMTDEC
 70
     4
  9
$DIMALTU
 70
     2
  9
$DIMALTTD
 70
     2
  9
$DIMTXSTY
  7
Standard
  9
$DIMAUNIT
 70
     0
  9
$DIMADEC
 70
     0
  9
$DIMALTRND
 40
0.0
  9
$DIMAZIN
 70
     0
  9
$DIMDSEP
 70
    46
  9
$DIMATFIT
 70
     3
  9
$DIMFRAC
 70
     0
  9
$DIMLDRBLK
  1

  9
$DIMLUNIT
 70
     2
  9
$DIMLWD
 70
    -2
  9
$DIMLWE
 70
    -2
  9
$DIMTMOVE
 70
     0
  9
$DIMFXL
 40
1.0
  9
$DIMFXLON
 70
     0
  9
$DIMJOGANG
 40
0.7853981633974483
  9
$DIMTFILL
 70
     0
  9
$DIMTFILLCLR
 70
     0
  9
$DIMARCSYM
 70
     0
  9
$DIMLTYPE
  6

  9
$DIMLTEX1
  6

  9
$DIMLTEX2
  6

  9
$LUNITS
 70
     2
  9
$LUPREC
 70
     4
  9
$SKETCHINC
 40
0.1
  9
$FILLETRAD
 40
0.5
  9
$AUNITS
 70
     0
  9
$AUPREC
 70
     0
  9
$MENU
  1
.
  9
$ELEVATION
 40
0.0
  9
$PELEVATION
 40
0.0
  9
$THICKNESS
 40
0.0
  9
$LIMCHECK
 70
     0
  9
$CHAMFERA
 40
0.5
  9
$CHAMFERB
 40
0.5
  9
$CHAMFERC
 40
1.0
  9
$CHAMFERD
 40
0.0
  9
$SKPOLY
 70
     0
  9
$TDCREATE
 40
2458493.723392431
  9
$TDUCREATE
 40
2458493.723392431
  9
$TDUPDATE
 40
2458493.723392604
  9
$TDUUPDATE
 40
2458493.723392604
  9
$TDINDWG
 40
0.0000000116
  9
$TDUSRTIMER
 40
0.0000000116
  9
$USRTIMER
 70
     1
  9
$ANGBASE
 50
0.0
  9
$ANGDIR
 70
     0
  9
$PDMODE
 70
     0
  9
$PDSIZE
 40
0.0
  9
$PLINEWID
 40
0.0
  9
$SPLFRAME
 70
     0
  9
$SPLINETYPE
 70
     6
  9
$SPLINESEGS
 70
     8
  9
$HANDSEED
  5
9D
  9
$SURFTAB1
 70
     6
  9
$SURFTAB2
 70
     6
  9
$SURFTYPE
 70
     6
  9
$SURFU
 70
     6
  9
$SURFV
 70
     6
  9
$UCSBASE
  2

  9
$UCSNAME
  2

  9
$UCSORG
 10
0.0
 20
0.0
 30
0.0
  9
$UCSXDIR
 10
1.0
 20
0.0
 30
0.0
  9
$UCSYDIR
 10
0.0
 20
1.0
 30
0.0
  9
$UCSORTHOREF
  2

  9
$UCSORTHOVIEW
 70
     0
  9
$UCSORGTOP
 10
0.0
 20
0.0
 30
0.0
  9
$UCSORGBOTTOM
 10
0.0
 20
0.0
 30
0.0
  9
$UCSORGLEFT
 10
0.0
 20
0.0
 30
0.0
  9
$UCSORGRIGHT
 10
0.0
 20
0.0
 30
0.0
  9
$UCSORGFRONT
 10
0.0
 20
0.0
 30
0.0
  9
$UCSORGBACK
 10
0.0
 20
0.0
 30
0.0
  9
$PUCSBASE
  2

  9
$PUCSNAME
  2

  9
$PUCSORG
 10
0.0
 20
0.0
 30
0.0
  9
$PUCSXDIR
 10
1.0
 20
0.0
 30
0.0
  9
$PUCSYDIR
 10
0.0
 20
1.0
 30
0.0
  9
$PUCSORTHOREF
  2

  9
$PUCSORTHOVIEW
 70
     0
  9
$PUCSORGTOP
 10
0.0
 20
0.0
 30
0.0
  9
$PUCSORGBOTTOM
 10
0.0
 20
0.0
 30
0.0
  9
$PUCSORGLEFT
 10
0.0
 20
0.0
 30
0.0
  9
$PUCSORGRIGHT
 10
0.0
 20
0.0
 30
0.0
  9
$PUCSORGFRONT
 10
0.0
 20
0.0
 30
0.0
  9
$PUCSORGBACK
 10
0.0
 20
0.0
 30
0.0
  9
$USERI1
 70
     0
  9
$USERI2
 70
     0
  9
$USERI3
 70
     0
  9
$USERI4
 70
     0
  9
$USERI5
 70
     0
  9
$USERR1
 40
0.0
  9
$USERR2
 40
0.0
  9
$USERR3
 40
0.0
  9
$USERR4
 40
0.0
  9
$USERR5
 40
0.0
  9
$WORLDVIEW
 70
     1
  9
$SHADEDGE
 70
     3
  9
$SHADEDIF
 70
    70
  9
$TILEMODE
 70
     1
  9
$MAXACTVP
 70
    64
  9
$PINSBASE
 10
0.0
 20
0.0
 30
0.0
  9
$PLIMCHECK
 70
     0
  9
$PEXTMIN
 10
1.000000000000000E+20
 20
1.000000000000000E+20
 30
1.000000000000000E+20
  9
$PEXTMAX
 10
-1.000000000000000E+20
 20
-1.000000000000000E+20
 30
-1.000000000000000E+20
  9
$PLIMMIN
 10
0.0
 20
0.0
  9
$PLIMMAX
 10
12.0
 20
9.0
  9
$UNITMODE
 70
     0
  9
$VISRETAIN
 70
     1
  9
$PLINEGEN
 70
     0
  9
$PSLTSCALE
 70
     1
  9
$TREEDEPTH
 70
  3020
  9
$CMLSTYLE
  2
Standard
  9
$CMLJUST
 70
     0
  9
$CMLSCALE
 40
1.0
  9
$PROXYGRAPHICS
 70
     1
  9
$MEASUREMENT
 70
     0
  9
$CELWEIGHT
370
    -1
  9
$ENDCAPS
280
     0
  9
$JOINSTYLE
280
     0
  9
$LWDISPLAY
290
     0
  9
$INSUNITS
 70
     4
  9
$HYPERLINKBASE
  1

  9
$STYLESHEET
  1

  9
$XEDIT
290
     1
  9
$CEPSNTYPE
380
     0
  9
$PSTYLEMODE
290
     1
  9
$FINGERPRINTGUID
  2
{AB86B1C2-5EC0-487B-9392-F2D482A05C92}
  9
$VERSIONGUID
  2
{FAEB1C32-E019-11D5-929B-00C0DF256EC4}
  9
$EXTNAMES
290
     1
  9
$PSVPSCALE
 40
0.0
  9
$OLESTARTUP
290
     0
  9
$SORTENTS
280
   127
  9
$INDEXCTL
280
     0
  9
$HIDETEXT
280
     1
  9
$XCLIPFRAME
290
     0
  9
$HALOGAP
280
     0
  9
$OBSCOLOR
 70
   257
  9
$OBSLTYPE
280
     0
  9
$INTERSECTIONDISPLAY
280
     0
  9
$INTERSECTIONCOLOR
 70
   257
  9
$DIMASSOC
280
     2
  9
$PROJECTNAME
  1

  9
$CAMERADISPLAY
290
     0
  9
$LENSLENGTH
 40
50.0
  9
$CAMERAHEIGHT
 40
0.0
  9
$STEPSPERSEC
 40
2.0
  9
$STEPSIZE
 40
6.0
  9
$3DDWFPREC
 40
2.0
  9
$PSOLWIDTH
 40
0.25
  9
$PSOLHEIGHT
 40
4.0
  9
$LOFTANG1
 40
1.570796326794897
  9
$LOFTANG2
 40
1.570796326794897
  9
$LOFTMAG1
 40
0.0
  9
$LOFTMAG2
 40
0.0
  9
$LOFTPARAM
 70
     7
  9
$LOFTNORMALS
280
     1
  9
$LATITUDE
 40
37.795
  9
$LONGITUDE
 40
-122.394
  9
$NORTHDIRECTION
 40
0.0
  9
$TIMEZONE
 70
 -8000
  9
$LIGHTGLYPHDISPLAY
280
     1
  9
$TILEMODELIGHTSYNCH
280
     1
  9
$SOLIDHIST
280
     1
  9
$SHOWHIST
280
     1
  9
$DWFFRAME
280
     2
  9
$DGNFRAME
280
     2
  9
$REALWORLDSCALE
290
     1
  9
$INTERFERECOLOR
 62
   256
  9
$CSHADOW
280
     0
  9
$SHADOWPLANELOCATION
 40
0.0
  0
ENDSEC
  0
SECTION
  2
CLASSES
  0
CLASS
  1
ACDBDICTIONARYWDFLT
  2
AcDbDictionaryWithDefault
  3
ObjectDBX Classes
 90
        0
 91
        4
280
     0
281
     0
  0
CLASS
  1
VISUALSTYLE
  2
AcDbVisualStyle
  3
ObjectDBX Classes
 90
     4095
 91
        4
280
     0
281
     0
  0
CLASS
  1
MATERIAL
  2
AcDbMaterial
  3
ObjectDBX Classes
 90
     1153
 91
        4
280
     0
281
     0
  0
ENDSEC
  0
SECTION
  2
TABLES
  0
TABLE
  2
VPORT
  5
8
330
0
100
AcDbSymbolTable
 70
     1
  0
VPORT
  5
29
330
8
100
AcDbSymbolTableRecord
100
AcDbViewportTableRecord
  2
*Active
 70
     0
 10
0.0
 20
0.0
 11
1.0
 21
1.0
 12
10.42990654205607
 22
4.5
 13
0.0
 23
0.0
 14
0.5
 24
0.5
 15
0.5
 25
0.5
 16
0.0
 26
0.0
 36
1.0
 17
0.0
 27
0.0
 37
0.0
 40
9.0
 41
1.972972972850329
 42
50.0
 43
0.0
 44
0.0
 50
0.0
 51
0.0
 71
     0
 72
   100
 73
     1
 74
     3
 75
     0
 76
     0
 77
     0
 78
     0
281
     0
 65
     1
110
0.0
120
0.0
130
0.0
111
1.0
121
0.0
131
0.0
112
0.0
122
1.0
132
0.0
 79
     0
146
0.0
 60
     3
 61
     5
292
     1
282
     1
141
0.0
142
0.0
 63
   250
  0
ENDTAB
  0
TABLE
  2
LTYPE
  5
5
330
0
100
AcDbSymbolTable
 70
     1
  0
LTYPE
  5
14
330
5
100
AcDbSymbolTableRecord
100
AcDbLinetypeTableRecord
  2
ByBlock
 70
     0
  3

 72
    65
 73
     0
 40
0.0
  0
LTYPE
  5
15
330
5
100
AcDbSymbolTableRecord
100
AcDbLinetypeTableRecord
  2
ByLayer
 70
     0
  3

 72
    65
 73
     0
 40
0.0
  0
LTYPE
  5
16
330
5
100
AcDbSymbolTableRecord
100
AcDbLinetypeTableRecord
  2
Continuous
 70
     0
  3
Solid line
 72
    65
 73
     0
 40
0.0
  0
ENDTAB
  0
TABLE
  2
LAYER
  5
2
330
0
100
AcDbSymbolTable
 70
     3
  0
LAYER
  5
10
330
2
100
AcDbSymbolTableRecord
100
AcDbLayerTableRecord
  2
0
 70
     0
 62
     7
  6
Continuous
370
    -3
390
F
347
3E
  0
LAYER
  5
40
330
2
100
AcDbSymbolTableRecord
100
AcDbLayerTableRecord
  2
layer 1
 70
     0
 62
     7
  6
Continuous
370
    -3
390
F
347
3E
  0
LAYER
  5
7A
330
2
100
AcDbSymbolTableRecord
100
AcDbLayerTableRecord
  2
Master Guides
 70
     0
 62
     7
  6
Continuous
370
    -3
390
F
347
3E
  0
ENDTAB
  0
TABLE
  2
STYLE
  5
3
330
0
100
AcDbSymbolTable
 70
     1
  0
STYLE
  5
11
330
3
100
AcDbSymbolTableRecord
100
AcDbTextStyleTableRecord
  2
Standard
 70
     0
 40
0.0
 41
1.0
 50
0.0
 71
     0
 42
0.2
  3
txt
  4

  0
ENDTAB
  0
TABLE
  2
VIEW
  5
6
330
0
100
AcDbSymbolTable
 70
     0
  0
ENDTAB
  0
TABLE
  2
UCS
  5
7
330
0
100
AcDbSymbolTable
 70
     0
  0
ENDTAB
  0
TABLE
  2
APPID
  5
9
330
0
100
AcDbSymbolTable
 70
     2
  0
APPID
  5
12
330
9
100
AcDbSymbolTableRecord
100
AcDbRegAppTableRecord
  2
ACAD
 70
     0
  0
APPID
  5
3F
330
9
100
AcDbSymbolTableRecord
100
AcDbRegAppTableRecord
  2
ODA
 70
     0
  0
ENDTAB
  0
TABLE
  2
DIMSTYLE
  5
A
330
0
100
AcDbSymbolTable
 70
     1
100
AcDbDimStyleTable
  0
DIMSTYLE
105
27
330
A
100
AcDbSymbolTableRecord
100
AcDbDimStyleTableRecord
  2
Standard
 70
     0
178
     0
340
11
  0
ENDTAB
  0
TABLE
  2
BLOCK_RECORD
  5
1
330
0
100
AcDbSymbolTable
 70
     1
  0
BLOCK_RECORD
  5
1F
330
1
100
AcDbSymbolTableRecord
100
AcDbBlockTableRecord
  2
*Model_Space
340
22
 70
     0
280
     1
281
     0
  0
BLOCK_RECORD
  5
1B
330
1
100
AcDbSymbolTableRecord
100
AcDbBlockTableRecord
  2
*Paper_Space
340
1E
 70
     0
280
     1
281
     0
  0
BLOCK_RECORD
  5
23
330
1
100
AcDbSymbolTableRecord
100
AcDbBlockTableRecord
  2
*Paper_Space0
340
26
 70
     0
280
     1
281
     0
  0
ENDTAB
  0
ENDSEC
  0
SECTION
  2
BLOCKS
  0
BLOCK
  5
20
330
1F
100
AcDbEntity
  8
0
100
AcDbBlockBegin
  2
*Model_Space
 70
     0
 10
0.0
 20
0.0
 30
0.0
  3
*Model_Space
  1

  0
ENDBLK
  5
21
330
1F
100
AcDbEntity
  8
0
100
AcDbBlockEnd
  0
BLOCK
  5
1C
330
1B
100
AcDbEntity
 67
     1
  8
0
100
AcDbBlockBegin
  2
*Paper_Space
 70
     0
 10
0.0
 20
0.0
 30
0.0
  3
*Paper_Space
  1

  0
ENDBLK
  5
1D
330
1B
100
AcDbEntity
 67
     1
  8
0
100
AcDbBlockEnd
  0
BLOCK
  5
24
330
23
100
AcDbEntity
  8
0
100
AcDbBlockBegin
  2
*Paper_Space0
 70
     0
 10
0.0
 20
0.0
 30
0.0
  3
*Paper_Space0
  1

  0
ENDBLK
  5
25
330
23
100
AcDbEntity
  8
0
100
AcDbBlockEnd
  0
ENDSEC
  0
SECTION
  2
ENTITIES
  0
SPLINE
  5
41
330
1F
100
AcDbEntity
  8
layer 1
 62
   250
370
     9
100
AcDbSpline
210
0.0
220
0.0
230
1.0
 70
    11
 71
     3
 72
    20
 73
    16
 74
     0
 42
0.0000000001
 43
0.0000000001
 12
1.0
 22
0.0
 32
0.0
 13
1.0
 23
0.0
 33
0.0
 40
0.0
 40
0.0
 40
0.0
 40
0.0
 40
0.2
 40
0.2
 40
0.2
 40
0.2
 40
0.4
 40
0.4
 40
0.4
 40
0.4
 40
0.6
 40
0.6
 40
0.6
 40
0.6
 40
1.0
 40
1.0
 40
1.0
 40
1.0
 10
117.2728
 20
131.6461
 30
0.0
 10
117.2728
 20
131.6461
 30
0.0
 10
190.7452
 20
131.6461
 30
0.0
 10
190.7452
 20
131.6461
 30
0.0
 10
190.7452
 20
131.6461
 30
0.0
 10
190.7452
 20
131.6461
 30
0.0
 10
190.7452
 20
-114.7256
 30
0.0
 10
190.7452
 20
-114.7256
 30
0.0
 10
190.7452
 20
-114.7256
 30
0.0
 10
190.7452
 20
-114.7256
 30
0.0
 10
117.2728
 20
-114.7256
 30
0.0
 10
117.2728
 20
-114.7256
 30
0.0
 10
117.2728
 20
-114.7256
 30
0.0
 10
117.2728
 20
-114.7256
 30
0.0
 10
117.2728
 20
131.6461
 30
0.0
 10
117.2728
 20
131.6461
 30
0.0
  0
SPLINE
  5
42
330
1F
100
AcDbEntity
  8
layer 1
 62
     7
370
     9
100
AcDbSpline
210
0.0
220
0.0
230
1.0
 70
    11
 71
     3
 72
    56
 73
    52
 74
     0
 42
0.0000000001
 43
0.0000000001
 12
1.0
 22
0.0
 32
0.0
 13
1.0
 23
0.0
 33
0.0
 40
0.0
 40
0.0
 40
0.0
 40
0.0
 40
0.0714285714285714
 40
0.0714285714285714
 40
0.0714285714285714
 40
0.0714285714285714
 40
0.1428571428571428
 40
0.1428571428571428
 40
0.1428571428571428
 40
0.1428571428571428
 40
0.2142857142857143
 40
0.2142857142857143
 40
0.2142857142857143
 40
0.2142857142857143
 40
0.2857142857142857
 40
0.2857142857142857
 40
0.2857142857142857
 40
0.2857142857142857
 40
0.3571428571428572
 40
0.3571428571428572
 40
0.3571428571428572
 40
0.3571428571428572
 40
0.4285714285714285
 40
0.4285714285714285
 40
0.4285714285714285
 40
0.4285714285714285
 40
0.5
 40
0.5
 40
0.5
 40
0.5
 40
0.5714285714285714
 40
0.5714285714285714
 40
0.5714285714285714
 40
0.5714285714285714
 40
0.6428571428571429
 40
0.6428571428571429
 40
0.6428571428571429
 40
0.6428571428571429
 40
0.7142857142857143
 40
0.7142857142857143
 40
0.7142857142857143
 40
0.7142857142857143
 40
0.7857142857142857
 40
0.7857142857142857
 40
0.7857142857142857
 40
0.7857142857142857
 40
0.8571428571428571
 40
0.8571428571428571
 40
0.8571428571428571
 40
0.8571428571428571
 40
1.0
 40
1.0
 40
1.0
 40
1.0
 10
135.0874
 20
128.2572
 30
0.0
 10
135.0874
 20
128.2572
 30
0.0
 10
145.0394
 20
128.2572
 30
0.0
 10
145.0394
 20
128.2572
 30
0.0
 10
145.0394
 20
128.2572
 30
0.0
 10
142.9748
 20
122.8047
 30
0.0
 10
145.036
 20
116.3935
 30
0.0
 10
149.6064
 20
113.0463
 30
0.0
 10
149.6064
 20
113.0463
 30
0.0
 10
149.6064
 20
113.0463
 30
0.0
 10
149.6064
 20
111.2382
 30
0.0
 10
144.3279
 20
110.9791
 30
0.0
 10
144.3279
 20
110.9791
 30
0.0
 10
139.0491
 20
110.7198
 30
0.0
 10
136.0167
 20
115.1346
 30
0.0
 10
136.0167
 20
115.1346
 30
0.0
 10
136.0167
 20
115.1346
 30
0.0
 10
136.0167
 20
115.1346
 30
0.0
 10
133.3211
 20
109.7724
 30
0.0
 10
136.0167
 20
105.6015
 30
0.0
 10
136.0167
 20
105.6015
 30
0.0
 10
136.8178
 20
104.3618
 30
0.0
 10
137.9164
 20
103.3063
 30
0.0
 10
139.2246
 20
102.5392
 30
0.0
 10
139.2246
 20
102.5392
 30
0.0
 10
139.1624
 20
102.4206
 30
0.0
 10
139.0985
 20
102.2954
 30
0.0
 10
139.0328
 20
102.163
 30
0.0
 10
139.0328
 20
102.163
 30
0.0
 10
138.8613
 20
101.8176
 30
0.0
 10
138.7166
 20
101.3439
 30
0.0
 10
138.6059
 20
100.803
 30
0.0
 10
138.6059
 20
100.803
 30
0.0
 10
135.7742
 20
103.0865
 30
0.0
 10
132.6828
 20
106.3463
 30
0.0
 10
129.9539
 20
111.0454
 30
0.0
 10
129.9539
 20
111.0454
 30
0.0
 10
124.7268
 20
120.0463
 30
0.0
 10
122.1923
 20
127.2908
 30
0.0
 10
122.1923
 20
127.2908
 30
0.0
 10
122.1923
 20
127.2908
 30
0.0
 10
122.1923
 20
127.2908
 30
0.0
 10
126.4691
 20
124.1936
 30
0.0
 10
133.2803
 20
124.5158
 30
0.0
 10
133.2803
 20
124.5158
 30
0.0
 10
140.0917
 20
124.838
 30
0.0
 10
140.8177
 20
126.7076
 30
0.0
 10
140.8177
 20
126.7076
 30
0.0
 10
140.8177
 20
126.7076
 30
0.0
 10
138.7153
 20
127.1798
 30
0.0
 10
136.8231
 20
127.6944
 30
0.0
 10
135.0874
 20
128.2572
 30
0.0
  0
SPLINE
  5
43
330
1F
100
AcDbEntity
  8
layer 1
 62
     7
370
     9
100
AcDbSpline
210
0.0
220
0.0
230
1.0
 70
    11
 71
     3
 72
    28
 73
    24
 74
     0
 42
0.0000000001
 43
0.0000000001
 12
1.0
 22
0.0
 32
0.0
 13
1.0
 23
0.0
 33
0.0
 40
0.0
 40
0.0
 40
0.0
 40
0.0
 40
0.1428571428571428
 40
0.1428571428571428
 40
0.1428571428571428
 40
0.1428571428571428
 40
0.2857142857142857
 40
0.2857142857142857
 40
0.2857142857142857
 40
0.2857142857142857
 40
0.4285714285714285
 40
0.4285714285714285
 40
0.4285714285714285
 40
0.4285714285714285
 40
0.5714285714285714
 40
0.5714285714285714
 40
0.5714285714285714
 40
0.5714285714285714
 40
0.7142857142857143
 40
0.7142857142857143
 40
0.7142857142857143
 40
0.7142857142857143
 40
1.0
 40
1.0
 40
1.0
 40
1.0
 10
147.7379
 20
128.2572
 30
0.0
 10
147.7379
 20
128.2572
 30
0.0
 10
157.7388
 20
128.2572
 30
0.0
 10
157.7388
 20
128.2572
 30
0.0
 10
157.7388
 20
128.2572
 30
0.0
 10
155.0609
 20
126.5888
 30
0.0
 10
153.0147
 20
123.8886
 30
0.0
 10
152.7511
 20
120.6584
 30
0.0
 10
152.7511
 20
120.6584
 30
0.0
 10
152.7511
 20
120.6584
 30
0.0
 10
157.9175
 20
122.615
 30
0.0
 10
158.9284
 20
119.9108
 30
0.0
 10
158.9284
 20
119.9108
 30
0.0
 10
159.9392
 20
117.2064
 30
0.0
 10
158.8928
 20
114.0836
 30
0.0
 10
155.1099
 20
114.2659
 30
0.0
 10
155.1099
 20
114.2659
 30
0.0
 10
149.456
 20
114.5384
 30
0.0
 10
145.1206
 20
121.7198
 30
0.0
 10
147.4461
 20
127.5909
 30
0.0
 10
147.4461
 20
127.5909
 30
0.0
 10
147.5339
 20
127.8129
 30
0.0
 10
147.6313
 20
128.0352
 30
0.0
 10
147.7379
 20
128.2572
 30
0.0
  0
SPLINE
  5
44
330
1F
100
AcDbEntity
  8
layer 1
 62
     7
370
     9
100
AcDbSpline
210
0.0
220
0.0
230
1.0
 70
    11
 71
     3
 72
    76
 73
    72
 74
     0
 42
0.0000000001
 43
0.0000000001
 12
1.0
 22
0.0
 32
0.0
 13
1.0
 23
0.0
 33
0.0
 40
0.0
 40
0.0
 40
0.0
 40
0.0
 40
0.0526315789473684
 40
0.0526315789473684
 40
0.0526315789473684
 40
0.0526315789473684
 40
0.1052631578947368
 40
0.1052631578947368
 40
0.1052631578947368
 40
0.1052631578947368
 40
0.1578947368421053
 40
0.1578947368421053
 40
0.1578947368421053
 40
0.1578947368421053
 40
0.2105263157894737
 40
0.2105263157894737
 40
0.2105263157894737
 40
0.2105263157894737
 40
0.2631578947368421
 40
0.2631578947368421
 40
0.2631578947368421
 40
0.2631578947368421
 40
0.3157894736842105
 40
0.3157894736842105
 40
0.3157894736842105
 40
0.3157894736842105
 40
0.3684210526315789
 40
0.3684210526315789
 40
0.3684210526315789
 40
0.3684210526315789
 40
0.4210526315789473
 40
0.4210526315789473
 40
0.4210526315789473
 40
0.4210526315789473
 40
0.4736842105263158
 40
0.4736842105263158
 40
0.4736842105263158
 40
0.4736842105263158
 40
0.5263157894736842
 40
0.5263157894736842
 40
0.5263157894736842
 40
0.5263157894736842
 40
0.5789473684210527
 40
0.5789473684210527
 40
0.5789473684210527
 40
0.5789473684210527
 40
0.631578947368421
 40
0.631578947368421
 40
0.631578947368421
 40
0.631578947368421
 40
0.6842105263157895
 40
0.6842105263157895
 40
0.6842105263157895
 40
0.6842105263157895
 40
0.7368421052631579
 40
0.7368421052631579
 40
0.7368421052631579
 40
0.7368421052631579
 40
0.7894736842105263
 40
0.7894736842105263
 40
0.7894736842105263
 40
0.7894736842105263
 40
0.8421052631578947
 40
0.8421052631578947
 40
0.8421052631578947
 40
0.8421052631578947
 40
0.8947368421052632
 40
0.8947368421052632
 40
0.8947368421052632
 40
0.8947368421052632
 40
1.0
 40
1.0
 40
1.0
 40
1.0
 10
169.0528
 20
128.2572
 30
0.0
 10
169.0528
 20
128.2572
 30
0.0
 10
176.4144
 20
128.2572
 30
0.0
 10
176.4144
 20
128.2572
 30
0.0
 10
176.4144
 20
128.2572
 30
0.0
 10
180.3903
 20
121.9915
 30
0.0
 10
179.97
 20
112.5917
 30
0.0
 10
175.9183
 20
106.1257
 30
0.0
 10
175.9183
 20
106.1257
 30
0.0
 10
173.014
 20
101.4909
 30
0.0
 10
168.4881
 20
99.265
 30
0.0
 10
168.8259
 20
99.7454
 30
0.0
 10
168.8259
 20
99.7454
 30
0.0
 10
169.1637
 20
100.2258
 30
0.0
 10
172.3383
 20
102.9517
 30
0.0
 10
171.19
 20
106.9631
 30
0.0
 10
171.19
 20
106.9631
 30
0.0
 10
170.0418
 20
110.9743
 30
0.0
 10
163.2194
 20
112.5206
 30
0.0
 10
160.5852
 20
108.1511
 30
0.0
 10
160.5852
 20
108.1511
 30
0.0
 10
157.9509
 20
103.7818
 30
0.0
 10
159.9774
 20
102.2155
 30
0.0
 10
161.9362
 20
101.423
 30
0.0
 10
161.9362
 20
101.423
 30
0.0
 10
163.895
 20
100.6306
 30
0.0
 10
164.9757
 20
101.0012
 30
0.0
 10
164.9757
 20
101.0012
 30
0.0
 10
164.9757
 20
101.0012
 30
0.0
 10
164.9757
 20
101.0012
 30
0.0
 10
166.2592
 20
99.1494
 30
0.0
 10
160.3826
 20
96.93
 30
0.0
 10
160.3826
 20
96.93
 30
0.0
 10
154.506
 20
94.7106
 30
0.0
 10
148.7646
 20
94.9471
 30
0.0
 10
145.2521
 20
96.6339
 30
0.0
 10
145.2521
 20
96.6339
 30
0.0
 10
144.5382
 20
96.9768
 30
0.0
 10
143.6981
 20
97.4039
 30
0.0
 10
142.7691
 20
97.9427
 30
0.0
 10
142.7691
 20
97.9427
 30
0.0
 10
142.2438
 20
98.9475
 30
0.0
 10
141.3965
 20
99.7242
 30
0.0
 10
141.149
 20
100.2198
 30
0.0
 10
141.149
 20
100.2198
 30
0.0
 10
141.0005
 20
100.5176
 30
0.0
 10
140.8438
 20
101.1523
 30
0.0
 10
140.7061
 20
101.8314
 30
0.0
 10
140.7061
 20
101.8314
 30
0.0
 10
143.6084
 20
100.7343
 30
0.0
 10
147.2252
 20
100.9508
 30
0.0
 10
150.8419
 20
103.3308
 30
0.0
 10
150.8419
 20
103.3308
 30
0.0
 10
156.9068
 20
107.3215
 30
0.0
 10
151.8526
 20
112.7072
 30
0.0
 10
151.8526
 20
112.7072
 30
0.0
 10
151.8526
 20
112.7072
 30
0.0
 10
151.8526
 20
112.7072
 30
0.0
 10
154.4358
 20
111.2201
 30
0.0
 10
157.4682
 20
112.3936
 30
0.0
 10
157.4682
 20
112.3936
 30
0.0
 10
160.5006
 20
113.5672
 30
0.0
 10
160.7253
 20
114.5279
 30
0.0
 10
160.7253
 20
114.5279
 30
0.0
 10
160.7253
 20
114.5279
 30
0.0
 10
160.7253
 20
114.5279
 30
0.0
 10
164.7686
 20
112.7503
 30
0.0
 10
168.5872
 20
115.3544
 30
0.0
 10
168.5872
 20
115.3544
 30
0.0
 10
172.0294
 20
117.7018
 30
0.0
 10
173.0064
 20
124.8373
 30
0.0
 10
169.0528
 20
128.2572
 30
0.0
  0
SPLINE
  5
45
330
1F
100
AcDbEntity
  8
layer 1
 62
     7
370
     9
100
AcDbSpline
210
0.0
220
0.0
230
1.0
 70
    11
 71
     3
 72
    32
 73
    28
 74
     0
 42
0.0000000001
 43
0.0000000001
 12
1.0
 22
0.0
 32
0.0
 13
1.0
 23
0.0
 33
0.0
 40
0.0
 40
0.0
 40
0.0
 40
0.0
 40
0.125
 40
0.125
 40
0.125
 40
0.125
 40
0.25
 40
0.25
 40
0.25
 40
0.25
 40
0.375
 40
0.375
 40
0.375
 40
0.375
 40
0.5
 40
0.5
 40
0.5
 40
0.5
 40
0.625
 40
0.625
 40
0.625
 40
0.625
 40
0.75
 40
0.75
 40
0.75
 40
0.75
 40
1.0
 40
1.0
 40
1.0
 40
1.0
 10
179.2081
 20
128.2572
 30
0.0
 10
179.2081
 20
128.2572
 30
0.0
 10
186.1141
 20
128.2572
 30
0.0
 10
186.1141
 20
128.2572
 30
0.0
 10
186.1141
 20
128.2572
 30
0.0
 10
186.1141
 20
128.2572
 30
0.0
 10
186.1141
 20
111.833
 30
0.0
 10
186.1141
 20
111.833
 30
0.0
 10
186.1141
 20
111.833
 30
0.0
 10
184.0343
 20
110.9764
 30
0.0
 10
182.6531
 20
108.5021
 30
0.0
 10
181.521
 20
105.7315
 30
0.0
 10
181.521
 20
105.7315
 30
0.0
 10
180.1414
 20
102.3563
 30
0.0
 10
173.8684
 20
95.9062
 30
0.0
 10
170.2504
 20
94.5418
 30
0.0
 10
170.2504
 20
94.5418
 30
0.0
 10
166.2874
 20
93.0472
 30
0.0
 10
161.3254
 20
92.8048
 30
0.0
 10
159.3003
 20
94.2485
 30
0.0
 10
159.3003
 20
94.2485
 30
0.0
 10
159.0398
 20
94.4342
 30
0.0
 10
164.4735
 20
95.1079
 30
0.0
 10
171.8023
 20
99.6639
 30
0.0
 10
171.8023
 20
99.6639
 30
0.0
 10
182.2783
 20
108.0424
 30
0.0
 10
183.8723
 20
119.9943
 30
0.0
 10
179.2081
 20
128.2572
 30
0.0
  0
SPLINE
  5
46
330
1F
100
AcDbEntity
  8
layer 1
 62
     7
370
     9
100
AcDbSpline
210
0.0
220
0.0
230
1.0
 70
    11
 71
     3
 72
    56
 73
    52
 74
     0
 42
0.0000000001
 43
0.0000000001
 12
1.0
 22
0.0
 32
0.0
 13
1.0
 23
0.0
 33
0.0
 40
0.0
 40
0.0
 40
0.0
 40
0.0
 40
0.0714285714285714
 40
0.0714285714285714
 40
0.0714285714285714
 40
0.0714285714285714
 40
0.1428571428571428
 40
0.1428571428571428
 40
0.1428571428571428
 40
0.1428571428571428
 40
0.2142857142857143
 40
0.2142857142857143
 40
0.2142857142857143
 40
0.2142857142857143
 40
0.2857142857142857
 40
0.2857142857142857
 40
0.2857142857142857
 40
0.2857142857142857
 40
0.3571428571428572
 40
0.3571428571428572
 40
0.3571428571428572
 40
0.3571428571428572
 40
0.4285714285714285
 40
0.4285714285714285
 40
0.4285714285714285
 40
0.4285714285714285
 40
0.5
 40
0.5
 40
0.5
 40
0.5
 40
0.5714285714285714
 40
0.5714285714285714
 40
0.5714285714285714
 40
0.5714285714285714
 40
0.6428571428571429
 40
0.6428571428571429
 40
0.6428571428571429
 40
0.6428571428571429
 40
0.7142857142857143
 40
0.7142857142857143
 40
0.7142857142857143
 40
0.7142857142857143
 40
0.7857142857142857
 40
0.7857142857142857
 40
0.7857142857142857
 40
0.7857142857142857
 40
0.8571428571428571
 40
0.8571428571428571
 40
0.8571428571428571
 40
0.8571428571428571
 40
1.0
 40
1.0
 40
1.0
 40
1.0
 10
186.1141
 20
99.1567
 30
0.0
 10
186.1141
 20
99.1567
 30
0.0
 10
186.1141
 20
45.8051
 30
0.0
 10
186.1141
 20
45.8051
 30
0.0
 10
186.1141
 20
45.8051
 30
0.0
 10
185.3723
 20
45.5466
 30
0.0
 10
184.5784
 20
45.3789
 30
0.0
 10
183.7327
 20
45.3382
 30
0.0
 10
183.7327
 20
45.3382
 30
0.0
 10
176.3665
 20
44.9827
 30
0.0
 10
172.6039
 20
49.285
 30
0.0
 10
171.0686
 20
54.0168
 30
0.0
 10
171.0686
 20
54.0168
 30
0.0
 10
169.5496
 20
58.6975
 30
0.0
 10
169.8172
 20
64.8755
 30
0.0
 10
174.324
 20
67.6573
 30
0.0
 10
174.324
 20
67.6573
 30
0.0
 10
175.1134
 20
68.1444
 30
0.0
 10
176.9194
 20
69.8374
 30
0.0
 10
176.8065
 20
70.5935
 30
0.0
 10
176.8065
 20
70.5935
 30
0.0
 10
176.6937
 20
71.3495
 30
0.0
 10
180.8126
 20
69.6194
 30
0.0
 10
183.408
 20
71.3454
 30
0.0
 10
183.408
 20
71.3454
 30
0.0
 10
186.0033
 20
73.0717
 30
0.0
 10
184.5927
 20
77.7536
 30
0.0
 10
183.0128
 20
79.1727
 30
0.0
 10
183.0128
 20
79.1727
 30
0.0
 10
183.0128
 20
79.1727
 30
0.0
 10
182.3923
 20
75.2598
 30
0.0
 10
179.402
 20
74.9618
 30
0.0
 10
179.402
 20
74.9618
 30
0.0
 10
176.4117
 20
74.664
 30
0.0
 10
175.8476
 20
76.6689
 30
0.0
 10
174.7756
 20
77.6791
 30
0.0
 10
174.7756
 20
77.6791
 30
0.0
 10
173.7034
 20
78.6892
 30
0.0
 10
173.6319
 20
80.1717
 30
0.0
 10
170.2832
 20
84.6325
 30
0.0
 10
170.2832
 20
84.6325
 30
0.0
 10
166.9344
 20
89.0932
 30
0.0
 10
160.8912
 20
90.7761
 30
0.0
 10
161.4395
 20
90.9943
 30
0.0
 10
161.4395
 20
90.9943
 30
0.0
 10
161.9878
 20
91.2124
 30
0.0
 10
167.9097
 20
91.4982
 30
0.0
 10
175.1473
 20
94.6826
 30
0.0
 10
175.1473
 20
94.6826
 30
0.0
 10
178.813
 20
96.2953
 30
0.0
 10
182.503
 20
97.865
 30
0.0
 10
186.1141
 20
99.1567
 30
0.0
  0
SPLINE
  5
47
330
1F
100
AcDbEntity
  8
layer 1
 62
     7
370
     9
100
AcDbSpline
210
0.0
220
0.0
230
1.0
 70
    11
 71
     3
 72
    16
 73
    12
 74
     0
 42
0.0000000001
 43
0.0000000001
 12
1.0
 22
0.0
 32
0.0
 13
1.0
 23
0.0
 33
0.0
 40
0.0
 40
0.0
 40
0.0
 40
0.0
 40
0.25
 40
0.25
 40
0.25
 40
0.25
 40
0.5
 40
0.5
 40
0.5
 40
0.5
 40
1.0
 40
1.0
 40
1.0
 40
1.0
 10
186.1141
 20
44.7908
 30
0.0
 10
186.1141
 20
44.7908
 30
0.0
 10
186.1141
 20
42.9601
 30
0.0
 10
186.1141
 20
42.9601
 30
0.0
 10
186.1141
 20
42.9601
 30
0.0
 10
184.4186
 20
43.5369
 30
0.0
 10
183.2414
 20
43.9039
 30
0.0
 10
183.9207
 20
44.1623
 30
0.0
 10
183.9207
 20
44.1623
 30
0.0
 10
184.4131
 20
44.3497
 30
0.0
 10
185.1535
 20
44.4789
 30
0.0
 10
186.1141
 20
44.7908
 30
0.0
  0
SPLINE
  5
48
330
1F
100
AcDbEntity
  8
layer 1
 62
     7
370
     9
100
AcDbSpline
210
0.0
220
0.0
230
1.0
 70
    11
 71
     3
 72
    68
 73
    64
 74
     0
 42
0.0000000001
 43
0.0000000001
 12
1.0
 22
0.0
 32
0.0
 13
1.0
 23
0.0
 33
0.0
 40
0.0
 40
0.0
 40
0.0
 40
0.0
 40
0.0588235294117647
 40
0.0588235294117647
 40
0.0588235294117647
 40
0.0588235294117647
 40
0.1176470588235294
 40
0.1176470588235294
 40
0.1176470588235294
 40
0.1176470588235294
 40
0.1764705882352941
 40
0.1764705882352941
 40
0.1764705882352941
 40
0.1764705882352941
 40
0.2352941176470588
 40
0.2352941176470588
 40
0.2352941176470588
 40
0.2352941176470588
 40
0.2941176470588235
 40
0.2941176470588235
 40
0.2941176470588235
 40
0.2941176470588235
 40
0.3529411764705883
 40
0.3529411764705883
 40
0.3529411764705883
 40
0.3529411764705883
 40
0.4117647058823529
 40
0.4117647058823529
 40
0.4117647058823529
 40
0.4117647058823529
 40
0.4705882352941176
 40
0.4705882352941176
 40
0.4705882352941176
 40
0.4705882352941176
 40
0.5294117647058824
 40
0.5294117647058824
 40
0.5294117647058824
 40
0.5294117647058824
 40
0.5882352941176471
 40
0.5882352941176471
 40
0.5882352941176471
 40
0.5882352941176471
 40
0.6470588235294118
 40
0.6470588235294118
 40
0.6470588235294118
 40
0.6470588235294118
 40
0.7058823529411765
 40
0.7058823529411765
 40
0.7058823529411765
 40
0.7058823529411765
 40
0.7647058823529411
 40
0.7647058823529411
 40
0.7647058823529411
 40
0.7647058823529411
 40
0.8235294117647058
 40
0.8235294117647058
 40
0.8235294117647058
 40
0.8235294117647058
 40
0.8823529411764706
 40
0.8823529411764706
 40
0.8823529411764706
 40
0.8823529411764706
 40
1.0
 40
1.0
 40
1.0
 40
1.0
 10
186.1141
 20
38.5082
 30
0.0
 10
186.1141
 20
38.5082
 30
0.0
 10
186.1141
 20
20.3782
 30
0.0
 10
186.1141
 20
20.3782
 30
0.0
 10
186.1141
 20
20.3782
 30
0.0
 10
181.0893
 20
26.0972
 30
0.0
 10
172.9603
 20
29.0427
 30
0.0
 10
164.4386
 20
28.1476
 30
0.0
 10
164.4386
 20
28.1476
 30
0.0
 10
165.6349
 20
29.2537
 30
0.0
 10
167.0375
 20
30.8858
 30
0.0
 10
168.2004
 20
33.1745
 30
0.0
 10
168.2004
 20
33.1745
 30
0.0
 10
170.8037
 20
38.2985
 30
0.0
 10
171.8052
 20
46.6096
 30
0.0
 10
171.8052
 20
47.8551
 30
0.0
 10
171.8052
 20
47.8551
 30
0.0
 10
171.8052
 20
49.1007
 30
0.0
 10
173.9077
 20
47.4315
 30
0.0
 10
175.2093
 20
46.0006
 30
0.0
 10
175.2093
 20
46.0006
 30
0.0
 10
176.511
 20
44.5695
 30
0.0
 10
180.3159
 20
40.1779
 30
0.0
 10
180.2158
 20
37.3687
 30
0.0
 10
180.2158
 20
37.3687
 30
0.0
 10
180.1157
 20
34.5593
 30
0.0
 10
176.8114
 20
33.3621
 30
0.0
 10
176.1106
 20
34.5046
 30
0.0
 10
176.1106
 20
34.5046
 30
0.0
 10
175.4098
 20
35.6472
 30
0.0
 10
176.1106
 20
36.6294
 30
0.0
 10
176.1106
 20
36.6294
 30
0.0
 10
176.1106
 20
36.6294
 30
0.0
 10
176.1106
 20
36.6294
 30
0.0
 10
177.7126
 20
37.3986
 30
0.0
 10
177.7126
 20
35.4937
 30
0.0
 10
177.7126
 20
35.4937
 30
0.0
 10
177.7126
 20
35.4937
 30
0.0
 10
179.5148
 20
36.0934
 30
0.0
 10
178.5135
 20
37.0139
 30
0.0
 10
178.5135
 20
37.0139
 30
0.0
 10
177.5123
 20
37.9344
 30
0.0
 10
176.3108
 20
38.145
 30
0.0
 10
175.3095
 20
36.501
 30
0.0
 10
175.3095
 20
36.501
 30
0.0
 10
174.3083
 20
34.8573
 30
0.0
 10
174.809
 20
32.2723
 30
0.0
 10
178.3133
 20
33.3001
 30
0.0
 10
178.3133
 20
33.3001
 30
0.0
 10
181.8177
 20
34.3281
 30
0.0
 10
182.1181
 20
37.7006
 30
0.0
 10
180.9166
 20
40.2558
 30
0.0
 10
180.9166
 20
40.2558
 30
0.0
 10
179.7151
 20
42.8109
 30
0.0
 10
178.2132
 20
44.558
 30
0.0
 10
178.2132
 20
44.558
 30
0.0
 10
178.2132
 20
44.558
 30
0.0
 10
178.2132
 20
44.558
 30
0.0
 10
181.1168
 20
44.4091
 30
0.0
 10
182.819
 20
42.4927
 30
0.0
 10
182.819
 20
42.4927
 30
0.0
 10
183.6885
 20
41.5139
 30
0.0
 10
184.8712
 20
39.8686
 30
0.0
 10
186.1141
 20
38.5082
 30
0.0
  0
SPLINE
  5
49
330
1F
100
AcDbEntity
  8
layer 1
 62
     7
370
     9
100
AcDbSpline
210
0.0
220
0.0
230
1.0
 70
    11
 71
     3
 72
   136
 73
   132
 74
     0
 42
0.0000000001
 43
0.0000000001
 12
1.0
 22
0.0
 32
0.0
 13
1.0
 23
0.0
 33
0.0
 40
0.0
 40
0.0
 40
0.0
 40
0.0
 40
0.0294117647058824
 40
0.0294117647058824
 40
0.0294117647058824
 40
0.0294117647058824
 40
0.0588235294117647
 40
0.0588235294117647
 40
0.0588235294117647
 40
0.0588235294117647
 40
0.0882352941176471
 40
0.0882352941176471
 40
0.0882352941176471
 40
0.0882352941176471
 40
0.1176470588235294
 40
0.1176470588235294
 40
0.1176470588235294
 40
0.1176470588235294
 40
0.1470588235294118
 40
0.1470588235294118
 40
0.1470588235294118
 40
0.1470588235294118
 40
0.1764705882352941
 40
0.1764705882352941
 40
0.1764705882352941
 40
0.1764705882352941
 40
0.2058823529411765
 40
0.2058823529411765
 40
0.2058823529411765
 40
0.2058823529411765
 40
0.2352941176470588
 40
0.2352941176470588
 40
0.2352941176470588
 40
0.2352941176470588
 40
0.2647058823529412
 40
0.2647058823529412
 40
0.2647058823529412
 40
0.2647058823529412
 40
0.2941176470588235
 40
0.2941176470588235
 40
0.2941176470588235
 40
0.2941176470588235
 40
0.3235294117647059
 40
0.3235294117647059
 40
0.3235294117647059
 40
0.3235294117647059
 40
0.3529411764705883
 40
0.3529411764705883
 40
0.3529411764705883
 40
0.3529411764705883
 40
0.3823529411764706
 40
0.3823529411764706
 40
0.3823529411764706
 40
0.3823529411764706
 40
0.4117647058823529
 40
0.4117647058823529
 40
0.4117647058823529
 40
0.4117647058823529
 40
0.4411764705882353
 40
0.4411764705882353
 40
0.4411764705882353
 40
0.4411764705882353
 40
0.4705882352941176
 40
0.4705882352941176
 40
0.4705882352941176
 40
0.4705882352941176
 40
0.5
 40
0.5
 40
0.5
 40
0.5
 40
0.5294117647058824
 40
0.5294117647058824
 40
0.5294117647058824
 40
0.5294117647058824
 40
0.5588235294117647
 40
0.5588235294117647
 40
0.5588235294117647
 40
0.5588235294117647
 40
0.5882352941176471
 40
0.5882352941176471
 40
0.5882352941176471
 40
0.5882352941176471
 40
0.6176470588235294
 40
0.6176470588235294
 40
0.6176470588235294
 40
0.6176470588235294
 40
0.6470588235294118
 40
0.6470588235294118
 40
0.6470588235294118
 40
0.6470588235294118
 40
0.6764705882352942
 40
0.6764705882352942
 40
0.6764705882352942
 40
0.6764705882352942
 40
0.7058823529411765
 40
0.7058823529411765
 40
0.7058823529411765
 40
0.7058823529411765
 40
0.7352941176470589
 40
0.7352941176470589
 40
0.7352941176470589
 40
0.7352941176470589
 40
0.7647058823529411
 40
0.7647058823529411
 40
0.7647058823529411
 40
0.7647058823529411
 40
0.7941176470588235
 40
0.7941176470588235
 40
0.7941176470588235
 40
0.7941176470588235
 40
0.8235294117647058
 40
0.8235294117647058
 40
0.8235294117647058
 40
0.8235294117647058
 40
0.8529411764705882
 40
0.8529411764705882
 40
0.8529411764705882
 40
0.8529411764705882
 40
0.8823529411764706
 40
0.8823529411764706
 40
0.8823529411764706
 40
0.8823529411764706
 40
0.9117647058823529
 40
0.9117647058823529
 40
0.9117647058823529
 40
0.9117647058823529
 40
0.9411764705882353
 40
0.9411764705882353
 40
0.9411764705882353
 40
0.9411764705882353
 40
1.0
 40
1.0
 40
1.0
 40
1.0
 10
186.1141
 20
15.6532
 30
0.0
 10
186.1141
 20
15.6532
 30
0.0
 10
186.1141
 20
-3.7556
 30
0.0
 10
186.1141
 20
-3.7556
 30
0.0
 10
186.1141
 20
-3.7556
 30
0.0
 10
183.9772
 20
-7.712
 30
0.0
 10
180.7899
 20
-9.8634
 30
0.0
 10
177.7227
 20
-10.7799
 30
0.0
 10
177.7227
 20
-10.7799
 30
0.0
 10
170.333
 20
-12.9876
 30
0.0
 10
161.7855
 20
-7.6316
 30
0.0
 10
161.8368
 20
-1.2687
 30
0.0
 10
161.8368
 20
-1.2687
 30
0.0
 10
161.871
 20
2.9889
 30
0.0
 10
165.7884
 20
3.9494
 30
0.0
 10
169.0498
 20
2.6302
 30
0.0
 10
169.0498
 20
2.6302
 30
0.0
 10
172.3112
 20
1.3109
 30
0.0
 10
169.5477
 20
-4.3525
 30
0.0
 10
169.5477
 20
-4.3525
 30
0.0
 10
169.5477
 20
-4.3525
 30
0.0
 10
178.0594
 20
-4.193
 30
0.0
 10
184.1636
 20
5.2049
 30
0.0
 10
181.1253
 20
11.6964
 30
0.0
 10
181.1253
 20
11.6964
 30
0.0
 10
178.0869
 20
18.1881
 30
0.0
 10
167.5674
 20
17.8873
 30
0.0
 10
164.0992
 20
13.7805
 30
0.0
 10
164.0992
 20
13.7805
 30
0.0
 10
160.631
 20
9.6735
 30
0.0
 10
162.5433
 20
5.0148
 30
0.0
 10
162.5433
 20
5.0148
 30
0.0
 10
162.5433
 20
5.0148
 30
0.0
 10
162.5433
 20
5.0148
 30
0.0
 10
161.3451
 20
4.8285
 30
0.0
 10
159.6923
 20
1.5061
 30
0.0
 10
159.6923
 20
1.5061
 30
0.0
 10
158.0396
 20
-1.8165
 30
0.0
 10
159.6942
 20
-4.8168
 30
0.0
 10
159.6942
 20
-4.8168
 30
0.0
 10
159.6942
 20
-4.8168
 30
0.0
 10
159.6942
 20
-4.8168
 30
0.0
 10
153.4073
 20
1.2229
 30
0.0
 10
148.0774
 20
-5.3097
 30
0.0
 10
148.0774
 20
-5.3097
 30
0.0
 10
142.748
 20
-11.8422
 30
0.0
 10
144.9079
 20
-18.7908
 30
0.0
 10
149.8601
 20
-22.1007
 30
0.0
 10
149.8601
 20
-22.1007
 30
0.0
 10
154.8122
 20
-25.4108
 30
0.0
 10
161.6005
 20
-22.753
 30
0.0
 10
161.6005
 20
-22.753
 30
0.0
 10
161.6005
 20
-22.753
 30
0.0
 10
161.6005
 20
-22.753
 30
0.0
 10
156.3708
 20
-19.0481
 30
0.0
 10
157.0512
 20
-13.1425
 30
0.0
 10
157.0512
 20
-13.1425
 30
0.0
 10
157.7314
 20
-7.2369
 30
0.0
 10
159.9582
 20
-7.3606
 30
0.0
 10
159.9582
 20
-7.3606
 30
0.0
 10
159.9582
 20
-7.3606
 30
0.0
 10
165.3514
 20
-14.9455
 30
0.0
 10
178.6513
 20
-17.3084
 30
0.0
 10
186.1141
 20
-8.5151
 30
0.0
 10
186.1141
 20
-8.5151
 30
0.0
 10
186.1141
 20
-8.5151
 30
0.0
 10
186.1141
 20
-41.2011
 30
0.0
 10
186.1141
 20
-41.2011
 30
0.0
 10
186.1141
 20
-41.2011
 30
0.0
 10
181.2891
 20
-34.6586
 30
0.0
 10
178.0995
 20
-28.6389
 30
0.0
 10
176.1816
 20
-18.1574
 30
0.0
 10
176.1816
 20
-18.1574
 30
0.0
 10
176.1816
 20
-18.1574
 30
0.0
 10
173.8291
 20
-18.8441
 30
0.0
 10
172.9665
 20
-26.4652
 30
0.0
 10
172.9665
 20
-26.4652
 30
0.0
 10
172.1037
 20
-34.0863
 30
0.0
 10
175.6254
 20
-39.0975
 30
0.0
 10
175.6254
 20
-39.0975
 30
0.0
 10
175.6254
 20
-39.0975
 30
0.0
 10
175.6254
 20
-39.0975
 30
0.0
 10
166.877
 20
-35.7578
 30
0.0
 10
156.1492
 20
-29.2764
 30
0.0
 10
156.1492
 20
-29.2764
 30
0.0
 10
145.4217
 20
-22.7948
 30
0.0
 10
141.2848
 20
-15.1806
 30
0.0
 10
139.4479
 20
-11.1237
 30
0.0
 10
139.4479
 20
-11.1237
 30
0.0
 10
137.8618
 20
-7.6212
 30
0.0
 10
137.7211
 20
-2.3283
 30
0.0
 10
139.7296
 20
3.1987
 30
0.0
 10
139.7296
 20
3.1987
 30
0.0
 10
139.8617
 20
3.4679
 30
0.0
 10
139.9695
 20
3.746
 30
0.0
 10
140.0486
 20
4.0344
 30
0.0
 10
140.0486
 20
4.0344
 30
0.0
 10
140.2891
 20
4.6332
 30
0.0
 10
140.5552
 20
5.2336
 30
0.0
 10
140.8474
 20
5.8342
 30
0.0
 10
140.8474
 20
5.8342
 30
0.0
 10
143.9826
 20
12.2766
 30
0.0
 10
146.1756
 20
10.7096
 30
0.0
 10
146.1756
 20
10.7096
 30
0.0
 10
146.1756
 20
10.7096
 30
0.0
 10
146.1756
 20
10.7096
 30
0.0
 10
145.6452
 20
9.5224
 30
0.0
 10
146.4871
 20
7.27
 30
0.0
 10
146.4871
 20
7.27
 30
0.0
 10
147.3289
 20
5.0179
 30
0.0
 10
149.1191
 20
2.6367
 30
0.0
 10
154.6805
 20
5.2938
 30
0.0
 10
154.6805
 20
5.2938
 30
0.0
 10
160.2421
 20
7.951
 30
0.0
 10
158.8043
 20
15.7121
 30
0.0
 10
153.9428
 20
17.2751
 30
0.0
 10
153.9428
 20
17.2751
 30
0.0
 10
149.0815
 20
18.8381
 30
0.0
 10
145.507
 20
15.4621
 30
0.0
 10
144.8923
 20
15.116
 30
0.0
 10
144.8923
 20
15.116
 30
0.0
 10
144.2778
 20
14.7697
 30
0.0
 10
147.3282
 20
19.6961
 30
0.0
 10
153.2351
 20
22.638
 30
0.0
 10
153.2351
 20
22.638
 30
0.0
 10
162.0169
 20
27.0121
 30
0.0
 10
174.6204
 20
26.5302
 30
0.0
 10
181.9365
 20
20.6557
 30
0.0
 10
181.9365
 20
20.6557
 30
0.0
 10
183.6144
 20
19.3084
 30
0.0
 10
185.0301
 20
17.6067
 30
0.0
 10
186.1141
 20
15.6532
 30
0.0
  0
SPLINE
  5
4A
330
1F
100
AcDbEntity
  8
layer 1
 62
     7
370
     9
100
AcDbSpline
210
0.0
220
0.0
230
1.0
 70
    11
 71
     3
 72
    60
 73
    56
 74
     0
 42
0.0000000001
 43
0.0000000001
 12
1.0
 22
0.0
 32
0.0
 13
1.0
 23
0.0
 33
0.0
 40
0.0
 40
0.0
 40
0.0
 40
0.0
 40
0.0666666666666667
 40
0.0666666666666667
 40
0.0666666666666667
 40
0.0666666666666667
 40
0.1333333333333333
 40
0.1333333333333333
 40
0.1333333333333333
 40
0.1333333333333333
 40
0.2
 40
0.2
 40
0.2
 40
0.2
 40
0.2666666666666667
 40
0.2666666666666667
 40
0.2666666666666667
 40
0.2666666666666667
 40
0.3333333333333333
 40
0.3333333333333333
 40
0.3333333333333333
 40
0.3333333333333333
 40
0.4
 40
0.4
 40
0.4
 40
0.4
 40
0.4666666666666667
 40
0.4666666666666667
 40
0.4666666666666667
 40
0.4666666666666667
 40
0.5333333333333333
 40
0.5333333333333333
 40
0.5333333333333333
 40
0.5333333333333333
 40
0.6
 40
0.6
 40
0.6
 40
0.6
 40
0.6666666666666666
 40
0.6666666666666666
 40
0.6666666666666666
 40
0.6666666666666666
 40
0.7333333333333333
 40
0.7333333333333333
 40
0.7333333333333333
 40
0.7333333333333333
 40
0.8
 40
0.8
 40
0.8
 40
0.8
 40
0.8666666666666667
 40
0.8666666666666667
 40
0.8666666666666667
 40
0.8666666666666667
 40
1.0
 40
1.0
 40
1.0
 40
1.0
 10
186.1141
 20
-46.331
 30
0.0
 10
186.1141
 20
-46.331
 30
0.0
 10
186.1141
 20
-55.7079
 30
0.0
 10
186.1141
 20
-55.7079
 30
0.0
 10
186.1141
 20
-55.7079
 30
0.0
 10
185.5067
 20
-56.2522
 30
0.0
 10
184.8739
 20
-56.8691
 30
0.0
 10
184.8739
 20
-56.8691
 30
0.0
 10
184.8739
 20
-56.8691
 30
0.0
 10
184.8739
 20
-56.8691
 30
0.0
 10
184.7636
 20
-54.0502
 30
0.0
 10
185.3029
 20
-53.0724
 30
0.0
 10
185.3029
 20
-53.0724
 30
0.0
 10
185.8423
 20
-52.0949
 30
0.0
 10
185.6743
 20
-49.3242
 30
0.0
 10
185.1444
 20
-48.2558
 30
0.0
 10
185.1444
 20
-48.2558
 30
0.0
 10
184.6143
 20
-47.1876
 30
0.0
 10
184.2341
 20
-46.7505
 30
0.0
 10
184.2341
 20
-46.7505
 30
0.0
 10
184.2341
 20
-46.7505
 30
0.0
 10
184.2341
 20
-46.7505
 30
0.0
 10
183.9041
 20
-49.0807
 30
0.0
 10
183.6156
 20
-49.6583
 30
0.0
 10
183.6156
 20
-49.6583
 30
0.0
 10
183.3272
 20
-50.2357
 30
0.0
 10
181.9087
 20
-51.3413
 30
0.0
 10
182.1629
 20
-52.8163
 30
0.0
 10
182.1629
 20
-52.8163
 30
0.0
 10
182.4171
 20
-54.2913
 30
0.0
 10
183.5466
 20
-55.7236
 30
0.0
 10
183.7436
 20
-57.1602
 30
0.0
 10
183.7436
 20
-57.1602
 30
0.0
 10
183.9408
 20
-58.5967
 30
0.0
 10
182.7172
 20
-58.9793
 30
0.0
 10
182.7172
 20
-58.9793
 30
0.0
 10
182.7172
 20
-58.9793
 30
0.0
 10
182.7172
 20
-58.9793
 30
0.0
 10
182.1885
 20
-57.95
 30
0.0
 10
181.325
 20
-56.9656
 30
0.0
 10
181.325
 20
-56.9656
 30
0.0
 10
180.2803
 20
-54.3501
 30
0.0
 10
177.286
 20
-48.679
 30
0.0
 10
177.4068
 20
-46.4376
 30
0.0
 10
177.4068
 20
-46.4376
 30
0.0
 10
177.4523
 20
-45.596
 30
0.0
 10
177.3714
 20
-44.9549
 30
0.0
 10
177.2835
 20
-44.2188
 30
0.0
 10
177.2835
 20
-44.2188
 30
0.0
 10
177.2835
 20
-44.2188
 30
0.0
 10
180.0594
 20
-45.8388
 30
0.0
 10
180.0594
 20
-45.8388
 30
0.0
 10
180.0594
 20
-45.8388
 30
0.0
 10
180.0594
 20
-45.8388
 30
0.0
 10
186.1141
 20
-46.331
 30
0.0
 10
186.1141
 20
-46.331
 30
0.0
  0
SPLINE
  5
4B
330
1F
100
AcDbEntity
  8
layer 1
 62
     7
370
     9
100
AcDbSpline
210
0.0
220
0.0
230
1.0
 70
    11
 71
     3
 72
    16
 73
    12
 74
     0
 42
0.0000000001
 43
0.0000000001
 12
1.0
 22
0.0
 32
0.0
 13
1.0
 23
0.0
 33
0.0
 40
0.0
 40
0.0
 40
0.0
 40
0.0
 40
0.25
 40
0.25
 40
0.25
 40
0.25
 40
0.5
 40
0.5
 40
0.5
 40
0.5
 40
1.0
 40
1.0
 40
1.0
 40
1.0
 10
186.1141
 20
-56.6749
 30
0.0
 10
186.1141
 20
-56.6749
 30
0.0
 10
186.1141
 20
-66.321
 30
0.0
 10
186.1141
 20
-66.321
 30
0.0
 10
186.1141
 20
-66.321
 30
0.0
 10
184.7607
 20
-65.1838
 30
0.0
 10
183.7819
 20
-63.3319
 30
0.0
 10
183.5707
 20
-61.8415
 30
0.0
 10
183.5707
 20
-61.8415
 30
0.0
 10
183.2593
 20
-59.6462
 30
0.0
 10
184.4115
 20
-57.8485
 30
0.0
 10
186.1141
 20
-56.6749
 30
0.0
  0
SPLINE
  5
4C
330
1F
100
AcDbEntity
  8
layer 1
 62
     7
370
     9
100
AcDbSpline
210
0.0
220
0.0
230
1.0
 70
    11
 71
     3
 72
   108
 73
   104
 74
     0
 42
0.0000000001
 43
0.0000000001
 12
1.0
 22
0.0
 32
0.0
 13
1.0
 23
0.0
 33
0.0
 40
0.0
 40
0.0
 40
0.0
 40
0.0
 40
0.037037037037037
 40
0.037037037037037
 40
0.037037037037037
 40
0.037037037037037
 40
0.0740740740740741
 40
0.0740740740740741
 40
0.0740740740740741
 40
0.0740740740740741
 40
0.1111111111111111
 40
0.1111111111111111
 40
0.1111111111111111
 40
0.1111111111111111
 40
0.1481481481481481
 40
0.1481481481481481
 40
0.1481481481481481
 40
0.1481481481481481
 40
0.1851851851851852
 40
0.1851851851851852
 40
0.1851851851851852
 40
0.1851851851851852
 40
0.2222222222222222
 40
0.2222222222222222
 40
0.2222222222222222
 40
0.2222222222222222
 40
0.2592592592592592
 40
0.2592592592592592
 40
0.2592592592592592
 40
0.2592592592592592
 40
0.2962962962962963
 40
0.2962962962962963
 40
0.2962962962962963
 40
0.2962962962962963
 40
0.3333333333333333
 40
0.3333333333333333
 40
0.3333333333333333
 40
0.3333333333333333
 40
0.3703703703703703
 40
0.3703703703703703
 40
0.3703703703703703
 40
0.3703703703703703
 40
0.4074074074074074
 40
0.4074074074074074
 40
0.4074074074074074
 40
0.4074074074074074
 40
0.4444444444444444
 40
0.4444444444444444
 40
0.4444444444444444
 40
0.4444444444444444
 40
0.4814814814814815
 40
0.4814814814814815
 40
0.4814814814814815
 40
0.4814814814814815
 40
0.5185185185185185
 40
0.5185185185185185
 40
0.5185185185185185
 40
0.5185185185185185
 40
0.5555555555555556
 40
0.5555555555555556
 40
0.5555555555555556
 40
0.5555555555555556
 40
0.5925925925925926
 40
0.5925925925925926
 40
0.5925925925925926
 40
0.5925925925925926
 40
0.6296296296296297
 40
0.6296296296296297
 40
0.6296296296296297
 40
0.6296296296296297
 40
0.6666666666666666
 40
0.6666666666666666
 40
0.6666666666666666
 40
0.6666666666666666
 40
0.7037037037037037
 40
0.7037037037037037
 40
0.7037037037037037
 40
0.7037037037037037
 40
0.7407407407407407
 40
0.7407407407407407
 40
0.7407407407407407
 40
0.7407407407407407
 40
0.7777777777777778
 40
0.7777777777777778
 40
0.7777777777777778
 40
0.7777777777777778
 40
0.8148148148148148
 40
0.8148148148148148
 40
0.8148148148148148
 40
0.8148148148148148
 40
0.8518518518518519
 40
0.8518518518518519
 40
0.8518518518518519
 40
0.8518518518518519
 40
0.8888888888888888
 40
0.8888888888888888
 40
0.8888888888888888
 40
0.8888888888888888
 40
0.9259259259259259
 40
0.9259259259259259
 40
0.9259259259259259
 40
0.9259259259259259
 40
1.0
 40
1.0
 40
1.0
 40
1.0
 10
186.1141
 20
-68.427
 30
0.0
 10
186.1141
 20
-68.427
 30
0.0
 10
186.1141
 20
-82.5889
 30
0.0
 10
186.1141
 20
-82.5889
 30
0.0
 10
186.1141
 20
-82.5889
 30
0.0
 10
183.2124
 20
-83.0623
 30
0.0
 10
180.2793
 20
-82.6635
 30
0.0
 10
178.0683
 20
-80.7709
 30
0.0
 10
178.0683
 20
-80.7709
 30
0.0
 10
177.38
 20
-80.1818
 30
0.0
 10
175.2305
 20
-78.9834
 30
0.0
 10
174.5081
 20
-79.281
 30
0.0
 10
174.5081
 20
-79.281
 30
0.0
 10
173.7858
 20
-79.5785
 30
0.0
 10
174.4418
 20
-75.401
 30
0.0
 10
172.0554
 20
-73.4962
 30
0.0
 10
172.0554
 20
-73.4962
 30
0.0
 10
170.1295
 20
-71.9588
 30
0.0
 10
166.9642
 20
-73.2817
 30
0.0
 10
165.2872
 20
-74.7944
 30
0.0
 10
165.2872
 20
-74.7944
 30
0.0
 10
160.0774
 20
-76.2513
 30
0.0
 10
155.6306
 20
-82.0532
 30
0.0
 10
155.1984
 20
-83.9819
 30
0.0
 10
155.1984
 20
-83.9819
 30
0.0
 10
154.8821
 20
-84.3413
 30
0.0
 10
154.2294
 20
-82.5133
 30
0.0
 10
154.0523
 20
-80.6208
 30
0.0
 10
154.0523
 20
-80.6208
 30
0.0
 10
153.8755
 20
-78.7278
 30
0.0
 10
154.8914
 20
-76.7172
 30
0.0
 10
155.6042
 20
-75.2412
 30
0.0
 10
155.6042
 20
-75.2412
 30
0.0
 10
156.317
 20
-73.765
 30
0.0
 10
157.1263
 20
-72.6554
 30
0.0
 10
156.2464
 20
-69.1821
 30
0.0
 10
156.2464
 20
-69.1821
 30
0.0
 10
155.7104
 20
-67.0661
 30
0.0
 10
156.102
 20
-64.0723
 30
0.0
 10
156.4902
 20
-62.0557
 30
0.0
 10
156.4902
 20
-62.0557
 30
0.0
 10
160.3566
 20
-61.1645
 30
0.0
 10
163.2456
 20
-57.5363
 30
0.0
 10
161.1628
 20
-52.8229
 30
0.0
 10
161.1628
 20
-52.8229
 30
0.0
 10
162.0245
 20
-52.7935
 30
0.0
 10
162.8661
 20
-52.6652
 30
0.0
 10
163.5
 20
-52.3567
 30
0.0
 10
163.5
 20
-52.3567
 30
0.0
 10
165.5698
 20
-51.3485
 30
0.0
 10
168.6035
 20
-49.5925
 30
0.0
 10
168.6035
 20
-49.5925
 30
0.0
 10
168.6035
 20
-49.5925
 30
0.0
 10
168.6035
 20
-49.5925
 30
0.0
 10
167.0276
 20
-56.5429
 30
0.0
 10
165.0704
 20
-58.6088
 30
0.0
 10
165.0704
 20
-58.6088
 30
0.0
 10
163.1136
 20
-60.6748
 30
0.0
 10
161.7101
 20
-67.5413
 30
0.0
 10
162.305
 20
-70.4664
 30
0.0
 10
162.305
 20
-70.4664
 30
0.0
 10
162.8999
 20
-73.3915
 30
0.0
 10
163.5424
 20
-74.6861
 30
0.0
 10
163.5424
 20
-74.6861
 30
0.0
 10
163.5424
 20
-74.6861
 30
0.0
 10
163.5424
 20
-74.6861
 30
0.0
 10
165.8741
 20
-69.1916
 30
0.0
 10
166.9564
 20
-67.9534
 30
0.0
 10
166.9564
 20
-67.9534
 30
0.0
 10
167.974
 20
-66.7901
 30
0.0
 10
171.7326
 20
-65.0817
 30
0.0
 10
172.4684
 20
-61.7652
 30
0.0
 10
172.4684
 20
-61.7652
 30
0.0
 10
173.5617
 20
-62.1046
 30
0.0
 10
174.7409
 20
-62.5734
 30
0.0
 10
175.5394
 20
-63.1774
 30
0.0
 10
175.5394
 20
-63.1774
 30
0.0
 10
177.4221
 20
-64.6017
 30
0.0
 10
178.317
 20
-64.4506
 30
0.0
 10
179.4098
 20
-64.4517
 30
0.0
 10
179.4098
 20
-64.4517
 30
0.0
 10
180.5023
 20
-64.4528
 30
0.0
 10
182.0028
 20
-64.4293
 30
0.0
 10
183.1101
 20
-65.0374
 30
0.0
 10
183.1101
 20
-65.0374
 30
0.0
 10
184.2175
 20
-65.6455
 30
0.0
 10
185.1574
 20
-66.5006
 30
0.0
 10
184.8529
 20
-66.5797
 30
0.0
 10
184.8529
 20
-66.5797
 30
0.0
 10
184.5483
 20
-66.6588
 30
0.0
 10
180.9173
 20
-66.8287
 30
0.0
 10
178.8703
 20
-68.7451
 30
0.0
 10
178.8703
 20
-68.7451
 30
0.0
 10
176.8235
 20
-70.6614
 30
0.0
 10
174.9112
 20
-71.0485
 30
0.0
 10
177.5186
 20
-76.2994
 30
0.0
 10
177.5186
 20
-76.2994
 30
0.0
 10
179.677
 20
-74.6214
 30
0.0
 10
178.4933
 20
-69.9823
 30
0.0
 10
180.2579
 20
-69.1173
 30
0.0
 10
180.2579
 20
-69.1173
 30
0.0
 10
182.3634
 20
-68.0855
 30
0.0
 10
184.2209
 20
-68.2406
 30
0.0
 10
186.1141
 20
-68.427
 30
0.0
  0
SPLINE
  5
4D
330
1F
100
AcDbEntity
  8
layer 1
 62
     7
370
     9
100
AcDbSpline
210
0.0
220
0.0
230
1.0
 70
    11
 71
     3
 72
    72
 73
    68
 74
     0
 42
0.0000000001
 43
0.0000000001
 12
1.0
 22
0.0
 32
0.0
 13
1.0
 23
0.0
 33
0.0
 40
0.0
 40
0.0
 40
0.0
 40
0.0
 40
0.0555555555555556
 40
0.0555555555555556
 40
0.0555555555555556
 40
0.0555555555555556
 40
0.1111111111111111
 40
0.1111111111111111
 40
0.1111111111111111
 40
0.1111111111111111
 40
0.1666666666666667
 40
0.1666666666666667
 40
0.1666666666666667
 40
0.1666666666666667
 40
0.2222222222222222
 40
0.2222222222222222
 40
0.2222222222222222
 40
0.2222222222222222
 40
0.2777777777777778
 40
0.2777777777777778
 40
0.2777777777777778
 40
0.2777777777777778
 40
0.3333333333333333
 40
0.3333333333333333
 40
0.3333333333333333
 40
0.3333333333333333
 40
0.3888888888888889
 40
0.3888888888888889
 40
0.3888888888888889
 40
0.3888888888888889
 40
0.4444444444444444
 40
0.4444444444444444
 40
0.4444444444444444
 40
0.4444444444444444
 40
0.5
 40
0.5
 40
0.5
 40
0.5
 40
0.5555555555555556
 40
0.5555555555555556
 40
0.5555555555555556
 40
0.5555555555555556
 40
0.6111111111111112
 40
0.6111111111111112
 40
0.6111111111111112
 40
0.6111111111111112
 40
0.6666666666666666
 40
0.6666666666666666
 40
0.6666666666666666
 40
0.6666666666666666
 40
0.7222222222222222
 40
0.7222222222222222
 40
0.7222222222222222
 40
0.7222222222222222
 40
0.7777777777777778
 40
0.7777777777777778
 40
0.7777777777777778
 40
0.7777777777777778
 40
0.8333333333333334
 40
0.8333333333333334
 40
0.8333333333333334
 40
0.8333333333333334
 40
0.8888888888888888
 40
0.8888888888888888
 40
0.8888888888888888
 40
0.8888888888888888
 40
1.0
 40
1.0
 40
1.0
 40
1.0
 10
186.1141
 20
-83.9434
 30
0.0
 10
186.1141
 20
-83.9434
 30
0.0
 10
186.1141
 20
-96.4344
 30
0.0
 10
186.1141
 20
-96.4344
 30
0.0
 10
186.1141
 20
-96.4344
 30
0.0
 10
185.1527
 20
-98.4481
 30
0.0
 10
184.6002
 20
-100.7972
 30
0.0
 10
183.1693
 20
-101.1086
 30
0.0
 10
183.1693
 20
-101.1086
 30
0.0
 10
180.9059
 20
-101.6009
 30
0.0
 10
178.5518
 20
-101.911
 30
0.0
 10
176.2582
 20
-100.6583
 30
0.0
 10
176.2582
 20
-100.6583
 30
0.0
 10
174.9356
 20
-99.9359
 30
0.0
 10
172.484
 20
-98.4876
 30
0.0
 10
170.5723
 20
-96.337
 30
0.0
 10
170.5723
 20
-96.337
 30
0.0
 10
171.0383
 20
-96.1458
 30
0.0
 10
171.3641
 20
-95.8994
 30
0.0
 10
171.5752
 20
-95.6273
 30
0.0
 10
171.5752
 20
-95.6273
 30
0.0
 10
171.5752
 20
-95.6273
 30
0.0
 10
170.8496
 20
-94.2388
 30
0.0
 10
168.3159
 20
-93.0573
 30
0.0
 10
168.3159
 20
-93.0573
 30
0.0
 10
165.7824
 20
-91.8756
 30
0.0
 10
162.7066
 20
-92.8063
 30
0.0
 10
162.7066
 20
-92.8063
 30
0.0
 10
162.7066
 20
-92.8063
 30
0.0
 10
163.1487
 20
-92.2892
 30
0.0
 10
172.5989
 20
-85.8041
 30
0.0
 10
175.0299
 20
-88.5525
 30
0.0
 10
175.0299
 20
-88.5525
 30
0.0
 10
175.5781
 20
-89.1724
 30
0.0
 10
173.6357
 20
-94.2185
 30
0.0
 10
172.221
 20
-94.3233
 30
0.0
 10
172.221
 20
-94.3233
 30
0.0
 10
174.8299
 20
-95.5623
 30
0.0
 10
177.6837
 20
-93.0201
 30
0.0
 10
176.6023
 20
-89.0533
 30
0.0
 10
176.6023
 20
-89.0533
 30
0.0
 10
179.1706
 20
-90.3265
 30
0.0
 10
179.1692
 20
-97.6726
 30
0.0
 10
175.4975
 20
-98.9656
 30
0.0
 10
175.4975
 20
-98.9656
 30
0.0
 10
184.9298
 20
-100.6855
 30
0.0
 10
181.6632
 20
-84.4081
 30
0.0
 10
170.3649
 20
-86.479
 30
0.0
 10
170.3649
 20
-86.479
 30
0.0
 10
168.117
 20
-86.8911
 30
0.0
 10
166.4346
 20
-87.5004
 30
0.0
 10
166.4346
 20
-87.5004
 30
0.0
 10
166.4346
 20
-87.5004
 30
0.0
 10
166.4346
 20
-87.5004
 30
0.0
 10
172.6718
 20
-82.0747
 30
0.0
 10
175.1971
 20
-82.6165
 30
0.0
 10
175.1971
 20
-82.6165
 30
0.0
 10
177.2578
 20
-83.0586
 30
0.0
 10
177.3615
 20
-87.1943
 30
0.0
 10
182.3824
 20
-86.506
 30
0.0
 10
182.3824
 20
-86.506
 30
0.0
 10
182.3824
 20
-86.506
 30
0.0
 10
178.7152
 20
-82.9483
 30
0.0
 10
178.7152
 20
-82.9483
 30
0.0
 10
178.7152
 20
-82.9483
 30
0.0
 10
181.6056
 20
-84.0746
 30
0.0
 10
184.0025
 20
-84.2506
 30
0.0
 10
186.1141
 20
-83.9434
 30
0.0
  0
SPLINE
  5
4E
330
1F
100
AcDbEntity
  8
layer 1
 62
     7
370
     9
100
AcDbSpline
210
0.0
220
0.0
230
1.0
 70
    11
 71
     3
 72
    28
 73
    24
 74
     0
 42
0.0000000001
 43
0.0000000001
 12
1.0
 22
0.0
 32
0.0
 13
1.0
 23
0.0
 33
0.0
 40
0.0
 40
0.0
 40
0.0
 40
0.0
 40
0.1428571428571428
 40
0.1428571428571428
 40
0.1428571428571428
 40
0.1428571428571428
 40
0.2857142857142857
 40
0.2857142857142857
 40
0.2857142857142857
 40
0.2857142857142857
 40
0.4285714285714285
 40
0.4285714285714285
 40
0.4285714285714285
 40
0.4285714285714285
 40
0.5714285714285714
 40
0.5714285714285714
 40
0.5714285714285714
 40
0.5714285714285714
 40
0.7142857142857143
 40
0.7142857142857143
 40
0.7142857142857143
 40
0.7142857142857143
 40
1.0
 40
1.0
 40
1.0
 40
1.0
 10
186.1141
 20
-101.164
 30
0.0
 10
186.1141
 20
-101.164
 30
0.0
 10
186.1141
 20
-108.4476
 30
0.0
 10
186.1141
 20
-108.4476
 30
0.0
 10
186.1141
 20
-108.4476
 30
0.0
 10
184.7487
 20
-106.9859
 30
0.0
 10
183.7994
 20
-106.8946
 30
0.0
 10
182.7135
 20
-106.628
 30
0.0
 10
182.7135
 20
-106.628
 30
0.0
 10
181.4761
 20
-106.3246
 30
0.0
 10
179.7694
 20
-105.936
 30
0.0
 10
178.6995
 20
-104.9411
 30
0.0
 10
178.6995
 20
-104.9411
 30
0.0
 10
177.6299
 20
-103.946
 30
0.0
 10
176.825
 20
-102.7173
 30
0.0
 10
177.1938
 20
-102.712
 30
0.0
 10
177.1938
 20
-102.712
 30
0.0
 10
177.5627
 20
-102.7066
 30
0.0
 10
181.7275
 20
-103.5185
 30
0.0
 10
184.6278
 20
-101.9142
 30
0.0
 10
184.6278
 20
-101.9142
 30
0.0
 10
185.1492
 20
-101.6258
 30
0.0
 10
185.6502
 20
-101.392
 30
0.0
 10
186.1141
 20
-101.164
 30
0.0
  0
SPLINE
  5
4F
330
1F
100
AcDbEntity
  8
layer 1
 62
     7
370
     9
100
AcDbSpline
210
0.0
220
0.0
230
1.0
 70
    11
 71
     3
 72
    24
 73
    20
 74
     0
 42
0.0000000001
 43
0.0000000001
 12
1.0
 22
0.0
 32
0.0
 13
1.0
 23
0.0
 33
0.0
 40
0.0
 40
0.0
 40
0.0
 40
0.0
 40
0.1666666666666667
 40
0.1666666666666667
 40
0.1666666666666667
 40
0.1666666666666667
 40
0.3333333333333333
 40
0.3333333333333333
 40
0.3333333333333333
 40
0.3333333333333333
 40
0.5
 40
0.5
 40
0.5
 40
0.5
 40
0.6666666666666666
 40
0.6666666666666666
 40
0.6666666666666666
 40
0.6666666666666666
 40
1.0
 40
1.0
 40
1.0
 40
1.0
 10
183.4259
 20
-111.3367
 30
0.0
 10
183.4259
 20
-111.3367
 30
0.0
 10
178.323
 20
-111.3367
 30
0.0
 10
178.323
 20
-111.3367
 30
0.0
 10
178.323
 20
-111.3367
 30
0.0
 10
178.3215
 20
-110.8179
 30
0.0
 10
178.3068
 20
-110.2493
 30
0.0
 10
178.3
 20
-109.6566
 30
0.0
 10
178.3
 20
-109.6566
 30
0.0
 10
178.2767
 20
-107.6693
 30
0.0
 10
177.8738
 20
-105.6876
 30
0.0
 10
177.8738
 20
-105.6876
 30
0.0
 10
177.8738
 20
-105.6876
 30
0.0
 10
177.8738
 20
-105.6876
 30
0.0
 10
179.5479
 20
-106.9499
 30
0.0
 10
180.3697
 20
-108.3622
 30
0.0
 10
180.3697
 20
-108.3622
 30
0.0
 10
180.8802
 20
-109.2397
 30
0.0
 10
182.1195
 20
-110.4078
 30
0.0
 10
183.4259
 20
-111.3367
 30
0.0
  0
SPLINE
  5
50
330
1F
100
AcDbEntity
  8
layer 1
 62
     7
370
     9
100
AcDbSpline
210
0.0
220
0.0
230
1.0
 70
    11
 71
     3
 72
    64
 73
    60
 74
     0
 42
0.0000000001
 43
0.0000000001
 12
1.0
 22
0.0
 32
0.0
 13
1.0
 23
0.0
 33
0.0
 40
0.0
 40
0.0
 40
0.0
 40
0.0
 40
0.0625
 40
0.0625
 40
0.0625
 40
0.0625
 40
0.125
 40
0.125
 40
0.125
 40
0.125
 40
0.1875
 40
0.1875
 40
0.1875
 40
0.1875
 40
0.25
 40
0.25
 40
0.25
 40
0.25
 40
0.3125
 40
0.3125
 40
0.3125
 40
0.3125
 40
0.375
 40
0.375
 40
0.375
 40
0.375
 40
0.4375
 40
0.4375
 40
0.4375
 40
0.4375
 40
0.5
 40
0.5
 40
0.5
 40
0.5
 40
0.5625
 40
0.5625
 40
0.5625
 40
0.5625
 40
0.625
 40
0.625
 40
0.625
 40
0.625
 40
0.6875
 40
0.6875
 40
0.6875
 40
0.6875
 40
0.75
 40
0.75
 40
0.75
 40
0.75
 40
0.8125
 40
0.8125
 40
0.8125
 40
0.8125
 40
0.875
 40
0.875
 40
0.875
 40
0.875
 40
1.0
 40
1.0
 40
1.0
 40
1.0
 10
175.9905
 20
-111.3367
 30
0.0
 10
175.9905
 20
-111.3367
 30
0.0
 10
163.755
 20
-111.3367
 30
0.0
 10
163.755
 20
-111.3367
 30
0.0
 10
163.755
 20
-111.3367
 30
0.0
 10
163.1548
 20
-110.2421
 30
0.0
 10
162.7568
 20
-108.8586
 30
0.0
 10
162.6716
 20
-107.2681
 30
0.0
 10
162.6716
 20
-107.2681
 30
0.0
 10
162.6716
 20
-107.2681
 30
0.0
 10
161.3103
 20
-107.5683
 30
0.0
 10
161.911
 20
-110.1813
 30
0.0
 10
161.911
 20
-110.1813
 30
0.0
 10
162.0087
 20
-110.6067
 30
0.0
 10
162.1442
 20
-110.9903
 30
0.0
 10
162.306
 20
-111.3367
 30
0.0
 10
162.306
 20
-111.3367
 30
0.0
 10
162.306
 20
-111.3367
 30
0.0
 10
160.4533
 20
-111.3367
 30
0.0
 10
160.4533
 20
-111.3367
 30
0.0
 10
160.4533
 20
-111.3367
 30
0.0
 10
160.6867
 20
-108.8835
 30
0.0
 10
160.5543
 20
-106.3042
 30
0.0
 10
159.9266
 20
-103.6127
 30
0.0
 10
159.9266
 20
-103.6127
 30
0.0
 10
159.1757
 20
-100.3929
 30
0.0
 10
162.3338
 20
-96.0762
 30
0.0
 10
165.7914
 20
-96.56
 30
0.0
 10
165.7914
 20
-96.56
 30
0.0
 10
167.2161
 20
-96.7593
 30
0.0
 10
168.3395
 20
-96.7754
 30
0.0
 10
169.2135
 20
-96.6683
 30
0.0
 10
169.2135
 20
-96.6683
 30
0.0
 10
170.4924
 20
-98.5105
 30
0.0
 10
171.3872
 20
-99.3147
 30
0.0
 10
171.3872
 20
-99.3147
 30
0.0
 10
171.3872
 20
-99.3147
 30
0.0
 10
171.3872
 20
-99.3147
 30
0.0
 10
171.3631
 20
-101.6956
 30
0.0
 10
170.4465
 20
-102.3074
 30
0.0
 10
170.4465
 20
-102.3074
 30
0.0
 10
169.5296
 20
-102.9188
 30
0.0
 10
169.0971
 20
-103.0882
 30
0.0
 10
169.0971
 20
-103.0882
 30
0.0
 10
169.0971
 20
-103.0882
 30
0.0
 10
169.0971
 20
-103.0882
 30
0.0
 10
172.0062
 20
-104.1875
 30
0.0
 10
172.3832
 20
-102.9315
 30
0.0
 10
172.3832
 20
-102.9315
 30
0.0
 10
172.7601
 20
-101.6754
 30
0.0
 10
172.7801
 20
-100.6964
 30
0.0
 10
172.7801
 20
-100.6964
 30
0.0
 10
172.7801
 20
-100.6964
 30
0.0
 10
175.9105
 20
-101.1542
 30
0.0
 10
177.5527
 20
-105.6085
 30
0.0
 10
177.2079
 20
-108.4337
 30
0.0
 10
177.2079
 20
-108.4337
 30
0.0
 10
177.0696
 20
-109.5679
 30
0.0
 10
176.6317
 20
-110.5352
 30
0.0
 10
175.9905
 20
-111.3367
 30
0.0
  0
SPLINE
  5
51
330
1F
100
AcDbEntity
  8
layer 1
 62
     7
370
     9
100
AcDbSpline
210
0.0
220
0.0
230
1.0
 70
    11
 71
     3
 72
    72
 73
    68
 74
     0
 42
0.0000000001
 43
0.0000000001
 12
1.0
 22
0.0
 32
0.0
 13
1.0
 23
0.0
 33
0.0
 40
0.0
 40
0.0
 40
0.0
 40
0.0
 40
0.0555555555555556
 40
0.0555555555555556
 40
0.0555555555555556
 40
0.0555555555555556
 40
0.1111111111111111
 40
0.1111111111111111
 40
0.1111111111111111
 40
0.1111111111111111
 40
0.1666666666666667
 40
0.1666666666666667
 40
0.1666666666666667
 40
0.1666666666666667
 40
0.2222222222222222
 40
0.2222222222222222
 40
0.2222222222222222
 40
0.2222222222222222
 40
0.2777777777777778
 40
0.2777777777777778
 40
0.2777777777777778
 40
0.2777777777777778
 40
0.3333333333333333
 40
0.3333333333333333
 40
0.3333333333333333
 40
0.3333333333333333
 40
0.3888888888888889
 40
0.3888888888888889
 40
0.3888888888888889
 40
0.3888888888888889
 40
0.4444444444444444
 40
0.4444444444444444
 40
0.4444444444444444
 40
0.4444444444444444
 40
0.5
 40
0.5
 40
0.5
 40
0.5
 40
0.5555555555555556
 40
0.5555555555555556
 40
0.5555555555555556
 40
0.5555555555555556
 40
0.6111111111111112
 40
0.6111111111111112
 40
0.6111111111111112
 40
0.6111111111111112
 40
0.6666666666666666
 40
0.6666666666666666
 40
0.6666666666666666
 40
0.6666666666666666
 40
0.7222222222222222
 40
0.7222222222222222
 40
0.7222222222222222
 40
0.7222222222222222
 40
0.7777777777777778
 40
0.7777777777777778
 40
0.7777777777777778
 40
0.7777777777777778
 40
0.8333333333333334
 40
0.8333333333333334
 40
0.8333333333333334
 40
0.8333333333333334
 40
0.8888888888888888
 40
0.8888888888888888
 40
0.8888888888888888
 40
0.8888888888888888
 40
1.0
 40
1.0
 40
1.0
 40
1.0
 10
156.9457
 20
-111.3367
 30
0.0
 10
156.9457
 20
-111.3367
 30
0.0
 10
148.7711
 20
-111.3367
 30
0.0
 10
148.7711
 20
-111.3367
 30
0.0
 10
148.7711
 20
-111.3367
 30
0.0
 10
148.7381
 20
-111.3096
 30
0.0
 10
148.7059
 20
-111.2822
 30
0.0
 10
148.6724
 20
-111.2553
 30
0.0
 10
148.6724
 20
-111.2553
 30
0.0
 10
145.0197
 20
-108.3098
 30
0.0
 10
142.0146
 20
-109.9089
 30
0.0
 10
140.3934
 20
-111.3367
 30
0.0
 10
140.3934
 20
-111.3367
 30
0.0
 10
140.3934
 20
-111.3367
 30
0.0
 10
139.2574
 20
-111.3367
 30
0.0
 10
139.2574
 20
-111.3367
 30
0.0
 10
139.2574
 20
-111.3367
 30
0.0
 10
139.254
 20
-110.3258
 30
0.0
 10
139.0087
 20
-108.9193
 30
0.0
 10
137.9517
 20
-107.5945
 30
0.0
 10
137.9517
 20
-107.5945
 30
0.0
 10
136.0018
 20
-105.1512
 30
0.0
 10
134.9888
 20
-105.1958
 30
0.0
 10
134.9888
 20
-105.1958
 30
0.0
 10
134.9888
 20
-105.1958
 30
0.0
 10
134.9888
 20
-105.1958
 30
0.0
 10
135.7111
 20
-101.0747
 30
0.0
 10
132.1363
 20
-98.2886
 30
0.0
 10
132.1363
 20
-98.2886
 30
0.0
 10
129.7544
 20
-96.4323
 30
0.0
 10
125.1204
 20
-96.4717
 30
0.0
 10
121.9041
 20
-98.4207
 30
0.0
 10
121.9041
 20
-98.4207
 30
0.0
 10
121.9041
 20
-98.4207
 30
0.0
 10
121.9041
 20
-91.2174
 30
0.0
 10
121.9041
 20
-91.2174
 30
0.0
 10
121.9041
 20
-91.2174
 30
0.0
 10
127.1051
 20
-88.5397
 30
0.0
 10
133.816
 20
-87.7661
 30
0.0
 10
139.4164
 20
-89.2645
 30
0.0
 10
139.4164
 20
-89.2645
 30
0.0
 10
144.774
 20
-90.6976
 30
0.0
 10
148.1556
 20
-94.2221
 30
0.0
 10
147.5909
 20
-94.0402
 30
0.0
 10
147.5909
 20
-94.0402
 30
0.0
 10
147.026
 20
-93.8584
 30
0.0
 10
143.4963
 20
-91.687
 30
0.0
 10
139.8054
 20
-93.7633
 30
0.0
 10
139.8054
 20
-93.7633
 30
0.0
 10
136.1146
 20
-95.8395
 30
0.0
 10
136.3398
 20
-102.4181
 30
0.0
 10
141.3639
 20
-103.6755
 30
0.0
 10
141.3639
 20
-103.6755
 30
0.0
 10
146.3878
 20
-104.9328
 30
0.0
 10
147.4213
 20
-102.6928
 30
0.0
 10
147.703
 20
-100.7137
 30
0.0
 10
147.703
 20
-100.7137
 30
0.0
 10
147.9846
 20
-98.7349
 30
0.0
 10
147.337
 20
-97.8519
 30
0.0
 10
147.337
 20
-97.8519
 30
0.0
 10
147.337
 20
-97.8519
 30
0.0
 10
147.337
 20
-97.8519
 30
0.0
 10
148.8466
 20
-96.211
 30
0.0
 10
152.5707
 20
-100.9604
 30
0.0
 10
152.5707
 20
-100.9604
 30
0.0
 10
155.2882
 20
-104.4258
 30
0.0
 10
156.6867
 20
-108.1636
 30
0.0
 10
156.9457
 20
-111.3367
 30
0.0
  0
SPLINE
  5
52
330
1F
100
AcDbEntity
  8
layer 1
 62
     7
370
     9
100
AcDbSpline
210
0.0
220
0.0
230
1.0
 70
    11
 71
     3
 72
    20
 73
    16
 74
     0
 42
0.0000000001
 43
0.0000000001
 12
1.0
 22
0.0
 32
0.0
 13
1.0
 23
0.0
 33
0.0
 40
0.0
 40
0.0
 40
0.0
 40
0.0
 40
0.2
 40
0.2
 40
0.2
 40
0.2
 40
0.4
 40
0.4
 40
0.4
 40
0.4
 40
0.6
 40
0.6
 40
0.6
 40
0.6
 40
1.0
 40
1.0
 40
1.0
 40
1.0
 10
136.8456
 20
-111.3367
 30
0.0
 10
136.8456
 20
-111.3367
 30
0.0
 10
129.4741
 20
-111.3367
 30
0.0
 10
129.4741
 20
-111.3367
 30
0.0
 10
129.4741
 20
-111.3367
 30
0.0
 10
129.0731
 20
-110.1865
 30
0.0
 10
129.009
 20
-108.9409
 30
0.0
 10
130.102
 20
-108.214
 30
0.0
 10
130.102
 20
-108.214
 30
0.0
 10
132.5292
 20
-106.5998
 30
0.0
 10
135.9036
 20
-106.7409
 30
0.0
 10
136.6998
 20
-110.2146
 30
0.0
 10
136.6998
 20
-110.2146
 30
0.0
 10
136.7851
 20
-110.5866
 30
0.0
 10
136.8319
 20
-110.9612
 30
0.0
 10
136.8456
 20
-111.3367
 30
0.0
  0
SPLINE
  5
53
330
1F
100
AcDbEntity
  8
layer 1
 62
     7
370
     9
100
AcDbSpline
210
0.0
220
0.0
230
1.0
 70
    11
 71
     3
 72
    16
 73
    12
 74
     0
 42
0.0000000001
 43
0.0000000001
 12
1.0
 22
0.0
 32
0.0
 13
1.0
 23
0.0
 33
0.0
 40
0.0
 40
0.0
 40
0.0
 40
0.0
 40
0.25
 40
0.25
 40
0.25
 40
0.25
 40
0.5
 40
0.5
 40
0.5
 40
0.5
 40
1.0
 40
1.0
 40
1.0
 40
1.0
 10
121.9855
 20
-111.3367
 30
0.0
 10
121.9855
 20
-111.3367
 30
0.0
 10
121.9041
 20
-111.3367
 30
0.0
 10
121.9041
 20
-111.3367
 30
0.0
 10
121.9041
 20
-111.3367
 30
0.0
 10
121.9041
 20
-111.3367
 30
0.0
 10
121.9041
 20
-111.2658
 30
0.0
 10
121.9041
 20
-111.2658
 30
0.0
 10
121.9041
 20
-111.2658
 30
0.0
 10
121.9309
 20
-111.2898
 30
0.0
 10
121.9584
 20
-111.313
 30
0.0
 10
121.9855
 20
-111.3367
 30
0.0
  0
SPLINE
  5
54
330
1F
100
AcDbEntity
  8
layer 1
 62
     7
370
     9
100
AcDbSpline
210
0.0
220
0.0
230
1.0
 70
    11
 71
     3
 72
   124
 73
   120
 74
     0
 42
0.0000000001
 43
0.0000000001
 12
1.0
 22
0.0
 32
0.0
 13
1.0
 23
0.0
 33
0.0
 40
0.0
 40
0.0
 40
0.0
 40
0.0
 40
0.032258064516129
 40
0.032258064516129
 40
0.032258064516129
 40
0.032258064516129
 40
0.0645161290322581
 40
0.0645161290322581
 40
0.0645161290322581
 40
0.0645161290322581
 40
0.0967741935483871
 40
0.0967741935483871
 40
0.0967741935483871
 40
0.0967741935483871
 40
0.1290322580645161
 40
0.1290322580645161
 40
0.1290322580645161
 40
0.1290322580645161
 40
0.1612903225806452
 40
0.1612903225806452
 40
0.1612903225806452
 40
0.1612903225806452
 40
0.1935483870967742
 40
0.1935483870967742
 40
0.1935483870967742
 40
0.1935483870967742
 40
0.2258064516129032
 40
0.2258064516129032
 40
0.2258064516129032
 40
0.2258064516129032
 40
0.2580645161290323
 40
0.2580645161290323
 40
0.2580645161290323
 40
0.2580645161290323
 40
0.2903225806451613
 40
0.2903225806451613
 40
0.2903225806451613
 40
0.2903225806451613
 40
0.3225806451612903
 40
0.3225806451612903
 40
0.3225806451612903
 40
0.3225806451612903
 40
0.3548387096774194
 40
0.3548387096774194
 40
0.3548387096774194
 40
0.3548387096774194
 40
0.3870967741935484
 40
0.3870967741935484
 40
0.3870967741935484
 40
0.3870967741935484
 40
0.4193548387096774
 40
0.4193548387096774
 40
0.4193548387096774
 40
0.4193548387096774
 40
0.4516129032258064
 40
0.4516129032258064
 40
0.4516129032258064
 40
0.4516129032258064
 40
0.4838709677419355
 40
0.4838709677419355
 40
0.4838709677419355
 40
0.4838709677419355
 40
0.5161290322580645
 40
0.5161290322580645
 40
0.5161290322580645
 40
0.5161290322580645
 40
0.5483870967741935
 40
0.5483870967741935
 40
0.5483870967741935
 40
0.5483870967741935
 40
0.5806451612903226
 40
0.5806451612903226
 40
0.5806451612903226
 40
0.5806451612903226
 40
0.6129032258064516
 40
0.6129032258064516
 40
0.6129032258064516
 40
0.6129032258064516
 40
0.6451612903225806
 40
0.6451612903225806
 40
0.6451612903225806
 40
0.6451612903225806
 40
0.6774193548387096
 40
0.6774193548387096
 40
0.6774193548387096
 40
0.6774193548387096
 40
0.7096774193548387
 40
0.7096774193548387
 40
0.7096774193548387
 40
0.7096774193548387
 40
0.7419354838709677
 40
0.7419354838709677
 40
0.7419354838709677
 40
0.7419354838709677
 40
0.7741935483870968
 40
0.7741935483870968
 40
0.7741935483870968
 40
0.7741935483870968
 40
0.8064516129032258
 40
0.8064516129032258
 40
0.8064516129032258
 40
0.8064516129032258
 40
0.8387096774193549
 40
0.8387096774193549
 40
0.8387096774193549
 40
0.8387096774193549
 40
0.8709677419354839
 40
0.8709677419354839
 40
0.8709677419354839
 40
0.8709677419354839
 40
0.9032258064516129
 40
0.9032258064516129
 40
0.9032258064516129
 40
0.9032258064516129
 40
0.9354838709677419
 40
0.9354838709677419
 40
0.9354838709677419
 40
0.9354838709677419
 40
1.0
 40
1.0
 40
1.0
 40
1.0
 10
121.9041
 20
-88.5309
 30
0.0
 10
121.9041
 20
-88.5309
 30
0.0
 10
121.9041
 20
-53.9469
 30
0.0
 10
121.9041
 20
-53.9469
 30
0.0
 10
121.9041
 20
-53.9469
 30
0.0
 10
121.9041
 20
-53.9469
 30
0.0
 10
121.938
 20
-53.9083
 30
0.0
 10
121.938
 20
-53.9083
 30
0.0
 10
121.938
 20
-53.9083
 30
0.0
 10
123.0763
 20
-52.5826
 30
0.0
 10
125.0752
 20
-51.5677
 30
0.0
 10
125.0752
 20
-51.5677
 30
0.0
 10
125.0752
 20
-51.5677
 30
0.0
 10
125.0752
 20
-51.5677
 30
0.0
 10
131.3853
 20
-47.279
 30
0.0
 10
131.3853
 20
-47.279
 30
0.0
 10
131.3853
 20
-47.279
 30
0.0
 10
131.3853
 20
-47.279
 30
0.0
 10
131.2115
 20
-48.3047
 30
0.0
 10
131.3555
 20
-49.6843
 30
0.0
 10
131.3555
 20
-49.6843
 30
0.0
 10
131.4993
 20
-51.064
 30
0.0
 10
134.7552
 20
-50.4432
 30
0.0
 10
134.7552
 20
-50.4432
 30
0.0
 10
134.7552
 20
-50.4432
 30
0.0
 10
134.7552
 20
-50.4432
 30
0.0
 10
134.3373
 20
-50.1878
 30
0.0
 10
133.5015
 20
-49.3835
 30
0.0
 10
133.5015
 20
-49.3835
 30
0.0
 10
132.6659
 20
-48.5788
 30
0.0
 10
133.114
 20
-46.0887
 30
0.0
 10
133.114
 20
-46.0887
 30
0.0
 10
133.114
 20
-46.0887
 30
0.0
 10
133.114
 20
-46.0887
 30
0.0
 10
134.3765
 20
-45.3064
 30
0.0
 10
136.2989
 20
-43.3244
 30
0.0
 10
136.2989
 20
-43.3244
 30
0.0
 10
139.2711
 20
-44.4337
 30
0.0
 10
143.6887
 20
-45.3494
 30
0.0
 10
148.4592
 20
-45.5952
 30
0.0
 10
148.4592
 20
-45.5952
 30
0.0
 10
145.0773
 20
-46.1044
 30
0.0
 10
141.9719
 20
-47.8045
 30
0.0
 10
139.9959
 20
-49.2532
 30
0.0
 10
139.9959
 20
-49.2532
 30
0.0
 10
136.2789
 20
-51.9783
 30
0.0
 10
134.1812
 20
-56.1
 30
0.0
 10
134.1158
 20
-61.9446
 30
0.0
 10
134.1158
 20
-61.9446
 30
0.0
 10
134.1158
 20
-61.9446
 30
0.0
 10
132.0576
 20
-59.6406
 30
0.0
 10
128.7944
 20
-60.2518
 30
0.0
 10
128.7944
 20
-60.2518
 30
0.0
 10
125.5313
 20
-60.8632
 30
0.0
 10
124.6687
 20
-61.383
 30
0.0
 10
124.6687
 20
-61.383
 30
0.0
 10
124.6687
 20
-61.383
 30
0.0
 10
124.6687
 20
-61.383
 30
0.0
 10
127.3556
 20
-62.6959
 30
0.0
 10
127.8394
 20
-65.5272
 30
0.0
 10
127.8394
 20
-65.5272
 30
0.0
 10
128.3232
 20
-68.3585
 30
0.0
 10
127.9227
 20
-71.42
 30
0.0
 10
129.2339
 20
-73.5039
 30
0.0
 10
129.2339
 20
-73.5039
 30
0.0
 10
130.5452
 20
-75.5881
 30
0.0
 10
132.1062
 20
-75.1233
 30
0.0
 10
132.4285
 20
-75.5718
 30
0.0
 10
132.4285
 20
-75.5718
 30
0.0
 10
132.7508
 20
-76.0204
 30
0.0
 10
129.5527
 20
-77.6296
 30
0.0
 10
130.4159
 20
-80.2572
 30
0.0
 10
130.4159
 20
-80.2572
 30
0.0
 10
131.2788
 20
-82.8851
 30
0.0
 10
134.6491
 20
-83.7105
 30
0.0
 10
138.3608
 20
-84.0881
 30
0.0
 10
138.3608
 20
-84.0881
 30
0.0
 10
141.0825
 20
-84.365
 30
0.0
 10
146.1268
 20
-86.5975
 30
0.0
 10
149.5275
 20
-88.9221
 30
0.0
 10
149.5275
 20
-88.9221
 30
0.0
 10
148.5882
 20
-89.8066
 30
0.0
 10
147.9762
 20
-91.6525
 30
0.0
 10
147.9762
 20
-91.6525
 30
0.0
 10
147.9762
 20
-91.6525
 30
0.0
 10
147.9762
 20
-91.6525
 30
0.0
 10
148.5238
 20
-91.3685
 30
0.0
 10
149.9573
 20
-90.9786
 30
0.0
 10
149.9573
 20
-90.9786
 30
0.0
 10
150.7017
 20
-90.7763
 30
0.0
 10
151.7597
 20
-91.2128
 30
0.0
 10
152.6051
 20
-91.6792
 30
0.0
 10
152.6051
 20
-91.6792
 30
0.0
 10
153.2651
 20
-92.559
 30
0.0
 10
153.8506
 20
-93.5205
 30
0.0
 10
154.3336
 20
-94.4969
 30
0.0
 10
154.3336
 20
-94.4969
 30
0.0
 10
154.5495
 20
-95.419
 30
0.0
 10
154.8969
 20
-96.6565
 30
0.0
 10
155.4518
 20
-98.1746
 30
0.0
 10
155.4518
 20
-98.1746
 30
0.0
 10
155.4824
 20
-98.2586
 30
0.0
 10
155.5135
 20
-98.341
 30
0.0
 10
155.5448
 20
-98.4229
 30
0.0
 10
155.5448
 20
-98.4229
 30
0.0
 10
155.5448
 20
-98.4229
 30
0.0
 10
155.6684
 20
-98.4218
 30
0.0
 10
155.6684
 20
-98.4218
 30
0.0
 10
155.6684
 20
-98.4218
 30
0.0
 10
155.8528
 20
-99.526
 30
0.0
 10
155.8203
 20
-100.5112
 30
0.0
 10
155.516
 20
-101.2479
 30
0.0
 10
155.516
 20
-101.2479
 30
0.0
 10
155.3985
 20
-101.5319
 30
0.0
 10
153.3253
 20
-96.7843
 30
0.0
 10
146.903
 20
-91.3232
 30
0.0
 10
146.903
 20
-91.3232
 30
0.0
 10
138.3008
 20
-85.6138
 30
0.0
 10
128.9361
 20
-85.3559
 30
0.0
 10
121.9041
 20
-88.5309
 30
0.0
  0
SPLINE
  5
55
330
1F
100
AcDbEntity
  8
layer 1
 62
     7
370
     9
100
AcDbSpline
210
0.0
220
0.0
230
1.0
 70
    11
 71
     3
 72
    20
 73
    16
 74
     0
 42
0.0000000001
 43
0.0000000001
 12
1.0
 22
0.0
 32
0.0
 13
1.0
 23
0.0
 33
0.0
 40
0.0
 40
0.0
 40
0.0
 40
0.0
 40
0.2
 40
0.2
 40
0.2
 40
0.2
 40
0.4
 40
0.4
 40
0.4
 40
0.4
 40
0.6
 40
0.6
 40
0.6
 40
0.6
 40
1.0
 40
1.0
 40
1.0
 40
1.0
 10
121.9041
 20
-51.4727
 30
0.0
 10
121.9041
 20
-51.4727
 30
0.0
 10
121.9041
 20
-47.943
 30
0.0
 10
121.9041
 20
-47.943
 30
0.0
 10
121.9041
 20
-47.943
 30
0.0
 10
124.0568
 20
-48.5605
 30
0.0
 10
126.122
 20
-48.5361
 30
0.0
 10
126.3764
 20
-48.5842
 30
0.0
 10
126.3764
 20
-48.5842
 30
0.0
 10
126.7605
 20
-48.6566
 30
0.0
 10
125.6761
 20
-49.7934
 30
0.0
 10
124.3613
 20
-50.6388
 30
0.0
 10
124.3613
 20
-50.6388
 30
0.0
 10
123.6469
 20
-51.0981
 30
0.0
 10
122.7715
 20
-51.336
 30
0.0
 10
121.9041
 20
-51.4727
 30
0.0
  0
SPLINE
  5
56
330
1F
100
AcDbEntity
  8
layer 1
 62
     7
370
     9
100
AcDbSpline
210
0.0
220
0.0
230
1.0
 70
    11
 71
     3
 72
    36
 73
    32
 74
     0
 42
0.0000000001
 43
0.0000000001
 12
1.0
 22
0.0
 32
0.0
 13
1.0
 23
0.0
 33
0.0
 40
0.0
 40
0.0
 40
0.0
 40
0.0
 40
0.1111111111111111
 40
0.1111111111111111
 40
0.1111111111111111
 40
0.1111111111111111
 40
0.2222222222222222
 40
0.2222222222222222
 40
0.2222222222222222
 40
0.2222222222222222
 40
0.3333333333333333
 40
0.3333333333333333
 40
0.3333333333333333
 40
0.3333333333333333
 40
0.4444444444444444
 40
0.4444444444444444
 40
0.4444444444444444
 40
0.4444444444444444
 40
0.5555555555555556
 40
0.5555555555555556
 40
0.5555555555555556
 40
0.5555555555555556
 40
0.6666666666666666
 40
0.6666666666666666
 40
0.6666666666666666
 40
0.6666666666666666
 40
0.7777777777777778
 40
0.7777777777777778
 40
0.7777777777777778
 40
0.7777777777777778
 40
1.0
 40
1.0
 40
1.0
 40
1.0
 10
121.9041
 20
-46.3738
 30
0.0
 10
121.9041
 20
-46.3738
 30
0.0
 10
121.9041
 20
-37.838
 30
0.0
 10
121.9041
 20
-37.838
 30
0.0
 10
121.9041
 20
-37.838
 30
0.0
 10
129.2784
 20
-37.5669
 30
0.0
 10
137.6089
 20
-34.8977
 30
0.0
 10
143.7742
 20
-28.2102
 30
0.0
 10
143.7742
 20
-28.2102
 30
0.0
 10
143.7742
 20
-28.2102
 30
0.0
 10
147.5961
 20
-28.7165
 30
0.0
 10
150.816
 20
-29.5811
 30
0.0
 10
150.816
 20
-29.5811
 30
0.0
 10
154.0359
 20
-30.4456
 30
0.0
 10
157.6579
 20
-33.6493
 30
0.0
 10
157.6579
 20
-33.6493
 30
0.0
 10
157.6579
 20
-33.6493
 30
0.0
 10
149.9372
 20
-34.3359
 30
0.0
 10
143.8893
 20
-34.7172
 30
0.0
 10
136.1724
 20
-41.7521
 30
0.0
 10
136.1724
 20
-41.7521
 30
0.0
 10
136.1724
 20
-41.7521
 30
0.0
 10
136.1345
 20
-41.6878
 30
0.0
 10
136.1345
 20
-41.6878
 30
0.0
 10
136.1345
 20
-41.6878
 30
0.0
 10
133.5074
 20
-44.508
 30
0.0
 10
129.6351
 20
-45.9767
 30
0.0
 10
127.7614
 20
-46.6095
 30
0.0
 10
127.7614
 20
-46.6095
 30
0.0
 10
125.6736
 20
-47.3142
 30
0.0
 10
123.7404
 20
-46.9943
 30
0.0
 10
121.9041
 20
-46.3738
 30
0.0
  0
SPLINE
  5
57
330
1F
100
AcDbEntity
  8
layer 1
 62
     7
370
     9
100
AcDbSpline
210
0.0
220
0.0
230
1.0
 70
    11
 71
     3
 72
    24
 73
    20
 74
     0
 42
0.0000000001
 43
0.0000000001
 12
1.0
 22
0.0
 32
0.0
 13
1.0
 23
0.0
 33
0.0
 40
0.0
 40
0.0
 40
0.0
 40
0.0
 40
0.1666666666666667
 40
0.1666666666666667
 40
0.1666666666666667
 40
0.1666666666666667
 40
0.3333333333333333
 40
0.3333333333333333
 40
0.3333333333333333
 40
0.3333333333333333
 40
0.5
 40
0.5
 40
0.5
 40
0.5
 40
0.6666666666666666
 40
0.6666666666666666
 40
0.6666666666666666
 40
0.6666666666666666
 40
1.0
 40
1.0
 40
1.0
 40
1.0
 10
121.9041
 20
-23.4971
 30
0.0
 10
121.9041
 20
-23.4971
 30
0.0
 10
121.9041
 20
-17.1244
 30
0.0
 10
121.9041
 20
-17.1244
 30
0.0
 10
121.9041
 20
-17.1244
 30
0.0
 10
126.4269
 20
-16.3534
 30
0.0
 10
132.6154
 20
-17.5207
 30
0.0
 10
134.2217
 20
-21.4432
 30
0.0
 10
134.2217
 20
-21.4432
 30
0.0
 10
134.2217
 20
-21.4432
 30
0.0
 10
132.635
 20
-21.8142
 30
0.0
 10
130.7219
 20
-22.8107
 30
0.0
 10
130.7219
 20
-22.8107
 30
0.0
 10
130.5102
 20
-22.921
 30
0.0
 10
130.3562
 20
-23.0672
 30
0.0
 10
130.2499
 20
-23.2401
 30
0.0
 10
130.2499
 20
-23.2401
 30
0.0
 10
127.4056
 20
-23.058
 30
0.0
 10
124.6563
 20
-23.1344
 30
0.0
 10
121.9041
 20
-23.4971
 30
0.0
  0
SPLINE
  5
58
330
1F
100
AcDbEntity
  8
layer 1
 62
     7
370
     9
100
AcDbSpline
210
0.0
220
0.0
230
1.0
 70
    11
 71
     3
 72
    16
 73
    12
 74
     0
 42
0.0000000001
 43
0.0000000001
 12
1.0
 22
0.0
 32
0.0
 13
1.0
 23
0.0
 33
0.0
 40
0.0
 40
0.0
 40
0.0
 40
0.0
 40
0.25
 40
0.25
 40
0.25
 40
0.25
 40
0.5
 40
0.5
 40
0.5
 40
0.5
 40
1.0
 40
1.0
 40
1.0
 40
1.0
 10
121.9041
 20
-15.7851
 30
0.0
 10
121.9041
 20
-15.7851
 30
0.0
 10
121.9041
 20
-14.0627
 30
0.0
 10
121.9041
 20
-14.0627
 30
0.0
 10
121.9041
 20
-14.0627
 30
0.0
 10
123.2993
 20
-14.8358
 30
0.0
 10
124.3214
 20
-15.6277
 30
0.0
 10
124.3214
 20
-15.6277
 30
0.0
 10
124.3214
 20
-15.6277
 30
0.0
 10
124.3214
 20
-15.6277
 30
0.0
 10
123.3295
 20
-15.6548
 30
0.0
 10
121.9041
 20
-15.7851
 30
0.0
  0
SPLINE
  5
59
330
1F
100
AcDbEntity
  8
layer 1
 62
     7
370
     9
100
AcDbSpline
210
0.0
220
0.0
230
1.0
 70
    11
 71
     3
 72
    32
 73
    28
 74
     0
 42
0.0000000001
 43
0.0000000001
 12
1.0
 22
0.0
 32
0.0
 13
1.0
 23
0.0
 33
0.0
 40
0.0
 40
0.0
 40
0.0
 40
0.0
 40
0.125
 40
0.125
 40
0.125
 40
0.125
 40
0.25
 40
0.25
 40
0.25
 40
0.25
 40
0.375
 40
0.375
 40
0.375
 40
0.375
 40
0.5
 40
0.5
 40
0.5
 40
0.5
 40
0.625
 40
0.625
 40
0.625
 40
0.625
 40
0.75
 40
0.75
 40
0.75
 40
0.75
 40
1.0
 40
1.0
 40
1.0
 40
1.0
 10
121.9041
 20
-10.2438
 30
0.0
 10
121.9041
 20
-10.2438
 30
0.0
 10
121.9041
 20
7.1992
 30
0.0
 10
121.9041
 20
7.1992
 30
0.0
 10
121.9041
 20
7.1992
 30
0.0
 10
122.5948
 20
7.3529
 30
0.0
 10
123.3643
 20
7.5738
 30
0.0
 10
124.2189
 20
7.8744
 30
0.0
 10
124.2189
 20
7.8744
 30
0.0
 10
127.4615
 20
9.0156
 30
0.0
 10
131.3111
 20
6.2719
 30
0.0
 10
132.5269
 20
3.0569
 30
0.0
 10
132.5269
 20
3.0569
 30
0.0
 10
129.1125
 20
1.6302
 30
0.0
 10
129.2013
 20
-0.9828
 30
0.0
 10
128.1106
 20
-4.2944
 30
0.0
 10
128.1106
 20
-4.2944
 30
0.0
 10
126.5099
 20
-9.1556
 30
0.0
 10
129.2828
 20
-15.0499
 30
0.0
 10
129.4025
 20
-15.5986
 30
0.0
 10
129.4025
 20
-15.5986
 30
0.0
 10
129.5219
 20
-16.1475
 30
0.0
 10
127.2417
 20
-15.3822
 30
0.0
 10
125.2491
 20
-14.1426
 30
0.0
 10
125.2491
 20
-14.1426
 30
0.0
 10
123.7798
 20
-13.2283
 30
0.0
 10
122.7268
 20
-11.6848
 30
0.0
 10
121.9041
 20
-10.2438
 30
0.0
  0
SPLINE
  5
5A
330
1F
100
AcDbEntity
  8
layer 1
 62
     7
370
     9
100
AcDbSpline
210
0.0
220
0.0
230
1.0
 70
    11
 71
     3
 72
    16
 73
    12
 74
     0
 42
0.0000000001
 43
0.0000000001
 12
1.0
 22
0.0
 32
0.0
 13
1.0
 23
0.0
 33
0.0
 40
0.0
 40
0.0
 40
0.0
 40
0.0
 40
0.25
 40
0.25
 40
0.25
 40
0.25
 40
0.5
 40
0.5
 40
0.5
 40
0.5
 40
1.0
 40
1.0
 40
1.0
 40
1.0
 10
121.9041
 20
12.2518
 30
0.0
 10
121.9041
 20
12.2518
 30
0.0
 10
121.9041
 20
14.9835
 30
0.0
 10
121.9041
 20
14.9835
 30
0.0
 10
121.9041
 20
14.9835
 30
0.0
 10
124.5016
 20
14.1372
 30
0.0
 10
126.6076
 20
13.1955
 30
0.0
 10
126.8624
 20
12.9994
 30
0.0
 10
126.8624
 20
12.9994
 30
0.0
 10
126.8624
 20
12.9994
 30
0.0
 10
124.2956
 20
13.2436
 30
0.0
 10
121.9041
 20
12.2518
 30
0.0
  0
SPLINE
  5
5B
330
1F
100
AcDbEntity
  8
layer 1
 62
     7
370
     9
100
AcDbSpline
210
0.0
220
0.0
230
1.0
 70
    11
 71
     3
 72
    32
 73
    28
 74
     0
 42
0.0000000001
 43
0.0000000001
 12
1.0
 22
0.0
 32
0.0
 13
1.0
 23
0.0
 33
0.0
 40
0.0
 40
0.0
 40
0.0
 40
0.0
 40
0.125
 40
0.125
 40
0.125
 40
0.125
 40
0.25
 40
0.25
 40
0.25
 40
0.25
 40
0.375
 40
0.375
 40
0.375
 40
0.375
 40
0.5
 40
0.5
 40
0.5
 40
0.5
 40
0.625
 40
0.625
 40
0.625
 40
0.625
 40
0.75
 40
0.75
 40
0.75
 40
0.75
 40
1.0
 40
1.0
 40
1.0
 40
1.0
 10
121.9041
 20
20.8953
 30
0.0
 10
121.9041
 20
20.8953
 30
0.0
 10
121.9041
 20
31.8246
 30
0.0
 10
121.9041
 20
31.8246
 30
0.0
 10
121.9041
 20
31.8246
 30
0.0
 10
122.1967
 20
31.3725
 30
0.0
 10
122.4935
 20
30.9837
 30
0.0
 10
122.7825
 20
30.687
 30
0.0
 10
122.7825
 20
30.687
 30
0.0
 10
124.3182
 20
29.1101
 30
0.0
 10
125.3033
 20
26.564
 30
0.0
 10
125.3033
 20
26.564
 30
0.0
 10
125.3033
 20
26.564
 30
0.0
 10
125.3033
 20
26.564
 30
0.0
 10
129.8278
 20
18.3422
 30
0.0
 10
129.8278
 20
18.3422
 30
0.0
 10
129.8278
 20
18.3422
 30
0.0
 10
129.8278
 20
18.3422
 30
0.0
 10
128.5199
 20
18.722
 30
0.0
 10
126.6967
 20
18.7844
 30
0.0
 10
126.6967
 20
18.7844
 30
0.0
 10
126.2738
 20
18.7989
 30
0.0
 10
125.9628
 20
18.5962
 30
0.0
 10
125.7348
 20
18.2765
 30
0.0
 10
125.7348
 20
18.2765
 30
0.0
 10
124.1514
 20
19.4674
 30
0.0
 10
122.9047
 20
20.2871
 30
0.0
 10
121.9041
 20
20.8953
 30
0.0
  0
SPLINE
  5
5C
330
1F
100
AcDbEntity
  8
layer 1
 62
     7
370
     9
100
AcDbSpline
210
0.0
220
0.0
230
1.0
 70
    11
 71
     3
 72
    28
 73
    24
 74
     0
 42
0.0000000001
 43
0.0000000001
 12
1.0
 22
0.0
 32
0.0
 13
1.0
 23
0.0
 33
0.0
 40
0.0
 40
0.0
 40
0.0
 40
0.0
 40
0.1428571428571428
 40
0.1428571428571428
 40
0.1428571428571428
 40
0.1428571428571428
 40
0.2857142857142857
 40
0.2857142857142857
 40
0.2857142857142857
 40
0.2857142857142857
 40
0.4285714285714285
 40
0.4285714285714285
 40
0.4285714285714285
 40
0.4285714285714285
 40
0.5714285714285714
 40
0.5714285714285714
 40
0.5714285714285714
 40
0.5714285714285714
 40
0.7142857142857143
 40
0.7142857142857143
 40
0.7142857142857143
 40
0.7142857142857143
 40
1.0
 40
1.0
 40
1.0
 40
1.0
 10
121.9041
 20
45.3963
 30
0.0
 10
121.9041
 20
45.3963
 30
0.0
 10
121.9041
 20
50.7753
 30
0.0
 10
121.9041
 20
50.7753
 30
0.0
 10
121.9041
 20
50.7753
 30
0.0
 10
122.9639
 20
50.7207
 30
0.0
 10
124.0108
 20
50.5798
 30
0.0
 10
124.9927
 20
50.3193
 30
0.0
 10
124.9927
 20
50.3193
 30
0.0
 10
129.303
 20
49.1756
 30
0.0
 10
129.6609
 20
44.2952
 30
0.0
 10
128.4961
 20
42.7774
 30
0.0
 10
128.4961
 20
42.7774
 30
0.0
 10
127.3316
 20
41.2598
 30
0.0
 10
122.6827
 20
42.7613
 30
0.0
 10
122.6827
 20
42.7613
 30
0.0
 10
122.6827
 20
42.7613
 30
0.0
 10
122.6827
 20
42.7613
 30
0.0
 10
122.6429
 20
42.703
 30
0.0
 10
122.5934
 20
42.5959
 30
0.0
 10
122.5934
 20
42.5959
 30
0.0
 10
122.2943
 20
43.5877
 30
0.0
 10
122.0684
 20
44.5684
 30
0.0
 10
121.9041
 20
45.3963
 30
0.0
  0
SPLINE
  5
5D
330
1F
100
AcDbEntity
  8
layer 1
 62
     7
370
     9
100
AcDbSpline
210
0.0
220
0.0
230
1.0
 70
    11
 71
     3
 72
    16
 73
    12
 74
     0
 42
0.0000000001
 43
0.0000000001
 12
1.0
 22
0.0
 32
0.0
 13
1.0
 23
0.0
 33
0.0
 40
0.0
 40
0.0
 40
0.0
 40
0.0
 40
0.25
 40
0.25
 40
0.25
 40
0.25
 40
0.5
 40
0.5
 40
0.5
 40
0.5
 40
1.0
 40
1.0
 40
1.0
 40
1.0
 10
121.9041
 20
52.1081
 30
0.0
 10
121.9041
 20
52.1081
 30
0.0
 10
121.9041
 20
52.341
 30
0.0
 10
121.9041
 20
52.341
 30
0.0
 10
121.9041
 20
52.341
 30
0.0
 10
122.0155
 20
52.2549
 30
0.0
 10
122.1297
 20
52.1706
 30
0.0
 10
122.248
 20
52.0888
 30
0.0
 10
122.248
 20
52.0888
 30
0.0
 10
122.248
 20
52.0888
 30
0.0
 10
121.9041
 20
52.1081
 30
0.0
 10
121.9041
 20
52.1081
 30
0.0
  0
SPLINE
  5
5E
330
1F
100
AcDbEntity
  8
layer 1
 62
     7
370
     9
100
AcDbSpline
210
0.0
220
0.0
230
1.0
 70
    11
 71
     3
 72
    92
 73
    88
 74
     0
 42
0.0000000001
 43
0.0000000001
 12
1.0
 22
0.0
 32
0.0
 13
1.0
 23
0.0
 33
0.0
 40
0.0
 40
0.0
 40
0.0
 40
0.0
 40
0.0434782608695652
 40
0.0434782608695652
 40
0.0434782608695652
 40
0.0434782608695652
 40
0.0869565217391304
 40
0.0869565217391304
 40
0.0869565217391304
 40
0.0869565217391304
 40
0.1304347826086956
 40
0.1304347826086956
 40
0.1304347826086956
 40
0.1304347826086956
 40
0.1739130434782609
 40
0.1739130434782609
 40
0.1739130434782609
 40
0.1739130434782609
 40
0.2173913043478261
 40
0.2173913043478261
 40
0.2173913043478261
 40
0.2173913043478261
 40
0.2608695652173913
 40
0.2608695652173913
 40
0.2608695652173913
 40
0.2608695652173913
 40
0.3043478260869565
 40
0.3043478260869565
 40
0.3043478260869565
 40
0.3043478260869565
 40
0.3478260869565217
 40
0.3478260869565217
 40
0.3478260869565217
 40
0.3478260869565217
 40
0.391304347826087
 40
0.391304347826087
 40
0.391304347826087
 40
0.391304347826087
 40
0.4347826086956522
 40
0.4347826086956522
 40
0.4347826086956522
 40
0.4347826086956522
 40
0.4782608695652174
 40
0.4782608695652174
 40
0.4782608695652174
 40
0.4782608695652174
 40
0.5217391304347826
 40
0.5217391304347826
 40
0.5217391304347826
 40
0.5217391304347826
 40
0.5652173913043478
 40
0.5652173913043478
 40
0.5652173913043478
 40
0.5652173913043478
 40
0.6086956521739131
 40
0.6086956521739131
 40
0.6086956521739131
 40
0.6086956521739131
 40
0.6521739130434783
 40
0.6521739130434783
 40
0.6521739130434783
 40
0.6521739130434783
 40
0.6956521739130435
 40
0.6956521739130435
 40
0.6956521739130435
 40
0.6956521739130435
 40
0.7391304347826086
 40
0.7391304347826086
 40
0.7391304347826086
 40
0.7391304347826086
 40
0.782608695652174
 40
0.782608695652174
 40
0.782608695652174
 40
0.782608695652174
 40
0.8260869565217391
 40
0.8260869565217391
 40
0.8260869565217391
 40
0.8260869565217391
 40
0.8695652173913043
 40
0.8695652173913043
 40
0.8695652173913043
 40
0.8695652173913043
 40
0.9130434782608695
 40
0.9130434782608695
 40
0.9130434782608695
 40
0.9130434782608695
 40
1.0
 40
1.0
 40
1.0
 40
1.0
 10
121.9041
 20
54.6511
 30
0.0
 10
121.9041
 20
54.6511
 30
0.0
 10
121.9041
 20
63.8285
 30
0.0
 10
121.9041
 20
63.8285
 30
0.0
 10
121.9041
 20
63.8285
 30
0.0
 10
122.2142
 20
64.3212
 30
0.0
 10
122.5512
 20
64.7903
 30
0.0
 10
122.9008
 20
65.2241
 30
0.0
 10
122.9008
 20
65.2241
 30
0.0
 10
123.4973
 20
65.8
 30
0.0
 10
124.2312
 20
66.5313
 30
0.0
 10
125.0146
 20
67.3653
 30
0.0
 10
125.0146
 20
67.3653
 30
0.0
 10
131.6307
 20
72.829
 30
0.0
 10
140.5746
 20
69.9706
 30
0.0
 10
145.8115
 20
64.2577
 30
0.0
 10
145.8115
 20
64.2577
 30
0.0
 10
152.972
 20
56.4467
 30
0.0
 10
150.5531
 20
45.7715
 30
0.0
 10
145.3393
 20
34.5338
 30
0.0
 10
145.3393
 20
34.5338
 30
0.0
 10
137.2378
 20
38.7756
 30
0.0
 10
136.4002
 20
36.0
 30
0.0
 10
133.1006
 20
33.1771
 30
0.0
 10
133.1006
 20
33.1771
 30
0.0
 10
129.7737
 20
30.3306
 30
0.0
 10
129.1326
 20
24.9573
 30
0.0
 10
128.9733
 20
24.5135
 30
0.0
 10
128.9733
 20
24.5135
 30
0.0
 10
128.8139
 20
24.0694
 30
0.0
 10
127.5149
 20
25.55
 30
0.0
 10
126.6352
 20
27.2548
 30
0.0
 10
126.6352
 20
27.2548
 30
0.0
 10
125.7559
 20
28.9596
 30
0.0
 10
125.9443
 20
31.1845
 30
0.0
 10
126.052
 20
32.8065
 30
0.0
 10
126.052
 20
32.8065
 30
0.0
 10
126.1598
 20
34.4286
 30
0.0
 10
126.4956
 20
35.7421
 30
0.0
 10
124.3637
 20
38.6795
 30
0.0
 10
124.3637
 20
38.6795
 30
0.0
 10
124.3222
 20
38.7366
 30
0.0
 10
124.2813
 20
38.7954
 30
0.0
 10
124.2408
 20
38.855
 30
0.0
 10
124.2408
 20
38.855
 30
0.0
 10
124.4774
 20
38.6828
 30
0.0
 10
124.7428
 20
38.509
 30
0.0
 10
125.0399
 20
38.335
 30
0.0
 10
125.0399
 20
38.335
 30
0.0
 10
128.8801
 20
36.087
 30
0.0
 10
131.9971
 20
37.3833
 30
0.0
 10
131.7621
 20
43.1612
 30
0.0
 10
131.7621
 20
43.1612
 30
0.0
 10
131.5267
 20
48.939
 30
0.0
 10
127.5494
 20
50.5165
 30
0.0
 10
127.5494
 20
50.5165
 30
0.0
 10
127.5494
 20
50.5165
 30
0.0
 10
127.5494
 20
50.5165
 30
0.0
 10
127.3684
 20
50.5265
 30
0.0
 10
131.5186
 20
51.8783
 30
0.0
 10
131.5186
 20
51.8783
 30
0.0
 10
135.6688
 20
53.2304
 30
0.0
 10
136.4199
 20
58.3882
 30
0.0
 10
134.3078
 20
61.1054
 30
0.0
 10
134.3078
 20
61.1054
 30
0.0
 10
132.1954
 20
63.8226
 30
0.0
 10
128.8802
 20
64.9109
 30
0.0
 10
126.7988
 20
61.5225
 30
0.0
 10
126.7988
 20
61.5225
 30
0.0
 10
124.7172
 20
58.134
 30
0.0
 10
125.8611
 20
57.1662
 30
0.0
 10
128.1665
 20
56.36
 30
0.0
 10
128.1665
 20
56.36
 30
0.0
 10
130.4717
 20
55.5538
 30
0.0
 10
132.2117
 20
57.9438
 30
0.0
 10
132.6202
 20
58.5992
 30
0.0
 10
132.6202
 20
58.5992
 30
0.0
 10
133.029
 20
59.2548
 30
0.0
 10
134.3595
 20
57.4854
 30
0.0
 10
133.6236
 20
55.6046
 30
0.0
 10
133.6236
 20
55.6046
 30
0.0
 10
132.8878
 20
53.7239
 30
0.0
 10
128.4137
 20
52.5031
 30
0.0
 10
126.9807
 20
52.3566
 30
0.0
 10
126.9807
 20
52.3566
 30
0.0
 10
125.8904
 20
52.2451
 30
0.0
 10
123.6313
 20
52.4612
 30
0.0
 10
121.9041
 20
54.6511
 30
0.0
  0
SPLINE
  5
5F
330
1F
100
AcDbEntity
  8
layer 1
 62
     7
370
     9
100
AcDbSpline
210
0.0
220
0.0
230
1.0
 70
    11
 71
     3
 72
    20
 73
    16
 74
     0
 42
0.0000000001
 43
0.0000000001
 12
1.0
 22
0.0
 32
0.0
 13
1.0
 23
0.0
 33
0.0
 40
0.0
 40
0.0
 40
0.0
 40
0.0
 40
0.2
 40
0.2
 40
0.2
 40
0.2
 40
0.4
 40
0.4
 40
0.4
 40
0.4
 40
0.6
 40
0.6
 40
0.6
 40
0.6
 40
1.0
 40
1.0
 40
1.0
 40
1.0
 10
121.9041
 20
65.9159
 30
0.0
 10
121.9041
 20
65.9159
 30
0.0
 10
121.9041
 20
73.655
 30
0.0
 10
121.9041
 20
73.655
 30
0.0
 10
121.9041
 20
73.655
 30
0.0
 10
122.159
 20
73.0542
 30
0.0
 10
122.4439
 20
72.5053
 30
0.0
 10
122.7555
 20
72.0206
 30
0.0
 10
122.7555
 20
72.0206
 30
0.0
 10
123.2582
 20
71.2382
 30
0.0
 10
122.819
 20
68.4957
 30
0.0
 10
122.2788
 20
66.3706
 30
0.0
 10
122.2788
 20
66.3706
 30
0.0
 10
122.1526
 20
66.2226
 30
0.0
 10
122.0278
 20
66.0714
 30
0.0
 10
121.9041
 20
65.9159
 30
0.0
  0
SPLINE
  5
60
330
1F
100
AcDbEntity
  8
layer 1
 62
     7
370
     9
100
AcDbSpline
210
0.0
220
0.0
230
1.0
 70
    11
 71
     3
 72
    24
 73
    20
 74
     0
 42
0.0000000001
 43
0.0000000001
 12
1.0
 22
0.0
 32
0.0
 13
1.0
 23
0.0
 33
0.0
 40
0.0
 40
0.0
 40
0.0
 40
0.0
 40
0.1666666666666667
 40
0.1666666666666667
 40
0.1666666666666667
 40
0.1666666666666667
 40
0.3333333333333333
 40
0.3333333333333333
 40
0.3333333333333333
 40
0.3333333333333333
 40
0.5
 40
0.5
 40
0.5
 40
0.5
 40
0.6666666666666666
 40
0.6666666666666666
 40
0.6666666666666666
 40
0.6666666666666666
 40
1.0
 40
1.0
 40
1.0
 40
1.0
 10
121.9041
 20
89.4466
 30
0.0
 10
121.9041
 20
89.4466
 30
0.0
 10
121.9041
 20
99.8592
 30
0.0
 10
121.9041
 20
99.8592
 30
0.0
 10
121.9041
 20
99.8592
 30
0.0
 10
124.8649
 20
103.9742
 30
0.0
 10
125.4071
 20
107.8571
 30
0.0
 10
126.1444
 20
112.4818
 30
0.0
 10
126.1444
 20
112.4818
 30
0.0
 10
126.1444
 20
112.4818
 30
0.0
 10
128.8111
 20
109.3926
 30
0.0
 10
129.4203
 20
106.7444
 30
0.0
 10
129.4203
 20
106.7444
 30
0.0
 10
130.0292
 20
104.096
 30
0.0
 10
130.2905
 20
100.9781
 30
0.0
 10
130.2905
 20
100.9781
 30
0.0
 10
130.2905
 20
100.9781
 30
0.0
 10
125.9969
 20
97.7742
 30
0.0
 10
123.3416
 20
93.6478
 30
0.0
 10
121.9041
 20
89.4466
 30
0.0
  0
SPLINE
  5
61
330
1F
100
AcDbEntity
  8
layer 1
 62
     7
370
     9
100
AcDbSpline
210
0.0
220
0.0
230
1.0
 70
    11
 71
     3
 72
    28
 73
    24
 74
     0
 42
0.0000000001
 43
0.0000000001
 12
1.0
 22
0.0
 32
0.0
 13
1.0
 23
0.0
 33
0.0
 40
0.0
 40
0.0
 40
0.0
 40
0.0
 40
0.1428571428571428
 40
0.1428571428571428
 40
0.1428571428571428
 40
0.1428571428571428
 40
0.2857142857142857
 40
0.2857142857142857
 40
0.2857142857142857
 40
0.2857142857142857
 40
0.4285714285714285
 40
0.4285714285714285
 40
0.4285714285714285
 40
0.4285714285714285
 40
0.5714285714285714
 40
0.5714285714285714
 40
0.5714285714285714
 40
0.5714285714285714
 40
0.7142857142857143
 40
0.7142857142857143
 40
0.7142857142857143
 40
0.7142857142857143
 40
1.0
 40
1.0
 40
1.0
 40
1.0
 10
133.0779
 20
-2.4651
 30
0.0
 10
134.2567
 20
-13.4431
 30
0.0
 10
141.5447
 20
-21.4265
 30
0.0
 10
148.3391
 20
-26.9316
 30
0.0
 10
148.3391
 20
-26.9316
 30
0.0
 10
146.8666
 20
-26.491
 30
0.0
 10
145.4426
 20
-26.0856
 30
0.0
 10
144.0595
 20
-25.7164
 30
0.0
 10
144.0595
 20
-25.7164
 30
0.0
 10
144.0595
 20
-25.7164
 30
0.0
 10
145.0949
 20
-24.4382
 30
0.0
 10
145.0949
 20
-24.4382
 30
0.0
 10
145.0949
 20
-24.4382
 30
0.0
 10
139.4746
 20
-22.622
 30
0.0
 10
135.0838
 20
-18.3722
 30
0.0
 10
133.0716
 20
-16.2711
 30
0.0
 10
133.0716
 20
-16.2711
 30
0.0
 10
130.2336
 20
-13.3055
 30
0.0
 10
129.9177
 20
-9.7061
 30
0.0
 10
129.93
 20
-6.1773
 30
0.0
 10
129.93
 20
-6.1773
 30
0.0
 10
129.9349
 20
-4.7988
 30
0.0
 10
131.3232
 20
-3.6464
 30
0.0
 10
133.0779
 20
-2.4651
 30
0.0
  0
SPLINE
  5
62
330
1F
100
AcDbEntity
  8
layer 1
 62
     7
370
     9
100
AcDbSpline
210
0.0
220
0.0
230
1.0
 70
    11
 71
     3
 72
    16
 73
    12
 74
     0
 42
0.0000000001
 43
0.0000000001
 12
1.0
 22
0.0
 32
0.0
 13
1.0
 23
0.0
 33
0.0
 40
0.0
 40
0.0
 40
0.0
 40
0.0
 40
0.25
 40
0.25
 40
0.25
 40
0.25
 40
0.5
 40
0.5
 40
0.5
 40
0.5
 40
1.0
 40
1.0
 40
1.0
 40
1.0
 10
141.0126
 20
-24.9479
 30
0.0
 10
138.8426
 20
-24.4354
 30
0.0
 10
136.7696
 20
-24.0259
 30
0.0
 10
134.763
 20
-23.7273
 30
0.0
 10
134.763
 20
-23.7273
 30
0.0
 10
135.8796
 20
-23.2687
 30
0.0
 10
136.9564
 20
-23.0281
 30
0.0
 10
136.9564
 20
-23.0281
 30
0.0
 10
136.9564
 20
-23.0281
 30
0.0
 10
136.9564
 20
-23.0281
 30
0.0
 10
138.2598
 20
-23.8692
 30
0.0
 10
141.0126
 20
-24.9479
 30
0.0
  0
SPLINE
  5
63
330
1F
100
AcDbEntity
  8
layer 1
 62
     7
370
     9
100
AcDbSpline
210
0.0
220
0.0
230
1.0
 70
    11
 71
     3
 72
    64
 73
    60
 74
     0
 42
0.0000000001
 43
0.0000000001
 12
1.0
 22
0.0
 32
0.0
 13
1.0
 23
0.0
 33
0.0
 40
0.0
 40
0.0
 40
0.0
 40
0.0
 40
0.0625
 40
0.0625
 40
0.0625
 40
0.0625
 40
0.125
 40
0.125
 40
0.125
 40
0.125
 40
0.1875
 40
0.1875
 40
0.1875
 40
0.1875
 40
0.25
 40
0.25
 40
0.25
 40
0.25
 40
0.3125
 40
0.3125
 40
0.3125
 40
0.3125
 40
0.375
 40
0.375
 40
0.375
 40
0.375
 40
0.4375
 40
0.4375
 40
0.4375
 40
0.4375
 40
0.5
 40
0.5
 40
0.5
 40
0.5
 40
0.5625
 40
0.5625
 40
0.5625
 40
0.5625
 40
0.625
 40
0.625
 40
0.625
 40
0.625
 40
0.6875
 40
0.6875
 40
0.6875
 40
0.6875
 40
0.75
 40
0.75
 40
0.75
 40
0.75
 40
0.8125
 40
0.8125
 40
0.8125
 40
0.8125
 40
0.875
 40
0.875
 40
0.875
 40
0.875
 40
1.0
 40
1.0
 40
1.0
 40
1.0
 10
179.8374
 20
-55.6775
 30
0.0
 10
179.7755
 20
-55.6406
 30
0.0
 10
179.7131
 20
-55.6054
 30
0.0
 10
179.6498
 20
-55.572
 30
0.0
 10
179.6498
 20
-55.572
 30
0.0
 10
177.8425
 20
-54.6187
 30
0.0
 10
176.408
 20
-56.23
 30
0.0
 10
176.9023
 20
-57.5273
 30
0.0
 10
176.9023
 20
-57.5273
 30
0.0
 10
177.736
 20
-59.7155
 30
0.0
 10
180.5174
 20
-58.399
 30
0.0
 10
179.6114
 20
-57.047
 30
0.0
 10
179.6114
 20
-57.047
 30
0.0
 10
179.6114
 20
-57.047
 30
0.0
 10
178.9638
 20
-56.6562
 30
0.0
 10
178.8087
 20
-57.1996
 30
0.0
 10
178.8087
 20
-57.1996
 30
0.0
 10
178.7603
 20
-57.3693
 30
0.0
 10
178.6672
 20
-57.4861
 30
0.0
 10
178.5626
 20
-57.5646
 30
0.0
 10
178.5626
 20
-57.5646
 30
0.0
 10
178.2832
 20
-57.7749
 30
0.0
 10
177.6882
 20
-57.6556
 30
0.0
 10
177.6823
 20
-57.2017
 30
0.0
 10
177.6823
 20
-57.2017
 30
0.0
 10
177.6518
 20
-54.7975
 30
0.0
 10
181.2826
 20
-56.3854
 30
0.0
 10
181.8159
 20
-58.9077
 30
0.0
 10
181.8159
 20
-58.9077
 30
0.0
 10
181.9443
 20
-59.5159
 30
0.0
 10
182.171
 20
-60.2546
 30
0.0
 10
182.3941
 20
-61.0494
 30
0.0
 10
182.3941
 20
-61.0494
 30
0.0
 10
182.8548
 20
-62.6909
 30
0.0
 10
183.6286
 20
-64.2516
 30
0.0
 10
183.6286
 20
-64.2516
 30
0.0
 10
183.6286
 20
-64.2516
 30
0.0
 10
183.6286
 20
-64.2516
 30
0.0
 10
181.961
 20
-63.5444
 30
0.0
 10
180.9667
 20
-62.5407
 30
0.0
 10
180.9667
 20
-62.5407
 30
0.0
 10
179.9722
 20
-61.5367
 30
0.0
 10
177.2463
 20
-60.2907
 30
0.0
 10
175.5664
 20
-60.076
 30
0.0
 10
175.5664
 20
-60.076
 30
0.0
 10
174.8629
 20
-59.9859
 30
0.0
 10
173.7123
 20
-60.1473
 30
0.0
 10
172.6125
 20
-60.3659
 30
0.0
 10
172.6125
 20
-60.3659
 30
0.0
 10
172.688
 20
-56.8099
 30
0.0
 10
171.1252
 20
-52.9446
 30
0.0
 10
171.5543
 20
-49.5555
 30
0.0
 10
171.5543
 20
-49.5555
 30
0.0
 10
172.0138
 20
-45.9301
 30
0.0
 10
175.2527
 20
-45.7252
 30
0.0
 10
175.2527
 20
-45.7252
 30
0.0
 10
175.2527
 20
-45.7252
 30
0.0
 10
175.2527
 20
-45.7252
 30
0.0
 10
177.2129
 20
-52.031
 30
0.0
 10
179.8374
 20
-55.6775
 30
0.0
  0
SPLINE
  5
64
330
1F
100
AcDbEntity
  8
layer 1
 62
     7
370
     9
100
AcDbSpline
210
0.0
220
0.0
230
1.0
 70
    11
 71
     3
 72
    28
 73
    24
 74
     0
 42
0.0000000001
 43
0.0000000001
 12
1.0
 22
0.0
 32
0.0
 13
1.0
 23
0.0
 33
0.0
 40
0.0
 40
0.0
 40
0.0
 40
0.0
 40
0.1428571428571428
 40
0.1428571428571428
 40
0.1428571428571428
 40
0.1428571428571428
 40
0.2857142857142857
 40
0.2857142857142857
 40
0.2857142857142857
 40
0.2857142857142857
 40
0.4285714285714285
 40
0.4285714285714285
 40
0.4285714285714285
 40
0.4285714285714285
 40
0.5714285714285714
 40
0.5714285714285714
 40
0.5714285714285714
 40
0.5714285714285714
 40
0.7142857142857143
 40
0.7142857142857143
 40
0.7142857142857143
 40
0.7142857142857143
 40
1.0
 40
1.0
 40
1.0
 40
1.0
 10
159.8561
 20
-50.6066
 30
0.0
 10
159.4482
 20
-50.0527
 30
0.0
 10
158.9737
 20
-49.4891
 30
0.0
 10
158.4238
 20
-48.9169
 30
0.0
 10
158.4238
 20
-48.9169
 30
0.0
 10
156.594
 20
-47.0131
 30
0.0
 10
154.5684
 20
-46.0173
 30
0.0
 10
152.5227
 20
-45.6338
 30
0.0
 10
152.5227
 20
-45.6338
 30
0.0
 10
153.1824
 20
-45.6113
 30
0.0
 10
153.8429
 20
-45.5748
 30
0.0
 10
154.5015
 20
-45.5218
 30
0.0
 10
154.5015
 20
-45.5218
 30
0.0
 10
163.8726
 20
-44.7688
 30
0.0
 10
172.823
 20
-41.6158
 30
0.0
 10
173.0378
 20
-41.741
 30
0.0
 10
173.0378
 20
-41.741
 30
0.0
 10
173.0378
 20
-41.741
 30
0.0
 10
173.8617
 20
-42.2218
 30
0.0
 10
173.8617
 20
-42.2218
 30
0.0
 10
173.8617
 20
-42.2218
 30
0.0
 10
171.3842
 20
-47.2469
 30
0.0
 10
165.667
 20
-50.0459
 30
0.0
 10
159.8561
 20
-50.6066
 30
0.0
  0
SPLINE
  5
65
330
1F
100
AcDbEntity
  8
layer 1
 62
     7
370
     9
100
AcDbSpline
210
0.0
220
0.0
230
1.0
 70
    11
 71
     3
 72
    32
 73
    28
 74
     0
 42
0.0000000001
 43
0.0000000001
 12
1.0
 22
0.0
 32
0.0
 13
1.0
 23
0.0
 33
0.0
 40
0.0
 40
0.0
 40
0.0
 40
0.0
 40
0.125
 40
0.125
 40
0.125
 40
0.125
 40
0.25
 40
0.25
 40
0.25
 40
0.25
 40
0.375
 40
0.375
 40
0.375
 40
0.375
 40
0.5
 40
0.5
 40
0.5
 40
0.5
 40
0.625
 40
0.625
 40
0.625
 40
0.625
 40
0.75
 40
0.75
 40
0.75
 40
0.75
 40
1.0
 40
1.0
 40
1.0
 40
1.0
 10
166.8924
 20
-76.0583
 30
0.0
 10
167.9367
 20
-76.3178
 30
0.0
 10
169.016
 20
-76.8784
 30
0.0
 10
169.4951
 20
-78.0586
 30
0.0
 10
169.4951
 20
-78.0586
 30
0.0
 10
170.5639
 20
-80.6901
 30
0.0
 10
168.7165
 20
-81.7191
 30
0.0
 10
167.9892
 20
-82.951
 30
0.0
 10
167.9892
 20
-82.951
 30
0.0
 10
167.262
 20
-84.183
 30
0.0
 10
165.8069
 20
-84.6308
 30
0.0
 10
162.2377
 20
-88.8161
 30
0.0
 10
162.2377
 20
-88.8161
 30
0.0
 10
158.6684
 20
-93.0016
 30
0.0
 10
158.5566
 20
-98.91
 30
0.0
 10
158.1983
 20
-98.4698
 30
0.0
 10
158.1983
 20
-98.4698
 30
0.0
 10
158.0184
 20
-98.2489
 30
0.0
 10
157.4723
 20
-96.8076
 30
0.0
 10
156.3369
 20
-94.7021
 30
0.0
 10
156.3369
 20
-94.7021
 30
0.0
 10
155.9115
 20
-91.4278
 30
0.0
 10
156.3385
 20
-88.3426
 30
0.0
 10
156.6343
 20
-86.6335
 30
0.0
 10
156.6343
 20
-86.6335
 30
0.0
 10
157.1401
 20
-83.712
 30
0.0
 10
162.7831
 20
-76.7707
 30
0.0
 10
166.8924
 20
-76.0583
 30
0.0
  0
SPLINE
  5
66
330
1F
100
AcDbEntity
  8
layer 1
 62
     7
370
     9
100
AcDbSpline
210
0.0
220
0.0
230
1.0
 70
    11
 71
     3
 72
    76
 73
    72
 74
     0
 42
0.0000000001
 43
0.0000000001
 12
1.0
 22
0.0
 32
0.0
 13
1.0
 23
0.0
 33
0.0
 40
0.0
 40
0.0
 40
0.0
 40
0.0
 40
0.0526315789473684
 40
0.0526315789473684
 40
0.0526315789473684
 40
0.0526315789473684
 40
0.1052631578947368
 40
0.1052631578947368
 40
0.1052631578947368
 40
0.1052631578947368
 40
0.1578947368421053
 40
0.1578947368421053
 40
0.1578947368421053
 40
0.1578947368421053
 40
0.2105263157894737
 40
0.2105263157894737
 40
0.2105263157894737
 40
0.2105263157894737
 40
0.2631578947368421
 40
0.2631578947368421
 40
0.2631578947368421
 40
0.2631578947368421
 40
0.3157894736842105
 40
0.3157894736842105
 40
0.3157894736842105
 40
0.3157894736842105
 40
0.3684210526315789
 40
0.3684210526315789
 40
0.3684210526315789
 40
0.3684210526315789
 40
0.4210526315789473
 40
0.4210526315789473
 40
0.4210526315789473
 40
0.4210526315789473
 40
0.4736842105263158
 40
0.4736842105263158
 40
0.4736842105263158
 40
0.4736842105263158
 40
0.5263157894736842
 40
0.5263157894736842
 40
0.5263157894736842
 40
0.5263157894736842
 40
0.5789473684210527
 40
0.5789473684210527
 40
0.5789473684210527
 40
0.5789473684210527
 40
0.631578947368421
 40
0.631578947368421
 40
0.631578947368421
 40
0.631578947368421
 40
0.6842105263157895
 40
0.6842105263157895
 40
0.6842105263157895
 40
0.6842105263157895
 40
0.7368421052631579
 40
0.7368421052631579
 40
0.7368421052631579
 40
0.7368421052631579
 40
0.7894736842105263
 40
0.7894736842105263
 40
0.7894736842105263
 40
0.7894736842105263
 40
0.8421052631578947
 40
0.8421052631578947
 40
0.8421052631578947
 40
0.8421052631578947
 40
0.8947368421052632
 40
0.8947368421052632
 40
0.8947368421052632
 40
0.8947368421052632
 40
1.0
 40
1.0
 40
1.0
 40
1.0
 10
153.1554
 20
-89.6904
 30
0.0
 10
152.5104
 20
-88.8187
 30
0.0
 10
151.7916
 20
-87.9184
 30
0.0
 10
150.9906
 20
-87.0065
 30
0.0
 10
150.9906
 20
-87.0065
 30
0.0
 10
141.2158
 20
-75.8771
 30
0.0
 10
131.9686
 20
-64.2548
 30
0.0
 10
137.9751
 20
-54.0332
 30
0.0
 10
137.9751
 20
-54.0332
 30
0.0
 10
141.5194
 20
-48.0017
 30
0.0
 10
149.0174
 20
-44.5654
 30
0.0
 10
156.1384
 20
-49.1763
 30
0.0
 10
156.1384
 20
-49.1763
 30
0.0
 10
161.6417
 20
-52.7397
 30
0.0
 10
160.2297
 20
-57.7575
 30
0.0
 10
156.9759
 20
-59.9113
 30
0.0
 10
156.9759
 20
-59.9113
 30
0.0
 10
156.9759
 20
-59.9113
 30
0.0
 10
156.9871
 20
-59.8707
 30
0.0
 10
156.9871
 20
-59.8707
 30
0.0
 10
156.9871
 20
-59.8707
 30
0.0
 10
156.9871
 20
-59.8707
 30
0.0
 10
156.9595
 20
-59.9
 30
0.0
 10
156.9088
 20
-59.9551
 30
0.0
 10
156.9088
 20
-59.9551
 30
0.0
 10
154.7397
 20
-61.3542
 30
0.0
 10
151.7798
 20
-61.4876
 30
0.0
 10
149.4959
 20
-59.1011
 30
0.0
 10
149.4959
 20
-59.1011
 30
0.0
 10
148.2841
 20
-57.8349
 30
0.0
 10
149.3232
 20
-56.0204
 30
0.0
 10
149.7755
 20
-56.489
 30
0.0
 10
149.7755
 20
-56.489
 30
0.0
 10
150.2279
 20
-56.9575
 30
0.0
 10
152.0808
 20
-58.6245
 30
0.0
 10
153.8192
 20
-57.5868
 30
0.0
 10
153.8192
 20
-57.5868
 30
0.0
 10
155.5578
 20
-56.5492
 30
0.0
 10
156.3179
 20
-55.5701
 30
0.0
 10
154.0055
 20
-53.1435
 30
0.0
 10
154.0055
 20
-53.1435
 30
0.0
 10
151.6933
 20
-50.7164
 30
0.0
 10
149.1807
 20
-52.1508
 30
0.0
 10
147.9447
 20
-54.7182
 30
0.0
 10
147.9447
 20
-54.7182
 30
0.0
 10
146.7085
 20
-57.286
 30
0.0
 10
148.1133
 20
-60.4689
 30
0.0
 10
151.8882
 20
-61.8001
 30
0.0
 10
151.8882
 20
-61.8001
 30
0.0
 10
152.8799
 20
-62.1499
 30
0.0
 10
153.9038
 20
-62.2946
 30
0.0
 10
154.9012
 20
-62.262
 30
0.0
 10
154.9012
 20
-62.262
 30
0.0
 10
153.5841
 20
-63.8555
 30
0.0
 10
152.0542
 20
-65.8885
 30
0.0
 10
151.6327
 20
-67.1905
 30
0.0
 10
151.6327
 20
-67.1905
 30
0.0
 10
150.8527
 20
-69.5994
 30
0.0
 10
150.9169
 20
-74.0946
 30
0.0
 10
151.7541
 20
-76.0938
 30
0.0
 10
151.7541
 20
-76.0938
 30
0.0
 10
152.5914
 20
-78.0928
 30
0.0
 10
152.549
 20
-80.8068
 30
0.0
 10
152.549
 20
-80.8068
 30
0.0
 10
152.549
 20
-80.8068
 30
0.0
 10
152.549
 20
-80.8068
 30
0.0
 10
153.6657
 20
-90.0325
 30
0.0
 10
153.6657
 20
-90.0325
 30
0.0
 10
153.6657
 20
-90.0325
 30
0.0
 10
153.6657
 20
-90.0325
 30
0.0
 10
153.4843
 20
-89.8971
 30
0.0
 10
153.1554
 20
-89.6904
 30
0.0
  0
SPLINE
  5
67
330
1F
100
AcDbEntity
  8
layer 1
 62
     7
370
     9
100
AcDbSpline
210
0.0
220
0.0
230
1.0
 70
    11
 71
     3
 72
    24
 73
    20
 74
     0
 42
0.0000000001
 43
0.0000000001
 12
1.0
 22
0.0
 32
0.0
 13
1.0
 23
0.0
 33
0.0
 40
0.0
 40
0.0
 40
0.0
 40
0.0
 40
0.1666666666666667
 40
0.1666666666666667
 40
0.1666666666666667
 40
0.1666666666666667
 40
0.3333333333333333
 40
0.3333333333333333
 40
0.3333333333333333
 40
0.3333333333333333
 40
0.5
 40
0.5
 40
0.5
 40
0.5
 40
0.6666666666666666
 40
0.6666666666666666
 40
0.6666666666666666
 40
0.6666666666666666
 40
1.0
 40
1.0
 40
1.0
 40
1.0
 10
145.1102
 20
34.0421
 30
0.0
 10
143.3237
 20
30.2441
 30
0.0
 10
141.2299
 20
26.3858
 30
0.0
 10
139.0897
 20
22.5559
 30
0.0
 10
139.0897
 20
22.5559
 30
0.0
 10
137.146
 20
19.0776
 30
0.0
 10
135.911
 20
15.8472
 30
0.0
 10
135.1113
 20
13.2689
 30
0.0
 10
135.1113
 20
13.2689
 30
0.0
 10
132.7555
 20
16.6144
 30
0.0
 10
131.7535
 20
20.5155
 30
0.0
 10
131.314
 20
22.5339
 30
0.0
 10
131.314
 20
22.5339
 30
0.0
 10
130.5972
 20
25.8255
 30
0.0
 10
131.9804
 20
28.5453
 30
0.0
 10
133.5683
 20
31.0802
 30
0.0
 10
133.5683
 20
31.0802
 30
0.0
 10
135.082
 20
33.4971
 30
0.0
 10
141.9238
 20
31.5851
 30
0.0
 10
145.1102
 20
34.0421
 30
0.0
  0
SPLINE
  5
68
330
1F
100
AcDbEntity
  8
layer 1
 62
     7
370
     9
100
AcDbSpline
210
0.0
220
0.0
230
1.0
 70
    11
 71
     3
 72
    20
 73
    16
 74
     0
 42
0.0000000001
 43
0.0000000001
 12
1.0
 22
0.0
 32
0.0
 13
1.0
 23
0.0
 33
0.0
 40
0.0
 40
0.0
 40
0.0
 40
0.0
 40
0.2
 40
0.2
 40
0.2
 40
0.2
 40
0.4
 40
0.4
 40
0.4
 40
0.4
 40
0.6
 40
0.6
 40
0.6
 40
0.6
 40
1.0
 40
1.0
 40
1.0
 40
1.0
 10
134.563
 20
11.3669
 30
0.0
 10
133.97
 20
9.1446
 30
0.0
 10
133.7455
 20
7.6924
 30
0.0
 10
133.6096
 20
7.4261
 30
0.0
 10
133.6096
 20
7.4261
 30
0.0
 10
133.3334
 20
6.8845
 30
0.0
 10
131.9548
 20
12.447
 30
0.0
 10
127.8202
 20
16.5235
 30
0.0
 10
127.8202
 20
16.5235
 30
0.0
 10
129.2261
 20
16.6467
 30
0.0
 10
131.0872
 20
16.0869
 30
0.0
 10
131.0872
 20
16.0869
 30
0.0
 10
131.0872
 20
16.0869
 30
0.0
 10
131.0872
 20
16.0869
 30
0.0
 10
131.9902
 20
14.2584
 30
0.0
 10
134.563
 20
11.3669
 30
0.0
  0
SPLINE
  5
69
330
1F
100
AcDbEntity
  8
layer 1
 62
     7
370
     9
100
AcDbSpline
210
0.0
220
0.0
230
1.0
 70
    11
 71
     3
 72
    24
 73
    20
 74
     0
 42
0.0000000001
 43
0.0000000001
 12
1.0
 22
0.0
 32
0.0
 13
1.0
 23
0.0
 33
0.0
 40
0.0
 40
0.0
 40
0.0
 40
0.0
 40
0.1666666666666667
 40
0.1666666666666667
 40
0.1666666666666667
 40
0.1666666666666667
 40
0.3333333333333333
 40
0.3333333333333333
 40
0.3333333333333333
 40
0.3333333333333333
 40
0.5
 40
0.5
 40
0.5
 40
0.5
 40
0.6666666666666666
 40
0.6666666666666666
 40
0.6666666666666666
 40
0.6666666666666666
 40
1.0
 40
1.0
 40
1.0
 40
1.0
 10
129.6816
 20
73.294
 30
0.0
 10
131.5146
 20
74.6756
 30
0.0
 10
133.5167
 20
76.0278
 30
0.0
 10
135.2132
 20
77.2617
 30
0.0
 10
135.2132
 20
77.2617
 30
0.0
 10
138.1927
 20
79.4285
 30
0.0
 10
140.0063
 20
81.1227
 30
0.0
 10
140.2588
 20
82.8962
 30
0.0
 10
140.2588
 20
82.8962
 30
0.0
 10
140.892
 20
87.3439
 30
0.0
 10
137.7827
 20
90.8993
 30
0.0
 10
133.9424
 20
92.1267
 30
0.0
 10
133.9424
 20
92.1267
 30
0.0
 10
134.3805
 20
85.9008
 30
0.0
 10
133.3484
 20
80.4654
 30
0.0
 10
130.3083
 20
74.4239
 30
0.0
 10
130.3083
 20
74.4239
 30
0.0
 10
130.1201
 20
74.05
 30
0.0
 10
129.9096
 20
73.6725
 30
0.0
 10
129.6816
 20
73.294
 30
0.0
  0
SPLINE
  5
6A
330
1F
100
AcDbEntity
  8
layer 1
 62
     7
370
     9
100
AcDbSpline
210
0.0
220
0.0
230
1.0
 70
    11
 71
     3
 72
    28
 73
    24
 74
     0
 42
0.0000000001
 43
0.0000000001
 12
1.0
 22
0.0
 32
0.0
 13
1.0
 23
0.0
 33
0.0
 40
0.0
 40
0.0
 40
0.0
 40
0.0
 40
0.1428571428571428
 40
0.1428571428571428
 40
0.1428571428571428
 40
0.1428571428571428
 40
0.2857142857142857
 40
0.2857142857142857
 40
0.2857142857142857
 40
0.2857142857142857
 40
0.4285714285714285
 40
0.4285714285714285
 40
0.4285714285714285
 40
0.4285714285714285
 40
0.5714285714285714
 40
0.5714285714285714
 40
0.5714285714285714
 40
0.5714285714285714
 40
0.7142857142857143
 40
0.7142857142857143
 40
0.7142857142857143
 40
0.7142857142857143
 40
1.0
 40
1.0
 40
1.0
 40
1.0
 10
133.8491
 20
93.2399
 30
0.0
 10
134.3676
 20
93.2115
 30
0.0
 10
136.258
 20
93.0617
 30
0.0
 10
137.08
 20
92.3698
 30
0.0
 10
137.08
 20
92.3698
 30
0.0
 10
138.0375
 20
91.5637
 30
0.0
 10
139.401
 20
90.234
 30
0.0
 10
139.401
 20
90.234
 30
0.0
 10
139.401
 20
90.234
 30
0.0
 10
139.401
 20
90.234
 30
0.0
 10
139.5558
 20
94.1381
 30
0.0
 10
138.8096
 20
95.4925
 30
0.0
 10
138.8096
 20
95.4925
 30
0.0
 10
138.5456
 20
95.9718
 30
0.0
 10
138.4043
 20
96.7623
 30
0.0
 10
138.3646
 20
97.6488
 30
0.0
 10
138.3646
 20
97.6488
 30
0.0
 10
135.7293
 20
99.8151
 30
0.0
 10
133.509
 20
102.2554
 30
0.0
 10
131.6509
 20
104.6091
 30
0.0
 10
131.6509
 20
104.6091
 30
0.0
 10
132.7546
 20
100.4069
 30
0.0
 10
133.5162
 20
96.6933
 30
0.0
 10
133.8491
 20
93.2399
 30
0.0
  0
SPLINE
  5
6B
330
1F
100
AcDbEntity
  8
layer 1
 62
     7
370
     9
100
AcDbSpline
210
0.0
220
0.0
230
1.0
 70
    11
 71
     3
 72
    24
 73
    20
 74
     0
 42
0.0000000001
 43
0.0000000001
 12
1.0
 22
0.0
 32
0.0
 13
1.0
 23
0.0
 33
0.0
 40
0.0
 40
0.0
 40
0.0
 40
0.0
 40
0.1666666666666667
 40
0.1666666666666667
 40
0.1666666666666667
 40
0.1666666666666667
 40
0.3333333333333333
 40
0.3333333333333333
 40
0.3333333333333333
 40
0.3333333333333333
 40
0.5
 40
0.5
 40
0.5
 40
0.5
 40
0.6666666666666666
 40
0.6666666666666666
 40
0.6666666666666666
 40
0.6666666666666666
 40
1.0
 40
1.0
 40
1.0
 40
1.0
 10
142.7952
 20
94.5565
 30
0.0
 10
142.2007
 20
92.9633
 30
0.0
 10
141.1819
 20
91.3986
 30
0.0
 10
140.966
 20
89.8301
 30
0.0
 10
140.966
 20
89.8301
 30
0.0
 10
140.6922
 20
87.8409
 30
0.0
 10
142.3867
 20
87.31
 30
0.0
 10
142.3867
 20
87.31
 30
0.0
 10
142.3867
 20
87.31
 30
0.0
 10
142.3867
 20
87.31
 30
0.0
 10
144.1331
 20
90.7077
 30
0.0
 10
146.6371
 20
92.0268
 30
0.0
 10
146.6371
 20
92.0268
 30
0.0
 10
146.9372
 20
92.185
 30
0.0
 10
147.2297
 20
92.2917
 30
0.0
 10
147.5114
 20
92.3546
 30
0.0
 10
147.5114
 20
92.3546
 30
0.0
 10
145.8348
 20
92.9577
 30
0.0
 10
144.2644
 20
93.7043
 30
0.0
 10
142.7952
 20
94.5565
 30
0.0
  0
SPLINE
  5
6C
330
1F
100
AcDbEntity
  8
layer 1
 62
     7
370
     9
100
AcDbSpline
210
0.0
220
0.0
230
1.0
 70
    11
 71
     3
 72
   208
 73
   204
 74
     0
 42
0.0000000001
 43
0.0000000001
 12
1.0
 22
0.0
 32
0.0
 13
1.0
 23
0.0
 33
0.0
 40
0.0
 40
0.0
 40
0.0
 40
0.0
 40
0.0192307692307692
 40
0.0192307692307692
 40
0.0192307692307692
 40
0.0192307692307692
 40
0.0384615384615385
 40
0.0384615384615385
 40
0.0384615384615385
 40
0.0384615384615385
 40
0.0576923076923077
 40
0.0576923076923077
 40
0.0576923076923077
 40
0.0576923076923077
 40
0.0769230769230769
 40
0.0769230769230769
 40
0.0769230769230769
 40
0.0769230769230769
 40
0.0961538461538462
 40
0.0961538461538462
 40
0.0961538461538462
 40
0.0961538461538462
 40
0.1153846153846154
 40
0.1153846153846154
 40
0.1153846153846154
 40
0.1153846153846154
 40
0.1346153846153846
 40
0.1346153846153846
 40
0.1346153846153846
 40
0.1346153846153846
 40
0.1538461538461539
 40
0.1538461538461539
 40
0.1538461538461539
 40
0.1538461538461539
 40
0.1730769230769231
 40
0.1730769230769231
 40
0.1730769230769231
 40
0.1730769230769231
 40
0.1923076923076923
 40
0.1923076923076923
 40
0.1923076923076923
 40
0.1923076923076923
 40
0.2115384615384615
 40
0.2115384615384615
 40
0.2115384615384615
 40
0.2115384615384615
 40
0.2307692307692308
 40
0.2307692307692308
 40
0.2307692307692308
 40
0.2307692307692308
 40
0.25
 40
0.25
 40
0.25
 40
0.25
 40
0.2692307692307692
 40
0.2692307692307692
 40
0.2692307692307692
 40
0.2692307692307692
 40
0.2884615384615384
 40
0.2884615384615384
 40
0.2884615384615384
 40
0.2884615384615384
 40
0.3076923076923077
 40
0.3076923076923077
 40
0.3076923076923077
 40
0.3076923076923077
 40
0.3269230769230769
 40
0.3269230769230769
 40
0.3269230769230769
 40
0.3269230769230769
 40
0.3461538461538461
 40
0.3461538461538461
 40
0.3461538461538461
 40
0.3461538461538461
 40
0.3653846153846154
 40
0.3653846153846154
 40
0.3653846153846154
 40
0.3653846153846154
 40
0.3846153846153846
 40
0.3846153846153846
 40
0.3846153846153846
 40
0.3846153846153846
 40
0.4038461538461539
 40
0.4038461538461539
 40
0.4038461538461539
 40
0.4038461538461539
 40
0.4230769230769231
 40
0.4230769230769231
 40
0.4230769230769231
 40
0.4230769230769231
 40
0.4423076923076923
 40
0.4423076923076923
 40
0.4423076923076923
 40
0.4423076923076923
 40
0.4615384615384616
 40
0.4615384615384616
 40
0.4615384615384616
 40
0.4615384615384616
 40
0.4807692307692308
 40
0.4807692307692308
 40
0.4807692307692308
 40
0.4807692307692308
 40
0.5
 40
0.5
 40
0.5
 40
0.5
 40
0.5192307692307693
 40
0.5192307692307693
 40
0.5192307692307693
 40
0.5192307692307693
 40
0.5384615384615384
 40
0.5384615384615384
 40
0.5384615384615384
 40
0.5384615384615384
 40
0.5576923076923077
 40
0.5576923076923077
 40
0.5576923076923077
 40
0.5576923076923077
 40
0.5769230769230769
 40
0.5769230769230769
 40
0.5769230769230769
 40
0.5769230769230769
 40
0.5961538461538461
 40
0.5961538461538461
 40
0.5961538461538461
 40
0.5961538461538461
 40
0.6153846153846154
 40
0.6153846153846154
 40
0.6153846153846154
 40
0.6153846153846154
 40
0.6346153846153846
 40
0.6346153846153846
 40
0.6346153846153846
 40
0.6346153846153846
 40
0.6538461538461539
 40
0.6538461538461539
 40
0.6538461538461539
 40
0.6538461538461539
 40
0.6730769230769231
 40
0.6730769230769231
 40
0.6730769230769231
 40
0.6730769230769231
 40
0.6923076923076923
 40
0.6923076923076923
 40
0.6923076923076923
 40
0.6923076923076923
 40
0.7115384615384616
 40
0.7115384615384616
 40
0.7115384615384616
 40
0.7115384615384616
 40
0.7307692307692307
 40
0.7307692307692307
 40
0.7307692307692307
 40
0.7307692307692307
 40
0.75
 40
0.75
 40
0.75
 40
0.75
 40
0.7692307692307693
 40
0.7692307692307693
 40
0.7692307692307693
 40
0.7692307692307693
 40
0.7884615384615384
 40
0.7884615384615384
 40
0.7884615384615384
 40
0.7884615384615384
 40
0.8076923076923077
 40
0.8076923076923077
 40
0.8076923076923077
 40
0.8076923076923077
 40
0.8269230769230769
 40
0.8269230769230769
 40
0.8269230769230769
 40
0.8269230769230769
 40
0.8461538461538461
 40
0.8461538461538461
 40
0.8461538461538461
 40
0.8461538461538461
 40
0.8653846153846154
 40
0.8653846153846154
 40
0.8653846153846154
 40
0.8653846153846154
 40
0.8846153846153846
 40
0.8846153846153846
 40
0.8846153846153846
 40
0.8846153846153846
 40
0.9038461538461539
 40
0.9038461538461539
 40
0.9038461538461539
 40
0.9038461538461539
 40
0.9230769230769231
 40
0.9230769230769231
 40
0.9230769230769231
 40
0.9230769230769231
 40
0.9423076923076923
 40
0.9423076923076923
 40
0.9423076923076923
 40
0.9423076923076923
 40
0.9615384615384616
 40
0.9615384615384616
 40
0.9615384615384616
 40
0.9615384615384616
 40
1.0
 40
1.0
 40
1.0
 40
1.0
 10
149.9844
 20
91.5944
 30
0.0
 10
150.5286
 20
90.9754
 30
0.0
 10
150.7411
 20
90.1042
 30
0.0
 10
150.4408
 20
89.317
 30
0.0
 10
150.4408
 20
89.317
 30
0.0
 10
149.2846
 20
86.2868
 30
0.0
 10
145.4333
 20
88.1121
 30
0.0
 10
146.6892
 20
89.984
 30
0.0
 10
146.6892
 20
89.984
 30
0.0
 10
146.6892
 20
89.984
 30
0.0
 10
147.5864
 20
90.5249
 30
0.0
 10
147.8006
 20
89.772
 30
0.0
 10
147.8006
 20
89.772
 30
0.0
 10
147.8678
 20
89.5368
 30
0.0
 10
147.9963
 20
89.3757
 30
0.0
 10
148.1414
 20
89.2663
 30
0.0
 10
148.1414
 20
89.2663
 30
0.0
 10
148.5281
 20
88.9745
 30
0.0
 10
149.3523
 20
89.1392
 30
0.0
 10
149.3607
 20
89.7683
 30
0.0
 10
149.3607
 20
89.7683
 30
0.0
 10
149.4048
 20
93.0986
 30
0.0
 10
144.3749
 20
90.9019
 30
0.0
 10
143.6348
 20
87.4084
 30
0.0
 10
143.6348
 20
87.4084
 30
0.0
 10
143.4562
 20
86.5658
 30
0.0
 10
143.1418
 20
85.5438
 30
0.0
 10
142.8323
 20
84.4428
 30
0.0
 10
142.8323
 20
84.4428
 30
0.0
 10
142.1933
 20
82.1694
 30
0.0
 10
141.1203
 20
80.0087
 30
0.0
 10
141.1203
 20
80.0087
 30
0.0
 10
141.1203
 20
80.0087
 30
0.0
 10
141.1203
 20
80.0087
 30
0.0
 10
143.4302
 20
80.9869
 30
0.0
 10
144.8081
 20
82.3768
 30
0.0
 10
144.8081
 20
82.3768
 30
0.0
 10
146.1861
 20
83.7662
 30
0.0
 10
149.9624
 20
85.4901
 30
0.0
 10
152.2892
 20
85.7865
 30
0.0
 10
152.2892
 20
85.7865
 30
0.0
 10
154.6158
 20
86.0831
 30
0.0
 10
160.4713
 20
84.3891
 30
0.0
 10
160.4713
 20
84.3891
 30
0.0
 10
160.4713
 20
84.3891
 30
0.0
 10
160.4713
 20
84.3891
 30
0.0
 10
154.9326
 20
83.4625
 30
0.0
 10
152.3241
 20
81.491
 30
0.0
 10
152.3241
 20
81.491
 30
0.0
 10
149.7157
 20
79.5196
 30
0.0
 10
148.4763
 20
79.7295
 30
0.0
 10
146.9631
 20
79.7287
 30
0.0
 10
146.9631
 20
79.7287
 30
0.0
 10
145.4498
 20
79.7279
 30
0.0
 10
143.3717
 20
79.7614
 30
0.0
 10
141.8376
 20
78.9202
 30
0.0
 10
141.8376
 20
78.9202
 30
0.0
 10
140.3036
 20
78.0789
 30
0.0
 10
139.0015
 20
76.895
 30
0.0
 10
139.4231
 20
76.7854
 30
0.0
 10
139.4231
 20
76.7854
 30
0.0
 10
139.8446
 20
76.6756
 30
0.0
 10
144.8734
 20
76.4376
 30
0.0
 10
147.7069
 20
73.7824
 30
0.0
 10
147.7069
 20
73.7824
 30
0.0
 10
150.5403
 20
71.1271
 30
0.0
 10
153.1884
 20
70.5892
 30
0.0
 10
149.5734
 20
63.319
 30
0.0
 10
149.5734
 20
63.319
 30
0.0
 10
146.5855
 20
65.6444
 30
0.0
 10
148.2283
 20
72.068
 30
0.0
 10
145.7849
 20
73.2677
 30
0.0
 10
145.7849
 20
73.2677
 30
0.0
 10
143.3397
 20
74.4683
 30
0.0
 10
140.7345
 20
75.485
 30
0.0
 10
137.7166
 20
74.6918
 30
0.0
 10
137.7166
 20
74.6918
 30
0.0
 10
135.9053
 20
74.2155
 30
0.0
 10
131.9969
 20
72.9653
 30
0.0
 10
128.9231
 20
70.8074
 30
0.0
 10
128.9231
 20
70.8074
 30
0.0
 10
133.7362
 20
72.2643
 30
0.0
 10
138.8145
 20
70.936
 30
0.0
 10
142.2077
 20
69.3822
 30
0.0
 10
142.2077
 20
69.3822
 30
0.0
 10
147.2675
 20
67.0649
 30
0.0
 10
150.7916
 20
62.73
 30
0.0
 10
152.3797
 20
55.8975
 30
0.0
 10
152.3797
 20
55.8975
 30
0.0
 10
152.3797
 20
55.8975
 30
0.0
 10
154.1953
 20
59.0822
 30
0.0
 10
158.1769
 20
59.1348
 30
0.0
 10
158.1769
 20
59.1348
 30
0.0
 10
162.1583
 20
59.1875
 30
0.0
 10
163.3033
 20
58.7815
 30
0.0
 10
163.3033
 20
58.7815
 30
0.0
 10
163.3033
 20
58.7815
 30
0.0
 10
163.3033
 20
58.7815
 30
0.0
 10
160.4949
 20
56.6104
 30
0.0
 10
160.6602
 20
53.1788
 30
0.0
 10
160.6602
 20
53.1788
 30
0.0
 10
160.8257
 20
49.7473
 30
0.0
 10
162.0866
 20
46.2549
 30
0.0
 10
161.0893
 20
43.5039
 30
0.0
 10
161.0893
 20
43.5039
 30
0.0
 10
160.0922
 20
40.753
 30
0.0
 10
158.143
 20
40.9297
 30
0.0
 10
157.8813
 20
40.3283
 30
0.0
 10
157.8813
 20
40.3283
 30
0.0
 10
157.6196
 20
39.7268
 30
0.0
 10
161.7828
 20
38.5949
 30
0.0
 10
161.4513
 20
35.3127
 30
0.0
 10
161.4513
 20
35.3127
 30
0.0
 10
161.1198
 20
32.0304
 30
0.0
 10
157.3842
 20
30.2688
 30
0.0
 10
153.133
 20
28.9518
 30
0.0
 10
153.133
 20
28.9518
 30
0.0
 10
148.8818
 20
27.6347
 30
0.0
 10
140.5093
 20
21.037
 30
0.0
 10
138.5814
 20
17.0703
 30
0.0
 10
138.5814
 20
17.0703
 30
0.0
 10
136.4696
 20
12.7258
 30
0.0
 10
135.8316
 20
7.1742
 30
0.0
 10
137.471
 20
4.803
 30
0.0
 10
137.471
 20
4.803
 30
0.0
 10
137.6819
 20
4.498
 30
0.0
 10
138.8833
 20
10.5494
 30
0.0
 10
144.9955
 20
18.4616
 30
0.0
 10
144.9955
 20
18.4616
 30
0.0
 10
150.4675
 20
24.0064
 30
0.0
 10
156.8717
 20
27.0388
 30
0.0
 10
163.1406
 20
27.9821
 30
0.0
 10
163.1406
 20
27.9821
 30
0.0
 10
163.5504
 20
28.6464
 30
0.0
 10
164.0413
 20
29.5397
 30
0.0
 10
164.5959
 20
30.7295
 30
0.0
 10
164.5959
 20
30.7295
 30
0.0
 10
166.298
 20
34.3814
 30
0.0
 10
165.397
 20
35.8398
 30
0.0
 10
165.1966
 20
38.94
 30
0.0
 10
165.1966
 20
38.94
 30
0.0
 10
164.9964
 20
42.0398
 30
0.0
 10
169.0002
 20
45.8678
 30
0.0
 10
169.4444
 20
46.9547
 30
0.0
 10
169.4444
 20
46.9547
 30
0.0
 10
172.0315
 20
53.2843
 30
0.0
 10
165.1291
 20
59.1742
 30
0.0
 10
171.913
 20
67.6329
 30
0.0
 10
171.913
 20
67.6329
 30
0.0
 10
171.913
 20
67.6329
 30
0.0
 10
167.277
 20
65.1487
 30
0.0
 10
167.277
 20
65.1487
 30
0.0
 10
167.277
 20
65.1487
 30
0.0
 10
167.9105
 20
70.0348
 30
0.0
 10
172.1894
 20
69.0274
 30
0.0
 10
173.1941
 20
70.8391
 30
0.0
 10
173.1941
 20
70.8391
 30
0.0
 10
174.4256
 20
73.0594
 30
0.0
 10
170.5145
 20
80.3505
 30
0.0
 10
170.5145
 20
80.3505
 30
0.0
 10
170.5145
 20
80.3505
 30
0.0
 10
170.5145
 20
80.3505
 30
0.0
 10
170.6915
 20
78.6119
 30
0.0
 10
170.5145
 20
76.3963
 30
0.0
 10
170.5145
 20
76.3963
 30
0.0
 10
169.6254
 20
65.2617
 30
0.0
 10
152.0214
 20
66.5504
 30
0.0
 10
156.309
 20
74.9247
 30
0.0
 10
156.309
 20
74.9247
 30
0.0
 10
156.6571
 20
71.1406
 30
0.0
 10
164.2078
 20
69.1773
 30
0.0
 10
166.2023
 20
71.2425
 30
0.0
 10
166.2023
 20
71.2425
 30
0.0
 10
161.836
 20
71.2893
 30
0.0
 10
159.9854
 20
74.641
 30
0.0
 10
161.9559
 20
76.7535
 30
0.0
 10
161.9559
 20
76.7535
 30
0.0
 10
161.6859
 20
75.4005
 30
0.0
 10
166.3535
 20
72.2335
 30
0.0
 10
167.1372
 20
72.5814
 30
0.0
 10
167.1372
 20
72.5814
 30
0.0
 10
170.6116
 20
74.1242
 30
0.0
 10
166.4699
 20
84.707
 30
0.0
 10
166.0564
 20
85.2592
 30
0.0
 10
166.0564
 20
85.2592
 30
0.0
 10
166.0564
 20
85.2592
 30
0.0
 10
166.1915
 20
82.1299
 30
0.0
 10
164.3003
 20
80.0728
 30
0.0
 10
164.3003
 20
80.0728
 30
0.0
 10
162.4089
 20
78.0154
 30
0.0
 10
160.7879
 20
77.7065
 30
0.0
 10
160.7879
 20
77.7065
 30
0.0
 10
160.7879
 20
77.7065
 30
0.0
 10
160.1123
 20
78.5251
 30
0.0
 10
159.9537
 20
80.2636
 30
0.0
 10
161.3744
 20
83.3726
 30
0.0
 10
161.3744
 20
83.3726
 30
0.0
 10
162.795
 20
86.4817
 30
0.0
 10
159.2016
 20
90.5923
 30
0.0
 10
155.6914
 20
90.7493
 30
0.0
 10
155.6914
 20
90.7493
 30
0.0
 10
153.6744
 20
90.8393
 30
0.0
 10
151.7742
 20
91.1348
 30
0.0
 10
149.9844
 20
91.5944
 30
0.0
  0
SPLINE
  5
6D
330
1F
100
AcDbEntity
  8
layer 1
 62
   250
370
     9
100
AcDbSpline
210
0.0
220
0.0
230
1.0
 70
    11
 71
     3
 72
    20
 73
    16
 74
     0
 42
0.0000000001
 43
0.0000000001
 12
1.0
 22
0.0
 32
0.0
 13
1.0
 23
0.0
 33
0.0
 40
0.0
 40
0.0
 40
0.0
 40
0.0
 40
0.2
 40
0.2
 40
0.2
 40
0.2
 40
0.4
 40
0.4
 40
0.4
 40
0.4
 40
0.6
 40
0.6
 40
0.6
 40
0.6
 40
1.0
 40
1.0
 40
1.0
 40
1.0
 10
21.0595
 20
131.7854
 30
0.0
 10
21.0595
 20
131.7854
 30
0.0
 10
106.3548
 20
131.7854
 30
0.0
 10
106.3548
 20
131.7854
 30
0.0
 10
106.3548
 20
131.7854
 30
0.0
 10
106.3548
 20
131.7854
 30
0.0
 10
106.3548
 20
-114.8153
 30
0.0
 10
106.3548
 20
-114.8153
 30
0.0
 10
106.3548
 20
-114.8153
 30
0.0
 10
106.3548
 20
-114.8153
 30
0.0
 10
21.0595
 20
-114.8153
 30
0.0
 10
21.0595
 20
-114.8153
 30
0.0
 10
21.0595
 20
-114.8153
 30
0.0
 10
21.0595
 20
-114.8153
 30
0.0
 10
21.0595
 20
131.7854
 30
0.0
 10
21.0595
 20
131.7854
 30
0.0
  0
SPLINE
  5
6E
330
1F
100
AcDbEntity
  8
layer 1
 62
     7
370
     9
100
AcDbSpline
210
0.0
220
0.0
230
1.0
 70
    11
 71
     3
 72
    32
 73
    28
 74
     0
 42
0.0000000001
 43
0.0000000001
 12
1.0
 22
0.0
 32
0.0
 13
1.0
 23
0.0
 33
0.0
 40
0.0
 40
0.0
 40
0.0
 40
0.0
 40
0.125
 40
0.125
 40
0.125
 40
0.125
 40
0.25
 40
0.25
 40
0.25
 40
0.25
 40
0.375
 40
0.375
 40
0.375
 40
0.375
 40
0.5
 40
0.5
 40
0.5
 40
0.5
 40
0.625
 40
0.625
 40
0.625
 40
0.625
 40
0.75
 40
0.75
 40
0.75
 40
0.75
 40
1.0
 40
1.0
 40
1.0
 40
1.0
 10
27.9952
 20
125.0187
 30
0.0
 10
27.9952
 20
125.0187
 30
0.0
 10
45.8459
 20
125.0187
 30
0.0
 10
45.8459
 20
125.0187
 30
0.0
 10
45.8459
 20
125.0187
 30
0.0
 10
42.7176
 20
121.6765
 30
0.0
 10
41.7926
 20
115.4703
 30
0.0
 10
41.7926
 20
115.4703
 30
0.0
 10
41.7926
 20
115.4703
 30
0.0
 10
41.7926
 20
115.4703
 30
0.0
 10
40.259
 20
116.6753
 30
0.0
 10
40.259
 20
116.6753
 30
0.0
 10
40.259
 20
116.6753
 30
0.0
 10
40.0942
 20
116.8047
 30
0.0
 10
40.0947
 20
114.2104
 30
0.0
 10
39.8207
 20
114.4843
 30
0.0
 10
39.8207
 20
114.4843
 30
0.0
 10
39.5468
 20
114.7581
 30
0.0
 10
37.1366
 20
116.3467
 30
0.0
 10
33.9597
 20
117.1136
 30
0.0
 10
33.9597
 20
117.1136
 30
0.0
 10
31.5282
 20
117.7005
 30
0.0
 10
29.0327
 20
117.4535
 30
0.0
 10
27.9952
 20
117.305
 30
0.0
 10
27.9952
 20
117.305
 30
0.0
 10
27.9952
 20
117.305
 30
0.0
 10
27.9952
 20
125.0187
 30
0.0
 10
27.9952
 20
125.0187
 30
0.0
  0
SPLINE
  5
6F
330
1F
100
AcDbEntity
  8
layer 1
 62
     7
370
     9
100
AcDbSpline
210
0.0
220
0.0
230
1.0
 70
    11
 71
     3
 72
   480
 73
   476
 74
     0
 42
0.0000000001
 43
0.0000000001
 12
1.0
 22
0.0
 32
0.0
 13
1.0
 23
0.0
 33
0.0
 40
0.0
 40
0.0
 40
0.0
 40
0.0
 40
0.0083333333333333
 40
0.0083333333333333
 40
0.0083333333333333
 40
0.0083333333333333
 40
0.0166666666666667
 40
0.0166666666666667
 40
0.0166666666666667
 40
0.0166666666666667
 40
0.025
 40
0.025
 40
0.025
 40
0.025
 40
0.0333333333333333
 40
0.0333333333333333
 40
0.0333333333333333
 40
0.0333333333333333
 40
0.0416666666666667
 40
0.0416666666666667
 40
0.0416666666666667
 40
0.0416666666666667
 40
0.05
 40
0.05
 40
0.05
 40
0.05
 40
0.0583333333333333
 40
0.0583333333333333
 40
0.0583333333333333
 40
0.0583333333333333
 40
0.0666666666666667
 40
0.0666666666666667
 40
0.0666666666666667
 40
0.0666666666666667
 40
0.075
 40
0.075
 40
0.075
 40
0.075
 40
0.0833333333333333
 40
0.0833333333333333
 40
0.0833333333333333
 40
0.0833333333333333
 40
0.0916666666666667
 40
0.0916666666666667
 40
0.0916666666666667
 40
0.0916666666666667
 40
0.1
 40
0.1
 40
0.1
 40
0.1
 40
0.1083333333333333
 40
0.1083333333333333
 40
0.1083333333333333
 40
0.1083333333333333
 40
0.1166666666666667
 40
0.1166666666666667
 40
0.1166666666666667
 40
0.1166666666666667
 40
0.125
 40
0.125
 40
0.125
 40
0.125
 40
0.1333333333333333
 40
0.1333333333333333
 40
0.1333333333333333
 40
0.1333333333333333
 40
0.1416666666666667
 40
0.1416666666666667
 40
0.1416666666666667
 40
0.1416666666666667
 40
0.15
 40
0.15
 40
0.15
 40
0.15
 40
0.1583333333333333
 40
0.1583333333333333
 40
0.1583333333333333
 40
0.1583333333333333
 40
0.1666666666666667
 40
0.1666666666666667
 40
0.1666666666666667
 40
0.1666666666666667
 40
0.175
 40
0.175
 40
0.175
 40
0.175
 40
0.1833333333333333
 40
0.1833333333333333
 40
0.1833333333333333
 40
0.1833333333333333
 40
0.1916666666666667
 40
0.1916666666666667
 40
0.1916666666666667
 40
0.1916666666666667
 40
0.2
 40
0.2
 40
0.2
 40
0.2
 40
0.2083333333333333
 40
0.2083333333333333
 40
0.2083333333333333
 40
0.2083333333333333
 40
0.2166666666666667
 40
0.2166666666666667
 40
0.2166666666666667
 40
0.2166666666666667
 40
0.225
 40
0.225
 40
0.225
 40
0.225
 40
0.2333333333333333
 40
0.2333333333333333
 40
0.2333333333333333
 40
0.2333333333333333
 40
0.2416666666666667
 40
0.2416666666666667
 40
0.2416666666666667
 40
0.2416666666666667
 40
0.25
 40
0.25
 40
0.25
 40
0.25
 40
0.2583333333333334
 40
0.2583333333333334
 40
0.2583333333333334
 40
0.2583333333333334
 40
0.2666666666666667
 40
0.2666666666666667
 40
0.2666666666666667
 40
0.2666666666666667
 40
0.275
 40
0.275
 40
0.275
 40
0.275
 40
0.2833333333333333
 40
0.2833333333333333
 40
0.2833333333333333
 40
0.2833333333333333
 40
0.2916666666666667
 40
0.2916666666666667
 40
0.2916666666666667
 40
0.2916666666666667
 40
0.3
 40
0.3
 40
0.3
 40
0.3
 40
0.3083333333333333
 40
0.3083333333333333
 40
0.3083333333333333
 40
0.3083333333333333
 40
0.3166666666666667
 40
0.3166666666666667
 40
0.3166666666666667
 40
0.3166666666666667
 40
0.325
 40
0.325
 40
0.325
 40
0.325
 40
0.3333333333333333
 40
0.3333333333333333
 40
0.3333333333333333
 40
0.3333333333333333
 40
0.3416666666666667
 40
0.3416666666666667
 40
0.3416666666666667
 40
0.3416666666666667
 40
0.35
 40
0.35
 40
0.35
 40
0.35
 40
0.3583333333333333
 40
0.3583333333333333
 40
0.3583333333333333
 40
0.3583333333333333
 40
0.3666666666666666
 40
0.3666666666666666
 40
0.3666666666666666
 40
0.3666666666666666
 40
0.375
 40
0.375
 40
0.375
 40
0.375
 40
0.3833333333333334
 40
0.3833333333333334
 40
0.3833333333333334
 40
0.3833333333333334
 40
0.3916666666666667
 40
0.3916666666666667
 40
0.3916666666666667
 40
0.3916666666666667
 40
0.4
 40
0.4
 40
0.4
 40
0.4
 40
0.4083333333333333
 40
0.4083333333333333
 40
0.4083333333333333
 40
0.4083333333333333
 40
0.4166666666666667
 40
0.4166666666666667
 40
0.4166666666666667
 40
0.4166666666666667
 40
0.425
 40
0.425
 40
0.425
 40
0.425
 40
0.4333333333333333
 40
0.4333333333333333
 40
0.4333333333333333
 40
0.4333333333333333
 40
0.4416666666666667
 40
0.4416666666666667
 40
0.4416666666666667
 40
0.4416666666666667
 40
0.45
 40
0.45
 40
0.45
 40
0.45
 40
0.4583333333333333
 40
0.4583333333333333
 40
0.4583333333333333
 40
0.4583333333333333
 40
0.4666666666666667
 40
0.4666666666666667
 40
0.4666666666666667
 40
0.4666666666666667
 40
0.475
 40
0.475
 40
0.475
 40
0.475
 40
0.4833333333333333
 40
0.4833333333333333
 40
0.4833333333333333
 40
0.4833333333333333
 40
0.4916666666666666
 40
0.4916666666666666
 40
0.4916666666666666
 40
0.4916666666666666
 40
0.5
 40
0.5
 40
0.5
 40
0.5
 40
0.5083333333333333
 40
0.5083333333333333
 40
0.5083333333333333
 40
0.5083333333333333
 40
0.5166666666666667
 40
0.5166666666666667
 40
0.5166666666666667
 40
0.5166666666666667
 40
0.525
 40
0.525
 40
0.525
 40
0.525
 40
0.5333333333333333
 40
0.5333333333333333
 40
0.5333333333333333
 40
0.5333333333333333
 40
0.5416666666666666
 40
0.5416666666666666
 40
0.5416666666666666
 40
0.5416666666666666
 40
0.55
 40
0.55
 40
0.55
 40
0.55
 40
0.5583333333333333
 40
0.5583333333333333
 40
0.5583333333333333
 40
0.5583333333333333
 40
0.5666666666666667
 40
0.5666666666666667
 40
0.5666666666666667
 40
0.5666666666666667
 40
0.575
 40
0.575
 40
0.575
 40
0.575
 40
0.5833333333333334
 40
0.5833333333333334
 40
0.5833333333333334
 40
0.5833333333333334
 40
0.5916666666666667
 40
0.5916666666666667
 40
0.5916666666666667
 40
0.5916666666666667
 40
0.6
 40
0.6
 40
0.6
 40
0.6
 40
0.6083333333333333
 40
0.6083333333333333
 40
0.6083333333333333
 40
0.6083333333333333
 40
0.6166666666666667
 40
0.6166666666666667
 40
0.6166666666666667
 40
0.6166666666666667
 40
0.625
 40
0.625
 40
0.625
 40
0.625
 40
0.6333333333333333
 40
0.6333333333333333
 40
0.6333333333333333
 40
0.6333333333333333
 40
0.6416666666666667
 40
0.6416666666666667
 40
0.6416666666666667
 40
0.6416666666666667
 40
0.65
 40
0.65
 40
0.65
 40
0.65
 40
0.6583333333333333
 40
0.6583333333333333
 40
0.6583333333333333
 40
0.6583333333333333
 40
0.6666666666666666
 40
0.6666666666666666
 40
0.6666666666666666
 40
0.6666666666666666
 40
0.675
 40
0.675
 40
0.675
 40
0.675
 40
0.6833333333333333
 40
0.6833333333333333
 40
0.6833333333333333
 40
0.6833333333333333
 40
0.6916666666666667
 40
0.6916666666666667
 40
0.6916666666666667
 40
0.6916666666666667
 40
0.7
 40
0.7
 40
0.7
 40
0.7
 40
0.7083333333333334
 40
0.7083333333333334
 40
0.7083333333333334
 40
0.7083333333333334
 40
0.7166666666666667
 40
0.7166666666666667
 40
0.7166666666666667
 40
0.7166666666666667
 40
0.725
 40
0.725
 40
0.725
 40
0.725
 40
0.7333333333333333
 40
0.7333333333333333
 40
0.7333333333333333
 40
0.7333333333333333
 40
0.7416666666666667
 40
0.7416666666666667
 40
0.7416666666666667
 40
0.7416666666666667
 40
0.75
 40
0.75
 40
0.75
 40
0.75
 40
0.7583333333333333
 40
0.7583333333333333
 40
0.7583333333333333
 40
0.7583333333333333
 40
0.7666666666666667
 40
0.7666666666666667
 40
0.7666666666666667
 40
0.7666666666666667
 40
0.775
 40
0.775
 40
0.775
 40
0.775
 40
0.7833333333333333
 40
0.7833333333333333
 40
0.7833333333333333
 40
0.7833333333333333
 40
0.7916666666666666
 40
0.7916666666666666
 40
0.7916666666666666
 40
0.7916666666666666
 40
0.8
 40
0.8
 40
0.8
 40
0.8
 40
0.8083333333333333
 40
0.8083333333333333
 40
0.8083333333333333
 40
0.8083333333333333
 40
0.8166666666666667
 40
0.8166666666666667
 40
0.8166666666666667
 40
0.8166666666666667
 40
0.825
 40
0.825
 40
0.825
 40
0.825
 40
0.8333333333333334
 40
0.8333333333333334
 40
0.8333333333333334
 40
0.8333333333333334
 40
0.8416666666666667
 40
0.8416666666666667
 40
0.8416666666666667
 40
0.8416666666666667
 40
0.85
 40
0.85
 40
0.85
 40
0.85
 40
0.8583333333333333
 40
0.8583333333333333
 40
0.8583333333333333
 40
0.8583333333333333
 40
0.8666666666666667
 40
0.8666666666666667
 40
0.8666666666666667
 40
0.8666666666666667
 40
0.875
 40
0.875
 40
0.875
 40
0.875
 40
0.8833333333333333
 40
0.8833333333333333
 40
0.8833333333333333
 40
0.8833333333333333
 40
0.8916666666666667
 40
0.8916666666666667
 40
0.8916666666666667
 40
0.8916666666666667
 40
0.9
 40
0.9
 40
0.9
 40
0.9
 40
0.9083333333333333
 40
0.9083333333333333
 40
0.9083333333333333
 40
0.9083333333333333
 40
0.9166666666666666
 40
0.9166666666666666
 40
0.9166666666666666
 40
0.9166666666666666
 40
0.925
 40
0.925
 40
0.925
 40
0.925
 40
0.9333333333333333
 40
0.9333333333333333
 40
0.9333333333333333
 40
0.9333333333333333
 40
0.9416666666666667
 40
0.9416666666666667
 40
0.9416666666666667
 40
0.9416666666666667
 40
0.95
 40
0.95
 40
0.95
 40
0.95
 40
0.9583333333333334
 40
0.9583333333333334
 40
0.9583333333333334
 40
0.9583333333333334
 40
0.9666666666666667
 40
0.9666666666666667
 40
0.9666666666666667
 40
0.9666666666666667
 40
0.975
 40
0.975
 40
0.975
 40
0.975
 40
0.9833333333333333
 40
0.9833333333333333
 40
0.9833333333333333
 40
0.9833333333333333
 40
1.0
 40
1.0
 40
1.0
 40
1.0
 10
50.5064
 20
125.0187
 30
0.0
 10
50.5064
 20
125.0187
 30
0.0
 10
93.608
 20
125.0187
 30
0.0
 10
93.608
 20
125.0187
 30
0.0
 10
93.608
 20
125.0187
 30
0.0
 10
89.9949
 20
121.6333
 30
0.0
 10
88.9436
 20
114.5806
 30
0.0
 10
88.9436
 20
114.5806
 30
0.0
 10
88.9436
 20
114.5806
 30
0.0
 10
88.9436
 20
114.5806
 30
0.0
 10
87.3323
 20
115.8466
 30
0.0
 10
87.3323
 20
115.8466
 30
0.0
 10
87.3323
 20
115.8466
 30
0.0
 10
87.1593
 20
115.9825
 30
0.0
 10
87.1596
 20
113.257
 30
0.0
 10
86.8719
 20
113.5447
 30
0.0
 10
86.8719
 20
113.5447
 30
0.0
 10
86.584
 20
113.8323
 30
0.0
 10
84.052
 20
115.5014
 30
0.0
 10
80.7142
 20
116.307
 30
0.0
 10
80.7142
 20
116.307
 30
0.0
 10
77.3763
 20
117.1127
 30
0.0
 10
73.9235
 20
116.4221
 30
0.0
 10
73.9235
 20
116.4221
 30
0.0
 10
73.9235
 20
116.4221
 30
0.0
 10
73.9235
 20
116.4221
 30
0.0
 10
71.9669
 20
115.156
 30
0.0
 10
71.9669
 20
115.156
 30
0.0
 10
71.9669
 20
115.156
 30
0.0
 10
71.9669
 20
115.156
 30
0.0
 10
71.7366
 20
114.523
 30
0.0
 10
71.7366
 20
114.523
 30
0.0
 10
71.7366
 20
114.523
 30
0.0
 10
71.7366
 20
114.523
 30
0.0
 10
73.5782
 20
113.372
 30
0.0
 10
74.3839
 20
113.1993
 30
0.0
 10
74.3839
 20
113.1993
 30
0.0
 10
75.1895
 20
113.0267
 30
0.0
 10
77.9519
 20
108.3077
 30
0.0
 10
77.9519
 20
108.3077
 30
0.0
 10
77.9519
 20
108.3077
 30
0.0
 10
77.9519
 20
108.3077
 30
0.0
 10
82.1529
 20
108.7682
 30
0.0
 10
82.1529
 20
108.7682
 30
0.0
 10
82.1529
 20
108.7682
 30
0.0
 10
82.1529
 20
108.7682
 30
0.0
 10
81.0019
 20
107.5022
 30
0.0
 10
80.1386
 20
105.8907
 30
0.0
 10
80.1386
 20
105.8907
 30
0.0
 10
79.2755
 20
104.2793
 30
0.0
 10
83.7643
 20
99.9056
 30
0.0
 10
86.9294
 20
99.9633
 30
0.0
 10
86.9294
 20
99.9633
 30
0.0
 10
90.0946
 20
100.0208
 30
0.0
 10
90.037
 20
106.9842
 30
0.0
 10
90.037
 20
106.9842
 30
0.0
 10
90.037
 20
106.9842
 30
0.0
 10
90.037
 20
106.9842
 30
0.0
 10
92.1088
 20
105.8907
 30
0.0
 10
92.1088
 20
105.8907
 30
0.0
 10
92.1088
 20
105.8907
 30
0.0
 10
92.1088
 20
105.8907
 30
0.0
 10
91.4757
 20
108.8833
 30
0.0
 10
92.5116
 20
108.4229
 30
0.0
 10
92.5116
 20
108.4229
 30
0.0
 10
93.4738
 20
107.9951
 30
0.0
 10
95.7692
 20
103.1388
 30
0.0
 10
99.419
 20
105.5972
 30
0.0
 10
99.419
 20
105.5972
 30
0.0
 10
99.419
 20
105.5972
 30
0.0
 10
99.419
 20
84.5405
 30
0.0
 10
99.419
 20
84.5405
 30
0.0
 10
99.419
 20
84.5405
 30
0.0
 10
99.419
 20
84.5405
 30
0.0
 10
97.0119
 20
84.6234
 30
0.0
 10
97.0119
 20
84.6234
 30
0.0
 10
97.0119
 20
84.6234
 30
0.0
 10
97.0119
 20
84.6234
 30
0.0
 10
98.3376
 20
84.8042
 30
0.0
 10
98.9402
 20
86.6121
 30
0.0
 10
98.9402
 20
86.6121
 30
0.0
 10
99.5428
 20
88.42
 30
0.0
 10
98.3376
 20
90.7701
 30
0.0
 10
97.9157
 20
91.2522
 30
0.0
 10
97.9157
 20
91.2522
 30
0.0
 10
97.3214
 20
91.9317
 30
0.0
 10
100.2714
 20
97.1934
 30
0.0
 10
97.3131
 20
96.7359
 30
0.0
 10
97.3131
 20
96.7359
 30
0.0
 10
90.6791
 20
95.71
 30
0.0
 10
88.9369
 20
84.021
 30
0.0
 10
88.9369
 20
84.021
 30
0.0
 10
88.9369
 20
84.021
 30
0.0
 10
88.9369
 20
84.021
 30
0.0
 10
87.2496
 20
85.3467
 30
0.0
 10
87.2496
 20
85.3467
 30
0.0
 10
87.2496
 20
85.3467
 30
0.0
 10
87.0685
 20
85.4889
 30
0.0
 10
87.0689
 20
82.635
 30
0.0
 10
86.7675
 20
82.9363
 30
0.0
 10
86.7675
 20
82.9363
 30
0.0
 10
86.4663
 20
83.2376
 30
0.0
 10
83.8148
 20
84.9852
 30
0.0
 10
80.3197
 20
85.8288
 30
0.0
 10
80.3197
 20
85.8288
 30
0.0
 10
76.8245
 20
86.6724
 30
0.0
 10
73.2089
 20
85.9492
 30
0.0
 10
73.2089
 20
85.9492
 30
0.0
 10
73.2089
 20
85.9492
 30
0.0
 10
73.2089
 20
85.9492
 30
0.0
 10
71.1599
 20
84.6234
 30
0.0
 10
71.1599
 20
84.6234
 30
0.0
 10
71.1599
 20
84.6234
 30
0.0
 10
71.1599
 20
84.6234
 30
0.0
 10
70.919
 20
83.9607
 30
0.0
 10
70.919
 20
83.9607
 30
0.0
 10
70.919
 20
83.9607
 30
0.0
 10
70.919
 20
83.9607
 30
0.0
 10
72.8472
 20
82.7554
 30
0.0
 10
73.6909
 20
82.5747
 30
0.0
 10
73.6909
 20
82.5747
 30
0.0
 10
74.5347
 20
82.3939
 30
0.0
 10
77.4271
 20
77.4524
 30
0.0
 10
77.4271
 20
77.4524
 30
0.0
 10
77.4271
 20
77.4524
 30
0.0
 10
77.4271
 20
77.4524
 30
0.0
 10
81.8261
 20
77.9346
 30
0.0
 10
81.8261
 20
77.9346
 30
0.0
 10
81.8261
 20
77.9346
 30
0.0
 10
81.8261
 20
77.9346
 30
0.0
 10
80.6209
 20
76.6088
 30
0.0
 10
79.717
 20
74.9214
 30
0.0
 10
79.717
 20
74.9214
 30
0.0
 10
78.813
 20
73.2343
 30
0.0
 10
83.5134
 20
68.6544
 30
0.0
 10
86.8277
 20
68.7147
 30
0.0
 10
86.8277
 20
68.7147
 30
0.0
 10
90.1422
 20
68.775
 30
0.0
 10
90.0818
 20
76.0666
 30
0.0
 10
90.0818
 20
76.0666
 30
0.0
 10
90.0818
 20
76.0666
 30
0.0
 10
90.0818
 20
76.0666
 30
0.0
 10
92.2513
 20
74.9214
 30
0.0
 10
92.2513
 20
74.9214
 30
0.0
 10
92.2513
 20
74.9214
 30
0.0
 10
92.2513
 20
74.9214
 30
0.0
 10
91.5884
 20
78.055
 30
0.0
 10
92.6732
 20
77.573
 30
0.0
 10
92.6732
 20
77.573
 30
0.0
 10
93.6373
 20
77.1444
 30
0.0
 10
95.8791
 20
72.4696
 30
0.0
 10
99.419
 20
74.3217
 30
0.0
 10
99.419
 20
74.3217
 30
0.0
 10
99.419
 20
74.3217
 30
0.0
 10
99.419
 20
-2.3138
 30
0.0
 10
99.419
 20
-2.3138
 30
0.0
 10
99.419
 20
-2.3138
 30
0.0
 10
99.011
 20
-2.1278
 30
0.0
 10
98.6364
 20
-1.9547
 30
0.0
 10
98.3437
 20
-1.721
 30
0.0
 10
98.3437
 20
-1.721
 30
0.0
 10
92.4395
 20
-0.5946
 30
0.0
 10
87.2928
 20
1.8194
 30
0.0
 10
81.4576
 20
-5.8284
 30
0.0
 10
81.4576
 20
-5.8284
 30
0.0
 10
88.0465
 20
9.2616
 30
0.0
 10
91.0552
 20
17.2678
 30
0.0
 10
88.2121
 20
25.4348
 30
0.0
 10
88.2121
 20
25.4348
 30
0.0
 10
88.2121
 20
25.4348
 30
0.0
 10
82.966
 20
4.8133
 30
0.0
 10
82.966
 20
4.8133
 30
0.0
 10
82.966
 20
4.8133
 30
0.0
 10
80.7163
 20
-1.0443
 30
0.0
 10
77.0896
 20
-6.9827
 30
0.0
 10
73.9449
 20
-11.7135
 30
0.0
 10
73.9449
 20
-11.7135
 30
0.0
 10
76.8064
 20
0.9803
 30
0.0
 10
76.6386
 20
13.835
 30
0.0
 10
77.9853
 20
26.609
 30
0.0
 10
77.9853
 20
26.609
 30
0.0
 10
81.5347
 20
33.601
 30
0.0
 10
85.6275
 20
43.9682
 30
0.0
 10
90.9158
 20
46.6283
 30
0.0
 10
90.9158
 20
46.6283
 30
0.0
 10
91.3341
 20
45.6953
 30
0.0
 10
91.97
 20
44.6984
 30
0.0
 10
93.3122
 20
44.2109
 30
0.0
 10
93.3122
 20
44.2109
 30
0.0
 10
93.6974
 20
45.6034
 30
0.0
 10
93.105
 20
46.9957
 30
0.0
 10
93.0018
 20
48.3878
 30
0.0
 10
93.0018
 20
48.3878
 30
0.0
 10
95.8358
 20
48.6411
 30
0.0
 10
96.1248
 20
51.2814
 30
0.0
 10
96.0503
 20
54.2628
 30
0.0
 10
96.0503
 20
54.2628
 30
0.0
 10
96.0503
 20
54.2628
 30
0.0
 10
98.1535
 20
57.5703
 30
0.0
 10
98.1535
 20
57.5703
 30
0.0
 10
98.1535
 20
57.5703
 30
0.0
 10
96.0797
 20
57.5499
 30
0.0
 10
92.702
 20
57.4654
 30
0.0
 10
90.9
 20
56.298
 30
0.0
 10
90.9
 20
56.298
 30
0.0
 10
89.4424
 20
53.8463
 30
0.0
 10
89.5514
 20
51.597
 30
0.0
 10
89.4488
 20
49.321
 30
0.0
 10
89.4488
 20
49.321
 30
0.0
 10
85.3678
 20
42.7399
 30
0.0
 10
80.1458
 20
37.7512
 30
0.0
 10
76.9344
 20
29.7046
 30
0.0
 10
76.9344
 20
29.7046
 30
0.0
 10
76.3771
 20
35.1972
 30
0.0
 10
75.0594
 20
42.2827
 30
0.0
 10
72.9809
 20
46.6283
 30
0.0
 10
72.9809
 20
46.6283
 30
0.0
 10
73.4055
 20
51.408
 30
0.0
 10
75.4603
 20
53.8945
 30
0.0
 10
76.7
 20
57.5271
 30
0.0
 10
76.7
 20
57.5271
 30
0.0
 10
72.0964
 20
57.3801
 30
0.0
 10
72.3284
 20
54.8766
 30
0.0
 10
70.8217
 20
53.073
 30
0.0
 10
70.8217
 20
53.073
 30
0.0
 10
70.8217
 20
53.073
 30
0.0
 10
68.1564
 20
59.5211
 30
0.0
 10
68.1564
 20
59.5211
 30
0.0
 10
68.1564
 20
59.5211
 30
0.0
 10
69.8965
 20
60.432
 30
0.0
 10
70.9846
 20
61.8521
 30
0.0
 10
71.2579
 20
64.3559
 30
0.0
 10
71.2579
 20
64.3559
 30
0.0
 10
70.6941
 20
68.4947
 30
0.0
 10
68.5008
 20
66.7732
 30
0.0
 10
67.1227
 20
67.9821
 30
0.0
 10
67.1227
 20
67.9821
 30
0.0
 10
69.2712
 20
70.5331
 30
0.0
 10
68.1052
 20
74.9317
 30
0.0
 10
67.2112
 20
75.6356
 30
0.0
 10
67.2112
 20
75.6356
 30
0.0
 10
64.3223
 20
76.9046
 30
0.0
 10
62.3572
 20
75.4338
 30
0.0
 10
60.2292
 20
73.1355
 30
0.0
 10
60.2292
 20
73.1355
 30
0.0
 10
57.9566
 20
73.1781
 30
0.0
 10
55.4126
 20
72.5843
 30
0.0
 10
53.6833
 20
71.6082
 30
0.0
 10
53.6833
 20
71.6082
 30
0.0
 10
49.621
 20
67.7209
 30
0.0
 10
46.1021
 20
63.7062
 30
0.0
 10
44.1045
 20
59.373
 30
0.0
 10
44.1045
 20
59.373
 30
0.0
 10
44.1045
 20
59.373
 30
0.0
 10
48.6571
 20
59.69
 30
0.0
 10
48.6571
 20
59.69
 30
0.0
 10
48.6571
 20
59.69
 30
0.0
 10
48.6571
 20
59.69
 30
0.0
 10
57.98
 20
58.9066
 30
0.0
 10
57.98
 20
58.9066
 30
0.0
 10
57.98
 20
58.9066
 30
0.0
 10
59.2076
 20
58.0372
 30
0.0
 10
60.0551
 20
56.8494
 30
0.0
 10
61.6634
 20
56.298
 30
0.0
 10
61.6634
 20
56.298
 30
0.0
 10
63.3194
 20
56.135
 30
0.0
 10
64.9758
 20
56.5456
 30
0.0
 10
66.6323
 20
57.3379
 30
0.0
 10
66.6323
 20
57.3379
 30
0.0
 10
66.6323
 20
57.3379
 30
0.0
 10
70.9131
 20
44.6137
 30
0.0
 10
70.9131
 20
44.6137
 30
0.0
 10
70.9131
 20
44.6137
 30
0.0
 10
73.4942
 20
33.3436
 30
0.0
 10
76.3847
 20
20.0834
 30
0.0
 10
74.0146
 20
7.5467
 30
0.0
 10
74.0146
 20
7.5467
 30
0.0
 10
73.2363
 20
-1.9888
 30
0.0
 10
71.6846
 20
-11.524
 30
0.0
 10
68.4308
 20
-21.0596
 30
0.0
 10
68.4308
 20
-21.0596
 30
0.0
 10
64.9097
 20
-9.389
 30
0.0
 10
61.3886
 20
2.2816
 30
0.0
 10
57.8677
 20
13.9519
 30
0.0
 10
57.8677
 20
13.9519
 30
0.0
 10
56.8766
 20
17.237
 30
0.0
 10
51.1025
 20
24.1974
 30
0.0
 10
46.7912
 20
27.6918
 30
0.0
 10
46.7912
 20
27.6918
 30
0.0
 10
46.7912
 20
27.6918
 30
0.0
 10
57.5403
 20
4.6308
 30
0.0
 10
57.5403
 20
4.6308
 30
0.0
 10
57.5403
 20
4.6308
 30
0.0
 10
60.8451
 20
-4.6001
 30
0.0
 10
64.4596
 20
-13.4692
 30
0.0
 10
65.5987
 20
-27.404
 30
0.0
 10
65.5987
 20
-27.404
 30
0.0
 10
65.5987
 20
-27.404
 30
0.0
 10
62.7643
 20
-33.2205
 30
0.0
 10
62.7643
 20
-33.2205
 30
0.0
 10
62.7643
 20
-33.2205
 30
0.0
 10
62.7643
 20
-33.2205
 30
0.0
 10
59.0513
 20
-30.2469
 30
0.0
 10
59.0513
 20
-30.2469
 30
0.0
 10
59.0513
 20
-30.2469
 30
0.0
 10
59.0513
 20
-30.2469
 30
0.0
 10
58.163
 20
-19.4479
 30
0.0
 10
58.163
 20
-19.4479
 30
0.0
 10
58.163
 20
-19.4479
 30
0.0
 10
57.9188
 20
-16.4802
 30
0.0
 10
53.0767
 20
-16.2738
 30
0.0
 10
51.9603
 20
-14.2102
 30
0.0
 10
51.9603
 20
-14.2102
 30
0.0
 10
52.0751
 20
-12.7347
 30
0.0
 10
53.4132
 20
-11.577
 30
0.0
 10
54.1396
 20
-10.2606
 30
0.0
 10
54.1396
 20
-10.2606
 30
0.0
 10
50.959
 20
-7.4589
 30
0.0
 10
47.5064
 20
-10.2186
 30
0.0
 10
45.9564
 20
-17.0305
 30
0.0
 10
45.9564
 20
-17.0305
 30
0.0
 10
45.2164
 20
-26.9245
 30
0.0
 10
49.6037
 20
-29.1519
 30
0.0
 10
54.717
 20
-31.1322
 30
0.0
 10
54.717
 20
-31.1322
 30
0.0
 10
56.8527
 20
-31.7411
 30
0.0
 10
59.1918
 20
-33.9391
 30
0.0
 10
61.2595
 20
-35.8195
 30
0.0
 10
61.2595
 20
-35.8195
 30
0.0
 10
61.2595
 20
-35.8195
 30
0.0
 10
58.1524
 20
-53.3343
 30
0.0
 10
58.1524
 20
-53.3343
 30
0.0
 10
58.1524
 20
-53.3343
 30
0.0
 10
58.1524
 20
-53.3343
 30
0.0
 10
45.6707
 20
-33.9768
 30
0.0
 10
45.6707
 20
-33.9768
 30
0.0
 10
45.6707
 20
-33.9768
 30
0.0
 10
40.303
 20
-26.9234
 30
0.0
 10
31.9454
 20
-23.4451
 30
0.0
 10
29.5672
 20
-24.0191
 30
0.0
 10
29.5672
 20
-24.0191
 30
0.0
 10
36.4896
 20
-28.0981
 30
0.0
 10
41.1065
 20
-34.4228
 30
0.0
 10
45.8162
 20
-40.6576
 30
0.0
 10
45.8162
 20
-40.6576
 30
0.0
 10
50.1852
 20
-46.4957
 30
0.0
 10
53.5352
 20
-53.8436
 30
0.0
 10
57.0887
 20
-60.7943
 30
0.0
 10
57.0887
 20
-60.7943
 30
0.0
 10
57.0887
 20
-60.7943
 30
0.0
 10
56.6167
 20
-71.7884
 30
0.0
 10
56.6167
 20
-71.7884
 30
0.0
 10
56.6167
 20
-71.7884
 30
0.0
 10
56.6167
 20
-71.7884
 30
0.0
 10
45.494
 20
-61.6419
 30
0.0
 10
45.494
 20
-61.6419
 30
0.0
 10
45.494
 20
-61.6419
 30
0.0
 10
45.137
 20
-58.3181
 30
0.0
 10
45.1709
 20
-51.7345
 30
0.0
 10
44.4224
 20
-51.671
 30
0.0
 10
44.4224
 20
-51.671
 30
0.0
 10
42.3807
 20
-53.1929
 30
0.0
 10
42.7718
 20
-55.4789
 30
0.0
 10
42.4241
 20
-57.7649
 30
0.0
 10
42.4241
 20
-57.7649
 30
0.0
 10
42.0333
 20
-59.6777
 30
0.0
 10
42.1637
 20
-61.183
 30
0.0
 10
44.3792
 20
-63.5036
 30
0.0
 10
44.3792
 20
-63.5036
 30
0.0
 10
40.9197
 20
-63.4482
 30
0.0
 10
37.0688
 20
-63.1378
 30
0.0
 10
36.2159
 20
-57.6834
 30
0.0
 10
36.2159
 20
-57.6834
 30
0.0
 10
35.9507
 20
-54.8764
 30
0.0
 10
36.8147
 20
-51.2546
 30
0.0
 10
35.4195
 20
-49.2628
 30
0.0
 10
35.4195
 20
-49.2628
 30
0.0
 10
33.1907
 20
-46.1334
 30
0.0
 10
30.2348
 20
-45.2664
 30
0.0
 10
27.9952
 20
-45.2362
 30
0.0
 10
27.9952
 20
-45.2362
 30
0.0
 10
27.9952
 20
-45.2362
 30
0.0
 10
27.9952
 20
5.7098
 30
0.0
 10
27.9952
 20
5.7098
 30
0.0
 10
27.9952
 20
5.7098
 30
0.0
 10
29.7532
 20
3.4954
 30
0.0
 10
32.4681
 20
2.0743
 30
0.0
 10
35.5145
 20
2.0743
 30
0.0
 10
35.5145
 20
2.0743
 30
0.0
 10
40.8132
 20
2.0743
 30
0.0
 10
45.1102
 20
6.3715
 30
0.0
 10
45.1102
 20
11.6701
 30
0.0
 10
45.1102
 20
11.6701
 30
0.0
 10
45.1102
 20
16.9687
 30
0.0
 10
40.8132
 20
21.2658
 30
0.0
 10
35.5145
 20
21.2658
 30
0.0
 10
35.5145
 20
21.2658
 30
0.0
 10
32.4681
 20
21.2658
 30
0.0
 10
29.7532
 20
19.8455
 30
0.0
 10
27.9952
 20
17.631
 30
0.0
 10
27.9952
 20
17.631
 30
0.0
 10
27.9952
 20
17.631
 30
0.0
 10
27.9952
 20
43.8438
 30
0.0
 10
27.9952
 20
43.8438
 30
0.0
 10
27.9952
 20
43.8438
 30
0.0
 10
29.7532
 20
41.6294
 30
0.0
 10
32.4681
 20
40.2083
 30
0.0
 10
35.5145
 20
40.2083
 30
0.0
 10
35.5145
 20
40.2083
 30
0.0
 10
40.8132
 20
40.2083
 30
0.0
 10
45.1102
 20
44.5055
 30
0.0
 10
45.1102
 20
49.8041
 30
0.0
 10
45.1102
 20
49.8041
 30
0.0
 10
45.1102
 20
55.1027
 30
0.0
 10
40.8132
 20
59.3998
 30
0.0
 10
35.5145
 20
59.3998
 30
0.0
 10
35.5145
 20
59.3998
 30
0.0
 10
32.4681
 20
59.3998
 30
0.0
 10
29.7532
 20
57.9795
 30
0.0
 10
27.9952
 20
55.765
 30
0.0
 10
27.9952
 20
55.765
 30
0.0
 10
27.9952
 20
55.765
 30
0.0
 10
27.9952
 20
114.1348
 30
0.0
 10
27.9952
 20
114.1348
 30
0.0
 10
27.9952
 20
114.1348
 30
0.0
 10
28.8308
 20
113.7695
 30
0.0
 10
31.3303
 20
109.4997
 30
0.0
 10
31.3303
 20
109.4997
 30
0.0
 10
31.3303
 20
109.4997
 30
0.0
 10
31.3303
 20
109.4997
 30
0.0
 10
35.329
 20
109.9379
 30
0.0
 10
35.329
 20
109.9379
 30
0.0
 10
35.329
 20
109.9379
 30
0.0
 10
35.329
 20
109.9379
 30
0.0
 10
34.2336
 20
108.7328
 30
0.0
 10
33.4119
 20
107.199
 30
0.0
 10
33.4119
 20
107.199
 30
0.0
 10
32.5902
 20
105.6653
 30
0.0
 10
36.8629
 20
101.5023
 30
0.0
 10
39.8755
 20
101.5571
 30
0.0
 10
39.8755
 20
101.5571
 30
0.0
 10
42.8882
 20
101.6119
 30
0.0
 10
42.8335
 20
108.2398
 30
0.0
 10
42.8335
 20
108.2398
 30
0.0
 10
42.8335
 20
108.2398
 30
0.0
 10
42.8335
 20
108.2398
 30
0.0
 10
44.8054
 20
107.199
 30
0.0
 10
44.8054
 20
107.199
 30
0.0
 10
44.8054
 20
107.199
 30
0.0
 10
44.8054
 20
107.199
 30
0.0
 10
44.2028
 20
110.0474
 30
0.0
 10
45.1889
 20
109.6091
 30
0.0
 10
45.1889
 20
109.6091
 30
0.0
 10
46.1749
 20
109.1709
 30
0.0
 10
48.6313
 20
103.8458
 30
0.0
 10
52.5836
 20
107.5825
 30
0.0
 10
52.5836
 20
107.5825
 30
0.0
 10
55.5962
 20
110.4308
 30
0.0
 10
52.3098
 20
115.9086
 30
0.0
 10
52.3098
 20
115.9086
 30
0.0
 10
52.3098
 20
115.9086
 30
0.0
 10
52.3098
 20
115.9086
 30
0.0
 10
49.1328
 20
116.018
 30
0.0
 10
49.1328
 20
116.018
 30
0.0
 10
49.1328
 20
116.018
 30
0.0
 10
49.1328
 20
116.018
 30
0.0
 10
50.3378
 20
116.1823
 30
0.0
 10
50.8856
 20
117.8256
 30
0.0
 10
50.8856
 20
117.8256
 30
0.0
 10
51.4333
 20
119.469
 30
0.0
 10
50.3378
 20
121.6053
 30
0.0
 10
49.9544
 20
122.0434
 30
0.0
 10
49.9544
 20
122.0434
 30
0.0
 10
49.6771
 20
122.3602
 30
0.0
 10
50.2478
 20
123.7735
 30
0.0
 10
50.5064
 20
125.0187
 30
0.0
  0
SPLINE
  5
70
330
1F
100
AcDbEntity
  8
layer 1
 62
     7
370
     9
100
AcDbSpline
210
0.0
220
0.0
230
1.0
 70
    11
 71
     3
 72
    28
 73
    24
 74
     0
 42
0.0000000001
 43
0.0000000001
 12
1.0
 22
0.0
 32
0.0
 13
1.0
 23
0.0
 33
0.0
 40
0.0
 40
0.0
 40
0.0
 40
0.0
 40
0.1428571428571428
 40
0.1428571428571428
 40
0.1428571428571428
 40
0.1428571428571428
 40
0.2857142857142857
 40
0.2857142857142857
 40
0.2857142857142857
 40
0.2857142857142857
 40
0.4285714285714285
 40
0.4285714285714285
 40
0.4285714285714285
 40
0.4285714285714285
 40
0.5714285714285714
 40
0.5714285714285714
 40
0.5714285714285714
 40
0.5714285714285714
 40
0.7142857142857143
 40
0.7142857142857143
 40
0.7142857142857143
 40
0.7142857142857143
 40
1.0
 40
1.0
 40
1.0
 40
1.0
 10
98.1716
 20
125.0187
 30
0.0
 10
98.1716
 20
125.0187
 30
0.0
 10
99.419
 20
125.0187
 30
0.0
 10
99.419
 20
125.0187
 30
0.0
 10
99.419
 20
125.0187
 30
0.0
 10
99.419
 20
125.0187
 30
0.0
 10
99.419
 20
115.0608
 30
0.0
 10
99.419
 20
115.0608
 30
0.0
 10
99.419
 20
115.0608
 30
0.0
 10
99.419
 20
115.0608
 30
0.0
 10
96.6551
 20
115.156
 30
0.0
 10
96.6551
 20
115.156
 30
0.0
 10
96.6551
 20
115.156
 30
0.0
 10
96.6551
 20
115.156
 30
0.0
 10
97.9211
 20
115.3287
 30
0.0
 10
98.4965
 20
117.0551
 30
0.0
 10
98.4965
 20
117.0551
 30
0.0
 10
99.0721
 20
118.7817
 30
0.0
 10
97.9211
 20
121.0261
 30
0.0
 10
97.5184
 20
121.4864
 30
0.0
 10
97.5184
 20
121.4864
 30
0.0
 10
97.1963
 20
121.8544
 30
0.0
 10
97.9629
 20
123.6302
 30
0.0
 10
98.1716
 20
125.0187
 30
0.0
  0
SPLINE
  5
71
330
1F
100
AcDbEntity
  8
layer 1
 62
     7
370
     9
100
AcDbSpline
210
0.0
220
0.0
230
1.0
 70
    11
 71
     3
 72
    40
 73
    36
 74
     0
 42
0.0000000001
 43
0.0000000001
 12
1.0
 22
0.0
 32
0.0
 13
1.0
 23
0.0
 33
0.0
 40
0.0
 40
0.0
 40
0.0
 40
0.0
 40
0.1
 40
0.1
 40
0.1
 40
0.1
 40
0.2
 40
0.2
 40
0.2
 40
0.2
 40
0.3
 40
0.3
 40
0.3
 40
0.3
 40
0.4
 40
0.4
 40
0.4
 40
0.4
 40
0.5
 40
0.5
 40
0.5
 40
0.5
 40
0.6
 40
0.6
 40
0.6
 40
0.6
 40
0.7
 40
0.7
 40
0.7
 40
0.7
 40
0.8
 40
0.8
 40
0.8
 40
0.8
 40
1.0
 40
1.0
 40
1.0
 40
1.0
 10
99.419
 20
-5.6741
 30
0.0
 10
99.419
 20
-5.6741
 30
0.0
 10
99.419
 20
-107.0175
 30
0.0
 10
99.419
 20
-107.0175
 30
0.0
 10
99.419
 20
-107.0175
 30
0.0
 10
99.419
 20
-107.0175
 30
0.0
 10
68.5843
 20
-107.0175
 30
0.0
 10
68.5843
 20
-107.0175
 30
0.0
 10
68.5843
 20
-107.0175
 30
0.0
 10
68.3991
 20
-99.0155
 30
0.0
 10
68.0536
 20
-90.9135
 30
0.0
 10
70.6361
 20
-84.6424
 30
0.0
 10
70.6361
 20
-84.6424
 30
0.0
 10
75.4358
 20
-74.8678
 30
0.0
 10
80.2357
 20
-65.093
 30
0.0
 10
85.0356
 20
-55.3185
 30
0.0
 10
85.0356
 20
-55.3185
 30
0.0
 10
87.9084
 20
-47.9012
 30
0.0
 10
90.4369
 20
-41.4498
 30
0.0
 10
92.0018
 20
-33.0666
 30
0.0
 10
92.0018
 20
-33.0666
 30
0.0
 10
92.0018
 20
-33.0666
 30
0.0
 10
72.2916
 20
-70.2137
 30
0.0
 10
72.2916
 20
-70.2137
 30
0.0
 10
72.2916
 20
-70.2137
 30
0.0
 10
72.9553
 20
-54.7435
 30
0.0
 10
71.485
 20
-41.7689
 30
0.0
 10
68.7064
 20
-28.1504
 30
0.0
 10
68.7064
 20
-28.1504
 30
0.0
 10
73.1876
 20
-17.0609
 30
0.0
 10
79.4588
 20
-10.8014
 30
0.0
 10
85.6614
 20
-5.2667
 30
0.0
 10
85.6614
 20
-5.2667
 30
0.0
 10
87.306
 20
-3.8294
 30
0.0
 10
94.3992
 20
-0.056
 30
0.0
 10
99.419
 20
-5.6741
 30
0.0
  0
SPLINE
  5
72
330
1F
100
AcDbEntity
  8
layer 1
 62
     7
370
     9
100
AcDbSpline
210
0.0
220
0.0
230
1.0
 70
    11
 71
     3
 72
    52
 73
    48
 74
     0
 42
0.0000000001
 43
0.0000000001
 12
1.0
 22
0.0
 32
0.0
 13
1.0
 23
0.0
 33
0.0
 40
0.0
 40
0.0
 40
0.0
 40
0.0
 40
0.0769230769230769
 40
0.0769230769230769
 40
0.0769230769230769
 40
0.0769230769230769
 40
0.1538461538461539
 40
0.1538461538461539
 40
0.1538461538461539
 40
0.1538461538461539
 40
0.2307692307692308
 40
0.2307692307692308
 40
0.2307692307692308
 40
0.2307692307692308
 40
0.3076923076923077
 40
0.3076923076923077
 40
0.3076923076923077
 40
0.3076923076923077
 40
0.3846153846153846
 40
0.3846153846153846
 40
0.3846153846153846
 40
0.3846153846153846
 40
0.4615384615384616
 40
0.4615384615384616
 40
0.4615384615384616
 40
0.4615384615384616
 40
0.5384615384615384
 40
0.5384615384615384
 40
0.5384615384615384
 40
0.5384615384615384
 40
0.6153846153846154
 40
0.6153846153846154
 40
0.6153846153846154
 40
0.6153846153846154
 40
0.6923076923076923
 40
0.6923076923076923
 40
0.6923076923076923
 40
0.6923076923076923
 40
0.7692307692307693
 40
0.7692307692307693
 40
0.7692307692307693
 40
0.7692307692307693
 40
0.8461538461538461
 40
0.8461538461538461
 40
0.8461538461538461
 40
0.8461538461538461
 40
1.0
 40
1.0
 40
1.0
 40
1.0
 10
65.7158
 20
-107.0175
 30
0.0
 10
65.7158
 20
-107.0175
 30
0.0
 10
27.9952
 20
-107.0175
 30
0.0
 10
27.9952
 20
-107.0175
 30
0.0
 10
27.9952
 20
-107.0175
 30
0.0
 10
27.9952
 20
-107.0175
 30
0.0
 10
27.9952
 20
-96.511
 30
0.0
 10
27.9952
 20
-96.511
 30
0.0
 10
27.9952
 20
-96.511
 30
0.0
 10
29.6696
 20
-97.9356
 30
0.0
 10
31.8388
 20
-98.796
 30
0.0
 10
34.209
 20
-98.796
 30
0.0
 10
34.209
 20
-98.796
 30
0.0
 10
39.5077
 20
-98.796
 30
0.0
 10
43.8048
 20
-94.4991
 30
0.0
 10
43.8048
 20
-89.2004
 30
0.0
 10
43.8048
 20
-89.2004
 30
0.0
 10
43.8048
 20
-83.9018
 30
0.0
 10
39.5077
 20
-79.6047
 30
0.0
 10
34.209
 20
-79.6047
 30
0.0
 10
34.209
 20
-79.6047
 30
0.0
 10
31.8388
 20
-79.6047
 30
0.0
 10
29.6696
 20
-80.4645
 30
0.0
 10
27.9952
 20
-81.8893
 30
0.0
 10
27.9952
 20
-81.8893
 30
0.0
 10
27.9952
 20
-81.8893
 30
0.0
 10
27.9952
 20
-56.8039
 30
0.0
 10
27.9952
 20
-56.8039
 30
0.0
 10
27.9952
 20
-56.8039
 30
0.0
 10
29.1055
 20
-57.7617
 30
0.0
 10
31.171
 20
-58.1515
 30
0.0
 10
33.3519
 20
-59.3355
 30
0.0
 10
33.3519
 20
-59.3355
 30
0.0
 10
36.2235
 20
-62.0521
 30
0.0
 10
35.4456
 20
-65.7879
 30
0.0
 10
49.0041
 20
-68.0975
 30
0.0
 10
49.0041
 20
-68.0975
 30
0.0
 10
52.0402
 20
-70.1843
 30
0.0
 10
54.9919
 20
-72.314
 30
0.0
 10
55.3368
 20
-75.7731
 30
0.0
 10
55.3368
 20
-75.7731
 30
0.0
 10
56.8075
 20
-83.6433
 30
0.0
 10
58.8292
 20
-91.3527
 30
0.0
 10
61.6084
 20
-99.1429
 30
0.0
 10
61.6084
 20
-99.1429
 30
0.0
 10
63.033
 20
-101.4828
 30
0.0
 10
64.4487
 20
-103.8671
 30
0.0
 10
65.7158
 20
-107.0175
 30
0.0
  0
SPLINE
  5
73
330
1F
100
AcDbEntity
  8
layer 1
 62
     7
370
     9
100
AcDbSpline
210
0.0
220
0.0
230
1.0
 70
    11
 71
     3
 72
    28
 73
    24
 74
     0
 42
0.0000000001
 43
0.0000000001
 12
1.0
 22
0.0
 32
0.0
 13
1.0
 23
0.0
 33
0.0
 40
0.0
 40
0.0
 40
0.0
 40
0.0
 40
0.1428571428571428
 40
0.1428571428571428
 40
0.1428571428571428
 40
0.1428571428571428
 40
0.2857142857142857
 40
0.2857142857142857
 40
0.2857142857142857
 40
0.2857142857142857
 40
0.4285714285714285
 40
0.4285714285714285
 40
0.4285714285714285
 40
0.4285714285714285
 40
0.5714285714285714
 40
0.5714285714285714
 40
0.5714285714285714
 40
0.5714285714285714
 40
0.7142857142857143
 40
0.7142857142857143
 40
0.7142857142857143
 40
0.7142857142857143
 40
1.0
 40
1.0
 40
1.0
 40
1.0
 10
60.754
 20
-63.1247
 30
0.0
 10
60.3745
 20
-62.6809
 30
0.0
 10
59.9951
 20
-62.6809
 30
0.0
 10
59.6155
 20
-63.1247
 30
0.0
 10
59.6155
 20
-63.1247
 30
0.0
 10
59.6155
 20
-63.1247
 30
0.0
 10
59.9951
 20
-75.5482
 30
0.0
 10
59.9951
 20
-75.5482
 30
0.0
 10
59.9951
 20
-75.5482
 30
0.0
 10
59.9951
 20
-76.4357
 30
0.0
 10
60.754
 20
-77.7668
 30
0.0
 10
60.754
 20
-78.6541
 30
0.0
 10
60.754
 20
-78.6541
 30
0.0
 10
61.513
 20
-76.8793
 30
0.0
 10
61.8925
 20
-76.8793
 30
0.0
 10
62.6515
 20
-75.5482
 30
0.0
 10
62.6515
 20
-75.5482
 30
0.0
 10
62.6515
 20
-73.3297
 30
0.0
 10
63.4104
 20
-71.5548
 30
0.0
 10
63.4104
 20
-69.3364
 30
0.0
 10
63.4104
 20
-69.3364
 30
0.0
 10
63.4104
 20
-69.3364
 30
0.0
 10
60.754
 20
-63.1247
 30
0.0
 10
60.754
 20
-63.1247
 30
0.0
  0
SPLINE
  5
74
330
1F
100
AcDbEntity
  8
layer 1
 62
     7
370
     9
100
AcDbSpline
210
0.0
220
0.0
230
1.0
 70
    11
 71
     3
 72
    24
 73
    20
 74
     0
 42
0.0000000001
 43
0.0000000001
 12
1.0
 22
0.0
 32
0.0
 13
1.0
 23
0.0
 33
0.0
 40
0.0
 40
0.0
 40
0.0
 40
0.0
 40
0.1666666666666667
 40
0.1666666666666667
 40
0.1666666666666667
 40
0.1666666666666667
 40
0.3333333333333333
 40
0.3333333333333333
 40
0.3333333333333333
 40
0.3333333333333333
 40
0.5
 40
0.5
 40
0.5
 40
0.5
 40
0.6666666666666666
 40
0.6666666666666666
 40
0.6666666666666666
 40
0.6666666666666666
 40
1.0
 40
1.0
 40
1.0
 40
1.0
 10
63.9216
 20
-36.9451
 30
0.0
 10
63.9216
 20
-36.9451
 30
0.0
 10
68.9857
 20
-42.5115
 30
0.0
 10
68.9857
 20
-42.5115
 30
0.0
 10
68.9857
 20
-42.5115
 30
0.0
 10
68.9857
 20
-42.5115
 30
0.0
 10
69.7093
 20
-57.9012
 30
0.0
 10
69.7093
 20
-57.9012
 30
0.0
 10
69.7093
 20
-57.9012
 30
0.0
 10
69.7093
 20
-57.9012
 30
0.0
 10
64.8861
 20
-67.0695
 30
0.0
 10
64.8861
 20
-67.0695
 30
0.0
 10
64.8861
 20
-67.0695
 30
0.0
 10
64.8861
 20
-67.0695
 30
0.0
 10
61.0275
 20
-54.9541
 30
0.0
 10
61.0275
 20
-54.9541
 30
0.0
 10
61.0275
 20
-54.9541
 30
0.0
 10
61.0275
 20
-54.9541
 30
0.0
 10
63.9216
 20
-36.9451
 30
0.0
 10
63.9216
 20
-36.9451
 30
0.0
  0
SPLINE
  5
75
330
1F
100
AcDbEntity
  8
layer 1
 62
     7
370
     9
100
AcDbSpline
210
0.0
220
0.0
230
1.0
 70
    11
 71
     3
 72
    20
 73
    16
 74
     0
 42
0.0000000001
 43
0.0000000001
 12
1.0
 22
0.0
 32
0.0
 13
1.0
 23
0.0
 33
0.0
 40
0.0
 40
0.0
 40
0.0
 40
0.0
 40
0.2
 40
0.2
 40
0.2
 40
0.2
 40
0.4
 40
0.4
 40
0.4
 40
0.4
 40
0.6
 40
0.6
 40
0.6
 40
0.6
 40
1.0
 40
1.0
 40
1.0
 40
1.0
 10
70.5494
 20
-61.5029
 30
0.0
 10
70.5494
 20
-61.5029
 30
0.0
 10
66.9087
 20
-70.3438
 30
0.0
 10
66.9087
 20
-70.3438
 30
0.0
 10
66.9087
 20
-70.3438
 30
0.0
 10
66.9087
 20
-70.3438
 30
0.0
 10
68.5891
 20
-77.2201
 30
0.0
 10
68.5891
 20
-77.2201
 30
0.0
 10
68.5891
 20
-77.2201
 30
0.0
 10
68.5891
 20
-77.2201
 30
0.0
 10
70.5494
 20
-71.981
 30
0.0
 10
70.5494
 20
-71.981
 30
0.0
 10
70.5494
 20
-71.981
 30
0.0
 10
70.5494
 20
-71.981
 30
0.0
 10
70.5494
 20
-61.5029
 30
0.0
 10
70.5494
 20
-61.5029
 30
0.0
  0
SPLINE
  5
76
330
1F
100
AcDbEntity
  8
layer 1
 62
     7
370
     9
100
AcDbSpline
210
0.0
220
0.0
230
1.0
 70
    11
 71
     3
 72
    20
 73
    16
 74
     0
 42
0.0000000001
 43
0.0000000001
 12
1.0
 22
0.0
 32
0.0
 13
1.0
 23
0.0
 33
0.0
 40
0.0
 40
0.0
 40
0.0
 40
0.0
 40
0.2
 40
0.2
 40
0.2
 40
0.2
 40
0.4
 40
0.4
 40
0.4
 40
0.4
 40
0.6
 40
0.6
 40
0.6
 40
0.6
 40
1.0
 40
1.0
 40
1.0
 40
1.0
 10
65.2284
 20
-77.8748
 30
0.0
 10
65.2284
 20
-77.8748
 30
0.0
 10
63.8282
 20
-93.5918
 30
0.0
 10
63.8282
 20
-93.5918
 30
0.0
 10
63.8282
 20
-93.5918
 30
0.0
 10
63.8282
 20
-93.5918
 30
0.0
 10
65.7885
 20
-97.8486
 30
0.0
 10
65.7885
 20
-97.8486
 30
0.0
 10
65.7885
 20
-97.8486
 30
0.0
 10
65.7885
 20
-97.8486
 30
0.0
 10
66.9087
 20
-82.4591
 30
0.0
 10
66.9087
 20
-82.4591
 30
0.0
 10
66.9087
 20
-82.4591
 30
0.0
 10
66.9087
 20
-82.4591
 30
0.0
 10
65.2284
 20
-77.8748
 30
0.0
 10
65.2284
 20
-77.8748
 30
0.0
  0
SPLINE
  5
77
330
1F
100
AcDbEntity
  8
layer 1
 62
     7
370
     9
100
AcDbSpline
210
0.0
220
0.0
230
1.0
 70
    11
 71
     3
 72
    20
 73
    16
 74
     0
 42
0.0000000001
 43
0.0000000001
 12
1.0
 22
0.0
 32
0.0
 13
1.0
 23
0.0
 33
0.0
 40
0.0
 40
0.0
 40
0.0
 40
0.0
 40
0.2
 40
0.2
 40
0.2
 40
0.2
 40
0.4
 40
0.4
 40
0.4
 40
0.4
 40
0.6
 40
0.6
 40
0.6
 40
0.6
 40
1.0
 40
1.0
 40
1.0
 40
1.0
 10
49.8255
 20
-19.9183
 30
0.0
 10
49.8255
 20
-19.9183
 30
0.0
 10
52.906
 20
-24.175
 30
0.0
 10
52.906
 20
-24.175
 30
0.0
 10
52.906
 20
-24.175
 30
0.0
 10
52.906
 20
-24.175
 30
0.0
 10
53.7463
 20
-26.7946
 30
0.0
 10
53.7463
 20
-26.7946
 30
0.0
 10
53.7463
 20
-26.7946
 30
0.0
 10
53.7463
 20
-26.7946
 30
0.0
 10
49.5454
 20
-22.8652
 30
0.0
 10
49.5454
 20
-22.8652
 30
0.0
 10
49.5454
 20
-22.8652
 30
0.0
 10
49.5454
 20
-22.8652
 30
0.0
 10
49.8255
 20
-19.9183
 30
0.0
 10
49.8255
 20
-19.9183
 30
0.0
  0
SPLINE
  5
78
330
1F
100
AcDbEntity
  8
layer 1
 62
     7
370
     9
100
AcDbSpline
210
0.0
220
0.0
230
1.0
 70
    11
 71
     3
 72
    16
 73
    12
 74
     0
 42
0.0000000001
 43
0.0000000001
 12
1.0
 22
0.0
 32
0.0
 13
1.0
 23
0.0
 33
0.0
 40
0.0
 40
0.0
 40
0.0
 40
0.0
 40
0.25
 40
0.25
 40
0.25
 40
0.25
 40
0.5
 40
0.5
 40
0.5
 40
0.5
 40
1.0
 40
1.0
 40
1.0
 40
1.0
 10
55.1465
 20
64.888
 30
0.0
 10
55.1465
 20
64.888
 30
0.0
 10
61.0275
 20
65.5429
 30
0.0
 10
61.0275
 20
65.5429
 30
0.0
 10
61.0275
 20
65.5429
 30
0.0
 10
61.0275
 20
65.5429
 30
0.0
 10
60.4676
 20
63.5782
 30
0.0
 10
60.4676
 20
63.5782
 30
0.0
 10
60.4676
 20
63.5782
 30
0.0
 10
60.4676
 20
63.5782
 30
0.0
 10
55.1465
 20
64.888
 30
0.0
 10
55.1465
 20
64.888
 30
0.0
  0
SPLINE
  5
79
330
1F
100
AcDbEntity
  8
layer 1
 62
     7
370
     9
100
AcDbSpline
210
0.0
220
0.0
230
1.0
 70
    11
 71
     3
 72
    16
 73
    12
 74
     0
 42
0.0000000001
 43
0.0000000001
 12
1.0
 22
0.0
 32
0.0
 13
1.0
 23
0.0
 33
0.0
 40
0.0
 40
0.0
 40
0.0
 40
0.0
 40
0.25
 40
0.25
 40
0.25
 40
0.25
 40
0.5
 40
0.5
 40
0.5
 40
0.5
 40
1.0
 40
1.0
 40
1.0
 40
1.0
 10
66.3485
 20
-37.9274
 30
0.0
 10
66.3485
 20
-37.9274
 30
0.0
 10
65.7885
 20
-30.7238
 30
0.0
 10
65.7885
 20
-30.7238
 30
0.0
 10
65.7885
 20
-30.7238
 30
0.0
 10
65.7885
 20
-30.7238
 30
0.0
 10
68.029
 20
-33.5071
 30
0.0
 10
68.029
 20
-33.5071
 30
0.0
 10
68.029
 20
-33.5071
 30
0.0
 10
68.029
 20
-33.5071
 30
0.0
 10
66.3485
 20
-37.9274
 30
0.0
 10
66.3485
 20
-37.9274
 30
0.0
  0
ENDSEC
  0
SECTION
  2
OBJECTS
  0
DICTIONARY
  5
C
330
0
100
AcDbDictionary
281
     1
  3
ACAD_GROUP
350
D
  3
ACAD_LAYOUT
350
1A
  3
ACAD_MATERIAL
350
3B
  3
ACAD_MLEADERSTYLE
350
9C
  3
ACAD_MLINESTYLE
350
17
  3
ACAD_PLOTSETTINGS
350
19
  3
ACAD_PLOTSTYLENAME
350
E
  3
ACAD_TABLESTYLE
350
9B
  3
ACAD_VISUALSTYLE
350
2A
  0
DICTIONARY
  5
D
102
{ACAD_REACTORS
330
C
102
}
330
C
100
AcDbDictionary
281
     1
  0
DICTIONARY
  5
1A
102
{ACAD_REACTORS
330
C
102
}
330
C
100
AcDbDictionary
281
     1
  3
Layout1
350
1E
  3
Layout2
350
26
  3
Model
350
22
  0
DICTIONARY
  5
3B
102
{ACAD_REACTORS
330
C
102
}
330
C
100
AcDbDictionary
281
     1
  3
ByBlock
350
3D
  3
ByLayer
350
3C
  3
Global
350
3E
  0
DICTIONARY
  5
9C
102
{ACAD_REACTORS
330
C
102
}
330
C
100
AcDbDictionary
281
     1
  0
DICTIONARY
  5
17
102
{ACAD_REACTORS
330
C
102
}
330
C
100
AcDbDictionary
281
     1
  3
Standard
350
18
  0
DICTIONARY
  5
19
102
{ACAD_REACTORS
330
C
102
}
330
C
100
AcDbDictionary
281
     1
  0
ACDBDICTIONARYWDFLT
  5
E
102
{ACAD_REACTORS
330
C
102
}
330
C
100
AcDbDictionary
281
     1
  3
Normal
350
F
100
AcDbDictionaryWithDefault
340
F
  0
DICTIONARY
  5
9B
102
{ACAD_REACTORS
330
C
102
}
330
C
100
AcDbDictionary
281
     1
  0
DICTIONARY
  5
2A
102
{ACAD_REACTORS
330
C
102
}
330
C
100
AcDbDictionary
281
     1
  3
2dWireframe
350
2F
  3
3D Hidden
350
31
  3
3dWireframe
350
30
  3
Basic
350
32
  3
Brighten
350
36
  3
ColorChange
350
3A
  3
Conceptual
350
34
  3
Dim
350
35
  3
Facepattern
350
39
  3
Flat
350
2B
  3
FlatWithEdges
350
2C
  3
Gouraud
350
2D
  3
GouraudWithEdges
350
2E
  3
Linepattern
350
38
  3
Realistic
350
33
  3
Thicken
350
37
  0
LAYOUT
  5
1E
102
{ACAD_REACTORS
330
1A
102
}
330
1A
100
AcDbPlotSettings
  1

  2
none_device
  4

  6

 40
0.0
 41
0.0
 42
0.0
 43
0.0
 44
0.0
 45
0.0
 46
0.0
 47
0.0
 48
0.0
 49
0.0
140
0.0
141
0.0
142
1.0
143
1.0
 70
   688
 72
     0
 73
     0
 74
     5
  7

 75
    16
 76
     0
 77
     2
 78
   300
147
1.0
148
0.0
149
0.0
100
AcDbLayout
  1
Layout1
 70
     1
 71
     1
 10
0.0
 20
0.0
 11
12.0
 21
9.0
 12
0.0
 22
0.0
 32
0.0
 14
1.000000000000000E+20
 24
1.000000000000000E+20
 34
1.000000000000000E+20
 15
-1.000000000000000E+20
 25
-1.000000000000000E+20
 35
-1.000000000000000E+20
146
0.0
 13
0.0
 23
0.0
 33
0.0
 16
1.0
 26
0.0
 36
0.0
 17
0.0
 27
1.0
 37
0.0
 76
     0
330
1B
  0
LAYOUT
  5
26
102
{ACAD_REACTORS
330
1A
102
}
330
1A
100
AcDbPlotSettings
  1

  2
none_device
  4

  6

 40
0.0
 41
0.0
 42
0.0
 43
0.0
 44
0.0
 45
0.0
 46
0.0
 47
0.0
 48
0.0
 49
0.0
140
0.0
141
0.0
142
1.0
143
1.0
 70
   688
 72
     0
 73
     0
 74
     5
  7

 75
    16
 76
     0
 77
     2
 78
   300
147
1.0
148
0.0
149
0.0
100
AcDbLayout
  1
Layout2
 70
     1
 71
     2
 10
0.0
 20
0.0
 11
0.0
 21
0.0
 12
0.0
 22
0.0
 32
0.0
 14
0.0
 24
0.0
 34
0.0
 15
0.0
 25
0.0
 35
0.0
146
0.0
 13
0.0
 23
0.0
 33
0.0
 16
1.0
 26
0.0
 36
0.0
 17
0.0
 27
1.0
 37
0.0
 76
     0
330
23
  0
LAYOUT
  5
22
102
{ACAD_REACTORS
330
1A
102
}
330
1A
100
AcDbPlotSettings
  1

  2
none_device
  4

  6

 40
0.0
 41
0.0
 42
0.0
 43
0.0
 44
0.0
 45
0.0
 46
0.0
 47
0.0
 48
0.0
 49
0.0
140
0.0
141
0.0
142
1.0
143
1.0
 70
  1712
 72
     0
 73
     0
 74
     0
  7

 75
     0
 76
     0
 77
     2
 78
   300
147
1.0
148
0.0
149
0.0
100
AcDbLayout
  1
Model
 70
     1
 71
     0
 10
0.0
 20
0.0
 11
12.0
 21
9.0
 12
0.0
 22
0.0
 32
0.0
 14
21.0214
 24
-114.8534
 34
0.0
 15
190.7833
 25
131.8235
 35
0.0
146
0.0
 13
0.0
 23
0.0
 33
0.0
 16
1.0
 26
0.0
 36
0.0
 17
0.0
 27
1.0
 37
0.0
 76
     0
330
1F
331
29
  0
MATERIAL
  5
3D
102
{ACAD_REACTORS
330
3B
102
}
330
3B
100
AcDbMaterial
  1
ByBlock
 72
     1
 94
      127
  0
MATERIAL
  5
3C
102
{ACAD_REACTORS
330
3B
102
}
330
3B
100
AcDbMaterial
  1
ByLayer
 72
     1
 94
      127
  0
MATERIAL
  5
3E
102
{ACAD_REACTORS
330
3B
102
}
330
3B
100
AcDbMaterial
  1
Global
 72
     1
 94
      127
  0
MLINESTYLE
  5
18
102
{ACAD_REACTORS
330
17
102
}
330
17
100
AcDbMlineStyle
  2
Standard
 70
     0
  3

 62
   256
 51
90.0
 52
90.0
 71
     2
 49
0.5
 62
   256
  6
BYLAYER
 49
-0.5
 62
   256
  6
BYLAYER
  0
ACDBPLACEHOLDER
  5
F
102
{ACAD_REACTORS
330
E
102
}
330
E
  0
VISUALSTYLE
  5
2F
102
{ACAD_REACTORS
330
2A
102
}
102
{ACAD_XDICTIONARY
360
83
102
}
330
2A
100
AcDbVisualStyle
  2
2dWireframe
 70
     4
 71
     0
 72
     2
 73
     0
 90
        0
 40
-0.6
 41
-30.0
 62
     5
 63
     7
421
 16777215
 74
     1
 91
        4
 64
     7
 65
   257
 75
     1
175
     1
 42
1.0
 92
        0
 66
   257
 43
1.0
 76
     1
 77
     6
 78
     2
 67
     7
 79
     5
170
     0
171
     0
290
     0
174
     0
 93
        1
 44
0.0
173
     0
291
     0
 45
0.0
  0
VISUALSTYLE
  5
31
102
{ACAD_REACTORS
330
2A
102
}
102
{ACAD_XDICTIONARY
360
87
102
}
330
2A
100
AcDbVisualStyle
  2
3D Hidden
 70
     6
 71
     1
 72
     2
 73
     2
 90
        0
 40
-0.6
 41
-30.0
 62
     5
 63
     7
421
 16777215
 74
     2
 91
        2
 64
     7
 65
   257
 75
     2
175
     1
 42
40.0
 92
        0
 66
   257
 43
1.0
 76
     1
 77
     6
 78
     2
 67
     7
 79
     3
170
     0
171
     0
290
     0
174
     0
 93
        1
 44
0.0
173
     0
291
     0
 45
0.0
  0
VISUALSTYLE
  5
30
102
{ACAD_REACTORS
330
2A
102
}
102
{ACAD_XDICTIONARY
360
85
102
}
330
2A
100
AcDbVisualStyle
  2
3dWireframe
 70
     5
 71
     0
 72
     2
 73
     0
 90
        0
 40
-0.6
 41
-30.0
 62
     5
 63
     7
421
 16777215
 74
     1
 91
        4
 64
     7
 65
   257
 75
     1
175
     1
 42
1.0
 92
        0
 66
   257
 43
1.0
 76
     1
 77
     6
 78
     2
 67
     7
 79
     5
170
     0
171
     0
290
     0
174
     0
 93
        1
 44
0.0
173
     0
291
     0
 45
0.0
  0
VISUALSTYLE
  5
32
102
{ACAD_REACTORS
330
2A
102
}
102
{ACAD_XDICTIONARY
360
89
102
}
330
2A
100
AcDbVisualStyle
  2
Basic
 70
     7
 71
     1
 72
     0
 73
     1
 90
        0
 40
-0.6
 41
-30.0
 62
     5
 63
     7
421
 16777215
 74
     0
 91
        4
 64
     7
 65
   257
 75
     1
175
     1
 42
1.0
 92
        8
 66
     7
 43
1.0
 76
     1
 77
     6
 78
     2
 67
     7
 79
     5
170
     0
171
     0
290
     0
174
     0
 93
        1
 44
0.0
173
     0
291
     1
 45
0.0
  0
VISUALSTYLE
  5
36
102
{ACAD_REACTORS
330
2A
102
}
102
{ACAD_XDICTIONARY
360
91
102
}
330
2A
100
AcDbVisualStyle
  2
Brighten
 70
    12
 71
     2
 72
     2
 73
     0
 90
        0
 40
-0.6
 41
-30.0
 62
     5
 63
     7
421
 16777215
 74
     1
 91
        4
 64
     7
 65
   257
 75
     1
175
     1
 42
1.0
 92
        8
 66
     7
 43
1.0
 76
     1
 77
     6
 78
     2
 67
     7
 79
     5
170
     0
171
     0
290
     0
174
     0
 93
        1
 44
50.0
173
     0
291
     1
 45
0.0
  0
VISUALSTYLE
  5
3A
102
{ACAD_REACTORS
330
2A
102
}
102
{ACAD_XDICTIONARY
360
99
102
}
330
2A
100
AcDbVisualStyle
  2
ColorChange
 70
    16
 71
     2
 72
     2
 73
     3
 90
        0
 40
-0.6
 41
-30.0
 62
     5
 63
     8
421
  8421504
 74
     1
 91
        4
 64
     7
 65
   257
 75
     1
175
     1
 42
1.0
 92
        8
 66
     8
424
  8421504
 43
1.0
 76
     1
 77
     6
 78
     2
 67
     7
 79
     5
170
     0
171
     0
290
     0
174
     0
 93
        1
 44
0.0
173
     0
291
     1
 45
0.0
  0
VISUALSTYLE
  5
34
102
{ACAD_REACTORS
330
2A
102
}
102
{ACAD_XDICTIONARY
360
8D
102
}
330
2A
100
AcDbVisualStyle
  2
Conceptual
 70
     9
 71
     3
 72
     2
 73
     0
 90
        0
 40
-0.6
 41
-30.0
 62
     5
 63
     7
421
 16777215
 74
     2
 91
        2
 64
     7
 65
   257
 75
     1
175
     1
 42
40.0
 92
        8
 66
     7
 43
1.0
 76
     1
 77
     6
 78
     2
 67
     7
 79
     3
170
     0
171
     0
290
     0
174
     0
 93
        1
 44
0.0
173
     0
291
     0
 45
0.0
  0
VISUALSTYLE
  5
35
102
{ACAD_REACTORS
330
2A
102
}
102
{ACAD_XDICTIONARY
360
8F
102
}
330
2A
100
AcDbVisualStyle
  2
Dim
 70
    11
 71
     2
 72
     2
 73
     0
 90
        0
 40
-0.6
 41
-30.0
 62
     5
 63
     7
421
 16777215
 74
     1
 91
        4
 64
     7
 65
   257
 75
     1
175
     1
 42
1.0
 92
        8
 66
     7
 43
1.0
 76
     1
 77
     6
 78
     2
 67
     7
 79
     5
170
     0
171
     0
290
     0
174
     0
 93
        1
 44
-50.0
173
     0
291
     1
 45
0.0
  0
VISUALSTYLE
  5
39
102
{ACAD_REACTORS
330
2A
102
}
102
{ACAD_XDICTIONARY
360
97
102
}
330
2A
100
AcDbVisualStyle
  2
Facepattern
 70
    15
 71
     2
 72
     2
 73
     0
 90
        0
 40
-0.6
 41
-30.0
 62
     5
 63
     7
421
 16777215
 74
     1
 91
        4
 64
     7
 65
   257
 75
     1
175
     1
 42
1.0
 92
        8
 66
     7
 43
1.0
 76
     1
 77
     6
 78
     2
 67
     7
 79
     5
170
     0
171
     0
290
     0
174
     0
 93
        1
 44
0.0
173
     0
291
     1
 45
0.0
  0
VISUALSTYLE
  5
2B
102
{ACAD_REACTORS
330
2A
102
}
102
{ACAD_XDICTIONARY
360
7B
102
}
330
2A
100
AcDbVisualStyle
  2
Flat
 70
     0
 71
     2
 72
     1
 73
     1
 90
        2
 40
-0.6
 41
30.0
 62
     5
 63
     7
421
 16777215
 74
     0
 91
        4
 64
     7
 65
   257
 75
     1
175
     1
 42
1.0
 92
        8
 66
     7
 43
1.0
 76
     1
 77
     6
 78
     2
 67
     7
 79
     5
170
     0
171
     0
290
     0
174
     0
 93
       13
 44
0.0
173
     0
291
     1
 45
0.0
  0
VISUALSTYLE
  5
2C
102
{ACAD_REACTORS
330
2A
102
}
102
{ACAD_XDICTIONARY
360
7D
102
}
330
2A
100
AcDbVisualStyle
  2
FlatWithEdges
 70
     1
 71
     2
 72
     1
 73
     1
 90
        2
 40
-0.6
 41
30.0
 62
     5
 63
     7
421
 16777215
 74
     1
 91
        4
 64
     7
 65
   257
 75
     1
175
     1
 42
1.0
 92
        0
 66
   257
 43
1.0
 76
     1
 77
     6
 78
     2
 67
     7
 79
     5
170
     0
171
     0
290
     0
174
     0
 93
       13
 44
0.0
173
     0
291
     1
 45
0.0
  0
VISUALSTYLE
  5
2D
102
{ACAD_REACTORS
330
2A
102
}
102
{ACAD_XDICTIONARY
360
7F
102
}
330
2A
100
AcDbVisualStyle
  2
Gouraud
 70
     2
 71
     2
 72
     2
 73
     1
 90
        2
 40
-0.6
 41
30.0
 62
     5
 63
     7
421
 16777215
 74
     0
 91
        4
 64
     7
 65
   257
 75
     1
175
     1
 42
1.0
 92
        0
 66
     7
 43
1.0
 76
     1
 77
     6
 78
     2
 67
     7
 79
     5
170
     0
171
     0
290
     0
174
     0
 93
       13
 44
0.0
173
     0
291
     1
 45
0.0
  0
VISUALSTYLE
  5
2E
102
{ACAD_REACTORS
330
2A
102
}
102
{ACAD_XDICTIONARY
360
81
102
}
330
2A
100
AcDbVisualStyle
  2
GouraudWithEdges
 70
     3
 71
     2
 72
     2
 73
     1
 90
        2
 40
-0.6
 41
30.0
 62
     5
 63
     7
421
 16777215
 74
     1
 91
        4
 64
     7
 65
   257
 75
     1
175
     1
 42
1.0
 92
        0
 66
   257
 43
1.0
 76
     1
 77
     6
 78
     2
 67
     7
 79
     5
170
     0
171
     0
290
     0
174
     0
 93
       13
 44
0.0
173
     0
291
     1
 45
0.0
  0
VISUALSTYLE
  5
38
102
{ACAD_REACTORS
330
2A
102
}
102
{ACAD_XDICTIONARY
360
95
102
}
330
2A
100
AcDbVisualStyle
  2
Linepattern
 70
    14
 71
     2
 72
     2
 73
     0
 90
        0
 40
-0.6
 41
-30.0
 62
     5
 63
     7
421
 16777215
 74
     1
 91
        4
 64
     7
 65
   257
 75
     7
175
     7
 42
1.0
 92
        8
 66
     7
 43
1.0
 76
     1
 77
     6
 78
     2
 67
     7
 79
     5
170
     0
171
     0
290
     0
174
     0
 93
        1
 44
0.0
173
     0
291
     1
 45
0.0
  0
VISUALSTYLE
  5
33
102
{ACAD_REACTORS
330
2A
102
}
102
{ACAD_XDICTIONARY
360
8B
102
}
330
2A
100
AcDbVisualStyle
  2
Realistic
 70
     8
 71
     2
 72
     2
 73
     0
 90
        0
 40
-0.6
 41
-30.0
 62
     5
 63
     7
421
 16777215
 74
     1
 91
        0
 64
     7
 65
   257
 75
     1
175
     1
 42
1.0
 92
        8
 66
     8
424
  7895160
 43
1.0
 76
     1
 77
     6
 78
     2
 67
     7
 79
     5
170
     0
171
     0
290
     0
174
     0
 93
       13
 44
0.0
173
     0
291
     0
 45
0.0
  0
VISUALSTYLE
  5
37
102
{ACAD_REACTORS
330
2A
102
}
102
{ACAD_XDICTIONARY
360
93
102
}
330
2A
100
AcDbVisualStyle
  2
Thicken
 70
    13
 71
     2
 72
     2
 73
     0
 90
        0
 40
-0.6
 41
-30.0
 62
     5
 63
     7
421
 16777215
 74
     1
 91
        4
 64
     7
 65
   257
 75
     1
175
     1
 42
1.0
 92
       12
 66
     7
 43
1.0
 76
     1
 77
     6
 78
     2
 67
     7
 79
     5
170
     0
171
     0
290
     0
174
     0
 93
        1
 44
0.0
173
     0
291
     1
 45
0.0
  0
DICTIONARY
  5
83
330
2F
100
AcDbDictionary
280
     1
281
     1
  3
ACAD_XREC_ROUNDTRIP
360
84
  0
DICTIONARY
  5
87
330
31
100
AcDbDictionary
280
     1
281
     1
  3
ACAD_XREC_ROUNDTRIP
360
88
  0
DICTIONARY
  5
85
330
30
100
AcDbDictionary
280
     1
281
     1
  3
ACAD_XREC_ROUNDTRIP
360
86
  0
DICTIONARY
  5
89
330
32
100
AcDbDictionary
280
     1
281
     1
  3
ACAD_XREC_ROUNDTRIP
360
8A
  0
DICTIONARY
  5
91
330
36
100
AcDbDictionary
280
     1
281
     1
  3
ACAD_XREC_ROUNDTRIP
360
92
  0
DICTIONARY
  5
99
330
3A
100
AcDbDictionary
280
     1
281
     1
  3
ACAD_XREC_ROUNDTRIP
360
9A
  0
DICTIONARY
  5
8D
330
34
100
AcDbDictionary
280
     1
281
     1
  3
ACAD_XREC_ROUNDTRIP
360
8E
  0
DICTIONARY
  5
8F
330
35
100
AcDbDictionary
280
     1
281
     1
  3
ACAD_XREC_ROUNDTRIP
360
90
  0
DICTIONARY
  5
97
330
39
100
AcDbDictionary
280
     1
281
     1
  3
ACAD_XREC_ROUNDTRIP
360
98
  0
DICTIONARY
  5
7B
330
2B
100
AcDbDictionary
280
     1
281
     1
  3
ACAD_XREC_ROUNDTRIP
360
7C
  0
DICTIONARY
  5
7D
330
2C
100
AcDbDictionary
280
     1
281
     1
  3
ACAD_XREC_ROUNDTRIP
360
7E
  0
DICTIONARY
  5
7F
330
2D
100
AcDbDictionary
280
     1
281
     1
  3
ACAD_XREC_ROUNDTRIP
360
80
  0
DICTIONARY
  5
81
330
2E
100
AcDbDictionary
280
     1
281
     1
  3
ACAD_XREC_ROUNDTRIP
360
82
  0
DICTIONARY
  5
95
330
38
100
AcDbDictionary
280
     1
281
     1
  3
ACAD_XREC_ROUNDTRIP
360
96
  0
DICTIONARY
  5
8B
330
33
100
AcDbDictionary
280
     1
281
     1
  3
ACAD_XREC_ROUNDTRIP
360
8C
  0
DICTIONARY
  5
93
330
37
100
AcDbDictionary
280
     1
281
     1
  3
ACAD_XREC_ROUNDTRIP
360
94
  0
XRECORD
  5
84
102
{ACAD_REACTORS
330
83
102
}
330
83
100
AcDbXrecord
280
     1
102
RTVSPropertyOp0
 70
     1
102
RTVSPropertyOp1
 70
     1
102
RTVSPropertyOp2
 70
     1
102
RTVSPropertyOp3
 70
     1
102
RTVSPropertyOp4
 70
     1
102
RTVSPropertyOp5
 70
     1
102
RTVSPropertyOp6
 70
     1
102
RTVSPropertyOp7
 70
     1
102
RTVSPropertyOp8
 70
     1
102
RTVSPropertyOp9
 70
     1
102
RTVSPropertyOp10
 70
     1
102
RTVSPropertyOp11
 70
     1
102
RTVSPropertyOp12
 70
     1
102
RTVSPropertyOp13
 70
     1
102
RTVSPropertyOp14
 70
     1
102
RTVSPropertyOp15
 70
     1
102
RTVSPropertyOp16
 70
     1
102
RTVSPropertyOp17
 70
     1
102
RTVSPropertyOp18
 70
     1
102
RTVSPropertyOp19
 70
     1
102
RTVSPropertyOp20
 70
     1
102
RTVSPropertyOp21
 70
     1
102
RTVSPropertyOp22
 70
     1
102
RTVSPropertyOp23
 70
     1
102
RTVSPropertyOp24
 70
     1
102
RTVSPropertyOp25
 70
     1
102
RTVSPropertyOp26
 70
     1
102
RTVSPropertyOp27
 70
     1
102
RTVSPropertyOp28
 70
     1
102
RTVSPropertyOp29
 70
     1
102
RTVSPropertyOp30
 70
     1
102
RTVSPropertyOp31
 70
     1
102
RTVSPropertyOp32
 70
     1
  0
XRECORD
  5
88
102
{ACAD_REACTORS
330
87
102
}
330
87
100
AcDbXrecord
280
     1
102
RTVSPropertyOp0
 70
     1
102
RTVSPropertyOp1
 70
     1
102
RTVSPropertyOp2
 70
     1
102
RTVSPropertyOp3
 70
     1
102
RTVSPropertyOp4
 70
     1
102
RTVSPropertyOp5
 70
     1
102
RTVSPropertyOp6
 70
     1
102
RTVSPropertyOp7
 70
     1
102
RTVSPropertyOp8
 70
     1
102
RTVSPropertyOp9
 70
     1
102
RTVSPropertyOp10
 70
     1
102
RTVSPropertyOp11
 70
     1
102
RTVSPropertyOp12
 70
     1
102
RTVSPropertyOp13
 70
     1
102
RTVSPropertyOp14
 70
     1
102
RTVSPropertyOp15
 70
     1
102
RTVSPropertyOp16
 70
     1
102
RTVSPropertyOp17
 70
     1
102
RTVSPropertyOp18
 70
     1
102
RTVSPropertyOp19
 70
     1
102
RTVSPropertyOp20
 70
     1
102
RTVSPropertyOp21
 70
     1
102
RTVSPropertyOp22
 70
     1
102
RTVSPropertyOp23
 70
     1
102
RTVSPropertyOp24
 70
     1
102
RTVSPropertyOp25
 70
     1
102
RTVSPropertyOp26
 70
     1
102
RTVSPropertyOp27
 70
     1
102
RTVSPropertyOp28
 70
     1
102
RTVSPropertyOp29
 70
     1
102
RTVSPropertyOp30
 70
     1
102
RTVSPropertyOp31
 70
     1
102
RTVSPropertyOp32
 70
     1
  0
XRECORD
  5
86
102
{ACAD_REACTORS
330
85
102
}
330
85
100
AcDbXrecord
280
     1
102
RTVSPropertyOp0
 70
     1
102
RTVSPropertyOp1
 70
     1
102
RTVSPropertyOp2
 70
     1
102
RTVSPropertyOp3
 70
     1
102
RTVSPropertyOp4
 70
     1
102
RTVSPropertyOp5
 70
     1
102
RTVSPropertyOp6
 70
     1
102
RTVSPropertyOp7
 70
     1
102
RTVSPropertyOp8
 70
     1
102
RTVSPropertyOp9
 70
     1
102
RTVSPropertyOp10
 70
     1
102
RTVSPropertyOp11
 70
     1
102
RTVSPropertyOp12
 70
     1
102
RTVSPropertyOp13
 70
     1
102
RTVSPropertyOp14
 70
     1
102
RTVSPropertyOp15
 70
     1
102
RTVSPropertyOp16
 70
     1
102
RTVSPropertyOp17
 70
     1
102
RTVSPropertyOp18
 70
     1
102
RTVSPropertyOp19
 70
     1
102
RTVSPropertyOp20
 70
     1
102
RTVSPropertyOp21
 70
     1
102
RTVSPropertyOp22
 70
     1
102
RTVSPropertyOp23
 70
     1
102
RTVSPropertyOp24
 70
     1
102
RTVSPropertyOp25
 70
     1
102
RTVSPropertyOp26
 70
     1
102
RTVSPropertyOp27
 70
     1
102
RTVSPropertyOp28
 70
     1
102
RTVSPropertyOp29
 70
     1
102
RTVSPropertyOp30
 70
     1
102
RTVSPropertyOp31
 70
     1
102
RTVSPropertyOp32
 70
     1
  0
XRECORD
  5
8A
102
{ACAD_REACTORS
330
89
102
}
330
89
100
AcDbXrecord
280
     1
102
RTVSPropertyOp0
 70
     1
102
RTVSPropertyOp1
 70
     1
102
RTVSPropertyOp2
 70
     1
102
RTVSPropertyOp3
 70
     1
102
RTVSPropertyOp4
 70
     1
102
RTVSPropertyOp5
 70
     1
102
RTVSPropertyOp6
 70
     1
102
RTVSPropertyOp7
 70
     1
102
RTVSPropertyOp8
 70
     1
102
RTVSPropertyOp9
 70
     1
102
RTVSPropertyOp10
 70
     1
102
RTVSPropertyOp11
 70
     1
102
RTVSPropertyOp12
 70
     1
102
RTVSPropertyOp13
 70
     1
102
RTVSPropertyOp14
 70
     1
102
RTVSPropertyOp15
 70
     1
102
RTVSPropertyOp16
 70
     1
102
RTVSPropertyOp17
 70
     1
102
RTVSPropertyOp18
 70
     1
102
RTVSPropertyOp19
 70
     1
102
RTVSPropertyOp20
 70
     1
102
RTVSPropertyOp21
 70
     1
102
RTVSPropertyOp22
 70
     1
102
RTVSPropertyOp23
 70
     1
102
RTVSPropertyOp24
 70
     1
102
RTVSPropertyOp25
 70
     1
102
RTVSPropertyOp26
 70
     1
102
RTVSPropertyOp27
 70
     1
102
RTVSPropertyOp28
 70
     1
102
RTVSPropertyOp29
 70
     1
102
RTVSPropertyOp30
 70
     1
102
RTVSPropertyOp31
 70
     1
102
RTVSPropertyOp32
 70
     1
  0
XRECORD
  5
92
102
{ACAD_REACTORS
330
91
102
}
330
91
100
AcDbXrecord
280
     1
102
RTVSPropertyOp0
 70
     1
102
RTVSPropertyOp1
 70
     1
102
RTVSPropertyOp2
 70
     1
102
RTVSPropertyOp3
 70
     1
102
RTVSPropertyOp4
 70
     1
102
RTVSPropertyOp5
 70
     1
102
RTVSPropertyOp6
 70
     1
102
RTVSPropertyOp7
 70
     1
102
RTVSPropertyOp8
 70
     1
102
RTVSPropertyOp9
 70
     1
102
RTVSPropertyOp10
 70
     1
102
RTVSPropertyOp11
 70
     1
102
RTVSPropertyOp12
 70
     1
102
RTVSPropertyOp13
 70
     1
102
RTVSPropertyOp14
 70
     1
102
RTVSPropertyOp15
 70
     1
102
RTVSPropertyOp16
 70
     1
102
RTVSPropertyOp17
 70
     1
102
RTVSPropertyOp18
 70
     1
102
RTVSPropertyOp19
 70
     1
102
RTVSPropertyOp20
 70
     1
102
RTVSPropertyOp21
 70
     1
102
RTVSPropertyOp22
 70
     1
102
RTVSPropertyOp23
 70
     1
102
RTVSPropertyOp24
 70
     1
102
RTVSPropertyOp25
 70
     1
102
RTVSPropertyOp26
 70
     1
102
RTVSPropertyOp27
 70
     1
102
RTVSPropertyOp28
 70
     1
102
RTVSPropertyOp29
 70
     1
102
RTVSPropertyOp30
 70
     1
102
RTVSPropertyOp31
 70
     1
102
RTVSPropertyOp32
 70
     1
  0
XRECORD
  5
9A
102
{ACAD_REACTORS
330
99
102
}
330
99
100
AcDbXrecord
280
     1
102
RTVSPropertyOp0
 70
     1
102
RTVSPropertyOp1
 70
     1
102
RTVSPropertyOp2
 70
     1
102
RTVSPropertyOp3
 70
     1
102
RTVSPropertyOp4
 70
     1
102
RTVSPropertyOp5
 70
     1
102
RTVSPropertyOp6
 70
     1
102
RTVSPropertyOp7
 70
     1
102
RTVSPropertyOp8
 70
     1
102
RTVSPropertyOp9
 70
     1
102
RTVSPropertyOp10
 70
     1
102
RTVSPropertyOp11
 70
     1
102
RTVSPropertyOp12
 70
     1
102
RTVSPropertyOp13
 70
     1
102
RTVSPropertyOp14
 70
     1
102
RTVSPropertyOp15
 70
     1
102
RTVSPropertyOp16
 70
     1
102
RTVSPropertyOp17
 70
     1
102
RTVSPropertyOp18
 70
     1
102
RTVSPropertyOp19
 70
     1
102
RTVSPropertyOp20
 70
     1
102
RTVSPropertyOp21
 70
     1
102
RTVSPropertyOp22
 70
     1
102
RTVSPropertyOp23
 70
     1
102
RTVSPropertyOp24
 70
     1
102
RTVSPropertyOp25
 70
     1
102
RTVSPropertyOp26
 70
     1
102
RTVSPropertyOp27
 70
     1
102
RTVSPropertyOp28
 70
     1
102
RTVSPropertyOp29
 70
     1
102
RTVSPropertyOp30
 70
     1
102
RTVSPropertyOp31
 70
     1
102
RTVSPropertyOp32
 70
     1
  0
XRECORD
  5
8E
102
{ACAD_REACTORS
330
8D
102
}
330
8D
100
AcDbXrecord
280
     1
102
RTVSPropertyOp0
 70
     1
102
RTVSPropertyOp1
 70
     1
102
RTVSPropertyOp2
 70
     1
102
RTVSPropertyOp3
 70
     1
102
RTVSPropertyOp4
 70
     1
102
RTVSPropertyOp5
 70
     1
102
RTVSPropertyOp6
 70
     1
102
RTVSPropertyOp7
 70
     1
102
RTVSPropertyOp8
 70
     1
102
RTVSPropertyOp9
 70
     1
102
RTVSPropertyOp10
 70
     1
102
RTVSPropertyOp11
 70
     1
102
RTVSPropertyOp12
 70
     1
102
RTVSPropertyOp13
 70
     1
102
RTVSPropertyOp14
 70
     1
102
RTVSPropertyOp15
 70
     1
102
RTVSPropertyOp16
 70
     1
102
RTVSPropertyOp17
 70
     1
102
RTVSPropertyOp18
 70
     1
102
RTVSPropertyOp19
 70
     1
102
RTVSPropertyOp20
 70
     1
102
RTVSPropertyOp21
 70
     1
102
RTVSPropertyOp22
 70
     1
102
RTVSPropertyOp23
 70
     1
102
RTVSPropertyOp24
 70
     1
102
RTVSPropertyOp25
 70
     1
102
RTVSPropertyOp26
 70
     1
102
RTVSPropertyOp27
 70
     1
102
RTVSPropertyOp28
 70
     1
102
RTVSPropertyOp29
 70
     1
102
RTVSPropertyOp30
 70
     1
102
RTVSPropertyOp31
 70
     1
102
RTVSPropertyOp32
 70
     1
  0
XRECORD
  5
90
102
{ACAD_REACTORS
330
8F
102
}
330
8F
100
AcDbXrecord
280
     1
102
RTVSPropertyOp0
 70
     1
102
RTVSPropertyOp1
 70
     1
102
RTVSPropertyOp2
 70
     1
102
RTVSPropertyOp3
 70
     1
102
RTVSPropertyOp4
 70
     1
102
RTVSPropertyOp5
 70
     1
102
RTVSPropertyOp6
 70
     1
102
RTVSPropertyOp7
 70
     1
102
RTVSPropertyOp8
 70
     1
102
RTVSPropertyOp9
 70
     1
102
RTVSPropertyOp10
 70
     1
102
RTVSPropertyOp11
 70
     1
102
RTVSPropertyOp12
 70
     1
102
RTVSPropertyOp13
 70
     1
102
RTVSPropertyOp14
 70
     1
102
RTVSPropertyOp15
 70
     1
102
RTVSPropertyOp16
 70
     1
102
RTVSPropertyOp17
 70
     1
102
RTVSPropertyOp18
 70
     1
102
RTVSPropertyOp19
 70
     1
102
RTVSPropertyOp20
 70
     1
102
RTVSPropertyOp21
 70
     1
102
RTVSPropertyOp22
 70
     1
102
RTVSPropertyOp23
 70
     1
102
RTVSPropertyOp24
 70
     1
102
RTVSPropertyOp25
 70
     1
102
RTVSPropertyOp26
 70
     1
102
RTVSPropertyOp27
 70
     1
102
RTVSPropertyOp28
 70
     1
102
RTVSPropertyOp29
 70
     1
102
RTVSPropertyOp30
 70
     1
102
RTVSPropertyOp31
 70
     1
102
RTVSPropertyOp32
 70
     1
  0
XRECORD
  5
98
102
{ACAD_REACTORS
330
97
102
}
330
97
100
AcDbXrecord
280
     1
102
RTVSPropertyOp0
 70
     1
102
RTVSPropertyOp1
 70
     1
102
RTVSPropertyOp2
 70
     1
102
RTVSPropertyOp3
 70
     1
102
RTVSPropertyOp4
 70
     1
102
RTVSPropertyOp5
 70
     1
102
RTVSPropertyOp6
 70
     1
102
RTVSPropertyOp7
 70
     1
102
RTVSPropertyOp8
 70
     1
102
RTVSPropertyOp9
 70
     1
102
RTVSPropertyOp10
 70
     1
102
RTVSPropertyOp11
 70
     1
102
RTVSPropertyOp12
 70
     1
102
RTVSPropertyOp13
 70
     1
102
RTVSPropertyOp14
 70
     1
102
RTVSPropertyOp15
 70
     1
102
RTVSPropertyOp16
 70
     1
102
RTVSPropertyOp17
 70
     1
102
RTVSPropertyOp18
 70
     1
102
RTVSPropertyOp19
 70
     1
102
RTVSPropertyOp20
 70
     1
102
RTVSPropertyOp21
 70
     1
102
RTVSPropertyOp22
 70
     1
102
RTVSPropertyOp23
 70
     1
102
RTVSPropertyOp24
 70
     1
102
RTVSPropertyOp25
 70
     1
102
RTVSPropertyOp26
 70
     1
102
RTVSPropertyOp27
 70
     1
102
RTVSPropertyOp28
 70
     1
102
RTVSPropertyOp29
 70
     1
102
RTVSPropertyOp30
 70
     1
102
RTVSPropertyOp31
 70
     1
102
RTVSPropertyOp32
 70
     1
  0
XRECORD
  5
7C
102
{ACAD_REACTORS
330
7B
102
}
330
7B
100
AcDbXrecord
280
     1
102
RTVSPropertyOp0
 70
     1
102
RTVSPropertyOp1
 70
     1
102
RTVSPropertyOp2
 70
     1
102
RTVSPropertyOp3
 70
     1
102
RTVSPropertyOp4
 70
     1
102
RTVSPropertyOp5
 70
     1
102
RTVSPropertyOp6
 70
     1
102
RTVSPropertyOp7
 70
     1
102
RTVSPropertyOp8
 70
     1
102
RTVSPropertyOp9
 70
     1
102
RTVSPropertyOp10
 70
     1
102
RTVSPropertyOp11
 70
     1
102
RTVSPropertyOp12
 70
     1
102
RTVSPropertyOp13
 70
     1
102
RTVSPropertyOp14
 70
     1
102
RTVSPropertyOp15
 70
     1
102
RTVSPropertyOp16
 70
     1
102
RTVSPropertyOp17
 70
     1
102
RTVSPropertyOp18
 70
     1
102
RTVSPropertyOp19
 70
     1
102
RTVSPropertyOp20
 70
     1
102
RTVSPropertyOp21
 70
     1
102
RTVSPropertyOp22
 70
     1
102
RTVSPropertyOp23
 70
     1
102
RTVSPropertyOp24
 70
     1
102
RTVSPropertyOp25
 70
     1
102
RTVSPropertyOp26
 70
     1
102
RTVSPropertyOp27
 70
     1
102
RTVSPropertyOp28
 70
     1
102
RTVSPropertyOp29
 70
     1
102
RTVSPropertyOp30
 70
     1
102
RTVSPropertyOp31
 70
     1
102
RTVSPropertyOp32
 70
     1
  0
XRECORD
  5
7E
102
{ACAD_REACTORS
330
7D
102
}
330
7D
100
AcDbXrecord
280
     1
102
RTVSPropertyOp0
 70
     1
102
RTVSPropertyOp1
 70
     1
102
RTVSPropertyOp2
 70
     1
102
RTVSPropertyOp3
 70
     1
102
RTVSPropertyOp4
 70
     1
102
RTVSPropertyOp5
 70
     1
102
RTVSPropertyOp6
 70
     1
102
RTVSPropertyOp7
 70
     1
102
RTVSPropertyOp8
 70
     1
102
RTVSPropertyOp9
 70
     1
102
RTVSPropertyOp10
 70
     1
102
RTVSPropertyOp11
 70
     1
102
RTVSPropertyOp12
 70
     1
102
RTVSPropertyOp13
 70
     1
102
RTVSPropertyOp14
 70
     1
102
RTVSPropertyOp15
 70
     1
102
RTVSPropertyOp16
 70
     1
102
RTVSPropertyOp17
 70
     1
102
RTVSPropertyOp18
 70
     1
102
RTVSPropertyOp19
 70
     1
102
RTVSPropertyOp20
 70
     1
102
RTVSPropertyOp21
 70
     1
102
RTVSPropertyOp22
 70
     1
102
RTVSPropertyOp23
 70
     1
102
RTVSPropertyOp24
 70
     1
102
RTVSPropertyOp25
 70
     1
102
RTVSPropertyOp26
 70
     1
102
RTVSPropertyOp27
 70
     1
102
RTVSPropertyOp28
 70
     1
102
RTVSPropertyOp29
 70
     1
102
RTVSPropertyOp30
 70
     1
102
RTVSPropertyOp31
 70
     1
102
RTVSPropertyOp32
 70
     1
  0
XRECORD
  5
80
102
{ACAD_REACTORS
330
7F
102
}
330
7F
100
AcDbXrecord
280
     1
102
RTVSPropertyOp0
 70
     1
102
RTVSPropertyOp1
 70
     1
102
RTVSPropertyOp2
 70
     1
102
RTVSPropertyOp3
 70
     1
102
RTVSPropertyOp4
 70
     1
102
RTVSPropertyOp5
 70
     1
102
RTVSPropertyOp6
 70
     1
102
RTVSPropertyOp7
 70
     1
102
RTVSPropertyOp8
 70
     1
102
RTVSPropertyOp9
 70
     1
102
RTVSPropertyOp10
 70
     1
102
RTVSPropertyOp11
 70
     1
102
RTVSPropertyOp12
 70
     1
102
RTVSPropertyOp13
 70
     1
102
RTVSPropertyOp14
 70
     1
102
RTVSPropertyOp15
 70
     1
102
RTVSPropertyOp16
 70
     1
102
RTVSPropertyOp17
 70
     1
102
RTVSPropertyOp18
 70
     1
102
RTVSPropertyOp19
 70
     1
102
RTVSPropertyOp20
 70
     1
102
RTVSPropertyOp21
 70
     1
102
RTVSPropertyOp22
 70
     1
102
RTVSPropertyOp23
 70
     1
102
RTVSPropertyOp24
 70
     1
102
RTVSPropertyOp25
 70
     1
102
RTVSPropertyOp26
 70
     1
102
RTVSPropertyOp27
 70
     1
102
RTVSPropertyOp28
 70
     1
102
RTVSPropertyOp29
 70
     1
102
RTVSPropertyOp30
 70
     1
102
RTVSPropertyOp31
 70
     1
102
RTVSPropertyOp32
 70
     1
  0
XRECORD
  5
82
102
{ACAD_REACTORS
330
81
102
}
330
81
100
AcDbXrecord
280
     1
102
RTVSPropertyOp0
 70
     1
102
RTVSPropertyOp1
 70
     1
102
RTVSPropertyOp2
 70
     1
102
RTVSPropertyOp3
 70
     1
102
RTVSPropertyOp4
 70
     1
102
RTVSPropertyOp5
 70
     1
102
RTVSPropertyOp6
 70
     1
102
RTVSPropertyOp7
 70
     1
102
RTVSPropertyOp8
 70
     1
102
RTVSPropertyOp9
 70
     1
102
RTVSPropertyOp10
 70
     1
102
RTVSPropertyOp11
 70
     1
102
RTVSPropertyOp12
 70
     1
102
RTVSPropertyOp13
 70
     1
102
RTVSPropertyOp14
 70
     1
102
RTVSPropertyOp15
 70
     1
102
RTVSPropertyOp16
 70
     1
102
RTVSPropertyOp17
 70
     1
102
RTVSPropertyOp18
 70
     1
102
RTVSPropertyOp19
 70
     1
102
RTVSPropertyOp20
 70
     1
102
RTVSPropertyOp21
 70
     1
102
RTVSPropertyOp22
 70
     1
102
RTVSPropertyOp23
 70
     1
102
RTVSPropertyOp24
 70
     1
102
RTVSPropertyOp25
 70
     1
102
RTVSPropertyOp26
 70
     1
102
RTVSPropertyOp27
 70
     1
102
RTVSPropertyOp28
 70
     1
102
RTVSPropertyOp29
 70
     1
102
RTVSPropertyOp30
 70
     1
102
RTVSPropertyOp31
 70
     1
102
RTVSPropertyOp32
 70
     1
  0
XRECORD
  5
96
102
{ACAD_REACTORS
330
95
102
}
330
95
100
AcDbXrecord
280
     1
102
RTVSPropertyOp0
 70
     1
102
RTVSPropertyOp1
 70
     1
102
RTVSPropertyOp2
 70
     1
102
RTVSPropertyOp3
 70
     1
102
RTVSPropertyOp4
 70
     1
102
RTVSPropertyOp5
 70
     1
102
RTVSPropertyOp6
 70
     1
102
RTVSPropertyOp7
 70
     1
102
RTVSPropertyOp8
 70
     1
102
RTVSPropertyOp9
 70
     1
102
RTVSPropertyOp10
 70
     1
102
RTVSPropertyOp11
 70
     1
102
RTVSPropertyOp12
 70
     1
102
RTVSPropertyOp13
 70
     1
102
RTVSPropertyOp14
 70
     1
102
RTVSPropertyOp15
 70
     1
102
RTVSPropertyOp16
 70
     1
102
RTVSPropertyOp17
 70
     1
102
RTVSPropertyOp18
 70
     1
102
RTVSPropertyOp19
 70
     1
102
RTVSPropertyOp20
 70
     1
102
RTVSPropertyOp21
 70
     1
102
RTVSPropertyOp22
 70
     1
102
RTVSPropertyOp23
 70
     1
102
RTVSPropertyOp24
 70
     1
102
RTVSPropertyOp25
 70
     1
102
RTVSPropertyOp26
 70
     1
102
RTVSPropertyOp27
 70
     1
102
RTVSPropertyOp28
 70
     1
102
RTVSPropertyOp29
 70
     1
102
RTVSPropertyOp30
 70
     1
102
RTVSPropertyOp31
 70
     1
102
RTVSPropertyOp32
 70
     1
  0
XRECORD
  5
8C
102
{ACAD_REACTORS
330
8B
102
}
330
8B
100
AcDbXrecord
280
     1
102
RTVSPropertyOp0
 70
     1
102
RTVSPropertyOp1
 70
     1
102
RTVSPropertyOp2
 70
     1
102
RTVSPropertyOp3
 70
     1
102
RTVSPropertyOp4
 70
     1
102
RTVSPropertyOp5
 70
     1
102
RTVSPropertyOp6
 70
     1
102
RTVSPropertyOp7
 70
     1
102
RTVSPropertyOp8
 70
     1
102
RTVSPropertyOp9
 70
     1
102
RTVSPropertyOp10
 70
     1
102
RTVSPropertyOp11
 70
     1
102
RTVSPropertyOp12
 70
     1
102
RTVSPropertyOp13
 70
     1
102
RTVSPropertyOp14
 70
     1
102
RTVSPropertyOp15
 70
     1
102
RTVSPropertyOp16
 70
     1
102
RTVSPropertyOp17
 70
     1
102
RTVSPropertyOp18
 70
     1
102
RTVSPropertyOp19
 70
     1
102
RTVSPropertyOp20
 70
     1
102
RTVSPropertyOp21
 70
     1
102
RTVSPropertyOp22
 70
     1
102
RTVSPropertyOp23
 70
     1
102
RTVSPropertyOp24
 70
     1
102
RTVSPropertyOp25
 70
     1
102
RTVSPropertyOp26
 70
     1
102
RTVSPropertyOp27
 70
     1
102
RTVSPropertyOp28
 70
     1
102
RTVSPropertyOp29
 70
     1
102
RTVSPropertyOp30
 70
     1
102
RTVSPropertyOp31
 70
     1
102
RTVSPropertyOp32
 70
     1
  0
XRECORD
  5
94
102
{ACAD_REACTORS
330
93
102
}
330
93
100
AcDbXrecord
280
     1
102
RTVSPropertyOp0
 70
     1
102
RTVSPropertyOp1
 70
     1
102
RTVSPropertyOp2
 70
     1
102
RTVSPropertyOp3
 70
     1
102
RTVSPropertyOp4
 70
     1
102
RTVSPropertyOp5
 70
     1
102
RTVSPropertyOp6
 70
     1
102
RTVSPropertyOp7
 70
     1
102
RTVSPropertyOp8
 70
     1
102
RTVSPropertyOp9
 70
     1
102
RTVSPropertyOp10
 70
     1
102
RTVSPropertyOp11
 70
     1
102
RTVSPropertyOp12
 70
     1
102
RTVSPropertyOp13
 70
     1
102
RTVSPropertyOp14
 70
     1
102
RTVSPropertyOp15
 70
     1
102
RTVSPropertyOp16
 70
     1
102
RTVSPropertyOp17
 70
     1
102
RTVSPropertyOp18
 70
     1
102
RTVSPropertyOp19
 70
     1
102
RTVSPropertyOp20
 70
     1
102
RTVSPropertyOp21
 70
     1
102
RTVSPropertyOp22
 70
     1
102
RTVSPropertyOp23
 70
     1
102
RTVSPropertyOp24
 70
     1
102
RTVSPropertyOp25
 70
     1
102
RTVSPropertyOp26
 70
     1
102
RTVSPropertyOp27
 70
     1
102
RTVSPropertyOp28
 70
     1
102
RTVSPropertyOp29
 70
     1
102
RTVSPropertyOp30
 70
     1
102
RTVSPropertyOp31
 70
     1
102
RTVSPropertyOp32
 70
     1
  0
ENDSEC
  0
EOF
