  0
SECTION
  2
HEADER
  9
$ACADVER
  1
AC1021
  9
$ACADMAINTVER
 70
    25
  9
$DWGCODEPAGE
  3
ANSI_1252
  9
$INSBASE
 10
0.0
 20
0.0
 30
0.0
  9
$EXTMIN
 10
-57.1464
 20
-115.4763
 30
0.0
  9
$EXTMAX
 10
66.5229
 20
131.8622
 30
0.0
  9
$LIMMIN
 10
0.0
 20
0.0
  9
$LIMMAX
 10
12.0
 20
9.0
  9
$ORTHOMODE
 70
     0
  9
$REGENMODE
 70
     1
  9
$FILLMODE
 70
     1
  9
$QTEXTMODE
 70
     0
  9
$MIRRTEXT
 70
     1
  9
$LTSCALE
 40
1.0
  9
$ATTMODE
 70
     1
  9
$TEXTSIZE
 40
0.2
  9
$TRACEWID
 40
0.05
  9
$TEXTSTYLE
  7
Standard
  9
$CLAYER
  8
0
  9
$CELTYPE
  6
ByLayer
  9
$CECOLOR
 62
   256
  9
$CELTSCALE
 40
1.0
  9
$DISPSILH
 70
     0
  9
$DIMSCALE
 40
1.0
  9
$DIMASZ
 40
0.18
  9
$DIMEXO
 40
0.0625
  9
$DIMDLI
 40
0.38
  9
$DIMRND
 40
0.0
  9
$DIMDLE
 40
0.0
  9
$DIMEXE
 40
0.18
  9
$DIMTP
 40
0.0
  9
$DIMTM
 40
0.0
  9
$DIMTXT
 40
0.18
  9
$DIMCEN
 40
0.09
  9
$DIMTSZ
 40
0.0
  9
$DIMTOL
 70
     0
  9
$DIMLIM
 70
     0
  9
$DIMTIH
 70
     1
  9
$DIMTOH
 70
     1
  9
$DIMSE1
 70
     0
  9
$DIMSE2
 70
     0
  9
$DIMTAD
 70
     0
  9
$DIMZIN
 70
     0
  9
$DIMBLK
  1

  9
$DIMASO
 70
     1
  9
$DIMSHO
 70
     1
  9
$DIMPOST
  1

  9
$DIMAPOST
  1

  9
$DIMALT
 70
     0
  9
$DIMALTD
 70
     2
  9
$DIMALTF
 40
25.4
  9
$DIMLFAC
 40
1.0
  9
$DIMTOFL
 70
     0
  9
$DIMTVP
 40
0.0
  9
$DIMTIX
 70
     0
  9
$DIMSOXD
 70
     0
  9
$DIMSAH
 70
     0
  9
$DIMBLK1
  1

  9
$DIMBLK2
  1

  9
$DIMSTYLE
  2
Standard
  9
$DIMCLRD
 70
     0
  9
$DIMCLRE
 70
     0
  9
$DIMCLRT
 70
     0
  9
$DIMTFAC
 40
1.0
  9
$DIMGAP
 40
0.09
  9
$DIMJUST
 70
     0
  9
$DIMSD1
 70
     0
  9
$DIMSD2
 70
     0
  9
$DIMTOLJ
 70
     1
  9
$DIMTZIN
 70
     0
  9
$DIMALTZ
 70
     0
  9
$DIMALTTZ
 70
     0
  9
$DIMUPT
 70
     0
  9
$DIMDEC
 70
     4
  9
$DIMTDEC
 70
     4
  9
$DIMALTU
 70
     2
  9
$DIMALTTD
 70
     2
  9
$DIMTXSTY
  7
Standard
  9
$DIMAUNIT
 70
     0
  9
$DIMADEC
 70
     0
  9
$DIMALTRND
 40
0.0
  9
$DIMAZIN
 70
     0
  9
$DIMDSEP
 70
    46
  9
$DIMATFIT
 70
     3
  9
$DIMFRAC
 70
     0
  9
$DIMLDRBLK
  1

  9
$DIMLUNIT
 70
     2
  9
$DIMLWD
 70
    -2
  9
$DIMLWE
 70
    -2
  9
$DIMTMOVE
 70
     0
  9
$DIMFXL
 40
1.0
  9
$DIMFXLON
 70
     0
  9
$DIMJOGANG
 40
0.7853981633974483
  9
$DIMTFILL
 70
     0
  9
$DIMTFILLCLR
 70
     0
  9
$DIMARCSYM
 70
     0
  9
$DIMLTYPE
  6

  9
$DIMLTEX1
  6

  9
$DIMLTEX2
  6

  9
$LUNITS
 70
     2
  9
$LUPREC
 70
     4
  9
$SKETCHINC
 40
0.1
  9
$FILLETRAD
 40
0.5
  9
$AUNITS
 70
     0
  9
$AUPREC
 70
     0
  9
$MENU
  1
.
  9
$ELEVATION
 40
0.0
  9
$PELEVATION
 40
0.0
  9
$THICKNESS
 40
0.0
  9
$LIMCHECK
 70
     0
  9
$CHAMFERA
 40
0.5
  9
$CHAMFERB
 40
0.5
  9
$CHAMFERC
 40
1.0
  9
$CHAMFERD
 40
0.0
  9
$SKPOLY
 70
     0
  9
$TDCREATE
 40
2458493.721347627
  9
$TDUCREATE
 40
2458493.721347627
  9
$TDUPDATE
 40
2458493.721347732
  9
$TDUUPDATE
 40
2458493.721347732
  9
$TDINDWG
 40
0.0000000116
  9
$TDUSRTIMER
 40
0.0000000116
  9
$USRTIMER
 70
     1
  9
$ANGBASE
 50
0.0
  9
$ANGDIR
 70
     0
  9
$PDMODE
 70
     0
  9
$PDSIZE
 40
0.0
  9
$PLINEWID
 40
0.0
  9
$SPLFRAME
 70
     0
  9
$SPLINETYPE
 70
     6
  9
$SPLINESEGS
 70
     8
  9
$HANDSEED
  5
C2
  9
$SURFTAB1
 70
     6
  9
$SURFTAB2
 70
     6
  9
$SURFTYPE
 70
     6
  9
$SURFU
 70
     6
  9
$SURFV
 70
     6
  9
$UCSBASE
  2

  9
$UCSNAME
  2

  9
$UCSORG
 10
0.0
 20
0.0
 30
0.0
  9
$UCSXDIR
 10
1.0
 20
0.0
 30
0.0
  9
$UCSYDIR
 10
0.0
 20
1.0
 30
0.0
  9
$UCSORTHOREF
  2

  9
$UCSORTHOVIEW
 70
     0
  9
$UCSORGTOP
 10
0.0
 20
0.0
 30
0.0
  9
$UCSORGBOTTOM
 10
0.0
 20
0.0
 30
0.0
  9
$UCSORGLEFT
 10
0.0
 20
0.0
 30
0.0
  9
$UCSORGRIGHT
 10
0.0
 20
0.0
 30
0.0
  9
$UCSORGFRONT
 10
0.0
 20
0.0
 30
0.0
  9
$UCSORGBACK
 10
0.0
 20
0.0
 30
0.0
  9
$PUCSBASE
  2

  9
$PUCSNAME
  2

  9
$PUCSORG
 10
0.0
 20
0.0
 30
0.0
  9
$PUCSXDIR
 10
1.0
 20
0.0
 30
0.0
  9
$PUCSYDIR
 10
0.0
 20
1.0
 30
0.0
  9
$PUCSORTHOREF
  2

  9
$PUCSORTHOVIEW
 70
     0
  9
$PUCSORGTOP
 10
0.0
 20
0.0
 30
0.0
  9
$PUCSORGBOTTOM
 10
0.0
 20
0.0
 30
0.0
  9
$PUCSORGLEFT
 10
0.0
 20
0.0
 30
0.0
  9
$PUCSORGRIGHT
 10
0.0
 20
0.0
 30
0.0
  9
$PUCSORGFRONT
 10
0.0
 20
0.0
 30
0.0
  9
$PUCSORGBACK
 10
0.0
 20
0.0
 30
0.0
  9
$USERI1
 70
     0
  9
$USERI2
 70
     0
  9
$USERI3
 70
     0
  9
$USERI4
 70
     0
  9
$USERI5
 70
     0
  9
$USERR1
 40
0.0
  9
$USERR2
 40
0.0
  9
$USERR3
 40
0.0
  9
$USERR4
 40
0.0
  9
$USERR5
 40
0.0
  9
$WORLDVIEW
 70
     1
  9
$SHADEDGE
 70
     3
  9
$SHADEDIF
 70
    70
  9
$TILEMODE
 70
     1
  9
$MAXACTVP
 70
    64
  9
$PINSBASE
 10
0.0
 20
0.0
 30
0.0
  9
$PLIMCHECK
 70
     0
  9
$PEXTMIN
 10
1.000000000000000E+20
 20
1.000000000000000E+20
 30
1.000000000000000E+20
  9
$PEXTMAX
 10
-1.000000000000000E+20
 20
-1.000000000000000E+20
 30
-1.000000000000000E+20
  9
$PLIMMIN
 10
0.0
 20
0.0
  9
$PLIMMAX
 10
12.0
 20
9.0
  9
$UNITMODE
 70
     0
  9
$VISRETAIN
 70
     1
  9
$PLINEGEN
 70
     0
  9
$PSLTSCALE
 70
     1
  9
$TREEDEPTH
 70
  3020
  9
$CMLSTYLE
  2
Standard
  9
$CMLJUST
 70
     0
  9
$CMLSCALE
 40
1.0
  9
$PROXYGRAPHICS
 70
     1
  9
$MEASUREMENT
 70
     0
  9
$CELWEIGHT
370
    -1
  9
$ENDCAPS
280
     0
  9
$JOINSTYLE
280
     0
  9
$LWDISPLAY
290
     0
  9
$INSUNITS
 70
     4
  9
$HYPERLINKBASE
  1

  9
$STYLESHEET
  1

  9
$XEDIT
290
     1
  9
$CEPSNTYPE
380
     0
  9
$PSTYLEMODE
290
     1
  9
$FINGERPRINTGUID
  2
{970FEF6A-2F35-48AF-92B6-75E316E0CB85}
  9
$VERSIONGUID
  2
{FAEB1C32-E019-11D5-929B-00C0DF256EC4}
  9
$EXTNAMES
290
     1
  9
$PSVPSCALE
 40
0.0
  9
$OLESTARTUP
290
     0
  9
$SORTENTS
280
   127
  9
$INDEXCTL
280
     0
  9
$HIDETEXT
280
     1
  9
$XCLIPFRAME
290
     0
  9
$HALOGAP
280
     0
  9
$OBSCOLOR
 70
   257
  9
$OBSLTYPE
280
     0
  9
$INTERSECTIONDISPLAY
280
     0
  9
$INTERSECTIONCOLOR
 70
   257
  9
$DIMASSOC
280
     2
  9
$PROJECTNAME
  1

  9
$CAMERADISPLAY
290
     0
  9
$LENSLENGTH
 40
50.0
  9
$CAMERAHEIGHT
 40
0.0
  9
$STEPSPERSEC
 40
2.0
  9
$STEPSIZE
 40
6.0
  9
$3DDWFPREC
 40
2.0
  9
$PSOLWIDTH
 40
0.25
  9
$PSOLHEIGHT
 40
4.0
  9
$LOFTANG1
 40
1.570796326794897
  9
$LOFTANG2
 40
1.570796326794897
  9
$LOFTMAG1
 40
0.0
  9
$LOFTMAG2
 40
0.0
  9
$LOFTPARAM
 70
     7
  9
$LOFTNORMALS
280
     1
  9
$LATITUDE
 40
37.795
  9
$LONGITUDE
 40
-122.394
  9
$NORTHDIRECTION
 40
0.0
  9
$TIMEZONE
 70
 -8000
  9
$LIGHTGLYPHDISPLAY
280
     1
  9
$TILEMODELIGHTSYNCH
280
     1
  9
$SOLIDHIST
280
     1
  9
$SHOWHIST
280
     1
  9
$DWFFRAME
280
     2
  9
$DGNFRAME
280
     2
  9
$REALWORLDSCALE
290
     1
  9
$INTERFERECOLOR
 62
   256
  9
$CSHADOW
280
     0
  9
$SHADOWPLANELOCATION
 40
0.0
  0
ENDSEC
  0
SECTION
  2
CLASSES
  0
CLASS
  1
ACDBDICTIONARYWDFLT
  2
AcDbDictionaryWithDefault
  3
ObjectDBX Classes
 90
        0
 91
        4
280
     0
281
     0
  0
CLASS
  1
VISUALSTYLE
  2
AcDbVisualStyle
  3
ObjectDBX Classes
 90
     4095
 91
        4
280
     0
281
     0
  0
CLASS
  1
MATERIAL
  2
AcDbMaterial
  3
ObjectDBX Classes
 90
     1153
 91
        4
280
     0
281
     0
  0
ENDSEC
  0
SECTION
  2
TABLES
  0
TABLE
  2
VPORT
  5
8
330
0
100
AcDbSymbolTable
 70
     1
  0
VPORT
  5
29
330
8
100
AcDbSymbolTableRecord
100
AcDbViewportTableRecord
  2
*Active
 70
     0
 10
0.0
 20
0.0
 11
1.0
 21
1.0
 12
10.42990654205607
 22
4.5
 13
0.0
 23
0.0
 14
0.5
 24
0.5
 15
0.5
 25
0.5
 16
0.0
 26
0.0
 36
1.0
 17
0.0
 27
0.0
 37
0.0
 40
9.0
 41
1.972972972850329
 42
50.0
 43
0.0
 44
0.0
 50
0.0
 51
0.0
 71
     0
 72
   100
 73
     1
 74
     3
 75
     0
 76
     0
 77
     0
 78
     0
281
     0
 65
     1
110
0.0
120
0.0
130
0.0
111
1.0
121
0.0
131
0.0
112
0.0
122
1.0
132
0.0
 79
     0
146
0.0
 60
     3
 61
     5
292
     1
282
     1
141
0.0
142
0.0
 63
   250
  0
ENDTAB
  0
TABLE
  2
LTYPE
  5
5
330
0
100
AcDbSymbolTable
 70
     1
  0
LTYPE
  5
14
330
5
100
AcDbSymbolTableRecord
100
AcDbLinetypeTableRecord
  2
ByBlock
 70
     0
  3

 72
    65
 73
     0
 40
0.0
  0
LTYPE
  5
15
330
5
100
AcDbSymbolTableRecord
100
AcDbLinetypeTableRecord
  2
ByLayer
 70
     0
  3

 72
    65
 73
     0
 40
0.0
  0
LTYPE
  5
16
330
5
100
AcDbSymbolTableRecord
100
AcDbLinetypeTableRecord
  2
Continuous
 70
     0
  3
Solid line
 72
    65
 73
     0
 40
0.0
  0
ENDTAB
  0
TABLE
  2
LAYER
  5
2
330
0
100
AcDbSymbolTable
 70
     3
  0
LAYER
  5
10
330
2
100
AcDbSymbolTableRecord
100
AcDbLayerTableRecord
  2
0
 70
     0
 62
     7
  6
Continuous
370
    -3
390
F
347
3E
  0
LAYER
  5
40
330
2
100
AcDbSymbolTableRecord
100
AcDbLayerTableRecord
  2
layer 1
 70
     0
 62
     7
  6
Continuous
370
    -3
390
F
347
3E
  0
LAYER
  5
9F
330
2
100
AcDbSymbolTableRecord
100
AcDbLayerTableRecord
  2
Master Guides
 70
     0
 62
     7
  6
Continuous
370
    -3
390
F
347
3E
  0
ENDTAB
  0
TABLE
  2
STYLE
  5
3
330
0
100
AcDbSymbolTable
 70
     1
  0
STYLE
  5
11
330
3
100
AcDbSymbolTableRecord
100
AcDbTextStyleTableRecord
  2
Standard
 70
     0
 40
0.0
 41
1.0
 50
0.0
 71
     0
 42
0.2
  3
txt
  4

  0
ENDTAB
  0
TABLE
  2
VIEW
  5
6
330
0
100
AcDbSymbolTable
 70
     0
  0
ENDTAB
  0
TABLE
  2
UCS
  5
7
330
0
100
AcDbSymbolTable
 70
     0
  0
ENDTAB
  0
TABLE
  2
APPID
  5
9
330
0
100
AcDbSymbolTable
 70
     2
  0
APPID
  5
12
330
9
100
AcDbSymbolTableRecord
100
AcDbRegAppTableRecord
  2
ACAD
 70
     0
  0
APPID
  5
3F
330
9
100
AcDbSymbolTableRecord
100
AcDbRegAppTableRecord
  2
ODA
 70
     0
  0
ENDTAB
  0
TABLE
  2
DIMSTYLE
  5
A
330
0
100
AcDbSymbolTable
 70
     1
100
AcDbDimStyleTable
  0
DIMSTYLE
105
27
330
A
100
AcDbSymbolTableRecord
100
AcDbDimStyleTableRecord
  2
Standard
 70
     0
178
     0
340
11
  0
ENDTAB
  0
TABLE
  2
BLOCK_RECORD
  5
1
330
0
100
AcDbSymbolTable
 70
     1
  0
BLOCK_RECORD
  5
1F
330
1
100
AcDbSymbolTableRecord
100
AcDbBlockTableRecord
  2
*Model_Space
340
22
 70
     0
280
     1
281
     0
  0
BLOCK_RECORD
  5
1B
330
1
100
AcDbSymbolTableRecord
100
AcDbBlockTableRecord
  2
*Paper_Space
340
1E
 70
     0
280
     1
281
     0
  0
BLOCK_RECORD
  5
23
330
1
100
AcDbSymbolTableRecord
100
AcDbBlockTableRecord
  2
*Paper_Space0
340
26
 70
     0
280
     1
281
     0
  0
ENDTAB
  0
ENDSEC
  0
SECTION
  2
BLOCKS
  0
BLOCK
  5
20
330
1F
100
AcDbEntity
  8
0
100
AcDbBlockBegin
  2
*Model_Space
 70
     0
 10
0.0
 20
0.0
 30
0.0
  3
*Model_Space
  1

  0
ENDBLK
  5
21
330
1F
100
AcDbEntity
  8
0
100
AcDbBlockEnd
  0
BLOCK
  5
1C
330
1B
100
AcDbEntity
 67
     1
  8
0
100
AcDbBlockBegin
  2
*Paper_Space
 70
     0
 10
0.0
 20
0.0
 30
0.0
  3
*Paper_Space
  1

  0
ENDBLK
  5
1D
330
1B
100
AcDbEntity
 67
     1
  8
0
100
AcDbBlockEnd
  0
BLOCK
  5
24
330
23
100
AcDbEntity
  8
0
100
AcDbBlockBegin
  2
*Paper_Space0
 70
     0
 10
0.0
 20
0.0
 30
0.0
  3
*Paper_Space0
  1

  0
ENDBLK
  5
25
330
23
100
AcDbEntity
  8
0
100
AcDbBlockEnd
  0
ENDSEC
  0
SECTION
  2
ENTITIES
  0
SPLINE
  5
41
330
1F
100
AcDbEntity
  8
layer 1
 62
   250
100
AcDbSpline
210
0.0
220
0.0
230
1.0
 70
    11
 71
     3
 72
    20
 73
    16
 74
     0
 42
0.0000000001
 43
0.0000000001
 12
1.0
 22
0.0
 32
0.0
 13
1.0
 23
0.0
 33
0.0
 40
0.0
 40
0.0
 40
0.0
 40
0.0
 40
0.2
 40
0.2
 40
0.2
 40
0.2
 40
0.4
 40
0.4
 40
0.4
 40
0.4
 40
0.6
 40
0.6
 40
0.6
 40
0.6
 40
1.0
 40
1.0
 40
1.0
 40
1.0
 10
-57.1464
 20
131.8622
 30
0.0
 10
-57.1464
 20
131.8622
 30
0.0
 10
66.5229
 20
131.8622
 30
0.0
 10
66.5229
 20
131.8622
 30
0.0
 10
66.5229
 20
131.8622
 30
0.0
 10
66.5229
 20
131.8622
 30
0.0
 10
66.5229
 20
-115.4763
 30
0.0
 10
66.5229
 20
-115.4763
 30
0.0
 10
66.5229
 20
-115.4763
 30
0.0
 10
66.5229
 20
-115.4763
 30
0.0
 10
-57.1464
 20
-115.4763
 30
0.0
 10
-57.1464
 20
-115.4763
 30
0.0
 10
-57.1464
 20
-115.4763
 30
0.0
 10
-57.1464
 20
-115.4763
 30
0.0
 10
-57.1464
 20
131.8622
 30
0.0
 10
-57.1464
 20
131.8622
 30
0.0
  0
SPLINE
  5
42
330
1F
100
AcDbEntity
  8
layer 1
 62
     7
100
AcDbSpline
210
0.0
220
0.0
230
1.0
 70
    11
 71
     3
 72
    16
 73
    12
 74
     0
 42
0.0000000001
 43
0.0000000001
 12
1.0
 22
0.0
 32
0.0
 13
1.0
 23
0.0
 33
0.0
 40
0.0
 40
0.0
 40
0.0
 40
0.0
 40
0.25
 40
0.25
 40
0.25
 40
0.25
 40
0.5
 40
0.5
 40
0.5
 40
0.5
 40
1.0
 40
1.0
 40
1.0
 40
1.0
 10
-50.4191
 20
62.6225
 30
0.0
 10
-50.4191
 20
62.6225
 30
0.0
 10
-43.4012
 20
55.3338
 30
0.0
 10
-43.4012
 20
55.3338
 30
0.0
 10
-43.4012
 20
55.3338
 30
0.0
 10
-44.1169
 20
51.2643
 30
0.0
 10
-46.3979
 20
48.0954
 30
0.0
 10
-50.3437
 20
47.6283
 30
0.0
 10
-50.3437
 20
47.6283
 30
0.0
 10
-50.3437
 20
47.6283
 30
0.0
 10
-50.4191
 20
62.6225
 30
0.0
 10
-50.4191
 20
62.6225
 30
0.0
  0
SPLINE
  5
43
330
1F
100
AcDbEntity
  8
layer 1
 62
     7
100
AcDbSpline
210
0.0
220
0.0
230
1.0
 70
    11
 71
     3
 72
    16
 73
    12
 74
     0
 42
0.0000000001
 43
0.0000000001
 12
1.0
 22
0.0
 32
0.0
 13
1.0
 23
0.0
 33
0.0
 40
0.0
 40
0.0
 40
0.0
 40
0.0
 40
0.25
 40
0.25
 40
0.25
 40
0.25
 40
0.5
 40
0.5
 40
0.5
 40
0.5
 40
1.0
 40
1.0
 40
1.0
 40
1.0
 10
-50.4191
 20
71.4482
 30
0.0
 10
-50.4191
 20
71.4482
 30
0.0
 10
-43.4012
 20
78.7369
 30
0.0
 10
-43.4012
 20
78.7369
 30
0.0
 10
-43.4012
 20
78.7369
 30
0.0
 10
-44.1169
 20
82.8064
 30
0.0
 10
-46.3979
 20
85.9753
 30
0.0
 10
-50.3437
 20
86.4424
 30
0.0
 10
-50.3437
 20
86.4424
 30
0.0
 10
-50.3437
 20
86.4424
 30
0.0
 10
-50.4191
 20
71.4482
 30
0.0
 10
-50.4191
 20
71.4482
 30
0.0
  0
SPLINE
  5
44
330
1F
100
AcDbEntity
  8
layer 1
 62
     7
100
AcDbSpline
210
0.0
220
0.0
230
1.0
 70
    11
 71
     3
 72
    20
 73
    16
 74
     0
 42
0.0000000001
 43
0.0000000001
 12
1.0
 22
0.0
 32
0.0
 13
1.0
 23
0.0
 33
0.0
 40
0.0
 40
0.0
 40
0.0
 40
0.0
 40
0.2
 40
0.2
 40
0.2
 40
0.2
 40
0.4
 40
0.4
 40
0.4
 40
0.4
 40
0.6
 40
0.6
 40
0.6
 40
0.6
 40
1.0
 40
1.0
 40
1.0
 40
1.0
 10
-47.6152
 20
66.9228
 30
0.0
 10
-47.6152
 20
66.9228
 30
0.0
 10
-39.6545
 20
75.2172
 30
0.0
 10
-39.6545
 20
75.2172
 30
0.0
 10
-39.6545
 20
75.2172
 30
0.0
 10
-35.6125
 20
74.3606
 30
0.0
 10
-32.6846
 20
70.7175
 30
0.0
 10
-32.5256
 20
67.1584
 30
0.0
 10
-32.5256
 20
67.1584
 30
0.0
 10
-32.3664
 20
63.5993
 30
0.0
 10
-35.0387
 20
60.0613
 30
0.0
 10
-39.6201
 20
58.9748
 30
0.0
 10
-39.6201
 20
58.9748
 30
0.0
 10
-39.6201
 20
58.9748
 30
0.0
 10
-47.6152
 20
66.9228
 30
0.0
 10
-47.6152
 20
66.9228
 30
0.0
  0
SPLINE
  5
45
330
1F
100
AcDbEntity
  8
layer 1
 62
     7
100
AcDbSpline
210
0.0
220
0.0
230
1.0
 70
    11
 71
     3
 72
    20
 73
    16
 74
     0
 42
0.0000000001
 43
0.0000000001
 12
1.0
 22
0.0
 32
0.0
 13
1.0
 23
0.0
 33
0.0
 40
0.0
 40
0.0
 40
0.0
 40
0.0
 40
0.2
 40
0.2
 40
0.2
 40
0.2
 40
0.4
 40
0.4
 40
0.4
 40
0.4
 40
0.6
 40
0.6
 40
0.6
 40
0.6
 40
1.0
 40
1.0
 40
1.0
 40
1.0
 10
-48.8005
 20
91.4598
 30
0.0
 10
-46.4598
 20
90.9341
 30
0.0
 10
-44.1188
 20
89.7001
 30
0.0
 10
-42.4579
 20
87.9278
 30
0.0
 10
-42.4579
 20
87.9278
 30
0.0
 10
-42.4579
 20
87.9278
 30
0.0
 10
-34.2177
 20
102.7718
 30
0.0
 10
-34.2177
 20
102.7718
 30
0.0
 10
-34.2177
 20
102.7718
 30
0.0
 10
-38.4711
 20
105.5171
 30
0.0
 10
-45.1476
 20
106.8936
 30
0.0
 10
-48.8385
 20
106.9357
 30
0.0
 10
-48.8385
 20
106.9357
 30
0.0
 10
-48.8385
 20
106.9357
 30
0.0
 10
-48.8005
 20
91.4598
 30
0.0
 10
-48.8005
 20
91.4598
 30
0.0
  0
SPLINE
  5
46
330
1F
100
AcDbEntity
  8
layer 1
 62
     7
100
AcDbSpline
210
0.0
220
0.0
230
1.0
 70
    11
 71
     3
 72
    20
 73
    16
 74
     0
 42
0.0000000001
 43
0.0000000001
 12
1.0
 22
0.0
 32
0.0
 13
1.0
 23
0.0
 33
0.0
 40
0.0
 40
0.0
 40
0.0
 40
0.0
 40
0.2
 40
0.2
 40
0.2
 40
0.2
 40
0.4
 40
0.4
 40
0.4
 40
0.4
 40
0.6
 40
0.6
 40
0.6
 40
0.6
 40
1.0
 40
1.0
 40
1.0
 40
1.0
 10
-48.8005
 20
42.4188
 30
0.0
 10
-46.4598
 20
42.9444
 30
0.0
 10
-44.1188
 20
44.1784
 30
0.0
 10
-42.4579
 20
45.9507
 30
0.0
 10
-42.4579
 20
45.9507
 30
0.0
 10
-42.4579
 20
45.9507
 30
0.0
 10
-34.2177
 20
31.1068
 30
0.0
 10
-34.2177
 20
31.1068
 30
0.0
 10
-34.2177
 20
31.1068
 30
0.0
 10
-38.4711
 20
28.3615
 30
0.0
 10
-45.1476
 20
26.985
 30
0.0
 10
-48.8385
 20
26.9429
 30
0.0
 10
-48.8385
 20
26.9429
 30
0.0
 10
-48.8385
 20
26.9429
 30
0.0
 10
-48.8005
 20
42.4188
 30
0.0
 10
-48.8005
 20
42.4188
 30
0.0
  0
SPLINE
  5
47
330
1F
100
AcDbEntity
  8
layer 1
 62
     7
100
AcDbSpline
210
0.0
220
0.0
230
1.0
 70
    11
 71
     3
 72
    20
 73
    16
 74
     0
 42
0.0000000001
 43
0.0000000001
 12
1.0
 22
0.0
 32
0.0
 13
1.0
 23
0.0
 33
0.0
 40
0.0
 40
0.0
 40
0.0
 40
0.0
 40
0.2
 40
0.2
 40
0.2
 40
0.2
 40
0.4
 40
0.4
 40
0.4
 40
0.4
 40
0.6
 40
0.6
 40
0.6
 40
0.6
 40
1.0
 40
1.0
 40
1.0
 40
1.0
 10
-27.8683
 20
69.4601
 30
0.0
 10
-28.394
 20
71.8009
 30
0.0
 10
-29.628
 20
74.1418
 30
0.0
 10
-31.4003
 20
75.8027
 30
0.0
 10
-31.4003
 20
75.8027
 30
0.0
 10
-31.4003
 20
75.8027
 30
0.0
 10
-16.8984
 20
84.7284
 30
0.0
 10
-16.8984
 20
84.7284
 30
0.0
 10
-16.8984
 20
84.7284
 30
0.0
 10
-14.311
 20
80.4486
 30
0.0
 10
-13.0399
 20
73.2447
 30
0.0
 10
-12.8926
 20
69.4748
 30
0.0
 10
-12.8926
 20
69.4748
 30
0.0
 10
-12.8926
 20
69.4748
 30
0.0
 10
-27.8683
 20
69.4601
 30
0.0
 10
-27.8683
 20
69.4601
 30
0.0
  0
SPLINE
  5
48
330
1F
100
AcDbEntity
  8
layer 1
 62
     7
100
AcDbSpline
210
0.0
220
0.0
230
1.0
 70
    11
 71
     3
 72
    20
 73
    16
 74
     0
 42
0.0000000001
 43
0.0000000001
 12
1.0
 22
0.0
 32
0.0
 13
1.0
 23
0.0
 33
0.0
 40
0.0
 40
0.0
 40
0.0
 40
0.0
 40
0.2
 40
0.2
 40
0.2
 40
0.2
 40
0.4
 40
0.4
 40
0.4
 40
0.4
 40
0.6
 40
0.6
 40
0.6
 40
0.6
 40
1.0
 40
1.0
 40
1.0
 40
1.0
 10
-27.8683
 20
64.3479
 30
0.0
 10
-28.394
 20
62.0072
 30
0.0
 10
-29.628
 20
59.6663
 30
0.0
 10
-31.4003
 20
58.0053
 30
0.0
 10
-31.4003
 20
58.0053
 30
0.0
 10
-31.4003
 20
58.0053
 30
0.0
 10
-16.8984
 20
49.0796
 30
0.0
 10
-16.8984
 20
49.0796
 30
0.0
 10
-16.8984
 20
49.0796
 30
0.0
 10
-14.311
 20
53.3594
 30
0.0
 10
-13.0399
 20
60.5633
 30
0.0
 10
-12.8926
 20
64.3332
 30
0.0
 10
-12.8926
 20
64.3332
 30
0.0
 10
-12.8926
 20
64.3332
 30
0.0
 10
-27.8683
 20
64.3479
 30
0.0
 10
-27.8683
 20
64.3479
 30
0.0
  0
SPLINE
  5
49
330
1F
100
AcDbEntity
  8
layer 1
 62
     7
100
AcDbSpline
210
0.0
220
0.0
230
1.0
 70
    11
 71
     3
 72
    24
 73
    20
 74
     0
 42
0.0000000001
 43
0.0000000001
 12
1.0
 22
0.0
 32
0.0
 13
1.0
 23
0.0
 33
0.0
 40
0.0
 40
0.0
 40
0.0
 40
0.0
 40
0.1666666666666667
 40
0.1666666666666667
 40
0.1666666666666667
 40
0.1666666666666667
 40
0.3333333333333333
 40
0.3333333333333333
 40
0.3333333333333333
 40
0.3333333333333333
 40
0.5
 40
0.5
 40
0.5
 40
0.5
 40
0.6666666666666666
 40
0.6666666666666666
 40
0.6666666666666666
 40
0.6666666666666666
 40
1.0
 40
1.0
 40
1.0
 40
1.0
 10
-35.8243
 20
54.9128
 30
0.0
 10
-37.0219
 20
54.5259
 30
0.0
 10
-38.3619
 20
53.9824
 30
0.0
 10
-38.5726
 20
53.714
 30
0.0
 10
-38.5726
 20
53.714
 30
0.0
 10
-38.763
 20
53.4715
 30
0.0
 10
-39.2433
 20
52.2237
 30
0.0
 10
-39.5384
 20
50.9759
 30
0.0
 10
-39.5384
 20
50.9759
 30
0.0
 10
-39.5384
 20
50.9759
 30
0.0
 10
-30.4703
 20
34.3568
 30
0.0
 10
-30.4703
 20
34.3568
 30
0.0
 10
-30.4703
 20
34.3568
 30
0.0
 10
-27.9914
 20
38.1945
 30
0.0
 10
-23.7973
 20
42.2953
 30
0.0
 10
-19.8955
 20
45.2468
 30
0.0
 10
-19.8955
 20
45.2468
 30
0.0
 10
-19.8955
 20
45.2468
 30
0.0
 10
-35.8243
 20
54.9128
 30
0.0
 10
-35.8243
 20
54.9128
 30
0.0
  0
SPLINE
  5
4A
330
1F
100
AcDbEntity
  8
layer 1
 62
     7
100
AcDbSpline
210
0.0
220
0.0
230
1.0
 70
    11
 71
     3
 72
    24
 73
    20
 74
     0
 42
0.0000000001
 43
0.0000000001
 12
1.0
 22
0.0
 32
0.0
 13
1.0
 23
0.0
 33
0.0
 40
0.0
 40
0.0
 40
0.0
 40
0.0
 40
0.1666666666666667
 40
0.1666666666666667
 40
0.1666666666666667
 40
0.1666666666666667
 40
0.3333333333333333
 40
0.3333333333333333
 40
0.3333333333333333
 40
0.3333333333333333
 40
0.5
 40
0.5
 40
0.5
 40
0.5
 40
0.6666666666666666
 40
0.6666666666666666
 40
0.6666666666666666
 40
0.6666666666666666
 40
1.0
 40
1.0
 40
1.0
 40
1.0
 10
-35.8243
 20
79.1187
 30
0.0
 10
-37.0219
 20
79.5056
 30
0.0
 10
-38.3619
 20
80.0491
 30
0.0
 10
-38.5726
 20
80.3175
 30
0.0
 10
-38.5726
 20
80.3175
 30
0.0
 10
-38.763
 20
80.56
 30
0.0
 10
-39.2433
 20
81.8078
 30
0.0
 10
-39.5384
 20
83.0556
 30
0.0
 10
-39.5384
 20
83.0556
 30
0.0
 10
-39.5384
 20
83.0556
 30
0.0
 10
-30.4703
 20
99.6747
 30
0.0
 10
-30.4703
 20
99.6747
 30
0.0
 10
-30.4703
 20
99.6747
 30
0.0
 10
-27.9914
 20
95.837
 30
0.0
 10
-23.7973
 20
91.7362
 30
0.0
 10
-19.8955
 20
88.7848
 30
0.0
 10
-19.8955
 20
88.7848
 30
0.0
 10
-19.8955
 20
88.7848
 30
0.0
 10
-35.8243
 20
79.1187
 30
0.0
 10
-35.8243
 20
79.1187
 30
0.0
  0
SPLINE
  5
4B
330
1F
100
AcDbEntity
  8
layer 1
 62
     7
100
AcDbSpline
210
0.0
220
0.0
230
1.0
 70
    11
 71
     3
 72
    20
 73
    16
 74
     0
 42
0.0000000001
 43
0.0000000001
 12
1.0
 22
0.0
 32
0.0
 13
1.0
 23
0.0
 33
0.0
 40
0.0
 40
0.0
 40
0.0
 40
0.0
 40
0.2
 40
0.2
 40
0.2
 40
0.2
 40
0.4
 40
0.4
 40
0.4
 40
0.4
 40
0.6
 40
0.6
 40
0.6
 40
0.6
 40
1.0
 40
1.0
 40
1.0
 40
1.0
 10
58.1798
 20
5.3615
 30
0.0
 10
58.1798
 20
5.3615
 30
0.0
 10
58.1821
 20
-5.5093
 30
0.0
 10
58.1821
 20
-5.5093
 30
0.0
 10
58.1821
 20
-5.5093
 30
0.0
 10
54.1748
 20
-5.7973
 30
0.0
 10
47.9624
 20
-7.2237
 30
0.0
 10
44.8644
 20
-8.6224
 30
0.0
 10
44.8644
 20
-8.6224
 30
0.0
 10
46.1188
 20
-6.0522
 30
0.0
 10
47.716
 20
0.2136
 30
0.0
 10
47.7739
 20
5.3871
 30
0.0
 10
47.7739
 20
5.3871
 30
0.0
 10
47.7739
 20
5.3871
 30
0.0
 10
58.1798
 20
5.3615
 30
0.0
 10
58.1798
 20
5.3615
 30
0.0
  0
SPLINE
  5
4C
330
1F
100
AcDbEntity
  8
layer 1
 62
     7
100
AcDbSpline
210
0.0
220
0.0
230
1.0
 70
    11
 71
     3
 72
    20
 73
    16
 74
     0
 42
0.0000000001
 43
0.0000000001
 12
1.0
 22
0.0
 32
0.0
 13
1.0
 23
0.0
 33
0.0
 40
0.0
 40
0.0
 40
0.0
 40
0.0
 40
0.2
 40
0.2
 40
0.2
 40
0.2
 40
0.4
 40
0.4
 40
0.4
 40
0.4
 40
0.6
 40
0.6
 40
0.6
 40
0.6
 40
1.0
 40
1.0
 40
1.0
 40
1.0
 10
7.0444
 20
64.1352
 30
0.0
 10
7.0444
 20
64.1352
 30
0.0
 10
7.0422
 20
53.2644
 30
0.0
 10
7.0422
 20
53.2644
 30
0.0
 10
7.0422
 20
53.2644
 30
0.0
 10
11.0494
 20
52.9764
 30
0.0
 10
17.2618
 20
51.55
 30
0.0
 10
20.3598
 20
50.1513
 30
0.0
 10
20.3598
 20
50.1513
 30
0.0
 10
19.1054
 20
52.7215
 30
0.0
 10
17.5082
 20
58.9873
 30
0.0
 10
17.4503
 20
64.1608
 30
0.0
 10
17.4503
 20
64.1608
 30
0.0
 10
17.4503
 20
64.1608
 30
0.0
 10
7.0444
 20
64.1352
 30
0.0
 10
7.0444
 20
64.1352
 30
0.0
  0
SPLINE
  5
4D
330
1F
100
AcDbEntity
  8
layer 1
 62
     7
100
AcDbSpline
210
0.0
220
0.0
230
1.0
 70
    11
 71
     3
 72
    20
 73
    16
 74
     0
 42
0.0000000001
 43
0.0000000001
 12
1.0
 22
0.0
 32
0.0
 13
1.0
 23
0.0
 33
0.0
 40
0.0
 40
0.0
 40
0.0
 40
0.0
 40
0.2
 40
0.2
 40
0.2
 40
0.2
 40
0.4
 40
0.4
 40
0.4
 40
0.4
 40
0.6
 40
0.6
 40
0.6
 40
0.6
 40
1.0
 40
1.0
 40
1.0
 40
1.0
 10
58.1798
 20
10.6929
 30
0.0
 10
58.1798
 20
10.6929
 30
0.0
 10
58.1821
 20
21.5638
 30
0.0
 10
58.1821
 20
21.5638
 30
0.0
 10
58.1821
 20
21.5638
 30
0.0
 10
54.1748
 20
21.8517
 30
0.0
 10
47.9624
 20
23.2781
 30
0.0
 10
44.8644
 20
24.6769
 30
0.0
 10
44.8644
 20
24.6769
 30
0.0
 10
46.1188
 20
22.1067
 30
0.0
 10
47.716
 20
15.8408
 30
0.0
 10
47.7739
 20
10.6673
 30
0.0
 10
47.7739
 20
10.6673
 30
0.0
 10
47.7739
 20
10.6673
 30
0.0
 10
58.1798
 20
10.6929
 30
0.0
 10
58.1798
 20
10.6929
 30
0.0
  0
SPLINE
  5
4E
330
1F
100
AcDbEntity
  8
layer 1
 62
     7
100
AcDbSpline
210
0.0
220
0.0
230
1.0
 70
    11
 71
     3
 72
    20
 73
    16
 74
     0
 42
0.0000000001
 43
0.0000000001
 12
1.0
 22
0.0
 32
0.0
 13
1.0
 23
0.0
 33
0.0
 40
0.0
 40
0.0
 40
0.0
 40
0.0
 40
0.2
 40
0.2
 40
0.2
 40
0.2
 40
0.4
 40
0.4
 40
0.4
 40
0.4
 40
0.6
 40
0.6
 40
0.6
 40
0.6
 40
1.0
 40
1.0
 40
1.0
 40
1.0
 10
7.0444
 20
69.4666
 30
0.0
 10
7.0444
 20
69.4666
 30
0.0
 10
7.0422
 20
80.3375
 30
0.0
 10
7.0422
 20
80.3375
 30
0.0
 10
7.0422
 20
80.3375
 30
0.0
 10
11.0494
 20
80.6254
 30
0.0
 10
17.2618
 20
82.0518
 30
0.0
 10
20.3598
 20
83.4506
 30
0.0
 10
20.3598
 20
83.4506
 30
0.0
 10
19.1054
 20
80.8804
 30
0.0
 10
17.5082
 20
74.6145
 30
0.0
 10
17.4503
 20
69.4411
 30
0.0
 10
17.4503
 20
69.4411
 30
0.0
 10
17.4503
 20
69.4411
 30
0.0
 10
7.0444
 20
69.4666
 30
0.0
 10
7.0444
 20
69.4666
 30
0.0
  0
SPLINE
  5
4F
330
1F
100
AcDbEntity
  8
layer 1
 62
     7
100
AcDbSpline
210
0.0
220
0.0
230
1.0
 70
    11
 71
     3
 72
    16
 73
    12
 74
     0
 42
0.0000000001
 43
0.0000000001
 12
1.0
 22
0.0
 32
0.0
 13
1.0
 23
0.0
 33
0.0
 40
0.0
 40
0.0
 40
0.0
 40
0.0
 40
0.25
 40
0.25
 40
0.25
 40
0.25
 40
0.5
 40
0.5
 40
0.5
 40
0.5
 40
1.0
 40
1.0
 40
1.0
 40
1.0
 10
59.7523
 20
62.6225
 30
0.0
 10
59.7523
 20
62.6225
 30
0.0
 10
52.7344
 20
55.3338
 30
0.0
 10
52.7344
 20
55.3338
 30
0.0
 10
52.7344
 20
55.3338
 30
0.0
 10
53.4501
 20
51.2643
 30
0.0
 10
55.731
 20
48.0954
 30
0.0
 10
59.6769
 20
47.6283
 30
0.0
 10
59.6769
 20
47.6283
 30
0.0
 10
59.6769
 20
47.6283
 30
0.0
 10
59.7523
 20
62.6225
 30
0.0
 10
59.7523
 20
62.6225
 30
0.0
  0
SPLINE
  5
50
330
1F
100
AcDbEntity
  8
layer 1
 62
     7
100
AcDbSpline
210
0.0
220
0.0
230
1.0
 70
    11
 71
     3
 72
    16
 73
    12
 74
     0
 42
0.0000000001
 43
0.0000000001
 12
1.0
 22
0.0
 32
0.0
 13
1.0
 23
0.0
 33
0.0
 40
0.0
 40
0.0
 40
0.0
 40
0.0
 40
0.25
 40
0.25
 40
0.25
 40
0.25
 40
0.5
 40
0.5
 40
0.5
 40
0.5
 40
1.0
 40
1.0
 40
1.0
 40
1.0
 10
59.7523
 20
71.4482
 30
0.0
 10
59.7523
 20
71.4482
 30
0.0
 10
52.7344
 20
78.7369
 30
0.0
 10
52.7344
 20
78.7369
 30
0.0
 10
52.7344
 20
78.7369
 30
0.0
 10
53.4501
 20
82.8064
 30
0.0
 10
55.731
 20
85.9753
 30
0.0
 10
59.6769
 20
86.4424
 30
0.0
 10
59.6769
 20
86.4424
 30
0.0
 10
59.6769
 20
86.4424
 30
0.0
 10
59.7523
 20
71.4482
 30
0.0
 10
59.7523
 20
71.4482
 30
0.0
  0
SPLINE
  5
51
330
1F
100
AcDbEntity
  8
layer 1
 62
     7
100
AcDbSpline
210
0.0
220
0.0
230
1.0
 70
    11
 71
     3
 72
    20
 73
    16
 74
     0
 42
0.0000000001
 43
0.0000000001
 12
1.0
 22
0.0
 32
0.0
 13
1.0
 23
0.0
 33
0.0
 40
0.0
 40
0.0
 40
0.0
 40
0.0
 40
0.2
 40
0.2
 40
0.2
 40
0.2
 40
0.4
 40
0.4
 40
0.4
 40
0.4
 40
0.6
 40
0.6
 40
0.6
 40
0.6
 40
1.0
 40
1.0
 40
1.0
 40
1.0
 10
56.9484
 20
66.9228
 30
0.0
 10
56.9484
 20
66.9228
 30
0.0
 10
48.9877
 20
75.2172
 30
0.0
 10
48.9877
 20
75.2172
 30
0.0
 10
48.9877
 20
75.2172
 30
0.0
 10
44.9457
 20
74.3606
 30
0.0
 10
42.0178
 20
70.7175
 30
0.0
 10
41.8588
 20
67.1584
 30
0.0
 10
41.8588
 20
67.1584
 30
0.0
 10
41.6996
 20
63.5993
 30
0.0
 10
44.3719
 20
60.0613
 30
0.0
 10
48.9533
 20
58.9748
 30
0.0
 10
48.9533
 20
58.9748
 30
0.0
 10
48.9533
 20
58.9748
 30
0.0
 10
56.9484
 20
66.9228
 30
0.0
 10
56.9484
 20
66.9228
 30
0.0
  0
SPLINE
  5
52
330
1F
100
AcDbEntity
  8
layer 1
 62
     7
100
AcDbSpline
210
0.0
220
0.0
230
1.0
 70
    11
 71
     3
 72
    20
 73
    16
 74
     0
 42
0.0000000001
 43
0.0000000001
 12
1.0
 22
0.0
 32
0.0
 13
1.0
 23
0.0
 33
0.0
 40
0.0
 40
0.0
 40
0.0
 40
0.0
 40
0.2
 40
0.2
 40
0.2
 40
0.2
 40
0.4
 40
0.4
 40
0.4
 40
0.4
 40
0.6
 40
0.6
 40
0.6
 40
0.6
 40
1.0
 40
1.0
 40
1.0
 40
1.0
 10
58.1337
 20
91.4598
 30
0.0
 10
55.7929
 20
90.9341
 30
0.0
 10
53.452
 20
89.7001
 30
0.0
 10
51.7911
 20
87.9278
 30
0.0
 10
51.7911
 20
87.9278
 30
0.0
 10
51.7911
 20
87.9278
 30
0.0
 10
43.5509
 20
102.7718
 30
0.0
 10
43.5509
 20
102.7718
 30
0.0
 10
43.5509
 20
102.7718
 30
0.0
 10
47.8043
 20
105.5171
 30
0.0
 10
54.4808
 20
106.8936
 30
0.0
 10
58.1717
 20
106.9357
 30
0.0
 10
58.1717
 20
106.9357
 30
0.0
 10
58.1717
 20
106.9357
 30
0.0
 10
58.1337
 20
91.4598
 30
0.0
 10
58.1337
 20
91.4598
 30
0.0
  0
SPLINE
  5
53
330
1F
100
AcDbEntity
  8
layer 1
 62
     7
100
AcDbSpline
210
0.0
220
0.0
230
1.0
 70
    11
 71
     3
 72
    20
 73
    16
 74
     0
 42
0.0000000001
 43
0.0000000001
 12
1.0
 22
0.0
 32
0.0
 13
1.0
 23
0.0
 33
0.0
 40
0.0
 40
0.0
 40
0.0
 40
0.0
 40
0.2
 40
0.2
 40
0.2
 40
0.2
 40
0.4
 40
0.4
 40
0.4
 40
0.4
 40
0.6
 40
0.6
 40
0.6
 40
0.6
 40
1.0
 40
1.0
 40
1.0
 40
1.0
 10
58.1337
 20
42.4188
 30
0.0
 10
55.7929
 20
42.9444
 30
0.0
 10
53.452
 20
44.1784
 30
0.0
 10
51.7911
 20
45.9507
 30
0.0
 10
51.7911
 20
45.9507
 30
0.0
 10
51.7911
 20
45.9507
 30
0.0
 10
43.5509
 20
31.1068
 30
0.0
 10
43.5509
 20
31.1068
 30
0.0
 10
43.5509
 20
31.1068
 30
0.0
 10
47.8043
 20
28.3615
 30
0.0
 10
54.4808
 20
26.985
 30
0.0
 10
58.1717
 20
26.9429
 30
0.0
 10
58.1717
 20
26.9429
 30
0.0
 10
58.1717
 20
26.9429
 30
0.0
 10
58.1337
 20
42.4188
 30
0.0
 10
58.1337
 20
42.4188
 30
0.0
  0
SPLINE
  5
54
330
1F
100
AcDbEntity
  8
layer 1
 62
     7
100
AcDbSpline
210
0.0
220
0.0
230
1.0
 70
    11
 71
     3
 72
    20
 73
    16
 74
     0
 42
0.0000000001
 43
0.0000000001
 12
1.0
 22
0.0
 32
0.0
 13
1.0
 23
0.0
 33
0.0
 40
0.0
 40
0.0
 40
0.0
 40
0.0
 40
0.2
 40
0.2
 40
0.2
 40
0.2
 40
0.4
 40
0.4
 40
0.4
 40
0.4
 40
0.6
 40
0.6
 40
0.6
 40
0.6
 40
1.0
 40
1.0
 40
1.0
 40
1.0
 10
37.2015
 20
69.4601
 30
0.0
 10
37.7272
 20
71.8009
 30
0.0
 10
38.9612
 20
74.1418
 30
0.0
 10
40.7335
 20
75.8027
 30
0.0
 10
40.7335
 20
75.8027
 30
0.0
 10
40.7335
 20
75.8027
 30
0.0
 10
26.2316
 20
84.7284
 30
0.0
 10
26.2316
 20
84.7284
 30
0.0
 10
26.2316
 20
84.7284
 30
0.0
 10
23.6442
 20
80.4486
 30
0.0
 10
22.3731
 20
73.2447
 30
0.0
 10
22.2258
 20
69.4748
 30
0.0
 10
22.2258
 20
69.4748
 30
0.0
 10
22.2258
 20
69.4748
 30
0.0
 10
37.2015
 20
69.4601
 30
0.0
 10
37.2015
 20
69.4601
 30
0.0
  0
SPLINE
  5
55
330
1F
100
AcDbEntity
  8
layer 1
 62
     7
100
AcDbSpline
210
0.0
220
0.0
230
1.0
 70
    11
 71
     3
 72
    20
 73
    16
 74
     0
 42
0.0000000001
 43
0.0000000001
 12
1.0
 22
0.0
 32
0.0
 13
1.0
 23
0.0
 33
0.0
 40
0.0
 40
0.0
 40
0.0
 40
0.0
 40
0.2
 40
0.2
 40
0.2
 40
0.2
 40
0.4
 40
0.4
 40
0.4
 40
0.4
 40
0.6
 40
0.6
 40
0.6
 40
0.6
 40
1.0
 40
1.0
 40
1.0
 40
1.0
 10
37.2015
 20
64.3479
 30
0.0
 10
37.7272
 20
62.0072
 30
0.0
 10
38.9612
 20
59.6663
 30
0.0
 10
40.7335
 20
58.0053
 30
0.0
 10
40.7335
 20
58.0053
 30
0.0
 10
40.7335
 20
58.0053
 30
0.0
 10
26.2316
 20
49.0796
 30
0.0
 10
26.2316
 20
49.0796
 30
0.0
 10
26.2316
 20
49.0796
 30
0.0
 10
23.6442
 20
53.3594
 30
0.0
 10
22.3731
 20
60.5633
 30
0.0
 10
22.2258
 20
64.3332
 30
0.0
 10
22.2258
 20
64.3332
 30
0.0
 10
22.2258
 20
64.3332
 30
0.0
 10
37.2015
 20
64.3479
 30
0.0
 10
37.2015
 20
64.3479
 30
0.0
  0
SPLINE
  5
56
330
1F
100
AcDbEntity
  8
layer 1
 62
     7
100
AcDbSpline
210
0.0
220
0.0
230
1.0
 70
    11
 71
     3
 72
    24
 73
    20
 74
     0
 42
0.0000000001
 43
0.0000000001
 12
1.0
 22
0.0
 32
0.0
 13
1.0
 23
0.0
 33
0.0
 40
0.0
 40
0.0
 40
0.0
 40
0.0
 40
0.1666666666666667
 40
0.1666666666666667
 40
0.1666666666666667
 40
0.1666666666666667
 40
0.3333333333333333
 40
0.3333333333333333
 40
0.3333333333333333
 40
0.3333333333333333
 40
0.5
 40
0.5
 40
0.5
 40
0.5
 40
0.6666666666666666
 40
0.6666666666666666
 40
0.6666666666666666
 40
0.6666666666666666
 40
1.0
 40
1.0
 40
1.0
 40
1.0
 10
45.1575
 20
54.9128
 30
0.0
 10
46.355
 20
54.5259
 30
0.0
 10
47.6951
 20
53.9824
 30
0.0
 10
47.9057
 20
53.714
 30
0.0
 10
47.9057
 20
53.714
 30
0.0
 10
48.0961
 20
53.4715
 30
0.0
 10
48.5765
 20
52.2237
 30
0.0
 10
48.8716
 20
50.9759
 30
0.0
 10
48.8716
 20
50.9759
 30
0.0
 10
48.8716
 20
50.9759
 30
0.0
 10
39.8035
 20
34.3568
 30
0.0
 10
39.8035
 20
34.3568
 30
0.0
 10
39.8035
 20
34.3568
 30
0.0
 10
37.3246
 20
38.1945
 30
0.0
 10
33.1305
 20
42.2953
 30
0.0
 10
29.2287
 20
45.2468
 30
0.0
 10
29.2287
 20
45.2468
 30
0.0
 10
29.2287
 20
45.2468
 30
0.0
 10
45.1575
 20
54.9128
 30
0.0
 10
45.1575
 20
54.9128
 30
0.0
  0
SPLINE
  5
57
330
1F
100
AcDbEntity
  8
layer 1
 62
     7
100
AcDbSpline
210
0.0
220
0.0
230
1.0
 70
    11
 71
     3
 72
    24
 73
    20
 74
     0
 42
0.0000000001
 43
0.0000000001
 12
1.0
 22
0.0
 32
0.0
 13
1.0
 23
0.0
 33
0.0
 40
0.0
 40
0.0
 40
0.0
 40
0.0
 40
0.1666666666666667
 40
0.1666666666666667
 40
0.1666666666666667
 40
0.1666666666666667
 40
0.3333333333333333
 40
0.3333333333333333
 40
0.3333333333333333
 40
0.3333333333333333
 40
0.5
 40
0.5
 40
0.5
 40
0.5
 40
0.6666666666666666
 40
0.6666666666666666
 40
0.6666666666666666
 40
0.6666666666666666
 40
1.0
 40
1.0
 40
1.0
 40
1.0
 10
45.1575
 20
79.1187
 30
0.0
 10
46.355
 20
79.5056
 30
0.0
 10
47.6951
 20
80.0491
 30
0.0
 10
47.9057
 20
80.3175
 30
0.0
 10
47.9057
 20
80.3175
 30
0.0
 10
48.0961
 20
80.56
 30
0.0
 10
48.5765
 20
81.8078
 30
0.0
 10
48.8716
 20
83.0556
 30
0.0
 10
48.8716
 20
83.0556
 30
0.0
 10
48.8716
 20
83.0556
 30
0.0
 10
39.8035
 20
99.6747
 30
0.0
 10
39.8035
 20
99.6747
 30
0.0
 10
39.8035
 20
99.6747
 30
0.0
 10
37.3246
 20
95.837
 30
0.0
 10
33.1305
 20
91.7362
 30
0.0
 10
29.2287
 20
88.7848
 30
0.0
 10
29.2287
 20
88.7848
 30
0.0
 10
29.2287
 20
88.7848
 30
0.0
 10
45.1575
 20
79.1187
 30
0.0
 10
45.1575
 20
79.1187
 30
0.0
  0
SPLINE
  5
58
330
1F
100
AcDbEntity
  8
layer 1
 62
     7
100
AcDbSpline
210
0.0
220
0.0
230
1.0
 70
    11
 71
     3
 72
    16
 73
    12
 74
     0
 42
0.0000000001
 43
0.0000000001
 12
1.0
 22
0.0
 32
0.0
 13
1.0
 23
0.0
 33
0.0
 40
0.0
 40
0.0
 40
0.0
 40
0.0
 40
0.25
 40
0.25
 40
0.25
 40
0.25
 40
0.5
 40
0.5
 40
0.5
 40
0.5
 40
1.0
 40
1.0
 40
1.0
 40
1.0
 10
0.413
 20
124.8483
 30
0.0
 10
0.413
 20
124.8483
 30
0.0
 10
-6.8757
 20
117.8304
 30
0.0
 10
-6.8757
 20
117.8304
 30
0.0
 10
-6.8757
 20
117.8304
 30
0.0
 10
-10.7433
 20
118.8747
 30
0.0
 10
-12.8521
 20
121.1305
 30
0.0
 10
-13.7231
 20
124.7729
 30
0.0
 10
-13.7231
 20
124.7729
 30
0.0
 10
-13.7231
 20
124.7729
 30
0.0
 10
0.413
 20
124.8483
 30
0.0
 10
0.413
 20
124.8483
 30
0.0
  0
SPLINE
  5
59
330
1F
100
AcDbEntity
  8
layer 1
 62
     7
100
AcDbSpline
210
0.0
220
0.0
230
1.0
 70
    11
 71
     3
 72
    16
 73
    12
 74
     0
 42
0.0000000001
 43
0.0000000001
 12
1.0
 22
0.0
 32
0.0
 13
1.0
 23
0.0
 33
0.0
 40
0.0
 40
0.0
 40
0.0
 40
0.0
 40
0.25
 40
0.25
 40
0.25
 40
0.25
 40
0.5
 40
0.5
 40
0.5
 40
0.5
 40
1.0
 40
1.0
 40
1.0
 40
1.0
 10
9.2387
 20
124.8483
 30
0.0
 10
9.2387
 20
124.8483
 30
0.0
 10
16.5274
 20
117.8304
 30
0.0
 10
16.5274
 20
117.8304
 30
0.0
 10
16.5274
 20
117.8304
 30
0.0
 10
19.7916
 20
118.9574
 30
0.0
 10
22.8066
 20
120.8271
 30
0.0
 10
23.2737
 20
124.7729
 30
0.0
 10
23.2737
 20
124.7729
 30
0.0
 10
23.2737
 20
124.7729
 30
0.0
 10
9.2387
 20
124.8483
 30
0.0
 10
9.2387
 20
124.8483
 30
0.0
  0
SPLINE
  5
5A
330
1F
100
AcDbEntity
  8
layer 1
 62
     7
100
AcDbSpline
210
0.0
220
0.0
230
1.0
 70
    11
 71
     3
 72
    20
 73
    16
 74
     0
 42
0.0000000001
 43
0.0000000001
 12
1.0
 22
0.0
 32
0.0
 13
1.0
 23
0.0
 33
0.0
 40
0.0
 40
0.0
 40
0.0
 40
0.0
 40
0.2
 40
0.2
 40
0.2
 40
0.2
 40
0.4
 40
0.4
 40
0.4
 40
0.4
 40
0.6
 40
0.6
 40
0.6
 40
0.6
 40
1.0
 40
1.0
 40
1.0
 40
1.0
 10
4.5619
 20
122.1203
 30
0.0
 10
4.5619
 20
122.1203
 30
0.0
 10
12.6843
 20
113.6528
 30
0.0
 10
12.6843
 20
113.6528
 30
0.0
 10
12.6843
 20
113.6528
 30
0.0
 10
11.8277
 20
109.6108
 30
0.0
 10
8.2048
 20
106.6012
 30
0.0
 10
4.646
 20
106.4424
 30
0.0
 10
4.646
 20
106.4424
 30
0.0
 10
1.0872
 20
106.2836
 30
0.0
 10
-2.1482
 20
109.746
 30
0.0
 10
-3.2347
 20
114.0493
 30
0.0
 10
-3.2347
 20
114.0493
 30
0.0
 10
-3.2347
 20
114.0493
 30
0.0
 10
4.5619
 20
122.1203
 30
0.0
 10
4.5619
 20
122.1203
 30
0.0
  0
SPLINE
  5
5B
330
1F
100
AcDbEntity
  8
layer 1
 62
     7
100
AcDbSpline
210
0.0
220
0.0
230
1.0
 70
    11
 71
     3
 72
    20
 73
    16
 74
     0
 42
0.0000000001
 43
0.0000000001
 12
1.0
 22
0.0
 32
0.0
 13
1.0
 23
0.0
 33
0.0
 40
0.0
 40
0.0
 40
0.0
 40
0.0
 40
0.2
 40
0.2
 40
0.2
 40
0.2
 40
0.4
 40
0.4
 40
0.4
 40
0.4
 40
0.6
 40
0.6
 40
0.6
 40
0.6
 40
1.0
 40
1.0
 40
1.0
 40
1.0
 10
-18.5397
 20
123.6198
 30
0.0
 10
-18.3251
 20
121.1354
 30
0.0
 10
-16.9475
 20
118.268
 30
0.0
 10
-15.1034
 20
116.7986
 30
0.0
 10
-15.1034
 20
116.7986
 30
0.0
 10
-15.1034
 20
116.7986
 30
0.0
 10
-29.2773
 20
108.1515
 30
0.0
 10
-29.2773
 20
108.1515
 30
0.0
 10
-29.2773
 20
108.1515
 30
0.0
 10
-32.0226
 20
112.4049
 30
0.0
 10
-33.1836
 20
119.9648
 30
0.0
 10
-33.2256
 20
123.6557
 30
0.0
 10
-33.2256
 20
123.6557
 30
0.0
 10
-33.2256
 20
123.6557
 30
0.0
 10
-18.5397
 20
123.6198
 30
0.0
 10
-18.5397
 20
123.6198
 30
0.0
  0
SPLINE
  5
5C
330
1F
100
AcDbEntity
  8
layer 1
 62
     7
100
AcDbSpline
210
0.0
220
0.0
230
1.0
 70
    11
 71
     3
 72
    20
 73
    16
 74
     0
 42
0.0000000001
 43
0.0000000001
 12
1.0
 22
0.0
 32
0.0
 13
1.0
 23
0.0
 33
0.0
 40
0.0
 40
0.0
 40
0.0
 40
0.0
 40
0.2
 40
0.2
 40
0.2
 40
0.2
 40
0.4
 40
0.4
 40
0.4
 40
0.4
 40
0.6
 40
0.6
 40
0.6
 40
0.6
 40
1.0
 40
1.0
 40
1.0
 40
1.0
 10
2.1384
 20
101.4243
 30
0.0
 10
-0.2023
 20
101.95
 30
0.0
 10
-2.1605
 20
103.1301
 30
0.0
 10
-3.8214
 20
104.9024
 30
0.0
 10
-3.8214
 20
104.9024
 30
0.0
 10
-3.8214
 20
104.9024
 30
0.0
 10
-12.1278
 20
89.8982
 30
0.0
 10
-12.1278
 20
89.8982
 30
0.0
 10
-12.1278
 20
89.8982
 30
0.0
 10
-7.848
 20
87.3108
 30
0.0
 10
-1.6223
 20
86.0694
 30
0.0
 10
2.1476
 20
85.9221
 30
0.0
 10
2.1476
 20
85.9221
 30
0.0
 10
2.1476
 20
85.9221
 30
0.0
 10
2.1384
 20
101.4243
 30
0.0
 10
2.1384
 20
101.4243
 30
0.0
  0
SPLINE
  5
5D
330
1F
100
AcDbEntity
  8
layer 1
 62
     7
100
AcDbSpline
210
0.0
220
0.0
230
1.0
 70
    11
 71
     3
 72
    24
 73
    20
 74
     0
 42
0.0000000001
 43
0.0000000001
 12
1.0
 22
0.0
 32
0.0
 13
1.0
 23
0.0
 33
0.0
 40
0.0
 40
0.0
 40
0.0
 40
0.0
 40
0.1666666666666667
 40
0.1666666666666667
 40
0.1666666666666667
 40
0.1666666666666667
 40
0.3333333333333333
 40
0.3333333333333333
 40
0.3333333333333333
 40
0.3333333333333333
 40
0.5
 40
0.5
 40
0.5
 40
0.5
 40
0.6666666666666666
 40
0.6666666666666666
 40
0.6666666666666666
 40
0.6666666666666666
 40
1.0
 40
1.0
 40
1.0
 40
1.0
 10
-6.7384
 20
110.0757
 30
0.0
 10
-7.1253
 20
111.2732
 30
0.0
 10
-7.6688
 20
112.6132
 30
0.0
 10
-7.9372
 20
112.8239
 30
0.0
 10
-7.9372
 20
112.8239
 30
0.0
 10
-8.1798
 20
113.0143
 30
0.0
 10
-9.4275
 20
113.4947
 30
0.0
 10
-10.6753
 20
113.7898
 30
0.0
 10
-10.6753
 20
113.7898
 30
0.0
 10
-10.6753
 20
113.7898
 30
0.0
 10
-26.3066
 20
104.0366
 30
0.0
 10
-26.3066
 20
104.0366
 30
0.0
 10
-26.3066
 20
104.0366
 30
0.0
 10
-22.4449
 20
101.3901
 30
0.0
 10
-18.3746
 20
97.0196
 30
0.0
 10
-15.9497
 20
93.1417
 30
0.0
 10
-15.9497
 20
93.1417
 30
0.0
 10
-15.9497
 20
93.1417
 30
0.0
 10
-6.7384
 20
110.0757
 30
0.0
 10
-6.7384
 20
110.0757
 30
0.0
  0
SPLINE
  5
5E
330
1F
100
AcDbEntity
  8
layer 1
 62
     7
100
AcDbSpline
210
0.0
220
0.0
230
1.0
 70
    11
 71
     3
 72
    20
 73
    16
 74
     0
 42
0.0000000001
 43
0.0000000001
 12
1.0
 22
0.0
 32
0.0
 13
1.0
 23
0.0
 33
0.0
 40
0.0
 40
0.0
 40
0.0
 40
0.0
 40
0.2
 40
0.2
 40
0.2
 40
0.2
 40
0.4
 40
0.4
 40
0.4
 40
0.4
 40
0.6
 40
0.6
 40
0.6
 40
0.6
 40
1.0
 40
1.0
 40
1.0
 40
1.0
 10
28.035
 20
123.6198
 30
0.0
 10
27.8205
 20
121.1354
 30
0.0
 10
26.4429
 20
118.268
 30
0.0
 10
24.5988
 20
116.7986
 30
0.0
 10
24.5988
 20
116.7986
 30
0.0
 10
24.5988
 20
116.7986
 30
0.0
 10
38.7727
 20
108.1515
 30
0.0
 10
38.7727
 20
108.1515
 30
0.0
 10
38.7727
 20
108.1515
 30
0.0
 10
41.5179
 20
112.4049
 30
0.0
 10
42.6789
 20
119.9648
 30
0.0
 10
42.721
 20
123.6557
 30
0.0
 10
42.721
 20
123.6557
 30
0.0
 10
42.721
 20
123.6557
 30
0.0
 10
28.035
 20
123.6198
 30
0.0
 10
28.035
 20
123.6198
 30
0.0
  0
SPLINE
  5
5F
330
1F
100
AcDbEntity
  8
layer 1
 62
     7
100
AcDbSpline
210
0.0
220
0.0
230
1.0
 70
    11
 71
     3
 72
    20
 73
    16
 74
     0
 42
0.0000000001
 43
0.0000000001
 12
1.0
 22
0.0
 32
0.0
 13
1.0
 23
0.0
 33
0.0
 40
0.0
 40
0.0
 40
0.0
 40
0.0
 40
0.2
 40
0.2
 40
0.2
 40
0.2
 40
0.4
 40
0.4
 40
0.4
 40
0.4
 40
0.6
 40
0.6
 40
0.6
 40
0.6
 40
1.0
 40
1.0
 40
1.0
 40
1.0
 10
7.3569
 20
101.4243
 30
0.0
 10
9.6977
 20
101.95
 30
0.0
 10
11.6558
 20
103.1301
 30
0.0
 10
13.3167
 20
104.9024
 30
0.0
 10
13.3167
 20
104.9024
 30
0.0
 10
13.3167
 20
104.9024
 30
0.0
 10
21.6231
 20
89.8982
 30
0.0
 10
21.6231
 20
89.8982
 30
0.0
 10
21.6231
 20
89.8982
 30
0.0
 10
17.3433
 20
87.3108
 30
0.0
 10
11.1176
 20
86.0694
 30
0.0
 10
7.3477
 20
85.9221
 30
0.0
 10
7.3477
 20
85.9221
 30
0.0
 10
7.3477
 20
85.9221
 30
0.0
 10
7.3569
 20
101.4243
 30
0.0
 10
7.3569
 20
101.4243
 30
0.0
  0
SPLINE
  5
60
330
1F
100
AcDbEntity
  8
layer 1
 62
     7
100
AcDbSpline
210
0.0
220
0.0
230
1.0
 70
    11
 71
     3
 72
    24
 73
    20
 74
     0
 42
0.0000000001
 43
0.0000000001
 12
1.0
 22
0.0
 32
0.0
 13
1.0
 23
0.0
 33
0.0
 40
0.0
 40
0.0
 40
0.0
 40
0.0
 40
0.1666666666666667
 40
0.1666666666666667
 40
0.1666666666666667
 40
0.1666666666666667
 40
0.3333333333333333
 40
0.3333333333333333
 40
0.3333333333333333
 40
0.3333333333333333
 40
0.5
 40
0.5
 40
0.5
 40
0.5
 40
0.6666666666666666
 40
0.6666666666666666
 40
0.6666666666666666
 40
0.6666666666666666
 40
1.0
 40
1.0
 40
1.0
 40
1.0
 10
16.2338
 20
110.0757
 30
0.0
 10
16.6206
 20
111.2732
 30
0.0
 10
17.1642
 20
112.6132
 30
0.0
 10
17.4325
 20
112.8239
 30
0.0
 10
17.4325
 20
112.8239
 30
0.0
 10
17.6751
 20
113.0143
 30
0.0
 10
18.9229
 20
113.4947
 30
0.0
 10
20.1706
 20
113.7898
 30
0.0
 10
20.1706
 20
113.7898
 30
0.0
 10
20.1706
 20
113.7898
 30
0.0
 10
35.8019
 20
104.0366
 30
0.0
 10
35.8019
 20
104.0366
 30
0.0
 10
35.8019
 20
104.0366
 30
0.0
 10
31.9403
 20
101.3901
 30
0.0
 10
27.8699
 20
97.0196
 30
0.0
 10
25.445
 20
93.1417
 30
0.0
 10
25.445
 20
93.1417
 30
0.0
 10
25.445
 20
93.1417
 30
0.0
 10
16.2338
 20
110.0757
 30
0.0
 10
16.2338
 20
110.0757
 30
0.0
  0
SPLINE
  5
61
330
1F
100
AcDbEntity
  8
layer 1
 62
     7
100
AcDbSpline
210
0.0
220
0.0
230
1.0
 70
    11
 71
     3
 72
    20
 73
    16
 74
     0
 42
0.0000000001
 43
0.0000000001
 12
1.0
 22
0.0
 32
0.0
 13
1.0
 23
0.0
 33
0.0
 40
0.0
 40
0.0
 40
0.0
 40
0.0
 40
0.2
 40
0.2
 40
0.2
 40
0.2
 40
0.4
 40
0.4
 40
0.4
 40
0.4
 40
0.6
 40
0.6
 40
0.6
 40
0.6
 40
1.0
 40
1.0
 40
1.0
 40
1.0
 10
4.5619
 20
4.5182
 30
0.0
 10
4.5619
 20
4.5182
 30
0.0
 10
12.6843
 20
-3.9494
 30
0.0
 10
12.6843
 20
-3.9494
 30
0.0
 10
12.6843
 20
-3.9494
 30
0.0
 10
11.8277
 20
-7.9914
 30
0.0
 10
8.2048
 20
-11.001
 30
0.0
 10
4.646
 20
-11.1597
 30
0.0
 10
4.646
 20
-11.1597
 30
0.0
 10
1.0872
 20
-11.3186
 30
0.0
 10
-2.1482
 20
-7.8562
 30
0.0
 10
-3.2347
 20
-3.5528
 30
0.0
 10
-3.2347
 20
-3.5528
 30
0.0
 10
-3.2347
 20
-3.5528
 30
0.0
 10
4.5619
 20
4.5182
 30
0.0
 10
4.5619
 20
4.5182
 30
0.0
  0
SPLINE
  5
62
330
1F
100
AcDbEntity
  8
layer 1
 62
     7
100
AcDbSpline
210
0.0
220
0.0
230
1.0
 70
    11
 71
     3
 72
    20
 73
    16
 74
     0
 42
0.0000000001
 43
0.0000000001
 12
1.0
 22
0.0
 32
0.0
 13
1.0
 23
0.0
 33
0.0
 40
0.0
 40
0.0
 40
0.0
 40
0.0
 40
0.2
 40
0.2
 40
0.2
 40
0.2
 40
0.4
 40
0.4
 40
0.4
 40
0.4
 40
0.6
 40
0.6
 40
0.6
 40
0.6
 40
1.0
 40
1.0
 40
1.0
 40
1.0
 10
-18.5397
 20
6.0176
 30
0.0
 10
-18.3251
 20
3.5333
 30
0.0
 10
-16.9475
 20
0.6659
 30
0.0
 10
-15.1034
 20
-0.8036
 30
0.0
 10
-15.1034
 20
-0.8036
 30
0.0
 10
-15.1034
 20
-0.8036
 30
0.0
 10
-29.2773
 20
-9.4506
 30
0.0
 10
-29.2773
 20
-9.4506
 30
0.0
 10
-29.2773
 20
-9.4506
 30
0.0
 10
-32.0226
 20
-5.1973
 30
0.0
 10
-33.1836
 20
2.3627
 30
0.0
 10
-33.2256
 20
6.0535
 30
0.0
 10
-33.2256
 20
6.0535
 30
0.0
 10
-33.2256
 20
6.0535
 30
0.0
 10
-18.5397
 20
6.0176
 30
0.0
 10
-18.5397
 20
6.0176
 30
0.0
  0
SPLINE
  5
63
330
1F
100
AcDbEntity
  8
layer 1
 62
     7
100
AcDbSpline
210
0.0
220
0.0
230
1.0
 70
    11
 71
     3
 72
    20
 73
    16
 74
     0
 42
0.0000000001
 43
0.0000000001
 12
1.0
 22
0.0
 32
0.0
 13
1.0
 23
0.0
 33
0.0
 40
0.0
 40
0.0
 40
0.0
 40
0.0
 40
0.2
 40
0.2
 40
0.2
 40
0.2
 40
0.4
 40
0.4
 40
0.4
 40
0.4
 40
0.6
 40
0.6
 40
0.6
 40
0.6
 40
1.0
 40
1.0
 40
1.0
 40
1.0
 10
2.1384
 20
-16.1778
 30
0.0
 10
-0.2023
 20
-15.6522
 30
0.0
 10
-2.1605
 20
-14.4721
 30
0.0
 10
-3.8214
 20
-12.6998
 30
0.0
 10
-3.8214
 20
-12.6998
 30
0.0
 10
-3.8214
 20
-12.6998
 30
0.0
 10
-12.1278
 20
-27.704
 30
0.0
 10
-12.1278
 20
-27.704
 30
0.0
 10
-12.1278
 20
-27.704
 30
0.0
 10
-7.848
 20
-30.2914
 30
0.0
 10
-1.6223
 20
-31.5328
 30
0.0
 10
2.1476
 20
-31.6801
 30
0.0
 10
2.1476
 20
-31.6801
 30
0.0
 10
2.1476
 20
-31.6801
 30
0.0
 10
2.1384
 20
-16.1778
 30
0.0
 10
2.1384
 20
-16.1778
 30
0.0
  0
SPLINE
  5
64
330
1F
100
AcDbEntity
  8
layer 1
 62
     7
100
AcDbSpline
210
0.0
220
0.0
230
1.0
 70
    11
 71
     3
 72
    24
 73
    20
 74
     0
 42
0.0000000001
 43
0.0000000001
 12
1.0
 22
0.0
 32
0.0
 13
1.0
 23
0.0
 33
0.0
 40
0.0
 40
0.0
 40
0.0
 40
0.0
 40
0.1666666666666667
 40
0.1666666666666667
 40
0.1666666666666667
 40
0.1666666666666667
 40
0.3333333333333333
 40
0.3333333333333333
 40
0.3333333333333333
 40
0.3333333333333333
 40
0.5
 40
0.5
 40
0.5
 40
0.5
 40
0.6666666666666666
 40
0.6666666666666666
 40
0.6666666666666666
 40
0.6666666666666666
 40
1.0
 40
1.0
 40
1.0
 40
1.0
 10
-6.7384
 20
-7.5265
 30
0.0
 10
-7.1253
 20
-6.3289
 30
0.0
 10
-7.6688
 20
-4.9889
 30
0.0
 10
-7.9372
 20
-4.7782
 30
0.0
 10
-7.9372
 20
-4.7782
 30
0.0
 10
-8.1798
 20
-4.5878
 30
0.0
 10
-9.4275
 20
-4.1074
 30
0.0
 10
-10.6753
 20
-3.8124
 30
0.0
 10
-10.6753
 20
-3.8124
 30
0.0
 10
-10.6753
 20
-3.8124
 30
0.0
 10
-26.3066
 20
-13.5655
 30
0.0
 10
-26.3066
 20
-13.5655
 30
0.0
 10
-26.3066
 20
-13.5655
 30
0.0
 10
-22.4449
 20
-16.212
 30
0.0
 10
-18.3746
 20
-20.5826
 30
0.0
 10
-15.9497
 20
-24.4604
 30
0.0
 10
-15.9497
 20
-24.4604
 30
0.0
 10
-15.9497
 20
-24.4604
 30
0.0
 10
-6.7384
 20
-7.5265
 30
0.0
 10
-6.7384
 20
-7.5265
 30
0.0
  0
SPLINE
  5
65
330
1F
100
AcDbEntity
  8
layer 1
 62
     7
100
AcDbSpline
210
0.0
220
0.0
230
1.0
 70
    11
 71
     3
 72
    20
 73
    16
 74
     0
 42
0.0000000001
 43
0.0000000001
 12
1.0
 22
0.0
 32
0.0
 13
1.0
 23
0.0
 33
0.0
 40
0.0
 40
0.0
 40
0.0
 40
0.0
 40
0.2
 40
0.2
 40
0.2
 40
0.2
 40
0.4
 40
0.4
 40
0.4
 40
0.4
 40
0.6
 40
0.6
 40
0.6
 40
0.6
 40
1.0
 40
1.0
 40
1.0
 40
1.0
 10
28.035
 20
6.0176
 30
0.0
 10
27.8205
 20
3.5333
 30
0.0
 10
26.4429
 20
0.6659
 30
0.0
 10
24.5988
 20
-0.8036
 30
0.0
 10
24.5988
 20
-0.8036
 30
0.0
 10
24.5988
 20
-0.8036
 30
0.0
 10
38.7727
 20
-9.4506
 30
0.0
 10
38.7727
 20
-9.4506
 30
0.0
 10
38.7727
 20
-9.4506
 30
0.0
 10
41.5179
 20
-5.1973
 30
0.0
 10
42.6789
 20
2.3627
 30
0.0
 10
42.721
 20
6.0535
 30
0.0
 10
42.721
 20
6.0535
 30
0.0
 10
42.721
 20
6.0535
 30
0.0
 10
28.035
 20
6.0176
 30
0.0
 10
28.035
 20
6.0176
 30
0.0
  0
SPLINE
  5
66
330
1F
100
AcDbEntity
  8
layer 1
 62
     7
100
AcDbSpline
210
0.0
220
0.0
230
1.0
 70
    11
 71
     3
 72
    20
 73
    16
 74
     0
 42
0.0000000001
 43
0.0000000001
 12
1.0
 22
0.0
 32
0.0
 13
1.0
 23
0.0
 33
0.0
 40
0.0
 40
0.0
 40
0.0
 40
0.0
 40
0.2
 40
0.2
 40
0.2
 40
0.2
 40
0.4
 40
0.4
 40
0.4
 40
0.4
 40
0.6
 40
0.6
 40
0.6
 40
0.6
 40
1.0
 40
1.0
 40
1.0
 40
1.0
 10
7.3569
 20
-16.1778
 30
0.0
 10
9.6977
 20
-15.6522
 30
0.0
 10
11.6558
 20
-14.4721
 30
0.0
 10
13.3167
 20
-12.6998
 30
0.0
 10
13.3167
 20
-12.6998
 30
0.0
 10
13.3167
 20
-12.6998
 30
0.0
 10
21.6231
 20
-27.704
 30
0.0
 10
21.6231
 20
-27.704
 30
0.0
 10
21.6231
 20
-27.704
 30
0.0
 10
17.3433
 20
-30.2914
 30
0.0
 10
11.1176
 20
-31.5328
 30
0.0
 10
7.3477
 20
-31.6801
 30
0.0
 10
7.3477
 20
-31.6801
 30
0.0
 10
7.3477
 20
-31.6801
 30
0.0
 10
7.3569
 20
-16.1778
 30
0.0
 10
7.3569
 20
-16.1778
 30
0.0
  0
SPLINE
  5
67
330
1F
100
AcDbEntity
  8
layer 1
 62
     7
100
AcDbSpline
210
0.0
220
0.0
230
1.0
 70
    11
 71
     3
 72
    24
 73
    20
 74
     0
 42
0.0000000001
 43
0.0000000001
 12
1.0
 22
0.0
 32
0.0
 13
1.0
 23
0.0
 33
0.0
 40
0.0
 40
0.0
 40
0.0
 40
0.0
 40
0.1666666666666667
 40
0.1666666666666667
 40
0.1666666666666667
 40
0.1666666666666667
 40
0.3333333333333333
 40
0.3333333333333333
 40
0.3333333333333333
 40
0.3333333333333333
 40
0.5
 40
0.5
 40
0.5
 40
0.5
 40
0.6666666666666666
 40
0.6666666666666666
 40
0.6666666666666666
 40
0.6666666666666666
 40
1.0
 40
1.0
 40
1.0
 40
1.0
 10
16.2338
 20
-7.5265
 30
0.0
 10
16.6206
 20
-6.3289
 30
0.0
 10
17.1642
 20
-4.9889
 30
0.0
 10
17.4325
 20
-4.7782
 30
0.0
 10
17.4325
 20
-4.7782
 30
0.0
 10
17.6751
 20
-4.5878
 30
0.0
 10
18.9229
 20
-4.1074
 30
0.0
 10
20.1706
 20
-3.8124
 30
0.0
 10
20.1706
 20
-3.8124
 30
0.0
 10
20.1706
 20
-3.8124
 30
0.0
 10
35.8019
 20
-13.5655
 30
0.0
 10
35.8019
 20
-13.5655
 30
0.0
 10
35.8019
 20
-13.5655
 30
0.0
 10
31.9403
 20
-16.212
 30
0.0
 10
27.8699
 20
-20.5826
 30
0.0
 10
25.445
 20
-24.4604
 30
0.0
 10
25.445
 20
-24.4604
 30
0.0
 10
25.445
 20
-24.4604
 30
0.0
 10
16.2338
 20
-7.5265
 30
0.0
 10
16.2338
 20
-7.5265
 30
0.0
  0
SPLINE
  5
68
330
1F
100
AcDbEntity
  8
layer 1
 62
     7
100
AcDbSpline
210
0.0
220
0.0
230
1.0
 70
    11
 71
     3
 72
    20
 73
    16
 74
     0
 42
0.0000000001
 43
0.0000000001
 12
1.0
 22
0.0
 32
0.0
 13
1.0
 23
0.0
 33
0.0
 40
0.0
 40
0.0
 40
0.0
 40
0.0
 40
0.2
 40
0.2
 40
0.2
 40
0.2
 40
0.4
 40
0.4
 40
0.4
 40
0.4
 40
0.6
 40
0.6
 40
0.6
 40
0.6
 40
1.0
 40
1.0
 40
1.0
 40
1.0
 10
4.6477
 20
12.1135
 30
0.0
 10
4.6477
 20
12.1135
 30
0.0
 10
12.7702
 20
20.5811
 30
0.0
 10
12.7702
 20
20.5811
 30
0.0
 10
12.7702
 20
20.5811
 30
0.0
 10
11.9136
 20
24.623
 30
0.0
 10
8.2907
 20
27.6327
 30
0.0
 10
4.7319
 20
27.7914
 30
0.0
 10
4.7319
 20
27.7914
 30
0.0
 10
1.173
 20
27.9502
 30
0.0
 10
-2.0624
 20
24.4878
 30
0.0
 10
-3.1488
 20
20.1845
 30
0.0
 10
-3.1488
 20
20.1845
 30
0.0
 10
-3.1488
 20
20.1845
 30
0.0
 10
4.6477
 20
12.1135
 30
0.0
 10
4.6477
 20
12.1135
 30
0.0
  0
SPLINE
  5
69
330
1F
100
AcDbEntity
  8
layer 1
 62
     7
100
AcDbSpline
210
0.0
220
0.0
230
1.0
 70
    11
 71
     3
 72
    20
 73
    16
 74
     0
 42
0.0000000001
 43
0.0000000001
 12
1.0
 22
0.0
 32
0.0
 13
1.0
 23
0.0
 33
0.0
 40
0.0
 40
0.0
 40
0.0
 40
0.0
 40
0.2
 40
0.2
 40
0.2
 40
0.2
 40
0.4
 40
0.4
 40
0.4
 40
0.4
 40
0.6
 40
0.6
 40
0.6
 40
0.6
 40
1.0
 40
1.0
 40
1.0
 40
1.0
 10
-18.5397
 20
10.5246
 30
0.0
 10
-18.3251
 20
13.009
 30
0.0
 10
-16.9475
 20
15.8764
 30
0.0
 10
-15.1034
 20
17.3459
 30
0.0
 10
-15.1034
 20
17.3459
 30
0.0
 10
-15.1034
 20
17.3459
 30
0.0
 10
-29.2773
 20
25.9929
 30
0.0
 10
-29.2773
 20
25.9929
 30
0.0
 10
-29.2773
 20
25.9929
 30
0.0
 10
-32.0226
 20
21.7395
 30
0.0
 10
-33.1836
 20
14.1796
 30
0.0
 10
-33.2256
 20
10.4887
 30
0.0
 10
-33.2256
 20
10.4887
 30
0.0
 10
-33.2256
 20
10.4887
 30
0.0
 10
-18.5397
 20
10.5246
 30
0.0
 10
-18.5397
 20
10.5246
 30
0.0
  0
SPLINE
  5
6A
330
1F
100
AcDbEntity
  8
layer 1
 62
     7
100
AcDbSpline
210
0.0
220
0.0
230
1.0
 70
    11
 71
     3
 72
    20
 73
    16
 74
     0
 42
0.0000000001
 43
0.0000000001
 12
1.0
 22
0.0
 32
0.0
 13
1.0
 23
0.0
 33
0.0
 40
0.0
 40
0.0
 40
0.0
 40
0.0
 40
0.2
 40
0.2
 40
0.2
 40
0.2
 40
0.4
 40
0.4
 40
0.4
 40
0.4
 40
0.6
 40
0.6
 40
0.6
 40
0.6
 40
1.0
 40
1.0
 40
1.0
 40
1.0
 10
2.1384
 20
32.7201
 30
0.0
 10
-0.2023
 20
32.1944
 30
0.0
 10
-2.1605
 20
31.0144
 30
0.0
 10
-3.8214
 20
29.242
 30
0.0
 10
-3.8214
 20
29.242
 30
0.0
 10
-3.8214
 20
29.242
 30
0.0
 10
-12.1278
 20
44.2463
 30
0.0
 10
-12.1278
 20
44.2463
 30
0.0
 10
-12.1278
 20
44.2463
 30
0.0
 10
-7.848
 20
46.8336
 30
0.0
 10
-1.6223
 20
48.0751
 30
0.0
 10
2.1476
 20
48.2224
 30
0.0
 10
2.1476
 20
48.2224
 30
0.0
 10
2.1476
 20
48.2224
 30
0.0
 10
2.1384
 20
32.7201
 30
0.0
 10
2.1384
 20
32.7201
 30
0.0
  0
SPLINE
  5
6B
330
1F
100
AcDbEntity
  8
layer 1
 62
     7
100
AcDbSpline
210
0.0
220
0.0
230
1.0
 70
    11
 71
     3
 72
    24
 73
    20
 74
     0
 42
0.0000000001
 43
0.0000000001
 12
1.0
 22
0.0
 32
0.0
 13
1.0
 23
0.0
 33
0.0
 40
0.0
 40
0.0
 40
0.0
 40
0.0
 40
0.1666666666666667
 40
0.1666666666666667
 40
0.1666666666666667
 40
0.1666666666666667
 40
0.3333333333333333
 40
0.3333333333333333
 40
0.3333333333333333
 40
0.3333333333333333
 40
0.5
 40
0.5
 40
0.5
 40
0.5
 40
0.6666666666666666
 40
0.6666666666666666
 40
0.6666666666666666
 40
0.6666666666666666
 40
1.0
 40
1.0
 40
1.0
 40
1.0
 10
-6.7384
 20
24.0687
 30
0.0
 10
-7.1253
 20
22.8712
 30
0.0
 10
-7.6688
 20
21.5312
 30
0.0
 10
-7.9372
 20
21.3205
 30
0.0
 10
-7.9372
 20
21.3205
 30
0.0
 10
-8.1798
 20
21.1301
 30
0.0
 10
-9.4275
 20
20.6497
 30
0.0
 10
-10.6753
 20
20.3546
 30
0.0
 10
-10.6753
 20
20.3546
 30
0.0
 10
-10.6753
 20
20.3546
 30
0.0
 10
-26.3066
 20
30.1078
 30
0.0
 10
-26.3066
 20
30.1078
 30
0.0
 10
-26.3066
 20
30.1078
 30
0.0
 10
-22.4449
 20
32.7543
 30
0.0
 10
-18.3746
 20
37.1248
 30
0.0
 10
-15.9497
 20
41.0027
 30
0.0
 10
-15.9497
 20
41.0027
 30
0.0
 10
-15.9497
 20
41.0027
 30
0.0
 10
-6.7384
 20
24.0687
 30
0.0
 10
-6.7384
 20
24.0687
 30
0.0
  0
SPLINE
  5
6C
330
1F
100
AcDbEntity
  8
layer 1
 62
     7
100
AcDbSpline
210
0.0
220
0.0
230
1.0
 70
    11
 71
     3
 72
    20
 73
    16
 74
     0
 42
0.0000000001
 43
0.0000000001
 12
1.0
 22
0.0
 32
0.0
 13
1.0
 23
0.0
 33
0.0
 40
0.0
 40
0.0
 40
0.0
 40
0.0
 40
0.2
 40
0.2
 40
0.2
 40
0.2
 40
0.4
 40
0.4
 40
0.4
 40
0.4
 40
0.6
 40
0.6
 40
0.6
 40
0.6
 40
1.0
 40
1.0
 40
1.0
 40
1.0
 10
28.035
 20
10.5246
 30
0.0
 10
27.8205
 20
13.009
 30
0.0
 10
26.4429
 20
15.8764
 30
0.0
 10
24.5988
 20
17.3459
 30
0.0
 10
24.5988
 20
17.3459
 30
0.0
 10
24.5988
 20
17.3459
 30
0.0
 10
38.7727
 20
25.9929
 30
0.0
 10
38.7727
 20
25.9929
 30
0.0
 10
38.7727
 20
25.9929
 30
0.0
 10
41.5179
 20
21.7395
 30
0.0
 10
42.6789
 20
14.1796
 30
0.0
 10
42.721
 20
10.4887
 30
0.0
 10
42.721
 20
10.4887
 30
0.0
 10
42.721
 20
10.4887
 30
0.0
 10
28.035
 20
10.5246
 30
0.0
 10
28.035
 20
10.5246
 30
0.0
  0
SPLINE
  5
6D
330
1F
100
AcDbEntity
  8
layer 1
 62
     7
100
AcDbSpline
210
0.0
220
0.0
230
1.0
 70
    11
 71
     3
 72
    20
 73
    16
 74
     0
 42
0.0000000001
 43
0.0000000001
 12
1.0
 22
0.0
 32
0.0
 13
1.0
 23
0.0
 33
0.0
 40
0.0
 40
0.0
 40
0.0
 40
0.0
 40
0.2
 40
0.2
 40
0.2
 40
0.2
 40
0.4
 40
0.4
 40
0.4
 40
0.4
 40
0.6
 40
0.6
 40
0.6
 40
0.6
 40
1.0
 40
1.0
 40
1.0
 40
1.0
 10
7.3569
 20
32.7201
 30
0.0
 10
9.6977
 20
32.1944
 30
0.0
 10
11.6558
 20
31.0144
 30
0.0
 10
13.3167
 20
29.242
 30
0.0
 10
13.3167
 20
29.242
 30
0.0
 10
13.3167
 20
29.242
 30
0.0
 10
21.6231
 20
44.2463
 30
0.0
 10
21.6231
 20
44.2463
 30
0.0
 10
21.6231
 20
44.2463
 30
0.0
 10
17.3433
 20
46.8336
 30
0.0
 10
11.1176
 20
48.0751
 30
0.0
 10
7.3477
 20
48.2224
 30
0.0
 10
7.3477
 20
48.2224
 30
0.0
 10
7.3477
 20
48.2224
 30
0.0
 10
7.3569
 20
32.7201
 30
0.0
 10
7.3569
 20
32.7201
 30
0.0
  0
SPLINE
  5
6E
330
1F
100
AcDbEntity
  8
layer 1
 62
     7
100
AcDbSpline
210
0.0
220
0.0
230
1.0
 70
    11
 71
     3
 72
    24
 73
    20
 74
     0
 42
0.0000000001
 43
0.0000000001
 12
1.0
 22
0.0
 32
0.0
 13
1.0
 23
0.0
 33
0.0
 40
0.0
 40
0.0
 40
0.0
 40
0.0
 40
0.1666666666666667
 40
0.1666666666666667
 40
0.1666666666666667
 40
0.1666666666666667
 40
0.3333333333333333
 40
0.3333333333333333
 40
0.3333333333333333
 40
0.3333333333333333
 40
0.5
 40
0.5
 40
0.5
 40
0.5
 40
0.6666666666666666
 40
0.6666666666666666
 40
0.6666666666666666
 40
0.6666666666666666
 40
1.0
 40
1.0
 40
1.0
 40
1.0
 10
16.2338
 20
24.0687
 30
0.0
 10
16.6206
 20
22.8712
 30
0.0
 10
17.1642
 20
21.5312
 30
0.0
 10
17.4325
 20
21.3205
 30
0.0
 10
17.4325
 20
21.3205
 30
0.0
 10
17.6751
 20
21.1301
 30
0.0
 10
18.9229
 20
20.6497
 30
0.0
 10
20.1706
 20
20.3546
 30
0.0
 10
20.1706
 20
20.3546
 30
0.0
 10
20.1706
 20
20.3546
 30
0.0
 10
35.8019
 20
30.1078
 30
0.0
 10
35.8019
 20
30.1078
 30
0.0
 10
35.8019
 20
30.1078
 30
0.0
 10
31.9403
 20
32.7543
 30
0.0
 10
27.8699
 20
37.1248
 30
0.0
 10
25.445
 20
41.0027
 30
0.0
 10
25.445
 20
41.0027
 30
0.0
 10
25.445
 20
41.0027
 30
0.0
 10
16.2338
 20
24.0687
 30
0.0
 10
16.2338
 20
24.0687
 30
0.0
  0
SPLINE
  5
6F
330
1F
100
AcDbEntity
  8
layer 1
 62
     7
100
AcDbSpline
210
0.0
220
0.0
230
1.0
 70
    11
 71
     3
 72
    16
 73
    12
 74
     0
 42
0.0000000001
 43
0.0000000001
 12
1.0
 22
0.0
 32
0.0
 13
1.0
 23
0.0
 33
0.0
 40
0.0
 40
0.0
 40
0.0
 40
0.0
 40
0.25
 40
0.25
 40
0.25
 40
0.25
 40
0.5
 40
0.5
 40
0.5
 40
0.5
 40
1.0
 40
1.0
 40
1.0
 40
1.0
 10
-50.3756
 20
-46.2365
 30
0.0
 10
-50.3756
 20
-46.2365
 30
0.0
 10
-43.3577
 20
-38.9477
 30
0.0
 10
-43.3577
 20
-38.9477
 30
0.0
 10
-43.3577
 20
-38.9477
 30
0.0
 10
-44.0735
 20
-34.8782
 30
0.0
 10
-46.3544
 20
-31.7093
 30
0.0
 10
-50.3002
 20
-31.2423
 30
0.0
 10
-50.3002
 20
-31.2423
 30
0.0
 10
-50.3002
 20
-31.2423
 30
0.0
 10
-50.3756
 20
-46.2365
 30
0.0
 10
-50.3756
 20
-46.2365
 30
0.0
  0
SPLINE
  5
70
330
1F
100
AcDbEntity
  8
layer 1
 62
     7
100
AcDbSpline
210
0.0
220
0.0
230
1.0
 70
    11
 71
     3
 72
    16
 73
    12
 74
     0
 42
0.0000000001
 43
0.0000000001
 12
1.0
 22
0.0
 32
0.0
 13
1.0
 23
0.0
 33
0.0
 40
0.0
 40
0.0
 40
0.0
 40
0.0
 40
0.25
 40
0.25
 40
0.25
 40
0.25
 40
0.5
 40
0.5
 40
0.5
 40
0.5
 40
1.0
 40
1.0
 40
1.0
 40
1.0
 10
-50.3756
 20
-55.0622
 30
0.0
 10
-50.3756
 20
-55.0622
 30
0.0
 10
-43.3577
 20
-62.3509
 30
0.0
 10
-43.3577
 20
-62.3509
 30
0.0
 10
-43.3577
 20
-62.3509
 30
0.0
 10
-44.0735
 20
-66.4204
 30
0.0
 10
-46.3544
 20
-69.5893
 30
0.0
 10
-50.3002
 20
-70.0564
 30
0.0
 10
-50.3002
 20
-70.0564
 30
0.0
 10
-50.3002
 20
-70.0564
 30
0.0
 10
-50.3756
 20
-55.0622
 30
0.0
 10
-50.3756
 20
-55.0622
 30
0.0
  0
SPLINE
  5
71
330
1F
100
AcDbEntity
  8
layer 1
 62
     7
100
AcDbSpline
210
0.0
220
0.0
230
1.0
 70
    11
 71
     3
 72
    20
 73
    16
 74
     0
 42
0.0000000001
 43
0.0000000001
 12
1.0
 22
0.0
 32
0.0
 13
1.0
 23
0.0
 33
0.0
 40
0.0
 40
0.0
 40
0.0
 40
0.0
 40
0.2
 40
0.2
 40
0.2
 40
0.2
 40
0.4
 40
0.4
 40
0.4
 40
0.4
 40
0.6
 40
0.6
 40
0.6
 40
0.6
 40
1.0
 40
1.0
 40
1.0
 40
1.0
 10
-47.5718
 20
-50.5367
 30
0.0
 10
-47.5718
 20
-50.5367
 30
0.0
 10
-39.611
 20
-58.8311
 30
0.0
 10
-39.611
 20
-58.8311
 30
0.0
 10
-39.611
 20
-58.8311
 30
0.0
 10
-35.569
 20
-57.9745
 30
0.0
 10
-32.6411
 20
-54.3314
 30
0.0
 10
-32.4821
 20
-50.7723
 30
0.0
 10
-32.4821
 20
-50.7723
 30
0.0
 10
-32.323
 20
-47.2133
 30
0.0
 10
-34.9952
 20
-43.6752
 30
0.0
 10
-39.5766
 20
-42.5888
 30
0.0
 10
-39.5766
 20
-42.5888
 30
0.0
 10
-39.5766
 20
-42.5888
 30
0.0
 10
-47.5718
 20
-50.5367
 30
0.0
 10
-47.5718
 20
-50.5367
 30
0.0
  0
SPLINE
  5
72
330
1F
100
AcDbEntity
  8
layer 1
 62
     7
100
AcDbSpline
210
0.0
220
0.0
230
1.0
 70
    11
 71
     3
 72
    20
 73
    16
 74
     0
 42
0.0000000001
 43
0.0000000001
 12
1.0
 22
0.0
 32
0.0
 13
1.0
 23
0.0
 33
0.0
 40
0.0
 40
0.0
 40
0.0
 40
0.0
 40
0.2
 40
0.2
 40
0.2
 40
0.2
 40
0.4
 40
0.4
 40
0.4
 40
0.4
 40
0.6
 40
0.6
 40
0.6
 40
0.6
 40
1.0
 40
1.0
 40
1.0
 40
1.0
 10
-48.7571
 20
-75.0738
 30
0.0
 10
-46.4163
 20
-74.5481
 30
0.0
 10
-44.0754
 20
-73.3141
 30
0.0
 10
-42.4145
 20
-71.5418
 30
0.0
 10
-42.4145
 20
-71.5418
 30
0.0
 10
-42.4145
 20
-71.5418
 30
0.0
 10
-34.1743
 20
-86.3858
 30
0.0
 10
-34.1743
 20
-86.3858
 30
0.0
 10
-34.1743
 20
-86.3858
 30
0.0
 10
-38.4276
 20
-89.131
 30
0.0
 10
-45.1042
 20
-90.5075
 30
0.0
 10
-48.795
 20
-90.5496
 30
0.0
 10
-48.795
 20
-90.5496
 30
0.0
 10
-48.795
 20
-90.5496
 30
0.0
 10
-48.7571
 20
-75.0738
 30
0.0
 10
-48.7571
 20
-75.0738
 30
0.0
  0
SPLINE
  5
73
330
1F
100
AcDbEntity
  8
layer 1
 62
     7
100
AcDbSpline
210
0.0
220
0.0
230
1.0
 70
    11
 71
     3
 72
    20
 73
    16
 74
     0
 42
0.0000000001
 43
0.0000000001
 12
1.0
 22
0.0
 32
0.0
 13
1.0
 23
0.0
 33
0.0
 40
0.0
 40
0.0
 40
0.0
 40
0.0
 40
0.2
 40
0.2
 40
0.2
 40
0.2
 40
0.4
 40
0.4
 40
0.4
 40
0.4
 40
0.6
 40
0.6
 40
0.6
 40
0.6
 40
1.0
 40
1.0
 40
1.0
 40
1.0
 10
-48.7571
 20
-26.0327
 30
0.0
 10
-46.4163
 20
-26.5584
 30
0.0
 10
-44.0754
 20
-27.7924
 30
0.0
 10
-42.4145
 20
-29.5647
 30
0.0
 10
-42.4145
 20
-29.5647
 30
0.0
 10
-42.4145
 20
-29.5647
 30
0.0
 10
-34.1743
 20
-14.7207
 30
0.0
 10
-34.1743
 20
-14.7207
 30
0.0
 10
-34.1743
 20
-14.7207
 30
0.0
 10
-38.4276
 20
-11.9754
 30
0.0
 10
-45.1042
 20
-10.599
 30
0.0
 10
-48.795
 20
-10.5569
 30
0.0
 10
-48.795
 20
-10.5569
 30
0.0
 10
-48.795
 20
-10.5569
 30
0.0
 10
-48.7571
 20
-26.0327
 30
0.0
 10
-48.7571
 20
-26.0327
 30
0.0
  0
SPLINE
  5
74
330
1F
100
AcDbEntity
  8
layer 1
 62
     7
100
AcDbSpline
210
0.0
220
0.0
230
1.0
 70
    11
 71
     3
 72
    20
 73
    16
 74
     0
 42
0.0000000001
 43
0.0000000001
 12
1.0
 22
0.0
 32
0.0
 13
1.0
 23
0.0
 33
0.0
 40
0.0
 40
0.0
 40
0.0
 40
0.0
 40
0.2
 40
0.2
 40
0.2
 40
0.2
 40
0.4
 40
0.4
 40
0.4
 40
0.4
 40
0.6
 40
0.6
 40
0.6
 40
0.6
 40
1.0
 40
1.0
 40
1.0
 40
1.0
 10
-27.8249
 20
-53.074
 30
0.0
 10
-28.3506
 20
-55.4148
 30
0.0
 10
-29.5846
 20
-57.7557
 30
0.0
 10
-31.3569
 20
-59.4166
 30
0.0
 10
-31.3569
 20
-59.4166
 30
0.0
 10
-31.3569
 20
-59.4166
 30
0.0
 10
-16.8549
 20
-68.3423
 30
0.0
 10
-16.8549
 20
-68.3423
 30
0.0
 10
-16.8549
 20
-68.3423
 30
0.0
 10
-14.2676
 20
-64.0626
 30
0.0
 10
-12.9964
 20
-56.8587
 30
0.0
 10
-12.8491
 20
-53.0888
 30
0.0
 10
-12.8491
 20
-53.0888
 30
0.0
 10
-12.8491
 20
-53.0888
 30
0.0
 10
-27.8249
 20
-53.074
 30
0.0
 10
-27.8249
 20
-53.074
 30
0.0
  0
SPLINE
  5
75
330
1F
100
AcDbEntity
  8
layer 1
 62
     7
100
AcDbSpline
210
0.0
220
0.0
230
1.0
 70
    11
 71
     3
 72
    20
 73
    16
 74
     0
 42
0.0000000001
 43
0.0000000001
 12
1.0
 22
0.0
 32
0.0
 13
1.0
 23
0.0
 33
0.0
 40
0.0
 40
0.0
 40
0.0
 40
0.0
 40
0.2
 40
0.2
 40
0.2
 40
0.2
 40
0.4
 40
0.4
 40
0.4
 40
0.4
 40
0.6
 40
0.6
 40
0.6
 40
0.6
 40
1.0
 40
1.0
 40
1.0
 40
1.0
 10
-27.8249
 20
-47.9619
 30
0.0
 10
-28.3506
 20
-45.6211
 30
0.0
 10
-29.5846
 20
-43.2802
 30
0.0
 10
-31.3569
 20
-41.6193
 30
0.0
 10
-31.3569
 20
-41.6193
 30
0.0
 10
-31.3569
 20
-41.6193
 30
0.0
 10
-16.8549
 20
-32.6936
 30
0.0
 10
-16.8549
 20
-32.6936
 30
0.0
 10
-16.8549
 20
-32.6936
 30
0.0
 10
-14.2676
 20
-36.9734
 30
0.0
 10
-12.9964
 20
-44.1772
 30
0.0
 10
-12.8491
 20
-47.9472
 30
0.0
 10
-12.8491
 20
-47.9472
 30
0.0
 10
-12.8491
 20
-47.9472
 30
0.0
 10
-27.8249
 20
-47.9619
 30
0.0
 10
-27.8249
 20
-47.9619
 30
0.0
  0
SPLINE
  5
76
330
1F
100
AcDbEntity
  8
layer 1
 62
     7
100
AcDbSpline
210
0.0
220
0.0
230
1.0
 70
    11
 71
     3
 72
    24
 73
    20
 74
     0
 42
0.0000000001
 43
0.0000000001
 12
1.0
 22
0.0
 32
0.0
 13
1.0
 23
0.0
 33
0.0
 40
0.0
 40
0.0
 40
0.0
 40
0.0
 40
0.1666666666666667
 40
0.1666666666666667
 40
0.1666666666666667
 40
0.1666666666666667
 40
0.3333333333333333
 40
0.3333333333333333
 40
0.3333333333333333
 40
0.3333333333333333
 40
0.5
 40
0.5
 40
0.5
 40
0.5
 40
0.6666666666666666
 40
0.6666666666666666
 40
0.6666666666666666
 40
0.6666666666666666
 40
1.0
 40
1.0
 40
1.0
 40
1.0
 10
-35.7809
 20
-38.5267
 30
0.0
 10
-36.9784
 20
-38.1399
 30
0.0
 10
-38.3184
 20
-37.5964
 30
0.0
 10
-38.5291
 20
-37.328
 30
0.0
 10
-38.5291
 20
-37.328
 30
0.0
 10
-38.7195
 20
-37.0854
 30
0.0
 10
-39.1999
 20
-35.8376
 30
0.0
 10
-39.495
 20
-34.5899
 30
0.0
 10
-39.495
 20
-34.5899
 30
0.0
 10
-39.495
 20
-34.5899
 30
0.0
 10
-30.4269
 20
-17.9708
 30
0.0
 10
-30.4269
 20
-17.9708
 30
0.0
 10
-30.4269
 20
-17.9708
 30
0.0
 10
-27.9479
 20
-21.8085
 30
0.0
 10
-23.7539
 20
-25.9093
 30
0.0
 10
-19.8521
 20
-28.8607
 30
0.0
 10
-19.8521
 20
-28.8607
 30
0.0
 10
-19.8521
 20
-28.8607
 30
0.0
 10
-35.7809
 20
-38.5267
 30
0.0
 10
-35.7809
 20
-38.5267
 30
0.0
  0
SPLINE
  5
77
330
1F
100
AcDbEntity
  8
layer 1
 62
     7
100
AcDbSpline
210
0.0
220
0.0
230
1.0
 70
    11
 71
     3
 72
    24
 73
    20
 74
     0
 42
0.0000000001
 43
0.0000000001
 12
1.0
 22
0.0
 32
0.0
 13
1.0
 23
0.0
 33
0.0
 40
0.0
 40
0.0
 40
0.0
 40
0.0
 40
0.1666666666666667
 40
0.1666666666666667
 40
0.1666666666666667
 40
0.1666666666666667
 40
0.3333333333333333
 40
0.3333333333333333
 40
0.3333333333333333
 40
0.3333333333333333
 40
0.5
 40
0.5
 40
0.5
 40
0.5
 40
0.6666666666666666
 40
0.6666666666666666
 40
0.6666666666666666
 40
0.6666666666666666
 40
1.0
 40
1.0
 40
1.0
 40
1.0
 10
-35.7809
 20
-62.7327
 30
0.0
 10
-36.9784
 20
-63.1195
 30
0.0
 10
-38.3184
 20
-63.6631
 30
0.0
 10
-38.5291
 20
-63.9314
 30
0.0
 10
-38.5291
 20
-63.9314
 30
0.0
 10
-38.7195
 20
-64.174
 30
0.0
 10
-39.1999
 20
-65.4218
 30
0.0
 10
-39.495
 20
-66.6695
 30
0.0
 10
-39.495
 20
-66.6695
 30
0.0
 10
-39.495
 20
-66.6695
 30
0.0
 10
-30.4269
 20
-83.2887
 30
0.0
 10
-30.4269
 20
-83.2887
 30
0.0
 10
-30.4269
 20
-83.2887
 30
0.0
 10
-27.9479
 20
-79.4509
 30
0.0
 10
-23.7539
 20
-75.3502
 30
0.0
 10
-19.8521
 20
-72.3987
 30
0.0
 10
-19.8521
 20
-72.3987
 30
0.0
 10
-19.8521
 20
-72.3987
 30
0.0
 10
-35.7809
 20
-62.7327
 30
0.0
 10
-35.7809
 20
-62.7327
 30
0.0
  0
SPLINE
  5
78
330
1F
100
AcDbEntity
  8
layer 1
 62
     7
100
AcDbSpline
210
0.0
220
0.0
230
1.0
 70
    11
 71
     3
 72
    20
 73
    16
 74
     0
 42
0.0000000001
 43
0.0000000001
 12
1.0
 22
0.0
 32
0.0
 13
1.0
 23
0.0
 33
0.0
 40
0.0
 40
0.0
 40
0.0
 40
0.0
 40
0.2
 40
0.2
 40
0.2
 40
0.2
 40
0.4
 40
0.4
 40
0.4
 40
0.4
 40
0.6
 40
0.6
 40
0.6
 40
0.6
 40
1.0
 40
1.0
 40
1.0
 40
1.0
 10
2.3406
 20
-47.7491
 30
0.0
 10
2.3406
 20
-47.7491
 30
0.0
 10
2.3429
 20
-36.8783
 30
0.0
 10
2.3429
 20
-36.8783
 30
0.0
 10
2.3429
 20
-36.8783
 30
0.0
 10
-1.6644
 20
-36.5904
 30
0.0
 10
-7.8768
 20
-35.164
 30
0.0
 10
-10.9748
 20
-33.7652
 30
0.0
 10
-10.9748
 20
-33.7652
 30
0.0
 10
-9.7204
 20
-36.3354
 30
0.0
 10
-8.1232
 20
-42.6013
 30
0.0
 10
-8.0653
 20
-47.7747
 30
0.0
 10
-8.0653
 20
-47.7747
 30
0.0
 10
-8.0653
 20
-47.7747
 30
0.0
 10
2.3406
 20
-47.7491
 30
0.0
 10
2.3406
 20
-47.7491
 30
0.0
  0
SPLINE
  5
79
330
1F
100
AcDbEntity
  8
layer 1
 62
     7
100
AcDbSpline
210
0.0
220
0.0
230
1.0
 70
    11
 71
     3
 72
    20
 73
    16
 74
     0
 42
0.0000000001
 43
0.0000000001
 12
1.0
 22
0.0
 32
0.0
 13
1.0
 23
0.0
 33
0.0
 40
0.0
 40
0.0
 40
0.0
 40
0.0
 40
0.2
 40
0.2
 40
0.2
 40
0.2
 40
0.4
 40
0.4
 40
0.4
 40
0.4
 40
0.6
 40
0.6
 40
0.6
 40
0.6
 40
1.0
 40
1.0
 40
1.0
 40
1.0
 10
7.0879
 20
-47.7491
 30
0.0
 10
7.0879
 20
-47.7491
 30
0.0
 10
7.0856
 20
-36.8783
 30
0.0
 10
7.0856
 20
-36.8783
 30
0.0
 10
7.0856
 20
-36.8783
 30
0.0
 10
11.0929
 20
-36.5904
 30
0.0
 10
17.3053
 20
-35.164
 30
0.0
 10
20.4033
 20
-33.7652
 30
0.0
 10
20.4033
 20
-33.7652
 30
0.0
 10
19.1489
 20
-36.3354
 30
0.0
 10
17.5517
 20
-42.6013
 30
0.0
 10
17.4938
 20
-47.7747
 30
0.0
 10
17.4938
 20
-47.7747
 30
0.0
 10
17.4938
 20
-47.7747
 30
0.0
 10
7.0879
 20
-47.7491
 30
0.0
 10
7.0879
 20
-47.7491
 30
0.0
  0
SPLINE
  5
7A
330
1F
100
AcDbEntity
  8
layer 1
 62
     7
100
AcDbSpline
210
0.0
220
0.0
230
1.0
 70
    11
 71
     3
 72
    20
 73
    16
 74
     0
 42
0.0000000001
 43
0.0000000001
 12
1.0
 22
0.0
 32
0.0
 13
1.0
 23
0.0
 33
0.0
 40
0.0
 40
0.0
 40
0.0
 40
0.0
 40
0.2
 40
0.2
 40
0.2
 40
0.2
 40
0.4
 40
0.4
 40
0.4
 40
0.4
 40
0.6
 40
0.6
 40
0.6
 40
0.6
 40
1.0
 40
1.0
 40
1.0
 40
1.0
 10
2.3406
 20
-53.0806
 30
0.0
 10
2.3406
 20
-53.0806
 30
0.0
 10
2.3429
 20
-63.9514
 30
0.0
 10
2.3429
 20
-63.9514
 30
0.0
 10
2.3429
 20
-63.9514
 30
0.0
 10
-1.6644
 20
-64.2394
 30
0.0
 10
-7.8768
 20
-65.6658
 30
0.0
 10
-10.9748
 20
-67.0645
 30
0.0
 10
-10.9748
 20
-67.0645
 30
0.0
 10
-9.7204
 20
-64.4943
 30
0.0
 10
-8.1232
 20
-58.2285
 30
0.0
 10
-8.0653
 20
-53.055
 30
0.0
 10
-8.0653
 20
-53.055
 30
0.0
 10
-8.0653
 20
-53.055
 30
0.0
 10
2.3406
 20
-53.0806
 30
0.0
 10
2.3406
 20
-53.0806
 30
0.0
  0
SPLINE
  5
7B
330
1F
100
AcDbEntity
  8
layer 1
 62
     7
100
AcDbSpline
210
0.0
220
0.0
230
1.0
 70
    11
 71
     3
 72
    20
 73
    16
 74
     0
 42
0.0000000001
 43
0.0000000001
 12
1.0
 22
0.0
 32
0.0
 13
1.0
 23
0.0
 33
0.0
 40
0.0
 40
0.0
 40
0.0
 40
0.0
 40
0.2
 40
0.2
 40
0.2
 40
0.2
 40
0.4
 40
0.4
 40
0.4
 40
0.4
 40
0.6
 40
0.6
 40
0.6
 40
0.6
 40
1.0
 40
1.0
 40
1.0
 40
1.0
 10
7.0879
 20
-53.0806
 30
0.0
 10
7.0879
 20
-53.0806
 30
0.0
 10
7.0856
 20
-63.9514
 30
0.0
 10
7.0856
 20
-63.9514
 30
0.0
 10
7.0856
 20
-63.9514
 30
0.0
 10
11.0929
 20
-64.2394
 30
0.0
 10
17.3053
 20
-65.6658
 30
0.0
 10
20.4033
 20
-67.0645
 30
0.0
 10
20.4033
 20
-67.0645
 30
0.0
 10
19.1489
 20
-64.4943
 30
0.0
 10
17.5517
 20
-58.2285
 30
0.0
 10
17.4938
 20
-53.055
 30
0.0
 10
17.4938
 20
-53.055
 30
0.0
 10
17.4938
 20
-53.055
 30
0.0
 10
7.0879
 20
-53.0806
 30
0.0
 10
7.0879
 20
-53.0806
 30
0.0
  0
SPLINE
  5
7C
330
1F
100
AcDbEntity
  8
layer 1
 62
     7
100
AcDbSpline
210
0.0
220
0.0
230
1.0
 70
    11
 71
     3
 72
    16
 73
    12
 74
     0
 42
0.0000000001
 43
0.0000000001
 12
1.0
 22
0.0
 32
0.0
 13
1.0
 23
0.0
 33
0.0
 40
0.0
 40
0.0
 40
0.0
 40
0.0
 40
0.25
 40
0.25
 40
0.25
 40
0.25
 40
0.5
 40
0.5
 40
0.5
 40
0.5
 40
1.0
 40
1.0
 40
1.0
 40
1.0
 10
59.7957
 20
-46.2365
 30
0.0
 10
59.7957
 20
-46.2365
 30
0.0
 10
52.7778
 20
-38.9477
 30
0.0
 10
52.7778
 20
-38.9477
 30
0.0
 10
52.7778
 20
-38.9477
 30
0.0
 10
53.4936
 20
-34.8782
 30
0.0
 10
55.7745
 20
-31.7093
 30
0.0
 10
59.7204
 20
-31.2423
 30
0.0
 10
59.7204
 20
-31.2423
 30
0.0
 10
59.7204
 20
-31.2423
 30
0.0
 10
59.7957
 20
-46.2365
 30
0.0
 10
59.7957
 20
-46.2365
 30
0.0
  0
SPLINE
  5
7D
330
1F
100
AcDbEntity
  8
layer 1
 62
     7
100
AcDbSpline
210
0.0
220
0.0
230
1.0
 70
    11
 71
     3
 72
    16
 73
    12
 74
     0
 42
0.0000000001
 43
0.0000000001
 12
1.0
 22
0.0
 32
0.0
 13
1.0
 23
0.0
 33
0.0
 40
0.0
 40
0.0
 40
0.0
 40
0.0
 40
0.25
 40
0.25
 40
0.25
 40
0.25
 40
0.5
 40
0.5
 40
0.5
 40
0.5
 40
1.0
 40
1.0
 40
1.0
 40
1.0
 10
59.7957
 20
-55.0622
 30
0.0
 10
59.7957
 20
-55.0622
 30
0.0
 10
52.7778
 20
-62.3509
 30
0.0
 10
52.7778
 20
-62.3509
 30
0.0
 10
52.7778
 20
-62.3509
 30
0.0
 10
53.4936
 20
-66.4204
 30
0.0
 10
55.7745
 20
-69.5893
 30
0.0
 10
59.7204
 20
-70.0564
 30
0.0
 10
59.7204
 20
-70.0564
 30
0.0
 10
59.7204
 20
-70.0564
 30
0.0
 10
59.7957
 20
-55.0622
 30
0.0
 10
59.7957
 20
-55.0622
 30
0.0
  0
SPLINE
  5
7E
330
1F
100
AcDbEntity
  8
layer 1
 62
     7
100
AcDbSpline
210
0.0
220
0.0
230
1.0
 70
    11
 71
     3
 72
    20
 73
    16
 74
     0
 42
0.0000000001
 43
0.0000000001
 12
1.0
 22
0.0
 32
0.0
 13
1.0
 23
0.0
 33
0.0
 40
0.0
 40
0.0
 40
0.0
 40
0.0
 40
0.2
 40
0.2
 40
0.2
 40
0.2
 40
0.4
 40
0.4
 40
0.4
 40
0.4
 40
0.6
 40
0.6
 40
0.6
 40
0.6
 40
1.0
 40
1.0
 40
1.0
 40
1.0
 10
56.9919
 20
-50.5367
 30
0.0
 10
56.9919
 20
-50.5367
 30
0.0
 10
49.0311
 20
-58.8311
 30
0.0
 10
49.0311
 20
-58.8311
 30
0.0
 10
49.0311
 20
-58.8311
 30
0.0
 10
44.9891
 20
-57.9745
 30
0.0
 10
42.0612
 20
-54.3314
 30
0.0
 10
41.9022
 20
-50.7723
 30
0.0
 10
41.9022
 20
-50.7723
 30
0.0
 10
41.7431
 20
-47.2133
 30
0.0
 10
44.4153
 20
-43.6752
 30
0.0
 10
48.9967
 20
-42.5888
 30
0.0
 10
48.9967
 20
-42.5888
 30
0.0
 10
48.9967
 20
-42.5888
 30
0.0
 10
56.9919
 20
-50.5367
 30
0.0
 10
56.9919
 20
-50.5367
 30
0.0
  0
SPLINE
  5
7F
330
1F
100
AcDbEntity
  8
layer 1
 62
     7
100
AcDbSpline
210
0.0
220
0.0
230
1.0
 70
    11
 71
     3
 72
    20
 73
    16
 74
     0
 42
0.0000000001
 43
0.0000000001
 12
1.0
 22
0.0
 32
0.0
 13
1.0
 23
0.0
 33
0.0
 40
0.0
 40
0.0
 40
0.0
 40
0.0
 40
0.2
 40
0.2
 40
0.2
 40
0.2
 40
0.4
 40
0.4
 40
0.4
 40
0.4
 40
0.6
 40
0.6
 40
0.6
 40
0.6
 40
1.0
 40
1.0
 40
1.0
 40
1.0
 10
58.1772
 20
-75.0738
 30
0.0
 10
55.8364
 20
-74.5481
 30
0.0
 10
53.4955
 20
-73.3141
 30
0.0
 10
51.8346
 20
-71.5418
 30
0.0
 10
51.8346
 20
-71.5418
 30
0.0
 10
51.8346
 20
-71.5418
 30
0.0
 10
43.5944
 20
-86.3858
 30
0.0
 10
43.5944
 20
-86.3858
 30
0.0
 10
43.5944
 20
-86.3858
 30
0.0
 10
47.8477
 20
-89.131
 30
0.0
 10
54.5243
 20
-90.5075
 30
0.0
 10
58.2151
 20
-90.5496
 30
0.0
 10
58.2151
 20
-90.5496
 30
0.0
 10
58.2151
 20
-90.5496
 30
0.0
 10
58.1772
 20
-75.0738
 30
0.0
 10
58.1772
 20
-75.0738
 30
0.0
  0
SPLINE
  5
80
330
1F
100
AcDbEntity
  8
layer 1
 62
     7
100
AcDbSpline
210
0.0
220
0.0
230
1.0
 70
    11
 71
     3
 72
    20
 73
    16
 74
     0
 42
0.0000000001
 43
0.0000000001
 12
1.0
 22
0.0
 32
0.0
 13
1.0
 23
0.0
 33
0.0
 40
0.0
 40
0.0
 40
0.0
 40
0.0
 40
0.2
 40
0.2
 40
0.2
 40
0.2
 40
0.4
 40
0.4
 40
0.4
 40
0.4
 40
0.6
 40
0.6
 40
0.6
 40
0.6
 40
1.0
 40
1.0
 40
1.0
 40
1.0
 10
58.1772
 20
-26.0327
 30
0.0
 10
55.8364
 20
-26.5584
 30
0.0
 10
53.4955
 20
-27.7924
 30
0.0
 10
51.8346
 20
-29.5647
 30
0.0
 10
51.8346
 20
-29.5647
 30
0.0
 10
51.8346
 20
-29.5647
 30
0.0
 10
43.5944
 20
-14.7207
 30
0.0
 10
43.5944
 20
-14.7207
 30
0.0
 10
43.5944
 20
-14.7207
 30
0.0
 10
47.8477
 20
-11.9754
 30
0.0
 10
54.5243
 20
-10.599
 30
0.0
 10
58.2151
 20
-10.5569
 30
0.0
 10
58.2151
 20
-10.5569
 30
0.0
 10
58.2151
 20
-10.5569
 30
0.0
 10
58.1772
 20
-26.0327
 30
0.0
 10
58.1772
 20
-26.0327
 30
0.0
  0
SPLINE
  5
81
330
1F
100
AcDbEntity
  8
layer 1
 62
     7
100
AcDbSpline
210
0.0
220
0.0
230
1.0
 70
    11
 71
     3
 72
    20
 73
    16
 74
     0
 42
0.0000000001
 43
0.0000000001
 12
1.0
 22
0.0
 32
0.0
 13
1.0
 23
0.0
 33
0.0
 40
0.0
 40
0.0
 40
0.0
 40
0.0
 40
0.2
 40
0.2
 40
0.2
 40
0.2
 40
0.4
 40
0.4
 40
0.4
 40
0.4
 40
0.6
 40
0.6
 40
0.6
 40
0.6
 40
1.0
 40
1.0
 40
1.0
 40
1.0
 10
37.245
 20
-53.074
 30
0.0
 10
37.7707
 20
-55.4148
 30
0.0
 10
39.0047
 20
-57.7557
 30
0.0
 10
40.777
 20
-59.4166
 30
0.0
 10
40.777
 20
-59.4166
 30
0.0
 10
40.777
 20
-59.4166
 30
0.0
 10
26.275
 20
-68.3423
 30
0.0
 10
26.275
 20
-68.3423
 30
0.0
 10
26.275
 20
-68.3423
 30
0.0
 10
23.6877
 20
-64.0626
 30
0.0
 10
22.4165
 20
-56.8587
 30
0.0
 10
22.2692
 20
-53.0888
 30
0.0
 10
22.2692
 20
-53.0888
 30
0.0
 10
22.2692
 20
-53.0888
 30
0.0
 10
37.245
 20
-53.074
 30
0.0
 10
37.245
 20
-53.074
 30
0.0
  0
SPLINE
  5
82
330
1F
100
AcDbEntity
  8
layer 1
 62
     7
100
AcDbSpline
210
0.0
220
0.0
230
1.0
 70
    11
 71
     3
 72
    20
 73
    16
 74
     0
 42
0.0000000001
 43
0.0000000001
 12
1.0
 22
0.0
 32
0.0
 13
1.0
 23
0.0
 33
0.0
 40
0.0
 40
0.0
 40
0.0
 40
0.0
 40
0.2
 40
0.2
 40
0.2
 40
0.2
 40
0.4
 40
0.4
 40
0.4
 40
0.4
 40
0.6
 40
0.6
 40
0.6
 40
0.6
 40
1.0
 40
1.0
 40
1.0
 40
1.0
 10
37.245
 20
-47.9619
 30
0.0
 10
37.7707
 20
-45.6211
 30
0.0
 10
39.0047
 20
-43.2802
 30
0.0
 10
40.777
 20
-41.6193
 30
0.0
 10
40.777
 20
-41.6193
 30
0.0
 10
40.777
 20
-41.6193
 30
0.0
 10
26.275
 20
-32.6936
 30
0.0
 10
26.275
 20
-32.6936
 30
0.0
 10
26.275
 20
-32.6936
 30
0.0
 10
23.6877
 20
-36.9734
 30
0.0
 10
22.4165
 20
-44.1772
 30
0.0
 10
22.2692
 20
-47.9472
 30
0.0
 10
22.2692
 20
-47.9472
 30
0.0
 10
22.2692
 20
-47.9472
 30
0.0
 10
37.245
 20
-47.9619
 30
0.0
 10
37.245
 20
-47.9619
 30
0.0
  0
SPLINE
  5
83
330
1F
100
AcDbEntity
  8
layer 1
 62
     7
100
AcDbSpline
210
0.0
220
0.0
230
1.0
 70
    11
 71
     3
 72
    24
 73
    20
 74
     0
 42
0.0000000001
 43
0.0000000001
 12
1.0
 22
0.0
 32
0.0
 13
1.0
 23
0.0
 33
0.0
 40
0.0
 40
0.0
 40
0.0
 40
0.0
 40
0.1666666666666667
 40
0.1666666666666667
 40
0.1666666666666667
 40
0.1666666666666667
 40
0.3333333333333333
 40
0.3333333333333333
 40
0.3333333333333333
 40
0.3333333333333333
 40
0.5
 40
0.5
 40
0.5
 40
0.5
 40
0.6666666666666666
 40
0.6666666666666666
 40
0.6666666666666666
 40
0.6666666666666666
 40
1.0
 40
1.0
 40
1.0
 40
1.0
 10
45.201
 20
-38.5267
 30
0.0
 10
46.3985
 20
-38.1399
 30
0.0
 10
47.7385
 20
-37.5964
 30
0.0
 10
47.9492
 20
-37.328
 30
0.0
 10
47.9492
 20
-37.328
 30
0.0
 10
48.1396
 20
-37.0854
 30
0.0
 10
48.62
 20
-35.8376
 30
0.0
 10
48.9151
 20
-34.5899
 30
0.0
 10
48.9151
 20
-34.5899
 30
0.0
 10
48.9151
 20
-34.5899
 30
0.0
 10
39.847
 20
-17.9708
 30
0.0
 10
39.847
 20
-17.9708
 30
0.0
 10
39.847
 20
-17.9708
 30
0.0
 10
37.368
 20
-21.8085
 30
0.0
 10
33.174
 20
-25.9093
 30
0.0
 10
29.2722
 20
-28.8607
 30
0.0
 10
29.2722
 20
-28.8607
 30
0.0
 10
29.2722
 20
-28.8607
 30
0.0
 10
45.201
 20
-38.5267
 30
0.0
 10
45.201
 20
-38.5267
 30
0.0
  0
SPLINE
  5
84
330
1F
100
AcDbEntity
  8
layer 1
 62
     7
100
AcDbSpline
210
0.0
220
0.0
230
1.0
 70
    11
 71
     3
 72
    24
 73
    20
 74
     0
 42
0.0000000001
 43
0.0000000001
 12
1.0
 22
0.0
 32
0.0
 13
1.0
 23
0.0
 33
0.0
 40
0.0
 40
0.0
 40
0.0
 40
0.0
 40
0.1666666666666667
 40
0.1666666666666667
 40
0.1666666666666667
 40
0.1666666666666667
 40
0.3333333333333333
 40
0.3333333333333333
 40
0.3333333333333333
 40
0.3333333333333333
 40
0.5
 40
0.5
 40
0.5
 40
0.5
 40
0.6666666666666666
 40
0.6666666666666666
 40
0.6666666666666666
 40
0.6666666666666666
 40
1.0
 40
1.0
 40
1.0
 40
1.0
 10
45.201
 20
-62.7327
 30
0.0
 10
46.3985
 20
-63.1195
 30
0.0
 10
47.7385
 20
-63.6631
 30
0.0
 10
47.9492
 20
-63.9314
 30
0.0
 10
47.9492
 20
-63.9314
 30
0.0
 10
48.1396
 20
-64.174
 30
0.0
 10
48.62
 20
-65.4218
 30
0.0
 10
48.9151
 20
-66.6695
 30
0.0
 10
48.9151
 20
-66.6695
 30
0.0
 10
48.9151
 20
-66.6695
 30
0.0
 10
39.847
 20
-83.2887
 30
0.0
 10
39.847
 20
-83.2887
 30
0.0
 10
39.847
 20
-83.2887
 30
0.0
 10
37.368
 20
-79.4509
 30
0.0
 10
33.174
 20
-75.3502
 30
0.0
 10
29.2722
 20
-72.3987
 30
0.0
 10
29.2722
 20
-72.3987
 30
0.0
 10
29.2722
 20
-72.3987
 30
0.0
 10
45.201
 20
-62.7327
 30
0.0
 10
45.201
 20
-62.7327
 30
0.0
  0
SPLINE
  5
85
330
1F
100
AcDbEntity
  8
layer 1
 62
     7
100
AcDbSpline
210
0.0
220
0.0
230
1.0
 70
    11
 71
     3
 72
    16
 73
    12
 74
     0
 42
0.0000000001
 43
0.0000000001
 12
1.0
 22
0.0
 32
0.0
 13
1.0
 23
0.0
 33
0.0
 40
0.0
 40
0.0
 40
0.0
 40
0.0
 40
0.25
 40
0.25
 40
0.25
 40
0.25
 40
0.5
 40
0.5
 40
0.5
 40
0.5
 40
1.0
 40
1.0
 40
1.0
 40
1.0
 10
0.4565
 20
-108.4622
 30
0.0
 10
0.4565
 20
-108.4622
 30
0.0
 10
-6.8323
 20
-101.4443
 30
0.0
 10
-6.8323
 20
-101.4443
 30
0.0
 10
-6.8323
 20
-101.4443
 30
0.0
 10
-10.6998
 20
-102.4887
 30
0.0
 10
-12.8086
 20
-104.7444
 30
0.0
 10
-13.6796
 20
-108.3869
 30
0.0
 10
-13.6796
 20
-108.3869
 30
0.0
 10
-13.6796
 20
-108.3869
 30
0.0
 10
0.4565
 20
-108.4622
 30
0.0
 10
0.4565
 20
-108.4622
 30
0.0
  0
SPLINE
  5
86
330
1F
100
AcDbEntity
  8
layer 1
 62
     7
100
AcDbSpline
210
0.0
220
0.0
230
1.0
 70
    11
 71
     3
 72
    16
 73
    12
 74
     0
 42
0.0000000001
 43
0.0000000001
 12
1.0
 22
0.0
 32
0.0
 13
1.0
 23
0.0
 33
0.0
 40
0.0
 40
0.0
 40
0.0
 40
0.0
 40
0.25
 40
0.25
 40
0.25
 40
0.25
 40
0.5
 40
0.5
 40
0.5
 40
0.5
 40
1.0
 40
1.0
 40
1.0
 40
1.0
 10
9.2822
 20
-108.4622
 30
0.0
 10
9.2822
 20
-108.4622
 30
0.0
 10
16.5709
 20
-101.4443
 30
0.0
 10
16.5709
 20
-101.4443
 30
0.0
 10
16.5709
 20
-101.4443
 30
0.0
 10
19.8351
 20
-102.5713
 30
0.0
 10
22.8501
 20
-104.441
 30
0.0
 10
23.3172
 20
-108.3869
 30
0.0
 10
23.3172
 20
-108.3869
 30
0.0
 10
23.3172
 20
-108.3869
 30
0.0
 10
9.2822
 20
-108.4622
 30
0.0
 10
9.2822
 20
-108.4622
 30
0.0
  0
SPLINE
  5
87
330
1F
100
AcDbEntity
  8
layer 1
 62
     7
100
AcDbSpline
210
0.0
220
0.0
230
1.0
 70
    11
 71
     3
 72
    20
 73
    16
 74
     0
 42
0.0000000001
 43
0.0000000001
 12
1.0
 22
0.0
 32
0.0
 13
1.0
 23
0.0
 33
0.0
 40
0.0
 40
0.0
 40
0.0
 40
0.0
 40
0.2
 40
0.2
 40
0.2
 40
0.2
 40
0.4
 40
0.4
 40
0.4
 40
0.4
 40
0.6
 40
0.6
 40
0.6
 40
0.6
 40
1.0
 40
1.0
 40
1.0
 40
1.0
 10
4.6053
 20
-105.7343
 30
0.0
 10
4.6053
 20
-105.7343
 30
0.0
 10
12.7278
 20
-97.2667
 30
0.0
 10
12.7278
 20
-97.2667
 30
0.0
 10
12.7278
 20
-97.2667
 30
0.0
 10
11.8712
 20
-93.2247
 30
0.0
 10
8.2483
 20
-90.2151
 30
0.0
 10
4.6895
 20
-90.0564
 30
0.0
 10
4.6895
 20
-90.0564
 30
0.0
 10
1.1307
 20
-89.8975
 30
0.0
 10
-2.1048
 20
-93.3599
 30
0.0
 10
-3.1912
 20
-97.6633
 30
0.0
 10
-3.1912
 20
-97.6633
 30
0.0
 10
-3.1912
 20
-97.6633
 30
0.0
 10
4.6053
 20
-105.7343
 30
0.0
 10
4.6053
 20
-105.7343
 30
0.0
  0
SPLINE
  5
88
330
1F
100
AcDbEntity
  8
layer 1
 62
     7
100
AcDbSpline
210
0.0
220
0.0
230
1.0
 70
    11
 71
     3
 72
    20
 73
    16
 74
     0
 42
0.0000000001
 43
0.0000000001
 12
1.0
 22
0.0
 32
0.0
 13
1.0
 23
0.0
 33
0.0
 40
0.0
 40
0.0
 40
0.0
 40
0.0
 40
0.2
 40
0.2
 40
0.2
 40
0.2
 40
0.4
 40
0.4
 40
0.4
 40
0.4
 40
0.6
 40
0.6
 40
0.6
 40
0.6
 40
1.0
 40
1.0
 40
1.0
 40
1.0
 10
-18.4962
 20
-107.2337
 30
0.0
 10
-18.2817
 20
-104.7494
 30
0.0
 10
-16.9041
 20
-101.882
 30
0.0
 10
-15.06
 20
-100.4125
 30
0.0
 10
-15.06
 20
-100.4125
 30
0.0
 10
-15.06
 20
-100.4125
 30
0.0
 10
-29.2339
 20
-91.7655
 30
0.0
 10
-29.2339
 20
-91.7655
 30
0.0
 10
-29.2339
 20
-91.7655
 30
0.0
 10
-31.9791
 20
-96.0188
 30
0.0
 10
-33.1401
 20
-103.5788
 30
0.0
 10
-33.1822
 20
-107.2696
 30
0.0
 10
-33.1822
 20
-107.2696
 30
0.0
 10
-33.1822
 20
-107.2696
 30
0.0
 10
-18.4962
 20
-107.2337
 30
0.0
 10
-18.4962
 20
-107.2337
 30
0.0
  0
SPLINE
  5
89
330
1F
100
AcDbEntity
  8
layer 1
 62
     7
100
AcDbSpline
210
0.0
220
0.0
230
1.0
 70
    11
 71
     3
 72
    20
 73
    16
 74
     0
 42
0.0000000001
 43
0.0000000001
 12
1.0
 22
0.0
 32
0.0
 13
1.0
 23
0.0
 33
0.0
 40
0.0
 40
0.0
 40
0.0
 40
0.0
 40
0.2
 40
0.2
 40
0.2
 40
0.2
 40
0.4
 40
0.4
 40
0.4
 40
0.4
 40
0.6
 40
0.6
 40
0.6
 40
0.6
 40
1.0
 40
1.0
 40
1.0
 40
1.0
 10
2.1819
 20
-85.0383
 30
0.0
 10
-0.1589
 20
-85.5639
 30
0.0
 10
-2.117
 20
-86.744
 30
0.0
 10
-3.7779
 20
-88.5163
 30
0.0
 10
-3.7779
 20
-88.5163
 30
0.0
 10
-3.7779
 20
-88.5163
 30
0.0
 10
-12.0843
 20
-73.5121
 30
0.0
 10
-12.0843
 20
-73.5121
 30
0.0
 10
-12.0843
 20
-73.5121
 30
0.0
 10
-7.8045
 20
-70.9247
 30
0.0
 10
-1.5788
 20
-69.6833
 30
0.0
 10
2.1911
 20
-69.536
 30
0.0
 10
2.1911
 20
-69.536
 30
0.0
 10
2.1911
 20
-69.536
 30
0.0
 10
2.1819
 20
-85.0383
 30
0.0
 10
2.1819
 20
-85.0383
 30
0.0
  0
SPLINE
  5
8A
330
1F
100
AcDbEntity
  8
layer 1
 62
     7
100
AcDbSpline
210
0.0
220
0.0
230
1.0
 70
    11
 71
     3
 72
    24
 73
    20
 74
     0
 42
0.0000000001
 43
0.0000000001
 12
1.0
 22
0.0
 32
0.0
 13
1.0
 23
0.0
 33
0.0
 40
0.0
 40
0.0
 40
0.0
 40
0.0
 40
0.1666666666666667
 40
0.1666666666666667
 40
0.1666666666666667
 40
0.1666666666666667
 40
0.3333333333333333
 40
0.3333333333333333
 40
0.3333333333333333
 40
0.3333333333333333
 40
0.5
 40
0.5
 40
0.5
 40
0.5
 40
0.6666666666666666
 40
0.6666666666666666
 40
0.6666666666666666
 40
0.6666666666666666
 40
1.0
 40
1.0
 40
1.0
 40
1.0
 10
-6.695
 20
-93.6896
 30
0.0
 10
-7.0818
 20
-94.8872
 30
0.0
 10
-7.6254
 20
-96.2272
 30
0.0
 10
-7.8937
 20
-96.4379
 30
0.0
 10
-7.8937
 20
-96.4379
 30
0.0
 10
-8.1363
 20
-96.6283
 30
0.0
 10
-9.3841
 20
-97.1087
 30
0.0
 10
-10.6318
 20
-97.4037
 30
0.0
 10
-10.6318
 20
-97.4037
 30
0.0
 10
-10.6318
 20
-97.4037
 30
0.0
 10
-26.2631
 20
-87.6506
 30
0.0
 10
-26.2631
 20
-87.6506
 30
0.0
 10
-26.2631
 20
-87.6506
 30
0.0
 10
-22.4015
 20
-85.0041
 30
0.0
 10
-18.3311
 20
-80.6335
 30
0.0
 10
-15.9062
 20
-76.7557
 30
0.0
 10
-15.9062
 20
-76.7557
 30
0.0
 10
-15.9062
 20
-76.7557
 30
0.0
 10
-6.695
 20
-93.6896
 30
0.0
 10
-6.695
 20
-93.6896
 30
0.0
  0
SPLINE
  5
8B
330
1F
100
AcDbEntity
  8
layer 1
 62
     7
100
AcDbSpline
210
0.0
220
0.0
230
1.0
 70
    11
 71
     3
 72
    20
 73
    16
 74
     0
 42
0.0000000001
 43
0.0000000001
 12
1.0
 22
0.0
 32
0.0
 13
1.0
 23
0.0
 33
0.0
 40
0.0
 40
0.0
 40
0.0
 40
0.0
 40
0.2
 40
0.2
 40
0.2
 40
0.2
 40
0.4
 40
0.4
 40
0.4
 40
0.4
 40
0.6
 40
0.6
 40
0.6
 40
0.6
 40
1.0
 40
1.0
 40
1.0
 40
1.0
 10
28.0785
 20
-107.2337
 30
0.0
 10
27.8639
 20
-104.7494
 30
0.0
 10
26.4863
 20
-101.882
 30
0.0
 10
24.6422
 20
-100.4125
 30
0.0
 10
24.6422
 20
-100.4125
 30
0.0
 10
24.6422
 20
-100.4125
 30
0.0
 10
38.8161
 20
-91.7655
 30
0.0
 10
38.8161
 20
-91.7655
 30
0.0
 10
38.8161
 20
-91.7655
 30
0.0
 10
41.5614
 20
-96.0188
 30
0.0
 10
42.7224
 20
-103.5788
 30
0.0
 10
42.7645
 20
-107.2696
 30
0.0
 10
42.7645
 20
-107.2696
 30
0.0
 10
42.7645
 20
-107.2696
 30
0.0
 10
28.0785
 20
-107.2337
 30
0.0
 10
28.0785
 20
-107.2337
 30
0.0
  0
SPLINE
  5
8C
330
1F
100
AcDbEntity
  8
layer 1
 62
     7
100
AcDbSpline
210
0.0
220
0.0
230
1.0
 70
    11
 71
     3
 72
    20
 73
    16
 74
     0
 42
0.0000000001
 43
0.0000000001
 12
1.0
 22
0.0
 32
0.0
 13
1.0
 23
0.0
 33
0.0
 40
0.0
 40
0.0
 40
0.0
 40
0.0
 40
0.2
 40
0.2
 40
0.2
 40
0.2
 40
0.4
 40
0.4
 40
0.4
 40
0.4
 40
0.6
 40
0.6
 40
0.6
 40
0.6
 40
1.0
 40
1.0
 40
1.0
 40
1.0
 10
7.4004
 20
-85.0383
 30
0.0
 10
9.7411
 20
-85.5639
 30
0.0
 10
11.6993
 20
-86.744
 30
0.0
 10
13.3602
 20
-88.5163
 30
0.0
 10
13.3602
 20
-88.5163
 30
0.0
 10
13.3602
 20
-88.5163
 30
0.0
 10
21.6666
 20
-73.5121
 30
0.0
 10
21.6666
 20
-73.5121
 30
0.0
 10
21.6666
 20
-73.5121
 30
0.0
 10
17.3868
 20
-70.9247
 30
0.0
 10
11.1611
 20
-69.6833
 30
0.0
 10
7.3912
 20
-69.536
 30
0.0
 10
7.3912
 20
-69.536
 30
0.0
 10
7.3912
 20
-69.536
 30
0.0
 10
7.4004
 20
-85.0383
 30
0.0
 10
7.4004
 20
-85.0383
 30
0.0
  0
SPLINE
  5
8D
330
1F
100
AcDbEntity
  8
layer 1
 62
     7
100
AcDbSpline
210
0.0
220
0.0
230
1.0
 70
    11
 71
     3
 72
    24
 73
    20
 74
     0
 42
0.0000000001
 43
0.0000000001
 12
1.0
 22
0.0
 32
0.0
 13
1.0
 23
0.0
 33
0.0
 40
0.0
 40
0.0
 40
0.0
 40
0.0
 40
0.1666666666666667
 40
0.1666666666666667
 40
0.1666666666666667
 40
0.1666666666666667
 40
0.3333333333333333
 40
0.3333333333333333
 40
0.3333333333333333
 40
0.3333333333333333
 40
0.5
 40
0.5
 40
0.5
 40
0.5
 40
0.6666666666666666
 40
0.6666666666666666
 40
0.6666666666666666
 40
0.6666666666666666
 40
1.0
 40
1.0
 40
1.0
 40
1.0
 10
16.2772
 20
-93.6896
 30
0.0
 10
16.6641
 20
-94.8872
 30
0.0
 10
17.2076
 20
-96.2272
 30
0.0
 10
17.476
 20
-96.4379
 30
0.0
 10
17.476
 20
-96.4379
 30
0.0
 10
17.7186
 20
-96.6283
 30
0.0
 10
18.9663
 20
-97.1087
 30
0.0
 10
20.2141
 20
-97.4037
 30
0.0
 10
20.2141
 20
-97.4037
 30
0.0
 10
20.2141
 20
-97.4037
 30
0.0
 10
35.8454
 20
-87.6506
 30
0.0
 10
35.8454
 20
-87.6506
 30
0.0
 10
35.8454
 20
-87.6506
 30
0.0
 10
31.9837
 20
-85.0041
 30
0.0
 10
27.9134
 20
-80.6335
 30
0.0
 10
25.4885
 20
-76.7557
 30
0.0
 10
25.4885
 20
-76.7557
 30
0.0
 10
25.4885
 20
-76.7557
 30
0.0
 10
16.2772
 20
-93.6896
 30
0.0
 10
16.2772
 20
-93.6896
 30
0.0
  0
SPLINE
  5
8E
330
1F
100
AcDbEntity
  8
layer 1
 62
     7
100
AcDbSpline
210
0.0
220
0.0
230
1.0
 70
    11
 71
     3
 72
    20
 73
    16
 74
     0
 42
0.0000000001
 43
0.0000000001
 12
1.0
 22
0.0
 32
0.0
 13
1.0
 23
0.0
 33
0.0
 40
0.0
 40
0.0
 40
0.0
 40
0.0
 40
0.2
 40
0.2
 40
0.2
 40
0.2
 40
0.4
 40
0.4
 40
0.4
 40
0.4
 40
0.6
 40
0.6
 40
0.6
 40
0.6
 40
1.0
 40
1.0
 40
1.0
 40
1.0
 10
4.6911
 20
4.2726
 30
0.0
 10
4.6911
 20
4.2726
 30
0.0
 10
12.8136
 20
-4.195
 30
0.0
 10
12.8136
 20
-4.195
 30
0.0
 10
12.8136
 20
-4.195
 30
0.0
 10
11.957
 20
-8.237
 30
0.0
 10
8.3341
 20
-11.2466
 30
0.0
 10
4.7753
 20
-11.4053
 30
0.0
 10
4.7753
 20
-11.4053
 30
0.0
 10
1.2165
 20
-11.5642
 30
0.0
 10
-2.019
 20
-8.1018
 30
0.0
 10
-3.1054
 20
-3.7985
 30
0.0
 10
-3.1054
 20
-3.7985
 30
0.0
 10
-3.1054
 20
-3.7985
 30
0.0
 10
4.6911
 20
4.2726
 30
0.0
 10
4.6911
 20
4.2726
 30
0.0
  0
SPLINE
  5
8F
330
1F
100
AcDbEntity
  8
layer 1
 62
     7
100
AcDbSpline
210
0.0
220
0.0
230
1.0
 70
    11
 71
     3
 72
    20
 73
    16
 74
     0
 42
0.0000000001
 43
0.0000000001
 12
1.0
 22
0.0
 32
0.0
 13
1.0
 23
0.0
 33
0.0
 40
0.0
 40
0.0
 40
0.0
 40
0.0
 40
0.2
 40
0.2
 40
0.2
 40
0.2
 40
0.4
 40
0.4
 40
0.4
 40
0.4
 40
0.6
 40
0.6
 40
0.6
 40
0.6
 40
1.0
 40
1.0
 40
1.0
 40
1.0
 10
-18.4962
 20
5.8614
 30
0.0
 10
-18.2817
 20
3.377
 30
0.0
 10
-16.9041
 20
0.5096
 30
0.0
 10
-15.06
 20
-0.9598
 30
0.0
 10
-15.06
 20
-0.9598
 30
0.0
 10
-15.06
 20
-0.9598
 30
0.0
 10
-29.2339
 20
-9.6069
 30
0.0
 10
-29.2339
 20
-9.6069
 30
0.0
 10
-29.2339
 20
-9.6069
 30
0.0
 10
-31.9791
 20
-5.3535
 30
0.0
 10
-33.1401
 20
2.2064
 30
0.0
 10
-33.1822
 20
5.8973
 30
0.0
 10
-33.1822
 20
5.8973
 30
0.0
 10
-33.1822
 20
5.8973
 30
0.0
 10
-18.4962
 20
5.8614
 30
0.0
 10
-18.4962
 20
5.8614
 30
0.0
  0
SPLINE
  5
90
330
1F
100
AcDbEntity
  8
layer 1
 62
     7
100
AcDbSpline
210
0.0
220
0.0
230
1.0
 70
    11
 71
     3
 72
    20
 73
    16
 74
     0
 42
0.0000000001
 43
0.0000000001
 12
1.0
 22
0.0
 32
0.0
 13
1.0
 23
0.0
 33
0.0
 40
0.0
 40
0.0
 40
0.0
 40
0.0
 40
0.2
 40
0.2
 40
0.2
 40
0.2
 40
0.4
 40
0.4
 40
0.4
 40
0.4
 40
0.6
 40
0.6
 40
0.6
 40
0.6
 40
1.0
 40
1.0
 40
1.0
 40
1.0
 10
2.1819
 20
-16.3341
 30
0.0
 10
-0.1589
 20
-15.8084
 30
0.0
 10
-2.117
 20
-14.6283
 30
0.0
 10
-3.7779
 20
-12.856
 30
0.0
 10
-3.7779
 20
-12.856
 30
0.0
 10
-3.7779
 20
-12.856
 30
0.0
 10
-12.0843
 20
-27.8602
 30
0.0
 10
-12.0843
 20
-27.8602
 30
0.0
 10
-12.0843
 20
-27.8602
 30
0.0
 10
-7.8045
 20
-30.4476
 30
0.0
 10
-1.5788
 20
-31.689
 30
0.0
 10
2.1911
 20
-31.8363
 30
0.0
 10
2.1911
 20
-31.8363
 30
0.0
 10
2.1911
 20
-31.8363
 30
0.0
 10
2.1819
 20
-16.3341
 30
0.0
 10
2.1819
 20
-16.3341
 30
0.0
  0
SPLINE
  5
91
330
1F
100
AcDbEntity
  8
layer 1
 62
     7
100
AcDbSpline
210
0.0
220
0.0
230
1.0
 70
    11
 71
     3
 72
    24
 73
    20
 74
     0
 42
0.0000000001
 43
0.0000000001
 12
1.0
 22
0.0
 32
0.0
 13
1.0
 23
0.0
 33
0.0
 40
0.0
 40
0.0
 40
0.0
 40
0.0
 40
0.1666666666666667
 40
0.1666666666666667
 40
0.1666666666666667
 40
0.1666666666666667
 40
0.3333333333333333
 40
0.3333333333333333
 40
0.3333333333333333
 40
0.3333333333333333
 40
0.5
 40
0.5
 40
0.5
 40
0.5
 40
0.6666666666666666
 40
0.6666666666666666
 40
0.6666666666666666
 40
0.6666666666666666
 40
1.0
 40
1.0
 40
1.0
 40
1.0
 10
-6.695
 20
-7.6827
 30
0.0
 10
-7.0818
 20
-6.4852
 30
0.0
 10
-7.6254
 20
-5.1452
 30
0.0
 10
-7.8937
 20
-4.9345
 30
0.0
 10
-7.8937
 20
-4.9345
 30
0.0
 10
-8.1363
 20
-4.7441
 30
0.0
 10
-9.3841
 20
-4.2637
 30
0.0
 10
-10.6318
 20
-3.9686
 30
0.0
 10
-10.6318
 20
-3.9686
 30
0.0
 10
-10.6318
 20
-3.9686
 30
0.0
 10
-26.2631
 20
-13.7218
 30
0.0
 10
-26.2631
 20
-13.7218
 30
0.0
 10
-26.2631
 20
-13.7218
 30
0.0
 10
-22.4015
 20
-16.3682
 30
0.0
 10
-18.3311
 20
-20.7388
 30
0.0
 10
-15.9062
 20
-24.6166
 30
0.0
 10
-15.9062
 20
-24.6166
 30
0.0
 10
-15.9062
 20
-24.6166
 30
0.0
 10
-6.695
 20
-7.6827
 30
0.0
 10
-6.695
 20
-7.6827
 30
0.0
  0
SPLINE
  5
92
330
1F
100
AcDbEntity
  8
layer 1
 62
     7
100
AcDbSpline
210
0.0
220
0.0
230
1.0
 70
    11
 71
     3
 72
    20
 73
    16
 74
     0
 42
0.0000000001
 43
0.0000000001
 12
1.0
 22
0.0
 32
0.0
 13
1.0
 23
0.0
 33
0.0
 40
0.0
 40
0.0
 40
0.0
 40
0.0
 40
0.2
 40
0.2
 40
0.2
 40
0.2
 40
0.4
 40
0.4
 40
0.4
 40
0.4
 40
0.6
 40
0.6
 40
0.6
 40
0.6
 40
1.0
 40
1.0
 40
1.0
 40
1.0
 10
28.0785
 20
5.8614
 30
0.0
 10
27.8639
 20
3.377
 30
0.0
 10
26.4863
 20
0.5096
 30
0.0
 10
24.6422
 20
-0.9598
 30
0.0
 10
24.6422
 20
-0.9598
 30
0.0
 10
24.6422
 20
-0.9598
 30
0.0
 10
38.8161
 20
-9.6069
 30
0.0
 10
38.8161
 20
-9.6069
 30
0.0
 10
38.8161
 20
-9.6069
 30
0.0
 10
41.5614
 20
-5.3535
 30
0.0
 10
42.7224
 20
2.2064
 30
0.0
 10
42.7645
 20
5.8973
 30
0.0
 10
42.7645
 20
5.8973
 30
0.0
 10
42.7645
 20
5.8973
 30
0.0
 10
28.0785
 20
5.8614
 30
0.0
 10
28.0785
 20
5.8614
 30
0.0
  0
SPLINE
  5
93
330
1F
100
AcDbEntity
  8
layer 1
 62
     7
100
AcDbSpline
210
0.0
220
0.0
230
1.0
 70
    11
 71
     3
 72
    20
 73
    16
 74
     0
 42
0.0000000001
 43
0.0000000001
 12
1.0
 22
0.0
 32
0.0
 13
1.0
 23
0.0
 33
0.0
 40
0.0
 40
0.0
 40
0.0
 40
0.0
 40
0.2
 40
0.2
 40
0.2
 40
0.2
 40
0.4
 40
0.4
 40
0.4
 40
0.4
 40
0.6
 40
0.6
 40
0.6
 40
0.6
 40
1.0
 40
1.0
 40
1.0
 40
1.0
 10
7.4004
 20
-16.3341
 30
0.0
 10
9.7411
 20
-15.8084
 30
0.0
 10
11.6993
 20
-14.6283
 30
0.0
 10
13.3602
 20
-12.856
 30
0.0
 10
13.3602
 20
-12.856
 30
0.0
 10
13.3602
 20
-12.856
 30
0.0
 10
21.6666
 20
-27.8602
 30
0.0
 10
21.6666
 20
-27.8602
 30
0.0
 10
21.6666
 20
-27.8602
 30
0.0
 10
17.3868
 20
-30.4476
 30
0.0
 10
11.1611
 20
-31.689
 30
0.0
 10
7.3912
 20
-31.8363
 30
0.0
 10
7.3912
 20
-31.8363
 30
0.0
 10
7.3912
 20
-31.8363
 30
0.0
 10
7.4004
 20
-16.3341
 30
0.0
 10
7.4004
 20
-16.3341
 30
0.0
  0
SPLINE
  5
94
330
1F
100
AcDbEntity
  8
layer 1
 62
     7
100
AcDbSpline
210
0.0
220
0.0
230
1.0
 70
    11
 71
     3
 72
    24
 73
    20
 74
     0
 42
0.0000000001
 43
0.0000000001
 12
1.0
 22
0.0
 32
0.0
 13
1.0
 23
0.0
 33
0.0
 40
0.0
 40
0.0
 40
0.0
 40
0.0
 40
0.1666666666666667
 40
0.1666666666666667
 40
0.1666666666666667
 40
0.1666666666666667
 40
0.3333333333333333
 40
0.3333333333333333
 40
0.3333333333333333
 40
0.3333333333333333
 40
0.5
 40
0.5
 40
0.5
 40
0.5
 40
0.6666666666666666
 40
0.6666666666666666
 40
0.6666666666666666
 40
0.6666666666666666
 40
1.0
 40
1.0
 40
1.0
 40
1.0
 10
16.2772
 20
-7.6827
 30
0.0
 10
16.6641
 20
-6.4852
 30
0.0
 10
17.2076
 20
-5.1452
 30
0.0
 10
17.476
 20
-4.9345
 30
0.0
 10
17.476
 20
-4.9345
 30
0.0
 10
17.7186
 20
-4.7441
 30
0.0
 10
18.9663
 20
-4.2637
 30
0.0
 10
20.2141
 20
-3.9686
 30
0.0
 10
20.2141
 20
-3.9686
 30
0.0
 10
20.2141
 20
-3.9686
 30
0.0
 10
35.8454
 20
-13.7218
 30
0.0
 10
35.8454
 20
-13.7218
 30
0.0
 10
35.8454
 20
-13.7218
 30
0.0
 10
31.9837
 20
-16.3682
 30
0.0
 10
27.9134
 20
-20.7388
 30
0.0
 10
25.4885
 20
-24.6166
 30
0.0
 10
25.4885
 20
-24.6166
 30
0.0
 10
25.4885
 20
-24.6166
 30
0.0
 10
16.2772
 20
-7.6827
 30
0.0
 10
16.2772
 20
-7.6827
 30
0.0
  0
SPLINE
  5
95
330
1F
100
AcDbEntity
  8
layer 1
 62
     7
100
AcDbSpline
210
0.0
220
0.0
230
1.0
 70
    11
 71
     3
 72
    20
 73
    16
 74
     0
 42
0.0000000001
 43
0.0000000001
 12
1.0
 22
0.0
 32
0.0
 13
1.0
 23
0.0
 33
0.0
 40
0.0
 40
0.0
 40
0.0
 40
0.0
 40
0.2
 40
0.2
 40
0.2
 40
0.2
 40
0.4
 40
0.4
 40
0.4
 40
0.4
 40
0.6
 40
0.6
 40
0.6
 40
0.6
 40
1.0
 40
1.0
 40
1.0
 40
1.0
 10
1.2686
 20
8.1987
 30
0.0
 10
1.2686
 20
8.1987
 30
0.0
 10
-6.6921
 20
16.4931
 30
0.0
 10
-6.6921
 20
16.4931
 30
0.0
 10
-6.6921
 20
16.4931
 30
0.0
 10
-10.7341
 20
15.6365
 30
0.0
 10
-13.662
 20
11.9934
 30
0.0
 10
-13.821
 20
8.4343
 30
0.0
 10
-13.821
 20
8.4343
 30
0.0
 10
-13.9801
 20
4.8752
 30
0.0
 10
-11.3079
 20
1.3372
 30
0.0
 10
-6.7265
 20
0.2508
 30
0.0
 10
-6.7265
 20
0.2508
 30
0.0
 10
-6.7265
 20
0.2508
 30
0.0
 10
1.2686
 20
8.1987
 30
0.0
 10
1.2686
 20
8.1987
 30
0.0
  0
SPLINE
  5
96
330
1F
100
AcDbEntity
  8
layer 1
 62
     7
100
AcDbSpline
210
0.0
220
0.0
230
1.0
 70
    11
 71
     3
 72
    20
 73
    16
 74
     0
 42
0.0000000001
 43
0.0000000001
 12
1.0
 22
0.0
 32
0.0
 13
1.0
 23
0.0
 33
0.0
 40
0.0
 40
0.0
 40
0.0
 40
0.0
 40
0.2
 40
0.2
 40
0.2
 40
0.2
 40
0.4
 40
0.4
 40
0.4
 40
0.4
 40
0.6
 40
0.6
 40
0.6
 40
0.6
 40
1.0
 40
1.0
 40
1.0
 40
1.0
 10
8.1703
 20
8.1796
 30
0.0
 10
8.1703
 20
8.1796
 30
0.0
 10
16.1311
 20
16.474
 30
0.0
 10
16.1311
 20
16.474
 30
0.0
 10
16.1311
 20
16.474
 30
0.0
 10
20.173
 20
15.6174
 30
0.0
 10
23.101
 20
11.9743
 30
0.0
 10
23.26
 20
8.4152
 30
0.0
 10
23.26
 20
8.4152
 30
0.0
 10
23.4191
 20
4.8561
 30
0.0
 10
20.7469
 20
1.3181
 30
0.0
 10
16.1654
 20
0.2317
 30
0.0
 10
16.1654
 20
0.2317
 30
0.0
 10
16.1654
 20
0.2317
 30
0.0
 10
8.1703
 20
8.1796
 30
0.0
 10
8.1703
 20
8.1796
 30
0.0
  0
SPLINE
  5
97
330
1F
100
AcDbEntity
  8
layer 1
 62
     7
100
AcDbSpline
210
0.0
220
0.0
230
1.0
 70
    11
 71
     3
 72
    20
 73
    16
 74
     0
 42
0.0000000001
 43
0.0000000001
 12
1.0
 22
0.0
 32
0.0
 13
1.0
 23
0.0
 33
0.0
 40
0.0
 40
0.0
 40
0.0
 40
0.0
 40
0.2
 40
0.2
 40
0.2
 40
0.2
 40
0.4
 40
0.4
 40
0.4
 40
0.4
 40
0.6
 40
0.6
 40
0.6
 40
0.6
 40
1.0
 40
1.0
 40
1.0
 40
1.0
 10
-48.8363
 20
5.3615
 30
0.0
 10
-48.8363
 20
5.3615
 30
0.0
 10
-48.8386
 20
-5.5093
 30
0.0
 10
-48.8386
 20
-5.5093
 30
0.0
 10
-48.8386
 20
-5.5093
 30
0.0
 10
-44.8313
 20
-5.7973
 30
0.0
 10
-38.6189
 20
-7.2237
 30
0.0
 10
-35.5209
 20
-8.6224
 30
0.0
 10
-35.5209
 20
-8.6224
 30
0.0
 10
-36.7753
 20
-6.0522
 30
0.0
 10
-38.3725
 20
0.2136
 30
0.0
 10
-38.4304
 20
5.3871
 30
0.0
 10
-38.4304
 20
5.3871
 30
0.0
 10
-38.4304
 20
5.3871
 30
0.0
 10
-48.8363
 20
5.3615
 30
0.0
 10
-48.8363
 20
5.3615
 30
0.0
  0
SPLINE
  5
98
330
1F
100
AcDbEntity
  8
layer 1
 62
     7
100
AcDbSpline
210
0.0
220
0.0
230
1.0
 70
    11
 71
     3
 72
    20
 73
    16
 74
     0
 42
0.0000000001
 43
0.0000000001
 12
1.0
 22
0.0
 32
0.0
 13
1.0
 23
0.0
 33
0.0
 40
0.0
 40
0.0
 40
0.0
 40
0.0
 40
0.2
 40
0.2
 40
0.2
 40
0.2
 40
0.4
 40
0.4
 40
0.4
 40
0.4
 40
0.6
 40
0.6
 40
0.6
 40
0.6
 40
1.0
 40
1.0
 40
1.0
 40
1.0
 10
-48.8363
 20
10.6929
 30
0.0
 10
-48.8363
 20
10.6929
 30
0.0
 10
-48.8386
 20
21.5638
 30
0.0
 10
-48.8386
 20
21.5638
 30
0.0
 10
-48.8386
 20
21.5638
 30
0.0
 10
-44.8313
 20
21.8517
 30
0.0
 10
-38.6189
 20
23.2781
 30
0.0
 10
-35.5209
 20
24.6769
 30
0.0
 10
-35.5209
 20
24.6769
 30
0.0
 10
-36.7753
 20
22.1067
 30
0.0
 10
-38.3725
 20
15.8408
 30
0.0
 10
-38.4304
 20
10.6673
 30
0.0
 10
-38.4304
 20
10.6673
 30
0.0
 10
-38.4304
 20
10.6673
 30
0.0
 10
-48.8363
 20
10.6929
 30
0.0
 10
-48.8363
 20
10.6929
 30
0.0
  0
SPLINE
  5
99
330
1F
100
AcDbEntity
  8
layer 1
 62
     7
100
AcDbSpline
210
0.0
220
0.0
230
1.0
 70
    11
 71
     3
 72
    20
 73
    16
 74
     0
 42
0.0000000001
 43
0.0000000001
 12
1.0
 22
0.0
 32
0.0
 13
1.0
 23
0.0
 33
0.0
 40
0.0
 40
0.0
 40
0.0
 40
0.0
 40
0.2
 40
0.2
 40
0.2
 40
0.2
 40
0.4
 40
0.4
 40
0.4
 40
0.4
 40
0.6
 40
0.6
 40
0.6
 40
0.6
 40
1.0
 40
1.0
 40
1.0
 40
1.0
 10
58.1798
 20
-106.7953
 30
0.0
 10
58.1798
 20
-106.7953
 30
0.0
 10
58.1821
 20
-95.9245
 30
0.0
 10
58.1821
 20
-95.9245
 30
0.0
 10
58.1821
 20
-95.9245
 30
0.0
 10
54.1748
 20
-95.6366
 30
0.0
 10
47.9624
 20
-94.2101
 30
0.0
 10
44.8644
 20
-92.8114
 30
0.0
 10
44.8644
 20
-92.8114
 30
0.0
 10
46.1188
 20
-95.3816
 30
0.0
 10
47.716
 20
-101.6474
 30
0.0
 10
47.7739
 20
-106.8209
 30
0.0
 10
47.7739
 20
-106.8209
 30
0.0
 10
47.7739
 20
-106.8209
 30
0.0
 10
58.1798
 20
-106.7953
 30
0.0
 10
58.1798
 20
-106.7953
 30
0.0
  0
SPLINE
  5
9A
330
1F
100
AcDbEntity
  8
layer 1
 62
     7
100
AcDbSpline
210
0.0
220
0.0
230
1.0
 70
    11
 71
     3
 72
    20
 73
    16
 74
     0
 42
0.0000000001
 43
0.0000000001
 12
1.0
 22
0.0
 32
0.0
 13
1.0
 23
0.0
 33
0.0
 40
0.0
 40
0.0
 40
0.0
 40
0.0
 40
0.2
 40
0.2
 40
0.2
 40
0.2
 40
0.4
 40
0.4
 40
0.4
 40
0.4
 40
0.6
 40
0.6
 40
0.6
 40
0.6
 40
1.0
 40
1.0
 40
1.0
 40
1.0
 10
-48.8363
 20
-106.7953
 30
0.0
 10
-48.8363
 20
-106.7953
 30
0.0
 10
-48.8386
 20
-95.9245
 30
0.0
 10
-48.8386
 20
-95.9245
 30
0.0
 10
-48.8386
 20
-95.9245
 30
0.0
 10
-44.8313
 20
-95.6366
 30
0.0
 10
-38.6189
 20
-94.2101
 30
0.0
 10
-35.5209
 20
-92.8114
 30
0.0
 10
-35.5209
 20
-92.8114
 30
0.0
 10
-36.7753
 20
-95.3816
 30
0.0
 10
-38.3725
 20
-101.6474
 30
0.0
 10
-38.4304
 20
-106.8209
 30
0.0
 10
-38.4304
 20
-106.8209
 30
0.0
 10
-38.4304
 20
-106.8209
 30
0.0
 10
-48.8363
 20
-106.7953
 30
0.0
 10
-48.8363
 20
-106.7953
 30
0.0
  0
SPLINE
  5
9B
330
1F
100
AcDbEntity
  8
layer 1
 62
     7
100
AcDbSpline
210
0.0
220
0.0
230
1.0
 70
    11
 71
     3
 72
    20
 73
    16
 74
     0
 42
0.0000000001
 43
0.0000000001
 12
1.0
 22
0.0
 32
0.0
 13
1.0
 23
0.0
 33
0.0
 40
0.0
 40
0.0
 40
0.0
 40
0.0
 40
0.2
 40
0.2
 40
0.2
 40
0.2
 40
0.4
 40
0.4
 40
0.4
 40
0.4
 40
0.6
 40
0.6
 40
0.6
 40
0.6
 40
1.0
 40
1.0
 40
1.0
 40
1.0
 10
58.1798
 20
123.6131
 30
0.0
 10
58.1798
 20
123.6131
 30
0.0
 10
58.1821
 20
112.7423
 30
0.0
 10
58.1821
 20
112.7423
 30
0.0
 10
58.1821
 20
112.7423
 30
0.0
 10
54.1748
 20
112.4543
 30
0.0
 10
47.9624
 20
111.0279
 30
0.0
 10
44.8644
 20
109.6292
 30
0.0
 10
44.8644
 20
109.6292
 30
0.0
 10
46.1188
 20
112.1994
 30
0.0
 10
47.716
 20
118.4652
 30
0.0
 10
47.7739
 20
123.6387
 30
0.0
 10
47.7739
 20
123.6387
 30
0.0
 10
47.7739
 20
123.6387
 30
0.0
 10
58.1798
 20
123.6131
 30
0.0
 10
58.1798
 20
123.6131
 30
0.0
  0
SPLINE
  5
9C
330
1F
100
AcDbEntity
  8
layer 1
 62
     7
100
AcDbSpline
210
0.0
220
0.0
230
1.0
 70
    11
 71
     3
 72
    20
 73
    16
 74
     0
 42
0.0000000001
 43
0.0000000001
 12
1.0
 22
0.0
 32
0.0
 13
1.0
 23
0.0
 33
0.0
 40
0.0
 40
0.0
 40
0.0
 40
0.0
 40
0.2
 40
0.2
 40
0.2
 40
0.2
 40
0.4
 40
0.4
 40
0.4
 40
0.4
 40
0.6
 40
0.6
 40
0.6
 40
0.6
 40
1.0
 40
1.0
 40
1.0
 40
1.0
 10
-48.8363
 20
123.6131
 30
0.0
 10
-48.8363
 20
123.6131
 30
0.0
 10
-48.8386
 20
112.7423
 30
0.0
 10
-48.8386
 20
112.7423
 30
0.0
 10
-48.8386
 20
112.7423
 30
0.0
 10
-44.8313
 20
112.4543
 30
0.0
 10
-38.6189
 20
111.0279
 30
0.0
 10
-35.5209
 20
109.6292
 30
0.0
 10
-35.5209
 20
109.6292
 30
0.0
 10
-36.7753
 20
112.1994
 30
0.0
 10
-38.3725
 20
118.4652
 30
0.0
 10
-38.4304
 20
123.6387
 30
0.0
 10
-38.4304
 20
123.6387
 30
0.0
 10
-38.4304
 20
123.6387
 30
0.0
 10
-48.8363
 20
123.6131
 30
0.0
 10
-48.8363
 20
123.6131
 30
0.0
  0
SPLINE
  5
9D
330
1F
100
AcDbEntity
  8
layer 1
 62
     7
100
AcDbSpline
210
0.0
220
0.0
230
1.0
 70
    11
 71
     3
 72
    20
 73
    16
 74
     0
 42
0.0000000001
 43
0.0000000001
 12
1.0
 22
0.0
 32
0.0
 13
1.0
 23
0.0
 33
0.0
 40
0.0
 40
0.0
 40
0.0
 40
0.0
 40
0.2
 40
0.2
 40
0.2
 40
0.2
 40
0.4
 40
0.4
 40
0.4
 40
0.4
 40
0.6
 40
0.6
 40
0.6
 40
0.6
 40
1.0
 40
1.0
 40
1.0
 40
1.0
 10
2.1659
 20
64.1352
 30
0.0
 10
2.1659
 20
64.1352
 30
0.0
 10
2.1682
 20
53.2644
 30
0.0
 10
2.1682
 20
53.2644
 30
0.0
 10
2.1682
 20
53.2644
 30
0.0
 10
-1.8391
 20
52.9764
 30
0.0
 10
-8.0515
 20
51.55
 30
0.0
 10
-11.1495
 20
50.1513
 30
0.0
 10
-11.1495
 20
50.1513
 30
0.0
 10
-9.895
 20
52.7215
 30
0.0
 10
-8.2979
 20
58.9873
 30
0.0
 10
-8.24
 20
64.1608
 30
0.0
 10
-8.24
 20
64.1608
 30
0.0
 10
-8.24
 20
64.1608
 30
0.0
 10
2.1659
 20
64.1352
 30
0.0
 10
2.1659
 20
64.1352
 30
0.0
  0
SPLINE
  5
9E
330
1F
100
AcDbEntity
  8
layer 1
 62
     7
100
AcDbSpline
210
0.0
220
0.0
230
1.0
 70
    11
 71
     3
 72
    20
 73
    16
 74
     0
 42
0.0000000001
 43
0.0000000001
 12
1.0
 22
0.0
 32
0.0
 13
1.0
 23
0.0
 33
0.0
 40
0.0
 40
0.0
 40
0.0
 40
0.0
 40
0.2
 40
0.2
 40
0.2
 40
0.2
 40
0.4
 40
0.4
 40
0.4
 40
0.4
 40
0.6
 40
0.6
 40
0.6
 40
0.6
 40
1.0
 40
1.0
 40
1.0
 40
1.0
 10
2.1621
 20
69.4666
 30
0.0
 10
2.1621
 20
69.4666
 30
0.0
 10
2.1644
 20
80.3375
 30
0.0
 10
2.1644
 20
80.3375
 30
0.0
 10
2.1644
 20
80.3375
 30
0.0
 10
-1.8429
 20
80.6254
 30
0.0
 10
-8.0553
 20
82.0518
 30
0.0
 10
-11.1533
 20
83.4506
 30
0.0
 10
-11.1533
 20
83.4506
 30
0.0
 10
-9.8989
 20
80.8804
 30
0.0
 10
-8.3017
 20
74.6145
 30
0.0
 10
-8.2438
 20
69.4411
 30
0.0
 10
-8.2438
 20
69.4411
 30
0.0
 10
-8.2438
 20
69.4411
 30
0.0
 10
2.1621
 20
69.4666
 30
0.0
 10
2.1621
 20
69.4666
 30
0.0
  0
ENDSEC
  0
SECTION
  2
OBJECTS
  0
DICTIONARY
  5
C
330
0
100
AcDbDictionary
281
     1
  3
ACAD_GROUP
350
D
  3
ACAD_LAYOUT
350
1A
  3
ACAD_MATERIAL
350
3B
  3
ACAD_MLEADERSTYLE
350
C1
  3
ACAD_MLINESTYLE
350
17
  3
ACAD_PLOTSETTINGS
350
19
  3
ACAD_PLOTSTYLENAME
350
E
  3
ACAD_TABLESTYLE
350
C0
  3
ACAD_VISUALSTYLE
350
2A
  0
DICTIONARY
  5
D
102
{ACAD_REACTORS
330
C
102
}
330
C
100
AcDbDictionary
281
     1
  0
DICTIONARY
  5
1A
102
{ACAD_REACTORS
330
C
102
}
330
C
100
AcDbDictionary
281
     1
  3
Layout1
350
1E
  3
Layout2
350
26
  3
Model
350
22
  0
DICTIONARY
  5
3B
102
{ACAD_REACTORS
330
C
102
}
330
C
100
AcDbDictionary
281
     1
  3
ByBlock
350
3D
  3
ByLayer
350
3C
  3
Global
350
3E
  0
DICTIONARY
  5
C1
102
{ACAD_REACTORS
330
C
102
}
330
C
100
AcDbDictionary
281
     1
  0
DICTIONARY
  5
17
102
{ACAD_REACTORS
330
C
102
}
330
C
100
AcDbDictionary
281
     1
  3
Standard
350
18
  0
DICTIONARY
  5
19
102
{ACAD_REACTORS
330
C
102
}
330
C
100
AcDbDictionary
281
     1
  0
ACDBDICTIONARYWDFLT
  5
E
102
{ACAD_REACTORS
330
C
102
}
330
C
100
AcDbDictionary
281
     1
  3
Normal
350
F
100
AcDbDictionaryWithDefault
340
F
  0
DICTIONARY
  5
C0
102
{ACAD_REACTORS
330
C
102
}
330
C
100
AcDbDictionary
281
     1
  0
DICTIONARY
  5
2A
102
{ACAD_REACTORS
330
C
102
}
330
C
100
AcDbDictionary
281
     1
  3
2dWireframe
350
2F
  3
3D Hidden
350
31
  3
3dWireframe
350
30
  3
Basic
350
32
  3
Brighten
350
36
  3
ColorChange
350
3A
  3
Conceptual
350
34
  3
Dim
350
35
  3
Facepattern
350
39
  3
Flat
350
2B
  3
FlatWithEdges
350
2C
  3
Gouraud
350
2D
  3
GouraudWithEdges
350
2E
  3
Linepattern
350
38
  3
Realistic
350
33
  3
Thicken
350
37
  0
LAYOUT
  5
1E
102
{ACAD_REACTORS
330
1A
102
}
330
1A
100
AcDbPlotSettings
  1

  2
none_device
  4

  6

 40
0.0
 41
0.0
 42
0.0
 43
0.0
 44
0.0
 45
0.0
 46
0.0
 47
0.0
 48
0.0
 49
0.0
140
0.0
141
0.0
142
1.0
143
1.0
 70
   688
 72
     0
 73
     0
 74
     5
  7

 75
    16
 76
     0
 77
     2
 78
   300
147
1.0
148
0.0
149
0.0
100
AcDbLayout
  1
Layout1
 70
     1
 71
     1
 10
0.0
 20
0.0
 11
12.0
 21
9.0
 12
0.0
 22
0.0
 32
0.0
 14
1.000000000000000E+20
 24
1.000000000000000E+20
 34
1.000000000000000E+20
 15
-1.000000000000000E+20
 25
-1.000000000000000E+20
 35
-1.000000000000000E+20
146
0.0
 13
0.0
 23
0.0
 33
0.0
 16
1.0
 26
0.0
 36
0.0
 17
0.0
 27
1.0
 37
0.0
 76
     0
330
1B
  0
LAYOUT
  5
26
102
{ACAD_REACTORS
330
1A
102
}
330
1A
100
AcDbPlotSettings
  1

  2
none_device
  4

  6

 40
0.0
 41
0.0
 42
0.0
 43
0.0
 44
0.0
 45
0.0
 46
0.0
 47
0.0
 48
0.0
 49
0.0
140
0.0
141
0.0
142
1.0
143
1.0
 70
   688
 72
     0
 73
     0
 74
     5
  7

 75
    16
 76
     0
 77
     2
 78
   300
147
1.0
148
0.0
149
0.0
100
AcDbLayout
  1
Layout2
 70
     1
 71
     2
 10
0.0
 20
0.0
 11
0.0
 21
0.0
 12
0.0
 22
0.0
 32
0.0
 14
0.0
 24
0.0
 34
0.0
 15
0.0
 25
0.0
 35
0.0
146
0.0
 13
0.0
 23
0.0
 33
0.0
 16
1.0
 26
0.0
 36
0.0
 17
0.0
 27
1.0
 37
0.0
 76
     0
330
23
  0
LAYOUT
  5
22
102
{ACAD_REACTORS
330
1A
102
}
330
1A
100
AcDbPlotSettings
  1

  2
none_device
  4

  6

 40
0.0
 41
0.0
 42
0.0
 43
0.0
 44
0.0
 45
0.0
 46
0.0
 47
0.0
 48
0.0
 49
0.0
140
0.0
141
0.0
142
1.0
143
1.0
 70
  1712
 72
     0
 73
     0
 74
     0
  7

 75
     0
 76
     0
 77
     2
 78
   300
147
1.0
148
0.0
149
0.0
100
AcDbLayout
  1
Model
 70
     1
 71
     0
 10
0.0
 20
0.0
 11
12.0
 21
9.0
 12
0.0
 22
0.0
 32
0.0
 14
-57.1464
 24
-115.4763
 34
0.0
 15
66.5229
 25
131.8622
 35
0.0
146
0.0
 13
0.0
 23
0.0
 33
0.0
 16
1.0
 26
0.0
 36
0.0
 17
0.0
 27
1.0
 37
0.0
 76
     0
330
1F
331
29
  0
MATERIAL
  5
3D
102
{ACAD_REACTORS
330
3B
102
}
330
3B
100
AcDbMaterial
  1
ByBlock
 72
     1
 94
      127
  0
MATERIAL
  5
3C
102
{ACAD_REACTORS
330
3B
102
}
330
3B
100
AcDbMaterial
  1
ByLayer
 72
     1
 94
      127
  0
MATERIAL
  5
3E
102
{ACAD_REACTORS
330
3B
102
}
330
3B
100
AcDbMaterial
  1
Global
 72
     1
 94
      127
  0
MLINESTYLE
  5
18
102
{ACAD_REACTORS
330
17
102
}
330
17
100
AcDbMlineStyle
  2
Standard
 70
     0
  3

 62
   256
 51
90.0
 52
90.0
 71
     2
 49
0.5
 62
   256
  6
BYLAYER
 49
-0.5
 62
   256
  6
BYLAYER
  0
ACDBPLACEHOLDER
  5
F
102
{ACAD_REACTORS
330
E
102
}
330
E
  0
VISUALSTYLE
  5
2F
102
{ACAD_REACTORS
330
2A
102
}
102
{ACAD_XDICTIONARY
360
A8
102
}
330
2A
100
AcDbVisualStyle
  2
2dWireframe
 70
     4
 71
     0
 72
     2
 73
     0
 90
        0
 40
-0.6
 41
-30.0
 62
     5
 63
     7
421
 16777215
 74
     1
 91
        4
 64
     7
 65
   257
 75
     1
175
     1
 42
1.0
 92
        0
 66
   257
 43
1.0
 76
     1
 77
     6
 78
     2
 67
     7
 79
     5
170
     0
171
     0
290
     0
174
     0
 93
        1
 44
0.0
173
     0
291
     0
 45
0.0
  0
VISUALSTYLE
  5
31
102
{ACAD_REACTORS
330
2A
102
}
102
{ACAD_XDICTIONARY
360
AC
102
}
330
2A
100
AcDbVisualStyle
  2
3D Hidden
 70
     6
 71
     1
 72
     2
 73
     2
 90
        0
 40
-0.6
 41
-30.0
 62
     5
 63
     7
421
 16777215
 74
     2
 91
        2
 64
     7
 65
   257
 75
     2
175
     1
 42
40.0
 92
        0
 66
   257
 43
1.0
 76
     1
 77
     6
 78
     2
 67
     7
 79
     3
170
     0
171
     0
290
     0
174
     0
 93
        1
 44
0.0
173
     0
291
     0
 45
0.0
  0
VISUALSTYLE
  5
30
102
{ACAD_REACTORS
330
2A
102
}
102
{ACAD_XDICTIONARY
360
AA
102
}
330
2A
100
AcDbVisualStyle
  2
3dWireframe
 70
     5
 71
     0
 72
     2
 73
     0
 90
        0
 40
-0.6
 41
-30.0
 62
     5
 63
     7
421
 16777215
 74
     1
 91
        4
 64
     7
 65
   257
 75
     1
175
     1
 42
1.0
 92
        0
 66
   257
 43
1.0
 76
     1
 77
     6
 78
     2
 67
     7
 79
     5
170
     0
171
     0
290
     0
174
     0
 93
        1
 44
0.0
173
     0
291
     0
 45
0.0
  0
VISUALSTYLE
  5
32
102
{ACAD_REACTORS
330
2A
102
}
102
{ACAD_XDICTIONARY
360
AE
102
}
330
2A
100
AcDbVisualStyle
  2
Basic
 70
     7
 71
     1
 72
     0
 73
     1
 90
        0
 40
-0.6
 41
-30.0
 62
     5
 63
     7
421
 16777215
 74
     0
 91
        4
 64
     7
 65
   257
 75
     1
175
     1
 42
1.0
 92
        8
 66
     7
 43
1.0
 76
     1
 77
     6
 78
     2
 67
     7
 79
     5
170
     0
171
     0
290
     0
174
     0
 93
        1
 44
0.0
173
     0
291
     1
 45
0.0
  0
VISUALSTYLE
  5
36
102
{ACAD_REACTORS
330
2A
102
}
102
{ACAD_XDICTIONARY
360
B6
102
}
330
2A
100
AcDbVisualStyle
  2
Brighten
 70
    12
 71
     2
 72
     2
 73
     0
 90
        0
 40
-0.6
 41
-30.0
 62
     5
 63
     7
421
 16777215
 74
     1
 91
        4
 64
     7
 65
   257
 75
     1
175
     1
 42
1.0
 92
        8
 66
     7
 43
1.0
 76
     1
 77
     6
 78
     2
 67
     7
 79
     5
170
     0
171
     0
290
     0
174
     0
 93
        1
 44
50.0
173
     0
291
     1
 45
0.0
  0
VISUALSTYLE
  5
3A
102
{ACAD_REACTORS
330
2A
102
}
102
{ACAD_XDICTIONARY
360
BE
102
}
330
2A
100
AcDbVisualStyle
  2
ColorChange
 70
    16
 71
     2
 72
     2
 73
     3
 90
        0
 40
-0.6
 41
-30.0
 62
     5
 63
     8
421
  8421504
 74
     1
 91
        4
 64
     7
 65
   257
 75
     1
175
     1
 42
1.0
 92
        8
 66
     8
424
  8421504
 43
1.0
 76
     1
 77
     6
 78
     2
 67
     7
 79
     5
170
     0
171
     0
290
     0
174
     0
 93
        1
 44
0.0
173
     0
291
     1
 45
0.0
  0
VISUALSTYLE
  5
34
102
{ACAD_REACTORS
330
2A
102
}
102
{ACAD_XDICTIONARY
360
B2
102
}
330
2A
100
AcDbVisualStyle
  2
Conceptual
 70
     9
 71
     3
 72
     2
 73
     0
 90
        0
 40
-0.6
 41
-30.0
 62
     5
 63
     7
421
 16777215
 74
     2
 91
        2
 64
     7
 65
   257
 75
     1
175
     1
 42
40.0
 92
        8
 66
     7
 43
1.0
 76
     1
 77
     6
 78
     2
 67
     7
 79
     3
170
     0
171
     0
290
     0
174
     0
 93
        1
 44
0.0
173
     0
291
     0
 45
0.0
  0
VISUALSTYLE
  5
35
102
{ACAD_REACTORS
330
2A
102
}
102
{ACAD_XDICTIONARY
360
B4
102
}
330
2A
100
AcDbVisualStyle
  2
Dim
 70
    11
 71
     2
 72
     2
 73
     0
 90
        0
 40
-0.6
 41
-30.0
 62
     5
 63
     7
421
 16777215
 74
     1
 91
        4
 64
     7
 65
   257
 75
     1
175
     1
 42
1.0
 92
        8
 66
     7
 43
1.0
 76
     1
 77
     6
 78
     2
 67
     7
 79
     5
170
     0
171
     0
290
     0
174
     0
 93
        1
 44
-50.0
173
     0
291
     1
 45
0.0
  0
VISUALSTYLE
  5
39
102
{ACAD_REACTORS
330
2A
102
}
102
{ACAD_XDICTIONARY
360
BC
102
}
330
2A
100
AcDbVisualStyle
  2
Facepattern
 70
    15
 71
     2
 72
     2
 73
     0
 90
        0
 40
-0.6
 41
-30.0
 62
     5
 63
     7
421
 16777215
 74
     1
 91
        4
 64
     7
 65
   257
 75
     1
175
     1
 42
1.0
 92
        8
 66
     7
 43
1.0
 76
     1
 77
     6
 78
     2
 67
     7
 79
     5
170
     0
171
     0
290
     0
174
     0
 93
        1
 44
0.0
173
     0
291
     1
 45
0.0
  0
VISUALSTYLE
  5
2B
102
{ACAD_REACTORS
330
2A
102
}
102
{ACAD_XDICTIONARY
360
A0
102
}
330
2A
100
AcDbVisualStyle
  2
Flat
 70
     0
 71
     2
 72
     1
 73
     1
 90
        2
 40
-0.6
 41
30.0
 62
     5
 63
     7
421
 16777215
 74
     0
 91
        4
 64
     7
 65
   257
 75
     1
175
     1
 42
1.0
 92
        8
 66
     7
 43
1.0
 76
     1
 77
     6
 78
     2
 67
     7
 79
     5
170
     0
171
     0
290
     0
174
     0
 93
       13
 44
0.0
173
     0
291
     1
 45
0.0
  0
VISUALSTYLE
  5
2C
102
{ACAD_REACTORS
330
2A
102
}
102
{ACAD_XDICTIONARY
360
A2
102
}
330
2A
100
AcDbVisualStyle
  2
FlatWithEdges
 70
     1
 71
     2
 72
     1
 73
     1
 90
        2
 40
-0.6
 41
30.0
 62
     5
 63
     7
421
 16777215
 74
     1
 91
        4
 64
     7
 65
   257
 75
     1
175
     1
 42
1.0
 92
        0
 66
   257
 43
1.0
 76
     1
 77
     6
 78
     2
 67
     7
 79
     5
170
     0
171
     0
290
     0
174
     0
 93
       13
 44
0.0
173
     0
291
     1
 45
0.0
  0
VISUALSTYLE
  5
2D
102
{ACAD_REACTORS
330
2A
102
}
102
{ACAD_XDICTIONARY
360
A4
102
}
330
2A
100
AcDbVisualStyle
  2
Gouraud
 70
     2
 71
     2
 72
     2
 73
     1
 90
        2
 40
-0.6
 41
30.0
 62
     5
 63
     7
421
 16777215
 74
     0
 91
        4
 64
     7
 65
   257
 75
     1
175
     1
 42
1.0
 92
        0
 66
     7
 43
1.0
 76
     1
 77
     6
 78
     2
 67
     7
 79
     5
170
     0
171
     0
290
     0
174
     0
 93
       13
 44
0.0
173
     0
291
     1
 45
0.0
  0
VISUALSTYLE
  5
2E
102
{ACAD_REACTORS
330
2A
102
}
102
{ACAD_XDICTIONARY
360
A6
102
}
330
2A
100
AcDbVisualStyle
  2
GouraudWithEdges
 70
     3
 71
     2
 72
     2
 73
     1
 90
        2
 40
-0.6
 41
30.0
 62
     5
 63
     7
421
 16777215
 74
     1
 91
        4
 64
     7
 65
   257
 75
     1
175
     1
 42
1.0
 92
        0
 66
   257
 43
1.0
 76
     1
 77
     6
 78
     2
 67
     7
 79
     5
170
     0
171
     0
290
     0
174
     0
 93
       13
 44
0.0
173
     0
291
     1
 45
0.0
  0
VISUALSTYLE
  5
38
102
{ACAD_REACTORS
330
2A
102
}
102
{ACAD_XDICTIONARY
360
BA
102
}
330
2A
100
AcDbVisualStyle
  2
Linepattern
 70
    14
 71
     2
 72
     2
 73
     0
 90
        0
 40
-0.6
 41
-30.0
 62
     5
 63
     7
421
 16777215
 74
     1
 91
        4
 64
     7
 65
   257
 75
     7
175
     7
 42
1.0
 92
        8
 66
     7
 43
1.0
 76
     1
 77
     6
 78
     2
 67
     7
 79
     5
170
     0
171
     0
290
     0
174
     0
 93
        1
 44
0.0
173
     0
291
     1
 45
0.0
  0
VISUALSTYLE
  5
33
102
{ACAD_REACTORS
330
2A
102
}
102
{ACAD_XDICTIONARY
360
B0
102
}
330
2A
100
AcDbVisualStyle
  2
Realistic
 70
     8
 71
     2
 72
     2
 73
     0
 90
        0
 40
-0.6
 41
-30.0
 62
     5
 63
     7
421
 16777215
 74
     1
 91
        0
 64
     7
 65
   257
 75
     1
175
     1
 42
1.0
 92
        8
 66
     8
424
  7895160
 43
1.0
 76
     1
 77
     6
 78
     2
 67
     7
 79
     5
170
     0
171
     0
290
     0
174
     0
 93
       13
 44
0.0
173
     0
291
     0
 45
0.0
  0
VISUALSTYLE
  5
37
102
{ACAD_REACTORS
330
2A
102
}
102
{ACAD_XDICTIONARY
360
B8
102
}
330
2A
100
AcDbVisualStyle
  2
Thicken
 70
    13
 71
     2
 72
     2
 73
     0
 90
        0
 40
-0.6
 41
-30.0
 62
     5
 63
     7
421
 16777215
 74
     1
 91
        4
 64
     7
 65
   257
 75
     1
175
     1
 42
1.0
 92
       12
 66
     7
 43
1.0
 76
     1
 77
     6
 78
     2
 67
     7
 79
     5
170
     0
171
     0
290
     0
174
     0
 93
        1
 44
0.0
173
     0
291
     1
 45
0.0
  0
DICTIONARY
  5
A8
330
2F
100
AcDbDictionary
280
     1
281
     1
  3
ACAD_XREC_ROUNDTRIP
360
A9
  0
DICTIONARY
  5
AC
330
31
100
AcDbDictionary
280
     1
281
     1
  3
ACAD_XREC_ROUNDTRIP
360
AD
  0
DICTIONARY
  5
AA
330
30
100
AcDbDictionary
280
     1
281
     1
  3
ACAD_XREC_ROUNDTRIP
360
AB
  0
DICTIONARY
  5
AE
330
32
100
AcDbDictionary
280
     1
281
     1
  3
ACAD_XREC_ROUNDTRIP
360
AF
  0
DICTIONARY
  5
B6
330
36
100
AcDbDictionary
280
     1
281
     1
  3
ACAD_XREC_ROUNDTRIP
360
B7
  0
DICTIONARY
  5
BE
330
3A
100
AcDbDictionary
280
     1
281
     1
  3
ACAD_XREC_ROUNDTRIP
360
BF
  0
DICTIONARY
  5
B2
330
34
100
AcDbDictionary
280
     1
281
     1
  3
ACAD_XREC_ROUNDTRIP
360
B3
  0
DICTIONARY
  5
B4
330
35
100
AcDbDictionary
280
     1
281
     1
  3
ACAD_XREC_ROUNDTRIP
360
B5
  0
DICTIONARY
  5
BC
330
39
100
AcDbDictionary
280
     1
281
     1
  3
ACAD_XREC_ROUNDTRIP
360
BD
  0
DICTIONARY
  5
A0
330
2B
100
AcDbDictionary
280
     1
281
     1
  3
ACAD_XREC_ROUNDTRIP
360
A1
  0
DICTIONARY
  5
A2
330
2C
100
AcDbDictionary
280
     1
281
     1
  3
ACAD_XREC_ROUNDTRIP
360
A3
  0
DICTIONARY
  5
A4
330
2D
100
AcDbDictionary
280
     1
281
     1
  3
ACAD_XREC_ROUNDTRIP
360
A5
  0
DICTIONARY
  5
A6
330
2E
100
AcDbDictionary
280
     1
281
     1
  3
ACAD_XREC_ROUNDTRIP
360
A7
  0
DICTIONARY
  5
BA
330
38
100
AcDbDictionary
280
     1
281
     1
  3
ACAD_XREC_ROUNDTRIP
360
BB
  0
DICTIONARY
  5
B0
330
33
100
AcDbDictionary
280
     1
281
     1
  3
ACAD_XREC_ROUNDTRIP
360
B1
  0
DICTIONARY
  5
B8
330
37
100
AcDbDictionary
280
     1
281
     1
  3
ACAD_XREC_ROUNDTRIP
360
B9
  0
XRECORD
  5
A9
102
{ACAD_REACTORS
330
A8
102
}
330
A8
100
AcDbXrecord
280
     1
102
RTVSPropertyOp0
 70
     1
102
RTVSPropertyOp1
 70
     1
102
RTVSPropertyOp2
 70
     1
102
RTVSPropertyOp3
 70
     1
102
RTVSPropertyOp4
 70
     1
102
RTVSPropertyOp5
 70
     1
102
RTVSPropertyOp6
 70
     1
102
RTVSPropertyOp7
 70
     1
102
RTVSPropertyOp8
 70
     1
102
RTVSPropertyOp9
 70
     1
102
RTVSPropertyOp10
 70
     1
102
RTVSPropertyOp11
 70
     1
102
RTVSPropertyOp12
 70
     1
102
RTVSPropertyOp13
 70
     1
102
RTVSPropertyOp14
 70
     1
102
RTVSPropertyOp15
 70
     1
102
RTVSPropertyOp16
 70
     1
102
RTVSPropertyOp17
 70
     1
102
RTVSPropertyOp18
 70
     1
102
RTVSPropertyOp19
 70
     1
102
RTVSPropertyOp20
 70
     1
102
RTVSPropertyOp21
 70
     1
102
RTVSPropertyOp22
 70
     1
102
RTVSPropertyOp23
 70
     1
102
RTVSPropertyOp24
 70
     1
102
RTVSPropertyOp25
 70
     1
102
RTVSPropertyOp26
 70
     1
102
RTVSPropertyOp27
 70
     1
102
RTVSPropertyOp28
 70
     1
102
RTVSPropertyOp29
 70
     1
102
RTVSPropertyOp30
 70
     1
102
RTVSPropertyOp31
 70
     1
102
RTVSPropertyOp32
 70
     1
  0
XRECORD
  5
AD
102
{ACAD_REACTORS
330
AC
102
}
330
AC
100
AcDbXrecord
280
     1
102
RTVSPropertyOp0
 70
     1
102
RTVSPropertyOp1
 70
     1
102
RTVSPropertyOp2
 70
     1
102
RTVSPropertyOp3
 70
     1
102
RTVSPropertyOp4
 70
     1
102
RTVSPropertyOp5
 70
     1
102
RTVSPropertyOp6
 70
     1
102
RTVSPropertyOp7
 70
     1
102
RTVSPropertyOp8
 70
     1
102
RTVSPropertyOp9
 70
     1
102
RTVSPropertyOp10
 70
     1
102
RTVSPropertyOp11
 70
     1
102
RTVSPropertyOp12
 70
     1
102
RTVSPropertyOp13
 70
     1
102
RTVSPropertyOp14
 70
     1
102
RTVSPropertyOp15
 70
     1
102
RTVSPropertyOp16
 70
     1
102
RTVSPropertyOp17
 70
     1
102
RTVSPropertyOp18
 70
     1
102
RTVSPropertyOp19
 70
     1
102
RTVSPropertyOp20
 70
     1
102
RTVSPropertyOp21
 70
     1
102
RTVSPropertyOp22
 70
     1
102
RTVSPropertyOp23
 70
     1
102
RTVSPropertyOp24
 70
     1
102
RTVSPropertyOp25
 70
     1
102
RTVSPropertyOp26
 70
     1
102
RTVSPropertyOp27
 70
     1
102
RTVSPropertyOp28
 70
     1
102
RTVSPropertyOp29
 70
     1
102
RTVSPropertyOp30
 70
     1
102
RTVSPropertyOp31
 70
     1
102
RTVSPropertyOp32
 70
     1
  0
XRECORD
  5
AB
102
{ACAD_REACTORS
330
AA
102
}
330
AA
100
AcDbXrecord
280
     1
102
RTVSPropertyOp0
 70
     1
102
RTVSPropertyOp1
 70
     1
102
RTVSPropertyOp2
 70
     1
102
RTVSPropertyOp3
 70
     1
102
RTVSPropertyOp4
 70
     1
102
RTVSPropertyOp5
 70
     1
102
RTVSPropertyOp6
 70
     1
102
RTVSPropertyOp7
 70
     1
102
RTVSPropertyOp8
 70
     1
102
RTVSPropertyOp9
 70
     1
102
RTVSPropertyOp10
 70
     1
102
RTVSPropertyOp11
 70
     1
102
RTVSPropertyOp12
 70
     1
102
RTVSPropertyOp13
 70
     1
102
RTVSPropertyOp14
 70
     1
102
RTVSPropertyOp15
 70
     1
102
RTVSPropertyOp16
 70
     1
102
RTVSPropertyOp17
 70
     1
102
RTVSPropertyOp18
 70
     1
102
RTVSPropertyOp19
 70
     1
102
RTVSPropertyOp20
 70
     1
102
RTVSPropertyOp21
 70
     1
102
RTVSPropertyOp22
 70
     1
102
RTVSPropertyOp23
 70
     1
102
RTVSPropertyOp24
 70
     1
102
RTVSPropertyOp25
 70
     1
102
RTVSPropertyOp26
 70
     1
102
RTVSPropertyOp27
 70
     1
102
RTVSPropertyOp28
 70
     1
102
RTVSPropertyOp29
 70
     1
102
RTVSPropertyOp30
 70
     1
102
RTVSPropertyOp31
 70
     1
102
RTVSPropertyOp32
 70
     1
  0
XRECORD
  5
AF
102
{ACAD_REACTORS
330
AE
102
}
330
AE
100
AcDbXrecord
280
     1
102
RTVSPropertyOp0
 70
     1
102
RTVSPropertyOp1
 70
     1
102
RTVSPropertyOp2
 70
     1
102
RTVSPropertyOp3
 70
     1
102
RTVSPropertyOp4
 70
     1
102
RTVSPropertyOp5
 70
     1
102
RTVSPropertyOp6
 70
     1
102
RTVSPropertyOp7
 70
     1
102
RTVSPropertyOp8
 70
     1
102
RTVSPropertyOp9
 70
     1
102
RTVSPropertyOp10
 70
     1
102
RTVSPropertyOp11
 70
     1
102
RTVSPropertyOp12
 70
     1
102
RTVSPropertyOp13
 70
     1
102
RTVSPropertyOp14
 70
     1
102
RTVSPropertyOp15
 70
     1
102
RTVSPropertyOp16
 70
     1
102
RTVSPropertyOp17
 70
     1
102
RTVSPropertyOp18
 70
     1
102
RTVSPropertyOp19
 70
     1
102
RTVSPropertyOp20
 70
     1
102
RTVSPropertyOp21
 70
     1
102
RTVSPropertyOp22
 70
     1
102
RTVSPropertyOp23
 70
     1
102
RTVSPropertyOp24
 70
     1
102
RTVSPropertyOp25
 70
     1
102
RTVSPropertyOp26
 70
     1
102
RTVSPropertyOp27
 70
     1
102
RTVSPropertyOp28
 70
     1
102
RTVSPropertyOp29
 70
     1
102
RTVSPropertyOp30
 70
     1
102
RTVSPropertyOp31
 70
     1
102
RTVSPropertyOp32
 70
     1
  0
XRECORD
  5
B7
102
{ACAD_REACTORS
330
B6
102
}
330
B6
100
AcDbXrecord
280
     1
102
RTVSPropertyOp0
 70
     1
102
RTVSPropertyOp1
 70
     1
102
RTVSPropertyOp2
 70
     1
102
RTVSPropertyOp3
 70
     1
102
RTVSPropertyOp4
 70
     1
102
RTVSPropertyOp5
 70
     1
102
RTVSPropertyOp6
 70
     1
102
RTVSPropertyOp7
 70
     1
102
RTVSPropertyOp8
 70
     1
102
RTVSPropertyOp9
 70
     1
102
RTVSPropertyOp10
 70
     1
102
RTVSPropertyOp11
 70
     1
102
RTVSPropertyOp12
 70
     1
102
RTVSPropertyOp13
 70
     1
102
RTVSPropertyOp14
 70
     1
102
RTVSPropertyOp15
 70
     1
102
RTVSPropertyOp16
 70
     1
102
RTVSPropertyOp17
 70
     1
102
RTVSPropertyOp18
 70
     1
102
RTVSPropertyOp19
 70
     1
102
RTVSPropertyOp20
 70
     1
102
RTVSPropertyOp21
 70
     1
102
RTVSPropertyOp22
 70
     1
102
RTVSPropertyOp23
 70
     1
102
RTVSPropertyOp24
 70
     1
102
RTVSPropertyOp25
 70
     1
102
RTVSPropertyOp26
 70
     1
102
RTVSPropertyOp27
 70
     1
102
RTVSPropertyOp28
 70
     1
102
RTVSPropertyOp29
 70
     1
102
RTVSPropertyOp30
 70
     1
102
RTVSPropertyOp31
 70
     1
102
RTVSPropertyOp32
 70
     1
  0
XRECORD
  5
BF
102
{ACAD_REACTORS
330
BE
102
}
330
BE
100
AcDbXrecord
280
     1
102
RTVSPropertyOp0
 70
     1
102
RTVSPropertyOp1
 70
     1
102
RTVSPropertyOp2
 70
     1
102
RTVSPropertyOp3
 70
     1
102
RTVSPropertyOp4
 70
     1
102
RTVSPropertyOp5
 70
     1
102
RTVSPropertyOp6
 70
     1
102
RTVSPropertyOp7
 70
     1
102
RTVSPropertyOp8
 70
     1
102
RTVSPropertyOp9
 70
     1
102
RTVSPropertyOp10
 70
     1
102
RTVSPropertyOp11
 70
     1
102
RTVSPropertyOp12
 70
     1
102
RTVSPropertyOp13
 70
     1
102
RTVSPropertyOp14
 70
     1
102
RTVSPropertyOp15
 70
     1
102
RTVSPropertyOp16
 70
     1
102
RTVSPropertyOp17
 70
     1
102
RTVSPropertyOp18
 70
     1
102
RTVSPropertyOp19
 70
     1
102
RTVSPropertyOp20
 70
     1
102
RTVSPropertyOp21
 70
     1
102
RTVSPropertyOp22
 70
     1
102
RTVSPropertyOp23
 70
     1
102
RTVSPropertyOp24
 70
     1
102
RTVSPropertyOp25
 70
     1
102
RTVSPropertyOp26
 70
     1
102
RTVSPropertyOp27
 70
     1
102
RTVSPropertyOp28
 70
     1
102
RTVSPropertyOp29
 70
     1
102
RTVSPropertyOp30
 70
     1
102
RTVSPropertyOp31
 70
     1
102
RTVSPropertyOp32
 70
     1
  0
XRECORD
  5
B3
102
{ACAD_REACTORS
330
B2
102
}
330
B2
100
AcDbXrecord
280
     1
102
RTVSPropertyOp0
 70
     1
102
RTVSPropertyOp1
 70
     1
102
RTVSPropertyOp2
 70
     1
102
RTVSPropertyOp3
 70
     1
102
RTVSPropertyOp4
 70
     1
102
RTVSPropertyOp5
 70
     1
102
RTVSPropertyOp6
 70
     1
102
RTVSPropertyOp7
 70
     1
102
RTVSPropertyOp8
 70
     1
102
RTVSPropertyOp9
 70
     1
102
RTVSPropertyOp10
 70
     1
102
RTVSPropertyOp11
 70
     1
102
RTVSPropertyOp12
 70
     1
102
RTVSPropertyOp13
 70
     1
102
RTVSPropertyOp14
 70
     1
102
RTVSPropertyOp15
 70
     1
102
RTVSPropertyOp16
 70
     1
102
RTVSPropertyOp17
 70
     1
102
RTVSPropertyOp18
 70
     1
102
RTVSPropertyOp19
 70
     1
102
RTVSPropertyOp20
 70
     1
102
RTVSPropertyOp21
 70
     1
102
RTVSPropertyOp22
 70
     1
102
RTVSPropertyOp23
 70
     1
102
RTVSPropertyOp24
 70
     1
102
RTVSPropertyOp25
 70
     1
102
RTVSPropertyOp26
 70
     1
102
RTVSPropertyOp27
 70
     1
102
RTVSPropertyOp28
 70
     1
102
RTVSPropertyOp29
 70
     1
102
RTVSPropertyOp30
 70
     1
102
RTVSPropertyOp31
 70
     1
102
RTVSPropertyOp32
 70
     1
  0
XRECORD
  5
B5
102
{ACAD_REACTORS
330
B4
102
}
330
B4
100
AcDbXrecord
280
     1
102
RTVSPropertyOp0
 70
     1
102
RTVSPropertyOp1
 70
     1
102
RTVSPropertyOp2
 70
     1
102
RTVSPropertyOp3
 70
     1
102
RTVSPropertyOp4
 70
     1
102
RTVSPropertyOp5
 70
     1
102
RTVSPropertyOp6
 70
     1
102
RTVSPropertyOp7
 70
     1
102
RTVSPropertyOp8
 70
     1
102
RTVSPropertyOp9
 70
     1
102
RTVSPropertyOp10
 70
     1
102
RTVSPropertyOp11
 70
     1
102
RTVSPropertyOp12
 70
     1
102
RTVSPropertyOp13
 70
     1
102
RTVSPropertyOp14
 70
     1
102
RTVSPropertyOp15
 70
     1
102
RTVSPropertyOp16
 70
     1
102
RTVSPropertyOp17
 70
     1
102
RTVSPropertyOp18
 70
     1
102
RTVSPropertyOp19
 70
     1
102
RTVSPropertyOp20
 70
     1
102
RTVSPropertyOp21
 70
     1
102
RTVSPropertyOp22
 70
     1
102
RTVSPropertyOp23
 70
     1
102
RTVSPropertyOp24
 70
     1
102
RTVSPropertyOp25
 70
     1
102
RTVSPropertyOp26
 70
     1
102
RTVSPropertyOp27
 70
     1
102
RTVSPropertyOp28
 70
     1
102
RTVSPropertyOp29
 70
     1
102
RTVSPropertyOp30
 70
     1
102
RTVSPropertyOp31
 70
     1
102
RTVSPropertyOp32
 70
     1
  0
XRECORD
  5
BD
102
{ACAD_REACTORS
330
BC
102
}
330
BC
100
AcDbXrecord
280
     1
102
RTVSPropertyOp0
 70
     1
102
RTVSPropertyOp1
 70
     1
102
RTVSPropertyOp2
 70
     1
102
RTVSPropertyOp3
 70
     1
102
RTVSPropertyOp4
 70
     1
102
RTVSPropertyOp5
 70
     1
102
RTVSPropertyOp6
 70
     1
102
RTVSPropertyOp7
 70
     1
102
RTVSPropertyOp8
 70
     1
102
RTVSPropertyOp9
 70
     1
102
RTVSPropertyOp10
 70
     1
102
RTVSPropertyOp11
 70
     1
102
RTVSPropertyOp12
 70
     1
102
RTVSPropertyOp13
 70
     1
102
RTVSPropertyOp14
 70
     1
102
RTVSPropertyOp15
 70
     1
102
RTVSPropertyOp16
 70
     1
102
RTVSPropertyOp17
 70
     1
102
RTVSPropertyOp18
 70
     1
102
RTVSPropertyOp19
 70
     1
102
RTVSPropertyOp20
 70
     1
102
RTVSPropertyOp21
 70
     1
102
RTVSPropertyOp22
 70
     1
102
RTVSPropertyOp23
 70
     1
102
RTVSPropertyOp24
 70
     1
102
RTVSPropertyOp25
 70
     1
102
RTVSPropertyOp26
 70
     1
102
RTVSPropertyOp27
 70
     1
102
RTVSPropertyOp28
 70
     1
102
RTVSPropertyOp29
 70
     1
102
RTVSPropertyOp30
 70
     1
102
RTVSPropertyOp31
 70
     1
102
RTVSPropertyOp32
 70
     1
  0
XRECORD
  5
A1
102
{ACAD_REACTORS
330
A0
102
}
330
A0
100
AcDbXrecord
280
     1
102
RTVSPropertyOp0
 70
     1
102
RTVSPropertyOp1
 70
     1
102
RTVSPropertyOp2
 70
     1
102
RTVSPropertyOp3
 70
     1
102
RTVSPropertyOp4
 70
     1
102
RTVSPropertyOp5
 70
     1
102
RTVSPropertyOp6
 70
     1
102
RTVSPropertyOp7
 70
     1
102
RTVSPropertyOp8
 70
     1
102
RTVSPropertyOp9
 70
     1
102
RTVSPropertyOp10
 70
     1
102
RTVSPropertyOp11
 70
     1
102
RTVSPropertyOp12
 70
     1
102
RTVSPropertyOp13
 70
     1
102
RTVSPropertyOp14
 70
     1
102
RTVSPropertyOp15
 70
     1
102
RTVSPropertyOp16
 70
     1
102
RTVSPropertyOp17
 70
     1
102
RTVSPropertyOp18
 70
     1
102
RTVSPropertyOp19
 70
     1
102
RTVSPropertyOp20
 70
     1
102
RTVSPropertyOp21
 70
     1
102
RTVSPropertyOp22
 70
     1
102
RTVSPropertyOp23
 70
     1
102
RTVSPropertyOp24
 70
     1
102
RTVSPropertyOp25
 70
     1
102
RTVSPropertyOp26
 70
     1
102
RTVSPropertyOp27
 70
     1
102
RTVSPropertyOp28
 70
     1
102
RTVSPropertyOp29
 70
     1
102
RTVSPropertyOp30
 70
     1
102
RTVSPropertyOp31
 70
     1
102
RTVSPropertyOp32
 70
     1
  0
XRECORD
  5
A3
102
{ACAD_REACTORS
330
A2
102
}
330
A2
100
AcDbXrecord
280
     1
102
RTVSPropertyOp0
 70
     1
102
RTVSPropertyOp1
 70
     1
102
RTVSPropertyOp2
 70
     1
102
RTVSPropertyOp3
 70
     1
102
RTVSPropertyOp4
 70
     1
102
RTVSPropertyOp5
 70
     1
102
RTVSPropertyOp6
 70
     1
102
RTVSPropertyOp7
 70
     1
102
RTVSPropertyOp8
 70
     1
102
RTVSPropertyOp9
 70
     1
102
RTVSPropertyOp10
 70
     1
102
RTVSPropertyOp11
 70
     1
102
RTVSPropertyOp12
 70
     1
102
RTVSPropertyOp13
 70
     1
102
RTVSPropertyOp14
 70
     1
102
RTVSPropertyOp15
 70
     1
102
RTVSPropertyOp16
 70
     1
102
RTVSPropertyOp17
 70
     1
102
RTVSPropertyOp18
 70
     1
102
RTVSPropertyOp19
 70
     1
102
RTVSPropertyOp20
 70
     1
102
RTVSPropertyOp21
 70
     1
102
RTVSPropertyOp22
 70
     1
102
RTVSPropertyOp23
 70
     1
102
RTVSPropertyOp24
 70
     1
102
RTVSPropertyOp25
 70
     1
102
RTVSPropertyOp26
 70
     1
102
RTVSPropertyOp27
 70
     1
102
RTVSPropertyOp28
 70
     1
102
RTVSPropertyOp29
 70
     1
102
RTVSPropertyOp30
 70
     1
102
RTVSPropertyOp31
 70
     1
102
RTVSPropertyOp32
 70
     1
  0
XRECORD
  5
A5
102
{ACAD_REACTORS
330
A4
102
}
330
A4
100
AcDbXrecord
280
     1
102
RTVSPropertyOp0
 70
     1
102
RTVSPropertyOp1
 70
     1
102
RTVSPropertyOp2
 70
     1
102
RTVSPropertyOp3
 70
     1
102
RTVSPropertyOp4
 70
     1
102
RTVSPropertyOp5
 70
     1
102
RTVSPropertyOp6
 70
     1
102
RTVSPropertyOp7
 70
     1
102
RTVSPropertyOp8
 70
     1
102
RTVSPropertyOp9
 70
     1
102
RTVSPropertyOp10
 70
     1
102
RTVSPropertyOp11
 70
     1
102
RTVSPropertyOp12
 70
     1
102
RTVSPropertyOp13
 70
     1
102
RTVSPropertyOp14
 70
     1
102
RTVSPropertyOp15
 70
     1
102
RTVSPropertyOp16
 70
     1
102
RTVSPropertyOp17
 70
     1
102
RTVSPropertyOp18
 70
     1
102
RTVSPropertyOp19
 70
     1
102
RTVSPropertyOp20
 70
     1
102
RTVSPropertyOp21
 70
     1
102
RTVSPropertyOp22
 70
     1
102
RTVSPropertyOp23
 70
     1
102
RTVSPropertyOp24
 70
     1
102
RTVSPropertyOp25
 70
     1
102
RTVSPropertyOp26
 70
     1
102
RTVSPropertyOp27
 70
     1
102
RTVSPropertyOp28
 70
     1
102
RTVSPropertyOp29
 70
     1
102
RTVSPropertyOp30
 70
     1
102
RTVSPropertyOp31
 70
     1
102
RTVSPropertyOp32
 70
     1
  0
XRECORD
  5
A7
102
{ACAD_REACTORS
330
A6
102
}
330
A6
100
AcDbXrecord
280
     1
102
RTVSPropertyOp0
 70
     1
102
RTVSPropertyOp1
 70
     1
102
RTVSPropertyOp2
 70
     1
102
RTVSPropertyOp3
 70
     1
102
RTVSPropertyOp4
 70
     1
102
RTVSPropertyOp5
 70
     1
102
RTVSPropertyOp6
 70
     1
102
RTVSPropertyOp7
 70
     1
102
RTVSPropertyOp8
 70
     1
102
RTVSPropertyOp9
 70
     1
102
RTVSPropertyOp10
 70
     1
102
RTVSPropertyOp11
 70
     1
102
RTVSPropertyOp12
 70
     1
102
RTVSPropertyOp13
 70
     1
102
RTVSPropertyOp14
 70
     1
102
RTVSPropertyOp15
 70
     1
102
RTVSPropertyOp16
 70
     1
102
RTVSPropertyOp17
 70
     1
102
RTVSPropertyOp18
 70
     1
102
RTVSPropertyOp19
 70
     1
102
RTVSPropertyOp20
 70
     1
102
RTVSPropertyOp21
 70
     1
102
RTVSPropertyOp22
 70
     1
102
RTVSPropertyOp23
 70
     1
102
RTVSPropertyOp24
 70
     1
102
RTVSPropertyOp25
 70
     1
102
RTVSPropertyOp26
 70
     1
102
RTVSPropertyOp27
 70
     1
102
RTVSPropertyOp28
 70
     1
102
RTVSPropertyOp29
 70
     1
102
RTVSPropertyOp30
 70
     1
102
RTVSPropertyOp31
 70
     1
102
RTVSPropertyOp32
 70
     1
  0
XRECORD
  5
BB
102
{ACAD_REACTORS
330
BA
102
}
330
BA
100
AcDbXrecord
280
     1
102
RTVSPropertyOp0
 70
     1
102
RTVSPropertyOp1
 70
     1
102
RTVSPropertyOp2
 70
     1
102
RTVSPropertyOp3
 70
     1
102
RTVSPropertyOp4
 70
     1
102
RTVSPropertyOp5
 70
     1
102
RTVSPropertyOp6
 70
     1
102
RTVSPropertyOp7
 70
     1
102
RTVSPropertyOp8
 70
     1
102
RTVSPropertyOp9
 70
     1
102
RTVSPropertyOp10
 70
     1
102
RTVSPropertyOp11
 70
     1
102
RTVSPropertyOp12
 70
     1
102
RTVSPropertyOp13
 70
     1
102
RTVSPropertyOp14
 70
     1
102
RTVSPropertyOp15
 70
     1
102
RTVSPropertyOp16
 70
     1
102
RTVSPropertyOp17
 70
     1
102
RTVSPropertyOp18
 70
     1
102
RTVSPropertyOp19
 70
     1
102
RTVSPropertyOp20
 70
     1
102
RTVSPropertyOp21
 70
     1
102
RTVSPropertyOp22
 70
     1
102
RTVSPropertyOp23
 70
     1
102
RTVSPropertyOp24
 70
     1
102
RTVSPropertyOp25
 70
     1
102
RTVSPropertyOp26
 70
     1
102
RTVSPropertyOp27
 70
     1
102
RTVSPropertyOp28
 70
     1
102
RTVSPropertyOp29
 70
     1
102
RTVSPropertyOp30
 70
     1
102
RTVSPropertyOp31
 70
     1
102
RTVSPropertyOp32
 70
     1
  0
XRECORD
  5
B1
102
{ACAD_REACTORS
330
B0
102
}
330
B0
100
AcDbXrecord
280
     1
102
RTVSPropertyOp0
 70
     1
102
RTVSPropertyOp1
 70
     1
102
RTVSPropertyOp2
 70
     1
102
RTVSPropertyOp3
 70
     1
102
RTVSPropertyOp4
 70
     1
102
RTVSPropertyOp5
 70
     1
102
RTVSPropertyOp6
 70
     1
102
RTVSPropertyOp7
 70
     1
102
RTVSPropertyOp8
 70
     1
102
RTVSPropertyOp9
 70
     1
102
RTVSPropertyOp10
 70
     1
102
RTVSPropertyOp11
 70
     1
102
RTVSPropertyOp12
 70
     1
102
RTVSPropertyOp13
 70
     1
102
RTVSPropertyOp14
 70
     1
102
RTVSPropertyOp15
 70
     1
102
RTVSPropertyOp16
 70
     1
102
RTVSPropertyOp17
 70
     1
102
RTVSPropertyOp18
 70
     1
102
RTVSPropertyOp19
 70
     1
102
RTVSPropertyOp20
 70
     1
102
RTVSPropertyOp21
 70
     1
102
RTVSPropertyOp22
 70
     1
102
RTVSPropertyOp23
 70
     1
102
RTVSPropertyOp24
 70
     1
102
RTVSPropertyOp25
 70
     1
102
RTVSPropertyOp26
 70
     1
102
RTVSPropertyOp27
 70
     1
102
RTVSPropertyOp28
 70
     1
102
RTVSPropertyOp29
 70
     1
102
RTVSPropertyOp30
 70
     1
102
RTVSPropertyOp31
 70
     1
102
RTVSPropertyOp32
 70
     1
  0
XRECORD
  5
B9
102
{ACAD_REACTORS
330
B8
102
}
330
B8
100
AcDbXrecord
280
     1
102
RTVSPropertyOp0
 70
     1
102
RTVSPropertyOp1
 70
     1
102
RTVSPropertyOp2
 70
     1
102
RTVSPropertyOp3
 70
     1
102
RTVSPropertyOp4
 70
     1
102
RTVSPropertyOp5
 70
     1
102
RTVSPropertyOp6
 70
     1
102
RTVSPropertyOp7
 70
     1
102
RTVSPropertyOp8
 70
     1
102
RTVSPropertyOp9
 70
     1
102
RTVSPropertyOp10
 70
     1
102
RTVSPropertyOp11
 70
     1
102
RTVSPropertyOp12
 70
     1
102
RTVSPropertyOp13
 70
     1
102
RTVSPropertyOp14
 70
     1
102
RTVSPropertyOp15
 70
     1
102
RTVSPropertyOp16
 70
     1
102
RTVSPropertyOp17
 70
     1
102
RTVSPropertyOp18
 70
     1
102
RTVSPropertyOp19
 70
     1
102
RTVSPropertyOp20
 70
     1
102
RTVSPropertyOp21
 70
     1
102
RTVSPropertyOp22
 70
     1
102
RTVSPropertyOp23
 70
     1
102
RTVSPropertyOp24
 70
     1
102
RTVSPropertyOp25
 70
     1
102
RTVSPropertyOp26
 70
     1
102
RTVSPropertyOp27
 70
     1
102
RTVSPropertyOp28
 70
     1
102
RTVSPropertyOp29
 70
     1
102
RTVSPropertyOp30
 70
     1
102
RTVSPropertyOp31
 70
     1
102
RTVSPropertyOp32
 70
     1
  0
ENDSEC
  0
EOF
