  0
SECTION
  2
HEADER
  9
$ACADVER
  1
AC1021
  9
$ACADMAINTVER
 70
    25
  9
$DWGCODEPAGE
  3
ANSI_1252
  9
$INSBASE
 10
0.0
 20
0.0
 30
0.0
  9
$EXTMIN
 10
73.0272
 20
-114.3958
 30
0.0
  9
$EXTMAX
 10
196.1454
 20
131.8404
 30
0.0
  9
$LIMMIN
 10
0.0
 20
0.0
  9
$LIMMAX
 10
12.0
 20
9.0
  9
$ORTHOMODE
 70
     0
  9
$REGENMODE
 70
     1
  9
$FILLMODE
 70
     1
  9
$QTEXTMODE
 70
     0
  9
$MIRRTEXT
 70
     1
  9
$LTSCALE
 40
1.0
  9
$ATTMODE
 70
     1
  9
$TEXTSIZE
 40
0.2
  9
$TRACEWID
 40
0.05
  9
$TEXTSTYLE
  7
Standard
  9
$CLAYER
  8
0
  9
$CELTYPE
  6
ByLayer
  9
$CECOLOR
 62
   256
  9
$CELTSCALE
 40
1.0
  9
$DISPSILH
 70
     0
  9
$DIMSCALE
 40
1.0
  9
$DIMASZ
 40
0.18
  9
$DIMEXO
 40
0.0625
  9
$DIMDLI
 40
0.38
  9
$DIMRND
 40
0.0
  9
$DIMDLE
 40
0.0
  9
$DIMEXE
 40
0.18
  9
$DIMTP
 40
0.0
  9
$DIMTM
 40
0.0
  9
$DIMTXT
 40
0.18
  9
$DIMCEN
 40
0.09
  9
$DIMTSZ
 40
0.0
  9
$DIMTOL
 70
     0
  9
$DIMLIM
 70
     0
  9
$DIMTIH
 70
     1
  9
$DIMTOH
 70
     1
  9
$DIMSE1
 70
     0
  9
$DIMSE2
 70
     0
  9
$DIMTAD
 70
     0
  9
$DIMZIN
 70
     0
  9
$DIMBLK
  1

  9
$DIMASO
 70
     1
  9
$DIMSHO
 70
     1
  9
$DIMPOST
  1

  9
$DIMAPOST
  1

  9
$DIMALT
 70
     0
  9
$DIMALTD
 70
     2
  9
$DIMALTF
 40
25.4
  9
$DIMLFAC
 40
1.0
  9
$DIMTOFL
 70
     0
  9
$DIMTVP
 40
0.0
  9
$DIMTIX
 70
     0
  9
$DIMSOXD
 70
     0
  9
$DIMSAH
 70
     0
  9
$DIMBLK1
  1

  9
$DIMBLK2
  1

  9
$DIMSTYLE
  2
Standard
  9
$DIMCLRD
 70
     0
  9
$DIMCLRE
 70
     0
  9
$DIMCLRT
 70
     0
  9
$DIMTFAC
 40
1.0
  9
$DIMGAP
 40
0.09
  9
$DIMJUST
 70
     0
  9
$DIMSD1
 70
     0
  9
$DIMSD2
 70
     0
  9
$DIMTOLJ
 70
     1
  9
$DIMTZIN
 70
     0
  9
$DIMALTZ
 70
     0
  9
$DIMALTTZ
 70
     0
  9
$DIMUPT
 70
     0
  9
$DIMDEC
 70
     4
  9
$DIMTDEC
 70
     4
  9
$DIMALTU
 70
     2
  9
$DIMALTTD
 70
     2
  9
$DIMTXSTY
  7
Standard
  9
$DIMAUNIT
 70
     0
  9
$DIMADEC
 70
     0
  9
$DIMALTRND
 40
0.0
  9
$DIMAZIN
 70
     0
  9
$DIMDSEP
 70
    46
  9
$DIMATFIT
 70
     3
  9
$DIMFRAC
 70
     0
  9
$DIMLDRBLK
  1

  9
$DIMLUNIT
 70
     2
  9
$DIMLWD
 70
    -2
  9
$DIMLWE
 70
    -2
  9
$DIMTMOVE
 70
     0
  9
$DIMFXL
 40
1.0
  9
$DIMFXLON
 70
     0
  9
$DIMJOGANG
 40
0.7853981633974483
  9
$DIMTFILL
 70
     0
  9
$DIMTFILLCLR
 70
     0
  9
$DIMARCSYM
 70
     0
  9
$DIMLTYPE
  6

  9
$DIMLTEX1
  6

  9
$DIMLTEX2
  6

  9
$LUNITS
 70
     2
  9
$LUPREC
 70
     4
  9
$SKETCHINC
 40
0.1
  9
$FILLETRAD
 40
0.5
  9
$AUNITS
 70
     0
  9
$AUPREC
 70
     0
  9
$MENU
  1
.
  9
$ELEVATION
 40
0.0
  9
$PELEVATION
 40
0.0
  9
$THICKNESS
 40
0.0
  9
$LIMCHECK
 70
     0
  9
$CHAMFERA
 40
0.5
  9
$CHAMFERB
 40
0.5
  9
$CHAMFERC
 40
1.0
  9
$CHAMFERD
 40
0.0
  9
$SKPOLY
 70
     0
  9
$TDCREATE
 40
2458493.720213935
  9
$TDUCREATE
 40
2458493.720213935
  9
$TDUPDATE
 40
2458493.720214155
  9
$TDUUPDATE
 40
2458493.720214155
  9
$TDINDWG
 40
0.0000000116
  9
$TDUSRTIMER
 40
0.0000000116
  9
$USRTIMER
 70
     1
  9
$ANGBASE
 50
0.0
  9
$ANGDIR
 70
     0
  9
$PDMODE
 70
     0
  9
$PDSIZE
 40
0.0
  9
$PLINEWID
 40
0.0
  9
$SPLFRAME
 70
     0
  9
$SPLINETYPE
 70
     6
  9
$SPLINESEGS
 70
     8
  9
$HANDSEED
  5
149
  9
$SURFTAB1
 70
     6
  9
$SURFTAB2
 70
     6
  9
$SURFTYPE
 70
     6
  9
$SURFU
 70
     6
  9
$SURFV
 70
     6
  9
$UCSBASE
  2

  9
$UCSNAME
  2

  9
$UCSORG
 10
0.0
 20
0.0
 30
0.0
  9
$UCSXDIR
 10
1.0
 20
0.0
 30
0.0
  9
$UCSYDIR
 10
0.0
 20
1.0
 30
0.0
  9
$UCSORTHOREF
  2

  9
$UCSORTHOVIEW
 70
     0
  9
$UCSORGTOP
 10
0.0
 20
0.0
 30
0.0
  9
$UCSORGBOTTOM
 10
0.0
 20
0.0
 30
0.0
  9
$UCSORGLEFT
 10
0.0
 20
0.0
 30
0.0
  9
$UCSORGRIGHT
 10
0.0
 20
0.0
 30
0.0
  9
$UCSORGFRONT
 10
0.0
 20
0.0
 30
0.0
  9
$UCSORGBACK
 10
0.0
 20
0.0
 30
0.0
  9
$PUCSBASE
  2

  9
$PUCSNAME
  2

  9
$PUCSORG
 10
0.0
 20
0.0
 30
0.0
  9
$PUCSXDIR
 10
1.0
 20
0.0
 30
0.0
  9
$PUCSYDIR
 10
0.0
 20
1.0
 30
0.0
  9
$PUCSORTHOREF
  2

  9
$PUCSORTHOVIEW
 70
     0
  9
$PUCSORGTOP
 10
0.0
 20
0.0
 30
0.0
  9
$PUCSORGBOTTOM
 10
0.0
 20
0.0
 30
0.0
  9
$PUCSORGLEFT
 10
0.0
 20
0.0
 30
0.0
  9
$PUCSORGRIGHT
 10
0.0
 20
0.0
 30
0.0
  9
$PUCSORGFRONT
 10
0.0
 20
0.0
 30
0.0
  9
$PUCSORGBACK
 10
0.0
 20
0.0
 30
0.0
  9
$USERI1
 70
     0
  9
$USERI2
 70
     0
  9
$USERI3
 70
     0
  9
$USERI4
 70
     0
  9
$USERI5
 70
     0
  9
$USERR1
 40
0.0
  9
$USERR2
 40
0.0
  9
$USERR3
 40
0.0
  9
$USERR4
 40
0.0
  9
$USERR5
 40
0.0
  9
$WORLDVIEW
 70
     1
  9
$SHADEDGE
 70
     3
  9
$SHADEDIF
 70
    70
  9
$TILEMODE
 70
     1
  9
$MAXACTVP
 70
    64
  9
$PINSBASE
 10
0.0
 20
0.0
 30
0.0
  9
$PLIMCHECK
 70
     0
  9
$PEXTMIN
 10
1.000000000000000E+20
 20
1.000000000000000E+20
 30
1.000000000000000E+20
  9
$PEXTMAX
 10
-1.000000000000000E+20
 20
-1.000000000000000E+20
 30
-1.000000000000000E+20
  9
$PLIMMIN
 10
0.0
 20
0.0
  9
$PLIMMAX
 10
12.0
 20
9.0
  9
$UNITMODE
 70
     0
  9
$VISRETAIN
 70
     1
  9
$PLINEGEN
 70
     0
  9
$PSLTSCALE
 70
     1
  9
$TREEDEPTH
 70
  3020
  9
$CMLSTYLE
  2
Standard
  9
$CMLJUST
 70
     0
  9
$CMLSCALE
 40
1.0
  9
$PROXYGRAPHICS
 70
     1
  9
$MEASUREMENT
 70
     0
  9
$CELWEIGHT
370
    -1
  9
$ENDCAPS
280
     0
  9
$JOINSTYLE
280
     0
  9
$LWDISPLAY
290
     0
  9
$INSUNITS
 70
     4
  9
$HYPERLINKBASE
  1

  9
$STYLESHEET
  1

  9
$XEDIT
290
     1
  9
$CEPSNTYPE
380
     0
  9
$PSTYLEMODE
290
     1
  9
$FINGERPRINTGUID
  2
{51879E71-8E77-4606-BB0C-CEF2E172215F}
  9
$VERSIONGUID
  2
{FAEB1C32-E019-11D5-929B-00C0DF256EC4}
  9
$EXTNAMES
290
     1
  9
$PSVPSCALE
 40
0.0
  9
$OLESTARTUP
290
     0
  9
$SORTENTS
280
   127
  9
$INDEXCTL
280
     0
  9
$HIDETEXT
280
     1
  9
$XCLIPFRAME
290
     0
  9
$HALOGAP
280
     0
  9
$OBSCOLOR
 70
   257
  9
$OBSLTYPE
280
     0
  9
$INTERSECTIONDISPLAY
280
     0
  9
$INTERSECTIONCOLOR
 70
   257
  9
$DIMASSOC
280
     2
  9
$PROJECTNAME
  1

  9
$CAMERADISPLAY
290
     0
  9
$LENSLENGTH
 40
50.0
  9
$CAMERAHEIGHT
 40
0.0
  9
$STEPSPERSEC
 40
2.0
  9
$STEPSIZE
 40
6.0
  9
$3DDWFPREC
 40
2.0
  9
$PSOLWIDTH
 40
0.25
  9
$PSOLHEIGHT
 40
4.0
  9
$LOFTANG1
 40
1.570796326794897
  9
$LOFTANG2
 40
1.570796326794897
  9
$LOFTMAG1
 40
0.0
  9
$LOFTMAG2
 40
0.0
  9
$LOFTPARAM
 70
     7
  9
$LOFTNORMALS
280
     1
  9
$LATITUDE
 40
37.795
  9
$LONGITUDE
 40
-122.394
  9
$NORTHDIRECTION
 40
0.0
  9
$TIMEZONE
 70
 -8000
  9
$LIGHTGLYPHDISPLAY
280
     1
  9
$TILEMODELIGHTSYNCH
280
     1
  9
$SOLIDHIST
280
     1
  9
$SHOWHIST
280
     1
  9
$DWFFRAME
280
     2
  9
$DGNFRAME
280
     2
  9
$REALWORLDSCALE
290
     1
  9
$INTERFERECOLOR
 62
   256
  9
$CSHADOW
280
     0
  9
$SHADOWPLANELOCATION
 40
0.0
  0
ENDSEC
  0
SECTION
  2
CLASSES
  0
CLASS
  1
ACDBDICTIONARYWDFLT
  2
AcDbDictionaryWithDefault
  3
ObjectDBX Classes
 90
        0
 91
        4
280
     0
281
     0
  0
CLASS
  1
VISUALSTYLE
  2
AcDbVisualStyle
  3
ObjectDBX Classes
 90
     4095
 91
        4
280
     0
281
     0
  0
CLASS
  1
MATERIAL
  2
AcDbMaterial
  3
ObjectDBX Classes
 90
     1153
 91
        4
280
     0
281
     0
  0
ENDSEC
  0
SECTION
  2
TABLES
  0
TABLE
  2
VPORT
  5
8
330
0
100
AcDbSymbolTable
 70
     1
  0
VPORT
  5
29
330
8
100
AcDbSymbolTableRecord
100
AcDbViewportTableRecord
  2
*Active
 70
     0
 10
0.0
 20
0.0
 11
1.0
 21
1.0
 12
10.42990654205607
 22
4.5
 13
0.0
 23
0.0
 14
0.5
 24
0.5
 15
0.5
 25
0.5
 16
0.0
 26
0.0
 36
1.0
 17
0.0
 27
0.0
 37
0.0
 40
9.0
 41
1.972972972850329
 42
50.0
 43
0.0
 44
0.0
 50
0.0
 51
0.0
 71
     0
 72
   100
 73
     1
 74
     3
 75
     0
 76
     0
 77
     0
 78
     0
281
     0
 65
     1
110
0.0
120
0.0
130
0.0
111
1.0
121
0.0
131
0.0
112
0.0
122
1.0
132
0.0
 79
     0
146
0.0
 60
     3
 61
     5
292
     1
282
     1
141
0.0
142
0.0
 63
   250
  0
ENDTAB
  0
TABLE
  2
LTYPE
  5
5
330
0
100
AcDbSymbolTable
 70
     1
  0
LTYPE
  5
14
330
5
100
AcDbSymbolTableRecord
100
AcDbLinetypeTableRecord
  2
ByBlock
 70
     0
  3

 72
    65
 73
     0
 40
0.0
  0
LTYPE
  5
15
330
5
100
AcDbSymbolTableRecord
100
AcDbLinetypeTableRecord
  2
ByLayer
 70
     0
  3

 72
    65
 73
     0
 40
0.0
  0
LTYPE
  5
16
330
5
100
AcDbSymbolTableRecord
100
AcDbLinetypeTableRecord
  2
Continuous
 70
     0
  3
Solid line
 72
    65
 73
     0
 40
0.0
  0
ENDTAB
  0
TABLE
  2
LAYER
  5
2
330
0
100
AcDbSymbolTable
 70
     3
  0
LAYER
  5
10
330
2
100
AcDbSymbolTableRecord
100
AcDbLayerTableRecord
  2
0
 70
     0
 62
     7
  6
Continuous
370
    -3
390
F
347
3E
  0
LAYER
  5
40
330
2
100
AcDbSymbolTableRecord
100
AcDbLayerTableRecord
  2
layer 1
 70
     0
 62
     7
  6
Continuous
370
    -3
390
F
347
3E
  0
LAYER
  5
126
330
2
100
AcDbSymbolTableRecord
100
AcDbLayerTableRecord
  2
Master Guides
 70
     0
 62
     7
  6
Continuous
370
    -3
390
F
347
3E
  0
ENDTAB
  0
TABLE
  2
STYLE
  5
3
330
0
100
AcDbSymbolTable
 70
     1
  0
STYLE
  5
11
330
3
100
AcDbSymbolTableRecord
100
AcDbTextStyleTableRecord
  2
Standard
 70
     0
 40
0.0
 41
1.0
 50
0.0
 71
     0
 42
0.2
  3
txt
  4

  0
ENDTAB
  0
TABLE
  2
VIEW
  5
6
330
0
100
AcDbSymbolTable
 70
     0
  0
ENDTAB
  0
TABLE
  2
UCS
  5
7
330
0
100
AcDbSymbolTable
 70
     0
  0
ENDTAB
  0
TABLE
  2
APPID
  5
9
330
0
100
AcDbSymbolTable
 70
     2
  0
APPID
  5
12
330
9
100
AcDbSymbolTableRecord
100
AcDbRegAppTableRecord
  2
ACAD
 70
     0
  0
APPID
  5
3F
330
9
100
AcDbSymbolTableRecord
100
AcDbRegAppTableRecord
  2
ODA
 70
     0
  0
ENDTAB
  0
TABLE
  2
DIMSTYLE
  5
A
330
0
100
AcDbSymbolTable
 70
     1
100
AcDbDimStyleTable
  0
DIMSTYLE
105
27
330
A
100
AcDbSymbolTableRecord
100
AcDbDimStyleTableRecord
  2
Standard
 70
     0
178
     0
340
11
  0
ENDTAB
  0
TABLE
  2
BLOCK_RECORD
  5
1
330
0
100
AcDbSymbolTable
 70
     1
  0
BLOCK_RECORD
  5
1F
330
1
100
AcDbSymbolTableRecord
100
AcDbBlockTableRecord
  2
*Model_Space
340
22
 70
     0
280
     1
281
     0
  0
BLOCK_RECORD
  5
1B
330
1
100
AcDbSymbolTableRecord
100
AcDbBlockTableRecord
  2
*Paper_Space
340
1E
 70
     0
280
     1
281
     0
  0
BLOCK_RECORD
  5
23
330
1
100
AcDbSymbolTableRecord
100
AcDbBlockTableRecord
  2
*Paper_Space0
340
26
 70
     0
280
     1
281
     0
  0
ENDTAB
  0
ENDSEC
  0
SECTION
  2
BLOCKS
  0
BLOCK
  5
20
330
1F
100
AcDbEntity
  8
0
100
AcDbBlockBegin
  2
*Model_Space
 70
     0
 10
0.0
 20
0.0
 30
0.0
  3
*Model_Space
  1

  0
ENDBLK
  5
21
330
1F
100
AcDbEntity
  8
0
100
AcDbBlockEnd
  0
BLOCK
  5
1C
330
1B
100
AcDbEntity
 67
     1
  8
0
100
AcDbBlockBegin
  2
*Paper_Space
 70
     0
 10
0.0
 20
0.0
 30
0.0
  3
*Paper_Space
  1

  0
ENDBLK
  5
1D
330
1B
100
AcDbEntity
 67
     1
  8
0
100
AcDbBlockEnd
  0
BLOCK
  5
24
330
23
100
AcDbEntity
  8
0
100
AcDbBlockBegin
  2
*Paper_Space0
 70
     0
 10
0.0
 20
0.0
 30
0.0
  3
*Paper_Space0
  1

  0
ENDBLK
  5
25
330
23
100
AcDbEntity
  8
0
100
AcDbBlockEnd
  0
ENDSEC
  0
SECTION
  2
ENTITIES
  0
SPLINE
  5
41
330
1F
100
AcDbEntity
  8
layer 1
 62
   250
100
AcDbSpline
210
0.0
220
0.0
230
1.0
 70
    11
 71
     3
 72
    20
 73
    16
 74
     0
 42
0.0000000001
 43
0.0000000001
 12
1.0
 22
0.0
 32
0.0
 13
1.0
 23
0.0
 33
0.0
 40
0.0
 40
0.0
 40
0.0
 40
0.0
 40
0.2
 40
0.2
 40
0.2
 40
0.2
 40
0.4
 40
0.4
 40
0.4
 40
0.4
 40
0.6
 40
0.6
 40
0.6
 40
0.6
 40
1.0
 40
1.0
 40
1.0
 40
1.0
 10
73.0272
 20
131.8404
 30
0.0
 10
73.0272
 20
131.8404
 30
0.0
 10
196.1454
 20
131.8404
 30
0.0
 10
196.1454
 20
131.8404
 30
0.0
 10
196.1454
 20
131.8404
 30
0.0
 10
196.1454
 20
131.8404
 30
0.0
 10
196.1454
 20
-114.3958
 30
0.0
 10
196.1454
 20
-114.3958
 30
0.0
 10
196.1454
 20
-114.3958
 30
0.0
 10
196.1454
 20
-114.3958
 30
0.0
 10
73.0272
 20
-114.3958
 30
0.0
 10
73.0272
 20
-114.3958
 30
0.0
 10
73.0272
 20
-114.3958
 30
0.0
 10
73.0272
 20
-114.3958
 30
0.0
 10
73.0272
 20
131.8404
 30
0.0
 10
73.0272
 20
131.8404
 30
0.0
  0
SPLINE
  5
42
330
1F
100
AcDbEntity
  8
layer 1
 62
     7
100
AcDbSpline
210
0.0
220
0.0
230
1.0
 70
    11
 71
     3
 72
    24
 73
    20
 74
     0
 42
0.0000000001
 43
0.0000000001
 12
1.0
 22
0.0
 32
0.0
 13
1.0
 23
0.0
 33
0.0
 40
0.0
 40
0.0
 40
0.0
 40
0.0
 40
0.1666666666666667
 40
0.1666666666666667
 40
0.1666666666666667
 40
0.1666666666666667
 40
0.3333333333333333
 40
0.3333333333333333
 40
0.3333333333333333
 40
0.3333333333333333
 40
0.5
 40
0.5
 40
0.5
 40
0.5
 40
0.6666666666666666
 40
0.6666666666666666
 40
0.6666666666666666
 40
0.6666666666666666
 40
1.0
 40
1.0
 40
1.0
 40
1.0
 10
116.5291
 20
21.2449
 30
0.0
 10
116.5291
 20
21.2449
 30
0.0
 10
120.3465
 20
17.4275
 30
0.0
 10
120.3465
 20
17.4275
 30
0.0
 10
120.3465
 20
17.4275
 30
0.0
 10
120.3465
 20
17.4275
 30
0.0
 10
125.8354
 20
22.8883
 30
0.0
 10
125.8354
 20
22.8883
 30
0.0
 10
125.8354
 20
22.8883
 30
0.0
 10
125.8354
 20
22.8883
 30
0.0
 10
121.6609
 20
27.0627
 30
0.0
 10
121.6609
 20
27.0627
 30
0.0
 10
121.6609
 20
27.0627
 30
0.0
 10
121.6609
 20
27.0627
 30
0.0
 10
116.5291
 20
27.0627
 30
0.0
 10
116.5291
 20
27.0627
 30
0.0
 10
116.5291
 20
27.0627
 30
0.0
 10
116.5291
 20
27.0627
 30
0.0
 10
116.5291
 20
21.2449
 30
0.0
 10
116.5291
 20
21.2449
 30
0.0
  0
SPLINE
  5
43
330
1F
100
AcDbEntity
  8
layer 1
 62
     7
100
AcDbSpline
210
0.0
220
0.0
230
1.0
 70
    11
 71
     3
 72
    20
 73
    16
 74
     0
 42
0.0000000001
 43
0.0000000001
 12
1.0
 22
0.0
 32
0.0
 13
1.0
 23
0.0
 33
0.0
 40
0.0
 40
0.0
 40
0.0
 40
0.0
 40
0.2
 40
0.2
 40
0.2
 40
0.2
 40
0.4
 40
0.4
 40
0.4
 40
0.4
 40
0.6
 40
0.6
 40
0.6
 40
0.6
 40
1.0
 40
1.0
 40
1.0
 40
1.0
 10
103.7724
 20
29.2501
 30
0.0
 10
103.7724
 20
29.2501
 30
0.0
 10
100.0741
 20
38.0701
 30
0.0
 10
100.0741
 20
38.0701
 30
0.0
 10
100.0741
 20
38.0701
 30
0.0
 10
100.0741
 20
38.0701
 30
0.0
 10
96.3245
 20
29.2708
 30
0.0
 10
96.3245
 20
29.2708
 30
0.0
 10
96.3245
 20
29.2708
 30
0.0
 10
96.3245
 20
29.2708
 30
0.0
 10
100.0914
 20
25.5
 30
0.0
 10
100.0914
 20
25.5
 30
0.0
 10
100.0914
 20
25.5
 30
0.0
 10
100.0914
 20
25.5
 30
0.0
 10
103.7724
 20
29.2501
 30
0.0
 10
103.7724
 20
29.2501
 30
0.0
  0
SPLINE
  5
44
330
1F
100
AcDbEntity
  8
layer 1
 62
     7
100
AcDbSpline
210
0.0
220
0.0
230
1.0
 70
    11
 71
     3
 72
    20
 73
    16
 74
     0
 42
0.0000000001
 43
0.0000000001
 12
1.0
 22
0.0
 32
0.0
 13
1.0
 23
0.0
 33
0.0
 40
0.0
 40
0.0
 40
0.0
 40
0.0
 40
0.2
 40
0.2
 40
0.2
 40
0.2
 40
0.4
 40
0.4
 40
0.4
 40
0.4
 40
0.6
 40
0.6
 40
0.6
 40
0.6
 40
1.0
 40
1.0
 40
1.0
 40
1.0
 10
96.3245
 20
57.139
 30
0.0
 10
96.3245
 20
57.139
 30
0.0
 10
100.0229
 20
48.3191
 30
0.0
 10
100.0229
 20
48.3191
 30
0.0
 10
100.0229
 20
48.3191
 30
0.0
 10
100.0229
 20
48.3191
 30
0.0
 10
103.7724
 20
57.1184
 30
0.0
 10
103.7724
 20
57.1184
 30
0.0
 10
103.7724
 20
57.1184
 30
0.0
 10
103.7724
 20
57.1184
 30
0.0
 10
100.0056
 20
60.8891
 30
0.0
 10
100.0056
 20
60.8891
 30
0.0
 10
100.0056
 20
60.8891
 30
0.0
 10
100.0056
 20
60.8891
 30
0.0
 10
96.3245
 20
57.139
 30
0.0
 10
96.3245
 20
57.139
 30
0.0
  0
SPLINE
  5
45
330
1F
100
AcDbEntity
  8
layer 1
 62
     7
100
AcDbSpline
210
0.0
220
0.0
230
1.0
 70
    11
 71
     3
 72
    20
 73
    16
 74
     0
 42
0.0000000001
 43
0.0000000001
 12
1.0
 22
0.0
 32
0.0
 13
1.0
 23
0.0
 33
0.0
 40
0.0
 40
0.0
 40
0.0
 40
0.0
 40
0.2
 40
0.2
 40
0.2
 40
0.2
 40
0.4
 40
0.4
 40
0.4
 40
0.4
 40
0.6
 40
0.6
 40
0.6
 40
0.6
 40
1.0
 40
1.0
 40
1.0
 40
1.0
 10
85.9876
 20
39.5871
 30
0.0
 10
85.9876
 20
39.5871
 30
0.0
 10
94.8076
 20
43.2854
 30
0.0
 10
94.8076
 20
43.2854
 30
0.0
 10
94.8076
 20
43.2854
 30
0.0
 10
94.8076
 20
43.2854
 30
0.0
 10
86.0083
 20
47.0348
 30
0.0
 10
86.0083
 20
47.0348
 30
0.0
 10
86.0083
 20
47.0348
 30
0.0
 10
86.0083
 20
47.0348
 30
0.0
 10
82.2375
 20
43.2681
 30
0.0
 10
82.2375
 20
43.2681
 30
0.0
 10
82.2375
 20
43.2681
 30
0.0
 10
82.2375
 20
43.2681
 30
0.0
 10
85.9876
 20
39.5871
 30
0.0
 10
85.9876
 20
39.5871
 30
0.0
  0
SPLINE
  5
46
330
1F
100
AcDbEntity
  8
layer 1
 62
     7
100
AcDbSpline
210
0.0
220
0.0
230
1.0
 70
    11
 71
     3
 72
    20
 73
    16
 74
     0
 42
0.0000000001
 43
0.0000000001
 12
1.0
 22
0.0
 32
0.0
 13
1.0
 23
0.0
 33
0.0
 40
0.0
 40
0.0
 40
0.0
 40
0.0
 40
0.2
 40
0.2
 40
0.2
 40
0.2
 40
0.4
 40
0.4
 40
0.4
 40
0.4
 40
0.6
 40
0.6
 40
0.6
 40
0.6
 40
1.0
 40
1.0
 40
1.0
 40
1.0
 10
114.1094
 20
39.5871
 30
0.0
 10
114.1094
 20
39.5871
 30
0.0
 10
105.2894
 20
43.2854
 30
0.0
 10
105.2894
 20
43.2854
 30
0.0
 10
105.2894
 20
43.2854
 30
0.0
 10
105.2894
 20
43.2854
 30
0.0
 10
114.0887
 20
47.0348
 30
0.0
 10
114.0887
 20
47.0348
 30
0.0
 10
114.0887
 20
47.0348
 30
0.0
 10
114.0887
 20
47.0348
 30
0.0
 10
117.8595
 20
43.2681
 30
0.0
 10
117.8595
 20
43.2681
 30
0.0
 10
117.8595
 20
43.2681
 30
0.0
 10
117.8595
 20
43.2681
 30
0.0
 10
114.1094
 20
39.5871
 30
0.0
 10
114.1094
 20
39.5871
 30
0.0
  0
SPLINE
  5
47
330
1F
100
AcDbEntity
  8
layer 1
 62
     7
100
AcDbSpline
210
0.0
220
0.0
230
1.0
 70
    11
 71
     3
 72
    20
 73
    16
 74
     0
 42
0.0000000001
 43
0.0000000001
 12
1.0
 22
0.0
 32
0.0
 13
1.0
 23
0.0
 33
0.0
 40
0.0
 40
0.0
 40
0.0
 40
0.0
 40
0.2
 40
0.2
 40
0.2
 40
0.2
 40
0.4
 40
0.4
 40
0.4
 40
0.4
 40
0.6
 40
0.6
 40
0.6
 40
0.6
 40
1.0
 40
1.0
 40
1.0
 40
1.0
 10
107.2409
 20
30.8521
 30
0.0
 10
107.2409
 20
30.8521
 30
0.0
 10
103.6194
 20
39.7038
 30
0.0
 10
103.6194
 20
39.7038
 30
0.0
 10
103.6194
 20
39.7038
 30
0.0
 10
103.6194
 20
39.7038
 30
0.0
 10
112.4927
 20
36.133
 30
0.0
 10
112.4927
 20
36.133
 30
0.0
 10
112.4927
 20
36.133
 30
0.0
 10
112.4927
 20
36.133
 30
0.0
 10
112.4954
 20
30.8032
 30
0.0
 10
112.4954
 20
30.8032
 30
0.0
 10
112.4954
 20
30.8032
 30
0.0
 10
112.4954
 20
30.8032
 30
0.0
 10
107.2409
 20
30.8521
 30
0.0
 10
107.2409
 20
30.8521
 30
0.0
  0
SPLINE
  5
48
330
1F
100
AcDbEntity
  8
layer 1
 62
     7
100
AcDbSpline
210
0.0
220
0.0
230
1.0
 70
    11
 71
     3
 72
    20
 73
    16
 74
     0
 42
0.0000000001
 43
0.0000000001
 12
1.0
 22
0.0
 32
0.0
 13
1.0
 23
0.0
 33
0.0
 40
0.0
 40
0.0
 40
0.0
 40
0.0
 40
0.2
 40
0.2
 40
0.2
 40
0.2
 40
0.4
 40
0.4
 40
0.4
 40
0.4
 40
0.6
 40
0.6
 40
0.6
 40
0.6
 40
1.0
 40
1.0
 40
1.0
 40
1.0
 10
92.6911
 20
30.8521
 30
0.0
 10
92.6911
 20
30.8521
 30
0.0
 10
96.3127
 20
39.7038
 30
0.0
 10
96.3127
 20
39.7038
 30
0.0
 10
96.3127
 20
39.7038
 30
0.0
 10
96.3127
 20
39.7038
 30
0.0
 10
87.4393
 20
36.133
 30
0.0
 10
87.4393
 20
36.133
 30
0.0
 10
87.4393
 20
36.133
 30
0.0
 10
87.4393
 20
36.133
 30
0.0
 10
87.4366
 20
30.8032
 30
0.0
 10
87.4366
 20
30.8032
 30
0.0
 10
87.4366
 20
30.8032
 30
0.0
 10
87.4366
 20
30.8032
 30
0.0
 10
92.6911
 20
30.8521
 30
0.0
 10
92.6911
 20
30.8521
 30
0.0
  0
SPLINE
  5
49
330
1F
100
AcDbEntity
  8
layer 1
 62
     7
100
AcDbSpline
210
0.0
220
0.0
230
1.0
 70
    11
 71
     3
 72
    20
 73
    16
 74
     0
 42
0.0000000001
 43
0.0000000001
 12
1.0
 22
0.0
 32
0.0
 13
1.0
 23
0.0
 33
0.0
 40
0.0
 40
0.0
 40
0.0
 40
0.0
 40
0.2
 40
0.2
 40
0.2
 40
0.2
 40
0.4
 40
0.4
 40
0.4
 40
0.4
 40
0.6
 40
0.6
 40
0.6
 40
0.6
 40
1.0
 40
1.0
 40
1.0
 40
1.0
 10
107.2409
 20
55.7215
 30
0.0
 10
107.2409
 20
55.7215
 30
0.0
 10
103.6194
 20
46.8698
 30
0.0
 10
103.6194
 20
46.8698
 30
0.0
 10
103.6194
 20
46.8698
 30
0.0
 10
103.6194
 20
46.8698
 30
0.0
 10
112.4927
 20
50.4406
 30
0.0
 10
112.4927
 20
50.4406
 30
0.0
 10
112.4927
 20
50.4406
 30
0.0
 10
112.4927
 20
50.4406
 30
0.0
 10
112.4954
 20
55.7704
 30
0.0
 10
112.4954
 20
55.7704
 30
0.0
 10
112.4954
 20
55.7704
 30
0.0
 10
112.4954
 20
55.7704
 30
0.0
 10
107.2409
 20
55.7215
 30
0.0
 10
107.2409
 20
55.7215
 30
0.0
  0
SPLINE
  5
4A
330
1F
100
AcDbEntity
  8
layer 1
 62
     7
100
AcDbSpline
210
0.0
220
0.0
230
1.0
 70
    11
 71
     3
 72
    20
 73
    16
 74
     0
 42
0.0000000001
 43
0.0000000001
 12
1.0
 22
0.0
 32
0.0
 13
1.0
 23
0.0
 33
0.0
 40
0.0
 40
0.0
 40
0.0
 40
0.0
 40
0.2
 40
0.2
 40
0.2
 40
0.2
 40
0.4
 40
0.4
 40
0.4
 40
0.4
 40
0.6
 40
0.6
 40
0.6
 40
0.6
 40
1.0
 40
1.0
 40
1.0
 40
1.0
 10
92.6911
 20
55.7215
 30
0.0
 10
92.6911
 20
55.7215
 30
0.0
 10
96.3127
 20
46.8698
 30
0.0
 10
96.3127
 20
46.8698
 30
0.0
 10
96.3127
 20
46.8698
 30
0.0
 10
96.3127
 20
46.8698
 30
0.0
 10
87.4393
 20
50.4406
 30
0.0
 10
87.4393
 20
50.4406
 30
0.0
 10
87.4393
 20
50.4406
 30
0.0
 10
87.4393
 20
50.4406
 30
0.0
 10
87.4366
 20
55.7704
 30
0.0
 10
87.4366
 20
55.7704
 30
0.0
 10
87.4366
 20
55.7704
 30
0.0
 10
87.4366
 20
55.7704
 30
0.0
 10
92.6911
 20
55.7215
 30
0.0
 10
92.6911
 20
55.7215
 30
0.0
  0
SPLINE
  5
4B
330
1F
100
AcDbEntity
  8
layer 1
 62
     7
100
AcDbSpline
210
0.0
220
0.0
230
1.0
 70
    11
 71
     3
 72
    20
 73
    16
 74
     0
 42
0.0000000001
 43
0.0000000001
 12
1.0
 22
0.0
 32
0.0
 13
1.0
 23
0.0
 33
0.0
 40
0.0
 40
0.0
 40
0.0
 40
0.0
 40
0.2
 40
0.2
 40
0.2
 40
0.2
 40
0.4
 40
0.4
 40
0.4
 40
0.4
 40
0.6
 40
0.6
 40
0.6
 40
0.6
 40
1.0
 40
1.0
 40
1.0
 40
1.0
 10
100.0913
 20
40.6014
 30
0.0
 10
100.0913
 20
40.6014
 30
0.0
 10
102.86
 20
43.3701
 30
0.0
 10
102.86
 20
43.3701
 30
0.0
 10
102.86
 20
43.3701
 30
0.0
 10
102.86
 20
43.3701
 30
0.0
 10
100.0913
 20
46.1387
 30
0.0
 10
100.0913
 20
46.1387
 30
0.0
 10
100.0913
 20
46.1387
 30
0.0
 10
100.0913
 20
46.1387
 30
0.0
 10
97.3227
 20
43.3701
 30
0.0
 10
97.3227
 20
43.3701
 30
0.0
 10
97.3227
 20
43.3701
 30
0.0
 10
97.3227
 20
43.3701
 30
0.0
 10
100.0913
 20
40.6014
 30
0.0
 10
100.0913
 20
40.6014
 30
0.0
  0
SPLINE
  5
4C
330
1F
100
AcDbEntity
  8
layer 1
 62
     7
100
AcDbSpline
210
0.0
220
0.0
230
1.0
 70
    11
 71
     3
 72
    20
 73
    16
 74
     0
 42
0.0000000001
 43
0.0000000001
 12
1.0
 22
0.0
 32
0.0
 13
1.0
 23
0.0
 33
0.0
 40
0.0
 40
0.0
 40
0.0
 40
0.0
 40
0.2
 40
0.2
 40
0.2
 40
0.2
 40
0.4
 40
0.4
 40
0.4
 40
0.4
 40
0.6
 40
0.6
 40
0.6
 40
0.6
 40
1.0
 40
1.0
 40
1.0
 40
1.0
 10
172.9908
 20
29.2501
 30
0.0
 10
172.9908
 20
29.2501
 30
0.0
 10
169.2925
 20
38.0701
 30
0.0
 10
169.2925
 20
38.0701
 30
0.0
 10
169.2925
 20
38.0701
 30
0.0
 10
169.2925
 20
38.0701
 30
0.0
 10
165.543
 20
29.2708
 30
0.0
 10
165.543
 20
29.2708
 30
0.0
 10
165.543
 20
29.2708
 30
0.0
 10
165.543
 20
29.2708
 30
0.0
 10
169.3098
 20
25.5
 30
0.0
 10
169.3098
 20
25.5
 30
0.0
 10
169.3098
 20
25.5
 30
0.0
 10
169.3098
 20
25.5
 30
0.0
 10
172.9908
 20
29.2501
 30
0.0
 10
172.9908
 20
29.2501
 30
0.0
  0
SPLINE
  5
4D
330
1F
100
AcDbEntity
  8
layer 1
 62
     7
100
AcDbSpline
210
0.0
220
0.0
230
1.0
 70
    11
 71
     3
 72
    20
 73
    16
 74
     0
 42
0.0000000001
 43
0.0000000001
 12
1.0
 22
0.0
 32
0.0
 13
1.0
 23
0.0
 33
0.0
 40
0.0
 40
0.0
 40
0.0
 40
0.0
 40
0.2
 40
0.2
 40
0.2
 40
0.2
 40
0.4
 40
0.4
 40
0.4
 40
0.4
 40
0.6
 40
0.6
 40
0.6
 40
0.6
 40
1.0
 40
1.0
 40
1.0
 40
1.0
 10
165.543
 20
57.139
 30
0.0
 10
165.543
 20
57.139
 30
0.0
 10
169.2414
 20
48.3191
 30
0.0
 10
169.2414
 20
48.3191
 30
0.0
 10
169.2414
 20
48.3191
 30
0.0
 10
169.2414
 20
48.3191
 30
0.0
 10
172.9908
 20
57.1184
 30
0.0
 10
172.9908
 20
57.1184
 30
0.0
 10
172.9908
 20
57.1184
 30
0.0
 10
172.9908
 20
57.1184
 30
0.0
 10
169.2241
 20
60.8891
 30
0.0
 10
169.2241
 20
60.8891
 30
0.0
 10
169.2241
 20
60.8891
 30
0.0
 10
169.2241
 20
60.8891
 30
0.0
 10
165.543
 20
57.139
 30
0.0
 10
165.543
 20
57.139
 30
0.0
  0
SPLINE
  5
4E
330
1F
100
AcDbEntity
  8
layer 1
 62
     7
100
AcDbSpline
210
0.0
220
0.0
230
1.0
 70
    11
 71
     3
 72
    20
 73
    16
 74
     0
 42
0.0000000001
 43
0.0000000001
 12
1.0
 22
0.0
 32
0.0
 13
1.0
 23
0.0
 33
0.0
 40
0.0
 40
0.0
 40
0.0
 40
0.0
 40
0.2
 40
0.2
 40
0.2
 40
0.2
 40
0.4
 40
0.4
 40
0.4
 40
0.4
 40
0.6
 40
0.6
 40
0.6
 40
0.6
 40
1.0
 40
1.0
 40
1.0
 40
1.0
 10
155.2061
 20
39.5871
 30
0.0
 10
155.2061
 20
39.5871
 30
0.0
 10
164.026
 20
43.2854
 30
0.0
 10
164.026
 20
43.2854
 30
0.0
 10
164.026
 20
43.2854
 30
0.0
 10
164.026
 20
43.2854
 30
0.0
 10
155.2267
 20
47.0348
 30
0.0
 10
155.2267
 20
47.0348
 30
0.0
 10
155.2267
 20
47.0348
 30
0.0
 10
155.2267
 20
47.0348
 30
0.0
 10
151.456
 20
43.2681
 30
0.0
 10
151.456
 20
43.2681
 30
0.0
 10
151.456
 20
43.2681
 30
0.0
 10
151.456
 20
43.2681
 30
0.0
 10
155.2061
 20
39.5871
 30
0.0
 10
155.2061
 20
39.5871
 30
0.0
  0
SPLINE
  5
4F
330
1F
100
AcDbEntity
  8
layer 1
 62
     7
100
AcDbSpline
210
0.0
220
0.0
230
1.0
 70
    11
 71
     3
 72
    20
 73
    16
 74
     0
 42
0.0000000001
 43
0.0000000001
 12
1.0
 22
0.0
 32
0.0
 13
1.0
 23
0.0
 33
0.0
 40
0.0
 40
0.0
 40
0.0
 40
0.0
 40
0.2
 40
0.2
 40
0.2
 40
0.2
 40
0.4
 40
0.4
 40
0.4
 40
0.4
 40
0.6
 40
0.6
 40
0.6
 40
0.6
 40
1.0
 40
1.0
 40
1.0
 40
1.0
 10
183.3278
 20
39.5871
 30
0.0
 10
183.3278
 20
39.5871
 30
0.0
 10
174.5079
 20
43.2854
 30
0.0
 10
174.5079
 20
43.2854
 30
0.0
 10
174.5079
 20
43.2854
 30
0.0
 10
174.5079
 20
43.2854
 30
0.0
 10
183.3072
 20
47.0348
 30
0.0
 10
183.3072
 20
47.0348
 30
0.0
 10
183.3072
 20
47.0348
 30
0.0
 10
183.3072
 20
47.0348
 30
0.0
 10
187.0779
 20
43.2681
 30
0.0
 10
187.0779
 20
43.2681
 30
0.0
 10
187.0779
 20
43.2681
 30
0.0
 10
187.0779
 20
43.2681
 30
0.0
 10
183.3278
 20
39.5871
 30
0.0
 10
183.3278
 20
39.5871
 30
0.0
  0
SPLINE
  5
50
330
1F
100
AcDbEntity
  8
layer 1
 62
     7
100
AcDbSpline
210
0.0
220
0.0
230
1.0
 70
    11
 71
     3
 72
    20
 73
    16
 74
     0
 42
0.0000000001
 43
0.0000000001
 12
1.0
 22
0.0
 32
0.0
 13
1.0
 23
0.0
 33
0.0
 40
0.0
 40
0.0
 40
0.0
 40
0.0
 40
0.2
 40
0.2
 40
0.2
 40
0.2
 40
0.4
 40
0.4
 40
0.4
 40
0.4
 40
0.6
 40
0.6
 40
0.6
 40
0.6
 40
1.0
 40
1.0
 40
1.0
 40
1.0
 10
176.4594
 20
30.8521
 30
0.0
 10
176.4594
 20
30.8521
 30
0.0
 10
172.8378
 20
39.7038
 30
0.0
 10
172.8378
 20
39.7038
 30
0.0
 10
172.8378
 20
39.7038
 30
0.0
 10
172.8378
 20
39.7038
 30
0.0
 10
181.7111
 20
36.133
 30
0.0
 10
181.7111
 20
36.133
 30
0.0
 10
181.7111
 20
36.133
 30
0.0
 10
181.7111
 20
36.133
 30
0.0
 10
181.7139
 20
30.8032
 30
0.0
 10
181.7139
 20
30.8032
 30
0.0
 10
181.7139
 20
30.8032
 30
0.0
 10
181.7139
 20
30.8032
 30
0.0
 10
176.4594
 20
30.8521
 30
0.0
 10
176.4594
 20
30.8521
 30
0.0
  0
SPLINE
  5
51
330
1F
100
AcDbEntity
  8
layer 1
 62
     7
100
AcDbSpline
210
0.0
220
0.0
230
1.0
 70
    11
 71
     3
 72
    20
 73
    16
 74
     0
 42
0.0000000001
 43
0.0000000001
 12
1.0
 22
0.0
 32
0.0
 13
1.0
 23
0.0
 33
0.0
 40
0.0
 40
0.0
 40
0.0
 40
0.0
 40
0.2
 40
0.2
 40
0.2
 40
0.2
 40
0.4
 40
0.4
 40
0.4
 40
0.4
 40
0.6
 40
0.6
 40
0.6
 40
0.6
 40
1.0
 40
1.0
 40
1.0
 40
1.0
 10
161.9096
 20
30.8521
 30
0.0
 10
161.9096
 20
30.8521
 30
0.0
 10
165.5311
 20
39.7038
 30
0.0
 10
165.5311
 20
39.7038
 30
0.0
 10
165.5311
 20
39.7038
 30
0.0
 10
165.5311
 20
39.7038
 30
0.0
 10
156.6578
 20
36.133
 30
0.0
 10
156.6578
 20
36.133
 30
0.0
 10
156.6578
 20
36.133
 30
0.0
 10
156.6578
 20
36.133
 30
0.0
 10
156.6551
 20
30.8032
 30
0.0
 10
156.6551
 20
30.8032
 30
0.0
 10
156.6551
 20
30.8032
 30
0.0
 10
156.6551
 20
30.8032
 30
0.0
 10
161.9096
 20
30.8521
 30
0.0
 10
161.9096
 20
30.8521
 30
0.0
  0
SPLINE
  5
52
330
1F
100
AcDbEntity
  8
layer 1
 62
     7
100
AcDbSpline
210
0.0
220
0.0
230
1.0
 70
    11
 71
     3
 72
    20
 73
    16
 74
     0
 42
0.0000000001
 43
0.0000000001
 12
1.0
 22
0.0
 32
0.0
 13
1.0
 23
0.0
 33
0.0
 40
0.0
 40
0.0
 40
0.0
 40
0.0
 40
0.2
 40
0.2
 40
0.2
 40
0.2
 40
0.4
 40
0.4
 40
0.4
 40
0.4
 40
0.6
 40
0.6
 40
0.6
 40
0.6
 40
1.0
 40
1.0
 40
1.0
 40
1.0
 10
176.4594
 20
55.7215
 30
0.0
 10
176.4594
 20
55.7215
 30
0.0
 10
172.8378
 20
46.8698
 30
0.0
 10
172.8378
 20
46.8698
 30
0.0
 10
172.8378
 20
46.8698
 30
0.0
 10
172.8378
 20
46.8698
 30
0.0
 10
181.7111
 20
50.4406
 30
0.0
 10
181.7111
 20
50.4406
 30
0.0
 10
181.7111
 20
50.4406
 30
0.0
 10
181.7111
 20
50.4406
 30
0.0
 10
181.7139
 20
55.7704
 30
0.0
 10
181.7139
 20
55.7704
 30
0.0
 10
181.7139
 20
55.7704
 30
0.0
 10
181.7139
 20
55.7704
 30
0.0
 10
176.4594
 20
55.7215
 30
0.0
 10
176.4594
 20
55.7215
 30
0.0
  0
SPLINE
  5
53
330
1F
100
AcDbEntity
  8
layer 1
 62
     7
100
AcDbSpline
210
0.0
220
0.0
230
1.0
 70
    11
 71
     3
 72
    20
 73
    16
 74
     0
 42
0.0000000001
 43
0.0000000001
 12
1.0
 22
0.0
 32
0.0
 13
1.0
 23
0.0
 33
0.0
 40
0.0
 40
0.0
 40
0.0
 40
0.0
 40
0.2
 40
0.2
 40
0.2
 40
0.2
 40
0.4
 40
0.4
 40
0.4
 40
0.4
 40
0.6
 40
0.6
 40
0.6
 40
0.6
 40
1.0
 40
1.0
 40
1.0
 40
1.0
 10
161.9096
 20
55.7215
 30
0.0
 10
161.9096
 20
55.7215
 30
0.0
 10
165.5311
 20
46.8698
 30
0.0
 10
165.5311
 20
46.8698
 30
0.0
 10
165.5311
 20
46.8698
 30
0.0
 10
165.5311
 20
46.8698
 30
0.0
 10
156.6578
 20
50.4406
 30
0.0
 10
156.6578
 20
50.4406
 30
0.0
 10
156.6578
 20
50.4406
 30
0.0
 10
156.6578
 20
50.4406
 30
0.0
 10
156.6551
 20
55.7704
 30
0.0
 10
156.6551
 20
55.7704
 30
0.0
 10
156.6551
 20
55.7704
 30
0.0
 10
156.6551
 20
55.7704
 30
0.0
 10
161.9096
 20
55.7215
 30
0.0
 10
161.9096
 20
55.7215
 30
0.0
  0
SPLINE
  5
54
330
1F
100
AcDbEntity
  8
layer 1
 62
     7
100
AcDbSpline
210
0.0
220
0.0
230
1.0
 70
    11
 71
     3
 72
    20
 73
    16
 74
     0
 42
0.0000000001
 43
0.0000000001
 12
1.0
 22
0.0
 32
0.0
 13
1.0
 23
0.0
 33
0.0
 40
0.0
 40
0.0
 40
0.0
 40
0.0
 40
0.2
 40
0.2
 40
0.2
 40
0.2
 40
0.4
 40
0.4
 40
0.4
 40
0.4
 40
0.6
 40
0.6
 40
0.6
 40
0.6
 40
1.0
 40
1.0
 40
1.0
 40
1.0
 10
169.3098
 20
40.6014
 30
0.0
 10
169.3098
 20
40.6014
 30
0.0
 10
172.0784
 20
43.3701
 30
0.0
 10
172.0784
 20
43.3701
 30
0.0
 10
172.0784
 20
43.3701
 30
0.0
 10
172.0784
 20
43.3701
 30
0.0
 10
169.3098
 20
46.1387
 30
0.0
 10
169.3098
 20
46.1387
 30
0.0
 10
169.3098
 20
46.1387
 30
0.0
 10
169.3098
 20
46.1387
 30
0.0
 10
166.5411
 20
43.3701
 30
0.0
 10
166.5411
 20
43.3701
 30
0.0
 10
166.5411
 20
43.3701
 30
0.0
 10
166.5411
 20
43.3701
 30
0.0
 10
169.3098
 20
40.6014
 30
0.0
 10
169.3098
 20
40.6014
 30
0.0
  0
SPLINE
  5
55
330
1F
100
AcDbEntity
  8
layer 1
 62
     7
100
AcDbSpline
210
0.0
220
0.0
230
1.0
 70
    11
 71
     3
 72
    20
 73
    16
 74
     0
 42
0.0000000001
 43
0.0000000001
 12
1.0
 22
0.0
 32
0.0
 13
1.0
 23
0.0
 33
0.0
 40
0.0
 40
0.0
 40
0.0
 40
0.0
 40
0.2
 40
0.2
 40
0.2
 40
0.2
 40
0.4
 40
0.4
 40
0.4
 40
0.4
 40
0.6
 40
0.6
 40
0.6
 40
0.6
 40
1.0
 40
1.0
 40
1.0
 40
1.0
 10
103.7724
 20
-39.9383
 30
0.0
 10
103.7724
 20
-39.9383
 30
0.0
 10
100.0741
 20
-31.1183
 30
0.0
 10
100.0741
 20
-31.1183
 30
0.0
 10
100.0741
 20
-31.1183
 30
0.0
 10
100.0741
 20
-31.1183
 30
0.0
 10
96.3245
 20
-39.9176
 30
0.0
 10
96.3245
 20
-39.9176
 30
0.0
 10
96.3245
 20
-39.9176
 30
0.0
 10
96.3245
 20
-39.9176
 30
0.0
 10
100.0914
 20
-43.6884
 30
0.0
 10
100.0914
 20
-43.6884
 30
0.0
 10
100.0914
 20
-43.6884
 30
0.0
 10
100.0914
 20
-43.6884
 30
0.0
 10
103.7724
 20
-39.9383
 30
0.0
 10
103.7724
 20
-39.9383
 30
0.0
  0
SPLINE
  5
56
330
1F
100
AcDbEntity
  8
layer 1
 62
     7
100
AcDbSpline
210
0.0
220
0.0
230
1.0
 70
    11
 71
     3
 72
    20
 73
    16
 74
     0
 42
0.0000000001
 43
0.0000000001
 12
1.0
 22
0.0
 32
0.0
 13
1.0
 23
0.0
 33
0.0
 40
0.0
 40
0.0
 40
0.0
 40
0.0
 40
0.2
 40
0.2
 40
0.2
 40
0.2
 40
0.4
 40
0.4
 40
0.4
 40
0.4
 40
0.6
 40
0.6
 40
0.6
 40
0.6
 40
1.0
 40
1.0
 40
1.0
 40
1.0
 10
96.3245
 20
-12.0493
 30
0.0
 10
96.3245
 20
-12.0493
 30
0.0
 10
100.0229
 20
-20.8693
 30
0.0
 10
100.0229
 20
-20.8693
 30
0.0
 10
100.0229
 20
-20.8693
 30
0.0
 10
100.0229
 20
-20.8693
 30
0.0
 10
103.7724
 20
-12.0698
 30
0.0
 10
103.7724
 20
-12.0698
 30
0.0
 10
103.7724
 20
-12.0698
 30
0.0
 10
103.7724
 20
-12.0698
 30
0.0
 10
100.0056
 20
-8.2991
 30
0.0
 10
100.0056
 20
-8.2991
 30
0.0
 10
100.0056
 20
-8.2991
 30
0.0
 10
100.0056
 20
-8.2991
 30
0.0
 10
96.3245
 20
-12.0493
 30
0.0
 10
96.3245
 20
-12.0493
 30
0.0
  0
SPLINE
  5
57
330
1F
100
AcDbEntity
  8
layer 1
 62
     7
100
AcDbSpline
210
0.0
220
0.0
230
1.0
 70
    11
 71
     3
 72
    20
 73
    16
 74
     0
 42
0.0000000001
 43
0.0000000001
 12
1.0
 22
0.0
 32
0.0
 13
1.0
 23
0.0
 33
0.0
 40
0.0
 40
0.0
 40
0.0
 40
0.0
 40
0.2
 40
0.2
 40
0.2
 40
0.2
 40
0.4
 40
0.4
 40
0.4
 40
0.4
 40
0.6
 40
0.6
 40
0.6
 40
0.6
 40
1.0
 40
1.0
 40
1.0
 40
1.0
 10
85.9876
 20
-29.6013
 30
0.0
 10
85.9876
 20
-29.6013
 30
0.0
 10
94.8076
 20
-25.903
 30
0.0
 10
94.8076
 20
-25.903
 30
0.0
 10
94.8076
 20
-25.903
 30
0.0
 10
94.8076
 20
-25.903
 30
0.0
 10
86.0083
 20
-22.1535
 30
0.0
 10
86.0083
 20
-22.1535
 30
0.0
 10
86.0083
 20
-22.1535
 30
0.0
 10
86.0083
 20
-22.1535
 30
0.0
 10
82.2375
 20
-25.9203
 30
0.0
 10
82.2375
 20
-25.9203
 30
0.0
 10
82.2375
 20
-25.9203
 30
0.0
 10
82.2375
 20
-25.9203
 30
0.0
 10
85.9876
 20
-29.6013
 30
0.0
 10
85.9876
 20
-29.6013
 30
0.0
  0
SPLINE
  5
58
330
1F
100
AcDbEntity
  8
layer 1
 62
     7
100
AcDbSpline
210
0.0
220
0.0
230
1.0
 70
    11
 71
     3
 72
    20
 73
    16
 74
     0
 42
0.0000000001
 43
0.0000000001
 12
1.0
 22
0.0
 32
0.0
 13
1.0
 23
0.0
 33
0.0
 40
0.0
 40
0.0
 40
0.0
 40
0.0
 40
0.2
 40
0.2
 40
0.2
 40
0.2
 40
0.4
 40
0.4
 40
0.4
 40
0.4
 40
0.6
 40
0.6
 40
0.6
 40
0.6
 40
1.0
 40
1.0
 40
1.0
 40
1.0
 10
114.1094
 20
-29.6013
 30
0.0
 10
114.1094
 20
-29.6013
 30
0.0
 10
105.2894
 20
-25.903
 30
0.0
 10
105.2894
 20
-25.903
 30
0.0
 10
105.2894
 20
-25.903
 30
0.0
 10
105.2894
 20
-25.903
 30
0.0
 10
114.0887
 20
-22.1534
 30
0.0
 10
114.0887
 20
-22.1534
 30
0.0
 10
114.0887
 20
-22.1534
 30
0.0
 10
114.0887
 20
-22.1534
 30
0.0
 10
117.8595
 20
-25.9202
 30
0.0
 10
117.8595
 20
-25.9202
 30
0.0
 10
117.8595
 20
-25.9202
 30
0.0
 10
117.8595
 20
-25.9202
 30
0.0
 10
114.1094
 20
-29.6013
 30
0.0
 10
114.1094
 20
-29.6013
 30
0.0
  0
SPLINE
  5
59
330
1F
100
AcDbEntity
  8
layer 1
 62
     7
100
AcDbSpline
210
0.0
220
0.0
230
1.0
 70
    11
 71
     3
 72
    20
 73
    16
 74
     0
 42
0.0000000001
 43
0.0000000001
 12
1.0
 22
0.0
 32
0.0
 13
1.0
 23
0.0
 33
0.0
 40
0.0
 40
0.0
 40
0.0
 40
0.0
 40
0.2
 40
0.2
 40
0.2
 40
0.2
 40
0.4
 40
0.4
 40
0.4
 40
0.4
 40
0.6
 40
0.6
 40
0.6
 40
0.6
 40
1.0
 40
1.0
 40
1.0
 40
1.0
 10
107.2409
 20
-38.3363
 30
0.0
 10
107.2409
 20
-38.3363
 30
0.0
 10
103.6194
 20
-29.4845
 30
0.0
 10
103.6194
 20
-29.4845
 30
0.0
 10
103.6194
 20
-29.4845
 30
0.0
 10
103.6194
 20
-29.4845
 30
0.0
 10
112.4927
 20
-33.0553
 30
0.0
 10
112.4927
 20
-33.0553
 30
0.0
 10
112.4927
 20
-33.0553
 30
0.0
 10
112.4927
 20
-33.0553
 30
0.0
 10
112.4954
 20
-38.3852
 30
0.0
 10
112.4954
 20
-38.3852
 30
0.0
 10
112.4954
 20
-38.3852
 30
0.0
 10
112.4954
 20
-38.3852
 30
0.0
 10
107.2409
 20
-38.3363
 30
0.0
 10
107.2409
 20
-38.3363
 30
0.0
  0
SPLINE
  5
5A
330
1F
100
AcDbEntity
  8
layer 1
 62
     7
100
AcDbSpline
210
0.0
220
0.0
230
1.0
 70
    11
 71
     3
 72
    20
 73
    16
 74
     0
 42
0.0000000001
 43
0.0000000001
 12
1.0
 22
0.0
 32
0.0
 13
1.0
 23
0.0
 33
0.0
 40
0.0
 40
0.0
 40
0.0
 40
0.0
 40
0.2
 40
0.2
 40
0.2
 40
0.2
 40
0.4
 40
0.4
 40
0.4
 40
0.4
 40
0.6
 40
0.6
 40
0.6
 40
0.6
 40
1.0
 40
1.0
 40
1.0
 40
1.0
 10
92.6911
 20
-38.3363
 30
0.0
 10
92.6911
 20
-38.3363
 30
0.0
 10
96.3127
 20
-29.4845
 30
0.0
 10
96.3127
 20
-29.4845
 30
0.0
 10
96.3127
 20
-29.4845
 30
0.0
 10
96.3127
 20
-29.4845
 30
0.0
 10
87.4393
 20
-33.0553
 30
0.0
 10
87.4393
 20
-33.0553
 30
0.0
 10
87.4393
 20
-33.0553
 30
0.0
 10
87.4393
 20
-33.0553
 30
0.0
 10
87.4366
 20
-38.3852
 30
0.0
 10
87.4366
 20
-38.3852
 30
0.0
 10
87.4366
 20
-38.3852
 30
0.0
 10
87.4366
 20
-38.3852
 30
0.0
 10
92.6911
 20
-38.3363
 30
0.0
 10
92.6911
 20
-38.3363
 30
0.0
  0
SPLINE
  5
5B
330
1F
100
AcDbEntity
  8
layer 1
 62
     7
100
AcDbSpline
210
0.0
220
0.0
230
1.0
 70
    11
 71
     3
 72
    20
 73
    16
 74
     0
 42
0.0000000001
 43
0.0000000001
 12
1.0
 22
0.0
 32
0.0
 13
1.0
 23
0.0
 33
0.0
 40
0.0
 40
0.0
 40
0.0
 40
0.0
 40
0.2
 40
0.2
 40
0.2
 40
0.2
 40
0.4
 40
0.4
 40
0.4
 40
0.4
 40
0.6
 40
0.6
 40
0.6
 40
0.6
 40
1.0
 40
1.0
 40
1.0
 40
1.0
 10
107.2409
 20
-13.4669
 30
0.0
 10
107.2409
 20
-13.4669
 30
0.0
 10
103.6194
 20
-22.3186
 30
0.0
 10
103.6194
 20
-22.3186
 30
0.0
 10
103.6194
 20
-22.3186
 30
0.0
 10
103.6194
 20
-22.3186
 30
0.0
 10
112.4927
 20
-18.7478
 30
0.0
 10
112.4927
 20
-18.7478
 30
0.0
 10
112.4927
 20
-18.7478
 30
0.0
 10
112.4927
 20
-18.7478
 30
0.0
 10
112.4954
 20
-13.418
 30
0.0
 10
112.4954
 20
-13.418
 30
0.0
 10
112.4954
 20
-13.418
 30
0.0
 10
112.4954
 20
-13.418
 30
0.0
 10
107.2409
 20
-13.4669
 30
0.0
 10
107.2409
 20
-13.4669
 30
0.0
  0
SPLINE
  5
5C
330
1F
100
AcDbEntity
  8
layer 1
 62
     7
100
AcDbSpline
210
0.0
220
0.0
230
1.0
 70
    11
 71
     3
 72
    20
 73
    16
 74
     0
 42
0.0000000001
 43
0.0000000001
 12
1.0
 22
0.0
 32
0.0
 13
1.0
 23
0.0
 33
0.0
 40
0.0
 40
0.0
 40
0.0
 40
0.0
 40
0.2
 40
0.2
 40
0.2
 40
0.2
 40
0.4
 40
0.4
 40
0.4
 40
0.4
 40
0.6
 40
0.6
 40
0.6
 40
0.6
 40
1.0
 40
1.0
 40
1.0
 40
1.0
 10
92.6911
 20
-13.4669
 30
0.0
 10
92.6911
 20
-13.4669
 30
0.0
 10
96.3127
 20
-22.3186
 30
0.0
 10
96.3127
 20
-22.3186
 30
0.0
 10
96.3127
 20
-22.3186
 30
0.0
 10
96.3127
 20
-22.3186
 30
0.0
 10
87.4393
 20
-18.7478
 30
0.0
 10
87.4393
 20
-18.7478
 30
0.0
 10
87.4393
 20
-18.7478
 30
0.0
 10
87.4393
 20
-18.7478
 30
0.0
 10
87.4366
 20
-13.418
 30
0.0
 10
87.4366
 20
-13.418
 30
0.0
 10
87.4366
 20
-13.418
 30
0.0
 10
87.4366
 20
-13.418
 30
0.0
 10
92.6911
 20
-13.4669
 30
0.0
 10
92.6911
 20
-13.4669
 30
0.0
  0
SPLINE
  5
5D
330
1F
100
AcDbEntity
  8
layer 1
 62
     7
100
AcDbSpline
210
0.0
220
0.0
230
1.0
 70
    11
 71
     3
 72
    20
 73
    16
 74
     0
 42
0.0000000001
 43
0.0000000001
 12
1.0
 22
0.0
 32
0.0
 13
1.0
 23
0.0
 33
0.0
 40
0.0
 40
0.0
 40
0.0
 40
0.0
 40
0.2
 40
0.2
 40
0.2
 40
0.2
 40
0.4
 40
0.4
 40
0.4
 40
0.4
 40
0.6
 40
0.6
 40
0.6
 40
0.6
 40
1.0
 40
1.0
 40
1.0
 40
1.0
 10
100.0913
 20
-28.5869
 30
0.0
 10
100.0913
 20
-28.5869
 30
0.0
 10
102.86
 20
-25.8182
 30
0.0
 10
102.86
 20
-25.8182
 30
0.0
 10
102.86
 20
-25.8182
 30
0.0
 10
102.86
 20
-25.8182
 30
0.0
 10
100.0913
 20
-23.0496
 30
0.0
 10
100.0913
 20
-23.0496
 30
0.0
 10
100.0913
 20
-23.0496
 30
0.0
 10
100.0913
 20
-23.0496
 30
0.0
 10
97.3227
 20
-25.8182
 30
0.0
 10
97.3227
 20
-25.8182
 30
0.0
 10
97.3227
 20
-25.8182
 30
0.0
 10
97.3227
 20
-25.8182
 30
0.0
 10
100.0913
 20
-28.5869
 30
0.0
 10
100.0913
 20
-28.5869
 30
0.0
  0
SPLINE
  5
5E
330
1F
100
AcDbEntity
  8
layer 1
 62
     7
100
AcDbSpline
210
0.0
220
0.0
230
1.0
 70
    11
 71
     3
 72
    20
 73
    16
 74
     0
 42
0.0000000001
 43
0.0000000001
 12
1.0
 22
0.0
 32
0.0
 13
1.0
 23
0.0
 33
0.0
 40
0.0
 40
0.0
 40
0.0
 40
0.0
 40
0.2
 40
0.2
 40
0.2
 40
0.2
 40
0.4
 40
0.4
 40
0.4
 40
0.4
 40
0.6
 40
0.6
 40
0.6
 40
0.6
 40
1.0
 40
1.0
 40
1.0
 40
1.0
 10
172.9908
 20
-39.9383
 30
0.0
 10
172.9908
 20
-39.9383
 30
0.0
 10
169.2925
 20
-31.1183
 30
0.0
 10
169.2925
 20
-31.1183
 30
0.0
 10
169.2925
 20
-31.1183
 30
0.0
 10
169.2925
 20
-31.1183
 30
0.0
 10
165.543
 20
-39.9176
 30
0.0
 10
165.543
 20
-39.9176
 30
0.0
 10
165.543
 20
-39.9176
 30
0.0
 10
165.543
 20
-39.9176
 30
0.0
 10
169.3098
 20
-43.6884
 30
0.0
 10
169.3098
 20
-43.6884
 30
0.0
 10
169.3098
 20
-43.6884
 30
0.0
 10
169.3098
 20
-43.6884
 30
0.0
 10
172.9908
 20
-39.9383
 30
0.0
 10
172.9908
 20
-39.9383
 30
0.0
  0
SPLINE
  5
5F
330
1F
100
AcDbEntity
  8
layer 1
 62
     7
100
AcDbSpline
210
0.0
220
0.0
230
1.0
 70
    11
 71
     3
 72
    20
 73
    16
 74
     0
 42
0.0000000001
 43
0.0000000001
 12
1.0
 22
0.0
 32
0.0
 13
1.0
 23
0.0
 33
0.0
 40
0.0
 40
0.0
 40
0.0
 40
0.0
 40
0.2
 40
0.2
 40
0.2
 40
0.2
 40
0.4
 40
0.4
 40
0.4
 40
0.4
 40
0.6
 40
0.6
 40
0.6
 40
0.6
 40
1.0
 40
1.0
 40
1.0
 40
1.0
 10
165.543
 20
-12.0493
 30
0.0
 10
165.543
 20
-12.0493
 30
0.0
 10
169.2414
 20
-20.8693
 30
0.0
 10
169.2414
 20
-20.8693
 30
0.0
 10
169.2414
 20
-20.8693
 30
0.0
 10
169.2414
 20
-20.8693
 30
0.0
 10
172.9908
 20
-12.0698
 30
0.0
 10
172.9908
 20
-12.0698
 30
0.0
 10
172.9908
 20
-12.0698
 30
0.0
 10
172.9908
 20
-12.0698
 30
0.0
 10
169.2241
 20
-8.2991
 30
0.0
 10
169.2241
 20
-8.2991
 30
0.0
 10
169.2241
 20
-8.2991
 30
0.0
 10
169.2241
 20
-8.2991
 30
0.0
 10
165.543
 20
-12.0493
 30
0.0
 10
165.543
 20
-12.0493
 30
0.0
  0
SPLINE
  5
60
330
1F
100
AcDbEntity
  8
layer 1
 62
     7
100
AcDbSpline
210
0.0
220
0.0
230
1.0
 70
    11
 71
     3
 72
    20
 73
    16
 74
     0
 42
0.0000000001
 43
0.0000000001
 12
1.0
 22
0.0
 32
0.0
 13
1.0
 23
0.0
 33
0.0
 40
0.0
 40
0.0
 40
0.0
 40
0.0
 40
0.2
 40
0.2
 40
0.2
 40
0.2
 40
0.4
 40
0.4
 40
0.4
 40
0.4
 40
0.6
 40
0.6
 40
0.6
 40
0.6
 40
1.0
 40
1.0
 40
1.0
 40
1.0
 10
155.2061
 20
-29.6013
 30
0.0
 10
155.2061
 20
-29.6013
 30
0.0
 10
164.026
 20
-25.903
 30
0.0
 10
164.026
 20
-25.903
 30
0.0
 10
164.026
 20
-25.903
 30
0.0
 10
164.026
 20
-25.903
 30
0.0
 10
155.2267
 20
-22.1535
 30
0.0
 10
155.2267
 20
-22.1535
 30
0.0
 10
155.2267
 20
-22.1535
 30
0.0
 10
155.2267
 20
-22.1535
 30
0.0
 10
151.456
 20
-25.9203
 30
0.0
 10
151.456
 20
-25.9203
 30
0.0
 10
151.456
 20
-25.9203
 30
0.0
 10
151.456
 20
-25.9203
 30
0.0
 10
155.2061
 20
-29.6013
 30
0.0
 10
155.2061
 20
-29.6013
 30
0.0
  0
SPLINE
  5
61
330
1F
100
AcDbEntity
  8
layer 1
 62
     7
100
AcDbSpline
210
0.0
220
0.0
230
1.0
 70
    11
 71
     3
 72
    20
 73
    16
 74
     0
 42
0.0000000001
 43
0.0000000001
 12
1.0
 22
0.0
 32
0.0
 13
1.0
 23
0.0
 33
0.0
 40
0.0
 40
0.0
 40
0.0
 40
0.0
 40
0.2
 40
0.2
 40
0.2
 40
0.2
 40
0.4
 40
0.4
 40
0.4
 40
0.4
 40
0.6
 40
0.6
 40
0.6
 40
0.6
 40
1.0
 40
1.0
 40
1.0
 40
1.0
 10
183.3278
 20
-29.6013
 30
0.0
 10
183.3278
 20
-29.6013
 30
0.0
 10
174.5079
 20
-25.903
 30
0.0
 10
174.5079
 20
-25.903
 30
0.0
 10
174.5079
 20
-25.903
 30
0.0
 10
174.5079
 20
-25.903
 30
0.0
 10
183.3072
 20
-22.1534
 30
0.0
 10
183.3072
 20
-22.1534
 30
0.0
 10
183.3072
 20
-22.1534
 30
0.0
 10
183.3072
 20
-22.1534
 30
0.0
 10
187.0779
 20
-25.9202
 30
0.0
 10
187.0779
 20
-25.9202
 30
0.0
 10
187.0779
 20
-25.9202
 30
0.0
 10
187.0779
 20
-25.9202
 30
0.0
 10
183.3278
 20
-29.6013
 30
0.0
 10
183.3278
 20
-29.6013
 30
0.0
  0
SPLINE
  5
62
330
1F
100
AcDbEntity
  8
layer 1
 62
     7
100
AcDbSpline
210
0.0
220
0.0
230
1.0
 70
    11
 71
     3
 72
    20
 73
    16
 74
     0
 42
0.0000000001
 43
0.0000000001
 12
1.0
 22
0.0
 32
0.0
 13
1.0
 23
0.0
 33
0.0
 40
0.0
 40
0.0
 40
0.0
 40
0.0
 40
0.2
 40
0.2
 40
0.2
 40
0.2
 40
0.4
 40
0.4
 40
0.4
 40
0.4
 40
0.6
 40
0.6
 40
0.6
 40
0.6
 40
1.0
 40
1.0
 40
1.0
 40
1.0
 10
176.4594
 20
-38.3363
 30
0.0
 10
176.4594
 20
-38.3363
 30
0.0
 10
172.8378
 20
-29.4845
 30
0.0
 10
172.8378
 20
-29.4845
 30
0.0
 10
172.8378
 20
-29.4845
 30
0.0
 10
172.8378
 20
-29.4845
 30
0.0
 10
181.7111
 20
-33.0553
 30
0.0
 10
181.7111
 20
-33.0553
 30
0.0
 10
181.7111
 20
-33.0553
 30
0.0
 10
181.7111
 20
-33.0553
 30
0.0
 10
181.7139
 20
-38.3852
 30
0.0
 10
181.7139
 20
-38.3852
 30
0.0
 10
181.7139
 20
-38.3852
 30
0.0
 10
181.7139
 20
-38.3852
 30
0.0
 10
176.4594
 20
-38.3363
 30
0.0
 10
176.4594
 20
-38.3363
 30
0.0
  0
SPLINE
  5
63
330
1F
100
AcDbEntity
  8
layer 1
 62
     7
100
AcDbSpline
210
0.0
220
0.0
230
1.0
 70
    11
 71
     3
 72
    20
 73
    16
 74
     0
 42
0.0000000001
 43
0.0000000001
 12
1.0
 22
0.0
 32
0.0
 13
1.0
 23
0.0
 33
0.0
 40
0.0
 40
0.0
 40
0.0
 40
0.0
 40
0.2
 40
0.2
 40
0.2
 40
0.2
 40
0.4
 40
0.4
 40
0.4
 40
0.4
 40
0.6
 40
0.6
 40
0.6
 40
0.6
 40
1.0
 40
1.0
 40
1.0
 40
1.0
 10
161.9096
 20
-38.3363
 30
0.0
 10
161.9096
 20
-38.3363
 30
0.0
 10
165.5311
 20
-29.4845
 30
0.0
 10
165.5311
 20
-29.4845
 30
0.0
 10
165.5311
 20
-29.4845
 30
0.0
 10
165.5311
 20
-29.4845
 30
0.0
 10
156.6578
 20
-33.0553
 30
0.0
 10
156.6578
 20
-33.0553
 30
0.0
 10
156.6578
 20
-33.0553
 30
0.0
 10
156.6578
 20
-33.0553
 30
0.0
 10
156.6551
 20
-38.3852
 30
0.0
 10
156.6551
 20
-38.3852
 30
0.0
 10
156.6551
 20
-38.3852
 30
0.0
 10
156.6551
 20
-38.3852
 30
0.0
 10
161.9096
 20
-38.3363
 30
0.0
 10
161.9096
 20
-38.3363
 30
0.0
  0
SPLINE
  5
64
330
1F
100
AcDbEntity
  8
layer 1
 62
     7
100
AcDbSpline
210
0.0
220
0.0
230
1.0
 70
    11
 71
     3
 72
    20
 73
    16
 74
     0
 42
0.0000000001
 43
0.0000000001
 12
1.0
 22
0.0
 32
0.0
 13
1.0
 23
0.0
 33
0.0
 40
0.0
 40
0.0
 40
0.0
 40
0.0
 40
0.2
 40
0.2
 40
0.2
 40
0.2
 40
0.4
 40
0.4
 40
0.4
 40
0.4
 40
0.6
 40
0.6
 40
0.6
 40
0.6
 40
1.0
 40
1.0
 40
1.0
 40
1.0
 10
176.4594
 20
-13.4669
 30
0.0
 10
176.4594
 20
-13.4669
 30
0.0
 10
172.8378
 20
-22.3186
 30
0.0
 10
172.8378
 20
-22.3186
 30
0.0
 10
172.8378
 20
-22.3186
 30
0.0
 10
172.8378
 20
-22.3186
 30
0.0
 10
181.7111
 20
-18.7478
 30
0.0
 10
181.7111
 20
-18.7478
 30
0.0
 10
181.7111
 20
-18.7478
 30
0.0
 10
181.7111
 20
-18.7478
 30
0.0
 10
181.7139
 20
-13.418
 30
0.0
 10
181.7139
 20
-13.418
 30
0.0
 10
181.7139
 20
-13.418
 30
0.0
 10
181.7139
 20
-13.418
 30
0.0
 10
176.4594
 20
-13.4669
 30
0.0
 10
176.4594
 20
-13.4669
 30
0.0
  0
SPLINE
  5
65
330
1F
100
AcDbEntity
  8
layer 1
 62
     7
100
AcDbSpline
210
0.0
220
0.0
230
1.0
 70
    11
 71
     3
 72
    20
 73
    16
 74
     0
 42
0.0000000001
 43
0.0000000001
 12
1.0
 22
0.0
 32
0.0
 13
1.0
 23
0.0
 33
0.0
 40
0.0
 40
0.0
 40
0.0
 40
0.0
 40
0.2
 40
0.2
 40
0.2
 40
0.2
 40
0.4
 40
0.4
 40
0.4
 40
0.4
 40
0.6
 40
0.6
 40
0.6
 40
0.6
 40
1.0
 40
1.0
 40
1.0
 40
1.0
 10
161.9096
 20
-13.4669
 30
0.0
 10
161.9096
 20
-13.4669
 30
0.0
 10
165.5311
 20
-22.3186
 30
0.0
 10
165.5311
 20
-22.3186
 30
0.0
 10
165.5311
 20
-22.3186
 30
0.0
 10
165.5311
 20
-22.3186
 30
0.0
 10
156.6578
 20
-18.7478
 30
0.0
 10
156.6578
 20
-18.7478
 30
0.0
 10
156.6578
 20
-18.7478
 30
0.0
 10
156.6578
 20
-18.7478
 30
0.0
 10
156.6551
 20
-13.418
 30
0.0
 10
156.6551
 20
-13.418
 30
0.0
 10
156.6551
 20
-13.418
 30
0.0
 10
156.6551
 20
-13.418
 30
0.0
 10
161.9096
 20
-13.4669
 30
0.0
 10
161.9096
 20
-13.4669
 30
0.0
  0
SPLINE
  5
66
330
1F
100
AcDbEntity
  8
layer 1
 62
     7
100
AcDbSpline
210
0.0
220
0.0
230
1.0
 70
    11
 71
     3
 72
    20
 73
    16
 74
     0
 42
0.0000000001
 43
0.0000000001
 12
1.0
 22
0.0
 32
0.0
 13
1.0
 23
0.0
 33
0.0
 40
0.0
 40
0.0
 40
0.0
 40
0.0
 40
0.2
 40
0.2
 40
0.2
 40
0.2
 40
0.4
 40
0.4
 40
0.4
 40
0.4
 40
0.6
 40
0.6
 40
0.6
 40
0.6
 40
1.0
 40
1.0
 40
1.0
 40
1.0
 10
169.3098
 20
-28.5869
 30
0.0
 10
169.3098
 20
-28.5869
 30
0.0
 10
172.0784
 20
-25.8182
 30
0.0
 10
172.0784
 20
-25.8182
 30
0.0
 10
172.0784
 20
-25.8182
 30
0.0
 10
172.0784
 20
-25.8182
 30
0.0
 10
169.3098
 20
-23.0496
 30
0.0
 10
169.3098
 20
-23.0496
 30
0.0
 10
169.3098
 20
-23.0496
 30
0.0
 10
169.3098
 20
-23.0496
 30
0.0
 10
166.5411
 20
-25.8182
 30
0.0
 10
166.5411
 20
-25.8182
 30
0.0
 10
166.5411
 20
-25.8182
 30
0.0
 10
166.5411
 20
-25.8182
 30
0.0
 10
169.3098
 20
-28.5869
 30
0.0
 10
169.3098
 20
-28.5869
 30
0.0
  0
SPLINE
  5
67
330
1F
100
AcDbEntity
  8
layer 1
 62
     7
100
AcDbSpline
210
0.0
220
0.0
230
1.0
 70
    11
 71
     3
 72
    20
 73
    16
 74
     0
 42
0.0000000001
 43
0.0000000001
 12
1.0
 22
0.0
 32
0.0
 13
1.0
 23
0.0
 33
0.0
 40
0.0
 40
0.0
 40
0.0
 40
0.0
 40
0.2
 40
0.2
 40
0.2
 40
0.2
 40
0.4
 40
0.4
 40
0.4
 40
0.4
 40
0.6
 40
0.6
 40
0.6
 40
0.6
 40
1.0
 40
1.0
 40
1.0
 40
1.0
 10
96.3245
 20
-81.2376
 30
0.0
 10
96.3245
 20
-81.2376
 30
0.0
 10
100.0229
 20
-90.0575
 30
0.0
 10
100.0229
 20
-90.0575
 30
0.0
 10
100.0229
 20
-90.0575
 30
0.0
 10
100.0229
 20
-90.0575
 30
0.0
 10
103.7724
 20
-81.2582
 30
0.0
 10
103.7724
 20
-81.2582
 30
0.0
 10
103.7724
 20
-81.2582
 30
0.0
 10
103.7724
 20
-81.2582
 30
0.0
 10
100.0056
 20
-77.4875
 30
0.0
 10
100.0056
 20
-77.4875
 30
0.0
 10
100.0056
 20
-77.4875
 30
0.0
 10
100.0056
 20
-77.4875
 30
0.0
 10
96.3245
 20
-81.2376
 30
0.0
 10
96.3245
 20
-81.2376
 30
0.0
  0
SPLINE
  5
68
330
1F
100
AcDbEntity
  8
layer 1
 62
     7
100
AcDbSpline
210
0.0
220
0.0
230
1.0
 70
    11
 71
     3
 72
    20
 73
    16
 74
     0
 42
0.0000000001
 43
0.0000000001
 12
1.0
 22
0.0
 32
0.0
 13
1.0
 23
0.0
 33
0.0
 40
0.0
 40
0.0
 40
0.0
 40
0.0
 40
0.2
 40
0.2
 40
0.2
 40
0.2
 40
0.4
 40
0.4
 40
0.4
 40
0.4
 40
0.6
 40
0.6
 40
0.6
 40
0.6
 40
1.0
 40
1.0
 40
1.0
 40
1.0
 10
85.9876
 20
-98.7895
 30
0.0
 10
85.9876
 20
-98.7895
 30
0.0
 10
94.8076
 20
-95.0912
 30
0.0
 10
94.8076
 20
-95.0912
 30
0.0
 10
94.8076
 20
-95.0912
 30
0.0
 10
94.8076
 20
-95.0912
 30
0.0
 10
86.0083
 20
-91.3418
 30
0.0
 10
86.0083
 20
-91.3418
 30
0.0
 10
86.0083
 20
-91.3418
 30
0.0
 10
86.0083
 20
-91.3418
 30
0.0
 10
82.2375
 20
-95.1086
 30
0.0
 10
82.2375
 20
-95.1086
 30
0.0
 10
82.2375
 20
-95.1086
 30
0.0
 10
82.2375
 20
-95.1086
 30
0.0
 10
85.9876
 20
-98.7895
 30
0.0
 10
85.9876
 20
-98.7895
 30
0.0
  0
SPLINE
  5
69
330
1F
100
AcDbEntity
  8
layer 1
 62
     7
100
AcDbSpline
210
0.0
220
0.0
230
1.0
 70
    11
 71
     3
 72
    20
 73
    16
 74
     0
 42
0.0000000001
 43
0.0000000001
 12
1.0
 22
0.0
 32
0.0
 13
1.0
 23
0.0
 33
0.0
 40
0.0
 40
0.0
 40
0.0
 40
0.0
 40
0.2
 40
0.2
 40
0.2
 40
0.2
 40
0.4
 40
0.4
 40
0.4
 40
0.4
 40
0.6
 40
0.6
 40
0.6
 40
0.6
 40
1.0
 40
1.0
 40
1.0
 40
1.0
 10
114.1094
 20
-98.7895
 30
0.0
 10
114.1094
 20
-98.7895
 30
0.0
 10
105.2894
 20
-95.0912
 30
0.0
 10
105.2894
 20
-95.0912
 30
0.0
 10
105.2894
 20
-95.0912
 30
0.0
 10
105.2894
 20
-95.0912
 30
0.0
 10
114.0887
 20
-91.3418
 30
0.0
 10
114.0887
 20
-91.3418
 30
0.0
 10
114.0887
 20
-91.3418
 30
0.0
 10
114.0887
 20
-91.3418
 30
0.0
 10
117.8595
 20
-95.1086
 30
0.0
 10
117.8595
 20
-95.1086
 30
0.0
 10
117.8595
 20
-95.1086
 30
0.0
 10
117.8595
 20
-95.1086
 30
0.0
 10
114.1094
 20
-98.7895
 30
0.0
 10
114.1094
 20
-98.7895
 30
0.0
  0
SPLINE
  5
6A
330
1F
100
AcDbEntity
  8
layer 1
 62
     7
100
AcDbSpline
210
0.0
220
0.0
230
1.0
 70
    11
 71
     3
 72
    20
 73
    16
 74
     0
 42
0.0000000001
 43
0.0000000001
 12
1.0
 22
0.0
 32
0.0
 13
1.0
 23
0.0
 33
0.0
 40
0.0
 40
0.0
 40
0.0
 40
0.0
 40
0.2
 40
0.2
 40
0.2
 40
0.2
 40
0.4
 40
0.4
 40
0.4
 40
0.4
 40
0.6
 40
0.6
 40
0.6
 40
0.6
 40
1.0
 40
1.0
 40
1.0
 40
1.0
 10
107.2409
 20
-107.5245
 30
0.0
 10
107.2409
 20
-107.5245
 30
0.0
 10
103.6194
 20
-98.6728
 30
0.0
 10
103.6194
 20
-98.6728
 30
0.0
 10
103.6194
 20
-98.6728
 30
0.0
 10
103.6194
 20
-98.6728
 30
0.0
 10
112.4927
 20
-102.2436
 30
0.0
 10
112.4927
 20
-102.2436
 30
0.0
 10
112.4927
 20
-102.2436
 30
0.0
 10
112.4927
 20
-102.2436
 30
0.0
 10
112.4954
 20
-107.5734
 30
0.0
 10
112.4954
 20
-107.5734
 30
0.0
 10
112.4954
 20
-107.5734
 30
0.0
 10
112.4954
 20
-107.5734
 30
0.0
 10
107.2409
 20
-107.5245
 30
0.0
 10
107.2409
 20
-107.5245
 30
0.0
  0
SPLINE
  5
6B
330
1F
100
AcDbEntity
  8
layer 1
 62
     7
100
AcDbSpline
210
0.0
220
0.0
230
1.0
 70
    11
 71
     3
 72
    20
 73
    16
 74
     0
 42
0.0000000001
 43
0.0000000001
 12
1.0
 22
0.0
 32
0.0
 13
1.0
 23
0.0
 33
0.0
 40
0.0
 40
0.0
 40
0.0
 40
0.0
 40
0.2
 40
0.2
 40
0.2
 40
0.2
 40
0.4
 40
0.4
 40
0.4
 40
0.4
 40
0.6
 40
0.6
 40
0.6
 40
0.6
 40
1.0
 40
1.0
 40
1.0
 40
1.0
 10
92.6911
 20
-107.5245
 30
0.0
 10
92.6911
 20
-107.5245
 30
0.0
 10
96.3127
 20
-98.6728
 30
0.0
 10
96.3127
 20
-98.6728
 30
0.0
 10
96.3127
 20
-98.6728
 30
0.0
 10
96.3127
 20
-98.6728
 30
0.0
 10
87.4393
 20
-102.2436
 30
0.0
 10
87.4393
 20
-102.2436
 30
0.0
 10
87.4393
 20
-102.2436
 30
0.0
 10
87.4393
 20
-102.2436
 30
0.0
 10
87.4366
 20
-107.5734
 30
0.0
 10
87.4366
 20
-107.5734
 30
0.0
 10
87.4366
 20
-107.5734
 30
0.0
 10
87.4366
 20
-107.5734
 30
0.0
 10
92.6911
 20
-107.5245
 30
0.0
 10
92.6911
 20
-107.5245
 30
0.0
  0
SPLINE
  5
6C
330
1F
100
AcDbEntity
  8
layer 1
 62
     7
100
AcDbSpline
210
0.0
220
0.0
230
1.0
 70
    11
 71
     3
 72
    20
 73
    16
 74
     0
 42
0.0000000001
 43
0.0000000001
 12
1.0
 22
0.0
 32
0.0
 13
1.0
 23
0.0
 33
0.0
 40
0.0
 40
0.0
 40
0.0
 40
0.0
 40
0.2
 40
0.2
 40
0.2
 40
0.2
 40
0.4
 40
0.4
 40
0.4
 40
0.4
 40
0.6
 40
0.6
 40
0.6
 40
0.6
 40
1.0
 40
1.0
 40
1.0
 40
1.0
 10
107.2409
 20
-82.6551
 30
0.0
 10
107.2409
 20
-82.6551
 30
0.0
 10
103.6194
 20
-91.5069
 30
0.0
 10
103.6194
 20
-91.5069
 30
0.0
 10
103.6194
 20
-91.5069
 30
0.0
 10
103.6194
 20
-91.5069
 30
0.0
 10
112.4927
 20
-87.9361
 30
0.0
 10
112.4927
 20
-87.9361
 30
0.0
 10
112.4927
 20
-87.9361
 30
0.0
 10
112.4927
 20
-87.9361
 30
0.0
 10
112.4954
 20
-82.6062
 30
0.0
 10
112.4954
 20
-82.6062
 30
0.0
 10
112.4954
 20
-82.6062
 30
0.0
 10
112.4954
 20
-82.6062
 30
0.0
 10
107.2409
 20
-82.6551
 30
0.0
 10
107.2409
 20
-82.6551
 30
0.0
  0
SPLINE
  5
6D
330
1F
100
AcDbEntity
  8
layer 1
 62
     7
100
AcDbSpline
210
0.0
220
0.0
230
1.0
 70
    11
 71
     3
 72
    20
 73
    16
 74
     0
 42
0.0000000001
 43
0.0000000001
 12
1.0
 22
0.0
 32
0.0
 13
1.0
 23
0.0
 33
0.0
 40
0.0
 40
0.0
 40
0.0
 40
0.0
 40
0.2
 40
0.2
 40
0.2
 40
0.2
 40
0.4
 40
0.4
 40
0.4
 40
0.4
 40
0.6
 40
0.6
 40
0.6
 40
0.6
 40
1.0
 40
1.0
 40
1.0
 40
1.0
 10
92.6911
 20
-82.6551
 30
0.0
 10
92.6911
 20
-82.6551
 30
0.0
 10
96.3127
 20
-91.5069
 30
0.0
 10
96.3127
 20
-91.5069
 30
0.0
 10
96.3127
 20
-91.5069
 30
0.0
 10
96.3127
 20
-91.5069
 30
0.0
 10
87.4393
 20
-87.9361
 30
0.0
 10
87.4393
 20
-87.9361
 30
0.0
 10
87.4393
 20
-87.9361
 30
0.0
 10
87.4393
 20
-87.9361
 30
0.0
 10
87.4366
 20
-82.6062
 30
0.0
 10
87.4366
 20
-82.6062
 30
0.0
 10
87.4366
 20
-82.6062
 30
0.0
 10
87.4366
 20
-82.6062
 30
0.0
 10
92.6911
 20
-82.6551
 30
0.0
 10
92.6911
 20
-82.6551
 30
0.0
  0
SPLINE
  5
6E
330
1F
100
AcDbEntity
  8
layer 1
 62
     7
100
AcDbSpline
210
0.0
220
0.0
230
1.0
 70
    11
 71
     3
 72
    20
 73
    16
 74
     0
 42
0.0000000001
 43
0.0000000001
 12
1.0
 22
0.0
 32
0.0
 13
1.0
 23
0.0
 33
0.0
 40
0.0
 40
0.0
 40
0.0
 40
0.0
 40
0.2
 40
0.2
 40
0.2
 40
0.2
 40
0.4
 40
0.4
 40
0.4
 40
0.4
 40
0.6
 40
0.6
 40
0.6
 40
0.6
 40
1.0
 40
1.0
 40
1.0
 40
1.0
 10
100.0913
 20
-97.7752
 30
0.0
 10
100.0913
 20
-97.7752
 30
0.0
 10
102.86
 20
-95.0065
 30
0.0
 10
102.86
 20
-95.0065
 30
0.0
 10
102.86
 20
-95.0065
 30
0.0
 10
102.86
 20
-95.0065
 30
0.0
 10
100.0913
 20
-92.2379
 30
0.0
 10
100.0913
 20
-92.2379
 30
0.0
 10
100.0913
 20
-92.2379
 30
0.0
 10
100.0913
 20
-92.2379
 30
0.0
 10
97.3227
 20
-95.0065
 30
0.0
 10
97.3227
 20
-95.0065
 30
0.0
 10
97.3227
 20
-95.0065
 30
0.0
 10
97.3227
 20
-95.0065
 30
0.0
 10
100.0913
 20
-97.7752
 30
0.0
 10
100.0913
 20
-97.7752
 30
0.0
  0
SPLINE
  5
6F
330
1F
100
AcDbEntity
  8
layer 1
 62
     7
100
AcDbSpline
210
0.0
220
0.0
230
1.0
 70
    11
 71
     3
 72
    20
 73
    16
 74
     0
 42
0.0000000001
 43
0.0000000001
 12
1.0
 22
0.0
 32
0.0
 13
1.0
 23
0.0
 33
0.0
 40
0.0
 40
0.0
 40
0.0
 40
0.0
 40
0.2
 40
0.2
 40
0.2
 40
0.2
 40
0.4
 40
0.4
 40
0.4
 40
0.4
 40
0.6
 40
0.6
 40
0.6
 40
0.6
 40
1.0
 40
1.0
 40
1.0
 40
1.0
 10
165.543
 20
-81.2376
 30
0.0
 10
165.543
 20
-81.2376
 30
0.0
 10
169.2414
 20
-90.0575
 30
0.0
 10
169.2414
 20
-90.0575
 30
0.0
 10
169.2414
 20
-90.0575
 30
0.0
 10
169.2414
 20
-90.0575
 30
0.0
 10
172.9908
 20
-81.2582
 30
0.0
 10
172.9908
 20
-81.2582
 30
0.0
 10
172.9908
 20
-81.2582
 30
0.0
 10
172.9908
 20
-81.2582
 30
0.0
 10
169.2241
 20
-77.4875
 30
0.0
 10
169.2241
 20
-77.4875
 30
0.0
 10
169.2241
 20
-77.4875
 30
0.0
 10
169.2241
 20
-77.4875
 30
0.0
 10
165.543
 20
-81.2376
 30
0.0
 10
165.543
 20
-81.2376
 30
0.0
  0
SPLINE
  5
70
330
1F
100
AcDbEntity
  8
layer 1
 62
     7
100
AcDbSpline
210
0.0
220
0.0
230
1.0
 70
    11
 71
     3
 72
    20
 73
    16
 74
     0
 42
0.0000000001
 43
0.0000000001
 12
1.0
 22
0.0
 32
0.0
 13
1.0
 23
0.0
 33
0.0
 40
0.0
 40
0.0
 40
0.0
 40
0.0
 40
0.2
 40
0.2
 40
0.2
 40
0.2
 40
0.4
 40
0.4
 40
0.4
 40
0.4
 40
0.6
 40
0.6
 40
0.6
 40
0.6
 40
1.0
 40
1.0
 40
1.0
 40
1.0
 10
155.2061
 20
-98.7895
 30
0.0
 10
155.2061
 20
-98.7895
 30
0.0
 10
164.026
 20
-95.0912
 30
0.0
 10
164.026
 20
-95.0912
 30
0.0
 10
164.026
 20
-95.0912
 30
0.0
 10
164.026
 20
-95.0912
 30
0.0
 10
155.2267
 20
-91.3418
 30
0.0
 10
155.2267
 20
-91.3418
 30
0.0
 10
155.2267
 20
-91.3418
 30
0.0
 10
155.2267
 20
-91.3418
 30
0.0
 10
151.456
 20
-95.1086
 30
0.0
 10
151.456
 20
-95.1086
 30
0.0
 10
151.456
 20
-95.1086
 30
0.0
 10
151.456
 20
-95.1086
 30
0.0
 10
155.2061
 20
-98.7895
 30
0.0
 10
155.2061
 20
-98.7895
 30
0.0
  0
SPLINE
  5
71
330
1F
100
AcDbEntity
  8
layer 1
 62
     7
100
AcDbSpline
210
0.0
220
0.0
230
1.0
 70
    11
 71
     3
 72
    20
 73
    16
 74
     0
 42
0.0000000001
 43
0.0000000001
 12
1.0
 22
0.0
 32
0.0
 13
1.0
 23
0.0
 33
0.0
 40
0.0
 40
0.0
 40
0.0
 40
0.0
 40
0.2
 40
0.2
 40
0.2
 40
0.2
 40
0.4
 40
0.4
 40
0.4
 40
0.4
 40
0.6
 40
0.6
 40
0.6
 40
0.6
 40
1.0
 40
1.0
 40
1.0
 40
1.0
 10
183.3278
 20
-98.7895
 30
0.0
 10
183.3278
 20
-98.7895
 30
0.0
 10
174.5079
 20
-95.0912
 30
0.0
 10
174.5079
 20
-95.0912
 30
0.0
 10
174.5079
 20
-95.0912
 30
0.0
 10
174.5079
 20
-95.0912
 30
0.0
 10
183.3072
 20
-91.3418
 30
0.0
 10
183.3072
 20
-91.3418
 30
0.0
 10
183.3072
 20
-91.3418
 30
0.0
 10
183.3072
 20
-91.3418
 30
0.0
 10
187.0779
 20
-95.1086
 30
0.0
 10
187.0779
 20
-95.1086
 30
0.0
 10
187.0779
 20
-95.1086
 30
0.0
 10
187.0779
 20
-95.1086
 30
0.0
 10
183.3278
 20
-98.7895
 30
0.0
 10
183.3278
 20
-98.7895
 30
0.0
  0
SPLINE
  5
72
330
1F
100
AcDbEntity
  8
layer 1
 62
     7
100
AcDbSpline
210
0.0
220
0.0
230
1.0
 70
    11
 71
     3
 72
    20
 73
    16
 74
     0
 42
0.0000000001
 43
0.0000000001
 12
1.0
 22
0.0
 32
0.0
 13
1.0
 23
0.0
 33
0.0
 40
0.0
 40
0.0
 40
0.0
 40
0.0
 40
0.2
 40
0.2
 40
0.2
 40
0.2
 40
0.4
 40
0.4
 40
0.4
 40
0.4
 40
0.6
 40
0.6
 40
0.6
 40
0.6
 40
1.0
 40
1.0
 40
1.0
 40
1.0
 10
176.4594
 20
-107.5245
 30
0.0
 10
176.4594
 20
-107.5245
 30
0.0
 10
172.8378
 20
-98.6728
 30
0.0
 10
172.8378
 20
-98.6728
 30
0.0
 10
172.8378
 20
-98.6728
 30
0.0
 10
172.8378
 20
-98.6728
 30
0.0
 10
181.7111
 20
-102.2436
 30
0.0
 10
181.7111
 20
-102.2436
 30
0.0
 10
181.7111
 20
-102.2436
 30
0.0
 10
181.7111
 20
-102.2436
 30
0.0
 10
181.7139
 20
-107.5734
 30
0.0
 10
181.7139
 20
-107.5734
 30
0.0
 10
181.7139
 20
-107.5734
 30
0.0
 10
181.7139
 20
-107.5734
 30
0.0
 10
176.4594
 20
-107.5245
 30
0.0
 10
176.4594
 20
-107.5245
 30
0.0
  0
SPLINE
  5
73
330
1F
100
AcDbEntity
  8
layer 1
 62
     7
100
AcDbSpline
210
0.0
220
0.0
230
1.0
 70
    11
 71
     3
 72
    20
 73
    16
 74
     0
 42
0.0000000001
 43
0.0000000001
 12
1.0
 22
0.0
 32
0.0
 13
1.0
 23
0.0
 33
0.0
 40
0.0
 40
0.0
 40
0.0
 40
0.0
 40
0.2
 40
0.2
 40
0.2
 40
0.2
 40
0.4
 40
0.4
 40
0.4
 40
0.4
 40
0.6
 40
0.6
 40
0.6
 40
0.6
 40
1.0
 40
1.0
 40
1.0
 40
1.0
 10
161.9096
 20
-107.5245
 30
0.0
 10
161.9096
 20
-107.5245
 30
0.0
 10
165.5311
 20
-98.6728
 30
0.0
 10
165.5311
 20
-98.6728
 30
0.0
 10
165.5311
 20
-98.6728
 30
0.0
 10
165.5311
 20
-98.6728
 30
0.0
 10
156.6578
 20
-102.2436
 30
0.0
 10
156.6578
 20
-102.2436
 30
0.0
 10
156.6578
 20
-102.2436
 30
0.0
 10
156.6578
 20
-102.2436
 30
0.0
 10
156.6551
 20
-107.5734
 30
0.0
 10
156.6551
 20
-107.5734
 30
0.0
 10
156.6551
 20
-107.5734
 30
0.0
 10
156.6551
 20
-107.5734
 30
0.0
 10
161.9096
 20
-107.5245
 30
0.0
 10
161.9096
 20
-107.5245
 30
0.0
  0
SPLINE
  5
74
330
1F
100
AcDbEntity
  8
layer 1
 62
     7
100
AcDbSpline
210
0.0
220
0.0
230
1.0
 70
    11
 71
     3
 72
    20
 73
    16
 74
     0
 42
0.0000000001
 43
0.0000000001
 12
1.0
 22
0.0
 32
0.0
 13
1.0
 23
0.0
 33
0.0
 40
0.0
 40
0.0
 40
0.0
 40
0.0
 40
0.2
 40
0.2
 40
0.2
 40
0.2
 40
0.4
 40
0.4
 40
0.4
 40
0.4
 40
0.6
 40
0.6
 40
0.6
 40
0.6
 40
1.0
 40
1.0
 40
1.0
 40
1.0
 10
176.4594
 20
-82.6551
 30
0.0
 10
176.4594
 20
-82.6551
 30
0.0
 10
172.8378
 20
-91.5069
 30
0.0
 10
172.8378
 20
-91.5069
 30
0.0
 10
172.8378
 20
-91.5069
 30
0.0
 10
172.8378
 20
-91.5069
 30
0.0
 10
181.7111
 20
-87.9361
 30
0.0
 10
181.7111
 20
-87.9361
 30
0.0
 10
181.7111
 20
-87.9361
 30
0.0
 10
181.7111
 20
-87.9361
 30
0.0
 10
181.7139
 20
-82.6062
 30
0.0
 10
181.7139
 20
-82.6062
 30
0.0
 10
181.7139
 20
-82.6062
 30
0.0
 10
181.7139
 20
-82.6062
 30
0.0
 10
176.4594
 20
-82.6551
 30
0.0
 10
176.4594
 20
-82.6551
 30
0.0
  0
SPLINE
  5
75
330
1F
100
AcDbEntity
  8
layer 1
 62
     7
100
AcDbSpline
210
0.0
220
0.0
230
1.0
 70
    11
 71
     3
 72
    20
 73
    16
 74
     0
 42
0.0000000001
 43
0.0000000001
 12
1.0
 22
0.0
 32
0.0
 13
1.0
 23
0.0
 33
0.0
 40
0.0
 40
0.0
 40
0.0
 40
0.0
 40
0.2
 40
0.2
 40
0.2
 40
0.2
 40
0.4
 40
0.4
 40
0.4
 40
0.4
 40
0.6
 40
0.6
 40
0.6
 40
0.6
 40
1.0
 40
1.0
 40
1.0
 40
1.0
 10
161.9096
 20
-82.6551
 30
0.0
 10
161.9096
 20
-82.6551
 30
0.0
 10
165.5311
 20
-91.5069
 30
0.0
 10
165.5311
 20
-91.5069
 30
0.0
 10
165.5311
 20
-91.5069
 30
0.0
 10
165.5311
 20
-91.5069
 30
0.0
 10
156.6578
 20
-87.9361
 30
0.0
 10
156.6578
 20
-87.9361
 30
0.0
 10
156.6578
 20
-87.9361
 30
0.0
 10
156.6578
 20
-87.9361
 30
0.0
 10
156.6551
 20
-82.6062
 30
0.0
 10
156.6551
 20
-82.6062
 30
0.0
 10
156.6551
 20
-82.6062
 30
0.0
 10
156.6551
 20
-82.6062
 30
0.0
 10
161.9096
 20
-82.6551
 30
0.0
 10
161.9096
 20
-82.6551
 30
0.0
  0
SPLINE
  5
76
330
1F
100
AcDbEntity
  8
layer 1
 62
     7
100
AcDbSpline
210
0.0
220
0.0
230
1.0
 70
    11
 71
     3
 72
    20
 73
    16
 74
     0
 42
0.0000000001
 43
0.0000000001
 12
1.0
 22
0.0
 32
0.0
 13
1.0
 23
0.0
 33
0.0
 40
0.0
 40
0.0
 40
0.0
 40
0.0
 40
0.2
 40
0.2
 40
0.2
 40
0.2
 40
0.4
 40
0.4
 40
0.4
 40
0.4
 40
0.6
 40
0.6
 40
0.6
 40
0.6
 40
1.0
 40
1.0
 40
1.0
 40
1.0
 10
169.3098
 20
-97.7752
 30
0.0
 10
169.3098
 20
-97.7752
 30
0.0
 10
172.0784
 20
-95.0065
 30
0.0
 10
172.0784
 20
-95.0065
 30
0.0
 10
172.0784
 20
-95.0065
 30
0.0
 10
172.0784
 20
-95.0065
 30
0.0
 10
169.3098
 20
-92.2379
 30
0.0
 10
169.3098
 20
-92.2379
 30
0.0
 10
169.3098
 20
-92.2379
 30
0.0
 10
169.3098
 20
-92.2379
 30
0.0
 10
166.5411
 20
-95.0065
 30
0.0
 10
166.5411
 20
-95.0065
 30
0.0
 10
166.5411
 20
-95.0065
 30
0.0
 10
166.5411
 20
-95.0065
 30
0.0
 10
169.3098
 20
-97.7752
 30
0.0
 10
169.3098
 20
-97.7752
 30
0.0
  0
SPLINE
  5
77
330
1F
100
AcDbEntity
  8
layer 1
 62
     7
100
AcDbSpline
210
0.0
220
0.0
230
1.0
 70
    11
 71
     3
 72
    20
 73
    16
 74
     0
 42
0.0000000001
 43
0.0000000001
 12
1.0
 22
0.0
 32
0.0
 13
1.0
 23
0.0
 33
0.0
 40
0.0
 40
0.0
 40
0.0
 40
0.0
 40
0.2
 40
0.2
 40
0.2
 40
0.2
 40
0.4
 40
0.4
 40
0.4
 40
0.4
 40
0.6
 40
0.6
 40
0.6
 40
0.6
 40
1.0
 40
1.0
 40
1.0
 40
1.0
 10
103.7724
 20
98.4385
 30
0.0
 10
103.7724
 20
98.4385
 30
0.0
 10
100.0741
 20
107.2583
 30
0.0
 10
100.0741
 20
107.2583
 30
0.0
 10
100.0741
 20
107.2583
 30
0.0
 10
100.0741
 20
107.2583
 30
0.0
 10
96.3245
 20
98.459
 30
0.0
 10
96.3245
 20
98.459
 30
0.0
 10
96.3245
 20
98.459
 30
0.0
 10
96.3245
 20
98.459
 30
0.0
 10
100.0914
 20
94.6883
 30
0.0
 10
100.0914
 20
94.6883
 30
0.0
 10
100.0914
 20
94.6883
 30
0.0
 10
100.0914
 20
94.6883
 30
0.0
 10
103.7724
 20
98.4385
 30
0.0
 10
103.7724
 20
98.4385
 30
0.0
  0
SPLINE
  5
78
330
1F
100
AcDbEntity
  8
layer 1
 62
     7
100
AcDbSpline
210
0.0
220
0.0
230
1.0
 70
    11
 71
     3
 72
    16
 73
    12
 74
     0
 42
0.0000000001
 43
0.0000000001
 12
1.0
 22
0.0
 32
0.0
 13
1.0
 23
0.0
 33
0.0
 40
0.0
 40
0.0
 40
0.0
 40
0.0
 40
0.25
 40
0.25
 40
0.25
 40
0.25
 40
0.5
 40
0.5
 40
0.5
 40
0.5
 40
1.0
 40
1.0
 40
1.0
 40
1.0
 10
96.8671
 20
125.0333
 30
0.0
 10
96.8671
 20
125.0333
 30
0.0
 10
100.0229
 20
117.5073
 30
0.0
 10
100.0229
 20
117.5073
 30
0.0
 10
100.0229
 20
117.5073
 30
0.0
 10
100.0229
 20
117.5073
 30
0.0
 10
103.2296
 20
125.0328
 30
0.0
 10
103.2296
 20
125.0328
 30
0.0
 10
103.2296
 20
125.0328
 30
0.0
 10
103.2296
 20
125.0328
 30
0.0
 10
96.8671
 20
125.0333
 30
0.0
 10
96.8671
 20
125.0333
 30
0.0
  0
SPLINE
  5
79
330
1F
100
AcDbEntity
  8
layer 1
 62
     7
100
AcDbSpline
210
0.0
220
0.0
230
1.0
 70
    11
 71
     3
 72
    16
 73
    12
 74
     0
 42
0.0000000001
 43
0.0000000001
 12
1.0
 22
0.0
 32
0.0
 13
1.0
 23
0.0
 33
0.0
 40
0.0
 40
0.0
 40
0.0
 40
0.0
 40
0.25
 40
0.25
 40
0.25
 40
0.25
 40
0.5
 40
0.5
 40
0.5
 40
0.5
 40
1.0
 40
1.0
 40
1.0
 40
1.0
 10
96.7679
 20
-107.4834
 30
0.0
 10
96.7679
 20
-107.4834
 30
0.0
 10
99.9237
 20
-99.9574
 30
0.0
 10
99.9237
 20
-99.9574
 30
0.0
 10
99.9237
 20
-99.9574
 30
0.0
 10
99.9237
 20
-99.9574
 30
0.0
 10
103.1304
 20
-107.4829
 30
0.0
 10
103.1304
 20
-107.4829
 30
0.0
 10
103.1304
 20
-107.4829
 30
0.0
 10
103.1304
 20
-107.4829
 30
0.0
 10
96.7679
 20
-107.4834
 30
0.0
 10
96.7679
 20
-107.4834
 30
0.0
  0
SPLINE
  5
7A
330
1F
100
AcDbEntity
  8
layer 1
 62
     7
100
AcDbSpline
210
0.0
220
0.0
230
1.0
 70
    11
 71
     3
 72
    20
 73
    16
 74
     0
 42
0.0000000001
 43
0.0000000001
 12
1.0
 22
0.0
 32
0.0
 13
1.0
 23
0.0
 33
0.0
 40
0.0
 40
0.0
 40
0.0
 40
0.0
 40
0.2
 40
0.2
 40
0.2
 40
0.2
 40
0.4
 40
0.4
 40
0.4
 40
0.4
 40
0.6
 40
0.6
 40
0.6
 40
0.6
 40
1.0
 40
1.0
 40
1.0
 40
1.0
 10
85.9876
 20
108.7753
 30
0.0
 10
85.9876
 20
108.7753
 30
0.0
 10
94.8076
 20
112.4737
 30
0.0
 10
94.8076
 20
112.4737
 30
0.0
 10
94.8076
 20
112.4737
 30
0.0
 10
94.8076
 20
112.4737
 30
0.0
 10
86.0083
 20
116.2231
 30
0.0
 10
86.0083
 20
116.2231
 30
0.0
 10
86.0083
 20
116.2231
 30
0.0
 10
86.0083
 20
116.2231
 30
0.0
 10
82.2375
 20
112.4563
 30
0.0
 10
82.2375
 20
112.4563
 30
0.0
 10
82.2375
 20
112.4563
 30
0.0
 10
82.2375
 20
112.4563
 30
0.0
 10
85.9876
 20
108.7753
 30
0.0
 10
85.9876
 20
108.7753
 30
0.0
  0
SPLINE
  5
7B
330
1F
100
AcDbEntity
  8
layer 1
 62
     7
100
AcDbSpline
210
0.0
220
0.0
230
1.0
 70
    11
 71
     3
 72
    20
 73
    16
 74
     0
 42
0.0000000001
 43
0.0000000001
 12
1.0
 22
0.0
 32
0.0
 13
1.0
 23
0.0
 33
0.0
 40
0.0
 40
0.0
 40
0.0
 40
0.0
 40
0.2
 40
0.2
 40
0.2
 40
0.2
 40
0.4
 40
0.4
 40
0.4
 40
0.4
 40
0.6
 40
0.6
 40
0.6
 40
0.6
 40
1.0
 40
1.0
 40
1.0
 40
1.0
 10
114.1094
 20
108.7753
 30
0.0
 10
114.1094
 20
108.7753
 30
0.0
 10
105.2894
 20
112.4738
 30
0.0
 10
105.2894
 20
112.4738
 30
0.0
 10
105.2894
 20
112.4738
 30
0.0
 10
105.2894
 20
112.4738
 30
0.0
 10
114.0887
 20
116.2232
 30
0.0
 10
114.0887
 20
116.2232
 30
0.0
 10
114.0887
 20
116.2232
 30
0.0
 10
114.0887
 20
116.2232
 30
0.0
 10
117.8595
 20
112.4564
 30
0.0
 10
117.8595
 20
112.4564
 30
0.0
 10
117.8595
 20
112.4564
 30
0.0
 10
117.8595
 20
112.4564
 30
0.0
 10
114.1094
 20
108.7753
 30
0.0
 10
114.1094
 20
108.7753
 30
0.0
  0
SPLINE
  5
7C
330
1F
100
AcDbEntity
  8
layer 1
 62
     7
100
AcDbSpline
210
0.0
220
0.0
230
1.0
 70
    11
 71
     3
 72
    20
 73
    16
 74
     0
 42
0.0000000001
 43
0.0000000001
 12
1.0
 22
0.0
 32
0.0
 13
1.0
 23
0.0
 33
0.0
 40
0.0
 40
0.0
 40
0.0
 40
0.0
 40
0.2
 40
0.2
 40
0.2
 40
0.2
 40
0.4
 40
0.4
 40
0.4
 40
0.4
 40
0.6
 40
0.6
 40
0.6
 40
0.6
 40
1.0
 40
1.0
 40
1.0
 40
1.0
 10
107.2409
 20
100.0405
 30
0.0
 10
107.2409
 20
100.0405
 30
0.0
 10
103.6194
 20
108.8922
 30
0.0
 10
103.6194
 20
108.8922
 30
0.0
 10
103.6194
 20
108.8922
 30
0.0
 10
103.6194
 20
108.8922
 30
0.0
 10
112.4927
 20
105.3214
 30
0.0
 10
112.4927
 20
105.3214
 30
0.0
 10
112.4927
 20
105.3214
 30
0.0
 10
112.4927
 20
105.3214
 30
0.0
 10
112.4954
 20
99.9916
 30
0.0
 10
112.4954
 20
99.9916
 30
0.0
 10
112.4954
 20
99.9916
 30
0.0
 10
112.4954
 20
99.9916
 30
0.0
 10
107.2409
 20
100.0405
 30
0.0
 10
107.2409
 20
100.0405
 30
0.0
  0
SPLINE
  5
7D
330
1F
100
AcDbEntity
  8
layer 1
 62
     7
100
AcDbSpline
210
0.0
220
0.0
230
1.0
 70
    11
 71
     3
 72
    20
 73
    16
 74
     0
 42
0.0000000001
 43
0.0000000001
 12
1.0
 22
0.0
 32
0.0
 13
1.0
 23
0.0
 33
0.0
 40
0.0
 40
0.0
 40
0.0
 40
0.0
 40
0.2
 40
0.2
 40
0.2
 40
0.2
 40
0.4
 40
0.4
 40
0.4
 40
0.4
 40
0.6
 40
0.6
 40
0.6
 40
0.6
 40
1.0
 40
1.0
 40
1.0
 40
1.0
 10
92.6911
 20
100.0405
 30
0.0
 10
92.6911
 20
100.0405
 30
0.0
 10
96.3127
 20
108.8922
 30
0.0
 10
96.3127
 20
108.8922
 30
0.0
 10
96.3127
 20
108.8922
 30
0.0
 10
96.3127
 20
108.8922
 30
0.0
 10
87.4393
 20
105.3214
 30
0.0
 10
87.4393
 20
105.3214
 30
0.0
 10
87.4393
 20
105.3214
 30
0.0
 10
87.4393
 20
105.3214
 30
0.0
 10
87.4366
 20
99.9916
 30
0.0
 10
87.4366
 20
99.9916
 30
0.0
 10
87.4366
 20
99.9916
 30
0.0
 10
87.4366
 20
99.9916
 30
0.0
 10
92.6911
 20
100.0405
 30
0.0
 10
92.6911
 20
100.0405
 30
0.0
  0
SPLINE
  5
7E
330
1F
100
AcDbEntity
  8
layer 1
 62
     7
100
AcDbSpline
210
0.0
220
0.0
230
1.0
 70
    11
 71
     3
 72
    20
 73
    16
 74
     0
 42
0.0000000001
 43
0.0000000001
 12
1.0
 22
0.0
 32
0.0
 13
1.0
 23
0.0
 33
0.0
 40
0.0
 40
0.0
 40
0.0
 40
0.0
 40
0.2
 40
0.2
 40
0.2
 40
0.2
 40
0.4
 40
0.4
 40
0.4
 40
0.4
 40
0.6
 40
0.6
 40
0.6
 40
0.6
 40
1.0
 40
1.0
 40
1.0
 40
1.0
 10
107.2409
 20
124.9097
 30
0.0
 10
107.2409
 20
124.9097
 30
0.0
 10
103.6194
 20
116.058
 30
0.0
 10
103.6194
 20
116.058
 30
0.0
 10
103.6194
 20
116.058
 30
0.0
 10
103.6194
 20
116.058
 30
0.0
 10
112.4927
 20
119.6288
 30
0.0
 10
112.4927
 20
119.6288
 30
0.0
 10
112.4927
 20
119.6288
 30
0.0
 10
112.4927
 20
119.6288
 30
0.0
 10
112.4954
 20
124.9586
 30
0.0
 10
112.4954
 20
124.9586
 30
0.0
 10
112.4954
 20
124.9586
 30
0.0
 10
112.4954
 20
124.9586
 30
0.0
 10
107.2409
 20
124.9097
 30
0.0
 10
107.2409
 20
124.9097
 30
0.0
  0
SPLINE
  5
7F
330
1F
100
AcDbEntity
  8
layer 1
 62
     7
100
AcDbSpline
210
0.0
220
0.0
230
1.0
 70
    11
 71
     3
 72
    20
 73
    16
 74
     0
 42
0.0000000001
 43
0.0000000001
 12
1.0
 22
0.0
 32
0.0
 13
1.0
 23
0.0
 33
0.0
 40
0.0
 40
0.0
 40
0.0
 40
0.0
 40
0.2
 40
0.2
 40
0.2
 40
0.2
 40
0.4
 40
0.4
 40
0.4
 40
0.4
 40
0.6
 40
0.6
 40
0.6
 40
0.6
 40
1.0
 40
1.0
 40
1.0
 40
1.0
 10
92.6911
 20
124.9097
 30
0.0
 10
92.6911
 20
124.9097
 30
0.0
 10
96.3127
 20
116.058
 30
0.0
 10
96.3127
 20
116.058
 30
0.0
 10
96.3127
 20
116.058
 30
0.0
 10
96.3127
 20
116.058
 30
0.0
 10
87.4393
 20
119.6288
 30
0.0
 10
87.4393
 20
119.6288
 30
0.0
 10
87.4393
 20
119.6288
 30
0.0
 10
87.4393
 20
119.6288
 30
0.0
 10
87.4366
 20
124.9586
 30
0.0
 10
87.4366
 20
124.9586
 30
0.0
 10
87.4366
 20
124.9586
 30
0.0
 10
87.4366
 20
124.9586
 30
0.0
 10
92.6911
 20
124.9097
 30
0.0
 10
92.6911
 20
124.9097
 30
0.0
  0
SPLINE
  5
80
330
1F
100
AcDbEntity
  8
layer 1
 62
     7
100
AcDbSpline
210
0.0
220
0.0
230
1.0
 70
    11
 71
     3
 72
    20
 73
    16
 74
     0
 42
0.0000000001
 43
0.0000000001
 12
1.0
 22
0.0
 32
0.0
 13
1.0
 23
0.0
 33
0.0
 40
0.0
 40
0.0
 40
0.0
 40
0.0
 40
0.2
 40
0.2
 40
0.2
 40
0.2
 40
0.4
 40
0.4
 40
0.4
 40
0.4
 40
0.6
 40
0.6
 40
0.6
 40
0.6
 40
1.0
 40
1.0
 40
1.0
 40
1.0
 10
100.0913
 20
109.7897
 30
0.0
 10
100.0913
 20
109.7897
 30
0.0
 10
102.86
 20
112.5584
 30
0.0
 10
102.86
 20
112.5584
 30
0.0
 10
102.86
 20
112.5584
 30
0.0
 10
102.86
 20
112.5584
 30
0.0
 10
100.0913
 20
115.327
 30
0.0
 10
100.0913
 20
115.327
 30
0.0
 10
100.0913
 20
115.327
 30
0.0
 10
100.0913
 20
115.327
 30
0.0
 10
97.3227
 20
112.5584
 30
0.0
 10
97.3227
 20
112.5584
 30
0.0
 10
97.3227
 20
112.5584
 30
0.0
 10
97.3227
 20
112.5584
 30
0.0
 10
100.0913
 20
109.7897
 30
0.0
 10
100.0913
 20
109.7897
 30
0.0
  0
SPLINE
  5
81
330
1F
100
AcDbEntity
  8
layer 1
 62
     7
100
AcDbSpline
210
0.0
220
0.0
230
1.0
 70
    11
 71
     3
 72
    20
 73
    16
 74
     0
 42
0.0000000001
 43
0.0000000001
 12
1.0
 22
0.0
 32
0.0
 13
1.0
 23
0.0
 33
0.0
 40
0.0
 40
0.0
 40
0.0
 40
0.0
 40
0.2
 40
0.2
 40
0.2
 40
0.2
 40
0.4
 40
0.4
 40
0.4
 40
0.4
 40
0.6
 40
0.6
 40
0.6
 40
0.6
 40
1.0
 40
1.0
 40
1.0
 40
1.0
 10
172.9908
 20
98.4385
 30
0.0
 10
172.9908
 20
98.4385
 30
0.0
 10
169.2925
 20
107.2583
 30
0.0
 10
169.2925
 20
107.2583
 30
0.0
 10
169.2925
 20
107.2583
 30
0.0
 10
169.2925
 20
107.2583
 30
0.0
 10
165.543
 20
98.459
 30
0.0
 10
165.543
 20
98.459
 30
0.0
 10
165.543
 20
98.459
 30
0.0
 10
165.543
 20
98.459
 30
0.0
 10
169.3098
 20
94.6883
 30
0.0
 10
169.3098
 20
94.6883
 30
0.0
 10
169.3098
 20
94.6883
 30
0.0
 10
169.3098
 20
94.6883
 30
0.0
 10
172.9908
 20
98.4385
 30
0.0
 10
172.9908
 20
98.4385
 30
0.0
  0
SPLINE
  5
82
330
1F
100
AcDbEntity
  8
layer 1
 62
     7
100
AcDbSpline
210
0.0
220
0.0
230
1.0
 70
    11
 71
     3
 72
    20
 73
    16
 74
     0
 42
0.0000000001
 43
0.0000000001
 12
1.0
 22
0.0
 32
0.0
 13
1.0
 23
0.0
 33
0.0
 40
0.0
 40
0.0
 40
0.0
 40
0.0
 40
0.2
 40
0.2
 40
0.2
 40
0.2
 40
0.4
 40
0.4
 40
0.4
 40
0.4
 40
0.6
 40
0.6
 40
0.6
 40
0.6
 40
1.0
 40
1.0
 40
1.0
 40
1.0
 10
155.2061
 20
108.7753
 30
0.0
 10
155.2061
 20
108.7753
 30
0.0
 10
164.026
 20
112.4737
 30
0.0
 10
164.026
 20
112.4737
 30
0.0
 10
164.026
 20
112.4737
 30
0.0
 10
164.026
 20
112.4737
 30
0.0
 10
155.2267
 20
116.2231
 30
0.0
 10
155.2267
 20
116.2231
 30
0.0
 10
155.2267
 20
116.2231
 30
0.0
 10
155.2267
 20
116.2231
 30
0.0
 10
151.456
 20
112.4563
 30
0.0
 10
151.456
 20
112.4563
 30
0.0
 10
151.456
 20
112.4563
 30
0.0
 10
151.456
 20
112.4563
 30
0.0
 10
155.2061
 20
108.7753
 30
0.0
 10
155.2061
 20
108.7753
 30
0.0
  0
SPLINE
  5
83
330
1F
100
AcDbEntity
  8
layer 1
 62
     7
100
AcDbSpline
210
0.0
220
0.0
230
1.0
 70
    11
 71
     3
 72
    20
 73
    16
 74
     0
 42
0.0000000001
 43
0.0000000001
 12
1.0
 22
0.0
 32
0.0
 13
1.0
 23
0.0
 33
0.0
 40
0.0
 40
0.0
 40
0.0
 40
0.0
 40
0.2
 40
0.2
 40
0.2
 40
0.2
 40
0.4
 40
0.4
 40
0.4
 40
0.4
 40
0.6
 40
0.6
 40
0.6
 40
0.6
 40
1.0
 40
1.0
 40
1.0
 40
1.0
 10
183.3278
 20
108.7753
 30
0.0
 10
183.3278
 20
108.7753
 30
0.0
 10
174.5079
 20
112.4738
 30
0.0
 10
174.5079
 20
112.4738
 30
0.0
 10
174.5079
 20
112.4738
 30
0.0
 10
174.5079
 20
112.4738
 30
0.0
 10
183.3072
 20
116.2232
 30
0.0
 10
183.3072
 20
116.2232
 30
0.0
 10
183.3072
 20
116.2232
 30
0.0
 10
183.3072
 20
116.2232
 30
0.0
 10
187.0779
 20
112.4564
 30
0.0
 10
187.0779
 20
112.4564
 30
0.0
 10
187.0779
 20
112.4564
 30
0.0
 10
187.0779
 20
112.4564
 30
0.0
 10
183.3278
 20
108.7753
 30
0.0
 10
183.3278
 20
108.7753
 30
0.0
  0
SPLINE
  5
84
330
1F
100
AcDbEntity
  8
layer 1
 62
     7
100
AcDbSpline
210
0.0
220
0.0
230
1.0
 70
    11
 71
     3
 72
    20
 73
    16
 74
     0
 42
0.0000000001
 43
0.0000000001
 12
1.0
 22
0.0
 32
0.0
 13
1.0
 23
0.0
 33
0.0
 40
0.0
 40
0.0
 40
0.0
 40
0.0
 40
0.2
 40
0.2
 40
0.2
 40
0.2
 40
0.4
 40
0.4
 40
0.4
 40
0.4
 40
0.6
 40
0.6
 40
0.6
 40
0.6
 40
1.0
 40
1.0
 40
1.0
 40
1.0
 10
176.4594
 20
100.0405
 30
0.0
 10
176.4594
 20
100.0405
 30
0.0
 10
172.8378
 20
108.8922
 30
0.0
 10
172.8378
 20
108.8922
 30
0.0
 10
172.8378
 20
108.8922
 30
0.0
 10
172.8378
 20
108.8922
 30
0.0
 10
181.7111
 20
105.3214
 30
0.0
 10
181.7111
 20
105.3214
 30
0.0
 10
181.7111
 20
105.3214
 30
0.0
 10
181.7111
 20
105.3214
 30
0.0
 10
181.7139
 20
99.9916
 30
0.0
 10
181.7139
 20
99.9916
 30
0.0
 10
181.7139
 20
99.9916
 30
0.0
 10
181.7139
 20
99.9916
 30
0.0
 10
176.4594
 20
100.0405
 30
0.0
 10
176.4594
 20
100.0405
 30
0.0
  0
SPLINE
  5
85
330
1F
100
AcDbEntity
  8
layer 1
 62
     7
100
AcDbSpline
210
0.0
220
0.0
230
1.0
 70
    11
 71
     3
 72
    20
 73
    16
 74
     0
 42
0.0000000001
 43
0.0000000001
 12
1.0
 22
0.0
 32
0.0
 13
1.0
 23
0.0
 33
0.0
 40
0.0
 40
0.0
 40
0.0
 40
0.0
 40
0.2
 40
0.2
 40
0.2
 40
0.2
 40
0.4
 40
0.4
 40
0.4
 40
0.4
 40
0.6
 40
0.6
 40
0.6
 40
0.6
 40
1.0
 40
1.0
 40
1.0
 40
1.0
 10
161.9096
 20
100.0405
 30
0.0
 10
161.9096
 20
100.0405
 30
0.0
 10
165.5311
 20
108.8922
 30
0.0
 10
165.5311
 20
108.8922
 30
0.0
 10
165.5311
 20
108.8922
 30
0.0
 10
165.5311
 20
108.8922
 30
0.0
 10
156.6578
 20
105.3214
 30
0.0
 10
156.6578
 20
105.3214
 30
0.0
 10
156.6578
 20
105.3214
 30
0.0
 10
156.6578
 20
105.3214
 30
0.0
 10
156.6551
 20
99.9916
 30
0.0
 10
156.6551
 20
99.9916
 30
0.0
 10
156.6551
 20
99.9916
 30
0.0
 10
156.6551
 20
99.9916
 30
0.0
 10
161.9096
 20
100.0405
 30
0.0
 10
161.9096
 20
100.0405
 30
0.0
  0
SPLINE
  5
86
330
1F
100
AcDbEntity
  8
layer 1
 62
     7
100
AcDbSpline
210
0.0
220
0.0
230
1.0
 70
    11
 71
     3
 72
    20
 73
    16
 74
     0
 42
0.0000000001
 43
0.0000000001
 12
1.0
 22
0.0
 32
0.0
 13
1.0
 23
0.0
 33
0.0
 40
0.0
 40
0.0
 40
0.0
 40
0.0
 40
0.2
 40
0.2
 40
0.2
 40
0.2
 40
0.4
 40
0.4
 40
0.4
 40
0.4
 40
0.6
 40
0.6
 40
0.6
 40
0.6
 40
1.0
 40
1.0
 40
1.0
 40
1.0
 10
176.4594
 20
124.9097
 30
0.0
 10
176.4594
 20
124.9097
 30
0.0
 10
172.8378
 20
116.058
 30
0.0
 10
172.8378
 20
116.058
 30
0.0
 10
172.8378
 20
116.058
 30
0.0
 10
172.8378
 20
116.058
 30
0.0
 10
181.7111
 20
119.6288
 30
0.0
 10
181.7111
 20
119.6288
 30
0.0
 10
181.7111
 20
119.6288
 30
0.0
 10
181.7111
 20
119.6288
 30
0.0
 10
181.7139
 20
124.9586
 30
0.0
 10
181.7139
 20
124.9586
 30
0.0
 10
181.7139
 20
124.9586
 30
0.0
 10
181.7139
 20
124.9586
 30
0.0
 10
176.4594
 20
124.9097
 30
0.0
 10
176.4594
 20
124.9097
 30
0.0
  0
SPLINE
  5
87
330
1F
100
AcDbEntity
  8
layer 1
 62
     7
100
AcDbSpline
210
0.0
220
0.0
230
1.0
 70
    11
 71
     3
 72
    20
 73
    16
 74
     0
 42
0.0000000001
 43
0.0000000001
 12
1.0
 22
0.0
 32
0.0
 13
1.0
 23
0.0
 33
0.0
 40
0.0
 40
0.0
 40
0.0
 40
0.0
 40
0.2
 40
0.2
 40
0.2
 40
0.2
 40
0.4
 40
0.4
 40
0.4
 40
0.4
 40
0.6
 40
0.6
 40
0.6
 40
0.6
 40
1.0
 40
1.0
 40
1.0
 40
1.0
 10
161.9096
 20
124.9097
 30
0.0
 10
161.9096
 20
124.9097
 30
0.0
 10
165.5311
 20
116.058
 30
0.0
 10
165.5311
 20
116.058
 30
0.0
 10
165.5311
 20
116.058
 30
0.0
 10
165.5311
 20
116.058
 30
0.0
 10
156.6578
 20
119.6288
 30
0.0
 10
156.6578
 20
119.6288
 30
0.0
 10
156.6578
 20
119.6288
 30
0.0
 10
156.6578
 20
119.6288
 30
0.0
 10
156.6551
 20
124.9586
 30
0.0
 10
156.6551
 20
124.9586
 30
0.0
 10
156.6551
 20
124.9586
 30
0.0
 10
156.6551
 20
124.9586
 30
0.0
 10
161.9096
 20
124.9097
 30
0.0
 10
161.9096
 20
124.9097
 30
0.0
  0
SPLINE
  5
88
330
1F
100
AcDbEntity
  8
layer 1
 62
     7
100
AcDbSpline
210
0.0
220
0.0
230
1.0
 70
    11
 71
     3
 72
    20
 73
    16
 74
     0
 42
0.0000000001
 43
0.0000000001
 12
1.0
 22
0.0
 32
0.0
 13
1.0
 23
0.0
 33
0.0
 40
0.0
 40
0.0
 40
0.0
 40
0.0
 40
0.2
 40
0.2
 40
0.2
 40
0.2
 40
0.4
 40
0.4
 40
0.4
 40
0.4
 40
0.6
 40
0.6
 40
0.6
 40
0.6
 40
1.0
 40
1.0
 40
1.0
 40
1.0
 10
169.3098
 20
109.7897
 30
0.0
 10
169.3098
 20
109.7897
 30
0.0
 10
172.0784
 20
112.5584
 30
0.0
 10
172.0784
 20
112.5584
 30
0.0
 10
172.0784
 20
112.5584
 30
0.0
 10
172.0784
 20
112.5584
 30
0.0
 10
169.3098
 20
115.327
 30
0.0
 10
169.3098
 20
115.327
 30
0.0
 10
169.3098
 20
115.327
 30
0.0
 10
169.3098
 20
115.327
 30
0.0
 10
166.5411
 20
112.5584
 30
0.0
 10
166.5411
 20
112.5584
 30
0.0
 10
166.5411
 20
112.5584
 30
0.0
 10
166.5411
 20
112.5584
 30
0.0
 10
169.3098
 20
109.7897
 30
0.0
 10
169.3098
 20
109.7897
 30
0.0
  0
SPLINE
  5
89
330
1F
100
AcDbEntity
  8
layer 1
 62
     7
100
AcDbSpline
210
0.0
220
0.0
230
1.0
 70
    11
 71
     3
 72
    20
 73
    16
 74
     0
 42
0.0000000001
 43
0.0000000001
 12
1.0
 22
0.0
 32
0.0
 13
1.0
 23
0.0
 33
0.0
 40
0.0
 40
0.0
 40
0.0
 40
0.0
 40
0.2
 40
0.2
 40
0.2
 40
0.2
 40
0.4
 40
0.4
 40
0.4
 40
0.4
 40
0.6
 40
0.6
 40
0.6
 40
0.6
 40
1.0
 40
1.0
 40
1.0
 40
1.0
 10
189.5075
 20
99.7992
 30
0.0
 10
189.5075
 20
99.7992
 30
0.0
 10
185.8539
 20
99.7992
 30
0.0
 10
185.8539
 20
99.7992
 30
0.0
 10
185.8539
 20
99.7992
 30
0.0
 10
185.8539
 20
99.7992
 30
0.0
 10
185.8539
 20
105.505
 30
0.0
 10
185.8539
 20
105.505
 30
0.0
 10
185.8539
 20
105.505
 30
0.0
 10
185.8539
 20
105.505
 30
0.0
 10
189.5217
 20
109.3803
 30
0.0
 10
189.5217
 20
109.3803
 30
0.0
 10
189.5217
 20
109.3803
 30
0.0
 10
189.5217
 20
109.3803
 30
0.0
 10
189.5075
 20
99.7992
 30
0.0
 10
189.5075
 20
99.7992
 30
0.0
  0
SPLINE
  5
8A
330
1F
100
AcDbEntity
  8
layer 1
 62
     7
100
AcDbSpline
210
0.0
220
0.0
230
1.0
 70
    11
 71
     3
 72
    20
 73
    16
 74
     0
 42
0.0000000001
 43
0.0000000001
 12
1.0
 22
0.0
 32
0.0
 13
1.0
 23
0.0
 33
0.0
 40
0.0
 40
0.0
 40
0.0
 40
0.0
 40
0.2
 40
0.2
 40
0.2
 40
0.2
 40
0.4
 40
0.4
 40
0.4
 40
0.4
 40
0.6
 40
0.6
 40
0.6
 40
0.6
 40
1.0
 40
1.0
 40
1.0
 40
1.0
 10
189.5075
 20
95.8237
 30
0.0
 10
189.5075
 20
95.8237
 30
0.0
 10
185.8539
 20
95.8237
 30
0.0
 10
185.8539
 20
95.8237
 30
0.0
 10
185.8539
 20
95.8237
 30
0.0
 10
185.8539
 20
95.8237
 30
0.0
 10
185.8539
 20
90.1179
 30
0.0
 10
185.8539
 20
90.1179
 30
0.0
 10
185.8539
 20
90.1179
 30
0.0
 10
185.8539
 20
90.1179
 30
0.0
 10
189.5217
 20
86.2427
 30
0.0
 10
189.5217
 20
86.2427
 30
0.0
 10
189.5217
 20
86.2427
 30
0.0
 10
189.5217
 20
86.2427
 30
0.0
 10
189.5075
 20
95.8237
 30
0.0
 10
189.5075
 20
95.8237
 30
0.0
  0
SPLINE
  5
8B
330
1F
100
AcDbEntity
  8
layer 1
 62
     7
100
AcDbSpline
210
0.0
220
0.0
230
1.0
 70
    11
 71
     3
 72
    20
 73
    16
 74
     0
 42
0.0000000001
 43
0.0000000001
 12
1.0
 22
0.0
 32
0.0
 13
1.0
 23
0.0
 33
0.0
 40
0.0
 40
0.0
 40
0.0
 40
0.0
 40
0.2
 40
0.2
 40
0.2
 40
0.2
 40
0.4
 40
0.4
 40
0.4
 40
0.4
 40
0.6
 40
0.6
 40
0.6
 40
0.6
 40
1.0
 40
1.0
 40
1.0
 40
1.0
 10
189.5075
 20
125.0604
 30
0.0
 10
189.5075
 20
125.0604
 30
0.0
 10
185.8539
 20
125.0604
 30
0.0
 10
185.8539
 20
125.0604
 30
0.0
 10
185.8539
 20
125.0604
 30
0.0
 10
185.8539
 20
125.0604
 30
0.0
 10
185.8539
 20
119.3546
 30
0.0
 10
185.8539
 20
119.3546
 30
0.0
 10
185.8539
 20
119.3546
 30
0.0
 10
185.8539
 20
119.3546
 30
0.0
 10
189.5217
 20
115.4794
 30
0.0
 10
189.5217
 20
115.4794
 30
0.0
 10
189.5217
 20
115.4794
 30
0.0
 10
189.5217
 20
115.4794
 30
0.0
 10
189.5075
 20
125.0604
 30
0.0
 10
189.5075
 20
125.0604
 30
0.0
  0
SPLINE
  5
8C
330
1F
100
AcDbEntity
  8
layer 1
 62
     7
100
AcDbSpline
210
0.0
220
0.0
230
1.0
 70
    11
 71
     3
 72
    20
 73
    16
 74
     0
 42
0.0000000001
 43
0.0000000001
 12
1.0
 22
0.0
 32
0.0
 13
1.0
 23
0.0
 33
0.0
 40
0.0
 40
0.0
 40
0.0
 40
0.0
 40
0.2
 40
0.2
 40
0.2
 40
0.2
 40
0.4
 40
0.4
 40
0.4
 40
0.4
 40
0.6
 40
0.6
 40
0.6
 40
0.6
 40
1.0
 40
1.0
 40
1.0
 40
1.0
 10
189.5075
 20
59.7588
 30
0.0
 10
189.5075
 20
59.7588
 30
0.0
 10
185.8539
 20
59.7588
 30
0.0
 10
185.8539
 20
59.7588
 30
0.0
 10
185.8539
 20
59.7588
 30
0.0
 10
185.8539
 20
59.7588
 30
0.0
 10
185.8539
 20
65.4646
 30
0.0
 10
185.8539
 20
65.4646
 30
0.0
 10
185.8539
 20
65.4646
 30
0.0
 10
185.8539
 20
65.4646
 30
0.0
 10
189.5217
 20
69.3398
 30
0.0
 10
189.5217
 20
69.3398
 30
0.0
 10
189.5217
 20
69.3398
 30
0.0
 10
189.5217
 20
69.3398
 30
0.0
 10
189.5075
 20
59.7588
 30
0.0
 10
189.5075
 20
59.7588
 30
0.0
  0
SPLINE
  5
8D
330
1F
100
AcDbEntity
  8
layer 1
 62
     7
100
AcDbSpline
210
0.0
220
0.0
230
1.0
 70
    11
 71
     3
 72
    20
 73
    16
 74
     0
 42
0.0000000001
 43
0.0000000001
 12
1.0
 22
0.0
 32
0.0
 13
1.0
 23
0.0
 33
0.0
 40
0.0
 40
0.0
 40
0.0
 40
0.0
 40
0.2
 40
0.2
 40
0.2
 40
0.2
 40
0.4
 40
0.4
 40
0.4
 40
0.4
 40
0.6
 40
0.6
 40
0.6
 40
0.6
 40
1.0
 40
1.0
 40
1.0
 40
1.0
 10
189.5075
 20
55.7831
 30
0.0
 10
189.5075
 20
55.7831
 30
0.0
 10
185.8539
 20
55.7831
 30
0.0
 10
185.8539
 20
55.7831
 30
0.0
 10
185.8539
 20
55.7831
 30
0.0
 10
185.8539
 20
55.7831
 30
0.0
 10
185.8539
 20
50.0774
 30
0.0
 10
185.8539
 20
50.0774
 30
0.0
 10
185.8539
 20
50.0774
 30
0.0
 10
185.8539
 20
50.0774
 30
0.0
 10
189.5217
 20
46.2021
 30
0.0
 10
189.5217
 20
46.2021
 30
0.0
 10
189.5217
 20
46.2021
 30
0.0
 10
189.5217
 20
46.2021
 30
0.0
 10
189.5075
 20
55.7831
 30
0.0
 10
189.5075
 20
55.7831
 30
0.0
  0
SPLINE
  5
8E
330
1F
100
AcDbEntity
  8
layer 1
 62
     7
100
AcDbSpline
210
0.0
220
0.0
230
1.0
 70
    11
 71
     3
 72
    20
 73
    16
 74
     0
 42
0.0000000001
 43
0.0000000001
 12
1.0
 22
0.0
 32
0.0
 13
1.0
 23
0.0
 33
0.0
 40
0.0
 40
0.0
 40
0.0
 40
0.0
 40
0.2
 40
0.2
 40
0.2
 40
0.2
 40
0.4
 40
0.4
 40
0.4
 40
0.4
 40
0.6
 40
0.6
 40
0.6
 40
0.6
 40
1.0
 40
1.0
 40
1.0
 40
1.0
 10
189.5075
 20
30.6865
 30
0.0
 10
189.5075
 20
30.6865
 30
0.0
 10
185.8539
 20
30.6865
 30
0.0
 10
185.8539
 20
30.6865
 30
0.0
 10
185.8539
 20
30.6865
 30
0.0
 10
185.8539
 20
30.6865
 30
0.0
 10
185.8539
 20
36.3922
 30
0.0
 10
185.8539
 20
36.3922
 30
0.0
 10
185.8539
 20
36.3922
 30
0.0
 10
185.8539
 20
36.3922
 30
0.0
 10
189.5217
 20
40.2675
 30
0.0
 10
189.5217
 20
40.2675
 30
0.0
 10
189.5217
 20
40.2675
 30
0.0
 10
189.5217
 20
40.2675
 30
0.0
 10
189.5075
 20
30.6865
 30
0.0
 10
189.5075
 20
30.6865
 30
0.0
  0
SPLINE
  5
8F
330
1F
100
AcDbEntity
  8
layer 1
 62
     7
100
AcDbSpline
210
0.0
220
0.0
230
1.0
 70
    11
 71
     3
 72
    20
 73
    16
 74
     0
 42
0.0000000001
 43
0.0000000001
 12
1.0
 22
0.0
 32
0.0
 13
1.0
 23
0.0
 33
0.0
 40
0.0
 40
0.0
 40
0.0
 40
0.0
 40
0.2
 40
0.2
 40
0.2
 40
0.2
 40
0.4
 40
0.4
 40
0.4
 40
0.4
 40
0.6
 40
0.6
 40
0.6
 40
0.6
 40
1.0
 40
1.0
 40
1.0
 40
1.0
 10
189.5075
 20
26.7109
 30
0.0
 10
189.5075
 20
26.7109
 30
0.0
 10
185.8539
 20
26.7109
 30
0.0
 10
185.8539
 20
26.7109
 30
0.0
 10
185.8539
 20
26.7109
 30
0.0
 10
185.8539
 20
26.7109
 30
0.0
 10
185.8539
 20
21.0051
 30
0.0
 10
185.8539
 20
21.0051
 30
0.0
 10
185.8539
 20
21.0051
 30
0.0
 10
185.8539
 20
21.0051
 30
0.0
 10
189.5217
 20
17.1299
 30
0.0
 10
189.5217
 20
17.1299
 30
0.0
 10
189.5217
 20
17.1299
 30
0.0
 10
189.5217
 20
17.1299
 30
0.0
 10
189.5075
 20
26.7109
 30
0.0
 10
189.5075
 20
26.7109
 30
0.0
  0
SPLINE
  5
90
330
1F
100
AcDbEntity
  8
layer 1
 62
     7
100
AcDbSpline
210
0.0
220
0.0
230
1.0
 70
    11
 71
     3
 72
    20
 73
    16
 74
     0
 42
0.0000000001
 43
0.0000000001
 12
1.0
 22
0.0
 32
0.0
 13
1.0
 23
0.0
 33
0.0
 40
0.0
 40
0.0
 40
0.0
 40
0.0
 40
0.2
 40
0.2
 40
0.2
 40
0.2
 40
0.4
 40
0.4
 40
0.4
 40
0.4
 40
0.6
 40
0.6
 40
0.6
 40
0.6
 40
1.0
 40
1.0
 40
1.0
 40
1.0
 10
189.5075
 20
-9.4861
 30
0.0
 10
189.5075
 20
-9.4861
 30
0.0
 10
185.8539
 20
-9.4861
 30
0.0
 10
185.8539
 20
-9.4861
 30
0.0
 10
185.8539
 20
-9.4861
 30
0.0
 10
185.8539
 20
-9.4861
 30
0.0
 10
185.8539
 20
-3.7803
 30
0.0
 10
185.8539
 20
-3.7803
 30
0.0
 10
185.8539
 20
-3.7803
 30
0.0
 10
185.8539
 20
-3.7803
 30
0.0
 10
189.5217
 20
0.0949
 30
0.0
 10
189.5217
 20
0.0949
 30
0.0
 10
189.5217
 20
0.0949
 30
0.0
 10
189.5217
 20
0.0949
 30
0.0
 10
189.5075
 20
-9.4861
 30
0.0
 10
189.5075
 20
-9.4861
 30
0.0
  0
SPLINE
  5
91
330
1F
100
AcDbEntity
  8
layer 1
 62
     7
100
AcDbSpline
210
0.0
220
0.0
230
1.0
 70
    11
 71
     3
 72
    20
 73
    16
 74
     0
 42
0.0000000001
 43
0.0000000001
 12
1.0
 22
0.0
 32
0.0
 13
1.0
 23
0.0
 33
0.0
 40
0.0
 40
0.0
 40
0.0
 40
0.0
 40
0.2
 40
0.2
 40
0.2
 40
0.2
 40
0.4
 40
0.4
 40
0.4
 40
0.4
 40
0.6
 40
0.6
 40
0.6
 40
0.6
 40
1.0
 40
1.0
 40
1.0
 40
1.0
 10
189.5075
 20
-13.4617
 30
0.0
 10
189.5075
 20
-13.4617
 30
0.0
 10
185.8539
 20
-13.4617
 30
0.0
 10
185.8539
 20
-13.4617
 30
0.0
 10
185.8539
 20
-13.4617
 30
0.0
 10
185.8539
 20
-13.4617
 30
0.0
 10
185.8539
 20
-19.1675
 30
0.0
 10
185.8539
 20
-19.1675
 30
0.0
 10
185.8539
 20
-19.1675
 30
0.0
 10
185.8539
 20
-19.1675
 30
0.0
 10
189.5217
 20
-23.0428
 30
0.0
 10
189.5217
 20
-23.0428
 30
0.0
 10
189.5217
 20
-23.0428
 30
0.0
 10
189.5217
 20
-23.0428
 30
0.0
 10
189.5075
 20
-13.4617
 30
0.0
 10
189.5075
 20
-13.4617
 30
0.0
  0
SPLINE
  5
92
330
1F
100
AcDbEntity
  8
layer 1
 62
     7
100
AcDbSpline
210
0.0
220
0.0
230
1.0
 70
    11
 71
     3
 72
    20
 73
    16
 74
     0
 42
0.0000000001
 43
0.0000000001
 12
1.0
 22
0.0
 32
0.0
 13
1.0
 23
0.0
 33
0.0
 40
0.0
 40
0.0
 40
0.0
 40
0.0
 40
0.2
 40
0.2
 40
0.2
 40
0.2
 40
0.4
 40
0.4
 40
0.4
 40
0.4
 40
0.6
 40
0.6
 40
0.6
 40
0.6
 40
1.0
 40
1.0
 40
1.0
 40
1.0
 10
189.5075
 20
-38.4262
 30
0.0
 10
189.5075
 20
-38.4262
 30
0.0
 10
185.8539
 20
-38.4262
 30
0.0
 10
185.8539
 20
-38.4262
 30
0.0
 10
185.8539
 20
-38.4262
 30
0.0
 10
185.8539
 20
-38.4262
 30
0.0
 10
185.8539
 20
-32.7204
 30
0.0
 10
185.8539
 20
-32.7204
 30
0.0
 10
185.8539
 20
-32.7204
 30
0.0
 10
185.8539
 20
-32.7204
 30
0.0
 10
189.5217
 20
-28.8452
 30
0.0
 10
189.5217
 20
-28.8452
 30
0.0
 10
189.5217
 20
-28.8452
 30
0.0
 10
189.5217
 20
-28.8452
 30
0.0
 10
189.5075
 20
-38.4262
 30
0.0
 10
189.5075
 20
-38.4262
 30
0.0
  0
SPLINE
  5
93
330
1F
100
AcDbEntity
  8
layer 1
 62
     7
100
AcDbSpline
210
0.0
220
0.0
230
1.0
 70
    11
 71
     3
 72
    20
 73
    16
 74
     0
 42
0.0000000001
 43
0.0000000001
 12
1.0
 22
0.0
 32
0.0
 13
1.0
 23
0.0
 33
0.0
 40
0.0
 40
0.0
 40
0.0
 40
0.0
 40
0.2
 40
0.2
 40
0.2
 40
0.2
 40
0.4
 40
0.4
 40
0.4
 40
0.4
 40
0.6
 40
0.6
 40
0.6
 40
0.6
 40
1.0
 40
1.0
 40
1.0
 40
1.0
 10
189.5075
 20
-42.4019
 30
0.0
 10
189.5075
 20
-42.4019
 30
0.0
 10
185.8539
 20
-42.4019
 30
0.0
 10
185.8539
 20
-42.4019
 30
0.0
 10
185.8539
 20
-42.4019
 30
0.0
 10
185.8539
 20
-42.4019
 30
0.0
 10
185.8539
 20
-48.1077
 30
0.0
 10
185.8539
 20
-48.1077
 30
0.0
 10
185.8539
 20
-48.1077
 30
0.0
 10
185.8539
 20
-48.1077
 30
0.0
 10
189.5217
 20
-51.9829
 30
0.0
 10
189.5217
 20
-51.9829
 30
0.0
 10
189.5217
 20
-51.9829
 30
0.0
 10
189.5217
 20
-51.9829
 30
0.0
 10
189.5075
 20
-42.4019
 30
0.0
 10
189.5075
 20
-42.4019
 30
0.0
  0
SPLINE
  5
94
330
1F
100
AcDbEntity
  8
layer 1
 62
     7
100
AcDbSpline
210
0.0
220
0.0
230
1.0
 70
    11
 71
     3
 72
    20
 73
    16
 74
     0
 42
0.0000000001
 43
0.0000000001
 12
1.0
 22
0.0
 32
0.0
 13
1.0
 23
0.0
 33
0.0
 40
0.0
 40
0.0
 40
0.0
 40
0.0
 40
0.2
 40
0.2
 40
0.2
 40
0.2
 40
0.4
 40
0.4
 40
0.4
 40
0.4
 40
0.6
 40
0.6
 40
0.6
 40
0.6
 40
1.0
 40
1.0
 40
1.0
 40
1.0
 10
189.5075
 20
-78.4007
 30
0.0
 10
189.5075
 20
-78.4007
 30
0.0
 10
185.8539
 20
-78.4007
 30
0.0
 10
185.8539
 20
-78.4007
 30
0.0
 10
185.8539
 20
-78.4007
 30
0.0
 10
185.8539
 20
-78.4007
 30
0.0
 10
185.8539
 20
-72.6949
 30
0.0
 10
185.8539
 20
-72.6949
 30
0.0
 10
185.8539
 20
-72.6949
 30
0.0
 10
185.8539
 20
-72.6949
 30
0.0
 10
189.5217
 20
-68.8196
 30
0.0
 10
189.5217
 20
-68.8196
 30
0.0
 10
189.5217
 20
-68.8196
 30
0.0
 10
189.5217
 20
-68.8196
 30
0.0
 10
189.5075
 20
-78.4007
 30
0.0
 10
189.5075
 20
-78.4007
 30
0.0
  0
SPLINE
  5
95
330
1F
100
AcDbEntity
  8
layer 1
 62
     7
100
AcDbSpline
210
0.0
220
0.0
230
1.0
 70
    11
 71
     3
 72
    20
 73
    16
 74
     0
 42
0.0000000001
 43
0.0000000001
 12
1.0
 22
0.0
 32
0.0
 13
1.0
 23
0.0
 33
0.0
 40
0.0
 40
0.0
 40
0.0
 40
0.0
 40
0.2
 40
0.2
 40
0.2
 40
0.2
 40
0.4
 40
0.4
 40
0.4
 40
0.4
 40
0.6
 40
0.6
 40
0.6
 40
0.6
 40
1.0
 40
1.0
 40
1.0
 40
1.0
 10
189.5075
 20
-82.3763
 30
0.0
 10
189.5075
 20
-82.3763
 30
0.0
 10
185.8539
 20
-82.3763
 30
0.0
 10
185.8539
 20
-82.3763
 30
0.0
 10
185.8539
 20
-82.3763
 30
0.0
 10
185.8539
 20
-82.3763
 30
0.0
 10
185.8539
 20
-88.0821
 30
0.0
 10
185.8539
 20
-88.0821
 30
0.0
 10
185.8539
 20
-88.0821
 30
0.0
 10
185.8539
 20
-88.0821
 30
0.0
 10
189.5217
 20
-91.9573
 30
0.0
 10
189.5217
 20
-91.9573
 30
0.0
 10
189.5217
 20
-91.9573
 30
0.0
 10
189.5217
 20
-91.9573
 30
0.0
 10
189.5075
 20
-82.3763
 30
0.0
 10
189.5075
 20
-82.3763
 30
0.0
  0
SPLINE
  5
96
330
1F
100
AcDbEntity
  8
layer 1
 62
     7
100
AcDbSpline
210
0.0
220
0.0
230
1.0
 70
    11
 71
     3
 72
    20
 73
    16
 74
     0
 42
0.0000000001
 43
0.0000000001
 12
1.0
 22
0.0
 32
0.0
 13
1.0
 23
0.0
 33
0.0
 40
0.0
 40
0.0
 40
0.0
 40
0.0
 40
0.2
 40
0.2
 40
0.2
 40
0.2
 40
0.4
 40
0.4
 40
0.4
 40
0.4
 40
0.6
 40
0.6
 40
0.6
 40
0.6
 40
1.0
 40
1.0
 40
1.0
 40
1.0
 10
189.5075
 20
-107.3408
 30
0.0
 10
189.5075
 20
-107.3408
 30
0.0
 10
185.8539
 20
-107.3408
 30
0.0
 10
185.8539
 20
-107.3408
 30
0.0
 10
185.8539
 20
-107.3408
 30
0.0
 10
185.8539
 20
-107.3408
 30
0.0
 10
185.8539
 20
-101.635
 30
0.0
 10
185.8539
 20
-101.635
 30
0.0
 10
185.8539
 20
-101.635
 30
0.0
 10
185.8539
 20
-101.635
 30
0.0
 10
189.5217
 20
-97.7597
 30
0.0
 10
189.5217
 20
-97.7597
 30
0.0
 10
189.5217
 20
-97.7597
 30
0.0
 10
189.5217
 20
-97.7597
 30
0.0
 10
189.5075
 20
-107.3408
 30
0.0
 10
189.5075
 20
-107.3408
 30
0.0
  0
SPLINE
  5
97
330
1F
100
AcDbEntity
  8
layer 1
 62
     7
100
AcDbSpline
210
0.0
220
0.0
230
1.0
 70
    11
 71
     3
 72
    16
 73
    12
 74
     0
 42
0.0000000001
 43
0.0000000001
 12
1.0
 22
0.0
 32
0.0
 13
1.0
 23
0.0
 33
0.0
 40
0.0
 40
0.0
 40
0.0
 40
0.0
 40
0.25
 40
0.25
 40
0.25
 40
0.25
 40
0.5
 40
0.5
 40
0.5
 40
0.5
 40
1.0
 40
1.0
 40
1.0
 40
1.0
 10
188.0993
 20
-58.4231
 30
0.0
 10
188.0993
 20
-58.4231
 30
0.0
 10
189.5216
 20
-56.8042
 30
0.0
 10
189.5216
 20
-56.8042
 30
0.0
 10
189.5216
 20
-56.8042
 30
0.0
 10
189.5216
 20
-56.8042
 30
0.0
 10
189.5191
 20
-58.4118
 30
0.0
 10
189.5191
 20
-58.4118
 30
0.0
 10
189.5191
 20
-58.4118
 30
0.0
 10
189.5191
 20
-58.4118
 30
0.0
 10
188.0993
 20
-58.4231
 30
0.0
 10
188.0993
 20
-58.4231
 30
0.0
  0
SPLINE
  5
98
330
1F
100
AcDbEntity
  8
layer 1
 62
     7
100
AcDbSpline
210
0.0
220
0.0
230
1.0
 70
    11
 71
     3
 72
    16
 73
    12
 74
     0
 42
0.0000000001
 43
0.0000000001
 12
1.0
 22
0.0
 32
0.0
 13
1.0
 23
0.0
 33
0.0
 40
0.0
 40
0.0
 40
0.0
 40
0.0
 40
0.25
 40
0.25
 40
0.25
 40
0.25
 40
0.5
 40
0.5
 40
0.5
 40
0.5
 40
1.0
 40
1.0
 40
1.0
 40
1.0
 10
188.0993
 20
-62.2764
 30
0.0
 10
188.0993
 20
-62.2764
 30
0.0
 10
189.5216
 20
-63.8953
 30
0.0
 10
189.5216
 20
-63.8953
 30
0.0
 10
189.5216
 20
-63.8953
 30
0.0
 10
189.5216
 20
-63.8953
 30
0.0
 10
189.5191
 20
-62.2877
 30
0.0
 10
189.5191
 20
-62.2877
 30
0.0
 10
189.5191
 20
-62.2877
 30
0.0
 10
189.5191
 20
-62.2877
 30
0.0
 10
188.0993
 20
-62.2764
 30
0.0
 10
188.0993
 20
-62.2764
 30
0.0
  0
SPLINE
  5
99
330
1F
100
AcDbEntity
  8
layer 1
 62
     7
100
AcDbSpline
210
0.0
220
0.0
230
1.0
 70
    11
 71
     3
 72
    16
 73
    12
 74
     0
 42
0.0000000001
 43
0.0000000001
 12
1.0
 22
0.0
 32
0.0
 13
1.0
 23
0.0
 33
0.0
 40
0.0
 40
0.0
 40
0.0
 40
0.0
 40
0.25
 40
0.25
 40
0.25
 40
0.25
 40
0.5
 40
0.5
 40
0.5
 40
0.5
 40
1.0
 40
1.0
 40
1.0
 40
1.0
 10
188.0993
 20
10.7293
 30
0.0
 10
188.0993
 20
10.7293
 30
0.0
 10
189.5216
 20
12.3482
 30
0.0
 10
189.5216
 20
12.3482
 30
0.0
 10
189.5216
 20
12.3482
 30
0.0
 10
189.5216
 20
12.3482
 30
0.0
 10
189.5191
 20
10.7406
 30
0.0
 10
189.5191
 20
10.7406
 30
0.0
 10
189.5191
 20
10.7406
 30
0.0
 10
189.5191
 20
10.7406
 30
0.0
 10
188.0993
 20
10.7293
 30
0.0
 10
188.0993
 20
10.7293
 30
0.0
  0
SPLINE
  5
9A
330
1F
100
AcDbEntity
  8
layer 1
 62
     7
100
AcDbSpline
210
0.0
220
0.0
230
1.0
 70
    11
 71
     3
 72
    16
 73
    12
 74
     0
 42
0.0000000001
 43
0.0000000001
 12
1.0
 22
0.0
 32
0.0
 13
1.0
 23
0.0
 33
0.0
 40
0.0
 40
0.0
 40
0.0
 40
0.0
 40
0.25
 40
0.25
 40
0.25
 40
0.25
 40
0.5
 40
0.5
 40
0.5
 40
0.5
 40
1.0
 40
1.0
 40
1.0
 40
1.0
 10
188.0993
 20
6.8761
 30
0.0
 10
188.0993
 20
6.8761
 30
0.0
 10
189.5216
 20
5.2572
 30
0.0
 10
189.5216
 20
5.2572
 30
0.0
 10
189.5216
 20
5.2572
 30
0.0
 10
189.5216
 20
5.2572
 30
0.0
 10
189.5191
 20
6.8648
 30
0.0
 10
189.5191
 20
6.8648
 30
0.0
 10
189.5191
 20
6.8648
 30
0.0
 10
189.5191
 20
6.8648
 30
0.0
 10
188.0993
 20
6.8761
 30
0.0
 10
188.0993
 20
6.8761
 30
0.0
  0
SPLINE
  5
9B
330
1F
100
AcDbEntity
  8
layer 1
 62
     7
100
AcDbSpline
210
0.0
220
0.0
230
1.0
 70
    11
 71
     3
 72
    16
 73
    12
 74
     0
 42
0.0000000001
 43
0.0000000001
 12
1.0
 22
0.0
 32
0.0
 13
1.0
 23
0.0
 33
0.0
 40
0.0
 40
0.0
 40
0.0
 40
0.0
 40
0.25
 40
0.25
 40
0.25
 40
0.25
 40
0.5
 40
0.5
 40
0.5
 40
0.5
 40
1.0
 40
1.0
 40
1.0
 40
1.0
 10
188.0993
 20
79.4524
 30
0.0
 10
188.0993
 20
79.4524
 30
0.0
 10
189.5216
 20
81.0714
 30
0.0
 10
189.5216
 20
81.0714
 30
0.0
 10
189.5216
 20
81.0714
 30
0.0
 10
189.5216
 20
81.0714
 30
0.0
 10
189.5191
 20
79.4638
 30
0.0
 10
189.5191
 20
79.4638
 30
0.0
 10
189.5191
 20
79.4638
 30
0.0
 10
189.5191
 20
79.4638
 30
0.0
 10
188.0993
 20
79.4524
 30
0.0
 10
188.0993
 20
79.4524
 30
0.0
  0
SPLINE
  5
9C
330
1F
100
AcDbEntity
  8
layer 1
 62
     7
100
AcDbSpline
210
0.0
220
0.0
230
1.0
 70
    11
 71
     3
 72
    16
 73
    12
 74
     0
 42
0.0000000001
 43
0.0000000001
 12
1.0
 22
0.0
 32
0.0
 13
1.0
 23
0.0
 33
0.0
 40
0.0
 40
0.0
 40
0.0
 40
0.0
 40
0.25
 40
0.25
 40
0.25
 40
0.25
 40
0.5
 40
0.5
 40
0.5
 40
0.5
 40
1.0
 40
1.0
 40
1.0
 40
1.0
 10
188.0993
 20
75.5992
 30
0.0
 10
188.0993
 20
75.5992
 30
0.0
 10
189.5216
 20
73.9802
 30
0.0
 10
189.5216
 20
73.9802
 30
0.0
 10
189.5216
 20
73.9802
 30
0.0
 10
189.5216
 20
73.9802
 30
0.0
 10
189.5191
 20
75.5879
 30
0.0
 10
189.5191
 20
75.5879
 30
0.0
 10
189.5191
 20
75.5879
 30
0.0
 10
189.5191
 20
75.5879
 30
0.0
 10
188.0993
 20
75.5992
 30
0.0
 10
188.0993
 20
75.5992
 30
0.0
  0
SPLINE
  5
9D
330
1F
100
AcDbEntity
  8
layer 1
 62
     7
100
AcDbSpline
210
0.0
220
0.0
230
1.0
 70
    11
 71
     3
 72
    20
 73
    16
 74
     0
 42
0.0000000001
 43
0.0000000001
 12
1.0
 22
0.0
 32
0.0
 13
1.0
 23
0.0
 33
0.0
 40
0.0
 40
0.0
 40
0.0
 40
0.0
 40
0.2
 40
0.2
 40
0.2
 40
0.2
 40
0.4
 40
0.4
 40
0.4
 40
0.4
 40
0.6
 40
0.6
 40
0.6
 40
0.6
 40
1.0
 40
1.0
 40
1.0
 40
1.0
 10
79.8435
 20
99.7899
 30
0.0
 10
79.8435
 20
99.7899
 30
0.0
 10
83.4971
 20
99.7899
 30
0.0
 10
83.4971
 20
99.7899
 30
0.0
 10
83.4971
 20
99.7899
 30
0.0
 10
83.4971
 20
99.7899
 30
0.0
 10
83.4971
 20
105.4957
 30
0.0
 10
83.4971
 20
105.4957
 30
0.0
 10
83.4971
 20
105.4957
 30
0.0
 10
83.4971
 20
105.4957
 30
0.0
 10
79.8293
 20
109.3709
 30
0.0
 10
79.8293
 20
109.3709
 30
0.0
 10
79.8293
 20
109.3709
 30
0.0
 10
79.8293
 20
109.3709
 30
0.0
 10
79.8435
 20
99.7899
 30
0.0
 10
79.8435
 20
99.7899
 30
0.0
  0
SPLINE
  5
9E
330
1F
100
AcDbEntity
  8
layer 1
 62
     7
100
AcDbSpline
210
0.0
220
0.0
230
1.0
 70
    11
 71
     3
 72
    20
 73
    16
 74
     0
 42
0.0000000001
 43
0.0000000001
 12
1.0
 22
0.0
 32
0.0
 13
1.0
 23
0.0
 33
0.0
 40
0.0
 40
0.0
 40
0.0
 40
0.0
 40
0.2
 40
0.2
 40
0.2
 40
0.2
 40
0.4
 40
0.4
 40
0.4
 40
0.4
 40
0.6
 40
0.6
 40
0.6
 40
0.6
 40
1.0
 40
1.0
 40
1.0
 40
1.0
 10
79.8435
 20
95.8144
 30
0.0
 10
79.8435
 20
95.8144
 30
0.0
 10
83.4971
 20
95.8144
 30
0.0
 10
83.4971
 20
95.8144
 30
0.0
 10
83.4971
 20
95.8144
 30
0.0
 10
83.4971
 20
95.8144
 30
0.0
 10
83.4971
 20
90.1086
 30
0.0
 10
83.4971
 20
90.1086
 30
0.0
 10
83.4971
 20
90.1086
 30
0.0
 10
83.4971
 20
90.1086
 30
0.0
 10
79.8293
 20
86.2334
 30
0.0
 10
79.8293
 20
86.2334
 30
0.0
 10
79.8293
 20
86.2334
 30
0.0
 10
79.8293
 20
86.2334
 30
0.0
 10
79.8435
 20
95.8144
 30
0.0
 10
79.8435
 20
95.8144
 30
0.0
  0
SPLINE
  5
9F
330
1F
100
AcDbEntity
  8
layer 1
 62
     7
100
AcDbSpline
210
0.0
220
0.0
230
1.0
 70
    11
 71
     3
 72
    20
 73
    16
 74
     0
 42
0.0000000001
 43
0.0000000001
 12
1.0
 22
0.0
 32
0.0
 13
1.0
 23
0.0
 33
0.0
 40
0.0
 40
0.0
 40
0.0
 40
0.0
 40
0.2
 40
0.2
 40
0.2
 40
0.2
 40
0.4
 40
0.4
 40
0.4
 40
0.4
 40
0.6
 40
0.6
 40
0.6
 40
0.6
 40
1.0
 40
1.0
 40
1.0
 40
1.0
 10
79.8435
 20
125.0511
 30
0.0
 10
79.8435
 20
125.0511
 30
0.0
 10
83.4971
 20
125.0511
 30
0.0
 10
83.4971
 20
125.0511
 30
0.0
 10
83.4971
 20
125.0511
 30
0.0
 10
83.4971
 20
125.0511
 30
0.0
 10
83.4971
 20
119.3453
 30
0.0
 10
83.4971
 20
119.3453
 30
0.0
 10
83.4971
 20
119.3453
 30
0.0
 10
83.4971
 20
119.3453
 30
0.0
 10
79.8293
 20
115.47
 30
0.0
 10
79.8293
 20
115.47
 30
0.0
 10
79.8293
 20
115.47
 30
0.0
 10
79.8293
 20
115.47
 30
0.0
 10
79.8435
 20
125.0511
 30
0.0
 10
79.8435
 20
125.0511
 30
0.0
  0
SPLINE
  5
A0
330
1F
100
AcDbEntity
  8
layer 1
 62
     7
100
AcDbSpline
210
0.0
220
0.0
230
1.0
 70
    11
 71
     3
 72
    20
 73
    16
 74
     0
 42
0.0000000001
 43
0.0000000001
 12
1.0
 22
0.0
 32
0.0
 13
1.0
 23
0.0
 33
0.0
 40
0.0
 40
0.0
 40
0.0
 40
0.0
 40
0.2
 40
0.2
 40
0.2
 40
0.2
 40
0.4
 40
0.4
 40
0.4
 40
0.4
 40
0.6
 40
0.6
 40
0.6
 40
0.6
 40
1.0
 40
1.0
 40
1.0
 40
1.0
 10
79.8435
 20
59.7495
 30
0.0
 10
79.8435
 20
59.7495
 30
0.0
 10
83.4971
 20
59.7495
 30
0.0
 10
83.4971
 20
59.7495
 30
0.0
 10
83.4971
 20
59.7495
 30
0.0
 10
83.4971
 20
59.7495
 30
0.0
 10
83.4971
 20
65.4553
 30
0.0
 10
83.4971
 20
65.4553
 30
0.0
 10
83.4971
 20
65.4553
 30
0.0
 10
83.4971
 20
65.4553
 30
0.0
 10
79.8293
 20
69.3305
 30
0.0
 10
79.8293
 20
69.3305
 30
0.0
 10
79.8293
 20
69.3305
 30
0.0
 10
79.8293
 20
69.3305
 30
0.0
 10
79.8435
 20
59.7495
 30
0.0
 10
79.8435
 20
59.7495
 30
0.0
  0
SPLINE
  5
A1
330
1F
100
AcDbEntity
  8
layer 1
 62
     7
100
AcDbSpline
210
0.0
220
0.0
230
1.0
 70
    11
 71
     3
 72
    20
 73
    16
 74
     0
 42
0.0000000001
 43
0.0000000001
 12
1.0
 22
0.0
 32
0.0
 13
1.0
 23
0.0
 33
0.0
 40
0.0
 40
0.0
 40
0.0
 40
0.0
 40
0.2
 40
0.2
 40
0.2
 40
0.2
 40
0.4
 40
0.4
 40
0.4
 40
0.4
 40
0.6
 40
0.6
 40
0.6
 40
0.6
 40
1.0
 40
1.0
 40
1.0
 40
1.0
 10
79.8435
 20
55.7739
 30
0.0
 10
79.8435
 20
55.7739
 30
0.0
 10
83.4971
 20
55.7739
 30
0.0
 10
83.4971
 20
55.7739
 30
0.0
 10
83.4971
 20
55.7739
 30
0.0
 10
83.4971
 20
55.7739
 30
0.0
 10
83.4971
 20
50.0682
 30
0.0
 10
83.4971
 20
50.0682
 30
0.0
 10
83.4971
 20
50.0682
 30
0.0
 10
83.4971
 20
50.0682
 30
0.0
 10
79.8293
 20
46.1929
 30
0.0
 10
79.8293
 20
46.1929
 30
0.0
 10
79.8293
 20
46.1929
 30
0.0
 10
79.8293
 20
46.1929
 30
0.0
 10
79.8435
 20
55.7739
 30
0.0
 10
79.8435
 20
55.7739
 30
0.0
  0
SPLINE
  5
A2
330
1F
100
AcDbEntity
  8
layer 1
 62
     7
100
AcDbSpline
210
0.0
220
0.0
230
1.0
 70
    11
 71
     3
 72
    20
 73
    16
 74
     0
 42
0.0000000001
 43
0.0000000001
 12
1.0
 22
0.0
 32
0.0
 13
1.0
 23
0.0
 33
0.0
 40
0.0
 40
0.0
 40
0.0
 40
0.0
 40
0.2
 40
0.2
 40
0.2
 40
0.2
 40
0.4
 40
0.4
 40
0.4
 40
0.4
 40
0.6
 40
0.6
 40
0.6
 40
0.6
 40
1.0
 40
1.0
 40
1.0
 40
1.0
 10
79.8435
 20
30.6773
 30
0.0
 10
79.8435
 20
30.6773
 30
0.0
 10
83.4971
 20
30.6773
 30
0.0
 10
83.4971
 20
30.6773
 30
0.0
 10
83.4971
 20
30.6773
 30
0.0
 10
83.4971
 20
30.6773
 30
0.0
 10
83.4971
 20
36.383
 30
0.0
 10
83.4971
 20
36.383
 30
0.0
 10
83.4971
 20
36.383
 30
0.0
 10
83.4971
 20
36.383
 30
0.0
 10
79.8293
 20
40.2583
 30
0.0
 10
79.8293
 20
40.2583
 30
0.0
 10
79.8293
 20
40.2583
 30
0.0
 10
79.8293
 20
40.2583
 30
0.0
 10
79.8435
 20
30.6773
 30
0.0
 10
79.8435
 20
30.6773
 30
0.0
  0
SPLINE
  5
A3
330
1F
100
AcDbEntity
  8
layer 1
 62
     7
100
AcDbSpline
210
0.0
220
0.0
230
1.0
 70
    11
 71
     3
 72
    20
 73
    16
 74
     0
 42
0.0000000001
 43
0.0000000001
 12
1.0
 22
0.0
 32
0.0
 13
1.0
 23
0.0
 33
0.0
 40
0.0
 40
0.0
 40
0.0
 40
0.0
 40
0.2
 40
0.2
 40
0.2
 40
0.2
 40
0.4
 40
0.4
 40
0.4
 40
0.4
 40
0.6
 40
0.6
 40
0.6
 40
0.6
 40
1.0
 40
1.0
 40
1.0
 40
1.0
 10
79.8435
 20
26.7016
 30
0.0
 10
79.8435
 20
26.7016
 30
0.0
 10
83.4971
 20
26.7016
 30
0.0
 10
83.4971
 20
26.7016
 30
0.0
 10
83.4971
 20
26.7016
 30
0.0
 10
83.4971
 20
26.7016
 30
0.0
 10
83.4971
 20
20.9958
 30
0.0
 10
83.4971
 20
20.9958
 30
0.0
 10
83.4971
 20
20.9958
 30
0.0
 10
83.4971
 20
20.9958
 30
0.0
 10
79.8293
 20
17.1206
 30
0.0
 10
79.8293
 20
17.1206
 30
0.0
 10
79.8293
 20
17.1206
 30
0.0
 10
79.8293
 20
17.1206
 30
0.0
 10
79.8435
 20
26.7016
 30
0.0
 10
79.8435
 20
26.7016
 30
0.0
  0
SPLINE
  5
A4
330
1F
100
AcDbEntity
  8
layer 1
 62
     7
100
AcDbSpline
210
0.0
220
0.0
230
1.0
 70
    11
 71
     3
 72
    20
 73
    16
 74
     0
 42
0.0000000001
 43
0.0000000001
 12
1.0
 22
0.0
 32
0.0
 13
1.0
 23
0.0
 33
0.0
 40
0.0
 40
0.0
 40
0.0
 40
0.0
 40
0.2
 40
0.2
 40
0.2
 40
0.2
 40
0.4
 40
0.4
 40
0.4
 40
0.4
 40
0.6
 40
0.6
 40
0.6
 40
0.6
 40
1.0
 40
1.0
 40
1.0
 40
1.0
 10
79.8435
 20
-9.4954
 30
0.0
 10
79.8435
 20
-9.4954
 30
0.0
 10
83.4971
 20
-9.4954
 30
0.0
 10
83.4971
 20
-9.4954
 30
0.0
 10
83.4971
 20
-9.4954
 30
0.0
 10
83.4971
 20
-9.4954
 30
0.0
 10
83.4971
 20
-3.7896
 30
0.0
 10
83.4971
 20
-3.7896
 30
0.0
 10
83.4971
 20
-3.7896
 30
0.0
 10
83.4971
 20
-3.7896
 30
0.0
 10
79.8293
 20
0.0856
 30
0.0
 10
79.8293
 20
0.0856
 30
0.0
 10
79.8293
 20
0.0856
 30
0.0
 10
79.8293
 20
0.0856
 30
0.0
 10
79.8435
 20
-9.4954
 30
0.0
 10
79.8435
 20
-9.4954
 30
0.0
  0
SPLINE
  5
A5
330
1F
100
AcDbEntity
  8
layer 1
 62
     7
100
AcDbSpline
210
0.0
220
0.0
230
1.0
 70
    11
 71
     3
 72
    20
 73
    16
 74
     0
 42
0.0000000001
 43
0.0000000001
 12
1.0
 22
0.0
 32
0.0
 13
1.0
 23
0.0
 33
0.0
 40
0.0
 40
0.0
 40
0.0
 40
0.0
 40
0.2
 40
0.2
 40
0.2
 40
0.2
 40
0.4
 40
0.4
 40
0.4
 40
0.4
 40
0.6
 40
0.6
 40
0.6
 40
0.6
 40
1.0
 40
1.0
 40
1.0
 40
1.0
 10
79.8435
 20
-13.4711
 30
0.0
 10
79.8435
 20
-13.4711
 30
0.0
 10
83.4971
 20
-13.4711
 30
0.0
 10
83.4971
 20
-13.4711
 30
0.0
 10
83.4971
 20
-13.4711
 30
0.0
 10
83.4971
 20
-13.4711
 30
0.0
 10
83.4971
 20
-19.1769
 30
0.0
 10
83.4971
 20
-19.1769
 30
0.0
 10
83.4971
 20
-19.1769
 30
0.0
 10
83.4971
 20
-19.1769
 30
0.0
 10
79.8293
 20
-23.0521
 30
0.0
 10
79.8293
 20
-23.0521
 30
0.0
 10
79.8293
 20
-23.0521
 30
0.0
 10
79.8293
 20
-23.0521
 30
0.0
 10
79.8435
 20
-13.4711
 30
0.0
 10
79.8435
 20
-13.4711
 30
0.0
  0
SPLINE
  5
A6
330
1F
100
AcDbEntity
  8
layer 1
 62
     7
100
AcDbSpline
210
0.0
220
0.0
230
1.0
 70
    11
 71
     3
 72
    20
 73
    16
 74
     0
 42
0.0000000001
 43
0.0000000001
 12
1.0
 22
0.0
 32
0.0
 13
1.0
 23
0.0
 33
0.0
 40
0.0
 40
0.0
 40
0.0
 40
0.0
 40
0.2
 40
0.2
 40
0.2
 40
0.2
 40
0.4
 40
0.4
 40
0.4
 40
0.4
 40
0.6
 40
0.6
 40
0.6
 40
0.6
 40
1.0
 40
1.0
 40
1.0
 40
1.0
 10
79.8435
 20
-38.4355
 30
0.0
 10
79.8435
 20
-38.4355
 30
0.0
 10
83.4971
 20
-38.4355
 30
0.0
 10
83.4971
 20
-38.4355
 30
0.0
 10
83.4971
 20
-38.4355
 30
0.0
 10
83.4971
 20
-38.4355
 30
0.0
 10
83.4971
 20
-32.7297
 30
0.0
 10
83.4971
 20
-32.7297
 30
0.0
 10
83.4971
 20
-32.7297
 30
0.0
 10
83.4971
 20
-32.7297
 30
0.0
 10
79.8293
 20
-28.8545
 30
0.0
 10
79.8293
 20
-28.8545
 30
0.0
 10
79.8293
 20
-28.8545
 30
0.0
 10
79.8293
 20
-28.8545
 30
0.0
 10
79.8435
 20
-38.4355
 30
0.0
 10
79.8435
 20
-38.4355
 30
0.0
  0
SPLINE
  5
A7
330
1F
100
AcDbEntity
  8
layer 1
 62
     7
100
AcDbSpline
210
0.0
220
0.0
230
1.0
 70
    11
 71
     3
 72
    20
 73
    16
 74
     0
 42
0.0000000001
 43
0.0000000001
 12
1.0
 22
0.0
 32
0.0
 13
1.0
 23
0.0
 33
0.0
 40
0.0
 40
0.0
 40
0.0
 40
0.0
 40
0.2
 40
0.2
 40
0.2
 40
0.2
 40
0.4
 40
0.4
 40
0.4
 40
0.4
 40
0.6
 40
0.6
 40
0.6
 40
0.6
 40
1.0
 40
1.0
 40
1.0
 40
1.0
 10
79.8435
 20
-42.4112
 30
0.0
 10
79.8435
 20
-42.4112
 30
0.0
 10
83.4971
 20
-42.4112
 30
0.0
 10
83.4971
 20
-42.4112
 30
0.0
 10
83.4971
 20
-42.4112
 30
0.0
 10
83.4971
 20
-42.4112
 30
0.0
 10
83.4971
 20
-48.117
 30
0.0
 10
83.4971
 20
-48.117
 30
0.0
 10
83.4971
 20
-48.117
 30
0.0
 10
83.4971
 20
-48.117
 30
0.0
 10
79.8293
 20
-51.9922
 30
0.0
 10
79.8293
 20
-51.9922
 30
0.0
 10
79.8293
 20
-51.9922
 30
0.0
 10
79.8293
 20
-51.9922
 30
0.0
 10
79.8435
 20
-42.4112
 30
0.0
 10
79.8435
 20
-42.4112
 30
0.0
  0
SPLINE
  5
A8
330
1F
100
AcDbEntity
  8
layer 1
 62
     7
100
AcDbSpline
210
0.0
220
0.0
230
1.0
 70
    11
 71
     3
 72
    20
 73
    16
 74
     0
 42
0.0000000001
 43
0.0000000001
 12
1.0
 22
0.0
 32
0.0
 13
1.0
 23
0.0
 33
0.0
 40
0.0
 40
0.0
 40
0.0
 40
0.0
 40
0.2
 40
0.2
 40
0.2
 40
0.2
 40
0.4
 40
0.4
 40
0.4
 40
0.4
 40
0.6
 40
0.6
 40
0.6
 40
0.6
 40
1.0
 40
1.0
 40
1.0
 40
1.0
 10
79.8435
 20
-78.41
 30
0.0
 10
79.8435
 20
-78.41
 30
0.0
 10
83.4971
 20
-78.41
 30
0.0
 10
83.4971
 20
-78.41
 30
0.0
 10
83.4971
 20
-78.41
 30
0.0
 10
83.4971
 20
-78.41
 30
0.0
 10
83.4971
 20
-72.7042
 30
0.0
 10
83.4971
 20
-72.7042
 30
0.0
 10
83.4971
 20
-72.7042
 30
0.0
 10
83.4971
 20
-72.7042
 30
0.0
 10
79.8293
 20
-68.829
 30
0.0
 10
79.8293
 20
-68.829
 30
0.0
 10
79.8293
 20
-68.829
 30
0.0
 10
79.8293
 20
-68.829
 30
0.0
 10
79.8435
 20
-78.41
 30
0.0
 10
79.8435
 20
-78.41
 30
0.0
  0
SPLINE
  5
A9
330
1F
100
AcDbEntity
  8
layer 1
 62
     7
100
AcDbSpline
210
0.0
220
0.0
230
1.0
 70
    11
 71
     3
 72
    20
 73
    16
 74
     0
 42
0.0000000001
 43
0.0000000001
 12
1.0
 22
0.0
 32
0.0
 13
1.0
 23
0.0
 33
0.0
 40
0.0
 40
0.0
 40
0.0
 40
0.0
 40
0.2
 40
0.2
 40
0.2
 40
0.2
 40
0.4
 40
0.4
 40
0.4
 40
0.4
 40
0.6
 40
0.6
 40
0.6
 40
0.6
 40
1.0
 40
1.0
 40
1.0
 40
1.0
 10
79.8435
 20
-82.3855
 30
0.0
 10
79.8435
 20
-82.3855
 30
0.0
 10
83.4971
 20
-82.3855
 30
0.0
 10
83.4971
 20
-82.3855
 30
0.0
 10
83.4971
 20
-82.3855
 30
0.0
 10
83.4971
 20
-82.3855
 30
0.0
 10
83.4971
 20
-88.0913
 30
0.0
 10
83.4971
 20
-88.0913
 30
0.0
 10
83.4971
 20
-88.0913
 30
0.0
 10
83.4971
 20
-88.0913
 30
0.0
 10
79.8293
 20
-91.9665
 30
0.0
 10
79.8293
 20
-91.9665
 30
0.0
 10
79.8293
 20
-91.9665
 30
0.0
 10
79.8293
 20
-91.9665
 30
0.0
 10
79.8435
 20
-82.3855
 30
0.0
 10
79.8435
 20
-82.3855
 30
0.0
  0
SPLINE
  5
AA
330
1F
100
AcDbEntity
  8
layer 1
 62
     7
100
AcDbSpline
210
0.0
220
0.0
230
1.0
 70
    11
 71
     3
 72
    20
 73
    16
 74
     0
 42
0.0000000001
 43
0.0000000001
 12
1.0
 22
0.0
 32
0.0
 13
1.0
 23
0.0
 33
0.0
 40
0.0
 40
0.0
 40
0.0
 40
0.0
 40
0.2
 40
0.2
 40
0.2
 40
0.2
 40
0.4
 40
0.4
 40
0.4
 40
0.4
 40
0.6
 40
0.6
 40
0.6
 40
0.6
 40
1.0
 40
1.0
 40
1.0
 40
1.0
 10
79.8435
 20
-107.3501
 30
0.0
 10
79.8435
 20
-107.3501
 30
0.0
 10
83.4971
 20
-107.3501
 30
0.0
 10
83.4971
 20
-107.3501
 30
0.0
 10
83.4971
 20
-107.3501
 30
0.0
 10
83.4971
 20
-107.3501
 30
0.0
 10
83.4971
 20
-101.6443
 30
0.0
 10
83.4971
 20
-101.6443
 30
0.0
 10
83.4971
 20
-101.6443
 30
0.0
 10
83.4971
 20
-101.6443
 30
0.0
 10
79.8293
 20
-97.7691
 30
0.0
 10
79.8293
 20
-97.7691
 30
0.0
 10
79.8293
 20
-97.7691
 30
0.0
 10
79.8293
 20
-97.7691
 30
0.0
 10
79.8435
 20
-107.3501
 30
0.0
 10
79.8435
 20
-107.3501
 30
0.0
  0
SPLINE
  5
AB
330
1F
100
AcDbEntity
  8
layer 1
 62
     7
100
AcDbSpline
210
0.0
220
0.0
230
1.0
 70
    11
 71
     3
 72
    16
 73
    12
 74
     0
 42
0.0000000001
 43
0.0000000001
 12
1.0
 22
0.0
 32
0.0
 13
1.0
 23
0.0
 33
0.0
 40
0.0
 40
0.0
 40
0.0
 40
0.0
 40
0.25
 40
0.25
 40
0.25
 40
0.25
 40
0.5
 40
0.5
 40
0.5
 40
0.5
 40
1.0
 40
1.0
 40
1.0
 40
1.0
 10
81.2517
 20
-58.4324
 30
0.0
 10
81.2517
 20
-58.4324
 30
0.0
 10
79.8294
 20
-56.8135
 30
0.0
 10
79.8294
 20
-56.8135
 30
0.0
 10
79.8294
 20
-56.8135
 30
0.0
 10
79.8294
 20
-56.8135
 30
0.0
 10
79.8319
 20
-58.4211
 30
0.0
 10
79.8319
 20
-58.4211
 30
0.0
 10
79.8319
 20
-58.4211
 30
0.0
 10
79.8319
 20
-58.4211
 30
0.0
 10
81.2517
 20
-58.4324
 30
0.0
 10
81.2517
 20
-58.4324
 30
0.0
  0
SPLINE
  5
AC
330
1F
100
AcDbEntity
  8
layer 1
 62
     7
100
AcDbSpline
210
0.0
220
0.0
230
1.0
 70
    11
 71
     3
 72
    16
 73
    12
 74
     0
 42
0.0000000001
 43
0.0000000001
 12
1.0
 22
0.0
 32
0.0
 13
1.0
 23
0.0
 33
0.0
 40
0.0
 40
0.0
 40
0.0
 40
0.0
 40
0.25
 40
0.25
 40
0.25
 40
0.25
 40
0.5
 40
0.5
 40
0.5
 40
0.5
 40
1.0
 40
1.0
 40
1.0
 40
1.0
 10
81.2517
 20
-62.2856
 30
0.0
 10
81.2517
 20
-62.2856
 30
0.0
 10
79.8294
 20
-63.9045
 30
0.0
 10
79.8294
 20
-63.9045
 30
0.0
 10
79.8294
 20
-63.9045
 30
0.0
 10
79.8294
 20
-63.9045
 30
0.0
 10
79.8319
 20
-62.2969
 30
0.0
 10
79.8319
 20
-62.2969
 30
0.0
 10
79.8319
 20
-62.2969
 30
0.0
 10
79.8319
 20
-62.2969
 30
0.0
 10
81.2517
 20
-62.2856
 30
0.0
 10
81.2517
 20
-62.2856
 30
0.0
  0
SPLINE
  5
AD
330
1F
100
AcDbEntity
  8
layer 1
 62
     7
100
AcDbSpline
210
0.0
220
0.0
230
1.0
 70
    11
 71
     3
 72
    16
 73
    12
 74
     0
 42
0.0000000001
 43
0.0000000001
 12
1.0
 22
0.0
 32
0.0
 13
1.0
 23
0.0
 33
0.0
 40
0.0
 40
0.0
 40
0.0
 40
0.0
 40
0.25
 40
0.25
 40
0.25
 40
0.25
 40
0.5
 40
0.5
 40
0.5
 40
0.5
 40
1.0
 40
1.0
 40
1.0
 40
1.0
 10
81.2517
 20
10.7199
 30
0.0
 10
81.2517
 20
10.7199
 30
0.0
 10
79.8294
 20
12.3389
 30
0.0
 10
79.8294
 20
12.3389
 30
0.0
 10
79.8294
 20
12.3389
 30
0.0
 10
79.8294
 20
12.3389
 30
0.0
 10
79.8319
 20
10.7312
 30
0.0
 10
79.8319
 20
10.7312
 30
0.0
 10
79.8319
 20
10.7312
 30
0.0
 10
79.8319
 20
10.7312
 30
0.0
 10
81.2517
 20
10.7199
 30
0.0
 10
81.2517
 20
10.7199
 30
0.0
  0
SPLINE
  5
AE
330
1F
100
AcDbEntity
  8
layer 1
 62
     7
100
AcDbSpline
210
0.0
220
0.0
230
1.0
 70
    11
 71
     3
 72
    16
 73
    12
 74
     0
 42
0.0000000001
 43
0.0000000001
 12
1.0
 22
0.0
 32
0.0
 13
1.0
 23
0.0
 33
0.0
 40
0.0
 40
0.0
 40
0.0
 40
0.0
 40
0.25
 40
0.25
 40
0.25
 40
0.25
 40
0.5
 40
0.5
 40
0.5
 40
0.5
 40
1.0
 40
1.0
 40
1.0
 40
1.0
 10
81.2517
 20
6.8668
 30
0.0
 10
81.2517
 20
6.8668
 30
0.0
 10
79.8294
 20
5.2479
 30
0.0
 10
79.8294
 20
5.2479
 30
0.0
 10
79.8294
 20
5.2479
 30
0.0
 10
79.8294
 20
5.2479
 30
0.0
 10
79.8319
 20
6.8555
 30
0.0
 10
79.8319
 20
6.8555
 30
0.0
 10
79.8319
 20
6.8555
 30
0.0
 10
79.8319
 20
6.8555
 30
0.0
 10
81.2517
 20
6.8668
 30
0.0
 10
81.2517
 20
6.8668
 30
0.0
  0
SPLINE
  5
AF
330
1F
100
AcDbEntity
  8
layer 1
 62
     7
100
AcDbSpline
210
0.0
220
0.0
230
1.0
 70
    11
 71
     3
 72
    16
 73
    12
 74
     0
 42
0.0000000001
 43
0.0000000001
 12
1.0
 22
0.0
 32
0.0
 13
1.0
 23
0.0
 33
0.0
 40
0.0
 40
0.0
 40
0.0
 40
0.0
 40
0.25
 40
0.25
 40
0.25
 40
0.25
 40
0.5
 40
0.5
 40
0.5
 40
0.5
 40
1.0
 40
1.0
 40
1.0
 40
1.0
 10
81.2517
 20
79.4431
 30
0.0
 10
81.2517
 20
79.4431
 30
0.0
 10
79.8294
 20
81.062
 30
0.0
 10
79.8294
 20
81.062
 30
0.0
 10
79.8294
 20
81.062
 30
0.0
 10
79.8294
 20
81.062
 30
0.0
 10
79.8319
 20
79.4544
 30
0.0
 10
79.8319
 20
79.4544
 30
0.0
 10
79.8319
 20
79.4544
 30
0.0
 10
79.8319
 20
79.4544
 30
0.0
 10
81.2517
 20
79.4431
 30
0.0
 10
81.2517
 20
79.4431
 30
0.0
  0
SPLINE
  5
B0
330
1F
100
AcDbEntity
  8
layer 1
 62
     7
100
AcDbSpline
210
0.0
220
0.0
230
1.0
 70
    11
 71
     3
 72
    16
 73
    12
 74
     0
 42
0.0000000001
 43
0.0000000001
 12
1.0
 22
0.0
 32
0.0
 13
1.0
 23
0.0
 33
0.0
 40
0.0
 40
0.0
 40
0.0
 40
0.0
 40
0.25
 40
0.25
 40
0.25
 40
0.25
 40
0.5
 40
0.5
 40
0.5
 40
0.5
 40
1.0
 40
1.0
 40
1.0
 40
1.0
 10
81.2517
 20
75.5898
 30
0.0
 10
81.2517
 20
75.5898
 30
0.0
 10
79.8294
 20
73.9709
 30
0.0
 10
79.8294
 20
73.9709
 30
0.0
 10
79.8294
 20
73.9709
 30
0.0
 10
79.8294
 20
73.9709
 30
0.0
 10
79.8319
 20
75.5785
 30
0.0
 10
79.8319
 20
75.5785
 30
0.0
 10
79.8319
 20
75.5785
 30
0.0
 10
79.8319
 20
75.5785
 30
0.0
 10
81.2517
 20
75.5898
 30
0.0
 10
81.2517
 20
75.5898
 30
0.0
  0
SPLINE
  5
B1
330
1F
100
AcDbEntity
  8
layer 1
 62
     7
100
AcDbSpline
210
0.0
220
0.0
230
1.0
 70
    11
 71
     3
 72
    16
 73
    12
 74
     0
 42
0.0000000001
 43
0.0000000001
 12
1.0
 22
0.0
 32
0.0
 13
1.0
 23
0.0
 33
0.0
 40
0.0
 40
0.0
 40
0.0
 40
0.0
 40
0.25
 40
0.25
 40
0.25
 40
0.25
 40
0.5
 40
0.5
 40
0.5
 40
0.5
 40
1.0
 40
1.0
 40
1.0
 40
1.0
 10
136.4956
 20
64.789
 30
0.0
 10
136.4956
 20
64.789
 30
0.0
 10
136.5132
 20
62.6341
 30
0.0
 10
136.5132
 20
62.6341
 30
0.0
 10
136.5132
 20
62.6341
 30
0.0
 10
136.5132
 20
62.6341
 30
0.0
 10
137.7248
 20
63.7488
 30
0.0
 10
137.7248
 20
63.7488
 30
0.0
 10
137.7248
 20
63.7488
 30
0.0
 10
137.7248
 20
63.7488
 30
0.0
 10
136.4956
 20
64.789
 30
0.0
 10
136.4956
 20
64.789
 30
0.0
  0
SPLINE
  5
B2
330
1F
100
AcDbEntity
  8
layer 1
 62
     7
100
AcDbSpline
210
0.0
220
0.0
230
1.0
 70
    11
 71
     3
 72
    16
 73
    12
 74
     0
 42
0.0000000001
 43
0.0000000001
 12
1.0
 22
0.0
 32
0.0
 13
1.0
 23
0.0
 33
0.0
 40
0.0
 40
0.0
 40
0.0
 40
0.0
 40
0.25
 40
0.25
 40
0.25
 40
0.25
 40
0.5
 40
0.5
 40
0.5
 40
0.5
 40
1.0
 40
1.0
 40
1.0
 40
1.0
 10
132.6796
 20
64.789
 30
0.0
 10
132.6796
 20
64.789
 30
0.0
 10
132.662
 20
62.6341
 30
0.0
 10
132.662
 20
62.6341
 30
0.0
 10
132.662
 20
62.6341
 30
0.0
 10
132.662
 20
62.6341
 30
0.0
 10
131.4505
 20
63.7488
 30
0.0
 10
131.4505
 20
63.7488
 30
0.0
 10
131.4505
 20
63.7488
 30
0.0
 10
131.4505
 20
63.7488
 30
0.0
 10
132.6796
 20
64.789
 30
0.0
 10
132.6796
 20
64.789
 30
0.0
  0
SPLINE
  5
B3
330
1F
100
AcDbEntity
  8
layer 1
 62
     7
100
AcDbSpline
210
0.0
220
0.0
230
1.0
 70
    11
 71
     3
 72
    16
 73
    12
 74
     0
 42
0.0000000001
 43
0.0000000001
 12
1.0
 22
0.0
 32
0.0
 13
1.0
 23
0.0
 33
0.0
 40
0.0
 40
0.0
 40
0.0
 40
0.0
 40
0.25
 40
0.25
 40
0.25
 40
0.25
 40
0.5
 40
0.5
 40
0.5
 40
0.5
 40
1.0
 40
1.0
 40
1.0
 40
1.0
 10
136.4956
 20
93.2448
 30
0.0
 10
136.4956
 20
93.2448
 30
0.0
 10
136.5132
 20
91.09
 30
0.0
 10
136.5132
 20
91.09
 30
0.0
 10
136.5132
 20
91.09
 30
0.0
 10
136.5132
 20
91.09
 30
0.0
 10
137.7248
 20
92.2047
 30
0.0
 10
137.7248
 20
92.2047
 30
0.0
 10
137.7248
 20
92.2047
 30
0.0
 10
137.7248
 20
92.2047
 30
0.0
 10
136.4956
 20
93.2448
 30
0.0
 10
136.4956
 20
93.2448
 30
0.0
  0
SPLINE
  5
B4
330
1F
100
AcDbEntity
  8
layer 1
 62
     7
100
AcDbSpline
210
0.0
220
0.0
230
1.0
 70
    11
 71
     3
 72
    16
 73
    12
 74
     0
 42
0.0000000001
 43
0.0000000001
 12
1.0
 22
0.0
 32
0.0
 13
1.0
 23
0.0
 33
0.0
 40
0.0
 40
0.0
 40
0.0
 40
0.0
 40
0.25
 40
0.25
 40
0.25
 40
0.25
 40
0.5
 40
0.5
 40
0.5
 40
0.5
 40
1.0
 40
1.0
 40
1.0
 40
1.0
 10
132.6796
 20
93.2448
 30
0.0
 10
132.6796
 20
93.2448
 30
0.0
 10
132.662
 20
91.09
 30
0.0
 10
132.662
 20
91.09
 30
0.0
 10
132.662
 20
91.09
 30
0.0
 10
132.662
 20
91.09
 30
0.0
 10
131.4505
 20
92.2047
 30
0.0
 10
131.4505
 20
92.2047
 30
0.0
 10
131.4505
 20
92.2047
 30
0.0
 10
131.4505
 20
92.2047
 30
0.0
 10
132.6796
 20
93.2448
 30
0.0
 10
132.6796
 20
93.2448
 30
0.0
  0
SPLINE
  5
B5
330
1F
100
AcDbEntity
  8
layer 1
 62
     7
100
AcDbSpline
210
0.0
220
0.0
230
1.0
 70
    11
 71
     3
 72
    16
 73
    12
 74
     0
 42
0.0000000001
 43
0.0000000001
 12
1.0
 22
0.0
 32
0.0
 13
1.0
 23
0.0
 33
0.0
 40
0.0
 40
0.0
 40
0.0
 40
0.0
 40
0.25
 40
0.25
 40
0.25
 40
0.25
 40
0.5
 40
0.5
 40
0.5
 40
0.5
 40
1.0
 40
1.0
 40
1.0
 40
1.0
 10
149.8513
 20
75.9898
 30
0.0
 10
149.8513
 20
75.9898
 30
0.0
 10
147.6964
 20
75.9722
 30
0.0
 10
147.6964
 20
75.9722
 30
0.0
 10
147.6964
 20
75.9722
 30
0.0
 10
147.6964
 20
75.9722
 30
0.0
 10
148.8111
 20
74.7606
 30
0.0
 10
148.8111
 20
74.7606
 30
0.0
 10
148.8111
 20
74.7606
 30
0.0
 10
148.8111
 20
74.7606
 30
0.0
 10
149.8513
 20
75.9898
 30
0.0
 10
149.8513
 20
75.9898
 30
0.0
  0
SPLINE
  5
B6
330
1F
100
AcDbEntity
  8
layer 1
 62
     7
100
AcDbSpline
210
0.0
220
0.0
230
1.0
 70
    11
 71
     3
 72
    16
 73
    12
 74
     0
 42
0.0000000001
 43
0.0000000001
 12
1.0
 22
0.0
 32
0.0
 13
1.0
 23
0.0
 33
0.0
 40
0.0
 40
0.0
 40
0.0
 40
0.0
 40
0.25
 40
0.25
 40
0.25
 40
0.25
 40
0.5
 40
0.5
 40
0.5
 40
0.5
 40
1.0
 40
1.0
 40
1.0
 40
1.0
 10
149.8513
 20
79.8058
 30
0.0
 10
149.8513
 20
79.8058
 30
0.0
 10
147.6964
 20
79.8234
 30
0.0
 10
147.6964
 20
79.8234
 30
0.0
 10
147.6964
 20
79.8234
 30
0.0
 10
147.6964
 20
79.8234
 30
0.0
 10
148.8111
 20
81.035
 30
0.0
 10
148.8111
 20
81.035
 30
0.0
 10
148.8111
 20
81.035
 30
0.0
 10
148.8111
 20
81.035
 30
0.0
 10
149.8513
 20
79.8058
 30
0.0
 10
149.8513
 20
79.8058
 30
0.0
  0
SPLINE
  5
B7
330
1F
100
AcDbEntity
  8
layer 1
 62
     7
100
AcDbSpline
210
0.0
220
0.0
230
1.0
 70
    11
 71
     3
 72
    16
 73
    12
 74
     0
 42
0.0000000001
 43
0.0000000001
 12
1.0
 22
0.0
 32
0.0
 13
1.0
 23
0.0
 33
0.0
 40
0.0
 40
0.0
 40
0.0
 40
0.0
 40
0.25
 40
0.25
 40
0.25
 40
0.25
 40
0.5
 40
0.5
 40
0.5
 40
0.5
 40
1.0
 40
1.0
 40
1.0
 40
1.0
 10
121.4789
 20
75.9898
 30
0.0
 10
121.4789
 20
75.9898
 30
0.0
 10
119.3241
 20
75.9722
 30
0.0
 10
119.3241
 20
75.9722
 30
0.0
 10
119.3241
 20
75.9722
 30
0.0
 10
119.3241
 20
75.9722
 30
0.0
 10
120.4387
 20
74.7606
 30
0.0
 10
120.4387
 20
74.7606
 30
0.0
 10
120.4387
 20
74.7606
 30
0.0
 10
120.4387
 20
74.7606
 30
0.0
 10
121.4789
 20
75.9898
 30
0.0
 10
121.4789
 20
75.9898
 30
0.0
  0
SPLINE
  5
B8
330
1F
100
AcDbEntity
  8
layer 1
 62
     7
100
AcDbSpline
210
0.0
220
0.0
230
1.0
 70
    11
 71
     3
 72
    16
 73
    12
 74
     0
 42
0.0000000001
 43
0.0000000001
 12
1.0
 22
0.0
 32
0.0
 13
1.0
 23
0.0
 33
0.0
 40
0.0
 40
0.0
 40
0.0
 40
0.0
 40
0.25
 40
0.25
 40
0.25
 40
0.25
 40
0.5
 40
0.5
 40
0.5
 40
0.5
 40
1.0
 40
1.0
 40
1.0
 40
1.0
 10
121.4789
 20
79.8058
 30
0.0
 10
121.4789
 20
79.8058
 30
0.0
 10
119.3241
 20
79.8234
 30
0.0
 10
119.3241
 20
79.8234
 30
0.0
 10
119.3241
 20
79.8234
 30
0.0
 10
119.3241
 20
79.8234
 30
0.0
 10
120.4387
 20
81.035
 30
0.0
 10
120.4387
 20
81.035
 30
0.0
 10
120.4387
 20
81.035
 30
0.0
 10
120.4387
 20
81.035
 30
0.0
 10
121.4789
 20
79.8058
 30
0.0
 10
121.4789
 20
79.8058
 30
0.0
  0
SPLINE
  5
B9
330
1F
100
AcDbEntity
  8
layer 1
 62
     7
100
AcDbSpline
210
0.0
220
0.0
230
1.0
 70
    11
 71
     3
 72
    16
 73
    12
 74
     0
 42
0.0000000001
 43
0.0000000001
 12
1.0
 22
0.0
 32
0.0
 13
1.0
 23
0.0
 33
0.0
 40
0.0
 40
0.0
 40
0.0
 40
0.0
 40
0.25
 40
0.25
 40
0.25
 40
0.25
 40
0.5
 40
0.5
 40
0.5
 40
0.5
 40
1.0
 40
1.0
 40
1.0
 40
1.0
 10
136.5557
 20
-4.603
 30
0.0
 10
136.5557
 20
-4.603
 30
0.0
 10
136.5733
 20
-6.7579
 30
0.0
 10
136.5733
 20
-6.7579
 30
0.0
 10
136.5733
 20
-6.7579
 30
0.0
 10
136.5733
 20
-6.7579
 30
0.0
 10
137.7848
 20
-5.6432
 30
0.0
 10
137.7848
 20
-5.6432
 30
0.0
 10
137.7848
 20
-5.6432
 30
0.0
 10
137.7848
 20
-5.6432
 30
0.0
 10
136.5557
 20
-4.603
 30
0.0
 10
136.5557
 20
-4.603
 30
0.0
  0
SPLINE
  5
BA
330
1F
100
AcDbEntity
  8
layer 1
 62
     7
100
AcDbSpline
210
0.0
220
0.0
230
1.0
 70
    11
 71
     3
 72
    16
 73
    12
 74
     0
 42
0.0000000001
 43
0.0000000001
 12
1.0
 22
0.0
 32
0.0
 13
1.0
 23
0.0
 33
0.0
 40
0.0
 40
0.0
 40
0.0
 40
0.0
 40
0.25
 40
0.25
 40
0.25
 40
0.25
 40
0.5
 40
0.5
 40
0.5
 40
0.5
 40
1.0
 40
1.0
 40
1.0
 40
1.0
 10
132.7397
 20
-4.603
 30
0.0
 10
132.7397
 20
-4.603
 30
0.0
 10
132.7221
 20
-6.7579
 30
0.0
 10
132.7221
 20
-6.7579
 30
0.0
 10
132.7221
 20
-6.7579
 30
0.0
 10
132.7221
 20
-6.7579
 30
0.0
 10
131.5105
 20
-5.6432
 30
0.0
 10
131.5105
 20
-5.6432
 30
0.0
 10
131.5105
 20
-5.6432
 30
0.0
 10
131.5105
 20
-5.6432
 30
0.0
 10
132.7397
 20
-4.603
 30
0.0
 10
132.7397
 20
-4.603
 30
0.0
  0
SPLINE
  5
BB
330
1F
100
AcDbEntity
  8
layer 1
 62
     7
100
AcDbSpline
210
0.0
220
0.0
230
1.0
 70
    11
 71
     3
 72
    16
 73
    12
 74
     0
 42
0.0000000001
 43
0.0000000001
 12
1.0
 22
0.0
 32
0.0
 13
1.0
 23
0.0
 33
0.0
 40
0.0
 40
0.0
 40
0.0
 40
0.0
 40
0.25
 40
0.25
 40
0.25
 40
0.25
 40
0.5
 40
0.5
 40
0.5
 40
0.5
 40
1.0
 40
1.0
 40
1.0
 40
1.0
 10
136.5557
 20
23.8528
 30
0.0
 10
136.5557
 20
23.8528
 30
0.0
 10
136.5733
 20
21.698
 30
0.0
 10
136.5733
 20
21.698
 30
0.0
 10
136.5733
 20
21.698
 30
0.0
 10
136.5733
 20
21.698
 30
0.0
 10
137.7848
 20
22.8127
 30
0.0
 10
137.7848
 20
22.8127
 30
0.0
 10
137.7848
 20
22.8127
 30
0.0
 10
137.7848
 20
22.8127
 30
0.0
 10
136.5557
 20
23.8528
 30
0.0
 10
136.5557
 20
23.8528
 30
0.0
  0
SPLINE
  5
BC
330
1F
100
AcDbEntity
  8
layer 1
 62
     7
100
AcDbSpline
210
0.0
220
0.0
230
1.0
 70
    11
 71
     3
 72
    16
 73
    12
 74
     0
 42
0.0000000001
 43
0.0000000001
 12
1.0
 22
0.0
 32
0.0
 13
1.0
 23
0.0
 33
0.0
 40
0.0
 40
0.0
 40
0.0
 40
0.0
 40
0.25
 40
0.25
 40
0.25
 40
0.25
 40
0.5
 40
0.5
 40
0.5
 40
0.5
 40
1.0
 40
1.0
 40
1.0
 40
1.0
 10
132.7397
 20
23.8528
 30
0.0
 10
132.7397
 20
23.8528
 30
0.0
 10
132.7221
 20
21.698
 30
0.0
 10
132.7221
 20
21.698
 30
0.0
 10
132.7221
 20
21.698
 30
0.0
 10
132.7221
 20
21.698
 30
0.0
 10
131.5105
 20
22.8127
 30
0.0
 10
131.5105
 20
22.8127
 30
0.0
 10
131.5105
 20
22.8127
 30
0.0
 10
131.5105
 20
22.8127
 30
0.0
 10
132.7397
 20
23.8528
 30
0.0
 10
132.7397
 20
23.8528
 30
0.0
  0
SPLINE
  5
BD
330
1F
100
AcDbEntity
  8
layer 1
 62
     7
100
AcDbSpline
210
0.0
220
0.0
230
1.0
 70
    11
 71
     3
 72
    16
 73
    12
 74
     0
 42
0.0000000001
 43
0.0000000001
 12
1.0
 22
0.0
 32
0.0
 13
1.0
 23
0.0
 33
0.0
 40
0.0
 40
0.0
 40
0.0
 40
0.0
 40
0.25
 40
0.25
 40
0.25
 40
0.25
 40
0.5
 40
0.5
 40
0.5
 40
0.5
 40
1.0
 40
1.0
 40
1.0
 40
1.0
 10
149.9114
 20
6.5978
 30
0.0
 10
149.9114
 20
6.5978
 30
0.0
 10
147.7565
 20
6.5802
 30
0.0
 10
147.7565
 20
6.5802
 30
0.0
 10
147.7565
 20
6.5802
 30
0.0
 10
147.7565
 20
6.5802
 30
0.0
 10
148.8712
 20
5.3687
 30
0.0
 10
148.8712
 20
5.3687
 30
0.0
 10
148.8712
 20
5.3687
 30
0.0
 10
148.8712
 20
5.3687
 30
0.0
 10
149.9114
 20
6.5978
 30
0.0
 10
149.9114
 20
6.5978
 30
0.0
  0
SPLINE
  5
BE
330
1F
100
AcDbEntity
  8
layer 1
 62
     7
100
AcDbSpline
210
0.0
220
0.0
230
1.0
 70
    11
 71
     3
 72
    16
 73
    12
 74
     0
 42
0.0000000001
 43
0.0000000001
 12
1.0
 22
0.0
 32
0.0
 13
1.0
 23
0.0
 33
0.0
 40
0.0
 40
0.0
 40
0.0
 40
0.0
 40
0.25
 40
0.25
 40
0.25
 40
0.25
 40
0.5
 40
0.5
 40
0.5
 40
0.5
 40
1.0
 40
1.0
 40
1.0
 40
1.0
 10
149.9114
 20
10.4137
 30
0.0
 10
149.9114
 20
10.4137
 30
0.0
 10
147.7565
 20
10.4313
 30
0.0
 10
147.7565
 20
10.4313
 30
0.0
 10
147.7565
 20
10.4313
 30
0.0
 10
147.7565
 20
10.4313
 30
0.0
 10
148.8712
 20
11.6428
 30
0.0
 10
148.8712
 20
11.6428
 30
0.0
 10
148.8712
 20
11.6428
 30
0.0
 10
148.8712
 20
11.6428
 30
0.0
 10
149.9114
 20
10.4137
 30
0.0
 10
149.9114
 20
10.4137
 30
0.0
  0
SPLINE
  5
BF
330
1F
100
AcDbEntity
  8
layer 1
 62
     7
100
AcDbSpline
210
0.0
220
0.0
230
1.0
 70
    11
 71
     3
 72
    16
 73
    12
 74
     0
 42
0.0000000001
 43
0.0000000001
 12
1.0
 22
0.0
 32
0.0
 13
1.0
 23
0.0
 33
0.0
 40
0.0
 40
0.0
 40
0.0
 40
0.0
 40
0.25
 40
0.25
 40
0.25
 40
0.25
 40
0.5
 40
0.5
 40
0.5
 40
0.5
 40
1.0
 40
1.0
 40
1.0
 40
1.0
 10
121.539
 20
6.5978
 30
0.0
 10
121.539
 20
6.5978
 30
0.0
 10
119.3841
 20
6.5802
 30
0.0
 10
119.3841
 20
6.5802
 30
0.0
 10
119.3841
 20
6.5802
 30
0.0
 10
119.3841
 20
6.5802
 30
0.0
 10
120.4988
 20
5.3687
 30
0.0
 10
120.4988
 20
5.3687
 30
0.0
 10
120.4988
 20
5.3687
 30
0.0
 10
120.4988
 20
5.3687
 30
0.0
 10
121.539
 20
6.5978
 30
0.0
 10
121.539
 20
6.5978
 30
0.0
  0
SPLINE
  5
C0
330
1F
100
AcDbEntity
  8
layer 1
 62
     7
100
AcDbSpline
210
0.0
220
0.0
230
1.0
 70
    11
 71
     3
 72
    16
 73
    12
 74
     0
 42
0.0000000001
 43
0.0000000001
 12
1.0
 22
0.0
 32
0.0
 13
1.0
 23
0.0
 33
0.0
 40
0.0
 40
0.0
 40
0.0
 40
0.0
 40
0.25
 40
0.25
 40
0.25
 40
0.25
 40
0.5
 40
0.5
 40
0.5
 40
0.5
 40
1.0
 40
1.0
 40
1.0
 40
1.0
 10
121.539
 20
10.4137
 30
0.0
 10
121.539
 20
10.4137
 30
0.0
 10
119.3841
 20
10.4313
 30
0.0
 10
119.3841
 20
10.4313
 30
0.0
 10
119.3841
 20
10.4313
 30
0.0
 10
119.3841
 20
10.4313
 30
0.0
 10
120.4988
 20
11.6428
 30
0.0
 10
120.4988
 20
11.6428
 30
0.0
 10
120.4988
 20
11.6428
 30
0.0
 10
120.4988
 20
11.6428
 30
0.0
 10
121.539
 20
10.4137
 30
0.0
 10
121.539
 20
10.4137
 30
0.0
  0
SPLINE
  5
C1
330
1F
100
AcDbEntity
  8
layer 1
 62
     7
100
AcDbSpline
210
0.0
220
0.0
230
1.0
 70
    11
 71
     3
 72
    24
 73
    20
 74
     0
 42
0.0000000001
 43
0.0000000001
 12
1.0
 22
0.0
 32
0.0
 13
1.0
 23
0.0
 33
0.0
 40
0.0
 40
0.0
 40
0.0
 40
0.0
 40
0.1666666666666667
 40
0.1666666666666667
 40
0.1666666666666667
 40
0.1666666666666667
 40
0.3333333333333333
 40
0.3333333333333333
 40
0.3333333333333333
 40
0.3333333333333333
 40
0.5
 40
0.5
 40
0.5
 40
0.5
 40
0.6666666666666666
 40
0.6666666666666666
 40
0.6666666666666666
 40
0.6666666666666666
 40
1.0
 40
1.0
 40
1.0
 40
1.0
 10
152.6317
 20
21.2449
 30
0.0
 10
152.6317
 20
21.2449
 30
0.0
 10
148.8143
 20
17.4275
 30
0.0
 10
148.8143
 20
17.4275
 30
0.0
 10
148.8143
 20
17.4275
 30
0.0
 10
148.8143
 20
17.4275
 30
0.0
 10
143.3254
 20
22.8883
 30
0.0
 10
143.3254
 20
22.8883
 30
0.0
 10
143.3254
 20
22.8883
 30
0.0
 10
143.3254
 20
22.8883
 30
0.0
 10
147.4998
 20
27.0627
 30
0.0
 10
147.4998
 20
27.0627
 30
0.0
 10
147.4998
 20
27.0627
 30
0.0
 10
147.4998
 20
27.0627
 30
0.0
 10
152.6317
 20
27.0627
 30
0.0
 10
152.6317
 20
27.0627
 30
0.0
 10
152.6317
 20
27.0627
 30
0.0
 10
152.6317
 20
27.0627
 30
0.0
 10
152.6317
 20
21.2449
 30
0.0
 10
152.6317
 20
21.2449
 30
0.0
  0
SPLINE
  5
C2
330
1F
100
AcDbEntity
  8
layer 1
 62
     7
100
AcDbSpline
210
0.0
220
0.0
230
1.0
 70
    11
 71
     3
 72
    24
 73
    20
 74
     0
 42
0.0000000001
 43
0.0000000001
 12
1.0
 22
0.0
 32
0.0
 13
1.0
 23
0.0
 33
0.0
 40
0.0
 40
0.0
 40
0.0
 40
0.0
 40
0.1666666666666667
 40
0.1666666666666667
 40
0.1666666666666667
 40
0.1666666666666667
 40
0.3333333333333333
 40
0.3333333333333333
 40
0.3333333333333333
 40
0.3333333333333333
 40
0.5
 40
0.5
 40
0.5
 40
0.5
 40
0.6666666666666666
 40
0.6666666666666666
 40
0.6666666666666666
 40
0.6666666666666666
 40
1.0
 40
1.0
 40
1.0
 40
1.0
 10
136.7131
 20
16.2685
 30
0.0
 10
136.7131
 20
16.2685
 30
0.0
 10
140.5305
 20
20.0859
 30
0.0
 10
140.5305
 20
20.0859
 30
0.0
 10
140.5305
 20
20.0859
 30
0.0
 10
140.5305
 20
20.0859
 30
0.0
 10
146.0194
 20
14.6251
 30
0.0
 10
146.0194
 20
14.6251
 30
0.0
 10
146.0194
 20
14.6251
 30
0.0
 10
146.0194
 20
14.6251
 30
0.0
 10
141.845
 20
10.4507
 30
0.0
 10
141.845
 20
10.4507
 30
0.0
 10
141.845
 20
10.4507
 30
0.0
 10
141.845
 20
10.4507
 30
0.0
 10
136.7131
 20
10.4507
 30
0.0
 10
136.7131
 20
10.4507
 30
0.0
 10
136.7131
 20
10.4507
 30
0.0
 10
136.7131
 20
10.4507
 30
0.0
 10
136.7131
 20
16.2685
 30
0.0
 10
136.7131
 20
16.2685
 30
0.0
  0
SPLINE
  5
C3
330
1F
100
AcDbEntity
  8
layer 1
 62
     7
100
AcDbSpline
210
0.0
220
0.0
230
1.0
 70
    11
 71
     3
 72
    24
 73
    20
 74
     0
 42
0.0000000001
 43
0.0000000001
 12
1.0
 22
0.0
 32
0.0
 13
1.0
 23
0.0
 33
0.0
 40
0.0
 40
0.0
 40
0.0
 40
0.0
 40
0.1666666666666667
 40
0.1666666666666667
 40
0.1666666666666667
 40
0.1666666666666667
 40
0.3333333333333333
 40
0.3333333333333333
 40
0.3333333333333333
 40
0.3333333333333333
 40
0.5
 40
0.5
 40
0.5
 40
0.5
 40
0.6666666666666666
 40
0.6666666666666666
 40
0.6666666666666666
 40
0.6666666666666666
 40
1.0
 40
1.0
 40
1.0
 40
1.0
 10
132.4744
 20
16.2492
 30
0.0
 10
132.4744
 20
16.2492
 30
0.0
 10
128.657
 20
20.0666
 30
0.0
 10
128.657
 20
20.0666
 30
0.0
 10
128.657
 20
20.0666
 30
0.0
 10
128.657
 20
20.0666
 30
0.0
 10
123.1681
 20
14.6058
 30
0.0
 10
123.1681
 20
14.6058
 30
0.0
 10
123.1681
 20
14.6058
 30
0.0
 10
123.1681
 20
14.6058
 30
0.0
 10
127.3425
 20
10.4314
 30
0.0
 10
127.3425
 20
10.4314
 30
0.0
 10
127.3425
 20
10.4314
 30
0.0
 10
127.3425
 20
10.4314
 30
0.0
 10
132.4744
 20
10.4314
 30
0.0
 10
132.4744
 20
10.4314
 30
0.0
 10
132.4744
 20
10.4314
 30
0.0
 10
132.4744
 20
10.4314
 30
0.0
 10
132.4744
 20
16.2492
 30
0.0
 10
132.4744
 20
16.2492
 30
0.0
  0
SPLINE
  5
C4
330
1F
100
AcDbEntity
  8
layer 1
 62
     7
100
AcDbSpline
210
0.0
220
0.0
230
1.0
 70
    11
 71
     3
 72
    24
 73
    20
 74
     0
 42
0.0000000001
 43
0.0000000001
 12
1.0
 22
0.0
 32
0.0
 13
1.0
 23
0.0
 33
0.0
 40
0.0
 40
0.0
 40
0.0
 40
0.0
 40
0.1666666666666667
 40
0.1666666666666667
 40
0.1666666666666667
 40
0.1666666666666667
 40
0.3333333333333333
 40
0.3333333333333333
 40
0.3333333333333333
 40
0.3333333333333333
 40
0.5
 40
0.5
 40
0.5
 40
0.5
 40
0.6666666666666666
 40
0.6666666666666666
 40
0.6666666666666666
 40
0.6666666666666666
 40
1.0
 40
1.0
 40
1.0
 40
1.0
 10
127.0741
 20
39.3408
 30
0.0
 10
127.0741
 20
39.3408
 30
0.0
 10
132.4729
 20
39.3408
 30
0.0
 10
132.4729
 20
39.3408
 30
0.0
 10
132.4729
 20
39.3408
 30
0.0
 10
132.4729
 20
39.3408
 30
0.0
 10
132.4927
 20
47.0834
 30
0.0
 10
132.4927
 20
47.0834
 30
0.0
 10
132.4927
 20
47.0834
 30
0.0
 10
132.4927
 20
47.0834
 30
0.0
 10
126.5892
 20
47.0834
 30
0.0
 10
126.5892
 20
47.0834
 30
0.0
 10
126.5892
 20
47.0834
 30
0.0
 10
126.5892
 20
47.0834
 30
0.0
 10
122.9604
 20
43.4546
 30
0.0
 10
122.9604
 20
43.4546
 30
0.0
 10
122.9604
 20
43.4546
 30
0.0
 10
122.9604
 20
43.4546
 30
0.0
 10
127.0741
 20
39.3408
 30
0.0
 10
127.0741
 20
39.3408
 30
0.0
  0
SPLINE
  5
C5
330
1F
100
AcDbEntity
  8
layer 1
 62
     7
100
AcDbSpline
210
0.0
220
0.0
230
1.0
 70
    11
 71
     3
 72
    24
 73
    20
 74
     0
 42
0.0000000001
 43
0.0000000001
 12
1.0
 22
0.0
 32
0.0
 13
1.0
 23
0.0
 33
0.0
 40
0.0
 40
0.0
 40
0.0
 40
0.0
 40
0.1666666666666667
 40
0.1666666666666667
 40
0.1666666666666667
 40
0.1666666666666667
 40
0.3333333333333333
 40
0.3333333333333333
 40
0.3333333333333333
 40
0.3333333333333333
 40
0.5
 40
0.5
 40
0.5
 40
0.5
 40
0.6666666666666666
 40
0.6666666666666666
 40
0.6666666666666666
 40
0.6666666666666666
 40
1.0
 40
1.0
 40
1.0
 40
1.0
 10
142.119
 20
47.0834
 30
0.0
 10
142.119
 20
47.0834
 30
0.0
 10
136.7202
 20
47.0834
 30
0.0
 10
136.7202
 20
47.0834
 30
0.0
 10
136.7202
 20
47.0834
 30
0.0
 10
136.7202
 20
47.0834
 30
0.0
 10
136.7004
 20
39.3408
 30
0.0
 10
136.7004
 20
39.3408
 30
0.0
 10
136.7004
 20
39.3408
 30
0.0
 10
136.7004
 20
39.3408
 30
0.0
 10
142.6039
 20
39.3408
 30
0.0
 10
142.6039
 20
39.3408
 30
0.0
 10
142.6039
 20
39.3408
 30
0.0
 10
142.6039
 20
39.3408
 30
0.0
 10
146.2326
 20
42.9695
 30
0.0
 10
146.2326
 20
42.9695
 30
0.0
 10
146.2326
 20
42.9695
 30
0.0
 10
146.2326
 20
42.9695
 30
0.0
 10
142.119
 20
47.0834
 30
0.0
 10
142.119
 20
47.0834
 30
0.0
  0
SPLINE
  5
C6
330
1F
100
AcDbEntity
  8
layer 1
 62
     7
100
AcDbSpline
210
0.0
220
0.0
230
1.0
 70
    11
 71
     3
 72
    24
 73
    20
 74
     0
 42
0.0000000001
 43
0.0000000001
 12
1.0
 22
0.0
 32
0.0
 13
1.0
 23
0.0
 33
0.0
 40
0.0
 40
0.0
 40
0.0
 40
0.0
 40
0.1666666666666667
 40
0.1666666666666667
 40
0.1666666666666667
 40
0.1666666666666667
 40
0.3333333333333333
 40
0.3333333333333333
 40
0.3333333333333333
 40
0.3333333333333333
 40
0.5
 40
0.5
 40
0.5
 40
0.5
 40
0.6666666666666666
 40
0.6666666666666666
 40
0.6666666666666666
 40
0.6666666666666666
 40
1.0
 40
1.0
 40
1.0
 40
1.0
 10
116.5291
 20
90.4063
 30
0.0
 10
116.5291
 20
90.4063
 30
0.0
 10
120.3465
 20
86.5889
 30
0.0
 10
120.3465
 20
86.5889
 30
0.0
 10
120.3465
 20
86.5889
 30
0.0
 10
120.3465
 20
86.5889
 30
0.0
 10
125.8354
 20
92.0497
 30
0.0
 10
125.8354
 20
92.0497
 30
0.0
 10
125.8354
 20
92.0497
 30
0.0
 10
125.8354
 20
92.0497
 30
0.0
 10
121.6609
 20
96.2241
 30
0.0
 10
121.6609
 20
96.2241
 30
0.0
 10
121.6609
 20
96.2241
 30
0.0
 10
121.6609
 20
96.2241
 30
0.0
 10
116.5291
 20
96.2241
 30
0.0
 10
116.5291
 20
96.2241
 30
0.0
 10
116.5291
 20
96.2241
 30
0.0
 10
116.5291
 20
96.2241
 30
0.0
 10
116.5291
 20
90.4063
 30
0.0
 10
116.5291
 20
90.4063
 30
0.0
  0
SPLINE
  5
C7
330
1F
100
AcDbEntity
  8
layer 1
 62
     7
100
AcDbSpline
210
0.0
220
0.0
230
1.0
 70
    11
 71
     3
 72
    24
 73
    20
 74
     0
 42
0.0000000001
 43
0.0000000001
 12
1.0
 22
0.0
 32
0.0
 13
1.0
 23
0.0
 33
0.0
 40
0.0
 40
0.0
 40
0.0
 40
0.0
 40
0.1666666666666667
 40
0.1666666666666667
 40
0.1666666666666667
 40
0.1666666666666667
 40
0.3333333333333333
 40
0.3333333333333333
 40
0.3333333333333333
 40
0.3333333333333333
 40
0.5
 40
0.5
 40
0.5
 40
0.5
 40
0.6666666666666666
 40
0.6666666666666666
 40
0.6666666666666666
 40
0.6666666666666666
 40
1.0
 40
1.0
 40
1.0
 40
1.0
 10
152.6317
 20
90.4063
 30
0.0
 10
152.6317
 20
90.4063
 30
0.0
 10
148.8143
 20
86.5889
 30
0.0
 10
148.8143
 20
86.5889
 30
0.0
 10
148.8143
 20
86.5889
 30
0.0
 10
148.8143
 20
86.5889
 30
0.0
 10
143.3254
 20
92.0497
 30
0.0
 10
143.3254
 20
92.0497
 30
0.0
 10
143.3254
 20
92.0497
 30
0.0
 10
143.3254
 20
92.0497
 30
0.0
 10
147.4998
 20
96.2241
 30
0.0
 10
147.4998
 20
96.2241
 30
0.0
 10
147.4998
 20
96.2241
 30
0.0
 10
147.4998
 20
96.2241
 30
0.0
 10
152.6317
 20
96.2241
 30
0.0
 10
152.6317
 20
96.2241
 30
0.0
 10
152.6317
 20
96.2241
 30
0.0
 10
152.6317
 20
96.2241
 30
0.0
 10
152.6317
 20
90.4063
 30
0.0
 10
152.6317
 20
90.4063
 30
0.0
  0
SPLINE
  5
C8
330
1F
100
AcDbEntity
  8
layer 1
 62
     7
100
AcDbSpline
210
0.0
220
0.0
230
1.0
 70
    11
 71
     3
 72
    24
 73
    20
 74
     0
 42
0.0000000001
 43
0.0000000001
 12
1.0
 22
0.0
 32
0.0
 13
1.0
 23
0.0
 33
0.0
 40
0.0
 40
0.0
 40
0.0
 40
0.0
 40
0.1666666666666667
 40
0.1666666666666667
 40
0.1666666666666667
 40
0.1666666666666667
 40
0.3333333333333333
 40
0.3333333333333333
 40
0.3333333333333333
 40
0.3333333333333333
 40
0.5
 40
0.5
 40
0.5
 40
0.5
 40
0.6666666666666666
 40
0.6666666666666666
 40
0.6666666666666666
 40
0.6666666666666666
 40
1.0
 40
1.0
 40
1.0
 40
1.0
 10
136.7131
 20
85.4299
 30
0.0
 10
136.7131
 20
85.4299
 30
0.0
 10
140.5305
 20
89.2473
 30
0.0
 10
140.5305
 20
89.2473
 30
0.0
 10
140.5305
 20
89.2473
 30
0.0
 10
140.5305
 20
89.2473
 30
0.0
 10
146.0194
 20
83.7866
 30
0.0
 10
146.0194
 20
83.7866
 30
0.0
 10
146.0194
 20
83.7866
 30
0.0
 10
146.0194
 20
83.7866
 30
0.0
 10
141.845
 20
79.6122
 30
0.0
 10
141.845
 20
79.6122
 30
0.0
 10
141.845
 20
79.6122
 30
0.0
 10
141.845
 20
79.6122
 30
0.0
 10
136.7131
 20
79.6122
 30
0.0
 10
136.7131
 20
79.6122
 30
0.0
 10
136.7131
 20
79.6122
 30
0.0
 10
136.7131
 20
79.6122
 30
0.0
 10
136.7131
 20
85.4299
 30
0.0
 10
136.7131
 20
85.4299
 30
0.0
  0
SPLINE
  5
C9
330
1F
100
AcDbEntity
  8
layer 1
 62
     7
100
AcDbSpline
210
0.0
220
0.0
230
1.0
 70
    11
 71
     3
 72
    24
 73
    20
 74
     0
 42
0.0000000001
 43
0.0000000001
 12
1.0
 22
0.0
 32
0.0
 13
1.0
 23
0.0
 33
0.0
 40
0.0
 40
0.0
 40
0.0
 40
0.0
 40
0.1666666666666667
 40
0.1666666666666667
 40
0.1666666666666667
 40
0.1666666666666667
 40
0.3333333333333333
 40
0.3333333333333333
 40
0.3333333333333333
 40
0.3333333333333333
 40
0.5
 40
0.5
 40
0.5
 40
0.5
 40
0.6666666666666666
 40
0.6666666666666666
 40
0.6666666666666666
 40
0.6666666666666666
 40
1.0
 40
1.0
 40
1.0
 40
1.0
 10
132.4744
 20
85.4106
 30
0.0
 10
132.4744
 20
85.4106
 30
0.0
 10
128.657
 20
89.228
 30
0.0
 10
128.657
 20
89.228
 30
0.0
 10
128.657
 20
89.228
 30
0.0
 10
128.657
 20
89.228
 30
0.0
 10
123.1681
 20
83.7672
 30
0.0
 10
123.1681
 20
83.7672
 30
0.0
 10
123.1681
 20
83.7672
 30
0.0
 10
123.1681
 20
83.7672
 30
0.0
 10
127.3425
 20
79.5928
 30
0.0
 10
127.3425
 20
79.5928
 30
0.0
 10
127.3425
 20
79.5928
 30
0.0
 10
127.3425
 20
79.5928
 30
0.0
 10
132.4744
 20
79.5928
 30
0.0
 10
132.4744
 20
79.5928
 30
0.0
 10
132.4744
 20
79.5928
 30
0.0
 10
132.4744
 20
79.5928
 30
0.0
 10
132.4744
 20
85.4106
 30
0.0
 10
132.4744
 20
85.4106
 30
0.0
  0
SPLINE
  5
CA
330
1F
100
AcDbEntity
  8
layer 1
 62
     7
100
AcDbSpline
210
0.0
220
0.0
230
1.0
 70
    11
 71
     3
 72
    24
 73
    20
 74
     0
 42
0.0000000001
 43
0.0000000001
 12
1.0
 22
0.0
 32
0.0
 13
1.0
 23
0.0
 33
0.0
 40
0.0
 40
0.0
 40
0.0
 40
0.0
 40
0.1666666666666667
 40
0.1666666666666667
 40
0.1666666666666667
 40
0.1666666666666667
 40
0.3333333333333333
 40
0.3333333333333333
 40
0.3333333333333333
 40
0.3333333333333333
 40
0.5
 40
0.5
 40
0.5
 40
0.5
 40
0.6666666666666666
 40
0.6666666666666666
 40
0.6666666666666666
 40
0.6666666666666666
 40
1.0
 40
1.0
 40
1.0
 40
1.0
 10
127.0741
 20
108.5021
 30
0.0
 10
127.0741
 20
108.5021
 30
0.0
 10
132.4729
 20
108.5021
 30
0.0
 10
132.4729
 20
108.5021
 30
0.0
 10
132.4729
 20
108.5021
 30
0.0
 10
132.4729
 20
108.5021
 30
0.0
 10
132.4927
 20
116.2447
 30
0.0
 10
132.4927
 20
116.2447
 30
0.0
 10
132.4927
 20
116.2447
 30
0.0
 10
132.4927
 20
116.2447
 30
0.0
 10
126.5892
 20
116.2447
 30
0.0
 10
126.5892
 20
116.2447
 30
0.0
 10
126.5892
 20
116.2447
 30
0.0
 10
126.5892
 20
116.2447
 30
0.0
 10
122.9604
 20
112.6159
 30
0.0
 10
122.9604
 20
112.6159
 30
0.0
 10
122.9604
 20
112.6159
 30
0.0
 10
122.9604
 20
112.6159
 30
0.0
 10
127.0741
 20
108.5021
 30
0.0
 10
127.0741
 20
108.5021
 30
0.0
  0
SPLINE
  5
CB
330
1F
100
AcDbEntity
  8
layer 1
 62
     7
100
AcDbSpline
210
0.0
220
0.0
230
1.0
 70
    11
 71
     3
 72
    24
 73
    20
 74
     0
 42
0.0000000001
 43
0.0000000001
 12
1.0
 22
0.0
 32
0.0
 13
1.0
 23
0.0
 33
0.0
 40
0.0
 40
0.0
 40
0.0
 40
0.0
 40
0.1666666666666667
 40
0.1666666666666667
 40
0.1666666666666667
 40
0.1666666666666667
 40
0.3333333333333333
 40
0.3333333333333333
 40
0.3333333333333333
 40
0.3333333333333333
 40
0.5
 40
0.5
 40
0.5
 40
0.5
 40
0.6666666666666666
 40
0.6666666666666666
 40
0.6666666666666666
 40
0.6666666666666666
 40
1.0
 40
1.0
 40
1.0
 40
1.0
 10
142.119
 20
116.2448
 30
0.0
 10
142.119
 20
116.2448
 30
0.0
 10
136.7202
 20
116.2448
 30
0.0
 10
136.7202
 20
116.2448
 30
0.0
 10
136.7202
 20
116.2448
 30
0.0
 10
136.7202
 20
116.2448
 30
0.0
 10
136.7004
 20
108.5022
 30
0.0
 10
136.7004
 20
108.5022
 30
0.0
 10
136.7004
 20
108.5022
 30
0.0
 10
136.7004
 20
108.5022
 30
0.0
 10
142.6039
 20
108.5022
 30
0.0
 10
142.6039
 20
108.5022
 30
0.0
 10
142.6039
 20
108.5022
 30
0.0
 10
142.6039
 20
108.5022
 30
0.0
 10
146.2326
 20
112.131
 30
0.0
 10
146.2326
 20
112.131
 30
0.0
 10
146.2326
 20
112.131
 30
0.0
 10
146.2326
 20
112.131
 30
0.0
 10
142.119
 20
116.2448
 30
0.0
 10
142.119
 20
116.2448
 30
0.0
  0
SPLINE
  5
CC
330
1F
100
AcDbEntity
  8
layer 1
 62
     7
100
AcDbSpline
210
0.0
220
0.0
230
1.0
 70
    11
 71
     3
 72
    24
 73
    20
 74
     0
 42
0.0000000001
 43
0.0000000001
 12
1.0
 22
0.0
 32
0.0
 13
1.0
 23
0.0
 33
0.0
 40
0.0
 40
0.0
 40
0.0
 40
0.0
 40
0.1666666666666667
 40
0.1666666666666667
 40
0.1666666666666667
 40
0.1666666666666667
 40
0.3333333333333333
 40
0.3333333333333333
 40
0.3333333333333333
 40
0.3333333333333333
 40
0.5
 40
0.5
 40
0.5
 40
0.5
 40
0.6666666666666666
 40
0.6666666666666666
 40
0.6666666666666666
 40
0.6666666666666666
 40
1.0
 40
1.0
 40
1.0
 40
1.0
 10
116.5291
 20
21.2449
 30
0.0
 10
116.5291
 20
21.2449
 30
0.0
 10
120.3465
 20
17.4275
 30
0.0
 10
120.3465
 20
17.4275
 30
0.0
 10
120.3465
 20
17.4275
 30
0.0
 10
120.3465
 20
17.4275
 30
0.0
 10
125.8354
 20
22.8883
 30
0.0
 10
125.8354
 20
22.8883
 30
0.0
 10
125.8354
 20
22.8883
 30
0.0
 10
125.8354
 20
22.8883
 30
0.0
 10
121.6609
 20
27.0627
 30
0.0
 10
121.6609
 20
27.0627
 30
0.0
 10
121.6609
 20
27.0627
 30
0.0
 10
121.6609
 20
27.0627
 30
0.0
 10
116.5291
 20
27.0627
 30
0.0
 10
116.5291
 20
27.0627
 30
0.0
 10
116.5291
 20
27.0627
 30
0.0
 10
116.5291
 20
27.0627
 30
0.0
 10
116.5291
 20
21.2449
 30
0.0
 10
116.5291
 20
21.2449
 30
0.0
  0
SPLINE
  5
CD
330
1F
100
AcDbEntity
  8
layer 1
 62
     7
100
AcDbSpline
210
0.0
220
0.0
230
1.0
 70
    11
 71
     3
 72
    24
 73
    20
 74
     0
 42
0.0000000001
 43
0.0000000001
 12
1.0
 22
0.0
 32
0.0
 13
1.0
 23
0.0
 33
0.0
 40
0.0
 40
0.0
 40
0.0
 40
0.0
 40
0.1666666666666667
 40
0.1666666666666667
 40
0.1666666666666667
 40
0.1666666666666667
 40
0.3333333333333333
 40
0.3333333333333333
 40
0.3333333333333333
 40
0.3333333333333333
 40
0.5
 40
0.5
 40
0.5
 40
0.5
 40
0.6666666666666666
 40
0.6666666666666666
 40
0.6666666666666666
 40
0.6666666666666666
 40
1.0
 40
1.0
 40
1.0
 40
1.0
 10
152.6317
 20
21.2449
 30
0.0
 10
152.6317
 20
21.2449
 30
0.0
 10
148.8143
 20
17.4275
 30
0.0
 10
148.8143
 20
17.4275
 30
0.0
 10
148.8143
 20
17.4275
 30
0.0
 10
148.8143
 20
17.4275
 30
0.0
 10
143.3254
 20
22.8883
 30
0.0
 10
143.3254
 20
22.8883
 30
0.0
 10
143.3254
 20
22.8883
 30
0.0
 10
143.3254
 20
22.8883
 30
0.0
 10
147.4998
 20
27.0627
 30
0.0
 10
147.4998
 20
27.0627
 30
0.0
 10
147.4998
 20
27.0627
 30
0.0
 10
147.4998
 20
27.0627
 30
0.0
 10
152.6317
 20
27.0627
 30
0.0
 10
152.6317
 20
27.0627
 30
0.0
 10
152.6317
 20
27.0627
 30
0.0
 10
152.6317
 20
27.0627
 30
0.0
 10
152.6317
 20
21.2449
 30
0.0
 10
152.6317
 20
21.2449
 30
0.0
  0
SPLINE
  5
CE
330
1F
100
AcDbEntity
  8
layer 1
 62
     7
100
AcDbSpline
210
0.0
220
0.0
230
1.0
 70
    11
 71
     3
 72
    24
 73
    20
 74
     0
 42
0.0000000001
 43
0.0000000001
 12
1.0
 22
0.0
 32
0.0
 13
1.0
 23
0.0
 33
0.0
 40
0.0
 40
0.0
 40
0.0
 40
0.0
 40
0.1666666666666667
 40
0.1666666666666667
 40
0.1666666666666667
 40
0.1666666666666667
 40
0.3333333333333333
 40
0.3333333333333333
 40
0.3333333333333333
 40
0.3333333333333333
 40
0.5
 40
0.5
 40
0.5
 40
0.5
 40
0.6666666666666666
 40
0.6666666666666666
 40
0.6666666666666666
 40
0.6666666666666666
 40
1.0
 40
1.0
 40
1.0
 40
1.0
 10
136.7131
 20
16.2685
 30
0.0
 10
136.7131
 20
16.2685
 30
0.0
 10
140.5305
 20
20.0859
 30
0.0
 10
140.5305
 20
20.0859
 30
0.0
 10
140.5305
 20
20.0859
 30
0.0
 10
140.5305
 20
20.0859
 30
0.0
 10
146.0194
 20
14.6251
 30
0.0
 10
146.0194
 20
14.6251
 30
0.0
 10
146.0194
 20
14.6251
 30
0.0
 10
146.0194
 20
14.6251
 30
0.0
 10
141.845
 20
10.4507
 30
0.0
 10
141.845
 20
10.4507
 30
0.0
 10
141.845
 20
10.4507
 30
0.0
 10
141.845
 20
10.4507
 30
0.0
 10
136.7131
 20
10.4507
 30
0.0
 10
136.7131
 20
10.4507
 30
0.0
 10
136.7131
 20
10.4507
 30
0.0
 10
136.7131
 20
10.4507
 30
0.0
 10
136.7131
 20
16.2685
 30
0.0
 10
136.7131
 20
16.2685
 30
0.0
  0
SPLINE
  5
CF
330
1F
100
AcDbEntity
  8
layer 1
 62
     7
100
AcDbSpline
210
0.0
220
0.0
230
1.0
 70
    11
 71
     3
 72
    24
 73
    20
 74
     0
 42
0.0000000001
 43
0.0000000001
 12
1.0
 22
0.0
 32
0.0
 13
1.0
 23
0.0
 33
0.0
 40
0.0
 40
0.0
 40
0.0
 40
0.0
 40
0.1666666666666667
 40
0.1666666666666667
 40
0.1666666666666667
 40
0.1666666666666667
 40
0.3333333333333333
 40
0.3333333333333333
 40
0.3333333333333333
 40
0.3333333333333333
 40
0.5
 40
0.5
 40
0.5
 40
0.5
 40
0.6666666666666666
 40
0.6666666666666666
 40
0.6666666666666666
 40
0.6666666666666666
 40
1.0
 40
1.0
 40
1.0
 40
1.0
 10
132.4744
 20
16.2492
 30
0.0
 10
132.4744
 20
16.2492
 30
0.0
 10
128.657
 20
20.0666
 30
0.0
 10
128.657
 20
20.0666
 30
0.0
 10
128.657
 20
20.0666
 30
0.0
 10
128.657
 20
20.0666
 30
0.0
 10
123.1681
 20
14.6058
 30
0.0
 10
123.1681
 20
14.6058
 30
0.0
 10
123.1681
 20
14.6058
 30
0.0
 10
123.1681
 20
14.6058
 30
0.0
 10
127.3425
 20
10.4314
 30
0.0
 10
127.3425
 20
10.4314
 30
0.0
 10
127.3425
 20
10.4314
 30
0.0
 10
127.3425
 20
10.4314
 30
0.0
 10
132.4744
 20
10.4314
 30
0.0
 10
132.4744
 20
10.4314
 30
0.0
 10
132.4744
 20
10.4314
 30
0.0
 10
132.4744
 20
10.4314
 30
0.0
 10
132.4744
 20
16.2492
 30
0.0
 10
132.4744
 20
16.2492
 30
0.0
  0
SPLINE
  5
D0
330
1F
100
AcDbEntity
  8
layer 1
 62
     7
100
AcDbSpline
210
0.0
220
0.0
230
1.0
 70
    11
 71
     3
 72
    24
 73
    20
 74
     0
 42
0.0000000001
 43
0.0000000001
 12
1.0
 22
0.0
 32
0.0
 13
1.0
 23
0.0
 33
0.0
 40
0.0
 40
0.0
 40
0.0
 40
0.0
 40
0.1666666666666667
 40
0.1666666666666667
 40
0.1666666666666667
 40
0.1666666666666667
 40
0.3333333333333333
 40
0.3333333333333333
 40
0.3333333333333333
 40
0.3333333333333333
 40
0.5
 40
0.5
 40
0.5
 40
0.5
 40
0.6666666666666666
 40
0.6666666666666666
 40
0.6666666666666666
 40
0.6666666666666666
 40
1.0
 40
1.0
 40
1.0
 40
1.0
 10
127.0741
 20
108.5021
 30
0.0
 10
127.0741
 20
108.5021
 30
0.0
 10
132.4729
 20
108.5021
 30
0.0
 10
132.4729
 20
108.5021
 30
0.0
 10
132.4729
 20
108.5021
 30
0.0
 10
132.4729
 20
108.5021
 30
0.0
 10
132.4927
 20
116.2447
 30
0.0
 10
132.4927
 20
116.2447
 30
0.0
 10
132.4927
 20
116.2447
 30
0.0
 10
132.4927
 20
116.2447
 30
0.0
 10
126.5892
 20
116.2447
 30
0.0
 10
126.5892
 20
116.2447
 30
0.0
 10
126.5892
 20
116.2447
 30
0.0
 10
126.5892
 20
116.2447
 30
0.0
 10
122.9604
 20
112.6159
 30
0.0
 10
122.9604
 20
112.6159
 30
0.0
 10
122.9604
 20
112.6159
 30
0.0
 10
122.9604
 20
112.6159
 30
0.0
 10
127.0741
 20
108.5021
 30
0.0
 10
127.0741
 20
108.5021
 30
0.0
  0
SPLINE
  5
D1
330
1F
100
AcDbEntity
  8
layer 1
 62
     7
100
AcDbSpline
210
0.0
220
0.0
230
1.0
 70
    11
 71
     3
 72
    24
 73
    20
 74
     0
 42
0.0000000001
 43
0.0000000001
 12
1.0
 22
0.0
 32
0.0
 13
1.0
 23
0.0
 33
0.0
 40
0.0
 40
0.0
 40
0.0
 40
0.0
 40
0.1666666666666667
 40
0.1666666666666667
 40
0.1666666666666667
 40
0.1666666666666667
 40
0.3333333333333333
 40
0.3333333333333333
 40
0.3333333333333333
 40
0.3333333333333333
 40
0.5
 40
0.5
 40
0.5
 40
0.5
 40
0.6666666666666666
 40
0.6666666666666666
 40
0.6666666666666666
 40
0.6666666666666666
 40
1.0
 40
1.0
 40
1.0
 40
1.0
 10
142.119
 20
116.2448
 30
0.0
 10
142.119
 20
116.2448
 30
0.0
 10
136.7202
 20
116.2448
 30
0.0
 10
136.7202
 20
116.2448
 30
0.0
 10
136.7202
 20
116.2448
 30
0.0
 10
136.7202
 20
116.2448
 30
0.0
 10
136.7004
 20
108.5022
 30
0.0
 10
136.7004
 20
108.5022
 30
0.0
 10
136.7004
 20
108.5022
 30
0.0
 10
136.7004
 20
108.5022
 30
0.0
 10
142.6039
 20
108.5022
 30
0.0
 10
142.6039
 20
108.5022
 30
0.0
 10
142.6039
 20
108.5022
 30
0.0
 10
142.6039
 20
108.5022
 30
0.0
 10
146.2326
 20
112.131
 30
0.0
 10
146.2326
 20
112.131
 30
0.0
 10
146.2326
 20
112.131
 30
0.0
 10
146.2326
 20
112.131
 30
0.0
 10
142.119
 20
116.2448
 30
0.0
 10
142.119
 20
116.2448
 30
0.0
  0
SPLINE
  5
D2
330
1F
100
AcDbEntity
  8
layer 1
 62
     7
100
AcDbSpline
210
0.0
220
0.0
230
1.0
 70
    11
 71
     3
 72
    24
 73
    20
 74
     0
 42
0.0000000001
 43
0.0000000001
 12
1.0
 22
0.0
 32
0.0
 13
1.0
 23
0.0
 33
0.0
 40
0.0
 40
0.0
 40
0.0
 40
0.0
 40
0.1666666666666667
 40
0.1666666666666667
 40
0.1666666666666667
 40
0.1666666666666667
 40
0.3333333333333333
 40
0.3333333333333333
 40
0.3333333333333333
 40
0.3333333333333333
 40
0.5
 40
0.5
 40
0.5
 40
0.5
 40
0.6666666666666666
 40
0.6666666666666666
 40
0.6666666666666666
 40
0.6666666666666666
 40
1.0
 40
1.0
 40
1.0
 40
1.0
 10
116.5291
 20
65.3778
 30
0.0
 10
116.5291
 20
65.3778
 30
0.0
 10
120.3465
 20
69.1952
 30
0.0
 10
120.3465
 20
69.1952
 30
0.0
 10
120.3465
 20
69.1952
 30
0.0
 10
120.3465
 20
69.1952
 30
0.0
 10
125.8354
 20
63.7345
 30
0.0
 10
125.8354
 20
63.7345
 30
0.0
 10
125.8354
 20
63.7345
 30
0.0
 10
125.8354
 20
63.7345
 30
0.0
 10
121.6609
 20
59.5601
 30
0.0
 10
121.6609
 20
59.5601
 30
0.0
 10
121.6609
 20
59.5601
 30
0.0
 10
121.6609
 20
59.5601
 30
0.0
 10
116.5291
 20
59.5601
 30
0.0
 10
116.5291
 20
59.5601
 30
0.0
 10
116.5291
 20
59.5601
 30
0.0
 10
116.5291
 20
59.5601
 30
0.0
 10
116.5291
 20
65.3778
 30
0.0
 10
116.5291
 20
65.3778
 30
0.0
  0
SPLINE
  5
D3
330
1F
100
AcDbEntity
  8
layer 1
 62
     7
100
AcDbSpline
210
0.0
220
0.0
230
1.0
 70
    11
 71
     3
 72
    24
 73
    20
 74
     0
 42
0.0000000001
 43
0.0000000001
 12
1.0
 22
0.0
 32
0.0
 13
1.0
 23
0.0
 33
0.0
 40
0.0
 40
0.0
 40
0.0
 40
0.0
 40
0.1666666666666667
 40
0.1666666666666667
 40
0.1666666666666667
 40
0.1666666666666667
 40
0.3333333333333333
 40
0.3333333333333333
 40
0.3333333333333333
 40
0.3333333333333333
 40
0.5
 40
0.5
 40
0.5
 40
0.5
 40
0.6666666666666666
 40
0.6666666666666666
 40
0.6666666666666666
 40
0.6666666666666666
 40
1.0
 40
1.0
 40
1.0
 40
1.0
 10
152.6317
 20
65.3778
 30
0.0
 10
152.6317
 20
65.3778
 30
0.0
 10
148.8143
 20
69.1952
 30
0.0
 10
148.8143
 20
69.1952
 30
0.0
 10
148.8143
 20
69.1952
 30
0.0
 10
148.8143
 20
69.1952
 30
0.0
 10
143.3254
 20
63.7345
 30
0.0
 10
143.3254
 20
63.7345
 30
0.0
 10
143.3254
 20
63.7345
 30
0.0
 10
143.3254
 20
63.7345
 30
0.0
 10
147.4998
 20
59.5601
 30
0.0
 10
147.4998
 20
59.5601
 30
0.0
 10
147.4998
 20
59.5601
 30
0.0
 10
147.4998
 20
59.5601
 30
0.0
 10
152.6317
 20
59.5601
 30
0.0
 10
152.6317
 20
59.5601
 30
0.0
 10
152.6317
 20
59.5601
 30
0.0
 10
152.6317
 20
59.5601
 30
0.0
 10
152.6317
 20
65.3778
 30
0.0
 10
152.6317
 20
65.3778
 30
0.0
  0
SPLINE
  5
D4
330
1F
100
AcDbEntity
  8
layer 1
 62
     7
100
AcDbSpline
210
0.0
220
0.0
230
1.0
 70
    11
 71
     3
 72
    24
 73
    20
 74
     0
 42
0.0000000001
 43
0.0000000001
 12
1.0
 22
0.0
 32
0.0
 13
1.0
 23
0.0
 33
0.0
 40
0.0
 40
0.0
 40
0.0
 40
0.0
 40
0.1666666666666667
 40
0.1666666666666667
 40
0.1666666666666667
 40
0.1666666666666667
 40
0.3333333333333333
 40
0.3333333333333333
 40
0.3333333333333333
 40
0.3333333333333333
 40
0.5
 40
0.5
 40
0.5
 40
0.5
 40
0.6666666666666666
 40
0.6666666666666666
 40
0.6666666666666666
 40
0.6666666666666666
 40
1.0
 40
1.0
 40
1.0
 40
1.0
 10
136.7131
 20
70.3542
 30
0.0
 10
136.7131
 20
70.3542
 30
0.0
 10
140.5305
 20
66.5368
 30
0.0
 10
140.5305
 20
66.5368
 30
0.0
 10
140.5305
 20
66.5368
 30
0.0
 10
140.5305
 20
66.5368
 30
0.0
 10
146.0194
 20
71.9976
 30
0.0
 10
146.0194
 20
71.9976
 30
0.0
 10
146.0194
 20
71.9976
 30
0.0
 10
146.0194
 20
71.9976
 30
0.0
 10
141.845
 20
76.172
 30
0.0
 10
141.845
 20
76.172
 30
0.0
 10
141.845
 20
76.172
 30
0.0
 10
141.845
 20
76.172
 30
0.0
 10
136.7131
 20
76.172
 30
0.0
 10
136.7131
 20
76.172
 30
0.0
 10
136.7131
 20
76.172
 30
0.0
 10
136.7131
 20
76.172
 30
0.0
 10
136.7131
 20
70.3542
 30
0.0
 10
136.7131
 20
70.3542
 30
0.0
  0
SPLINE
  5
D5
330
1F
100
AcDbEntity
  8
layer 1
 62
     7
100
AcDbSpline
210
0.0
220
0.0
230
1.0
 70
    11
 71
     3
 72
    24
 73
    20
 74
     0
 42
0.0000000001
 43
0.0000000001
 12
1.0
 22
0.0
 32
0.0
 13
1.0
 23
0.0
 33
0.0
 40
0.0
 40
0.0
 40
0.0
 40
0.0
 40
0.1666666666666667
 40
0.1666666666666667
 40
0.1666666666666667
 40
0.1666666666666667
 40
0.3333333333333333
 40
0.3333333333333333
 40
0.3333333333333333
 40
0.3333333333333333
 40
0.5
 40
0.5
 40
0.5
 40
0.5
 40
0.6666666666666666
 40
0.6666666666666666
 40
0.6666666666666666
 40
0.6666666666666666
 40
1.0
 40
1.0
 40
1.0
 40
1.0
 10
132.4744
 20
70.3736
 30
0.0
 10
132.4744
 20
70.3736
 30
0.0
 10
128.657
 20
66.5562
 30
0.0
 10
128.657
 20
66.5562
 30
0.0
 10
128.657
 20
66.5562
 30
0.0
 10
128.657
 20
66.5562
 30
0.0
 10
123.1681
 20
72.0169
 30
0.0
 10
123.1681
 20
72.0169
 30
0.0
 10
123.1681
 20
72.0169
 30
0.0
 10
123.1681
 20
72.0169
 30
0.0
 10
127.3425
 20
76.1913
 30
0.0
 10
127.3425
 20
76.1913
 30
0.0
 10
127.3425
 20
76.1913
 30
0.0
 10
127.3425
 20
76.1913
 30
0.0
 10
132.4744
 20
76.1913
 30
0.0
 10
132.4744
 20
76.1913
 30
0.0
 10
132.4744
 20
76.1913
 30
0.0
 10
132.4744
 20
76.1913
 30
0.0
 10
132.4744
 20
70.3736
 30
0.0
 10
132.4744
 20
70.3736
 30
0.0
  0
SPLINE
  5
D6
330
1F
100
AcDbEntity
  8
layer 1
 62
     7
100
AcDbSpline
210
0.0
220
0.0
230
1.0
 70
    11
 71
     3
 72
    24
 73
    20
 74
     0
 42
0.0000000001
 43
0.0000000001
 12
1.0
 22
0.0
 32
0.0
 13
1.0
 23
0.0
 33
0.0
 40
0.0
 40
0.0
 40
0.0
 40
0.0
 40
0.1666666666666667
 40
0.1666666666666667
 40
0.1666666666666667
 40
0.1666666666666667
 40
0.3333333333333333
 40
0.3333333333333333
 40
0.3333333333333333
 40
0.3333333333333333
 40
0.5
 40
0.5
 40
0.5
 40
0.5
 40
0.6666666666666666
 40
0.6666666666666666
 40
0.6666666666666666
 40
0.6666666666666666
 40
1.0
 40
1.0
 40
1.0
 40
1.0
 10
116.5291
 20
-3.7725
 30
0.0
 10
116.5291
 20
-3.7725
 30
0.0
 10
120.3465
 20
0.0449
 30
0.0
 10
120.3465
 20
0.0449
 30
0.0
 10
120.3465
 20
0.0449
 30
0.0
 10
120.3465
 20
0.0449
 30
0.0
 10
125.8354
 20
-5.4159
 30
0.0
 10
125.8354
 20
-5.4159
 30
0.0
 10
125.8354
 20
-5.4159
 30
0.0
 10
125.8354
 20
-5.4159
 30
0.0
 10
121.6609
 20
-9.5903
 30
0.0
 10
121.6609
 20
-9.5903
 30
0.0
 10
121.6609
 20
-9.5903
 30
0.0
 10
121.6609
 20
-9.5903
 30
0.0
 10
116.5291
 20
-9.5903
 30
0.0
 10
116.5291
 20
-9.5903
 30
0.0
 10
116.5291
 20
-9.5903
 30
0.0
 10
116.5291
 20
-9.5903
 30
0.0
 10
116.5291
 20
-3.7725
 30
0.0
 10
116.5291
 20
-3.7725
 30
0.0
  0
SPLINE
  5
D7
330
1F
100
AcDbEntity
  8
layer 1
 62
     7
100
AcDbSpline
210
0.0
220
0.0
230
1.0
 70
    11
 71
     3
 72
    24
 73
    20
 74
     0
 42
0.0000000001
 43
0.0000000001
 12
1.0
 22
0.0
 32
0.0
 13
1.0
 23
0.0
 33
0.0
 40
0.0
 40
0.0
 40
0.0
 40
0.0
 40
0.1666666666666667
 40
0.1666666666666667
 40
0.1666666666666667
 40
0.1666666666666667
 40
0.3333333333333333
 40
0.3333333333333333
 40
0.3333333333333333
 40
0.3333333333333333
 40
0.5
 40
0.5
 40
0.5
 40
0.5
 40
0.6666666666666666
 40
0.6666666666666666
 40
0.6666666666666666
 40
0.6666666666666666
 40
1.0
 40
1.0
 40
1.0
 40
1.0
 10
152.6317
 20
-3.7725
 30
0.0
 10
152.6317
 20
-3.7725
 30
0.0
 10
148.8143
 20
0.0449
 30
0.0
 10
148.8143
 20
0.0449
 30
0.0
 10
148.8143
 20
0.0449
 30
0.0
 10
148.8143
 20
0.0449
 30
0.0
 10
143.3254
 20
-5.4159
 30
0.0
 10
143.3254
 20
-5.4159
 30
0.0
 10
143.3254
 20
-5.4159
 30
0.0
 10
143.3254
 20
-5.4159
 30
0.0
 10
147.4998
 20
-9.5903
 30
0.0
 10
147.4998
 20
-9.5903
 30
0.0
 10
147.4998
 20
-9.5903
 30
0.0
 10
147.4998
 20
-9.5903
 30
0.0
 10
152.6317
 20
-9.5903
 30
0.0
 10
152.6317
 20
-9.5903
 30
0.0
 10
152.6317
 20
-9.5903
 30
0.0
 10
152.6317
 20
-9.5903
 30
0.0
 10
152.6317
 20
-3.7725
 30
0.0
 10
152.6317
 20
-3.7725
 30
0.0
  0
SPLINE
  5
D8
330
1F
100
AcDbEntity
  8
layer 1
 62
     7
100
AcDbSpline
210
0.0
220
0.0
230
1.0
 70
    11
 71
     3
 72
    24
 73
    20
 74
     0
 42
0.0000000001
 43
0.0000000001
 12
1.0
 22
0.0
 32
0.0
 13
1.0
 23
0.0
 33
0.0
 40
0.0
 40
0.0
 40
0.0
 40
0.0
 40
0.1666666666666667
 40
0.1666666666666667
 40
0.1666666666666667
 40
0.1666666666666667
 40
0.3333333333333333
 40
0.3333333333333333
 40
0.3333333333333333
 40
0.3333333333333333
 40
0.5
 40
0.5
 40
0.5
 40
0.5
 40
0.6666666666666666
 40
0.6666666666666666
 40
0.6666666666666666
 40
0.6666666666666666
 40
1.0
 40
1.0
 40
1.0
 40
1.0
 10
136.7131
 20
1.2037
 30
0.0
 10
136.7131
 20
1.2037
 30
0.0
 10
140.5305
 20
-2.6137
 30
0.0
 10
140.5305
 20
-2.6137
 30
0.0
 10
140.5305
 20
-2.6137
 30
0.0
 10
140.5305
 20
-2.6137
 30
0.0
 10
146.0194
 20
2.8471
 30
0.0
 10
146.0194
 20
2.8471
 30
0.0
 10
146.0194
 20
2.8471
 30
0.0
 10
146.0194
 20
2.8471
 30
0.0
 10
141.845
 20
7.0215
 30
0.0
 10
141.845
 20
7.0215
 30
0.0
 10
141.845
 20
7.0215
 30
0.0
 10
141.845
 20
7.0215
 30
0.0
 10
136.7131
 20
7.0215
 30
0.0
 10
136.7131
 20
7.0215
 30
0.0
 10
136.7131
 20
7.0215
 30
0.0
 10
136.7131
 20
7.0215
 30
0.0
 10
136.7131
 20
1.2037
 30
0.0
 10
136.7131
 20
1.2037
 30
0.0
  0
SPLINE
  5
D9
330
1F
100
AcDbEntity
  8
layer 1
 62
     7
100
AcDbSpline
210
0.0
220
0.0
230
1.0
 70
    11
 71
     3
 72
    24
 73
    20
 74
     0
 42
0.0000000001
 43
0.0000000001
 12
1.0
 22
0.0
 32
0.0
 13
1.0
 23
0.0
 33
0.0
 40
0.0
 40
0.0
 40
0.0
 40
0.0
 40
0.1666666666666667
 40
0.1666666666666667
 40
0.1666666666666667
 40
0.1666666666666667
 40
0.3333333333333333
 40
0.3333333333333333
 40
0.3333333333333333
 40
0.3333333333333333
 40
0.5
 40
0.5
 40
0.5
 40
0.5
 40
0.6666666666666666
 40
0.6666666666666666
 40
0.6666666666666666
 40
0.6666666666666666
 40
1.0
 40
1.0
 40
1.0
 40
1.0
 10
132.4744
 20
1.223
 30
0.0
 10
132.4744
 20
1.223
 30
0.0
 10
128.657
 20
-2.5944
 30
0.0
 10
128.657
 20
-2.5944
 30
0.0
 10
128.657
 20
-2.5944
 30
0.0
 10
128.657
 20
-2.5944
 30
0.0
 10
123.1681
 20
2.8664
 30
0.0
 10
123.1681
 20
2.8664
 30
0.0
 10
123.1681
 20
2.8664
 30
0.0
 10
123.1681
 20
2.8664
 30
0.0
 10
127.3425
 20
7.0408
 30
0.0
 10
127.3425
 20
7.0408
 30
0.0
 10
127.3425
 20
7.0408
 30
0.0
 10
127.3425
 20
7.0408
 30
0.0
 10
132.4744
 20
7.0408
 30
0.0
 10
132.4744
 20
7.0408
 30
0.0
 10
132.4744
 20
7.0408
 30
0.0
 10
132.4744
 20
7.0408
 30
0.0
 10
132.4744
 20
1.223
 30
0.0
 10
132.4744
 20
1.223
 30
0.0
  0
SPLINE
  5
DA
330
1F
100
AcDbEntity
  8
layer 1
 62
     7
100
AcDbSpline
210
0.0
220
0.0
230
1.0
 70
    11
 71
     3
 72
    24
 73
    20
 74
     0
 42
0.0000000001
 43
0.0000000001
 12
1.0
 22
0.0
 32
0.0
 13
1.0
 23
0.0
 33
0.0
 40
0.0
 40
0.0
 40
0.0
 40
0.0
 40
0.1666666666666667
 40
0.1666666666666667
 40
0.1666666666666667
 40
0.1666666666666667
 40
0.3333333333333333
 40
0.3333333333333333
 40
0.3333333333333333
 40
0.3333333333333333
 40
0.5
 40
0.5
 40
0.5
 40
0.5
 40
0.6666666666666666
 40
0.6666666666666666
 40
0.6666666666666666
 40
0.6666666666666666
 40
1.0
 40
1.0
 40
1.0
 40
1.0
 10
116.5291
 20
-72.9701
 30
0.0
 10
116.5291
 20
-72.9701
 30
0.0
 10
120.3465
 20
-69.1527
 30
0.0
 10
120.3465
 20
-69.1527
 30
0.0
 10
120.3465
 20
-69.1527
 30
0.0
 10
120.3465
 20
-69.1527
 30
0.0
 10
125.8354
 20
-74.6135
 30
0.0
 10
125.8354
 20
-74.6135
 30
0.0
 10
125.8354
 20
-74.6135
 30
0.0
 10
125.8354
 20
-74.6135
 30
0.0
 10
121.6609
 20
-78.7879
 30
0.0
 10
121.6609
 20
-78.7879
 30
0.0
 10
121.6609
 20
-78.7879
 30
0.0
 10
121.6609
 20
-78.7879
 30
0.0
 10
116.5291
 20
-78.7879
 30
0.0
 10
116.5291
 20
-78.7879
 30
0.0
 10
116.5291
 20
-78.7879
 30
0.0
 10
116.5291
 20
-78.7879
 30
0.0
 10
116.5291
 20
-72.9701
 30
0.0
 10
116.5291
 20
-72.9701
 30
0.0
  0
SPLINE
  5
DB
330
1F
100
AcDbEntity
  8
layer 1
 62
     7
100
AcDbSpline
210
0.0
220
0.0
230
1.0
 70
    11
 71
     3
 72
    24
 73
    20
 74
     0
 42
0.0000000001
 43
0.0000000001
 12
1.0
 22
0.0
 32
0.0
 13
1.0
 23
0.0
 33
0.0
 40
0.0
 40
0.0
 40
0.0
 40
0.0
 40
0.1666666666666667
 40
0.1666666666666667
 40
0.1666666666666667
 40
0.1666666666666667
 40
0.3333333333333333
 40
0.3333333333333333
 40
0.3333333333333333
 40
0.3333333333333333
 40
0.5
 40
0.5
 40
0.5
 40
0.5
 40
0.6666666666666666
 40
0.6666666666666666
 40
0.6666666666666666
 40
0.6666666666666666
 40
1.0
 40
1.0
 40
1.0
 40
1.0
 10
152.6317
 20
-72.9701
 30
0.0
 10
152.6317
 20
-72.9701
 30
0.0
 10
148.8143
 20
-69.1527
 30
0.0
 10
148.8143
 20
-69.1527
 30
0.0
 10
148.8143
 20
-69.1527
 30
0.0
 10
148.8143
 20
-69.1527
 30
0.0
 10
143.3254
 20
-74.6135
 30
0.0
 10
143.3254
 20
-74.6135
 30
0.0
 10
143.3254
 20
-74.6135
 30
0.0
 10
143.3254
 20
-74.6135
 30
0.0
 10
147.4998
 20
-78.7879
 30
0.0
 10
147.4998
 20
-78.7879
 30
0.0
 10
147.4998
 20
-78.7879
 30
0.0
 10
147.4998
 20
-78.7879
 30
0.0
 10
152.6317
 20
-78.7879
 30
0.0
 10
152.6317
 20
-78.7879
 30
0.0
 10
152.6317
 20
-78.7879
 30
0.0
 10
152.6317
 20
-78.7879
 30
0.0
 10
152.6317
 20
-72.9701
 30
0.0
 10
152.6317
 20
-72.9701
 30
0.0
  0
SPLINE
  5
DC
330
1F
100
AcDbEntity
  8
layer 1
 62
     7
100
AcDbSpline
210
0.0
220
0.0
230
1.0
 70
    11
 71
     3
 72
    24
 73
    20
 74
     0
 42
0.0000000001
 43
0.0000000001
 12
1.0
 22
0.0
 32
0.0
 13
1.0
 23
0.0
 33
0.0
 40
0.0
 40
0.0
 40
0.0
 40
0.0
 40
0.1666666666666667
 40
0.1666666666666667
 40
0.1666666666666667
 40
0.1666666666666667
 40
0.3333333333333333
 40
0.3333333333333333
 40
0.3333333333333333
 40
0.3333333333333333
 40
0.5
 40
0.5
 40
0.5
 40
0.5
 40
0.6666666666666666
 40
0.6666666666666666
 40
0.6666666666666666
 40
0.6666666666666666
 40
1.0
 40
1.0
 40
1.0
 40
1.0
 10
136.7131
 20
-67.9937
 30
0.0
 10
136.7131
 20
-67.9937
 30
0.0
 10
140.5305
 20
-71.8111
 30
0.0
 10
140.5305
 20
-71.8111
 30
0.0
 10
140.5305
 20
-71.8111
 30
0.0
 10
140.5305
 20
-71.8111
 30
0.0
 10
146.0194
 20
-66.3504
 30
0.0
 10
146.0194
 20
-66.3504
 30
0.0
 10
146.0194
 20
-66.3504
 30
0.0
 10
146.0194
 20
-66.3504
 30
0.0
 10
141.845
 20
-62.1759
 30
0.0
 10
141.845
 20
-62.1759
 30
0.0
 10
141.845
 20
-62.1759
 30
0.0
 10
141.845
 20
-62.1759
 30
0.0
 10
136.7131
 20
-62.1759
 30
0.0
 10
136.7131
 20
-62.1759
 30
0.0
 10
136.7131
 20
-62.1759
 30
0.0
 10
136.7131
 20
-62.1759
 30
0.0
 10
136.7131
 20
-67.9937
 30
0.0
 10
136.7131
 20
-67.9937
 30
0.0
  0
SPLINE
  5
DD
330
1F
100
AcDbEntity
  8
layer 1
 62
     7
100
AcDbSpline
210
0.0
220
0.0
230
1.0
 70
    11
 71
     3
 72
    24
 73
    20
 74
     0
 42
0.0000000001
 43
0.0000000001
 12
1.0
 22
0.0
 32
0.0
 13
1.0
 23
0.0
 33
0.0
 40
0.0
 40
0.0
 40
0.0
 40
0.0
 40
0.1666666666666667
 40
0.1666666666666667
 40
0.1666666666666667
 40
0.1666666666666667
 40
0.3333333333333333
 40
0.3333333333333333
 40
0.3333333333333333
 40
0.3333333333333333
 40
0.5
 40
0.5
 40
0.5
 40
0.5
 40
0.6666666666666666
 40
0.6666666666666666
 40
0.6666666666666666
 40
0.6666666666666666
 40
1.0
 40
1.0
 40
1.0
 40
1.0
 10
104.2051
 20
-53.2143
 30
0.0
 10
104.2051
 20
-53.2143
 30
0.0
 10
104.2051
 20
-58.613
 30
0.0
 10
104.2051
 20
-58.613
 30
0.0
 10
104.2051
 20
-58.613
 30
0.0
 10
104.2051
 20
-58.613
 30
0.0
 10
95.9718
 20
-58.6329
 30
0.0
 10
95.9718
 20
-58.6329
 30
0.0
 10
95.9718
 20
-58.6329
 30
0.0
 10
95.9718
 20
-58.6329
 30
0.0
 10
95.9173
 20
-53.2227
 30
0.0
 10
95.9173
 20
-53.2227
 30
0.0
 10
95.9173
 20
-53.2227
 30
0.0
 10
95.9173
 20
-53.2227
 30
0.0
 10
100.0913
 20
-49.1006
 30
0.0
 10
100.0913
 20
-49.1006
 30
0.0
 10
100.0913
 20
-49.1006
 30
0.0
 10
100.0913
 20
-49.1006
 30
0.0
 10
104.2051
 20
-53.2143
 30
0.0
 10
104.2051
 20
-53.2143
 30
0.0
  0
SPLINE
  5
DE
330
1F
100
AcDbEntity
  8
layer 1
 62
     7
100
AcDbSpline
210
0.0
220
0.0
230
1.0
 70
    11
 71
     3
 72
    24
 73
    20
 74
     0
 42
0.0000000001
 43
0.0000000001
 12
1.0
 22
0.0
 32
0.0
 13
1.0
 23
0.0
 33
0.0
 40
0.0
 40
0.0
 40
0.0
 40
0.0
 40
0.1666666666666667
 40
0.1666666666666667
 40
0.1666666666666667
 40
0.1666666666666667
 40
0.3333333333333333
 40
0.3333333333333333
 40
0.3333333333333333
 40
0.3333333333333333
 40
0.5
 40
0.5
 40
0.5
 40
0.5
 40
0.6666666666666666
 40
0.6666666666666666
 40
0.6666666666666666
 40
0.6666666666666666
 40
1.0
 40
1.0
 40
1.0
 40
1.0
 10
127.0741
 20
-29.8568
 30
0.0
 10
127.0741
 20
-29.8568
 30
0.0
 10
132.4729
 20
-29.8568
 30
0.0
 10
132.4729
 20
-29.8568
 30
0.0
 10
132.4729
 20
-29.8568
 30
0.0
 10
132.4729
 20
-29.8568
 30
0.0
 10
132.4927
 20
-22.1142
 30
0.0
 10
132.4927
 20
-22.1142
 30
0.0
 10
132.4927
 20
-22.1142
 30
0.0
 10
132.4927
 20
-22.1142
 30
0.0
 10
126.5892
 20
-22.1142
 30
0.0
 10
126.5892
 20
-22.1142
 30
0.0
 10
126.5892
 20
-22.1142
 30
0.0
 10
126.5892
 20
-22.1142
 30
0.0
 10
122.9604
 20
-25.743
 30
0.0
 10
122.9604
 20
-25.743
 30
0.0
 10
122.9604
 20
-25.743
 30
0.0
 10
122.9604
 20
-25.743
 30
0.0
 10
127.0741
 20
-29.8568
 30
0.0
 10
127.0741
 20
-29.8568
 30
0.0
  0
SPLINE
  5
DF
330
1F
100
AcDbEntity
  8
layer 1
 62
     7
100
AcDbSpline
210
0.0
220
0.0
230
1.0
 70
    11
 71
     3
 72
    24
 73
    20
 74
     0
 42
0.0000000001
 43
0.0000000001
 12
1.0
 22
0.0
 32
0.0
 13
1.0
 23
0.0
 33
0.0
 40
0.0
 40
0.0
 40
0.0
 40
0.0
 40
0.1666666666666667
 40
0.1666666666666667
 40
0.1666666666666667
 40
0.1666666666666667
 40
0.3333333333333333
 40
0.3333333333333333
 40
0.3333333333333333
 40
0.3333333333333333
 40
0.5
 40
0.5
 40
0.5
 40
0.5
 40
0.6666666666666666
 40
0.6666666666666666
 40
0.6666666666666666
 40
0.6666666666666666
 40
1.0
 40
1.0
 40
1.0
 40
1.0
 10
142.119
 20
-22.1142
 30
0.0
 10
142.119
 20
-22.1142
 30
0.0
 10
136.7202
 20
-22.1142
 30
0.0
 10
136.7202
 20
-22.1142
 30
0.0
 10
136.7202
 20
-22.1142
 30
0.0
 10
136.7202
 20
-22.1142
 30
0.0
 10
136.7004
 20
-29.8568
 30
0.0
 10
136.7004
 20
-29.8568
 30
0.0
 10
136.7004
 20
-29.8568
 30
0.0
 10
136.7004
 20
-29.8568
 30
0.0
 10
142.6039
 20
-29.8568
 30
0.0
 10
142.6039
 20
-29.8568
 30
0.0
 10
142.6039
 20
-29.8568
 30
0.0
 10
142.6039
 20
-29.8568
 30
0.0
 10
146.2326
 20
-26.228
 30
0.0
 10
146.2326
 20
-26.228
 30
0.0
 10
146.2326
 20
-26.228
 30
0.0
 10
146.2326
 20
-26.228
 30
0.0
 10
142.119
 20
-22.1142
 30
0.0
 10
142.119
 20
-22.1142
 30
0.0
  0
SPLINE
  5
E0
330
1F
100
AcDbEntity
  8
layer 1
 62
     7
100
AcDbSpline
210
0.0
220
0.0
230
1.0
 70
    11
 71
     3
 72
    24
 73
    20
 74
     0
 42
0.0000000001
 43
0.0000000001
 12
1.0
 22
0.0
 32
0.0
 13
1.0
 23
0.0
 33
0.0
 40
0.0
 40
0.0
 40
0.0
 40
0.0
 40
0.1666666666666667
 40
0.1666666666666667
 40
0.1666666666666667
 40
0.1666666666666667
 40
0.3333333333333333
 40
0.3333333333333333
 40
0.3333333333333333
 40
0.3333333333333333
 40
0.5
 40
0.5
 40
0.5
 40
0.5
 40
0.6666666666666666
 40
0.6666666666666666
 40
0.6666666666666666
 40
0.6666666666666666
 40
1.0
 40
1.0
 40
1.0
 40
1.0
 10
127.0741
 20
-98.766
 30
0.0
 10
127.0741
 20
-98.766
 30
0.0
 10
132.4729
 20
-98.766
 30
0.0
 10
132.4729
 20
-98.766
 30
0.0
 10
132.4729
 20
-98.766
 30
0.0
 10
132.4729
 20
-98.766
 30
0.0
 10
132.4927
 20
-91.0234
 30
0.0
 10
132.4927
 20
-91.0234
 30
0.0
 10
132.4927
 20
-91.0234
 30
0.0
 10
132.4927
 20
-91.0234
 30
0.0
 10
126.5892
 20
-91.0234
 30
0.0
 10
126.5892
 20
-91.0234
 30
0.0
 10
126.5892
 20
-91.0234
 30
0.0
 10
126.5892
 20
-91.0234
 30
0.0
 10
122.9604
 20
-94.6522
 30
0.0
 10
122.9604
 20
-94.6522
 30
0.0
 10
122.9604
 20
-94.6522
 30
0.0
 10
122.9604
 20
-94.6522
 30
0.0
 10
127.0741
 20
-98.766
 30
0.0
 10
127.0741
 20
-98.766
 30
0.0
  0
SPLINE
  5
E1
330
1F
100
AcDbEntity
  8
layer 1
 62
     7
100
AcDbSpline
210
0.0
220
0.0
230
1.0
 70
    11
 71
     3
 72
    24
 73
    20
 74
     0
 42
0.0000000001
 43
0.0000000001
 12
1.0
 22
0.0
 32
0.0
 13
1.0
 23
0.0
 33
0.0
 40
0.0
 40
0.0
 40
0.0
 40
0.0
 40
0.1666666666666667
 40
0.1666666666666667
 40
0.1666666666666667
 40
0.1666666666666667
 40
0.3333333333333333
 40
0.3333333333333333
 40
0.3333333333333333
 40
0.3333333333333333
 40
0.5
 40
0.5
 40
0.5
 40
0.5
 40
0.6666666666666666
 40
0.6666666666666666
 40
0.6666666666666666
 40
0.6666666666666666
 40
1.0
 40
1.0
 40
1.0
 40
1.0
 10
142.119
 20
-91.0234
 30
0.0
 10
142.119
 20
-91.0234
 30
0.0
 10
136.7202
 20
-91.0234
 30
0.0
 10
136.7202
 20
-91.0234
 30
0.0
 10
136.7202
 20
-91.0234
 30
0.0
 10
136.7202
 20
-91.0234
 30
0.0
 10
136.7004
 20
-98.766
 30
0.0
 10
136.7004
 20
-98.766
 30
0.0
 10
136.7004
 20
-98.766
 30
0.0
 10
136.7004
 20
-98.766
 30
0.0
 10
142.6039
 20
-98.766
 30
0.0
 10
142.6039
 20
-98.766
 30
0.0
 10
142.6039
 20
-98.766
 30
0.0
 10
142.6039
 20
-98.766
 30
0.0
 10
146.2326
 20
-95.1372
 30
0.0
 10
146.2326
 20
-95.1372
 30
0.0
 10
146.2326
 20
-95.1372
 30
0.0
 10
146.2326
 20
-95.1372
 30
0.0
 10
142.119
 20
-91.0234
 30
0.0
 10
142.119
 20
-91.0234
 30
0.0
  0
SPLINE
  5
E2
330
1F
100
AcDbEntity
  8
layer 1
 62
     7
100
AcDbSpline
210
0.0
220
0.0
230
1.0
 70
    11
 71
     3
 72
    24
 73
    20
 74
     0
 42
0.0000000001
 43
0.0000000001
 12
1.0
 22
0.0
 32
0.0
 13
1.0
 23
0.0
 33
0.0
 40
0.0
 40
0.0
 40
0.0
 40
0.0
 40
0.1666666666666667
 40
0.1666666666666667
 40
0.1666666666666667
 40
0.1666666666666667
 40
0.3333333333333333
 40
0.3333333333333333
 40
0.3333333333333333
 40
0.3333333333333333
 40
0.5
 40
0.5
 40
0.5
 40
0.5
 40
0.6666666666666666
 40
0.6666666666666666
 40
0.6666666666666666
 40
0.6666666666666666
 40
1.0
 40
1.0
 40
1.0
 40
1.0
 10
116.5291
 20
-47.9527
 30
0.0
 10
116.5291
 20
-47.9527
 30
0.0
 10
120.3465
 20
-51.7701
 30
0.0
 10
120.3465
 20
-51.7701
 30
0.0
 10
120.3465
 20
-51.7701
 30
0.0
 10
120.3465
 20
-51.7701
 30
0.0
 10
125.8354
 20
-46.3093
 30
0.0
 10
125.8354
 20
-46.3093
 30
0.0
 10
125.8354
 20
-46.3093
 30
0.0
 10
125.8354
 20
-46.3093
 30
0.0
 10
121.6609
 20
-42.1349
 30
0.0
 10
121.6609
 20
-42.1349
 30
0.0
 10
121.6609
 20
-42.1349
 30
0.0
 10
121.6609
 20
-42.1349
 30
0.0
 10
116.5291
 20
-42.1349
 30
0.0
 10
116.5291
 20
-42.1349
 30
0.0
 10
116.5291
 20
-42.1349
 30
0.0
 10
116.5291
 20
-42.1349
 30
0.0
 10
116.5291
 20
-47.9527
 30
0.0
 10
116.5291
 20
-47.9527
 30
0.0
  0
SPLINE
  5
E3
330
1F
100
AcDbEntity
  8
layer 1
 62
     7
100
AcDbSpline
210
0.0
220
0.0
230
1.0
 70
    11
 71
     3
 72
    24
 73
    20
 74
     0
 42
0.0000000001
 43
0.0000000001
 12
1.0
 22
0.0
 32
0.0
 13
1.0
 23
0.0
 33
0.0
 40
0.0
 40
0.0
 40
0.0
 40
0.0
 40
0.1666666666666667
 40
0.1666666666666667
 40
0.1666666666666667
 40
0.1666666666666667
 40
0.3333333333333333
 40
0.3333333333333333
 40
0.3333333333333333
 40
0.3333333333333333
 40
0.5
 40
0.5
 40
0.5
 40
0.5
 40
0.6666666666666666
 40
0.6666666666666666
 40
0.6666666666666666
 40
0.6666666666666666
 40
1.0
 40
1.0
 40
1.0
 40
1.0
 10
152.6317
 20
-47.9527
 30
0.0
 10
152.6317
 20
-47.9527
 30
0.0
 10
148.8143
 20
-51.7701
 30
0.0
 10
148.8143
 20
-51.7701
 30
0.0
 10
148.8143
 20
-51.7701
 30
0.0
 10
148.8143
 20
-51.7701
 30
0.0
 10
143.3254
 20
-46.3093
 30
0.0
 10
143.3254
 20
-46.3093
 30
0.0
 10
143.3254
 20
-46.3093
 30
0.0
 10
143.3254
 20
-46.3093
 30
0.0
 10
147.4998
 20
-42.1349
 30
0.0
 10
147.4998
 20
-42.1349
 30
0.0
 10
147.4998
 20
-42.1349
 30
0.0
 10
147.4998
 20
-42.1349
 30
0.0
 10
152.6317
 20
-42.1349
 30
0.0
 10
152.6317
 20
-42.1349
 30
0.0
 10
152.6317
 20
-42.1349
 30
0.0
 10
152.6317
 20
-42.1349
 30
0.0
 10
152.6317
 20
-47.9527
 30
0.0
 10
152.6317
 20
-47.9527
 30
0.0
  0
SPLINE
  5
E4
330
1F
100
AcDbEntity
  8
layer 1
 62
     7
100
AcDbSpline
210
0.0
220
0.0
230
1.0
 70
    11
 71
     3
 72
    24
 73
    20
 74
     0
 42
0.0000000001
 43
0.0000000001
 12
1.0
 22
0.0
 32
0.0
 13
1.0
 23
0.0
 33
0.0
 40
0.0
 40
0.0
 40
0.0
 40
0.0
 40
0.1666666666666667
 40
0.1666666666666667
 40
0.1666666666666667
 40
0.1666666666666667
 40
0.3333333333333333
 40
0.3333333333333333
 40
0.3333333333333333
 40
0.3333333333333333
 40
0.5
 40
0.5
 40
0.5
 40
0.5
 40
0.6666666666666666
 40
0.6666666666666666
 40
0.6666666666666666
 40
0.6666666666666666
 40
1.0
 40
1.0
 40
1.0
 40
1.0
 10
136.7131
 20
-52.9289
 30
0.0
 10
136.7131
 20
-52.9289
 30
0.0
 10
140.5305
 20
-49.1115
 30
0.0
 10
140.5305
 20
-49.1115
 30
0.0
 10
140.5305
 20
-49.1115
 30
0.0
 10
140.5305
 20
-49.1115
 30
0.0
 10
146.0194
 20
-54.5723
 30
0.0
 10
146.0194
 20
-54.5723
 30
0.0
 10
146.0194
 20
-54.5723
 30
0.0
 10
146.0194
 20
-54.5723
 30
0.0
 10
141.845
 20
-58.7467
 30
0.0
 10
141.845
 20
-58.7467
 30
0.0
 10
141.845
 20
-58.7467
 30
0.0
 10
141.845
 20
-58.7467
 30
0.0
 10
136.7131
 20
-58.7467
 30
0.0
 10
136.7131
 20
-58.7467
 30
0.0
 10
136.7131
 20
-58.7467
 30
0.0
 10
136.7131
 20
-58.7467
 30
0.0
 10
136.7131
 20
-52.9289
 30
0.0
 10
136.7131
 20
-52.9289
 30
0.0
  0
SPLINE
  5
E5
330
1F
100
AcDbEntity
  8
layer 1
 62
     7
100
AcDbSpline
210
0.0
220
0.0
230
1.0
 70
    11
 71
     3
 72
    24
 73
    20
 74
     0
 42
0.0000000001
 43
0.0000000001
 12
1.0
 22
0.0
 32
0.0
 13
1.0
 23
0.0
 33
0.0
 40
0.0
 40
0.0
 40
0.0
 40
0.0
 40
0.1666666666666667
 40
0.1666666666666667
 40
0.1666666666666667
 40
0.1666666666666667
 40
0.3333333333333333
 40
0.3333333333333333
 40
0.3333333333333333
 40
0.3333333333333333
 40
0.5
 40
0.5
 40
0.5
 40
0.5
 40
0.6666666666666666
 40
0.6666666666666666
 40
0.6666666666666666
 40
0.6666666666666666
 40
1.0
 40
1.0
 40
1.0
 40
1.0
 10
132.4744
 20
-52.9483
 30
0.0
 10
132.4744
 20
-52.9483
 30
0.0
 10
128.657
 20
-49.1309
 30
0.0
 10
128.657
 20
-49.1309
 30
0.0
 10
128.657
 20
-49.1309
 30
0.0
 10
128.657
 20
-49.1309
 30
0.0
 10
123.1681
 20
-54.5916
 30
0.0
 10
123.1681
 20
-54.5916
 30
0.0
 10
123.1681
 20
-54.5916
 30
0.0
 10
123.1681
 20
-54.5916
 30
0.0
 10
127.3425
 20
-58.766
 30
0.0
 10
127.3425
 20
-58.766
 30
0.0
 10
127.3425
 20
-58.766
 30
0.0
 10
127.3425
 20
-58.766
 30
0.0
 10
132.4744
 20
-58.766
 30
0.0
 10
132.4744
 20
-58.766
 30
0.0
 10
132.4744
 20
-58.766
 30
0.0
 10
132.4744
 20
-58.766
 30
0.0
 10
132.4744
 20
-52.9483
 30
0.0
 10
132.4744
 20
-52.9483
 30
0.0
  0
SPLINE
  5
E6
330
1F
100
AcDbEntity
  8
layer 1
 62
     7
100
AcDbSpline
210
0.0
220
0.0
230
1.0
 70
    11
 71
     3
 72
    24
 73
    20
 74
     0
 42
0.0000000001
 43
0.0000000001
 12
1.0
 22
0.0
 32
0.0
 13
1.0
 23
0.0
 33
0.0
 40
0.0
 40
0.0
 40
0.0
 40
0.0
 40
0.1666666666666667
 40
0.1666666666666667
 40
0.1666666666666667
 40
0.1666666666666667
 40
0.3333333333333333
 40
0.3333333333333333
 40
0.3333333333333333
 40
0.3333333333333333
 40
0.5
 40
0.5
 40
0.5
 40
0.5
 40
0.6666666666666666
 40
0.6666666666666666
 40
0.6666666666666666
 40
0.6666666666666666
 40
1.0
 40
1.0
 40
1.0
 40
1.0
 10
127.0741
 20
-98.766
 30
0.0
 10
127.0741
 20
-98.766
 30
0.0
 10
132.4729
 20
-98.766
 30
0.0
 10
132.4729
 20
-98.766
 30
0.0
 10
132.4729
 20
-98.766
 30
0.0
 10
132.4729
 20
-98.766
 30
0.0
 10
132.4927
 20
-91.0234
 30
0.0
 10
132.4927
 20
-91.0234
 30
0.0
 10
132.4927
 20
-91.0234
 30
0.0
 10
132.4927
 20
-91.0234
 30
0.0
 10
126.5892
 20
-91.0234
 30
0.0
 10
126.5892
 20
-91.0234
 30
0.0
 10
126.5892
 20
-91.0234
 30
0.0
 10
126.5892
 20
-91.0234
 30
0.0
 10
122.9604
 20
-94.6522
 30
0.0
 10
122.9604
 20
-94.6522
 30
0.0
 10
122.9604
 20
-94.6522
 30
0.0
 10
122.9604
 20
-94.6522
 30
0.0
 10
127.0741
 20
-98.766
 30
0.0
 10
127.0741
 20
-98.766
 30
0.0
  0
SPLINE
  5
E7
330
1F
100
AcDbEntity
  8
layer 1
 62
     7
100
AcDbSpline
210
0.0
220
0.0
230
1.0
 70
    11
 71
     3
 72
    24
 73
    20
 74
     0
 42
0.0000000001
 43
0.0000000001
 12
1.0
 22
0.0
 32
0.0
 13
1.0
 23
0.0
 33
0.0
 40
0.0
 40
0.0
 40
0.0
 40
0.0
 40
0.1666666666666667
 40
0.1666666666666667
 40
0.1666666666666667
 40
0.1666666666666667
 40
0.3333333333333333
 40
0.3333333333333333
 40
0.3333333333333333
 40
0.3333333333333333
 40
0.5
 40
0.5
 40
0.5
 40
0.5
 40
0.6666666666666666
 40
0.6666666666666666
 40
0.6666666666666666
 40
0.6666666666666666
 40
1.0
 40
1.0
 40
1.0
 40
1.0
 10
142.119
 20
-91.0234
 30
0.0
 10
142.119
 20
-91.0234
 30
0.0
 10
136.7202
 20
-91.0234
 30
0.0
 10
136.7202
 20
-91.0234
 30
0.0
 10
136.7202
 20
-91.0234
 30
0.0
 10
136.7202
 20
-91.0234
 30
0.0
 10
136.7004
 20
-98.766
 30
0.0
 10
136.7004
 20
-98.766
 30
0.0
 10
136.7004
 20
-98.766
 30
0.0
 10
136.7004
 20
-98.766
 30
0.0
 10
142.6039
 20
-98.766
 30
0.0
 10
142.6039
 20
-98.766
 30
0.0
 10
142.6039
 20
-98.766
 30
0.0
 10
142.6039
 20
-98.766
 30
0.0
 10
146.2326
 20
-95.1372
 30
0.0
 10
146.2326
 20
-95.1372
 30
0.0
 10
146.2326
 20
-95.1372
 30
0.0
 10
146.2326
 20
-95.1372
 30
0.0
 10
142.119
 20
-91.0234
 30
0.0
 10
142.119
 20
-91.0234
 30
0.0
  0
SPLINE
  5
E8
330
1F
100
AcDbEntity
  8
layer 1
 62
     7
100
AcDbSpline
210
0.0
220
0.0
230
1.0
 70
    11
 71
     3
 72
    24
 73
    20
 74
     0
 42
0.0000000001
 43
0.0000000001
 12
1.0
 22
0.0
 32
0.0
 13
1.0
 23
0.0
 33
0.0
 40
0.0
 40
0.0
 40
0.0
 40
0.0
 40
0.1666666666666667
 40
0.1666666666666667
 40
0.1666666666666667
 40
0.1666666666666667
 40
0.3333333333333333
 40
0.3333333333333333
 40
0.3333333333333333
 40
0.3333333333333333
 40
0.5
 40
0.5
 40
0.5
 40
0.5
 40
0.6666666666666666
 40
0.6666666666666666
 40
0.6666666666666666
 40
0.6666666666666666
 40
1.0
 40
1.0
 40
1.0
 40
1.0
 10
104.2051
 20
-67.7678
 30
0.0
 10
104.2051
 20
-67.7678
 30
0.0
 10
104.2051
 20
-62.369
 30
0.0
 10
104.2051
 20
-62.369
 30
0.0
 10
104.2051
 20
-62.369
 30
0.0
 10
104.2051
 20
-62.369
 30
0.0
 10
95.9718
 20
-62.3492
 30
0.0
 10
95.9718
 20
-62.3492
 30
0.0
 10
95.9718
 20
-62.3492
 30
0.0
 10
95.9718
 20
-62.3492
 30
0.0
 10
95.9173
 20
-67.7594
 30
0.0
 10
95.9173
 20
-67.7594
 30
0.0
 10
95.9173
 20
-67.7594
 30
0.0
 10
95.9173
 20
-67.7594
 30
0.0
 10
100.0913
 20
-71.8815
 30
0.0
 10
100.0913
 20
-71.8815
 30
0.0
 10
100.0913
 20
-71.8815
 30
0.0
 10
100.0913
 20
-71.8815
 30
0.0
 10
104.2051
 20
-67.7678
 30
0.0
 10
104.2051
 20
-67.7678
 30
0.0
  0
SPLINE
  5
E9
330
1F
100
AcDbEntity
  8
layer 1
 62
     7
100
AcDbSpline
210
0.0
220
0.0
230
1.0
 70
    11
 71
     3
 72
    24
 73
    20
 74
     0
 42
0.0000000001
 43
0.0000000001
 12
1.0
 22
0.0
 32
0.0
 13
1.0
 23
0.0
 33
0.0
 40
0.0
 40
0.0
 40
0.0
 40
0.0
 40
0.1666666666666667
 40
0.1666666666666667
 40
0.1666666666666667
 40
0.1666666666666667
 40
0.3333333333333333
 40
0.3333333333333333
 40
0.3333333333333333
 40
0.3333333333333333
 40
0.5
 40
0.5
 40
0.5
 40
0.5
 40
0.6666666666666666
 40
0.6666666666666666
 40
0.6666666666666666
 40
0.6666666666666666
 40
1.0
 40
1.0
 40
1.0
 40
1.0
 10
132.4744
 20
-68.0564
 30
0.0
 10
132.4744
 20
-68.0564
 30
0.0
 10
128.657
 20
-71.8738
 30
0.0
 10
128.657
 20
-71.8738
 30
0.0
 10
128.657
 20
-71.8738
 30
0.0
 10
128.657
 20
-71.8738
 30
0.0
 10
123.1681
 20
-66.4131
 30
0.0
 10
123.1681
 20
-66.4131
 30
0.0
 10
123.1681
 20
-66.4131
 30
0.0
 10
123.1681
 20
-66.4131
 30
0.0
 10
127.3425
 20
-62.2386
 30
0.0
 10
127.3425
 20
-62.2386
 30
0.0
 10
127.3425
 20
-62.2386
 30
0.0
 10
127.3425
 20
-62.2386
 30
0.0
 10
132.4744
 20
-62.2386
 30
0.0
 10
132.4744
 20
-62.2386
 30
0.0
 10
132.4744
 20
-62.2386
 30
0.0
 10
132.4744
 20
-62.2386
 30
0.0
 10
132.4744
 20
-68.0564
 30
0.0
 10
132.4744
 20
-68.0564
 30
0.0
  0
SPLINE
  5
EA
330
1F
100
AcDbEntity
  8
layer 1
 62
     7
100
AcDbSpline
210
0.0
220
0.0
230
1.0
 70
    11
 71
     3
 72
    24
 73
    20
 74
     0
 42
0.0000000001
 43
0.0000000001
 12
1.0
 22
0.0
 32
0.0
 13
1.0
 23
0.0
 33
0.0
 40
0.0
 40
0.0
 40
0.0
 40
0.0
 40
0.1666666666666667
 40
0.1666666666666667
 40
0.1666666666666667
 40
0.1666666666666667
 40
0.3333333333333333
 40
0.3333333333333333
 40
0.3333333333333333
 40
0.3333333333333333
 40
0.5
 40
0.5
 40
0.5
 40
0.5
 40
0.6666666666666666
 40
0.6666666666666666
 40
0.6666666666666666
 40
0.6666666666666666
 40
1.0
 40
1.0
 40
1.0
 40
1.0
 10
173.4455
 20
-53.2143
 30
0.0
 10
173.4455
 20
-53.2143
 30
0.0
 10
173.4455
 20
-58.613
 30
0.0
 10
173.4455
 20
-58.613
 30
0.0
 10
173.4455
 20
-58.613
 30
0.0
 10
173.4455
 20
-58.613
 30
0.0
 10
165.2122
 20
-58.6329
 30
0.0
 10
165.2122
 20
-58.6329
 30
0.0
 10
165.2122
 20
-58.6329
 30
0.0
 10
165.2122
 20
-58.6329
 30
0.0
 10
165.1577
 20
-53.2227
 30
0.0
 10
165.1577
 20
-53.2227
 30
0.0
 10
165.1577
 20
-53.2227
 30
0.0
 10
165.1577
 20
-53.2227
 30
0.0
 10
169.3317
 20
-49.1006
 30
0.0
 10
169.3317
 20
-49.1006
 30
0.0
 10
169.3317
 20
-49.1006
 30
0.0
 10
169.3317
 20
-49.1006
 30
0.0
 10
173.4455
 20
-53.2143
 30
0.0
 10
173.4455
 20
-53.2143
 30
0.0
  0
SPLINE
  5
EB
330
1F
100
AcDbEntity
  8
layer 1
 62
     7
100
AcDbSpline
210
0.0
220
0.0
230
1.0
 70
    11
 71
     3
 72
    24
 73
    20
 74
     0
 42
0.0000000001
 43
0.0000000001
 12
1.0
 22
0.0
 32
0.0
 13
1.0
 23
0.0
 33
0.0
 40
0.0
 40
0.0
 40
0.0
 40
0.0
 40
0.1666666666666667
 40
0.1666666666666667
 40
0.1666666666666667
 40
0.1666666666666667
 40
0.3333333333333333
 40
0.3333333333333333
 40
0.3333333333333333
 40
0.3333333333333333
 40
0.5
 40
0.5
 40
0.5
 40
0.5
 40
0.6666666666666666
 40
0.6666666666666666
 40
0.6666666666666666
 40
0.6666666666666666
 40
1.0
 40
1.0
 40
1.0
 40
1.0
 10
173.4455
 20
-67.7678
 30
0.0
 10
173.4455
 20
-67.7678
 30
0.0
 10
173.4455
 20
-62.369
 30
0.0
 10
173.4455
 20
-62.369
 30
0.0
 10
173.4455
 20
-62.369
 30
0.0
 10
173.4455
 20
-62.369
 30
0.0
 10
165.2122
 20
-62.3492
 30
0.0
 10
165.2122
 20
-62.3492
 30
0.0
 10
165.2122
 20
-62.3492
 30
0.0
 10
165.2122
 20
-62.3492
 30
0.0
 10
165.1577
 20
-67.7594
 30
0.0
 10
165.1577
 20
-67.7594
 30
0.0
 10
165.1577
 20
-67.7594
 30
0.0
 10
165.1577
 20
-67.7594
 30
0.0
 10
169.3317
 20
-71.8815
 30
0.0
 10
169.3317
 20
-71.8815
 30
0.0
 10
169.3317
 20
-71.8815
 30
0.0
 10
169.3317
 20
-71.8815
 30
0.0
 10
173.4455
 20
-67.7678
 30
0.0
 10
173.4455
 20
-67.7678
 30
0.0
  0
SPLINE
  5
EC
330
1F
100
AcDbEntity
  8
layer 1
 62
     7
100
AcDbSpline
210
0.0
220
0.0
230
1.0
 70
    11
 71
     3
 72
    24
 73
    20
 74
     0
 42
0.0000000001
 43
0.0000000001
 12
1.0
 22
0.0
 32
0.0
 13
1.0
 23
0.0
 33
0.0
 40
0.0
 40
0.0
 40
0.0
 40
0.0
 40
0.1666666666666667
 40
0.1666666666666667
 40
0.1666666666666667
 40
0.1666666666666667
 40
0.3333333333333333
 40
0.3333333333333333
 40
0.3333333333333333
 40
0.3333333333333333
 40
0.5
 40
0.5
 40
0.5
 40
0.5
 40
0.6666666666666666
 40
0.6666666666666666
 40
0.6666666666666666
 40
0.6666666666666666
 40
1.0
 40
1.0
 40
1.0
 40
1.0
 10
104.2051
 20
15.8718
 30
0.0
 10
104.2051
 20
15.8718
 30
0.0
 10
104.2051
 20
10.4731
 30
0.0
 10
104.2051
 20
10.4731
 30
0.0
 10
104.2051
 20
10.4731
 30
0.0
 10
104.2051
 20
10.4731
 30
0.0
 10
95.9718
 20
10.4532
 30
0.0
 10
95.9718
 20
10.4532
 30
0.0
 10
95.9718
 20
10.4532
 30
0.0
 10
95.9718
 20
10.4532
 30
0.0
 10
95.9173
 20
15.8634
 30
0.0
 10
95.9173
 20
15.8634
 30
0.0
 10
95.9173
 20
15.8634
 30
0.0
 10
95.9173
 20
15.8634
 30
0.0
 10
100.0913
 20
19.9855
 30
0.0
 10
100.0913
 20
19.9855
 30
0.0
 10
100.0913
 20
19.9855
 30
0.0
 10
100.0913
 20
19.9855
 30
0.0
 10
104.2051
 20
15.8718
 30
0.0
 10
104.2051
 20
15.8718
 30
0.0
  0
SPLINE
  5
ED
330
1F
100
AcDbEntity
  8
layer 1
 62
     7
100
AcDbSpline
210
0.0
220
0.0
230
1.0
 70
    11
 71
     3
 72
    24
 73
    20
 74
     0
 42
0.0000000001
 43
0.0000000001
 12
1.0
 22
0.0
 32
0.0
 13
1.0
 23
0.0
 33
0.0
 40
0.0
 40
0.0
 40
0.0
 40
0.0
 40
0.1666666666666667
 40
0.1666666666666667
 40
0.1666666666666667
 40
0.1666666666666667
 40
0.3333333333333333
 40
0.3333333333333333
 40
0.3333333333333333
 40
0.3333333333333333
 40
0.5
 40
0.5
 40
0.5
 40
0.5
 40
0.6666666666666666
 40
0.6666666666666666
 40
0.6666666666666666
 40
0.6666666666666666
 40
1.0
 40
1.0
 40
1.0
 40
1.0
 10
104.2051
 20
1.3183
 30
0.0
 10
104.2051
 20
1.3183
 30
0.0
 10
104.2051
 20
6.7171
 30
0.0
 10
104.2051
 20
6.7171
 30
0.0
 10
104.2051
 20
6.7171
 30
0.0
 10
104.2051
 20
6.7171
 30
0.0
 10
95.9718
 20
6.7369
 30
0.0
 10
95.9718
 20
6.7369
 30
0.0
 10
95.9718
 20
6.7369
 30
0.0
 10
95.9718
 20
6.7369
 30
0.0
 10
95.9173
 20
1.3267
 30
0.0
 10
95.9173
 20
1.3267
 30
0.0
 10
95.9173
 20
1.3267
 30
0.0
 10
95.9173
 20
1.3267
 30
0.0
 10
100.0913
 20
-2.7953
 30
0.0
 10
100.0913
 20
-2.7953
 30
0.0
 10
100.0913
 20
-2.7953
 30
0.0
 10
100.0913
 20
-2.7953
 30
0.0
 10
104.2051
 20
1.3183
 30
0.0
 10
104.2051
 20
1.3183
 30
0.0
  0
SPLINE
  5
EE
330
1F
100
AcDbEntity
  8
layer 1
 62
     7
100
AcDbSpline
210
0.0
220
0.0
230
1.0
 70
    11
 71
     3
 72
    24
 73
    20
 74
     0
 42
0.0000000001
 43
0.0000000001
 12
1.0
 22
0.0
 32
0.0
 13
1.0
 23
0.0
 33
0.0
 40
0.0
 40
0.0
 40
0.0
 40
0.0
 40
0.1666666666666667
 40
0.1666666666666667
 40
0.1666666666666667
 40
0.1666666666666667
 40
0.3333333333333333
 40
0.3333333333333333
 40
0.3333333333333333
 40
0.3333333333333333
 40
0.5
 40
0.5
 40
0.5
 40
0.5
 40
0.6666666666666666
 40
0.6666666666666666
 40
0.6666666666666666
 40
0.6666666666666666
 40
1.0
 40
1.0
 40
1.0
 40
1.0
 10
173.4455
 20
15.8718
 30
0.0
 10
173.4455
 20
15.8718
 30
0.0
 10
173.4455
 20
10.4731
 30
0.0
 10
173.4455
 20
10.4731
 30
0.0
 10
173.4455
 20
10.4731
 30
0.0
 10
173.4455
 20
10.4731
 30
0.0
 10
165.2122
 20
10.4532
 30
0.0
 10
165.2122
 20
10.4532
 30
0.0
 10
165.2122
 20
10.4532
 30
0.0
 10
165.2122
 20
10.4532
 30
0.0
 10
165.1577
 20
15.8634
 30
0.0
 10
165.1577
 20
15.8634
 30
0.0
 10
165.1577
 20
15.8634
 30
0.0
 10
165.1577
 20
15.8634
 30
0.0
 10
169.3317
 20
19.9855
 30
0.0
 10
169.3317
 20
19.9855
 30
0.0
 10
169.3317
 20
19.9855
 30
0.0
 10
169.3317
 20
19.9855
 30
0.0
 10
173.4455
 20
15.8718
 30
0.0
 10
173.4455
 20
15.8718
 30
0.0
  0
SPLINE
  5
EF
330
1F
100
AcDbEntity
  8
layer 1
 62
     7
100
AcDbSpline
210
0.0
220
0.0
230
1.0
 70
    11
 71
     3
 72
    24
 73
    20
 74
     0
 42
0.0000000001
 43
0.0000000001
 12
1.0
 22
0.0
 32
0.0
 13
1.0
 23
0.0
 33
0.0
 40
0.0
 40
0.0
 40
0.0
 40
0.0
 40
0.1666666666666667
 40
0.1666666666666667
 40
0.1666666666666667
 40
0.1666666666666667
 40
0.3333333333333333
 40
0.3333333333333333
 40
0.3333333333333333
 40
0.3333333333333333
 40
0.5
 40
0.5
 40
0.5
 40
0.5
 40
0.6666666666666666
 40
0.6666666666666666
 40
0.6666666666666666
 40
0.6666666666666666
 40
1.0
 40
1.0
 40
1.0
 40
1.0
 10
173.4455
 20
1.3183
 30
0.0
 10
173.4455
 20
1.3183
 30
0.0
 10
173.4455
 20
6.7171
 30
0.0
 10
173.4455
 20
6.7171
 30
0.0
 10
173.4455
 20
6.7171
 30
0.0
 10
173.4455
 20
6.7171
 30
0.0
 10
165.2122
 20
6.7369
 30
0.0
 10
165.2122
 20
6.7369
 30
0.0
 10
165.2122
 20
6.7369
 30
0.0
 10
165.2122
 20
6.7369
 30
0.0
 10
165.1577
 20
1.3267
 30
0.0
 10
165.1577
 20
1.3267
 30
0.0
 10
165.1577
 20
1.3267
 30
0.0
 10
165.1577
 20
1.3267
 30
0.0
 10
169.3317
 20
-2.7953
 30
0.0
 10
169.3317
 20
-2.7953
 30
0.0
 10
169.3317
 20
-2.7953
 30
0.0
 10
169.3317
 20
-2.7953
 30
0.0
 10
173.4455
 20
1.3183
 30
0.0
 10
173.4455
 20
1.3183
 30
0.0
  0
SPLINE
  5
F0
330
1F
100
AcDbEntity
  8
layer 1
 62
     7
100
AcDbSpline
210
0.0
220
0.0
230
1.0
 70
    11
 71
     3
 72
    24
 73
    20
 74
     0
 42
0.0000000001
 43
0.0000000001
 12
1.0
 22
0.0
 32
0.0
 13
1.0
 23
0.0
 33
0.0
 40
0.0
 40
0.0
 40
0.0
 40
0.0
 40
0.1666666666666667
 40
0.1666666666666667
 40
0.1666666666666667
 40
0.1666666666666667
 40
0.3333333333333333
 40
0.3333333333333333
 40
0.3333333333333333
 40
0.3333333333333333
 40
0.5
 40
0.5
 40
0.5
 40
0.5
 40
0.6666666666666666
 40
0.6666666666666666
 40
0.6666666666666666
 40
0.6666666666666666
 40
1.0
 40
1.0
 40
1.0
 40
1.0
 10
104.2051
 20
85.1121
 30
0.0
 10
104.2051
 20
85.1121
 30
0.0
 10
104.2051
 20
79.7134
 30
0.0
 10
104.2051
 20
79.7134
 30
0.0
 10
104.2051
 20
79.7134
 30
0.0
 10
104.2051
 20
79.7134
 30
0.0
 10
95.9718
 20
79.6935
 30
0.0
 10
95.9718
 20
79.6935
 30
0.0
 10
95.9718
 20
79.6935
 30
0.0
 10
95.9718
 20
79.6935
 30
0.0
 10
95.9173
 20
85.1037
 30
0.0
 10
95.9173
 20
85.1037
 30
0.0
 10
95.9173
 20
85.1037
 30
0.0
 10
95.9173
 20
85.1037
 30
0.0
 10
100.0913
 20
89.2258
 30
0.0
 10
100.0913
 20
89.2258
 30
0.0
 10
100.0913
 20
89.2258
 30
0.0
 10
100.0913
 20
89.2258
 30
0.0
 10
104.2051
 20
85.1121
 30
0.0
 10
104.2051
 20
85.1121
 30
0.0
  0
SPLINE
  5
F1
330
1F
100
AcDbEntity
  8
layer 1
 62
     7
100
AcDbSpline
210
0.0
220
0.0
230
1.0
 70
    11
 71
     3
 72
    24
 73
    20
 74
     0
 42
0.0000000001
 43
0.0000000001
 12
1.0
 22
0.0
 32
0.0
 13
1.0
 23
0.0
 33
0.0
 40
0.0
 40
0.0
 40
0.0
 40
0.0
 40
0.1666666666666667
 40
0.1666666666666667
 40
0.1666666666666667
 40
0.1666666666666667
 40
0.3333333333333333
 40
0.3333333333333333
 40
0.3333333333333333
 40
0.3333333333333333
 40
0.5
 40
0.5
 40
0.5
 40
0.5
 40
0.6666666666666666
 40
0.6666666666666666
 40
0.6666666666666666
 40
0.6666666666666666
 40
1.0
 40
1.0
 40
1.0
 40
1.0
 10
104.2051
 20
70.5586
 30
0.0
 10
104.2051
 20
70.5586
 30
0.0
 10
104.2051
 20
75.9574
 30
0.0
 10
104.2051
 20
75.9574
 30
0.0
 10
104.2051
 20
75.9574
 30
0.0
 10
104.2051
 20
75.9574
 30
0.0
 10
95.9718
 20
75.9772
 30
0.0
 10
95.9718
 20
75.9772
 30
0.0
 10
95.9718
 20
75.9772
 30
0.0
 10
95.9718
 20
75.9772
 30
0.0
 10
95.9173
 20
70.567
 30
0.0
 10
95.9173
 20
70.567
 30
0.0
 10
95.9173
 20
70.567
 30
0.0
 10
95.9173
 20
70.567
 30
0.0
 10
100.0913
 20
66.4449
 30
0.0
 10
100.0913
 20
66.4449
 30
0.0
 10
100.0913
 20
66.4449
 30
0.0
 10
100.0913
 20
66.4449
 30
0.0
 10
104.2051
 20
70.5586
 30
0.0
 10
104.2051
 20
70.5586
 30
0.0
  0
SPLINE
  5
F2
330
1F
100
AcDbEntity
  8
layer 1
 62
     7
100
AcDbSpline
210
0.0
220
0.0
230
1.0
 70
    11
 71
     3
 72
    24
 73
    20
 74
     0
 42
0.0000000001
 43
0.0000000001
 12
1.0
 22
0.0
 32
0.0
 13
1.0
 23
0.0
 33
0.0
 40
0.0
 40
0.0
 40
0.0
 40
0.0
 40
0.1666666666666667
 40
0.1666666666666667
 40
0.1666666666666667
 40
0.1666666666666667
 40
0.3333333333333333
 40
0.3333333333333333
 40
0.3333333333333333
 40
0.3333333333333333
 40
0.5
 40
0.5
 40
0.5
 40
0.5
 40
0.6666666666666666
 40
0.6666666666666666
 40
0.6666666666666666
 40
0.6666666666666666
 40
1.0
 40
1.0
 40
1.0
 40
1.0
 10
173.4455
 20
85.1121
 30
0.0
 10
173.4455
 20
85.1121
 30
0.0
 10
173.4455
 20
79.7134
 30
0.0
 10
173.4455
 20
79.7134
 30
0.0
 10
173.4455
 20
79.7134
 30
0.0
 10
173.4455
 20
79.7134
 30
0.0
 10
165.2122
 20
79.6935
 30
0.0
 10
165.2122
 20
79.6935
 30
0.0
 10
165.2122
 20
79.6935
 30
0.0
 10
165.2122
 20
79.6935
 30
0.0
 10
165.1577
 20
85.1037
 30
0.0
 10
165.1577
 20
85.1037
 30
0.0
 10
165.1577
 20
85.1037
 30
0.0
 10
165.1577
 20
85.1037
 30
0.0
 10
169.3317
 20
89.2258
 30
0.0
 10
169.3317
 20
89.2258
 30
0.0
 10
169.3317
 20
89.2258
 30
0.0
 10
169.3317
 20
89.2258
 30
0.0
 10
173.4455
 20
85.1121
 30
0.0
 10
173.4455
 20
85.1121
 30
0.0
  0
SPLINE
  5
F3
330
1F
100
AcDbEntity
  8
layer 1
 62
     7
100
AcDbSpline
210
0.0
220
0.0
230
1.0
 70
    11
 71
     3
 72
    24
 73
    20
 74
     0
 42
0.0000000001
 43
0.0000000001
 12
1.0
 22
0.0
 32
0.0
 13
1.0
 23
0.0
 33
0.0
 40
0.0
 40
0.0
 40
0.0
 40
0.0
 40
0.1666666666666667
 40
0.1666666666666667
 40
0.1666666666666667
 40
0.1666666666666667
 40
0.3333333333333333
 40
0.3333333333333333
 40
0.3333333333333333
 40
0.3333333333333333
 40
0.5
 40
0.5
 40
0.5
 40
0.5
 40
0.6666666666666666
 40
0.6666666666666666
 40
0.6666666666666666
 40
0.6666666666666666
 40
1.0
 40
1.0
 40
1.0
 40
1.0
 10
173.4455
 20
70.5586
 30
0.0
 10
173.4455
 20
70.5586
 30
0.0
 10
173.4455
 20
75.9574
 30
0.0
 10
173.4455
 20
75.9574
 30
0.0
 10
173.4455
 20
75.9574
 30
0.0
 10
173.4455
 20
75.9574
 30
0.0
 10
165.2122
 20
75.9772
 30
0.0
 10
165.2122
 20
75.9772
 30
0.0
 10
165.2122
 20
75.9772
 30
0.0
 10
165.2122
 20
75.9772
 30
0.0
 10
165.1577
 20
70.567
 30
0.0
 10
165.1577
 20
70.567
 30
0.0
 10
165.1577
 20
70.567
 30
0.0
 10
165.1577
 20
70.567
 30
0.0
 10
169.3317
 20
66.4449
 30
0.0
 10
169.3317
 20
66.4449
 30
0.0
 10
169.3317
 20
66.4449
 30
0.0
 10
169.3317
 20
66.4449
 30
0.0
 10
173.4455
 20
70.5586
 30
0.0
 10
173.4455
 20
70.5586
 30
0.0
  0
SPLINE
  5
F4
330
1F
100
AcDbEntity
  8
layer 1
 62
     7
100
AcDbSpline
210
0.0
220
0.0
230
1.0
 70
    11
 71
     3
 72
    16
 73
    12
 74
     0
 42
0.0000000001
 43
0.0000000001
 12
1.0
 22
0.0
 32
0.0
 13
1.0
 23
0.0
 33
0.0
 40
0.0
 40
0.0
 40
0.0
 40
0.0
 40
0.25
 40
0.25
 40
0.25
 40
0.25
 40
0.5
 40
0.5
 40
0.5
 40
0.5
 40
1.0
 40
1.0
 40
1.0
 40
1.0
 10
166.0147
 20
125.0333
 30
0.0
 10
166.0147
 20
125.0333
 30
0.0
 10
169.1706
 20
117.5073
 30
0.0
 10
169.1706
 20
117.5073
 30
0.0
 10
169.1706
 20
117.5073
 30
0.0
 10
169.1706
 20
117.5073
 30
0.0
 10
172.3772
 20
125.0328
 30
0.0
 10
172.3772
 20
125.0328
 30
0.0
 10
172.3772
 20
125.0328
 30
0.0
 10
172.3772
 20
125.0328
 30
0.0
 10
166.0147
 20
125.0333
 30
0.0
 10
166.0147
 20
125.0333
 30
0.0
  0
SPLINE
  5
F5
330
1F
100
AcDbEntity
  8
layer 1
 62
     7
100
AcDbSpline
210
0.0
220
0.0
230
1.0
 70
    11
 71
     3
 72
    36
 73
    32
 74
     0
 42
0.0000000001
 43
0.0000000001
 12
1.0
 22
0.0
 32
0.0
 13
1.0
 23
0.0
 33
0.0
 40
0.0
 40
0.0
 40
0.0
 40
0.0
 40
0.1111111111111111
 40
0.1111111111111111
 40
0.1111111111111111
 40
0.1111111111111111
 40
0.2222222222222222
 40
0.2222222222222222
 40
0.2222222222222222
 40
0.2222222222222222
 40
0.3333333333333333
 40
0.3333333333333333
 40
0.3333333333333333
 40
0.3333333333333333
 40
0.4444444444444444
 40
0.4444444444444444
 40
0.4444444444444444
 40
0.4444444444444444
 40
0.5555555555555556
 40
0.5555555555555556
 40
0.5555555555555556
 40
0.5555555555555556
 40
0.6666666666666666
 40
0.6666666666666666
 40
0.6666666666666666
 40
0.6666666666666666
 40
0.7777777777777778
 40
0.7777777777777778
 40
0.7777777777777778
 40
0.7777777777777778
 40
1.0
 40
1.0
 40
1.0
 40
1.0
 10
152.6871
 20
99.7555
 30
0.0
 10
152.6871
 20
99.7555
 30
0.0
 10
145.4575
 20
99.7555
 30
0.0
 10
145.4575
 20
99.7555
 30
0.0
 10
145.4575
 20
99.7555
 30
0.0
 10
145.4575
 20
99.7555
 30
0.0
 10
140.6723
 20
94.7693
 30
0.0
 10
140.6723
 20
94.7693
 30
0.0
 10
140.6723
 20
94.7693
 30
0.0
 10
140.6723
 20
94.7693
 30
0.0
 10
136.5456
 20
99.1122
 30
0.0
 10
136.5456
 20
99.1122
 30
0.0
 10
136.5456
 20
99.1122
 30
0.0
 10
136.5456
 20
99.1122
 30
0.0
 10
136.5257
 20
104.6353
 30
0.0
 10
136.5257
 20
104.6353
 30
0.0
 10
136.5257
 20
104.6353
 30
0.0
 10
136.5257
 20
104.6353
 30
0.0
 10
143.6015
 20
104.6353
 30
0.0
 10
143.6015
 20
104.6353
 30
0.0
 10
143.6015
 20
104.6353
 30
0.0
 10
143.6015
 20
104.6353
 30
0.0
 10
148.6725
 20
109.6562
 30
0.0
 10
148.6725
 20
109.6562
 30
0.0
 10
148.6725
 20
109.6562
 30
0.0
 10
148.6725
 20
109.6562
 30
0.0
 10
152.6739
 20
105.7031
 30
0.0
 10
152.6739
 20
105.7031
 30
0.0
 10
152.6739
 20
105.7031
 30
0.0
 10
152.6739
 20
105.7031
 30
0.0
 10
152.6871
 20
99.7555
 30
0.0
 10
152.6871
 20
99.7555
 30
0.0
  0
SPLINE
  5
F6
330
1F
100
AcDbEntity
  8
layer 1
 62
     7
100
AcDbSpline
210
0.0
220
0.0
230
1.0
 70
    11
 71
     3
 72
    36
 73
    32
 74
     0
 42
0.0000000001
 43
0.0000000001
 12
1.0
 22
0.0
 32
0.0
 13
1.0
 23
0.0
 33
0.0
 40
0.0
 40
0.0
 40
0.0
 40
0.0
 40
0.1111111111111111
 40
0.1111111111111111
 40
0.1111111111111111
 40
0.1111111111111111
 40
0.2222222222222222
 40
0.2222222222222222
 40
0.2222222222222222
 40
0.2222222222222222
 40
0.3333333333333333
 40
0.3333333333333333
 40
0.3333333333333333
 40
0.3333333333333333
 40
0.4444444444444444
 40
0.4444444444444444
 40
0.4444444444444444
 40
0.4444444444444444
 40
0.5555555555555556
 40
0.5555555555555556
 40
0.5555555555555556
 40
0.5555555555555556
 40
0.6666666666666666
 40
0.6666666666666666
 40
0.6666666666666666
 40
0.6666666666666666
 40
0.7777777777777778
 40
0.7777777777777778
 40
0.7777777777777778
 40
0.7777777777777778
 40
1.0
 40
1.0
 40
1.0
 40
1.0
 10
116.3508
 20
99.7555
 30
0.0
 10
116.3508
 20
99.7555
 30
0.0
 10
123.5803
 20
99.7555
 30
0.0
 10
123.5803
 20
99.7555
 30
0.0
 10
123.5803
 20
99.7555
 30
0.0
 10
123.5803
 20
99.7555
 30
0.0
 10
128.3656
 20
94.7693
 30
0.0
 10
128.3656
 20
94.7693
 30
0.0
 10
128.3656
 20
94.7693
 30
0.0
 10
128.3656
 20
94.7693
 30
0.0
 10
132.4923
 20
99.1122
 30
0.0
 10
132.4923
 20
99.1122
 30
0.0
 10
132.4923
 20
99.1122
 30
0.0
 10
132.4923
 20
99.1122
 30
0.0
 10
132.5122
 20
104.6353
 30
0.0
 10
132.5122
 20
104.6353
 30
0.0
 10
132.5122
 20
104.6353
 30
0.0
 10
132.5122
 20
104.6353
 30
0.0
 10
125.4364
 20
104.6353
 30
0.0
 10
125.4364
 20
104.6353
 30
0.0
 10
125.4364
 20
104.6353
 30
0.0
 10
125.4364
 20
104.6353
 30
0.0
 10
120.3653
 20
109.6562
 30
0.0
 10
120.3653
 20
109.6562
 30
0.0
 10
120.3653
 20
109.6562
 30
0.0
 10
120.3653
 20
109.6562
 30
0.0
 10
116.3639
 20
105.7031
 30
0.0
 10
116.3639
 20
105.7031
 30
0.0
 10
116.3639
 20
105.7031
 30
0.0
 10
116.3639
 20
105.7031
 30
0.0
 10
116.3508
 20
99.7555
 30
0.0
 10
116.3508
 20
99.7555
 30
0.0
  0
SPLINE
  5
F7
330
1F
100
AcDbEntity
  8
layer 1
 62
     7
100
AcDbSpline
210
0.0
220
0.0
230
1.0
 70
    11
 71
     3
 72
    36
 73
    32
 74
     0
 42
0.0000000001
 43
0.0000000001
 12
1.0
 22
0.0
 32
0.0
 13
1.0
 23
0.0
 33
0.0
 40
0.0
 40
0.0
 40
0.0
 40
0.0
 40
0.1111111111111111
 40
0.1111111111111111
 40
0.1111111111111111
 40
0.1111111111111111
 40
0.2222222222222222
 40
0.2222222222222222
 40
0.2222222222222222
 40
0.2222222222222222
 40
0.3333333333333333
 40
0.3333333333333333
 40
0.3333333333333333
 40
0.3333333333333333
 40
0.4444444444444444
 40
0.4444444444444444
 40
0.4444444444444444
 40
0.4444444444444444
 40
0.5555555555555556
 40
0.5555555555555556
 40
0.5555555555555556
 40
0.5555555555555556
 40
0.6666666666666666
 40
0.6666666666666666
 40
0.6666666666666666
 40
0.6666666666666666
 40
0.7777777777777778
 40
0.7777777777777778
 40
0.7777777777777778
 40
0.7777777777777778
 40
1.0
 40
1.0
 40
1.0
 40
1.0
 10
87.4104
 20
95.8128
 30
0.0
 10
87.4104
 20
95.8128
 30
0.0
 10
87.4104
 20
88.5833
 30
0.0
 10
87.4104
 20
88.5833
 30
0.0
 10
87.4104
 20
88.5833
 30
0.0
 10
87.4104
 20
88.5833
 30
0.0
 10
82.4242
 20
83.7981
 30
0.0
 10
82.4242
 20
83.7981
 30
0.0
 10
82.4242
 20
83.7981
 30
0.0
 10
82.4242
 20
83.7981
 30
0.0
 10
86.7671
 20
79.6713
 30
0.0
 10
86.7671
 20
79.6713
 30
0.0
 10
86.7671
 20
79.6713
 30
0.0
 10
86.7671
 20
79.6713
 30
0.0
 10
92.2903
 20
79.6515
 30
0.0
 10
92.2903
 20
79.6515
 30
0.0
 10
92.2903
 20
79.6515
 30
0.0
 10
92.2903
 20
79.6515
 30
0.0
 10
92.2903
 20
86.7272
 30
0.0
 10
92.2903
 20
86.7272
 30
0.0
 10
92.2903
 20
86.7272
 30
0.0
 10
92.2903
 20
86.7272
 30
0.0
 10
97.3112
 20
91.7983
 30
0.0
 10
97.3112
 20
91.7983
 30
0.0
 10
97.3112
 20
91.7983
 30
0.0
 10
97.3112
 20
91.7983
 30
0.0
 10
93.3581
 20
95.7997
 30
0.0
 10
93.3581
 20
95.7997
 30
0.0
 10
93.3581
 20
95.7997
 30
0.0
 10
93.3581
 20
95.7997
 30
0.0
 10
87.4104
 20
95.8128
 30
0.0
 10
87.4104
 20
95.8128
 30
0.0
  0
SPLINE
  5
F8
330
1F
100
AcDbEntity
  8
layer 1
 62
     7
100
AcDbSpline
210
0.0
220
0.0
230
1.0
 70
    11
 71
     3
 72
    36
 73
    32
 74
     0
 42
0.0000000001
 43
0.0000000001
 12
1.0
 22
0.0
 32
0.0
 13
1.0
 23
0.0
 33
0.0
 40
0.0
 40
0.0
 40
0.0
 40
0.0
 40
0.1111111111111111
 40
0.1111111111111111
 40
0.1111111111111111
 40
0.1111111111111111
 40
0.2222222222222222
 40
0.2222222222222222
 40
0.2222222222222222
 40
0.2222222222222222
 40
0.3333333333333333
 40
0.3333333333333333
 40
0.3333333333333333
 40
0.3333333333333333
 40
0.4444444444444444
 40
0.4444444444444444
 40
0.4444444444444444
 40
0.4444444444444444
 40
0.5555555555555556
 40
0.5555555555555556
 40
0.5555555555555556
 40
0.5555555555555556
 40
0.6666666666666666
 40
0.6666666666666666
 40
0.6666666666666666
 40
0.6666666666666666
 40
0.7777777777777778
 40
0.7777777777777778
 40
0.7777777777777778
 40
0.7777777777777778
 40
1.0
 40
1.0
 40
1.0
 40
1.0
 10
152.6873
 20
56.0754
 30
0.0
 10
152.6873
 20
56.0754
 30
0.0
 10
145.4578
 20
56.0754
 30
0.0
 10
145.4578
 20
56.0754
 30
0.0
 10
145.4578
 20
56.0754
 30
0.0
 10
145.4578
 20
56.0754
 30
0.0
 10
140.6725
 20
61.0616
 30
0.0
 10
140.6725
 20
61.0616
 30
0.0
 10
140.6725
 20
61.0616
 30
0.0
 10
140.6725
 20
61.0616
 30
0.0
 10
136.5458
 20
56.7187
 30
0.0
 10
136.5458
 20
56.7187
 30
0.0
 10
136.5458
 20
56.7187
 30
0.0
 10
136.5458
 20
56.7187
 30
0.0
 10
136.5259
 20
51.1955
 30
0.0
 10
136.5259
 20
51.1955
 30
0.0
 10
136.5259
 20
51.1955
 30
0.0
 10
136.5259
 20
51.1955
 30
0.0
 10
143.6017
 20
51.1955
 30
0.0
 10
143.6017
 20
51.1955
 30
0.0
 10
143.6017
 20
51.1955
 30
0.0
 10
143.6017
 20
51.1955
 30
0.0
 10
148.6728
 20
46.1746
 30
0.0
 10
148.6728
 20
46.1746
 30
0.0
 10
148.6728
 20
46.1746
 30
0.0
 10
148.6728
 20
46.1746
 30
0.0
 10
152.6742
 20
50.1277
 30
0.0
 10
152.6742
 20
50.1277
 30
0.0
 10
152.6742
 20
50.1277
 30
0.0
 10
152.6742
 20
50.1277
 30
0.0
 10
152.6873
 20
56.0754
 30
0.0
 10
152.6873
 20
56.0754
 30
0.0
  0
SPLINE
  5
F9
330
1F
100
AcDbEntity
  8
layer 1
 62
     7
100
AcDbSpline
210
0.0
220
0.0
230
1.0
 70
    11
 71
     3
 72
    36
 73
    32
 74
     0
 42
0.0000000001
 43
0.0000000001
 12
1.0
 22
0.0
 32
0.0
 13
1.0
 23
0.0
 33
0.0
 40
0.0
 40
0.0
 40
0.0
 40
0.0
 40
0.1111111111111111
 40
0.1111111111111111
 40
0.1111111111111111
 40
0.1111111111111111
 40
0.2222222222222222
 40
0.2222222222222222
 40
0.2222222222222222
 40
0.2222222222222222
 40
0.3333333333333333
 40
0.3333333333333333
 40
0.3333333333333333
 40
0.3333333333333333
 40
0.4444444444444444
 40
0.4444444444444444
 40
0.4444444444444444
 40
0.4444444444444444
 40
0.5555555555555556
 40
0.5555555555555556
 40
0.5555555555555556
 40
0.5555555555555556
 40
0.6666666666666666
 40
0.6666666666666666
 40
0.6666666666666666
 40
0.6666666666666666
 40
0.7777777777777778
 40
0.7777777777777778
 40
0.7777777777777778
 40
0.7777777777777778
 40
1.0
 40
1.0
 40
1.0
 40
1.0
 10
116.3511
 20
56.0754
 30
0.0
 10
116.3511
 20
56.0754
 30
0.0
 10
123.5806
 20
56.0754
 30
0.0
 10
123.5806
 20
56.0754
 30
0.0
 10
123.5806
 20
56.0754
 30
0.0
 10
123.5806
 20
56.0754
 30
0.0
 10
128.3658
 20
61.0616
 30
0.0
 10
128.3658
 20
61.0616
 30
0.0
 10
128.3658
 20
61.0616
 30
0.0
 10
128.3658
 20
61.0616
 30
0.0
 10
132.4925
 20
56.7187
 30
0.0
 10
132.4925
 20
56.7187
 30
0.0
 10
132.4925
 20
56.7187
 30
0.0
 10
132.4925
 20
56.7187
 30
0.0
 10
132.5124
 20
51.1955
 30
0.0
 10
132.5124
 20
51.1955
 30
0.0
 10
132.5124
 20
51.1955
 30
0.0
 10
132.5124
 20
51.1955
 30
0.0
 10
125.4366
 20
51.1955
 30
0.0
 10
125.4366
 20
51.1955
 30
0.0
 10
125.4366
 20
51.1955
 30
0.0
 10
125.4366
 20
51.1955
 30
0.0
 10
120.3656
 20
46.1746
 30
0.0
 10
120.3656
 20
46.1746
 30
0.0
 10
120.3656
 20
46.1746
 30
0.0
 10
120.3656
 20
46.1746
 30
0.0
 10
116.3642
 20
50.1277
 30
0.0
 10
116.3642
 20
50.1277
 30
0.0
 10
116.3642
 20
50.1277
 30
0.0
 10
116.3642
 20
50.1277
 30
0.0
 10
116.3511
 20
56.0754
 30
0.0
 10
116.3511
 20
56.0754
 30
0.0
  0
SPLINE
  5
FA
330
1F
100
AcDbEntity
  8
layer 1
 62
     7
100
AcDbSpline
210
0.0
220
0.0
230
1.0
 70
    11
 71
     3
 72
    36
 73
    32
 74
     0
 42
0.0000000001
 43
0.0000000001
 12
1.0
 22
0.0
 32
0.0
 13
1.0
 23
0.0
 33
0.0
 40
0.0
 40
0.0
 40
0.0
 40
0.0
 40
0.1111111111111111
 40
0.1111111111111111
 40
0.1111111111111111
 40
0.1111111111111111
 40
0.2222222222222222
 40
0.2222222222222222
 40
0.2222222222222222
 40
0.2222222222222222
 40
0.3333333333333333
 40
0.3333333333333333
 40
0.3333333333333333
 40
0.3333333333333333
 40
0.4444444444444444
 40
0.4444444444444444
 40
0.4444444444444444
 40
0.4444444444444444
 40
0.5555555555555556
 40
0.5555555555555556
 40
0.5555555555555556
 40
0.5555555555555556
 40
0.6666666666666666
 40
0.6666666666666666
 40
0.6666666666666666
 40
0.6666666666666666
 40
0.7777777777777778
 40
0.7777777777777778
 40
0.7777777777777778
 40
0.7777777777777778
 40
1.0
 40
1.0
 40
1.0
 40
1.0
 10
152.6871
 20
30.7173
 30
0.0
 10
152.6871
 20
30.7173
 30
0.0
 10
145.4575
 20
30.7173
 30
0.0
 10
145.4575
 20
30.7173
 30
0.0
 10
145.4575
 20
30.7173
 30
0.0
 10
145.4575
 20
30.7173
 30
0.0
 10
140.6723
 20
25.7311
 30
0.0
 10
140.6723
 20
25.7311
 30
0.0
 10
140.6723
 20
25.7311
 30
0.0
 10
140.6723
 20
25.7311
 30
0.0
 10
136.5456
 20
30.074
 30
0.0
 10
136.5456
 20
30.074
 30
0.0
 10
136.5456
 20
30.074
 30
0.0
 10
136.5456
 20
30.074
 30
0.0
 10
136.5257
 20
35.5972
 30
0.0
 10
136.5257
 20
35.5972
 30
0.0
 10
136.5257
 20
35.5972
 30
0.0
 10
136.5257
 20
35.5972
 30
0.0
 10
143.6015
 20
35.5972
 30
0.0
 10
143.6015
 20
35.5972
 30
0.0
 10
143.6015
 20
35.5972
 30
0.0
 10
143.6015
 20
35.5972
 30
0.0
 10
148.6725
 20
40.6181
 30
0.0
 10
148.6725
 20
40.6181
 30
0.0
 10
148.6725
 20
40.6181
 30
0.0
 10
148.6725
 20
40.6181
 30
0.0
 10
152.6739
 20
36.665
 30
0.0
 10
152.6739
 20
36.665
 30
0.0
 10
152.6739
 20
36.665
 30
0.0
 10
152.6739
 20
36.665
 30
0.0
 10
152.6871
 20
30.7173
 30
0.0
 10
152.6871
 20
30.7173
 30
0.0
  0
SPLINE
  5
FB
330
1F
100
AcDbEntity
  8
layer 1
 62
     7
100
AcDbSpline
210
0.0
220
0.0
230
1.0
 70
    11
 71
     3
 72
    36
 73
    32
 74
     0
 42
0.0000000001
 43
0.0000000001
 12
1.0
 22
0.0
 32
0.0
 13
1.0
 23
0.0
 33
0.0
 40
0.0
 40
0.0
 40
0.0
 40
0.0
 40
0.1111111111111111
 40
0.1111111111111111
 40
0.1111111111111111
 40
0.1111111111111111
 40
0.2222222222222222
 40
0.2222222222222222
 40
0.2222222222222222
 40
0.2222222222222222
 40
0.3333333333333333
 40
0.3333333333333333
 40
0.3333333333333333
 40
0.3333333333333333
 40
0.4444444444444444
 40
0.4444444444444444
 40
0.4444444444444444
 40
0.4444444444444444
 40
0.5555555555555556
 40
0.5555555555555556
 40
0.5555555555555556
 40
0.5555555555555556
 40
0.6666666666666666
 40
0.6666666666666666
 40
0.6666666666666666
 40
0.6666666666666666
 40
0.7777777777777778
 40
0.7777777777777778
 40
0.7777777777777778
 40
0.7777777777777778
 40
1.0
 40
1.0
 40
1.0
 40
1.0
 10
116.3508
 20
30.7173
 30
0.0
 10
116.3508
 20
30.7173
 30
0.0
 10
123.5803
 20
30.7173
 30
0.0
 10
123.5803
 20
30.7173
 30
0.0
 10
123.5803
 20
30.7173
 30
0.0
 10
123.5803
 20
30.7173
 30
0.0
 10
128.3656
 20
25.7311
 30
0.0
 10
128.3656
 20
25.7311
 30
0.0
 10
128.3656
 20
25.7311
 30
0.0
 10
128.3656
 20
25.7311
 30
0.0
 10
132.4923
 20
30.074
 30
0.0
 10
132.4923
 20
30.074
 30
0.0
 10
132.4923
 20
30.074
 30
0.0
 10
132.4923
 20
30.074
 30
0.0
 10
132.5122
 20
35.5972
 30
0.0
 10
132.5122
 20
35.5972
 30
0.0
 10
132.5122
 20
35.5972
 30
0.0
 10
132.5122
 20
35.5972
 30
0.0
 10
125.4364
 20
35.5972
 30
0.0
 10
125.4364
 20
35.5972
 30
0.0
 10
125.4364
 20
35.5972
 30
0.0
 10
125.4364
 20
35.5972
 30
0.0
 10
120.3653
 20
40.6181
 30
0.0
 10
120.3653
 20
40.6181
 30
0.0
 10
120.3653
 20
40.6181
 30
0.0
 10
120.3653
 20
40.6181
 30
0.0
 10
116.3639
 20
36.665
 30
0.0
 10
116.3639
 20
36.665
 30
0.0
 10
116.3639
 20
36.665
 30
0.0
 10
116.3639
 20
36.665
 30
0.0
 10
116.3508
 20
30.7173
 30
0.0
 10
116.3508
 20
30.7173
 30
0.0
  0
SPLINE
  5
FC
330
1F
100
AcDbEntity
  8
layer 1
 62
     7
100
AcDbSpline
210
0.0
220
0.0
230
1.0
 70
    11
 71
     3
 72
    36
 73
    32
 74
     0
 42
0.0000000001
 43
0.0000000001
 12
1.0
 22
0.0
 32
0.0
 13
1.0
 23
0.0
 33
0.0
 40
0.0
 40
0.0
 40
0.0
 40
0.0
 40
0.1111111111111111
 40
0.1111111111111111
 40
0.1111111111111111
 40
0.1111111111111111
 40
0.2222222222222222
 40
0.2222222222222222
 40
0.2222222222222222
 40
0.2222222222222222
 40
0.3333333333333333
 40
0.3333333333333333
 40
0.3333333333333333
 40
0.3333333333333333
 40
0.4444444444444444
 40
0.4444444444444444
 40
0.4444444444444444
 40
0.4444444444444444
 40
0.5555555555555556
 40
0.5555555555555556
 40
0.5555555555555556
 40
0.5555555555555556
 40
0.6666666666666666
 40
0.6666666666666666
 40
0.6666666666666666
 40
0.6666666666666666
 40
0.7777777777777778
 40
0.7777777777777778
 40
0.7777777777777778
 40
0.7777777777777778
 40
1.0
 40
1.0
 40
1.0
 40
1.0
 10
152.6871
 20
-13.1678
 30
0.0
 10
152.6871
 20
-13.1678
 30
0.0
 10
145.4575
 20
-13.1678
 30
0.0
 10
145.4575
 20
-13.1678
 30
0.0
 10
145.4575
 20
-13.1678
 30
0.0
 10
145.4575
 20
-13.1678
 30
0.0
 10
140.6723
 20
-8.1816
 30
0.0
 10
140.6723
 20
-8.1816
 30
0.0
 10
140.6723
 20
-8.1816
 30
0.0
 10
140.6723
 20
-8.1816
 30
0.0
 10
136.5456
 20
-12.5245
 30
0.0
 10
136.5456
 20
-12.5245
 30
0.0
 10
136.5456
 20
-12.5245
 30
0.0
 10
136.5456
 20
-12.5245
 30
0.0
 10
136.5257
 20
-18.0477
 30
0.0
 10
136.5257
 20
-18.0477
 30
0.0
 10
136.5257
 20
-18.0477
 30
0.0
 10
136.5257
 20
-18.0477
 30
0.0
 10
143.6015
 20
-18.0477
 30
0.0
 10
143.6015
 20
-18.0477
 30
0.0
 10
143.6015
 20
-18.0477
 30
0.0
 10
143.6015
 20
-18.0477
 30
0.0
 10
148.6725
 20
-23.0686
 30
0.0
 10
148.6725
 20
-23.0686
 30
0.0
 10
148.6725
 20
-23.0686
 30
0.0
 10
148.6725
 20
-23.0686
 30
0.0
 10
152.6739
 20
-19.1155
 30
0.0
 10
152.6739
 20
-19.1155
 30
0.0
 10
152.6739
 20
-19.1155
 30
0.0
 10
152.6739
 20
-19.1155
 30
0.0
 10
152.6871
 20
-13.1678
 30
0.0
 10
152.6871
 20
-13.1678
 30
0.0
  0
SPLINE
  5
FD
330
1F
100
AcDbEntity
  8
layer 1
 62
     7
100
AcDbSpline
210
0.0
220
0.0
230
1.0
 70
    11
 71
     3
 72
    36
 73
    32
 74
     0
 42
0.0000000001
 43
0.0000000001
 12
1.0
 22
0.0
 32
0.0
 13
1.0
 23
0.0
 33
0.0
 40
0.0
 40
0.0
 40
0.0
 40
0.0
 40
0.1111111111111111
 40
0.1111111111111111
 40
0.1111111111111111
 40
0.1111111111111111
 40
0.2222222222222222
 40
0.2222222222222222
 40
0.2222222222222222
 40
0.2222222222222222
 40
0.3333333333333333
 40
0.3333333333333333
 40
0.3333333333333333
 40
0.3333333333333333
 40
0.4444444444444444
 40
0.4444444444444444
 40
0.4444444444444444
 40
0.4444444444444444
 40
0.5555555555555556
 40
0.5555555555555556
 40
0.5555555555555556
 40
0.5555555555555556
 40
0.6666666666666666
 40
0.6666666666666666
 40
0.6666666666666666
 40
0.6666666666666666
 40
0.7777777777777778
 40
0.7777777777777778
 40
0.7777777777777778
 40
0.7777777777777778
 40
1.0
 40
1.0
 40
1.0
 40
1.0
 10
116.3508
 20
-13.1678
 30
0.0
 10
116.3508
 20
-13.1678
 30
0.0
 10
123.5803
 20
-13.1678
 30
0.0
 10
123.5803
 20
-13.1678
 30
0.0
 10
123.5803
 20
-13.1678
 30
0.0
 10
123.5803
 20
-13.1678
 30
0.0
 10
128.3656
 20
-8.1816
 30
0.0
 10
128.3656
 20
-8.1816
 30
0.0
 10
128.3656
 20
-8.1816
 30
0.0
 10
128.3656
 20
-8.1816
 30
0.0
 10
132.4923
 20
-12.5245
 30
0.0
 10
132.4923
 20
-12.5245
 30
0.0
 10
132.4923
 20
-12.5245
 30
0.0
 10
132.4923
 20
-12.5245
 30
0.0
 10
132.5122
 20
-18.0477
 30
0.0
 10
132.5122
 20
-18.0477
 30
0.0
 10
132.5122
 20
-18.0477
 30
0.0
 10
132.5122
 20
-18.0477
 30
0.0
 10
125.4364
 20
-18.0477
 30
0.0
 10
125.4364
 20
-18.0477
 30
0.0
 10
125.4364
 20
-18.0477
 30
0.0
 10
125.4364
 20
-18.0477
 30
0.0
 10
120.3653
 20
-23.0686
 30
0.0
 10
120.3653
 20
-23.0686
 30
0.0
 10
120.3653
 20
-23.0686
 30
0.0
 10
120.3653
 20
-23.0686
 30
0.0
 10
116.3639
 20
-19.1155
 30
0.0
 10
116.3639
 20
-19.1155
 30
0.0
 10
116.3639
 20
-19.1155
 30
0.0
 10
116.3639
 20
-19.1155
 30
0.0
 10
116.3508
 20
-13.1678
 30
0.0
 10
116.3508
 20
-13.1678
 30
0.0
  0
SPLINE
  5
FE
330
1F
100
AcDbEntity
  8
layer 1
 62
     7
100
AcDbSpline
210
0.0
220
0.0
230
1.0
 70
    11
 71
     3
 72
    36
 73
    32
 74
     0
 42
0.0000000001
 43
0.0000000001
 12
1.0
 22
0.0
 32
0.0
 13
1.0
 23
0.0
 33
0.0
 40
0.0
 40
0.0
 40
0.0
 40
0.0
 40
0.1111111111111111
 40
0.1111111111111111
 40
0.1111111111111111
 40
0.1111111111111111
 40
0.2222222222222222
 40
0.2222222222222222
 40
0.2222222222222222
 40
0.2222222222222222
 40
0.3333333333333333
 40
0.3333333333333333
 40
0.3333333333333333
 40
0.3333333333333333
 40
0.4444444444444444
 40
0.4444444444444444
 40
0.4444444444444444
 40
0.4444444444444444
 40
0.5555555555555556
 40
0.5555555555555556
 40
0.5555555555555556
 40
0.5555555555555556
 40
0.6666666666666666
 40
0.6666666666666666
 40
0.6666666666666666
 40
0.6666666666666666
 40
0.7777777777777778
 40
0.7777777777777778
 40
0.7777777777777778
 40
0.7777777777777778
 40
1.0
 40
1.0
 40
1.0
 40
1.0
 10
152.6871
 20
-38.4488
 30
0.0
 10
152.6871
 20
-38.4488
 30
0.0
 10
145.4575
 20
-38.4488
 30
0.0
 10
145.4575
 20
-38.4488
 30
0.0
 10
145.4575
 20
-38.4488
 30
0.0
 10
145.4575
 20
-38.4488
 30
0.0
 10
140.6723
 20
-43.435
 30
0.0
 10
140.6723
 20
-43.435
 30
0.0
 10
140.6723
 20
-43.435
 30
0.0
 10
140.6723
 20
-43.435
 30
0.0
 10
136.5456
 20
-39.0921
 30
0.0
 10
136.5456
 20
-39.0921
 30
0.0
 10
136.5456
 20
-39.0921
 30
0.0
 10
136.5456
 20
-39.0921
 30
0.0
 10
136.5257
 20
-33.569
 30
0.0
 10
136.5257
 20
-33.569
 30
0.0
 10
136.5257
 20
-33.569
 30
0.0
 10
136.5257
 20
-33.569
 30
0.0
 10
143.6015
 20
-33.569
 30
0.0
 10
143.6015
 20
-33.569
 30
0.0
 10
143.6015
 20
-33.569
 30
0.0
 10
143.6015
 20
-33.569
 30
0.0
 10
148.6725
 20
-28.5481
 30
0.0
 10
148.6725
 20
-28.5481
 30
0.0
 10
148.6725
 20
-28.5481
 30
0.0
 10
148.6725
 20
-28.5481
 30
0.0
 10
152.6739
 20
-32.5012
 30
0.0
 10
152.6739
 20
-32.5012
 30
0.0
 10
152.6739
 20
-32.5012
 30
0.0
 10
152.6739
 20
-32.5012
 30
0.0
 10
152.6871
 20
-38.4488
 30
0.0
 10
152.6871
 20
-38.4488
 30
0.0
  0
SPLINE
  5
FF
330
1F
100
AcDbEntity
  8
layer 1
 62
     7
100
AcDbSpline
210
0.0
220
0.0
230
1.0
 70
    11
 71
     3
 72
    36
 73
    32
 74
     0
 42
0.0000000001
 43
0.0000000001
 12
1.0
 22
0.0
 32
0.0
 13
1.0
 23
0.0
 33
0.0
 40
0.0
 40
0.0
 40
0.0
 40
0.0
 40
0.1111111111111111
 40
0.1111111111111111
 40
0.1111111111111111
 40
0.1111111111111111
 40
0.2222222222222222
 40
0.2222222222222222
 40
0.2222222222222222
 40
0.2222222222222222
 40
0.3333333333333333
 40
0.3333333333333333
 40
0.3333333333333333
 40
0.3333333333333333
 40
0.4444444444444444
 40
0.4444444444444444
 40
0.4444444444444444
 40
0.4444444444444444
 40
0.5555555555555556
 40
0.5555555555555556
 40
0.5555555555555556
 40
0.5555555555555556
 40
0.6666666666666666
 40
0.6666666666666666
 40
0.6666666666666666
 40
0.6666666666666666
 40
0.7777777777777778
 40
0.7777777777777778
 40
0.7777777777777778
 40
0.7777777777777778
 40
1.0
 40
1.0
 40
1.0
 40
1.0
 10
116.3508
 20
-38.4488
 30
0.0
 10
116.3508
 20
-38.4488
 30
0.0
 10
123.5803
 20
-38.4488
 30
0.0
 10
123.5803
 20
-38.4488
 30
0.0
 10
123.5803
 20
-38.4488
 30
0.0
 10
123.5803
 20
-38.4488
 30
0.0
 10
128.3656
 20
-43.435
 30
0.0
 10
128.3656
 20
-43.435
 30
0.0
 10
128.3656
 20
-43.435
 30
0.0
 10
128.3656
 20
-43.435
 30
0.0
 10
132.4923
 20
-39.0921
 30
0.0
 10
132.4923
 20
-39.0921
 30
0.0
 10
132.4923
 20
-39.0921
 30
0.0
 10
132.4923
 20
-39.0921
 30
0.0
 10
132.5122
 20
-33.569
 30
0.0
 10
132.5122
 20
-33.569
 30
0.0
 10
132.5122
 20
-33.569
 30
0.0
 10
132.5122
 20
-33.569
 30
0.0
 10
125.4364
 20
-33.569
 30
0.0
 10
125.4364
 20
-33.569
 30
0.0
 10
125.4364
 20
-33.569
 30
0.0
 10
125.4364
 20
-33.569
 30
0.0
 10
120.3653
 20
-28.5481
 30
0.0
 10
120.3653
 20
-28.5481
 30
0.0
 10
120.3653
 20
-28.5481
 30
0.0
 10
120.3653
 20
-28.5481
 30
0.0
 10
116.3639
 20
-32.5012
 30
0.0
 10
116.3639
 20
-32.5012
 30
0.0
 10
116.3639
 20
-32.5012
 30
0.0
 10
116.3639
 20
-32.5012
 30
0.0
 10
116.3508
 20
-38.4488
 30
0.0
 10
116.3508
 20
-38.4488
 30
0.0
  0
SPLINE
  5
100
330
1F
100
AcDbEntity
  8
layer 1
 62
     7
100
AcDbSpline
210
0.0
220
0.0
230
1.0
 70
    11
 71
     3
 72
    36
 73
    32
 74
     0
 42
0.0000000001
 43
0.0000000001
 12
1.0
 22
0.0
 32
0.0
 13
1.0
 23
0.0
 33
0.0
 40
0.0
 40
0.0
 40
0.0
 40
0.0
 40
0.1111111111111111
 40
0.1111111111111111
 40
0.1111111111111111
 40
0.1111111111111111
 40
0.2222222222222222
 40
0.2222222222222222
 40
0.2222222222222222
 40
0.2222222222222222
 40
0.3333333333333333
 40
0.3333333333333333
 40
0.3333333333333333
 40
0.3333333333333333
 40
0.4444444444444444
 40
0.4444444444444444
 40
0.4444444444444444
 40
0.4444444444444444
 40
0.5555555555555556
 40
0.5555555555555556
 40
0.5555555555555556
 40
0.5555555555555556
 40
0.6666666666666666
 40
0.6666666666666666
 40
0.6666666666666666
 40
0.6666666666666666
 40
0.7777777777777778
 40
0.7777777777777778
 40
0.7777777777777778
 40
0.7777777777777778
 40
1.0
 40
1.0
 40
1.0
 40
1.0
 10
152.6871
 20
-82.2545
 30
0.0
 10
152.6871
 20
-82.2545
 30
0.0
 10
145.4575
 20
-82.2545
 30
0.0
 10
145.4575
 20
-82.2545
 30
0.0
 10
145.4575
 20
-82.2545
 30
0.0
 10
145.4575
 20
-82.2545
 30
0.0
 10
140.6723
 20
-77.2682
 30
0.0
 10
140.6723
 20
-77.2682
 30
0.0
 10
140.6723
 20
-77.2682
 30
0.0
 10
140.6723
 20
-77.2682
 30
0.0
 10
136.5456
 20
-81.6112
 30
0.0
 10
136.5456
 20
-81.6112
 30
0.0
 10
136.5456
 20
-81.6112
 30
0.0
 10
136.5456
 20
-81.6112
 30
0.0
 10
136.5257
 20
-87.1343
 30
0.0
 10
136.5257
 20
-87.1343
 30
0.0
 10
136.5257
 20
-87.1343
 30
0.0
 10
136.5257
 20
-87.1343
 30
0.0
 10
143.6015
 20
-87.1343
 30
0.0
 10
143.6015
 20
-87.1343
 30
0.0
 10
143.6015
 20
-87.1343
 30
0.0
 10
143.6015
 20
-87.1343
 30
0.0
 10
148.6725
 20
-92.1552
 30
0.0
 10
148.6725
 20
-92.1552
 30
0.0
 10
148.6725
 20
-92.1552
 30
0.0
 10
148.6725
 20
-92.1552
 30
0.0
 10
152.6739
 20
-88.2021
 30
0.0
 10
152.6739
 20
-88.2021
 30
0.0
 10
152.6739
 20
-88.2021
 30
0.0
 10
152.6739
 20
-88.2021
 30
0.0
 10
152.6871
 20
-82.2545
 30
0.0
 10
152.6871
 20
-82.2545
 30
0.0
  0
SPLINE
  5
101
330
1F
100
AcDbEntity
  8
layer 1
 62
     7
100
AcDbSpline
210
0.0
220
0.0
230
1.0
 70
    11
 71
     3
 72
    36
 73
    32
 74
     0
 42
0.0000000001
 43
0.0000000001
 12
1.0
 22
0.0
 32
0.0
 13
1.0
 23
0.0
 33
0.0
 40
0.0
 40
0.0
 40
0.0
 40
0.0
 40
0.1111111111111111
 40
0.1111111111111111
 40
0.1111111111111111
 40
0.1111111111111111
 40
0.2222222222222222
 40
0.2222222222222222
 40
0.2222222222222222
 40
0.2222222222222222
 40
0.3333333333333333
 40
0.3333333333333333
 40
0.3333333333333333
 40
0.3333333333333333
 40
0.4444444444444444
 40
0.4444444444444444
 40
0.4444444444444444
 40
0.4444444444444444
 40
0.5555555555555556
 40
0.5555555555555556
 40
0.5555555555555556
 40
0.5555555555555556
 40
0.6666666666666666
 40
0.6666666666666666
 40
0.6666666666666666
 40
0.6666666666666666
 40
0.7777777777777778
 40
0.7777777777777778
 40
0.7777777777777778
 40
0.7777777777777778
 40
1.0
 40
1.0
 40
1.0
 40
1.0
 10
116.3508
 20
-82.2545
 30
0.0
 10
116.3508
 20
-82.2545
 30
0.0
 10
123.5803
 20
-82.2545
 30
0.0
 10
123.5803
 20
-82.2545
 30
0.0
 10
123.5803
 20
-82.2545
 30
0.0
 10
123.5803
 20
-82.2545
 30
0.0
 10
128.3656
 20
-77.2682
 30
0.0
 10
128.3656
 20
-77.2682
 30
0.0
 10
128.3656
 20
-77.2682
 30
0.0
 10
128.3656
 20
-77.2682
 30
0.0
 10
132.4923
 20
-81.6112
 30
0.0
 10
132.4923
 20
-81.6112
 30
0.0
 10
132.4923
 20
-81.6112
 30
0.0
 10
132.4923
 20
-81.6112
 30
0.0
 10
132.5122
 20
-87.1343
 30
0.0
 10
132.5122
 20
-87.1343
 30
0.0
 10
132.5122
 20
-87.1343
 30
0.0
 10
132.5122
 20
-87.1343
 30
0.0
 10
125.4364
 20
-87.1343
 30
0.0
 10
125.4364
 20
-87.1343
 30
0.0
 10
125.4364
 20
-87.1343
 30
0.0
 10
125.4364
 20
-87.1343
 30
0.0
 10
120.3653
 20
-92.1552
 30
0.0
 10
120.3653
 20
-92.1552
 30
0.0
 10
120.3653
 20
-92.1552
 30
0.0
 10
120.3653
 20
-92.1552
 30
0.0
 10
116.3639
 20
-88.2021
 30
0.0
 10
116.3639
 20
-88.2021
 30
0.0
 10
116.3639
 20
-88.2021
 30
0.0
 10
116.3639
 20
-88.2021
 30
0.0
 10
116.3508
 20
-82.2545
 30
0.0
 10
116.3508
 20
-82.2545
 30
0.0
  0
SPLINE
  5
102
330
1F
100
AcDbEntity
  8
layer 1
 62
     7
100
AcDbSpline
210
0.0
220
0.0
230
1.0
 70
    11
 71
     3
 72
    28
 73
    24
 74
     0
 42
0.0000000001
 43
0.0000000001
 12
1.0
 22
0.0
 32
0.0
 13
1.0
 23
0.0
 33
0.0
 40
0.0
 40
0.0
 40
0.0
 40
0.0
 40
0.1428571428571428
 40
0.1428571428571428
 40
0.1428571428571428
 40
0.1428571428571428
 40
0.2857142857142857
 40
0.2857142857142857
 40
0.2857142857142857
 40
0.2857142857142857
 40
0.4285714285714285
 40
0.4285714285714285
 40
0.4285714285714285
 40
0.4285714285714285
 40
0.5714285714285714
 40
0.5714285714285714
 40
0.5714285714285714
 40
0.5714285714285714
 40
0.7142857142857143
 40
0.7142857142857143
 40
0.7142857142857143
 40
0.7142857142857143
 40
1.0
 40
1.0
 40
1.0
 40
1.0
 10
152.6871
 20
-107.5784
 30
0.0
 10
152.6871
 20
-107.5784
 30
0.0
 10
136.5456
 20
-107.5783
 30
0.0
 10
136.5456
 20
-107.5783
 30
0.0
 10
136.5456
 20
-107.5783
 30
0.0
 10
136.5456
 20
-107.5783
 30
0.0
 10
136.5257
 20
-102.6986
 30
0.0
 10
136.5257
 20
-102.6986
 30
0.0
 10
136.5257
 20
-102.6986
 30
0.0
 10
136.5257
 20
-102.6986
 30
0.0
 10
143.6015
 20
-102.6986
 30
0.0
 10
143.6015
 20
-102.6986
 30
0.0
 10
143.6015
 20
-102.6986
 30
0.0
 10
143.6015
 20
-102.6986
 30
0.0
 10
148.6725
 20
-97.6777
 30
0.0
 10
148.6725
 20
-97.6777
 30
0.0
 10
148.6725
 20
-97.6777
 30
0.0
 10
148.6725
 20
-97.6777
 30
0.0
 10
152.6739
 20
-101.6308
 30
0.0
 10
152.6739
 20
-101.6308
 30
0.0
 10
152.6739
 20
-101.6308
 30
0.0
 10
152.6739
 20
-101.6308
 30
0.0
 10
152.6871
 20
-107.5784
 30
0.0
 10
152.6871
 20
-107.5784
 30
0.0
  0
SPLINE
  5
103
330
1F
100
AcDbEntity
  8
layer 1
 62
     7
100
AcDbSpline
210
0.0
220
0.0
230
1.0
 70
    11
 71
     3
 72
    28
 73
    24
 74
     0
 42
0.0000000001
 43
0.0000000001
 12
1.0
 22
0.0
 32
0.0
 13
1.0
 23
0.0
 33
0.0
 40
0.0
 40
0.0
 40
0.0
 40
0.0
 40
0.1428571428571428
 40
0.1428571428571428
 40
0.1428571428571428
 40
0.1428571428571428
 40
0.2857142857142857
 40
0.2857142857142857
 40
0.2857142857142857
 40
0.2857142857142857
 40
0.4285714285714285
 40
0.4285714285714285
 40
0.4285714285714285
 40
0.4285714285714285
 40
0.5714285714285714
 40
0.5714285714285714
 40
0.5714285714285714
 40
0.5714285714285714
 40
0.7142857142857143
 40
0.7142857142857143
 40
0.7142857142857143
 40
0.7142857142857143
 40
1.0
 40
1.0
 40
1.0
 40
1.0
 10
116.3508
 20
-107.5784
 30
0.0
 10
116.3508
 20
-107.5784
 30
0.0
 10
132.4923
 20
-107.5782
 30
0.0
 10
132.4923
 20
-107.5782
 30
0.0
 10
132.4923
 20
-107.5782
 30
0.0
 10
132.4923
 20
-107.5782
 30
0.0
 10
132.5122
 20
-102.6986
 30
0.0
 10
132.5122
 20
-102.6986
 30
0.0
 10
132.5122
 20
-102.6986
 30
0.0
 10
132.5122
 20
-102.6986
 30
0.0
 10
125.4364
 20
-102.6986
 30
0.0
 10
125.4364
 20
-102.6986
 30
0.0
 10
125.4364
 20
-102.6986
 30
0.0
 10
125.4364
 20
-102.6986
 30
0.0
 10
120.3653
 20
-97.6777
 30
0.0
 10
120.3653
 20
-97.6777
 30
0.0
 10
120.3653
 20
-97.6777
 30
0.0
 10
120.3653
 20
-97.6777
 30
0.0
 10
116.3639
 20
-101.6308
 30
0.0
 10
116.3639
 20
-101.6308
 30
0.0
 10
116.3639
 20
-101.6308
 30
0.0
 10
116.3639
 20
-101.6308
 30
0.0
 10
116.3508
 20
-107.5784
 30
0.0
 10
116.3508
 20
-107.5784
 30
0.0
  0
SPLINE
  5
104
330
1F
100
AcDbEntity
  8
layer 1
 62
     7
100
AcDbSpline
210
0.0
220
0.0
230
1.0
 70
    11
 71
     3
 72
    28
 73
    24
 74
     0
 42
0.0000000001
 43
0.0000000001
 12
1.0
 22
0.0
 32
0.0
 13
1.0
 23
0.0
 33
0.0
 40
0.0
 40
0.0
 40
0.0
 40
0.0
 40
0.1428571428571428
 40
0.1428571428571428
 40
0.1428571428571428
 40
0.1428571428571428
 40
0.2857142857142857
 40
0.2857142857142857
 40
0.2857142857142857
 40
0.2857142857142857
 40
0.4285714285714285
 40
0.4285714285714285
 40
0.4285714285714285
 40
0.4285714285714285
 40
0.5714285714285714
 40
0.5714285714285714
 40
0.5714285714285714
 40
0.5714285714285714
 40
0.7142857142857143
 40
0.7142857142857143
 40
0.7142857142857143
 40
0.7142857142857143
 40
1.0
 40
1.0
 40
1.0
 40
1.0
 10
152.6732
 20
125.0764
 30
0.0
 10
152.6732
 20
125.0764
 30
0.0
 10
136.5318
 20
125.0763
 30
0.0
 10
136.5318
 20
125.0763
 30
0.0
 10
136.5318
 20
125.0763
 30
0.0
 10
136.5318
 20
125.0763
 30
0.0
 10
136.5119
 20
120.1966
 30
0.0
 10
136.5119
 20
120.1966
 30
0.0
 10
136.5119
 20
120.1966
 30
0.0
 10
136.5119
 20
120.1966
 30
0.0
 10
143.5877
 20
120.1966
 30
0.0
 10
143.5877
 20
120.1966
 30
0.0
 10
143.5877
 20
120.1966
 30
0.0
 10
143.5877
 20
120.1966
 30
0.0
 10
148.6587
 20
115.1757
 30
0.0
 10
148.6587
 20
115.1757
 30
0.0
 10
148.6587
 20
115.1757
 30
0.0
 10
148.6587
 20
115.1757
 30
0.0
 10
152.6601
 20
119.1288
 30
0.0
 10
152.6601
 20
119.1288
 30
0.0
 10
152.6601
 20
119.1288
 30
0.0
 10
152.6601
 20
119.1288
 30
0.0
 10
152.6732
 20
125.0764
 30
0.0
 10
152.6732
 20
125.0764
 30
0.0
  0
SPLINE
  5
105
330
1F
100
AcDbEntity
  8
layer 1
 62
     7
100
AcDbSpline
210
0.0
220
0.0
230
1.0
 70
    11
 71
     3
 72
    28
 73
    24
 74
     0
 42
0.0000000001
 43
0.0000000001
 12
1.0
 22
0.0
 32
0.0
 13
1.0
 23
0.0
 33
0.0
 40
0.0
 40
0.0
 40
0.0
 40
0.0
 40
0.1428571428571428
 40
0.1428571428571428
 40
0.1428571428571428
 40
0.1428571428571428
 40
0.2857142857142857
 40
0.2857142857142857
 40
0.2857142857142857
 40
0.2857142857142857
 40
0.4285714285714285
 40
0.4285714285714285
 40
0.4285714285714285
 40
0.4285714285714285
 40
0.5714285714285714
 40
0.5714285714285714
 40
0.5714285714285714
 40
0.5714285714285714
 40
0.7142857142857143
 40
0.7142857142857143
 40
0.7142857142857143
 40
0.7142857142857143
 40
1.0
 40
1.0
 40
1.0
 40
1.0
 10
116.337
 20
125.0764
 30
0.0
 10
116.337
 20
125.0764
 30
0.0
 10
132.4785
 20
125.0762
 30
0.0
 10
132.4785
 20
125.0762
 30
0.0
 10
132.4785
 20
125.0762
 30
0.0
 10
132.4785
 20
125.0762
 30
0.0
 10
132.4984
 20
120.1966
 30
0.0
 10
132.4984
 20
120.1966
 30
0.0
 10
132.4984
 20
120.1966
 30
0.0
 10
132.4984
 20
120.1966
 30
0.0
 10
125.4226
 20
120.1966
 30
0.0
 10
125.4226
 20
120.1966
 30
0.0
 10
125.4226
 20
120.1966
 30
0.0
 10
125.4226
 20
120.1966
 30
0.0
 10
120.3515
 20
115.1757
 30
0.0
 10
120.3515
 20
115.1757
 30
0.0
 10
120.3515
 20
115.1757
 30
0.0
 10
120.3515
 20
115.1757
 30
0.0
 10
116.3501
 20
119.1288
 30
0.0
 10
116.3501
 20
119.1288
 30
0.0
 10
116.3501
 20
119.1288
 30
0.0
 10
116.3501
 20
119.1288
 30
0.0
 10
116.337
 20
125.0764
 30
0.0
 10
116.337
 20
125.0764
 30
0.0
  0
SPLINE
  5
106
330
1F
100
AcDbEntity
  8
layer 1
 62
     7
100
AcDbSpline
210
0.0
220
0.0
230
1.0
 70
    11
 71
     3
 72
    36
 73
    32
 74
     0
 42
0.0000000001
 43
0.0000000001
 12
1.0
 22
0.0
 32
0.0
 13
1.0
 23
0.0
 33
0.0
 40
0.0
 40
0.0
 40
0.0
 40
0.0
 40
0.1111111111111111
 40
0.1111111111111111
 40
0.1111111111111111
 40
0.1111111111111111
 40
0.2222222222222222
 40
0.2222222222222222
 40
0.2222222222222222
 40
0.2222222222222222
 40
0.3333333333333333
 40
0.3333333333333333
 40
0.3333333333333333
 40
0.3333333333333333
 40
0.4444444444444444
 40
0.4444444444444444
 40
0.4444444444444444
 40
0.4444444444444444
 40
0.5555555555555556
 40
0.5555555555555556
 40
0.5555555555555556
 40
0.5555555555555556
 40
0.6666666666666666
 40
0.6666666666666666
 40
0.6666666666666666
 40
0.6666666666666666
 40
0.7777777777777778
 40
0.7777777777777778
 40
0.7777777777777778
 40
0.7777777777777778
 40
1.0
 40
1.0
 40
1.0
 40
1.0
 10
87.4104
 20
59.6931
 30
0.0
 10
87.4104
 20
59.6931
 30
0.0
 10
87.4104
 20
66.9226
 30
0.0
 10
87.4104
 20
66.9226
 30
0.0
 10
87.4104
 20
66.9226
 30
0.0
 10
87.4104
 20
66.9226
 30
0.0
 10
82.4242
 20
71.7078
 30
0.0
 10
82.4242
 20
71.7078
 30
0.0
 10
82.4242
 20
71.7078
 30
0.0
 10
82.4242
 20
71.7078
 30
0.0
 10
86.7671
 20
75.8345
 30
0.0
 10
86.7671
 20
75.8345
 30
0.0
 10
86.7671
 20
75.8345
 30
0.0
 10
86.7671
 20
75.8345
 30
0.0
 10
92.2903
 20
75.8544
 30
0.0
 10
92.2903
 20
75.8544
 30
0.0
 10
92.2903
 20
75.8544
 30
0.0
 10
92.2903
 20
75.8544
 30
0.0
 10
92.2903
 20
68.7787
 30
0.0
 10
92.2903
 20
68.7787
 30
0.0
 10
92.2903
 20
68.7787
 30
0.0
 10
92.2903
 20
68.7787
 30
0.0
 10
97.3112
 20
63.7076
 30
0.0
 10
97.3112
 20
63.7076
 30
0.0
 10
97.3112
 20
63.7076
 30
0.0
 10
97.3112
 20
63.7076
 30
0.0
 10
93.3581
 20
59.7062
 30
0.0
 10
93.3581
 20
59.7062
 30
0.0
 10
93.3581
 20
59.7062
 30
0.0
 10
93.3581
 20
59.7062
 30
0.0
 10
87.4104
 20
59.6931
 30
0.0
 10
87.4104
 20
59.6931
 30
0.0
  0
SPLINE
  5
107
330
1F
100
AcDbEntity
  8
layer 1
 62
     7
100
AcDbSpline
210
0.0
220
0.0
230
1.0
 70
    11
 71
     3
 72
    36
 73
    32
 74
     0
 42
0.0000000001
 43
0.0000000001
 12
1.0
 22
0.0
 32
0.0
 13
1.0
 23
0.0
 33
0.0
 40
0.0
 40
0.0
 40
0.0
 40
0.0
 40
0.1111111111111111
 40
0.1111111111111111
 40
0.1111111111111111
 40
0.1111111111111111
 40
0.2222222222222222
 40
0.2222222222222222
 40
0.2222222222222222
 40
0.2222222222222222
 40
0.3333333333333333
 40
0.3333333333333333
 40
0.3333333333333333
 40
0.3333333333333333
 40
0.4444444444444444
 40
0.4444444444444444
 40
0.4444444444444444
 40
0.4444444444444444
 40
0.5555555555555556
 40
0.5555555555555556
 40
0.5555555555555556
 40
0.5555555555555556
 40
0.6666666666666666
 40
0.6666666666666666
 40
0.6666666666666666
 40
0.6666666666666666
 40
0.7777777777777778
 40
0.7777777777777778
 40
0.7777777777777778
 40
0.7777777777777778
 40
1.0
 40
1.0
 40
1.0
 40
1.0
 10
112.6218
 20
59.6931
 30
0.0
 10
112.6218
 20
59.6931
 30
0.0
 10
112.6218
 20
66.9226
 30
0.0
 10
112.6218
 20
66.9226
 30
0.0
 10
112.6218
 20
66.9226
 30
0.0
 10
112.6218
 20
66.9226
 30
0.0
 10
117.608
 20
71.7078
 30
0.0
 10
117.608
 20
71.7078
 30
0.0
 10
117.608
 20
71.7078
 30
0.0
 10
117.608
 20
71.7078
 30
0.0
 10
113.2651
 20
75.8345
 30
0.0
 10
113.2651
 20
75.8345
 30
0.0
 10
113.2651
 20
75.8345
 30
0.0
 10
113.2651
 20
75.8345
 30
0.0
 10
107.7419
 20
75.8544
 30
0.0
 10
107.7419
 20
75.8544
 30
0.0
 10
107.7419
 20
75.8544
 30
0.0
 10
107.7419
 20
75.8544
 30
0.0
 10
107.7419
 20
68.7787
 30
0.0
 10
107.7419
 20
68.7787
 30
0.0
 10
107.7419
 20
68.7787
 30
0.0
 10
107.7419
 20
68.7787
 30
0.0
 10
102.721
 20
63.7076
 30
0.0
 10
102.721
 20
63.7076
 30
0.0
 10
102.721
 20
63.7076
 30
0.0
 10
102.721
 20
63.7076
 30
0.0
 10
106.6741
 20
59.7062
 30
0.0
 10
106.6741
 20
59.7062
 30
0.0
 10
106.6741
 20
59.7062
 30
0.0
 10
106.6741
 20
59.7062
 30
0.0
 10
112.6218
 20
59.6931
 30
0.0
 10
112.6218
 20
59.6931
 30
0.0
  0
SPLINE
  5
108
330
1F
100
AcDbEntity
  8
layer 1
 62
     7
100
AcDbSpline
210
0.0
220
0.0
230
1.0
 70
    11
 71
     3
 72
    36
 73
    32
 74
     0
 42
0.0000000001
 43
0.0000000001
 12
1.0
 22
0.0
 32
0.0
 13
1.0
 23
0.0
 33
0.0
 40
0.0
 40
0.0
 40
0.0
 40
0.0
 40
0.1111111111111111
 40
0.1111111111111111
 40
0.1111111111111111
 40
0.1111111111111111
 40
0.2222222222222222
 40
0.2222222222222222
 40
0.2222222222222222
 40
0.2222222222222222
 40
0.3333333333333333
 40
0.3333333333333333
 40
0.3333333333333333
 40
0.3333333333333333
 40
0.4444444444444444
 40
0.4444444444444444
 40
0.4444444444444444
 40
0.4444444444444444
 40
0.5555555555555556
 40
0.5555555555555556
 40
0.5555555555555556
 40
0.5555555555555556
 40
0.6666666666666666
 40
0.6666666666666666
 40
0.6666666666666666
 40
0.6666666666666666
 40
0.7777777777777778
 40
0.7777777777777778
 40
0.7777777777777778
 40
0.7777777777777778
 40
1.0
 40
1.0
 40
1.0
 40
1.0
 10
107.7074
 20
79.8126
 30
0.0
 10
107.7074
 20
79.8126
 30
0.0
 10
107.7074
 20
87.0421
 30
0.0
 10
107.7074
 20
87.0421
 30
0.0
 10
107.7074
 20
87.0421
 30
0.0
 10
107.7074
 20
87.0421
 30
0.0
 10
102.7212
 20
91.8274
 30
0.0
 10
102.7212
 20
91.8274
 30
0.0
 10
102.7212
 20
91.8274
 30
0.0
 10
102.7212
 20
91.8274
 30
0.0
 10
107.0641
 20
95.9541
 30
0.0
 10
107.0641
 20
95.9541
 30
0.0
 10
107.0641
 20
95.9541
 30
0.0
 10
107.0641
 20
95.9541
 30
0.0
 10
112.5873
 20
95.974
 30
0.0
 10
112.5873
 20
95.974
 30
0.0
 10
112.5873
 20
95.974
 30
0.0
 10
112.5873
 20
95.974
 30
0.0
 10
112.5873
 20
88.8982
 30
0.0
 10
112.5873
 20
88.8982
 30
0.0
 10
112.5873
 20
88.8982
 30
0.0
 10
112.5873
 20
88.8982
 30
0.0
 10
117.6082
 20
83.8271
 30
0.0
 10
117.6082
 20
83.8271
 30
0.0
 10
117.6082
 20
83.8271
 30
0.0
 10
117.6082
 20
83.8271
 30
0.0
 10
113.6551
 20
79.8257
 30
0.0
 10
113.6551
 20
79.8257
 30
0.0
 10
113.6551
 20
79.8257
 30
0.0
 10
113.6551
 20
79.8257
 30
0.0
 10
107.7074
 20
79.8126
 30
0.0
 10
107.7074
 20
79.8126
 30
0.0
  0
SPLINE
  5
109
330
1F
100
AcDbEntity
  8
layer 1
 62
     7
100
AcDbSpline
210
0.0
220
0.0
230
1.0
 70
    11
 71
     3
 72
    36
 73
    32
 74
     0
 42
0.0000000001
 43
0.0000000001
 12
1.0
 22
0.0
 32
0.0
 13
1.0
 23
0.0
 33
0.0
 40
0.0
 40
0.0
 40
0.0
 40
0.0
 40
0.1111111111111111
 40
0.1111111111111111
 40
0.1111111111111111
 40
0.1111111111111111
 40
0.2222222222222222
 40
0.2222222222222222
 40
0.2222222222222222
 40
0.2222222222222222
 40
0.3333333333333333
 40
0.3333333333333333
 40
0.3333333333333333
 40
0.3333333333333333
 40
0.4444444444444444
 40
0.4444444444444444
 40
0.4444444444444444
 40
0.4444444444444444
 40
0.5555555555555556
 40
0.5555555555555556
 40
0.5555555555555556
 40
0.5555555555555556
 40
0.6666666666666666
 40
0.6666666666666666
 40
0.6666666666666666
 40
0.6666666666666666
 40
0.7777777777777778
 40
0.7777777777777778
 40
0.7777777777777778
 40
0.7777777777777778
 40
1.0
 40
1.0
 40
1.0
 40
1.0
 10
156.5374
 20
95.8128
 30
0.0
 10
156.5374
 20
95.8128
 30
0.0
 10
156.5374
 20
88.5833
 30
0.0
 10
156.5374
 20
88.5833
 30
0.0
 10
156.5374
 20
88.5833
 30
0.0
 10
156.5374
 20
88.5833
 30
0.0
 10
151.5512
 20
83.7981
 30
0.0
 10
151.5512
 20
83.7981
 30
0.0
 10
151.5512
 20
83.7981
 30
0.0
 10
151.5512
 20
83.7981
 30
0.0
 10
155.8941
 20
79.6713
 30
0.0
 10
155.8941
 20
79.6713
 30
0.0
 10
155.8941
 20
79.6713
 30
0.0
 10
155.8941
 20
79.6713
 30
0.0
 10
161.4173
 20
79.6515
 30
0.0
 10
161.4173
 20
79.6515
 30
0.0
 10
161.4173
 20
79.6515
 30
0.0
 10
161.4173
 20
79.6515
 30
0.0
 10
161.4173
 20
86.7272
 30
0.0
 10
161.4173
 20
86.7272
 30
0.0
 10
161.4173
 20
86.7272
 30
0.0
 10
161.4173
 20
86.7272
 30
0.0
 10
166.4382
 20
91.7983
 30
0.0
 10
166.4382
 20
91.7983
 30
0.0
 10
166.4382
 20
91.7983
 30
0.0
 10
166.4382
 20
91.7983
 30
0.0
 10
162.4851
 20
95.7997
 30
0.0
 10
162.4851
 20
95.7997
 30
0.0
 10
162.4851
 20
95.7997
 30
0.0
 10
162.4851
 20
95.7997
 30
0.0
 10
156.5374
 20
95.8128
 30
0.0
 10
156.5374
 20
95.8128
 30
0.0
  0
SPLINE
  5
10A
330
1F
100
AcDbEntity
  8
layer 1
 62
     7
100
AcDbSpline
210
0.0
220
0.0
230
1.0
 70
    11
 71
     3
 72
    36
 73
    32
 74
     0
 42
0.0000000001
 43
0.0000000001
 12
1.0
 22
0.0
 32
0.0
 13
1.0
 23
0.0
 33
0.0
 40
0.0
 40
0.0
 40
0.0
 40
0.0
 40
0.1111111111111111
 40
0.1111111111111111
 40
0.1111111111111111
 40
0.1111111111111111
 40
0.2222222222222222
 40
0.2222222222222222
 40
0.2222222222222222
 40
0.2222222222222222
 40
0.3333333333333333
 40
0.3333333333333333
 40
0.3333333333333333
 40
0.3333333333333333
 40
0.4444444444444444
 40
0.4444444444444444
 40
0.4444444444444444
 40
0.4444444444444444
 40
0.5555555555555556
 40
0.5555555555555556
 40
0.5555555555555556
 40
0.5555555555555556
 40
0.6666666666666666
 40
0.6666666666666666
 40
0.6666666666666666
 40
0.6666666666666666
 40
0.7777777777777778
 40
0.7777777777777778
 40
0.7777777777777778
 40
0.7777777777777778
 40
1.0
 40
1.0
 40
1.0
 40
1.0
 10
156.5374
 20
59.6931
 30
0.0
 10
156.5374
 20
59.6931
 30
0.0
 10
156.5374
 20
66.9226
 30
0.0
 10
156.5374
 20
66.9226
 30
0.0
 10
156.5374
 20
66.9226
 30
0.0
 10
156.5374
 20
66.9226
 30
0.0
 10
151.5512
 20
71.7078
 30
0.0
 10
151.5512
 20
71.7078
 30
0.0
 10
151.5512
 20
71.7078
 30
0.0
 10
151.5512
 20
71.7078
 30
0.0
 10
155.8941
 20
75.8345
 30
0.0
 10
155.8941
 20
75.8345
 30
0.0
 10
155.8941
 20
75.8345
 30
0.0
 10
155.8941
 20
75.8345
 30
0.0
 10
161.4173
 20
75.8544
 30
0.0
 10
161.4173
 20
75.8544
 30
0.0
 10
161.4173
 20
75.8544
 30
0.0
 10
161.4173
 20
75.8544
 30
0.0
 10
161.4173
 20
68.7787
 30
0.0
 10
161.4173
 20
68.7787
 30
0.0
 10
161.4173
 20
68.7787
 30
0.0
 10
161.4173
 20
68.7787
 30
0.0
 10
166.4382
 20
63.7076
 30
0.0
 10
166.4382
 20
63.7076
 30
0.0
 10
166.4382
 20
63.7076
 30
0.0
 10
166.4382
 20
63.7076
 30
0.0
 10
162.4851
 20
59.7062
 30
0.0
 10
162.4851
 20
59.7062
 30
0.0
 10
162.4851
 20
59.7062
 30
0.0
 10
162.4851
 20
59.7062
 30
0.0
 10
156.5374
 20
59.6931
 30
0.0
 10
156.5374
 20
59.6931
 30
0.0
  0
SPLINE
  5
10B
330
1F
100
AcDbEntity
  8
layer 1
 62
     7
100
AcDbSpline
210
0.0
220
0.0
230
1.0
 70
    11
 71
     3
 72
    36
 73
    32
 74
     0
 42
0.0000000001
 43
0.0000000001
 12
1.0
 22
0.0
 32
0.0
 13
1.0
 23
0.0
 33
0.0
 40
0.0
 40
0.0
 40
0.0
 40
0.0
 40
0.1111111111111111
 40
0.1111111111111111
 40
0.1111111111111111
 40
0.1111111111111111
 40
0.2222222222222222
 40
0.2222222222222222
 40
0.2222222222222222
 40
0.2222222222222222
 40
0.3333333333333333
 40
0.3333333333333333
 40
0.3333333333333333
 40
0.3333333333333333
 40
0.4444444444444444
 40
0.4444444444444444
 40
0.4444444444444444
 40
0.4444444444444444
 40
0.5555555555555556
 40
0.5555555555555556
 40
0.5555555555555556
 40
0.5555555555555556
 40
0.6666666666666666
 40
0.6666666666666666
 40
0.6666666666666666
 40
0.6666666666666666
 40
0.7777777777777778
 40
0.7777777777777778
 40
0.7777777777777778
 40
0.7777777777777778
 40
1.0
 40
1.0
 40
1.0
 40
1.0
 10
181.7487
 20
59.6931
 30
0.0
 10
181.7487
 20
59.6931
 30
0.0
 10
181.7487
 20
66.9226
 30
0.0
 10
181.7487
 20
66.9226
 30
0.0
 10
181.7487
 20
66.9226
 30
0.0
 10
181.7487
 20
66.9226
 30
0.0
 10
186.735
 20
71.7078
 30
0.0
 10
186.735
 20
71.7078
 30
0.0
 10
186.735
 20
71.7078
 30
0.0
 10
186.735
 20
71.7078
 30
0.0
 10
182.392
 20
75.8345
 30
0.0
 10
182.392
 20
75.8345
 30
0.0
 10
182.392
 20
75.8345
 30
0.0
 10
182.392
 20
75.8345
 30
0.0
 10
176.8689
 20
75.8544
 30
0.0
 10
176.8689
 20
75.8544
 30
0.0
 10
176.8689
 20
75.8544
 30
0.0
 10
176.8689
 20
75.8544
 30
0.0
 10
176.8689
 20
68.7787
 30
0.0
 10
176.8689
 20
68.7787
 30
0.0
 10
176.8689
 20
68.7787
 30
0.0
 10
176.8689
 20
68.7787
 30
0.0
 10
171.848
 20
63.7076
 30
0.0
 10
171.848
 20
63.7076
 30
0.0
 10
171.848
 20
63.7076
 30
0.0
 10
171.848
 20
63.7076
 30
0.0
 10
175.8011
 20
59.7062
 30
0.0
 10
175.8011
 20
59.7062
 30
0.0
 10
175.8011
 20
59.7062
 30
0.0
 10
175.8011
 20
59.7062
 30
0.0
 10
181.7487
 20
59.6931
 30
0.0
 10
181.7487
 20
59.6931
 30
0.0
  0
SPLINE
  5
10C
330
1F
100
AcDbEntity
  8
layer 1
 62
     7
100
AcDbSpline
210
0.0
220
0.0
230
1.0
 70
    11
 71
     3
 72
    36
 73
    32
 74
     0
 42
0.0000000001
 43
0.0000000001
 12
1.0
 22
0.0
 32
0.0
 13
1.0
 23
0.0
 33
0.0
 40
0.0
 40
0.0
 40
0.0
 40
0.0
 40
0.1111111111111111
 40
0.1111111111111111
 40
0.1111111111111111
 40
0.1111111111111111
 40
0.2222222222222222
 40
0.2222222222222222
 40
0.2222222222222222
 40
0.2222222222222222
 40
0.3333333333333333
 40
0.3333333333333333
 40
0.3333333333333333
 40
0.3333333333333333
 40
0.4444444444444444
 40
0.4444444444444444
 40
0.4444444444444444
 40
0.4444444444444444
 40
0.5555555555555556
 40
0.5555555555555556
 40
0.5555555555555556
 40
0.5555555555555556
 40
0.6666666666666666
 40
0.6666666666666666
 40
0.6666666666666666
 40
0.6666666666666666
 40
0.7777777777777778
 40
0.7777777777777778
 40
0.7777777777777778
 40
0.7777777777777778
 40
1.0
 40
1.0
 40
1.0
 40
1.0
 10
176.8344
 20
79.8126
 30
0.0
 10
176.8344
 20
79.8126
 30
0.0
 10
176.8344
 20
87.0421
 30
0.0
 10
176.8344
 20
87.0421
 30
0.0
 10
176.8344
 20
87.0421
 30
0.0
 10
176.8344
 20
87.0421
 30
0.0
 10
171.8482
 20
91.8274
 30
0.0
 10
171.8482
 20
91.8274
 30
0.0
 10
171.8482
 20
91.8274
 30
0.0
 10
171.8482
 20
91.8274
 30
0.0
 10
176.1911
 20
95.9541
 30
0.0
 10
176.1911
 20
95.9541
 30
0.0
 10
176.1911
 20
95.9541
 30
0.0
 10
176.1911
 20
95.9541
 30
0.0
 10
181.7143
 20
95.974
 30
0.0
 10
181.7143
 20
95.974
 30
0.0
 10
181.7143
 20
95.974
 30
0.0
 10
181.7143
 20
95.974
 30
0.0
 10
181.7143
 20
88.8982
 30
0.0
 10
181.7143
 20
88.8982
 30
0.0
 10
181.7143
 20
88.8982
 30
0.0
 10
181.7143
 20
88.8982
 30
0.0
 10
186.7351
 20
83.8271
 30
0.0
 10
186.7351
 20
83.8271
 30
0.0
 10
186.7351
 20
83.8271
 30
0.0
 10
186.7351
 20
83.8271
 30
0.0
 10
182.7821
 20
79.8257
 30
0.0
 10
182.7821
 20
79.8257
 30
0.0
 10
182.7821
 20
79.8257
 30
0.0
 10
182.7821
 20
79.8257
 30
0.0
 10
176.8344
 20
79.8126
 30
0.0
 10
176.8344
 20
79.8126
 30
0.0
  0
SPLINE
  5
10D
330
1F
100
AcDbEntity
  8
layer 1
 62
     7
100
AcDbSpline
210
0.0
220
0.0
230
1.0
 70
    11
 71
     3
 72
    36
 73
    32
 74
     0
 42
0.0000000001
 43
0.0000000001
 12
1.0
 22
0.0
 32
0.0
 13
1.0
 23
0.0
 33
0.0
 40
0.0
 40
0.0
 40
0.0
 40
0.0
 40
0.1111111111111111
 40
0.1111111111111111
 40
0.1111111111111111
 40
0.1111111111111111
 40
0.2222222222222222
 40
0.2222222222222222
 40
0.2222222222222222
 40
0.2222222222222222
 40
0.3333333333333333
 40
0.3333333333333333
 40
0.3333333333333333
 40
0.3333333333333333
 40
0.4444444444444444
 40
0.4444444444444444
 40
0.4444444444444444
 40
0.4444444444444444
 40
0.5555555555555556
 40
0.5555555555555556
 40
0.5555555555555556
 40
0.5555555555555556
 40
0.6666666666666666
 40
0.6666666666666666
 40
0.6666666666666666
 40
0.6666666666666666
 40
0.7777777777777778
 40
0.7777777777777778
 40
0.7777777777777778
 40
0.7777777777777778
 40
1.0
 40
1.0
 40
1.0
 40
1.0
 10
87.4104
 20
26.803
 30
0.0
 10
87.4104
 20
26.803
 30
0.0
 10
87.4104
 20
19.5734
 30
0.0
 10
87.4104
 20
19.5734
 30
0.0
 10
87.4104
 20
19.5734
 30
0.0
 10
87.4104
 20
19.5734
 30
0.0
 10
82.4242
 20
14.7882
 30
0.0
 10
82.4242
 20
14.7882
 30
0.0
 10
82.4242
 20
14.7882
 30
0.0
 10
82.4242
 20
14.7882
 30
0.0
 10
86.7671
 20
10.6615
 30
0.0
 10
86.7671
 20
10.6615
 30
0.0
 10
86.7671
 20
10.6615
 30
0.0
 10
86.7671
 20
10.6615
 30
0.0
 10
92.2903
 20
10.6416
 30
0.0
 10
92.2903
 20
10.6416
 30
0.0
 10
92.2903
 20
10.6416
 30
0.0
 10
92.2903
 20
10.6416
 30
0.0
 10
92.2903
 20
17.7174
 30
0.0
 10
92.2903
 20
17.7174
 30
0.0
 10
92.2903
 20
17.7174
 30
0.0
 10
92.2903
 20
17.7174
 30
0.0
 10
97.3112
 20
22.7884
 30
0.0
 10
97.3112
 20
22.7884
 30
0.0
 10
97.3112
 20
22.7884
 30
0.0
 10
97.3112
 20
22.7884
 30
0.0
 10
93.3581
 20
26.7899
 30
0.0
 10
93.3581
 20
26.7899
 30
0.0
 10
93.3581
 20
26.7899
 30
0.0
 10
93.3581
 20
26.7899
 30
0.0
 10
87.4104
 20
26.803
 30
0.0
 10
87.4104
 20
26.803
 30
0.0
  0
SPLINE
  5
10E
330
1F
100
AcDbEntity
  8
layer 1
 62
     7
100
AcDbSpline
210
0.0
220
0.0
230
1.0
 70
    11
 71
     3
 72
    36
 73
    32
 74
     0
 42
0.0000000001
 43
0.0000000001
 12
1.0
 22
0.0
 32
0.0
 13
1.0
 23
0.0
 33
0.0
 40
0.0
 40
0.0
 40
0.0
 40
0.0
 40
0.1111111111111111
 40
0.1111111111111111
 40
0.1111111111111111
 40
0.1111111111111111
 40
0.2222222222222222
 40
0.2222222222222222
 40
0.2222222222222222
 40
0.2222222222222222
 40
0.3333333333333333
 40
0.3333333333333333
 40
0.3333333333333333
 40
0.3333333333333333
 40
0.4444444444444444
 40
0.4444444444444444
 40
0.4444444444444444
 40
0.4444444444444444
 40
0.5555555555555556
 40
0.5555555555555556
 40
0.5555555555555556
 40
0.5555555555555556
 40
0.6666666666666666
 40
0.6666666666666666
 40
0.6666666666666666
 40
0.6666666666666666
 40
0.7777777777777778
 40
0.7777777777777778
 40
0.7777777777777778
 40
0.7777777777777778
 40
1.0
 40
1.0
 40
1.0
 40
1.0
 10
87.4104
 20
-9.3168
 30
0.0
 10
87.4104
 20
-9.3168
 30
0.0
 10
87.4104
 20
-2.0873
 30
0.0
 10
87.4104
 20
-2.0873
 30
0.0
 10
87.4104
 20
-2.0873
 30
0.0
 10
87.4104
 20
-2.0873
 30
0.0
 10
82.4242
 20
2.698
 30
0.0
 10
82.4242
 20
2.698
 30
0.0
 10
82.4242
 20
2.698
 30
0.0
 10
82.4242
 20
2.698
 30
0.0
 10
86.7671
 20
6.8247
 30
0.0
 10
86.7671
 20
6.8247
 30
0.0
 10
86.7671
 20
6.8247
 30
0.0
 10
86.7671
 20
6.8247
 30
0.0
 10
92.2903
 20
6.8446
 30
0.0
 10
92.2903
 20
6.8446
 30
0.0
 10
92.2903
 20
6.8446
 30
0.0
 10
92.2903
 20
6.8446
 30
0.0
 10
92.2903
 20
-0.2312
 30
0.0
 10
92.2903
 20
-0.2312
 30
0.0
 10
92.2903
 20
-0.2312
 30
0.0
 10
92.2903
 20
-0.2312
 30
0.0
 10
97.3112
 20
-5.3023
 30
0.0
 10
97.3112
 20
-5.3023
 30
0.0
 10
97.3112
 20
-5.3023
 30
0.0
 10
97.3112
 20
-5.3023
 30
0.0
 10
93.3581
 20
-9.3037
 30
0.0
 10
93.3581
 20
-9.3037
 30
0.0
 10
93.3581
 20
-9.3037
 30
0.0
 10
93.3581
 20
-9.3037
 30
0.0
 10
87.4104
 20
-9.3168
 30
0.0
 10
87.4104
 20
-9.3168
 30
0.0
  0
SPLINE
  5
10F
330
1F
100
AcDbEntity
  8
layer 1
 62
     7
100
AcDbSpline
210
0.0
220
0.0
230
1.0
 70
    11
 71
     3
 72
    36
 73
    32
 74
     0
 42
0.0000000001
 43
0.0000000001
 12
1.0
 22
0.0
 32
0.0
 13
1.0
 23
0.0
 33
0.0
 40
0.0
 40
0.0
 40
0.0
 40
0.0
 40
0.1111111111111111
 40
0.1111111111111111
 40
0.1111111111111111
 40
0.1111111111111111
 40
0.2222222222222222
 40
0.2222222222222222
 40
0.2222222222222222
 40
0.2222222222222222
 40
0.3333333333333333
 40
0.3333333333333333
 40
0.3333333333333333
 40
0.3333333333333333
 40
0.4444444444444444
 40
0.4444444444444444
 40
0.4444444444444444
 40
0.4444444444444444
 40
0.5555555555555556
 40
0.5555555555555556
 40
0.5555555555555556
 40
0.5555555555555556
 40
0.6666666666666666
 40
0.6666666666666666
 40
0.6666666666666666
 40
0.6666666666666666
 40
0.7777777777777778
 40
0.7777777777777778
 40
0.7777777777777778
 40
0.7777777777777778
 40
1.0
 40
1.0
 40
1.0
 40
1.0
 10
112.6218
 20
-9.3168
 30
0.0
 10
112.6218
 20
-9.3168
 30
0.0
 10
112.6218
 20
-2.0873
 30
0.0
 10
112.6218
 20
-2.0873
 30
0.0
 10
112.6218
 20
-2.0873
 30
0.0
 10
112.6218
 20
-2.0873
 30
0.0
 10
117.608
 20
2.698
 30
0.0
 10
117.608
 20
2.698
 30
0.0
 10
117.608
 20
2.698
 30
0.0
 10
117.608
 20
2.698
 30
0.0
 10
113.2651
 20
6.8247
 30
0.0
 10
113.2651
 20
6.8247
 30
0.0
 10
113.2651
 20
6.8247
 30
0.0
 10
113.2651
 20
6.8247
 30
0.0
 10
107.7419
 20
6.8446
 30
0.0
 10
107.7419
 20
6.8446
 30
0.0
 10
107.7419
 20
6.8446
 30
0.0
 10
107.7419
 20
6.8446
 30
0.0
 10
107.7419
 20
-0.2312
 30
0.0
 10
107.7419
 20
-0.2312
 30
0.0
 10
107.7419
 20
-0.2312
 30
0.0
 10
107.7419
 20
-0.2312
 30
0.0
 10
102.721
 20
-5.3023
 30
0.0
 10
102.721
 20
-5.3023
 30
0.0
 10
102.721
 20
-5.3023
 30
0.0
 10
102.721
 20
-5.3023
 30
0.0
 10
106.6741
 20
-9.3037
 30
0.0
 10
106.6741
 20
-9.3037
 30
0.0
 10
106.6741
 20
-9.3037
 30
0.0
 10
106.6741
 20
-9.3037
 30
0.0
 10
112.6218
 20
-9.3168
 30
0.0
 10
112.6218
 20
-9.3168
 30
0.0
  0
SPLINE
  5
110
330
1F
100
AcDbEntity
  8
layer 1
 62
     7
100
AcDbSpline
210
0.0
220
0.0
230
1.0
 70
    11
 71
     3
 72
    36
 73
    32
 74
     0
 42
0.0000000001
 43
0.0000000001
 12
1.0
 22
0.0
 32
0.0
 13
1.0
 23
0.0
 33
0.0
 40
0.0
 40
0.0
 40
0.0
 40
0.0
 40
0.1111111111111111
 40
0.1111111111111111
 40
0.1111111111111111
 40
0.1111111111111111
 40
0.2222222222222222
 40
0.2222222222222222
 40
0.2222222222222222
 40
0.2222222222222222
 40
0.3333333333333333
 40
0.3333333333333333
 40
0.3333333333333333
 40
0.3333333333333333
 40
0.4444444444444444
 40
0.4444444444444444
 40
0.4444444444444444
 40
0.4444444444444444
 40
0.5555555555555556
 40
0.5555555555555556
 40
0.5555555555555556
 40
0.5555555555555556
 40
0.6666666666666666
 40
0.6666666666666666
 40
0.6666666666666666
 40
0.6666666666666666
 40
0.7777777777777778
 40
0.7777777777777778
 40
0.7777777777777778
 40
0.7777777777777778
 40
1.0
 40
1.0
 40
1.0
 40
1.0
 10
107.7074
 20
10.8027
 30
0.0
 10
107.7074
 20
10.8027
 30
0.0
 10
107.7074
 20
18.0322
 30
0.0
 10
107.7074
 20
18.0322
 30
0.0
 10
107.7074
 20
18.0322
 30
0.0
 10
107.7074
 20
18.0322
 30
0.0
 10
102.7212
 20
22.8175
 30
0.0
 10
102.7212
 20
22.8175
 30
0.0
 10
102.7212
 20
22.8175
 30
0.0
 10
102.7212
 20
22.8175
 30
0.0
 10
107.0641
 20
26.9442
 30
0.0
 10
107.0641
 20
26.9442
 30
0.0
 10
107.0641
 20
26.9442
 30
0.0
 10
107.0641
 20
26.9442
 30
0.0
 10
112.5873
 20
26.9641
 30
0.0
 10
112.5873
 20
26.9641
 30
0.0
 10
112.5873
 20
26.9641
 30
0.0
 10
112.5873
 20
26.9641
 30
0.0
 10
112.5873
 20
19.8883
 30
0.0
 10
112.5873
 20
19.8883
 30
0.0
 10
112.5873
 20
19.8883
 30
0.0
 10
112.5873
 20
19.8883
 30
0.0
 10
117.6082
 20
14.8172
 30
0.0
 10
117.6082
 20
14.8172
 30
0.0
 10
117.6082
 20
14.8172
 30
0.0
 10
117.6082
 20
14.8172
 30
0.0
 10
113.6551
 20
10.8158
 30
0.0
 10
113.6551
 20
10.8158
 30
0.0
 10
113.6551
 20
10.8158
 30
0.0
 10
113.6551
 20
10.8158
 30
0.0
 10
107.7074
 20
10.8027
 30
0.0
 10
107.7074
 20
10.8027
 30
0.0
  0
SPLINE
  5
111
330
1F
100
AcDbEntity
  8
layer 1
 62
     7
100
AcDbSpline
210
0.0
220
0.0
230
1.0
 70
    11
 71
     3
 72
    36
 73
    32
 74
     0
 42
0.0000000001
 43
0.0000000001
 12
1.0
 22
0.0
 32
0.0
 13
1.0
 23
0.0
 33
0.0
 40
0.0
 40
0.0
 40
0.0
 40
0.0
 40
0.1111111111111111
 40
0.1111111111111111
 40
0.1111111111111111
 40
0.1111111111111111
 40
0.2222222222222222
 40
0.2222222222222222
 40
0.2222222222222222
 40
0.2222222222222222
 40
0.3333333333333333
 40
0.3333333333333333
 40
0.3333333333333333
 40
0.3333333333333333
 40
0.4444444444444444
 40
0.4444444444444444
 40
0.4444444444444444
 40
0.4444444444444444
 40
0.5555555555555556
 40
0.5555555555555556
 40
0.5555555555555556
 40
0.5555555555555556
 40
0.6666666666666666
 40
0.6666666666666666
 40
0.6666666666666666
 40
0.6666666666666666
 40
0.7777777777777778
 40
0.7777777777777778
 40
0.7777777777777778
 40
0.7777777777777778
 40
1.0
 40
1.0
 40
1.0
 40
1.0
 10
156.4967
 20
26.803
 30
0.0
 10
156.4967
 20
26.803
 30
0.0
 10
156.4967
 20
19.5734
 30
0.0
 10
156.4967
 20
19.5734
 30
0.0
 10
156.4967
 20
19.5734
 30
0.0
 10
156.4967
 20
19.5734
 30
0.0
 10
151.5105
 20
14.7882
 30
0.0
 10
151.5105
 20
14.7882
 30
0.0
 10
151.5105
 20
14.7882
 30
0.0
 10
151.5105
 20
14.7882
 30
0.0
 10
155.8534
 20
10.6615
 30
0.0
 10
155.8534
 20
10.6615
 30
0.0
 10
155.8534
 20
10.6615
 30
0.0
 10
155.8534
 20
10.6615
 30
0.0
 10
161.3765
 20
10.6416
 30
0.0
 10
161.3765
 20
10.6416
 30
0.0
 10
161.3765
 20
10.6416
 30
0.0
 10
161.3765
 20
10.6416
 30
0.0
 10
161.3765
 20
17.7174
 30
0.0
 10
161.3765
 20
17.7174
 30
0.0
 10
161.3765
 20
17.7174
 30
0.0
 10
161.3765
 20
17.7174
 30
0.0
 10
166.3974
 20
22.7884
 30
0.0
 10
166.3974
 20
22.7884
 30
0.0
 10
166.3974
 20
22.7884
 30
0.0
 10
166.3974
 20
22.7884
 30
0.0
 10
162.4443
 20
26.7899
 30
0.0
 10
162.4443
 20
26.7899
 30
0.0
 10
162.4443
 20
26.7899
 30
0.0
 10
162.4443
 20
26.7899
 30
0.0
 10
156.4967
 20
26.803
 30
0.0
 10
156.4967
 20
26.803
 30
0.0
  0
SPLINE
  5
112
330
1F
100
AcDbEntity
  8
layer 1
 62
     7
100
AcDbSpline
210
0.0
220
0.0
230
1.0
 70
    11
 71
     3
 72
    36
 73
    32
 74
     0
 42
0.0000000001
 43
0.0000000001
 12
1.0
 22
0.0
 32
0.0
 13
1.0
 23
0.0
 33
0.0
 40
0.0
 40
0.0
 40
0.0
 40
0.0
 40
0.1111111111111111
 40
0.1111111111111111
 40
0.1111111111111111
 40
0.1111111111111111
 40
0.2222222222222222
 40
0.2222222222222222
 40
0.2222222222222222
 40
0.2222222222222222
 40
0.3333333333333333
 40
0.3333333333333333
 40
0.3333333333333333
 40
0.3333333333333333
 40
0.4444444444444444
 40
0.4444444444444444
 40
0.4444444444444444
 40
0.4444444444444444
 40
0.5555555555555556
 40
0.5555555555555556
 40
0.5555555555555556
 40
0.5555555555555556
 40
0.6666666666666666
 40
0.6666666666666666
 40
0.6666666666666666
 40
0.6666666666666666
 40
0.7777777777777778
 40
0.7777777777777778
 40
0.7777777777777778
 40
0.7777777777777778
 40
1.0
 40
1.0
 40
1.0
 40
1.0
 10
156.4967
 20
-9.3168
 30
0.0
 10
156.4967
 20
-9.3168
 30
0.0
 10
156.4967
 20
-2.0873
 30
0.0
 10
156.4967
 20
-2.0873
 30
0.0
 10
156.4967
 20
-2.0873
 30
0.0
 10
156.4967
 20
-2.0873
 30
0.0
 10
151.5105
 20
2.698
 30
0.0
 10
151.5105
 20
2.698
 30
0.0
 10
151.5105
 20
2.698
 30
0.0
 10
151.5105
 20
2.698
 30
0.0
 10
155.8534
 20
6.8247
 30
0.0
 10
155.8534
 20
6.8247
 30
0.0
 10
155.8534
 20
6.8247
 30
0.0
 10
155.8534
 20
6.8247
 30
0.0
 10
161.3765
 20
6.8446
 30
0.0
 10
161.3765
 20
6.8446
 30
0.0
 10
161.3765
 20
6.8446
 30
0.0
 10
161.3765
 20
6.8446
 30
0.0
 10
161.3765
 20
-0.2312
 30
0.0
 10
161.3765
 20
-0.2312
 30
0.0
 10
161.3765
 20
-0.2312
 30
0.0
 10
161.3765
 20
-0.2312
 30
0.0
 10
166.3974
 20
-5.3023
 30
0.0
 10
166.3974
 20
-5.3023
 30
0.0
 10
166.3974
 20
-5.3023
 30
0.0
 10
166.3974
 20
-5.3023
 30
0.0
 10
162.4443
 20
-9.3037
 30
0.0
 10
162.4443
 20
-9.3037
 30
0.0
 10
162.4443
 20
-9.3037
 30
0.0
 10
162.4443
 20
-9.3037
 30
0.0
 10
156.4967
 20
-9.3168
 30
0.0
 10
156.4967
 20
-9.3168
 30
0.0
  0
SPLINE
  5
113
330
1F
100
AcDbEntity
  8
layer 1
 62
     7
100
AcDbSpline
210
0.0
220
0.0
230
1.0
 70
    11
 71
     3
 72
    36
 73
    32
 74
     0
 42
0.0000000001
 43
0.0000000001
 12
1.0
 22
0.0
 32
0.0
 13
1.0
 23
0.0
 33
0.0
 40
0.0
 40
0.0
 40
0.0
 40
0.0
 40
0.1111111111111111
 40
0.1111111111111111
 40
0.1111111111111111
 40
0.1111111111111111
 40
0.2222222222222222
 40
0.2222222222222222
 40
0.2222222222222222
 40
0.2222222222222222
 40
0.3333333333333333
 40
0.3333333333333333
 40
0.3333333333333333
 40
0.3333333333333333
 40
0.4444444444444444
 40
0.4444444444444444
 40
0.4444444444444444
 40
0.4444444444444444
 40
0.5555555555555556
 40
0.5555555555555556
 40
0.5555555555555556
 40
0.5555555555555556
 40
0.6666666666666666
 40
0.6666666666666666
 40
0.6666666666666666
 40
0.6666666666666666
 40
0.7777777777777778
 40
0.7777777777777778
 40
0.7777777777777778
 40
0.7777777777777778
 40
1.0
 40
1.0
 40
1.0
 40
1.0
 10
181.708
 20
-9.3168
 30
0.0
 10
181.708
 20
-9.3168
 30
0.0
 10
181.708
 20
-2.0873
 30
0.0
 10
181.708
 20
-2.0873
 30
0.0
 10
181.708
 20
-2.0873
 30
0.0
 10
181.708
 20
-2.0873
 30
0.0
 10
186.6942
 20
2.698
 30
0.0
 10
186.6942
 20
2.698
 30
0.0
 10
186.6942
 20
2.698
 30
0.0
 10
186.6942
 20
2.698
 30
0.0
 10
182.3513
 20
6.8247
 30
0.0
 10
182.3513
 20
6.8247
 30
0.0
 10
182.3513
 20
6.8247
 30
0.0
 10
182.3513
 20
6.8247
 30
0.0
 10
176.8281
 20
6.8446
 30
0.0
 10
176.8281
 20
6.8446
 30
0.0
 10
176.8281
 20
6.8446
 30
0.0
 10
176.8281
 20
6.8446
 30
0.0
 10
176.8281
 20
-0.2312
 30
0.0
 10
176.8281
 20
-0.2312
 30
0.0
 10
176.8281
 20
-0.2312
 30
0.0
 10
176.8281
 20
-0.2312
 30
0.0
 10
171.8072
 20
-5.3023
 30
0.0
 10
171.8072
 20
-5.3023
 30
0.0
 10
171.8072
 20
-5.3023
 30
0.0
 10
171.8072
 20
-5.3023
 30
0.0
 10
175.7603
 20
-9.3037
 30
0.0
 10
175.7603
 20
-9.3037
 30
0.0
 10
175.7603
 20
-9.3037
 30
0.0
 10
175.7603
 20
-9.3037
 30
0.0
 10
181.708
 20
-9.3168
 30
0.0
 10
181.708
 20
-9.3168
 30
0.0
  0
SPLINE
  5
114
330
1F
100
AcDbEntity
  8
layer 1
 62
     7
100
AcDbSpline
210
0.0
220
0.0
230
1.0
 70
    11
 71
     3
 72
    36
 73
    32
 74
     0
 42
0.0000000001
 43
0.0000000001
 12
1.0
 22
0.0
 32
0.0
 13
1.0
 23
0.0
 33
0.0
 40
0.0
 40
0.0
 40
0.0
 40
0.0
 40
0.1111111111111111
 40
0.1111111111111111
 40
0.1111111111111111
 40
0.1111111111111111
 40
0.2222222222222222
 40
0.2222222222222222
 40
0.2222222222222222
 40
0.2222222222222222
 40
0.3333333333333333
 40
0.3333333333333333
 40
0.3333333333333333
 40
0.3333333333333333
 40
0.4444444444444444
 40
0.4444444444444444
 40
0.4444444444444444
 40
0.4444444444444444
 40
0.5555555555555556
 40
0.5555555555555556
 40
0.5555555555555556
 40
0.5555555555555556
 40
0.6666666666666666
 40
0.6666666666666666
 40
0.6666666666666666
 40
0.6666666666666666
 40
0.7777777777777778
 40
0.7777777777777778
 40
0.7777777777777778
 40
0.7777777777777778
 40
1.0
 40
1.0
 40
1.0
 40
1.0
 10
176.7936
 20
10.8027
 30
0.0
 10
176.7936
 20
10.8027
 30
0.0
 10
176.7936
 20
18.0322
 30
0.0
 10
176.7936
 20
18.0322
 30
0.0
 10
176.7936
 20
18.0322
 30
0.0
 10
176.7936
 20
18.0322
 30
0.0
 10
171.8074
 20
22.8175
 30
0.0
 10
171.8074
 20
22.8175
 30
0.0
 10
171.8074
 20
22.8175
 30
0.0
 10
171.8074
 20
22.8175
 30
0.0
 10
176.1503
 20
26.9442
 30
0.0
 10
176.1503
 20
26.9442
 30
0.0
 10
176.1503
 20
26.9442
 30
0.0
 10
176.1503
 20
26.9442
 30
0.0
 10
181.6735
 20
26.9641
 30
0.0
 10
181.6735
 20
26.9641
 30
0.0
 10
181.6735
 20
26.9641
 30
0.0
 10
181.6735
 20
26.9641
 30
0.0
 10
181.6735
 20
19.8883
 30
0.0
 10
181.6735
 20
19.8883
 30
0.0
 10
181.6735
 20
19.8883
 30
0.0
 10
181.6735
 20
19.8883
 30
0.0
 10
186.6944
 20
14.8172
 30
0.0
 10
186.6944
 20
14.8172
 30
0.0
 10
186.6944
 20
14.8172
 30
0.0
 10
186.6944
 20
14.8172
 30
0.0
 10
182.7413
 20
10.8158
 30
0.0
 10
182.7413
 20
10.8158
 30
0.0
 10
182.7413
 20
10.8158
 30
0.0
 10
182.7413
 20
10.8158
 30
0.0
 10
176.7936
 20
10.8027
 30
0.0
 10
176.7936
 20
10.8027
 30
0.0
  0
SPLINE
  5
115
330
1F
100
AcDbEntity
  8
layer 1
 62
     7
100
AcDbSpline
210
0.0
220
0.0
230
1.0
 70
    11
 71
     3
 72
    36
 73
    32
 74
     0
 42
0.0000000001
 43
0.0000000001
 12
1.0
 22
0.0
 32
0.0
 13
1.0
 23
0.0
 33
0.0
 40
0.0
 40
0.0
 40
0.0
 40
0.0
 40
0.1111111111111111
 40
0.1111111111111111
 40
0.1111111111111111
 40
0.1111111111111111
 40
0.2222222222222222
 40
0.2222222222222222
 40
0.2222222222222222
 40
0.2222222222222222
 40
0.3333333333333333
 40
0.3333333333333333
 40
0.3333333333333333
 40
0.3333333333333333
 40
0.4444444444444444
 40
0.4444444444444444
 40
0.4444444444444444
 40
0.4444444444444444
 40
0.5555555555555556
 40
0.5555555555555556
 40
0.5555555555555556
 40
0.5555555555555556
 40
0.6666666666666666
 40
0.6666666666666666
 40
0.6666666666666666
 40
0.6666666666666666
 40
0.7777777777777778
 40
0.7777777777777778
 40
0.7777777777777778
 40
0.7777777777777778
 40
1.0
 40
1.0
 40
1.0
 40
1.0
 10
156.4967
 20
-42.3795
 30
0.0
 10
156.4967
 20
-42.3795
 30
0.0
 10
156.4967
 20
-49.609
 30
0.0
 10
156.4967
 20
-49.609
 30
0.0
 10
156.4967
 20
-49.609
 30
0.0
 10
156.4967
 20
-49.609
 30
0.0
 10
151.5105
 20
-54.3943
 30
0.0
 10
151.5105
 20
-54.3943
 30
0.0
 10
151.5105
 20
-54.3943
 30
0.0
 10
151.5105
 20
-54.3943
 30
0.0
 10
155.8534
 20
-58.521
 30
0.0
 10
155.8534
 20
-58.521
 30
0.0
 10
155.8534
 20
-58.521
 30
0.0
 10
155.8534
 20
-58.521
 30
0.0
 10
161.3765
 20
-58.5409
 30
0.0
 10
161.3765
 20
-58.5409
 30
0.0
 10
161.3765
 20
-58.5409
 30
0.0
 10
161.3765
 20
-58.5409
 30
0.0
 10
161.3765
 20
-51.4651
 30
0.0
 10
161.3765
 20
-51.4651
 30
0.0
 10
161.3765
 20
-51.4651
 30
0.0
 10
161.3765
 20
-51.4651
 30
0.0
 10
166.3974
 20
-46.394
 30
0.0
 10
166.3974
 20
-46.394
 30
0.0
 10
166.3974
 20
-46.394
 30
0.0
 10
166.3974
 20
-46.394
 30
0.0
 10
162.4443
 20
-42.3926
 30
0.0
 10
162.4443
 20
-42.3926
 30
0.0
 10
162.4443
 20
-42.3926
 30
0.0
 10
162.4443
 20
-42.3926
 30
0.0
 10
156.4967
 20
-42.3795
 30
0.0
 10
156.4967
 20
-42.3795
 30
0.0
  0
SPLINE
  5
116
330
1F
100
AcDbEntity
  8
layer 1
 62
     7
100
AcDbSpline
210
0.0
220
0.0
230
1.0
 70
    11
 71
     3
 72
    36
 73
    32
 74
     0
 42
0.0000000001
 43
0.0000000001
 12
1.0
 22
0.0
 32
0.0
 13
1.0
 23
0.0
 33
0.0
 40
0.0
 40
0.0
 40
0.0
 40
0.0
 40
0.1111111111111111
 40
0.1111111111111111
 40
0.1111111111111111
 40
0.1111111111111111
 40
0.2222222222222222
 40
0.2222222222222222
 40
0.2222222222222222
 40
0.2222222222222222
 40
0.3333333333333333
 40
0.3333333333333333
 40
0.3333333333333333
 40
0.3333333333333333
 40
0.4444444444444444
 40
0.4444444444444444
 40
0.4444444444444444
 40
0.4444444444444444
 40
0.5555555555555556
 40
0.5555555555555556
 40
0.5555555555555556
 40
0.5555555555555556
 40
0.6666666666666666
 40
0.6666666666666666
 40
0.6666666666666666
 40
0.6666666666666666
 40
0.7777777777777778
 40
0.7777777777777778
 40
0.7777777777777778
 40
0.7777777777777778
 40
1.0
 40
1.0
 40
1.0
 40
1.0
 10
156.4967
 20
-78.4993
 30
0.0
 10
156.4967
 20
-78.4993
 30
0.0
 10
156.4967
 20
-71.2698
 30
0.0
 10
156.4967
 20
-71.2698
 30
0.0
 10
156.4967
 20
-71.2698
 30
0.0
 10
156.4967
 20
-71.2698
 30
0.0
 10
151.5105
 20
-66.4845
 30
0.0
 10
151.5105
 20
-66.4845
 30
0.0
 10
151.5105
 20
-66.4845
 30
0.0
 10
151.5105
 20
-66.4845
 30
0.0
 10
155.8534
 20
-62.3578
 30
0.0
 10
155.8534
 20
-62.3578
 30
0.0
 10
155.8534
 20
-62.3578
 30
0.0
 10
155.8534
 20
-62.3578
 30
0.0
 10
161.3765
 20
-62.3379
 30
0.0
 10
161.3765
 20
-62.3379
 30
0.0
 10
161.3765
 20
-62.3379
 30
0.0
 10
161.3765
 20
-62.3379
 30
0.0
 10
161.3765
 20
-69.4137
 30
0.0
 10
161.3765
 20
-69.4137
 30
0.0
 10
161.3765
 20
-69.4137
 30
0.0
 10
161.3765
 20
-69.4137
 30
0.0
 10
166.3974
 20
-74.4847
 30
0.0
 10
166.3974
 20
-74.4847
 30
0.0
 10
166.3974
 20
-74.4847
 30
0.0
 10
166.3974
 20
-74.4847
 30
0.0
 10
162.4443
 20
-78.4862
 30
0.0
 10
162.4443
 20
-78.4862
 30
0.0
 10
162.4443
 20
-78.4862
 30
0.0
 10
162.4443
 20
-78.4862
 30
0.0
 10
156.4967
 20
-78.4993
 30
0.0
 10
156.4967
 20
-78.4993
 30
0.0
  0
SPLINE
  5
117
330
1F
100
AcDbEntity
  8
layer 1
 62
     7
100
AcDbSpline
210
0.0
220
0.0
230
1.0
 70
    11
 71
     3
 72
    36
 73
    32
 74
     0
 42
0.0000000001
 43
0.0000000001
 12
1.0
 22
0.0
 32
0.0
 13
1.0
 23
0.0
 33
0.0
 40
0.0
 40
0.0
 40
0.0
 40
0.0
 40
0.1111111111111111
 40
0.1111111111111111
 40
0.1111111111111111
 40
0.1111111111111111
 40
0.2222222222222222
 40
0.2222222222222222
 40
0.2222222222222222
 40
0.2222222222222222
 40
0.3333333333333333
 40
0.3333333333333333
 40
0.3333333333333333
 40
0.3333333333333333
 40
0.4444444444444444
 40
0.4444444444444444
 40
0.4444444444444444
 40
0.4444444444444444
 40
0.5555555555555556
 40
0.5555555555555556
 40
0.5555555555555556
 40
0.5555555555555556
 40
0.6666666666666666
 40
0.6666666666666666
 40
0.6666666666666666
 40
0.6666666666666666
 40
0.7777777777777778
 40
0.7777777777777778
 40
0.7777777777777778
 40
0.7777777777777778
 40
1.0
 40
1.0
 40
1.0
 40
1.0
 10
181.708
 20
-78.4993
 30
0.0
 10
181.708
 20
-78.4993
 30
0.0
 10
181.708
 20
-71.2698
 30
0.0
 10
181.708
 20
-71.2698
 30
0.0
 10
181.708
 20
-71.2698
 30
0.0
 10
181.708
 20
-71.2698
 30
0.0
 10
186.6942
 20
-66.4845
 30
0.0
 10
186.6942
 20
-66.4845
 30
0.0
 10
186.6942
 20
-66.4845
 30
0.0
 10
186.6942
 20
-66.4845
 30
0.0
 10
182.3513
 20
-62.3578
 30
0.0
 10
182.3513
 20
-62.3578
 30
0.0
 10
182.3513
 20
-62.3578
 30
0.0
 10
182.3513
 20
-62.3578
 30
0.0
 10
176.8281
 20
-62.3379
 30
0.0
 10
176.8281
 20
-62.3379
 30
0.0
 10
176.8281
 20
-62.3379
 30
0.0
 10
176.8281
 20
-62.3379
 30
0.0
 10
176.8281
 20
-69.4137
 30
0.0
 10
176.8281
 20
-69.4137
 30
0.0
 10
176.8281
 20
-69.4137
 30
0.0
 10
176.8281
 20
-69.4137
 30
0.0
 10
171.8072
 20
-74.4847
 30
0.0
 10
171.8072
 20
-74.4847
 30
0.0
 10
171.8072
 20
-74.4847
 30
0.0
 10
171.8072
 20
-74.4847
 30
0.0
 10
175.7603
 20
-78.4862
 30
0.0
 10
175.7603
 20
-78.4862
 30
0.0
 10
175.7603
 20
-78.4862
 30
0.0
 10
175.7603
 20
-78.4862
 30
0.0
 10
181.708
 20
-78.4993
 30
0.0
 10
181.708
 20
-78.4993
 30
0.0
  0
SPLINE
  5
118
330
1F
100
AcDbEntity
  8
layer 1
 62
     7
100
AcDbSpline
210
0.0
220
0.0
230
1.0
 70
    11
 71
     3
 72
    36
 73
    32
 74
     0
 42
0.0000000001
 43
0.0000000001
 12
1.0
 22
0.0
 32
0.0
 13
1.0
 23
0.0
 33
0.0
 40
0.0
 40
0.0
 40
0.0
 40
0.0
 40
0.1111111111111111
 40
0.1111111111111111
 40
0.1111111111111111
 40
0.1111111111111111
 40
0.2222222222222222
 40
0.2222222222222222
 40
0.2222222222222222
 40
0.2222222222222222
 40
0.3333333333333333
 40
0.3333333333333333
 40
0.3333333333333333
 40
0.3333333333333333
 40
0.4444444444444444
 40
0.4444444444444444
 40
0.4444444444444444
 40
0.4444444444444444
 40
0.5555555555555556
 40
0.5555555555555556
 40
0.5555555555555556
 40
0.5555555555555556
 40
0.6666666666666666
 40
0.6666666666666666
 40
0.6666666666666666
 40
0.6666666666666666
 40
0.7777777777777778
 40
0.7777777777777778
 40
0.7777777777777778
 40
0.7777777777777778
 40
1.0
 40
1.0
 40
1.0
 40
1.0
 10
176.7936
 20
-58.3797
 30
0.0
 10
176.7936
 20
-58.3797
 30
0.0
 10
176.7936
 20
-51.1502
 30
0.0
 10
176.7936
 20
-51.1502
 30
0.0
 10
176.7936
 20
-51.1502
 30
0.0
 10
176.7936
 20
-51.1502
 30
0.0
 10
171.8074
 20
-46.365
 30
0.0
 10
171.8074
 20
-46.365
 30
0.0
 10
171.8074
 20
-46.365
 30
0.0
 10
171.8074
 20
-46.365
 30
0.0
 10
176.1503
 20
-42.2383
 30
0.0
 10
176.1503
 20
-42.2383
 30
0.0
 10
176.1503
 20
-42.2383
 30
0.0
 10
176.1503
 20
-42.2383
 30
0.0
 10
181.6735
 20
-42.2184
 30
0.0
 10
181.6735
 20
-42.2184
 30
0.0
 10
181.6735
 20
-42.2184
 30
0.0
 10
181.6735
 20
-42.2184
 30
0.0
 10
181.6735
 20
-49.2941
 30
0.0
 10
181.6735
 20
-49.2941
 30
0.0
 10
181.6735
 20
-49.2941
 30
0.0
 10
181.6735
 20
-49.2941
 30
0.0
 10
186.6944
 20
-54.3652
 30
0.0
 10
186.6944
 20
-54.3652
 30
0.0
 10
186.6944
 20
-54.3652
 30
0.0
 10
186.6944
 20
-54.3652
 30
0.0
 10
182.7413
 20
-58.3666
 30
0.0
 10
182.7413
 20
-58.3666
 30
0.0
 10
182.7413
 20
-58.3666
 30
0.0
 10
182.7413
 20
-58.3666
 30
0.0
 10
176.7936
 20
-58.3797
 30
0.0
 10
176.7936
 20
-58.3797
 30
0.0
  0
SPLINE
  5
119
330
1F
100
AcDbEntity
  8
layer 1
 62
     7
100
AcDbSpline
210
0.0
220
0.0
230
1.0
 70
    11
 71
     3
 72
    36
 73
    32
 74
     0
 42
0.0000000001
 43
0.0000000001
 12
1.0
 22
0.0
 32
0.0
 13
1.0
 23
0.0
 33
0.0
 40
0.0
 40
0.0
 40
0.0
 40
0.0
 40
0.1111111111111111
 40
0.1111111111111111
 40
0.1111111111111111
 40
0.1111111111111111
 40
0.2222222222222222
 40
0.2222222222222222
 40
0.2222222222222222
 40
0.2222222222222222
 40
0.3333333333333333
 40
0.3333333333333333
 40
0.3333333333333333
 40
0.3333333333333333
 40
0.4444444444444444
 40
0.4444444444444444
 40
0.4444444444444444
 40
0.4444444444444444
 40
0.5555555555555556
 40
0.5555555555555556
 40
0.5555555555555556
 40
0.5555555555555556
 40
0.6666666666666666
 40
0.6666666666666666
 40
0.6666666666666666
 40
0.6666666666666666
 40
0.7777777777777778
 40
0.7777777777777778
 40
0.7777777777777778
 40
0.7777777777777778
 40
1.0
 40
1.0
 40
1.0
 40
1.0
 10
87.3695
 20
-42.3795
 30
0.0
 10
87.3695
 20
-42.3795
 30
0.0
 10
87.3695
 20
-49.609
 30
0.0
 10
87.3695
 20
-49.609
 30
0.0
 10
87.3695
 20
-49.609
 30
0.0
 10
87.3695
 20
-49.609
 30
0.0
 10
82.3833
 20
-54.3943
 30
0.0
 10
82.3833
 20
-54.3943
 30
0.0
 10
82.3833
 20
-54.3943
 30
0.0
 10
82.3833
 20
-54.3943
 30
0.0
 10
86.7262
 20
-58.521
 30
0.0
 10
86.7262
 20
-58.521
 30
0.0
 10
86.7262
 20
-58.521
 30
0.0
 10
86.7262
 20
-58.521
 30
0.0
 10
92.2494
 20
-58.5409
 30
0.0
 10
92.2494
 20
-58.5409
 30
0.0
 10
92.2494
 20
-58.5409
 30
0.0
 10
92.2494
 20
-58.5409
 30
0.0
 10
92.2494
 20
-51.4651
 30
0.0
 10
92.2494
 20
-51.4651
 30
0.0
 10
92.2494
 20
-51.4651
 30
0.0
 10
92.2494
 20
-51.4651
 30
0.0
 10
97.2703
 20
-46.394
 30
0.0
 10
97.2703
 20
-46.394
 30
0.0
 10
97.2703
 20
-46.394
 30
0.0
 10
97.2703
 20
-46.394
 30
0.0
 10
93.3172
 20
-42.3926
 30
0.0
 10
93.3172
 20
-42.3926
 30
0.0
 10
93.3172
 20
-42.3926
 30
0.0
 10
93.3172
 20
-42.3926
 30
0.0
 10
87.3695
 20
-42.3795
 30
0.0
 10
87.3695
 20
-42.3795
 30
0.0
  0
SPLINE
  5
11A
330
1F
100
AcDbEntity
  8
layer 1
 62
     7
100
AcDbSpline
210
0.0
220
0.0
230
1.0
 70
    11
 71
     3
 72
    36
 73
    32
 74
     0
 42
0.0000000001
 43
0.0000000001
 12
1.0
 22
0.0
 32
0.0
 13
1.0
 23
0.0
 33
0.0
 40
0.0
 40
0.0
 40
0.0
 40
0.0
 40
0.1111111111111111
 40
0.1111111111111111
 40
0.1111111111111111
 40
0.1111111111111111
 40
0.2222222222222222
 40
0.2222222222222222
 40
0.2222222222222222
 40
0.2222222222222222
 40
0.3333333333333333
 40
0.3333333333333333
 40
0.3333333333333333
 40
0.3333333333333333
 40
0.4444444444444444
 40
0.4444444444444444
 40
0.4444444444444444
 40
0.4444444444444444
 40
0.5555555555555556
 40
0.5555555555555556
 40
0.5555555555555556
 40
0.5555555555555556
 40
0.6666666666666666
 40
0.6666666666666666
 40
0.6666666666666666
 40
0.6666666666666666
 40
0.7777777777777778
 40
0.7777777777777778
 40
0.7777777777777778
 40
0.7777777777777778
 40
1.0
 40
1.0
 40
1.0
 40
1.0
 10
87.3695
 20
-78.4993
 30
0.0
 10
87.3695
 20
-78.4993
 30
0.0
 10
87.3695
 20
-71.2698
 30
0.0
 10
87.3695
 20
-71.2698
 30
0.0
 10
87.3695
 20
-71.2698
 30
0.0
 10
87.3695
 20
-71.2698
 30
0.0
 10
82.3833
 20
-66.4845
 30
0.0
 10
82.3833
 20
-66.4845
 30
0.0
 10
82.3833
 20
-66.4845
 30
0.0
 10
82.3833
 20
-66.4845
 30
0.0
 10
86.7262
 20
-62.3578
 30
0.0
 10
86.7262
 20
-62.3578
 30
0.0
 10
86.7262
 20
-62.3578
 30
0.0
 10
86.7262
 20
-62.3578
 30
0.0
 10
92.2494
 20
-62.3379
 30
0.0
 10
92.2494
 20
-62.3379
 30
0.0
 10
92.2494
 20
-62.3379
 30
0.0
 10
92.2494
 20
-62.3379
 30
0.0
 10
92.2494
 20
-69.4137
 30
0.0
 10
92.2494
 20
-69.4137
 30
0.0
 10
92.2494
 20
-69.4137
 30
0.0
 10
92.2494
 20
-69.4137
 30
0.0
 10
97.2703
 20
-74.4847
 30
0.0
 10
97.2703
 20
-74.4847
 30
0.0
 10
97.2703
 20
-74.4847
 30
0.0
 10
97.2703
 20
-74.4847
 30
0.0
 10
93.3172
 20
-78.4862
 30
0.0
 10
93.3172
 20
-78.4862
 30
0.0
 10
93.3172
 20
-78.4862
 30
0.0
 10
93.3172
 20
-78.4862
 30
0.0
 10
87.3695
 20
-78.4993
 30
0.0
 10
87.3695
 20
-78.4993
 30
0.0
  0
SPLINE
  5
11B
330
1F
100
AcDbEntity
  8
layer 1
 62
     7
100
AcDbSpline
210
0.0
220
0.0
230
1.0
 70
    11
 71
     3
 72
    36
 73
    32
 74
     0
 42
0.0000000001
 43
0.0000000001
 12
1.0
 22
0.0
 32
0.0
 13
1.0
 23
0.0
 33
0.0
 40
0.0
 40
0.0
 40
0.0
 40
0.0
 40
0.1111111111111111
 40
0.1111111111111111
 40
0.1111111111111111
 40
0.1111111111111111
 40
0.2222222222222222
 40
0.2222222222222222
 40
0.2222222222222222
 40
0.2222222222222222
 40
0.3333333333333333
 40
0.3333333333333333
 40
0.3333333333333333
 40
0.3333333333333333
 40
0.4444444444444444
 40
0.4444444444444444
 40
0.4444444444444444
 40
0.4444444444444444
 40
0.5555555555555556
 40
0.5555555555555556
 40
0.5555555555555556
 40
0.5555555555555556
 40
0.6666666666666666
 40
0.6666666666666666
 40
0.6666666666666666
 40
0.6666666666666666
 40
0.7777777777777778
 40
0.7777777777777778
 40
0.7777777777777778
 40
0.7777777777777778
 40
1.0
 40
1.0
 40
1.0
 40
1.0
 10
112.5809
 20
-78.4993
 30
0.0
 10
112.5809
 20
-78.4993
 30
0.0
 10
112.5809
 20
-71.2698
 30
0.0
 10
112.5809
 20
-71.2698
 30
0.0
 10
112.5809
 20
-71.2698
 30
0.0
 10
112.5809
 20
-71.2698
 30
0.0
 10
117.5671
 20
-66.4845
 30
0.0
 10
117.5671
 20
-66.4845
 30
0.0
 10
117.5671
 20
-66.4845
 30
0.0
 10
117.5671
 20
-66.4845
 30
0.0
 10
113.2242
 20
-62.3578
 30
0.0
 10
113.2242
 20
-62.3578
 30
0.0
 10
113.2242
 20
-62.3578
 30
0.0
 10
113.2242
 20
-62.3578
 30
0.0
 10
107.701
 20
-62.3379
 30
0.0
 10
107.701
 20
-62.3379
 30
0.0
 10
107.701
 20
-62.3379
 30
0.0
 10
107.701
 20
-62.3379
 30
0.0
 10
107.701
 20
-69.4137
 30
0.0
 10
107.701
 20
-69.4137
 30
0.0
 10
107.701
 20
-69.4137
 30
0.0
 10
107.701
 20
-69.4137
 30
0.0
 10
102.6801
 20
-74.4847
 30
0.0
 10
102.6801
 20
-74.4847
 30
0.0
 10
102.6801
 20
-74.4847
 30
0.0
 10
102.6801
 20
-74.4847
 30
0.0
 10
106.6332
 20
-78.4862
 30
0.0
 10
106.6332
 20
-78.4862
 30
0.0
 10
106.6332
 20
-78.4862
 30
0.0
 10
106.6332
 20
-78.4862
 30
0.0
 10
112.5809
 20
-78.4993
 30
0.0
 10
112.5809
 20
-78.4993
 30
0.0
  0
SPLINE
  5
11C
330
1F
100
AcDbEntity
  8
layer 1
 62
     7
100
AcDbSpline
210
0.0
220
0.0
230
1.0
 70
    11
 71
     3
 72
    36
 73
    32
 74
     0
 42
0.0000000001
 43
0.0000000001
 12
1.0
 22
0.0
 32
0.0
 13
1.0
 23
0.0
 33
0.0
 40
0.0
 40
0.0
 40
0.0
 40
0.0
 40
0.1111111111111111
 40
0.1111111111111111
 40
0.1111111111111111
 40
0.1111111111111111
 40
0.2222222222222222
 40
0.2222222222222222
 40
0.2222222222222222
 40
0.2222222222222222
 40
0.3333333333333333
 40
0.3333333333333333
 40
0.3333333333333333
 40
0.3333333333333333
 40
0.4444444444444444
 40
0.4444444444444444
 40
0.4444444444444444
 40
0.4444444444444444
 40
0.5555555555555556
 40
0.5555555555555556
 40
0.5555555555555556
 40
0.5555555555555556
 40
0.6666666666666666
 40
0.6666666666666666
 40
0.6666666666666666
 40
0.6666666666666666
 40
0.7777777777777778
 40
0.7777777777777778
 40
0.7777777777777778
 40
0.7777777777777778
 40
1.0
 40
1.0
 40
1.0
 40
1.0
 10
107.6665
 20
-58.3797
 30
0.0
 10
107.6665
 20
-58.3797
 30
0.0
 10
107.6665
 20
-51.1502
 30
0.0
 10
107.6665
 20
-51.1502
 30
0.0
 10
107.6665
 20
-51.1502
 30
0.0
 10
107.6665
 20
-51.1502
 30
0.0
 10
102.6803
 20
-46.365
 30
0.0
 10
102.6803
 20
-46.365
 30
0.0
 10
102.6803
 20
-46.365
 30
0.0
 10
102.6803
 20
-46.365
 30
0.0
 10
107.0232
 20
-42.2383
 30
0.0
 10
107.0232
 20
-42.2383
 30
0.0
 10
107.0232
 20
-42.2383
 30
0.0
 10
107.0232
 20
-42.2383
 30
0.0
 10
112.5464
 20
-42.2184
 30
0.0
 10
112.5464
 20
-42.2184
 30
0.0
 10
112.5464
 20
-42.2184
 30
0.0
 10
112.5464
 20
-42.2184
 30
0.0
 10
112.5464
 20
-49.2941
 30
0.0
 10
112.5464
 20
-49.2941
 30
0.0
 10
112.5464
 20
-49.2941
 30
0.0
 10
112.5464
 20
-49.2941
 30
0.0
 10
117.5673
 20
-54.3652
 30
0.0
 10
117.5673
 20
-54.3652
 30
0.0
 10
117.5673
 20
-54.3652
 30
0.0
 10
117.5673
 20
-54.3652
 30
0.0
 10
113.6142
 20
-58.3666
 30
0.0
 10
113.6142
 20
-58.3666
 30
0.0
 10
113.6142
 20
-58.3666
 30
0.0
 10
113.6142
 20
-58.3666
 30
0.0
 10
107.6665
 20
-58.3797
 30
0.0
 10
107.6665
 20
-58.3797
 30
0.0
  0
SPLINE
  5
11D
330
1F
100
AcDbEntity
  8
layer 1
 62
     7
100
AcDbSpline
210
0.0
220
0.0
230
1.0
 70
    11
 71
     3
 72
    16
 73
    12
 74
     0
 42
0.0000000001
 43
0.0000000001
 12
1.0
 22
0.0
 32
0.0
 13
1.0
 23
0.0
 33
0.0
 40
0.0
 40
0.0
 40
0.0
 40
0.0
 40
0.25
 40
0.25
 40
0.25
 40
0.25
 40
0.5
 40
0.5
 40
0.5
 40
0.5
 40
1.0
 40
1.0
 40
1.0
 40
1.0
 10
165.9069
 20
-107.4834
 30
0.0
 10
165.9069
 20
-107.4834
 30
0.0
 10
169.0628
 20
-99.9574
 30
0.0
 10
169.0628
 20
-99.9574
 30
0.0
 10
169.0628
 20
-99.9574
 30
0.0
 10
169.0628
 20
-99.9574
 30
0.0
 10
172.2695
 20
-107.4829
 30
0.0
 10
172.2695
 20
-107.4829
 30
0.0
 10
172.2695
 20
-107.4829
 30
0.0
 10
172.2695
 20
-107.4829
 30
0.0
 10
165.9069
 20
-107.4834
 30
0.0
 10
165.9069
 20
-107.4834
 30
0.0
  0
SPLINE
  5
11E
330
1F
100
AcDbEntity
  8
layer 1
 62
     7
100
AcDbSpline
210
0.0
220
0.0
230
1.0
 70
    11
 71
     3
 72
    16
 73
    12
 74
     0
 42
0.0000000001
 43
0.0000000001
 12
1.0
 22
0.0
 32
0.0
 13
1.0
 23
0.0
 33
0.0
 40
0.0
 40
0.0
 40
0.0
 40
0.0
 40
0.25
 40
0.25
 40
0.25
 40
0.25
 40
0.5
 40
0.5
 40
0.5
 40
0.5
 40
1.0
 40
1.0
 40
1.0
 40
1.0
 10
136.5557
 20
-73.4711
 30
0.0
 10
136.5557
 20
-73.4711
 30
0.0
 10
136.5733
 20
-75.6259
 30
0.0
 10
136.5733
 20
-75.6259
 30
0.0
 10
136.5733
 20
-75.6259
 30
0.0
 10
136.5733
 20
-75.6259
 30
0.0
 10
137.7848
 20
-74.5112
 30
0.0
 10
137.7848
 20
-74.5112
 30
0.0
 10
137.7848
 20
-74.5112
 30
0.0
 10
137.7848
 20
-74.5112
 30
0.0
 10
136.5557
 20
-73.4711
 30
0.0
 10
136.5557
 20
-73.4711
 30
0.0
  0
SPLINE
  5
11F
330
1F
100
AcDbEntity
  8
layer 1
 62
     7
100
AcDbSpline
210
0.0
220
0.0
230
1.0
 70
    11
 71
     3
 72
    16
 73
    12
 74
     0
 42
0.0000000001
 43
0.0000000001
 12
1.0
 22
0.0
 32
0.0
 13
1.0
 23
0.0
 33
0.0
 40
0.0
 40
0.0
 40
0.0
 40
0.0
 40
0.25
 40
0.25
 40
0.25
 40
0.25
 40
0.5
 40
0.5
 40
0.5
 40
0.5
 40
1.0
 40
1.0
 40
1.0
 40
1.0
 10
132.7397
 20
-73.4711
 30
0.0
 10
132.7397
 20
-73.4711
 30
0.0
 10
132.7221
 20
-75.6259
 30
0.0
 10
132.7221
 20
-75.6259
 30
0.0
 10
132.7221
 20
-75.6259
 30
0.0
 10
132.7221
 20
-75.6259
 30
0.0
 10
131.5105
 20
-74.5112
 30
0.0
 10
131.5105
 20
-74.5112
 30
0.0
 10
131.5105
 20
-74.5112
 30
0.0
 10
131.5105
 20
-74.5112
 30
0.0
 10
132.7397
 20
-73.4711
 30
0.0
 10
132.7397
 20
-73.4711
 30
0.0
  0
SPLINE
  5
120
330
1F
100
AcDbEntity
  8
layer 1
 62
     7
100
AcDbSpline
210
0.0
220
0.0
230
1.0
 70
    11
 71
     3
 72
    16
 73
    12
 74
     0
 42
0.0000000001
 43
0.0000000001
 12
1.0
 22
0.0
 32
0.0
 13
1.0
 23
0.0
 33
0.0
 40
0.0
 40
0.0
 40
0.0
 40
0.0
 40
0.25
 40
0.25
 40
0.25
 40
0.25
 40
0.5
 40
0.5
 40
0.5
 40
0.5
 40
1.0
 40
1.0
 40
1.0
 40
1.0
 10
136.5557
 20
-45.0152
 30
0.0
 10
136.5557
 20
-45.0152
 30
0.0
 10
136.5733
 20
-47.17
 30
0.0
 10
136.5733
 20
-47.17
 30
0.0
 10
136.5733
 20
-47.17
 30
0.0
 10
136.5733
 20
-47.17
 30
0.0
 10
137.7848
 20
-46.0554
 30
0.0
 10
137.7848
 20
-46.0554
 30
0.0
 10
137.7848
 20
-46.0554
 30
0.0
 10
137.7848
 20
-46.0554
 30
0.0
 10
136.5557
 20
-45.0152
 30
0.0
 10
136.5557
 20
-45.0152
 30
0.0
  0
SPLINE
  5
121
330
1F
100
AcDbEntity
  8
layer 1
 62
     7
100
AcDbSpline
210
0.0
220
0.0
230
1.0
 70
    11
 71
     3
 72
    16
 73
    12
 74
     0
 42
0.0000000001
 43
0.0000000001
 12
1.0
 22
0.0
 32
0.0
 13
1.0
 23
0.0
 33
0.0
 40
0.0
 40
0.0
 40
0.0
 40
0.0
 40
0.25
 40
0.25
 40
0.25
 40
0.25
 40
0.5
 40
0.5
 40
0.5
 40
0.5
 40
1.0
 40
1.0
 40
1.0
 40
1.0
 10
132.7397
 20
-45.0152
 30
0.0
 10
132.7397
 20
-45.0152
 30
0.0
 10
132.7221
 20
-47.17
 30
0.0
 10
132.7221
 20
-47.17
 30
0.0
 10
132.7221
 20
-47.17
 30
0.0
 10
132.7221
 20
-47.17
 30
0.0
 10
131.5105
 20
-46.0554
 30
0.0
 10
131.5105
 20
-46.0554
 30
0.0
 10
131.5105
 20
-46.0554
 30
0.0
 10
131.5105
 20
-46.0554
 30
0.0
 10
132.7397
 20
-45.0152
 30
0.0
 10
132.7397
 20
-45.0152
 30
0.0
  0
SPLINE
  5
122
330
1F
100
AcDbEntity
  8
layer 1
 62
     7
100
AcDbSpline
210
0.0
220
0.0
230
1.0
 70
    11
 71
     3
 72
    16
 73
    12
 74
     0
 42
0.0000000001
 43
0.0000000001
 12
1.0
 22
0.0
 32
0.0
 13
1.0
 23
0.0
 33
0.0
 40
0.0
 40
0.0
 40
0.0
 40
0.0
 40
0.25
 40
0.25
 40
0.25
 40
0.25
 40
0.5
 40
0.5
 40
0.5
 40
0.5
 40
1.0
 40
1.0
 40
1.0
 40
1.0
 10
149.9114
 20
-62.2702
 30
0.0
 10
149.9114
 20
-62.2702
 30
0.0
 10
147.7565
 20
-62.2878
 30
0.0
 10
147.7565
 20
-62.2878
 30
0.0
 10
147.7565
 20
-62.2878
 30
0.0
 10
147.7565
 20
-62.2878
 30
0.0
 10
148.8712
 20
-63.4994
 30
0.0
 10
148.8712
 20
-63.4994
 30
0.0
 10
148.8712
 20
-63.4994
 30
0.0
 10
148.8712
 20
-63.4994
 30
0.0
 10
149.9114
 20
-62.2702
 30
0.0
 10
149.9114
 20
-62.2702
 30
0.0
  0
SPLINE
  5
123
330
1F
100
AcDbEntity
  8
layer 1
 62
     7
100
AcDbSpline
210
0.0
220
0.0
230
1.0
 70
    11
 71
     3
 72
    16
 73
    12
 74
     0
 42
0.0000000001
 43
0.0000000001
 12
1.0
 22
0.0
 32
0.0
 13
1.0
 23
0.0
 33
0.0
 40
0.0
 40
0.0
 40
0.0
 40
0.0
 40
0.25
 40
0.25
 40
0.25
 40
0.25
 40
0.5
 40
0.5
 40
0.5
 40
0.5
 40
1.0
 40
1.0
 40
1.0
 40
1.0
 10
149.9114
 20
-58.4544
 30
0.0
 10
149.9114
 20
-58.4544
 30
0.0
 10
147.7565
 20
-58.4368
 30
0.0
 10
147.7565
 20
-58.4368
 30
0.0
 10
147.7565
 20
-58.4368
 30
0.0
 10
147.7565
 20
-58.4368
 30
0.0
 10
148.8712
 20
-57.2252
 30
0.0
 10
148.8712
 20
-57.2252
 30
0.0
 10
148.8712
 20
-57.2252
 30
0.0
 10
148.8712
 20
-57.2252
 30
0.0
 10
149.9114
 20
-58.4544
 30
0.0
 10
149.9114
 20
-58.4544
 30
0.0
  0
SPLINE
  5
124
330
1F
100
AcDbEntity
  8
layer 1
 62
     7
100
AcDbSpline
210
0.0
220
0.0
230
1.0
 70
    11
 71
     3
 72
    16
 73
    12
 74
     0
 42
0.0000000001
 43
0.0000000001
 12
1.0
 22
0.0
 32
0.0
 13
1.0
 23
0.0
 33
0.0
 40
0.0
 40
0.0
 40
0.0
 40
0.0
 40
0.25
 40
0.25
 40
0.25
 40
0.25
 40
0.5
 40
0.5
 40
0.5
 40
0.5
 40
1.0
 40
1.0
 40
1.0
 40
1.0
 10
121.539
 20
-62.2702
 30
0.0
 10
121.539
 20
-62.2702
 30
0.0
 10
119.3841
 20
-62.2878
 30
0.0
 10
119.3841
 20
-62.2878
 30
0.0
 10
119.3841
 20
-62.2878
 30
0.0
 10
119.3841
 20
-62.2878
 30
0.0
 10
120.4988
 20
-63.4994
 30
0.0
 10
120.4988
 20
-63.4994
 30
0.0
 10
120.4988
 20
-63.4994
 30
0.0
 10
120.4988
 20
-63.4994
 30
0.0
 10
121.539
 20
-62.2702
 30
0.0
 10
121.539
 20
-62.2702
 30
0.0
  0
SPLINE
  5
125
330
1F
100
AcDbEntity
  8
layer 1
 62
     7
100
AcDbSpline
210
0.0
220
0.0
230
1.0
 70
    11
 71
     3
 72
    16
 73
    12
 74
     0
 42
0.0000000001
 43
0.0000000001
 12
1.0
 22
0.0
 32
0.0
 13
1.0
 23
0.0
 33
0.0
 40
0.0
 40
0.0
 40
0.0
 40
0.0
 40
0.25
 40
0.25
 40
0.25
 40
0.25
 40
0.5
 40
0.5
 40
0.5
 40
0.5
 40
1.0
 40
1.0
 40
1.0
 40
1.0
 10
121.539
 20
-58.4544
 30
0.0
 10
121.539
 20
-58.4544
 30
0.0
 10
119.3841
 20
-58.4368
 30
0.0
 10
119.3841
 20
-58.4368
 30
0.0
 10
119.3841
 20
-58.4368
 30
0.0
 10
119.3841
 20
-58.4368
 30
0.0
 10
120.4988
 20
-57.2252
 30
0.0
 10
120.4988
 20
-57.2252
 30
0.0
 10
120.4988
 20
-57.2252
 30
0.0
 10
120.4988
 20
-57.2252
 30
0.0
 10
121.539
 20
-58.4544
 30
0.0
 10
121.539
 20
-58.4544
 30
0.0
  0
ENDSEC
  0
SECTION
  2
OBJECTS
  0
DICTIONARY
  5
C
330
0
100
AcDbDictionary
281
     1
  3
ACAD_GROUP
350
D
  3
ACAD_LAYOUT
350
1A
  3
ACAD_MATERIAL
350
3B
  3
ACAD_MLEADERSTYLE
350
148
  3
ACAD_MLINESTYLE
350
17
  3
ACAD_PLOTSETTINGS
350
19
  3
ACAD_PLOTSTYLENAME
350
E
  3
ACAD_TABLESTYLE
350
147
  3
ACAD_VISUALSTYLE
350
2A
  0
DICTIONARY
  5
D
102
{ACAD_REACTORS
330
C
102
}
330
C
100
AcDbDictionary
281
     1
  0
DICTIONARY
  5
1A
102
{ACAD_REACTORS
330
C
102
}
330
C
100
AcDbDictionary
281
     1
  3
Layout1
350
1E
  3
Layout2
350
26
  3
Model
350
22
  0
DICTIONARY
  5
3B
102
{ACAD_REACTORS
330
C
102
}
330
C
100
AcDbDictionary
281
     1
  3
ByBlock
350
3D
  3
ByLayer
350
3C
  3
Global
350
3E
  0
DICTIONARY
  5
148
102
{ACAD_REACTORS
330
C
102
}
330
C
100
AcDbDictionary
281
     1
  0
DICTIONARY
  5
17
102
{ACAD_REACTORS
330
C
102
}
330
C
100
AcDbDictionary
281
     1
  3
Standard
350
18
  0
DICTIONARY
  5
19
102
{ACAD_REACTORS
330
C
102
}
330
C
100
AcDbDictionary
281
     1
  0
ACDBDICTIONARYWDFLT
  5
E
102
{ACAD_REACTORS
330
C
102
}
330
C
100
AcDbDictionary
281
     1
  3
Normal
350
F
100
AcDbDictionaryWithDefault
340
F
  0
DICTIONARY
  5
147
102
{ACAD_REACTORS
330
C
102
}
330
C
100
AcDbDictionary
281
     1
  0
DICTIONARY
  5
2A
102
{ACAD_REACTORS
330
C
102
}
330
C
100
AcDbDictionary
281
     1
  3
2dWireframe
350
2F
  3
3D Hidden
350
31
  3
3dWireframe
350
30
  3
Basic
350
32
  3
Brighten
350
36
  3
ColorChange
350
3A
  3
Conceptual
350
34
  3
Dim
350
35
  3
Facepattern
350
39
  3
Flat
350
2B
  3
FlatWithEdges
350
2C
  3
Gouraud
350
2D
  3
GouraudWithEdges
350
2E
  3
Linepattern
350
38
  3
Realistic
350
33
  3
Thicken
350
37
  0
LAYOUT
  5
1E
102
{ACAD_REACTORS
330
1A
102
}
330
1A
100
AcDbPlotSettings
  1

  2
none_device
  4

  6

 40
0.0
 41
0.0
 42
0.0
 43
0.0
 44
0.0
 45
0.0
 46
0.0
 47
0.0
 48
0.0
 49
0.0
140
0.0
141
0.0
142
1.0
143
1.0
 70
   688
 72
     0
 73
     0
 74
     5
  7

 75
    16
 76
     0
 77
     2
 78
   300
147
1.0
148
0.0
149
0.0
100
AcDbLayout
  1
Layout1
 70
     1
 71
     1
 10
0.0
 20
0.0
 11
12.0
 21
9.0
 12
0.0
 22
0.0
 32
0.0
 14
1.000000000000000E+20
 24
1.000000000000000E+20
 34
1.000000000000000E+20
 15
-1.000000000000000E+20
 25
-1.000000000000000E+20
 35
-1.000000000000000E+20
146
0.0
 13
0.0
 23
0.0
 33
0.0
 16
1.0
 26
0.0
 36
0.0
 17
0.0
 27
1.0
 37
0.0
 76
     0
330
1B
  0
LAYOUT
  5
26
102
{ACAD_REACTORS
330
1A
102
}
330
1A
100
AcDbPlotSettings
  1

  2
none_device
  4

  6

 40
0.0
 41
0.0
 42
0.0
 43
0.0
 44
0.0
 45
0.0
 46
0.0
 47
0.0
 48
0.0
 49
0.0
140
0.0
141
0.0
142
1.0
143
1.0
 70
   688
 72
     0
 73
     0
 74
     5
  7

 75
    16
 76
     0
 77
     2
 78
   300
147
1.0
148
0.0
149
0.0
100
AcDbLayout
  1
Layout2
 70
     1
 71
     2
 10
0.0
 20
0.0
 11
0.0
 21
0.0
 12
0.0
 22
0.0
 32
0.0
 14
0.0
 24
0.0
 34
0.0
 15
0.0
 25
0.0
 35
0.0
146
0.0
 13
0.0
 23
0.0
 33
0.0
 16
1.0
 26
0.0
 36
0.0
 17
0.0
 27
1.0
 37
0.0
 76
     0
330
23
  0
LAYOUT
  5
22
102
{ACAD_REACTORS
330
1A
102
}
330
1A
100
AcDbPlotSettings
  1

  2
none_device
  4

  6

 40
0.0
 41
0.0
 42
0.0
 43
0.0
 44
0.0
 45
0.0
 46
0.0
 47
0.0
 48
0.0
 49
0.0
140
0.0
141
0.0
142
1.0
143
1.0
 70
  1712
 72
     0
 73
     0
 74
     0
  7

 75
     0
 76
     0
 77
     2
 78
   300
147
1.0
148
0.0
149
0.0
100
AcDbLayout
  1
Model
 70
     1
 71
     0
 10
0.0
 20
0.0
 11
12.0
 21
9.0
 12
0.0
 22
0.0
 32
0.0
 14
73.0272
 24
-114.3958
 34
0.0
 15
196.1454
 25
131.8404
 35
0.0
146
0.0
 13
0.0
 23
0.0
 33
0.0
 16
1.0
 26
0.0
 36
0.0
 17
0.0
 27
1.0
 37
0.0
 76
     0
330
1F
331
29
  0
MATERIAL
  5
3D
102
{ACAD_REACTORS
330
3B
102
}
330
3B
100
AcDbMaterial
  1
ByBlock
 72
     1
 94
      127
  0
MATERIAL
  5
3C
102
{ACAD_REACTORS
330
3B
102
}
330
3B
100
AcDbMaterial
  1
ByLayer
 72
     1
 94
      127
  0
MATERIAL
  5
3E
102
{ACAD_REACTORS
330
3B
102
}
330
3B
100
AcDbMaterial
  1
Global
 72
     1
 94
      127
  0
MLINESTYLE
  5
18
102
{ACAD_REACTORS
330
17
102
}
330
17
100
AcDbMlineStyle
  2
Standard
 70
     0
  3

 62
   256
 51
90.0
 52
90.0
 71
     2
 49
0.5
 62
   256
  6
BYLAYER
 49
-0.5
 62
   256
  6
BYLAYER
  0
ACDBPLACEHOLDER
  5
F
102
{ACAD_REACTORS
330
E
102
}
330
E
  0
VISUALSTYLE
  5
2F
102
{ACAD_REACTORS
330
2A
102
}
102
{ACAD_XDICTIONARY
360
12F
102
}
330
2A
100
AcDbVisualStyle
  2
2dWireframe
 70
     4
 71
     0
 72
     2
 73
     0
 90
        0
 40
-0.6
 41
-30.0
 62
     5
 63
     7
421
 16777215
 74
     1
 91
        4
 64
     7
 65
   257
 75
     1
175
     1
 42
1.0
 92
        0
 66
   257
 43
1.0
 76
     1
 77
     6
 78
     2
 67
     7
 79
     5
170
     0
171
     0
290
     0
174
     0
 93
        1
 44
0.0
173
     0
291
     0
 45
0.0
  0
VISUALSTYLE
  5
31
102
{ACAD_REACTORS
330
2A
102
}
102
{ACAD_XDICTIONARY
360
133
102
}
330
2A
100
AcDbVisualStyle
  2
3D Hidden
 70
     6
 71
     1
 72
     2
 73
     2
 90
        0
 40
-0.6
 41
-30.0
 62
     5
 63
     7
421
 16777215
 74
     2
 91
        2
 64
     7
 65
   257
 75
     2
175
     1
 42
40.0
 92
        0
 66
   257
 43
1.0
 76
     1
 77
     6
 78
     2
 67
     7
 79
     3
170
     0
171
     0
290
     0
174
     0
 93
        1
 44
0.0
173
     0
291
     0
 45
0.0
  0
VISUALSTYLE
  5
30
102
{ACAD_REACTORS
330
2A
102
}
102
{ACAD_XDICTIONARY
360
131
102
}
330
2A
100
AcDbVisualStyle
  2
3dWireframe
 70
     5
 71
     0
 72
     2
 73
     0
 90
        0
 40
-0.6
 41
-30.0
 62
     5
 63
     7
421
 16777215
 74
     1
 91
        4
 64
     7
 65
   257
 75
     1
175
     1
 42
1.0
 92
        0
 66
   257
 43
1.0
 76
     1
 77
     6
 78
     2
 67
     7
 79
     5
170
     0
171
     0
290
     0
174
     0
 93
        1
 44
0.0
173
     0
291
     0
 45
0.0
  0
VISUALSTYLE
  5
32
102
{ACAD_REACTORS
330
2A
102
}
102
{ACAD_XDICTIONARY
360
135
102
}
330
2A
100
AcDbVisualStyle
  2
Basic
 70
     7
 71
     1
 72
     0
 73
     1
 90
        0
 40
-0.6
 41
-30.0
 62
     5
 63
     7
421
 16777215
 74
     0
 91
        4
 64
     7
 65
   257
 75
     1
175
     1
 42
1.0
 92
        8
 66
     7
 43
1.0
 76
     1
 77
     6
 78
     2
 67
     7
 79
     5
170
     0
171
     0
290
     0
174
     0
 93
        1
 44
0.0
173
     0
291
     1
 45
0.0
  0
VISUALSTYLE
  5
36
102
{ACAD_REACTORS
330
2A
102
}
102
{ACAD_XDICTIONARY
360
13D
102
}
330
2A
100
AcDbVisualStyle
  2
Brighten
 70
    12
 71
     2
 72
     2
 73
     0
 90
        0
 40
-0.6
 41
-30.0
 62
     5
 63
     7
421
 16777215
 74
     1
 91
        4
 64
     7
 65
   257
 75
     1
175
     1
 42
1.0
 92
        8
 66
     7
 43
1.0
 76
     1
 77
     6
 78
     2
 67
     7
 79
     5
170
     0
171
     0
290
     0
174
     0
 93
        1
 44
50.0
173
     0
291
     1
 45
0.0
  0
VISUALSTYLE
  5
3A
102
{ACAD_REACTORS
330
2A
102
}
102
{ACAD_XDICTIONARY
360
145
102
}
330
2A
100
AcDbVisualStyle
  2
ColorChange
 70
    16
 71
     2
 72
     2
 73
     3
 90
        0
 40
-0.6
 41
-30.0
 62
     5
 63
     8
421
  8421504
 74
     1
 91
        4
 64
     7
 65
   257
 75
     1
175
     1
 42
1.0
 92
        8
 66
     8
424
  8421504
 43
1.0
 76
     1
 77
     6
 78
     2
 67
     7
 79
     5
170
     0
171
     0
290
     0
174
     0
 93
        1
 44
0.0
173
     0
291
     1
 45
0.0
  0
VISUALSTYLE
  5
34
102
{ACAD_REACTORS
330
2A
102
}
102
{ACAD_XDICTIONARY
360
139
102
}
330
2A
100
AcDbVisualStyle
  2
Conceptual
 70
     9
 71
     3
 72
     2
 73
     0
 90
        0
 40
-0.6
 41
-30.0
 62
     5
 63
     7
421
 16777215
 74
     2
 91
        2
 64
     7
 65
   257
 75
     1
175
     1
 42
40.0
 92
        8
 66
     7
 43
1.0
 76
     1
 77
     6
 78
     2
 67
     7
 79
     3
170
     0
171
     0
290
     0
174
     0
 93
        1
 44
0.0
173
     0
291
     0
 45
0.0
  0
VISUALSTYLE
  5
35
102
{ACAD_REACTORS
330
2A
102
}
102
{ACAD_XDICTIONARY
360
13B
102
}
330
2A
100
AcDbVisualStyle
  2
Dim
 70
    11
 71
     2
 72
     2
 73
     0
 90
        0
 40
-0.6
 41
-30.0
 62
     5
 63
     7
421
 16777215
 74
     1
 91
        4
 64
     7
 65
   257
 75
     1
175
     1
 42
1.0
 92
        8
 66
     7
 43
1.0
 76
     1
 77
     6
 78
     2
 67
     7
 79
     5
170
     0
171
     0
290
     0
174
     0
 93
        1
 44
-50.0
173
     0
291
     1
 45
0.0
  0
VISUALSTYLE
  5
39
102
{ACAD_REACTORS
330
2A
102
}
102
{ACAD_XDICTIONARY
360
143
102
}
330
2A
100
AcDbVisualStyle
  2
Facepattern
 70
    15
 71
     2
 72
     2
 73
     0
 90
        0
 40
-0.6
 41
-30.0
 62
     5
 63
     7
421
 16777215
 74
     1
 91
        4
 64
     7
 65
   257
 75
     1
175
     1
 42
1.0
 92
        8
 66
     7
 43
1.0
 76
     1
 77
     6
 78
     2
 67
     7
 79
     5
170
     0
171
     0
290
     0
174
     0
 93
        1
 44
0.0
173
     0
291
     1
 45
0.0
  0
VISUALSTYLE
  5
2B
102
{ACAD_REACTORS
330
2A
102
}
102
{ACAD_XDICTIONARY
360
127
102
}
330
2A
100
AcDbVisualStyle
  2
Flat
 70
     0
 71
     2
 72
     1
 73
     1
 90
        2
 40
-0.6
 41
30.0
 62
     5
 63
     7
421
 16777215
 74
     0
 91
        4
 64
     7
 65
   257
 75
     1
175
     1
 42
1.0
 92
        8
 66
     7
 43
1.0
 76
     1
 77
     6
 78
     2
 67
     7
 79
     5
170
     0
171
     0
290
     0
174
     0
 93
       13
 44
0.0
173
     0
291
     1
 45
0.0
  0
VISUALSTYLE
  5
2C
102
{ACAD_REACTORS
330
2A
102
}
102
{ACAD_XDICTIONARY
360
129
102
}
330
2A
100
AcDbVisualStyle
  2
FlatWithEdges
 70
     1
 71
     2
 72
     1
 73
     1
 90
        2
 40
-0.6
 41
30.0
 62
     5
 63
     7
421
 16777215
 74
     1
 91
        4
 64
     7
 65
   257
 75
     1
175
     1
 42
1.0
 92
        0
 66
   257
 43
1.0
 76
     1
 77
     6
 78
     2
 67
     7
 79
     5
170
     0
171
     0
290
     0
174
     0
 93
       13
 44
0.0
173
     0
291
     1
 45
0.0
  0
VISUALSTYLE
  5
2D
102
{ACAD_REACTORS
330
2A
102
}
102
{ACAD_XDICTIONARY
360
12B
102
}
330
2A
100
AcDbVisualStyle
  2
Gouraud
 70
     2
 71
     2
 72
     2
 73
     1
 90
        2
 40
-0.6
 41
30.0
 62
     5
 63
     7
421
 16777215
 74
     0
 91
        4
 64
     7
 65
   257
 75
     1
175
     1
 42
1.0
 92
        0
 66
     7
 43
1.0
 76
     1
 77
     6
 78
     2
 67
     7
 79
     5
170
     0
171
     0
290
     0
174
     0
 93
       13
 44
0.0
173
     0
291
     1
 45
0.0
  0
VISUALSTYLE
  5
2E
102
{ACAD_REACTORS
330
2A
102
}
102
{ACAD_XDICTIONARY
360
12D
102
}
330
2A
100
AcDbVisualStyle
  2
GouraudWithEdges
 70
     3
 71
     2
 72
     2
 73
     1
 90
        2
 40
-0.6
 41
30.0
 62
     5
 63
     7
421
 16777215
 74
     1
 91
        4
 64
     7
 65
   257
 75
     1
175
     1
 42
1.0
 92
        0
 66
   257
 43
1.0
 76
     1
 77
     6
 78
     2
 67
     7
 79
     5
170
     0
171
     0
290
     0
174
     0
 93
       13
 44
0.0
173
     0
291
     1
 45
0.0
  0
VISUALSTYLE
  5
38
102
{ACAD_REACTORS
330
2A
102
}
102
{ACAD_XDICTIONARY
360
141
102
}
330
2A
100
AcDbVisualStyle
  2
Linepattern
 70
    14
 71
     2
 72
     2
 73
     0
 90
        0
 40
-0.6
 41
-30.0
 62
     5
 63
     7
421
 16777215
 74
     1
 91
        4
 64
     7
 65
   257
 75
     7
175
     7
 42
1.0
 92
        8
 66
     7
 43
1.0
 76
     1
 77
     6
 78
     2
 67
     7
 79
     5
170
     0
171
     0
290
     0
174
     0
 93
        1
 44
0.0
173
     0
291
     1
 45
0.0
  0
VISUALSTYLE
  5
33
102
{ACAD_REACTORS
330
2A
102
}
102
{ACAD_XDICTIONARY
360
137
102
}
330
2A
100
AcDbVisualStyle
  2
Realistic
 70
     8
 71
     2
 72
     2
 73
     0
 90
        0
 40
-0.6
 41
-30.0
 62
     5
 63
     7
421
 16777215
 74
     1
 91
        0
 64
     7
 65
   257
 75
     1
175
     1
 42
1.0
 92
        8
 66
     8
424
  7895160
 43
1.0
 76
     1
 77
     6
 78
     2
 67
     7
 79
     5
170
     0
171
     0
290
     0
174
     0
 93
       13
 44
0.0
173
     0
291
     0
 45
0.0
  0
VISUALSTYLE
  5
37
102
{ACAD_REACTORS
330
2A
102
}
102
{ACAD_XDICTIONARY
360
13F
102
}
330
2A
100
AcDbVisualStyle
  2
Thicken
 70
    13
 71
     2
 72
     2
 73
     0
 90
        0
 40
-0.6
 41
-30.0
 62
     5
 63
     7
421
 16777215
 74
     1
 91
        4
 64
     7
 65
   257
 75
     1
175
     1
 42
1.0
 92
       12
 66
     7
 43
1.0
 76
     1
 77
     6
 78
     2
 67
     7
 79
     5
170
     0
171
     0
290
     0
174
     0
 93
        1
 44
0.0
173
     0
291
     1
 45
0.0
  0
DICTIONARY
  5
12F
330
2F
100
AcDbDictionary
280
     1
281
     1
  3
ACAD_XREC_ROUNDTRIP
360
130
  0
DICTIONARY
  5
133
330
31
100
AcDbDictionary
280
     1
281
     1
  3
ACAD_XREC_ROUNDTRIP
360
134
  0
DICTIONARY
  5
131
330
30
100
AcDbDictionary
280
     1
281
     1
  3
ACAD_XREC_ROUNDTRIP
360
132
  0
DICTIONARY
  5
135
330
32
100
AcDbDictionary
280
     1
281
     1
  3
ACAD_XREC_ROUNDTRIP
360
136
  0
DICTIONARY
  5
13D
330
36
100
AcDbDictionary
280
     1
281
     1
  3
ACAD_XREC_ROUNDTRIP
360
13E
  0
DICTIONARY
  5
145
330
3A
100
AcDbDictionary
280
     1
281
     1
  3
ACAD_XREC_ROUNDTRIP
360
146
  0
DICTIONARY
  5
139
330
34
100
AcDbDictionary
280
     1
281
     1
  3
ACAD_XREC_ROUNDTRIP
360
13A
  0
DICTIONARY
  5
13B
330
35
100
AcDbDictionary
280
     1
281
     1
  3
ACAD_XREC_ROUNDTRIP
360
13C
  0
DICTIONARY
  5
143
330
39
100
AcDbDictionary
280
     1
281
     1
  3
ACAD_XREC_ROUNDTRIP
360
144
  0
DICTIONARY
  5
127
330
2B
100
AcDbDictionary
280
     1
281
     1
  3
ACAD_XREC_ROUNDTRIP
360
128
  0
DICTIONARY
  5
129
330
2C
100
AcDbDictionary
280
     1
281
     1
  3
ACAD_XREC_ROUNDTRIP
360
12A
  0
DICTIONARY
  5
12B
330
2D
100
AcDbDictionary
280
     1
281
     1
  3
ACAD_XREC_ROUNDTRIP
360
12C
  0
DICTIONARY
  5
12D
330
2E
100
AcDbDictionary
280
     1
281
     1
  3
ACAD_XREC_ROUNDTRIP
360
12E
  0
DICTIONARY
  5
141
330
38
100
AcDbDictionary
280
     1
281
     1
  3
ACAD_XREC_ROUNDTRIP
360
142
  0
DICTIONARY
  5
137
330
33
100
AcDbDictionary
280
     1
281
     1
  3
ACAD_XREC_ROUNDTRIP
360
138
  0
DICTIONARY
  5
13F
330
37
100
AcDbDictionary
280
     1
281
     1
  3
ACAD_XREC_ROUNDTRIP
360
140
  0
XRECORD
  5
130
102
{ACAD_REACTORS
330
12F
102
}
330
12F
100
AcDbXrecord
280
     1
102
RTVSPropertyOp0
 70
     1
102
RTVSPropertyOp1
 70
     1
102
RTVSPropertyOp2
 70
     1
102
RTVSPropertyOp3
 70
     1
102
RTVSPropertyOp4
 70
     1
102
RTVSPropertyOp5
 70
     1
102
RTVSPropertyOp6
 70
     1
102
RTVSPropertyOp7
 70
     1
102
RTVSPropertyOp8
 70
     1
102
RTVSPropertyOp9
 70
     1
102
RTVSPropertyOp10
 70
     1
102
RTVSPropertyOp11
 70
     1
102
RTVSPropertyOp12
 70
     1
102
RTVSPropertyOp13
 70
     1
102
RTVSPropertyOp14
 70
     1
102
RTVSPropertyOp15
 70
     1
102
RTVSPropertyOp16
 70
     1
102
RTVSPropertyOp17
 70
     1
102
RTVSPropertyOp18
 70
     1
102
RTVSPropertyOp19
 70
     1
102
RTVSPropertyOp20
 70
     1
102
RTVSPropertyOp21
 70
     1
102
RTVSPropertyOp22
 70
     1
102
RTVSPropertyOp23
 70
     1
102
RTVSPropertyOp24
 70
     1
102
RTVSPropertyOp25
 70
     1
102
RTVSPropertyOp26
 70
     1
102
RTVSPropertyOp27
 70
     1
102
RTVSPropertyOp28
 70
     1
102
RTVSPropertyOp29
 70
     1
102
RTVSPropertyOp30
 70
     1
102
RTVSPropertyOp31
 70
     1
102
RTVSPropertyOp32
 70
     1
  0
XRECORD
  5
134
102
{ACAD_REACTORS
330
133
102
}
330
133
100
AcDbXrecord
280
     1
102
RTVSPropertyOp0
 70
     1
102
RTVSPropertyOp1
 70
     1
102
RTVSPropertyOp2
 70
     1
102
RTVSPropertyOp3
 70
     1
102
RTVSPropertyOp4
 70
     1
102
RTVSPropertyOp5
 70
     1
102
RTVSPropertyOp6
 70
     1
102
RTVSPropertyOp7
 70
     1
102
RTVSPropertyOp8
 70
     1
102
RTVSPropertyOp9
 70
     1
102
RTVSPropertyOp10
 70
     1
102
RTVSPropertyOp11
 70
     1
102
RTVSPropertyOp12
 70
     1
102
RTVSPropertyOp13
 70
     1
102
RTVSPropertyOp14
 70
     1
102
RTVSPropertyOp15
 70
     1
102
RTVSPropertyOp16
 70
     1
102
RTVSPropertyOp17
 70
     1
102
RTVSPropertyOp18
 70
     1
102
RTVSPropertyOp19
 70
     1
102
RTVSPropertyOp20
 70
     1
102
RTVSPropertyOp21
 70
     1
102
RTVSPropertyOp22
 70
     1
102
RTVSPropertyOp23
 70
     1
102
RTVSPropertyOp24
 70
     1
102
RTVSPropertyOp25
 70
     1
102
RTVSPropertyOp26
 70
     1
102
RTVSPropertyOp27
 70
     1
102
RTVSPropertyOp28
 70
     1
102
RTVSPropertyOp29
 70
     1
102
RTVSPropertyOp30
 70
     1
102
RTVSPropertyOp31
 70
     1
102
RTVSPropertyOp32
 70
     1
  0
XRECORD
  5
132
102
{ACAD_REACTORS
330
131
102
}
330
131
100
AcDbXrecord
280
     1
102
RTVSPropertyOp0
 70
     1
102
RTVSPropertyOp1
 70
     1
102
RTVSPropertyOp2
 70
     1
102
RTVSPropertyOp3
 70
     1
102
RTVSPropertyOp4
 70
     1
102
RTVSPropertyOp5
 70
     1
102
RTVSPropertyOp6
 70
     1
102
RTVSPropertyOp7
 70
     1
102
RTVSPropertyOp8
 70
     1
102
RTVSPropertyOp9
 70
     1
102
RTVSPropertyOp10
 70
     1
102
RTVSPropertyOp11
 70
     1
102
RTVSPropertyOp12
 70
     1
102
RTVSPropertyOp13
 70
     1
102
RTVSPropertyOp14
 70
     1
102
RTVSPropertyOp15
 70
     1
102
RTVSPropertyOp16
 70
     1
102
RTVSPropertyOp17
 70
     1
102
RTVSPropertyOp18
 70
     1
102
RTVSPropertyOp19
 70
     1
102
RTVSPropertyOp20
 70
     1
102
RTVSPropertyOp21
 70
     1
102
RTVSPropertyOp22
 70
     1
102
RTVSPropertyOp23
 70
     1
102
RTVSPropertyOp24
 70
     1
102
RTVSPropertyOp25
 70
     1
102
RTVSPropertyOp26
 70
     1
102
RTVSPropertyOp27
 70
     1
102
RTVSPropertyOp28
 70
     1
102
RTVSPropertyOp29
 70
     1
102
RTVSPropertyOp30
 70
     1
102
RTVSPropertyOp31
 70
     1
102
RTVSPropertyOp32
 70
     1
  0
XRECORD
  5
136
102
{ACAD_REACTORS
330
135
102
}
330
135
100
AcDbXrecord
280
     1
102
RTVSPropertyOp0
 70
     1
102
RTVSPropertyOp1
 70
     1
102
RTVSPropertyOp2
 70
     1
102
RTVSPropertyOp3
 70
     1
102
RTVSPropertyOp4
 70
     1
102
RTVSPropertyOp5
 70
     1
102
RTVSPropertyOp6
 70
     1
102
RTVSPropertyOp7
 70
     1
102
RTVSPropertyOp8
 70
     1
102
RTVSPropertyOp9
 70
     1
102
RTVSPropertyOp10
 70
     1
102
RTVSPropertyOp11
 70
     1
102
RTVSPropertyOp12
 70
     1
102
RTVSPropertyOp13
 70
     1
102
RTVSPropertyOp14
 70
     1
102
RTVSPropertyOp15
 70
     1
102
RTVSPropertyOp16
 70
     1
102
RTVSPropertyOp17
 70
     1
102
RTVSPropertyOp18
 70
     1
102
RTVSPropertyOp19
 70
     1
102
RTVSPropertyOp20
 70
     1
102
RTVSPropertyOp21
 70
     1
102
RTVSPropertyOp22
 70
     1
102
RTVSPropertyOp23
 70
     1
102
RTVSPropertyOp24
 70
     1
102
RTVSPropertyOp25
 70
     1
102
RTVSPropertyOp26
 70
     1
102
RTVSPropertyOp27
 70
     1
102
RTVSPropertyOp28
 70
     1
102
RTVSPropertyOp29
 70
     1
102
RTVSPropertyOp30
 70
     1
102
RTVSPropertyOp31
 70
     1
102
RTVSPropertyOp32
 70
     1
  0
XRECORD
  5
13E
102
{ACAD_REACTORS
330
13D
102
}
330
13D
100
AcDbXrecord
280
     1
102
RTVSPropertyOp0
 70
     1
102
RTVSPropertyOp1
 70
     1
102
RTVSPropertyOp2
 70
     1
102
RTVSPropertyOp3
 70
     1
102
RTVSPropertyOp4
 70
     1
102
RTVSPropertyOp5
 70
     1
102
RTVSPropertyOp6
 70
     1
102
RTVSPropertyOp7
 70
     1
102
RTVSPropertyOp8
 70
     1
102
RTVSPropertyOp9
 70
     1
102
RTVSPropertyOp10
 70
     1
102
RTVSPropertyOp11
 70
     1
102
RTVSPropertyOp12
 70
     1
102
RTVSPropertyOp13
 70
     1
102
RTVSPropertyOp14
 70
     1
102
RTVSPropertyOp15
 70
     1
102
RTVSPropertyOp16
 70
     1
102
RTVSPropertyOp17
 70
     1
102
RTVSPropertyOp18
 70
     1
102
RTVSPropertyOp19
 70
     1
102
RTVSPropertyOp20
 70
     1
102
RTVSPropertyOp21
 70
     1
102
RTVSPropertyOp22
 70
     1
102
RTVSPropertyOp23
 70
     1
102
RTVSPropertyOp24
 70
     1
102
RTVSPropertyOp25
 70
     1
102
RTVSPropertyOp26
 70
     1
102
RTVSPropertyOp27
 70
     1
102
RTVSPropertyOp28
 70
     1
102
RTVSPropertyOp29
 70
     1
102
RTVSPropertyOp30
 70
     1
102
RTVSPropertyOp31
 70
     1
102
RTVSPropertyOp32
 70
     1
  0
XRECORD
  5
146
102
{ACAD_REACTORS
330
145
102
}
330
145
100
AcDbXrecord
280
     1
102
RTVSPropertyOp0
 70
     1
102
RTVSPropertyOp1
 70
     1
102
RTVSPropertyOp2
 70
     1
102
RTVSPropertyOp3
 70
     1
102
RTVSPropertyOp4
 70
     1
102
RTVSPropertyOp5
 70
     1
102
RTVSPropertyOp6
 70
     1
102
RTVSPropertyOp7
 70
     1
102
RTVSPropertyOp8
 70
     1
102
RTVSPropertyOp9
 70
     1
102
RTVSPropertyOp10
 70
     1
102
RTVSPropertyOp11
 70
     1
102
RTVSPropertyOp12
 70
     1
102
RTVSPropertyOp13
 70
     1
102
RTVSPropertyOp14
 70
     1
102
RTVSPropertyOp15
 70
     1
102
RTVSPropertyOp16
 70
     1
102
RTVSPropertyOp17
 70
     1
102
RTVSPropertyOp18
 70
     1
102
RTVSPropertyOp19
 70
     1
102
RTVSPropertyOp20
 70
     1
102
RTVSPropertyOp21
 70
     1
102
RTVSPropertyOp22
 70
     1
102
RTVSPropertyOp23
 70
     1
102
RTVSPropertyOp24
 70
     1
102
RTVSPropertyOp25
 70
     1
102
RTVSPropertyOp26
 70
     1
102
RTVSPropertyOp27
 70
     1
102
RTVSPropertyOp28
 70
     1
102
RTVSPropertyOp29
 70
     1
102
RTVSPropertyOp30
 70
     1
102
RTVSPropertyOp31
 70
     1
102
RTVSPropertyOp32
 70
     1
  0
XRECORD
  5
13A
102
{ACAD_REACTORS
330
139
102
}
330
139
100
AcDbXrecord
280
     1
102
RTVSPropertyOp0
 70
     1
102
RTVSPropertyOp1
 70
     1
102
RTVSPropertyOp2
 70
     1
102
RTVSPropertyOp3
 70
     1
102
RTVSPropertyOp4
 70
     1
102
RTVSPropertyOp5
 70
     1
102
RTVSPropertyOp6
 70
     1
102
RTVSPropertyOp7
 70
     1
102
RTVSPropertyOp8
 70
     1
102
RTVSPropertyOp9
 70
     1
102
RTVSPropertyOp10
 70
     1
102
RTVSPropertyOp11
 70
     1
102
RTVSPropertyOp12
 70
     1
102
RTVSPropertyOp13
 70
     1
102
RTVSPropertyOp14
 70
     1
102
RTVSPropertyOp15
 70
     1
102
RTVSPropertyOp16
 70
     1
102
RTVSPropertyOp17
 70
     1
102
RTVSPropertyOp18
 70
     1
102
RTVSPropertyOp19
 70
     1
102
RTVSPropertyOp20
 70
     1
102
RTVSPropertyOp21
 70
     1
102
RTVSPropertyOp22
 70
     1
102
RTVSPropertyOp23
 70
     1
102
RTVSPropertyOp24
 70
     1
102
RTVSPropertyOp25
 70
     1
102
RTVSPropertyOp26
 70
     1
102
RTVSPropertyOp27
 70
     1
102
RTVSPropertyOp28
 70
     1
102
RTVSPropertyOp29
 70
     1
102
RTVSPropertyOp30
 70
     1
102
RTVSPropertyOp31
 70
     1
102
RTVSPropertyOp32
 70
     1
  0
XRECORD
  5
13C
102
{ACAD_REACTORS
330
13B
102
}
330
13B
100
AcDbXrecord
280
     1
102
RTVSPropertyOp0
 70
     1
102
RTVSPropertyOp1
 70
     1
102
RTVSPropertyOp2
 70
     1
102
RTVSPropertyOp3
 70
     1
102
RTVSPropertyOp4
 70
     1
102
RTVSPropertyOp5
 70
     1
102
RTVSPropertyOp6
 70
     1
102
RTVSPropertyOp7
 70
     1
102
RTVSPropertyOp8
 70
     1
102
RTVSPropertyOp9
 70
     1
102
RTVSPropertyOp10
 70
     1
102
RTVSPropertyOp11
 70
     1
102
RTVSPropertyOp12
 70
     1
102
RTVSPropertyOp13
 70
     1
102
RTVSPropertyOp14
 70
     1
102
RTVSPropertyOp15
 70
     1
102
RTVSPropertyOp16
 70
     1
102
RTVSPropertyOp17
 70
     1
102
RTVSPropertyOp18
 70
     1
102
RTVSPropertyOp19
 70
     1
102
RTVSPropertyOp20
 70
     1
102
RTVSPropertyOp21
 70
     1
102
RTVSPropertyOp22
 70
     1
102
RTVSPropertyOp23
 70
     1
102
RTVSPropertyOp24
 70
     1
102
RTVSPropertyOp25
 70
     1
102
RTVSPropertyOp26
 70
     1
102
RTVSPropertyOp27
 70
     1
102
RTVSPropertyOp28
 70
     1
102
RTVSPropertyOp29
 70
     1
102
RTVSPropertyOp30
 70
     1
102
RTVSPropertyOp31
 70
     1
102
RTVSPropertyOp32
 70
     1
  0
XRECORD
  5
144
102
{ACAD_REACTORS
330
143
102
}
330
143
100
AcDbXrecord
280
     1
102
RTVSPropertyOp0
 70
     1
102
RTVSPropertyOp1
 70
     1
102
RTVSPropertyOp2
 70
     1
102
RTVSPropertyOp3
 70
     1
102
RTVSPropertyOp4
 70
     1
102
RTVSPropertyOp5
 70
     1
102
RTVSPropertyOp6
 70
     1
102
RTVSPropertyOp7
 70
     1
102
RTVSPropertyOp8
 70
     1
102
RTVSPropertyOp9
 70
     1
102
RTVSPropertyOp10
 70
     1
102
RTVSPropertyOp11
 70
     1
102
RTVSPropertyOp12
 70
     1
102
RTVSPropertyOp13
 70
     1
102
RTVSPropertyOp14
 70
     1
102
RTVSPropertyOp15
 70
     1
102
RTVSPropertyOp16
 70
     1
102
RTVSPropertyOp17
 70
     1
102
RTVSPropertyOp18
 70
     1
102
RTVSPropertyOp19
 70
     1
102
RTVSPropertyOp20
 70
     1
102
RTVSPropertyOp21
 70
     1
102
RTVSPropertyOp22
 70
     1
102
RTVSPropertyOp23
 70
     1
102
RTVSPropertyOp24
 70
     1
102
RTVSPropertyOp25
 70
     1
102
RTVSPropertyOp26
 70
     1
102
RTVSPropertyOp27
 70
     1
102
RTVSPropertyOp28
 70
     1
102
RTVSPropertyOp29
 70
     1
102
RTVSPropertyOp30
 70
     1
102
RTVSPropertyOp31
 70
     1
102
RTVSPropertyOp32
 70
     1
  0
XRECORD
  5
128
102
{ACAD_REACTORS
330
127
102
}
330
127
100
AcDbXrecord
280
     1
102
RTVSPropertyOp0
 70
     1
102
RTVSPropertyOp1
 70
     1
102
RTVSPropertyOp2
 70
     1
102
RTVSPropertyOp3
 70
     1
102
RTVSPropertyOp4
 70
     1
102
RTVSPropertyOp5
 70
     1
102
RTVSPropertyOp6
 70
     1
102
RTVSPropertyOp7
 70
     1
102
RTVSPropertyOp8
 70
     1
102
RTVSPropertyOp9
 70
     1
102
RTVSPropertyOp10
 70
     1
102
RTVSPropertyOp11
 70
     1
102
RTVSPropertyOp12
 70
     1
102
RTVSPropertyOp13
 70
     1
102
RTVSPropertyOp14
 70
     1
102
RTVSPropertyOp15
 70
     1
102
RTVSPropertyOp16
 70
     1
102
RTVSPropertyOp17
 70
     1
102
RTVSPropertyOp18
 70
     1
102
RTVSPropertyOp19
 70
     1
102
RTVSPropertyOp20
 70
     1
102
RTVSPropertyOp21
 70
     1
102
RTVSPropertyOp22
 70
     1
102
RTVSPropertyOp23
 70
     1
102
RTVSPropertyOp24
 70
     1
102
RTVSPropertyOp25
 70
     1
102
RTVSPropertyOp26
 70
     1
102
RTVSPropertyOp27
 70
     1
102
RTVSPropertyOp28
 70
     1
102
RTVSPropertyOp29
 70
     1
102
RTVSPropertyOp30
 70
     1
102
RTVSPropertyOp31
 70
     1
102
RTVSPropertyOp32
 70
     1
  0
XRECORD
  5
12A
102
{ACAD_REACTORS
330
129
102
}
330
129
100
AcDbXrecord
280
     1
102
RTVSPropertyOp0
 70
     1
102
RTVSPropertyOp1
 70
     1
102
RTVSPropertyOp2
 70
     1
102
RTVSPropertyOp3
 70
     1
102
RTVSPropertyOp4
 70
     1
102
RTVSPropertyOp5
 70
     1
102
RTVSPropertyOp6
 70
     1
102
RTVSPropertyOp7
 70
     1
102
RTVSPropertyOp8
 70
     1
102
RTVSPropertyOp9
 70
     1
102
RTVSPropertyOp10
 70
     1
102
RTVSPropertyOp11
 70
     1
102
RTVSPropertyOp12
 70
     1
102
RTVSPropertyOp13
 70
     1
102
RTVSPropertyOp14
 70
     1
102
RTVSPropertyOp15
 70
     1
102
RTVSPropertyOp16
 70
     1
102
RTVSPropertyOp17
 70
     1
102
RTVSPropertyOp18
 70
     1
102
RTVSPropertyOp19
 70
     1
102
RTVSPropertyOp20
 70
     1
102
RTVSPropertyOp21
 70
     1
102
RTVSPropertyOp22
 70
     1
102
RTVSPropertyOp23
 70
     1
102
RTVSPropertyOp24
 70
     1
102
RTVSPropertyOp25
 70
     1
102
RTVSPropertyOp26
 70
     1
102
RTVSPropertyOp27
 70
     1
102
RTVSPropertyOp28
 70
     1
102
RTVSPropertyOp29
 70
     1
102
RTVSPropertyOp30
 70
     1
102
RTVSPropertyOp31
 70
     1
102
RTVSPropertyOp32
 70
     1
  0
XRECORD
  5
12C
102
{ACAD_REACTORS
330
12B
102
}
330
12B
100
AcDbXrecord
280
     1
102
RTVSPropertyOp0
 70
     1
102
RTVSPropertyOp1
 70
     1
102
RTVSPropertyOp2
 70
     1
102
RTVSPropertyOp3
 70
     1
102
RTVSPropertyOp4
 70
     1
102
RTVSPropertyOp5
 70
     1
102
RTVSPropertyOp6
 70
     1
102
RTVSPropertyOp7
 70
     1
102
RTVSPropertyOp8
 70
     1
102
RTVSPropertyOp9
 70
     1
102
RTVSPropertyOp10
 70
     1
102
RTVSPropertyOp11
 70
     1
102
RTVSPropertyOp12
 70
     1
102
RTVSPropertyOp13
 70
     1
102
RTVSPropertyOp14
 70
     1
102
RTVSPropertyOp15
 70
     1
102
RTVSPropertyOp16
 70
     1
102
RTVSPropertyOp17
 70
     1
102
RTVSPropertyOp18
 70
     1
102
RTVSPropertyOp19
 70
     1
102
RTVSPropertyOp20
 70
     1
102
RTVSPropertyOp21
 70
     1
102
RTVSPropertyOp22
 70
     1
102
RTVSPropertyOp23
 70
     1
102
RTVSPropertyOp24
 70
     1
102
RTVSPropertyOp25
 70
     1
102
RTVSPropertyOp26
 70
     1
102
RTVSPropertyOp27
 70
     1
102
RTVSPropertyOp28
 70
     1
102
RTVSPropertyOp29
 70
     1
102
RTVSPropertyOp30
 70
     1
102
RTVSPropertyOp31
 70
     1
102
RTVSPropertyOp32
 70
     1
  0
XRECORD
  5
12E
102
{ACAD_REACTORS
330
12D
102
}
330
12D
100
AcDbXrecord
280
     1
102
RTVSPropertyOp0
 70
     1
102
RTVSPropertyOp1
 70
     1
102
RTVSPropertyOp2
 70
     1
102
RTVSPropertyOp3
 70
     1
102
RTVSPropertyOp4
 70
     1
102
RTVSPropertyOp5
 70
     1
102
RTVSPropertyOp6
 70
     1
102
RTVSPropertyOp7
 70
     1
102
RTVSPropertyOp8
 70
     1
102
RTVSPropertyOp9
 70
     1
102
RTVSPropertyOp10
 70
     1
102
RTVSPropertyOp11
 70
     1
102
RTVSPropertyOp12
 70
     1
102
RTVSPropertyOp13
 70
     1
102
RTVSPropertyOp14
 70
     1
102
RTVSPropertyOp15
 70
     1
102
RTVSPropertyOp16
 70
     1
102
RTVSPropertyOp17
 70
     1
102
RTVSPropertyOp18
 70
     1
102
RTVSPropertyOp19
 70
     1
102
RTVSPropertyOp20
 70
     1
102
RTVSPropertyOp21
 70
     1
102
RTVSPropertyOp22
 70
     1
102
RTVSPropertyOp23
 70
     1
102
RTVSPropertyOp24
 70
     1
102
RTVSPropertyOp25
 70
     1
102
RTVSPropertyOp26
 70
     1
102
RTVSPropertyOp27
 70
     1
102
RTVSPropertyOp28
 70
     1
102
RTVSPropertyOp29
 70
     1
102
RTVSPropertyOp30
 70
     1
102
RTVSPropertyOp31
 70
     1
102
RTVSPropertyOp32
 70
     1
  0
XRECORD
  5
142
102
{ACAD_REACTORS
330
141
102
}
330
141
100
AcDbXrecord
280
     1
102
RTVSPropertyOp0
 70
     1
102
RTVSPropertyOp1
 70
     1
102
RTVSPropertyOp2
 70
     1
102
RTVSPropertyOp3
 70
     1
102
RTVSPropertyOp4
 70
     1
102
RTVSPropertyOp5
 70
     1
102
RTVSPropertyOp6
 70
     1
102
RTVSPropertyOp7
 70
     1
102
RTVSPropertyOp8
 70
     1
102
RTVSPropertyOp9
 70
     1
102
RTVSPropertyOp10
 70
     1
102
RTVSPropertyOp11
 70
     1
102
RTVSPropertyOp12
 70
     1
102
RTVSPropertyOp13
 70
     1
102
RTVSPropertyOp14
 70
     1
102
RTVSPropertyOp15
 70
     1
102
RTVSPropertyOp16
 70
     1
102
RTVSPropertyOp17
 70
     1
102
RTVSPropertyOp18
 70
     1
102
RTVSPropertyOp19
 70
     1
102
RTVSPropertyOp20
 70
     1
102
RTVSPropertyOp21
 70
     1
102
RTVSPropertyOp22
 70
     1
102
RTVSPropertyOp23
 70
     1
102
RTVSPropertyOp24
 70
     1
102
RTVSPropertyOp25
 70
     1
102
RTVSPropertyOp26
 70
     1
102
RTVSPropertyOp27
 70
     1
102
RTVSPropertyOp28
 70
     1
102
RTVSPropertyOp29
 70
     1
102
RTVSPropertyOp30
 70
     1
102
RTVSPropertyOp31
 70
     1
102
RTVSPropertyOp32
 70
     1
  0
XRECORD
  5
138
102
{ACAD_REACTORS
330
137
102
}
330
137
100
AcDbXrecord
280
     1
102
RTVSPropertyOp0
 70
     1
102
RTVSPropertyOp1
 70
     1
102
RTVSPropertyOp2
 70
     1
102
RTVSPropertyOp3
 70
     1
102
RTVSPropertyOp4
 70
     1
102
RTVSPropertyOp5
 70
     1
102
RTVSPropertyOp6
 70
     1
102
RTVSPropertyOp7
 70
     1
102
RTVSPropertyOp8
 70
     1
102
RTVSPropertyOp9
 70
     1
102
RTVSPropertyOp10
 70
     1
102
RTVSPropertyOp11
 70
     1
102
RTVSPropertyOp12
 70
     1
102
RTVSPropertyOp13
 70
     1
102
RTVSPropertyOp14
 70
     1
102
RTVSPropertyOp15
 70
     1
102
RTVSPropertyOp16
 70
     1
102
RTVSPropertyOp17
 70
     1
102
RTVSPropertyOp18
 70
     1
102
RTVSPropertyOp19
 70
     1
102
RTVSPropertyOp20
 70
     1
102
RTVSPropertyOp21
 70
     1
102
RTVSPropertyOp22
 70
     1
102
RTVSPropertyOp23
 70
     1
102
RTVSPropertyOp24
 70
     1
102
RTVSPropertyOp25
 70
     1
102
RTVSPropertyOp26
 70
     1
102
RTVSPropertyOp27
 70
     1
102
RTVSPropertyOp28
 70
     1
102
RTVSPropertyOp29
 70
     1
102
RTVSPropertyOp30
 70
     1
102
RTVSPropertyOp31
 70
     1
102
RTVSPropertyOp32
 70
     1
  0
XRECORD
  5
140
102
{ACAD_REACTORS
330
13F
102
}
330
13F
100
AcDbXrecord
280
     1
102
RTVSPropertyOp0
 70
     1
102
RTVSPropertyOp1
 70
     1
102
RTVSPropertyOp2
 70
     1
102
RTVSPropertyOp3
 70
     1
102
RTVSPropertyOp4
 70
     1
102
RTVSPropertyOp5
 70
     1
102
RTVSPropertyOp6
 70
     1
102
RTVSPropertyOp7
 70
     1
102
RTVSPropertyOp8
 70
     1
102
RTVSPropertyOp9
 70
     1
102
RTVSPropertyOp10
 70
     1
102
RTVSPropertyOp11
 70
     1
102
RTVSPropertyOp12
 70
     1
102
RTVSPropertyOp13
 70
     1
102
RTVSPropertyOp14
 70
     1
102
RTVSPropertyOp15
 70
     1
102
RTVSPropertyOp16
 70
     1
102
RTVSPropertyOp17
 70
     1
102
RTVSPropertyOp18
 70
     1
102
RTVSPropertyOp19
 70
     1
102
RTVSPropertyOp20
 70
     1
102
RTVSPropertyOp21
 70
     1
102
RTVSPropertyOp22
 70
     1
102
RTVSPropertyOp23
 70
     1
102
RTVSPropertyOp24
 70
     1
102
RTVSPropertyOp25
 70
     1
102
RTVSPropertyOp26
 70
     1
102
RTVSPropertyOp27
 70
     1
102
RTVSPropertyOp28
 70
     1
102
RTVSPropertyOp29
 70
     1
102
RTVSPropertyOp30
 70
     1
102
RTVSPropertyOp31
 70
     1
102
RTVSPropertyOp32
 70
     1
  0
ENDSEC
  0
EOF
