  0
SECTION
  2
HEADER
  9
$ACADVER
  1
AC1021
  9
$ACADMAINTVER
 70
    25
  9
$DWGCODEPAGE
  3
ANSI_1252
  9
$INSBASE
 10
0.0
 20
0.0
 30
0.0
  9
$EXTMIN
 10
-187.0362
 20
-114.2454
 30
0.0
  9
$EXTMAX
 10
-62.9083
 20
131.839
 30
0.0
  9
$LIMMIN
 10
0.0
 20
0.0
  9
$LIMMAX
 10
12.0
 20
9.0
  9
$ORTHOMODE
 70
     0
  9
$REGENMODE
 70
     1
  9
$FILLMODE
 70
     1
  9
$QTEXTMODE
 70
     0
  9
$MIRRTEXT
 70
     1
  9
$LTSCALE
 40
1.0
  9
$ATTMODE
 70
     1
  9
$TEXTSIZE
 40
0.2
  9
$TRACEWID
 40
0.05
  9
$TEXTSTYLE
  7
Standard
  9
$CLAYER
  8
0
  9
$CELTYPE
  6
ByLayer
  9
$CECOLOR
 62
   256
  9
$CELTSCALE
 40
1.0
  9
$DISPSILH
 70
     0
  9
$DIMSCALE
 40
1.0
  9
$DIMASZ
 40
0.18
  9
$DIMEXO
 40
0.0625
  9
$DIMDLI
 40
0.38
  9
$DIMRND
 40
0.0
  9
$DIMDLE
 40
0.0
  9
$DIMEXE
 40
0.18
  9
$DIMTP
 40
0.0
  9
$DIMTM
 40
0.0
  9
$DIMTXT
 40
0.18
  9
$DIMCEN
 40
0.09
  9
$DIMTSZ
 40
0.0
  9
$DIMTOL
 70
     0
  9
$DIMLIM
 70
     0
  9
$DIMTIH
 70
     1
  9
$DIMTOH
 70
     1
  9
$DIMSE1
 70
     0
  9
$DIMSE2
 70
     0
  9
$DIMTAD
 70
     0
  9
$DIMZIN
 70
     0
  9
$DIMBLK
  1

  9
$DIMASO
 70
     1
  9
$DIMSHO
 70
     1
  9
$DIMPOST
  1

  9
$DIMAPOST
  1

  9
$DIMALT
 70
     0
  9
$DIMALTD
 70
     2
  9
$DIMALTF
 40
25.4
  9
$DIMLFAC
 40
1.0
  9
$DIMTOFL
 70
     0
  9
$DIMTVP
 40
0.0
  9
$DIMTIX
 70
     0
  9
$DIMSOXD
 70
     0
  9
$DIMSAH
 70
     0
  9
$DIMBLK1
  1

  9
$DIMBLK2
  1

  9
$DIMSTYLE
  2
Standard
  9
$DIMCLRD
 70
     0
  9
$DIMCLRE
 70
     0
  9
$DIMCLRT
 70
     0
  9
$DIMTFAC
 40
1.0
  9
$DIMGAP
 40
0.09
  9
$DIMJUST
 70
     0
  9
$DIMSD1
 70
     0
  9
$DIMSD2
 70
     0
  9
$DIMTOLJ
 70
     1
  9
$DIMTZIN
 70
     0
  9
$DIMALTZ
 70
     0
  9
$DIMALTTZ
 70
     0
  9
$DIMUPT
 70
     0
  9
$DIMDEC
 70
     4
  9
$DIMTDEC
 70
     4
  9
$DIMALTU
 70
     2
  9
$DIMALTTD
 70
     2
  9
$DIMTXSTY
  7
Standard
  9
$DIMAUNIT
 70
     0
  9
$DIMADEC
 70
     0
  9
$DIMALTRND
 40
0.0
  9
$DIMAZIN
 70
     0
  9
$DIMDSEP
 70
    46
  9
$DIMATFIT
 70
     3
  9
$DIMFRAC
 70
     0
  9
$DIMLDRBLK
  1

  9
$DIMLUNIT
 70
     2
  9
$DIMLWD
 70
    -2
  9
$DIMLWE
 70
    -2
  9
$DIMTMOVE
 70
     0
  9
$DIMFXL
 40
1.0
  9
$DIMFXLON
 70
     0
  9
$DIMJOGANG
 40
0.7853981633974483
  9
$DIMTFILL
 70
     0
  9
$DIMTFILLCLR
 70
     0
  9
$DIMARCSYM
 70
     0
  9
$DIMLTYPE
  6

  9
$DIMLTEX1
  6

  9
$DIMLTEX2
  6

  9
$LUNITS
 70
     2
  9
$LUPREC
 70
     4
  9
$SKETCHINC
 40
0.1
  9
$FILLETRAD
 40
0.5
  9
$AUNITS
 70
     0
  9
$AUPREC
 70
     0
  9
$MENU
  1
.
  9
$ELEVATION
 40
0.0
  9
$PELEVATION
 40
0.0
  9
$THICKNESS
 40
0.0
  9
$LIMCHECK
 70
     0
  9
$CHAMFERA
 40
0.5
  9
$CHAMFERB
 40
0.5
  9
$CHAMFERC
 40
1.0
  9
$CHAMFERD
 40
0.0
  9
$SKPOLY
 70
     0
  9
$TDCREATE
 40
2458493.719299977
  9
$TDUCREATE
 40
2458493.719299977
  9
$TDUPDATE
 40
2458493.71930022
  9
$TDUUPDATE
 40
2458493.71930022
  9
$TDINDWG
 40
0.0000000116
  9
$TDUSRTIMER
 40
0.0000000116
  9
$USRTIMER
 70
     1
  9
$ANGBASE
 50
0.0
  9
$ANGDIR
 70
     0
  9
$PDMODE
 70
     0
  9
$PDSIZE
 40
0.0
  9
$PLINEWID
 40
0.0
  9
$SPLFRAME
 70
     0
  9
$SPLINETYPE
 70
     6
  9
$SPLINESEGS
 70
     8
  9
$HANDSEED
  5
D7
  9
$SURFTAB1
 70
     6
  9
$SURFTAB2
 70
     6
  9
$SURFTYPE
 70
     6
  9
$SURFU
 70
     6
  9
$SURFV
 70
     6
  9
$UCSBASE
  2

  9
$UCSNAME
  2

  9
$UCSORG
 10
0.0
 20
0.0
 30
0.0
  9
$UCSXDIR
 10
1.0
 20
0.0
 30
0.0
  9
$UCSYDIR
 10
0.0
 20
1.0
 30
0.0
  9
$UCSORTHOREF
  2

  9
$UCSORTHOVIEW
 70
     0
  9
$UCSORGTOP
 10
0.0
 20
0.0
 30
0.0
  9
$UCSORGBOTTOM
 10
0.0
 20
0.0
 30
0.0
  9
$UCSORGLEFT
 10
0.0
 20
0.0
 30
0.0
  9
$UCSORGRIGHT
 10
0.0
 20
0.0
 30
0.0
  9
$UCSORGFRONT
 10
0.0
 20
0.0
 30
0.0
  9
$UCSORGBACK
 10
0.0
 20
0.0
 30
0.0
  9
$PUCSBASE
  2

  9
$PUCSNAME
  2

  9
$PUCSORG
 10
0.0
 20
0.0
 30
0.0
  9
$PUCSXDIR
 10
1.0
 20
0.0
 30
0.0
  9
$PUCSYDIR
 10
0.0
 20
1.0
 30
0.0
  9
$PUCSORTHOREF
  2

  9
$PUCSORTHOVIEW
 70
     0
  9
$PUCSORGTOP
 10
0.0
 20
0.0
 30
0.0
  9
$PUCSORGBOTTOM
 10
0.0
 20
0.0
 30
0.0
  9
$PUCSORGLEFT
 10
0.0
 20
0.0
 30
0.0
  9
$PUCSORGRIGHT
 10
0.0
 20
0.0
 30
0.0
  9
$PUCSORGFRONT
 10
0.0
 20
0.0
 30
0.0
  9
$PUCSORGBACK
 10
0.0
 20
0.0
 30
0.0
  9
$USERI1
 70
     0
  9
$USERI2
 70
     0
  9
$USERI3
 70
     0
  9
$USERI4
 70
     0
  9
$USERI5
 70
     0
  9
$USERR1
 40
0.0
  9
$USERR2
 40
0.0
  9
$USERR3
 40
0.0
  9
$USERR4
 40
0.0
  9
$USERR5
 40
0.0
  9
$WORLDVIEW
 70
     1
  9
$SHADEDGE
 70
     3
  9
$SHADEDIF
 70
    70
  9
$TILEMODE
 70
     1
  9
$MAXACTVP
 70
    64
  9
$PINSBASE
 10
0.0
 20
0.0
 30
0.0
  9
$PLIMCHECK
 70
     0
  9
$PEXTMIN
 10
1.000000000000000E+20
 20
1.000000000000000E+20
 30
1.000000000000000E+20
  9
$PEXTMAX
 10
-1.000000000000000E+20
 20
-1.000000000000000E+20
 30
-1.000000000000000E+20
  9
$PLIMMIN
 10
0.0
 20
0.0
  9
$PLIMMAX
 10
12.0
 20
9.0
  9
$UNITMODE
 70
     0
  9
$VISRETAIN
 70
     1
  9
$PLINEGEN
 70
     0
  9
$PSLTSCALE
 70
     1
  9
$TREEDEPTH
 70
  3020
  9
$CMLSTYLE
  2
Standard
  9
$CMLJUST
 70
     0
  9
$CMLSCALE
 40
1.0
  9
$PROXYGRAPHICS
 70
     1
  9
$MEASUREMENT
 70
     0
  9
$CELWEIGHT
370
    -1
  9
$ENDCAPS
280
     0
  9
$JOINSTYLE
280
     0
  9
$LWDISPLAY
290
     0
  9
$INSUNITS
 70
     4
  9
$HYPERLINKBASE
  1

  9
$STYLESHEET
  1

  9
$XEDIT
290
     1
  9
$CEPSNTYPE
380
     0
  9
$PSTYLEMODE
290
     1
  9
$FINGERPRINTGUID
  2
{0298E28C-6BC9-4E70-A8E2-2D46FD2DD2E9}
  9
$VERSIONGUID
  2
{FAEB1C32-E019-11D5-929B-00C0DF256EC4}
  9
$EXTNAMES
290
     1
  9
$PSVPSCALE
 40
0.0
  9
$OLESTARTUP
290
     0
  9
$SORTENTS
280
   127
  9
$INDEXCTL
280
     0
  9
$HIDETEXT
280
     1
  9
$XCLIPFRAME
290
     0
  9
$HALOGAP
280
     0
  9
$OBSCOLOR
 70
   257
  9
$OBSLTYPE
280
     0
  9
$INTERSECTIONDISPLAY
280
     0
  9
$INTERSECTIONCOLOR
 70
   257
  9
$DIMASSOC
280
     2
  9
$PROJECTNAME
  1

  9
$CAMERADISPLAY
290
     0
  9
$LENSLENGTH
 40
50.0
  9
$CAMERAHEIGHT
 40
0.0
  9
$STEPSPERSEC
 40
2.0
  9
$STEPSIZE
 40
6.0
  9
$3DDWFPREC
 40
2.0
  9
$PSOLWIDTH
 40
0.25
  9
$PSOLHEIGHT
 40
4.0
  9
$LOFTANG1
 40
1.570796326794897
  9
$LOFTANG2
 40
1.570796326794897
  9
$LOFTMAG1
 40
0.0
  9
$LOFTMAG2
 40
0.0
  9
$LOFTPARAM
 70
     7
  9
$LOFTNORMALS
280
     1
  9
$LATITUDE
 40
37.795
  9
$LONGITUDE
 40
-122.394
  9
$NORTHDIRECTION
 40
0.0
  9
$TIMEZONE
 70
 -8000
  9
$LIGHTGLYPHDISPLAY
280
     1
  9
$TILEMODELIGHTSYNCH
280
     1
  9
$SOLIDHIST
280
     1
  9
$SHOWHIST
280
     1
  9
$DWFFRAME
280
     2
  9
$DGNFRAME
280
     2
  9
$REALWORLDSCALE
290
     1
  9
$INTERFERECOLOR
 62
   256
  9
$CSHADOW
280
     0
  9
$SHADOWPLANELOCATION
 40
0.0
  0
ENDSEC
  0
SECTION
  2
CLASSES
  0
CLASS
  1
ACDBDICTIONARYWDFLT
  2
AcDbDictionaryWithDefault
  3
ObjectDBX Classes
 90
        0
 91
        4
280
     0
281
     0
  0
CLASS
  1
VISUALSTYLE
  2
AcDbVisualStyle
  3
ObjectDBX Classes
 90
     4095
 91
        4
280
     0
281
     0
  0
CLASS
  1
MATERIAL
  2
AcDbMaterial
  3
ObjectDBX Classes
 90
     1153
 91
        4
280
     0
281
     0
  0
ENDSEC
  0
SECTION
  2
TABLES
  0
TABLE
  2
VPORT
  5
8
330
0
100
AcDbSymbolTable
 70
     1
  0
VPORT
  5
29
330
8
100
AcDbSymbolTableRecord
100
AcDbViewportTableRecord
  2
*Active
 70
     0
 10
0.0
 20
0.0
 11
1.0
 21
1.0
 12
10.42990654205607
 22
4.5
 13
0.0
 23
0.0
 14
0.5
 24
0.5
 15
0.5
 25
0.5
 16
0.0
 26
0.0
 36
1.0
 17
0.0
 27
0.0
 37
0.0
 40
9.0
 41
1.972972972850329
 42
50.0
 43
0.0
 44
0.0
 50
0.0
 51
0.0
 71
     0
 72
   100
 73
     1
 74
     3
 75
     0
 76
     0
 77
     0
 78
     0
281
     0
 65
     1
110
0.0
120
0.0
130
0.0
111
1.0
121
0.0
131
0.0
112
0.0
122
1.0
132
0.0
 79
     0
146
0.0
 60
     3
 61
     5
292
     1
282
     1
141
0.0
142
0.0
 63
   250
  0
ENDTAB
  0
TABLE
  2
LTYPE
  5
5
330
0
100
AcDbSymbolTable
 70
     1
  0
LTYPE
  5
14
330
5
100
AcDbSymbolTableRecord
100
AcDbLinetypeTableRecord
  2
ByBlock
 70
     0
  3

 72
    65
 73
     0
 40
0.0
  0
LTYPE
  5
15
330
5
100
AcDbSymbolTableRecord
100
AcDbLinetypeTableRecord
  2
ByLayer
 70
     0
  3

 72
    65
 73
     0
 40
0.0
  0
LTYPE
  5
16
330
5
100
AcDbSymbolTableRecord
100
AcDbLinetypeTableRecord
  2
Continuous
 70
     0
  3
Solid line
 72
    65
 73
     0
 40
0.0
  0
ENDTAB
  0
TABLE
  2
LAYER
  5
2
330
0
100
AcDbSymbolTable
 70
     3
  0
LAYER
  5
10
330
2
100
AcDbSymbolTableRecord
100
AcDbLayerTableRecord
  2
0
 70
     0
 62
     7
  6
Continuous
370
    -3
390
F
347
3E
  0
LAYER
  5
40
330
2
100
AcDbSymbolTableRecord
100
AcDbLayerTableRecord
  2
layer 1
 70
     0
 62
     7
  6
Continuous
370
    -3
390
F
347
3E
  0
LAYER
  5
B4
330
2
100
AcDbSymbolTableRecord
100
AcDbLayerTableRecord
  2
Master Guides
 70
     0
 62
     7
  6
Continuous
370
    -3
390
F
347
3E
  0
ENDTAB
  0
TABLE
  2
STYLE
  5
3
330
0
100
AcDbSymbolTable
 70
     1
  0
STYLE
  5
11
330
3
100
AcDbSymbolTableRecord
100
AcDbTextStyleTableRecord
  2
Standard
 70
     0
 40
0.0
 41
1.0
 50
0.0
 71
     0
 42
0.2
  3
txt
  4

  0
ENDTAB
  0
TABLE
  2
VIEW
  5
6
330
0
100
AcDbSymbolTable
 70
     0
  0
ENDTAB
  0
TABLE
  2
UCS
  5
7
330
0
100
AcDbSymbolTable
 70
     0
  0
ENDTAB
  0
TABLE
  2
APPID
  5
9
330
0
100
AcDbSymbolTable
 70
     2
  0
APPID
  5
12
330
9
100
AcDbSymbolTableRecord
100
AcDbRegAppTableRecord
  2
ACAD
 70
     0
  0
APPID
  5
3F
330
9
100
AcDbSymbolTableRecord
100
AcDbRegAppTableRecord
  2
ODA
 70
     0
  0
ENDTAB
  0
TABLE
  2
DIMSTYLE
  5
A
330
0
100
AcDbSymbolTable
 70
     1
100
AcDbDimStyleTable
  0
DIMSTYLE
105
27
330
A
100
AcDbSymbolTableRecord
100
AcDbDimStyleTableRecord
  2
Standard
 70
     0
178
     0
340
11
  0
ENDTAB
  0
TABLE
  2
BLOCK_RECORD
  5
1
330
0
100
AcDbSymbolTable
 70
     1
  0
BLOCK_RECORD
  5
1F
330
1
100
AcDbSymbolTableRecord
100
AcDbBlockTableRecord
  2
*Model_Space
340
22
 70
     0
280
     1
281
     0
  0
BLOCK_RECORD
  5
1B
330
1
100
AcDbSymbolTableRecord
100
AcDbBlockTableRecord
  2
*Paper_Space
340
1E
 70
     0
280
     1
281
     0
  0
BLOCK_RECORD
  5
23
330
1
100
AcDbSymbolTableRecord
100
AcDbBlockTableRecord
  2
*Paper_Space0
340
26
 70
     0
280
     1
281
     0
  0
ENDTAB
  0
ENDSEC
  0
SECTION
  2
BLOCKS
  0
BLOCK
  5
20
330
1F
100
AcDbEntity
  8
0
100
AcDbBlockBegin
  2
*Model_Space
 70
     0
 10
0.0
 20
0.0
 30
0.0
  3
*Model_Space
  1

  0
ENDBLK
  5
21
330
1F
100
AcDbEntity
  8
0
100
AcDbBlockEnd
  0
BLOCK
  5
1C
330
1B
100
AcDbEntity
 67
     1
  8
0
100
AcDbBlockBegin
  2
*Paper_Space
 70
     0
 10
0.0
 20
0.0
 30
0.0
  3
*Paper_Space
  1

  0
ENDBLK
  5
1D
330
1B
100
AcDbEntity
 67
     1
  8
0
100
AcDbBlockEnd
  0
BLOCK
  5
24
330
23
100
AcDbEntity
  8
0
100
AcDbBlockBegin
  2
*Paper_Space0
 70
     0
 10
0.0
 20
0.0
 30
0.0
  3
*Paper_Space0
  1

  0
ENDBLK
  5
25
330
23
100
AcDbEntity
  8
0
100
AcDbBlockEnd
  0
ENDSEC
  0
SECTION
  2
ENTITIES
  0
SPLINE
  5
41
330
1F
100
AcDbEntity
  8
layer 1
100
AcDbSpline
210
0.0
220
0.0
230
1.0
 70
    11
 71
     3
 72
    20
 73
    16
 74
     0
 42
0.0000000001
 43
0.0000000001
 12
1.0
 22
0.0
 32
0.0
 13
1.0
 23
0.0
 33
0.0
 40
0.0
 40
0.0
 40
0.0
 40
0.0
 40
0.2
 40
0.2
 40
0.2
 40
0.2
 40
0.4
 40
0.4
 40
0.4
 40
0.4
 40
0.6
 40
0.6
 40
0.6
 40
0.6
 40
1.0
 40
1.0
 40
1.0
 40
1.0
 10
-187.0362
 20
-114.2454
 30
0.0
 10
-187.0362
 20
-114.2454
 30
0.0
 10
-62.9083
 20
-114.2454
 30
0.0
 10
-62.9083
 20
-114.2454
 30
0.0
 10
-62.9083
 20
-114.2454
 30
0.0
 10
-62.9083
 20
-114.2454
 30
0.0
 10
-62.9083
 20
131.839
 30
0.0
 10
-62.9083
 20
131.839
 30
0.0
 10
-62.9083
 20
131.839
 30
0.0
 10
-62.9083
 20
131.839
 30
0.0
 10
-187.0362
 20
131.839
 30
0.0
 10
-187.0362
 20
131.839
 30
0.0
 10
-187.0362
 20
131.839
 30
0.0
 10
-187.0362
 20
131.839
 30
0.0
 10
-187.0362
 20
-114.2454
 30
0.0
 10
-187.0362
 20
-114.2454
 30
0.0
  0
SPLINE
  5
42
330
1F
100
AcDbEntity
  8
layer 1
 62
     7
100
AcDbSpline
210
0.0
220
0.0
230
1.0
 70
    11
 71
     3
 72
    16
 73
    12
 74
     0
 42
0.0000000001
 43
0.0000000001
 12
1.0
 22
0.0
 32
0.0
 13
1.0
 23
0.0
 33
0.0
 40
0.0
 40
0.0
 40
0.0
 40
0.0
 40
0.25
 40
0.25
 40
0.25
 40
0.25
 40
0.5
 40
0.5
 40
0.5
 40
0.5
 40
1.0
 40
1.0
 40
1.0
 40
1.0
 10
-150.2882
 20
122.0008
 30
0.0
 10
-152.7546
 20
116.9794
 30
0.0
 10
-152.1845
 20
108.6193
 30
0.0
 10
-150.6039
 20
105.0852
 30
0.0
 10
-150.6039
 20
105.0852
 30
0.0
 10
-152.5709
 20
108.406
 30
0.0
 10
-158.8694
 20
112.6944
 30
0.0
 10
-164.9308
 20
113.276
 30
0.0
 10
-164.9308
 20
113.276
 30
0.0
 10
-158.8758
 20
114.0983
 30
0.0
 10
-153.1134
 20
117.2211
 30
0.0
 10
-150.2882
 20
122.0008
 30
0.0
  0
SPLINE
  5
43
330
1F
100
AcDbEntity
  8
layer 1
 62
     7
100
AcDbSpline
210
0.0
220
0.0
230
1.0
 70
    11
 71
     3
 72
    16
 73
    12
 74
     0
 42
0.0000000001
 43
0.0000000001
 12
1.0
 22
0.0
 32
0.0
 13
1.0
 23
0.0
 33
0.0
 40
0.0
 40
0.0
 40
0.0
 40
0.0
 40
0.25
 40
0.25
 40
0.25
 40
0.25
 40
0.5
 40
0.5
 40
0.5
 40
0.5
 40
1.0
 40
1.0
 40
1.0
 40
1.0
 10
-144.9976
 20
122.0008
 30
0.0
 10
-142.5312
 20
116.9793
 30
0.0
 10
-143.1015
 20
108.6192
 30
0.0
 10
-144.6821
 20
105.0851
 30
0.0
 10
-144.6821
 20
105.0851
 30
0.0
 10
-142.715
 20
108.4059
 30
0.0
 10
-136.4165
 20
112.6943
 30
0.0
 10
-130.3552
 20
113.276
 30
0.0
 10
-130.3552
 20
113.276
 30
0.0
 10
-136.4101
 20
114.0983
 30
0.0
 10
-142.1726
 20
117.221
 30
0.0
 10
-144.9976
 20
122.0008
 30
0.0
  0
SPLINE
  5
44
330
1F
100
AcDbEntity
  8
layer 1
 62
     7
100
AcDbSpline
210
0.0
220
0.0
230
1.0
 70
    11
 71
     3
 72
    16
 73
    12
 74
     0
 42
0.0000000001
 43
0.0000000001
 12
1.0
 22
0.0
 32
0.0
 13
1.0
 23
0.0
 33
0.0
 40
0.0
 40
0.0
 40
0.0
 40
0.0
 40
0.25
 40
0.25
 40
0.25
 40
0.25
 40
0.5
 40
0.5
 40
0.5
 40
0.5
 40
1.0
 40
1.0
 40
1.0
 40
1.0
 10
-105.0702
 20
122.0008
 30
0.0
 10
-107.5367
 20
116.9793
 30
0.0
 10
-106.9664
 20
108.6192
 30
0.0
 10
-105.3858
 20
105.0851
 30
0.0
 10
-105.3858
 20
105.0851
 30
0.0
 10
-107.3528
 20
108.4059
 30
0.0
 10
-113.6514
 20
112.6943
 30
0.0
 10
-119.7127
 20
113.276
 30
0.0
 10
-119.7127
 20
113.276
 30
0.0
 10
-113.6578
 20
114.0983
 30
0.0
 10
-107.8953
 20
117.221
 30
0.0
 10
-105.0702
 20
122.0008
 30
0.0
  0
SPLINE
  5
45
330
1F
100
AcDbEntity
  8
layer 1
 62
     7
100
AcDbSpline
210
0.0
220
0.0
230
1.0
 70
    11
 71
     3
 72
    16
 73
    12
 74
     0
 42
0.0000000001
 43
0.0000000001
 12
1.0
 22
0.0
 32
0.0
 13
1.0
 23
0.0
 33
0.0
 40
0.0
 40
0.0
 40
0.0
 40
0.0
 40
0.25
 40
0.25
 40
0.25
 40
0.25
 40
0.5
 40
0.5
 40
0.5
 40
0.5
 40
1.0
 40
1.0
 40
1.0
 40
1.0
 10
-99.7796
 20
122.0008
 30
0.0
 10
-97.3132
 20
116.9793
 30
0.0
 10
-97.8834
 20
108.6192
 30
0.0
 10
-99.464
 20
105.0851
 30
0.0
 10
-99.464
 20
105.0851
 30
0.0
 10
-97.497
 20
108.4059
 30
0.0
 10
-91.1984
 20
112.6943
 30
0.0
 10
-85.1371
 20
113.276
 30
0.0
 10
-85.1371
 20
113.276
 30
0.0
 10
-91.192
 20
114.0983
 30
0.0
 10
-96.9545
 20
117.221
 30
0.0
 10
-99.7796
 20
122.0008
 30
0.0
  0
SPLINE
  5
46
330
1F
100
AcDbEntity
  8
layer 1
 62
     7
100
AcDbSpline
210
0.0
220
0.0
230
1.0
 70
    11
 71
     3
 72
    16
 73
    12
 74
     0
 42
0.0000000001
 43
0.0000000001
 12
1.0
 22
0.0
 32
0.0
 13
1.0
 23
0.0
 33
0.0
 40
0.0
 40
0.0
 40
0.0
 40
0.0
 40
0.25
 40
0.25
 40
0.25
 40
0.25
 40
0.5
 40
0.5
 40
0.5
 40
0.5
 40
1.0
 40
1.0
 40
1.0
 40
1.0
 10
-150.2882
 20
95.8321
 30
0.0
 10
-152.7546
 20
90.8107
 30
0.0
 10
-152.1843
 20
82.4506
 30
0.0
 10
-150.6037
 20
78.9165
 30
0.0
 10
-150.6037
 20
78.9165
 30
0.0
 10
-152.5708
 20
82.2372
 30
0.0
 10
-158.8693
 20
86.5256
 30
0.0
 10
-164.9306
 20
87.1074
 30
0.0
 10
-164.9306
 20
87.1074
 30
0.0
 10
-158.8757
 20
87.9296
 30
0.0
 10
-153.1132
 20
91.0523
 30
0.0
 10
-150.2882
 20
95.8321
 30
0.0
  0
SPLINE
  5
47
330
1F
100
AcDbEntity
  8
layer 1
 62
     7
100
AcDbSpline
210
0.0
220
0.0
230
1.0
 70
    11
 71
     3
 72
    16
 73
    12
 74
     0
 42
0.0000000001
 43
0.0000000001
 12
1.0
 22
0.0
 32
0.0
 13
1.0
 23
0.0
 33
0.0
 40
0.0
 40
0.0
 40
0.0
 40
0.0
 40
0.25
 40
0.25
 40
0.25
 40
0.25
 40
0.5
 40
0.5
 40
0.5
 40
0.5
 40
1.0
 40
1.0
 40
1.0
 40
1.0
 10
-144.9976
 20
95.8321
 30
0.0
 10
-142.5312
 20
90.8107
 30
0.0
 10
-143.1015
 20
82.4506
 30
0.0
 10
-144.6821
 20
78.9165
 30
0.0
 10
-144.6821
 20
78.9165
 30
0.0
 10
-142.715
 20
82.2372
 30
0.0
 10
-136.4165
 20
86.5256
 30
0.0
 10
-130.3552
 20
87.1074
 30
0.0
 10
-130.3552
 20
87.1074
 30
0.0
 10
-136.4101
 20
87.9296
 30
0.0
 10
-142.1726
 20
91.0523
 30
0.0
 10
-144.9976
 20
95.8321
 30
0.0
  0
SPLINE
  5
48
330
1F
100
AcDbEntity
  8
layer 1
 62
     7
100
AcDbSpline
210
0.0
220
0.0
230
1.0
 70
    11
 71
     3
 72
    16
 73
    12
 74
     0
 42
0.0000000001
 43
0.0000000001
 12
1.0
 22
0.0
 32
0.0
 13
1.0
 23
0.0
 33
0.0
 40
0.0
 40
0.0
 40
0.0
 40
0.0
 40
0.25
 40
0.25
 40
0.25
 40
0.25
 40
0.5
 40
0.5
 40
0.5
 40
0.5
 40
1.0
 40
1.0
 40
1.0
 40
1.0
 10
-105.0702
 20
95.8321
 30
0.0
 10
-107.5367
 20
90.8107
 30
0.0
 10
-106.9664
 20
82.4506
 30
0.0
 10
-105.3858
 20
78.9165
 30
0.0
 10
-105.3858
 20
78.9165
 30
0.0
 10
-107.3528
 20
82.2372
 30
0.0
 10
-113.6514
 20
86.5256
 30
0.0
 10
-119.7127
 20
87.1074
 30
0.0
 10
-119.7127
 20
87.1074
 30
0.0
 10
-113.6578
 20
87.9296
 30
0.0
 10
-107.8953
 20
91.0523
 30
0.0
 10
-105.0702
 20
95.8321
 30
0.0
  0
SPLINE
  5
49
330
1F
100
AcDbEntity
  8
layer 1
 62
     7
100
AcDbSpline
210
0.0
220
0.0
230
1.0
 70
    11
 71
     3
 72
    16
 73
    12
 74
     0
 42
0.0000000001
 43
0.0000000001
 12
1.0
 22
0.0
 32
0.0
 13
1.0
 23
0.0
 33
0.0
 40
0.0
 40
0.0
 40
0.0
 40
0.0
 40
0.25
 40
0.25
 40
0.25
 40
0.25
 40
0.5
 40
0.5
 40
0.5
 40
0.5
 40
1.0
 40
1.0
 40
1.0
 40
1.0
 10
-99.7796
 20
95.8321
 30
0.0
 10
-97.3132
 20
90.8107
 30
0.0
 10
-97.8834
 20
82.4506
 30
0.0
 10
-99.464
 20
78.9165
 30
0.0
 10
-99.464
 20
78.9165
 30
0.0
 10
-97.497
 20
82.2372
 30
0.0
 10
-91.1984
 20
86.5256
 30
0.0
 10
-85.1371
 20
87.1074
 30
0.0
 10
-85.1371
 20
87.1074
 30
0.0
 10
-91.192
 20
87.9296
 30
0.0
 10
-96.9545
 20
91.0523
 30
0.0
 10
-99.7796
 20
95.8321
 30
0.0
  0
SPLINE
  5
4A
330
1F
100
AcDbEntity
  8
layer 1
 62
     7
100
AcDbSpline
210
0.0
220
0.0
230
1.0
 70
    11
 71
     3
 72
    16
 73
    12
 74
     0
 42
0.0000000001
 43
0.0000000001
 12
1.0
 22
0.0
 32
0.0
 13
1.0
 23
0.0
 33
0.0
 40
0.0
 40
0.0
 40
0.0
 40
0.0
 40
0.25
 40
0.25
 40
0.25
 40
0.25
 40
0.5
 40
0.5
 40
0.5
 40
0.5
 40
1.0
 40
1.0
 40
1.0
 40
1.0
 10
-150.2882
 20
69.7917
 30
0.0
 10
-152.7546
 20
64.7702
 30
0.0
 10
-152.1843
 20
56.4101
 30
0.0
 10
-150.6037
 20
52.876
 30
0.0
 10
-150.6037
 20
52.876
 30
0.0
 10
-152.5708
 20
56.1968
 30
0.0
 10
-158.8693
 20
60.4852
 30
0.0
 10
-164.9306
 20
61.067
 30
0.0
 10
-164.9306
 20
61.067
 30
0.0
 10
-158.8757
 20
61.8892
 30
0.0
 10
-153.1132
 20
65.0119
 30
0.0
 10
-150.2882
 20
69.7917
 30
0.0
  0
SPLINE
  5
4B
330
1F
100
AcDbEntity
  8
layer 1
 62
     7
100
AcDbSpline
210
0.0
220
0.0
230
1.0
 70
    11
 71
     3
 72
    16
 73
    12
 74
     0
 42
0.0000000001
 43
0.0000000001
 12
1.0
 22
0.0
 32
0.0
 13
1.0
 23
0.0
 33
0.0
 40
0.0
 40
0.0
 40
0.0
 40
0.0
 40
0.25
 40
0.25
 40
0.25
 40
0.25
 40
0.5
 40
0.5
 40
0.5
 40
0.5
 40
1.0
 40
1.0
 40
1.0
 40
1.0
 10
-144.9976
 20
69.7917
 30
0.0
 10
-142.5312
 20
64.7702
 30
0.0
 10
-143.1015
 20
56.4101
 30
0.0
 10
-144.6821
 20
52.876
 30
0.0
 10
-144.6821
 20
52.876
 30
0.0
 10
-142.715
 20
56.1968
 30
0.0
 10
-136.4165
 20
60.4852
 30
0.0
 10
-130.3552
 20
61.067
 30
0.0
 10
-130.3552
 20
61.067
 30
0.0
 10
-136.4101
 20
61.8892
 30
0.0
 10
-142.1726
 20
65.0119
 30
0.0
 10
-144.9976
 20
69.7917
 30
0.0
  0
SPLINE
  5
4C
330
1F
100
AcDbEntity
  8
layer 1
 62
     7
100
AcDbSpline
210
0.0
220
0.0
230
1.0
 70
    11
 71
     3
 72
    16
 73
    12
 74
     0
 42
0.0000000001
 43
0.0000000001
 12
1.0
 22
0.0
 32
0.0
 13
1.0
 23
0.0
 33
0.0
 40
0.0
 40
0.0
 40
0.0
 40
0.0
 40
0.25
 40
0.25
 40
0.25
 40
0.25
 40
0.5
 40
0.5
 40
0.5
 40
0.5
 40
1.0
 40
1.0
 40
1.0
 40
1.0
 10
-105.0702
 20
69.7917
 30
0.0
 10
-107.5367
 20
64.7702
 30
0.0
 10
-106.9664
 20
56.4101
 30
0.0
 10
-105.3858
 20
52.876
 30
0.0
 10
-105.3858
 20
52.876
 30
0.0
 10
-107.3528
 20
56.1968
 30
0.0
 10
-113.6514
 20
60.4852
 30
0.0
 10
-119.7127
 20
61.067
 30
0.0
 10
-119.7127
 20
61.067
 30
0.0
 10
-113.6578
 20
61.8892
 30
0.0
 10
-107.8953
 20
65.0119
 30
0.0
 10
-105.0702
 20
69.7917
 30
0.0
  0
SPLINE
  5
4D
330
1F
100
AcDbEntity
  8
layer 1
 62
     7
100
AcDbSpline
210
0.0
220
0.0
230
1.0
 70
    11
 71
     3
 72
    16
 73
    12
 74
     0
 42
0.0000000001
 43
0.0000000001
 12
1.0
 22
0.0
 32
0.0
 13
1.0
 23
0.0
 33
0.0
 40
0.0
 40
0.0
 40
0.0
 40
0.0
 40
0.25
 40
0.25
 40
0.25
 40
0.25
 40
0.5
 40
0.5
 40
0.5
 40
0.5
 40
1.0
 40
1.0
 40
1.0
 40
1.0
 10
-99.7796
 20
69.7917
 30
0.0
 10
-97.3132
 20
64.7702
 30
0.0
 10
-97.8834
 20
56.4101
 30
0.0
 10
-99.464
 20
52.876
 30
0.0
 10
-99.464
 20
52.876
 30
0.0
 10
-97.497
 20
56.1968
 30
0.0
 10
-91.1984
 20
60.4852
 30
0.0
 10
-85.1371
 20
61.067
 30
0.0
 10
-85.1371
 20
61.067
 30
0.0
 10
-91.192
 20
61.8892
 30
0.0
 10
-96.9545
 20
65.0119
 30
0.0
 10
-99.7796
 20
69.7917
 30
0.0
  0
SPLINE
  5
4E
330
1F
100
AcDbEntity
  8
layer 1
 62
     7
100
AcDbSpline
210
0.0
220
0.0
230
1.0
 70
    11
 71
     3
 72
    16
 73
    12
 74
     0
 42
0.0000000001
 43
0.0000000001
 12
1.0
 22
0.0
 32
0.0
 13
1.0
 23
0.0
 33
0.0
 40
0.0
 40
0.0
 40
0.0
 40
0.0
 40
0.25
 40
0.25
 40
0.25
 40
0.25
 40
0.5
 40
0.5
 40
0.5
 40
0.5
 40
1.0
 40
1.0
 40
1.0
 40
1.0
 10
-150.2882
 20
43.6229
 30
0.0
 10
-152.7546
 20
38.6015
 30
0.0
 10
-152.1843
 20
30.2414
 30
0.0
 10
-150.6037
 20
26.7073
 30
0.0
 10
-150.6037
 20
26.7073
 30
0.0
 10
-152.5708
 20
30.028
 30
0.0
 10
-158.8693
 20
34.3165
 30
0.0
 10
-164.9306
 20
34.8982
 30
0.0
 10
-164.9306
 20
34.8982
 30
0.0
 10
-158.8757
 20
35.7204
 30
0.0
 10
-153.1132
 20
38.8431
 30
0.0
 10
-150.2882
 20
43.6229
 30
0.0
  0
SPLINE
  5
4F
330
1F
100
AcDbEntity
  8
layer 1
 62
     7
100
AcDbSpline
210
0.0
220
0.0
230
1.0
 70
    11
 71
     3
 72
    16
 73
    12
 74
     0
 42
0.0000000001
 43
0.0000000001
 12
1.0
 22
0.0
 32
0.0
 13
1.0
 23
0.0
 33
0.0
 40
0.0
 40
0.0
 40
0.0
 40
0.0
 40
0.25
 40
0.25
 40
0.25
 40
0.25
 40
0.5
 40
0.5
 40
0.5
 40
0.5
 40
1.0
 40
1.0
 40
1.0
 40
1.0
 10
-144.9976
 20
43.6229
 30
0.0
 10
-142.5312
 20
38.6015
 30
0.0
 10
-143.1015
 20
30.2414
 30
0.0
 10
-144.6821
 20
26.7073
 30
0.0
 10
-144.6821
 20
26.7073
 30
0.0
 10
-142.715
 20
30.028
 30
0.0
 10
-136.4165
 20
34.3165
 30
0.0
 10
-130.3552
 20
34.8982
 30
0.0
 10
-130.3552
 20
34.8982
 30
0.0
 10
-136.4101
 20
35.7204
 30
0.0
 10
-142.1726
 20
38.8431
 30
0.0
 10
-144.9976
 20
43.6229
 30
0.0
  0
SPLINE
  5
50
330
1F
100
AcDbEntity
  8
layer 1
 62
     7
100
AcDbSpline
210
0.0
220
0.0
230
1.0
 70
    11
 71
     3
 72
    16
 73
    12
 74
     0
 42
0.0000000001
 43
0.0000000001
 12
1.0
 22
0.0
 32
0.0
 13
1.0
 23
0.0
 33
0.0
 40
0.0
 40
0.0
 40
0.0
 40
0.0
 40
0.25
 40
0.25
 40
0.25
 40
0.25
 40
0.5
 40
0.5
 40
0.5
 40
0.5
 40
1.0
 40
1.0
 40
1.0
 40
1.0
 10
-105.0702
 20
43.6229
 30
0.0
 10
-107.5367
 20
38.6015
 30
0.0
 10
-106.9664
 20
30.2414
 30
0.0
 10
-105.3858
 20
26.7073
 30
0.0
 10
-105.3858
 20
26.7073
 30
0.0
 10
-107.3528
 20
30.028
 30
0.0
 10
-113.6514
 20
34.3165
 30
0.0
 10
-119.7127
 20
34.8982
 30
0.0
 10
-119.7127
 20
34.8982
 30
0.0
 10
-113.6578
 20
35.7204
 30
0.0
 10
-107.8953
 20
38.8431
 30
0.0
 10
-105.0702
 20
43.6229
 30
0.0
  0
SPLINE
  5
51
330
1F
100
AcDbEntity
  8
layer 1
 62
     7
100
AcDbSpline
210
0.0
220
0.0
230
1.0
 70
    11
 71
     3
 72
    16
 73
    12
 74
     0
 42
0.0000000001
 43
0.0000000001
 12
1.0
 22
0.0
 32
0.0
 13
1.0
 23
0.0
 33
0.0
 40
0.0
 40
0.0
 40
0.0
 40
0.0
 40
0.25
 40
0.25
 40
0.25
 40
0.25
 40
0.5
 40
0.5
 40
0.5
 40
0.5
 40
1.0
 40
1.0
 40
1.0
 40
1.0
 10
-99.7796
 20
43.6229
 30
0.0
 10
-97.3132
 20
38.6015
 30
0.0
 10
-97.8834
 20
30.2414
 30
0.0
 10
-99.464
 20
26.7073
 30
0.0
 10
-99.464
 20
26.7073
 30
0.0
 10
-97.497
 20
30.028
 30
0.0
 10
-91.1984
 20
34.3165
 30
0.0
 10
-85.1371
 20
34.8982
 30
0.0
 10
-85.1371
 20
34.8982
 30
0.0
 10
-91.192
 20
35.7204
 30
0.0
 10
-96.9545
 20
38.8431
 30
0.0
 10
-99.7796
 20
43.6229
 30
0.0
  0
SPLINE
  5
52
330
1F
100
AcDbEntity
  8
layer 1
 62
     7
100
AcDbSpline
210
0.0
220
0.0
230
1.0
 70
    11
 71
     3
 72
    16
 73
    12
 74
     0
 42
0.0000000001
 43
0.0000000001
 12
1.0
 22
0.0
 32
0.0
 13
1.0
 23
0.0
 33
0.0
 40
0.0
 40
0.0
 40
0.0
 40
0.0
 40
0.25
 40
0.25
 40
0.25
 40
0.25
 40
0.5
 40
0.5
 40
0.5
 40
0.5
 40
1.0
 40
1.0
 40
1.0
 40
1.0
 10
-150.2882
 20
17.5827
 30
0.0
 10
-152.7546
 20
12.5612
 30
0.0
 10
-152.1843
 20
4.2011
 30
0.0
 10
-150.6037
 20
0.667
 30
0.0
 10
-150.6037
 20
0.667
 30
0.0
 10
-152.5708
 20
3.9877
 30
0.0
 10
-158.8693
 20
8.2762
 30
0.0
 10
-164.9306
 20
8.8579
 30
0.0
 10
-164.9306
 20
8.8579
 30
0.0
 10
-158.8757
 20
9.6801
 30
0.0
 10
-153.1132
 20
12.8028
 30
0.0
 10
-150.2882
 20
17.5827
 30
0.0
  0
SPLINE
  5
53
330
1F
100
AcDbEntity
  8
layer 1
 62
     7
100
AcDbSpline
210
0.0
220
0.0
230
1.0
 70
    11
 71
     3
 72
    16
 73
    12
 74
     0
 42
0.0000000001
 43
0.0000000001
 12
1.0
 22
0.0
 32
0.0
 13
1.0
 23
0.0
 33
0.0
 40
0.0
 40
0.0
 40
0.0
 40
0.0
 40
0.25
 40
0.25
 40
0.25
 40
0.25
 40
0.5
 40
0.5
 40
0.5
 40
0.5
 40
1.0
 40
1.0
 40
1.0
 40
1.0
 10
-144.9976
 20
17.5827
 30
0.0
 10
-142.5312
 20
12.5612
 30
0.0
 10
-143.1015
 20
4.2011
 30
0.0
 10
-144.6821
 20
0.667
 30
0.0
 10
-144.6821
 20
0.667
 30
0.0
 10
-142.715
 20
3.9877
 30
0.0
 10
-136.4165
 20
8.2762
 30
0.0
 10
-130.3552
 20
8.8579
 30
0.0
 10
-130.3552
 20
8.8579
 30
0.0
 10
-136.4101
 20
9.6801
 30
0.0
 10
-142.1726
 20
12.8028
 30
0.0
 10
-144.9976
 20
17.5827
 30
0.0
  0
SPLINE
  5
54
330
1F
100
AcDbEntity
  8
layer 1
 62
     7
100
AcDbSpline
210
0.0
220
0.0
230
1.0
 70
    11
 71
     3
 72
    16
 73
    12
 74
     0
 42
0.0000000001
 43
0.0000000001
 12
1.0
 22
0.0
 32
0.0
 13
1.0
 23
0.0
 33
0.0
 40
0.0
 40
0.0
 40
0.0
 40
0.0
 40
0.25
 40
0.25
 40
0.25
 40
0.25
 40
0.5
 40
0.5
 40
0.5
 40
0.5
 40
1.0
 40
1.0
 40
1.0
 40
1.0
 10
-105.0702
 20
17.5827
 30
0.0
 10
-107.5367
 20
12.5612
 30
0.0
 10
-106.9664
 20
4.2011
 30
0.0
 10
-105.3858
 20
0.667
 30
0.0
 10
-105.3858
 20
0.667
 30
0.0
 10
-107.3528
 20
3.9877
 30
0.0
 10
-113.6514
 20
8.2762
 30
0.0
 10
-119.7127
 20
8.8579
 30
0.0
 10
-119.7127
 20
8.8579
 30
0.0
 10
-113.6578
 20
9.6801
 30
0.0
 10
-107.8953
 20
12.8028
 30
0.0
 10
-105.0702
 20
17.5827
 30
0.0
  0
SPLINE
  5
55
330
1F
100
AcDbEntity
  8
layer 1
 62
     7
100
AcDbSpline
210
0.0
220
0.0
230
1.0
 70
    11
 71
     3
 72
    16
 73
    12
 74
     0
 42
0.0000000001
 43
0.0000000001
 12
1.0
 22
0.0
 32
0.0
 13
1.0
 23
0.0
 33
0.0
 40
0.0
 40
0.0
 40
0.0
 40
0.0
 40
0.25
 40
0.25
 40
0.25
 40
0.25
 40
0.5
 40
0.5
 40
0.5
 40
0.5
 40
1.0
 40
1.0
 40
1.0
 40
1.0
 10
-99.7796
 20
17.5827
 30
0.0
 10
-97.3132
 20
12.5612
 30
0.0
 10
-97.8834
 20
4.2011
 30
0.0
 10
-99.464
 20
0.667
 30
0.0
 10
-99.464
 20
0.667
 30
0.0
 10
-97.497
 20
3.9877
 30
0.0
 10
-91.1984
 20
8.2762
 30
0.0
 10
-85.1371
 20
8.8579
 30
0.0
 10
-85.1371
 20
8.8579
 30
0.0
 10
-91.192
 20
9.6801
 30
0.0
 10
-96.9545
 20
12.8028
 30
0.0
 10
-99.7796
 20
17.5827
 30
0.0
  0
SPLINE
  5
56
330
1F
100
AcDbEntity
  8
layer 1
 62
     7
100
AcDbSpline
210
0.0
220
0.0
230
1.0
 70
    11
 71
     3
 72
    16
 73
    12
 74
     0
 42
0.0000000001
 43
0.0000000001
 12
1.0
 22
0.0
 32
0.0
 13
1.0
 23
0.0
 33
0.0
 40
0.0
 40
0.0
 40
0.0
 40
0.0
 40
0.25
 40
0.25
 40
0.25
 40
0.25
 40
0.5
 40
0.5
 40
0.5
 40
0.5
 40
1.0
 40
1.0
 40
1.0
 40
1.0
 10
-150.2882
 20
-8.6502
 30
0.0
 10
-152.7546
 20
-13.6717
 30
0.0
 10
-152.1843
 20
-22.0318
 30
0.0
 10
-150.6037
 20
-25.5659
 30
0.0
 10
-150.6037
 20
-25.5659
 30
0.0
 10
-152.5708
 20
-22.2451
 30
0.0
 10
-158.8693
 20
-17.9567
 30
0.0
 10
-164.9306
 20
-17.375
 30
0.0
 10
-164.9306
 20
-17.375
 30
0.0
 10
-158.8757
 20
-16.5527
 30
0.0
 10
-153.1132
 20
-13.43
 30
0.0
 10
-150.2882
 20
-8.6502
 30
0.0
  0
SPLINE
  5
57
330
1F
100
AcDbEntity
  8
layer 1
 62
     7
100
AcDbSpline
210
0.0
220
0.0
230
1.0
 70
    11
 71
     3
 72
    16
 73
    12
 74
     0
 42
0.0000000001
 43
0.0000000001
 12
1.0
 22
0.0
 32
0.0
 13
1.0
 23
0.0
 33
0.0
 40
0.0
 40
0.0
 40
0.0
 40
0.0
 40
0.25
 40
0.25
 40
0.25
 40
0.25
 40
0.5
 40
0.5
 40
0.5
 40
0.5
 40
1.0
 40
1.0
 40
1.0
 40
1.0
 10
-144.9976
 20
-8.6502
 30
0.0
 10
-142.5312
 20
-13.6717
 30
0.0
 10
-143.1015
 20
-22.0318
 30
0.0
 10
-144.6821
 20
-25.5659
 30
0.0
 10
-144.6821
 20
-25.5659
 30
0.0
 10
-142.715
 20
-22.2451
 30
0.0
 10
-136.4165
 20
-17.9567
 30
0.0
 10
-130.3552
 20
-17.375
 30
0.0
 10
-130.3552
 20
-17.375
 30
0.0
 10
-136.4101
 20
-16.5527
 30
0.0
 10
-142.1726
 20
-13.43
 30
0.0
 10
-144.9976
 20
-8.6502
 30
0.0
  0
SPLINE
  5
58
330
1F
100
AcDbEntity
  8
layer 1
 62
     7
100
AcDbSpline
210
0.0
220
0.0
230
1.0
 70
    11
 71
     3
 72
    16
 73
    12
 74
     0
 42
0.0000000001
 43
0.0000000001
 12
1.0
 22
0.0
 32
0.0
 13
1.0
 23
0.0
 33
0.0
 40
0.0
 40
0.0
 40
0.0
 40
0.0
 40
0.25
 40
0.25
 40
0.25
 40
0.25
 40
0.5
 40
0.5
 40
0.5
 40
0.5
 40
1.0
 40
1.0
 40
1.0
 40
1.0
 10
-105.0702
 20
-8.6502
 30
0.0
 10
-107.5367
 20
-13.6717
 30
0.0
 10
-106.9664
 20
-22.0318
 30
0.0
 10
-105.3858
 20
-25.5659
 30
0.0
 10
-105.3858
 20
-25.5659
 30
0.0
 10
-107.3528
 20
-22.2451
 30
0.0
 10
-113.6514
 20
-17.9567
 30
0.0
 10
-119.7127
 20
-17.375
 30
0.0
 10
-119.7127
 20
-17.375
 30
0.0
 10
-113.6578
 20
-16.5527
 30
0.0
 10
-107.8953
 20
-13.43
 30
0.0
 10
-105.0702
 20
-8.6502
 30
0.0
  0
SPLINE
  5
59
330
1F
100
AcDbEntity
  8
layer 1
 62
     7
100
AcDbSpline
210
0.0
220
0.0
230
1.0
 70
    11
 71
     3
 72
    16
 73
    12
 74
     0
 42
0.0000000001
 43
0.0000000001
 12
1.0
 22
0.0
 32
0.0
 13
1.0
 23
0.0
 33
0.0
 40
0.0
 40
0.0
 40
0.0
 40
0.0
 40
0.25
 40
0.25
 40
0.25
 40
0.25
 40
0.5
 40
0.5
 40
0.5
 40
0.5
 40
1.0
 40
1.0
 40
1.0
 40
1.0
 10
-99.7796
 20
-8.6502
 30
0.0
 10
-97.3132
 20
-13.6717
 30
0.0
 10
-97.8834
 20
-22.0318
 30
0.0
 10
-99.464
 20
-25.5659
 30
0.0
 10
-99.464
 20
-25.5659
 30
0.0
 10
-97.497
 20
-22.2451
 30
0.0
 10
-91.1984
 20
-17.9567
 30
0.0
 10
-85.1371
 20
-17.375
 30
0.0
 10
-85.1371
 20
-17.375
 30
0.0
 10
-91.192
 20
-16.5527
 30
0.0
 10
-96.9545
 20
-13.43
 30
0.0
 10
-99.7796
 20
-8.6502
 30
0.0
  0
SPLINE
  5
5A
330
1F
100
AcDbEntity
  8
layer 1
 62
     7
100
AcDbSpline
210
0.0
220
0.0
230
1.0
 70
    11
 71
     3
 72
    16
 73
    12
 74
     0
 42
0.0000000001
 43
0.0000000001
 12
1.0
 22
0.0
 32
0.0
 13
1.0
 23
0.0
 33
0.0
 40
0.0
 40
0.0
 40
0.0
 40
0.0
 40
0.25
 40
0.25
 40
0.25
 40
0.25
 40
0.5
 40
0.5
 40
0.5
 40
0.5
 40
1.0
 40
1.0
 40
1.0
 40
1.0
 10
-150.2882
 20
-34.819
 30
0.0
 10
-152.7546
 20
-39.8405
 30
0.0
 10
-152.1843
 20
-48.2006
 30
0.0
 10
-150.6037
 20
-51.7346
 30
0.0
 10
-150.6037
 20
-51.7346
 30
0.0
 10
-152.5708
 20
-48.4139
 30
0.0
 10
-158.8693
 20
-44.1255
 30
0.0
 10
-164.9306
 20
-43.5437
 30
0.0
 10
-164.9306
 20
-43.5437
 30
0.0
 10
-158.8757
 20
-42.7215
 30
0.0
 10
-153.1132
 20
-39.5988
 30
0.0
 10
-150.2882
 20
-34.819
 30
0.0
  0
SPLINE
  5
5B
330
1F
100
AcDbEntity
  8
layer 1
 62
     7
100
AcDbSpline
210
0.0
220
0.0
230
1.0
 70
    11
 71
     3
 72
    16
 73
    12
 74
     0
 42
0.0000000001
 43
0.0000000001
 12
1.0
 22
0.0
 32
0.0
 13
1.0
 23
0.0
 33
0.0
 40
0.0
 40
0.0
 40
0.0
 40
0.0
 40
0.25
 40
0.25
 40
0.25
 40
0.25
 40
0.5
 40
0.5
 40
0.5
 40
0.5
 40
1.0
 40
1.0
 40
1.0
 40
1.0
 10
-144.9976
 20
-34.819
 30
0.0
 10
-142.5312
 20
-39.8405
 30
0.0
 10
-143.1015
 20
-48.2006
 30
0.0
 10
-144.6821
 20
-51.7346
 30
0.0
 10
-144.6821
 20
-51.7346
 30
0.0
 10
-142.715
 20
-48.4139
 30
0.0
 10
-136.4165
 20
-44.1255
 30
0.0
 10
-130.3552
 20
-43.5437
 30
0.0
 10
-130.3552
 20
-43.5437
 30
0.0
 10
-136.4101
 20
-42.7215
 30
0.0
 10
-142.1726
 20
-39.5988
 30
0.0
 10
-144.9976
 20
-34.819
 30
0.0
  0
SPLINE
  5
5C
330
1F
100
AcDbEntity
  8
layer 1
 62
     7
100
AcDbSpline
210
0.0
220
0.0
230
1.0
 70
    11
 71
     3
 72
    16
 73
    12
 74
     0
 42
0.0000000001
 43
0.0000000001
 12
1.0
 22
0.0
 32
0.0
 13
1.0
 23
0.0
 33
0.0
 40
0.0
 40
0.0
 40
0.0
 40
0.0
 40
0.25
 40
0.25
 40
0.25
 40
0.25
 40
0.5
 40
0.5
 40
0.5
 40
0.5
 40
1.0
 40
1.0
 40
1.0
 40
1.0
 10
-105.0702
 20
-34.819
 30
0.0
 10
-107.5367
 20
-39.8405
 30
0.0
 10
-106.9664
 20
-48.2006
 30
0.0
 10
-105.3858
 20
-51.7346
 30
0.0
 10
-105.3858
 20
-51.7346
 30
0.0
 10
-107.3528
 20
-48.4139
 30
0.0
 10
-113.6514
 20
-44.1255
 30
0.0
 10
-119.7127
 20
-43.5437
 30
0.0
 10
-119.7127
 20
-43.5437
 30
0.0
 10
-113.6578
 20
-42.7215
 30
0.0
 10
-107.8953
 20
-39.5988
 30
0.0
 10
-105.0702
 20
-34.819
 30
0.0
  0
SPLINE
  5
5D
330
1F
100
AcDbEntity
  8
layer 1
 62
     7
100
AcDbSpline
210
0.0
220
0.0
230
1.0
 70
    11
 71
     3
 72
    16
 73
    12
 74
     0
 42
0.0000000001
 43
0.0000000001
 12
1.0
 22
0.0
 32
0.0
 13
1.0
 23
0.0
 33
0.0
 40
0.0
 40
0.0
 40
0.0
 40
0.0
 40
0.25
 40
0.25
 40
0.25
 40
0.25
 40
0.5
 40
0.5
 40
0.5
 40
0.5
 40
1.0
 40
1.0
 40
1.0
 40
1.0
 10
-99.7796
 20
-34.819
 30
0.0
 10
-97.3132
 20
-39.8405
 30
0.0
 10
-97.8834
 20
-48.2006
 30
0.0
 10
-99.464
 20
-51.7346
 30
0.0
 10
-99.464
 20
-51.7346
 30
0.0
 10
-97.497
 20
-48.4139
 30
0.0
 10
-91.1984
 20
-44.1255
 30
0.0
 10
-85.1371
 20
-43.5437
 30
0.0
 10
-85.1371
 20
-43.5437
 30
0.0
 10
-91.192
 20
-42.7215
 30
0.0
 10
-96.9545
 20
-39.5988
 30
0.0
 10
-99.7796
 20
-34.819
 30
0.0
  0
SPLINE
  5
5E
330
1F
100
AcDbEntity
  8
layer 1
 62
     7
100
AcDbSpline
210
0.0
220
0.0
230
1.0
 70
    11
 71
     3
 72
    16
 73
    12
 74
     0
 42
0.0000000001
 43
0.0000000001
 12
1.0
 22
0.0
 32
0.0
 13
1.0
 23
0.0
 33
0.0
 40
0.0
 40
0.0
 40
0.0
 40
0.0
 40
0.25
 40
0.25
 40
0.25
 40
0.25
 40
0.5
 40
0.5
 40
0.5
 40
0.5
 40
1.0
 40
1.0
 40
1.0
 40
1.0
 10
-150.2882
 20
-60.7952
 30
0.0
 10
-152.7546
 20
-65.8166
 30
0.0
 10
-152.1843
 20
-74.1768
 30
0.0
 10
-150.6037
 20
-77.7108
 30
0.0
 10
-150.6037
 20
-77.7108
 30
0.0
 10
-152.5708
 20
-74.3901
 30
0.0
 10
-158.8693
 20
-70.1017
 30
0.0
 10
-164.9306
 20
-69.5199
 30
0.0
 10
-164.9306
 20
-69.5199
 30
0.0
 10
-158.8757
 20
-68.6977
 30
0.0
 10
-153.1132
 20
-65.575
 30
0.0
 10
-150.2882
 20
-60.7952
 30
0.0
  0
SPLINE
  5
5F
330
1F
100
AcDbEntity
  8
layer 1
 62
     7
100
AcDbSpline
210
0.0
220
0.0
230
1.0
 70
    11
 71
     3
 72
    16
 73
    12
 74
     0
 42
0.0000000001
 43
0.0000000001
 12
1.0
 22
0.0
 32
0.0
 13
1.0
 23
0.0
 33
0.0
 40
0.0
 40
0.0
 40
0.0
 40
0.0
 40
0.25
 40
0.25
 40
0.25
 40
0.25
 40
0.5
 40
0.5
 40
0.5
 40
0.5
 40
1.0
 40
1.0
 40
1.0
 40
1.0
 10
-144.9976
 20
-60.7952
 30
0.0
 10
-142.5312
 20
-65.8166
 30
0.0
 10
-143.1015
 20
-74.1768
 30
0.0
 10
-144.6821
 20
-77.7108
 30
0.0
 10
-144.6821
 20
-77.7108
 30
0.0
 10
-142.715
 20
-74.3901
 30
0.0
 10
-136.4165
 20
-70.1017
 30
0.0
 10
-130.3552
 20
-69.5199
 30
0.0
 10
-130.3552
 20
-69.5199
 30
0.0
 10
-136.4101
 20
-68.6977
 30
0.0
 10
-142.1726
 20
-65.575
 30
0.0
 10
-144.9976
 20
-60.7952
 30
0.0
  0
SPLINE
  5
60
330
1F
100
AcDbEntity
  8
layer 1
 62
     7
100
AcDbSpline
210
0.0
220
0.0
230
1.0
 70
    11
 71
     3
 72
    16
 73
    12
 74
     0
 42
0.0000000001
 43
0.0000000001
 12
1.0
 22
0.0
 32
0.0
 13
1.0
 23
0.0
 33
0.0
 40
0.0
 40
0.0
 40
0.0
 40
0.0
 40
0.25
 40
0.25
 40
0.25
 40
0.25
 40
0.5
 40
0.5
 40
0.5
 40
0.5
 40
1.0
 40
1.0
 40
1.0
 40
1.0
 10
-105.0702
 20
-60.7952
 30
0.0
 10
-107.5367
 20
-65.8166
 30
0.0
 10
-106.9664
 20
-74.1768
 30
0.0
 10
-105.3858
 20
-77.7108
 30
0.0
 10
-105.3858
 20
-77.7108
 30
0.0
 10
-107.3528
 20
-74.3901
 30
0.0
 10
-113.6514
 20
-70.1017
 30
0.0
 10
-119.7127
 20
-69.5199
 30
0.0
 10
-119.7127
 20
-69.5199
 30
0.0
 10
-113.6578
 20
-68.6977
 30
0.0
 10
-107.8953
 20
-65.575
 30
0.0
 10
-105.0702
 20
-60.7952
 30
0.0
  0
SPLINE
  5
61
330
1F
100
AcDbEntity
  8
layer 1
 62
     7
100
AcDbSpline
210
0.0
220
0.0
230
1.0
 70
    11
 71
     3
 72
    16
 73
    12
 74
     0
 42
0.0000000001
 43
0.0000000001
 12
1.0
 22
0.0
 32
0.0
 13
1.0
 23
0.0
 33
0.0
 40
0.0
 40
0.0
 40
0.0
 40
0.0
 40
0.25
 40
0.25
 40
0.25
 40
0.25
 40
0.5
 40
0.5
 40
0.5
 40
0.5
 40
1.0
 40
1.0
 40
1.0
 40
1.0
 10
-99.7796
 20
-60.7952
 30
0.0
 10
-97.3132
 20
-65.8166
 30
0.0
 10
-97.8834
 20
-74.1768
 30
0.0
 10
-99.464
 20
-77.7108
 30
0.0
 10
-99.464
 20
-77.7108
 30
0.0
 10
-97.497
 20
-74.3901
 30
0.0
 10
-91.1984
 20
-70.1017
 30
0.0
 10
-85.1371
 20
-69.5199
 30
0.0
 10
-85.1371
 20
-69.5199
 30
0.0
 10
-91.192
 20
-68.6977
 30
0.0
 10
-96.9545
 20
-65.575
 30
0.0
 10
-99.7796
 20
-60.7952
 30
0.0
  0
SPLINE
  5
62
330
1F
100
AcDbEntity
  8
layer 1
 62
     7
100
AcDbSpline
210
0.0
220
0.0
230
1.0
 70
    11
 71
     3
 72
    16
 73
    12
 74
     0
 42
0.0000000001
 43
0.0000000001
 12
1.0
 22
0.0
 32
0.0
 13
1.0
 23
0.0
 33
0.0
 40
0.0
 40
0.0
 40
0.0
 40
0.0
 40
0.25
 40
0.25
 40
0.25
 40
0.25
 40
0.5
 40
0.5
 40
0.5
 40
0.5
 40
1.0
 40
1.0
 40
1.0
 40
1.0
 10
-150.2882
 20
-87.028
 30
0.0
 10
-152.7546
 20
-92.0495
 30
0.0
 10
-152.1843
 20
-100.4096
 30
0.0
 10
-150.6037
 20
-103.9437
 30
0.0
 10
-150.6037
 20
-103.9437
 30
0.0
 10
-152.5708
 20
-100.623
 30
0.0
 10
-158.8693
 20
-96.3345
 30
0.0
 10
-164.9306
 20
-95.7528
 30
0.0
 10
-164.9306
 20
-95.7528
 30
0.0
 10
-158.8757
 20
-94.9306
 30
0.0
 10
-153.1132
 20
-91.8079
 30
0.0
 10
-150.2882
 20
-87.028
 30
0.0
  0
SPLINE
  5
63
330
1F
100
AcDbEntity
  8
layer 1
 62
     7
100
AcDbSpline
210
0.0
220
0.0
230
1.0
 70
    11
 71
     3
 72
    16
 73
    12
 74
     0
 42
0.0000000001
 43
0.0000000001
 12
1.0
 22
0.0
 32
0.0
 13
1.0
 23
0.0
 33
0.0
 40
0.0
 40
0.0
 40
0.0
 40
0.0
 40
0.25
 40
0.25
 40
0.25
 40
0.25
 40
0.5
 40
0.5
 40
0.5
 40
0.5
 40
1.0
 40
1.0
 40
1.0
 40
1.0
 10
-144.9976
 20
-87.028
 30
0.0
 10
-142.5312
 20
-92.0495
 30
0.0
 10
-143.1015
 20
-100.4096
 30
0.0
 10
-144.6821
 20
-103.9437
 30
0.0
 10
-144.6821
 20
-103.9437
 30
0.0
 10
-142.715
 20
-100.623
 30
0.0
 10
-136.4165
 20
-96.3345
 30
0.0
 10
-130.3552
 20
-95.7528
 30
0.0
 10
-130.3552
 20
-95.7528
 30
0.0
 10
-136.4101
 20
-94.9306
 30
0.0
 10
-142.1726
 20
-91.8079
 30
0.0
 10
-144.9976
 20
-87.028
 30
0.0
  0
SPLINE
  5
64
330
1F
100
AcDbEntity
  8
layer 1
 62
     7
100
AcDbSpline
210
0.0
220
0.0
230
1.0
 70
    11
 71
     3
 72
    16
 73
    12
 74
     0
 42
0.0000000001
 43
0.0000000001
 12
1.0
 22
0.0
 32
0.0
 13
1.0
 23
0.0
 33
0.0
 40
0.0
 40
0.0
 40
0.0
 40
0.0
 40
0.25
 40
0.25
 40
0.25
 40
0.25
 40
0.5
 40
0.5
 40
0.5
 40
0.5
 40
1.0
 40
1.0
 40
1.0
 40
1.0
 10
-105.0702
 20
-87.028
 30
0.0
 10
-107.5367
 20
-92.0495
 30
0.0
 10
-106.9664
 20
-100.4096
 30
0.0
 10
-105.3858
 20
-103.9437
 30
0.0
 10
-105.3858
 20
-103.9437
 30
0.0
 10
-107.3528
 20
-100.623
 30
0.0
 10
-113.6514
 20
-96.3345
 30
0.0
 10
-119.7127
 20
-95.7528
 30
0.0
 10
-119.7127
 20
-95.7528
 30
0.0
 10
-113.6578
 20
-94.9306
 30
0.0
 10
-107.8953
 20
-91.8079
 30
0.0
 10
-105.0702
 20
-87.028
 30
0.0
  0
SPLINE
  5
65
330
1F
100
AcDbEntity
  8
layer 1
 62
     7
100
AcDbSpline
210
0.0
220
0.0
230
1.0
 70
    11
 71
     3
 72
    16
 73
    12
 74
     0
 42
0.0000000001
 43
0.0000000001
 12
1.0
 22
0.0
 32
0.0
 13
1.0
 23
0.0
 33
0.0
 40
0.0
 40
0.0
 40
0.0
 40
0.0
 40
0.25
 40
0.25
 40
0.25
 40
0.25
 40
0.5
 40
0.5
 40
0.5
 40
0.5
 40
1.0
 40
1.0
 40
1.0
 40
1.0
 10
-99.7796
 20
-87.028
 30
0.0
 10
-97.3132
 20
-92.0495
 30
0.0
 10
-97.8834
 20
-100.4096
 30
0.0
 10
-99.464
 20
-103.9437
 30
0.0
 10
-99.464
 20
-103.9437
 30
0.0
 10
-97.497
 20
-100.623
 30
0.0
 10
-91.1984
 20
-96.3345
 30
0.0
 10
-85.1371
 20
-95.7528
 30
0.0
 10
-85.1371
 20
-95.7528
 30
0.0
 10
-91.192
 20
-94.9306
 30
0.0
 10
-96.9545
 20
-91.8079
 30
0.0
 10
-99.7796
 20
-87.028
 30
0.0
  0
SPLINE
  5
66
330
1F
100
AcDbEntity
  8
layer 1
 62
     7
100
AcDbSpline
210
0.0
220
0.0
230
1.0
 70
    11
 71
     3
 72
    16
 73
    12
 74
     0
 42
0.0000000001
 43
0.0000000001
 12
1.0
 22
0.0
 32
0.0
 13
1.0
 23
0.0
 33
0.0
 40
0.0
 40
0.0
 40
0.0
 40
0.0
 40
0.25
 40
0.25
 40
0.25
 40
0.25
 40
0.5
 40
0.5
 40
0.5
 40
0.5
 40
1.0
 40
1.0
 40
1.0
 40
1.0
 10
-127.583
 20
-73.9437
 30
0.0
 10
-130.0494
 20
-78.9652
 30
0.0
 10
-129.4792
 20
-87.3253
 30
0.0
 10
-127.8985
 20
-90.8594
 30
0.0
 10
-127.8985
 20
-90.8594
 30
0.0
 10
-129.8656
 20
-87.5386
 30
0.0
 10
-136.1641
 20
-83.2502
 30
0.0
 10
-142.2255
 20
-82.6685
 30
0.0
 10
-142.2255
 20
-82.6685
 30
0.0
 10
-136.1705
 20
-81.8462
 30
0.0
 10
-130.408
 20
-78.7235
 30
0.0
 10
-127.583
 20
-73.9437
 30
0.0
  0
SPLINE
  5
67
330
1F
100
AcDbEntity
  8
layer 1
 62
     7
100
AcDbSpline
210
0.0
220
0.0
230
1.0
 70
    11
 71
     3
 72
    16
 73
    12
 74
     0
 42
0.0000000001
 43
0.0000000001
 12
1.0
 22
0.0
 32
0.0
 13
1.0
 23
0.0
 33
0.0
 40
0.0
 40
0.0
 40
0.0
 40
0.0
 40
0.25
 40
0.25
 40
0.25
 40
0.25
 40
0.5
 40
0.5
 40
0.5
 40
0.5
 40
1.0
 40
1.0
 40
1.0
 40
1.0
 10
-167.7669
 20
-73.9437
 30
0.0
 10
-165.3005
 20
-78.9652
 30
0.0
 10
-165.8708
 20
-87.3253
 30
0.0
 10
-167.4514
 20
-90.8594
 30
0.0
 10
-167.4514
 20
-90.8594
 30
0.0
 10
-165.4843
 20
-87.5386
 30
0.0
 10
-159.1858
 20
-83.2502
 30
0.0
 10
-153.1244
 20
-82.6685
 30
0.0
 10
-153.1244
 20
-82.6685
 30
0.0
 10
-159.1794
 20
-81.8462
 30
0.0
 10
-164.9419
 20
-78.7235
 30
0.0
 10
-167.7669
 20
-73.9437
 30
0.0
  0
SPLINE
  5
68
330
1F
100
AcDbEntity
  8
layer 1
 62
     7
100
AcDbSpline
210
0.0
220
0.0
230
1.0
 70
    11
 71
     3
 72
    16
 73
    12
 74
     0
 42
0.0000000001
 43
0.0000000001
 12
1.0
 22
0.0
 32
0.0
 13
1.0
 23
0.0
 33
0.0
 40
0.0
 40
0.0
 40
0.0
 40
0.0
 40
0.25
 40
0.25
 40
0.25
 40
0.25
 40
0.5
 40
0.5
 40
0.5
 40
0.5
 40
1.0
 40
1.0
 40
1.0
 40
1.0
 10
-82.4292
 20
-73.9437
 30
0.0
 10
-84.8956
 20
-78.9652
 30
0.0
 10
-84.3253
 20
-87.3253
 30
0.0
 10
-82.7447
 20
-90.8594
 30
0.0
 10
-82.7447
 20
-90.8594
 30
0.0
 10
-84.7118
 20
-87.5386
 30
0.0
 10
-91.0103
 20
-83.2502
 30
0.0
 10
-97.0716
 20
-82.6685
 30
0.0
 10
-97.0716
 20
-82.6685
 30
0.0
 10
-91.0167
 20
-81.8462
 30
0.0
 10
-85.2542
 20
-78.7235
 30
0.0
 10
-82.4292
 20
-73.9437
 30
0.0
  0
SPLINE
  5
69
330
1F
100
AcDbEntity
  8
layer 1
 62
     7
100
AcDbSpline
210
0.0
220
0.0
230
1.0
 70
    11
 71
     3
 72
    16
 73
    12
 74
     0
 42
0.0000000001
 43
0.0000000001
 12
1.0
 22
0.0
 32
0.0
 13
1.0
 23
0.0
 33
0.0
 40
0.0
 40
0.0
 40
0.0
 40
0.0
 40
0.25
 40
0.25
 40
0.25
 40
0.25
 40
0.5
 40
0.5
 40
0.5
 40
0.5
 40
1.0
 40
1.0
 40
1.0
 40
1.0
 10
-122.6131
 20
-73.9437
 30
0.0
 10
-120.1467
 20
-78.9652
 30
0.0
 10
-120.7169
 20
-87.3253
 30
0.0
 10
-122.2975
 20
-90.8594
 30
0.0
 10
-122.2975
 20
-90.8594
 30
0.0
 10
-120.3305
 20
-87.5386
 30
0.0
 10
-114.0319
 20
-83.2502
 30
0.0
 10
-107.9706
 20
-82.6685
 30
0.0
 10
-107.9706
 20
-82.6685
 30
0.0
 10
-114.0256
 20
-81.8462
 30
0.0
 10
-119.788
 20
-78.7235
 30
0.0
 10
-122.6131
 20
-73.9437
 30
0.0
  0
SPLINE
  5
6A
330
1F
100
AcDbEntity
  8
layer 1
 62
     7
100
AcDbSpline
210
0.0
220
0.0
230
1.0
 70
    11
 71
     3
 72
    16
 73
    12
 74
     0
 42
0.0000000001
 43
0.0000000001
 12
1.0
 22
0.0
 32
0.0
 13
1.0
 23
0.0
 33
0.0
 40
0.0
 40
0.0
 40
0.0
 40
0.0
 40
0.25
 40
0.25
 40
0.25
 40
0.25
 40
0.5
 40
0.5
 40
0.5
 40
0.5
 40
1.0
 40
1.0
 40
1.0
 40
1.0
 10
-127.583
 20
-47.8392
 30
0.0
 10
-130.0494
 20
-52.8607
 30
0.0
 10
-129.4792
 20
-61.2208
 30
0.0
 10
-127.8985
 20
-64.7549
 30
0.0
 10
-127.8985
 20
-64.7549
 30
0.0
 10
-129.8656
 20
-61.4341
 30
0.0
 10
-136.1641
 20
-57.1457
 30
0.0
 10
-142.2255
 20
-56.5639
 30
0.0
 10
-142.2255
 20
-56.5639
 30
0.0
 10
-136.1705
 20
-55.7417
 30
0.0
 10
-130.408
 20
-52.619
 30
0.0
 10
-127.583
 20
-47.8392
 30
0.0
  0
SPLINE
  5
6B
330
1F
100
AcDbEntity
  8
layer 1
 62
     7
100
AcDbSpline
210
0.0
220
0.0
230
1.0
 70
    11
 71
     3
 72
    16
 73
    12
 74
     0
 42
0.0000000001
 43
0.0000000001
 12
1.0
 22
0.0
 32
0.0
 13
1.0
 23
0.0
 33
0.0
 40
0.0
 40
0.0
 40
0.0
 40
0.0
 40
0.25
 40
0.25
 40
0.25
 40
0.25
 40
0.5
 40
0.5
 40
0.5
 40
0.5
 40
1.0
 40
1.0
 40
1.0
 40
1.0
 10
-167.7669
 20
-47.8392
 30
0.0
 10
-165.3005
 20
-52.8607
 30
0.0
 10
-165.8708
 20
-61.2208
 30
0.0
 10
-167.4514
 20
-64.7549
 30
0.0
 10
-167.4514
 20
-64.7549
 30
0.0
 10
-165.4843
 20
-61.4341
 30
0.0
 10
-159.1858
 20
-57.1457
 30
0.0
 10
-153.1244
 20
-56.5639
 30
0.0
 10
-153.1244
 20
-56.5639
 30
0.0
 10
-159.1794
 20
-55.7417
 30
0.0
 10
-164.9419
 20
-52.619
 30
0.0
 10
-167.7669
 20
-47.8392
 30
0.0
  0
SPLINE
  5
6C
330
1F
100
AcDbEntity
  8
layer 1
 62
     7
100
AcDbSpline
210
0.0
220
0.0
230
1.0
 70
    11
 71
     3
 72
    16
 73
    12
 74
     0
 42
0.0000000001
 43
0.0000000001
 12
1.0
 22
0.0
 32
0.0
 13
1.0
 23
0.0
 33
0.0
 40
0.0
 40
0.0
 40
0.0
 40
0.0
 40
0.25
 40
0.25
 40
0.25
 40
0.25
 40
0.5
 40
0.5
 40
0.5
 40
0.5
 40
1.0
 40
1.0
 40
1.0
 40
1.0
 10
-82.4292
 20
-47.8392
 30
0.0
 10
-84.8956
 20
-52.8607
 30
0.0
 10
-84.3253
 20
-61.2208
 30
0.0
 10
-82.7447
 20
-64.7549
 30
0.0
 10
-82.7447
 20
-64.7549
 30
0.0
 10
-84.7118
 20
-61.4341
 30
0.0
 10
-91.0103
 20
-57.1457
 30
0.0
 10
-97.0716
 20
-56.5639
 30
0.0
 10
-97.0716
 20
-56.5639
 30
0.0
 10
-91.0167
 20
-55.7417
 30
0.0
 10
-85.2542
 20
-52.619
 30
0.0
 10
-82.4292
 20
-47.8392
 30
0.0
  0
SPLINE
  5
6D
330
1F
100
AcDbEntity
  8
layer 1
 62
     7
100
AcDbSpline
210
0.0
220
0.0
230
1.0
 70
    11
 71
     3
 72
    16
 73
    12
 74
     0
 42
0.0000000001
 43
0.0000000001
 12
1.0
 22
0.0
 32
0.0
 13
1.0
 23
0.0
 33
0.0
 40
0.0
 40
0.0
 40
0.0
 40
0.0
 40
0.25
 40
0.25
 40
0.25
 40
0.25
 40
0.5
 40
0.5
 40
0.5
 40
0.5
 40
1.0
 40
1.0
 40
1.0
 40
1.0
 10
-122.6131
 20
-47.8392
 30
0.0
 10
-120.1467
 20
-52.8607
 30
0.0
 10
-120.7169
 20
-61.2208
 30
0.0
 10
-122.2975
 20
-64.7549
 30
0.0
 10
-122.2975
 20
-64.7549
 30
0.0
 10
-120.3305
 20
-61.4341
 30
0.0
 10
-114.0319
 20
-57.1457
 30
0.0
 10
-107.9706
 20
-56.5639
 30
0.0
 10
-107.9706
 20
-56.5639
 30
0.0
 10
-114.0256
 20
-55.7417
 30
0.0
 10
-119.788
 20
-52.619
 30
0.0
 10
-122.6131
 20
-47.8392
 30
0.0
  0
SPLINE
  5
6E
330
1F
100
AcDbEntity
  8
layer 1
 62
     7
100
AcDbSpline
210
0.0
220
0.0
230
1.0
 70
    11
 71
     3
 72
    16
 73
    12
 74
     0
 42
0.0000000001
 43
0.0000000001
 12
1.0
 22
0.0
 32
0.0
 13
1.0
 23
0.0
 33
0.0
 40
0.0
 40
0.0
 40
0.0
 40
0.0
 40
0.25
 40
0.25
 40
0.25
 40
0.25
 40
0.5
 40
0.5
 40
0.5
 40
0.5
 40
1.0
 40
1.0
 40
1.0
 40
1.0
 10
-127.583
 20
-21.5422
 30
0.0
 10
-130.0494
 20
-26.5637
 30
0.0
 10
-129.4792
 20
-34.9238
 30
0.0
 10
-127.8985
 20
-38.4579
 30
0.0
 10
-127.8985
 20
-38.4579
 30
0.0
 10
-129.8656
 20
-35.1371
 30
0.0
 10
-136.1641
 20
-30.8487
 30
0.0
 10
-142.2255
 20
-30.267
 30
0.0
 10
-142.2255
 20
-30.267
 30
0.0
 10
-136.1705
 20
-29.4448
 30
0.0
 10
-130.408
 20
-26.322
 30
0.0
 10
-127.583
 20
-21.5422
 30
0.0
  0
SPLINE
  5
6F
330
1F
100
AcDbEntity
  8
layer 1
 62
     7
100
AcDbSpline
210
0.0
220
0.0
230
1.0
 70
    11
 71
     3
 72
    16
 73
    12
 74
     0
 42
0.0000000001
 43
0.0000000001
 12
1.0
 22
0.0
 32
0.0
 13
1.0
 23
0.0
 33
0.0
 40
0.0
 40
0.0
 40
0.0
 40
0.0
 40
0.25
 40
0.25
 40
0.25
 40
0.25
 40
0.5
 40
0.5
 40
0.5
 40
0.5
 40
1.0
 40
1.0
 40
1.0
 40
1.0
 10
-167.7669
 20
-21.5422
 30
0.0
 10
-165.3005
 20
-26.5637
 30
0.0
 10
-165.8708
 20
-34.9238
 30
0.0
 10
-167.4514
 20
-38.4579
 30
0.0
 10
-167.4514
 20
-38.4579
 30
0.0
 10
-165.4843
 20
-35.1371
 30
0.0
 10
-159.1858
 20
-30.8487
 30
0.0
 10
-153.1244
 20
-30.267
 30
0.0
 10
-153.1244
 20
-30.267
 30
0.0
 10
-159.1794
 20
-29.4448
 30
0.0
 10
-164.9419
 20
-26.322
 30
0.0
 10
-167.7669
 20
-21.5422
 30
0.0
  0
SPLINE
  5
70
330
1F
100
AcDbEntity
  8
layer 1
 62
     7
100
AcDbSpline
210
0.0
220
0.0
230
1.0
 70
    11
 71
     3
 72
    16
 73
    12
 74
     0
 42
0.0000000001
 43
0.0000000001
 12
1.0
 22
0.0
 32
0.0
 13
1.0
 23
0.0
 33
0.0
 40
0.0
 40
0.0
 40
0.0
 40
0.0
 40
0.25
 40
0.25
 40
0.25
 40
0.25
 40
0.5
 40
0.5
 40
0.5
 40
0.5
 40
1.0
 40
1.0
 40
1.0
 40
1.0
 10
-82.4292
 20
-21.5422
 30
0.0
 10
-84.8956
 20
-26.5637
 30
0.0
 10
-84.3253
 20
-34.9238
 30
0.0
 10
-82.7447
 20
-38.4579
 30
0.0
 10
-82.7447
 20
-38.4579
 30
0.0
 10
-84.7118
 20
-35.1371
 30
0.0
 10
-91.0103
 20
-30.8487
 30
0.0
 10
-97.0716
 20
-30.267
 30
0.0
 10
-97.0716
 20
-30.267
 30
0.0
 10
-91.0167
 20
-29.4448
 30
0.0
 10
-85.2542
 20
-26.322
 30
0.0
 10
-82.4292
 20
-21.5422
 30
0.0
  0
SPLINE
  5
71
330
1F
100
AcDbEntity
  8
layer 1
 62
     7
100
AcDbSpline
210
0.0
220
0.0
230
1.0
 70
    11
 71
     3
 72
    16
 73
    12
 74
     0
 42
0.0000000001
 43
0.0000000001
 12
1.0
 22
0.0
 32
0.0
 13
1.0
 23
0.0
 33
0.0
 40
0.0
 40
0.0
 40
0.0
 40
0.0
 40
0.25
 40
0.25
 40
0.25
 40
0.25
 40
0.5
 40
0.5
 40
0.5
 40
0.5
 40
1.0
 40
1.0
 40
1.0
 40
1.0
 10
-122.6131
 20
-21.5422
 30
0.0
 10
-120.1467
 20
-26.5637
 30
0.0
 10
-120.7169
 20
-34.9238
 30
0.0
 10
-122.2975
 20
-38.4579
 30
0.0
 10
-122.2975
 20
-38.4579
 30
0.0
 10
-120.3305
 20
-35.1371
 30
0.0
 10
-114.0319
 20
-30.8487
 30
0.0
 10
-107.9706
 20
-30.267
 30
0.0
 10
-107.9706
 20
-30.267
 30
0.0
 10
-114.0256
 20
-29.4448
 30
0.0
 10
-119.788
 20
-26.322
 30
0.0
 10
-122.6131
 20
-21.5422
 30
0.0
  0
SPLINE
  5
72
330
1F
100
AcDbEntity
  8
layer 1
 62
     7
100
AcDbSpline
210
0.0
220
0.0
230
1.0
 70
    11
 71
     3
 72
    16
 73
    12
 74
     0
 42
0.0000000001
 43
0.0000000001
 12
1.0
 22
0.0
 32
0.0
 13
1.0
 23
0.0
 33
0.0
 40
0.0
 40
0.0
 40
0.0
 40
0.0
 40
0.25
 40
0.25
 40
0.25
 40
0.25
 40
0.5
 40
0.5
 40
0.5
 40
0.5
 40
1.0
 40
1.0
 40
1.0
 40
1.0
 10
-127.583
 20
4.4341
 30
0.0
 10
-130.0494
 20
-0.5874
 30
0.0
 10
-129.4792
 20
-8.9475
 30
0.0
 10
-127.8985
 20
-12.4816
 30
0.0
 10
-127.8985
 20
-12.4816
 30
0.0
 10
-129.8656
 20
-9.1608
 30
0.0
 10
-136.1641
 20
-4.8724
 30
0.0
 10
-142.2255
 20
-4.2906
 30
0.0
 10
-142.2255
 20
-4.2906
 30
0.0
 10
-136.1705
 20
-3.4684
 30
0.0
 10
-130.408
 20
-0.3457
 30
0.0
 10
-127.583
 20
4.4341
 30
0.0
  0
SPLINE
  5
73
330
1F
100
AcDbEntity
  8
layer 1
 62
     7
100
AcDbSpline
210
0.0
220
0.0
230
1.0
 70
    11
 71
     3
 72
    16
 73
    12
 74
     0
 42
0.0000000001
 43
0.0000000001
 12
1.0
 22
0.0
 32
0.0
 13
1.0
 23
0.0
 33
0.0
 40
0.0
 40
0.0
 40
0.0
 40
0.0
 40
0.25
 40
0.25
 40
0.25
 40
0.25
 40
0.5
 40
0.5
 40
0.5
 40
0.5
 40
1.0
 40
1.0
 40
1.0
 40
1.0
 10
-167.7669
 20
4.4341
 30
0.0
 10
-165.3005
 20
-0.5874
 30
0.0
 10
-165.8708
 20
-8.9475
 30
0.0
 10
-167.4514
 20
-12.4816
 30
0.0
 10
-167.4514
 20
-12.4816
 30
0.0
 10
-165.4843
 20
-9.1608
 30
0.0
 10
-159.1858
 20
-4.8724
 30
0.0
 10
-153.1244
 20
-4.2906
 30
0.0
 10
-153.1244
 20
-4.2906
 30
0.0
 10
-159.1794
 20
-3.4684
 30
0.0
 10
-164.9419
 20
-0.3457
 30
0.0
 10
-167.7669
 20
4.4341
 30
0.0
  0
SPLINE
  5
74
330
1F
100
AcDbEntity
  8
layer 1
 62
     7
100
AcDbSpline
210
0.0
220
0.0
230
1.0
 70
    11
 71
     3
 72
    16
 73
    12
 74
     0
 42
0.0000000001
 43
0.0000000001
 12
1.0
 22
0.0
 32
0.0
 13
1.0
 23
0.0
 33
0.0
 40
0.0
 40
0.0
 40
0.0
 40
0.0
 40
0.25
 40
0.25
 40
0.25
 40
0.25
 40
0.5
 40
0.5
 40
0.5
 40
0.5
 40
1.0
 40
1.0
 40
1.0
 40
1.0
 10
-82.4292
 20
4.4341
 30
0.0
 10
-84.8956
 20
-0.5874
 30
0.0
 10
-84.3253
 20
-8.9475
 30
0.0
 10
-82.7447
 20
-12.4816
 30
0.0
 10
-82.7447
 20
-12.4816
 30
0.0
 10
-84.7118
 20
-9.1608
 30
0.0
 10
-91.0103
 20
-4.8724
 30
0.0
 10
-97.0716
 20
-4.2906
 30
0.0
 10
-97.0716
 20
-4.2906
 30
0.0
 10
-91.0167
 20
-3.4684
 30
0.0
 10
-85.2542
 20
-0.3457
 30
0.0
 10
-82.4292
 20
4.4341
 30
0.0
  0
SPLINE
  5
75
330
1F
100
AcDbEntity
  8
layer 1
 62
     7
100
AcDbSpline
210
0.0
220
0.0
230
1.0
 70
    11
 71
     3
 72
    16
 73
    12
 74
     0
 42
0.0000000001
 43
0.0000000001
 12
1.0
 22
0.0
 32
0.0
 13
1.0
 23
0.0
 33
0.0
 40
0.0
 40
0.0
 40
0.0
 40
0.0
 40
0.25
 40
0.25
 40
0.25
 40
0.25
 40
0.5
 40
0.5
 40
0.5
 40
0.5
 40
1.0
 40
1.0
 40
1.0
 40
1.0
 10
-122.6131
 20
4.4341
 30
0.0
 10
-120.1467
 20
-0.5874
 30
0.0
 10
-120.7169
 20
-8.9475
 30
0.0
 10
-122.2975
 20
-12.4816
 30
0.0
 10
-122.2975
 20
-12.4816
 30
0.0
 10
-120.3305
 20
-9.1608
 30
0.0
 10
-114.0319
 20
-4.8724
 30
0.0
 10
-107.9706
 20
-4.2906
 30
0.0
 10
-107.9706
 20
-4.2906
 30
0.0
 10
-114.0256
 20
-3.4684
 30
0.0
 10
-119.788
 20
-0.3457
 30
0.0
 10
-122.6131
 20
4.4341
 30
0.0
  0
SPLINE
  5
76
330
1F
100
AcDbEntity
  8
layer 1
 62
     7
100
AcDbSpline
210
0.0
220
0.0
230
1.0
 70
    11
 71
     3
 72
    16
 73
    12
 74
     0
 42
0.0000000001
 43
0.0000000001
 12
1.0
 22
0.0
 32
0.0
 13
1.0
 23
0.0
 33
0.0
 40
0.0
 40
0.0
 40
0.0
 40
0.0
 40
0.25
 40
0.25
 40
0.25
 40
0.25
 40
0.5
 40
0.5
 40
0.5
 40
0.5
 40
1.0
 40
1.0
 40
1.0
 40
1.0
 10
-127.583
 20
30.5386
 30
0.0
 10
-130.0494
 20
25.5172
 30
0.0
 10
-129.4792
 20
17.157
 30
0.0
 10
-127.8985
 20
13.623
 30
0.0
 10
-127.8985
 20
13.623
 30
0.0
 10
-129.8656
 20
16.9437
 30
0.0
 10
-136.1641
 20
21.2321
 30
0.0
 10
-142.2255
 20
21.8139
 30
0.0
 10
-142.2255
 20
21.8139
 30
0.0
 10
-136.1705
 20
22.6361
 30
0.0
 10
-130.408
 20
25.7588
 30
0.0
 10
-127.583
 20
30.5386
 30
0.0
  0
SPLINE
  5
77
330
1F
100
AcDbEntity
  8
layer 1
 62
     7
100
AcDbSpline
210
0.0
220
0.0
230
1.0
 70
    11
 71
     3
 72
    16
 73
    12
 74
     0
 42
0.0000000001
 43
0.0000000001
 12
1.0
 22
0.0
 32
0.0
 13
1.0
 23
0.0
 33
0.0
 40
0.0
 40
0.0
 40
0.0
 40
0.0
 40
0.25
 40
0.25
 40
0.25
 40
0.25
 40
0.5
 40
0.5
 40
0.5
 40
0.5
 40
1.0
 40
1.0
 40
1.0
 40
1.0
 10
-167.7669
 20
30.5386
 30
0.0
 10
-165.3005
 20
25.5172
 30
0.0
 10
-165.8708
 20
17.157
 30
0.0
 10
-167.4514
 20
13.623
 30
0.0
 10
-167.4514
 20
13.623
 30
0.0
 10
-165.4843
 20
16.9437
 30
0.0
 10
-159.1858
 20
21.2321
 30
0.0
 10
-153.1244
 20
21.8139
 30
0.0
 10
-153.1244
 20
21.8139
 30
0.0
 10
-159.1794
 20
22.6361
 30
0.0
 10
-164.9419
 20
25.7588
 30
0.0
 10
-167.7669
 20
30.5386
 30
0.0
  0
SPLINE
  5
78
330
1F
100
AcDbEntity
  8
layer 1
 62
     7
100
AcDbSpline
210
0.0
220
0.0
230
1.0
 70
    11
 71
     3
 72
    16
 73
    12
 74
     0
 42
0.0000000001
 43
0.0000000001
 12
1.0
 22
0.0
 32
0.0
 13
1.0
 23
0.0
 33
0.0
 40
0.0
 40
0.0
 40
0.0
 40
0.0
 40
0.25
 40
0.25
 40
0.25
 40
0.25
 40
0.5
 40
0.5
 40
0.5
 40
0.5
 40
1.0
 40
1.0
 40
1.0
 40
1.0
 10
-82.4292
 20
30.5386
 30
0.0
 10
-84.8956
 20
25.5172
 30
0.0
 10
-84.3253
 20
17.157
 30
0.0
 10
-82.7447
 20
13.623
 30
0.0
 10
-82.7447
 20
13.623
 30
0.0
 10
-84.7118
 20
16.9437
 30
0.0
 10
-91.0103
 20
21.2321
 30
0.0
 10
-97.0716
 20
21.8139
 30
0.0
 10
-97.0716
 20
21.8139
 30
0.0
 10
-91.0167
 20
22.6361
 30
0.0
 10
-85.2542
 20
25.7588
 30
0.0
 10
-82.4292
 20
30.5386
 30
0.0
  0
SPLINE
  5
79
330
1F
100
AcDbEntity
  8
layer 1
 62
     7
100
AcDbSpline
210
0.0
220
0.0
230
1.0
 70
    11
 71
     3
 72
    16
 73
    12
 74
     0
 42
0.0000000001
 43
0.0000000001
 12
1.0
 22
0.0
 32
0.0
 13
1.0
 23
0.0
 33
0.0
 40
0.0
 40
0.0
 40
0.0
 40
0.0
 40
0.25
 40
0.25
 40
0.25
 40
0.25
 40
0.5
 40
0.5
 40
0.5
 40
0.5
 40
1.0
 40
1.0
 40
1.0
 40
1.0
 10
-122.6131
 20
30.5386
 30
0.0
 10
-120.1467
 20
25.5172
 30
0.0
 10
-120.7169
 20
17.157
 30
0.0
 10
-122.2975
 20
13.623
 30
0.0
 10
-122.2975
 20
13.623
 30
0.0
 10
-120.3305
 20
16.9437
 30
0.0
 10
-114.0319
 20
21.2321
 30
0.0
 10
-107.9706
 20
21.8139
 30
0.0
 10
-107.9706
 20
21.8139
 30
0.0
 10
-114.0256
 20
22.6361
 30
0.0
 10
-119.788
 20
25.7588
 30
0.0
 10
-122.6131
 20
30.5386
 30
0.0
  0
SPLINE
  5
7A
330
1F
100
AcDbEntity
  8
layer 1
 62
     7
100
AcDbSpline
210
0.0
220
0.0
230
1.0
 70
    11
 71
     3
 72
    16
 73
    12
 74
     0
 42
0.0000000001
 43
0.0000000001
 12
1.0
 22
0.0
 32
0.0
 13
1.0
 23
0.0
 33
0.0
 40
0.0
 40
0.0
 40
0.0
 40
0.0
 40
0.25
 40
0.25
 40
0.25
 40
0.25
 40
0.5
 40
0.5
 40
0.5
 40
0.5
 40
1.0
 40
1.0
 40
1.0
 40
1.0
 10
-127.583
 20
56.8356
 30
0.0
 10
-130.0494
 20
51.8141
 30
0.0
 10
-129.4792
 20
43.454
 30
0.0
 10
-127.8985
 20
39.9199
 30
0.0
 10
-127.8985
 20
39.9199
 30
0.0
 10
-129.8656
 20
43.2407
 30
0.0
 10
-136.1641
 20
47.5291
 30
0.0
 10
-142.2255
 20
48.1109
 30
0.0
 10
-142.2255
 20
48.1109
 30
0.0
 10
-136.1705
 20
48.9331
 30
0.0
 10
-130.408
 20
52.0558
 30
0.0
 10
-127.583
 20
56.8356
 30
0.0
  0
SPLINE
  5
7B
330
1F
100
AcDbEntity
  8
layer 1
 62
     7
100
AcDbSpline
210
0.0
220
0.0
230
1.0
 70
    11
 71
     3
 72
    16
 73
    12
 74
     0
 42
0.0000000001
 43
0.0000000001
 12
1.0
 22
0.0
 32
0.0
 13
1.0
 23
0.0
 33
0.0
 40
0.0
 40
0.0
 40
0.0
 40
0.0
 40
0.25
 40
0.25
 40
0.25
 40
0.25
 40
0.5
 40
0.5
 40
0.5
 40
0.5
 40
1.0
 40
1.0
 40
1.0
 40
1.0
 10
-167.7669
 20
56.8356
 30
0.0
 10
-165.3005
 20
51.8141
 30
0.0
 10
-165.8708
 20
43.454
 30
0.0
 10
-167.4514
 20
39.9199
 30
0.0
 10
-167.4514
 20
39.9199
 30
0.0
 10
-165.4843
 20
43.2407
 30
0.0
 10
-159.1858
 20
47.5291
 30
0.0
 10
-153.1244
 20
48.1109
 30
0.0
 10
-153.1244
 20
48.1109
 30
0.0
 10
-159.1794
 20
48.9331
 30
0.0
 10
-164.9419
 20
52.0558
 30
0.0
 10
-167.7669
 20
56.8356
 30
0.0
  0
SPLINE
  5
7C
330
1F
100
AcDbEntity
  8
layer 1
 62
     7
100
AcDbSpline
210
0.0
220
0.0
230
1.0
 70
    11
 71
     3
 72
    16
 73
    12
 74
     0
 42
0.0000000001
 43
0.0000000001
 12
1.0
 22
0.0
 32
0.0
 13
1.0
 23
0.0
 33
0.0
 40
0.0
 40
0.0
 40
0.0
 40
0.0
 40
0.25
 40
0.25
 40
0.25
 40
0.25
 40
0.5
 40
0.5
 40
0.5
 40
0.5
 40
1.0
 40
1.0
 40
1.0
 40
1.0
 10
-82.4292
 20
56.8356
 30
0.0
 10
-84.8956
 20
51.8141
 30
0.0
 10
-84.3253
 20
43.454
 30
0.0
 10
-82.7447
 20
39.9199
 30
0.0
 10
-82.7447
 20
39.9199
 30
0.0
 10
-84.7118
 20
43.2407
 30
0.0
 10
-91.0103
 20
47.5291
 30
0.0
 10
-97.0716
 20
48.1109
 30
0.0
 10
-97.0716
 20
48.1109
 30
0.0
 10
-91.0167
 20
48.9331
 30
0.0
 10
-85.2542
 20
52.0558
 30
0.0
 10
-82.4292
 20
56.8356
 30
0.0
  0
SPLINE
  5
7D
330
1F
100
AcDbEntity
  8
layer 1
 62
     7
100
AcDbSpline
210
0.0
220
0.0
230
1.0
 70
    11
 71
     3
 72
    16
 73
    12
 74
     0
 42
0.0000000001
 43
0.0000000001
 12
1.0
 22
0.0
 32
0.0
 13
1.0
 23
0.0
 33
0.0
 40
0.0
 40
0.0
 40
0.0
 40
0.0
 40
0.25
 40
0.25
 40
0.25
 40
0.25
 40
0.5
 40
0.5
 40
0.5
 40
0.5
 40
1.0
 40
1.0
 40
1.0
 40
1.0
 10
-122.6131
 20
56.8356
 30
0.0
 10
-120.1467
 20
51.8141
 30
0.0
 10
-120.7169
 20
43.454
 30
0.0
 10
-122.2975
 20
39.9199
 30
0.0
 10
-122.2975
 20
39.9199
 30
0.0
 10
-120.3305
 20
43.2407
 30
0.0
 10
-114.0319
 20
47.5291
 30
0.0
 10
-107.9706
 20
48.1109
 30
0.0
 10
-107.9706
 20
48.1109
 30
0.0
 10
-114.0256
 20
48.9331
 30
0.0
 10
-119.788
 20
52.0558
 30
0.0
 10
-122.6131
 20
56.8356
 30
0.0
  0
SPLINE
  5
7E
330
1F
100
AcDbEntity
  8
layer 1
 62
     7
100
AcDbSpline
210
0.0
220
0.0
230
1.0
 70
    11
 71
     3
 72
    16
 73
    12
 74
     0
 42
0.0000000001
 43
0.0000000001
 12
1.0
 22
0.0
 32
0.0
 13
1.0
 23
0.0
 33
0.0
 40
0.0
 40
0.0
 40
0.0
 40
0.0
 40
0.25
 40
0.25
 40
0.25
 40
0.25
 40
0.5
 40
0.5
 40
0.5
 40
0.5
 40
1.0
 40
1.0
 40
1.0
 40
1.0
 10
-127.583
 20
82.8119
 30
0.0
 10
-130.0494
 20
77.7905
 30
0.0
 10
-129.4792
 20
69.4303
 30
0.0
 10
-127.8985
 20
65.8963
 30
0.0
 10
-127.8985
 20
65.8963
 30
0.0
 10
-129.8656
 20
69.217
 30
0.0
 10
-136.1641
 20
73.5054
 30
0.0
 10
-142.2255
 20
74.0872
 30
0.0
 10
-142.2255
 20
74.0872
 30
0.0
 10
-136.1705
 20
74.9094
 30
0.0
 10
-130.408
 20
78.0321
 30
0.0
 10
-127.583
 20
82.8119
 30
0.0
  0
SPLINE
  5
7F
330
1F
100
AcDbEntity
  8
layer 1
 62
     7
100
AcDbSpline
210
0.0
220
0.0
230
1.0
 70
    11
 71
     3
 72
    16
 73
    12
 74
     0
 42
0.0000000001
 43
0.0000000001
 12
1.0
 22
0.0
 32
0.0
 13
1.0
 23
0.0
 33
0.0
 40
0.0
 40
0.0
 40
0.0
 40
0.0
 40
0.25
 40
0.25
 40
0.25
 40
0.25
 40
0.5
 40
0.5
 40
0.5
 40
0.5
 40
1.0
 40
1.0
 40
1.0
 40
1.0
 10
-167.7669
 20
82.8119
 30
0.0
 10
-165.3005
 20
77.7905
 30
0.0
 10
-165.8708
 20
69.4303
 30
0.0
 10
-167.4514
 20
65.8963
 30
0.0
 10
-167.4514
 20
65.8963
 30
0.0
 10
-165.4843
 20
69.217
 30
0.0
 10
-159.1858
 20
73.5054
 30
0.0
 10
-153.1244
 20
74.0872
 30
0.0
 10
-153.1244
 20
74.0872
 30
0.0
 10
-159.1794
 20
74.9094
 30
0.0
 10
-164.9419
 20
78.0321
 30
0.0
 10
-167.7669
 20
82.8119
 30
0.0
  0
SPLINE
  5
80
330
1F
100
AcDbEntity
  8
layer 1
 62
     7
100
AcDbSpline
210
0.0
220
0.0
230
1.0
 70
    11
 71
     3
 72
    16
 73
    12
 74
     0
 42
0.0000000001
 43
0.0000000001
 12
1.0
 22
0.0
 32
0.0
 13
1.0
 23
0.0
 33
0.0
 40
0.0
 40
0.0
 40
0.0
 40
0.0
 40
0.25
 40
0.25
 40
0.25
 40
0.25
 40
0.5
 40
0.5
 40
0.5
 40
0.5
 40
1.0
 40
1.0
 40
1.0
 40
1.0
 10
-82.4292
 20
82.8119
 30
0.0
 10
-84.8956
 20
77.7905
 30
0.0
 10
-84.3253
 20
69.4303
 30
0.0
 10
-82.7447
 20
65.8963
 30
0.0
 10
-82.7447
 20
65.8963
 30
0.0
 10
-84.7118
 20
69.217
 30
0.0
 10
-91.0103
 20
73.5054
 30
0.0
 10
-97.0716
 20
74.0872
 30
0.0
 10
-97.0716
 20
74.0872
 30
0.0
 10
-91.0167
 20
74.9094
 30
0.0
 10
-85.2542
 20
78.0321
 30
0.0
 10
-82.4292
 20
82.8119
 30
0.0
  0
SPLINE
  5
81
330
1F
100
AcDbEntity
  8
layer 1
 62
     7
100
AcDbSpline
210
0.0
220
0.0
230
1.0
 70
    11
 71
     3
 72
    16
 73
    12
 74
     0
 42
0.0000000001
 43
0.0000000001
 12
1.0
 22
0.0
 32
0.0
 13
1.0
 23
0.0
 33
0.0
 40
0.0
 40
0.0
 40
0.0
 40
0.0
 40
0.25
 40
0.25
 40
0.25
 40
0.25
 40
0.5
 40
0.5
 40
0.5
 40
0.5
 40
1.0
 40
1.0
 40
1.0
 40
1.0
 10
-122.6131
 20
82.8119
 30
0.0
 10
-120.1467
 20
77.7905
 30
0.0
 10
-120.7169
 20
69.4303
 30
0.0
 10
-122.2975
 20
65.8963
 30
0.0
 10
-122.2975
 20
65.8963
 30
0.0
 10
-120.3305
 20
69.217
 30
0.0
 10
-114.0319
 20
73.5054
 30
0.0
 10
-107.9706
 20
74.0872
 30
0.0
 10
-107.9706
 20
74.0872
 30
0.0
 10
-114.0256
 20
74.9094
 30
0.0
 10
-119.788
 20
78.0321
 30
0.0
 10
-122.6131
 20
82.8119
 30
0.0
  0
SPLINE
  5
82
330
1F
100
AcDbEntity
  8
layer 1
 62
     7
100
AcDbSpline
210
0.0
220
0.0
230
1.0
 70
    11
 71
     3
 72
    16
 73
    12
 74
     0
 42
0.0000000001
 43
0.0000000001
 12
1.0
 22
0.0
 32
0.0
 13
1.0
 23
0.0
 33
0.0
 40
0.0
 40
0.0
 40
0.0
 40
0.0
 40
0.25
 40
0.25
 40
0.25
 40
0.25
 40
0.5
 40
0.5
 40
0.5
 40
0.5
 40
1.0
 40
1.0
 40
1.0
 40
1.0
 10
-127.583
 20
108.9165
 30
0.0
 10
-130.0494
 20
103.895
 30
0.0
 10
-129.4792
 20
95.5349
 30
0.0
 10
-127.8985
 20
92.0008
 30
0.0
 10
-127.8985
 20
92.0008
 30
0.0
 10
-129.8656
 20
95.3215
 30
0.0
 10
-136.1641
 20
99.61
 30
0.0
 10
-142.2255
 20
100.1917
 30
0.0
 10
-142.2255
 20
100.1917
 30
0.0
 10
-136.1705
 20
101.0139
 30
0.0
 10
-130.408
 20
104.1366
 30
0.0
 10
-127.583
 20
108.9165
 30
0.0
  0
SPLINE
  5
83
330
1F
100
AcDbEntity
  8
layer 1
 62
     7
100
AcDbSpline
210
0.0
220
0.0
230
1.0
 70
    11
 71
     3
 72
    16
 73
    12
 74
     0
 42
0.0000000001
 43
0.0000000001
 12
1.0
 22
0.0
 32
0.0
 13
1.0
 23
0.0
 33
0.0
 40
0.0
 40
0.0
 40
0.0
 40
0.0
 40
0.25
 40
0.25
 40
0.25
 40
0.25
 40
0.5
 40
0.5
 40
0.5
 40
0.5
 40
1.0
 40
1.0
 40
1.0
 40
1.0
 10
-167.7669
 20
108.9165
 30
0.0
 10
-165.3005
 20
103.895
 30
0.0
 10
-165.8708
 20
95.5349
 30
0.0
 10
-167.4514
 20
92.0008
 30
0.0
 10
-167.4514
 20
92.0008
 30
0.0
 10
-165.4843
 20
95.3215
 30
0.0
 10
-159.1858
 20
99.61
 30
0.0
 10
-153.1244
 20
100.1917
 30
0.0
 10
-153.1244
 20
100.1917
 30
0.0
 10
-159.1794
 20
101.0139
 30
0.0
 10
-164.9419
 20
104.1366
 30
0.0
 10
-167.7669
 20
108.9165
 30
0.0
  0
SPLINE
  5
84
330
1F
100
AcDbEntity
  8
layer 1
 62
     7
100
AcDbSpline
210
0.0
220
0.0
230
1.0
 70
    11
 71
     3
 72
    16
 73
    12
 74
     0
 42
0.0000000001
 43
0.0000000001
 12
1.0
 22
0.0
 32
0.0
 13
1.0
 23
0.0
 33
0.0
 40
0.0
 40
0.0
 40
0.0
 40
0.0
 40
0.25
 40
0.25
 40
0.25
 40
0.25
 40
0.5
 40
0.5
 40
0.5
 40
0.5
 40
1.0
 40
1.0
 40
1.0
 40
1.0
 10
-82.4292
 20
108.9165
 30
0.0
 10
-84.8956
 20
103.895
 30
0.0
 10
-84.3253
 20
95.5349
 30
0.0
 10
-82.7447
 20
92.0008
 30
0.0
 10
-82.7447
 20
92.0008
 30
0.0
 10
-84.7118
 20
95.3215
 30
0.0
 10
-91.0103
 20
99.61
 30
0.0
 10
-97.0716
 20
100.1917
 30
0.0
 10
-97.0716
 20
100.1917
 30
0.0
 10
-91.0167
 20
101.0139
 30
0.0
 10
-85.2542
 20
104.1366
 30
0.0
 10
-82.4292
 20
108.9165
 30
0.0
  0
SPLINE
  5
85
330
1F
100
AcDbEntity
  8
layer 1
 62
     7
100
AcDbSpline
210
0.0
220
0.0
230
1.0
 70
    11
 71
     3
 72
    16
 73
    12
 74
     0
 42
0.0000000001
 43
0.0000000001
 12
1.0
 22
0.0
 32
0.0
 13
1.0
 23
0.0
 33
0.0
 40
0.0
 40
0.0
 40
0.0
 40
0.0
 40
0.25
 40
0.25
 40
0.25
 40
0.25
 40
0.5
 40
0.5
 40
0.5
 40
0.5
 40
1.0
 40
1.0
 40
1.0
 40
1.0
 10
-122.6131
 20
108.9165
 30
0.0
 10
-120.1467
 20
103.895
 30
0.0
 10
-120.7169
 20
95.5349
 30
0.0
 10
-122.2975
 20
92.0008
 30
0.0
 10
-122.2975
 20
92.0008
 30
0.0
 10
-120.3305
 20
95.3215
 30
0.0
 10
-114.0319
 20
99.61
 30
0.0
 10
-107.9706
 20
100.1917
 30
0.0
 10
-107.9706
 20
100.1917
 30
0.0
 10
-114.0256
 20
101.0139
 30
0.0
 10
-119.788
 20
104.1366
 30
0.0
 10
-122.6131
 20
108.9165
 30
0.0
  0
SPLINE
  5
86
330
1F
100
AcDbEntity
  8
layer 1
 62
     7
100
AcDbSpline
210
0.0
220
0.0
230
1.0
 70
    11
 71
     3
 72
    16
 73
    12
 74
     0
 42
0.0000000001
 43
0.0000000001
 12
1.0
 22
0.0
 32
0.0
 13
1.0
 23
0.0
 33
0.0
 40
0.0
 40
0.0
 40
0.0
 40
0.0
 40
0.25
 40
0.25
 40
0.25
 40
0.25
 40
0.5
 40
0.5
 40
0.5
 40
0.5
 40
1.0
 40
1.0
 40
1.0
 40
1.0
 10
-129.2346
 20
124.2385
 30
0.0
 10
-129.1782
 20
122.8175
 30
0.0
 10
-128.7795
 20
120.7032
 30
0.0
 10
-127.7867
 20
118.0753
 30
0.0
 10
-127.7867
 20
118.0753
 30
0.0
 10
-129.7537
 20
120.7838
 30
0.0
 10
-132.5987
 20
123.1127
 30
0.0
 10
-135.5004
 20
124.2822
 30
0.0
 10
-135.5004
 20
124.2822
 30
0.0
 10
-135.5004
 20
124.2822
 30
0.0
 10
-129.2346
 20
124.2385
 30
0.0
 10
-129.2346
 20
124.2385
 30
0.0
  0
SPLINE
  5
87
330
1F
100
AcDbEntity
  8
layer 1
 62
     7
100
AcDbSpline
210
0.0
220
0.0
230
1.0
 70
    11
 71
     3
 72
    16
 73
    12
 74
     0
 42
0.0000000001
 43
0.0000000001
 12
1.0
 22
0.0
 32
0.0
 13
1.0
 23
0.0
 33
0.0
 40
0.0
 40
0.0
 40
0.0
 40
0.0
 40
0.25
 40
0.25
 40
0.25
 40
0.25
 40
0.5
 40
0.5
 40
0.5
 40
0.5
 40
1.0
 40
1.0
 40
1.0
 40
1.0
 10
-120.7283
 20
124.2385
 30
0.0
 10
-120.7847
 20
122.8175
 30
0.0
 10
-121.1834
 20
120.7032
 30
0.0
 10
-122.1763
 20
118.0753
 30
0.0
 10
-122.1763
 20
118.0753
 30
0.0
 10
-120.2092
 20
120.7838
 30
0.0
 10
-117.3642
 20
123.1127
 30
0.0
 10
-114.4625
 20
124.2822
 30
0.0
 10
-114.4625
 20
124.2822
 30
0.0
 10
-114.4625
 20
124.2822
 30
0.0
 10
-120.7283
 20
124.2385
 30
0.0
 10
-120.7283
 20
124.2385
 30
0.0
  0
SPLINE
  5
88
330
1F
100
AcDbEntity
  8
layer 1
 62
     7
100
AcDbSpline
210
0.0
220
0.0
230
1.0
 70
    11
 71
     3
 72
    16
 73
    12
 74
     0
 42
0.0000000001
 43
0.0000000001
 12
1.0
 22
0.0
 32
0.0
 13
1.0
 23
0.0
 33
0.0
 40
0.0
 40
0.0
 40
0.0
 40
0.0
 40
0.25
 40
0.25
 40
0.25
 40
0.25
 40
0.5
 40
0.5
 40
0.5
 40
0.5
 40
1.0
 40
1.0
 40
1.0
 40
1.0
 10
-165.9918
 20
124.2385
 30
0.0
 10
-166.0482
 20
122.8175
 30
0.0
 10
-166.4469
 20
120.7032
 30
0.0
 10
-167.4396
 20
118.0753
 30
0.0
 10
-167.4396
 20
118.0753
 30
0.0
 10
-165.4726
 20
120.7838
 30
0.0
 10
-162.6276
 20
123.1127
 30
0.0
 10
-159.7259
 20
124.2822
 30
0.0
 10
-159.7259
 20
124.2822
 30
0.0
 10
-159.7259
 20
124.2822
 30
0.0
 10
-165.9918
 20
124.2385
 30
0.0
 10
-165.9918
 20
124.2385
 30
0.0
  0
SPLINE
  5
89
330
1F
100
AcDbEntity
  8
layer 1
 62
     7
100
AcDbSpline
210
0.0
220
0.0
230
1.0
 70
    11
 71
     3
 72
    16
 73
    12
 74
     0
 42
0.0000000001
 43
0.0000000001
 12
1.0
 22
0.0
 32
0.0
 13
1.0
 23
0.0
 33
0.0
 40
0.0
 40
0.0
 40
0.0
 40
0.0
 40
0.25
 40
0.25
 40
0.25
 40
0.25
 40
0.5
 40
0.5
 40
0.5
 40
0.5
 40
1.0
 40
1.0
 40
1.0
 40
1.0
 10
-83.8732
 20
124.2385
 30
0.0
 10
-83.8168
 20
122.8175
 30
0.0
 10
-83.4181
 20
120.7032
 30
0.0
 10
-82.4252
 20
118.0753
 30
0.0
 10
-82.4252
 20
118.0753
 30
0.0
 10
-84.3923
 20
120.7838
 30
0.0
 10
-87.2373
 20
123.1127
 30
0.0
 10
-90.139
 20
124.2822
 30
0.0
 10
-90.139
 20
124.2822
 30
0.0
 10
-90.139
 20
124.2822
 30
0.0
 10
-83.8732
 20
124.2385
 30
0.0
 10
-83.8732
 20
124.2385
 30
0.0
  0
SPLINE
  5
8A
330
1F
100
AcDbEntity
  8
layer 1
 62
     7
100
AcDbSpline
210
0.0
220
0.0
230
1.0
 70
    11
 71
     3
 72
    20
 73
    16
 74
     0
 42
0.0000000001
 43
0.0000000001
 12
1.0
 22
0.0
 32
0.0
 13
1.0
 23
0.0
 33
0.0
 40
0.0
 40
0.0
 40
0.0
 40
0.0
 40
0.2
 40
0.2
 40
0.2
 40
0.2
 40
0.4
 40
0.4
 40
0.4
 40
0.4
 40
0.6
 40
0.6
 40
0.6
 40
0.6
 40
1.0
 40
1.0
 40
1.0
 40
1.0
 10
-75.4649
 20
124.2385
 30
0.0
 10
-75.5213
 20
122.8175
 30
0.0
 10
-75.92
 20
120.7032
 30
0.0
 10
-76.9129
 20
118.0753
 30
0.0
 10
-76.9129
 20
118.0753
 30
0.0
 10
-75.2504
 20
120.3643
 30
0.0
 10
-72.9609
 20
122.3823
 30
0.0
 10
-70.5401
 20
123.6584
 30
0.0
 10
-70.5401
 20
123.6584
 30
0.0
 10
-70.5401
 20
123.6584
 30
0.0
 10
-70.557
 20
124.2822
 30
0.0
 10
-70.557
 20
124.2822
 30
0.0
 10
-70.557
 20
124.2822
 30
0.0
 10
-70.557
 20
124.2822
 30
0.0
 10
-75.4649
 20
124.2385
 30
0.0
 10
-75.4649
 20
124.2385
 30
0.0
  0
SPLINE
  5
8B
330
1F
100
AcDbEntity
  8
layer 1
 62
     7
100
AcDbSpline
210
0.0
220
0.0
230
1.0
 70
    11
 71
     3
 72
    20
 73
    16
 74
     0
 42
0.0000000001
 43
0.0000000001
 12
1.0
 22
0.0
 32
0.0
 13
1.0
 23
0.0
 33
0.0
 40
0.0
 40
0.0
 40
0.0
 40
0.0
 40
0.2
 40
0.2
 40
0.2
 40
0.2
 40
0.4
 40
0.4
 40
0.4
 40
0.4
 40
0.6
 40
0.6
 40
0.6
 40
0.6
 40
1.0
 40
1.0
 40
1.0
 40
1.0
 10
-174.4798
 20
124.2385
 30
0.0
 10
-174.4234
 20
122.8175
 30
0.0
 10
-174.0247
 20
120.7032
 30
0.0
 10
-173.0319
 20
118.0753
 30
0.0
 10
-173.0319
 20
118.0753
 30
0.0
 10
-174.6943
 20
120.3643
 30
0.0
 10
-176.9839
 20
122.3823
 30
0.0
 10
-179.4047
 20
123.6584
 30
0.0
 10
-179.4047
 20
123.6584
 30
0.0
 10
-179.4047
 20
123.6584
 30
0.0
 10
-179.3877
 20
124.2822
 30
0.0
 10
-179.3877
 20
124.2822
 30
0.0
 10
-179.3877
 20
124.2822
 30
0.0
 10
-179.3877
 20
124.2822
 30
0.0
 10
-174.4798
 20
124.2385
 30
0.0
 10
-174.4798
 20
124.2385
 30
0.0
  0
SPLINE
  5
8C
330
1F
100
AcDbEntity
  8
layer 1
 62
     7
100
AcDbSpline
210
0.0
220
0.0
230
1.0
 70
    11
 71
     3
 72
    16
 73
    12
 74
     0
 42
0.0000000001
 43
0.0000000001
 12
1.0
 22
0.0
 32
0.0
 13
1.0
 23
0.0
 33
0.0
 40
0.0
 40
0.0
 40
0.0
 40
0.0
 40
0.25
 40
0.25
 40
0.25
 40
0.25
 40
0.5
 40
0.5
 40
0.5
 40
0.5
 40
1.0
 40
1.0
 40
1.0
 40
1.0
 10
-129.2346
 20
-106.6449
 30
0.0
 10
-129.1782
 20
-105.2239
 30
0.0
 10
-128.7795
 20
-103.1096
 30
0.0
 10
-127.7867
 20
-100.4817
 30
0.0
 10
-127.7867
 20
-100.4817
 30
0.0
 10
-129.7537
 20
-103.1902
 30
0.0
 10
-132.5987
 20
-105.5191
 30
0.0
 10
-135.5004
 20
-106.6886
 30
0.0
 10
-135.5004
 20
-106.6886
 30
0.0
 10
-135.5004
 20
-106.6886
 30
0.0
 10
-129.2346
 20
-106.6449
 30
0.0
 10
-129.2346
 20
-106.6449
 30
0.0
  0
SPLINE
  5
8D
330
1F
100
AcDbEntity
  8
layer 1
 62
     7
100
AcDbSpline
210
0.0
220
0.0
230
1.0
 70
    11
 71
     3
 72
    16
 73
    12
 74
     0
 42
0.0000000001
 43
0.0000000001
 12
1.0
 22
0.0
 32
0.0
 13
1.0
 23
0.0
 33
0.0
 40
0.0
 40
0.0
 40
0.0
 40
0.0
 40
0.25
 40
0.25
 40
0.25
 40
0.25
 40
0.5
 40
0.5
 40
0.5
 40
0.5
 40
1.0
 40
1.0
 40
1.0
 40
1.0
 10
-120.7283
 20
-106.6449
 30
0.0
 10
-120.7847
 20
-105.2239
 30
0.0
 10
-121.1834
 20
-103.1096
 30
0.0
 10
-122.1763
 20
-100.4817
 30
0.0
 10
-122.1763
 20
-100.4817
 30
0.0
 10
-120.2092
 20
-103.1902
 30
0.0
 10
-117.3642
 20
-105.5191
 30
0.0
 10
-114.4625
 20
-106.6886
 30
0.0
 10
-114.4625
 20
-106.6886
 30
0.0
 10
-114.4625
 20
-106.6886
 30
0.0
 10
-120.7283
 20
-106.6449
 30
0.0
 10
-120.7283
 20
-106.6449
 30
0.0
  0
SPLINE
  5
8E
330
1F
100
AcDbEntity
  8
layer 1
 62
     7
100
AcDbSpline
210
0.0
220
0.0
230
1.0
 70
    11
 71
     3
 72
    16
 73
    12
 74
     0
 42
0.0000000001
 43
0.0000000001
 12
1.0
 22
0.0
 32
0.0
 13
1.0
 23
0.0
 33
0.0
 40
0.0
 40
0.0
 40
0.0
 40
0.0
 40
0.25
 40
0.25
 40
0.25
 40
0.25
 40
0.5
 40
0.5
 40
0.5
 40
0.5
 40
1.0
 40
1.0
 40
1.0
 40
1.0
 10
-165.9918
 20
-106.6449
 30
0.0
 10
-166.0482
 20
-105.2239
 30
0.0
 10
-166.4469
 20
-103.1096
 30
0.0
 10
-167.4398
 20
-100.4817
 30
0.0
 10
-167.4398
 20
-100.4817
 30
0.0
 10
-165.4727
 20
-103.1902
 30
0.0
 10
-162.6277
 20
-105.5191
 30
0.0
 10
-159.726
 20
-106.6886
 30
0.0
 10
-159.726
 20
-106.6886
 30
0.0
 10
-159.726
 20
-106.6886
 30
0.0
 10
-165.9918
 20
-106.6449
 30
0.0
 10
-165.9918
 20
-106.6449
 30
0.0
  0
SPLINE
  5
8F
330
1F
100
AcDbEntity
  8
layer 1
 62
     7
100
AcDbSpline
210
0.0
220
0.0
230
1.0
 70
    11
 71
     3
 72
    16
 73
    12
 74
     0
 42
0.0000000001
 43
0.0000000001
 12
1.0
 22
0.0
 32
0.0
 13
1.0
 23
0.0
 33
0.0
 40
0.0
 40
0.0
 40
0.0
 40
0.0
 40
0.25
 40
0.25
 40
0.25
 40
0.25
 40
0.5
 40
0.5
 40
0.5
 40
0.5
 40
1.0
 40
1.0
 40
1.0
 40
1.0
 10
-83.8732
 20
-106.6449
 30
0.0
 10
-83.8168
 20
-105.2239
 30
0.0
 10
-83.4181
 20
-103.1096
 30
0.0
 10
-82.4252
 20
-100.4817
 30
0.0
 10
-82.4252
 20
-100.4817
 30
0.0
 10
-84.3923
 20
-103.1902
 30
0.0
 10
-87.2373
 20
-105.5191
 30
0.0
 10
-90.139
 20
-106.6886
 30
0.0
 10
-90.139
 20
-106.6886
 30
0.0
 10
-90.139
 20
-106.6886
 30
0.0
 10
-83.8732
 20
-106.6449
 30
0.0
 10
-83.8732
 20
-106.6449
 30
0.0
  0
SPLINE
  5
90
330
1F
100
AcDbEntity
  8
layer 1
 62
     7
100
AcDbSpline
210
0.0
220
0.0
230
1.0
 70
    11
 71
     3
 72
    20
 73
    16
 74
     0
 42
0.0000000001
 43
0.0000000001
 12
1.0
 22
0.0
 32
0.0
 13
1.0
 23
0.0
 33
0.0
 40
0.0
 40
0.0
 40
0.0
 40
0.0
 40
0.2
 40
0.2
 40
0.2
 40
0.2
 40
0.4
 40
0.4
 40
0.4
 40
0.4
 40
0.6
 40
0.6
 40
0.6
 40
0.6
 40
1.0
 40
1.0
 40
1.0
 40
1.0
 10
-75.4649
 20
-106.6449
 30
0.0
 10
-75.5213
 20
-105.2239
 30
0.0
 10
-75.92
 20
-103.1096
 30
0.0
 10
-76.9129
 20
-100.4817
 30
0.0
 10
-76.9129
 20
-100.4817
 30
0.0
 10
-75.2504
 20
-102.7707
 30
0.0
 10
-72.9609
 20
-104.7886
 30
0.0
 10
-70.5401
 20
-106.0648
 30
0.0
 10
-70.5401
 20
-106.0648
 30
0.0
 10
-70.5401
 20
-106.0648
 30
0.0
 10
-70.557
 20
-106.6886
 30
0.0
 10
-70.557
 20
-106.6886
 30
0.0
 10
-70.557
 20
-106.6886
 30
0.0
 10
-70.557
 20
-106.6886
 30
0.0
 10
-75.4649
 20
-106.6449
 30
0.0
 10
-75.4649
 20
-106.6449
 30
0.0
  0
SPLINE
  5
91
330
1F
100
AcDbEntity
  8
layer 1
 62
     7
100
AcDbSpline
210
0.0
220
0.0
230
1.0
 70
    11
 71
     3
 72
    20
 73
    16
 74
     0
 42
0.0000000001
 43
0.0000000001
 12
1.0
 22
0.0
 32
0.0
 13
1.0
 23
0.0
 33
0.0
 40
0.0
 40
0.0
 40
0.0
 40
0.0
 40
0.2
 40
0.2
 40
0.2
 40
0.2
 40
0.4
 40
0.4
 40
0.4
 40
0.4
 40
0.6
 40
0.6
 40
0.6
 40
0.6
 40
1.0
 40
1.0
 40
1.0
 40
1.0
 10
-174.4798
 20
-106.6449
 30
0.0
 10
-174.4234
 20
-105.2239
 30
0.0
 10
-174.0247
 20
-103.1096
 30
0.0
 10
-173.0319
 20
-100.4817
 30
0.0
 10
-173.0319
 20
-100.4817
 30
0.0
 10
-174.6943
 20
-102.7707
 30
0.0
 10
-176.9839
 20
-104.7886
 30
0.0
 10
-179.4047
 20
-106.0648
 30
0.0
 10
-179.4047
 20
-106.0648
 30
0.0
 10
-179.4047
 20
-106.0648
 30
0.0
 10
-179.3877
 20
-106.6886
 30
0.0
 10
-179.3877
 20
-106.6886
 30
0.0
 10
-179.3877
 20
-106.6886
 30
0.0
 10
-179.3877
 20
-106.6886
 30
0.0
 10
-174.4798
 20
-106.6449
 30
0.0
 10
-174.4798
 20
-106.6449
 30
0.0
  0
SPLINE
  5
92
330
1F
100
AcDbEntity
  8
layer 1
 62
     7
100
AcDbSpline
210
0.0
220
0.0
230
1.0
 70
    11
 71
     3
 72
    16
 73
    12
 74
     0
 42
0.0000000001
 43
0.0000000001
 12
1.0
 22
0.0
 32
0.0
 13
1.0
 23
0.0
 33
0.0
 40
0.0
 40
0.0
 40
0.0
 40
0.0
 40
0.25
 40
0.25
 40
0.25
 40
0.25
 40
0.5
 40
0.5
 40
0.5
 40
0.5
 40
1.0
 40
1.0
 40
1.0
 40
1.0
 10
-175.6029
 20
113.242
 30
0.0
 10
-177.3681
 20
113.0114
 30
0.0
 10
-178.3722
 20
112.8184
 30
0.0
 10
-179.4047
 20
112.3977
 30
0.0
 10
-179.4047
 20
112.3977
 30
0.0
 10
-179.4047
 20
112.3977
 30
0.0
 10
-179.3877
 20
113.9985
 30
0.0
 10
-179.3877
 20
113.9985
 30
0.0
 10
-179.3877
 20
113.9985
 30
0.0
 10
-178.5257
 20
113.6998
 30
0.0
 10
-177.4327
 20
113.4997
 30
0.0
 10
-175.6029
 20
113.242
 30
0.0
  0
SPLINE
  5
93
330
1F
100
AcDbEntity
  8
layer 1
 62
     7
100
AcDbSpline
210
0.0
220
0.0
230
1.0
 70
    11
 71
     3
 72
    20
 73
    16
 74
     0
 42
0.0000000001
 43
0.0000000001
 12
1.0
 22
0.0
 32
0.0
 13
1.0
 23
0.0
 33
0.0
 40
0.0
 40
0.0
 40
0.0
 40
0.0
 40
0.2
 40
0.2
 40
0.2
 40
0.2
 40
0.4
 40
0.4
 40
0.4
 40
0.4
 40
0.6
 40
0.6
 40
0.6
 40
0.6
 40
1.0
 40
1.0
 40
1.0
 40
1.0
 10
-172.7803
 20
108.9165
 30
0.0
 10
-175.2467
 20
103.895
 30
0.0
 10
-174.6765
 20
95.5349
 30
0.0
 10
-173.0958
 20
92.0008
 30
0.0
 10
-173.0958
 20
92.0008
 30
0.0
 10
-174.4292
 20
93.9528
 30
0.0
 10
-176.4629
 20
95.8934
 30
0.0
 10
-179.4047
 20
97.5274
 30
0.0
 10
-179.4047
 20
97.5274
 30
0.0
 10
-179.4047
 20
97.5274
 30
0.0
 10
-179.4047
 20
102.77
 30
0.0
 10
-179.4047
 20
102.77
 30
0.0
 10
-179.4047
 20
102.77
 30
0.0
 10
-176.7192
 20
104.5378
 30
0.0
 10
-174.8218
 20
106.2718
 30
0.0
 10
-172.7803
 20
108.9165
 30
0.0
  0
SPLINE
  5
94
330
1F
100
AcDbEntity
  8
layer 1
 62
     7
100
AcDbSpline
210
0.0
220
0.0
230
1.0
 70
    11
 71
     3
 72
    16
 73
    12
 74
     0
 42
0.0000000001
 43
0.0000000001
 12
1.0
 22
0.0
 32
0.0
 13
1.0
 23
0.0
 33
0.0
 40
0.0
 40
0.0
 40
0.0
 40
0.0
 40
0.25
 40
0.25
 40
0.25
 40
0.25
 40
0.5
 40
0.5
 40
0.5
 40
0.5
 40
1.0
 40
1.0
 40
1.0
 40
1.0
 10
-175.6029
 20
87.1484
 30
0.0
 10
-177.3682
 20
86.9178
 30
0.0
 10
-178.3722
 20
86.7249
 30
0.0
 10
-179.4047
 20
86.3041
 30
0.0
 10
-179.4047
 20
86.3041
 30
0.0
 10
-179.4047
 20
86.3041
 30
0.0
 10
-179.3877
 20
87.9049
 30
0.0
 10
-179.3877
 20
87.9049
 30
0.0
 10
-179.3877
 20
87.9049
 30
0.0
 10
-178.5257
 20
87.6062
 30
0.0
 10
-177.4327
 20
87.4061
 30
0.0
 10
-175.6029
 20
87.1484
 30
0.0
  0
SPLINE
  5
95
330
1F
100
AcDbEntity
  8
layer 1
 62
     7
100
AcDbSpline
210
0.0
220
0.0
230
1.0
 70
    11
 71
     3
 72
    20
 73
    16
 74
     0
 42
0.0000000001
 43
0.0000000001
 12
1.0
 22
0.0
 32
0.0
 13
1.0
 23
0.0
 33
0.0
 40
0.0
 40
0.0
 40
0.0
 40
0.0
 40
0.2
 40
0.2
 40
0.2
 40
0.2
 40
0.4
 40
0.4
 40
0.4
 40
0.4
 40
0.6
 40
0.6
 40
0.6
 40
0.6
 40
1.0
 40
1.0
 40
1.0
 40
1.0
 10
-172.7803
 20
82.823
 30
0.0
 10
-175.2467
 20
77.8016
 30
0.0
 10
-174.6765
 20
69.4414
 30
0.0
 10
-173.0958
 20
65.9074
 30
0.0
 10
-173.0958
 20
65.9074
 30
0.0
 10
-174.4292
 20
67.8593
 30
0.0
 10
-176.4629
 20
69.7998
 30
0.0
 10
-179.4047
 20
71.4339
 30
0.0
 10
-179.4047
 20
71.4339
 30
0.0
 10
-179.4047
 20
71.4339
 30
0.0
 10
-179.4047
 20
76.6766
 30
0.0
 10
-179.4047
 20
76.6766
 30
0.0
 10
-179.4047
 20
76.6766
 30
0.0
 10
-176.7192
 20
78.4444
 30
0.0
 10
-174.8218
 20
80.1783
 30
0.0
 10
-172.7803
 20
82.823
 30
0.0
  0
SPLINE
  5
96
330
1F
100
AcDbEntity
  8
layer 1
 62
     7
100
AcDbSpline
210
0.0
220
0.0
230
1.0
 70
    11
 71
     3
 72
    16
 73
    12
 74
     0
 42
0.0000000001
 43
0.0000000001
 12
1.0
 22
0.0
 32
0.0
 13
1.0
 23
0.0
 33
0.0
 40
0.0
 40
0.0
 40
0.0
 40
0.0
 40
0.25
 40
0.25
 40
0.25
 40
0.25
 40
0.5
 40
0.5
 40
0.5
 40
0.5
 40
1.0
 40
1.0
 40
1.0
 40
1.0
 10
-175.6029
 20
61.055
 30
0.0
 10
-177.3682
 20
60.8244
 30
0.0
 10
-178.3722
 20
60.6314
 30
0.0
 10
-179.4047
 20
60.2107
 30
0.0
 10
-179.4047
 20
60.2107
 30
0.0
 10
-179.4047
 20
60.2107
 30
0.0
 10
-179.3877
 20
61.8115
 30
0.0
 10
-179.3877
 20
61.8115
 30
0.0
 10
-179.3877
 20
61.8115
 30
0.0
 10
-178.5257
 20
61.5128
 30
0.0
 10
-177.4327
 20
61.3127
 30
0.0
 10
-175.6029
 20
61.055
 30
0.0
  0
SPLINE
  5
97
330
1F
100
AcDbEntity
  8
layer 1
 62
     7
100
AcDbSpline
210
0.0
220
0.0
230
1.0
 70
    11
 71
     3
 72
    20
 73
    16
 74
     0
 42
0.0000000001
 43
0.0000000001
 12
1.0
 22
0.0
 32
0.0
 13
1.0
 23
0.0
 33
0.0
 40
0.0
 40
0.0
 40
0.0
 40
0.0
 40
0.2
 40
0.2
 40
0.2
 40
0.2
 40
0.4
 40
0.4
 40
0.4
 40
0.4
 40
0.6
 40
0.6
 40
0.6
 40
0.6
 40
1.0
 40
1.0
 40
1.0
 40
1.0
 10
-172.7803
 20
56.7295
 30
0.0
 10
-175.2467
 20
51.708
 30
0.0
 10
-174.6765
 20
43.3479
 30
0.0
 10
-173.0958
 20
39.8138
 30
0.0
 10
-173.0958
 20
39.8138
 30
0.0
 10
-174.4292
 20
41.7657
 30
0.0
 10
-176.4629
 20
43.7062
 30
0.0
 10
-179.4047
 20
45.3404
 30
0.0
 10
-179.4047
 20
45.3404
 30
0.0
 10
-179.4047
 20
45.3404
 30
0.0
 10
-179.4047
 20
50.583
 30
0.0
 10
-179.4047
 20
50.583
 30
0.0
 10
-179.4047
 20
50.583
 30
0.0
 10
-176.7192
 20
52.3508
 30
0.0
 10
-174.8218
 20
54.0847
 30
0.0
 10
-172.7803
 20
56.7295
 30
0.0
  0
SPLINE
  5
98
330
1F
100
AcDbEntity
  8
layer 1
 62
     7
100
AcDbSpline
210
0.0
220
0.0
230
1.0
 70
    11
 71
     3
 72
    16
 73
    12
 74
     0
 42
0.0000000001
 43
0.0000000001
 12
1.0
 22
0.0
 32
0.0
 13
1.0
 23
0.0
 33
0.0
 40
0.0
 40
0.0
 40
0.0
 40
0.0
 40
0.25
 40
0.25
 40
0.25
 40
0.25
 40
0.5
 40
0.5
 40
0.5
 40
0.5
 40
1.0
 40
1.0
 40
1.0
 40
1.0
 10
-175.6029
 20
34.9614
 30
0.0
 10
-177.3682
 20
34.7308
 30
0.0
 10
-178.3722
 20
34.5379
 30
0.0
 10
-179.4047
 20
34.1171
 30
0.0
 10
-179.4047
 20
34.1171
 30
0.0
 10
-179.4047
 20
34.1171
 30
0.0
 10
-179.3877
 20
35.7179
 30
0.0
 10
-179.3877
 20
35.7179
 30
0.0
 10
-179.3877
 20
35.7179
 30
0.0
 10
-178.5257
 20
35.4192
 30
0.0
 10
-177.4327
 20
35.2191
 30
0.0
 10
-175.6029
 20
34.9614
 30
0.0
  0
SPLINE
  5
99
330
1F
100
AcDbEntity
  8
layer 1
 62
     7
100
AcDbSpline
210
0.0
220
0.0
230
1.0
 70
    11
 71
     3
 72
    20
 73
    16
 74
     0
 42
0.0000000001
 43
0.0000000001
 12
1.0
 22
0.0
 32
0.0
 13
1.0
 23
0.0
 33
0.0
 40
0.0
 40
0.0
 40
0.0
 40
0.0
 40
0.2
 40
0.2
 40
0.2
 40
0.2
 40
0.4
 40
0.4
 40
0.4
 40
0.4
 40
0.6
 40
0.6
 40
0.6
 40
0.6
 40
1.0
 40
1.0
 40
1.0
 40
1.0
 10
-172.7803
 20
30.6359
 30
0.0
 10
-175.2467
 20
25.6144
 30
0.0
 10
-174.6765
 20
17.2543
 30
0.0
 10
-173.0958
 20
13.7202
 30
0.0
 10
-173.0958
 20
13.7202
 30
0.0
 10
-174.4292
 20
15.6721
 30
0.0
 10
-176.4629
 20
17.6127
 30
0.0
 10
-179.4047
 20
19.2468
 30
0.0
 10
-179.4047
 20
19.2468
 30
0.0
 10
-179.4047
 20
19.2468
 30
0.0
 10
-179.4047
 20
24.4894
 30
0.0
 10
-179.4047
 20
24.4894
 30
0.0
 10
-179.4047
 20
24.4894
 30
0.0
 10
-176.7192
 20
26.2573
 30
0.0
 10
-174.8218
 20
27.9911
 30
0.0
 10
-172.7803
 20
30.6359
 30
0.0
  0
SPLINE
  5
9A
330
1F
100
AcDbEntity
  8
layer 1
 62
     7
100
AcDbSpline
210
0.0
220
0.0
230
1.0
 70
    11
 71
     3
 72
    16
 73
    12
 74
     0
 42
0.0000000001
 43
0.0000000001
 12
1.0
 22
0.0
 32
0.0
 13
1.0
 23
0.0
 33
0.0
 40
0.0
 40
0.0
 40
0.0
 40
0.0
 40
0.25
 40
0.25
 40
0.25
 40
0.25
 40
0.5
 40
0.5
 40
0.5
 40
0.5
 40
1.0
 40
1.0
 40
1.0
 40
1.0
 10
-175.6029
 20
8.8086
 30
0.0
 10
-177.3682
 20
8.578
 30
0.0
 10
-178.3722
 20
8.385
 30
0.0
 10
-179.4047
 20
7.9643
 30
0.0
 10
-179.4047
 20
7.9643
 30
0.0
 10
-179.4047
 20
7.9643
 30
0.0
 10
-179.3877
 20
9.5651
 30
0.0
 10
-179.3877
 20
9.5651
 30
0.0
 10
-179.3877
 20
9.5651
 30
0.0
 10
-178.5257
 20
9.2664
 30
0.0
 10
-177.4327
 20
9.0663
 30
0.0
 10
-175.6029
 20
8.8086
 30
0.0
  0
SPLINE
  5
9B
330
1F
100
AcDbEntity
  8
layer 1
 62
     7
100
AcDbSpline
210
0.0
220
0.0
230
1.0
 70
    11
 71
     3
 72
    20
 73
    16
 74
     0
 42
0.0000000001
 43
0.0000000001
 12
1.0
 22
0.0
 32
0.0
 13
1.0
 23
0.0
 33
0.0
 40
0.0
 40
0.0
 40
0.0
 40
0.0
 40
0.2
 40
0.2
 40
0.2
 40
0.2
 40
0.4
 40
0.4
 40
0.4
 40
0.4
 40
0.6
 40
0.6
 40
0.6
 40
0.6
 40
1.0
 40
1.0
 40
1.0
 40
1.0
 10
-172.7803
 20
4.4831
 30
0.0
 10
-175.2467
 20
-0.5384
 30
0.0
 10
-174.6765
 20
-8.8985
 30
0.0
 10
-173.0958
 20
-12.4326
 30
0.0
 10
-173.0958
 20
-12.4326
 30
0.0
 10
-174.4292
 20
-10.4807
 30
0.0
 10
-176.4629
 20
-8.5402
 30
0.0
 10
-179.4047
 20
-6.906
 30
0.0
 10
-179.4047
 20
-6.906
 30
0.0
 10
-179.4047
 20
-6.906
 30
0.0
 10
-179.4047
 20
-1.6634
 30
0.0
 10
-179.4047
 20
-1.6634
 30
0.0
 10
-179.4047
 20
-1.6634
 30
0.0
 10
-176.7192
 20
0.1044
 30
0.0
 10
-174.8218
 20
1.8383
 30
0.0
 10
-172.7803
 20
4.4831
 30
0.0
  0
SPLINE
  5
9C
330
1F
100
AcDbEntity
  8
layer 1
 62
     7
100
AcDbSpline
210
0.0
220
0.0
230
1.0
 70
    11
 71
     3
 72
    16
 73
    12
 74
     0
 42
0.0000000001
 43
0.0000000001
 12
1.0
 22
0.0
 32
0.0
 13
1.0
 23
0.0
 33
0.0
 40
0.0
 40
0.0
 40
0.0
 40
0.0
 40
0.25
 40
0.25
 40
0.25
 40
0.25
 40
0.5
 40
0.5
 40
0.5
 40
0.5
 40
1.0
 40
1.0
 40
1.0
 40
1.0
 10
-175.6029
 20
-17.2849
 30
0.0
 10
-177.3682
 20
-17.5154
 30
0.0
 10
-178.3722
 20
-17.7084
 30
0.0
 10
-179.4047
 20
-18.1292
 30
0.0
 10
-179.4047
 20
-18.1292
 30
0.0
 10
-179.4047
 20
-18.1292
 30
0.0
 10
-179.3877
 20
-16.5283
 30
0.0
 10
-179.3877
 20
-16.5283
 30
0.0
 10
-179.3877
 20
-16.5283
 30
0.0
 10
-178.5257
 20
-16.827
 30
0.0
 10
-177.4327
 20
-17.0272
 30
0.0
 10
-175.6029
 20
-17.2849
 30
0.0
  0
SPLINE
  5
9D
330
1F
100
AcDbEntity
  8
layer 1
 62
     7
100
AcDbSpline
210
0.0
220
0.0
230
1.0
 70
    11
 71
     3
 72
    20
 73
    16
 74
     0
 42
0.0000000001
 43
0.0000000001
 12
1.0
 22
0.0
 32
0.0
 13
1.0
 23
0.0
 33
0.0
 40
0.0
 40
0.0
 40
0.0
 40
0.0
 40
0.2
 40
0.2
 40
0.2
 40
0.2
 40
0.4
 40
0.4
 40
0.4
 40
0.4
 40
0.6
 40
0.6
 40
0.6
 40
0.6
 40
1.0
 40
1.0
 40
1.0
 40
1.0
 10
-172.7803
 20
-21.6104
 30
0.0
 10
-175.2467
 20
-26.6318
 30
0.0
 10
-174.6765
 20
-34.992
 30
0.0
 10
-173.0958
 20
-38.526
 30
0.0
 10
-173.0958
 20
-38.526
 30
0.0
 10
-174.4292
 20
-36.5741
 30
0.0
 10
-176.4629
 20
-34.6336
 30
0.0
 10
-179.4047
 20
-32.9995
 30
0.0
 10
-179.4047
 20
-32.9995
 30
0.0
 10
-179.4047
 20
-32.9995
 30
0.0
 10
-179.4047
 20
-27.7568
 30
0.0
 10
-179.4047
 20
-27.7568
 30
0.0
 10
-179.4047
 20
-27.7568
 30
0.0
 10
-176.7192
 20
-25.989
 30
0.0
 10
-174.8218
 20
-24.2551
 30
0.0
 10
-172.7803
 20
-21.6104
 30
0.0
  0
SPLINE
  5
9E
330
1F
100
AcDbEntity
  8
layer 1
 62
     7
100
AcDbSpline
210
0.0
220
0.0
230
1.0
 70
    11
 71
     3
 72
    16
 73
    12
 74
     0
 42
0.0000000001
 43
0.0000000001
 12
1.0
 22
0.0
 32
0.0
 13
1.0
 23
0.0
 33
0.0
 40
0.0
 40
0.0
 40
0.0
 40
0.0
 40
0.25
 40
0.25
 40
0.25
 40
0.25
 40
0.5
 40
0.5
 40
0.5
 40
0.5
 40
1.0
 40
1.0
 40
1.0
 40
1.0
 10
-175.6029
 20
-43.497
 30
0.0
 10
-177.3682
 20
-43.7275
 30
0.0
 10
-178.3722
 20
-43.9205
 30
0.0
 10
-179.4047
 20
-44.3413
 30
0.0
 10
-179.4047
 20
-44.3413
 30
0.0
 10
-179.4047
 20
-44.3413
 30
0.0
 10
-179.3877
 20
-42.7404
 30
0.0
 10
-179.3877
 20
-42.7404
 30
0.0
 10
-179.3877
 20
-42.7404
 30
0.0
 10
-178.5257
 20
-43.0391
 30
0.0
 10
-177.4327
 20
-43.2393
 30
0.0
 10
-175.6029
 20
-43.497
 30
0.0
  0
SPLINE
  5
9F
330
1F
100
AcDbEntity
  8
layer 1
 62
     7
100
AcDbSpline
210
0.0
220
0.0
230
1.0
 70
    11
 71
     3
 72
    20
 73
    16
 74
     0
 42
0.0000000001
 43
0.0000000001
 12
1.0
 22
0.0
 32
0.0
 13
1.0
 23
0.0
 33
0.0
 40
0.0
 40
0.0
 40
0.0
 40
0.0
 40
0.2
 40
0.2
 40
0.2
 40
0.2
 40
0.4
 40
0.4
 40
0.4
 40
0.4
 40
0.6
 40
0.6
 40
0.6
 40
0.6
 40
1.0
 40
1.0
 40
1.0
 40
1.0
 10
-172.7803
 20
-47.8225
 30
0.0
 10
-175.2467
 20
-52.844
 30
0.0
 10
-174.6765
 20
-61.2041
 30
0.0
 10
-173.0958
 20
-64.7381
 30
0.0
 10
-173.0958
 20
-64.7381
 30
0.0
 10
-174.4292
 20
-62.7862
 30
0.0
 10
-176.4629
 20
-60.8457
 30
0.0
 10
-179.4047
 20
-59.2116
 30
0.0
 10
-179.4047
 20
-59.2116
 30
0.0
 10
-179.4047
 20
-59.2116
 30
0.0
 10
-179.4047
 20
-53.9689
 30
0.0
 10
-179.4047
 20
-53.9689
 30
0.0
 10
-179.4047
 20
-53.9689
 30
0.0
 10
-176.7192
 20
-52.2011
 30
0.0
 10
-174.8218
 20
-50.4672
 30
0.0
 10
-172.7803
 20
-47.8225
 30
0.0
  0
SPLINE
  5
A0
330
1F
100
AcDbEntity
  8
layer 1
 62
     7
100
AcDbSpline
210
0.0
220
0.0
230
1.0
 70
    11
 71
     3
 72
    16
 73
    12
 74
     0
 42
0.0000000001
 43
0.0000000001
 12
1.0
 22
0.0
 32
0.0
 13
1.0
 23
0.0
 33
0.0
 40
0.0
 40
0.0
 40
0.0
 40
0.0
 40
0.25
 40
0.25
 40
0.25
 40
0.25
 40
0.5
 40
0.5
 40
0.5
 40
0.5
 40
1.0
 40
1.0
 40
1.0
 40
1.0
 10
-175.6029
 20
-69.6498
 30
0.0
 10
-177.3682
 20
-69.8804
 30
0.0
 10
-178.3722
 20
-70.0733
 30
0.0
 10
-179.4047
 20
-70.4941
 30
0.0
 10
-179.4047
 20
-70.4941
 30
0.0
 10
-179.4047
 20
-70.4941
 30
0.0
 10
-179.3877
 20
-68.8933
 30
0.0
 10
-179.3877
 20
-68.8933
 30
0.0
 10
-179.3877
 20
-68.8933
 30
0.0
 10
-178.5257
 20
-69.192
 30
0.0
 10
-177.4327
 20
-69.3921
 30
0.0
 10
-175.6029
 20
-69.6498
 30
0.0
  0
SPLINE
  5
A1
330
1F
100
AcDbEntity
  8
layer 1
 62
     7
100
AcDbSpline
210
0.0
220
0.0
230
1.0
 70
    11
 71
     3
 72
    20
 73
    16
 74
     0
 42
0.0000000001
 43
0.0000000001
 12
1.0
 22
0.0
 32
0.0
 13
1.0
 23
0.0
 33
0.0
 40
0.0
 40
0.0
 40
0.0
 40
0.0
 40
0.2
 40
0.2
 40
0.2
 40
0.2
 40
0.4
 40
0.4
 40
0.4
 40
0.4
 40
0.6
 40
0.6
 40
0.6
 40
0.6
 40
1.0
 40
1.0
 40
1.0
 40
1.0
 10
-172.7803
 20
-73.9753
 30
0.0
 10
-175.2467
 20
-78.9968
 30
0.0
 10
-174.6765
 20
-87.3569
 30
0.0
 10
-173.0958
 20
-90.891
 30
0.0
 10
-173.0958
 20
-90.891
 30
0.0
 10
-174.4292
 20
-88.9391
 30
0.0
 10
-176.4629
 20
-86.9985
 30
0.0
 10
-179.4047
 20
-85.3644
 30
0.0
 10
-179.4047
 20
-85.3644
 30
0.0
 10
-179.4047
 20
-85.3644
 30
0.0
 10
-179.4047
 20
-80.1218
 30
0.0
 10
-179.4047
 20
-80.1218
 30
0.0
 10
-179.4047
 20
-80.1218
 30
0.0
 10
-176.7192
 20
-78.3539
 30
0.0
 10
-174.8218
 20
-76.6201
 30
0.0
 10
-172.7803
 20
-73.9753
 30
0.0
  0
SPLINE
  5
A2
330
1F
100
AcDbEntity
  8
layer 1
 62
     7
100
AcDbSpline
210
0.0
220
0.0
230
1.0
 70
    11
 71
     3
 72
    16
 73
    12
 74
     0
 42
0.0000000001
 43
0.0000000001
 12
1.0
 22
0.0
 32
0.0
 13
1.0
 23
0.0
 33
0.0
 40
0.0
 40
0.0
 40
0.0
 40
0.0
 40
0.25
 40
0.25
 40
0.25
 40
0.25
 40
0.5
 40
0.5
 40
0.5
 40
0.5
 40
1.0
 40
1.0
 40
1.0
 40
1.0
 10
-175.6029
 20
-95.8027
 30
0.0
 10
-177.3682
 20
-96.0332
 30
0.0
 10
-178.3722
 20
-96.2262
 30
0.0
 10
-179.4047
 20
-96.6469
 30
0.0
 10
-179.4047
 20
-96.6469
 30
0.0
 10
-179.4047
 20
-96.6469
 30
0.0
 10
-179.3877
 20
-95.0461
 30
0.0
 10
-179.3877
 20
-95.0461
 30
0.0
 10
-179.3877
 20
-95.0461
 30
0.0
 10
-178.5257
 20
-95.3448
 30
0.0
 10
-177.4327
 20
-95.5449
 30
0.0
 10
-175.6029
 20
-95.8027
 30
0.0
  0
SPLINE
  5
A3
330
1F
100
AcDbEntity
  8
layer 1
 62
     7
100
AcDbSpline
210
0.0
220
0.0
230
1.0
 70
    11
 71
     3
 72
    20
 73
    16
 74
     0
 42
0.0000000001
 43
0.0000000001
 12
1.0
 22
0.0
 32
0.0
 13
1.0
 23
0.0
 33
0.0
 40
0.0
 40
0.0
 40
0.0
 40
0.0
 40
0.2
 40
0.2
 40
0.2
 40
0.2
 40
0.4
 40
0.4
 40
0.4
 40
0.4
 40
0.6
 40
0.6
 40
0.6
 40
0.6
 40
1.0
 40
1.0
 40
1.0
 40
1.0
 10
-74.3589
 20
113.242
 30
0.0
 10
-72.5935
 20
113.0114
 30
0.0
 10
-71.5896
 20
112.8184
 30
0.0
 10
-70.557
 20
112.3977
 30
0.0
 10
-70.557
 20
112.3977
 30
0.0
 10
-70.557
 20
112.3977
 30
0.0
 10
-70.574
 20
113.9985
 30
0.0
 10
-70.574
 20
113.9985
 30
0.0
 10
-70.574
 20
113.9985
 30
0.0
 10
-71.4361
 20
113.6998
 30
0.0
 10
-72.529
 20
113.4997
 30
0.0
 10
-74.359
 20
113.242
 30
0.0
 10
-74.359
 20
113.242
 30
0.0
 10
-74.359
 20
113.242
 30
0.0
 10
-74.3589
 20
113.242
 30
0.0
 10
-74.3589
 20
113.242
 30
0.0
  0
SPLINE
  5
A4
330
1F
100
AcDbEntity
  8
layer 1
 62
     7
100
AcDbSpline
210
0.0
220
0.0
230
1.0
 70
    11
 71
     3
 72
    20
 73
    16
 74
     0
 42
0.0000000001
 43
0.0000000001
 12
1.0
 22
0.0
 32
0.0
 13
1.0
 23
0.0
 33
0.0
 40
0.0
 40
0.0
 40
0.0
 40
0.0
 40
0.2
 40
0.2
 40
0.2
 40
0.2
 40
0.4
 40
0.4
 40
0.4
 40
0.4
 40
0.6
 40
0.6
 40
0.6
 40
0.6
 40
1.0
 40
1.0
 40
1.0
 40
1.0
 10
-77.1813
 20
108.9165
 30
0.0
 10
-74.7149
 20
103.895
 30
0.0
 10
-75.2852
 20
95.5349
 30
0.0
 10
-76.8658
 20
92.0008
 30
0.0
 10
-76.8658
 20
92.0008
 30
0.0
 10
-75.5324
 20
93.9527
 30
0.0
 10
-73.4987
 20
95.8932
 30
0.0
 10
-70.5569
 20
97.5274
 30
0.0
 10
-70.5569
 20
97.5274
 30
0.0
 10
-70.5569
 20
97.5274
 30
0.0
 10
-70.5569
 20
102.77
 30
0.0
 10
-70.5569
 20
102.77
 30
0.0
 10
-70.5569
 20
102.77
 30
0.0
 10
-73.2424
 20
104.5378
 30
0.0
 10
-75.1398
 20
106.2718
 30
0.0
 10
-77.1813
 20
108.9165
 30
0.0
  0
SPLINE
  5
A5
330
1F
100
AcDbEntity
  8
layer 1
 62
     7
100
AcDbSpline
210
0.0
220
0.0
230
1.0
 70
    11
 71
     3
 72
    20
 73
    16
 74
     0
 42
0.0000000001
 43
0.0000000001
 12
1.0
 22
0.0
 32
0.0
 13
1.0
 23
0.0
 33
0.0
 40
0.0
 40
0.0
 40
0.0
 40
0.0
 40
0.2
 40
0.2
 40
0.2
 40
0.2
 40
0.4
 40
0.4
 40
0.4
 40
0.4
 40
0.6
 40
0.6
 40
0.6
 40
0.6
 40
1.0
 40
1.0
 40
1.0
 40
1.0
 10
-74.3589
 20
87.1484
 30
0.0
 10
-72.5935
 20
86.9178
 30
0.0
 10
-71.5896
 20
86.7249
 30
0.0
 10
-70.557
 20
86.3041
 30
0.0
 10
-70.557
 20
86.3041
 30
0.0
 10
-70.557
 20
86.3041
 30
0.0
 10
-70.574
 20
87.9049
 30
0.0
 10
-70.574
 20
87.9049
 30
0.0
 10
-70.574
 20
87.9049
 30
0.0
 10
-71.4361
 20
87.6062
 30
0.0
 10
-72.529
 20
87.4061
 30
0.0
 10
-74.359
 20
87.1484
 30
0.0
 10
-74.359
 20
87.1484
 30
0.0
 10
-74.359
 20
87.1484
 30
0.0
 10
-74.3589
 20
87.1484
 30
0.0
 10
-74.3589
 20
87.1484
 30
0.0
  0
SPLINE
  5
A6
330
1F
100
AcDbEntity
  8
layer 1
 62
     7
100
AcDbSpline
210
0.0
220
0.0
230
1.0
 70
    11
 71
     3
 72
    20
 73
    16
 74
     0
 42
0.0000000001
 43
0.0000000001
 12
1.0
 22
0.0
 32
0.0
 13
1.0
 23
0.0
 33
0.0
 40
0.0
 40
0.0
 40
0.0
 40
0.0
 40
0.2
 40
0.2
 40
0.2
 40
0.2
 40
0.4
 40
0.4
 40
0.4
 40
0.4
 40
0.6
 40
0.6
 40
0.6
 40
0.6
 40
1.0
 40
1.0
 40
1.0
 40
1.0
 10
-77.1813
 20
82.823
 30
0.0
 10
-74.7149
 20
77.8016
 30
0.0
 10
-75.2852
 20
69.4414
 30
0.0
 10
-76.8658
 20
65.9074
 30
0.0
 10
-76.8658
 20
65.9074
 30
0.0
 10
-75.5324
 20
67.8593
 30
0.0
 10
-73.4987
 20
69.7998
 30
0.0
 10
-70.5569
 20
71.4339
 30
0.0
 10
-70.5569
 20
71.4339
 30
0.0
 10
-70.5569
 20
71.4339
 30
0.0
 10
-70.5569
 20
76.6766
 30
0.0
 10
-70.5569
 20
76.6766
 30
0.0
 10
-70.5569
 20
76.6766
 30
0.0
 10
-73.2424
 20
78.4444
 30
0.0
 10
-75.1398
 20
80.1783
 30
0.0
 10
-77.1813
 20
82.823
 30
0.0
  0
SPLINE
  5
A7
330
1F
100
AcDbEntity
  8
layer 1
 62
     7
100
AcDbSpline
210
0.0
220
0.0
230
1.0
 70
    11
 71
     3
 72
    20
 73
    16
 74
     0
 42
0.0000000001
 43
0.0000000001
 12
1.0
 22
0.0
 32
0.0
 13
1.0
 23
0.0
 33
0.0
 40
0.0
 40
0.0
 40
0.0
 40
0.0
 40
0.2
 40
0.2
 40
0.2
 40
0.2
 40
0.4
 40
0.4
 40
0.4
 40
0.4
 40
0.6
 40
0.6
 40
0.6
 40
0.6
 40
1.0
 40
1.0
 40
1.0
 40
1.0
 10
-74.3589
 20
61.055
 30
0.0
 10
-72.5935
 20
60.8244
 30
0.0
 10
-71.5896
 20
60.6314
 30
0.0
 10
-70.557
 20
60.2107
 30
0.0
 10
-70.557
 20
60.2107
 30
0.0
 10
-70.557
 20
60.2107
 30
0.0
 10
-70.574
 20
61.8115
 30
0.0
 10
-70.574
 20
61.8115
 30
0.0
 10
-70.574
 20
61.8115
 30
0.0
 10
-71.4361
 20
61.5128
 30
0.0
 10
-72.529
 20
61.3127
 30
0.0
 10
-74.359
 20
61.055
 30
0.0
 10
-74.359
 20
61.055
 30
0.0
 10
-74.359
 20
61.055
 30
0.0
 10
-74.3589
 20
61.055
 30
0.0
 10
-74.3589
 20
61.055
 30
0.0
  0
SPLINE
  5
A8
330
1F
100
AcDbEntity
  8
layer 1
 62
     7
100
AcDbSpline
210
0.0
220
0.0
230
1.0
 70
    11
 71
     3
 72
    20
 73
    16
 74
     0
 42
0.0000000001
 43
0.0000000001
 12
1.0
 22
0.0
 32
0.0
 13
1.0
 23
0.0
 33
0.0
 40
0.0
 40
0.0
 40
0.0
 40
0.0
 40
0.2
 40
0.2
 40
0.2
 40
0.2
 40
0.4
 40
0.4
 40
0.4
 40
0.4
 40
0.6
 40
0.6
 40
0.6
 40
0.6
 40
1.0
 40
1.0
 40
1.0
 40
1.0
 10
-77.1813
 20
56.7295
 30
0.0
 10
-74.7149
 20
51.708
 30
0.0
 10
-75.2852
 20
43.3479
 30
0.0
 10
-76.8658
 20
39.8138
 30
0.0
 10
-76.8658
 20
39.8138
 30
0.0
 10
-75.5324
 20
41.7657
 30
0.0
 10
-73.4987
 20
43.7062
 30
0.0
 10
-70.5569
 20
45.3404
 30
0.0
 10
-70.5569
 20
45.3404
 30
0.0
 10
-70.5569
 20
45.3404
 30
0.0
 10
-70.5569
 20
50.583
 30
0.0
 10
-70.5569
 20
50.583
 30
0.0
 10
-70.5569
 20
50.583
 30
0.0
 10
-73.2424
 20
52.3508
 30
0.0
 10
-75.1398
 20
54.0847
 30
0.0
 10
-77.1813
 20
56.7295
 30
0.0
  0
SPLINE
  5
A9
330
1F
100
AcDbEntity
  8
layer 1
 62
     7
100
AcDbSpline
210
0.0
220
0.0
230
1.0
 70
    11
 71
     3
 72
    20
 73
    16
 74
     0
 42
0.0000000001
 43
0.0000000001
 12
1.0
 22
0.0
 32
0.0
 13
1.0
 23
0.0
 33
0.0
 40
0.0
 40
0.0
 40
0.0
 40
0.0
 40
0.2
 40
0.2
 40
0.2
 40
0.2
 40
0.4
 40
0.4
 40
0.4
 40
0.4
 40
0.6
 40
0.6
 40
0.6
 40
0.6
 40
1.0
 40
1.0
 40
1.0
 40
1.0
 10
-74.3589
 20
34.9614
 30
0.0
 10
-72.5935
 20
34.7308
 30
0.0
 10
-71.5896
 20
34.5379
 30
0.0
 10
-70.557
 20
34.1171
 30
0.0
 10
-70.557
 20
34.1171
 30
0.0
 10
-70.557
 20
34.1171
 30
0.0
 10
-70.574
 20
35.7179
 30
0.0
 10
-70.574
 20
35.7179
 30
0.0
 10
-70.574
 20
35.7179
 30
0.0
 10
-71.4361
 20
35.4192
 30
0.0
 10
-72.529
 20
35.2191
 30
0.0
 10
-74.359
 20
34.9614
 30
0.0
 10
-74.359
 20
34.9614
 30
0.0
 10
-74.359
 20
34.9614
 30
0.0
 10
-74.3589
 20
34.9614
 30
0.0
 10
-74.3589
 20
34.9614
 30
0.0
  0
SPLINE
  5
AA
330
1F
100
AcDbEntity
  8
layer 1
 62
     7
100
AcDbSpline
210
0.0
220
0.0
230
1.0
 70
    11
 71
     3
 72
    20
 73
    16
 74
     0
 42
0.0000000001
 43
0.0000000001
 12
1.0
 22
0.0
 32
0.0
 13
1.0
 23
0.0
 33
0.0
 40
0.0
 40
0.0
 40
0.0
 40
0.0
 40
0.2
 40
0.2
 40
0.2
 40
0.2
 40
0.4
 40
0.4
 40
0.4
 40
0.4
 40
0.6
 40
0.6
 40
0.6
 40
0.6
 40
1.0
 40
1.0
 40
1.0
 40
1.0
 10
-77.1813
 20
30.6359
 30
0.0
 10
-74.7149
 20
25.6144
 30
0.0
 10
-75.2852
 20
17.2543
 30
0.0
 10
-76.8658
 20
13.7202
 30
0.0
 10
-76.8658
 20
13.7202
 30
0.0
 10
-75.5324
 20
15.6721
 30
0.0
 10
-73.4987
 20
17.6127
 30
0.0
 10
-70.5569
 20
19.2468
 30
0.0
 10
-70.5569
 20
19.2468
 30
0.0
 10
-70.5569
 20
19.2468
 30
0.0
 10
-70.5569
 20
24.4894
 30
0.0
 10
-70.5569
 20
24.4894
 30
0.0
 10
-70.5569
 20
24.4894
 30
0.0
 10
-73.2424
 20
26.2573
 30
0.0
 10
-75.1398
 20
27.9911
 30
0.0
 10
-77.1813
 20
30.6359
 30
0.0
  0
SPLINE
  5
AB
330
1F
100
AcDbEntity
  8
layer 1
 62
     7
100
AcDbSpline
210
0.0
220
0.0
230
1.0
 70
    11
 71
     3
 72
    20
 73
    16
 74
     0
 42
0.0000000001
 43
0.0000000001
 12
1.0
 22
0.0
 32
0.0
 13
1.0
 23
0.0
 33
0.0
 40
0.0
 40
0.0
 40
0.0
 40
0.0
 40
0.2
 40
0.2
 40
0.2
 40
0.2
 40
0.4
 40
0.4
 40
0.4
 40
0.4
 40
0.6
 40
0.6
 40
0.6
 40
0.6
 40
1.0
 40
1.0
 40
1.0
 40
1.0
 10
-74.3589
 20
8.8086
 30
0.0
 10
-72.5935
 20
8.578
 30
0.0
 10
-71.5896
 20
8.385
 30
0.0
 10
-70.557
 20
7.9643
 30
0.0
 10
-70.557
 20
7.9643
 30
0.0
 10
-70.557
 20
7.9643
 30
0.0
 10
-70.574
 20
9.5651
 30
0.0
 10
-70.574
 20
9.5651
 30
0.0
 10
-70.574
 20
9.5651
 30
0.0
 10
-71.4361
 20
9.2664
 30
0.0
 10
-72.529
 20
9.0663
 30
0.0
 10
-74.359
 20
8.8086
 30
0.0
 10
-74.359
 20
8.8086
 30
0.0
 10
-74.359
 20
8.8086
 30
0.0
 10
-74.3589
 20
8.8086
 30
0.0
 10
-74.3589
 20
8.8086
 30
0.0
  0
SPLINE
  5
AC
330
1F
100
AcDbEntity
  8
layer 1
 62
     7
100
AcDbSpline
210
0.0
220
0.0
230
1.0
 70
    11
 71
     3
 72
    20
 73
    16
 74
     0
 42
0.0000000001
 43
0.0000000001
 12
1.0
 22
0.0
 32
0.0
 13
1.0
 23
0.0
 33
0.0
 40
0.0
 40
0.0
 40
0.0
 40
0.0
 40
0.2
 40
0.2
 40
0.2
 40
0.2
 40
0.4
 40
0.4
 40
0.4
 40
0.4
 40
0.6
 40
0.6
 40
0.6
 40
0.6
 40
1.0
 40
1.0
 40
1.0
 40
1.0
 10
-77.1813
 20
4.4831
 30
0.0
 10
-74.7149
 20
-0.5384
 30
0.0
 10
-75.2852
 20
-8.8985
 30
0.0
 10
-76.8658
 20
-12.4326
 30
0.0
 10
-76.8658
 20
-12.4326
 30
0.0
 10
-75.5324
 20
-10.4807
 30
0.0
 10
-73.4987
 20
-8.5402
 30
0.0
 10
-70.5569
 20
-6.906
 30
0.0
 10
-70.5569
 20
-6.906
 30
0.0
 10
-70.5569
 20
-6.906
 30
0.0
 10
-70.5569
 20
-1.6634
 30
0.0
 10
-70.5569
 20
-1.6634
 30
0.0
 10
-70.5569
 20
-1.6634
 30
0.0
 10
-73.2424
 20
0.1044
 30
0.0
 10
-75.1398
 20
1.8383
 30
0.0
 10
-77.1813
 20
4.4831
 30
0.0
  0
SPLINE
  5
AD
330
1F
100
AcDbEntity
  8
layer 1
 62
     7
100
AcDbSpline
210
0.0
220
0.0
230
1.0
 70
    11
 71
     3
 72
    20
 73
    16
 74
     0
 42
0.0000000001
 43
0.0000000001
 12
1.0
 22
0.0
 32
0.0
 13
1.0
 23
0.0
 33
0.0
 40
0.0
 40
0.0
 40
0.0
 40
0.0
 40
0.2
 40
0.2
 40
0.2
 40
0.2
 40
0.4
 40
0.4
 40
0.4
 40
0.4
 40
0.6
 40
0.6
 40
0.6
 40
0.6
 40
1.0
 40
1.0
 40
1.0
 40
1.0
 10
-74.3589
 20
-17.2849
 30
0.0
 10
-72.5935
 20
-17.5154
 30
0.0
 10
-71.5896
 20
-17.7084
 30
0.0
 10
-70.557
 20
-18.1292
 30
0.0
 10
-70.557
 20
-18.1292
 30
0.0
 10
-70.557
 20
-18.1292
 30
0.0
 10
-70.574
 20
-16.5283
 30
0.0
 10
-70.574
 20
-16.5283
 30
0.0
 10
-70.574
 20
-16.5283
 30
0.0
 10
-71.4361
 20
-16.827
 30
0.0
 10
-72.529
 20
-17.0272
 30
0.0
 10
-74.359
 20
-17.2849
 30
0.0
 10
-74.359
 20
-17.2849
 30
0.0
 10
-74.359
 20
-17.2849
 30
0.0
 10
-74.3589
 20
-17.2849
 30
0.0
 10
-74.3589
 20
-17.2849
 30
0.0
  0
SPLINE
  5
AE
330
1F
100
AcDbEntity
  8
layer 1
 62
     7
100
AcDbSpline
210
0.0
220
0.0
230
1.0
 70
    11
 71
     3
 72
    20
 73
    16
 74
     0
 42
0.0000000001
 43
0.0000000001
 12
1.0
 22
0.0
 32
0.0
 13
1.0
 23
0.0
 33
0.0
 40
0.0
 40
0.0
 40
0.0
 40
0.0
 40
0.2
 40
0.2
 40
0.2
 40
0.2
 40
0.4
 40
0.4
 40
0.4
 40
0.4
 40
0.6
 40
0.6
 40
0.6
 40
0.6
 40
1.0
 40
1.0
 40
1.0
 40
1.0
 10
-77.1813
 20
-21.6104
 30
0.0
 10
-74.7149
 20
-26.6318
 30
0.0
 10
-75.2852
 20
-34.992
 30
0.0
 10
-76.8658
 20
-38.526
 30
0.0
 10
-76.8658
 20
-38.526
 30
0.0
 10
-75.5324
 20
-36.5741
 30
0.0
 10
-73.4987
 20
-34.6336
 30
0.0
 10
-70.5569
 20
-32.9995
 30
0.0
 10
-70.5569
 20
-32.9995
 30
0.0
 10
-70.5569
 20
-32.9995
 30
0.0
 10
-70.5569
 20
-27.7568
 30
0.0
 10
-70.5569
 20
-27.7568
 30
0.0
 10
-70.5569
 20
-27.7568
 30
0.0
 10
-73.2424
 20
-25.989
 30
0.0
 10
-75.1398
 20
-24.2551
 30
0.0
 10
-77.1813
 20
-21.6104
 30
0.0
  0
SPLINE
  5
AF
330
1F
100
AcDbEntity
  8
layer 1
 62
     7
100
AcDbSpline
210
0.0
220
0.0
230
1.0
 70
    11
 71
     3
 72
    20
 73
    16
 74
     0
 42
0.0000000001
 43
0.0000000001
 12
1.0
 22
0.0
 32
0.0
 13
1.0
 23
0.0
 33
0.0
 40
0.0
 40
0.0
 40
0.0
 40
0.0
 40
0.2
 40
0.2
 40
0.2
 40
0.2
 40
0.4
 40
0.4
 40
0.4
 40
0.4
 40
0.6
 40
0.6
 40
0.6
 40
0.6
 40
1.0
 40
1.0
 40
1.0
 40
1.0
 10
-74.3589
 20
-43.497
 30
0.0
 10
-72.5935
 20
-43.7275
 30
0.0
 10
-71.5896
 20
-43.9205
 30
0.0
 10
-70.557
 20
-44.3413
 30
0.0
 10
-70.557
 20
-44.3413
 30
0.0
 10
-70.557
 20
-44.3413
 30
0.0
 10
-70.574
 20
-42.7404
 30
0.0
 10
-70.574
 20
-42.7404
 30
0.0
 10
-70.574
 20
-42.7404
 30
0.0
 10
-71.4361
 20
-43.0391
 30
0.0
 10
-72.529
 20
-43.2393
 30
0.0
 10
-74.359
 20
-43.497
 30
0.0
 10
-74.359
 20
-43.497
 30
0.0
 10
-74.359
 20
-43.497
 30
0.0
 10
-74.3589
 20
-43.497
 30
0.0
 10
-74.3589
 20
-43.497
 30
0.0
  0
SPLINE
  5
B0
330
1F
100
AcDbEntity
  8
layer 1
 62
     7
100
AcDbSpline
210
0.0
220
0.0
230
1.0
 70
    11
 71
     3
 72
    20
 73
    16
 74
     0
 42
0.0000000001
 43
0.0000000001
 12
1.0
 22
0.0
 32
0.0
 13
1.0
 23
0.0
 33
0.0
 40
0.0
 40
0.0
 40
0.0
 40
0.0
 40
0.2
 40
0.2
 40
0.2
 40
0.2
 40
0.4
 40
0.4
 40
0.4
 40
0.4
 40
0.6
 40
0.6
 40
0.6
 40
0.6
 40
1.0
 40
1.0
 40
1.0
 40
1.0
 10
-77.1813
 20
-47.8225
 30
0.0
 10
-74.7149
 20
-52.844
 30
0.0
 10
-75.2852
 20
-61.2041
 30
0.0
 10
-76.8658
 20
-64.7381
 30
0.0
 10
-76.8658
 20
-64.7381
 30
0.0
 10
-75.5324
 20
-62.7862
 30
0.0
 10
-73.4987
 20
-60.8457
 30
0.0
 10
-70.5569
 20
-59.2116
 30
0.0
 10
-70.5569
 20
-59.2116
 30
0.0
 10
-70.5569
 20
-59.2116
 30
0.0
 10
-70.5569
 20
-53.9689
 30
0.0
 10
-70.5569
 20
-53.9689
 30
0.0
 10
-70.5569
 20
-53.9689
 30
0.0
 10
-73.2424
 20
-52.2011
 30
0.0
 10
-75.1398
 20
-50.4672
 30
0.0
 10
-77.1813
 20
-47.8225
 30
0.0
  0
SPLINE
  5
B1
330
1F
100
AcDbEntity
  8
layer 1
 62
     7
100
AcDbSpline
210
0.0
220
0.0
230
1.0
 70
    11
 71
     3
 72
    20
 73
    16
 74
     0
 42
0.0000000001
 43
0.0000000001
 12
1.0
 22
0.0
 32
0.0
 13
1.0
 23
0.0
 33
0.0
 40
0.0
 40
0.0
 40
0.0
 40
0.0
 40
0.2
 40
0.2
 40
0.2
 40
0.2
 40
0.4
 40
0.4
 40
0.4
 40
0.4
 40
0.6
 40
0.6
 40
0.6
 40
0.6
 40
1.0
 40
1.0
 40
1.0
 40
1.0
 10
-74.3589
 20
-69.6498
 30
0.0
 10
-72.5935
 20
-69.8804
 30
0.0
 10
-71.5896
 20
-70.0733
 30
0.0
 10
-70.557
 20
-70.4941
 30
0.0
 10
-70.557
 20
-70.4941
 30
0.0
 10
-70.557
 20
-70.4941
 30
0.0
 10
-70.574
 20
-68.8933
 30
0.0
 10
-70.574
 20
-68.8933
 30
0.0
 10
-70.574
 20
-68.8933
 30
0.0
 10
-71.4361
 20
-69.192
 30
0.0
 10
-72.529
 20
-69.3921
 30
0.0
 10
-74.359
 20
-69.6498
 30
0.0
 10
-74.359
 20
-69.6498
 30
0.0
 10
-74.359
 20
-69.6498
 30
0.0
 10
-74.3589
 20
-69.6498
 30
0.0
 10
-74.3589
 20
-69.6498
 30
0.0
  0
SPLINE
  5
B2
330
1F
100
AcDbEntity
  8
layer 1
 62
     7
100
AcDbSpline
210
0.0
220
0.0
230
1.0
 70
    11
 71
     3
 72
    20
 73
    16
 74
     0
 42
0.0000000001
 43
0.0000000001
 12
1.0
 22
0.0
 32
0.0
 13
1.0
 23
0.0
 33
0.0
 40
0.0
 40
0.0
 40
0.0
 40
0.0
 40
0.2
 40
0.2
 40
0.2
 40
0.2
 40
0.4
 40
0.4
 40
0.4
 40
0.4
 40
0.6
 40
0.6
 40
0.6
 40
0.6
 40
1.0
 40
1.0
 40
1.0
 40
1.0
 10
-77.1813
 20
-73.9753
 30
0.0
 10
-74.7149
 20
-78.9968
 30
0.0
 10
-75.2852
 20
-87.3569
 30
0.0
 10
-76.8658
 20
-90.891
 30
0.0
 10
-76.8658
 20
-90.891
 30
0.0
 10
-75.5324
 20
-88.9391
 30
0.0
 10
-73.4987
 20
-86.9985
 30
0.0
 10
-70.5569
 20
-85.3644
 30
0.0
 10
-70.5569
 20
-85.3644
 30
0.0
 10
-70.5569
 20
-85.3644
 30
0.0
 10
-70.5569
 20
-80.1218
 30
0.0
 10
-70.5569
 20
-80.1218
 30
0.0
 10
-70.5569
 20
-80.1218
 30
0.0
 10
-73.2424
 20
-78.3539
 30
0.0
 10
-75.1398
 20
-76.6201
 30
0.0
 10
-77.1813
 20
-73.9753
 30
0.0
  0
SPLINE
  5
B3
330
1F
100
AcDbEntity
  8
layer 1
 62
     7
100
AcDbSpline
210
0.0
220
0.0
230
1.0
 70
    11
 71
     3
 72
    20
 73
    16
 74
     0
 42
0.0000000001
 43
0.0000000001
 12
1.0
 22
0.0
 32
0.0
 13
1.0
 23
0.0
 33
0.0
 40
0.0
 40
0.0
 40
0.0
 40
0.0
 40
0.2
 40
0.2
 40
0.2
 40
0.2
 40
0.4
 40
0.4
 40
0.4
 40
0.4
 40
0.6
 40
0.6
 40
0.6
 40
0.6
 40
1.0
 40
1.0
 40
1.0
 40
1.0
 10
-74.3589
 20
-95.8027
 30
0.0
 10
-72.5935
 20
-96.0332
 30
0.0
 10
-71.5896
 20
-96.2262
 30
0.0
 10
-70.557
 20
-96.6469
 30
0.0
 10
-70.557
 20
-96.6469
 30
0.0
 10
-70.557
 20
-96.6469
 30
0.0
 10
-70.574
 20
-95.0461
 30
0.0
 10
-70.574
 20
-95.0461
 30
0.0
 10
-70.574
 20
-95.0461
 30
0.0
 10
-71.4361
 20
-95.3448
 30
0.0
 10
-72.529
 20
-95.5449
 30
0.0
 10
-74.359
 20
-95.8027
 30
0.0
 10
-74.359
 20
-95.8027
 30
0.0
 10
-74.359
 20
-95.8027
 30
0.0
 10
-74.3589
 20
-95.8027
 30
0.0
 10
-74.3589
 20
-95.8027
 30
0.0
  0
ENDSEC
  0
SECTION
  2
OBJECTS
  0
DICTIONARY
  5
C
330
0
100
AcDbDictionary
281
     1
  3
ACAD_GROUP
350
D
  3
ACAD_LAYOUT
350
1A
  3
ACAD_MATERIAL
350
3B
  3
ACAD_MLEADERSTYLE
350
D6
  3
ACAD_MLINESTYLE
350
17
  3
ACAD_PLOTSETTINGS
350
19
  3
ACAD_PLOTSTYLENAME
350
E
  3
ACAD_TABLESTYLE
350
D5
  3
ACAD_VISUALSTYLE
350
2A
  0
DICTIONARY
  5
D
102
{ACAD_REACTORS
330
C
102
}
330
C
100
AcDbDictionary
281
     1
  0
DICTIONARY
  5
1A
102
{ACAD_REACTORS
330
C
102
}
330
C
100
AcDbDictionary
281
     1
  3
Layout1
350
1E
  3
Layout2
350
26
  3
Model
350
22
  0
DICTIONARY
  5
3B
102
{ACAD_REACTORS
330
C
102
}
330
C
100
AcDbDictionary
281
     1
  3
ByBlock
350
3D
  3
ByLayer
350
3C
  3
Global
350
3E
  0
DICTIONARY
  5
D6
102
{ACAD_REACTORS
330
C
102
}
330
C
100
AcDbDictionary
281
     1
  0
DICTIONARY
  5
17
102
{ACAD_REACTORS
330
C
102
}
330
C
100
AcDbDictionary
281
     1
  3
Standard
350
18
  0
DICTIONARY
  5
19
102
{ACAD_REACTORS
330
C
102
}
330
C
100
AcDbDictionary
281
     1
  0
ACDBDICTIONARYWDFLT
  5
E
102
{ACAD_REACTORS
330
C
102
}
330
C
100
AcDbDictionary
281
     1
  3
Normal
350
F
100
AcDbDictionaryWithDefault
340
F
  0
DICTIONARY
  5
D5
102
{ACAD_REACTORS
330
C
102
}
330
C
100
AcDbDictionary
281
     1
  0
DICTIONARY
  5
2A
102
{ACAD_REACTORS
330
C
102
}
330
C
100
AcDbDictionary
281
     1
  3
2dWireframe
350
2F
  3
3D Hidden
350
31
  3
3dWireframe
350
30
  3
Basic
350
32
  3
Brighten
350
36
  3
ColorChange
350
3A
  3
Conceptual
350
34
  3
Dim
350
35
  3
Facepattern
350
39
  3
Flat
350
2B
  3
FlatWithEdges
350
2C
  3
Gouraud
350
2D
  3
GouraudWithEdges
350
2E
  3
Linepattern
350
38
  3
Realistic
350
33
  3
Thicken
350
37
  0
LAYOUT
  5
1E
102
{ACAD_REACTORS
330
1A
102
}
330
1A
100
AcDbPlotSettings
  1

  2
none_device
  4

  6

 40
0.0
 41
0.0
 42
0.0
 43
0.0
 44
0.0
 45
0.0
 46
0.0
 47
0.0
 48
0.0
 49
0.0
140
0.0
141
0.0
142
1.0
143
1.0
 70
   688
 72
     0
 73
     0
 74
     5
  7

 75
    16
 76
     0
 77
     2
 78
   300
147
1.0
148
0.0
149
0.0
100
AcDbLayout
  1
Layout1
 70
     1
 71
     1
 10
0.0
 20
0.0
 11
12.0
 21
9.0
 12
0.0
 22
0.0
 32
0.0
 14
1.000000000000000E+20
 24
1.000000000000000E+20
 34
1.000000000000000E+20
 15
-1.000000000000000E+20
 25
-1.000000000000000E+20
 35
-1.000000000000000E+20
146
0.0
 13
0.0
 23
0.0
 33
0.0
 16
1.0
 26
0.0
 36
0.0
 17
0.0
 27
1.0
 37
0.0
 76
     0
330
1B
  0
LAYOUT
  5
26
102
{ACAD_REACTORS
330
1A
102
}
330
1A
100
AcDbPlotSettings
  1

  2
none_device
  4

  6

 40
0.0
 41
0.0
 42
0.0
 43
0.0
 44
0.0
 45
0.0
 46
0.0
 47
0.0
 48
0.0
 49
0.0
140
0.0
141
0.0
142
1.0
143
1.0
 70
   688
 72
     0
 73
     0
 74
     5
  7

 75
    16
 76
     0
 77
     2
 78
   300
147
1.0
148
0.0
149
0.0
100
AcDbLayout
  1
Layout2
 70
     1
 71
     2
 10
0.0
 20
0.0
 11
0.0
 21
0.0
 12
0.0
 22
0.0
 32
0.0
 14
0.0
 24
0.0
 34
0.0
 15
0.0
 25
0.0
 35
0.0
146
0.0
 13
0.0
 23
0.0
 33
0.0
 16
1.0
 26
0.0
 36
0.0
 17
0.0
 27
1.0
 37
0.0
 76
     0
330
23
  0
LAYOUT
  5
22
102
{ACAD_REACTORS
330
1A
102
}
330
1A
100
AcDbPlotSettings
  1

  2
none_device
  4

  6

 40
0.0
 41
0.0
 42
0.0
 43
0.0
 44
0.0
 45
0.0
 46
0.0
 47
0.0
 48
0.0
 49
0.0
140
0.0
141
0.0
142
1.0
143
1.0
 70
  1712
 72
     0
 73
     0
 74
     0
  7

 75
     0
 76
     0
 77
     2
 78
   300
147
1.0
148
0.0
149
0.0
100
AcDbLayout
  1
Model
 70
     1
 71
     0
 10
0.0
 20
0.0
 11
12.0
 21
9.0
 12
0.0
 22
0.0
 32
0.0
 14
-187.0362
 24
-114.2454
 34
0.0
 15
-62.9083
 25
131.839
 35
0.0
146
0.0
 13
0.0
 23
0.0
 33
0.0
 16
1.0
 26
0.0
 36
0.0
 17
0.0
 27
1.0
 37
0.0
 76
     0
330
1F
331
29
  0
MATERIAL
  5
3D
102
{ACAD_REACTORS
330
3B
102
}
330
3B
100
AcDbMaterial
  1
ByBlock
 72
     1
 94
      127
  0
MATERIAL
  5
3C
102
{ACAD_REACTORS
330
3B
102
}
330
3B
100
AcDbMaterial
  1
ByLayer
 72
     1
 94
      127
  0
MATERIAL
  5
3E
102
{ACAD_REACTORS
330
3B
102
}
330
3B
100
AcDbMaterial
  1
Global
 72
     1
 94
      127
  0
MLINESTYLE
  5
18
102
{ACAD_REACTORS
330
17
102
}
330
17
100
AcDbMlineStyle
  2
Standard
 70
     0
  3

 62
   256
 51
90.0
 52
90.0
 71
     2
 49
0.5
 62
   256
  6
BYLAYER
 49
-0.5
 62
   256
  6
BYLAYER
  0
ACDBPLACEHOLDER
  5
F
102
{ACAD_REACTORS
330
E
102
}
330
E
  0
VISUALSTYLE
  5
2F
102
{ACAD_REACTORS
330
2A
102
}
102
{ACAD_XDICTIONARY
360
BD
102
}
330
2A
100
AcDbVisualStyle
  2
2dWireframe
 70
     4
 71
     0
 72
     2
 73
     0
 90
        0
 40
-0.6
 41
-30.0
 62
     5
 63
     7
421
 16777215
 74
     1
 91
        4
 64
     7
 65
   257
 75
     1
175
     1
 42
1.0
 92
        0
 66
   257
 43
1.0
 76
     1
 77
     6
 78
     2
 67
     7
 79
     5
170
     0
171
     0
290
     0
174
     0
 93
        1
 44
0.0
173
     0
291
     0
 45
0.0
  0
VISUALSTYLE
  5
31
102
{ACAD_REACTORS
330
2A
102
}
102
{ACAD_XDICTIONARY
360
C1
102
}
330
2A
100
AcDbVisualStyle
  2
3D Hidden
 70
     6
 71
     1
 72
     2
 73
     2
 90
        0
 40
-0.6
 41
-30.0
 62
     5
 63
     7
421
 16777215
 74
     2
 91
        2
 64
     7
 65
   257
 75
     2
175
     1
 42
40.0
 92
        0
 66
   257
 43
1.0
 76
     1
 77
     6
 78
     2
 67
     7
 79
     3
170
     0
171
     0
290
     0
174
     0
 93
        1
 44
0.0
173
     0
291
     0
 45
0.0
  0
VISUALSTYLE
  5
30
102
{ACAD_REACTORS
330
2A
102
}
102
{ACAD_XDICTIONARY
360
BF
102
}
330
2A
100
AcDbVisualStyle
  2
3dWireframe
 70
     5
 71
     0
 72
     2
 73
     0
 90
        0
 40
-0.6
 41
-30.0
 62
     5
 63
     7
421
 16777215
 74
     1
 91
        4
 64
     7
 65
   257
 75
     1
175
     1
 42
1.0
 92
        0
 66
   257
 43
1.0
 76
     1
 77
     6
 78
     2
 67
     7
 79
     5
170
     0
171
     0
290
     0
174
     0
 93
        1
 44
0.0
173
     0
291
     0
 45
0.0
  0
VISUALSTYLE
  5
32
102
{ACAD_REACTORS
330
2A
102
}
102
{ACAD_XDICTIONARY
360
C3
102
}
330
2A
100
AcDbVisualStyle
  2
Basic
 70
     7
 71
     1
 72
     0
 73
     1
 90
        0
 40
-0.6
 41
-30.0
 62
     5
 63
     7
421
 16777215
 74
     0
 91
        4
 64
     7
 65
   257
 75
     1
175
     1
 42
1.0
 92
        8
 66
     7
 43
1.0
 76
     1
 77
     6
 78
     2
 67
     7
 79
     5
170
     0
171
     0
290
     0
174
     0
 93
        1
 44
0.0
173
     0
291
     1
 45
0.0
  0
VISUALSTYLE
  5
36
102
{ACAD_REACTORS
330
2A
102
}
102
{ACAD_XDICTIONARY
360
CB
102
}
330
2A
100
AcDbVisualStyle
  2
Brighten
 70
    12
 71
     2
 72
     2
 73
     0
 90
        0
 40
-0.6
 41
-30.0
 62
     5
 63
     7
421
 16777215
 74
     1
 91
        4
 64
     7
 65
   257
 75
     1
175
     1
 42
1.0
 92
        8
 66
     7
 43
1.0
 76
     1
 77
     6
 78
     2
 67
     7
 79
     5
170
     0
171
     0
290
     0
174
     0
 93
        1
 44
50.0
173
     0
291
     1
 45
0.0
  0
VISUALSTYLE
  5
3A
102
{ACAD_REACTORS
330
2A
102
}
102
{ACAD_XDICTIONARY
360
D3
102
}
330
2A
100
AcDbVisualStyle
  2
ColorChange
 70
    16
 71
     2
 72
     2
 73
     3
 90
        0
 40
-0.6
 41
-30.0
 62
     5
 63
     8
421
  8421504
 74
     1
 91
        4
 64
     7
 65
   257
 75
     1
175
     1
 42
1.0
 92
        8
 66
     8
424
  8421504
 43
1.0
 76
     1
 77
     6
 78
     2
 67
     7
 79
     5
170
     0
171
     0
290
     0
174
     0
 93
        1
 44
0.0
173
     0
291
     1
 45
0.0
  0
VISUALSTYLE
  5
34
102
{ACAD_REACTORS
330
2A
102
}
102
{ACAD_XDICTIONARY
360
C7
102
}
330
2A
100
AcDbVisualStyle
  2
Conceptual
 70
     9
 71
     3
 72
     2
 73
     0
 90
        0
 40
-0.6
 41
-30.0
 62
     5
 63
     7
421
 16777215
 74
     2
 91
        2
 64
     7
 65
   257
 75
     1
175
     1
 42
40.0
 92
        8
 66
     7
 43
1.0
 76
     1
 77
     6
 78
     2
 67
     7
 79
     3
170
     0
171
     0
290
     0
174
     0
 93
        1
 44
0.0
173
     0
291
     0
 45
0.0
  0
VISUALSTYLE
  5
35
102
{ACAD_REACTORS
330
2A
102
}
102
{ACAD_XDICTIONARY
360
C9
102
}
330
2A
100
AcDbVisualStyle
  2
Dim
 70
    11
 71
     2
 72
     2
 73
     0
 90
        0
 40
-0.6
 41
-30.0
 62
     5
 63
     7
421
 16777215
 74
     1
 91
        4
 64
     7
 65
   257
 75
     1
175
     1
 42
1.0
 92
        8
 66
     7
 43
1.0
 76
     1
 77
     6
 78
     2
 67
     7
 79
     5
170
     0
171
     0
290
     0
174
     0
 93
        1
 44
-50.0
173
     0
291
     1
 45
0.0
  0
VISUALSTYLE
  5
39
102
{ACAD_REACTORS
330
2A
102
}
102
{ACAD_XDICTIONARY
360
D1
102
}
330
2A
100
AcDbVisualStyle
  2
Facepattern
 70
    15
 71
     2
 72
     2
 73
     0
 90
        0
 40
-0.6
 41
-30.0
 62
     5
 63
     7
421
 16777215
 74
     1
 91
        4
 64
     7
 65
   257
 75
     1
175
     1
 42
1.0
 92
        8
 66
     7
 43
1.0
 76
     1
 77
     6
 78
     2
 67
     7
 79
     5
170
     0
171
     0
290
     0
174
     0
 93
        1
 44
0.0
173
     0
291
     1
 45
0.0
  0
VISUALSTYLE
  5
2B
102
{ACAD_REACTORS
330
2A
102
}
102
{ACAD_XDICTIONARY
360
B5
102
}
330
2A
100
AcDbVisualStyle
  2
Flat
 70
     0
 71
     2
 72
     1
 73
     1
 90
        2
 40
-0.6
 41
30.0
 62
     5
 63
     7
421
 16777215
 74
     0
 91
        4
 64
     7
 65
   257
 75
     1
175
     1
 42
1.0
 92
        8
 66
     7
 43
1.0
 76
     1
 77
     6
 78
     2
 67
     7
 79
     5
170
     0
171
     0
290
     0
174
     0
 93
       13
 44
0.0
173
     0
291
     1
 45
0.0
  0
VISUALSTYLE
  5
2C
102
{ACAD_REACTORS
330
2A
102
}
102
{ACAD_XDICTIONARY
360
B7
102
}
330
2A
100
AcDbVisualStyle
  2
FlatWithEdges
 70
     1
 71
     2
 72
     1
 73
     1
 90
        2
 40
-0.6
 41
30.0
 62
     5
 63
     7
421
 16777215
 74
     1
 91
        4
 64
     7
 65
   257
 75
     1
175
     1
 42
1.0
 92
        0
 66
   257
 43
1.0
 76
     1
 77
     6
 78
     2
 67
     7
 79
     5
170
     0
171
     0
290
     0
174
     0
 93
       13
 44
0.0
173
     0
291
     1
 45
0.0
  0
VISUALSTYLE
  5
2D
102
{ACAD_REACTORS
330
2A
102
}
102
{ACAD_XDICTIONARY
360
B9
102
}
330
2A
100
AcDbVisualStyle
  2
Gouraud
 70
     2
 71
     2
 72
     2
 73
     1
 90
        2
 40
-0.6
 41
30.0
 62
     5
 63
     7
421
 16777215
 74
     0
 91
        4
 64
     7
 65
   257
 75
     1
175
     1
 42
1.0
 92
        0
 66
     7
 43
1.0
 76
     1
 77
     6
 78
     2
 67
     7
 79
     5
170
     0
171
     0
290
     0
174
     0
 93
       13
 44
0.0
173
     0
291
     1
 45
0.0
  0
VISUALSTYLE
  5
2E
102
{ACAD_REACTORS
330
2A
102
}
102
{ACAD_XDICTIONARY
360
BB
102
}
330
2A
100
AcDbVisualStyle
  2
GouraudWithEdges
 70
     3
 71
     2
 72
     2
 73
     1
 90
        2
 40
-0.6
 41
30.0
 62
     5
 63
     7
421
 16777215
 74
     1
 91
        4
 64
     7
 65
   257
 75
     1
175
     1
 42
1.0
 92
        0
 66
   257
 43
1.0
 76
     1
 77
     6
 78
     2
 67
     7
 79
     5
170
     0
171
     0
290
     0
174
     0
 93
       13
 44
0.0
173
     0
291
     1
 45
0.0
  0
VISUALSTYLE
  5
38
102
{ACAD_REACTORS
330
2A
102
}
102
{ACAD_XDICTIONARY
360
CF
102
}
330
2A
100
AcDbVisualStyle
  2
Linepattern
 70
    14
 71
     2
 72
     2
 73
     0
 90
        0
 40
-0.6
 41
-30.0
 62
     5
 63
     7
421
 16777215
 74
     1
 91
        4
 64
     7
 65
   257
 75
     7
175
     7
 42
1.0
 92
        8
 66
     7
 43
1.0
 76
     1
 77
     6
 78
     2
 67
     7
 79
     5
170
     0
171
     0
290
     0
174
     0
 93
        1
 44
0.0
173
     0
291
     1
 45
0.0
  0
VISUALSTYLE
  5
33
102
{ACAD_REACTORS
330
2A
102
}
102
{ACAD_XDICTIONARY
360
C5
102
}
330
2A
100
AcDbVisualStyle
  2
Realistic
 70
     8
 71
     2
 72
     2
 73
     0
 90
        0
 40
-0.6
 41
-30.0
 62
     5
 63
     7
421
 16777215
 74
     1
 91
        0
 64
     7
 65
   257
 75
     1
175
     1
 42
1.0
 92
        8
 66
     8
424
  7895160
 43
1.0
 76
     1
 77
     6
 78
     2
 67
     7
 79
     5
170
     0
171
     0
290
     0
174
     0
 93
       13
 44
0.0
173
     0
291
     0
 45
0.0
  0
VISUALSTYLE
  5
37
102
{ACAD_REACTORS
330
2A
102
}
102
{ACAD_XDICTIONARY
360
CD
102
}
330
2A
100
AcDbVisualStyle
  2
Thicken
 70
    13
 71
     2
 72
     2
 73
     0
 90
        0
 40
-0.6
 41
-30.0
 62
     5
 63
     7
421
 16777215
 74
     1
 91
        4
 64
     7
 65
   257
 75
     1
175
     1
 42
1.0
 92
       12
 66
     7
 43
1.0
 76
     1
 77
     6
 78
     2
 67
     7
 79
     5
170
     0
171
     0
290
     0
174
     0
 93
        1
 44
0.0
173
     0
291
     1
 45
0.0
  0
DICTIONARY
  5
BD
330
2F
100
AcDbDictionary
280
     1
281
     1
  3
ACAD_XREC_ROUNDTRIP
360
BE
  0
DICTIONARY
  5
C1
330
31
100
AcDbDictionary
280
     1
281
     1
  3
ACAD_XREC_ROUNDTRIP
360
C2
  0
DICTIONARY
  5
BF
330
30
100
AcDbDictionary
280
     1
281
     1
  3
ACAD_XREC_ROUNDTRIP
360
C0
  0
DICTIONARY
  5
C3
330
32
100
AcDbDictionary
280
     1
281
     1
  3
ACAD_XREC_ROUNDTRIP
360
C4
  0
DICTIONARY
  5
CB
330
36
100
AcDbDictionary
280
     1
281
     1
  3
ACAD_XREC_ROUNDTRIP
360
CC
  0
DICTIONARY
  5
D3
330
3A
100
AcDbDictionary
280
     1
281
     1
  3
ACAD_XREC_ROUNDTRIP
360
D4
  0
DICTIONARY
  5
C7
330
34
100
AcDbDictionary
280
     1
281
     1
  3
ACAD_XREC_ROUNDTRIP
360
C8
  0
DICTIONARY
  5
C9
330
35
100
AcDbDictionary
280
     1
281
     1
  3
ACAD_XREC_ROUNDTRIP
360
CA
  0
DICTIONARY
  5
D1
330
39
100
AcDbDictionary
280
     1
281
     1
  3
ACAD_XREC_ROUNDTRIP
360
D2
  0
DICTIONARY
  5
B5
330
2B
100
AcDbDictionary
280
     1
281
     1
  3
ACAD_XREC_ROUNDTRIP
360
B6
  0
DICTIONARY
  5
B7
330
2C
100
AcDbDictionary
280
     1
281
     1
  3
ACAD_XREC_ROUNDTRIP
360
B8
  0
DICTIONARY
  5
B9
330
2D
100
AcDbDictionary
280
     1
281
     1
  3
ACAD_XREC_ROUNDTRIP
360
BA
  0
DICTIONARY
  5
BB
330
2E
100
AcDbDictionary
280
     1
281
     1
  3
ACAD_XREC_ROUNDTRIP
360
BC
  0
DICTIONARY
  5
CF
330
38
100
AcDbDictionary
280
     1
281
     1
  3
ACAD_XREC_ROUNDTRIP
360
D0
  0
DICTIONARY
  5
C5
330
33
100
AcDbDictionary
280
     1
281
     1
  3
ACAD_XREC_ROUNDTRIP
360
C6
  0
DICTIONARY
  5
CD
330
37
100
AcDbDictionary
280
     1
281
     1
  3
ACAD_XREC_ROUNDTRIP
360
CE
  0
XRECORD
  5
BE
102
{ACAD_REACTORS
330
BD
102
}
330
BD
100
AcDbXrecord
280
     1
102
RTVSPropertyOp0
 70
     1
102
RTVSPropertyOp1
 70
     1
102
RTVSPropertyOp2
 70
     1
102
RTVSPropertyOp3
 70
     1
102
RTVSPropertyOp4
 70
     1
102
RTVSPropertyOp5
 70
     1
102
RTVSPropertyOp6
 70
     1
102
RTVSPropertyOp7
 70
     1
102
RTVSPropertyOp8
 70
     1
102
RTVSPropertyOp9
 70
     1
102
RTVSPropertyOp10
 70
     1
102
RTVSPropertyOp11
 70
     1
102
RTVSPropertyOp12
 70
     1
102
RTVSPropertyOp13
 70
     1
102
RTVSPropertyOp14
 70
     1
102
RTVSPropertyOp15
 70
     1
102
RTVSPropertyOp16
 70
     1
102
RTVSPropertyOp17
 70
     1
102
RTVSPropertyOp18
 70
     1
102
RTVSPropertyOp19
 70
     1
102
RTVSPropertyOp20
 70
     1
102
RTVSPropertyOp21
 70
     1
102
RTVSPropertyOp22
 70
     1
102
RTVSPropertyOp23
 70
     1
102
RTVSPropertyOp24
 70
     1
102
RTVSPropertyOp25
 70
     1
102
RTVSPropertyOp26
 70
     1
102
RTVSPropertyOp27
 70
     1
102
RTVSPropertyOp28
 70
     1
102
RTVSPropertyOp29
 70
     1
102
RTVSPropertyOp30
 70
     1
102
RTVSPropertyOp31
 70
     1
102
RTVSPropertyOp32
 70
     1
  0
XRECORD
  5
C2
102
{ACAD_REACTORS
330
C1
102
}
330
C1
100
AcDbXrecord
280
     1
102
RTVSPropertyOp0
 70
     1
102
RTVSPropertyOp1
 70
     1
102
RTVSPropertyOp2
 70
     1
102
RTVSPropertyOp3
 70
     1
102
RTVSPropertyOp4
 70
     1
102
RTVSPropertyOp5
 70
     1
102
RTVSPropertyOp6
 70
     1
102
RTVSPropertyOp7
 70
     1
102
RTVSPropertyOp8
 70
     1
102
RTVSPropertyOp9
 70
     1
102
RTVSPropertyOp10
 70
     1
102
RTVSPropertyOp11
 70
     1
102
RTVSPropertyOp12
 70
     1
102
RTVSPropertyOp13
 70
     1
102
RTVSPropertyOp14
 70
     1
102
RTVSPropertyOp15
 70
     1
102
RTVSPropertyOp16
 70
     1
102
RTVSPropertyOp17
 70
     1
102
RTVSPropertyOp18
 70
     1
102
RTVSPropertyOp19
 70
     1
102
RTVSPropertyOp20
 70
     1
102
RTVSPropertyOp21
 70
     1
102
RTVSPropertyOp22
 70
     1
102
RTVSPropertyOp23
 70
     1
102
RTVSPropertyOp24
 70
     1
102
RTVSPropertyOp25
 70
     1
102
RTVSPropertyOp26
 70
     1
102
RTVSPropertyOp27
 70
     1
102
RTVSPropertyOp28
 70
     1
102
RTVSPropertyOp29
 70
     1
102
RTVSPropertyOp30
 70
     1
102
RTVSPropertyOp31
 70
     1
102
RTVSPropertyOp32
 70
     1
  0
XRECORD
  5
C0
102
{ACAD_REACTORS
330
BF
102
}
330
BF
100
AcDbXrecord
280
     1
102
RTVSPropertyOp0
 70
     1
102
RTVSPropertyOp1
 70
     1
102
RTVSPropertyOp2
 70
     1
102
RTVSPropertyOp3
 70
     1
102
RTVSPropertyOp4
 70
     1
102
RTVSPropertyOp5
 70
     1
102
RTVSPropertyOp6
 70
     1
102
RTVSPropertyOp7
 70
     1
102
RTVSPropertyOp8
 70
     1
102
RTVSPropertyOp9
 70
     1
102
RTVSPropertyOp10
 70
     1
102
RTVSPropertyOp11
 70
     1
102
RTVSPropertyOp12
 70
     1
102
RTVSPropertyOp13
 70
     1
102
RTVSPropertyOp14
 70
     1
102
RTVSPropertyOp15
 70
     1
102
RTVSPropertyOp16
 70
     1
102
RTVSPropertyOp17
 70
     1
102
RTVSPropertyOp18
 70
     1
102
RTVSPropertyOp19
 70
     1
102
RTVSPropertyOp20
 70
     1
102
RTVSPropertyOp21
 70
     1
102
RTVSPropertyOp22
 70
     1
102
RTVSPropertyOp23
 70
     1
102
RTVSPropertyOp24
 70
     1
102
RTVSPropertyOp25
 70
     1
102
RTVSPropertyOp26
 70
     1
102
RTVSPropertyOp27
 70
     1
102
RTVSPropertyOp28
 70
     1
102
RTVSPropertyOp29
 70
     1
102
RTVSPropertyOp30
 70
     1
102
RTVSPropertyOp31
 70
     1
102
RTVSPropertyOp32
 70
     1
  0
XRECORD
  5
C4
102
{ACAD_REACTORS
330
C3
102
}
330
C3
100
AcDbXrecord
280
     1
102
RTVSPropertyOp0
 70
     1
102
RTVSPropertyOp1
 70
     1
102
RTVSPropertyOp2
 70
     1
102
RTVSPropertyOp3
 70
     1
102
RTVSPropertyOp4
 70
     1
102
RTVSPropertyOp5
 70
     1
102
RTVSPropertyOp6
 70
     1
102
RTVSPropertyOp7
 70
     1
102
RTVSPropertyOp8
 70
     1
102
RTVSPropertyOp9
 70
     1
102
RTVSPropertyOp10
 70
     1
102
RTVSPropertyOp11
 70
     1
102
RTVSPropertyOp12
 70
     1
102
RTVSPropertyOp13
 70
     1
102
RTVSPropertyOp14
 70
     1
102
RTVSPropertyOp15
 70
     1
102
RTVSPropertyOp16
 70
     1
102
RTVSPropertyOp17
 70
     1
102
RTVSPropertyOp18
 70
     1
102
RTVSPropertyOp19
 70
     1
102
RTVSPropertyOp20
 70
     1
102
RTVSPropertyOp21
 70
     1
102
RTVSPropertyOp22
 70
     1
102
RTVSPropertyOp23
 70
     1
102
RTVSPropertyOp24
 70
     1
102
RTVSPropertyOp25
 70
     1
102
RTVSPropertyOp26
 70
     1
102
RTVSPropertyOp27
 70
     1
102
RTVSPropertyOp28
 70
     1
102
RTVSPropertyOp29
 70
     1
102
RTVSPropertyOp30
 70
     1
102
RTVSPropertyOp31
 70
     1
102
RTVSPropertyOp32
 70
     1
  0
XRECORD
  5
CC
102
{ACAD_REACTORS
330
CB
102
}
330
CB
100
AcDbXrecord
280
     1
102
RTVSPropertyOp0
 70
     1
102
RTVSPropertyOp1
 70
     1
102
RTVSPropertyOp2
 70
     1
102
RTVSPropertyOp3
 70
     1
102
RTVSPropertyOp4
 70
     1
102
RTVSPropertyOp5
 70
     1
102
RTVSPropertyOp6
 70
     1
102
RTVSPropertyOp7
 70
     1
102
RTVSPropertyOp8
 70
     1
102
RTVSPropertyOp9
 70
     1
102
RTVSPropertyOp10
 70
     1
102
RTVSPropertyOp11
 70
     1
102
RTVSPropertyOp12
 70
     1
102
RTVSPropertyOp13
 70
     1
102
RTVSPropertyOp14
 70
     1
102
RTVSPropertyOp15
 70
     1
102
RTVSPropertyOp16
 70
     1
102
RTVSPropertyOp17
 70
     1
102
RTVSPropertyOp18
 70
     1
102
RTVSPropertyOp19
 70
     1
102
RTVSPropertyOp20
 70
     1
102
RTVSPropertyOp21
 70
     1
102
RTVSPropertyOp22
 70
     1
102
RTVSPropertyOp23
 70
     1
102
RTVSPropertyOp24
 70
     1
102
RTVSPropertyOp25
 70
     1
102
RTVSPropertyOp26
 70
     1
102
RTVSPropertyOp27
 70
     1
102
RTVSPropertyOp28
 70
     1
102
RTVSPropertyOp29
 70
     1
102
RTVSPropertyOp30
 70
     1
102
RTVSPropertyOp31
 70
     1
102
RTVSPropertyOp32
 70
     1
  0
XRECORD
  5
D4
102
{ACAD_REACTORS
330
D3
102
}
330
D3
100
AcDbXrecord
280
     1
102
RTVSPropertyOp0
 70
     1
102
RTVSPropertyOp1
 70
     1
102
RTVSPropertyOp2
 70
     1
102
RTVSPropertyOp3
 70
     1
102
RTVSPropertyOp4
 70
     1
102
RTVSPropertyOp5
 70
     1
102
RTVSPropertyOp6
 70
     1
102
RTVSPropertyOp7
 70
     1
102
RTVSPropertyOp8
 70
     1
102
RTVSPropertyOp9
 70
     1
102
RTVSPropertyOp10
 70
     1
102
RTVSPropertyOp11
 70
     1
102
RTVSPropertyOp12
 70
     1
102
RTVSPropertyOp13
 70
     1
102
RTVSPropertyOp14
 70
     1
102
RTVSPropertyOp15
 70
     1
102
RTVSPropertyOp16
 70
     1
102
RTVSPropertyOp17
 70
     1
102
RTVSPropertyOp18
 70
     1
102
RTVSPropertyOp19
 70
     1
102
RTVSPropertyOp20
 70
     1
102
RTVSPropertyOp21
 70
     1
102
RTVSPropertyOp22
 70
     1
102
RTVSPropertyOp23
 70
     1
102
RTVSPropertyOp24
 70
     1
102
RTVSPropertyOp25
 70
     1
102
RTVSPropertyOp26
 70
     1
102
RTVSPropertyOp27
 70
     1
102
RTVSPropertyOp28
 70
     1
102
RTVSPropertyOp29
 70
     1
102
RTVSPropertyOp30
 70
     1
102
RTVSPropertyOp31
 70
     1
102
RTVSPropertyOp32
 70
     1
  0
XRECORD
  5
C8
102
{ACAD_REACTORS
330
C7
102
}
330
C7
100
AcDbXrecord
280
     1
102
RTVSPropertyOp0
 70
     1
102
RTVSPropertyOp1
 70
     1
102
RTVSPropertyOp2
 70
     1
102
RTVSPropertyOp3
 70
     1
102
RTVSPropertyOp4
 70
     1
102
RTVSPropertyOp5
 70
     1
102
RTVSPropertyOp6
 70
     1
102
RTVSPropertyOp7
 70
     1
102
RTVSPropertyOp8
 70
     1
102
RTVSPropertyOp9
 70
     1
102
RTVSPropertyOp10
 70
     1
102
RTVSPropertyOp11
 70
     1
102
RTVSPropertyOp12
 70
     1
102
RTVSPropertyOp13
 70
     1
102
RTVSPropertyOp14
 70
     1
102
RTVSPropertyOp15
 70
     1
102
RTVSPropertyOp16
 70
     1
102
RTVSPropertyOp17
 70
     1
102
RTVSPropertyOp18
 70
     1
102
RTVSPropertyOp19
 70
     1
102
RTVSPropertyOp20
 70
     1
102
RTVSPropertyOp21
 70
     1
102
RTVSPropertyOp22
 70
     1
102
RTVSPropertyOp23
 70
     1
102
RTVSPropertyOp24
 70
     1
102
RTVSPropertyOp25
 70
     1
102
RTVSPropertyOp26
 70
     1
102
RTVSPropertyOp27
 70
     1
102
RTVSPropertyOp28
 70
     1
102
RTVSPropertyOp29
 70
     1
102
RTVSPropertyOp30
 70
     1
102
RTVSPropertyOp31
 70
     1
102
RTVSPropertyOp32
 70
     1
  0
XRECORD
  5
CA
102
{ACAD_REACTORS
330
C9
102
}
330
C9
100
AcDbXrecord
280
     1
102
RTVSPropertyOp0
 70
     1
102
RTVSPropertyOp1
 70
     1
102
RTVSPropertyOp2
 70
     1
102
RTVSPropertyOp3
 70
     1
102
RTVSPropertyOp4
 70
     1
102
RTVSPropertyOp5
 70
     1
102
RTVSPropertyOp6
 70
     1
102
RTVSPropertyOp7
 70
     1
102
RTVSPropertyOp8
 70
     1
102
RTVSPropertyOp9
 70
     1
102
RTVSPropertyOp10
 70
     1
102
RTVSPropertyOp11
 70
     1
102
RTVSPropertyOp12
 70
     1
102
RTVSPropertyOp13
 70
     1
102
RTVSPropertyOp14
 70
     1
102
RTVSPropertyOp15
 70
     1
102
RTVSPropertyOp16
 70
     1
102
RTVSPropertyOp17
 70
     1
102
RTVSPropertyOp18
 70
     1
102
RTVSPropertyOp19
 70
     1
102
RTVSPropertyOp20
 70
     1
102
RTVSPropertyOp21
 70
     1
102
RTVSPropertyOp22
 70
     1
102
RTVSPropertyOp23
 70
     1
102
RTVSPropertyOp24
 70
     1
102
RTVSPropertyOp25
 70
     1
102
RTVSPropertyOp26
 70
     1
102
RTVSPropertyOp27
 70
     1
102
RTVSPropertyOp28
 70
     1
102
RTVSPropertyOp29
 70
     1
102
RTVSPropertyOp30
 70
     1
102
RTVSPropertyOp31
 70
     1
102
RTVSPropertyOp32
 70
     1
  0
XRECORD
  5
D2
102
{ACAD_REACTORS
330
D1
102
}
330
D1
100
AcDbXrecord
280
     1
102
RTVSPropertyOp0
 70
     1
102
RTVSPropertyOp1
 70
     1
102
RTVSPropertyOp2
 70
     1
102
RTVSPropertyOp3
 70
     1
102
RTVSPropertyOp4
 70
     1
102
RTVSPropertyOp5
 70
     1
102
RTVSPropertyOp6
 70
     1
102
RTVSPropertyOp7
 70
     1
102
RTVSPropertyOp8
 70
     1
102
RTVSPropertyOp9
 70
     1
102
RTVSPropertyOp10
 70
     1
102
RTVSPropertyOp11
 70
     1
102
RTVSPropertyOp12
 70
     1
102
RTVSPropertyOp13
 70
     1
102
RTVSPropertyOp14
 70
     1
102
RTVSPropertyOp15
 70
     1
102
RTVSPropertyOp16
 70
     1
102
RTVSPropertyOp17
 70
     1
102
RTVSPropertyOp18
 70
     1
102
RTVSPropertyOp19
 70
     1
102
RTVSPropertyOp20
 70
     1
102
RTVSPropertyOp21
 70
     1
102
RTVSPropertyOp22
 70
     1
102
RTVSPropertyOp23
 70
     1
102
RTVSPropertyOp24
 70
     1
102
RTVSPropertyOp25
 70
     1
102
RTVSPropertyOp26
 70
     1
102
RTVSPropertyOp27
 70
     1
102
RTVSPropertyOp28
 70
     1
102
RTVSPropertyOp29
 70
     1
102
RTVSPropertyOp30
 70
     1
102
RTVSPropertyOp31
 70
     1
102
RTVSPropertyOp32
 70
     1
  0
XRECORD
  5
B6
102
{ACAD_REACTORS
330
B5
102
}
330
B5
100
AcDbXrecord
280
     1
102
RTVSPropertyOp0
 70
     1
102
RTVSPropertyOp1
 70
     1
102
RTVSPropertyOp2
 70
     1
102
RTVSPropertyOp3
 70
     1
102
RTVSPropertyOp4
 70
     1
102
RTVSPropertyOp5
 70
     1
102
RTVSPropertyOp6
 70
     1
102
RTVSPropertyOp7
 70
     1
102
RTVSPropertyOp8
 70
     1
102
RTVSPropertyOp9
 70
     1
102
RTVSPropertyOp10
 70
     1
102
RTVSPropertyOp11
 70
     1
102
RTVSPropertyOp12
 70
     1
102
RTVSPropertyOp13
 70
     1
102
RTVSPropertyOp14
 70
     1
102
RTVSPropertyOp15
 70
     1
102
RTVSPropertyOp16
 70
     1
102
RTVSPropertyOp17
 70
     1
102
RTVSPropertyOp18
 70
     1
102
RTVSPropertyOp19
 70
     1
102
RTVSPropertyOp20
 70
     1
102
RTVSPropertyOp21
 70
     1
102
RTVSPropertyOp22
 70
     1
102
RTVSPropertyOp23
 70
     1
102
RTVSPropertyOp24
 70
     1
102
RTVSPropertyOp25
 70
     1
102
RTVSPropertyOp26
 70
     1
102
RTVSPropertyOp27
 70
     1
102
RTVSPropertyOp28
 70
     1
102
RTVSPropertyOp29
 70
     1
102
RTVSPropertyOp30
 70
     1
102
RTVSPropertyOp31
 70
     1
102
RTVSPropertyOp32
 70
     1
  0
XRECORD
  5
B8
102
{ACAD_REACTORS
330
B7
102
}
330
B7
100
AcDbXrecord
280
     1
102
RTVSPropertyOp0
 70
     1
102
RTVSPropertyOp1
 70
     1
102
RTVSPropertyOp2
 70
     1
102
RTVSPropertyOp3
 70
     1
102
RTVSPropertyOp4
 70
     1
102
RTVSPropertyOp5
 70
     1
102
RTVSPropertyOp6
 70
     1
102
RTVSPropertyOp7
 70
     1
102
RTVSPropertyOp8
 70
     1
102
RTVSPropertyOp9
 70
     1
102
RTVSPropertyOp10
 70
     1
102
RTVSPropertyOp11
 70
     1
102
RTVSPropertyOp12
 70
     1
102
RTVSPropertyOp13
 70
     1
102
RTVSPropertyOp14
 70
     1
102
RTVSPropertyOp15
 70
     1
102
RTVSPropertyOp16
 70
     1
102
RTVSPropertyOp17
 70
     1
102
RTVSPropertyOp18
 70
     1
102
RTVSPropertyOp19
 70
     1
102
RTVSPropertyOp20
 70
     1
102
RTVSPropertyOp21
 70
     1
102
RTVSPropertyOp22
 70
     1
102
RTVSPropertyOp23
 70
     1
102
RTVSPropertyOp24
 70
     1
102
RTVSPropertyOp25
 70
     1
102
RTVSPropertyOp26
 70
     1
102
RTVSPropertyOp27
 70
     1
102
RTVSPropertyOp28
 70
     1
102
RTVSPropertyOp29
 70
     1
102
RTVSPropertyOp30
 70
     1
102
RTVSPropertyOp31
 70
     1
102
RTVSPropertyOp32
 70
     1
  0
XRECORD
  5
BA
102
{ACAD_REACTORS
330
B9
102
}
330
B9
100
AcDbXrecord
280
     1
102
RTVSPropertyOp0
 70
     1
102
RTVSPropertyOp1
 70
     1
102
RTVSPropertyOp2
 70
     1
102
RTVSPropertyOp3
 70
     1
102
RTVSPropertyOp4
 70
     1
102
RTVSPropertyOp5
 70
     1
102
RTVSPropertyOp6
 70
     1
102
RTVSPropertyOp7
 70
     1
102
RTVSPropertyOp8
 70
     1
102
RTVSPropertyOp9
 70
     1
102
RTVSPropertyOp10
 70
     1
102
RTVSPropertyOp11
 70
     1
102
RTVSPropertyOp12
 70
     1
102
RTVSPropertyOp13
 70
     1
102
RTVSPropertyOp14
 70
     1
102
RTVSPropertyOp15
 70
     1
102
RTVSPropertyOp16
 70
     1
102
RTVSPropertyOp17
 70
     1
102
RTVSPropertyOp18
 70
     1
102
RTVSPropertyOp19
 70
     1
102
RTVSPropertyOp20
 70
     1
102
RTVSPropertyOp21
 70
     1
102
RTVSPropertyOp22
 70
     1
102
RTVSPropertyOp23
 70
     1
102
RTVSPropertyOp24
 70
     1
102
RTVSPropertyOp25
 70
     1
102
RTVSPropertyOp26
 70
     1
102
RTVSPropertyOp27
 70
     1
102
RTVSPropertyOp28
 70
     1
102
RTVSPropertyOp29
 70
     1
102
RTVSPropertyOp30
 70
     1
102
RTVSPropertyOp31
 70
     1
102
RTVSPropertyOp32
 70
     1
  0
XRECORD
  5
BC
102
{ACAD_REACTORS
330
BB
102
}
330
BB
100
AcDbXrecord
280
     1
102
RTVSPropertyOp0
 70
     1
102
RTVSPropertyOp1
 70
     1
102
RTVSPropertyOp2
 70
     1
102
RTVSPropertyOp3
 70
     1
102
RTVSPropertyOp4
 70
     1
102
RTVSPropertyOp5
 70
     1
102
RTVSPropertyOp6
 70
     1
102
RTVSPropertyOp7
 70
     1
102
RTVSPropertyOp8
 70
     1
102
RTVSPropertyOp9
 70
     1
102
RTVSPropertyOp10
 70
     1
102
RTVSPropertyOp11
 70
     1
102
RTVSPropertyOp12
 70
     1
102
RTVSPropertyOp13
 70
     1
102
RTVSPropertyOp14
 70
     1
102
RTVSPropertyOp15
 70
     1
102
RTVSPropertyOp16
 70
     1
102
RTVSPropertyOp17
 70
     1
102
RTVSPropertyOp18
 70
     1
102
RTVSPropertyOp19
 70
     1
102
RTVSPropertyOp20
 70
     1
102
RTVSPropertyOp21
 70
     1
102
RTVSPropertyOp22
 70
     1
102
RTVSPropertyOp23
 70
     1
102
RTVSPropertyOp24
 70
     1
102
RTVSPropertyOp25
 70
     1
102
RTVSPropertyOp26
 70
     1
102
RTVSPropertyOp27
 70
     1
102
RTVSPropertyOp28
 70
     1
102
RTVSPropertyOp29
 70
     1
102
RTVSPropertyOp30
 70
     1
102
RTVSPropertyOp31
 70
     1
102
RTVSPropertyOp32
 70
     1
  0
XRECORD
  5
D0
102
{ACAD_REACTORS
330
CF
102
}
330
CF
100
AcDbXrecord
280
     1
102
RTVSPropertyOp0
 70
     1
102
RTVSPropertyOp1
 70
     1
102
RTVSPropertyOp2
 70
     1
102
RTVSPropertyOp3
 70
     1
102
RTVSPropertyOp4
 70
     1
102
RTVSPropertyOp5
 70
     1
102
RTVSPropertyOp6
 70
     1
102
RTVSPropertyOp7
 70
     1
102
RTVSPropertyOp8
 70
     1
102
RTVSPropertyOp9
 70
     1
102
RTVSPropertyOp10
 70
     1
102
RTVSPropertyOp11
 70
     1
102
RTVSPropertyOp12
 70
     1
102
RTVSPropertyOp13
 70
     1
102
RTVSPropertyOp14
 70
     1
102
RTVSPropertyOp15
 70
     1
102
RTVSPropertyOp16
 70
     1
102
RTVSPropertyOp17
 70
     1
102
RTVSPropertyOp18
 70
     1
102
RTVSPropertyOp19
 70
     1
102
RTVSPropertyOp20
 70
     1
102
RTVSPropertyOp21
 70
     1
102
RTVSPropertyOp22
 70
     1
102
RTVSPropertyOp23
 70
     1
102
RTVSPropertyOp24
 70
     1
102
RTVSPropertyOp25
 70
     1
102
RTVSPropertyOp26
 70
     1
102
RTVSPropertyOp27
 70
     1
102
RTVSPropertyOp28
 70
     1
102
RTVSPropertyOp29
 70
     1
102
RTVSPropertyOp30
 70
     1
102
RTVSPropertyOp31
 70
     1
102
RTVSPropertyOp32
 70
     1
  0
XRECORD
  5
C6
102
{ACAD_REACTORS
330
C5
102
}
330
C5
100
AcDbXrecord
280
     1
102
RTVSPropertyOp0
 70
     1
102
RTVSPropertyOp1
 70
     1
102
RTVSPropertyOp2
 70
     1
102
RTVSPropertyOp3
 70
     1
102
RTVSPropertyOp4
 70
     1
102
RTVSPropertyOp5
 70
     1
102
RTVSPropertyOp6
 70
     1
102
RTVSPropertyOp7
 70
     1
102
RTVSPropertyOp8
 70
     1
102
RTVSPropertyOp9
 70
     1
102
RTVSPropertyOp10
 70
     1
102
RTVSPropertyOp11
 70
     1
102
RTVSPropertyOp12
 70
     1
102
RTVSPropertyOp13
 70
     1
102
RTVSPropertyOp14
 70
     1
102
RTVSPropertyOp15
 70
     1
102
RTVSPropertyOp16
 70
     1
102
RTVSPropertyOp17
 70
     1
102
RTVSPropertyOp18
 70
     1
102
RTVSPropertyOp19
 70
     1
102
RTVSPropertyOp20
 70
     1
102
RTVSPropertyOp21
 70
     1
102
RTVSPropertyOp22
 70
     1
102
RTVSPropertyOp23
 70
     1
102
RTVSPropertyOp24
 70
     1
102
RTVSPropertyOp25
 70
     1
102
RTVSPropertyOp26
 70
     1
102
RTVSPropertyOp27
 70
     1
102
RTVSPropertyOp28
 70
     1
102
RTVSPropertyOp29
 70
     1
102
RTVSPropertyOp30
 70
     1
102
RTVSPropertyOp31
 70
     1
102
RTVSPropertyOp32
 70
     1
  0
XRECORD
  5
CE
102
{ACAD_REACTORS
330
CD
102
}
330
CD
100
AcDbXrecord
280
     1
102
RTVSPropertyOp0
 70
     1
102
RTVSPropertyOp1
 70
     1
102
RTVSPropertyOp2
 70
     1
102
RTVSPropertyOp3
 70
     1
102
RTVSPropertyOp4
 70
     1
102
RTVSPropertyOp5
 70
     1
102
RTVSPropertyOp6
 70
     1
102
RTVSPropertyOp7
 70
     1
102
RTVSPropertyOp8
 70
     1
102
RTVSPropertyOp9
 70
     1
102
RTVSPropertyOp10
 70
     1
102
RTVSPropertyOp11
 70
     1
102
RTVSPropertyOp12
 70
     1
102
RTVSPropertyOp13
 70
     1
102
RTVSPropertyOp14
 70
     1
102
RTVSPropertyOp15
 70
     1
102
RTVSPropertyOp16
 70
     1
102
RTVSPropertyOp17
 70
     1
102
RTVSPropertyOp18
 70
     1
102
RTVSPropertyOp19
 70
     1
102
RTVSPropertyOp20
 70
     1
102
RTVSPropertyOp21
 70
     1
102
RTVSPropertyOp22
 70
     1
102
RTVSPropertyOp23
 70
     1
102
RTVSPropertyOp24
 70
     1
102
RTVSPropertyOp25
 70
     1
102
RTVSPropertyOp26
 70
     1
102
RTVSPropertyOp27
 70
     1
102
RTVSPropertyOp28
 70
     1
102
RTVSPropertyOp29
 70
     1
102
RTVSPropertyOp30
 70
     1
102
RTVSPropertyOp31
 70
     1
102
RTVSPropertyOp32
 70
     1
  0
ENDSEC
  0
EOF
