  0
SECTION
  2
HEADER
  9
$ACADVER
  1
AC1021
  9
$ACADMAINTVER
 70
    25
  9
$DWGCODEPAGE
  3
ANSI_1252
  9
$INSBASE
 10
0.0
 20
0.0
 30
0.0
  9
$EXTMIN
 10
72.957
 20
-114.9873
 30
0.0
  9
$EXTMAX
 10
196.2168
 20
131.8541
 30
0.0
  9
$LIMMIN
 10
0.0
 20
0.0
  9
$LIMMAX
 10
12.0
 20
9.0
  9
$ORTHOMODE
 70
     0
  9
$REGENMODE
 70
     1
  9
$FILLMODE
 70
     1
  9
$QTEXTMODE
 70
     0
  9
$MIRRTEXT
 70
     1
  9
$LTSCALE
 40
1.0
  9
$ATTMODE
 70
     1
  9
$TEXTSIZE
 40
0.2
  9
$TRACEWID
 40
0.05
  9
$TEXTSTYLE
  7
Standard
  9
$CLAYER
  8
0
  9
$CELTYPE
  6
ByLayer
  9
$CECOLOR
 62
   256
  9
$CELTSCALE
 40
1.0
  9
$DISPSILH
 70
     0
  9
$DIMSCALE
 40
1.0
  9
$DIMASZ
 40
0.18
  9
$DIMEXO
 40
0.0625
  9
$DIMDLI
 40
0.38
  9
$DIMRND
 40
0.0
  9
$DIMDLE
 40
0.0
  9
$DIMEXE
 40
0.18
  9
$DIMTP
 40
0.0
  9
$DIMTM
 40
0.0
  9
$DIMTXT
 40
0.18
  9
$DIMCEN
 40
0.09
  9
$DIMTSZ
 40
0.0
  9
$DIMTOL
 70
     0
  9
$DIMLIM
 70
     0
  9
$DIMTIH
 70
     1
  9
$DIMTOH
 70
     1
  9
$DIMSE1
 70
     0
  9
$DIMSE2
 70
     0
  9
$DIMTAD
 70
     0
  9
$DIMZIN
 70
     0
  9
$DIMBLK
  1

  9
$DIMASO
 70
     1
  9
$DIMSHO
 70
     1
  9
$DIMPOST
  1

  9
$DIMAPOST
  1

  9
$DIMALT
 70
     0
  9
$DIMALTD
 70
     2
  9
$DIMALTF
 40
25.4
  9
$DIMLFAC
 40
1.0
  9
$DIMTOFL
 70
     0
  9
$DIMTVP
 40
0.0
  9
$DIMTIX
 70
     0
  9
$DIMSOXD
 70
     0
  9
$DIMSAH
 70
     0
  9
$DIMBLK1
  1

  9
$DIMBLK2
  1

  9
$DIMSTYLE
  2
Standard
  9
$DIMCLRD
 70
     0
  9
$DIMCLRE
 70
     0
  9
$DIMCLRT
 70
     0
  9
$DIMTFAC
 40
1.0
  9
$DIMGAP
 40
0.09
  9
$DIMJUST
 70
     0
  9
$DIMSD1
 70
     0
  9
$DIMSD2
 70
     0
  9
$DIMTOLJ
 70
     1
  9
$DIMTZIN
 70
     0
  9
$DIMALTZ
 70
     0
  9
$DIMALTTZ
 70
     0
  9
$DIMUPT
 70
     0
  9
$DIMDEC
 70
     4
  9
$DIMTDEC
 70
     4
  9
$DIMALTU
 70
     2
  9
$DIMALTTD
 70
     2
  9
$DIMTXSTY
  7
Standard
  9
$DIMAUNIT
 70
     0
  9
$DIMADEC
 70
     0
  9
$DIMALTRND
 40
0.0
  9
$DIMAZIN
 70
     0
  9
$DIMDSEP
 70
    46
  9
$DIMATFIT
 70
     3
  9
$DIMFRAC
 70
     0
  9
$DIMLDRBLK
  1

  9
$DIMLUNIT
 70
     2
  9
$DIMLWD
 70
    -2
  9
$DIMLWE
 70
    -2
  9
$DIMTMOVE
 70
     0
  9
$DIMFXL
 40
1.0
  9
$DIMFXLON
 70
     0
  9
$DIMJOGANG
 40
0.7853981633974483
  9
$DIMTFILL
 70
     0
  9
$DIMTFILLCLR
 70
     0
  9
$DIMARCSYM
 70
     0
  9
$DIMLTYPE
  6

  9
$DIMLTEX1
  6

  9
$DIMLTEX2
  6

  9
$LUNITS
 70
     2
  9
$LUPREC
 70
     4
  9
$SKETCHINC
 40
0.1
  9
$FILLETRAD
 40
0.5
  9
$AUNITS
 70
     0
  9
$AUPREC
 70
     0
  9
$MENU
  1
.
  9
$ELEVATION
 40
0.0
  9
$PELEVATION
 40
0.0
  9
$THICKNESS
 40
0.0
  9
$LIMCHECK
 70
     0
  9
$CHAMFERA
 40
0.5
  9
$CHAMFERB
 40
0.5
  9
$CHAMFERC
 40
1.0
  9
$CHAMFERD
 40
0.0
  9
$SKPOLY
 70
     0
  9
$TDCREATE
 40
2458493.71865706
  9
$TDUCREATE
 40
2458493.71865706
  9
$TDUPDATE
 40
2458493.718657315
  9
$TDUUPDATE
 40
2458493.718657315
  9
$TDINDWG
 40
0.0000000116
  9
$TDUSRTIMER
 40
0.0000000116
  9
$USRTIMER
 70
     1
  9
$ANGBASE
 50
0.0
  9
$ANGDIR
 70
     0
  9
$PDMODE
 70
     0
  9
$PDSIZE
 40
0.0
  9
$PLINEWID
 40
0.0
  9
$SPLFRAME
 70
     0
  9
$SPLINETYPE
 70
     6
  9
$SPLINESEGS
 70
     8
  9
$HANDSEED
  5
16E
  9
$SURFTAB1
 70
     6
  9
$SURFTAB2
 70
     6
  9
$SURFTYPE
 70
     6
  9
$SURFU
 70
     6
  9
$SURFV
 70
     6
  9
$UCSBASE
  2

  9
$UCSNAME
  2

  9
$UCSORG
 10
0.0
 20
0.0
 30
0.0
  9
$UCSXDIR
 10
1.0
 20
0.0
 30
0.0
  9
$UCSYDIR
 10
0.0
 20
1.0
 30
0.0
  9
$UCSORTHOREF
  2

  9
$UCSORTHOVIEW
 70
     0
  9
$UCSORGTOP
 10
0.0
 20
0.0
 30
0.0
  9
$UCSORGBOTTOM
 10
0.0
 20
0.0
 30
0.0
  9
$UCSORGLEFT
 10
0.0
 20
0.0
 30
0.0
  9
$UCSORGRIGHT
 10
0.0
 20
0.0
 30
0.0
  9
$UCSORGFRONT
 10
0.0
 20
0.0
 30
0.0
  9
$UCSORGBACK
 10
0.0
 20
0.0
 30
0.0
  9
$PUCSBASE
  2

  9
$PUCSNAME
  2

  9
$PUCSORG
 10
0.0
 20
0.0
 30
0.0
  9
$PUCSXDIR
 10
1.0
 20
0.0
 30
0.0
  9
$PUCSYDIR
 10
0.0
 20
1.0
 30
0.0
  9
$PUCSORTHOREF
  2

  9
$PUCSORTHOVIEW
 70
     0
  9
$PUCSORGTOP
 10
0.0
 20
0.0
 30
0.0
  9
$PUCSORGBOTTOM
 10
0.0
 20
0.0
 30
0.0
  9
$PUCSORGLEFT
 10
0.0
 20
0.0
 30
0.0
  9
$PUCSORGRIGHT
 10
0.0
 20
0.0
 30
0.0
  9
$PUCSORGFRONT
 10
0.0
 20
0.0
 30
0.0
  9
$PUCSORGBACK
 10
0.0
 20
0.0
 30
0.0
  9
$USERI1
 70
     0
  9
$USERI2
 70
     0
  9
$USERI3
 70
     0
  9
$USERI4
 70
     0
  9
$USERI5
 70
     0
  9
$USERR1
 40
0.0
  9
$USERR2
 40
0.0
  9
$USERR3
 40
0.0
  9
$USERR4
 40
0.0
  9
$USERR5
 40
0.0
  9
$WORLDVIEW
 70
     1
  9
$SHADEDGE
 70
     3
  9
$SHADEDIF
 70
    70
  9
$TILEMODE
 70
     1
  9
$MAXACTVP
 70
    64
  9
$PINSBASE
 10
0.0
 20
0.0
 30
0.0
  9
$PLIMCHECK
 70
     0
  9
$PEXTMIN
 10
1.000000000000000E+20
 20
1.000000000000000E+20
 30
1.000000000000000E+20
  9
$PEXTMAX
 10
-1.000000000000000E+20
 20
-1.000000000000000E+20
 30
-1.000000000000000E+20
  9
$PLIMMIN
 10
0.0
 20
0.0
  9
$PLIMMAX
 10
12.0
 20
9.0
  9
$UNITMODE
 70
     0
  9
$VISRETAIN
 70
     1
  9
$PLINEGEN
 70
     0
  9
$PSLTSCALE
 70
     1
  9
$TREEDEPTH
 70
  3020
  9
$CMLSTYLE
  2
Standard
  9
$CMLJUST
 70
     0
  9
$CMLSCALE
 40
1.0
  9
$PROXYGRAPHICS
 70
     1
  9
$MEASUREMENT
 70
     0
  9
$CELWEIGHT
370
    -1
  9
$ENDCAPS
280
     0
  9
$JOINSTYLE
280
     0
  9
$LWDISPLAY
290
     0
  9
$INSUNITS
 70
     4
  9
$HYPERLINKBASE
  1

  9
$STYLESHEET
  1

  9
$XEDIT
290
     1
  9
$CEPSNTYPE
380
     0
  9
$PSTYLEMODE
290
     1
  9
$FINGERPRINTGUID
  2
{E6C338B1-CCAB-449C-8B1D-E0C7F23009C3}
  9
$VERSIONGUID
  2
{FAEB1C32-E019-11D5-929B-00C0DF256EC4}
  9
$EXTNAMES
290
     1
  9
$PSVPSCALE
 40
0.0
  9
$OLESTARTUP
290
     0
  9
$SORTENTS
280
   127
  9
$INDEXCTL
280
     0
  9
$HIDETEXT
280
     1
  9
$XCLIPFRAME
290
     0
  9
$HALOGAP
280
     0
  9
$OBSCOLOR
 70
   257
  9
$OBSLTYPE
280
     0
  9
$INTERSECTIONDISPLAY
280
     0
  9
$INTERSECTIONCOLOR
 70
   257
  9
$DIMASSOC
280
     2
  9
$PROJECTNAME
  1

  9
$CAMERADISPLAY
290
     0
  9
$LENSLENGTH
 40
50.0
  9
$CAMERAHEIGHT
 40
0.0
  9
$STEPSPERSEC
 40
2.0
  9
$STEPSIZE
 40
6.0
  9
$3DDWFPREC
 40
2.0
  9
$PSOLWIDTH
 40
0.25
  9
$PSOLHEIGHT
 40
4.0
  9
$LOFTANG1
 40
1.570796326794897
  9
$LOFTANG2
 40
1.570796326794897
  9
$LOFTMAG1
 40
0.0
  9
$LOFTMAG2
 40
0.0
  9
$LOFTPARAM
 70
     7
  9
$LOFTNORMALS
280
     1
  9
$LATITUDE
 40
37.795
  9
$LONGITUDE
 40
-122.394
  9
$NORTHDIRECTION
 40
0.0
  9
$TIMEZONE
 70
 -8000
  9
$LIGHTGLYPHDISPLAY
280
     1
  9
$TILEMODELIGHTSYNCH
280
     1
  9
$SOLIDHIST
280
     1
  9
$SHOWHIST
280
     1
  9
$DWFFRAME
280
     2
  9
$DGNFRAME
280
     2
  9
$REALWORLDSCALE
290
     1
  9
$INTERFERECOLOR
 62
   256
  9
$CSHADOW
280
     0
  9
$SHADOWPLANELOCATION
 40
0.0
  0
ENDSEC
  0
SECTION
  2
CLASSES
  0
CLASS
  1
ACDBDICTIONARYWDFLT
  2
AcDbDictionaryWithDefault
  3
ObjectDBX Classes
 90
        0
 91
        4
280
     0
281
     0
  0
CLASS
  1
VISUALSTYLE
  2
AcDbVisualStyle
  3
ObjectDBX Classes
 90
     4095
 91
        4
280
     0
281
     0
  0
CLASS
  1
MATERIAL
  2
AcDbMaterial
  3
ObjectDBX Classes
 90
     1153
 91
        4
280
     0
281
     0
  0
ENDSEC
  0
SECTION
  2
TABLES
  0
TABLE
  2
VPORT
  5
8
330
0
100
AcDbSymbolTable
 70
     1
  0
VPORT
  5
29
330
8
100
AcDbSymbolTableRecord
100
AcDbViewportTableRecord
  2
*Active
 70
     0
 10
0.0
 20
0.0
 11
1.0
 21
1.0
 12
10.42990654205607
 22
4.5
 13
0.0
 23
0.0
 14
0.5
 24
0.5
 15
0.5
 25
0.5
 16
0.0
 26
0.0
 36
1.0
 17
0.0
 27
0.0
 37
0.0
 40
9.0
 41
1.972972972850329
 42
50.0
 43
0.0
 44
0.0
 50
0.0
 51
0.0
 71
     0
 72
   100
 73
     1
 74
     3
 75
     0
 76
     0
 77
     0
 78
     0
281
     0
 65
     1
110
0.0
120
0.0
130
0.0
111
1.0
121
0.0
131
0.0
112
0.0
122
1.0
132
0.0
 79
     0
146
0.0
 60
     3
 61
     5
292
     1
282
     1
141
0.0
142
0.0
 63
   250
  0
ENDTAB
  0
TABLE
  2
LTYPE
  5
5
330
0
100
AcDbSymbolTable
 70
     1
  0
LTYPE
  5
14
330
5
100
AcDbSymbolTableRecord
100
AcDbLinetypeTableRecord
  2
ByBlock
 70
     0
  3

 72
    65
 73
     0
 40
0.0
  0
LTYPE
  5
15
330
5
100
AcDbSymbolTableRecord
100
AcDbLinetypeTableRecord
  2
ByLayer
 70
     0
  3

 72
    65
 73
     0
 40
0.0
  0
LTYPE
  5
16
330
5
100
AcDbSymbolTableRecord
100
AcDbLinetypeTableRecord
  2
Continuous
 70
     0
  3
Solid line
 72
    65
 73
     0
 40
0.0
  0
ENDTAB
  0
TABLE
  2
LAYER
  5
2
330
0
100
AcDbSymbolTable
 70
     3
  0
LAYER
  5
10
330
2
100
AcDbSymbolTableRecord
100
AcDbLayerTableRecord
  2
0
 70
     0
 62
     7
  6
Continuous
370
    -3
390
F
347
3E
  0
LAYER
  5
40
330
2
100
AcDbSymbolTableRecord
100
AcDbLayerTableRecord
  2
layer 1
 70
     0
 62
     7
  6
Continuous
370
    -3
390
F
347
3E
  0
LAYER
  5
14B
330
2
100
AcDbSymbolTableRecord
100
AcDbLayerTableRecord
  2
Master Guides
 70
     0
 62
     7
  6
Continuous
370
    -3
390
F
347
3E
  0
ENDTAB
  0
TABLE
  2
STYLE
  5
3
330
0
100
AcDbSymbolTable
 70
     1
  0
STYLE
  5
11
330
3
100
AcDbSymbolTableRecord
100
AcDbTextStyleTableRecord
  2
Standard
 70
     0
 40
0.0
 41
1.0
 50
0.0
 71
     0
 42
0.2
  3
txt
  4

  0
ENDTAB
  0
TABLE
  2
VIEW
  5
6
330
0
100
AcDbSymbolTable
 70
     0
  0
ENDTAB
  0
TABLE
  2
UCS
  5
7
330
0
100
AcDbSymbolTable
 70
     0
  0
ENDTAB
  0
TABLE
  2
APPID
  5
9
330
0
100
AcDbSymbolTable
 70
     2
  0
APPID
  5
12
330
9
100
AcDbSymbolTableRecord
100
AcDbRegAppTableRecord
  2
ACAD
 70
     0
  0
APPID
  5
3F
330
9
100
AcDbSymbolTableRecord
100
AcDbRegAppTableRecord
  2
ODA
 70
     0
  0
ENDTAB
  0
TABLE
  2
DIMSTYLE
  5
A
330
0
100
AcDbSymbolTable
 70
     1
100
AcDbDimStyleTable
  0
DIMSTYLE
105
27
330
A
100
AcDbSymbolTableRecord
100
AcDbDimStyleTableRecord
  2
Standard
 70
     0
178
     0
340
11
  0
ENDTAB
  0
TABLE
  2
BLOCK_RECORD
  5
1
330
0
100
AcDbSymbolTable
 70
     1
  0
BLOCK_RECORD
  5
1F
330
1
100
AcDbSymbolTableRecord
100
AcDbBlockTableRecord
  2
*Model_Space
340
22
 70
     0
280
     1
281
     0
  0
BLOCK_RECORD
  5
1B
330
1
100
AcDbSymbolTableRecord
100
AcDbBlockTableRecord
  2
*Paper_Space
340
1E
 70
     0
280
     1
281
     0
  0
BLOCK_RECORD
  5
23
330
1
100
AcDbSymbolTableRecord
100
AcDbBlockTableRecord
  2
*Paper_Space0
340
26
 70
     0
280
     1
281
     0
  0
ENDTAB
  0
ENDSEC
  0
SECTION
  2
BLOCKS
  0
BLOCK
  5
20
330
1F
100
AcDbEntity
  8
0
100
AcDbBlockBegin
  2
*Model_Space
 70
     0
 10
0.0
 20
0.0
 30
0.0
  3
*Model_Space
  1

  0
ENDBLK
  5
21
330
1F
100
AcDbEntity
  8
0
100
AcDbBlockEnd
  0
BLOCK
  5
1C
330
1B
100
AcDbEntity
 67
     1
  8
0
100
AcDbBlockBegin
  2
*Paper_Space
 70
     0
 10
0.0
 20
0.0
 30
0.0
  3
*Paper_Space
  1

  0
ENDBLK
  5
1D
330
1B
100
AcDbEntity
 67
     1
  8
0
100
AcDbBlockEnd
  0
BLOCK
  5
24
330
23
100
AcDbEntity
  8
0
100
AcDbBlockBegin
  2
*Paper_Space0
 70
     0
 10
0.0
 20
0.0
 30
0.0
  3
*Paper_Space0
  1

  0
ENDBLK
  5
25
330
23
100
AcDbEntity
  8
0
100
AcDbBlockEnd
  0
ENDSEC
  0
SECTION
  2
ENTITIES
  0
SPLINE
  5
41
330
1F
100
AcDbEntity
  8
layer 1
100
AcDbSpline
210
0.0
220
0.0
230
1.0
 70
    11
 71
     3
 72
    20
 73
    16
 74
     0
 42
0.0000000001
 43
0.0000000001
 12
1.0
 22
0.0
 32
0.0
 13
1.0
 23
0.0
 33
0.0
 40
0.0
 40
0.0
 40
0.0
 40
0.0
 40
0.2
 40
0.2
 40
0.2
 40
0.2
 40
0.4
 40
0.4
 40
0.4
 40
0.4
 40
0.6
 40
0.6
 40
0.6
 40
0.6
 40
1.0
 40
1.0
 40
1.0
 40
1.0
 10
72.957
 20
-114.9873
 30
0.0
 10
72.957
 20
-114.9873
 30
0.0
 10
196.2168
 20
-114.9873
 30
0.0
 10
196.2168
 20
-114.9873
 30
0.0
 10
196.2168
 20
-114.9873
 30
0.0
 10
196.2168
 20
-114.9873
 30
0.0
 10
196.2168
 20
131.8541
 30
0.0
 10
196.2168
 20
131.8541
 30
0.0
 10
196.2168
 20
131.8541
 30
0.0
 10
196.2168
 20
131.8541
 30
0.0
 10
72.957
 20
131.8541
 30
0.0
 10
72.957
 20
131.8541
 30
0.0
 10
72.957
 20
131.8541
 30
0.0
 10
72.957
 20
131.8541
 30
0.0
 10
72.957
 20
-114.9873
 30
0.0
 10
72.957
 20
-114.9873
 30
0.0
  0
SPLINE
  5
42
330
1F
100
AcDbEntity
  8
layer 1
 62
     7
100
AcDbSpline
210
0.0
220
0.0
230
1.0
 70
    11
 71
     3
 72
    20
 73
    16
 74
     0
 42
0.0000000001
 43
0.0000000001
 12
1.0
 22
0.0
 32
0.0
 13
1.0
 23
0.0
 33
0.0
 40
0.0
 40
0.0
 40
0.0
 40
0.0
 40
0.2
 40
0.2
 40
0.2
 40
0.2
 40
0.4
 40
0.4
 40
0.4
 40
0.4
 40
0.6
 40
0.6
 40
0.6
 40
0.6
 40
1.0
 40
1.0
 40
1.0
 40
1.0
 10
114.8356
 20
89.0795
 30
0.0
 10
112.6607
 20
92.293
 30
0.0
 10
109.8952
 20
95.0201
 30
0.0
 10
107.1848
 20
96.4182
 30
0.0
 10
107.1848
 20
96.4182
 30
0.0
 10
104.0683
 20
94.6479
 30
0.0
 10
102.082
 20
92.2498
 30
0.0
 10
99.6487
 20
89.1302
 30
0.0
 10
99.6487
 20
89.1302
 30
0.0
 10
101.4004
 20
86.5315
 30
0.0
 10
104.7895
 20
83.0157
 30
0.0
 10
107.2435
 20
81.5215
 30
0.0
 10
107.2435
 20
81.5215
 30
0.0
 10
110.4053
 20
83.8388
 30
0.0
 10
112.1974
 20
85.6973
 30
0.0
 10
114.8356
 20
89.0795
 30
0.0
  0
SPLINE
  5
43
330
1F
100
AcDbEntity
  8
layer 1
 62
     7
100
AcDbSpline
210
0.0
220
0.0
230
1.0
 70
    11
 71
     3
 72
    12
 73
     8
 74
     0
 42
0.0000000001
 43
0.0000000001
 12
1.0
 22
0.0
 32
0.0
 13
1.0
 23
0.0
 33
0.0
 40
0.0
 40
0.0
 40
0.0
 40
0.0
 40
0.3333333333333333
 40
0.3333333333333333
 40
0.3333333333333333
 40
0.3333333333333333
 40
1.0
 40
1.0
 40
1.0
 40
1.0
 10
93.7861
 20
92.2238
 30
0.0
 10
91.9019
 20
90.5051
 30
0.0
 10
92.2094
 20
87.3522
 30
0.0
 10
93.8013
 20
85.9082
 30
0.0
 10
93.8013
 20
85.9082
 30
0.0
 10
95.7292
 20
87.5108
 30
0.0
 10
95.4979
 20
90.5227
 30
0.0
 10
93.7861
 20
92.2238
 30
0.0
  0
SPLINE
  5
44
330
1F
100
AcDbEntity
  8
layer 1
 62
     7
100
AcDbSpline
210
0.0
220
0.0
230
1.0
 70
    11
 71
     3
 72
    20
 73
    16
 74
     0
 42
0.0000000001
 43
0.0000000001
 12
1.0
 22
0.0
 32
0.0
 13
1.0
 23
0.0
 33
0.0
 40
0.0
 40
0.0
 40
0.0
 40
0.0
 40
0.2
 40
0.2
 40
0.2
 40
0.2
 40
0.4
 40
0.4
 40
0.4
 40
0.4
 40
0.6
 40
0.6
 40
0.6
 40
0.6
 40
1.0
 40
1.0
 40
1.0
 40
1.0
 10
92.1555
 20
100.6863
 30
0.0
 10
90.1464
 20
100.6898
 30
0.0
 10
86.0219
 20
99.7867
 30
0.0
 10
84.4226
 20
98.6984
 30
0.0
 10
84.4226
 20
98.6984
 30
0.0
 10
86.6467
 20
96.5656
 30
0.0
 10
88.3722
 20
94.8703
 30
0.0
 10
90.0293
 20
92.9346
 30
0.0
 10
90.0293
 20
92.9346
 30
0.0
 10
91.3627
 20
96.0618
 30
0.0
 10
91.792
 20
98.3488
 30
0.0
 10
92.1557
 20
100.6863
 30
0.0
 10
92.1557
 20
100.6863
 30
0.0
 10
92.1557
 20
100.6863
 30
0.0
 10
92.1555
 20
100.6863
 30
0.0
 10
92.1555
 20
100.6863
 30
0.0
  0
SPLINE
  5
45
330
1F
100
AcDbEntity
  8
layer 1
 62
     7
100
AcDbSpline
210
0.0
220
0.0
230
1.0
 70
    11
 71
     3
 72
    16
 73
    12
 74
     0
 42
0.0000000001
 43
0.0000000001
 12
1.0
 22
0.0
 32
0.0
 13
1.0
 23
0.0
 33
0.0
 40
0.0
 40
0.0
 40
0.0
 40
0.0
 40
0.25
 40
0.25
 40
0.25
 40
0.25
 40
0.5
 40
0.5
 40
0.5
 40
0.5
 40
1.0
 40
1.0
 40
1.0
 40
1.0
 10
95.5435
 20
100.6863
 30
0.0
 10
97.5526
 20
100.6898
 30
0.0
 10
101.6771
 20
99.7866
 30
0.0
 10
103.2765
 20
98.6984
 30
0.0
 10
103.2765
 20
98.6984
 30
0.0
 10
101.0523
 20
96.5656
 30
0.0
 10
99.3268
 20
94.8703
 30
0.0
 10
97.6698
 20
92.9346
 30
0.0
 10
97.6698
 20
92.9346
 30
0.0
 10
96.3364
 20
96.0618
 30
0.0
 10
95.9071
 20
98.3488
 30
0.0
 10
95.5435
 20
100.6863
 30
0.0
  0
SPLINE
  5
46
330
1F
100
AcDbEntity
  8
layer 1
 62
     7
100
AcDbSpline
210
0.0
220
0.0
230
1.0
 70
    11
 71
     3
 72
    20
 73
    16
 74
     0
 42
0.0000000001
 43
0.0000000001
 12
1.0
 22
0.0
 32
0.0
 13
1.0
 23
0.0
 33
0.0
 40
0.0
 40
0.0
 40
0.0
 40
0.0
 40
0.2
 40
0.2
 40
0.2
 40
0.2
 40
0.4
 40
0.4
 40
0.4
 40
0.4
 40
0.6
 40
0.6
 40
0.6
 40
0.6
 40
1.0
 40
1.0
 40
1.0
 40
1.0
 10
92.1555
 20
77.4924
 30
0.0
 10
90.1464
 20
77.4889
 30
0.0
 10
86.0219
 20
78.392
 30
0.0
 10
84.4226
 20
79.4803
 30
0.0
 10
84.4226
 20
79.4803
 30
0.0
 10
86.6467
 20
81.6131
 30
0.0
 10
88.3722
 20
83.3084
 30
0.0
 10
90.0293
 20
85.2442
 30
0.0
 10
90.0293
 20
85.2442
 30
0.0
 10
91.3627
 20
82.117
 30
0.0
 10
91.792
 20
79.8299
 30
0.0
 10
92.1557
 20
77.4924
 30
0.0
 10
92.1557
 20
77.4924
 30
0.0
 10
92.1557
 20
77.4924
 30
0.0
 10
92.1555
 20
77.4924
 30
0.0
 10
92.1555
 20
77.4924
 30
0.0
  0
SPLINE
  5
47
330
1F
100
AcDbEntity
  8
layer 1
 62
     7
100
AcDbSpline
210
0.0
220
0.0
230
1.0
 70
    11
 71
     3
 72
    20
 73
    16
 74
     0
 42
0.0000000001
 43
0.0000000001
 12
1.0
 22
0.0
 32
0.0
 13
1.0
 23
0.0
 33
0.0
 40
0.0
 40
0.0
 40
0.0
 40
0.0
 40
0.2
 40
0.2
 40
0.2
 40
0.2
 40
0.4
 40
0.4
 40
0.4
 40
0.4
 40
0.6
 40
0.6
 40
0.6
 40
0.6
 40
1.0
 40
1.0
 40
1.0
 40
1.0
 10
95.5435
 20
77.4924
 30
0.0
 10
97.5526
 20
77.4889
 30
0.0
 10
101.6771
 20
78.3921
 30
0.0
 10
103.2765
 20
79.4803
 30
0.0
 10
103.2765
 20
79.4803
 30
0.0
 10
101.0523
 20
81.6131
 30
0.0
 10
99.3268
 20
83.3084
 30
0.0
 10
97.6698
 20
85.2442
 30
0.0
 10
97.6698
 20
85.2442
 30
0.0
 10
96.3364
 20
82.117
 30
0.0
 10
95.907
 20
79.8299
 30
0.0
 10
95.5434
 20
77.4924
 30
0.0
 10
95.5434
 20
77.4924
 30
0.0
 10
95.5434
 20
77.4924
 30
0.0
 10
95.5435
 20
77.4924
 30
0.0
 10
95.5435
 20
77.4924
 30
0.0
  0
SPLINE
  5
48
330
1F
100
AcDbEntity
  8
layer 1
 62
     7
100
AcDbSpline
210
0.0
220
0.0
230
1.0
 70
    11
 71
     3
 72
    12
 73
     8
 74
     0
 42
0.0000000001
 43
0.0000000001
 12
1.0
 22
0.0
 32
0.0
 13
1.0
 23
0.0
 33
0.0
 40
0.0
 40
0.0
 40
0.0
 40
0.0
 40
0.3333333333333333
 40
0.3333333333333333
 40
0.3333333333333333
 40
0.3333333333333333
 40
1.0
 40
1.0
 40
1.0
 40
1.0
 10
110.4557
 20
102.4912
 30
0.0
 10
108.737
 20
104.3755
 30
0.0
 10
105.5841
 20
104.0679
 30
0.0
 10
104.1401
 20
102.476
 30
0.0
 10
104.1401
 20
102.476
 30
0.0
 10
105.7426
 20
100.5482
 30
0.0
 10
108.7545
 20
100.7794
 30
0.0
 10
110.4557
 20
102.4912
 30
0.0
  0
SPLINE
  5
49
330
1F
100
AcDbEntity
  8
layer 1
 62
     7
100
AcDbSpline
210
0.0
220
0.0
230
1.0
 70
    11
 71
     3
 72
    16
 73
    12
 74
     0
 42
0.0000000001
 43
0.0000000001
 12
1.0
 22
0.0
 32
0.0
 13
1.0
 23
0.0
 33
0.0
 40
0.0
 40
0.0
 40
0.0
 40
0.0
 40
0.25
 40
0.25
 40
0.25
 40
0.25
 40
0.5
 40
0.5
 40
0.5
 40
0.5
 40
1.0
 40
1.0
 40
1.0
 40
1.0
 10
83.5074
 20
102.4912
 30
0.0
 10
82.4345
 20
103.6674
 30
0.0
 10
80.7337
 20
103.9896
 30
0.0
 10
79.3077
 20
103.6784
 30
0.0
 10
79.3077
 20
103.6784
 30
0.0
 10
79.3077
 20
103.6784
 30
0.0
 10
79.3077
 20
101.1733
 30
0.0
 10
79.3077
 20
101.1733
 30
0.0
 10
79.3077
 20
101.1733
 30
0.0
 10
80.7746
 20
100.8474
 30
0.0
 10
82.4011
 20
101.3779
 30
0.0
 10
83.5074
 20
102.4912
 30
0.0
  0
SPLINE
  5
4A
330
1F
100
AcDbEntity
  8
layer 1
 62
     7
100
AcDbSpline
210
0.0
220
0.0
230
1.0
 70
    11
 71
     3
 72
    20
 73
    16
 74
     0
 42
0.0000000001
 43
0.0000000001
 12
1.0
 22
0.0
 32
0.0
 13
1.0
 23
0.0
 33
0.0
 40
0.0
 40
0.0
 40
0.0
 40
0.0
 40
0.2
 40
0.2
 40
0.2
 40
0.2
 40
0.4
 40
0.4
 40
0.4
 40
0.4
 40
0.6
 40
0.6
 40
0.6
 40
0.6
 40
1.0
 40
1.0
 40
1.0
 40
1.0
 10
141.6971
 20
89.0795
 30
0.0
 10
139.5224
 20
92.293
 30
0.0
 10
136.7567
 20
95.0201
 30
0.0
 10
134.0463
 20
96.4182
 30
0.0
 10
134.0463
 20
96.4182
 30
0.0
 10
130.9299
 20
94.6479
 30
0.0
 10
128.9435
 20
92.2498
 30
0.0
 10
126.5103
 20
89.1302
 30
0.0
 10
126.5103
 20
89.1302
 30
0.0
 10
128.2619
 20
86.5315
 30
0.0
 10
131.6511
 20
83.0157
 30
0.0
 10
134.105
 20
81.5215
 30
0.0
 10
134.105
 20
81.5215
 30
0.0
 10
137.2668
 20
83.8388
 30
0.0
 10
139.0589
 20
85.6973
 30
0.0
 10
141.6971
 20
89.0795
 30
0.0
  0
SPLINE
  5
4B
330
1F
100
AcDbEntity
  8
layer 1
 62
     7
100
AcDbSpline
210
0.0
220
0.0
230
1.0
 70
    11
 71
     3
 72
    12
 73
     8
 74
     0
 42
0.0000000001
 43
0.0000000001
 12
1.0
 22
0.0
 32
0.0
 13
1.0
 23
0.0
 33
0.0
 40
0.0
 40
0.0
 40
0.0
 40
0.0
 40
0.3333333333333333
 40
0.3333333333333333
 40
0.3333333333333333
 40
0.3333333333333333
 40
1.0
 40
1.0
 40
1.0
 40
1.0
 10
120.6476
 20
92.2238
 30
0.0
 10
118.7634
 20
90.5051
 30
0.0
 10
119.0709
 20
87.3522
 30
0.0
 10
120.6628
 20
85.9082
 30
0.0
 10
120.6628
 20
85.9082
 30
0.0
 10
122.5907
 20
87.5108
 30
0.0
 10
122.3594
 20
90.5227
 30
0.0
 10
120.6476
 20
92.2238
 30
0.0
  0
SPLINE
  5
4C
330
1F
100
AcDbEntity
  8
layer 1
 62
     7
100
AcDbSpline
210
0.0
220
0.0
230
1.0
 70
    11
 71
     3
 72
    20
 73
    16
 74
     0
 42
0.0000000001
 43
0.0000000001
 12
1.0
 22
0.0
 32
0.0
 13
1.0
 23
0.0
 33
0.0
 40
0.0
 40
0.0
 40
0.0
 40
0.0
 40
0.2
 40
0.2
 40
0.2
 40
0.2
 40
0.4
 40
0.4
 40
0.4
 40
0.4
 40
0.6
 40
0.6
 40
0.6
 40
0.6
 40
1.0
 40
1.0
 40
1.0
 40
1.0
 10
119.0171
 20
100.6863
 30
0.0
 10
117.008
 20
100.6898
 30
0.0
 10
112.8836
 20
99.7867
 30
0.0
 10
111.2841
 20
98.6984
 30
0.0
 10
111.2841
 20
98.6984
 30
0.0
 10
113.5082
 20
96.5656
 30
0.0
 10
115.2338
 20
94.8703
 30
0.0
 10
116.8908
 20
92.9346
 30
0.0
 10
116.8908
 20
92.9346
 30
0.0
 10
118.2242
 20
96.0618
 30
0.0
 10
118.6536
 20
98.3488
 30
0.0
 10
119.0172
 20
100.6863
 30
0.0
 10
119.0172
 20
100.6863
 30
0.0
 10
119.0172
 20
100.6863
 30
0.0
 10
119.0171
 20
100.6863
 30
0.0
 10
119.0171
 20
100.6863
 30
0.0
  0
SPLINE
  5
4D
330
1F
100
AcDbEntity
  8
layer 1
 62
     7
100
AcDbSpline
210
0.0
220
0.0
230
1.0
 70
    11
 71
     3
 72
    16
 73
    12
 74
     0
 42
0.0000000001
 43
0.0000000001
 12
1.0
 22
0.0
 32
0.0
 13
1.0
 23
0.0
 33
0.0
 40
0.0
 40
0.0
 40
0.0
 40
0.0
 40
0.25
 40
0.25
 40
0.25
 40
0.25
 40
0.5
 40
0.5
 40
0.5
 40
0.5
 40
1.0
 40
1.0
 40
1.0
 40
1.0
 10
122.405
 20
100.6863
 30
0.0
 10
124.4142
 20
100.6898
 30
0.0
 10
128.5387
 20
99.7866
 30
0.0
 10
130.138
 20
98.6984
 30
0.0
 10
130.138
 20
98.6984
 30
0.0
 10
127.9139
 20
96.5656
 30
0.0
 10
126.1885
 20
94.8703
 30
0.0
 10
124.5314
 20
92.9346
 30
0.0
 10
124.5314
 20
92.9346
 30
0.0
 10
123.1979
 20
96.0618
 30
0.0
 10
122.7687
 20
98.3488
 30
0.0
 10
122.405
 20
100.6863
 30
0.0
  0
SPLINE
  5
4E
330
1F
100
AcDbEntity
  8
layer 1
 62
     7
100
AcDbSpline
210
0.0
220
0.0
230
1.0
 70
    11
 71
     3
 72
    20
 73
    16
 74
     0
 42
0.0000000001
 43
0.0000000001
 12
1.0
 22
0.0
 32
0.0
 13
1.0
 23
0.0
 33
0.0
 40
0.0
 40
0.0
 40
0.0
 40
0.0
 40
0.2
 40
0.2
 40
0.2
 40
0.2
 40
0.4
 40
0.4
 40
0.4
 40
0.4
 40
0.6
 40
0.6
 40
0.6
 40
0.6
 40
1.0
 40
1.0
 40
1.0
 40
1.0
 10
119.0171
 20
77.4924
 30
0.0
 10
117.008
 20
77.4889
 30
0.0
 10
112.8836
 20
78.392
 30
0.0
 10
111.2841
 20
79.4803
 30
0.0
 10
111.2841
 20
79.4803
 30
0.0
 10
113.5082
 20
81.6131
 30
0.0
 10
115.2338
 20
83.3084
 30
0.0
 10
116.8908
 20
85.2442
 30
0.0
 10
116.8908
 20
85.2442
 30
0.0
 10
118.2242
 20
82.117
 30
0.0
 10
118.6536
 20
79.8299
 30
0.0
 10
119.0172
 20
77.4924
 30
0.0
 10
119.0172
 20
77.4924
 30
0.0
 10
119.0172
 20
77.4924
 30
0.0
 10
119.0171
 20
77.4924
 30
0.0
 10
119.0171
 20
77.4924
 30
0.0
  0
SPLINE
  5
4F
330
1F
100
AcDbEntity
  8
layer 1
 62
     7
100
AcDbSpline
210
0.0
220
0.0
230
1.0
 70
    11
 71
     3
 72
    20
 73
    16
 74
     0
 42
0.0000000001
 43
0.0000000001
 12
1.0
 22
0.0
 32
0.0
 13
1.0
 23
0.0
 33
0.0
 40
0.0
 40
0.0
 40
0.0
 40
0.0
 40
0.2
 40
0.2
 40
0.2
 40
0.2
 40
0.4
 40
0.4
 40
0.4
 40
0.4
 40
0.6
 40
0.6
 40
0.6
 40
0.6
 40
1.0
 40
1.0
 40
1.0
 40
1.0
 10
122.405
 20
77.4924
 30
0.0
 10
124.4142
 20
77.4889
 30
0.0
 10
128.5387
 20
78.3921
 30
0.0
 10
130.138
 20
79.4803
 30
0.0
 10
130.138
 20
79.4803
 30
0.0
 10
127.9139
 20
81.6131
 30
0.0
 10
126.1883
 20
83.3084
 30
0.0
 10
124.5313
 20
85.2442
 30
0.0
 10
124.5313
 20
85.2442
 30
0.0
 10
123.1979
 20
82.117
 30
0.0
 10
122.7685
 20
79.8299
 30
0.0
 10
122.4049
 20
77.4924
 30
0.0
 10
122.4049
 20
77.4924
 30
0.0
 10
122.4049
 20
77.4924
 30
0.0
 10
122.405
 20
77.4924
 30
0.0
 10
122.405
 20
77.4924
 30
0.0
  0
SPLINE
  5
50
330
1F
100
AcDbEntity
  8
layer 1
 62
     7
100
AcDbSpline
210
0.0
220
0.0
230
1.0
 70
    11
 71
     3
 72
    12
 73
     8
 74
     0
 42
0.0000000001
 43
0.0000000001
 12
1.0
 22
0.0
 32
0.0
 13
1.0
 23
0.0
 33
0.0
 40
0.0
 40
0.0
 40
0.0
 40
0.0
 40
0.3333333333333333
 40
0.3333333333333333
 40
0.3333333333333333
 40
0.3333333333333333
 40
1.0
 40
1.0
 40
1.0
 40
1.0
 10
137.3173
 20
102.4912
 30
0.0
 10
135.5985
 20
104.3755
 30
0.0
 10
132.4456
 20
104.0679
 30
0.0
 10
131.0017
 20
102.476
 30
0.0
 10
131.0017
 20
102.476
 30
0.0
 10
132.6042
 20
100.5482
 30
0.0
 10
135.6161
 20
100.7794
 30
0.0
 10
137.3173
 20
102.4912
 30
0.0
  0
SPLINE
  5
51
330
1F
100
AcDbEntity
  8
layer 1
 62
     7
100
AcDbSpline
210
0.0
220
0.0
230
1.0
 70
    11
 71
     3
 72
    20
 73
    16
 74
     0
 42
0.0000000001
 43
0.0000000001
 12
1.0
 22
0.0
 32
0.0
 13
1.0
 23
0.0
 33
0.0
 40
0.0
 40
0.0
 40
0.0
 40
0.0
 40
0.2
 40
0.2
 40
0.2
 40
0.2
 40
0.4
 40
0.4
 40
0.4
 40
0.4
 40
0.6
 40
0.6
 40
0.6
 40
0.6
 40
1.0
 40
1.0
 40
1.0
 40
1.0
 10
168.4721
 20
89.0795
 30
0.0
 10
166.2973
 20
92.293
 30
0.0
 10
163.5317
 20
95.0201
 30
0.0
 10
160.8213
 20
96.4182
 30
0.0
 10
160.8213
 20
96.4182
 30
0.0
 10
157.7048
 20
94.6479
 30
0.0
 10
155.7185
 20
92.2498
 30
0.0
 10
153.2852
 20
89.1302
 30
0.0
 10
153.2852
 20
89.1302
 30
0.0
 10
155.0368
 20
86.5315
 30
0.0
 10
158.426
 20
83.0157
 30
0.0
 10
160.88
 20
81.5215
 30
0.0
 10
160.88
 20
81.5215
 30
0.0
 10
164.0418
 20
83.8388
 30
0.0
 10
165.8339
 20
85.6973
 30
0.0
 10
168.4721
 20
89.0795
 30
0.0
  0
SPLINE
  5
52
330
1F
100
AcDbEntity
  8
layer 1
 62
     7
100
AcDbSpline
210
0.0
220
0.0
230
1.0
 70
    11
 71
     3
 72
    12
 73
     8
 74
     0
 42
0.0000000001
 43
0.0000000001
 12
1.0
 22
0.0
 32
0.0
 13
1.0
 23
0.0
 33
0.0
 40
0.0
 40
0.0
 40
0.0
 40
0.0
 40
0.3333333333333333
 40
0.3333333333333333
 40
0.3333333333333333
 40
0.3333333333333333
 40
1.0
 40
1.0
 40
1.0
 40
1.0
 10
147.4226
 20
92.2238
 30
0.0
 10
145.5383
 20
90.5051
 30
0.0
 10
145.8459
 20
87.3522
 30
0.0
 10
147.4378
 20
85.9082
 30
0.0
 10
147.4378
 20
85.9082
 30
0.0
 10
149.3657
 20
87.5108
 30
0.0
 10
149.1344
 20
90.5227
 30
0.0
 10
147.4226
 20
92.2238
 30
0.0
  0
SPLINE
  5
53
330
1F
100
AcDbEntity
  8
layer 1
 62
     7
100
AcDbSpline
210
0.0
220
0.0
230
1.0
 70
    11
 71
     3
 72
    20
 73
    16
 74
     0
 42
0.0000000001
 43
0.0000000001
 12
1.0
 22
0.0
 32
0.0
 13
1.0
 23
0.0
 33
0.0
 40
0.0
 40
0.0
 40
0.0
 40
0.0
 40
0.2
 40
0.2
 40
0.2
 40
0.2
 40
0.4
 40
0.4
 40
0.4
 40
0.4
 40
0.6
 40
0.6
 40
0.6
 40
0.6
 40
1.0
 40
1.0
 40
1.0
 40
1.0
 10
145.792
 20
100.6863
 30
0.0
 10
143.7829
 20
100.6898
 30
0.0
 10
139.6585
 20
99.7867
 30
0.0
 10
138.059
 20
98.6984
 30
0.0
 10
138.059
 20
98.6984
 30
0.0
 10
140.2832
 20
96.5656
 30
0.0
 10
142.0087
 20
94.8703
 30
0.0
 10
143.6658
 20
92.9346
 30
0.0
 10
143.6658
 20
92.9346
 30
0.0
 10
144.9991
 20
96.0618
 30
0.0
 10
145.4285
 20
98.3488
 30
0.0
 10
145.7922
 20
100.6863
 30
0.0
 10
145.7922
 20
100.6863
 30
0.0
 10
145.7922
 20
100.6863
 30
0.0
 10
145.792
 20
100.6863
 30
0.0
 10
145.792
 20
100.6863
 30
0.0
  0
SPLINE
  5
54
330
1F
100
AcDbEntity
  8
layer 1
 62
     7
100
AcDbSpline
210
0.0
220
0.0
230
1.0
 70
    11
 71
     3
 72
    16
 73
    12
 74
     0
 42
0.0000000001
 43
0.0000000001
 12
1.0
 22
0.0
 32
0.0
 13
1.0
 23
0.0
 33
0.0
 40
0.0
 40
0.0
 40
0.0
 40
0.0
 40
0.25
 40
0.25
 40
0.25
 40
0.25
 40
0.5
 40
0.5
 40
0.5
 40
0.5
 40
1.0
 40
1.0
 40
1.0
 40
1.0
 10
149.18
 20
100.6863
 30
0.0
 10
151.1891
 20
100.6898
 30
0.0
 10
155.3136
 20
99.7866
 30
0.0
 10
156.913
 20
98.6984
 30
0.0
 10
156.913
 20
98.6984
 30
0.0
 10
154.6888
 20
96.5656
 30
0.0
 10
152.9634
 20
94.8703
 30
0.0
 10
151.3064
 20
92.9346
 30
0.0
 10
151.3064
 20
92.9346
 30
0.0
 10
149.9729
 20
96.0618
 30
0.0
 10
149.5436
 20
98.3488
 30
0.0
 10
149.18
 20
100.6863
 30
0.0
  0
SPLINE
  5
55
330
1F
100
AcDbEntity
  8
layer 1
 62
     7
100
AcDbSpline
210
0.0
220
0.0
230
1.0
 70
    11
 71
     3
 72
    20
 73
    16
 74
     0
 42
0.0000000001
 43
0.0000000001
 12
1.0
 22
0.0
 32
0.0
 13
1.0
 23
0.0
 33
0.0
 40
0.0
 40
0.0
 40
0.0
 40
0.0
 40
0.2
 40
0.2
 40
0.2
 40
0.2
 40
0.4
 40
0.4
 40
0.4
 40
0.4
 40
0.6
 40
0.6
 40
0.6
 40
0.6
 40
1.0
 40
1.0
 40
1.0
 40
1.0
 10
145.792
 20
77.4924
 30
0.0
 10
143.7829
 20
77.4889
 30
0.0
 10
139.6585
 20
78.392
 30
0.0
 10
138.059
 20
79.4803
 30
0.0
 10
138.059
 20
79.4803
 30
0.0
 10
140.2832
 20
81.6131
 30
0.0
 10
142.0087
 20
83.3084
 30
0.0
 10
143.6658
 20
85.2442
 30
0.0
 10
143.6658
 20
85.2442
 30
0.0
 10
144.9991
 20
82.117
 30
0.0
 10
145.4285
 20
79.8299
 30
0.0
 10
145.7922
 20
77.4924
 30
0.0
 10
145.7922
 20
77.4924
 30
0.0
 10
145.7922
 20
77.4924
 30
0.0
 10
145.792
 20
77.4924
 30
0.0
 10
145.792
 20
77.4924
 30
0.0
  0
SPLINE
  5
56
330
1F
100
AcDbEntity
  8
layer 1
 62
     7
100
AcDbSpline
210
0.0
220
0.0
230
1.0
 70
    11
 71
     3
 72
    20
 73
    16
 74
     0
 42
0.0000000001
 43
0.0000000001
 12
1.0
 22
0.0
 32
0.0
 13
1.0
 23
0.0
 33
0.0
 40
0.0
 40
0.0
 40
0.0
 40
0.0
 40
0.2
 40
0.2
 40
0.2
 40
0.2
 40
0.4
 40
0.4
 40
0.4
 40
0.4
 40
0.6
 40
0.6
 40
0.6
 40
0.6
 40
1.0
 40
1.0
 40
1.0
 40
1.0
 10
149.18
 20
77.4924
 30
0.0
 10
151.1891
 20
77.4889
 30
0.0
 10
155.3136
 20
78.3921
 30
0.0
 10
156.913
 20
79.4803
 30
0.0
 10
156.913
 20
79.4803
 30
0.0
 10
154.6888
 20
81.6131
 30
0.0
 10
152.9633
 20
83.3084
 30
0.0
 10
151.3062
 20
85.2442
 30
0.0
 10
151.3062
 20
85.2442
 30
0.0
 10
149.9729
 20
82.117
 30
0.0
 10
149.5435
 20
79.8299
 30
0.0
 10
149.1799
 20
77.4924
 30
0.0
 10
149.1799
 20
77.4924
 30
0.0
 10
149.1799
 20
77.4924
 30
0.0
 10
149.18
 20
77.4924
 30
0.0
 10
149.18
 20
77.4924
 30
0.0
  0
SPLINE
  5
57
330
1F
100
AcDbEntity
  8
layer 1
 62
     7
100
AcDbSpline
210
0.0
220
0.0
230
1.0
 70
    11
 71
     3
 72
    12
 73
     8
 74
     0
 42
0.0000000001
 43
0.0000000001
 12
1.0
 22
0.0
 32
0.0
 13
1.0
 23
0.0
 33
0.0
 40
0.0
 40
0.0
 40
0.0
 40
0.0
 40
0.3333333333333333
 40
0.3333333333333333
 40
0.3333333333333333
 40
0.3333333333333333
 40
1.0
 40
1.0
 40
1.0
 40
1.0
 10
164.0922
 20
102.4912
 30
0.0
 10
162.3735
 20
104.3755
 30
0.0
 10
159.2206
 20
104.0679
 30
0.0
 10
157.7766
 20
102.476
 30
0.0
 10
157.7766
 20
102.476
 30
0.0
 10
159.3791
 20
100.5482
 30
0.0
 10
162.391
 20
100.7794
 30
0.0
 10
164.0922
 20
102.4912
 30
0.0
  0
SPLINE
  5
58
330
1F
100
AcDbEntity
  8
layer 1
 62
     7
100
AcDbSpline
210
0.0
220
0.0
230
1.0
 70
    11
 71
     3
 72
    24
 73
    20
 74
     0
 42
0.0000000001
 43
0.0000000001
 12
1.0
 22
0.0
 32
0.0
 13
1.0
 23
0.0
 33
0.0
 40
0.0
 40
0.0
 40
0.0
 40
0.0
 40
0.1666666666666667
 40
0.1666666666666667
 40
0.1666666666666667
 40
0.1666666666666667
 40
0.3333333333333333
 40
0.3333333333333333
 40
0.3333333333333333
 40
0.3333333333333333
 40
0.5
 40
0.5
 40
0.5
 40
0.5
 40
0.6666666666666666
 40
0.6666666666666666
 40
0.6666666666666666
 40
0.6666666666666666
 40
1.0
 40
1.0
 40
1.0
 40
1.0
 10
188.7052
 20
95.8302
 30
0.0
 10
188.3644
 20
96.046
 30
0.0
 10
188.0232
 20
96.2426
 30
0.0
 10
187.6828
 20
96.4182
 30
0.0
 10
187.6828
 20
96.4182
 30
0.0
 10
184.5663
 20
94.6479
 30
0.0
 10
182.58
 20
92.2498
 30
0.0
 10
180.1468
 20
89.1302
 30
0.0
 10
180.1468
 20
89.1302
 30
0.0
 10
181.8984
 20
86.5315
 30
0.0
 10
185.2875
 20
83.0157
 30
0.0
 10
187.7415
 20
81.5215
 30
0.0
 10
187.7415
 20
81.5215
 30
0.0
 10
188.0553
 20
81.7515
 30
0.0
 10
188.3557
 20
81.977
 30
0.0
 10
188.6446
 20
82.1999
 30
0.0
 10
188.6446
 20
82.1999
 30
0.0
 10
188.6446
 20
82.1999
 30
0.0
 10
188.7052
 20
95.8302
 30
0.0
 10
188.7052
 20
95.8302
 30
0.0
  0
SPLINE
  5
59
330
1F
100
AcDbEntity
  8
layer 1
 62
     7
100
AcDbSpline
210
0.0
220
0.0
230
1.0
 70
    11
 71
     3
 72
    12
 73
     8
 74
     0
 42
0.0000000001
 43
0.0000000001
 12
1.0
 22
0.0
 32
0.0
 13
1.0
 23
0.0
 33
0.0
 40
0.0
 40
0.0
 40
0.0
 40
0.0
 40
0.3333333333333333
 40
0.3333333333333333
 40
0.3333333333333333
 40
0.3333333333333333
 40
1.0
 40
1.0
 40
1.0
 40
1.0
 10
174.2843
 20
92.2238
 30
0.0
 10
172.4
 20
90.5051
 30
0.0
 10
172.7076
 20
87.3522
 30
0.0
 10
174.2995
 20
85.9082
 30
0.0
 10
174.2995
 20
85.9082
 30
0.0
 10
176.2273
 20
87.5108
 30
0.0
 10
175.9961
 20
90.5227
 30
0.0
 10
174.2843
 20
92.2238
 30
0.0
  0
SPLINE
  5
5A
330
1F
100
AcDbEntity
  8
layer 1
 62
     7
100
AcDbSpline
210
0.0
220
0.0
230
1.0
 70
    11
 71
     3
 72
    20
 73
    16
 74
     0
 42
0.0000000001
 43
0.0000000001
 12
1.0
 22
0.0
 32
0.0
 13
1.0
 23
0.0
 33
0.0
 40
0.0
 40
0.0
 40
0.0
 40
0.0
 40
0.2
 40
0.2
 40
0.2
 40
0.2
 40
0.4
 40
0.4
 40
0.4
 40
0.4
 40
0.6
 40
0.6
 40
0.6
 40
0.6
 40
1.0
 40
1.0
 40
1.0
 40
1.0
 10
172.6537
 20
100.6863
 30
0.0
 10
170.6446
 20
100.6898
 30
0.0
 10
166.5201
 20
99.7866
 30
0.0
 10
164.9207
 20
98.6984
 30
0.0
 10
164.9207
 20
98.6984
 30
0.0
 10
167.1449
 20
96.5656
 30
0.0
 10
168.8704
 20
94.8703
 30
0.0
 10
170.5274
 20
92.9346
 30
0.0
 10
170.5274
 20
92.9346
 30
0.0
 10
171.8608
 20
96.0618
 30
0.0
 10
172.2902
 20
98.3488
 30
0.0
 10
172.6538
 20
100.6863
 30
0.0
 10
172.6538
 20
100.6863
 30
0.0
 10
172.6538
 20
100.6863
 30
0.0
 10
172.6537
 20
100.6863
 30
0.0
 10
172.6537
 20
100.6863
 30
0.0
  0
SPLINE
  5
5B
330
1F
100
AcDbEntity
  8
layer 1
 62
     7
100
AcDbSpline
210
0.0
220
0.0
230
1.0
 70
    11
 71
     3
 72
    20
 73
    16
 74
     0
 42
0.0000000001
 43
0.0000000001
 12
1.0
 22
0.0
 32
0.0
 13
1.0
 23
0.0
 33
0.0
 40
0.0
 40
0.0
 40
0.0
 40
0.0
 40
0.2
 40
0.2
 40
0.2
 40
0.2
 40
0.4
 40
0.4
 40
0.4
 40
0.4
 40
0.6
 40
0.6
 40
0.6
 40
0.6
 40
1.0
 40
1.0
 40
1.0
 40
1.0
 10
176.0415
 20
100.6863
 30
0.0
 10
178.0506
 20
100.6898
 30
0.0
 10
182.1751
 20
99.7866
 30
0.0
 10
183.7745
 20
98.6984
 30
0.0
 10
183.7745
 20
98.6984
 30
0.0
 10
181.5504
 20
96.5656
 30
0.0
 10
179.8248
 20
94.8703
 30
0.0
 10
178.1678
 20
92.9346
 30
0.0
 10
178.1678
 20
92.9346
 30
0.0
 10
176.8344
 20
96.0618
 30
0.0
 10
176.405
 20
98.3488
 30
0.0
 10
176.0414
 20
100.6863
 30
0.0
 10
176.0414
 20
100.6863
 30
0.0
 10
176.0414
 20
100.6863
 30
0.0
 10
176.0415
 20
100.6863
 30
0.0
 10
176.0415
 20
100.6863
 30
0.0
  0
SPLINE
  5
5C
330
1F
100
AcDbEntity
  8
layer 1
 62
     7
100
AcDbSpline
210
0.0
220
0.0
230
1.0
 70
    11
 71
     3
 72
    20
 73
    16
 74
     0
 42
0.0000000001
 43
0.0000000001
 12
1.0
 22
0.0
 32
0.0
 13
1.0
 23
0.0
 33
0.0
 40
0.0
 40
0.0
 40
0.0
 40
0.0
 40
0.2
 40
0.2
 40
0.2
 40
0.2
 40
0.4
 40
0.4
 40
0.4
 40
0.4
 40
0.6
 40
0.6
 40
0.6
 40
0.6
 40
1.0
 40
1.0
 40
1.0
 40
1.0
 10
172.6537
 20
77.4924
 30
0.0
 10
170.6446
 20
77.4889
 30
0.0
 10
166.5201
 20
78.3921
 30
0.0
 10
164.9207
 20
79.4803
 30
0.0
 10
164.9207
 20
79.4803
 30
0.0
 10
167.1449
 20
81.6131
 30
0.0
 10
168.8704
 20
83.3084
 30
0.0
 10
170.5274
 20
85.2442
 30
0.0
 10
170.5274
 20
85.2442
 30
0.0
 10
171.8608
 20
82.117
 30
0.0
 10
172.2902
 20
79.8299
 30
0.0
 10
172.6538
 20
77.4924
 30
0.0
 10
172.6538
 20
77.4924
 30
0.0
 10
172.6538
 20
77.4924
 30
0.0
 10
172.6537
 20
77.4924
 30
0.0
 10
172.6537
 20
77.4924
 30
0.0
  0
SPLINE
  5
5D
330
1F
100
AcDbEntity
  8
layer 1
 62
     7
100
AcDbSpline
210
0.0
220
0.0
230
1.0
 70
    11
 71
     3
 72
    20
 73
    16
 74
     0
 42
0.0000000001
 43
0.0000000001
 12
1.0
 22
0.0
 32
0.0
 13
1.0
 23
0.0
 33
0.0
 40
0.0
 40
0.0
 40
0.0
 40
0.0
 40
0.2
 40
0.2
 40
0.2
 40
0.2
 40
0.4
 40
0.4
 40
0.4
 40
0.4
 40
0.6
 40
0.6
 40
0.6
 40
0.6
 40
1.0
 40
1.0
 40
1.0
 40
1.0
 10
176.0415
 20
77.4924
 30
0.0
 10
178.0506
 20
77.4889
 30
0.0
 10
182.1751
 20
78.3921
 30
0.0
 10
183.7745
 20
79.4803
 30
0.0
 10
183.7745
 20
79.4803
 30
0.0
 10
181.5504
 20
81.6131
 30
0.0
 10
179.8248
 20
83.3084
 30
0.0
 10
178.1678
 20
85.2442
 30
0.0
 10
178.1678
 20
85.2442
 30
0.0
 10
176.8344
 20
82.117
 30
0.0
 10
176.405
 20
79.8299
 30
0.0
 10
176.0414
 20
77.4924
 30
0.0
 10
176.0414
 20
77.4924
 30
0.0
 10
176.0414
 20
77.4924
 30
0.0
 10
176.0415
 20
77.4924
 30
0.0
 10
176.0415
 20
77.4924
 30
0.0
  0
SPLINE
  5
5E
330
1F
100
AcDbEntity
  8
layer 1
 62
     7
100
AcDbSpline
210
0.0
220
0.0
230
1.0
 70
    11
 71
     3
 72
    20
 73
    16
 74
     0
 42
0.0000000001
 43
0.0000000001
 12
1.0
 22
0.0
 32
0.0
 13
1.0
 23
0.0
 33
0.0
 40
0.0
 40
0.0
 40
0.0
 40
0.0
 40
0.2
 40
0.2
 40
0.2
 40
0.2
 40
0.4
 40
0.4
 40
0.4
 40
0.4
 40
0.6
 40
0.6
 40
0.6
 40
0.6
 40
1.0
 40
1.0
 40
1.0
 40
1.0
 10
188.7429
 20
103.7058
 30
0.0
 10
187.2272
 20
103.9998
 30
0.0
 10
185.5738
 20
103.5075
 30
0.0
 10
184.6383
 20
102.4759
 30
0.0
 10
184.6383
 20
102.4759
 30
0.0
 10
185.6653
 20
101.2403
 30
0.0
 10
187.2714
 20
100.8916
 30
0.0
 10
188.7402
 20
101.2512
 30
0.0
 10
188.7402
 20
101.2512
 30
0.0
 10
188.7402
 20
101.2512
 30
0.0
 10
188.743
 20
103.7056
 30
0.0
 10
188.743
 20
103.7056
 30
0.0
 10
188.743
 20
103.7056
 30
0.0
 10
188.743
 20
103.7056
 30
0.0
 10
188.7429
 20
103.7058
 30
0.0
 10
188.7429
 20
103.7058
 30
0.0
  0
SPLINE
  5
5F
330
1F
100
AcDbEntity
  8
layer 1
 62
     7
100
AcDbSpline
210
0.0
220
0.0
230
1.0
 70
    11
 71
     3
 72
    24
 73
    20
 74
     0
 42
0.0000000001
 43
0.0000000001
 12
1.0
 22
0.0
 32
0.0
 13
1.0
 23
0.0
 33
0.0
 40
0.0
 40
0.0
 40
0.0
 40
0.0
 40
0.1666666666666667
 40
0.1666666666666667
 40
0.1666666666666667
 40
0.1666666666666667
 40
0.3333333333333333
 40
0.3333333333333333
 40
0.3333333333333333
 40
0.3333333333333333
 40
0.5
 40
0.5
 40
0.5
 40
0.5
 40
0.6666666666666666
 40
0.6666666666666666
 40
0.6666666666666666
 40
0.6666666666666666
 40
1.0
 40
1.0
 40
1.0
 40
1.0
 10
79.3077
 20
95.8302
 30
0.0
 10
79.6485
 20
96.046
 30
0.0
 10
79.9897
 20
96.2426
 30
0.0
 10
80.3302
 20
96.4182
 30
0.0
 10
80.3302
 20
96.4182
 30
0.0
 10
83.4466
 20
94.6479
 30
0.0
 10
85.4329
 20
92.2498
 30
0.0
 10
87.8662
 20
89.1302
 30
0.0
 10
87.8662
 20
89.1302
 30
0.0
 10
86.1146
 20
86.5315
 30
0.0
 10
82.7254
 20
83.0157
 30
0.0
 10
80.2715
 20
81.5215
 30
0.0
 10
80.2715
 20
81.5215
 30
0.0
 10
79.9576
 20
81.7515
 30
0.0
 10
79.6573
 20
81.977
 30
0.0
 10
79.3684
 20
82.1999
 30
0.0
 10
79.3684
 20
82.1999
 30
0.0
 10
79.3684
 20
82.1999
 30
0.0
 10
79.3077
 20
95.8302
 30
0.0
 10
79.3077
 20
95.8302
 30
0.0
  0
SPLINE
  5
60
330
1F
100
AcDbEntity
  8
layer 1
 62
     7
100
AcDbSpline
210
0.0
220
0.0
230
1.0
 70
    11
 71
     3
 72
    24
 73
    20
 74
     0
 42
0.0000000001
 43
0.0000000001
 12
1.0
 22
0.0
 32
0.0
 13
1.0
 23
0.0
 33
0.0
 40
0.0
 40
0.0
 40
0.0
 40
0.0
 40
0.1666666666666667
 40
0.1666666666666667
 40
0.1666666666666667
 40
0.1666666666666667
 40
0.3333333333333333
 40
0.3333333333333333
 40
0.3333333333333333
 40
0.3333333333333333
 40
0.5
 40
0.5
 40
0.5
 40
0.5
 40
0.6666666666666666
 40
0.6666666666666666
 40
0.6666666666666666
 40
0.6666666666666666
 40
1.0
 40
1.0
 40
1.0
 40
1.0
 10
114.8356
 20
62.2433
 30
0.0
 10
112.6607
 20
65.4569
 30
0.0
 10
109.8952
 20
68.1839
 30
0.0
 10
107.1848
 20
69.5819
 30
0.0
 10
107.1848
 20
69.5819
 30
0.0
 10
104.0683
 20
67.8117
 30
0.0
 10
102.082
 20
65.4135
 30
0.0
 10
99.6487
 20
62.2939
 30
0.0
 10
99.6487
 20
62.2939
 30
0.0
 10
101.4004
 20
59.6953
 30
0.0
 10
104.7895
 20
56.1794
 30
0.0
 10
107.2435
 20
54.6853
 30
0.0
 10
107.2435
 20
54.6853
 30
0.0
 10
110.4053
 20
57.0026
 30
0.0
 10
112.1974
 20
58.861
 30
0.0
 10
114.8356
 20
62.2432
 30
0.0
 10
114.8356
 20
62.2432
 30
0.0
 10
114.8356
 20
62.2432
 30
0.0
 10
114.8356
 20
62.2433
 30
0.0
 10
114.8356
 20
62.2433
 30
0.0
  0
SPLINE
  5
61
330
1F
100
AcDbEntity
  8
layer 1
 62
     7
100
AcDbSpline
210
0.0
220
0.0
230
1.0
 70
    11
 71
     3
 72
    12
 73
     8
 74
     0
 42
0.0000000001
 43
0.0000000001
 12
1.0
 22
0.0
 32
0.0
 13
1.0
 23
0.0
 33
0.0
 40
0.0
 40
0.0
 40
0.0
 40
0.0
 40
0.3333333333333333
 40
0.3333333333333333
 40
0.3333333333333333
 40
0.3333333333333333
 40
1.0
 40
1.0
 40
1.0
 40
1.0
 10
93.7861
 20
65.3877
 30
0.0
 10
91.9019
 20
63.669
 30
0.0
 10
92.2094
 20
60.5161
 30
0.0
 10
93.8013
 20
59.0721
 30
0.0
 10
93.8013
 20
59.0721
 30
0.0
 10
95.7292
 20
60.6746
 30
0.0
 10
95.4979
 20
63.6865
 30
0.0
 10
93.7861
 20
65.3877
 30
0.0
  0
SPLINE
  5
62
330
1F
100
AcDbEntity
  8
layer 1
 62
     7
100
AcDbSpline
210
0.0
220
0.0
230
1.0
 70
    11
 71
     3
 72
    20
 73
    16
 74
     0
 42
0.0000000001
 43
0.0000000001
 12
1.0
 22
0.0
 32
0.0
 13
1.0
 23
0.0
 33
0.0
 40
0.0
 40
0.0
 40
0.0
 40
0.0
 40
0.2
 40
0.2
 40
0.2
 40
0.2
 40
0.4
 40
0.4
 40
0.4
 40
0.4
 40
0.6
 40
0.6
 40
0.6
 40
0.6
 40
1.0
 40
1.0
 40
1.0
 40
1.0
 10
92.1555
 20
73.8501
 30
0.0
 10
90.1464
 20
73.8537
 30
0.0
 10
86.0219
 20
72.9505
 30
0.0
 10
84.4226
 20
71.8623
 30
0.0
 10
84.4226
 20
71.8623
 30
0.0
 10
86.6467
 20
69.7295
 30
0.0
 10
88.3722
 20
68.0342
 30
0.0
 10
90.0293
 20
66.0984
 30
0.0
 10
90.0293
 20
66.0984
 30
0.0
 10
91.3627
 20
69.2256
 30
0.0
 10
91.792
 20
71.5127
 30
0.0
 10
92.1557
 20
73.8501
 30
0.0
 10
92.1557
 20
73.8501
 30
0.0
 10
92.1557
 20
73.8501
 30
0.0
 10
92.1555
 20
73.8501
 30
0.0
 10
92.1555
 20
73.8501
 30
0.0
  0
SPLINE
  5
63
330
1F
100
AcDbEntity
  8
layer 1
 62
     7
100
AcDbSpline
210
0.0
220
0.0
230
1.0
 70
    11
 71
     3
 72
    16
 73
    12
 74
     0
 42
0.0000000001
 43
0.0000000001
 12
1.0
 22
0.0
 32
0.0
 13
1.0
 23
0.0
 33
0.0
 40
0.0
 40
0.0
 40
0.0
 40
0.0
 40
0.25
 40
0.25
 40
0.25
 40
0.25
 40
0.5
 40
0.5
 40
0.5
 40
0.5
 40
1.0
 40
1.0
 40
1.0
 40
1.0
 10
95.5435
 20
73.8501
 30
0.0
 10
97.5526
 20
73.8537
 30
0.0
 10
101.6771
 20
72.9505
 30
0.0
 10
103.2765
 20
71.8623
 30
0.0
 10
103.2765
 20
71.8623
 30
0.0
 10
101.0523
 20
69.7295
 30
0.0
 10
99.3268
 20
68.034
 30
0.0
 10
97.6698
 20
66.0984
 30
0.0
 10
97.6698
 20
66.0984
 30
0.0
 10
96.3364
 20
69.2255
 30
0.0
 10
95.9071
 20
71.5127
 30
0.0
 10
95.5435
 20
73.8501
 30
0.0
  0
SPLINE
  5
64
330
1F
100
AcDbEntity
  8
layer 1
 62
     7
100
AcDbSpline
210
0.0
220
0.0
230
1.0
 70
    11
 71
     3
 72
    20
 73
    16
 74
     0
 42
0.0000000001
 43
0.0000000001
 12
1.0
 22
0.0
 32
0.0
 13
1.0
 23
0.0
 33
0.0
 40
0.0
 40
0.0
 40
0.0
 40
0.0
 40
0.2
 40
0.2
 40
0.2
 40
0.2
 40
0.4
 40
0.4
 40
0.4
 40
0.4
 40
0.6
 40
0.6
 40
0.6
 40
0.6
 40
1.0
 40
1.0
 40
1.0
 40
1.0
 10
92.1555
 20
50.6562
 30
0.0
 10
90.1464
 20
50.6526
 30
0.0
 10
86.0219
 20
51.5558
 30
0.0
 10
84.4226
 20
52.6442
 30
0.0
 10
84.4226
 20
52.6442
 30
0.0
 10
86.6467
 20
54.777
 30
0.0
 10
88.3722
 20
56.4723
 30
0.0
 10
90.0293
 20
58.408
 30
0.0
 10
90.0293
 20
58.408
 30
0.0
 10
91.3627
 20
55.2808
 30
0.0
 10
91.792
 20
52.9938
 30
0.0
 10
92.1557
 20
50.6563
 30
0.0
 10
92.1557
 20
50.6563
 30
0.0
 10
92.1557
 20
50.6563
 30
0.0
 10
92.1555
 20
50.6562
 30
0.0
 10
92.1555
 20
50.6562
 30
0.0
  0
SPLINE
  5
65
330
1F
100
AcDbEntity
  8
layer 1
 62
     7
100
AcDbSpline
210
0.0
220
0.0
230
1.0
 70
    11
 71
     3
 72
    20
 73
    16
 74
     0
 42
0.0000000001
 43
0.0000000001
 12
1.0
 22
0.0
 32
0.0
 13
1.0
 23
0.0
 33
0.0
 40
0.0
 40
0.0
 40
0.0
 40
0.0
 40
0.2
 40
0.2
 40
0.2
 40
0.2
 40
0.4
 40
0.4
 40
0.4
 40
0.4
 40
0.6
 40
0.6
 40
0.6
 40
0.6
 40
1.0
 40
1.0
 40
1.0
 40
1.0
 10
95.5435
 20
50.6562
 30
0.0
 10
97.5526
 20
50.6526
 30
0.0
 10
101.6771
 20
51.5558
 30
0.0
 10
103.2765
 20
52.6441
 30
0.0
 10
103.2765
 20
52.6441
 30
0.0
 10
101.0523
 20
54.7769
 30
0.0
 10
99.3268
 20
56.4722
 30
0.0
 10
97.6698
 20
58.4079
 30
0.0
 10
97.6698
 20
58.4079
 30
0.0
 10
96.3364
 20
55.2807
 30
0.0
 10
95.907
 20
52.9937
 30
0.0
 10
95.5434
 20
50.6562
 30
0.0
 10
95.5434
 20
50.6562
 30
0.0
 10
95.5434
 20
50.6562
 30
0.0
 10
95.5435
 20
50.6562
 30
0.0
 10
95.5435
 20
50.6562
 30
0.0
  0
SPLINE
  5
66
330
1F
100
AcDbEntity
  8
layer 1
 62
     7
100
AcDbSpline
210
0.0
220
0.0
230
1.0
 70
    11
 71
     3
 72
    12
 73
     8
 74
     0
 42
0.0000000001
 43
0.0000000001
 12
1.0
 22
0.0
 32
0.0
 13
1.0
 23
0.0
 33
0.0
 40
0.0
 40
0.0
 40
0.0
 40
0.0
 40
0.3333333333333333
 40
0.3333333333333333
 40
0.3333333333333333
 40
0.3333333333333333
 40
1.0
 40
1.0
 40
1.0
 40
1.0
 10
110.4557
 20
75.655
 30
0.0
 10
108.737
 20
77.5392
 30
0.0
 10
105.5841
 20
77.2317
 30
0.0
 10
104.1401
 20
75.6398
 30
0.0
 10
104.1401
 20
75.6398
 30
0.0
 10
105.7426
 20
73.7119
 30
0.0
 10
108.7545
 20
73.9432
 30
0.0
 10
110.4557
 20
75.655
 30
0.0
  0
SPLINE
  5
67
330
1F
100
AcDbEntity
  8
layer 1
 62
     7
100
AcDbSpline
210
0.0
220
0.0
230
1.0
 70
    11
 71
     3
 72
    16
 73
    12
 74
     0
 42
0.0000000001
 43
0.0000000001
 12
1.0
 22
0.0
 32
0.0
 13
1.0
 23
0.0
 33
0.0
 40
0.0
 40
0.0
 40
0.0
 40
0.0
 40
0.25
 40
0.25
 40
0.25
 40
0.25
 40
0.5
 40
0.5
 40
0.5
 40
0.5
 40
1.0
 40
1.0
 40
1.0
 40
1.0
 10
83.5074
 20
75.655
 30
0.0
 10
82.4345
 20
76.8313
 30
0.0
 10
80.7337
 20
77.1533
 30
0.0
 10
79.3077
 20
76.8421
 30
0.0
 10
79.3077
 20
76.8421
 30
0.0
 10
79.3077
 20
76.8421
 30
0.0
 10
79.3077
 20
74.3371
 30
0.0
 10
79.3077
 20
74.3371
 30
0.0
 10
79.3077
 20
74.3371
 30
0.0
 10
80.7746
 20
74.0112
 30
0.0
 10
82.4011
 20
74.5416
 30
0.0
 10
83.5074
 20
75.655
 30
0.0
  0
SPLINE
  5
68
330
1F
100
AcDbEntity
  8
layer 1
 62
     7
100
AcDbSpline
210
0.0
220
0.0
230
1.0
 70
    11
 71
     3
 72
    24
 73
    20
 74
     0
 42
0.0000000001
 43
0.0000000001
 12
1.0
 22
0.0
 32
0.0
 13
1.0
 23
0.0
 33
0.0
 40
0.0
 40
0.0
 40
0.0
 40
0.0
 40
0.1666666666666667
 40
0.1666666666666667
 40
0.1666666666666667
 40
0.1666666666666667
 40
0.3333333333333333
 40
0.3333333333333333
 40
0.3333333333333333
 40
0.3333333333333333
 40
0.5
 40
0.5
 40
0.5
 40
0.5
 40
0.6666666666666666
 40
0.6666666666666666
 40
0.6666666666666666
 40
0.6666666666666666
 40
1.0
 40
1.0
 40
1.0
 40
1.0
 10
141.6971
 20
62.2433
 30
0.0
 10
139.5224
 20
65.4569
 30
0.0
 10
136.7567
 20
68.1839
 30
0.0
 10
134.0463
 20
69.5819
 30
0.0
 10
134.0463
 20
69.5819
 30
0.0
 10
130.9299
 20
67.8117
 30
0.0
 10
128.9435
 20
65.4135
 30
0.0
 10
126.5103
 20
62.2939
 30
0.0
 10
126.5103
 20
62.2939
 30
0.0
 10
128.2619
 20
59.6953
 30
0.0
 10
131.6511
 20
56.1794
 30
0.0
 10
134.105
 20
54.6853
 30
0.0
 10
134.105
 20
54.6853
 30
0.0
 10
137.2668
 20
57.0026
 30
0.0
 10
139.0589
 20
58.861
 30
0.0
 10
141.6971
 20
62.2432
 30
0.0
 10
141.6971
 20
62.2432
 30
0.0
 10
141.6971
 20
62.2432
 30
0.0
 10
141.6971
 20
62.2433
 30
0.0
 10
141.6971
 20
62.2433
 30
0.0
  0
SPLINE
  5
69
330
1F
100
AcDbEntity
  8
layer 1
 62
     7
100
AcDbSpline
210
0.0
220
0.0
230
1.0
 70
    11
 71
     3
 72
    12
 73
     8
 74
     0
 42
0.0000000001
 43
0.0000000001
 12
1.0
 22
0.0
 32
0.0
 13
1.0
 23
0.0
 33
0.0
 40
0.0
 40
0.0
 40
0.0
 40
0.0
 40
0.3333333333333333
 40
0.3333333333333333
 40
0.3333333333333333
 40
0.3333333333333333
 40
1.0
 40
1.0
 40
1.0
 40
1.0
 10
120.6476
 20
65.3877
 30
0.0
 10
118.7634
 20
63.669
 30
0.0
 10
119.0709
 20
60.5161
 30
0.0
 10
120.6628
 20
59.0721
 30
0.0
 10
120.6628
 20
59.0721
 30
0.0
 10
122.5907
 20
60.6746
 30
0.0
 10
122.3594
 20
63.6865
 30
0.0
 10
120.6476
 20
65.3877
 30
0.0
  0
SPLINE
  5
6A
330
1F
100
AcDbEntity
  8
layer 1
 62
     7
100
AcDbSpline
210
0.0
220
0.0
230
1.0
 70
    11
 71
     3
 72
    20
 73
    16
 74
     0
 42
0.0000000001
 43
0.0000000001
 12
1.0
 22
0.0
 32
0.0
 13
1.0
 23
0.0
 33
0.0
 40
0.0
 40
0.0
 40
0.0
 40
0.0
 40
0.2
 40
0.2
 40
0.2
 40
0.2
 40
0.4
 40
0.4
 40
0.4
 40
0.4
 40
0.6
 40
0.6
 40
0.6
 40
0.6
 40
1.0
 40
1.0
 40
1.0
 40
1.0
 10
119.0171
 20
73.8501
 30
0.0
 10
117.008
 20
73.8537
 30
0.0
 10
112.8836
 20
72.9505
 30
0.0
 10
111.2841
 20
71.8623
 30
0.0
 10
111.2841
 20
71.8623
 30
0.0
 10
113.5082
 20
69.7295
 30
0.0
 10
115.2338
 20
68.0342
 30
0.0
 10
116.8908
 20
66.0984
 30
0.0
 10
116.8908
 20
66.0984
 30
0.0
 10
118.2242
 20
69.2256
 30
0.0
 10
118.6536
 20
71.5127
 30
0.0
 10
119.0172
 20
73.8501
 30
0.0
 10
119.0172
 20
73.8501
 30
0.0
 10
119.0172
 20
73.8501
 30
0.0
 10
119.0171
 20
73.8501
 30
0.0
 10
119.0171
 20
73.8501
 30
0.0
  0
SPLINE
  5
6B
330
1F
100
AcDbEntity
  8
layer 1
 62
     7
100
AcDbSpline
210
0.0
220
0.0
230
1.0
 70
    11
 71
     3
 72
    16
 73
    12
 74
     0
 42
0.0000000001
 43
0.0000000001
 12
1.0
 22
0.0
 32
0.0
 13
1.0
 23
0.0
 33
0.0
 40
0.0
 40
0.0
 40
0.0
 40
0.0
 40
0.25
 40
0.25
 40
0.25
 40
0.25
 40
0.5
 40
0.5
 40
0.5
 40
0.5
 40
1.0
 40
1.0
 40
1.0
 40
1.0
 10
122.405
 20
73.8501
 30
0.0
 10
124.4142
 20
73.8537
 30
0.0
 10
128.5387
 20
72.9505
 30
0.0
 10
130.138
 20
71.8623
 30
0.0
 10
130.138
 20
71.8623
 30
0.0
 10
127.9139
 20
69.7295
 30
0.0
 10
126.1885
 20
68.034
 30
0.0
 10
124.5314
 20
66.0984
 30
0.0
 10
124.5314
 20
66.0984
 30
0.0
 10
123.1979
 20
69.2255
 30
0.0
 10
122.7687
 20
71.5127
 30
0.0
 10
122.405
 20
73.8501
 30
0.0
  0
SPLINE
  5
6C
330
1F
100
AcDbEntity
  8
layer 1
 62
     7
100
AcDbSpline
210
0.0
220
0.0
230
1.0
 70
    11
 71
     3
 72
    20
 73
    16
 74
     0
 42
0.0000000001
 43
0.0000000001
 12
1.0
 22
0.0
 32
0.0
 13
1.0
 23
0.0
 33
0.0
 40
0.0
 40
0.0
 40
0.0
 40
0.0
 40
0.2
 40
0.2
 40
0.2
 40
0.2
 40
0.4
 40
0.4
 40
0.4
 40
0.4
 40
0.6
 40
0.6
 40
0.6
 40
0.6
 40
1.0
 40
1.0
 40
1.0
 40
1.0
 10
119.0171
 20
50.6562
 30
0.0
 10
117.008
 20
50.6526
 30
0.0
 10
112.8836
 20
51.5558
 30
0.0
 10
111.2841
 20
52.6442
 30
0.0
 10
111.2841
 20
52.6442
 30
0.0
 10
113.5082
 20
54.777
 30
0.0
 10
115.2338
 20
56.4723
 30
0.0
 10
116.8908
 20
58.408
 30
0.0
 10
116.8908
 20
58.408
 30
0.0
 10
118.2242
 20
55.2808
 30
0.0
 10
118.6536
 20
52.9938
 30
0.0
 10
119.0172
 20
50.6563
 30
0.0
 10
119.0172
 20
50.6563
 30
0.0
 10
119.0172
 20
50.6563
 30
0.0
 10
119.0171
 20
50.6562
 30
0.0
 10
119.0171
 20
50.6562
 30
0.0
  0
SPLINE
  5
6D
330
1F
100
AcDbEntity
  8
layer 1
 62
     7
100
AcDbSpline
210
0.0
220
0.0
230
1.0
 70
    11
 71
     3
 72
    20
 73
    16
 74
     0
 42
0.0000000001
 43
0.0000000001
 12
1.0
 22
0.0
 32
0.0
 13
1.0
 23
0.0
 33
0.0
 40
0.0
 40
0.0
 40
0.0
 40
0.0
 40
0.2
 40
0.2
 40
0.2
 40
0.2
 40
0.4
 40
0.4
 40
0.4
 40
0.4
 40
0.6
 40
0.6
 40
0.6
 40
0.6
 40
1.0
 40
1.0
 40
1.0
 40
1.0
 10
122.405
 20
50.6562
 30
0.0
 10
124.4142
 20
50.6526
 30
0.0
 10
128.5387
 20
51.5558
 30
0.0
 10
130.138
 20
52.6441
 30
0.0
 10
130.138
 20
52.6441
 30
0.0
 10
127.9139
 20
54.7769
 30
0.0
 10
126.1883
 20
56.4722
 30
0.0
 10
124.5313
 20
58.4079
 30
0.0
 10
124.5313
 20
58.4079
 30
0.0
 10
123.1979
 20
55.2807
 30
0.0
 10
122.7685
 20
52.9937
 30
0.0
 10
122.4049
 20
50.6562
 30
0.0
 10
122.4049
 20
50.6562
 30
0.0
 10
122.4049
 20
50.6562
 30
0.0
 10
122.405
 20
50.6562
 30
0.0
 10
122.405
 20
50.6562
 30
0.0
  0
SPLINE
  5
6E
330
1F
100
AcDbEntity
  8
layer 1
 62
     7
100
AcDbSpline
210
0.0
220
0.0
230
1.0
 70
    11
 71
     3
 72
    12
 73
     8
 74
     0
 42
0.0000000001
 43
0.0000000001
 12
1.0
 22
0.0
 32
0.0
 13
1.0
 23
0.0
 33
0.0
 40
0.0
 40
0.0
 40
0.0
 40
0.0
 40
0.3333333333333333
 40
0.3333333333333333
 40
0.3333333333333333
 40
0.3333333333333333
 40
1.0
 40
1.0
 40
1.0
 40
1.0
 10
137.3173
 20
75.655
 30
0.0
 10
135.5985
 20
77.5392
 30
0.0
 10
132.4456
 20
77.2317
 30
0.0
 10
131.0017
 20
75.6398
 30
0.0
 10
131.0017
 20
75.6398
 30
0.0
 10
132.6042
 20
73.7119
 30
0.0
 10
135.6161
 20
73.9432
 30
0.0
 10
137.3173
 20
75.655
 30
0.0
  0
SPLINE
  5
6F
330
1F
100
AcDbEntity
  8
layer 1
 62
     7
100
AcDbSpline
210
0.0
220
0.0
230
1.0
 70
    11
 71
     3
 72
    24
 73
    20
 74
     0
 42
0.0000000001
 43
0.0000000001
 12
1.0
 22
0.0
 32
0.0
 13
1.0
 23
0.0
 33
0.0
 40
0.0
 40
0.0
 40
0.0
 40
0.0
 40
0.1666666666666667
 40
0.1666666666666667
 40
0.1666666666666667
 40
0.1666666666666667
 40
0.3333333333333333
 40
0.3333333333333333
 40
0.3333333333333333
 40
0.3333333333333333
 40
0.5
 40
0.5
 40
0.5
 40
0.5
 40
0.6666666666666666
 40
0.6666666666666666
 40
0.6666666666666666
 40
0.6666666666666666
 40
1.0
 40
1.0
 40
1.0
 40
1.0
 10
168.4721
 20
62.2433
 30
0.0
 10
166.2973
 20
65.4569
 30
0.0
 10
163.5317
 20
68.1839
 30
0.0
 10
160.8213
 20
69.5819
 30
0.0
 10
160.8213
 20
69.5819
 30
0.0
 10
157.7048
 20
67.8117
 30
0.0
 10
155.7185
 20
65.4135
 30
0.0
 10
153.2852
 20
62.2939
 30
0.0
 10
153.2852
 20
62.2939
 30
0.0
 10
155.0368
 20
59.6953
 30
0.0
 10
158.426
 20
56.1794
 30
0.0
 10
160.88
 20
54.6853
 30
0.0
 10
160.88
 20
54.6853
 30
0.0
 10
164.0418
 20
57.0026
 30
0.0
 10
165.8339
 20
58.861
 30
0.0
 10
168.4721
 20
62.2432
 30
0.0
 10
168.4721
 20
62.2432
 30
0.0
 10
168.4721
 20
62.2432
 30
0.0
 10
168.4721
 20
62.2433
 30
0.0
 10
168.4721
 20
62.2433
 30
0.0
  0
SPLINE
  5
70
330
1F
100
AcDbEntity
  8
layer 1
 62
     7
100
AcDbSpline
210
0.0
220
0.0
230
1.0
 70
    11
 71
     3
 72
    12
 73
     8
 74
     0
 42
0.0000000001
 43
0.0000000001
 12
1.0
 22
0.0
 32
0.0
 13
1.0
 23
0.0
 33
0.0
 40
0.0
 40
0.0
 40
0.0
 40
0.0
 40
0.3333333333333333
 40
0.3333333333333333
 40
0.3333333333333333
 40
0.3333333333333333
 40
1.0
 40
1.0
 40
1.0
 40
1.0
 10
147.4226
 20
65.3877
 30
0.0
 10
145.5383
 20
63.669
 30
0.0
 10
145.8459
 20
60.5161
 30
0.0
 10
147.4378
 20
59.0721
 30
0.0
 10
147.4378
 20
59.0721
 30
0.0
 10
149.3657
 20
60.6746
 30
0.0
 10
149.1344
 20
63.6865
 30
0.0
 10
147.4226
 20
65.3877
 30
0.0
  0
SPLINE
  5
71
330
1F
100
AcDbEntity
  8
layer 1
 62
     7
100
AcDbSpline
210
0.0
220
0.0
230
1.0
 70
    11
 71
     3
 72
    20
 73
    16
 74
     0
 42
0.0000000001
 43
0.0000000001
 12
1.0
 22
0.0
 32
0.0
 13
1.0
 23
0.0
 33
0.0
 40
0.0
 40
0.0
 40
0.0
 40
0.0
 40
0.2
 40
0.2
 40
0.2
 40
0.2
 40
0.4
 40
0.4
 40
0.4
 40
0.4
 40
0.6
 40
0.6
 40
0.6
 40
0.6
 40
1.0
 40
1.0
 40
1.0
 40
1.0
 10
145.792
 20
73.8501
 30
0.0
 10
143.7829
 20
73.8537
 30
0.0
 10
139.6585
 20
72.9505
 30
0.0
 10
138.059
 20
71.8623
 30
0.0
 10
138.059
 20
71.8623
 30
0.0
 10
140.2832
 20
69.7295
 30
0.0
 10
142.0087
 20
68.0342
 30
0.0
 10
143.6658
 20
66.0984
 30
0.0
 10
143.6658
 20
66.0984
 30
0.0
 10
144.9991
 20
69.2256
 30
0.0
 10
145.4285
 20
71.5127
 30
0.0
 10
145.7922
 20
73.8501
 30
0.0
 10
145.7922
 20
73.8501
 30
0.0
 10
145.7922
 20
73.8501
 30
0.0
 10
145.792
 20
73.8501
 30
0.0
 10
145.792
 20
73.8501
 30
0.0
  0
SPLINE
  5
72
330
1F
100
AcDbEntity
  8
layer 1
 62
     7
100
AcDbSpline
210
0.0
220
0.0
230
1.0
 70
    11
 71
     3
 72
    16
 73
    12
 74
     0
 42
0.0000000001
 43
0.0000000001
 12
1.0
 22
0.0
 32
0.0
 13
1.0
 23
0.0
 33
0.0
 40
0.0
 40
0.0
 40
0.0
 40
0.0
 40
0.25
 40
0.25
 40
0.25
 40
0.25
 40
0.5
 40
0.5
 40
0.5
 40
0.5
 40
1.0
 40
1.0
 40
1.0
 40
1.0
 10
149.18
 20
73.8501
 30
0.0
 10
151.1891
 20
73.8537
 30
0.0
 10
155.3136
 20
72.9505
 30
0.0
 10
156.913
 20
71.8623
 30
0.0
 10
156.913
 20
71.8623
 30
0.0
 10
154.6888
 20
69.7295
 30
0.0
 10
152.9634
 20
68.034
 30
0.0
 10
151.3064
 20
66.0984
 30
0.0
 10
151.3064
 20
66.0984
 30
0.0
 10
149.9729
 20
69.2255
 30
0.0
 10
149.5436
 20
71.5127
 30
0.0
 10
149.18
 20
73.8501
 30
0.0
  0
SPLINE
  5
73
330
1F
100
AcDbEntity
  8
layer 1
 62
     7
100
AcDbSpline
210
0.0
220
0.0
230
1.0
 70
    11
 71
     3
 72
    20
 73
    16
 74
     0
 42
0.0000000001
 43
0.0000000001
 12
1.0
 22
0.0
 32
0.0
 13
1.0
 23
0.0
 33
0.0
 40
0.0
 40
0.0
 40
0.0
 40
0.0
 40
0.2
 40
0.2
 40
0.2
 40
0.2
 40
0.4
 40
0.4
 40
0.4
 40
0.4
 40
0.6
 40
0.6
 40
0.6
 40
0.6
 40
1.0
 40
1.0
 40
1.0
 40
1.0
 10
145.792
 20
50.6562
 30
0.0
 10
143.7829
 20
50.6526
 30
0.0
 10
139.6585
 20
51.5558
 30
0.0
 10
138.059
 20
52.6442
 30
0.0
 10
138.059
 20
52.6442
 30
0.0
 10
140.2832
 20
54.777
 30
0.0
 10
142.0087
 20
56.4723
 30
0.0
 10
143.6658
 20
58.408
 30
0.0
 10
143.6658
 20
58.408
 30
0.0
 10
144.9991
 20
55.2808
 30
0.0
 10
145.4285
 20
52.9938
 30
0.0
 10
145.7922
 20
50.6563
 30
0.0
 10
145.7922
 20
50.6563
 30
0.0
 10
145.7922
 20
50.6563
 30
0.0
 10
145.792
 20
50.6562
 30
0.0
 10
145.792
 20
50.6562
 30
0.0
  0
SPLINE
  5
74
330
1F
100
AcDbEntity
  8
layer 1
 62
     7
100
AcDbSpline
210
0.0
220
0.0
230
1.0
 70
    11
 71
     3
 72
    20
 73
    16
 74
     0
 42
0.0000000001
 43
0.0000000001
 12
1.0
 22
0.0
 32
0.0
 13
1.0
 23
0.0
 33
0.0
 40
0.0
 40
0.0
 40
0.0
 40
0.0
 40
0.2
 40
0.2
 40
0.2
 40
0.2
 40
0.4
 40
0.4
 40
0.4
 40
0.4
 40
0.6
 40
0.6
 40
0.6
 40
0.6
 40
1.0
 40
1.0
 40
1.0
 40
1.0
 10
149.18
 20
50.6562
 30
0.0
 10
151.1891
 20
50.6526
 30
0.0
 10
155.3136
 20
51.5558
 30
0.0
 10
156.913
 20
52.6441
 30
0.0
 10
156.913
 20
52.6441
 30
0.0
 10
154.6888
 20
54.7769
 30
0.0
 10
152.9633
 20
56.4722
 30
0.0
 10
151.3062
 20
58.4079
 30
0.0
 10
151.3062
 20
58.4079
 30
0.0
 10
149.9729
 20
55.2807
 30
0.0
 10
149.5435
 20
52.9937
 30
0.0
 10
149.1799
 20
50.6562
 30
0.0
 10
149.1799
 20
50.6562
 30
0.0
 10
149.1799
 20
50.6562
 30
0.0
 10
149.18
 20
50.6562
 30
0.0
 10
149.18
 20
50.6562
 30
0.0
  0
SPLINE
  5
75
330
1F
100
AcDbEntity
  8
layer 1
 62
     7
100
AcDbSpline
210
0.0
220
0.0
230
1.0
 70
    11
 71
     3
 72
    12
 73
     8
 74
     0
 42
0.0000000001
 43
0.0000000001
 12
1.0
 22
0.0
 32
0.0
 13
1.0
 23
0.0
 33
0.0
 40
0.0
 40
0.0
 40
0.0
 40
0.0
 40
0.3333333333333333
 40
0.3333333333333333
 40
0.3333333333333333
 40
0.3333333333333333
 40
1.0
 40
1.0
 40
1.0
 40
1.0
 10
164.0922
 20
75.655
 30
0.0
 10
162.3735
 20
77.5392
 30
0.0
 10
159.2206
 20
77.2317
 30
0.0
 10
157.7766
 20
75.6398
 30
0.0
 10
157.7766
 20
75.6398
 30
0.0
 10
159.3791
 20
73.7119
 30
0.0
 10
162.391
 20
73.9432
 30
0.0
 10
164.0922
 20
75.655
 30
0.0
  0
SPLINE
  5
76
330
1F
100
AcDbEntity
  8
layer 1
 62
     7
100
AcDbSpline
210
0.0
220
0.0
230
1.0
 70
    11
 71
     3
 72
    24
 73
    20
 74
     0
 42
0.0000000001
 43
0.0000000001
 12
1.0
 22
0.0
 32
0.0
 13
1.0
 23
0.0
 33
0.0
 40
0.0
 40
0.0
 40
0.0
 40
0.0
 40
0.1666666666666667
 40
0.1666666666666667
 40
0.1666666666666667
 40
0.1666666666666667
 40
0.3333333333333333
 40
0.3333333333333333
 40
0.3333333333333333
 40
0.3333333333333333
 40
0.5
 40
0.5
 40
0.5
 40
0.5
 40
0.6666666666666666
 40
0.6666666666666666
 40
0.6666666666666666
 40
0.6666666666666666
 40
1.0
 40
1.0
 40
1.0
 40
1.0
 10
188.7052
 20
68.9941
 30
0.0
 10
188.3644
 20
69.2099
 30
0.0
 10
188.0232
 20
69.4065
 30
0.0
 10
187.6828
 20
69.582
 30
0.0
 10
187.6828
 20
69.582
 30
0.0
 10
184.5663
 20
67.8118
 30
0.0
 10
182.58
 20
65.4137
 30
0.0
 10
180.1468
 20
62.294
 30
0.0
 10
180.1468
 20
62.294
 30
0.0
 10
181.8984
 20
59.6954
 30
0.0
 10
185.2875
 20
56.1796
 30
0.0
 10
187.7415
 20
54.6854
 30
0.0
 10
187.7415
 20
54.6854
 30
0.0
 10
188.0553
 20
54.9154
 30
0.0
 10
188.3557
 20
55.1409
 30
0.0
 10
188.6446
 20
55.3638
 30
0.0
 10
188.6446
 20
55.3638
 30
0.0
 10
188.6446
 20
55.3638
 30
0.0
 10
188.7052
 20
68.9941
 30
0.0
 10
188.7052
 20
68.9941
 30
0.0
  0
SPLINE
  5
77
330
1F
100
AcDbEntity
  8
layer 1
 62
     7
100
AcDbSpline
210
0.0
220
0.0
230
1.0
 70
    11
 71
     3
 72
    12
 73
     8
 74
     0
 42
0.0000000001
 43
0.0000000001
 12
1.0
 22
0.0
 32
0.0
 13
1.0
 23
0.0
 33
0.0
 40
0.0
 40
0.0
 40
0.0
 40
0.0
 40
0.3333333333333333
 40
0.3333333333333333
 40
0.3333333333333333
 40
0.3333333333333333
 40
1.0
 40
1.0
 40
1.0
 40
1.0
 10
174.2843
 20
65.3877
 30
0.0
 10
172.4
 20
63.669
 30
0.0
 10
172.7076
 20
60.5161
 30
0.0
 10
174.2995
 20
59.0721
 30
0.0
 10
174.2995
 20
59.0721
 30
0.0
 10
176.2273
 20
60.6746
 30
0.0
 10
175.9961
 20
63.6865
 30
0.0
 10
174.2843
 20
65.3877
 30
0.0
  0
SPLINE
  5
78
330
1F
100
AcDbEntity
  8
layer 1
 62
     7
100
AcDbSpline
210
0.0
220
0.0
230
1.0
 70
    11
 71
     3
 72
    20
 73
    16
 74
     0
 42
0.0000000001
 43
0.0000000001
 12
1.0
 22
0.0
 32
0.0
 13
1.0
 23
0.0
 33
0.0
 40
0.0
 40
0.0
 40
0.0
 40
0.0
 40
0.2
 40
0.2
 40
0.2
 40
0.2
 40
0.4
 40
0.4
 40
0.4
 40
0.4
 40
0.6
 40
0.6
 40
0.6
 40
0.6
 40
1.0
 40
1.0
 40
1.0
 40
1.0
 10
172.6537
 20
73.8501
 30
0.0
 10
170.6446
 20
73.8537
 30
0.0
 10
166.5201
 20
72.9505
 30
0.0
 10
164.9207
 20
71.8623
 30
0.0
 10
164.9207
 20
71.8623
 30
0.0
 10
167.1449
 20
69.7295
 30
0.0
 10
168.8704
 20
68.0342
 30
0.0
 10
170.5274
 20
66.0984
 30
0.0
 10
170.5274
 20
66.0984
 30
0.0
 10
171.8608
 20
69.2256
 30
0.0
 10
172.2902
 20
71.5127
 30
0.0
 10
172.6538
 20
73.8501
 30
0.0
 10
172.6538
 20
73.8501
 30
0.0
 10
172.6538
 20
73.8501
 30
0.0
 10
172.6537
 20
73.8501
 30
0.0
 10
172.6537
 20
73.8501
 30
0.0
  0
SPLINE
  5
79
330
1F
100
AcDbEntity
  8
layer 1
 62
     7
100
AcDbSpline
210
0.0
220
0.0
230
1.0
 70
    11
 71
     3
 72
    20
 73
    16
 74
     0
 42
0.0000000001
 43
0.0000000001
 12
1.0
 22
0.0
 32
0.0
 13
1.0
 23
0.0
 33
0.0
 40
0.0
 40
0.0
 40
0.0
 40
0.0
 40
0.2
 40
0.2
 40
0.2
 40
0.2
 40
0.4
 40
0.4
 40
0.4
 40
0.4
 40
0.6
 40
0.6
 40
0.6
 40
0.6
 40
1.0
 40
1.0
 40
1.0
 40
1.0
 10
176.0415
 20
73.8501
 30
0.0
 10
178.0506
 20
73.8537
 30
0.0
 10
182.1751
 20
72.9505
 30
0.0
 10
183.7745
 20
71.8623
 30
0.0
 10
183.7745
 20
71.8623
 30
0.0
 10
181.5504
 20
69.7295
 30
0.0
 10
179.8248
 20
68.0342
 30
0.0
 10
178.1678
 20
66.0984
 30
0.0
 10
178.1678
 20
66.0984
 30
0.0
 10
176.8344
 20
69.2256
 30
0.0
 10
176.405
 20
71.5127
 30
0.0
 10
176.0414
 20
73.8501
 30
0.0
 10
176.0414
 20
73.8501
 30
0.0
 10
176.0414
 20
73.8501
 30
0.0
 10
176.0415
 20
73.8501
 30
0.0
 10
176.0415
 20
73.8501
 30
0.0
  0
SPLINE
  5
7A
330
1F
100
AcDbEntity
  8
layer 1
 62
     7
100
AcDbSpline
210
0.0
220
0.0
230
1.0
 70
    11
 71
     3
 72
    20
 73
    16
 74
     0
 42
0.0000000001
 43
0.0000000001
 12
1.0
 22
0.0
 32
0.0
 13
1.0
 23
0.0
 33
0.0
 40
0.0
 40
0.0
 40
0.0
 40
0.0
 40
0.2
 40
0.2
 40
0.2
 40
0.2
 40
0.4
 40
0.4
 40
0.4
 40
0.4
 40
0.6
 40
0.6
 40
0.6
 40
0.6
 40
1.0
 40
1.0
 40
1.0
 40
1.0
 10
172.6537
 20
50.6562
 30
0.0
 10
170.6446
 20
50.6526
 30
0.0
 10
166.5201
 20
51.5558
 30
0.0
 10
164.9207
 20
52.6441
 30
0.0
 10
164.9207
 20
52.6441
 30
0.0
 10
167.1449
 20
54.7769
 30
0.0
 10
168.8704
 20
56.4722
 30
0.0
 10
170.5274
 20
58.4079
 30
0.0
 10
170.5274
 20
58.4079
 30
0.0
 10
171.8608
 20
55.2807
 30
0.0
 10
172.2902
 20
52.9937
 30
0.0
 10
172.6538
 20
50.6562
 30
0.0
 10
172.6538
 20
50.6562
 30
0.0
 10
172.6538
 20
50.6562
 30
0.0
 10
172.6537
 20
50.6562
 30
0.0
 10
172.6537
 20
50.6562
 30
0.0
  0
SPLINE
  5
7B
330
1F
100
AcDbEntity
  8
layer 1
 62
     7
100
AcDbSpline
210
0.0
220
0.0
230
1.0
 70
    11
 71
     3
 72
    20
 73
    16
 74
     0
 42
0.0000000001
 43
0.0000000001
 12
1.0
 22
0.0
 32
0.0
 13
1.0
 23
0.0
 33
0.0
 40
0.0
 40
0.0
 40
0.0
 40
0.0
 40
0.2
 40
0.2
 40
0.2
 40
0.2
 40
0.4
 40
0.4
 40
0.4
 40
0.4
 40
0.6
 40
0.6
 40
0.6
 40
0.6
 40
1.0
 40
1.0
 40
1.0
 40
1.0
 10
176.0415
 20
50.6562
 30
0.0
 10
178.0506
 20
50.6526
 30
0.0
 10
182.1751
 20
51.5558
 30
0.0
 10
183.7745
 20
52.6441
 30
0.0
 10
183.7745
 20
52.6441
 30
0.0
 10
181.5504
 20
54.7769
 30
0.0
 10
179.8248
 20
56.4722
 30
0.0
 10
178.1678
 20
58.4079
 30
0.0
 10
178.1678
 20
58.4079
 30
0.0
 10
176.8344
 20
55.2807
 30
0.0
 10
176.405
 20
52.9937
 30
0.0
 10
176.0414
 20
50.6562
 30
0.0
 10
176.0414
 20
50.6562
 30
0.0
 10
176.0414
 20
50.6562
 30
0.0
 10
176.0415
 20
50.6562
 30
0.0
 10
176.0415
 20
50.6562
 30
0.0
  0
SPLINE
  5
7C
330
1F
100
AcDbEntity
  8
layer 1
 62
     7
100
AcDbSpline
210
0.0
220
0.0
230
1.0
 70
    11
 71
     3
 72
    20
 73
    16
 74
     0
 42
0.0000000001
 43
0.0000000001
 12
1.0
 22
0.0
 32
0.0
 13
1.0
 23
0.0
 33
0.0
 40
0.0
 40
0.0
 40
0.0
 40
0.0
 40
0.2
 40
0.2
 40
0.2
 40
0.2
 40
0.4
 40
0.4
 40
0.4
 40
0.4
 40
0.6
 40
0.6
 40
0.6
 40
0.6
 40
1.0
 40
1.0
 40
1.0
 40
1.0
 10
188.7429
 20
76.8696
 30
0.0
 10
187.2272
 20
77.1637
 30
0.0
 10
185.5738
 20
76.6714
 30
0.0
 10
184.6383
 20
75.6398
 30
0.0
 10
184.6383
 20
75.6398
 30
0.0
 10
185.6653
 20
74.4041
 30
0.0
 10
187.2714
 20
74.0555
 30
0.0
 10
188.7402
 20
74.415
 30
0.0
 10
188.7402
 20
74.415
 30
0.0
 10
188.7402
 20
74.415
 30
0.0
 10
188.743
 20
76.8695
 30
0.0
 10
188.743
 20
76.8695
 30
0.0
 10
188.743
 20
76.8695
 30
0.0
 10
188.743
 20
76.8695
 30
0.0
 10
188.7429
 20
76.8696
 30
0.0
 10
188.7429
 20
76.8696
 30
0.0
  0
SPLINE
  5
7D
330
1F
100
AcDbEntity
  8
layer 1
 62
     7
100
AcDbSpline
210
0.0
220
0.0
230
1.0
 70
    11
 71
     3
 72
    24
 73
    20
 74
     0
 42
0.0000000001
 43
0.0000000001
 12
1.0
 22
0.0
 32
0.0
 13
1.0
 23
0.0
 33
0.0
 40
0.0
 40
0.0
 40
0.0
 40
0.0
 40
0.1666666666666667
 40
0.1666666666666667
 40
0.1666666666666667
 40
0.1666666666666667
 40
0.3333333333333333
 40
0.3333333333333333
 40
0.3333333333333333
 40
0.3333333333333333
 40
0.5
 40
0.5
 40
0.5
 40
0.5
 40
0.6666666666666666
 40
0.6666666666666666
 40
0.6666666666666666
 40
0.6666666666666666
 40
1.0
 40
1.0
 40
1.0
 40
1.0
 10
79.3077
 20
68.9941
 30
0.0
 10
79.6485
 20
69.2099
 30
0.0
 10
79.9897
 20
69.4065
 30
0.0
 10
80.3302
 20
69.582
 30
0.0
 10
80.3302
 20
69.582
 30
0.0
 10
83.4466
 20
67.8118
 30
0.0
 10
85.4329
 20
65.4137
 30
0.0
 10
87.8662
 20
62.294
 30
0.0
 10
87.8662
 20
62.294
 30
0.0
 10
86.1146
 20
59.6954
 30
0.0
 10
82.7254
 20
56.1796
 30
0.0
 10
80.2715
 20
54.6854
 30
0.0
 10
80.2715
 20
54.6854
 30
0.0
 10
79.9576
 20
54.9154
 30
0.0
 10
79.6573
 20
55.1409
 30
0.0
 10
79.3684
 20
55.3638
 30
0.0
 10
79.3684
 20
55.3638
 30
0.0
 10
79.3684
 20
55.3638
 30
0.0
 10
79.3077
 20
68.9941
 30
0.0
 10
79.3077
 20
68.9941
 30
0.0
  0
SPLINE
  5
7E
330
1F
100
AcDbEntity
  8
layer 1
 62
     7
100
AcDbSpline
210
0.0
220
0.0
230
1.0
 70
    11
 71
     3
 72
    20
 73
    16
 74
     0
 42
0.0000000001
 43
0.0000000001
 12
1.0
 22
0.0
 32
0.0
 13
1.0
 23
0.0
 33
0.0
 40
0.0
 40
0.0
 40
0.0
 40
0.0
 40
0.2
 40
0.2
 40
0.2
 40
0.2
 40
0.4
 40
0.4
 40
0.4
 40
0.4
 40
0.6
 40
0.6
 40
0.6
 40
0.6
 40
1.0
 40
1.0
 40
1.0
 40
1.0
 10
114.8356
 20
35.6335
 30
0.0
 10
112.6607
 20
38.8471
 30
0.0
 10
109.8952
 20
41.5742
 30
0.0
 10
107.1848
 20
42.9722
 30
0.0
 10
107.1848
 20
42.9722
 30
0.0
 10
104.0683
 20
41.202
 30
0.0
 10
102.082
 20
38.8038
 30
0.0
 10
99.6487
 20
35.6842
 30
0.0
 10
99.6487
 20
35.6842
 30
0.0
 10
101.4004
 20
33.0856
 30
0.0
 10
104.7895
 20
29.5697
 30
0.0
 10
107.2435
 20
28.0756
 30
0.0
 10
107.2435
 20
28.0756
 30
0.0
 10
110.4053
 20
30.3929
 30
0.0
 10
112.1974
 20
32.2513
 30
0.0
 10
114.8356
 20
35.6335
 30
0.0
  0
SPLINE
  5
7F
330
1F
100
AcDbEntity
  8
layer 1
 62
     7
100
AcDbSpline
210
0.0
220
0.0
230
1.0
 70
    11
 71
     3
 72
    12
 73
     8
 74
     0
 42
0.0000000001
 43
0.0000000001
 12
1.0
 22
0.0
 32
0.0
 13
1.0
 23
0.0
 33
0.0
 40
0.0
 40
0.0
 40
0.0
 40
0.0
 40
0.3333333333333333
 40
0.3333333333333333
 40
0.3333333333333333
 40
0.3333333333333333
 40
1.0
 40
1.0
 40
1.0
 40
1.0
 10
93.7861
 20
38.778
 30
0.0
 10
91.9019
 20
37.0593
 30
0.0
 10
92.2094
 20
33.9064
 30
0.0
 10
93.8013
 20
32.4624
 30
0.0
 10
93.8013
 20
32.4624
 30
0.0
 10
95.7292
 20
34.0649
 30
0.0
 10
95.4979
 20
37.0768
 30
0.0
 10
93.7861
 20
38.778
 30
0.0
  0
SPLINE
  5
80
330
1F
100
AcDbEntity
  8
layer 1
 62
     7
100
AcDbSpline
210
0.0
220
0.0
230
1.0
 70
    11
 71
     3
 72
    20
 73
    16
 74
     0
 42
0.0000000001
 43
0.0000000001
 12
1.0
 22
0.0
 32
0.0
 13
1.0
 23
0.0
 33
0.0
 40
0.0
 40
0.0
 40
0.0
 40
0.0
 40
0.2
 40
0.2
 40
0.2
 40
0.2
 40
0.4
 40
0.4
 40
0.4
 40
0.4
 40
0.6
 40
0.6
 40
0.6
 40
0.6
 40
1.0
 40
1.0
 40
1.0
 40
1.0
 10
92.1555
 20
47.2404
 30
0.0
 10
90.1464
 20
47.244
 30
0.0
 10
86.0219
 20
46.3408
 30
0.0
 10
84.4226
 20
45.2524
 30
0.0
 10
84.4226
 20
45.2524
 30
0.0
 10
86.6467
 20
43.1196
 30
0.0
 10
88.3722
 20
41.4243
 30
0.0
 10
90.0293
 20
39.4886
 30
0.0
 10
90.0293
 20
39.4886
 30
0.0
 10
91.3627
 20
42.6158
 30
0.0
 10
91.792
 20
44.9028
 30
0.0
 10
92.1557
 20
47.2403
 30
0.0
 10
92.1557
 20
47.2403
 30
0.0
 10
92.1557
 20
47.2403
 30
0.0
 10
92.1555
 20
47.2404
 30
0.0
 10
92.1555
 20
47.2404
 30
0.0
  0
SPLINE
  5
81
330
1F
100
AcDbEntity
  8
layer 1
 62
     7
100
AcDbSpline
210
0.0
220
0.0
230
1.0
 70
    11
 71
     3
 72
    16
 73
    12
 74
     0
 42
0.0000000001
 43
0.0000000001
 12
1.0
 22
0.0
 32
0.0
 13
1.0
 23
0.0
 33
0.0
 40
0.0
 40
0.0
 40
0.0
 40
0.0
 40
0.25
 40
0.25
 40
0.25
 40
0.25
 40
0.5
 40
0.5
 40
0.5
 40
0.5
 40
1.0
 40
1.0
 40
1.0
 40
1.0
 10
95.5435
 20
47.2404
 30
0.0
 10
97.5526
 20
47.244
 30
0.0
 10
101.6771
 20
46.3408
 30
0.0
 10
103.2765
 20
45.2526
 30
0.0
 10
103.2765
 20
45.2526
 30
0.0
 10
101.0523
 20
43.1196
 30
0.0
 10
99.3268
 20
41.4243
 30
0.0
 10
97.6698
 20
39.4887
 30
0.0
 10
97.6698
 20
39.4887
 30
0.0
 10
96.3364
 20
42.6158
 30
0.0
 10
95.9071
 20
44.9028
 30
0.0
 10
95.5435
 20
47.2404
 30
0.0
  0
SPLINE
  5
82
330
1F
100
AcDbEntity
  8
layer 1
 62
     7
100
AcDbSpline
210
0.0
220
0.0
230
1.0
 70
    11
 71
     3
 72
    20
 73
    16
 74
     0
 42
0.0000000001
 43
0.0000000001
 12
1.0
 22
0.0
 32
0.0
 13
1.0
 23
0.0
 33
0.0
 40
0.0
 40
0.0
 40
0.0
 40
0.0
 40
0.2
 40
0.2
 40
0.2
 40
0.2
 40
0.4
 40
0.4
 40
0.4
 40
0.4
 40
0.6
 40
0.6
 40
0.6
 40
0.6
 40
1.0
 40
1.0
 40
1.0
 40
1.0
 10
92.1555
 20
24.0465
 30
0.0
 10
90.1464
 20
24.0429
 30
0.0
 10
86.0219
 20
24.9461
 30
0.0
 10
84.4226
 20
26.0344
 30
0.0
 10
84.4226
 20
26.0344
 30
0.0
 10
86.6467
 20
28.1672
 30
0.0
 10
88.3722
 20
29.8625
 30
0.0
 10
90.0293
 20
31.7982
 30
0.0
 10
90.0293
 20
31.7982
 30
0.0
 10
91.3627
 20
28.671
 30
0.0
 10
91.792
 20
26.384
 30
0.0
 10
92.1557
 20
24.0465
 30
0.0
 10
92.1557
 20
24.0465
 30
0.0
 10
92.1557
 20
24.0465
 30
0.0
 10
92.1555
 20
24.0465
 30
0.0
 10
92.1555
 20
24.0465
 30
0.0
  0
SPLINE
  5
83
330
1F
100
AcDbEntity
  8
layer 1
 62
     7
100
AcDbSpline
210
0.0
220
0.0
230
1.0
 70
    11
 71
     3
 72
    20
 73
    16
 74
     0
 42
0.0000000001
 43
0.0000000001
 12
1.0
 22
0.0
 32
0.0
 13
1.0
 23
0.0
 33
0.0
 40
0.0
 40
0.0
 40
0.0
 40
0.0
 40
0.2
 40
0.2
 40
0.2
 40
0.2
 40
0.4
 40
0.4
 40
0.4
 40
0.4
 40
0.6
 40
0.6
 40
0.6
 40
0.6
 40
1.0
 40
1.0
 40
1.0
 40
1.0
 10
95.5435
 20
24.0465
 30
0.0
 10
97.5526
 20
24.0429
 30
0.0
 10
101.6771
 20
24.9461
 30
0.0
 10
103.2765
 20
26.0344
 30
0.0
 10
103.2765
 20
26.0344
 30
0.0
 10
101.0523
 20
28.1672
 30
0.0
 10
99.3268
 20
29.8625
 30
0.0
 10
97.6698
 20
31.7982
 30
0.0
 10
97.6698
 20
31.7982
 30
0.0
 10
96.3364
 20
28.671
 30
0.0
 10
95.907
 20
26.384
 30
0.0
 10
95.5434
 20
24.0465
 30
0.0
 10
95.5434
 20
24.0465
 30
0.0
 10
95.5434
 20
24.0465
 30
0.0
 10
95.5435
 20
24.0465
 30
0.0
 10
95.5435
 20
24.0465
 30
0.0
  0
SPLINE
  5
84
330
1F
100
AcDbEntity
  8
layer 1
 62
     7
100
AcDbSpline
210
0.0
220
0.0
230
1.0
 70
    11
 71
     3
 72
    12
 73
     8
 74
     0
 42
0.0000000001
 43
0.0000000001
 12
1.0
 22
0.0
 32
0.0
 13
1.0
 23
0.0
 33
0.0
 40
0.0
 40
0.0
 40
0.0
 40
0.0
 40
0.3333333333333333
 40
0.3333333333333333
 40
0.3333333333333333
 40
0.3333333333333333
 40
1.0
 40
1.0
 40
1.0
 40
1.0
 10
110.4557
 20
49.0453
 30
0.0
 10
108.737
 20
50.9295
 30
0.0
 10
105.5841
 20
50.622
 30
0.0
 10
104.1401
 20
49.0301
 30
0.0
 10
104.1401
 20
49.0301
 30
0.0
 10
105.7426
 20
47.1022
 30
0.0
 10
108.7545
 20
47.3335
 30
0.0
 10
110.4557
 20
49.0453
 30
0.0
  0
SPLINE
  5
85
330
1F
100
AcDbEntity
  8
layer 1
 62
     7
100
AcDbSpline
210
0.0
220
0.0
230
1.0
 70
    11
 71
     3
 72
    16
 73
    12
 74
     0
 42
0.0000000001
 43
0.0000000001
 12
1.0
 22
0.0
 32
0.0
 13
1.0
 23
0.0
 33
0.0
 40
0.0
 40
0.0
 40
0.0
 40
0.0
 40
0.25
 40
0.25
 40
0.25
 40
0.25
 40
0.5
 40
0.5
 40
0.5
 40
0.5
 40
1.0
 40
1.0
 40
1.0
 40
1.0
 10
83.5074
 20
49.0453
 30
0.0
 10
82.4345
 20
50.2215
 30
0.0
 10
80.7337
 20
50.5436
 30
0.0
 10
79.3077
 20
50.2324
 30
0.0
 10
79.3077
 20
50.2324
 30
0.0
 10
79.3077
 20
50.2324
 30
0.0
 10
79.3077
 20
47.7274
 30
0.0
 10
79.3077
 20
47.7274
 30
0.0
 10
79.3077
 20
47.7274
 30
0.0
 10
80.7746
 20
47.4015
 30
0.0
 10
82.4011
 20
47.9319
 30
0.0
 10
83.5074
 20
49.0453
 30
0.0
  0
SPLINE
  5
86
330
1F
100
AcDbEntity
  8
layer 1
 62
     7
100
AcDbSpline
210
0.0
220
0.0
230
1.0
 70
    11
 71
     3
 72
    20
 73
    16
 74
     0
 42
0.0000000001
 43
0.0000000001
 12
1.0
 22
0.0
 32
0.0
 13
1.0
 23
0.0
 33
0.0
 40
0.0
 40
0.0
 40
0.0
 40
0.0
 40
0.2
 40
0.2
 40
0.2
 40
0.2
 40
0.4
 40
0.4
 40
0.4
 40
0.4
 40
0.6
 40
0.6
 40
0.6
 40
0.6
 40
1.0
 40
1.0
 40
1.0
 40
1.0
 10
141.6971
 20
35.6335
 30
0.0
 10
139.5224
 20
38.8471
 30
0.0
 10
136.7567
 20
41.5742
 30
0.0
 10
134.0463
 20
42.9722
 30
0.0
 10
134.0463
 20
42.9722
 30
0.0
 10
130.9299
 20
41.202
 30
0.0
 10
128.9435
 20
38.8038
 30
0.0
 10
126.5103
 20
35.6842
 30
0.0
 10
126.5103
 20
35.6842
 30
0.0
 10
128.2619
 20
33.0856
 30
0.0
 10
131.6511
 20
29.5697
 30
0.0
 10
134.105
 20
28.0756
 30
0.0
 10
134.105
 20
28.0756
 30
0.0
 10
137.2668
 20
30.3929
 30
0.0
 10
139.0589
 20
32.2513
 30
0.0
 10
141.6971
 20
35.6335
 30
0.0
  0
SPLINE
  5
87
330
1F
100
AcDbEntity
  8
layer 1
 62
     7
100
AcDbSpline
210
0.0
220
0.0
230
1.0
 70
    11
 71
     3
 72
    12
 73
     8
 74
     0
 42
0.0000000001
 43
0.0000000001
 12
1.0
 22
0.0
 32
0.0
 13
1.0
 23
0.0
 33
0.0
 40
0.0
 40
0.0
 40
0.0
 40
0.0
 40
0.3333333333333333
 40
0.3333333333333333
 40
0.3333333333333333
 40
0.3333333333333333
 40
1.0
 40
1.0
 40
1.0
 40
1.0
 10
120.6476
 20
38.778
 30
0.0
 10
118.7634
 20
37.0593
 30
0.0
 10
119.0709
 20
33.9064
 30
0.0
 10
120.6628
 20
32.4624
 30
0.0
 10
120.6628
 20
32.4624
 30
0.0
 10
122.5907
 20
34.0649
 30
0.0
 10
122.3594
 20
37.0768
 30
0.0
 10
120.6476
 20
38.778
 30
0.0
  0
SPLINE
  5
88
330
1F
100
AcDbEntity
  8
layer 1
 62
     7
100
AcDbSpline
210
0.0
220
0.0
230
1.0
 70
    11
 71
     3
 72
    20
 73
    16
 74
     0
 42
0.0000000001
 43
0.0000000001
 12
1.0
 22
0.0
 32
0.0
 13
1.0
 23
0.0
 33
0.0
 40
0.0
 40
0.0
 40
0.0
 40
0.0
 40
0.2
 40
0.2
 40
0.2
 40
0.2
 40
0.4
 40
0.4
 40
0.4
 40
0.4
 40
0.6
 40
0.6
 40
0.6
 40
0.6
 40
1.0
 40
1.0
 40
1.0
 40
1.0
 10
119.0171
 20
47.2404
 30
0.0
 10
117.008
 20
47.244
 30
0.0
 10
112.8836
 20
46.3408
 30
0.0
 10
111.2841
 20
45.2524
 30
0.0
 10
111.2841
 20
45.2524
 30
0.0
 10
113.5082
 20
43.1196
 30
0.0
 10
115.2338
 20
41.4243
 30
0.0
 10
116.8908
 20
39.4886
 30
0.0
 10
116.8908
 20
39.4886
 30
0.0
 10
118.2242
 20
42.6158
 30
0.0
 10
118.6536
 20
44.9028
 30
0.0
 10
119.0172
 20
47.2403
 30
0.0
 10
119.0172
 20
47.2403
 30
0.0
 10
119.0172
 20
47.2403
 30
0.0
 10
119.0171
 20
47.2404
 30
0.0
 10
119.0171
 20
47.2404
 30
0.0
  0
SPLINE
  5
89
330
1F
100
AcDbEntity
  8
layer 1
 62
     7
100
AcDbSpline
210
0.0
220
0.0
230
1.0
 70
    11
 71
     3
 72
    16
 73
    12
 74
     0
 42
0.0000000001
 43
0.0000000001
 12
1.0
 22
0.0
 32
0.0
 13
1.0
 23
0.0
 33
0.0
 40
0.0
 40
0.0
 40
0.0
 40
0.0
 40
0.25
 40
0.25
 40
0.25
 40
0.25
 40
0.5
 40
0.5
 40
0.5
 40
0.5
 40
1.0
 40
1.0
 40
1.0
 40
1.0
 10
122.405
 20
47.2404
 30
0.0
 10
124.4142
 20
47.244
 30
0.0
 10
128.5387
 20
46.3408
 30
0.0
 10
130.138
 20
45.2526
 30
0.0
 10
130.138
 20
45.2526
 30
0.0
 10
127.9139
 20
43.1196
 30
0.0
 10
126.1885
 20
41.4243
 30
0.0
 10
124.5314
 20
39.4887
 30
0.0
 10
124.5314
 20
39.4887
 30
0.0
 10
123.1979
 20
42.6158
 30
0.0
 10
122.7687
 20
44.9028
 30
0.0
 10
122.405
 20
47.2404
 30
0.0
  0
SPLINE
  5
8A
330
1F
100
AcDbEntity
  8
layer 1
 62
     7
100
AcDbSpline
210
0.0
220
0.0
230
1.0
 70
    11
 71
     3
 72
    20
 73
    16
 74
     0
 42
0.0000000001
 43
0.0000000001
 12
1.0
 22
0.0
 32
0.0
 13
1.0
 23
0.0
 33
0.0
 40
0.0
 40
0.0
 40
0.0
 40
0.0
 40
0.2
 40
0.2
 40
0.2
 40
0.2
 40
0.4
 40
0.4
 40
0.4
 40
0.4
 40
0.6
 40
0.6
 40
0.6
 40
0.6
 40
1.0
 40
1.0
 40
1.0
 40
1.0
 10
119.0171
 20
24.0465
 30
0.0
 10
117.008
 20
24.0429
 30
0.0
 10
112.8836
 20
24.9461
 30
0.0
 10
111.2841
 20
26.0344
 30
0.0
 10
111.2841
 20
26.0344
 30
0.0
 10
113.5082
 20
28.1672
 30
0.0
 10
115.2338
 20
29.8625
 30
0.0
 10
116.8908
 20
31.7982
 30
0.0
 10
116.8908
 20
31.7982
 30
0.0
 10
118.2242
 20
28.671
 30
0.0
 10
118.6536
 20
26.384
 30
0.0
 10
119.0172
 20
24.0465
 30
0.0
 10
119.0172
 20
24.0465
 30
0.0
 10
119.0172
 20
24.0465
 30
0.0
 10
119.0171
 20
24.0465
 30
0.0
 10
119.0171
 20
24.0465
 30
0.0
  0
SPLINE
  5
8B
330
1F
100
AcDbEntity
  8
layer 1
 62
     7
100
AcDbSpline
210
0.0
220
0.0
230
1.0
 70
    11
 71
     3
 72
    20
 73
    16
 74
     0
 42
0.0000000001
 43
0.0000000001
 12
1.0
 22
0.0
 32
0.0
 13
1.0
 23
0.0
 33
0.0
 40
0.0
 40
0.0
 40
0.0
 40
0.0
 40
0.2
 40
0.2
 40
0.2
 40
0.2
 40
0.4
 40
0.4
 40
0.4
 40
0.4
 40
0.6
 40
0.6
 40
0.6
 40
0.6
 40
1.0
 40
1.0
 40
1.0
 40
1.0
 10
122.405
 20
24.0465
 30
0.0
 10
124.4142
 20
24.0429
 30
0.0
 10
128.5387
 20
24.9461
 30
0.0
 10
130.138
 20
26.0344
 30
0.0
 10
130.138
 20
26.0344
 30
0.0
 10
127.9139
 20
28.1672
 30
0.0
 10
126.1883
 20
29.8625
 30
0.0
 10
124.5313
 20
31.7982
 30
0.0
 10
124.5313
 20
31.7982
 30
0.0
 10
123.1979
 20
28.671
 30
0.0
 10
122.7685
 20
26.384
 30
0.0
 10
122.4049
 20
24.0465
 30
0.0
 10
122.4049
 20
24.0465
 30
0.0
 10
122.4049
 20
24.0465
 30
0.0
 10
122.405
 20
24.0465
 30
0.0
 10
122.405
 20
24.0465
 30
0.0
  0
SPLINE
  5
8C
330
1F
100
AcDbEntity
  8
layer 1
 62
     7
100
AcDbSpline
210
0.0
220
0.0
230
1.0
 70
    11
 71
     3
 72
    12
 73
     8
 74
     0
 42
0.0000000001
 43
0.0000000001
 12
1.0
 22
0.0
 32
0.0
 13
1.0
 23
0.0
 33
0.0
 40
0.0
 40
0.0
 40
0.0
 40
0.0
 40
0.3333333333333333
 40
0.3333333333333333
 40
0.3333333333333333
 40
0.3333333333333333
 40
1.0
 40
1.0
 40
1.0
 40
1.0
 10
137.3173
 20
49.0453
 30
0.0
 10
135.5985
 20
50.9295
 30
0.0
 10
132.4456
 20
50.622
 30
0.0
 10
131.0017
 20
49.0301
 30
0.0
 10
131.0017
 20
49.0301
 30
0.0
 10
132.6042
 20
47.1022
 30
0.0
 10
135.6161
 20
47.3335
 30
0.0
 10
137.3173
 20
49.0453
 30
0.0
  0
SPLINE
  5
8D
330
1F
100
AcDbEntity
  8
layer 1
 62
     7
100
AcDbSpline
210
0.0
220
0.0
230
1.0
 70
    11
 71
     3
 72
    20
 73
    16
 74
     0
 42
0.0000000001
 43
0.0000000001
 12
1.0
 22
0.0
 32
0.0
 13
1.0
 23
0.0
 33
0.0
 40
0.0
 40
0.0
 40
0.0
 40
0.0
 40
0.2
 40
0.2
 40
0.2
 40
0.2
 40
0.4
 40
0.4
 40
0.4
 40
0.4
 40
0.6
 40
0.6
 40
0.6
 40
0.6
 40
1.0
 40
1.0
 40
1.0
 40
1.0
 10
168.4721
 20
35.6335
 30
0.0
 10
166.2973
 20
38.8471
 30
0.0
 10
163.5317
 20
41.5742
 30
0.0
 10
160.8213
 20
42.9722
 30
0.0
 10
160.8213
 20
42.9722
 30
0.0
 10
157.7048
 20
41.202
 30
0.0
 10
155.7185
 20
38.8038
 30
0.0
 10
153.2852
 20
35.6842
 30
0.0
 10
153.2852
 20
35.6842
 30
0.0
 10
155.0368
 20
33.0856
 30
0.0
 10
158.426
 20
29.5697
 30
0.0
 10
160.88
 20
28.0756
 30
0.0
 10
160.88
 20
28.0756
 30
0.0
 10
164.0418
 20
30.3929
 30
0.0
 10
165.8339
 20
32.2513
 30
0.0
 10
168.4721
 20
35.6335
 30
0.0
  0
SPLINE
  5
8E
330
1F
100
AcDbEntity
  8
layer 1
 62
     7
100
AcDbSpline
210
0.0
220
0.0
230
1.0
 70
    11
 71
     3
 72
    12
 73
     8
 74
     0
 42
0.0000000001
 43
0.0000000001
 12
1.0
 22
0.0
 32
0.0
 13
1.0
 23
0.0
 33
0.0
 40
0.0
 40
0.0
 40
0.0
 40
0.0
 40
0.3333333333333333
 40
0.3333333333333333
 40
0.3333333333333333
 40
0.3333333333333333
 40
1.0
 40
1.0
 40
1.0
 40
1.0
 10
147.4226
 20
38.778
 30
0.0
 10
145.5383
 20
37.0593
 30
0.0
 10
145.8459
 20
33.9064
 30
0.0
 10
147.4378
 20
32.4624
 30
0.0
 10
147.4378
 20
32.4624
 30
0.0
 10
149.3657
 20
34.0649
 30
0.0
 10
149.1344
 20
37.0768
 30
0.0
 10
147.4226
 20
38.778
 30
0.0
  0
SPLINE
  5
8F
330
1F
100
AcDbEntity
  8
layer 1
 62
     7
100
AcDbSpline
210
0.0
220
0.0
230
1.0
 70
    11
 71
     3
 72
    20
 73
    16
 74
     0
 42
0.0000000001
 43
0.0000000001
 12
1.0
 22
0.0
 32
0.0
 13
1.0
 23
0.0
 33
0.0
 40
0.0
 40
0.0
 40
0.0
 40
0.0
 40
0.2
 40
0.2
 40
0.2
 40
0.2
 40
0.4
 40
0.4
 40
0.4
 40
0.4
 40
0.6
 40
0.6
 40
0.6
 40
0.6
 40
1.0
 40
1.0
 40
1.0
 40
1.0
 10
145.792
 20
47.2404
 30
0.0
 10
143.7829
 20
47.244
 30
0.0
 10
139.6585
 20
46.3408
 30
0.0
 10
138.059
 20
45.2524
 30
0.0
 10
138.059
 20
45.2524
 30
0.0
 10
140.2832
 20
43.1196
 30
0.0
 10
142.0087
 20
41.4243
 30
0.0
 10
143.6658
 20
39.4886
 30
0.0
 10
143.6658
 20
39.4886
 30
0.0
 10
144.9991
 20
42.6158
 30
0.0
 10
145.4285
 20
44.9028
 30
0.0
 10
145.7922
 20
47.2403
 30
0.0
 10
145.7922
 20
47.2403
 30
0.0
 10
145.7922
 20
47.2403
 30
0.0
 10
145.792
 20
47.2404
 30
0.0
 10
145.792
 20
47.2404
 30
0.0
  0
SPLINE
  5
90
330
1F
100
AcDbEntity
  8
layer 1
 62
     7
100
AcDbSpline
210
0.0
220
0.0
230
1.0
 70
    11
 71
     3
 72
    16
 73
    12
 74
     0
 42
0.0000000001
 43
0.0000000001
 12
1.0
 22
0.0
 32
0.0
 13
1.0
 23
0.0
 33
0.0
 40
0.0
 40
0.0
 40
0.0
 40
0.0
 40
0.25
 40
0.25
 40
0.25
 40
0.25
 40
0.5
 40
0.5
 40
0.5
 40
0.5
 40
1.0
 40
1.0
 40
1.0
 40
1.0
 10
149.18
 20
47.2404
 30
0.0
 10
151.1891
 20
47.244
 30
0.0
 10
155.3136
 20
46.3408
 30
0.0
 10
156.913
 20
45.2526
 30
0.0
 10
156.913
 20
45.2526
 30
0.0
 10
154.6888
 20
43.1196
 30
0.0
 10
152.9634
 20
41.4243
 30
0.0
 10
151.3064
 20
39.4887
 30
0.0
 10
151.3064
 20
39.4887
 30
0.0
 10
149.9729
 20
42.6158
 30
0.0
 10
149.5436
 20
44.9028
 30
0.0
 10
149.18
 20
47.2404
 30
0.0
  0
SPLINE
  5
91
330
1F
100
AcDbEntity
  8
layer 1
 62
     7
100
AcDbSpline
210
0.0
220
0.0
230
1.0
 70
    11
 71
     3
 72
    20
 73
    16
 74
     0
 42
0.0000000001
 43
0.0000000001
 12
1.0
 22
0.0
 32
0.0
 13
1.0
 23
0.0
 33
0.0
 40
0.0
 40
0.0
 40
0.0
 40
0.0
 40
0.2
 40
0.2
 40
0.2
 40
0.2
 40
0.4
 40
0.4
 40
0.4
 40
0.4
 40
0.6
 40
0.6
 40
0.6
 40
0.6
 40
1.0
 40
1.0
 40
1.0
 40
1.0
 10
145.792
 20
24.0465
 30
0.0
 10
143.7829
 20
24.0429
 30
0.0
 10
139.6585
 20
24.9461
 30
0.0
 10
138.059
 20
26.0344
 30
0.0
 10
138.059
 20
26.0344
 30
0.0
 10
140.2832
 20
28.1672
 30
0.0
 10
142.0087
 20
29.8625
 30
0.0
 10
143.6658
 20
31.7982
 30
0.0
 10
143.6658
 20
31.7982
 30
0.0
 10
144.9991
 20
28.671
 30
0.0
 10
145.4285
 20
26.384
 30
0.0
 10
145.7922
 20
24.0465
 30
0.0
 10
145.7922
 20
24.0465
 30
0.0
 10
145.7922
 20
24.0465
 30
0.0
 10
145.792
 20
24.0465
 30
0.0
 10
145.792
 20
24.0465
 30
0.0
  0
SPLINE
  5
92
330
1F
100
AcDbEntity
  8
layer 1
 62
     7
100
AcDbSpline
210
0.0
220
0.0
230
1.0
 70
    11
 71
     3
 72
    20
 73
    16
 74
     0
 42
0.0000000001
 43
0.0000000001
 12
1.0
 22
0.0
 32
0.0
 13
1.0
 23
0.0
 33
0.0
 40
0.0
 40
0.0
 40
0.0
 40
0.0
 40
0.2
 40
0.2
 40
0.2
 40
0.2
 40
0.4
 40
0.4
 40
0.4
 40
0.4
 40
0.6
 40
0.6
 40
0.6
 40
0.6
 40
1.0
 40
1.0
 40
1.0
 40
1.0
 10
149.18
 20
24.0465
 30
0.0
 10
151.1891
 20
24.0429
 30
0.0
 10
155.3136
 20
24.9461
 30
0.0
 10
156.913
 20
26.0344
 30
0.0
 10
156.913
 20
26.0344
 30
0.0
 10
154.6888
 20
28.1672
 30
0.0
 10
152.9633
 20
29.8625
 30
0.0
 10
151.3062
 20
31.7982
 30
0.0
 10
151.3062
 20
31.7982
 30
0.0
 10
149.9729
 20
28.671
 30
0.0
 10
149.5435
 20
26.384
 30
0.0
 10
149.1799
 20
24.0465
 30
0.0
 10
149.1799
 20
24.0465
 30
0.0
 10
149.1799
 20
24.0465
 30
0.0
 10
149.18
 20
24.0465
 30
0.0
 10
149.18
 20
24.0465
 30
0.0
  0
SPLINE
  5
93
330
1F
100
AcDbEntity
  8
layer 1
 62
     7
100
AcDbSpline
210
0.0
220
0.0
230
1.0
 70
    11
 71
     3
 72
    12
 73
     8
 74
     0
 42
0.0000000001
 43
0.0000000001
 12
1.0
 22
0.0
 32
0.0
 13
1.0
 23
0.0
 33
0.0
 40
0.0
 40
0.0
 40
0.0
 40
0.0
 40
0.3333333333333333
 40
0.3333333333333333
 40
0.3333333333333333
 40
0.3333333333333333
 40
1.0
 40
1.0
 40
1.0
 40
1.0
 10
164.0922
 20
49.0453
 30
0.0
 10
162.3735
 20
50.9295
 30
0.0
 10
159.2206
 20
50.622
 30
0.0
 10
157.7766
 20
49.0301
 30
0.0
 10
157.7766
 20
49.0301
 30
0.0
 10
159.3791
 20
47.1022
 30
0.0
 10
162.391
 20
47.3335
 30
0.0
 10
164.0922
 20
49.0453
 30
0.0
  0
SPLINE
  5
94
330
1F
100
AcDbEntity
  8
layer 1
 62
     7
100
AcDbSpline
210
0.0
220
0.0
230
1.0
 70
    11
 71
     3
 72
    24
 73
    20
 74
     0
 42
0.0000000001
 43
0.0000000001
 12
1.0
 22
0.0
 32
0.0
 13
1.0
 23
0.0
 33
0.0
 40
0.0
 40
0.0
 40
0.0
 40
0.0
 40
0.1666666666666667
 40
0.1666666666666667
 40
0.1666666666666667
 40
0.1666666666666667
 40
0.3333333333333333
 40
0.3333333333333333
 40
0.3333333333333333
 40
0.3333333333333333
 40
0.5
 40
0.5
 40
0.5
 40
0.5
 40
0.6666666666666666
 40
0.6666666666666666
 40
0.6666666666666666
 40
0.6666666666666666
 40
1.0
 40
1.0
 40
1.0
 40
1.0
 10
188.7052
 20
42.3843
 30
0.0
 10
188.3644
 20
42.6001
 30
0.0
 10
188.0232
 20
42.7966
 30
0.0
 10
187.6828
 20
42.9722
 30
0.0
 10
187.6828
 20
42.9722
 30
0.0
 10
184.5663
 20
41.202
 30
0.0
 10
182.58
 20
38.8038
 30
0.0
 10
180.1468
 20
35.6842
 30
0.0
 10
180.1468
 20
35.6842
 30
0.0
 10
181.8984
 20
33.0856
 30
0.0
 10
185.2875
 20
29.5697
 30
0.0
 10
187.7415
 20
28.0756
 30
0.0
 10
187.7415
 20
28.0756
 30
0.0
 10
188.0553
 20
28.3055
 30
0.0
 10
188.3557
 20
28.531
 30
0.0
 10
188.6446
 20
28.7539
 30
0.0
 10
188.6446
 20
28.7539
 30
0.0
 10
188.6446
 20
28.7539
 30
0.0
 10
188.7052
 20
42.3843
 30
0.0
 10
188.7052
 20
42.3843
 30
0.0
  0
SPLINE
  5
95
330
1F
100
AcDbEntity
  8
layer 1
 62
     7
100
AcDbSpline
210
0.0
220
0.0
230
1.0
 70
    11
 71
     3
 72
    12
 73
     8
 74
     0
 42
0.0000000001
 43
0.0000000001
 12
1.0
 22
0.0
 32
0.0
 13
1.0
 23
0.0
 33
0.0
 40
0.0
 40
0.0
 40
0.0
 40
0.0
 40
0.3333333333333333
 40
0.3333333333333333
 40
0.3333333333333333
 40
0.3333333333333333
 40
1.0
 40
1.0
 40
1.0
 40
1.0
 10
174.2843
 20
38.778
 30
0.0
 10
172.4
 20
37.0593
 30
0.0
 10
172.7076
 20
33.9064
 30
0.0
 10
174.2995
 20
32.4624
 30
0.0
 10
174.2995
 20
32.4624
 30
0.0
 10
176.2273
 20
34.0649
 30
0.0
 10
175.9961
 20
37.0768
 30
0.0
 10
174.2843
 20
38.778
 30
0.0
  0
SPLINE
  5
96
330
1F
100
AcDbEntity
  8
layer 1
 62
     7
100
AcDbSpline
210
0.0
220
0.0
230
1.0
 70
    11
 71
     3
 72
    20
 73
    16
 74
     0
 42
0.0000000001
 43
0.0000000001
 12
1.0
 22
0.0
 32
0.0
 13
1.0
 23
0.0
 33
0.0
 40
0.0
 40
0.0
 40
0.0
 40
0.0
 40
0.2
 40
0.2
 40
0.2
 40
0.2
 40
0.4
 40
0.4
 40
0.4
 40
0.4
 40
0.6
 40
0.6
 40
0.6
 40
0.6
 40
1.0
 40
1.0
 40
1.0
 40
1.0
 10
172.6537
 20
47.2404
 30
0.0
 10
170.6446
 20
47.244
 30
0.0
 10
166.5201
 20
46.3408
 30
0.0
 10
164.9207
 20
45.2526
 30
0.0
 10
164.9207
 20
45.2526
 30
0.0
 10
167.1449
 20
43.1197
 30
0.0
 10
168.8704
 20
41.4245
 30
0.0
 10
170.5274
 20
39.4887
 30
0.0
 10
170.5274
 20
39.4887
 30
0.0
 10
171.8608
 20
42.6159
 30
0.0
 10
172.2902
 20
44.903
 30
0.0
 10
172.6538
 20
47.2404
 30
0.0
 10
172.6538
 20
47.2404
 30
0.0
 10
172.6538
 20
47.2404
 30
0.0
 10
172.6537
 20
47.2404
 30
0.0
 10
172.6537
 20
47.2404
 30
0.0
  0
SPLINE
  5
97
330
1F
100
AcDbEntity
  8
layer 1
 62
     7
100
AcDbSpline
210
0.0
220
0.0
230
1.0
 70
    11
 71
     3
 72
    20
 73
    16
 74
     0
 42
0.0000000001
 43
0.0000000001
 12
1.0
 22
0.0
 32
0.0
 13
1.0
 23
0.0
 33
0.0
 40
0.0
 40
0.0
 40
0.0
 40
0.0
 40
0.2
 40
0.2
 40
0.2
 40
0.2
 40
0.4
 40
0.4
 40
0.4
 40
0.4
 40
0.6
 40
0.6
 40
0.6
 40
0.6
 40
1.0
 40
1.0
 40
1.0
 40
1.0
 10
176.0415
 20
47.2404
 30
0.0
 10
178.0506
 20
47.244
 30
0.0
 10
182.1751
 20
46.3408
 30
0.0
 10
183.7745
 20
45.2526
 30
0.0
 10
183.7745
 20
45.2526
 30
0.0
 10
181.5504
 20
43.1197
 30
0.0
 10
179.8248
 20
41.4245
 30
0.0
 10
178.1678
 20
39.4887
 30
0.0
 10
178.1678
 20
39.4887
 30
0.0
 10
176.8344
 20
42.6159
 30
0.0
 10
176.405
 20
44.903
 30
0.0
 10
176.0414
 20
47.2404
 30
0.0
 10
176.0414
 20
47.2404
 30
0.0
 10
176.0414
 20
47.2404
 30
0.0
 10
176.0415
 20
47.2404
 30
0.0
 10
176.0415
 20
47.2404
 30
0.0
  0
SPLINE
  5
98
330
1F
100
AcDbEntity
  8
layer 1
 62
     7
100
AcDbSpline
210
0.0
220
0.0
230
1.0
 70
    11
 71
     3
 72
    20
 73
    16
 74
     0
 42
0.0000000001
 43
0.0000000001
 12
1.0
 22
0.0
 32
0.0
 13
1.0
 23
0.0
 33
0.0
 40
0.0
 40
0.0
 40
0.0
 40
0.0
 40
0.2
 40
0.2
 40
0.2
 40
0.2
 40
0.4
 40
0.4
 40
0.4
 40
0.4
 40
0.6
 40
0.6
 40
0.6
 40
0.6
 40
1.0
 40
1.0
 40
1.0
 40
1.0
 10
172.6537
 20
24.0465
 30
0.0
 10
170.6446
 20
24.0429
 30
0.0
 10
166.5201
 20
24.9461
 30
0.0
 10
164.9207
 20
26.0344
 30
0.0
 10
164.9207
 20
26.0344
 30
0.0
 10
167.1449
 20
28.1672
 30
0.0
 10
168.8704
 20
29.8625
 30
0.0
 10
170.5274
 20
31.7982
 30
0.0
 10
170.5274
 20
31.7982
 30
0.0
 10
171.8608
 20
28.671
 30
0.0
 10
172.2902
 20
26.384
 30
0.0
 10
172.6538
 20
24.0465
 30
0.0
 10
172.6538
 20
24.0465
 30
0.0
 10
172.6538
 20
24.0465
 30
0.0
 10
172.6537
 20
24.0465
 30
0.0
 10
172.6537
 20
24.0465
 30
0.0
  0
SPLINE
  5
99
330
1F
100
AcDbEntity
  8
layer 1
 62
     7
100
AcDbSpline
210
0.0
220
0.0
230
1.0
 70
    11
 71
     3
 72
    20
 73
    16
 74
     0
 42
0.0000000001
 43
0.0000000001
 12
1.0
 22
0.0
 32
0.0
 13
1.0
 23
0.0
 33
0.0
 40
0.0
 40
0.0
 40
0.0
 40
0.0
 40
0.2
 40
0.2
 40
0.2
 40
0.2
 40
0.4
 40
0.4
 40
0.4
 40
0.4
 40
0.6
 40
0.6
 40
0.6
 40
0.6
 40
1.0
 40
1.0
 40
1.0
 40
1.0
 10
176.0415
 20
24.0465
 30
0.0
 10
178.0506
 20
24.0429
 30
0.0
 10
182.1751
 20
24.9461
 30
0.0
 10
183.7745
 20
26.0344
 30
0.0
 10
183.7745
 20
26.0344
 30
0.0
 10
181.5504
 20
28.1672
 30
0.0
 10
179.8248
 20
29.8625
 30
0.0
 10
178.1678
 20
31.7982
 30
0.0
 10
178.1678
 20
31.7982
 30
0.0
 10
176.8344
 20
28.671
 30
0.0
 10
176.405
 20
26.384
 30
0.0
 10
176.0414
 20
24.0465
 30
0.0
 10
176.0414
 20
24.0465
 30
0.0
 10
176.0414
 20
24.0465
 30
0.0
 10
176.0415
 20
24.0465
 30
0.0
 10
176.0415
 20
24.0465
 30
0.0
  0
SPLINE
  5
9A
330
1F
100
AcDbEntity
  8
layer 1
 62
     7
100
AcDbSpline
210
0.0
220
0.0
230
1.0
 70
    11
 71
     3
 72
    20
 73
    16
 74
     0
 42
0.0000000001
 43
0.0000000001
 12
1.0
 22
0.0
 32
0.0
 13
1.0
 23
0.0
 33
0.0
 40
0.0
 40
0.0
 40
0.0
 40
0.0
 40
0.2
 40
0.2
 40
0.2
 40
0.2
 40
0.4
 40
0.4
 40
0.4
 40
0.4
 40
0.6
 40
0.6
 40
0.6
 40
0.6
 40
1.0
 40
1.0
 40
1.0
 40
1.0
 10
188.7429
 20
50.2599
 30
0.0
 10
187.2272
 20
50.554
 30
0.0
 10
185.5738
 20
50.0617
 30
0.0
 10
184.6383
 20
49.0301
 30
0.0
 10
184.6383
 20
49.0301
 30
0.0
 10
185.6653
 20
47.7944
 30
0.0
 10
187.2714
 20
47.4458
 30
0.0
 10
188.7402
 20
47.8053
 30
0.0
 10
188.7402
 20
47.8053
 30
0.0
 10
188.7402
 20
47.8053
 30
0.0
 10
188.743
 20
50.2598
 30
0.0
 10
188.743
 20
50.2598
 30
0.0
 10
188.743
 20
50.2598
 30
0.0
 10
188.743
 20
50.2598
 30
0.0
 10
188.7429
 20
50.2599
 30
0.0
 10
188.7429
 20
50.2599
 30
0.0
  0
SPLINE
  5
9B
330
1F
100
AcDbEntity
  8
layer 1
 62
     7
100
AcDbSpline
210
0.0
220
0.0
230
1.0
 70
    11
 71
     3
 72
    24
 73
    20
 74
     0
 42
0.0000000001
 43
0.0000000001
 12
1.0
 22
0.0
 32
0.0
 13
1.0
 23
0.0
 33
0.0
 40
0.0
 40
0.0
 40
0.0
 40
0.0
 40
0.1666666666666667
 40
0.1666666666666667
 40
0.1666666666666667
 40
0.1666666666666667
 40
0.3333333333333333
 40
0.3333333333333333
 40
0.3333333333333333
 40
0.3333333333333333
 40
0.5
 40
0.5
 40
0.5
 40
0.5
 40
0.6666666666666666
 40
0.6666666666666666
 40
0.6666666666666666
 40
0.6666666666666666
 40
1.0
 40
1.0
 40
1.0
 40
1.0
 10
79.3077
 20
42.3843
 30
0.0
 10
79.6485
 20
42.6001
 30
0.0
 10
79.9897
 20
42.7966
 30
0.0
 10
80.3302
 20
42.9722
 30
0.0
 10
80.3302
 20
42.9722
 30
0.0
 10
83.4466
 20
41.202
 30
0.0
 10
85.4329
 20
38.8038
 30
0.0
 10
87.8662
 20
35.6842
 30
0.0
 10
87.8662
 20
35.6842
 30
0.0
 10
86.1146
 20
33.0856
 30
0.0
 10
82.7254
 20
29.5697
 30
0.0
 10
80.2715
 20
28.0756
 30
0.0
 10
80.2715
 20
28.0756
 30
0.0
 10
79.9576
 20
28.3055
 30
0.0
 10
79.6573
 20
28.531
 30
0.0
 10
79.3684
 20
28.7539
 30
0.0
 10
79.3684
 20
28.7539
 30
0.0
 10
79.3684
 20
28.7539
 30
0.0
 10
79.3077
 20
42.3843
 30
0.0
 10
79.3077
 20
42.3843
 30
0.0
  0
SPLINE
  5
9C
330
1F
100
AcDbEntity
  8
layer 1
 62
     7
100
AcDbSpline
210
0.0
220
0.0
230
1.0
 70
    11
 71
     3
 72
    20
 73
    16
 74
     0
 42
0.0000000001
 43
0.0000000001
 12
1.0
 22
0.0
 32
0.0
 13
1.0
 23
0.0
 33
0.0
 40
0.0
 40
0.0
 40
0.0
 40
0.0
 40
0.2
 40
0.2
 40
0.2
 40
0.2
 40
0.4
 40
0.4
 40
0.4
 40
0.4
 40
0.6
 40
0.6
 40
0.6
 40
0.6
 40
1.0
 40
1.0
 40
1.0
 40
1.0
 10
114.8356
 20
8.6842
 30
0.0
 10
112.6607
 20
11.8977
 30
0.0
 10
109.8952
 20
14.6248
 30
0.0
 10
107.1848
 20
16.0229
 30
0.0
 10
107.1848
 20
16.0229
 30
0.0
 10
104.0683
 20
14.2526
 30
0.0
 10
102.082
 20
11.8545
 30
0.0
 10
99.6487
 20
8.7349
 30
0.0
 10
99.6487
 20
8.7349
 30
0.0
 10
101.4004
 20
6.1362
 30
0.0
 10
104.7895
 20
2.6204
 30
0.0
 10
107.2435
 20
1.1262
 30
0.0
 10
107.2435
 20
1.1262
 30
0.0
 10
110.4053
 20
3.4435
 30
0.0
 10
112.1974
 20
5.302
 30
0.0
 10
114.8356
 20
8.6842
 30
0.0
  0
SPLINE
  5
9D
330
1F
100
AcDbEntity
  8
layer 1
 62
     7
100
AcDbSpline
210
0.0
220
0.0
230
1.0
 70
    11
 71
     3
 72
    12
 73
     8
 74
     0
 42
0.0000000001
 43
0.0000000001
 12
1.0
 22
0.0
 32
0.0
 13
1.0
 23
0.0
 33
0.0
 40
0.0
 40
0.0
 40
0.0
 40
0.0
 40
0.3333333333333333
 40
0.3333333333333333
 40
0.3333333333333333
 40
0.3333333333333333
 40
1.0
 40
1.0
 40
1.0
 40
1.0
 10
93.7861
 20
11.8285
 30
0.0
 10
91.9019
 20
10.1098
 30
0.0
 10
92.2094
 20
6.9569
 30
0.0
 10
93.8013
 20
5.5129
 30
0.0
 10
93.8013
 20
5.5129
 30
0.0
 10
95.7292
 20
7.1154
 30
0.0
 10
95.4979
 20
10.1273
 30
0.0
 10
93.7861
 20
11.8285
 30
0.0
  0
SPLINE
  5
9E
330
1F
100
AcDbEntity
  8
layer 1
 62
     7
100
AcDbSpline
210
0.0
220
0.0
230
1.0
 70
    11
 71
     3
 72
    20
 73
    16
 74
     0
 42
0.0000000001
 43
0.0000000001
 12
1.0
 22
0.0
 32
0.0
 13
1.0
 23
0.0
 33
0.0
 40
0.0
 40
0.0
 40
0.0
 40
0.0
 40
0.2
 40
0.2
 40
0.2
 40
0.2
 40
0.4
 40
0.4
 40
0.4
 40
0.4
 40
0.6
 40
0.6
 40
0.6
 40
0.6
 40
1.0
 40
1.0
 40
1.0
 40
1.0
 10
92.1555
 20
20.291
 30
0.0
 10
90.1464
 20
20.2945
 30
0.0
 10
86.0219
 20
19.3913
 30
0.0
 10
84.4226
 20
18.3031
 30
0.0
 10
84.4226
 20
18.3031
 30
0.0
 10
86.6467
 20
16.1703
 30
0.0
 10
88.3722
 20
14.475
 30
0.0
 10
90.0293
 20
12.5392
 30
0.0
 10
90.0293
 20
12.5392
 30
0.0
 10
91.3627
 20
15.6665
 30
0.0
 10
91.792
 20
17.9535
 30
0.0
 10
92.1557
 20
20.291
 30
0.0
 10
92.1557
 20
20.291
 30
0.0
 10
92.1557
 20
20.291
 30
0.0
 10
92.1555
 20
20.291
 30
0.0
 10
92.1555
 20
20.291
 30
0.0
  0
SPLINE
  5
9F
330
1F
100
AcDbEntity
  8
layer 1
 62
     7
100
AcDbSpline
210
0.0
220
0.0
230
1.0
 70
    11
 71
     3
 72
    16
 73
    12
 74
     0
 42
0.0000000001
 43
0.0000000001
 12
1.0
 22
0.0
 32
0.0
 13
1.0
 23
0.0
 33
0.0
 40
0.0
 40
0.0
 40
0.0
 40
0.0
 40
0.25
 40
0.25
 40
0.25
 40
0.25
 40
0.5
 40
0.5
 40
0.5
 40
0.5
 40
1.0
 40
1.0
 40
1.0
 40
1.0
 10
95.5435
 20
20.291
 30
0.0
 10
97.5526
 20
20.2945
 30
0.0
 10
101.6771
 20
19.3913
 30
0.0
 10
103.2765
 20
18.3031
 30
0.0
 10
103.2765
 20
18.3031
 30
0.0
 10
101.0523
 20
16.1703
 30
0.0
 10
99.3268
 20
14.4749
 30
0.0
 10
97.6698
 20
12.5392
 30
0.0
 10
97.6698
 20
12.5392
 30
0.0
 10
96.3364
 20
15.6665
 30
0.0
 10
95.9071
 20
17.9535
 30
0.0
 10
95.5435
 20
20.291
 30
0.0
  0
SPLINE
  5
A0
330
1F
100
AcDbEntity
  8
layer 1
 62
     7
100
AcDbSpline
210
0.0
220
0.0
230
1.0
 70
    11
 71
     3
 72
    20
 73
    16
 74
     0
 42
0.0000000001
 43
0.0000000001
 12
1.0
 22
0.0
 32
0.0
 13
1.0
 23
0.0
 33
0.0
 40
0.0
 40
0.0
 40
0.0
 40
0.0
 40
0.2
 40
0.2
 40
0.2
 40
0.2
 40
0.4
 40
0.4
 40
0.4
 40
0.4
 40
0.6
 40
0.6
 40
0.6
 40
0.6
 40
1.0
 40
1.0
 40
1.0
 40
1.0
 10
92.1555
 20
-2.9029
 30
0.0
 10
90.1464
 20
-2.9064
 30
0.0
 10
86.0219
 20
-2.0033
 30
0.0
 10
84.4226
 20
-0.915
 30
0.0
 10
84.4226
 20
-0.915
 30
0.0
 10
86.6467
 20
1.2178
 30
0.0
 10
88.3722
 20
2.9131
 30
0.0
 10
90.0293
 20
4.8489
 30
0.0
 10
90.0293
 20
4.8489
 30
0.0
 10
91.3627
 20
1.7216
 30
0.0
 10
91.792
 20
-0.5654
 30
0.0
 10
92.1557
 20
-2.9029
 30
0.0
 10
92.1557
 20
-2.9029
 30
0.0
 10
92.1557
 20
-2.9029
 30
0.0
 10
92.1555
 20
-2.9029
 30
0.0
 10
92.1555
 20
-2.9029
 30
0.0
  0
SPLINE
  5
A1
330
1F
100
AcDbEntity
  8
layer 1
 62
     7
100
AcDbSpline
210
0.0
220
0.0
230
1.0
 70
    11
 71
     3
 72
    20
 73
    16
 74
     0
 42
0.0000000001
 43
0.0000000001
 12
1.0
 22
0.0
 32
0.0
 13
1.0
 23
0.0
 33
0.0
 40
0.0
 40
0.0
 40
0.0
 40
0.0
 40
0.2
 40
0.2
 40
0.2
 40
0.2
 40
0.4
 40
0.4
 40
0.4
 40
0.4
 40
0.6
 40
0.6
 40
0.6
 40
0.6
 40
1.0
 40
1.0
 40
1.0
 40
1.0
 10
95.5435
 20
-2.9029
 30
0.0
 10
97.5526
 20
-2.9064
 30
0.0
 10
101.6771
 20
-2.0032
 30
0.0
 10
103.2765
 20
-0.915
 30
0.0
 10
103.2765
 20
-0.915
 30
0.0
 10
101.0523
 20
1.2178
 30
0.0
 10
99.3268
 20
2.9131
 30
0.0
 10
97.6698
 20
4.8489
 30
0.0
 10
97.6698
 20
4.8489
 30
0.0
 10
96.3364
 20
1.7216
 30
0.0
 10
95.907
 20
-0.5654
 30
0.0
 10
95.5434
 20
-2.9029
 30
0.0
 10
95.5434
 20
-2.9029
 30
0.0
 10
95.5434
 20
-2.9029
 30
0.0
 10
95.5435
 20
-2.9029
 30
0.0
 10
95.5435
 20
-2.9029
 30
0.0
  0
SPLINE
  5
A2
330
1F
100
AcDbEntity
  8
layer 1
 62
     7
100
AcDbSpline
210
0.0
220
0.0
230
1.0
 70
    11
 71
     3
 72
    12
 73
     8
 74
     0
 42
0.0000000001
 43
0.0000000001
 12
1.0
 22
0.0
 32
0.0
 13
1.0
 23
0.0
 33
0.0
 40
0.0
 40
0.0
 40
0.0
 40
0.0
 40
0.3333333333333333
 40
0.3333333333333333
 40
0.3333333333333333
 40
0.3333333333333333
 40
1.0
 40
1.0
 40
1.0
 40
1.0
 10
110.4557
 20
22.0959
 30
0.0
 10
108.737
 20
23.9802
 30
0.0
 10
105.5841
 20
23.6726
 30
0.0
 10
104.1401
 20
22.0807
 30
0.0
 10
104.1401
 20
22.0807
 30
0.0
 10
105.7426
 20
20.1529
 30
0.0
 10
108.7545
 20
20.3841
 30
0.0
 10
110.4557
 20
22.0959
 30
0.0
  0
SPLINE
  5
A3
330
1F
100
AcDbEntity
  8
layer 1
 62
     7
100
AcDbSpline
210
0.0
220
0.0
230
1.0
 70
    11
 71
     3
 72
    16
 73
    12
 74
     0
 42
0.0000000001
 43
0.0000000001
 12
1.0
 22
0.0
 32
0.0
 13
1.0
 23
0.0
 33
0.0
 40
0.0
 40
0.0
 40
0.0
 40
0.0
 40
0.25
 40
0.25
 40
0.25
 40
0.25
 40
0.5
 40
0.5
 40
0.5
 40
0.5
 40
1.0
 40
1.0
 40
1.0
 40
1.0
 10
83.5074
 20
22.0959
 30
0.0
 10
82.4345
 20
23.2721
 30
0.0
 10
80.7337
 20
23.5943
 30
0.0
 10
79.3077
 20
23.2831
 30
0.0
 10
79.3077
 20
23.2831
 30
0.0
 10
79.3077
 20
23.2831
 30
0.0
 10
79.3077
 20
20.778
 30
0.0
 10
79.3077
 20
20.778
 30
0.0
 10
79.3077
 20
20.778
 30
0.0
 10
80.7746
 20
20.4521
 30
0.0
 10
82.4011
 20
20.9826
 30
0.0
 10
83.5074
 20
22.0959
 30
0.0
  0
SPLINE
  5
A4
330
1F
100
AcDbEntity
  8
layer 1
 62
     7
100
AcDbSpline
210
0.0
220
0.0
230
1.0
 70
    11
 71
     3
 72
    20
 73
    16
 74
     0
 42
0.0000000001
 43
0.0000000001
 12
1.0
 22
0.0
 32
0.0
 13
1.0
 23
0.0
 33
0.0
 40
0.0
 40
0.0
 40
0.0
 40
0.0
 40
0.2
 40
0.2
 40
0.2
 40
0.2
 40
0.4
 40
0.4
 40
0.4
 40
0.4
 40
0.6
 40
0.6
 40
0.6
 40
0.6
 40
1.0
 40
1.0
 40
1.0
 40
1.0
 10
141.6971
 20
8.6842
 30
0.0
 10
139.5224
 20
11.8977
 30
0.0
 10
136.7567
 20
14.6248
 30
0.0
 10
134.0463
 20
16.0229
 30
0.0
 10
134.0463
 20
16.0229
 30
0.0
 10
130.9299
 20
14.2526
 30
0.0
 10
128.9435
 20
11.8545
 30
0.0
 10
126.5103
 20
8.7349
 30
0.0
 10
126.5103
 20
8.7349
 30
0.0
 10
128.2619
 20
6.1362
 30
0.0
 10
131.6511
 20
2.6204
 30
0.0
 10
134.105
 20
1.1262
 30
0.0
 10
134.105
 20
1.1262
 30
0.0
 10
137.2668
 20
3.4435
 30
0.0
 10
139.0589
 20
5.302
 30
0.0
 10
141.6971
 20
8.6842
 30
0.0
  0
SPLINE
  5
A5
330
1F
100
AcDbEntity
  8
layer 1
 62
     7
100
AcDbSpline
210
0.0
220
0.0
230
1.0
 70
    11
 71
     3
 72
    12
 73
     8
 74
     0
 42
0.0000000001
 43
0.0000000001
 12
1.0
 22
0.0
 32
0.0
 13
1.0
 23
0.0
 33
0.0
 40
0.0
 40
0.0
 40
0.0
 40
0.0
 40
0.3333333333333333
 40
0.3333333333333333
 40
0.3333333333333333
 40
0.3333333333333333
 40
1.0
 40
1.0
 40
1.0
 40
1.0
 10
120.6476
 20
11.8285
 30
0.0
 10
118.7634
 20
10.1098
 30
0.0
 10
119.0709
 20
6.9569
 30
0.0
 10
120.6628
 20
5.5129
 30
0.0
 10
120.6628
 20
5.5129
 30
0.0
 10
122.5907
 20
7.1154
 30
0.0
 10
122.3594
 20
10.1273
 30
0.0
 10
120.6476
 20
11.8285
 30
0.0
  0
SPLINE
  5
A6
330
1F
100
AcDbEntity
  8
layer 1
 62
     7
100
AcDbSpline
210
0.0
220
0.0
230
1.0
 70
    11
 71
     3
 72
    20
 73
    16
 74
     0
 42
0.0000000001
 43
0.0000000001
 12
1.0
 22
0.0
 32
0.0
 13
1.0
 23
0.0
 33
0.0
 40
0.0
 40
0.0
 40
0.0
 40
0.0
 40
0.2
 40
0.2
 40
0.2
 40
0.2
 40
0.4
 40
0.4
 40
0.4
 40
0.4
 40
0.6
 40
0.6
 40
0.6
 40
0.6
 40
1.0
 40
1.0
 40
1.0
 40
1.0
 10
119.0171
 20
20.291
 30
0.0
 10
117.008
 20
20.2945
 30
0.0
 10
112.8836
 20
19.3913
 30
0.0
 10
111.2841
 20
18.3031
 30
0.0
 10
111.2841
 20
18.3031
 30
0.0
 10
113.5082
 20
16.1703
 30
0.0
 10
115.2338
 20
14.475
 30
0.0
 10
116.8908
 20
12.5392
 30
0.0
 10
116.8908
 20
12.5392
 30
0.0
 10
118.2242
 20
15.6665
 30
0.0
 10
118.6536
 20
17.9535
 30
0.0
 10
119.0172
 20
20.291
 30
0.0
 10
119.0172
 20
20.291
 30
0.0
 10
119.0172
 20
20.291
 30
0.0
 10
119.0171
 20
20.291
 30
0.0
 10
119.0171
 20
20.291
 30
0.0
  0
SPLINE
  5
A7
330
1F
100
AcDbEntity
  8
layer 1
 62
     7
100
AcDbSpline
210
0.0
220
0.0
230
1.0
 70
    11
 71
     3
 72
    16
 73
    12
 74
     0
 42
0.0000000001
 43
0.0000000001
 12
1.0
 22
0.0
 32
0.0
 13
1.0
 23
0.0
 33
0.0
 40
0.0
 40
0.0
 40
0.0
 40
0.0
 40
0.25
 40
0.25
 40
0.25
 40
0.25
 40
0.5
 40
0.5
 40
0.5
 40
0.5
 40
1.0
 40
1.0
 40
1.0
 40
1.0
 10
122.405
 20
20.291
 30
0.0
 10
124.4142
 20
20.2945
 30
0.0
 10
128.5387
 20
19.3913
 30
0.0
 10
130.138
 20
18.3031
 30
0.0
 10
130.138
 20
18.3031
 30
0.0
 10
127.9139
 20
16.1703
 30
0.0
 10
126.1885
 20
14.4749
 30
0.0
 10
124.5314
 20
12.5392
 30
0.0
 10
124.5314
 20
12.5392
 30
0.0
 10
123.1979
 20
15.6665
 30
0.0
 10
122.7687
 20
17.9535
 30
0.0
 10
122.405
 20
20.291
 30
0.0
  0
SPLINE
  5
A8
330
1F
100
AcDbEntity
  8
layer 1
 62
     7
100
AcDbSpline
210
0.0
220
0.0
230
1.0
 70
    11
 71
     3
 72
    20
 73
    16
 74
     0
 42
0.0000000001
 43
0.0000000001
 12
1.0
 22
0.0
 32
0.0
 13
1.0
 23
0.0
 33
0.0
 40
0.0
 40
0.0
 40
0.0
 40
0.0
 40
0.2
 40
0.2
 40
0.2
 40
0.2
 40
0.4
 40
0.4
 40
0.4
 40
0.4
 40
0.6
 40
0.6
 40
0.6
 40
0.6
 40
1.0
 40
1.0
 40
1.0
 40
1.0
 10
119.0171
 20
-2.9029
 30
0.0
 10
117.008
 20
-2.9064
 30
0.0
 10
112.8836
 20
-2.0033
 30
0.0
 10
111.2841
 20
-0.915
 30
0.0
 10
111.2841
 20
-0.915
 30
0.0
 10
113.5082
 20
1.2178
 30
0.0
 10
115.2338
 20
2.9131
 30
0.0
 10
116.8908
 20
4.8489
 30
0.0
 10
116.8908
 20
4.8489
 30
0.0
 10
118.2242
 20
1.7216
 30
0.0
 10
118.6536
 20
-0.5654
 30
0.0
 10
119.0172
 20
-2.9029
 30
0.0
 10
119.0172
 20
-2.9029
 30
0.0
 10
119.0172
 20
-2.9029
 30
0.0
 10
119.0171
 20
-2.9029
 30
0.0
 10
119.0171
 20
-2.9029
 30
0.0
  0
SPLINE
  5
A9
330
1F
100
AcDbEntity
  8
layer 1
 62
     7
100
AcDbSpline
210
0.0
220
0.0
230
1.0
 70
    11
 71
     3
 72
    20
 73
    16
 74
     0
 42
0.0000000001
 43
0.0000000001
 12
1.0
 22
0.0
 32
0.0
 13
1.0
 23
0.0
 33
0.0
 40
0.0
 40
0.0
 40
0.0
 40
0.0
 40
0.2
 40
0.2
 40
0.2
 40
0.2
 40
0.4
 40
0.4
 40
0.4
 40
0.4
 40
0.6
 40
0.6
 40
0.6
 40
0.6
 40
1.0
 40
1.0
 40
1.0
 40
1.0
 10
122.405
 20
-2.9029
 30
0.0
 10
124.4142
 20
-2.9064
 30
0.0
 10
128.5387
 20
-2.0032
 30
0.0
 10
130.138
 20
-0.915
 30
0.0
 10
130.138
 20
-0.915
 30
0.0
 10
127.9139
 20
1.2178
 30
0.0
 10
126.1883
 20
2.9131
 30
0.0
 10
124.5313
 20
4.8489
 30
0.0
 10
124.5313
 20
4.8489
 30
0.0
 10
123.1979
 20
1.7216
 30
0.0
 10
122.7685
 20
-0.5654
 30
0.0
 10
122.4049
 20
-2.9029
 30
0.0
 10
122.4049
 20
-2.9029
 30
0.0
 10
122.4049
 20
-2.9029
 30
0.0
 10
122.405
 20
-2.9029
 30
0.0
 10
122.405
 20
-2.9029
 30
0.0
  0
SPLINE
  5
AA
330
1F
100
AcDbEntity
  8
layer 1
 62
     7
100
AcDbSpline
210
0.0
220
0.0
230
1.0
 70
    11
 71
     3
 72
    12
 73
     8
 74
     0
 42
0.0000000001
 43
0.0000000001
 12
1.0
 22
0.0
 32
0.0
 13
1.0
 23
0.0
 33
0.0
 40
0.0
 40
0.0
 40
0.0
 40
0.0
 40
0.3333333333333333
 40
0.3333333333333333
 40
0.3333333333333333
 40
0.3333333333333333
 40
1.0
 40
1.0
 40
1.0
 40
1.0
 10
137.3173
 20
22.0959
 30
0.0
 10
135.5985
 20
23.9802
 30
0.0
 10
132.4456
 20
23.6726
 30
0.0
 10
131.0017
 20
22.0807
 30
0.0
 10
131.0017
 20
22.0807
 30
0.0
 10
132.6042
 20
20.1529
 30
0.0
 10
135.6161
 20
20.3841
 30
0.0
 10
137.3173
 20
22.0959
 30
0.0
  0
SPLINE
  5
AB
330
1F
100
AcDbEntity
  8
layer 1
 62
     7
100
AcDbSpline
210
0.0
220
0.0
230
1.0
 70
    11
 71
     3
 72
    20
 73
    16
 74
     0
 42
0.0000000001
 43
0.0000000001
 12
1.0
 22
0.0
 32
0.0
 13
1.0
 23
0.0
 33
0.0
 40
0.0
 40
0.0
 40
0.0
 40
0.0
 40
0.2
 40
0.2
 40
0.2
 40
0.2
 40
0.4
 40
0.4
 40
0.4
 40
0.4
 40
0.6
 40
0.6
 40
0.6
 40
0.6
 40
1.0
 40
1.0
 40
1.0
 40
1.0
 10
168.4721
 20
8.6842
 30
0.0
 10
166.2973
 20
11.8977
 30
0.0
 10
163.5317
 20
14.6248
 30
0.0
 10
160.8213
 20
16.0229
 30
0.0
 10
160.8213
 20
16.0229
 30
0.0
 10
157.7048
 20
14.2526
 30
0.0
 10
155.7185
 20
11.8545
 30
0.0
 10
153.2852
 20
8.7349
 30
0.0
 10
153.2852
 20
8.7349
 30
0.0
 10
155.0368
 20
6.1362
 30
0.0
 10
158.426
 20
2.6204
 30
0.0
 10
160.88
 20
1.1262
 30
0.0
 10
160.88
 20
1.1262
 30
0.0
 10
164.0418
 20
3.4435
 30
0.0
 10
165.8339
 20
5.302
 30
0.0
 10
168.4721
 20
8.6842
 30
0.0
  0
SPLINE
  5
AC
330
1F
100
AcDbEntity
  8
layer 1
 62
     7
100
AcDbSpline
210
0.0
220
0.0
230
1.0
 70
    11
 71
     3
 72
    12
 73
     8
 74
     0
 42
0.0000000001
 43
0.0000000001
 12
1.0
 22
0.0
 32
0.0
 13
1.0
 23
0.0
 33
0.0
 40
0.0
 40
0.0
 40
0.0
 40
0.0
 40
0.3333333333333333
 40
0.3333333333333333
 40
0.3333333333333333
 40
0.3333333333333333
 40
1.0
 40
1.0
 40
1.0
 40
1.0
 10
147.4226
 20
11.8285
 30
0.0
 10
145.5383
 20
10.1098
 30
0.0
 10
145.8459
 20
6.9569
 30
0.0
 10
147.4378
 20
5.5129
 30
0.0
 10
147.4378
 20
5.5129
 30
0.0
 10
149.3657
 20
7.1154
 30
0.0
 10
149.1344
 20
10.1273
 30
0.0
 10
147.4226
 20
11.8285
 30
0.0
  0
SPLINE
  5
AD
330
1F
100
AcDbEntity
  8
layer 1
 62
     7
100
AcDbSpline
210
0.0
220
0.0
230
1.0
 70
    11
 71
     3
 72
    20
 73
    16
 74
     0
 42
0.0000000001
 43
0.0000000001
 12
1.0
 22
0.0
 32
0.0
 13
1.0
 23
0.0
 33
0.0
 40
0.0
 40
0.0
 40
0.0
 40
0.0
 40
0.2
 40
0.2
 40
0.2
 40
0.2
 40
0.4
 40
0.4
 40
0.4
 40
0.4
 40
0.6
 40
0.6
 40
0.6
 40
0.6
 40
1.0
 40
1.0
 40
1.0
 40
1.0
 10
145.792
 20
20.291
 30
0.0
 10
143.7829
 20
20.2945
 30
0.0
 10
139.6585
 20
19.3913
 30
0.0
 10
138.059
 20
18.3031
 30
0.0
 10
138.059
 20
18.3031
 30
0.0
 10
140.2832
 20
16.1703
 30
0.0
 10
142.0087
 20
14.475
 30
0.0
 10
143.6658
 20
12.5392
 30
0.0
 10
143.6658
 20
12.5392
 30
0.0
 10
144.9991
 20
15.6665
 30
0.0
 10
145.4285
 20
17.9535
 30
0.0
 10
145.7922
 20
20.291
 30
0.0
 10
145.7922
 20
20.291
 30
0.0
 10
145.7922
 20
20.291
 30
0.0
 10
145.792
 20
20.291
 30
0.0
 10
145.792
 20
20.291
 30
0.0
  0
SPLINE
  5
AE
330
1F
100
AcDbEntity
  8
layer 1
 62
     7
100
AcDbSpline
210
0.0
220
0.0
230
1.0
 70
    11
 71
     3
 72
    16
 73
    12
 74
     0
 42
0.0000000001
 43
0.0000000001
 12
1.0
 22
0.0
 32
0.0
 13
1.0
 23
0.0
 33
0.0
 40
0.0
 40
0.0
 40
0.0
 40
0.0
 40
0.25
 40
0.25
 40
0.25
 40
0.25
 40
0.5
 40
0.5
 40
0.5
 40
0.5
 40
1.0
 40
1.0
 40
1.0
 40
1.0
 10
149.18
 20
20.291
 30
0.0
 10
151.1891
 20
20.2945
 30
0.0
 10
155.3136
 20
19.3913
 30
0.0
 10
156.913
 20
18.3031
 30
0.0
 10
156.913
 20
18.3031
 30
0.0
 10
154.6888
 20
16.1703
 30
0.0
 10
152.9634
 20
14.4749
 30
0.0
 10
151.3064
 20
12.5392
 30
0.0
 10
151.3064
 20
12.5392
 30
0.0
 10
149.9729
 20
15.6665
 30
0.0
 10
149.5436
 20
17.9535
 30
0.0
 10
149.18
 20
20.291
 30
0.0
  0
SPLINE
  5
AF
330
1F
100
AcDbEntity
  8
layer 1
 62
     7
100
AcDbSpline
210
0.0
220
0.0
230
1.0
 70
    11
 71
     3
 72
    20
 73
    16
 74
     0
 42
0.0000000001
 43
0.0000000001
 12
1.0
 22
0.0
 32
0.0
 13
1.0
 23
0.0
 33
0.0
 40
0.0
 40
0.0
 40
0.0
 40
0.0
 40
0.2
 40
0.2
 40
0.2
 40
0.2
 40
0.4
 40
0.4
 40
0.4
 40
0.4
 40
0.6
 40
0.6
 40
0.6
 40
0.6
 40
1.0
 40
1.0
 40
1.0
 40
1.0
 10
145.792
 20
-2.9029
 30
0.0
 10
143.7829
 20
-2.9064
 30
0.0
 10
139.6585
 20
-2.0033
 30
0.0
 10
138.059
 20
-0.915
 30
0.0
 10
138.059
 20
-0.915
 30
0.0
 10
140.2832
 20
1.2178
 30
0.0
 10
142.0087
 20
2.9131
 30
0.0
 10
143.6658
 20
4.8489
 30
0.0
 10
143.6658
 20
4.8489
 30
0.0
 10
144.9991
 20
1.7216
 30
0.0
 10
145.4285
 20
-0.5654
 30
0.0
 10
145.7922
 20
-2.9029
 30
0.0
 10
145.7922
 20
-2.9029
 30
0.0
 10
145.7922
 20
-2.9029
 30
0.0
 10
145.792
 20
-2.9029
 30
0.0
 10
145.792
 20
-2.9029
 30
0.0
  0
SPLINE
  5
B0
330
1F
100
AcDbEntity
  8
layer 1
 62
     7
100
AcDbSpline
210
0.0
220
0.0
230
1.0
 70
    11
 71
     3
 72
    20
 73
    16
 74
     0
 42
0.0000000001
 43
0.0000000001
 12
1.0
 22
0.0
 32
0.0
 13
1.0
 23
0.0
 33
0.0
 40
0.0
 40
0.0
 40
0.0
 40
0.0
 40
0.2
 40
0.2
 40
0.2
 40
0.2
 40
0.4
 40
0.4
 40
0.4
 40
0.4
 40
0.6
 40
0.6
 40
0.6
 40
0.6
 40
1.0
 40
1.0
 40
1.0
 40
1.0
 10
149.18
 20
-2.9029
 30
0.0
 10
151.1891
 20
-2.9064
 30
0.0
 10
155.3136
 20
-2.0032
 30
0.0
 10
156.913
 20
-0.915
 30
0.0
 10
156.913
 20
-0.915
 30
0.0
 10
154.6888
 20
1.2178
 30
0.0
 10
152.9633
 20
2.9131
 30
0.0
 10
151.3062
 20
4.8489
 30
0.0
 10
151.3062
 20
4.8489
 30
0.0
 10
149.9729
 20
1.7216
 30
0.0
 10
149.5435
 20
-0.5654
 30
0.0
 10
149.1799
 20
-2.9029
 30
0.0
 10
149.1799
 20
-2.9029
 30
0.0
 10
149.1799
 20
-2.9029
 30
0.0
 10
149.18
 20
-2.9029
 30
0.0
 10
149.18
 20
-2.9029
 30
0.0
  0
SPLINE
  5
B1
330
1F
100
AcDbEntity
  8
layer 1
 62
     7
100
AcDbSpline
210
0.0
220
0.0
230
1.0
 70
    11
 71
     3
 72
    12
 73
     8
 74
     0
 42
0.0000000001
 43
0.0000000001
 12
1.0
 22
0.0
 32
0.0
 13
1.0
 23
0.0
 33
0.0
 40
0.0
 40
0.0
 40
0.0
 40
0.0
 40
0.3333333333333333
 40
0.3333333333333333
 40
0.3333333333333333
 40
0.3333333333333333
 40
1.0
 40
1.0
 40
1.0
 40
1.0
 10
164.0922
 20
22.0959
 30
0.0
 10
162.3735
 20
23.9802
 30
0.0
 10
159.2206
 20
23.6726
 30
0.0
 10
157.7766
 20
22.0807
 30
0.0
 10
157.7766
 20
22.0807
 30
0.0
 10
159.3791
 20
20.1529
 30
0.0
 10
162.391
 20
20.3841
 30
0.0
 10
164.0922
 20
22.0959
 30
0.0
  0
SPLINE
  5
B2
330
1F
100
AcDbEntity
  8
layer 1
 62
     7
100
AcDbSpline
210
0.0
220
0.0
230
1.0
 70
    11
 71
     3
 72
    24
 73
    20
 74
     0
 42
0.0000000001
 43
0.0000000001
 12
1.0
 22
0.0
 32
0.0
 13
1.0
 23
0.0
 33
0.0
 40
0.0
 40
0.0
 40
0.0
 40
0.0
 40
0.1666666666666667
 40
0.1666666666666667
 40
0.1666666666666667
 40
0.1666666666666667
 40
0.3333333333333333
 40
0.3333333333333333
 40
0.3333333333333333
 40
0.3333333333333333
 40
0.5
 40
0.5
 40
0.5
 40
0.5
 40
0.6666666666666666
 40
0.6666666666666666
 40
0.6666666666666666
 40
0.6666666666666666
 40
1.0
 40
1.0
 40
1.0
 40
1.0
 10
188.7052
 20
15.4349
 30
0.0
 10
188.3644
 20
15.6507
 30
0.0
 10
188.0232
 20
15.8473
 30
0.0
 10
187.6828
 20
16.0229
 30
0.0
 10
187.6828
 20
16.0229
 30
0.0
 10
184.5663
 20
14.2526
 30
0.0
 10
182.58
 20
11.8545
 30
0.0
 10
180.1468
 20
8.7349
 30
0.0
 10
180.1468
 20
8.7349
 30
0.0
 10
181.8984
 20
6.1362
 30
0.0
 10
185.2875
 20
2.6204
 30
0.0
 10
187.7415
 20
1.1262
 30
0.0
 10
187.7415
 20
1.1262
 30
0.0
 10
188.0553
 20
1.3562
 30
0.0
 10
188.3557
 20
1.5817
 30
0.0
 10
188.6446
 20
1.8046
 30
0.0
 10
188.6446
 20
1.8046
 30
0.0
 10
188.6446
 20
1.8046
 30
0.0
 10
188.7052
 20
15.4349
 30
0.0
 10
188.7052
 20
15.4349
 30
0.0
  0
SPLINE
  5
B3
330
1F
100
AcDbEntity
  8
layer 1
 62
     7
100
AcDbSpline
210
0.0
220
0.0
230
1.0
 70
    11
 71
     3
 72
    12
 73
     8
 74
     0
 42
0.0000000001
 43
0.0000000001
 12
1.0
 22
0.0
 32
0.0
 13
1.0
 23
0.0
 33
0.0
 40
0.0
 40
0.0
 40
0.0
 40
0.0
 40
0.3333333333333333
 40
0.3333333333333333
 40
0.3333333333333333
 40
0.3333333333333333
 40
1.0
 40
1.0
 40
1.0
 40
1.0
 10
174.2843
 20
11.8285
 30
0.0
 10
172.4
 20
10.1098
 30
0.0
 10
172.7076
 20
6.9569
 30
0.0
 10
174.2995
 20
5.5129
 30
0.0
 10
174.2995
 20
5.5129
 30
0.0
 10
176.2273
 20
7.1154
 30
0.0
 10
175.9961
 20
10.1273
 30
0.0
 10
174.2843
 20
11.8285
 30
0.0
  0
SPLINE
  5
B4
330
1F
100
AcDbEntity
  8
layer 1
 62
     7
100
AcDbSpline
210
0.0
220
0.0
230
1.0
 70
    11
 71
     3
 72
    20
 73
    16
 74
     0
 42
0.0000000001
 43
0.0000000001
 12
1.0
 22
0.0
 32
0.0
 13
1.0
 23
0.0
 33
0.0
 40
0.0
 40
0.0
 40
0.0
 40
0.0
 40
0.2
 40
0.2
 40
0.2
 40
0.2
 40
0.4
 40
0.4
 40
0.4
 40
0.4
 40
0.6
 40
0.6
 40
0.6
 40
0.6
 40
1.0
 40
1.0
 40
1.0
 40
1.0
 10
172.6537
 20
20.291
 30
0.0
 10
170.6446
 20
20.2945
 30
0.0
 10
166.5201
 20
19.3913
 30
0.0
 10
164.9207
 20
18.3031
 30
0.0
 10
164.9207
 20
18.3031
 30
0.0
 10
167.1449
 20
16.1703
 30
0.0
 10
168.8704
 20
14.475
 30
0.0
 10
170.5274
 20
12.5392
 30
0.0
 10
170.5274
 20
12.5392
 30
0.0
 10
171.8608
 20
15.6665
 30
0.0
 10
172.2902
 20
17.9535
 30
0.0
 10
172.6538
 20
20.291
 30
0.0
 10
172.6538
 20
20.291
 30
0.0
 10
172.6538
 20
20.291
 30
0.0
 10
172.6537
 20
20.291
 30
0.0
 10
172.6537
 20
20.291
 30
0.0
  0
SPLINE
  5
B5
330
1F
100
AcDbEntity
  8
layer 1
 62
     7
100
AcDbSpline
210
0.0
220
0.0
230
1.0
 70
    11
 71
     3
 72
    20
 73
    16
 74
     0
 42
0.0000000001
 43
0.0000000001
 12
1.0
 22
0.0
 32
0.0
 13
1.0
 23
0.0
 33
0.0
 40
0.0
 40
0.0
 40
0.0
 40
0.0
 40
0.2
 40
0.2
 40
0.2
 40
0.2
 40
0.4
 40
0.4
 40
0.4
 40
0.4
 40
0.6
 40
0.6
 40
0.6
 40
0.6
 40
1.0
 40
1.0
 40
1.0
 40
1.0
 10
176.0415
 20
20.291
 30
0.0
 10
178.0506
 20
20.2945
 30
0.0
 10
182.1751
 20
19.3913
 30
0.0
 10
183.7745
 20
18.3031
 30
0.0
 10
183.7745
 20
18.3031
 30
0.0
 10
181.5504
 20
16.1703
 30
0.0
 10
179.8248
 20
14.475
 30
0.0
 10
178.1678
 20
12.5392
 30
0.0
 10
178.1678
 20
12.5392
 30
0.0
 10
176.8344
 20
15.6665
 30
0.0
 10
176.405
 20
17.9535
 30
0.0
 10
176.0414
 20
20.291
 30
0.0
 10
176.0414
 20
20.291
 30
0.0
 10
176.0414
 20
20.291
 30
0.0
 10
176.0415
 20
20.291
 30
0.0
 10
176.0415
 20
20.291
 30
0.0
  0
SPLINE
  5
B6
330
1F
100
AcDbEntity
  8
layer 1
 62
     7
100
AcDbSpline
210
0.0
220
0.0
230
1.0
 70
    11
 71
     3
 72
    20
 73
    16
 74
     0
 42
0.0000000001
 43
0.0000000001
 12
1.0
 22
0.0
 32
0.0
 13
1.0
 23
0.0
 33
0.0
 40
0.0
 40
0.0
 40
0.0
 40
0.0
 40
0.2
 40
0.2
 40
0.2
 40
0.2
 40
0.4
 40
0.4
 40
0.4
 40
0.4
 40
0.6
 40
0.6
 40
0.6
 40
0.6
 40
1.0
 40
1.0
 40
1.0
 40
1.0
 10
172.6537
 20
-2.9029
 30
0.0
 10
170.6446
 20
-2.9064
 30
0.0
 10
166.5201
 20
-2.0032
 30
0.0
 10
164.9207
 20
-0.915
 30
0.0
 10
164.9207
 20
-0.915
 30
0.0
 10
167.1449
 20
1.2178
 30
0.0
 10
168.8704
 20
2.9131
 30
0.0
 10
170.5274
 20
4.8489
 30
0.0
 10
170.5274
 20
4.8489
 30
0.0
 10
171.8608
 20
1.7216
 30
0.0
 10
172.2902
 20
-0.5654
 30
0.0
 10
172.6538
 20
-2.9029
 30
0.0
 10
172.6538
 20
-2.9029
 30
0.0
 10
172.6538
 20
-2.9029
 30
0.0
 10
172.6537
 20
-2.9029
 30
0.0
 10
172.6537
 20
-2.9029
 30
0.0
  0
SPLINE
  5
B7
330
1F
100
AcDbEntity
  8
layer 1
 62
     7
100
AcDbSpline
210
0.0
220
0.0
230
1.0
 70
    11
 71
     3
 72
    20
 73
    16
 74
     0
 42
0.0000000001
 43
0.0000000001
 12
1.0
 22
0.0
 32
0.0
 13
1.0
 23
0.0
 33
0.0
 40
0.0
 40
0.0
 40
0.0
 40
0.0
 40
0.2
 40
0.2
 40
0.2
 40
0.2
 40
0.4
 40
0.4
 40
0.4
 40
0.4
 40
0.6
 40
0.6
 40
0.6
 40
0.6
 40
1.0
 40
1.0
 40
1.0
 40
1.0
 10
176.0415
 20
-2.9029
 30
0.0
 10
178.0506
 20
-2.9064
 30
0.0
 10
182.1751
 20
-2.0032
 30
0.0
 10
183.7745
 20
-0.915
 30
0.0
 10
183.7745
 20
-0.915
 30
0.0
 10
181.5504
 20
1.2178
 30
0.0
 10
179.8248
 20
2.9131
 30
0.0
 10
178.1678
 20
4.8489
 30
0.0
 10
178.1678
 20
4.8489
 30
0.0
 10
176.8344
 20
1.7216
 30
0.0
 10
176.405
 20
-0.5654
 30
0.0
 10
176.0414
 20
-2.9029
 30
0.0
 10
176.0414
 20
-2.9029
 30
0.0
 10
176.0414
 20
-2.9029
 30
0.0
 10
176.0415
 20
-2.9029
 30
0.0
 10
176.0415
 20
-2.9029
 30
0.0
  0
SPLINE
  5
B8
330
1F
100
AcDbEntity
  8
layer 1
 62
     7
100
AcDbSpline
210
0.0
220
0.0
230
1.0
 70
    11
 71
     3
 72
    20
 73
    16
 74
     0
 42
0.0000000001
 43
0.0000000001
 12
1.0
 22
0.0
 32
0.0
 13
1.0
 23
0.0
 33
0.0
 40
0.0
 40
0.0
 40
0.0
 40
0.0
 40
0.2
 40
0.2
 40
0.2
 40
0.2
 40
0.4
 40
0.4
 40
0.4
 40
0.4
 40
0.6
 40
0.6
 40
0.6
 40
0.6
 40
1.0
 40
1.0
 40
1.0
 40
1.0
 10
188.7429
 20
23.3105
 30
0.0
 10
187.2272
 20
23.6045
 30
0.0
 10
185.5738
 20
23.1122
 30
0.0
 10
184.6383
 20
22.0806
 30
0.0
 10
184.6383
 20
22.0806
 30
0.0
 10
185.6653
 20
20.845
 30
0.0
 10
187.2714
 20
20.4963
 30
0.0
 10
188.7402
 20
20.8558
 30
0.0
 10
188.7402
 20
20.8558
 30
0.0
 10
188.7402
 20
20.8558
 30
0.0
 10
188.743
 20
23.3103
 30
0.0
 10
188.743
 20
23.3103
 30
0.0
 10
188.743
 20
23.3103
 30
0.0
 10
188.743
 20
23.3103
 30
0.0
 10
188.7429
 20
23.3105
 30
0.0
 10
188.7429
 20
23.3105
 30
0.0
  0
SPLINE
  5
B9
330
1F
100
AcDbEntity
  8
layer 1
 62
     7
100
AcDbSpline
210
0.0
220
0.0
230
1.0
 70
    11
 71
     3
 72
    24
 73
    20
 74
     0
 42
0.0000000001
 43
0.0000000001
 12
1.0
 22
0.0
 32
0.0
 13
1.0
 23
0.0
 33
0.0
 40
0.0
 40
0.0
 40
0.0
 40
0.0
 40
0.1666666666666667
 40
0.1666666666666667
 40
0.1666666666666667
 40
0.1666666666666667
 40
0.3333333333333333
 40
0.3333333333333333
 40
0.3333333333333333
 40
0.3333333333333333
 40
0.5
 40
0.5
 40
0.5
 40
0.5
 40
0.6666666666666666
 40
0.6666666666666666
 40
0.6666666666666666
 40
0.6666666666666666
 40
1.0
 40
1.0
 40
1.0
 40
1.0
 10
79.3077
 20
15.4349
 30
0.0
 10
79.6485
 20
15.6507
 30
0.0
 10
79.9897
 20
15.8473
 30
0.0
 10
80.3302
 20
16.0229
 30
0.0
 10
80.3302
 20
16.0229
 30
0.0
 10
83.4466
 20
14.2526
 30
0.0
 10
85.4329
 20
11.8545
 30
0.0
 10
87.8662
 20
8.7349
 30
0.0
 10
87.8662
 20
8.7349
 30
0.0
 10
86.1146
 20
6.1362
 30
0.0
 10
82.7254
 20
2.6204
 30
0.0
 10
80.2715
 20
1.1262
 30
0.0
 10
80.2715
 20
1.1262
 30
0.0
 10
79.9576
 20
1.3562
 30
0.0
 10
79.6573
 20
1.5817
 30
0.0
 10
79.3684
 20
1.8046
 30
0.0
 10
79.3684
 20
1.8046
 30
0.0
 10
79.3684
 20
1.8046
 30
0.0
 10
79.3077
 20
15.4349
 30
0.0
 10
79.3077
 20
15.4349
 30
0.0
  0
SPLINE
  5
BA
330
1F
100
AcDbEntity
  8
layer 1
 62
     7
100
AcDbSpline
210
0.0
220
0.0
230
1.0
 70
    11
 71
     3
 72
    20
 73
    16
 74
     0
 42
0.0000000001
 43
0.0000000001
 12
1.0
 22
0.0
 32
0.0
 13
1.0
 23
0.0
 33
0.0
 40
0.0
 40
0.0
 40
0.0
 40
0.0
 40
0.2
 40
0.2
 40
0.2
 40
0.2
 40
0.4
 40
0.4
 40
0.4
 40
0.4
 40
0.6
 40
0.6
 40
0.6
 40
0.6
 40
1.0
 40
1.0
 40
1.0
 40
1.0
 10
114.8356
 20
-18.1521
 30
0.0
 10
112.6607
 20
-14.9385
 30
0.0
 10
109.8952
 20
-12.2114
 30
0.0
 10
107.1848
 20
-10.8134
 30
0.0
 10
107.1848
 20
-10.8134
 30
0.0
 10
104.0683
 20
-12.5836
 30
0.0
 10
102.082
 20
-14.9818
 30
0.0
 10
99.6487
 20
-18.1014
 30
0.0
 10
99.6487
 20
-18.1014
 30
0.0
 10
101.4004
 20
-20.7
 30
0.0
 10
104.7895
 20
-24.2159
 30
0.0
 10
107.2435
 20
-25.71
 30
0.0
 10
107.2435
 20
-25.71
 30
0.0
 10
110.4053
 20
-23.3927
 30
0.0
 10
112.1974
 20
-21.5343
 30
0.0
 10
114.8356
 20
-18.1521
 30
0.0
  0
SPLINE
  5
BB
330
1F
100
AcDbEntity
  8
layer 1
 62
     7
100
AcDbSpline
210
0.0
220
0.0
230
1.0
 70
    11
 71
     3
 72
    12
 73
     8
 74
     0
 42
0.0000000001
 43
0.0000000001
 12
1.0
 22
0.0
 32
0.0
 13
1.0
 23
0.0
 33
0.0
 40
0.0
 40
0.0
 40
0.0
 40
0.0
 40
0.3333333333333333
 40
0.3333333333333333
 40
0.3333333333333333
 40
0.3333333333333333
 40
1.0
 40
1.0
 40
1.0
 40
1.0
 10
93.7861
 20
-15.0076
 30
0.0
 10
91.9019
 20
-16.7263
 30
0.0
 10
92.2094
 20
-19.8792
 30
0.0
 10
93.8013
 20
-21.3232
 30
0.0
 10
93.8013
 20
-21.3232
 30
0.0
 10
95.7292
 20
-19.7207
 30
0.0
 10
95.4979
 20
-16.7088
 30
0.0
 10
93.7861
 20
-15.0076
 30
0.0
  0
SPLINE
  5
BC
330
1F
100
AcDbEntity
  8
layer 1
 62
     7
100
AcDbSpline
210
0.0
220
0.0
230
1.0
 70
    11
 71
     3
 72
    20
 73
    16
 74
     0
 42
0.0000000001
 43
0.0000000001
 12
1.0
 22
0.0
 32
0.0
 13
1.0
 23
0.0
 33
0.0
 40
0.0
 40
0.0
 40
0.0
 40
0.0
 40
0.2
 40
0.2
 40
0.2
 40
0.2
 40
0.4
 40
0.4
 40
0.4
 40
0.4
 40
0.6
 40
0.6
 40
0.6
 40
0.6
 40
1.0
 40
1.0
 40
1.0
 40
1.0
 10
92.1555
 20
-6.5452
 30
0.0
 10
90.1464
 20
-6.5416
 30
0.0
 10
86.0219
 20
-7.4448
 30
0.0
 10
84.4226
 20
-8.5332
 30
0.0
 10
84.4226
 20
-8.5332
 30
0.0
 10
86.6467
 20
-10.666
 30
0.0
 10
88.3722
 20
-12.3613
 30
0.0
 10
90.0293
 20
-14.297
 30
0.0
 10
90.0293
 20
-14.297
 30
0.0
 10
91.3627
 20
-11.1698
 30
0.0
 10
91.792
 20
-8.8828
 30
0.0
 10
92.1557
 20
-6.5453
 30
0.0
 10
92.1557
 20
-6.5453
 30
0.0
 10
92.1557
 20
-6.5453
 30
0.0
 10
92.1555
 20
-6.5452
 30
0.0
 10
92.1555
 20
-6.5452
 30
0.0
  0
SPLINE
  5
BD
330
1F
100
AcDbEntity
  8
layer 1
 62
     7
100
AcDbSpline
210
0.0
220
0.0
230
1.0
 70
    11
 71
     3
 72
    16
 73
    12
 74
     0
 42
0.0000000001
 43
0.0000000001
 12
1.0
 22
0.0
 32
0.0
 13
1.0
 23
0.0
 33
0.0
 40
0.0
 40
0.0
 40
0.0
 40
0.0
 40
0.25
 40
0.25
 40
0.25
 40
0.25
 40
0.5
 40
0.5
 40
0.5
 40
0.5
 40
1.0
 40
1.0
 40
1.0
 40
1.0
 10
95.5435
 20
-6.5452
 30
0.0
 10
97.5526
 20
-6.5416
 30
0.0
 10
101.6771
 20
-7.4448
 30
0.0
 10
103.2765
 20
-8.533
 30
0.0
 10
103.2765
 20
-8.533
 30
0.0
 10
101.0523
 20
-10.666
 30
0.0
 10
99.3268
 20
-12.3613
 30
0.0
 10
97.6698
 20
-14.2969
 30
0.0
 10
97.6698
 20
-14.2969
 30
0.0
 10
96.3364
 20
-11.1698
 30
0.0
 10
95.9071
 20
-8.8828
 30
0.0
 10
95.5435
 20
-6.5452
 30
0.0
  0
SPLINE
  5
BE
330
1F
100
AcDbEntity
  8
layer 1
 62
     7
100
AcDbSpline
210
0.0
220
0.0
230
1.0
 70
    11
 71
     3
 72
    20
 73
    16
 74
     0
 42
0.0000000001
 43
0.0000000001
 12
1.0
 22
0.0
 32
0.0
 13
1.0
 23
0.0
 33
0.0
 40
0.0
 40
0.0
 40
0.0
 40
0.0
 40
0.2
 40
0.2
 40
0.2
 40
0.2
 40
0.4
 40
0.4
 40
0.4
 40
0.4
 40
0.6
 40
0.6
 40
0.6
 40
0.6
 40
1.0
 40
1.0
 40
1.0
 40
1.0
 10
92.1555
 20
-29.7391
 30
0.0
 10
90.1464
 20
-29.7427
 30
0.0
 10
86.0219
 20
-28.8395
 30
0.0
 10
84.4226
 20
-27.7512
 30
0.0
 10
84.4226
 20
-27.7512
 30
0.0
 10
86.6467
 20
-25.6184
 30
0.0
 10
88.3722
 20
-23.9231
 30
0.0
 10
90.0293
 20
-21.9874
 30
0.0
 10
90.0293
 20
-21.9874
 30
0.0
 10
91.3627
 20
-25.1146
 30
0.0
 10
91.792
 20
-27.4016
 30
0.0
 10
92.1557
 20
-29.7391
 30
0.0
 10
92.1557
 20
-29.7391
 30
0.0
 10
92.1557
 20
-29.7391
 30
0.0
 10
92.1555
 20
-29.7391
 30
0.0
 10
92.1555
 20
-29.7391
 30
0.0
  0
SPLINE
  5
BF
330
1F
100
AcDbEntity
  8
layer 1
 62
     7
100
AcDbSpline
210
0.0
220
0.0
230
1.0
 70
    11
 71
     3
 72
    20
 73
    16
 74
     0
 42
0.0000000001
 43
0.0000000001
 12
1.0
 22
0.0
 32
0.0
 13
1.0
 23
0.0
 33
0.0
 40
0.0
 40
0.0
 40
0.0
 40
0.0
 40
0.2
 40
0.2
 40
0.2
 40
0.2
 40
0.4
 40
0.4
 40
0.4
 40
0.4
 40
0.6
 40
0.6
 40
0.6
 40
0.6
 40
1.0
 40
1.0
 40
1.0
 40
1.0
 10
95.5435
 20
-29.7391
 30
0.0
 10
97.5526
 20
-29.7427
 30
0.0
 10
101.6771
 20
-28.8395
 30
0.0
 10
103.2765
 20
-27.7512
 30
0.0
 10
103.2765
 20
-27.7512
 30
0.0
 10
101.0523
 20
-25.6184
 30
0.0
 10
99.3268
 20
-23.9231
 30
0.0
 10
97.6698
 20
-21.9874
 30
0.0
 10
97.6698
 20
-21.9874
 30
0.0
 10
96.3364
 20
-25.1146
 30
0.0
 10
95.907
 20
-27.4016
 30
0.0
 10
95.5434
 20
-29.7391
 30
0.0
 10
95.5434
 20
-29.7391
 30
0.0
 10
95.5434
 20
-29.7391
 30
0.0
 10
95.5435
 20
-29.7391
 30
0.0
 10
95.5435
 20
-29.7391
 30
0.0
  0
SPLINE
  5
C0
330
1F
100
AcDbEntity
  8
layer 1
 62
     7
100
AcDbSpline
210
0.0
220
0.0
230
1.0
 70
    11
 71
     3
 72
    12
 73
     8
 74
     0
 42
0.0000000001
 43
0.0000000001
 12
1.0
 22
0.0
 32
0.0
 13
1.0
 23
0.0
 33
0.0
 40
0.0
 40
0.0
 40
0.0
 40
0.0
 40
0.3333333333333333
 40
0.3333333333333333
 40
0.3333333333333333
 40
0.3333333333333333
 40
1.0
 40
1.0
 40
1.0
 40
1.0
 10
110.4557
 20
-4.7403
 30
0.0
 10
108.737
 20
-2.8561
 30
0.0
 10
105.5841
 20
-3.1636
 30
0.0
 10
104.1401
 20
-4.7555
 30
0.0
 10
104.1401
 20
-4.7555
 30
0.0
 10
105.7426
 20
-6.6834
 30
0.0
 10
108.7545
 20
-6.4521
 30
0.0
 10
110.4557
 20
-4.7403
 30
0.0
  0
SPLINE
  5
C1
330
1F
100
AcDbEntity
  8
layer 1
 62
     7
100
AcDbSpline
210
0.0
220
0.0
230
1.0
 70
    11
 71
     3
 72
    16
 73
    12
 74
     0
 42
0.0000000001
 43
0.0000000001
 12
1.0
 22
0.0
 32
0.0
 13
1.0
 23
0.0
 33
0.0
 40
0.0
 40
0.0
 40
0.0
 40
0.0
 40
0.25
 40
0.25
 40
0.25
 40
0.25
 40
0.5
 40
0.5
 40
0.5
 40
0.5
 40
1.0
 40
1.0
 40
1.0
 40
1.0
 10
83.5074
 20
-4.7403
 30
0.0
 10
82.4345
 20
-3.5641
 30
0.0
 10
80.7337
 20
-3.242
 30
0.0
 10
79.3077
 20
-3.5532
 30
0.0
 10
79.3077
 20
-3.5532
 30
0.0
 10
79.3077
 20
-3.5532
 30
0.0
 10
79.3077
 20
-6.0582
 30
0.0
 10
79.3077
 20
-6.0582
 30
0.0
 10
79.3077
 20
-6.0582
 30
0.0
 10
80.7746
 20
-6.3841
 30
0.0
 10
82.4011
 20
-5.8537
 30
0.0
 10
83.5074
 20
-4.7403
 30
0.0
  0
SPLINE
  5
C2
330
1F
100
AcDbEntity
  8
layer 1
 62
     7
100
AcDbSpline
210
0.0
220
0.0
230
1.0
 70
    11
 71
     3
 72
    20
 73
    16
 74
     0
 42
0.0000000001
 43
0.0000000001
 12
1.0
 22
0.0
 32
0.0
 13
1.0
 23
0.0
 33
0.0
 40
0.0
 40
0.0
 40
0.0
 40
0.0
 40
0.2
 40
0.2
 40
0.2
 40
0.2
 40
0.4
 40
0.4
 40
0.4
 40
0.4
 40
0.6
 40
0.6
 40
0.6
 40
0.6
 40
1.0
 40
1.0
 40
1.0
 40
1.0
 10
141.6971
 20
-18.1521
 30
0.0
 10
139.5224
 20
-14.9385
 30
0.0
 10
136.7567
 20
-12.2114
 30
0.0
 10
134.0463
 20
-10.8134
 30
0.0
 10
134.0463
 20
-10.8134
 30
0.0
 10
130.9299
 20
-12.5836
 30
0.0
 10
128.9435
 20
-14.9818
 30
0.0
 10
126.5103
 20
-18.1014
 30
0.0
 10
126.5103
 20
-18.1014
 30
0.0
 10
128.2619
 20
-20.7
 30
0.0
 10
131.6511
 20
-24.2159
 30
0.0
 10
134.105
 20
-25.71
 30
0.0
 10
134.105
 20
-25.71
 30
0.0
 10
137.2668
 20
-23.3927
 30
0.0
 10
139.0589
 20
-21.5343
 30
0.0
 10
141.6971
 20
-18.1521
 30
0.0
  0
SPLINE
  5
C3
330
1F
100
AcDbEntity
  8
layer 1
 62
     7
100
AcDbSpline
210
0.0
220
0.0
230
1.0
 70
    11
 71
     3
 72
    12
 73
     8
 74
     0
 42
0.0000000001
 43
0.0000000001
 12
1.0
 22
0.0
 32
0.0
 13
1.0
 23
0.0
 33
0.0
 40
0.0
 40
0.0
 40
0.0
 40
0.0
 40
0.3333333333333333
 40
0.3333333333333333
 40
0.3333333333333333
 40
0.3333333333333333
 40
1.0
 40
1.0
 40
1.0
 40
1.0
 10
120.6476
 20
-15.0076
 30
0.0
 10
118.7634
 20
-16.7263
 30
0.0
 10
119.0709
 20
-19.8792
 30
0.0
 10
120.6628
 20
-21.3232
 30
0.0
 10
120.6628
 20
-21.3232
 30
0.0
 10
122.5907
 20
-19.7207
 30
0.0
 10
122.3594
 20
-16.7088
 30
0.0
 10
120.6476
 20
-15.0076
 30
0.0
  0
SPLINE
  5
C4
330
1F
100
AcDbEntity
  8
layer 1
 62
     7
100
AcDbSpline
210
0.0
220
0.0
230
1.0
 70
    11
 71
     3
 72
    20
 73
    16
 74
     0
 42
0.0000000001
 43
0.0000000001
 12
1.0
 22
0.0
 32
0.0
 13
1.0
 23
0.0
 33
0.0
 40
0.0
 40
0.0
 40
0.0
 40
0.0
 40
0.2
 40
0.2
 40
0.2
 40
0.2
 40
0.4
 40
0.4
 40
0.4
 40
0.4
 40
0.6
 40
0.6
 40
0.6
 40
0.6
 40
1.0
 40
1.0
 40
1.0
 40
1.0
 10
119.0171
 20
-6.5452
 30
0.0
 10
117.008
 20
-6.5416
 30
0.0
 10
112.8836
 20
-7.4448
 30
0.0
 10
111.2841
 20
-8.5332
 30
0.0
 10
111.2841
 20
-8.5332
 30
0.0
 10
113.5082
 20
-10.666
 30
0.0
 10
115.2338
 20
-12.3613
 30
0.0
 10
116.8908
 20
-14.297
 30
0.0
 10
116.8908
 20
-14.297
 30
0.0
 10
118.2242
 20
-11.1698
 30
0.0
 10
118.6536
 20
-8.8828
 30
0.0
 10
119.0172
 20
-6.5453
 30
0.0
 10
119.0172
 20
-6.5453
 30
0.0
 10
119.0172
 20
-6.5453
 30
0.0
 10
119.0171
 20
-6.5452
 30
0.0
 10
119.0171
 20
-6.5452
 30
0.0
  0
SPLINE
  5
C5
330
1F
100
AcDbEntity
  8
layer 1
 62
     7
100
AcDbSpline
210
0.0
220
0.0
230
1.0
 70
    11
 71
     3
 72
    16
 73
    12
 74
     0
 42
0.0000000001
 43
0.0000000001
 12
1.0
 22
0.0
 32
0.0
 13
1.0
 23
0.0
 33
0.0
 40
0.0
 40
0.0
 40
0.0
 40
0.0
 40
0.25
 40
0.25
 40
0.25
 40
0.25
 40
0.5
 40
0.5
 40
0.5
 40
0.5
 40
1.0
 40
1.0
 40
1.0
 40
1.0
 10
122.405
 20
-6.5452
 30
0.0
 10
124.4142
 20
-6.5416
 30
0.0
 10
128.5387
 20
-7.4448
 30
0.0
 10
130.138
 20
-8.533
 30
0.0
 10
130.138
 20
-8.533
 30
0.0
 10
127.9139
 20
-10.666
 30
0.0
 10
126.1885
 20
-12.3613
 30
0.0
 10
124.5314
 20
-14.2969
 30
0.0
 10
124.5314
 20
-14.2969
 30
0.0
 10
123.1979
 20
-11.1698
 30
0.0
 10
122.7687
 20
-8.8828
 30
0.0
 10
122.405
 20
-6.5452
 30
0.0
  0
SPLINE
  5
C6
330
1F
100
AcDbEntity
  8
layer 1
 62
     7
100
AcDbSpline
210
0.0
220
0.0
230
1.0
 70
    11
 71
     3
 72
    20
 73
    16
 74
     0
 42
0.0000000001
 43
0.0000000001
 12
1.0
 22
0.0
 32
0.0
 13
1.0
 23
0.0
 33
0.0
 40
0.0
 40
0.0
 40
0.0
 40
0.0
 40
0.2
 40
0.2
 40
0.2
 40
0.2
 40
0.4
 40
0.4
 40
0.4
 40
0.4
 40
0.6
 40
0.6
 40
0.6
 40
0.6
 40
1.0
 40
1.0
 40
1.0
 40
1.0
 10
119.0171
 20
-29.7391
 30
0.0
 10
117.008
 20
-29.7427
 30
0.0
 10
112.8836
 20
-28.8395
 30
0.0
 10
111.2841
 20
-27.7512
 30
0.0
 10
111.2841
 20
-27.7512
 30
0.0
 10
113.5082
 20
-25.6184
 30
0.0
 10
115.2338
 20
-23.9231
 30
0.0
 10
116.8908
 20
-21.9874
 30
0.0
 10
116.8908
 20
-21.9874
 30
0.0
 10
118.2242
 20
-25.1146
 30
0.0
 10
118.6536
 20
-27.4016
 30
0.0
 10
119.0172
 20
-29.7391
 30
0.0
 10
119.0172
 20
-29.7391
 30
0.0
 10
119.0172
 20
-29.7391
 30
0.0
 10
119.0171
 20
-29.7391
 30
0.0
 10
119.0171
 20
-29.7391
 30
0.0
  0
SPLINE
  5
C7
330
1F
100
AcDbEntity
  8
layer 1
 62
     7
100
AcDbSpline
210
0.0
220
0.0
230
1.0
 70
    11
 71
     3
 72
    20
 73
    16
 74
     0
 42
0.0000000001
 43
0.0000000001
 12
1.0
 22
0.0
 32
0.0
 13
1.0
 23
0.0
 33
0.0
 40
0.0
 40
0.0
 40
0.0
 40
0.0
 40
0.2
 40
0.2
 40
0.2
 40
0.2
 40
0.4
 40
0.4
 40
0.4
 40
0.4
 40
0.6
 40
0.6
 40
0.6
 40
0.6
 40
1.0
 40
1.0
 40
1.0
 40
1.0
 10
122.405
 20
-29.7391
 30
0.0
 10
124.4142
 20
-29.7427
 30
0.0
 10
128.5387
 20
-28.8395
 30
0.0
 10
130.138
 20
-27.7512
 30
0.0
 10
130.138
 20
-27.7512
 30
0.0
 10
127.9139
 20
-25.6184
 30
0.0
 10
126.1883
 20
-23.9231
 30
0.0
 10
124.5313
 20
-21.9874
 30
0.0
 10
124.5313
 20
-21.9874
 30
0.0
 10
123.1979
 20
-25.1146
 30
0.0
 10
122.7685
 20
-27.4016
 30
0.0
 10
122.4049
 20
-29.7391
 30
0.0
 10
122.4049
 20
-29.7391
 30
0.0
 10
122.4049
 20
-29.7391
 30
0.0
 10
122.405
 20
-29.7391
 30
0.0
 10
122.405
 20
-29.7391
 30
0.0
  0
SPLINE
  5
C8
330
1F
100
AcDbEntity
  8
layer 1
 62
     7
100
AcDbSpline
210
0.0
220
0.0
230
1.0
 70
    11
 71
     3
 72
    12
 73
     8
 74
     0
 42
0.0000000001
 43
0.0000000001
 12
1.0
 22
0.0
 32
0.0
 13
1.0
 23
0.0
 33
0.0
 40
0.0
 40
0.0
 40
0.0
 40
0.0
 40
0.3333333333333333
 40
0.3333333333333333
 40
0.3333333333333333
 40
0.3333333333333333
 40
1.0
 40
1.0
 40
1.0
 40
1.0
 10
137.3173
 20
-4.7403
 30
0.0
 10
135.5985
 20
-2.8561
 30
0.0
 10
132.4456
 20
-3.1636
 30
0.0
 10
131.0017
 20
-4.7555
 30
0.0
 10
131.0017
 20
-4.7555
 30
0.0
 10
132.6042
 20
-6.6834
 30
0.0
 10
135.6161
 20
-6.4521
 30
0.0
 10
137.3173
 20
-4.7403
 30
0.0
  0
SPLINE
  5
C9
330
1F
100
AcDbEntity
  8
layer 1
 62
     7
100
AcDbSpline
210
0.0
220
0.0
230
1.0
 70
    11
 71
     3
 72
    20
 73
    16
 74
     0
 42
0.0000000001
 43
0.0000000001
 12
1.0
 22
0.0
 32
0.0
 13
1.0
 23
0.0
 33
0.0
 40
0.0
 40
0.0
 40
0.0
 40
0.0
 40
0.2
 40
0.2
 40
0.2
 40
0.2
 40
0.4
 40
0.4
 40
0.4
 40
0.4
 40
0.6
 40
0.6
 40
0.6
 40
0.6
 40
1.0
 40
1.0
 40
1.0
 40
1.0
 10
168.4721
 20
-18.1521
 30
0.0
 10
166.2973
 20
-14.9385
 30
0.0
 10
163.5317
 20
-12.2114
 30
0.0
 10
160.8213
 20
-10.8134
 30
0.0
 10
160.8213
 20
-10.8134
 30
0.0
 10
157.7048
 20
-12.5836
 30
0.0
 10
155.7185
 20
-14.9818
 30
0.0
 10
153.2852
 20
-18.1014
 30
0.0
 10
153.2852
 20
-18.1014
 30
0.0
 10
155.0368
 20
-20.7
 30
0.0
 10
158.426
 20
-24.2159
 30
0.0
 10
160.88
 20
-25.71
 30
0.0
 10
160.88
 20
-25.71
 30
0.0
 10
164.0418
 20
-23.3927
 30
0.0
 10
165.8339
 20
-21.5343
 30
0.0
 10
168.4721
 20
-18.1521
 30
0.0
  0
SPLINE
  5
CA
330
1F
100
AcDbEntity
  8
layer 1
 62
     7
100
AcDbSpline
210
0.0
220
0.0
230
1.0
 70
    11
 71
     3
 72
    12
 73
     8
 74
     0
 42
0.0000000001
 43
0.0000000001
 12
1.0
 22
0.0
 32
0.0
 13
1.0
 23
0.0
 33
0.0
 40
0.0
 40
0.0
 40
0.0
 40
0.0
 40
0.3333333333333333
 40
0.3333333333333333
 40
0.3333333333333333
 40
0.3333333333333333
 40
1.0
 40
1.0
 40
1.0
 40
1.0
 10
147.4226
 20
-15.0076
 30
0.0
 10
145.5383
 20
-16.7263
 30
0.0
 10
145.8459
 20
-19.8792
 30
0.0
 10
147.4378
 20
-21.3232
 30
0.0
 10
147.4378
 20
-21.3232
 30
0.0
 10
149.3657
 20
-19.7207
 30
0.0
 10
149.1344
 20
-16.7088
 30
0.0
 10
147.4226
 20
-15.0076
 30
0.0
  0
SPLINE
  5
CB
330
1F
100
AcDbEntity
  8
layer 1
 62
     7
100
AcDbSpline
210
0.0
220
0.0
230
1.0
 70
    11
 71
     3
 72
    20
 73
    16
 74
     0
 42
0.0000000001
 43
0.0000000001
 12
1.0
 22
0.0
 32
0.0
 13
1.0
 23
0.0
 33
0.0
 40
0.0
 40
0.0
 40
0.0
 40
0.0
 40
0.2
 40
0.2
 40
0.2
 40
0.2
 40
0.4
 40
0.4
 40
0.4
 40
0.4
 40
0.6
 40
0.6
 40
0.6
 40
0.6
 40
1.0
 40
1.0
 40
1.0
 40
1.0
 10
145.792
 20
-6.5452
 30
0.0
 10
143.7829
 20
-6.5416
 30
0.0
 10
139.6585
 20
-7.4448
 30
0.0
 10
138.059
 20
-8.5332
 30
0.0
 10
138.059
 20
-8.5332
 30
0.0
 10
140.2832
 20
-10.666
 30
0.0
 10
142.0087
 20
-12.3613
 30
0.0
 10
143.6658
 20
-14.297
 30
0.0
 10
143.6658
 20
-14.297
 30
0.0
 10
144.9991
 20
-11.1698
 30
0.0
 10
145.4285
 20
-8.8828
 30
0.0
 10
145.7922
 20
-6.5453
 30
0.0
 10
145.7922
 20
-6.5453
 30
0.0
 10
145.7922
 20
-6.5453
 30
0.0
 10
145.792
 20
-6.5452
 30
0.0
 10
145.792
 20
-6.5452
 30
0.0
  0
SPLINE
  5
CC
330
1F
100
AcDbEntity
  8
layer 1
 62
     7
100
AcDbSpline
210
0.0
220
0.0
230
1.0
 70
    11
 71
     3
 72
    16
 73
    12
 74
     0
 42
0.0000000001
 43
0.0000000001
 12
1.0
 22
0.0
 32
0.0
 13
1.0
 23
0.0
 33
0.0
 40
0.0
 40
0.0
 40
0.0
 40
0.0
 40
0.25
 40
0.25
 40
0.25
 40
0.25
 40
0.5
 40
0.5
 40
0.5
 40
0.5
 40
1.0
 40
1.0
 40
1.0
 40
1.0
 10
149.18
 20
-6.5452
 30
0.0
 10
151.1891
 20
-6.5416
 30
0.0
 10
155.3136
 20
-7.4448
 30
0.0
 10
156.913
 20
-8.533
 30
0.0
 10
156.913
 20
-8.533
 30
0.0
 10
154.6888
 20
-10.666
 30
0.0
 10
152.9634
 20
-12.3613
 30
0.0
 10
151.3064
 20
-14.2969
 30
0.0
 10
151.3064
 20
-14.2969
 30
0.0
 10
149.9729
 20
-11.1698
 30
0.0
 10
149.5436
 20
-8.8828
 30
0.0
 10
149.18
 20
-6.5452
 30
0.0
  0
SPLINE
  5
CD
330
1F
100
AcDbEntity
  8
layer 1
 62
     7
100
AcDbSpline
210
0.0
220
0.0
230
1.0
 70
    11
 71
     3
 72
    20
 73
    16
 74
     0
 42
0.0000000001
 43
0.0000000001
 12
1.0
 22
0.0
 32
0.0
 13
1.0
 23
0.0
 33
0.0
 40
0.0
 40
0.0
 40
0.0
 40
0.0
 40
0.2
 40
0.2
 40
0.2
 40
0.2
 40
0.4
 40
0.4
 40
0.4
 40
0.4
 40
0.6
 40
0.6
 40
0.6
 40
0.6
 40
1.0
 40
1.0
 40
1.0
 40
1.0
 10
145.792
 20
-29.7391
 30
0.0
 10
143.7829
 20
-29.7427
 30
0.0
 10
139.6585
 20
-28.8395
 30
0.0
 10
138.059
 20
-27.7512
 30
0.0
 10
138.059
 20
-27.7512
 30
0.0
 10
140.2832
 20
-25.6184
 30
0.0
 10
142.0087
 20
-23.9231
 30
0.0
 10
143.6658
 20
-21.9874
 30
0.0
 10
143.6658
 20
-21.9874
 30
0.0
 10
144.9991
 20
-25.1146
 30
0.0
 10
145.4285
 20
-27.4016
 30
0.0
 10
145.7922
 20
-29.7391
 30
0.0
 10
145.7922
 20
-29.7391
 30
0.0
 10
145.7922
 20
-29.7391
 30
0.0
 10
145.792
 20
-29.7391
 30
0.0
 10
145.792
 20
-29.7391
 30
0.0
  0
SPLINE
  5
CE
330
1F
100
AcDbEntity
  8
layer 1
 62
     7
100
AcDbSpline
210
0.0
220
0.0
230
1.0
 70
    11
 71
     3
 72
    20
 73
    16
 74
     0
 42
0.0000000001
 43
0.0000000001
 12
1.0
 22
0.0
 32
0.0
 13
1.0
 23
0.0
 33
0.0
 40
0.0
 40
0.0
 40
0.0
 40
0.0
 40
0.2
 40
0.2
 40
0.2
 40
0.2
 40
0.4
 40
0.4
 40
0.4
 40
0.4
 40
0.6
 40
0.6
 40
0.6
 40
0.6
 40
1.0
 40
1.0
 40
1.0
 40
1.0
 10
149.18
 20
-29.7391
 30
0.0
 10
151.1891
 20
-29.7427
 30
0.0
 10
155.3136
 20
-28.8395
 30
0.0
 10
156.913
 20
-27.7512
 30
0.0
 10
156.913
 20
-27.7512
 30
0.0
 10
154.6888
 20
-25.6184
 30
0.0
 10
152.9633
 20
-23.9231
 30
0.0
 10
151.3062
 20
-21.9874
 30
0.0
 10
151.3062
 20
-21.9874
 30
0.0
 10
149.9729
 20
-25.1146
 30
0.0
 10
149.5435
 20
-27.4016
 30
0.0
 10
149.1799
 20
-29.7391
 30
0.0
 10
149.1799
 20
-29.7391
 30
0.0
 10
149.1799
 20
-29.7391
 30
0.0
 10
149.18
 20
-29.7391
 30
0.0
 10
149.18
 20
-29.7391
 30
0.0
  0
SPLINE
  5
CF
330
1F
100
AcDbEntity
  8
layer 1
 62
     7
100
AcDbSpline
210
0.0
220
0.0
230
1.0
 70
    11
 71
     3
 72
    12
 73
     8
 74
     0
 42
0.0000000001
 43
0.0000000001
 12
1.0
 22
0.0
 32
0.0
 13
1.0
 23
0.0
 33
0.0
 40
0.0
 40
0.0
 40
0.0
 40
0.0
 40
0.3333333333333333
 40
0.3333333333333333
 40
0.3333333333333333
 40
0.3333333333333333
 40
1.0
 40
1.0
 40
1.0
 40
1.0
 10
164.0922
 20
-4.7403
 30
0.0
 10
162.3735
 20
-2.8561
 30
0.0
 10
159.2206
 20
-3.1636
 30
0.0
 10
157.7766
 20
-4.7555
 30
0.0
 10
157.7766
 20
-4.7555
 30
0.0
 10
159.3791
 20
-6.6834
 30
0.0
 10
162.391
 20
-6.4521
 30
0.0
 10
164.0922
 20
-4.7403
 30
0.0
  0
SPLINE
  5
D0
330
1F
100
AcDbEntity
  8
layer 1
 62
     7
100
AcDbSpline
210
0.0
220
0.0
230
1.0
 70
    11
 71
     3
 72
    24
 73
    20
 74
     0
 42
0.0000000001
 43
0.0000000001
 12
1.0
 22
0.0
 32
0.0
 13
1.0
 23
0.0
 33
0.0
 40
0.0
 40
0.0
 40
0.0
 40
0.0
 40
0.1666666666666667
 40
0.1666666666666667
 40
0.1666666666666667
 40
0.1666666666666667
 40
0.3333333333333333
 40
0.3333333333333333
 40
0.3333333333333333
 40
0.3333333333333333
 40
0.5
 40
0.5
 40
0.5
 40
0.5
 40
0.6666666666666666
 40
0.6666666666666666
 40
0.6666666666666666
 40
0.6666666666666666
 40
1.0
 40
1.0
 40
1.0
 40
1.0
 10
188.7052
 20
-11.4013
 30
0.0
 10
188.3644
 20
-11.1855
 30
0.0
 10
188.0232
 20
-10.989
 30
0.0
 10
187.6828
 20
-10.8134
 30
0.0
 10
187.6828
 20
-10.8134
 30
0.0
 10
184.5663
 20
-12.5836
 30
0.0
 10
182.58
 20
-14.9818
 30
0.0
 10
180.1468
 20
-18.1014
 30
0.0
 10
180.1468
 20
-18.1014
 30
0.0
 10
181.8984
 20
-20.7
 30
0.0
 10
185.2875
 20
-24.2159
 30
0.0
 10
187.7415
 20
-25.71
 30
0.0
 10
187.7415
 20
-25.71
 30
0.0
 10
188.0553
 20
-25.4801
 30
0.0
 10
188.3557
 20
-25.2546
 30
0.0
 10
188.6446
 20
-25.0317
 30
0.0
 10
188.6446
 20
-25.0317
 30
0.0
 10
188.6446
 20
-25.0317
 30
0.0
 10
188.7052
 20
-11.4013
 30
0.0
 10
188.7052
 20
-11.4013
 30
0.0
  0
SPLINE
  5
D1
330
1F
100
AcDbEntity
  8
layer 1
 62
     7
100
AcDbSpline
210
0.0
220
0.0
230
1.0
 70
    11
 71
     3
 72
    12
 73
     8
 74
     0
 42
0.0000000001
 43
0.0000000001
 12
1.0
 22
0.0
 32
0.0
 13
1.0
 23
0.0
 33
0.0
 40
0.0
 40
0.0
 40
0.0
 40
0.0
 40
0.3333333333333333
 40
0.3333333333333333
 40
0.3333333333333333
 40
0.3333333333333333
 40
1.0
 40
1.0
 40
1.0
 40
1.0
 10
174.2843
 20
-15.0076
 30
0.0
 10
172.4
 20
-16.7263
 30
0.0
 10
172.7076
 20
-19.8792
 30
0.0
 10
174.2995
 20
-21.3232
 30
0.0
 10
174.2995
 20
-21.3232
 30
0.0
 10
176.2273
 20
-19.7207
 30
0.0
 10
175.9961
 20
-16.7088
 30
0.0
 10
174.2843
 20
-15.0076
 30
0.0
  0
SPLINE
  5
D2
330
1F
100
AcDbEntity
  8
layer 1
 62
     7
100
AcDbSpline
210
0.0
220
0.0
230
1.0
 70
    11
 71
     3
 72
    20
 73
    16
 74
     0
 42
0.0000000001
 43
0.0000000001
 12
1.0
 22
0.0
 32
0.0
 13
1.0
 23
0.0
 33
0.0
 40
0.0
 40
0.0
 40
0.0
 40
0.0
 40
0.2
 40
0.2
 40
0.2
 40
0.2
 40
0.4
 40
0.4
 40
0.4
 40
0.4
 40
0.6
 40
0.6
 40
0.6
 40
0.6
 40
1.0
 40
1.0
 40
1.0
 40
1.0
 10
172.6537
 20
-6.5452
 30
0.0
 10
170.6446
 20
-6.5416
 30
0.0
 10
166.5201
 20
-7.4448
 30
0.0
 10
164.9207
 20
-8.533
 30
0.0
 10
164.9207
 20
-8.533
 30
0.0
 10
167.1449
 20
-10.6659
 30
0.0
 10
168.8704
 20
-12.3611
 30
0.0
 10
170.5274
 20
-14.2969
 30
0.0
 10
170.5274
 20
-14.2969
 30
0.0
 10
171.8608
 20
-11.1697
 30
0.0
 10
172.2902
 20
-8.8826
 30
0.0
 10
172.6538
 20
-6.5452
 30
0.0
 10
172.6538
 20
-6.5452
 30
0.0
 10
172.6538
 20
-6.5452
 30
0.0
 10
172.6537
 20
-6.5452
 30
0.0
 10
172.6537
 20
-6.5452
 30
0.0
  0
SPLINE
  5
D3
330
1F
100
AcDbEntity
  8
layer 1
 62
     7
100
AcDbSpline
210
0.0
220
0.0
230
1.0
 70
    11
 71
     3
 72
    20
 73
    16
 74
     0
 42
0.0000000001
 43
0.0000000001
 12
1.0
 22
0.0
 32
0.0
 13
1.0
 23
0.0
 33
0.0
 40
0.0
 40
0.0
 40
0.0
 40
0.0
 40
0.2
 40
0.2
 40
0.2
 40
0.2
 40
0.4
 40
0.4
 40
0.4
 40
0.4
 40
0.6
 40
0.6
 40
0.6
 40
0.6
 40
1.0
 40
1.0
 40
1.0
 40
1.0
 10
176.0415
 20
-6.5452
 30
0.0
 10
178.0506
 20
-6.5416
 30
0.0
 10
182.1751
 20
-7.4448
 30
0.0
 10
183.7745
 20
-8.533
 30
0.0
 10
183.7745
 20
-8.533
 30
0.0
 10
181.5504
 20
-10.6659
 30
0.0
 10
179.8248
 20
-12.3611
 30
0.0
 10
178.1678
 20
-14.2969
 30
0.0
 10
178.1678
 20
-14.2969
 30
0.0
 10
176.8344
 20
-11.1697
 30
0.0
 10
176.405
 20
-8.8826
 30
0.0
 10
176.0414
 20
-6.5452
 30
0.0
 10
176.0414
 20
-6.5452
 30
0.0
 10
176.0414
 20
-6.5452
 30
0.0
 10
176.0415
 20
-6.5452
 30
0.0
 10
176.0415
 20
-6.5452
 30
0.0
  0
SPLINE
  5
D4
330
1F
100
AcDbEntity
  8
layer 1
 62
     7
100
AcDbSpline
210
0.0
220
0.0
230
1.0
 70
    11
 71
     3
 72
    20
 73
    16
 74
     0
 42
0.0000000001
 43
0.0000000001
 12
1.0
 22
0.0
 32
0.0
 13
1.0
 23
0.0
 33
0.0
 40
0.0
 40
0.0
 40
0.0
 40
0.0
 40
0.2
 40
0.2
 40
0.2
 40
0.2
 40
0.4
 40
0.4
 40
0.4
 40
0.4
 40
0.6
 40
0.6
 40
0.6
 40
0.6
 40
1.0
 40
1.0
 40
1.0
 40
1.0
 10
172.6537
 20
-29.7391
 30
0.0
 10
170.6446
 20
-29.7427
 30
0.0
 10
166.5201
 20
-28.8395
 30
0.0
 10
164.9207
 20
-27.7512
 30
0.0
 10
164.9207
 20
-27.7512
 30
0.0
 10
167.1449
 20
-25.6184
 30
0.0
 10
168.8704
 20
-23.9231
 30
0.0
 10
170.5274
 20
-21.9874
 30
0.0
 10
170.5274
 20
-21.9874
 30
0.0
 10
171.8608
 20
-25.1146
 30
0.0
 10
172.2902
 20
-27.4016
 30
0.0
 10
172.6538
 20
-29.7391
 30
0.0
 10
172.6538
 20
-29.7391
 30
0.0
 10
172.6538
 20
-29.7391
 30
0.0
 10
172.6537
 20
-29.7391
 30
0.0
 10
172.6537
 20
-29.7391
 30
0.0
  0
SPLINE
  5
D5
330
1F
100
AcDbEntity
  8
layer 1
 62
     7
100
AcDbSpline
210
0.0
220
0.0
230
1.0
 70
    11
 71
     3
 72
    20
 73
    16
 74
     0
 42
0.0000000001
 43
0.0000000001
 12
1.0
 22
0.0
 32
0.0
 13
1.0
 23
0.0
 33
0.0
 40
0.0
 40
0.0
 40
0.0
 40
0.0
 40
0.2
 40
0.2
 40
0.2
 40
0.2
 40
0.4
 40
0.4
 40
0.4
 40
0.4
 40
0.6
 40
0.6
 40
0.6
 40
0.6
 40
1.0
 40
1.0
 40
1.0
 40
1.0
 10
176.0415
 20
-29.7391
 30
0.0
 10
178.0506
 20
-29.7427
 30
0.0
 10
182.1751
 20
-28.8395
 30
0.0
 10
183.7745
 20
-27.7512
 30
0.0
 10
183.7745
 20
-27.7512
 30
0.0
 10
181.5504
 20
-25.6184
 30
0.0
 10
179.8248
 20
-23.9231
 30
0.0
 10
178.1678
 20
-21.9874
 30
0.0
 10
178.1678
 20
-21.9874
 30
0.0
 10
176.8344
 20
-25.1146
 30
0.0
 10
176.405
 20
-27.4016
 30
0.0
 10
176.0414
 20
-29.7391
 30
0.0
 10
176.0414
 20
-29.7391
 30
0.0
 10
176.0414
 20
-29.7391
 30
0.0
 10
176.0415
 20
-29.7391
 30
0.0
 10
176.0415
 20
-29.7391
 30
0.0
  0
SPLINE
  5
D6
330
1F
100
AcDbEntity
  8
layer 1
 62
     7
100
AcDbSpline
210
0.0
220
0.0
230
1.0
 70
    11
 71
     3
 72
    20
 73
    16
 74
     0
 42
0.0000000001
 43
0.0000000001
 12
1.0
 22
0.0
 32
0.0
 13
1.0
 23
0.0
 33
0.0
 40
0.0
 40
0.0
 40
0.0
 40
0.0
 40
0.2
 40
0.2
 40
0.2
 40
0.2
 40
0.4
 40
0.4
 40
0.4
 40
0.4
 40
0.6
 40
0.6
 40
0.6
 40
0.6
 40
1.0
 40
1.0
 40
1.0
 40
1.0
 10
188.7429
 20
-3.5257
 30
0.0
 10
187.2272
 20
-3.2316
 30
0.0
 10
185.5738
 20
-3.7239
 30
0.0
 10
184.6383
 20
-4.7555
 30
0.0
 10
184.6383
 20
-4.7555
 30
0.0
 10
185.6653
 20
-5.9912
 30
0.0
 10
187.2714
 20
-6.3398
 30
0.0
 10
188.7402
 20
-5.9803
 30
0.0
 10
188.7402
 20
-5.9803
 30
0.0
 10
188.7402
 20
-5.9803
 30
0.0
 10
188.743
 20
-3.5258
 30
0.0
 10
188.743
 20
-3.5258
 30
0.0
 10
188.743
 20
-3.5258
 30
0.0
 10
188.743
 20
-3.5258
 30
0.0
 10
188.7429
 20
-3.5257
 30
0.0
 10
188.7429
 20
-3.5257
 30
0.0
  0
SPLINE
  5
D7
330
1F
100
AcDbEntity
  8
layer 1
 62
     7
100
AcDbSpline
210
0.0
220
0.0
230
1.0
 70
    11
 71
     3
 72
    24
 73
    20
 74
     0
 42
0.0000000001
 43
0.0000000001
 12
1.0
 22
0.0
 32
0.0
 13
1.0
 23
0.0
 33
0.0
 40
0.0
 40
0.0
 40
0.0
 40
0.0
 40
0.1666666666666667
 40
0.1666666666666667
 40
0.1666666666666667
 40
0.1666666666666667
 40
0.3333333333333333
 40
0.3333333333333333
 40
0.3333333333333333
 40
0.3333333333333333
 40
0.5
 40
0.5
 40
0.5
 40
0.5
 40
0.6666666666666666
 40
0.6666666666666666
 40
0.6666666666666666
 40
0.6666666666666666
 40
1.0
 40
1.0
 40
1.0
 40
1.0
 10
79.3077
 20
-11.4013
 30
0.0
 10
79.6485
 20
-11.1855
 30
0.0
 10
79.9897
 20
-10.989
 30
0.0
 10
80.3302
 20
-10.8134
 30
0.0
 10
80.3302
 20
-10.8134
 30
0.0
 10
83.4466
 20
-12.5836
 30
0.0
 10
85.4329
 20
-14.9818
 30
0.0
 10
87.8662
 20
-18.1014
 30
0.0
 10
87.8662
 20
-18.1014
 30
0.0
 10
86.1146
 20
-20.7
 30
0.0
 10
82.7254
 20
-24.2159
 30
0.0
 10
80.2715
 20
-25.71
 30
0.0
 10
80.2715
 20
-25.71
 30
0.0
 10
79.9576
 20
-25.4801
 30
0.0
 10
79.6573
 20
-25.2546
 30
0.0
 10
79.3684
 20
-25.0317
 30
0.0
 10
79.3684
 20
-25.0317
 30
0.0
 10
79.3684
 20
-25.0317
 30
0.0
 10
79.3077
 20
-11.4013
 30
0.0
 10
79.3077
 20
-11.4013
 30
0.0
  0
SPLINE
  5
D8
330
1F
100
AcDbEntity
  8
layer 1
 62
     7
100
AcDbSpline
210
0.0
220
0.0
230
1.0
 70
    11
 71
     3
 72
    20
 73
    16
 74
     0
 42
0.0000000001
 43
0.0000000001
 12
1.0
 22
0.0
 32
0.0
 13
1.0
 23
0.0
 33
0.0
 40
0.0
 40
0.0
 40
0.0
 40
0.0
 40
0.2
 40
0.2
 40
0.2
 40
0.2
 40
0.4
 40
0.4
 40
0.4
 40
0.4
 40
0.6
 40
0.6
 40
0.6
 40
0.6
 40
1.0
 40
1.0
 40
1.0
 40
1.0
 10
114.8356
 20
-44.9882
 30
0.0
 10
112.6607
 20
-41.7747
 30
0.0
 10
109.8952
 20
-39.0476
 30
0.0
 10
107.1848
 20
-37.6495
 30
0.0
 10
107.1848
 20
-37.6495
 30
0.0
 10
104.0683
 20
-39.4198
 30
0.0
 10
102.082
 20
-41.8179
 30
0.0
 10
99.6487
 20
-44.9375
 30
0.0
 10
99.6487
 20
-44.9375
 30
0.0
 10
101.4004
 20
-47.5362
 30
0.0
 10
104.7895
 20
-51.052
 30
0.0
 10
107.2435
 20
-52.5462
 30
0.0
 10
107.2435
 20
-52.5462
 30
0.0
 10
110.4053
 20
-50.2289
 30
0.0
 10
112.1974
 20
-48.3704
 30
0.0
 10
114.8356
 20
-44.9882
 30
0.0
  0
SPLINE
  5
D9
330
1F
100
AcDbEntity
  8
layer 1
 62
     7
100
AcDbSpline
210
0.0
220
0.0
230
1.0
 70
    11
 71
     3
 72
    12
 73
     8
 74
     0
 42
0.0000000001
 43
0.0000000001
 12
1.0
 22
0.0
 32
0.0
 13
1.0
 23
0.0
 33
0.0
 40
0.0
 40
0.0
 40
0.0
 40
0.0
 40
0.3333333333333333
 40
0.3333333333333333
 40
0.3333333333333333
 40
0.3333333333333333
 40
1.0
 40
1.0
 40
1.0
 40
1.0
 10
93.7861
 20
-41.8439
 30
0.0
 10
91.9019
 20
-43.5626
 30
0.0
 10
92.2094
 20
-46.7155
 30
0.0
 10
93.8013
 20
-48.1595
 30
0.0
 10
93.8013
 20
-48.1595
 30
0.0
 10
95.7292
 20
-46.5569
 30
0.0
 10
95.4979
 20
-43.545
 30
0.0
 10
93.7861
 20
-41.8439
 30
0.0
  0
SPLINE
  5
DA
330
1F
100
AcDbEntity
  8
layer 1
 62
     7
100
AcDbSpline
210
0.0
220
0.0
230
1.0
 70
    11
 71
     3
 72
    20
 73
    16
 74
     0
 42
0.0000000001
 43
0.0000000001
 12
1.0
 22
0.0
 32
0.0
 13
1.0
 23
0.0
 33
0.0
 40
0.0
 40
0.0
 40
0.0
 40
0.0
 40
0.2
 40
0.2
 40
0.2
 40
0.2
 40
0.4
 40
0.4
 40
0.4
 40
0.4
 40
0.6
 40
0.6
 40
0.6
 40
0.6
 40
1.0
 40
1.0
 40
1.0
 40
1.0
 10
92.1555
 20
-33.3814
 30
0.0
 10
90.1464
 20
-33.3779
 30
0.0
 10
86.0219
 20
-34.281
 30
0.0
 10
84.4226
 20
-35.3693
 30
0.0
 10
84.4226
 20
-35.3693
 30
0.0
 10
86.6467
 20
-37.5021
 30
0.0
 10
88.3722
 20
-39.1974
 30
0.0
 10
90.0293
 20
-41.1331
 30
0.0
 10
90.0293
 20
-41.1331
 30
0.0
 10
91.3627
 20
-38.0059
 30
0.0
 10
91.792
 20
-35.7189
 30
0.0
 10
92.1557
 20
-33.3814
 30
0.0
 10
92.1557
 20
-33.3814
 30
0.0
 10
92.1557
 20
-33.3814
 30
0.0
 10
92.1555
 20
-33.3814
 30
0.0
 10
92.1555
 20
-33.3814
 30
0.0
  0
SPLINE
  5
DB
330
1F
100
AcDbEntity
  8
layer 1
 62
     7
100
AcDbSpline
210
0.0
220
0.0
230
1.0
 70
    11
 71
     3
 72
    16
 73
    12
 74
     0
 42
0.0000000001
 43
0.0000000001
 12
1.0
 22
0.0
 32
0.0
 13
1.0
 23
0.0
 33
0.0
 40
0.0
 40
0.0
 40
0.0
 40
0.0
 40
0.25
 40
0.25
 40
0.25
 40
0.25
 40
0.5
 40
0.5
 40
0.5
 40
0.5
 40
1.0
 40
1.0
 40
1.0
 40
1.0
 10
95.5435
 20
-33.3814
 30
0.0
 10
97.5526
 20
-33.3779
 30
0.0
 10
101.6771
 20
-34.2811
 30
0.0
 10
103.2765
 20
-35.3693
 30
0.0
 10
103.2765
 20
-35.3693
 30
0.0
 10
101.0523
 20
-37.5021
 30
0.0
 10
99.3268
 20
-39.1974
 30
0.0
 10
97.6698
 20
-41.1331
 30
0.0
 10
97.6698
 20
-41.1331
 30
0.0
 10
96.3364
 20
-38.0059
 30
0.0
 10
95.9071
 20
-35.7189
 30
0.0
 10
95.5435
 20
-33.3814
 30
0.0
  0
SPLINE
  5
DC
330
1F
100
AcDbEntity
  8
layer 1
 62
     7
100
AcDbSpline
210
0.0
220
0.0
230
1.0
 70
    11
 71
     3
 72
    20
 73
    16
 74
     0
 42
0.0000000001
 43
0.0000000001
 12
1.0
 22
0.0
 32
0.0
 13
1.0
 23
0.0
 33
0.0
 40
0.0
 40
0.0
 40
0.0
 40
0.0
 40
0.2
 40
0.2
 40
0.2
 40
0.2
 40
0.4
 40
0.4
 40
0.4
 40
0.4
 40
0.6
 40
0.6
 40
0.6
 40
0.6
 40
1.0
 40
1.0
 40
1.0
 40
1.0
 10
92.1555
 20
-56.5753
 30
0.0
 10
90.1464
 20
-56.5788
 30
0.0
 10
86.0219
 20
-55.6757
 30
0.0
 10
84.4226
 20
-54.5874
 30
0.0
 10
84.4226
 20
-54.5874
 30
0.0
 10
86.6467
 20
-52.4546
 30
0.0
 10
88.3722
 20
-50.7593
 30
0.0
 10
90.0293
 20
-48.8235
 30
0.0
 10
90.0293
 20
-48.8235
 30
0.0
 10
91.3627
 20
-51.9507
 30
0.0
 10
91.792
 20
-54.2378
 30
0.0
 10
92.1557
 20
-56.5753
 30
0.0
 10
92.1557
 20
-56.5753
 30
0.0
 10
92.1557
 20
-56.5753
 30
0.0
 10
92.1555
 20
-56.5753
 30
0.0
 10
92.1555
 20
-56.5753
 30
0.0
  0
SPLINE
  5
DD
330
1F
100
AcDbEntity
  8
layer 1
 62
     7
100
AcDbSpline
210
0.0
220
0.0
230
1.0
 70
    11
 71
     3
 72
    20
 73
    16
 74
     0
 42
0.0000000001
 43
0.0000000001
 12
1.0
 22
0.0
 32
0.0
 13
1.0
 23
0.0
 33
0.0
 40
0.0
 40
0.0
 40
0.0
 40
0.0
 40
0.2
 40
0.2
 40
0.2
 40
0.2
 40
0.4
 40
0.4
 40
0.4
 40
0.4
 40
0.6
 40
0.6
 40
0.6
 40
0.6
 40
1.0
 40
1.0
 40
1.0
 40
1.0
 10
95.5435
 20
-56.5753
 30
0.0
 10
97.5526
 20
-56.5788
 30
0.0
 10
101.6771
 20
-55.6756
 30
0.0
 10
103.2765
 20
-54.5874
 30
0.0
 10
103.2765
 20
-54.5874
 30
0.0
 10
101.0523
 20
-52.4546
 30
0.0
 10
99.3268
 20
-50.7593
 30
0.0
 10
97.6698
 20
-48.8235
 30
0.0
 10
97.6698
 20
-48.8235
 30
0.0
 10
96.3364
 20
-51.9507
 30
0.0
 10
95.907
 20
-54.2378
 30
0.0
 10
95.5434
 20
-56.5753
 30
0.0
 10
95.5434
 20
-56.5753
 30
0.0
 10
95.5434
 20
-56.5753
 30
0.0
 10
95.5435
 20
-56.5753
 30
0.0
 10
95.5435
 20
-56.5753
 30
0.0
  0
SPLINE
  5
DE
330
1F
100
AcDbEntity
  8
layer 1
 62
     7
100
AcDbSpline
210
0.0
220
0.0
230
1.0
 70
    11
 71
     3
 72
    12
 73
     8
 74
     0
 42
0.0000000001
 43
0.0000000001
 12
1.0
 22
0.0
 32
0.0
 13
1.0
 23
0.0
 33
0.0
 40
0.0
 40
0.0
 40
0.0
 40
0.0
 40
0.3333333333333333
 40
0.3333333333333333
 40
0.3333333333333333
 40
0.3333333333333333
 40
1.0
 40
1.0
 40
1.0
 40
1.0
 10
110.4557
 20
-31.5765
 30
0.0
 10
108.737
 20
-29.6922
 30
0.0
 10
105.5841
 20
-29.9998
 30
0.0
 10
104.1401
 20
-31.5917
 30
0.0
 10
104.1401
 20
-31.5917
 30
0.0
 10
105.7426
 20
-33.5195
 30
0.0
 10
108.7545
 20
-33.2883
 30
0.0
 10
110.4557
 20
-31.5765
 30
0.0
  0
SPLINE
  5
DF
330
1F
100
AcDbEntity
  8
layer 1
 62
     7
100
AcDbSpline
210
0.0
220
0.0
230
1.0
 70
    11
 71
     3
 72
    16
 73
    12
 74
     0
 42
0.0000000001
 43
0.0000000001
 12
1.0
 22
0.0
 32
0.0
 13
1.0
 23
0.0
 33
0.0
 40
0.0
 40
0.0
 40
0.0
 40
0.0
 40
0.25
 40
0.25
 40
0.25
 40
0.25
 40
0.5
 40
0.5
 40
0.5
 40
0.5
 40
1.0
 40
1.0
 40
1.0
 40
1.0
 10
83.5074
 20
-31.5765
 30
0.0
 10
82.4345
 20
-30.4003
 30
0.0
 10
80.7337
 20
-30.0781
 30
0.0
 10
79.3077
 20
-30.3893
 30
0.0
 10
79.3077
 20
-30.3893
 30
0.0
 10
79.3077
 20
-30.3893
 30
0.0
 10
79.3077
 20
-32.8944
 30
0.0
 10
79.3077
 20
-32.8944
 30
0.0
 10
79.3077
 20
-32.8944
 30
0.0
 10
80.7746
 20
-33.2203
 30
0.0
 10
82.4011
 20
-32.6898
 30
0.0
 10
83.5074
 20
-31.5765
 30
0.0
  0
SPLINE
  5
E0
330
1F
100
AcDbEntity
  8
layer 1
 62
     7
100
AcDbSpline
210
0.0
220
0.0
230
1.0
 70
    11
 71
     3
 72
    20
 73
    16
 74
     0
 42
0.0000000001
 43
0.0000000001
 12
1.0
 22
0.0
 32
0.0
 13
1.0
 23
0.0
 33
0.0
 40
0.0
 40
0.0
 40
0.0
 40
0.0
 40
0.2
 40
0.2
 40
0.2
 40
0.2
 40
0.4
 40
0.4
 40
0.4
 40
0.4
 40
0.6
 40
0.6
 40
0.6
 40
0.6
 40
1.0
 40
1.0
 40
1.0
 40
1.0
 10
141.6971
 20
-44.9882
 30
0.0
 10
139.5224
 20
-41.7747
 30
0.0
 10
136.7567
 20
-39.0476
 30
0.0
 10
134.0463
 20
-37.6495
 30
0.0
 10
134.0463
 20
-37.6495
 30
0.0
 10
130.9299
 20
-39.4198
 30
0.0
 10
128.9435
 20
-41.8179
 30
0.0
 10
126.5103
 20
-44.9375
 30
0.0
 10
126.5103
 20
-44.9375
 30
0.0
 10
128.2619
 20
-47.5362
 30
0.0
 10
131.6511
 20
-51.052
 30
0.0
 10
134.105
 20
-52.5462
 30
0.0
 10
134.105
 20
-52.5462
 30
0.0
 10
137.2668
 20
-50.2289
 30
0.0
 10
139.0589
 20
-48.3704
 30
0.0
 10
141.6971
 20
-44.9882
 30
0.0
  0
SPLINE
  5
E1
330
1F
100
AcDbEntity
  8
layer 1
 62
     7
100
AcDbSpline
210
0.0
220
0.0
230
1.0
 70
    11
 71
     3
 72
    12
 73
     8
 74
     0
 42
0.0000000001
 43
0.0000000001
 12
1.0
 22
0.0
 32
0.0
 13
1.0
 23
0.0
 33
0.0
 40
0.0
 40
0.0
 40
0.0
 40
0.0
 40
0.3333333333333333
 40
0.3333333333333333
 40
0.3333333333333333
 40
0.3333333333333333
 40
1.0
 40
1.0
 40
1.0
 40
1.0
 10
120.6476
 20
-41.8439
 30
0.0
 10
118.7634
 20
-43.5626
 30
0.0
 10
119.0709
 20
-46.7155
 30
0.0
 10
120.6628
 20
-48.1595
 30
0.0
 10
120.6628
 20
-48.1595
 30
0.0
 10
122.5907
 20
-46.5569
 30
0.0
 10
122.3594
 20
-43.545
 30
0.0
 10
120.6476
 20
-41.8439
 30
0.0
  0
SPLINE
  5
E2
330
1F
100
AcDbEntity
  8
layer 1
 62
     7
100
AcDbSpline
210
0.0
220
0.0
230
1.0
 70
    11
 71
     3
 72
    20
 73
    16
 74
     0
 42
0.0000000001
 43
0.0000000001
 12
1.0
 22
0.0
 32
0.0
 13
1.0
 23
0.0
 33
0.0
 40
0.0
 40
0.0
 40
0.0
 40
0.0
 40
0.2
 40
0.2
 40
0.2
 40
0.2
 40
0.4
 40
0.4
 40
0.4
 40
0.4
 40
0.6
 40
0.6
 40
0.6
 40
0.6
 40
1.0
 40
1.0
 40
1.0
 40
1.0
 10
119.0171
 20
-33.3814
 30
0.0
 10
117.008
 20
-33.3779
 30
0.0
 10
112.8836
 20
-34.281
 30
0.0
 10
111.2841
 20
-35.3693
 30
0.0
 10
111.2841
 20
-35.3693
 30
0.0
 10
113.5082
 20
-37.5021
 30
0.0
 10
115.2338
 20
-39.1974
 30
0.0
 10
116.8908
 20
-41.1331
 30
0.0
 10
116.8908
 20
-41.1331
 30
0.0
 10
118.2242
 20
-38.0059
 30
0.0
 10
118.6536
 20
-35.7189
 30
0.0
 10
119.0172
 20
-33.3814
 30
0.0
 10
119.0172
 20
-33.3814
 30
0.0
 10
119.0172
 20
-33.3814
 30
0.0
 10
119.0171
 20
-33.3814
 30
0.0
 10
119.0171
 20
-33.3814
 30
0.0
  0
SPLINE
  5
E3
330
1F
100
AcDbEntity
  8
layer 1
 62
     7
100
AcDbSpline
210
0.0
220
0.0
230
1.0
 70
    11
 71
     3
 72
    16
 73
    12
 74
     0
 42
0.0000000001
 43
0.0000000001
 12
1.0
 22
0.0
 32
0.0
 13
1.0
 23
0.0
 33
0.0
 40
0.0
 40
0.0
 40
0.0
 40
0.0
 40
0.25
 40
0.25
 40
0.25
 40
0.25
 40
0.5
 40
0.5
 40
0.5
 40
0.5
 40
1.0
 40
1.0
 40
1.0
 40
1.0
 10
122.405
 20
-33.3814
 30
0.0
 10
124.4142
 20
-33.3779
 30
0.0
 10
128.5387
 20
-34.2811
 30
0.0
 10
130.138
 20
-35.3693
 30
0.0
 10
130.138
 20
-35.3693
 30
0.0
 10
127.9139
 20
-37.5021
 30
0.0
 10
126.1885
 20
-39.1974
 30
0.0
 10
124.5314
 20
-41.1331
 30
0.0
 10
124.5314
 20
-41.1331
 30
0.0
 10
123.1979
 20
-38.0059
 30
0.0
 10
122.7687
 20
-35.7189
 30
0.0
 10
122.405
 20
-33.3814
 30
0.0
  0
SPLINE
  5
E4
330
1F
100
AcDbEntity
  8
layer 1
 62
     7
100
AcDbSpline
210
0.0
220
0.0
230
1.0
 70
    11
 71
     3
 72
    20
 73
    16
 74
     0
 42
0.0000000001
 43
0.0000000001
 12
1.0
 22
0.0
 32
0.0
 13
1.0
 23
0.0
 33
0.0
 40
0.0
 40
0.0
 40
0.0
 40
0.0
 40
0.2
 40
0.2
 40
0.2
 40
0.2
 40
0.4
 40
0.4
 40
0.4
 40
0.4
 40
0.6
 40
0.6
 40
0.6
 40
0.6
 40
1.0
 40
1.0
 40
1.0
 40
1.0
 10
119.0171
 20
-56.5753
 30
0.0
 10
117.008
 20
-56.5788
 30
0.0
 10
112.8836
 20
-55.6757
 30
0.0
 10
111.2841
 20
-54.5874
 30
0.0
 10
111.2841
 20
-54.5874
 30
0.0
 10
113.5082
 20
-52.4546
 30
0.0
 10
115.2338
 20
-50.7593
 30
0.0
 10
116.8908
 20
-48.8235
 30
0.0
 10
116.8908
 20
-48.8235
 30
0.0
 10
118.2242
 20
-51.9507
 30
0.0
 10
118.6536
 20
-54.2378
 30
0.0
 10
119.0172
 20
-56.5753
 30
0.0
 10
119.0172
 20
-56.5753
 30
0.0
 10
119.0172
 20
-56.5753
 30
0.0
 10
119.0171
 20
-56.5753
 30
0.0
 10
119.0171
 20
-56.5753
 30
0.0
  0
SPLINE
  5
E5
330
1F
100
AcDbEntity
  8
layer 1
 62
     7
100
AcDbSpline
210
0.0
220
0.0
230
1.0
 70
    11
 71
     3
 72
    20
 73
    16
 74
     0
 42
0.0000000001
 43
0.0000000001
 12
1.0
 22
0.0
 32
0.0
 13
1.0
 23
0.0
 33
0.0
 40
0.0
 40
0.0
 40
0.0
 40
0.0
 40
0.2
 40
0.2
 40
0.2
 40
0.2
 40
0.4
 40
0.4
 40
0.4
 40
0.4
 40
0.6
 40
0.6
 40
0.6
 40
0.6
 40
1.0
 40
1.0
 40
1.0
 40
1.0
 10
122.405
 20
-56.5753
 30
0.0
 10
124.4142
 20
-56.5788
 30
0.0
 10
128.5387
 20
-55.6756
 30
0.0
 10
130.138
 20
-54.5874
 30
0.0
 10
130.138
 20
-54.5874
 30
0.0
 10
127.9139
 20
-52.4546
 30
0.0
 10
126.1883
 20
-50.7593
 30
0.0
 10
124.5313
 20
-48.8235
 30
0.0
 10
124.5313
 20
-48.8235
 30
0.0
 10
123.1979
 20
-51.9507
 30
0.0
 10
122.7685
 20
-54.2378
 30
0.0
 10
122.4049
 20
-56.5753
 30
0.0
 10
122.4049
 20
-56.5753
 30
0.0
 10
122.4049
 20
-56.5753
 30
0.0
 10
122.405
 20
-56.5753
 30
0.0
 10
122.405
 20
-56.5753
 30
0.0
  0
SPLINE
  5
E6
330
1F
100
AcDbEntity
  8
layer 1
 62
     7
100
AcDbSpline
210
0.0
220
0.0
230
1.0
 70
    11
 71
     3
 72
    12
 73
     8
 74
     0
 42
0.0000000001
 43
0.0000000001
 12
1.0
 22
0.0
 32
0.0
 13
1.0
 23
0.0
 33
0.0
 40
0.0
 40
0.0
 40
0.0
 40
0.0
 40
0.3333333333333333
 40
0.3333333333333333
 40
0.3333333333333333
 40
0.3333333333333333
 40
1.0
 40
1.0
 40
1.0
 40
1.0
 10
137.3173
 20
-31.5765
 30
0.0
 10
135.5985
 20
-29.6922
 30
0.0
 10
132.4456
 20
-29.9998
 30
0.0
 10
131.0017
 20
-31.5917
 30
0.0
 10
131.0017
 20
-31.5917
 30
0.0
 10
132.6042
 20
-33.5195
 30
0.0
 10
135.6161
 20
-33.2883
 30
0.0
 10
137.3173
 20
-31.5765
 30
0.0
  0
SPLINE
  5
E7
330
1F
100
AcDbEntity
  8
layer 1
 62
     7
100
AcDbSpline
210
0.0
220
0.0
230
1.0
 70
    11
 71
     3
 72
    20
 73
    16
 74
     0
 42
0.0000000001
 43
0.0000000001
 12
1.0
 22
0.0
 32
0.0
 13
1.0
 23
0.0
 33
0.0
 40
0.0
 40
0.0
 40
0.0
 40
0.0
 40
0.2
 40
0.2
 40
0.2
 40
0.2
 40
0.4
 40
0.4
 40
0.4
 40
0.4
 40
0.6
 40
0.6
 40
0.6
 40
0.6
 40
1.0
 40
1.0
 40
1.0
 40
1.0
 10
168.4721
 20
-44.9882
 30
0.0
 10
166.2973
 20
-41.7747
 30
0.0
 10
163.5317
 20
-39.0476
 30
0.0
 10
160.8213
 20
-37.6495
 30
0.0
 10
160.8213
 20
-37.6495
 30
0.0
 10
157.7048
 20
-39.4198
 30
0.0
 10
155.7185
 20
-41.8179
 30
0.0
 10
153.2852
 20
-44.9375
 30
0.0
 10
153.2852
 20
-44.9375
 30
0.0
 10
155.0368
 20
-47.5362
 30
0.0
 10
158.426
 20
-51.052
 30
0.0
 10
160.88
 20
-52.5462
 30
0.0
 10
160.88
 20
-52.5462
 30
0.0
 10
164.0418
 20
-50.2289
 30
0.0
 10
165.8339
 20
-48.3704
 30
0.0
 10
168.4721
 20
-44.9882
 30
0.0
  0
SPLINE
  5
E8
330
1F
100
AcDbEntity
  8
layer 1
 62
     7
100
AcDbSpline
210
0.0
220
0.0
230
1.0
 70
    11
 71
     3
 72
    12
 73
     8
 74
     0
 42
0.0000000001
 43
0.0000000001
 12
1.0
 22
0.0
 32
0.0
 13
1.0
 23
0.0
 33
0.0
 40
0.0
 40
0.0
 40
0.0
 40
0.0
 40
0.3333333333333333
 40
0.3333333333333333
 40
0.3333333333333333
 40
0.3333333333333333
 40
1.0
 40
1.0
 40
1.0
 40
1.0
 10
147.4226
 20
-41.8439
 30
0.0
 10
145.5383
 20
-43.5626
 30
0.0
 10
145.8459
 20
-46.7155
 30
0.0
 10
147.4378
 20
-48.1595
 30
0.0
 10
147.4378
 20
-48.1595
 30
0.0
 10
149.3657
 20
-46.5569
 30
0.0
 10
149.1344
 20
-43.545
 30
0.0
 10
147.4226
 20
-41.8439
 30
0.0
  0
SPLINE
  5
E9
330
1F
100
AcDbEntity
  8
layer 1
 62
     7
100
AcDbSpline
210
0.0
220
0.0
230
1.0
 70
    11
 71
     3
 72
    20
 73
    16
 74
     0
 42
0.0000000001
 43
0.0000000001
 12
1.0
 22
0.0
 32
0.0
 13
1.0
 23
0.0
 33
0.0
 40
0.0
 40
0.0
 40
0.0
 40
0.0
 40
0.2
 40
0.2
 40
0.2
 40
0.2
 40
0.4
 40
0.4
 40
0.4
 40
0.4
 40
0.6
 40
0.6
 40
0.6
 40
0.6
 40
1.0
 40
1.0
 40
1.0
 40
1.0
 10
145.792
 20
-33.3814
 30
0.0
 10
143.7829
 20
-33.3779
 30
0.0
 10
139.6585
 20
-34.281
 30
0.0
 10
138.059
 20
-35.3693
 30
0.0
 10
138.059
 20
-35.3693
 30
0.0
 10
140.2832
 20
-37.5021
 30
0.0
 10
142.0087
 20
-39.1974
 30
0.0
 10
143.6658
 20
-41.1331
 30
0.0
 10
143.6658
 20
-41.1331
 30
0.0
 10
144.9991
 20
-38.0059
 30
0.0
 10
145.4285
 20
-35.7189
 30
0.0
 10
145.7922
 20
-33.3814
 30
0.0
 10
145.7922
 20
-33.3814
 30
0.0
 10
145.7922
 20
-33.3814
 30
0.0
 10
145.792
 20
-33.3814
 30
0.0
 10
145.792
 20
-33.3814
 30
0.0
  0
SPLINE
  5
EA
330
1F
100
AcDbEntity
  8
layer 1
 62
     7
100
AcDbSpline
210
0.0
220
0.0
230
1.0
 70
    11
 71
     3
 72
    16
 73
    12
 74
     0
 42
0.0000000001
 43
0.0000000001
 12
1.0
 22
0.0
 32
0.0
 13
1.0
 23
0.0
 33
0.0
 40
0.0
 40
0.0
 40
0.0
 40
0.0
 40
0.25
 40
0.25
 40
0.25
 40
0.25
 40
0.5
 40
0.5
 40
0.5
 40
0.5
 40
1.0
 40
1.0
 40
1.0
 40
1.0
 10
149.18
 20
-33.3814
 30
0.0
 10
151.1891
 20
-33.3779
 30
0.0
 10
155.3136
 20
-34.2811
 30
0.0
 10
156.913
 20
-35.3693
 30
0.0
 10
156.913
 20
-35.3693
 30
0.0
 10
154.6888
 20
-37.5021
 30
0.0
 10
152.9634
 20
-39.1974
 30
0.0
 10
151.3064
 20
-41.1331
 30
0.0
 10
151.3064
 20
-41.1331
 30
0.0
 10
149.9729
 20
-38.0059
 30
0.0
 10
149.5436
 20
-35.7189
 30
0.0
 10
149.18
 20
-33.3814
 30
0.0
  0
SPLINE
  5
EB
330
1F
100
AcDbEntity
  8
layer 1
 62
     7
100
AcDbSpline
210
0.0
220
0.0
230
1.0
 70
    11
 71
     3
 72
    20
 73
    16
 74
     0
 42
0.0000000001
 43
0.0000000001
 12
1.0
 22
0.0
 32
0.0
 13
1.0
 23
0.0
 33
0.0
 40
0.0
 40
0.0
 40
0.0
 40
0.0
 40
0.2
 40
0.2
 40
0.2
 40
0.2
 40
0.4
 40
0.4
 40
0.4
 40
0.4
 40
0.6
 40
0.6
 40
0.6
 40
0.6
 40
1.0
 40
1.0
 40
1.0
 40
1.0
 10
145.792
 20
-56.5753
 30
0.0
 10
143.7829
 20
-56.5788
 30
0.0
 10
139.6585
 20
-55.6757
 30
0.0
 10
138.059
 20
-54.5874
 30
0.0
 10
138.059
 20
-54.5874
 30
0.0
 10
140.2832
 20
-52.4546
 30
0.0
 10
142.0087
 20
-50.7593
 30
0.0
 10
143.6658
 20
-48.8235
 30
0.0
 10
143.6658
 20
-48.8235
 30
0.0
 10
144.9991
 20
-51.9507
 30
0.0
 10
145.4285
 20
-54.2378
 30
0.0
 10
145.7922
 20
-56.5753
 30
0.0
 10
145.7922
 20
-56.5753
 30
0.0
 10
145.7922
 20
-56.5753
 30
0.0
 10
145.792
 20
-56.5753
 30
0.0
 10
145.792
 20
-56.5753
 30
0.0
  0
SPLINE
  5
EC
330
1F
100
AcDbEntity
  8
layer 1
 62
     7
100
AcDbSpline
210
0.0
220
0.0
230
1.0
 70
    11
 71
     3
 72
    20
 73
    16
 74
     0
 42
0.0000000001
 43
0.0000000001
 12
1.0
 22
0.0
 32
0.0
 13
1.0
 23
0.0
 33
0.0
 40
0.0
 40
0.0
 40
0.0
 40
0.0
 40
0.2
 40
0.2
 40
0.2
 40
0.2
 40
0.4
 40
0.4
 40
0.4
 40
0.4
 40
0.6
 40
0.6
 40
0.6
 40
0.6
 40
1.0
 40
1.0
 40
1.0
 40
1.0
 10
149.18
 20
-56.5753
 30
0.0
 10
151.1891
 20
-56.5788
 30
0.0
 10
155.3136
 20
-55.6756
 30
0.0
 10
156.913
 20
-54.5874
 30
0.0
 10
156.913
 20
-54.5874
 30
0.0
 10
154.6888
 20
-52.4546
 30
0.0
 10
152.9633
 20
-50.7593
 30
0.0
 10
151.3062
 20
-48.8235
 30
0.0
 10
151.3062
 20
-48.8235
 30
0.0
 10
149.9729
 20
-51.9507
 30
0.0
 10
149.5435
 20
-54.2378
 30
0.0
 10
149.1799
 20
-56.5753
 30
0.0
 10
149.1799
 20
-56.5753
 30
0.0
 10
149.1799
 20
-56.5753
 30
0.0
 10
149.18
 20
-56.5753
 30
0.0
 10
149.18
 20
-56.5753
 30
0.0
  0
SPLINE
  5
ED
330
1F
100
AcDbEntity
  8
layer 1
 62
     7
100
AcDbSpline
210
0.0
220
0.0
230
1.0
 70
    11
 71
     3
 72
    12
 73
     8
 74
     0
 42
0.0000000001
 43
0.0000000001
 12
1.0
 22
0.0
 32
0.0
 13
1.0
 23
0.0
 33
0.0
 40
0.0
 40
0.0
 40
0.0
 40
0.0
 40
0.3333333333333333
 40
0.3333333333333333
 40
0.3333333333333333
 40
0.3333333333333333
 40
1.0
 40
1.0
 40
1.0
 40
1.0
 10
164.0922
 20
-31.5765
 30
0.0
 10
162.3735
 20
-29.6922
 30
0.0
 10
159.2206
 20
-29.9998
 30
0.0
 10
157.7766
 20
-31.5917
 30
0.0
 10
157.7766
 20
-31.5917
 30
0.0
 10
159.3791
 20
-33.5195
 30
0.0
 10
162.391
 20
-33.2883
 30
0.0
 10
164.0922
 20
-31.5765
 30
0.0
  0
SPLINE
  5
EE
330
1F
100
AcDbEntity
  8
layer 1
 62
     7
100
AcDbSpline
210
0.0
220
0.0
230
1.0
 70
    11
 71
     3
 72
    24
 73
    20
 74
     0
 42
0.0000000001
 43
0.0000000001
 12
1.0
 22
0.0
 32
0.0
 13
1.0
 23
0.0
 33
0.0
 40
0.0
 40
0.0
 40
0.0
 40
0.0
 40
0.1666666666666667
 40
0.1666666666666667
 40
0.1666666666666667
 40
0.1666666666666667
 40
0.3333333333333333
 40
0.3333333333333333
 40
0.3333333333333333
 40
0.3333333333333333
 40
0.5
 40
0.5
 40
0.5
 40
0.5
 40
0.6666666666666666
 40
0.6666666666666666
 40
0.6666666666666666
 40
0.6666666666666666
 40
1.0
 40
1.0
 40
1.0
 40
1.0
 10
188.7052
 20
-38.2375
 30
0.0
 10
188.3644
 20
-38.0217
 30
0.0
 10
188.0232
 20
-37.8251
 30
0.0
 10
187.6828
 20
-37.6495
 30
0.0
 10
187.6828
 20
-37.6495
 30
0.0
 10
184.5663
 20
-39.4198
 30
0.0
 10
182.58
 20
-41.8179
 30
0.0
 10
180.1468
 20
-44.9375
 30
0.0
 10
180.1468
 20
-44.9375
 30
0.0
 10
181.8984
 20
-47.5362
 30
0.0
 10
185.2875
 20
-51.052
 30
0.0
 10
187.7415
 20
-52.5462
 30
0.0
 10
187.7415
 20
-52.5462
 30
0.0
 10
188.0553
 20
-52.3162
 30
0.0
 10
188.3557
 20
-52.0907
 30
0.0
 10
188.6446
 20
-51.8678
 30
0.0
 10
188.6446
 20
-51.8678
 30
0.0
 10
188.6446
 20
-51.8678
 30
0.0
 10
188.7052
 20
-38.2375
 30
0.0
 10
188.7052
 20
-38.2375
 30
0.0
  0
SPLINE
  5
EF
330
1F
100
AcDbEntity
  8
layer 1
 62
     7
100
AcDbSpline
210
0.0
220
0.0
230
1.0
 70
    11
 71
     3
 72
    12
 73
     8
 74
     0
 42
0.0000000001
 43
0.0000000001
 12
1.0
 22
0.0
 32
0.0
 13
1.0
 23
0.0
 33
0.0
 40
0.0
 40
0.0
 40
0.0
 40
0.0
 40
0.3333333333333333
 40
0.3333333333333333
 40
0.3333333333333333
 40
0.3333333333333333
 40
1.0
 40
1.0
 40
1.0
 40
1.0
 10
174.2843
 20
-41.8439
 30
0.0
 10
172.4
 20
-43.5626
 30
0.0
 10
172.7076
 20
-46.7155
 30
0.0
 10
174.2995
 20
-48.1595
 30
0.0
 10
174.2995
 20
-48.1595
 30
0.0
 10
176.2273
 20
-46.5569
 30
0.0
 10
175.9961
 20
-43.545
 30
0.0
 10
174.2843
 20
-41.8439
 30
0.0
  0
SPLINE
  5
F0
330
1F
100
AcDbEntity
  8
layer 1
 62
     7
100
AcDbSpline
210
0.0
220
0.0
230
1.0
 70
    11
 71
     3
 72
    20
 73
    16
 74
     0
 42
0.0000000001
 43
0.0000000001
 12
1.0
 22
0.0
 32
0.0
 13
1.0
 23
0.0
 33
0.0
 40
0.0
 40
0.0
 40
0.0
 40
0.0
 40
0.2
 40
0.2
 40
0.2
 40
0.2
 40
0.4
 40
0.4
 40
0.4
 40
0.4
 40
0.6
 40
0.6
 40
0.6
 40
0.6
 40
1.0
 40
1.0
 40
1.0
 40
1.0
 10
172.6537
 20
-33.3814
 30
0.0
 10
170.6446
 20
-33.3779
 30
0.0
 10
166.5201
 20
-34.2811
 30
0.0
 10
164.9207
 20
-35.3693
 30
0.0
 10
164.9207
 20
-35.3693
 30
0.0
 10
167.1449
 20
-37.5021
 30
0.0
 10
168.8704
 20
-39.1974
 30
0.0
 10
170.5274
 20
-41.1331
 30
0.0
 10
170.5274
 20
-41.1331
 30
0.0
 10
171.8608
 20
-38.0059
 30
0.0
 10
172.2902
 20
-35.7189
 30
0.0
 10
172.6538
 20
-33.3814
 30
0.0
 10
172.6538
 20
-33.3814
 30
0.0
 10
172.6538
 20
-33.3814
 30
0.0
 10
172.6537
 20
-33.3814
 30
0.0
 10
172.6537
 20
-33.3814
 30
0.0
  0
SPLINE
  5
F1
330
1F
100
AcDbEntity
  8
layer 1
 62
     7
100
AcDbSpline
210
0.0
220
0.0
230
1.0
 70
    11
 71
     3
 72
    20
 73
    16
 74
     0
 42
0.0000000001
 43
0.0000000001
 12
1.0
 22
0.0
 32
0.0
 13
1.0
 23
0.0
 33
0.0
 40
0.0
 40
0.0
 40
0.0
 40
0.0
 40
0.2
 40
0.2
 40
0.2
 40
0.2
 40
0.4
 40
0.4
 40
0.4
 40
0.4
 40
0.6
 40
0.6
 40
0.6
 40
0.6
 40
1.0
 40
1.0
 40
1.0
 40
1.0
 10
176.0415
 20
-33.3814
 30
0.0
 10
178.0506
 20
-33.3779
 30
0.0
 10
182.1751
 20
-34.2811
 30
0.0
 10
183.7745
 20
-35.3693
 30
0.0
 10
183.7745
 20
-35.3693
 30
0.0
 10
181.5504
 20
-37.5021
 30
0.0
 10
179.8248
 20
-39.1974
 30
0.0
 10
178.1678
 20
-41.1331
 30
0.0
 10
178.1678
 20
-41.1331
 30
0.0
 10
176.8344
 20
-38.0059
 30
0.0
 10
176.405
 20
-35.7189
 30
0.0
 10
176.0414
 20
-33.3814
 30
0.0
 10
176.0414
 20
-33.3814
 30
0.0
 10
176.0414
 20
-33.3814
 30
0.0
 10
176.0415
 20
-33.3814
 30
0.0
 10
176.0415
 20
-33.3814
 30
0.0
  0
SPLINE
  5
F2
330
1F
100
AcDbEntity
  8
layer 1
 62
     7
100
AcDbSpline
210
0.0
220
0.0
230
1.0
 70
    11
 71
     3
 72
    20
 73
    16
 74
     0
 42
0.0000000001
 43
0.0000000001
 12
1.0
 22
0.0
 32
0.0
 13
1.0
 23
0.0
 33
0.0
 40
0.0
 40
0.0
 40
0.0
 40
0.0
 40
0.2
 40
0.2
 40
0.2
 40
0.2
 40
0.4
 40
0.4
 40
0.4
 40
0.4
 40
0.6
 40
0.6
 40
0.6
 40
0.6
 40
1.0
 40
1.0
 40
1.0
 40
1.0
 10
172.6537
 20
-56.5753
 30
0.0
 10
170.6446
 20
-56.5788
 30
0.0
 10
166.5201
 20
-55.6756
 30
0.0
 10
164.9207
 20
-54.5874
 30
0.0
 10
164.9207
 20
-54.5874
 30
0.0
 10
167.1449
 20
-52.4546
 30
0.0
 10
168.8704
 20
-50.7593
 30
0.0
 10
170.5274
 20
-48.8235
 30
0.0
 10
170.5274
 20
-48.8235
 30
0.0
 10
171.8608
 20
-51.9507
 30
0.0
 10
172.2902
 20
-54.2378
 30
0.0
 10
172.6538
 20
-56.5753
 30
0.0
 10
172.6538
 20
-56.5753
 30
0.0
 10
172.6538
 20
-56.5753
 30
0.0
 10
172.6537
 20
-56.5753
 30
0.0
 10
172.6537
 20
-56.5753
 30
0.0
  0
SPLINE
  5
F3
330
1F
100
AcDbEntity
  8
layer 1
 62
     7
100
AcDbSpline
210
0.0
220
0.0
230
1.0
 70
    11
 71
     3
 72
    20
 73
    16
 74
     0
 42
0.0000000001
 43
0.0000000001
 12
1.0
 22
0.0
 32
0.0
 13
1.0
 23
0.0
 33
0.0
 40
0.0
 40
0.0
 40
0.0
 40
0.0
 40
0.2
 40
0.2
 40
0.2
 40
0.2
 40
0.4
 40
0.4
 40
0.4
 40
0.4
 40
0.6
 40
0.6
 40
0.6
 40
0.6
 40
1.0
 40
1.0
 40
1.0
 40
1.0
 10
176.0415
 20
-56.5753
 30
0.0
 10
178.0506
 20
-56.5788
 30
0.0
 10
182.1751
 20
-55.6756
 30
0.0
 10
183.7745
 20
-54.5874
 30
0.0
 10
183.7745
 20
-54.5874
 30
0.0
 10
181.5504
 20
-52.4546
 30
0.0
 10
179.8248
 20
-50.7593
 30
0.0
 10
178.1678
 20
-48.8235
 30
0.0
 10
178.1678
 20
-48.8235
 30
0.0
 10
176.8344
 20
-51.9507
 30
0.0
 10
176.405
 20
-54.2378
 30
0.0
 10
176.0414
 20
-56.5753
 30
0.0
 10
176.0414
 20
-56.5753
 30
0.0
 10
176.0414
 20
-56.5753
 30
0.0
 10
176.0415
 20
-56.5753
 30
0.0
 10
176.0415
 20
-56.5753
 30
0.0
  0
SPLINE
  5
F4
330
1F
100
AcDbEntity
  8
layer 1
 62
     7
100
AcDbSpline
210
0.0
220
0.0
230
1.0
 70
    11
 71
     3
 72
    20
 73
    16
 74
     0
 42
0.0000000001
 43
0.0000000001
 12
1.0
 22
0.0
 32
0.0
 13
1.0
 23
0.0
 33
0.0
 40
0.0
 40
0.0
 40
0.0
 40
0.0
 40
0.2
 40
0.2
 40
0.2
 40
0.2
 40
0.4
 40
0.4
 40
0.4
 40
0.4
 40
0.6
 40
0.6
 40
0.6
 40
0.6
 40
1.0
 40
1.0
 40
1.0
 40
1.0
 10
188.7429
 20
-30.3619
 30
0.0
 10
187.2272
 20
-30.0679
 30
0.0
 10
185.5738
 20
-30.5602
 30
0.0
 10
184.6383
 20
-31.5918
 30
0.0
 10
184.6383
 20
-31.5918
 30
0.0
 10
185.6653
 20
-32.8274
 30
0.0
 10
187.2714
 20
-33.1761
 30
0.0
 10
188.7402
 20
-32.8165
 30
0.0
 10
188.7402
 20
-32.8165
 30
0.0
 10
188.7402
 20
-32.8165
 30
0.0
 10
188.743
 20
-30.3621
 30
0.0
 10
188.743
 20
-30.3621
 30
0.0
 10
188.743
 20
-30.3621
 30
0.0
 10
188.743
 20
-30.3621
 30
0.0
 10
188.7429
 20
-30.3619
 30
0.0
 10
188.7429
 20
-30.3619
 30
0.0
  0
SPLINE
  5
F5
330
1F
100
AcDbEntity
  8
layer 1
 62
     7
100
AcDbSpline
210
0.0
220
0.0
230
1.0
 70
    11
 71
     3
 72
    24
 73
    20
 74
     0
 42
0.0000000001
 43
0.0000000001
 12
1.0
 22
0.0
 32
0.0
 13
1.0
 23
0.0
 33
0.0
 40
0.0
 40
0.0
 40
0.0
 40
0.0
 40
0.1666666666666667
 40
0.1666666666666667
 40
0.1666666666666667
 40
0.1666666666666667
 40
0.3333333333333333
 40
0.3333333333333333
 40
0.3333333333333333
 40
0.3333333333333333
 40
0.5
 40
0.5
 40
0.5
 40
0.5
 40
0.6666666666666666
 40
0.6666666666666666
 40
0.6666666666666666
 40
0.6666666666666666
 40
1.0
 40
1.0
 40
1.0
 40
1.0
 10
79.3077
 20
-38.2375
 30
0.0
 10
79.6485
 20
-38.0217
 30
0.0
 10
79.9897
 20
-37.8251
 30
0.0
 10
80.3302
 20
-37.6495
 30
0.0
 10
80.3302
 20
-37.6495
 30
0.0
 10
83.4466
 20
-39.4198
 30
0.0
 10
85.4329
 20
-41.8179
 30
0.0
 10
87.8662
 20
-44.9375
 30
0.0
 10
87.8662
 20
-44.9375
 30
0.0
 10
86.1146
 20
-47.5362
 30
0.0
 10
82.7254
 20
-51.052
 30
0.0
 10
80.2715
 20
-52.5462
 30
0.0
 10
80.2715
 20
-52.5462
 30
0.0
 10
79.9576
 20
-52.3162
 30
0.0
 10
79.6573
 20
-52.0907
 30
0.0
 10
79.3684
 20
-51.8678
 30
0.0
 10
79.3684
 20
-51.8678
 30
0.0
 10
79.3684
 20
-51.8678
 30
0.0
 10
79.3077
 20
-38.2375
 30
0.0
 10
79.3077
 20
-38.2375
 30
0.0
  0
SPLINE
  5
F6
330
1F
100
AcDbEntity
  8
layer 1
 62
     7
100
AcDbSpline
210
0.0
220
0.0
230
1.0
 70
    11
 71
     3
 72
    24
 73
    20
 74
     0
 42
0.0000000001
 43
0.0000000001
 12
1.0
 22
0.0
 32
0.0
 13
1.0
 23
0.0
 33
0.0
 40
0.0
 40
0.0
 40
0.0
 40
0.0
 40
0.1666666666666667
 40
0.1666666666666667
 40
0.1666666666666667
 40
0.1666666666666667
 40
0.3333333333333333
 40
0.3333333333333333
 40
0.3333333333333333
 40
0.3333333333333333
 40
0.5
 40
0.5
 40
0.5
 40
0.5
 40
0.6666666666666666
 40
0.6666666666666666
 40
0.6666666666666666
 40
0.6666666666666666
 40
1.0
 40
1.0
 40
1.0
 40
1.0
 10
114.8356
 20
-71.7112
 30
0.0
 10
112.6607
 20
-68.4976
 30
0.0
 10
109.8952
 20
-65.7706
 30
0.0
 10
107.1848
 20
-64.3726
 30
0.0
 10
107.1848
 20
-64.3726
 30
0.0
 10
104.0683
 20
-66.1428
 30
0.0
 10
102.082
 20
-68.541
 30
0.0
 10
99.6487
 20
-71.6606
 30
0.0
 10
99.6487
 20
-71.6606
 30
0.0
 10
101.4004
 20
-74.2592
 30
0.0
 10
104.7895
 20
-77.775
 30
0.0
 10
107.2435
 20
-79.2692
 30
0.0
 10
107.2435
 20
-79.2692
 30
0.0
 10
110.4053
 20
-76.9519
 30
0.0
 10
112.1974
 20
-75.0935
 30
0.0
 10
114.8356
 20
-71.7113
 30
0.0
 10
114.8356
 20
-71.7113
 30
0.0
 10
114.8356
 20
-71.7113
 30
0.0
 10
114.8356
 20
-71.7112
 30
0.0
 10
114.8356
 20
-71.7112
 30
0.0
  0
SPLINE
  5
F7
330
1F
100
AcDbEntity
  8
layer 1
 62
     7
100
AcDbSpline
210
0.0
220
0.0
230
1.0
 70
    11
 71
     3
 72
    12
 73
     8
 74
     0
 42
0.0000000001
 43
0.0000000001
 12
1.0
 22
0.0
 32
0.0
 13
1.0
 23
0.0
 33
0.0
 40
0.0
 40
0.0
 40
0.0
 40
0.0
 40
0.3333333333333333
 40
0.3333333333333333
 40
0.3333333333333333
 40
0.3333333333333333
 40
1.0
 40
1.0
 40
1.0
 40
1.0
 10
93.7861
 20
-68.5668
 30
0.0
 10
91.9019
 20
-70.2855
 30
0.0
 10
92.2094
 20
-73.4384
 30
0.0
 10
93.8013
 20
-74.8824
 30
0.0
 10
93.8013
 20
-74.8824
 30
0.0
 10
95.7292
 20
-73.2799
 30
0.0
 10
95.4979
 20
-70.268
 30
0.0
 10
93.7861
 20
-68.5668
 30
0.0
  0
SPLINE
  5
F8
330
1F
100
AcDbEntity
  8
layer 1
 62
     7
100
AcDbSpline
210
0.0
220
0.0
230
1.0
 70
    11
 71
     3
 72
    20
 73
    16
 74
     0
 42
0.0000000001
 43
0.0000000001
 12
1.0
 22
0.0
 32
0.0
 13
1.0
 23
0.0
 33
0.0
 40
0.0
 40
0.0
 40
0.0
 40
0.0
 40
0.2
 40
0.2
 40
0.2
 40
0.2
 40
0.4
 40
0.4
 40
0.4
 40
0.4
 40
0.6
 40
0.6
 40
0.6
 40
0.6
 40
1.0
 40
1.0
 40
1.0
 40
1.0
 10
92.1555
 20
-60.1043
 30
0.0
 10
90.1464
 20
-60.1008
 30
0.0
 10
86.0219
 20
-61.004
 30
0.0
 10
84.4226
 20
-62.0922
 30
0.0
 10
84.4226
 20
-62.0922
 30
0.0
 10
86.6467
 20
-64.225
 30
0.0
 10
88.3722
 20
-65.9203
 30
0.0
 10
90.0293
 20
-67.8561
 30
0.0
 10
90.0293
 20
-67.8561
 30
0.0
 10
91.3627
 20
-64.7289
 30
0.0
 10
91.792
 20
-62.4418
 30
0.0
 10
92.1557
 20
-60.1043
 30
0.0
 10
92.1557
 20
-60.1043
 30
0.0
 10
92.1557
 20
-60.1043
 30
0.0
 10
92.1555
 20
-60.1043
 30
0.0
 10
92.1555
 20
-60.1043
 30
0.0
  0
SPLINE
  5
F9
330
1F
100
AcDbEntity
  8
layer 1
 62
     7
100
AcDbSpline
210
0.0
220
0.0
230
1.0
 70
    11
 71
     3
 72
    16
 73
    12
 74
     0
 42
0.0000000001
 43
0.0000000001
 12
1.0
 22
0.0
 32
0.0
 13
1.0
 23
0.0
 33
0.0
 40
0.0
 40
0.0
 40
0.0
 40
0.0
 40
0.25
 40
0.25
 40
0.25
 40
0.25
 40
0.5
 40
0.5
 40
0.5
 40
0.5
 40
1.0
 40
1.0
 40
1.0
 40
1.0
 10
95.5435
 20
-60.1043
 30
0.0
 10
97.5526
 20
-60.1008
 30
0.0
 10
101.6771
 20
-61.004
 30
0.0
 10
103.2765
 20
-62.0922
 30
0.0
 10
103.2765
 20
-62.0922
 30
0.0
 10
101.0523
 20
-64.225
 30
0.0
 10
99.3268
 20
-65.9205
 30
0.0
 10
97.6698
 20
-67.8561
 30
0.0
 10
97.6698
 20
-67.8561
 30
0.0
 10
96.3364
 20
-64.7289
 30
0.0
 10
95.9071
 20
-62.4418
 30
0.0
 10
95.5435
 20
-60.1043
 30
0.0
  0
SPLINE
  5
FA
330
1F
100
AcDbEntity
  8
layer 1
 62
     7
100
AcDbSpline
210
0.0
220
0.0
230
1.0
 70
    11
 71
     3
 72
    20
 73
    16
 74
     0
 42
0.0000000001
 43
0.0000000001
 12
1.0
 22
0.0
 32
0.0
 13
1.0
 23
0.0
 33
0.0
 40
0.0
 40
0.0
 40
0.0
 40
0.0
 40
0.2
 40
0.2
 40
0.2
 40
0.2
 40
0.4
 40
0.4
 40
0.4
 40
0.4
 40
0.6
 40
0.6
 40
0.6
 40
0.6
 40
1.0
 40
1.0
 40
1.0
 40
1.0
 10
92.1555
 20
-83.2983
 30
0.0
 10
90.1464
 20
-83.3018
 30
0.0
 10
86.0219
 20
-82.3986
 30
0.0
 10
84.4226
 20
-81.3103
 30
0.0
 10
84.4226
 20
-81.3103
 30
0.0
 10
86.6467
 20
-79.1775
 30
0.0
 10
88.3722
 20
-77.4822
 30
0.0
 10
90.0293
 20
-75.5465
 30
0.0
 10
90.0293
 20
-75.5465
 30
0.0
 10
91.3627
 20
-78.6737
 30
0.0
 10
91.792
 20
-80.9607
 30
0.0
 10
92.1557
 20
-83.2982
 30
0.0
 10
92.1557
 20
-83.2982
 30
0.0
 10
92.1557
 20
-83.2982
 30
0.0
 10
92.1555
 20
-83.2983
 30
0.0
 10
92.1555
 20
-83.2983
 30
0.0
  0
SPLINE
  5
FB
330
1F
100
AcDbEntity
  8
layer 1
 62
     7
100
AcDbSpline
210
0.0
220
0.0
230
1.0
 70
    11
 71
     3
 72
    20
 73
    16
 74
     0
 42
0.0000000001
 43
0.0000000001
 12
1.0
 22
0.0
 32
0.0
 13
1.0
 23
0.0
 33
0.0
 40
0.0
 40
0.0
 40
0.0
 40
0.0
 40
0.2
 40
0.2
 40
0.2
 40
0.2
 40
0.4
 40
0.4
 40
0.4
 40
0.4
 40
0.6
 40
0.6
 40
0.6
 40
0.6
 40
1.0
 40
1.0
 40
1.0
 40
1.0
 10
95.5435
 20
-83.2983
 30
0.0
 10
97.5526
 20
-83.3018
 30
0.0
 10
101.6771
 20
-82.3986
 30
0.0
 10
103.2765
 20
-81.3104
 30
0.0
 10
103.2765
 20
-81.3104
 30
0.0
 10
101.0523
 20
-79.1776
 30
0.0
 10
99.3268
 20
-77.4823
 30
0.0
 10
97.6698
 20
-75.5466
 30
0.0
 10
97.6698
 20
-75.5466
 30
0.0
 10
96.3364
 20
-78.6738
 30
0.0
 10
95.907
 20
-80.9608
 30
0.0
 10
95.5434
 20
-83.2983
 30
0.0
 10
95.5434
 20
-83.2983
 30
0.0
 10
95.5434
 20
-83.2983
 30
0.0
 10
95.5435
 20
-83.2983
 30
0.0
 10
95.5435
 20
-83.2983
 30
0.0
  0
SPLINE
  5
FC
330
1F
100
AcDbEntity
  8
layer 1
 62
     7
100
AcDbSpline
210
0.0
220
0.0
230
1.0
 70
    11
 71
     3
 72
    12
 73
     8
 74
     0
 42
0.0000000001
 43
0.0000000001
 12
1.0
 22
0.0
 32
0.0
 13
1.0
 23
0.0
 33
0.0
 40
0.0
 40
0.0
 40
0.0
 40
0.0
 40
0.3333333333333333
 40
0.3333333333333333
 40
0.3333333333333333
 40
0.3333333333333333
 40
1.0
 40
1.0
 40
1.0
 40
1.0
 10
110.4557
 20
-58.2995
 30
0.0
 10
108.737
 20
-56.4153
 30
0.0
 10
105.5841
 20
-56.7228
 30
0.0
 10
104.1401
 20
-58.3147
 30
0.0
 10
104.1401
 20
-58.3147
 30
0.0
 10
105.7426
 20
-60.2426
 30
0.0
 10
108.7545
 20
-60.0113
 30
0.0
 10
110.4557
 20
-58.2995
 30
0.0
  0
SPLINE
  5
FD
330
1F
100
AcDbEntity
  8
layer 1
 62
     7
100
AcDbSpline
210
0.0
220
0.0
230
1.0
 70
    11
 71
     3
 72
    20
 73
    16
 74
     0
 42
0.0000000001
 43
0.0000000001
 12
1.0
 22
0.0
 32
0.0
 13
1.0
 23
0.0
 33
0.0
 40
0.0
 40
0.0
 40
0.0
 40
0.0
 40
0.2
 40
0.2
 40
0.2
 40
0.2
 40
0.4
 40
0.4
 40
0.4
 40
0.4
 40
0.6
 40
0.6
 40
0.6
 40
0.6
 40
1.0
 40
1.0
 40
1.0
 40
1.0
 10
83.5074
 20
-58.2995
 30
0.0
 10
82.4345
 20
-57.1232
 30
0.0
 10
80.7337
 20
-56.8012
 30
0.0
 10
79.3077
 20
-57.1122
 30
0.0
 10
79.3077
 20
-57.1122
 30
0.0
 10
79.3077
 20
-57.1122
 30
0.0
 10
79.3077
 20
-59.6173
 30
0.0
 10
79.3077
 20
-59.6173
 30
0.0
 10
79.3077
 20
-59.6173
 30
0.0
 10
80.7746
 20
-59.9432
 30
0.0
 10
82.4011
 20
-59.4128
 30
0.0
 10
83.5074
 20
-58.2994
 30
0.0
 10
83.5074
 20
-58.2994
 30
0.0
 10
83.5074
 20
-58.2994
 30
0.0
 10
83.5074
 20
-58.2995
 30
0.0
 10
83.5074
 20
-58.2995
 30
0.0
  0
SPLINE
  5
FE
330
1F
100
AcDbEntity
  8
layer 1
 62
     7
100
AcDbSpline
210
0.0
220
0.0
230
1.0
 70
    11
 71
     3
 72
    24
 73
    20
 74
     0
 42
0.0000000001
 43
0.0000000001
 12
1.0
 22
0.0
 32
0.0
 13
1.0
 23
0.0
 33
0.0
 40
0.0
 40
0.0
 40
0.0
 40
0.0
 40
0.1666666666666667
 40
0.1666666666666667
 40
0.1666666666666667
 40
0.1666666666666667
 40
0.3333333333333333
 40
0.3333333333333333
 40
0.3333333333333333
 40
0.3333333333333333
 40
0.5
 40
0.5
 40
0.5
 40
0.5
 40
0.6666666666666666
 40
0.6666666666666666
 40
0.6666666666666666
 40
0.6666666666666666
 40
1.0
 40
1.0
 40
1.0
 40
1.0
 10
141.6971
 20
-71.7112
 30
0.0
 10
139.5224
 20
-68.4976
 30
0.0
 10
136.7567
 20
-65.7706
 30
0.0
 10
134.0463
 20
-64.3726
 30
0.0
 10
134.0463
 20
-64.3726
 30
0.0
 10
130.9299
 20
-66.1428
 30
0.0
 10
128.9435
 20
-68.541
 30
0.0
 10
126.5103
 20
-71.6606
 30
0.0
 10
126.5103
 20
-71.6606
 30
0.0
 10
128.2619
 20
-74.2592
 30
0.0
 10
131.6511
 20
-77.775
 30
0.0
 10
134.105
 20
-79.2692
 30
0.0
 10
134.105
 20
-79.2692
 30
0.0
 10
137.2668
 20
-76.9519
 30
0.0
 10
139.0589
 20
-75.0935
 30
0.0
 10
141.6971
 20
-71.7113
 30
0.0
 10
141.6971
 20
-71.7113
 30
0.0
 10
141.6971
 20
-71.7113
 30
0.0
 10
141.6971
 20
-71.7112
 30
0.0
 10
141.6971
 20
-71.7112
 30
0.0
  0
SPLINE
  5
FF
330
1F
100
AcDbEntity
  8
layer 1
 62
     7
100
AcDbSpline
210
0.0
220
0.0
230
1.0
 70
    11
 71
     3
 72
    12
 73
     8
 74
     0
 42
0.0000000001
 43
0.0000000001
 12
1.0
 22
0.0
 32
0.0
 13
1.0
 23
0.0
 33
0.0
 40
0.0
 40
0.0
 40
0.0
 40
0.0
 40
0.3333333333333333
 40
0.3333333333333333
 40
0.3333333333333333
 40
0.3333333333333333
 40
1.0
 40
1.0
 40
1.0
 40
1.0
 10
120.6476
 20
-68.5668
 30
0.0
 10
118.7634
 20
-70.2855
 30
0.0
 10
119.0709
 20
-73.4384
 30
0.0
 10
120.6628
 20
-74.8824
 30
0.0
 10
120.6628
 20
-74.8824
 30
0.0
 10
122.5907
 20
-73.2799
 30
0.0
 10
122.3594
 20
-70.268
 30
0.0
 10
120.6476
 20
-68.5668
 30
0.0
  0
SPLINE
  5
100
330
1F
100
AcDbEntity
  8
layer 1
 62
     7
100
AcDbSpline
210
0.0
220
0.0
230
1.0
 70
    11
 71
     3
 72
    20
 73
    16
 74
     0
 42
0.0000000001
 43
0.0000000001
 12
1.0
 22
0.0
 32
0.0
 13
1.0
 23
0.0
 33
0.0
 40
0.0
 40
0.0
 40
0.0
 40
0.0
 40
0.2
 40
0.2
 40
0.2
 40
0.2
 40
0.4
 40
0.4
 40
0.4
 40
0.4
 40
0.6
 40
0.6
 40
0.6
 40
0.6
 40
1.0
 40
1.0
 40
1.0
 40
1.0
 10
119.0171
 20
-60.1043
 30
0.0
 10
117.008
 20
-60.1008
 30
0.0
 10
112.8836
 20
-61.004
 30
0.0
 10
111.2841
 20
-62.0922
 30
0.0
 10
111.2841
 20
-62.0922
 30
0.0
 10
113.5082
 20
-64.225
 30
0.0
 10
115.2338
 20
-65.9203
 30
0.0
 10
116.8908
 20
-67.8561
 30
0.0
 10
116.8908
 20
-67.8561
 30
0.0
 10
118.2242
 20
-64.7289
 30
0.0
 10
118.6536
 20
-62.4418
 30
0.0
 10
119.0172
 20
-60.1043
 30
0.0
 10
119.0172
 20
-60.1043
 30
0.0
 10
119.0172
 20
-60.1043
 30
0.0
 10
119.0171
 20
-60.1043
 30
0.0
 10
119.0171
 20
-60.1043
 30
0.0
  0
SPLINE
  5
101
330
1F
100
AcDbEntity
  8
layer 1
 62
     7
100
AcDbSpline
210
0.0
220
0.0
230
1.0
 70
    11
 71
     3
 72
    16
 73
    12
 74
     0
 42
0.0000000001
 43
0.0000000001
 12
1.0
 22
0.0
 32
0.0
 13
1.0
 23
0.0
 33
0.0
 40
0.0
 40
0.0
 40
0.0
 40
0.0
 40
0.25
 40
0.25
 40
0.25
 40
0.25
 40
0.5
 40
0.5
 40
0.5
 40
0.5
 40
1.0
 40
1.0
 40
1.0
 40
1.0
 10
122.405
 20
-60.1043
 30
0.0
 10
124.4142
 20
-60.1008
 30
0.0
 10
128.5387
 20
-61.004
 30
0.0
 10
130.138
 20
-62.0922
 30
0.0
 10
130.138
 20
-62.0922
 30
0.0
 10
127.9139
 20
-64.225
 30
0.0
 10
126.1885
 20
-65.9205
 30
0.0
 10
124.5314
 20
-67.8561
 30
0.0
 10
124.5314
 20
-67.8561
 30
0.0
 10
123.1979
 20
-64.7289
 30
0.0
 10
122.7687
 20
-62.4418
 30
0.0
 10
122.405
 20
-60.1043
 30
0.0
  0
SPLINE
  5
102
330
1F
100
AcDbEntity
  8
layer 1
 62
     7
100
AcDbSpline
210
0.0
220
0.0
230
1.0
 70
    11
 71
     3
 72
    20
 73
    16
 74
     0
 42
0.0000000001
 43
0.0000000001
 12
1.0
 22
0.0
 32
0.0
 13
1.0
 23
0.0
 33
0.0
 40
0.0
 40
0.0
 40
0.0
 40
0.0
 40
0.2
 40
0.2
 40
0.2
 40
0.2
 40
0.4
 40
0.4
 40
0.4
 40
0.4
 40
0.6
 40
0.6
 40
0.6
 40
0.6
 40
1.0
 40
1.0
 40
1.0
 40
1.0
 10
119.0171
 20
-83.2983
 30
0.0
 10
117.008
 20
-83.3018
 30
0.0
 10
112.8836
 20
-82.3986
 30
0.0
 10
111.2841
 20
-81.3103
 30
0.0
 10
111.2841
 20
-81.3103
 30
0.0
 10
113.5082
 20
-79.1775
 30
0.0
 10
115.2338
 20
-77.4822
 30
0.0
 10
116.8908
 20
-75.5465
 30
0.0
 10
116.8908
 20
-75.5465
 30
0.0
 10
118.2242
 20
-78.6737
 30
0.0
 10
118.6536
 20
-80.9607
 30
0.0
 10
119.0172
 20
-83.2982
 30
0.0
 10
119.0172
 20
-83.2982
 30
0.0
 10
119.0172
 20
-83.2982
 30
0.0
 10
119.0171
 20
-83.2983
 30
0.0
 10
119.0171
 20
-83.2983
 30
0.0
  0
SPLINE
  5
103
330
1F
100
AcDbEntity
  8
layer 1
 62
     7
100
AcDbSpline
210
0.0
220
0.0
230
1.0
 70
    11
 71
     3
 72
    20
 73
    16
 74
     0
 42
0.0000000001
 43
0.0000000001
 12
1.0
 22
0.0
 32
0.0
 13
1.0
 23
0.0
 33
0.0
 40
0.0
 40
0.0
 40
0.0
 40
0.0
 40
0.2
 40
0.2
 40
0.2
 40
0.2
 40
0.4
 40
0.4
 40
0.4
 40
0.4
 40
0.6
 40
0.6
 40
0.6
 40
0.6
 40
1.0
 40
1.0
 40
1.0
 40
1.0
 10
122.405
 20
-83.2983
 30
0.0
 10
124.4142
 20
-83.3018
 30
0.0
 10
128.5387
 20
-82.3986
 30
0.0
 10
130.138
 20
-81.3104
 30
0.0
 10
130.138
 20
-81.3104
 30
0.0
 10
127.9139
 20
-79.1776
 30
0.0
 10
126.1883
 20
-77.4823
 30
0.0
 10
124.5313
 20
-75.5466
 30
0.0
 10
124.5313
 20
-75.5466
 30
0.0
 10
123.1979
 20
-78.6738
 30
0.0
 10
122.7685
 20
-80.9608
 30
0.0
 10
122.4049
 20
-83.2983
 30
0.0
 10
122.4049
 20
-83.2983
 30
0.0
 10
122.4049
 20
-83.2983
 30
0.0
 10
122.405
 20
-83.2983
 30
0.0
 10
122.405
 20
-83.2983
 30
0.0
  0
SPLINE
  5
104
330
1F
100
AcDbEntity
  8
layer 1
 62
     7
100
AcDbSpline
210
0.0
220
0.0
230
1.0
 70
    11
 71
     3
 72
    12
 73
     8
 74
     0
 42
0.0000000001
 43
0.0000000001
 12
1.0
 22
0.0
 32
0.0
 13
1.0
 23
0.0
 33
0.0
 40
0.0
 40
0.0
 40
0.0
 40
0.0
 40
0.3333333333333333
 40
0.3333333333333333
 40
0.3333333333333333
 40
0.3333333333333333
 40
1.0
 40
1.0
 40
1.0
 40
1.0
 10
137.3173
 20
-58.2995
 30
0.0
 10
135.5985
 20
-56.4153
 30
0.0
 10
132.4456
 20
-56.7228
 30
0.0
 10
131.0017
 20
-58.3147
 30
0.0
 10
131.0017
 20
-58.3147
 30
0.0
 10
132.6042
 20
-60.2426
 30
0.0
 10
135.6161
 20
-60.0113
 30
0.0
 10
137.3173
 20
-58.2995
 30
0.0
  0
SPLINE
  5
105
330
1F
100
AcDbEntity
  8
layer 1
 62
     7
100
AcDbSpline
210
0.0
220
0.0
230
1.0
 70
    11
 71
     3
 72
    24
 73
    20
 74
     0
 42
0.0000000001
 43
0.0000000001
 12
1.0
 22
0.0
 32
0.0
 13
1.0
 23
0.0
 33
0.0
 40
0.0
 40
0.0
 40
0.0
 40
0.0
 40
0.1666666666666667
 40
0.1666666666666667
 40
0.1666666666666667
 40
0.1666666666666667
 40
0.3333333333333333
 40
0.3333333333333333
 40
0.3333333333333333
 40
0.3333333333333333
 40
0.5
 40
0.5
 40
0.5
 40
0.5
 40
0.6666666666666666
 40
0.6666666666666666
 40
0.6666666666666666
 40
0.6666666666666666
 40
1.0
 40
1.0
 40
1.0
 40
1.0
 10
168.4721
 20
-71.7112
 30
0.0
 10
166.2973
 20
-68.4976
 30
0.0
 10
163.5317
 20
-65.7706
 30
0.0
 10
160.8213
 20
-64.3726
 30
0.0
 10
160.8213
 20
-64.3726
 30
0.0
 10
157.7048
 20
-66.1428
 30
0.0
 10
155.7185
 20
-68.541
 30
0.0
 10
153.2852
 20
-71.6606
 30
0.0
 10
153.2852
 20
-71.6606
 30
0.0
 10
155.0368
 20
-74.2592
 30
0.0
 10
158.426
 20
-77.775
 30
0.0
 10
160.88
 20
-79.2692
 30
0.0
 10
160.88
 20
-79.2692
 30
0.0
 10
164.0418
 20
-76.9519
 30
0.0
 10
165.8339
 20
-75.0935
 30
0.0
 10
168.4721
 20
-71.7113
 30
0.0
 10
168.4721
 20
-71.7113
 30
0.0
 10
168.4721
 20
-71.7113
 30
0.0
 10
168.4721
 20
-71.7112
 30
0.0
 10
168.4721
 20
-71.7112
 30
0.0
  0
SPLINE
  5
106
330
1F
100
AcDbEntity
  8
layer 1
 62
     7
100
AcDbSpline
210
0.0
220
0.0
230
1.0
 70
    11
 71
     3
 72
    12
 73
     8
 74
     0
 42
0.0000000001
 43
0.0000000001
 12
1.0
 22
0.0
 32
0.0
 13
1.0
 23
0.0
 33
0.0
 40
0.0
 40
0.0
 40
0.0
 40
0.0
 40
0.3333333333333333
 40
0.3333333333333333
 40
0.3333333333333333
 40
0.3333333333333333
 40
1.0
 40
1.0
 40
1.0
 40
1.0
 10
147.4226
 20
-68.5668
 30
0.0
 10
145.5383
 20
-70.2855
 30
0.0
 10
145.8459
 20
-73.4384
 30
0.0
 10
147.4378
 20
-74.8824
 30
0.0
 10
147.4378
 20
-74.8824
 30
0.0
 10
149.3657
 20
-73.2799
 30
0.0
 10
149.1344
 20
-70.268
 30
0.0
 10
147.4226
 20
-68.5668
 30
0.0
  0
SPLINE
  5
107
330
1F
100
AcDbEntity
  8
layer 1
 62
     7
100
AcDbSpline
210
0.0
220
0.0
230
1.0
 70
    11
 71
     3
 72
    20
 73
    16
 74
     0
 42
0.0000000001
 43
0.0000000001
 12
1.0
 22
0.0
 32
0.0
 13
1.0
 23
0.0
 33
0.0
 40
0.0
 40
0.0
 40
0.0
 40
0.0
 40
0.2
 40
0.2
 40
0.2
 40
0.2
 40
0.4
 40
0.4
 40
0.4
 40
0.4
 40
0.6
 40
0.6
 40
0.6
 40
0.6
 40
1.0
 40
1.0
 40
1.0
 40
1.0
 10
145.792
 20
-60.1043
 30
0.0
 10
143.7829
 20
-60.1008
 30
0.0
 10
139.6585
 20
-61.004
 30
0.0
 10
138.059
 20
-62.0922
 30
0.0
 10
138.059
 20
-62.0922
 30
0.0
 10
140.2832
 20
-64.225
 30
0.0
 10
142.0087
 20
-65.9203
 30
0.0
 10
143.6658
 20
-67.8561
 30
0.0
 10
143.6658
 20
-67.8561
 30
0.0
 10
144.9991
 20
-64.7289
 30
0.0
 10
145.4285
 20
-62.4418
 30
0.0
 10
145.7922
 20
-60.1043
 30
0.0
 10
145.7922
 20
-60.1043
 30
0.0
 10
145.7922
 20
-60.1043
 30
0.0
 10
145.792
 20
-60.1043
 30
0.0
 10
145.792
 20
-60.1043
 30
0.0
  0
SPLINE
  5
108
330
1F
100
AcDbEntity
  8
layer 1
 62
     7
100
AcDbSpline
210
0.0
220
0.0
230
1.0
 70
    11
 71
     3
 72
    16
 73
    12
 74
     0
 42
0.0000000001
 43
0.0000000001
 12
1.0
 22
0.0
 32
0.0
 13
1.0
 23
0.0
 33
0.0
 40
0.0
 40
0.0
 40
0.0
 40
0.0
 40
0.25
 40
0.25
 40
0.25
 40
0.25
 40
0.5
 40
0.5
 40
0.5
 40
0.5
 40
1.0
 40
1.0
 40
1.0
 40
1.0
 10
149.18
 20
-60.1043
 30
0.0
 10
151.1891
 20
-60.1008
 30
0.0
 10
155.3136
 20
-61.004
 30
0.0
 10
156.913
 20
-62.0922
 30
0.0
 10
156.913
 20
-62.0922
 30
0.0
 10
154.6888
 20
-64.225
 30
0.0
 10
152.9634
 20
-65.9205
 30
0.0
 10
151.3064
 20
-67.8561
 30
0.0
 10
151.3064
 20
-67.8561
 30
0.0
 10
149.9729
 20
-64.7289
 30
0.0
 10
149.5436
 20
-62.4418
 30
0.0
 10
149.18
 20
-60.1043
 30
0.0
  0
SPLINE
  5
109
330
1F
100
AcDbEntity
  8
layer 1
 62
     7
100
AcDbSpline
210
0.0
220
0.0
230
1.0
 70
    11
 71
     3
 72
    20
 73
    16
 74
     0
 42
0.0000000001
 43
0.0000000001
 12
1.0
 22
0.0
 32
0.0
 13
1.0
 23
0.0
 33
0.0
 40
0.0
 40
0.0
 40
0.0
 40
0.0
 40
0.2
 40
0.2
 40
0.2
 40
0.2
 40
0.4
 40
0.4
 40
0.4
 40
0.4
 40
0.6
 40
0.6
 40
0.6
 40
0.6
 40
1.0
 40
1.0
 40
1.0
 40
1.0
 10
145.792
 20
-83.2983
 30
0.0
 10
143.7829
 20
-83.3018
 30
0.0
 10
139.6585
 20
-82.3986
 30
0.0
 10
138.059
 20
-81.3103
 30
0.0
 10
138.059
 20
-81.3103
 30
0.0
 10
140.2832
 20
-79.1775
 30
0.0
 10
142.0087
 20
-77.4822
 30
0.0
 10
143.6658
 20
-75.5465
 30
0.0
 10
143.6658
 20
-75.5465
 30
0.0
 10
144.9991
 20
-78.6737
 30
0.0
 10
145.4285
 20
-80.9607
 30
0.0
 10
145.7922
 20
-83.2982
 30
0.0
 10
145.7922
 20
-83.2982
 30
0.0
 10
145.7922
 20
-83.2982
 30
0.0
 10
145.792
 20
-83.2983
 30
0.0
 10
145.792
 20
-83.2983
 30
0.0
  0
SPLINE
  5
10A
330
1F
100
AcDbEntity
  8
layer 1
 62
     7
100
AcDbSpline
210
0.0
220
0.0
230
1.0
 70
    11
 71
     3
 72
    20
 73
    16
 74
     0
 42
0.0000000001
 43
0.0000000001
 12
1.0
 22
0.0
 32
0.0
 13
1.0
 23
0.0
 33
0.0
 40
0.0
 40
0.0
 40
0.0
 40
0.0
 40
0.2
 40
0.2
 40
0.2
 40
0.2
 40
0.4
 40
0.4
 40
0.4
 40
0.4
 40
0.6
 40
0.6
 40
0.6
 40
0.6
 40
1.0
 40
1.0
 40
1.0
 40
1.0
 10
149.18
 20
-83.2983
 30
0.0
 10
151.1891
 20
-83.3018
 30
0.0
 10
155.3136
 20
-82.3986
 30
0.0
 10
156.913
 20
-81.3104
 30
0.0
 10
156.913
 20
-81.3104
 30
0.0
 10
154.6888
 20
-79.1776
 30
0.0
 10
152.9633
 20
-77.4823
 30
0.0
 10
151.3062
 20
-75.5466
 30
0.0
 10
151.3062
 20
-75.5466
 30
0.0
 10
149.9729
 20
-78.6738
 30
0.0
 10
149.5435
 20
-80.9608
 30
0.0
 10
149.1799
 20
-83.2983
 30
0.0
 10
149.1799
 20
-83.2983
 30
0.0
 10
149.1799
 20
-83.2983
 30
0.0
 10
149.18
 20
-83.2983
 30
0.0
 10
149.18
 20
-83.2983
 30
0.0
  0
SPLINE
  5
10B
330
1F
100
AcDbEntity
  8
layer 1
 62
     7
100
AcDbSpline
210
0.0
220
0.0
230
1.0
 70
    11
 71
     3
 72
    12
 73
     8
 74
     0
 42
0.0000000001
 43
0.0000000001
 12
1.0
 22
0.0
 32
0.0
 13
1.0
 23
0.0
 33
0.0
 40
0.0
 40
0.0
 40
0.0
 40
0.0
 40
0.3333333333333333
 40
0.3333333333333333
 40
0.3333333333333333
 40
0.3333333333333333
 40
1.0
 40
1.0
 40
1.0
 40
1.0
 10
164.0922
 20
-58.2995
 30
0.0
 10
162.3735
 20
-56.4153
 30
0.0
 10
159.2206
 20
-56.7228
 30
0.0
 10
157.7766
 20
-58.3147
 30
0.0
 10
157.7766
 20
-58.3147
 30
0.0
 10
159.3791
 20
-60.2426
 30
0.0
 10
162.391
 20
-60.0113
 30
0.0
 10
164.0922
 20
-58.2995
 30
0.0
  0
SPLINE
  5
10C
330
1F
100
AcDbEntity
  8
layer 1
 62
     7
100
AcDbSpline
210
0.0
220
0.0
230
1.0
 70
    11
 71
     3
 72
    24
 73
    20
 74
     0
 42
0.0000000001
 43
0.0000000001
 12
1.0
 22
0.0
 32
0.0
 13
1.0
 23
0.0
 33
0.0
 40
0.0
 40
0.0
 40
0.0
 40
0.0
 40
0.1666666666666667
 40
0.1666666666666667
 40
0.1666666666666667
 40
0.1666666666666667
 40
0.3333333333333333
 40
0.3333333333333333
 40
0.3333333333333333
 40
0.3333333333333333
 40
0.5
 40
0.5
 40
0.5
 40
0.5
 40
0.6666666666666666
 40
0.6666666666666666
 40
0.6666666666666666
 40
0.6666666666666666
 40
1.0
 40
1.0
 40
1.0
 40
1.0
 10
188.7052
 20
-64.9604
 30
0.0
 10
188.3644
 20
-64.7446
 30
0.0
 10
188.0232
 20
-64.548
 30
0.0
 10
187.6828
 20
-64.3724
 30
0.0
 10
187.6828
 20
-64.3724
 30
0.0
 10
184.5663
 20
-66.1427
 30
0.0
 10
182.58
 20
-68.5408
 30
0.0
 10
180.1468
 20
-71.6604
 30
0.0
 10
180.1468
 20
-71.6604
 30
0.0
 10
181.8984
 20
-74.2591
 30
0.0
 10
185.2875
 20
-77.7749
 30
0.0
 10
187.7415
 20
-79.2691
 30
0.0
 10
187.7415
 20
-79.2691
 30
0.0
 10
188.0553
 20
-79.0391
 30
0.0
 10
188.3557
 20
-78.8136
 30
0.0
 10
188.6446
 20
-78.5907
 30
0.0
 10
188.6446
 20
-78.5907
 30
0.0
 10
188.6446
 20
-78.5907
 30
0.0
 10
188.7052
 20
-64.9604
 30
0.0
 10
188.7052
 20
-64.9604
 30
0.0
  0
SPLINE
  5
10D
330
1F
100
AcDbEntity
  8
layer 1
 62
     7
100
AcDbSpline
210
0.0
220
0.0
230
1.0
 70
    11
 71
     3
 72
    12
 73
     8
 74
     0
 42
0.0000000001
 43
0.0000000001
 12
1.0
 22
0.0
 32
0.0
 13
1.0
 23
0.0
 33
0.0
 40
0.0
 40
0.0
 40
0.0
 40
0.0
 40
0.3333333333333333
 40
0.3333333333333333
 40
0.3333333333333333
 40
0.3333333333333333
 40
1.0
 40
1.0
 40
1.0
 40
1.0
 10
174.2843
 20
-68.5668
 30
0.0
 10
172.4
 20
-70.2855
 30
0.0
 10
172.7076
 20
-73.4384
 30
0.0
 10
174.2995
 20
-74.8824
 30
0.0
 10
174.2995
 20
-74.8824
 30
0.0
 10
176.2273
 20
-73.2799
 30
0.0
 10
175.9961
 20
-70.268
 30
0.0
 10
174.2843
 20
-68.5668
 30
0.0
  0
SPLINE
  5
10E
330
1F
100
AcDbEntity
  8
layer 1
 62
     7
100
AcDbSpline
210
0.0
220
0.0
230
1.0
 70
    11
 71
     3
 72
    20
 73
    16
 74
     0
 42
0.0000000001
 43
0.0000000001
 12
1.0
 22
0.0
 32
0.0
 13
1.0
 23
0.0
 33
0.0
 40
0.0
 40
0.0
 40
0.0
 40
0.0
 40
0.2
 40
0.2
 40
0.2
 40
0.2
 40
0.4
 40
0.4
 40
0.4
 40
0.4
 40
0.6
 40
0.6
 40
0.6
 40
0.6
 40
1.0
 40
1.0
 40
1.0
 40
1.0
 10
172.6537
 20
-60.1043
 30
0.0
 10
170.6446
 20
-60.1008
 30
0.0
 10
166.5201
 20
-61.004
 30
0.0
 10
164.9207
 20
-62.0922
 30
0.0
 10
164.9207
 20
-62.0922
 30
0.0
 10
167.1449
 20
-64.225
 30
0.0
 10
168.8704
 20
-65.9203
 30
0.0
 10
170.5274
 20
-67.8561
 30
0.0
 10
170.5274
 20
-67.8561
 30
0.0
 10
171.8608
 20
-64.7289
 30
0.0
 10
172.2902
 20
-62.4418
 30
0.0
 10
172.6538
 20
-60.1043
 30
0.0
 10
172.6538
 20
-60.1043
 30
0.0
 10
172.6538
 20
-60.1043
 30
0.0
 10
172.6537
 20
-60.1043
 30
0.0
 10
172.6537
 20
-60.1043
 30
0.0
  0
SPLINE
  5
10F
330
1F
100
AcDbEntity
  8
layer 1
 62
     7
100
AcDbSpline
210
0.0
220
0.0
230
1.0
 70
    11
 71
     3
 72
    20
 73
    16
 74
     0
 42
0.0000000001
 43
0.0000000001
 12
1.0
 22
0.0
 32
0.0
 13
1.0
 23
0.0
 33
0.0
 40
0.0
 40
0.0
 40
0.0
 40
0.0
 40
0.2
 40
0.2
 40
0.2
 40
0.2
 40
0.4
 40
0.4
 40
0.4
 40
0.4
 40
0.6
 40
0.6
 40
0.6
 40
0.6
 40
1.0
 40
1.0
 40
1.0
 40
1.0
 10
176.0415
 20
-60.1043
 30
0.0
 10
178.0506
 20
-60.1008
 30
0.0
 10
182.1751
 20
-61.004
 30
0.0
 10
183.7745
 20
-62.0922
 30
0.0
 10
183.7745
 20
-62.0922
 30
0.0
 10
181.5504
 20
-64.225
 30
0.0
 10
179.8248
 20
-65.9203
 30
0.0
 10
178.1678
 20
-67.8561
 30
0.0
 10
178.1678
 20
-67.8561
 30
0.0
 10
176.8344
 20
-64.7289
 30
0.0
 10
176.405
 20
-62.4418
 30
0.0
 10
176.0414
 20
-60.1043
 30
0.0
 10
176.0414
 20
-60.1043
 30
0.0
 10
176.0414
 20
-60.1043
 30
0.0
 10
176.0415
 20
-60.1043
 30
0.0
 10
176.0415
 20
-60.1043
 30
0.0
  0
SPLINE
  5
110
330
1F
100
AcDbEntity
  8
layer 1
 62
     7
100
AcDbSpline
210
0.0
220
0.0
230
1.0
 70
    11
 71
     3
 72
    20
 73
    16
 74
     0
 42
0.0000000001
 43
0.0000000001
 12
1.0
 22
0.0
 32
0.0
 13
1.0
 23
0.0
 33
0.0
 40
0.0
 40
0.0
 40
0.0
 40
0.0
 40
0.2
 40
0.2
 40
0.2
 40
0.2
 40
0.4
 40
0.4
 40
0.4
 40
0.4
 40
0.6
 40
0.6
 40
0.6
 40
0.6
 40
1.0
 40
1.0
 40
1.0
 40
1.0
 10
172.6537
 20
-83.2983
 30
0.0
 10
170.6446
 20
-83.3018
 30
0.0
 10
166.5201
 20
-82.3986
 30
0.0
 10
164.9207
 20
-81.3104
 30
0.0
 10
164.9207
 20
-81.3104
 30
0.0
 10
167.1449
 20
-79.1776
 30
0.0
 10
168.8704
 20
-77.4823
 30
0.0
 10
170.5274
 20
-75.5466
 30
0.0
 10
170.5274
 20
-75.5466
 30
0.0
 10
171.8608
 20
-78.6738
 30
0.0
 10
172.2902
 20
-80.9608
 30
0.0
 10
172.6538
 20
-83.2983
 30
0.0
 10
172.6538
 20
-83.2983
 30
0.0
 10
172.6538
 20
-83.2983
 30
0.0
 10
172.6537
 20
-83.2983
 30
0.0
 10
172.6537
 20
-83.2983
 30
0.0
  0
SPLINE
  5
111
330
1F
100
AcDbEntity
  8
layer 1
 62
     7
100
AcDbSpline
210
0.0
220
0.0
230
1.0
 70
    11
 71
     3
 72
    20
 73
    16
 74
     0
 42
0.0000000001
 43
0.0000000001
 12
1.0
 22
0.0
 32
0.0
 13
1.0
 23
0.0
 33
0.0
 40
0.0
 40
0.0
 40
0.0
 40
0.0
 40
0.2
 40
0.2
 40
0.2
 40
0.2
 40
0.4
 40
0.4
 40
0.4
 40
0.4
 40
0.6
 40
0.6
 40
0.6
 40
0.6
 40
1.0
 40
1.0
 40
1.0
 40
1.0
 10
176.0415
 20
-83.2983
 30
0.0
 10
178.0506
 20
-83.3018
 30
0.0
 10
182.1751
 20
-82.3986
 30
0.0
 10
183.7745
 20
-81.3104
 30
0.0
 10
183.7745
 20
-81.3104
 30
0.0
 10
181.5504
 20
-79.1776
 30
0.0
 10
179.8248
 20
-77.4823
 30
0.0
 10
178.1678
 20
-75.5466
 30
0.0
 10
178.1678
 20
-75.5466
 30
0.0
 10
176.8344
 20
-78.6738
 30
0.0
 10
176.405
 20
-80.9608
 30
0.0
 10
176.0414
 20
-83.2983
 30
0.0
 10
176.0414
 20
-83.2983
 30
0.0
 10
176.0414
 20
-83.2983
 30
0.0
 10
176.0415
 20
-83.2983
 30
0.0
 10
176.0415
 20
-83.2983
 30
0.0
  0
SPLINE
  5
112
330
1F
100
AcDbEntity
  8
layer 1
 62
     7
100
AcDbSpline
210
0.0
220
0.0
230
1.0
 70
    11
 71
     3
 72
    20
 73
    16
 74
     0
 42
0.0000000001
 43
0.0000000001
 12
1.0
 22
0.0
 32
0.0
 13
1.0
 23
0.0
 33
0.0
 40
0.0
 40
0.0
 40
0.0
 40
0.0
 40
0.2
 40
0.2
 40
0.2
 40
0.2
 40
0.4
 40
0.4
 40
0.4
 40
0.4
 40
0.6
 40
0.6
 40
0.6
 40
0.6
 40
1.0
 40
1.0
 40
1.0
 40
1.0
 10
188.7429
 20
-57.0848
 30
0.0
 10
187.2272
 20
-56.7908
 30
0.0
 10
185.5738
 20
-57.2831
 30
0.0
 10
184.6383
 20
-58.3147
 30
0.0
 10
184.6383
 20
-58.3147
 30
0.0
 10
185.6653
 20
-59.5503
 30
0.0
 10
187.2714
 20
-59.899
 30
0.0
 10
188.7402
 20
-59.5395
 30
0.0
 10
188.7402
 20
-59.5395
 30
0.0
 10
188.7402
 20
-59.5395
 30
0.0
 10
188.743
 20
-57.085
 30
0.0
 10
188.743
 20
-57.085
 30
0.0
 10
188.743
 20
-57.085
 30
0.0
 10
188.743
 20
-57.085
 30
0.0
 10
188.7429
 20
-57.0848
 30
0.0
 10
188.7429
 20
-57.0848
 30
0.0
  0
SPLINE
  5
113
330
1F
100
AcDbEntity
  8
layer 1
 62
     7
100
AcDbSpline
210
0.0
220
0.0
230
1.0
 70
    11
 71
     3
 72
    24
 73
    20
 74
     0
 42
0.0000000001
 43
0.0000000001
 12
1.0
 22
0.0
 32
0.0
 13
1.0
 23
0.0
 33
0.0
 40
0.0
 40
0.0
 40
0.0
 40
0.0
 40
0.1666666666666667
 40
0.1666666666666667
 40
0.1666666666666667
 40
0.1666666666666667
 40
0.3333333333333333
 40
0.3333333333333333
 40
0.3333333333333333
 40
0.3333333333333333
 40
0.5
 40
0.5
 40
0.5
 40
0.5
 40
0.6666666666666666
 40
0.6666666666666666
 40
0.6666666666666666
 40
0.6666666666666666
 40
1.0
 40
1.0
 40
1.0
 40
1.0
 10
79.3077
 20
-64.9604
 30
0.0
 10
79.6485
 20
-64.7446
 30
0.0
 10
79.9897
 20
-64.548
 30
0.0
 10
80.3302
 20
-64.3724
 30
0.0
 10
80.3302
 20
-64.3724
 30
0.0
 10
83.4466
 20
-66.1427
 30
0.0
 10
85.4329
 20
-68.5408
 30
0.0
 10
87.8662
 20
-71.6604
 30
0.0
 10
87.8662
 20
-71.6604
 30
0.0
 10
86.1146
 20
-74.2591
 30
0.0
 10
82.7254
 20
-77.7749
 30
0.0
 10
80.2715
 20
-79.2691
 30
0.0
 10
80.2715
 20
-79.2691
 30
0.0
 10
79.9576
 20
-79.0391
 30
0.0
 10
79.6573
 20
-78.8136
 30
0.0
 10
79.3684
 20
-78.5907
 30
0.0
 10
79.3684
 20
-78.5907
 30
0.0
 10
79.3684
 20
-78.5907
 30
0.0
 10
79.3077
 20
-64.9604
 30
0.0
 10
79.3077
 20
-64.9604
 30
0.0
  0
SPLINE
  5
114
330
1F
100
AcDbEntity
  8
layer 1
 62
     7
100
AcDbSpline
210
0.0
220
0.0
230
1.0
 70
    11
 71
     3
 72
    20
 73
    16
 74
     0
 42
0.0000000001
 43
0.0000000001
 12
1.0
 22
0.0
 32
0.0
 13
1.0
 23
0.0
 33
0.0
 40
0.0
 40
0.0
 40
0.0
 40
0.0
 40
0.2
 40
0.2
 40
0.2
 40
0.2
 40
0.4
 40
0.4
 40
0.4
 40
0.4
 40
0.6
 40
0.6
 40
0.6
 40
0.6
 40
1.0
 40
1.0
 40
1.0
 40
1.0
 10
114.8356
 20
-98.4342
 30
0.0
 10
112.6607
 20
-95.2206
 30
0.0
 10
109.8952
 20
-92.4936
 30
0.0
 10
107.1848
 20
-91.0955
 30
0.0
 10
107.1848
 20
-91.0955
 30
0.0
 10
104.0683
 20
-92.8657
 30
0.0
 10
102.082
 20
-95.2639
 30
0.0
 10
99.6487
 20
-98.3835
 30
0.0
 10
99.6487
 20
-98.3835
 30
0.0
 10
101.4004
 20
-100.9821
 30
0.0
 10
104.7895
 20
-104.498
 30
0.0
 10
107.2435
 20
-105.9921
 30
0.0
 10
107.2435
 20
-105.9921
 30
0.0
 10
110.4053
 20
-103.6748
 30
0.0
 10
112.1974
 20
-101.8164
 30
0.0
 10
114.8356
 20
-98.4342
 30
0.0
  0
SPLINE
  5
115
330
1F
100
AcDbEntity
  8
layer 1
 62
     7
100
AcDbSpline
210
0.0
220
0.0
230
1.0
 70
    11
 71
     3
 72
    12
 73
     8
 74
     0
 42
0.0000000001
 43
0.0000000001
 12
1.0
 22
0.0
 32
0.0
 13
1.0
 23
0.0
 33
0.0
 40
0.0
 40
0.0
 40
0.0
 40
0.0
 40
0.3333333333333333
 40
0.3333333333333333
 40
0.3333333333333333
 40
0.3333333333333333
 40
1.0
 40
1.0
 40
1.0
 40
1.0
 10
93.7861
 20
-95.2897
 30
0.0
 10
91.9019
 20
-97.0084
 30
0.0
 10
92.2094
 20
-100.1613
 30
0.0
 10
93.8013
 20
-101.6053
 30
0.0
 10
93.8013
 20
-101.6053
 30
0.0
 10
95.7292
 20
-100.0028
 30
0.0
 10
95.4979
 20
-96.9909
 30
0.0
 10
93.7861
 20
-95.2897
 30
0.0
  0
SPLINE
  5
116
330
1F
100
AcDbEntity
  8
layer 1
 62
     7
100
AcDbSpline
210
0.0
220
0.0
230
1.0
 70
    11
 71
     3
 72
    20
 73
    16
 74
     0
 42
0.0000000001
 43
0.0000000001
 12
1.0
 22
0.0
 32
0.0
 13
1.0
 23
0.0
 33
0.0
 40
0.0
 40
0.0
 40
0.0
 40
0.0
 40
0.2
 40
0.2
 40
0.2
 40
0.2
 40
0.4
 40
0.4
 40
0.4
 40
0.4
 40
0.6
 40
0.6
 40
0.6
 40
0.6
 40
1.0
 40
1.0
 40
1.0
 40
1.0
 10
92.1555
 20
-86.8273
 30
0.0
 10
90.1464
 20
-86.8237
 30
0.0
 10
86.0219
 20
-87.7269
 30
0.0
 10
84.4226
 20
-88.8153
 30
0.0
 10
84.4226
 20
-88.8153
 30
0.0
 10
86.6467
 20
-90.9481
 30
0.0
 10
88.3722
 20
-92.6434
 30
0.0
 10
90.0293
 20
-94.5791
 30
0.0
 10
90.0293
 20
-94.5791
 30
0.0
 10
91.3627
 20
-91.4519
 30
0.0
 10
91.792
 20
-89.1649
 30
0.0
 10
92.1557
 20
-86.8274
 30
0.0
 10
92.1557
 20
-86.8274
 30
0.0
 10
92.1557
 20
-86.8274
 30
0.0
 10
92.1555
 20
-86.8273
 30
0.0
 10
92.1555
 20
-86.8273
 30
0.0
  0
SPLINE
  5
117
330
1F
100
AcDbEntity
  8
layer 1
 62
     7
100
AcDbSpline
210
0.0
220
0.0
230
1.0
 70
    11
 71
     3
 72
    20
 73
    16
 74
     0
 42
0.0000000001
 43
0.0000000001
 12
1.0
 22
0.0
 32
0.0
 13
1.0
 23
0.0
 33
0.0
 40
0.0
 40
0.0
 40
0.0
 40
0.0
 40
0.2
 40
0.2
 40
0.2
 40
0.2
 40
0.4
 40
0.4
 40
0.4
 40
0.4
 40
0.6
 40
0.6
 40
0.6
 40
0.6
 40
1.0
 40
1.0
 40
1.0
 40
1.0
 10
95.5435
 20
-86.8273
 30
0.0
 10
97.5526
 20
-86.8237
 30
0.0
 10
101.6771
 20
-87.7269
 30
0.0
 10
103.2765
 20
-88.8151
 30
0.0
 10
103.2765
 20
-88.8151
 30
0.0
 10
101.0523
 20
-90.948
 30
0.0
 10
99.3268
 20
-92.6432
 30
0.0
 10
97.6698
 20
-94.579
 30
0.0
 10
97.6698
 20
-94.579
 30
0.0
 10
96.3364
 20
-91.4518
 30
0.0
 10
95.907
 20
-89.1647
 30
0.0
 10
95.5434
 20
-86.8273
 30
0.0
 10
95.5434
 20
-86.8273
 30
0.0
 10
95.5434
 20
-86.8273
 30
0.0
 10
95.5435
 20
-86.8273
 30
0.0
 10
95.5435
 20
-86.8273
 30
0.0
  0
SPLINE
  5
118
330
1F
100
AcDbEntity
  8
layer 1
 62
     7
100
AcDbSpline
210
0.0
220
0.0
230
1.0
 70
    11
 71
     3
 72
    16
 73
    12
 74
     0
 42
0.0000000001
 43
0.0000000001
 12
1.0
 22
0.0
 32
0.0
 13
1.0
 23
0.0
 33
0.0
 40
0.0
 40
0.0
 40
0.0
 40
0.0
 40
0.25
 40
0.25
 40
0.25
 40
0.25
 40
0.5
 40
0.5
 40
0.5
 40
0.5
 40
1.0
 40
1.0
 40
1.0
 40
1.0
 10
85.2165
 20
-107.2697
 30
0.0
 10
87.0674
 20
-105.4825
 30
0.0
 10
88.5747
 20
-103.9686
 30
0.0
 10
90.0293
 20
-102.2695
 30
0.0
 10
90.0293
 20
-102.2695
 30
0.0
 10
90.8457
 20
-104.1844
 30
0.0
 10
91.3233
 20
-105.7843
 30
0.0
 10
91.6543
 20
-107.2736
 30
0.0
 10
91.6543
 20
-107.2736
 30
0.0
 10
91.6543
 20
-107.2736
 30
0.0
 10
85.2165
 20
-107.2697
 30
0.0
 10
85.2165
 20
-107.2697
 30
0.0
  0
SPLINE
  5
119
330
1F
100
AcDbEntity
  8
layer 1
 62
     7
100
AcDbSpline
210
0.0
220
0.0
230
1.0
 70
    11
 71
     3
 72
    12
 73
     8
 74
     0
 42
0.0000000001
 43
0.0000000001
 12
1.0
 22
0.0
 32
0.0
 13
1.0
 23
0.0
 33
0.0
 40
0.0
 40
0.0
 40
0.0
 40
0.0
 40
0.3333333333333333
 40
0.3333333333333333
 40
0.3333333333333333
 40
0.3333333333333333
 40
1.0
 40
1.0
 40
1.0
 40
1.0
 10
110.4557
 20
-85.0224
 30
0.0
 10
108.737
 20
-83.1382
 30
0.0
 10
105.5841
 20
-83.4457
 30
0.0
 10
104.1401
 20
-85.0376
 30
0.0
 10
104.1401
 20
-85.0376
 30
0.0
 10
105.7426
 20
-86.9655
 30
0.0
 10
108.7545
 20
-86.7342
 30
0.0
 10
110.4557
 20
-85.0224
 30
0.0
  0
SPLINE
  5
11A
330
1F
100
AcDbEntity
  8
layer 1
 62
     7
100
AcDbSpline
210
0.0
220
0.0
230
1.0
 70
    11
 71
     3
 72
    16
 73
    12
 74
     0
 42
0.0000000001
 43
0.0000000001
 12
1.0
 22
0.0
 32
0.0
 13
1.0
 23
0.0
 33
0.0
 40
0.0
 40
0.0
 40
0.0
 40
0.0
 40
0.25
 40
0.25
 40
0.25
 40
0.25
 40
0.5
 40
0.5
 40
0.5
 40
0.5
 40
1.0
 40
1.0
 40
1.0
 40
1.0
 10
102.4523
 20
-107.2697
 30
0.0
 10
100.6013
 20
-105.4825
 30
0.0
 10
99.0941
 20
-103.9686
 30
0.0
 10
97.6395
 20
-102.2695
 30
0.0
 10
97.6395
 20
-102.2695
 30
0.0
 10
96.823
 20
-104.1844
 30
0.0
 10
96.3454
 20
-105.7843
 30
0.0
 10
96.0144
 20
-107.2736
 30
0.0
 10
96.0144
 20
-107.2736
 30
0.0
 10
96.0144
 20
-107.2736
 30
0.0
 10
102.4523
 20
-107.2697
 30
0.0
 10
102.4523
 20
-107.2697
 30
0.0
  0
SPLINE
  5
11B
330
1F
100
AcDbEntity
  8
layer 1
 62
     7
100
AcDbSpline
210
0.0
220
0.0
230
1.0
 70
    11
 71
     3
 72
    16
 73
    12
 74
     0
 42
0.0000000001
 43
0.0000000001
 12
1.0
 22
0.0
 32
0.0
 13
1.0
 23
0.0
 33
0.0
 40
0.0
 40
0.0
 40
0.0
 40
0.0
 40
0.25
 40
0.25
 40
0.25
 40
0.25
 40
0.5
 40
0.5
 40
0.5
 40
0.5
 40
1.0
 40
1.0
 40
1.0
 40
1.0
 10
83.5074
 20
-85.0224
 30
0.0
 10
82.4345
 20
-83.8462
 30
0.0
 10
80.7337
 20
-83.5241
 30
0.0
 10
79.3077
 20
-83.8353
 30
0.0
 10
79.3077
 20
-83.8353
 30
0.0
 10
79.3077
 20
-83.8353
 30
0.0
 10
79.3077
 20
-86.3403
 30
0.0
 10
79.3077
 20
-86.3403
 30
0.0
 10
79.3077
 20
-86.3403
 30
0.0
 10
80.7746
 20
-86.6662
 30
0.0
 10
82.4011
 20
-86.1358
 30
0.0
 10
83.5074
 20
-85.0224
 30
0.0
  0
SPLINE
  5
11C
330
1F
100
AcDbEntity
  8
layer 1
 62
     7
100
AcDbSpline
210
0.0
220
0.0
230
1.0
 70
    11
 71
     3
 72
    20
 73
    16
 74
     0
 42
0.0000000001
 43
0.0000000001
 12
1.0
 22
0.0
 32
0.0
 13
1.0
 23
0.0
 33
0.0
 40
0.0
 40
0.0
 40
0.0
 40
0.0
 40
0.2
 40
0.2
 40
0.2
 40
0.2
 40
0.4
 40
0.4
 40
0.4
 40
0.4
 40
0.6
 40
0.6
 40
0.6
 40
0.6
 40
1.0
 40
1.0
 40
1.0
 40
1.0
 10
141.6971
 20
-98.4342
 30
0.0
 10
139.5223
 20
-95.2206
 30
0.0
 10
136.7567
 20
-92.4936
 30
0.0
 10
134.0463
 20
-91.0955
 30
0.0
 10
134.0463
 20
-91.0955
 30
0.0
 10
130.9299
 20
-92.8657
 30
0.0
 10
128.9435
 20
-95.2639
 30
0.0
 10
126.5103
 20
-98.3835
 30
0.0
 10
126.5103
 20
-98.3835
 30
0.0
 10
128.2619
 20
-100.9821
 30
0.0
 10
131.6511
 20
-104.498
 30
0.0
 10
134.105
 20
-105.9921
 30
0.0
 10
134.105
 20
-105.9921
 30
0.0
 10
137.2668
 20
-103.6748
 30
0.0
 10
139.0589
 20
-101.8164
 30
0.0
 10
141.6971
 20
-98.4342
 30
0.0
  0
SPLINE
  5
11D
330
1F
100
AcDbEntity
  8
layer 1
 62
     7
100
AcDbSpline
210
0.0
220
0.0
230
1.0
 70
    11
 71
     3
 72
    12
 73
     8
 74
     0
 42
0.0000000001
 43
0.0000000001
 12
1.0
 22
0.0
 32
0.0
 13
1.0
 23
0.0
 33
0.0
 40
0.0
 40
0.0
 40
0.0
 40
0.0
 40
0.3333333333333333
 40
0.3333333333333333
 40
0.3333333333333333
 40
0.3333333333333333
 40
1.0
 40
1.0
 40
1.0
 40
1.0
 10
120.6476
 20
-95.2897
 30
0.0
 10
118.7634
 20
-97.0084
 30
0.0
 10
119.0709
 20
-100.1613
 30
0.0
 10
120.6628
 20
-101.6053
 30
0.0
 10
120.6628
 20
-101.6053
 30
0.0
 10
122.5907
 20
-100.0028
 30
0.0
 10
122.3594
 20
-96.9909
 30
0.0
 10
120.6476
 20
-95.2897
 30
0.0
  0
SPLINE
  5
11E
330
1F
100
AcDbEntity
  8
layer 1
 62
     7
100
AcDbSpline
210
0.0
220
0.0
230
1.0
 70
    11
 71
     3
 72
    20
 73
    16
 74
     0
 42
0.0000000001
 43
0.0000000001
 12
1.0
 22
0.0
 32
0.0
 13
1.0
 23
0.0
 33
0.0
 40
0.0
 40
0.0
 40
0.0
 40
0.0
 40
0.2
 40
0.2
 40
0.2
 40
0.2
 40
0.4
 40
0.4
 40
0.4
 40
0.4
 40
0.6
 40
0.6
 40
0.6
 40
0.6
 40
1.0
 40
1.0
 40
1.0
 40
1.0
 10
119.0171
 20
-86.8273
 30
0.0
 10
117.008
 20
-86.8237
 30
0.0
 10
112.8835
 20
-87.7269
 30
0.0
 10
111.2841
 20
-88.8151
 30
0.0
 10
111.2841
 20
-88.8151
 30
0.0
 10
113.5082
 20
-90.948
 30
0.0
 10
115.2338
 20
-92.6432
 30
0.0
 10
116.8908
 20
-94.579
 30
0.0
 10
116.8908
 20
-94.579
 30
0.0
 10
118.2242
 20
-91.4518
 30
0.0
 10
118.6536
 20
-89.1647
 30
0.0
 10
119.0172
 20
-86.8273
 30
0.0
 10
119.0172
 20
-86.8273
 30
0.0
 10
119.0172
 20
-86.8273
 30
0.0
 10
119.0171
 20
-86.8273
 30
0.0
 10
119.0171
 20
-86.8273
 30
0.0
  0
SPLINE
  5
11F
330
1F
100
AcDbEntity
  8
layer 1
 62
     7
100
AcDbSpline
210
0.0
220
0.0
230
1.0
 70
    11
 71
     3
 72
    20
 73
    16
 74
     0
 42
0.0000000001
 43
0.0000000001
 12
1.0
 22
0.0
 32
0.0
 13
1.0
 23
0.0
 33
0.0
 40
0.0
 40
0.0
 40
0.0
 40
0.0
 40
0.2
 40
0.2
 40
0.2
 40
0.2
 40
0.4
 40
0.4
 40
0.4
 40
0.4
 40
0.6
 40
0.6
 40
0.6
 40
0.6
 40
1.0
 40
1.0
 40
1.0
 40
1.0
 10
122.405
 20
-86.8273
 30
0.0
 10
124.4142
 20
-86.8237
 30
0.0
 10
128.5387
 20
-87.7269
 30
0.0
 10
130.138
 20
-88.8151
 30
0.0
 10
130.138
 20
-88.8151
 30
0.0
 10
127.9139
 20
-90.948
 30
0.0
 10
126.1883
 20
-92.6432
 30
0.0
 10
124.5313
 20
-94.579
 30
0.0
 10
124.5313
 20
-94.579
 30
0.0
 10
123.1979
 20
-91.4518
 30
0.0
 10
122.7685
 20
-89.1647
 30
0.0
 10
122.4049
 20
-86.8273
 30
0.0
 10
122.4049
 20
-86.8273
 30
0.0
 10
122.4049
 20
-86.8273
 30
0.0
 10
122.405
 20
-86.8273
 30
0.0
 10
122.405
 20
-86.8273
 30
0.0
  0
SPLINE
  5
120
330
1F
100
AcDbEntity
  8
layer 1
 62
     7
100
AcDbSpline
210
0.0
220
0.0
230
1.0
 70
    11
 71
     3
 72
    12
 73
     8
 74
     0
 42
0.0000000001
 43
0.0000000001
 12
1.0
 22
0.0
 32
0.0
 13
1.0
 23
0.0
 33
0.0
 40
0.0
 40
0.0
 40
0.0
 40
0.0
 40
0.3333333333333333
 40
0.3333333333333333
 40
0.3333333333333333
 40
0.3333333333333333
 40
1.0
 40
1.0
 40
1.0
 40
1.0
 10
137.3173
 20
-85.0224
 30
0.0
 10
135.5985
 20
-83.1382
 30
0.0
 10
132.4456
 20
-83.4457
 30
0.0
 10
131.0017
 20
-85.0376
 30
0.0
 10
131.0017
 20
-85.0376
 30
0.0
 10
132.6042
 20
-86.9655
 30
0.0
 10
135.6161
 20
-86.7342
 30
0.0
 10
137.3173
 20
-85.0224
 30
0.0
  0
SPLINE
  5
121
330
1F
100
AcDbEntity
  8
layer 1
 62
     7
100
AcDbSpline
210
0.0
220
0.0
230
1.0
 70
    11
 71
     3
 72
    20
 73
    16
 74
     0
 42
0.0000000001
 43
0.0000000001
 12
1.0
 22
0.0
 32
0.0
 13
1.0
 23
0.0
 33
0.0
 40
0.0
 40
0.0
 40
0.0
 40
0.0
 40
0.2
 40
0.2
 40
0.2
 40
0.2
 40
0.4
 40
0.4
 40
0.4
 40
0.4
 40
0.6
 40
0.6
 40
0.6
 40
0.6
 40
1.0
 40
1.0
 40
1.0
 40
1.0
 10
168.4721
 20
-98.4342
 30
0.0
 10
166.2972
 20
-95.2206
 30
0.0
 10
163.5317
 20
-92.4936
 30
0.0
 10
160.8213
 20
-91.0955
 30
0.0
 10
160.8213
 20
-91.0955
 30
0.0
 10
157.7048
 20
-92.8657
 30
0.0
 10
155.7185
 20
-95.2639
 30
0.0
 10
153.2852
 20
-98.3835
 30
0.0
 10
153.2852
 20
-98.3835
 30
0.0
 10
155.0368
 20
-100.9821
 30
0.0
 10
158.426
 20
-104.498
 30
0.0
 10
160.88
 20
-105.9921
 30
0.0
 10
160.88
 20
-105.9921
 30
0.0
 10
164.0418
 20
-103.6748
 30
0.0
 10
165.8339
 20
-101.8164
 30
0.0
 10
168.4721
 20
-98.4342
 30
0.0
  0
SPLINE
  5
122
330
1F
100
AcDbEntity
  8
layer 1
 62
     7
100
AcDbSpline
210
0.0
220
0.0
230
1.0
 70
    11
 71
     3
 72
    12
 73
     8
 74
     0
 42
0.0000000001
 43
0.0000000001
 12
1.0
 22
0.0
 32
0.0
 13
1.0
 23
0.0
 33
0.0
 40
0.0
 40
0.0
 40
0.0
 40
0.0
 40
0.3333333333333333
 40
0.3333333333333333
 40
0.3333333333333333
 40
0.3333333333333333
 40
1.0
 40
1.0
 40
1.0
 40
1.0
 10
147.4226
 20
-95.2897
 30
0.0
 10
145.5383
 20
-97.0084
 30
0.0
 10
145.8459
 20
-100.1613
 30
0.0
 10
147.4378
 20
-101.6053
 30
0.0
 10
147.4378
 20
-101.6053
 30
0.0
 10
149.3657
 20
-100.0028
 30
0.0
 10
149.1344
 20
-96.9909
 30
0.0
 10
147.4226
 20
-95.2897
 30
0.0
  0
SPLINE
  5
123
330
1F
100
AcDbEntity
  8
layer 1
 62
     7
100
AcDbSpline
210
0.0
220
0.0
230
1.0
 70
    11
 71
     3
 72
    20
 73
    16
 74
     0
 42
0.0000000001
 43
0.0000000001
 12
1.0
 22
0.0
 32
0.0
 13
1.0
 23
0.0
 33
0.0
 40
0.0
 40
0.0
 40
0.0
 40
0.0
 40
0.2
 40
0.2
 40
0.2
 40
0.2
 40
0.4
 40
0.4
 40
0.4
 40
0.4
 40
0.6
 40
0.6
 40
0.6
 40
0.6
 40
1.0
 40
1.0
 40
1.0
 40
1.0
 10
145.792
 20
-86.8273
 30
0.0
 10
143.7829
 20
-86.8237
 30
0.0
 10
139.6584
 20
-87.7269
 30
0.0
 10
138.059
 20
-88.8151
 30
0.0
 10
138.059
 20
-88.8151
 30
0.0
 10
140.2832
 20
-90.948
 30
0.0
 10
142.0087
 20
-92.6432
 30
0.0
 10
143.6658
 20
-94.579
 30
0.0
 10
143.6658
 20
-94.579
 30
0.0
 10
144.9991
 20
-91.4518
 30
0.0
 10
145.4285
 20
-89.1647
 30
0.0
 10
145.7922
 20
-86.8273
 30
0.0
 10
145.7922
 20
-86.8273
 30
0.0
 10
145.7922
 20
-86.8273
 30
0.0
 10
145.792
 20
-86.8273
 30
0.0
 10
145.792
 20
-86.8273
 30
0.0
  0
SPLINE
  5
124
330
1F
100
AcDbEntity
  8
layer 1
 62
     7
100
AcDbSpline
210
0.0
220
0.0
230
1.0
 70
    11
 71
     3
 72
    20
 73
    16
 74
     0
 42
0.0000000001
 43
0.0000000001
 12
1.0
 22
0.0
 32
0.0
 13
1.0
 23
0.0
 33
0.0
 40
0.0
 40
0.0
 40
0.0
 40
0.0
 40
0.2
 40
0.2
 40
0.2
 40
0.2
 40
0.4
 40
0.4
 40
0.4
 40
0.4
 40
0.6
 40
0.6
 40
0.6
 40
0.6
 40
1.0
 40
1.0
 40
1.0
 40
1.0
 10
149.18
 20
-86.8273
 30
0.0
 10
151.1891
 20
-86.8237
 30
0.0
 10
155.3136
 20
-87.7269
 30
0.0
 10
156.913
 20
-88.8151
 30
0.0
 10
156.913
 20
-88.8151
 30
0.0
 10
154.6888
 20
-90.948
 30
0.0
 10
152.9633
 20
-92.6432
 30
0.0
 10
151.3062
 20
-94.579
 30
0.0
 10
151.3062
 20
-94.579
 30
0.0
 10
149.9729
 20
-91.4518
 30
0.0
 10
149.5435
 20
-89.1647
 30
0.0
 10
149.1799
 20
-86.8273
 30
0.0
 10
149.1799
 20
-86.8273
 30
0.0
 10
149.1799
 20
-86.8273
 30
0.0
 10
149.18
 20
-86.8273
 30
0.0
 10
149.18
 20
-86.8273
 30
0.0
  0
SPLINE
  5
125
330
1F
100
AcDbEntity
  8
layer 1
 62
     7
100
AcDbSpline
210
0.0
220
0.0
230
1.0
 70
    11
 71
     3
 72
    12
 73
     8
 74
     0
 42
0.0000000001
 43
0.0000000001
 12
1.0
 22
0.0
 32
0.0
 13
1.0
 23
0.0
 33
0.0
 40
0.0
 40
0.0
 40
0.0
 40
0.0
 40
0.3333333333333333
 40
0.3333333333333333
 40
0.3333333333333333
 40
0.3333333333333333
 40
1.0
 40
1.0
 40
1.0
 40
1.0
 10
164.0922
 20
-85.0224
 30
0.0
 10
162.3735
 20
-83.1382
 30
0.0
 10
159.2206
 20
-83.4457
 30
0.0
 10
157.7766
 20
-85.0376
 30
0.0
 10
157.7766
 20
-85.0376
 30
0.0
 10
159.3791
 20
-86.9655
 30
0.0
 10
162.391
 20
-86.7342
 30
0.0
 10
164.0922
 20
-85.0224
 30
0.0
  0
SPLINE
  5
126
330
1F
100
AcDbEntity
  8
layer 1
 62
     7
100
AcDbSpline
210
0.0
220
0.0
230
1.0
 70
    11
 71
     3
 72
    24
 73
    20
 74
     0
 42
0.0000000001
 43
0.0000000001
 12
1.0
 22
0.0
 32
0.0
 13
1.0
 23
0.0
 33
0.0
 40
0.0
 40
0.0
 40
0.0
 40
0.0
 40
0.1666666666666667
 40
0.1666666666666667
 40
0.1666666666666667
 40
0.1666666666666667
 40
0.3333333333333333
 40
0.3333333333333333
 40
0.3333333333333333
 40
0.3333333333333333
 40
0.5
 40
0.5
 40
0.5
 40
0.5
 40
0.6666666666666666
 40
0.6666666666666666
 40
0.6666666666666666
 40
0.6666666666666666
 40
1.0
 40
1.0
 40
1.0
 40
1.0
 10
188.7052
 20
-91.6834
 30
0.0
 10
188.3644
 20
-91.4676
 30
0.0
 10
188.0232
 20
-91.2711
 30
0.0
 10
187.6828
 20
-91.0955
 30
0.0
 10
187.6828
 20
-91.0955
 30
0.0
 10
184.5663
 20
-92.8657
 30
0.0
 10
182.58
 20
-95.2639
 30
0.0
 10
180.1468
 20
-98.3835
 30
0.0
 10
180.1468
 20
-98.3835
 30
0.0
 10
181.8984
 20
-100.9821
 30
0.0
 10
185.2875
 20
-104.498
 30
0.0
 10
187.7415
 20
-105.9921
 30
0.0
 10
187.7415
 20
-105.9921
 30
0.0
 10
188.0553
 20
-105.7622
 30
0.0
 10
188.3557
 20
-105.5367
 30
0.0
 10
188.6446
 20
-105.3138
 30
0.0
 10
188.6446
 20
-105.3138
 30
0.0
 10
188.6446
 20
-105.3138
 30
0.0
 10
188.7052
 20
-91.6834
 30
0.0
 10
188.7052
 20
-91.6834
 30
0.0
  0
SPLINE
  5
127
330
1F
100
AcDbEntity
  8
layer 1
 62
     7
100
AcDbSpline
210
0.0
220
0.0
230
1.0
 70
    11
 71
     3
 72
    12
 73
     8
 74
     0
 42
0.0000000001
 43
0.0000000001
 12
1.0
 22
0.0
 32
0.0
 13
1.0
 23
0.0
 33
0.0
 40
0.0
 40
0.0
 40
0.0
 40
0.0
 40
0.3333333333333333
 40
0.3333333333333333
 40
0.3333333333333333
 40
0.3333333333333333
 40
1.0
 40
1.0
 40
1.0
 40
1.0
 10
174.2843
 20
-95.2897
 30
0.0
 10
172.4
 20
-97.0084
 30
0.0
 10
172.7076
 20
-100.1613
 30
0.0
 10
174.2995
 20
-101.6053
 30
0.0
 10
174.2995
 20
-101.6053
 30
0.0
 10
176.2273
 20
-100.0028
 30
0.0
 10
175.9961
 20
-96.9909
 30
0.0
 10
174.2843
 20
-95.2897
 30
0.0
  0
SPLINE
  5
128
330
1F
100
AcDbEntity
  8
layer 1
 62
     7
100
AcDbSpline
210
0.0
220
0.0
230
1.0
 70
    11
 71
     3
 72
    20
 73
    16
 74
     0
 42
0.0000000001
 43
0.0000000001
 12
1.0
 22
0.0
 32
0.0
 13
1.0
 23
0.0
 33
0.0
 40
0.0
 40
0.0
 40
0.0
 40
0.0
 40
0.2
 40
0.2
 40
0.2
 40
0.2
 40
0.4
 40
0.4
 40
0.4
 40
0.4
 40
0.6
 40
0.6
 40
0.6
 40
0.6
 40
1.0
 40
1.0
 40
1.0
 40
1.0
 10
172.6537
 20
-86.8273
 30
0.0
 10
170.6446
 20
-86.8237
 30
0.0
 10
166.5201
 20
-87.7269
 30
0.0
 10
164.9207
 20
-88.8151
 30
0.0
 10
164.9207
 20
-88.8151
 30
0.0
 10
167.1449
 20
-90.948
 30
0.0
 10
168.8704
 20
-92.6432
 30
0.0
 10
170.5274
 20
-94.579
 30
0.0
 10
170.5274
 20
-94.579
 30
0.0
 10
171.8608
 20
-91.4518
 30
0.0
 10
172.2902
 20
-89.1647
 30
0.0
 10
172.6538
 20
-86.8273
 30
0.0
 10
172.6538
 20
-86.8273
 30
0.0
 10
172.6538
 20
-86.8273
 30
0.0
 10
172.6537
 20
-86.8273
 30
0.0
 10
172.6537
 20
-86.8273
 30
0.0
  0
SPLINE
  5
129
330
1F
100
AcDbEntity
  8
layer 1
 62
     7
100
AcDbSpline
210
0.0
220
0.0
230
1.0
 70
    11
 71
     3
 72
    20
 73
    16
 74
     0
 42
0.0000000001
 43
0.0000000001
 12
1.0
 22
0.0
 32
0.0
 13
1.0
 23
0.0
 33
0.0
 40
0.0
 40
0.0
 40
0.0
 40
0.0
 40
0.2
 40
0.2
 40
0.2
 40
0.2
 40
0.4
 40
0.4
 40
0.4
 40
0.4
 40
0.6
 40
0.6
 40
0.6
 40
0.6
 40
1.0
 40
1.0
 40
1.0
 40
1.0
 10
176.0415
 20
-86.8273
 30
0.0
 10
178.0506
 20
-86.8237
 30
0.0
 10
182.1751
 20
-87.7269
 30
0.0
 10
183.7745
 20
-88.8151
 30
0.0
 10
183.7745
 20
-88.8151
 30
0.0
 10
181.5504
 20
-90.948
 30
0.0
 10
179.8248
 20
-92.6432
 30
0.0
 10
178.1678
 20
-94.579
 30
0.0
 10
178.1678
 20
-94.579
 30
0.0
 10
176.8344
 20
-91.4518
 30
0.0
 10
176.405
 20
-89.1647
 30
0.0
 10
176.0414
 20
-86.8273
 30
0.0
 10
176.0414
 20
-86.8273
 30
0.0
 10
176.0414
 20
-86.8273
 30
0.0
 10
176.0415
 20
-86.8273
 30
0.0
 10
176.0415
 20
-86.8273
 30
0.0
  0
SPLINE
  5
12A
330
1F
100
AcDbEntity
  8
layer 1
 62
     7
100
AcDbSpline
210
0.0
220
0.0
230
1.0
 70
    11
 71
     3
 72
    20
 73
    16
 74
     0
 42
0.0000000001
 43
0.0000000001
 12
1.0
 22
0.0
 32
0.0
 13
1.0
 23
0.0
 33
0.0
 40
0.0
 40
0.0
 40
0.0
 40
0.0
 40
0.2
 40
0.2
 40
0.2
 40
0.2
 40
0.4
 40
0.4
 40
0.4
 40
0.4
 40
0.6
 40
0.6
 40
0.6
 40
0.6
 40
1.0
 40
1.0
 40
1.0
 40
1.0
 10
188.7429
 20
-83.8078
 30
0.0
 10
187.2272
 20
-83.5137
 30
0.0
 10
185.5738
 20
-84.006
 30
0.0
 10
184.6383
 20
-85.0376
 30
0.0
 10
184.6383
 20
-85.0376
 30
0.0
 10
185.6653
 20
-86.2733
 30
0.0
 10
187.2714
 20
-86.6219
 30
0.0
 10
188.7402
 20
-86.2624
 30
0.0
 10
188.7402
 20
-86.2624
 30
0.0
 10
188.7402
 20
-86.2624
 30
0.0
 10
188.743
 20
-83.8079
 30
0.0
 10
188.743
 20
-83.8079
 30
0.0
 10
188.743
 20
-83.8079
 30
0.0
 10
188.743
 20
-83.8079
 30
0.0
 10
188.7429
 20
-83.8078
 30
0.0
 10
188.7429
 20
-83.8078
 30
0.0
  0
SPLINE
  5
12B
330
1F
100
AcDbEntity
  8
layer 1
 62
     7
100
AcDbSpline
210
0.0
220
0.0
230
1.0
 70
    11
 71
     3
 72
    24
 73
    20
 74
     0
 42
0.0000000001
 43
0.0000000001
 12
1.0
 22
0.0
 32
0.0
 13
1.0
 23
0.0
 33
0.0
 40
0.0
 40
0.0
 40
0.0
 40
0.0
 40
0.1666666666666667
 40
0.1666666666666667
 40
0.1666666666666667
 40
0.1666666666666667
 40
0.3333333333333333
 40
0.3333333333333333
 40
0.3333333333333333
 40
0.3333333333333333
 40
0.5
 40
0.5
 40
0.5
 40
0.5
 40
0.6666666666666666
 40
0.6666666666666666
 40
0.6666666666666666
 40
0.6666666666666666
 40
1.0
 40
1.0
 40
1.0
 40
1.0
 10
79.3077
 20
-91.6834
 30
0.0
 10
79.6485
 20
-91.4676
 30
0.0
 10
79.9897
 20
-91.2711
 30
0.0
 10
80.3302
 20
-91.0955
 30
0.0
 10
80.3302
 20
-91.0955
 30
0.0
 10
83.4466
 20
-92.8657
 30
0.0
 10
85.4329
 20
-95.2639
 30
0.0
 10
87.8662
 20
-98.3835
 30
0.0
 10
87.8662
 20
-98.3835
 30
0.0
 10
86.1146
 20
-100.9821
 30
0.0
 10
82.7254
 20
-104.498
 30
0.0
 10
80.2715
 20
-105.9921
 30
0.0
 10
80.2715
 20
-105.9921
 30
0.0
 10
79.9576
 20
-105.7622
 30
0.0
 10
79.6573
 20
-105.5367
 30
0.0
 10
79.3684
 20
-105.3138
 30
0.0
 10
79.3684
 20
-105.3138
 30
0.0
 10
79.3684
 20
-105.3138
 30
0.0
 10
79.3077
 20
-91.6834
 30
0.0
 10
79.3077
 20
-91.6834
 30
0.0
  0
SPLINE
  5
12C
330
1F
100
AcDbEntity
  8
layer 1
 62
     7
100
AcDbSpline
210
0.0
220
0.0
230
1.0
 70
    11
 71
     3
 72
    16
 73
    12
 74
     0
 42
0.0000000001
 43
0.0000000001
 12
1.0
 22
0.0
 32
0.0
 13
1.0
 23
0.0
 33
0.0
 40
0.0
 40
0.0
 40
0.0
 40
0.0
 40
0.25
 40
0.25
 40
0.25
 40
0.25
 40
0.5
 40
0.5
 40
0.5
 40
0.5
 40
1.0
 40
1.0
 40
1.0
 40
1.0
 10
112.1285
 20
-107.2697
 30
0.0
 10
113.9794
 20
-105.4825
 30
0.0
 10
115.4867
 20
-103.9686
 30
0.0
 10
116.9413
 20
-102.2695
 30
0.0
 10
116.9413
 20
-102.2695
 30
0.0
 10
117.7577
 20
-104.1844
 30
0.0
 10
118.2353
 20
-105.7843
 30
0.0
 10
118.5663
 20
-107.2736
 30
0.0
 10
118.5663
 20
-107.2736
 30
0.0
 10
118.5663
 20
-107.2736
 30
0.0
 10
112.1285
 20
-107.2697
 30
0.0
 10
112.1285
 20
-107.2697
 30
0.0
  0
SPLINE
  5
12D
330
1F
100
AcDbEntity
  8
layer 1
 62
     7
100
AcDbSpline
210
0.0
220
0.0
230
1.0
 70
    11
 71
     3
 72
    16
 73
    12
 74
     0
 42
0.0000000001
 43
0.0000000001
 12
1.0
 22
0.0
 32
0.0
 13
1.0
 23
0.0
 33
0.0
 40
0.0
 40
0.0
 40
0.0
 40
0.0
 40
0.25
 40
0.25
 40
0.25
 40
0.25
 40
0.5
 40
0.5
 40
0.5
 40
0.5
 40
1.0
 40
1.0
 40
1.0
 40
1.0
 10
129.3643
 20
-107.2697
 30
0.0
 10
127.5133
 20
-105.4825
 30
0.0
 10
126.0061
 20
-103.9686
 30
0.0
 10
124.5515
 20
-102.2695
 30
0.0
 10
124.5515
 20
-102.2695
 30
0.0
 10
123.735
 20
-104.1844
 30
0.0
 10
123.2574
 20
-105.7843
 30
0.0
 10
122.9264
 20
-107.2736
 30
0.0
 10
122.9264
 20
-107.2736
 30
0.0
 10
122.9264
 20
-107.2736
 30
0.0
 10
129.3643
 20
-107.2697
 30
0.0
 10
129.3643
 20
-107.2697
 30
0.0
  0
SPLINE
  5
12E
330
1F
100
AcDbEntity
  8
layer 1
 62
     7
100
AcDbSpline
210
0.0
220
0.0
230
1.0
 70
    11
 71
     3
 72
    16
 73
    12
 74
     0
 42
0.0000000001
 43
0.0000000001
 12
1.0
 22
0.0
 32
0.0
 13
1.0
 23
0.0
 33
0.0
 40
0.0
 40
0.0
 40
0.0
 40
0.0
 40
0.25
 40
0.25
 40
0.25
 40
0.25
 40
0.5
 40
0.5
 40
0.5
 40
0.5
 40
1.0
 40
1.0
 40
1.0
 40
1.0
 10
138.7914
 20
-107.2697
 30
0.0
 10
140.6423
 20
-105.4825
 30
0.0
 10
142.1496
 20
-103.9686
 30
0.0
 10
143.6042
 20
-102.2695
 30
0.0
 10
143.6042
 20
-102.2695
 30
0.0
 10
144.4206
 20
-104.1844
 30
0.0
 10
144.8983
 20
-105.7843
 30
0.0
 10
145.2292
 20
-107.2736
 30
0.0
 10
145.2292
 20
-107.2736
 30
0.0
 10
145.2292
 20
-107.2736
 30
0.0
 10
138.7914
 20
-107.2697
 30
0.0
 10
138.7914
 20
-107.2697
 30
0.0
  0
SPLINE
  5
12F
330
1F
100
AcDbEntity
  8
layer 1
 62
     7
100
AcDbSpline
210
0.0
220
0.0
230
1.0
 70
    11
 71
     3
 72
    16
 73
    12
 74
     0
 42
0.0000000001
 43
0.0000000001
 12
1.0
 22
0.0
 32
0.0
 13
1.0
 23
0.0
 33
0.0
 40
0.0
 40
0.0
 40
0.0
 40
0.0
 40
0.25
 40
0.25
 40
0.25
 40
0.25
 40
0.5
 40
0.5
 40
0.5
 40
0.5
 40
1.0
 40
1.0
 40
1.0
 40
1.0
 10
156.0272
 20
-107.2697
 30
0.0
 10
154.1762
 20
-105.4825
 30
0.0
 10
152.669
 20
-103.9686
 30
0.0
 10
151.2144
 20
-102.2695
 30
0.0
 10
151.2144
 20
-102.2695
 30
0.0
 10
150.3979
 20
-104.1844
 30
0.0
 10
149.9203
 20
-105.7843
 30
0.0
 10
149.5893
 20
-107.2736
 30
0.0
 10
149.5893
 20
-107.2736
 30
0.0
 10
149.5893
 20
-107.2736
 30
0.0
 10
156.0272
 20
-107.2697
 30
0.0
 10
156.0272
 20
-107.2697
 30
0.0
  0
SPLINE
  5
130
330
1F
100
AcDbEntity
  8
layer 1
 62
     7
100
AcDbSpline
210
0.0
220
0.0
230
1.0
 70
    11
 71
     3
 72
    16
 73
    12
 74
     0
 42
0.0000000001
 43
0.0000000001
 12
1.0
 22
0.0
 32
0.0
 13
1.0
 23
0.0
 33
0.0
 40
0.0
 40
0.0
 40
0.0
 40
0.0
 40
0.25
 40
0.25
 40
0.25
 40
0.25
 40
0.5
 40
0.5
 40
0.5
 40
0.5
 40
1.0
 40
1.0
 40
1.0
 40
1.0
 10
165.6203
 20
-107.2697
 30
0.0
 10
167.4713
 20
-105.4825
 30
0.0
 10
168.9785
 20
-103.9686
 30
0.0
 10
170.4331
 20
-102.2695
 30
0.0
 10
170.4331
 20
-102.2695
 30
0.0
 10
171.2496
 20
-104.1844
 30
0.0
 10
171.7272
 20
-105.7843
 30
0.0
 10
172.0582
 20
-107.2736
 30
0.0
 10
172.0582
 20
-107.2736
 30
0.0
 10
172.0582
 20
-107.2736
 30
0.0
 10
165.6203
 20
-107.2697
 30
0.0
 10
165.6203
 20
-107.2697
 30
0.0
  0
SPLINE
  5
131
330
1F
100
AcDbEntity
  8
layer 1
 62
     7
100
AcDbSpline
210
0.0
220
0.0
230
1.0
 70
    11
 71
     3
 72
    16
 73
    12
 74
     0
 42
0.0000000001
 43
0.0000000001
 12
1.0
 22
0.0
 32
0.0
 13
1.0
 23
0.0
 33
0.0
 40
0.0
 40
0.0
 40
0.0
 40
0.0
 40
0.25
 40
0.25
 40
0.25
 40
0.25
 40
0.5
 40
0.5
 40
0.5
 40
0.5
 40
1.0
 40
1.0
 40
1.0
 40
1.0
 10
182.8561
 20
-107.2697
 30
0.0
 10
181.0052
 20
-105.4825
 30
0.0
 10
179.4979
 20
-103.9686
 30
0.0
 10
178.0433
 20
-102.2695
 30
0.0
 10
178.0433
 20
-102.2695
 30
0.0
 10
177.2268
 20
-104.1844
 30
0.0
 10
176.7492
 20
-105.7843
 30
0.0
 10
176.4182
 20
-107.2736
 30
0.0
 10
176.4182
 20
-107.2736
 30
0.0
 10
176.4182
 20
-107.2736
 30
0.0
 10
182.8561
 20
-107.2697
 30
0.0
 10
182.8561
 20
-107.2697
 30
0.0
  0
SPLINE
  5
132
330
1F
100
AcDbEntity
  8
layer 1
 62
     7
100
AcDbSpline
210
0.0
220
0.0
230
1.0
 70
    11
 71
     3
 72
    20
 73
    16
 74
     0
 42
0.0000000001
 43
0.0000000001
 12
1.0
 22
0.0
 32
0.0
 13
1.0
 23
0.0
 33
0.0
 40
0.0
 40
0.0
 40
0.0
 40
0.0
 40
0.2
 40
0.2
 40
0.2
 40
0.2
 40
0.4
 40
0.4
 40
0.4
 40
0.4
 40
0.6
 40
0.6
 40
0.6
 40
0.6
 40
1.0
 40
1.0
 40
1.0
 40
1.0
 10
114.8356
 20
115.8254
 30
0.0
 10
112.6607
 20
119.039
 30
0.0
 10
109.8952
 20
121.766
 30
0.0
 10
107.1848
 20
123.1642
 30
0.0
 10
107.1848
 20
123.1642
 30
0.0
 10
104.0683
 20
121.3939
 30
0.0
 10
102.082
 20
118.9958
 30
0.0
 10
99.6487
 20
115.8762
 30
0.0
 10
99.6487
 20
115.8762
 30
0.0
 10
101.4004
 20
113.2775
 30
0.0
 10
104.7895
 20
109.7617
 30
0.0
 10
107.2435
 20
108.2675
 30
0.0
 10
107.2435
 20
108.2675
 30
0.0
 10
110.4053
 20
110.5848
 30
0.0
 10
112.1974
 20
112.4432
 30
0.0
 10
114.8356
 20
115.8254
 30
0.0
  0
SPLINE
  5
133
330
1F
100
AcDbEntity
  8
layer 1
 62
     7
100
AcDbSpline
210
0.0
220
0.0
230
1.0
 70
    11
 71
     3
 72
    12
 73
     8
 74
     0
 42
0.0000000001
 43
0.0000000001
 12
1.0
 22
0.0
 32
0.0
 13
1.0
 23
0.0
 33
0.0
 40
0.0
 40
0.0
 40
0.0
 40
0.0
 40
0.3333333333333333
 40
0.3333333333333333
 40
0.3333333333333333
 40
0.3333333333333333
 40
1.0
 40
1.0
 40
1.0
 40
1.0
 10
93.7861
 20
118.9698
 30
0.0
 10
91.9019
 20
117.2511
 30
0.0
 10
92.2094
 20
114.0982
 30
0.0
 10
93.8013
 20
112.6542
 30
0.0
 10
93.8013
 20
112.6542
 30
0.0
 10
95.7292
 20
114.2567
 30
0.0
 10
95.4979
 20
117.2686
 30
0.0
 10
93.7861
 20
118.9698
 30
0.0
  0
SPLINE
  5
134
330
1F
100
AcDbEntity
  8
layer 1
 62
     7
100
AcDbSpline
210
0.0
220
0.0
230
1.0
 70
    11
 71
     3
 72
    20
 73
    16
 74
     0
 42
0.0000000001
 43
0.0000000001
 12
1.0
 22
0.0
 32
0.0
 13
1.0
 23
0.0
 33
0.0
 40
0.0
 40
0.0
 40
0.0
 40
0.0
 40
0.2
 40
0.2
 40
0.2
 40
0.2
 40
0.4
 40
0.4
 40
0.4
 40
0.4
 40
0.6
 40
0.6
 40
0.6
 40
0.6
 40
1.0
 40
1.0
 40
1.0
 40
1.0
 10
92.1555
 20
104.2383
 30
0.0
 10
90.1464
 20
104.2348
 30
0.0
 10
86.0219
 20
105.138
 30
0.0
 10
84.4226
 20
106.2263
 30
0.0
 10
84.4226
 20
106.2263
 30
0.0
 10
86.6467
 20
108.3591
 30
0.0
 10
88.3722
 20
110.0544
 30
0.0
 10
90.0293
 20
111.9901
 30
0.0
 10
90.0293
 20
111.9901
 30
0.0
 10
91.3627
 20
108.8629
 30
0.0
 10
91.792
 20
106.5759
 30
0.0
 10
92.1557
 20
104.2384
 30
0.0
 10
92.1557
 20
104.2384
 30
0.0
 10
92.1557
 20
104.2384
 30
0.0
 10
92.1555
 20
104.2383
 30
0.0
 10
92.1555
 20
104.2383
 30
0.0
  0
SPLINE
  5
135
330
1F
100
AcDbEntity
  8
layer 1
 62
     7
100
AcDbSpline
210
0.0
220
0.0
230
1.0
 70
    11
 71
     3
 72
    20
 73
    16
 74
     0
 42
0.0000000001
 43
0.0000000001
 12
1.0
 22
0.0
 32
0.0
 13
1.0
 23
0.0
 33
0.0
 40
0.0
 40
0.0
 40
0.0
 40
0.0
 40
0.2
 40
0.2
 40
0.2
 40
0.2
 40
0.4
 40
0.4
 40
0.4
 40
0.4
 40
0.6
 40
0.6
 40
0.6
 40
0.6
 40
1.0
 40
1.0
 40
1.0
 40
1.0
 10
95.5435
 20
104.2383
 30
0.0
 10
97.5526
 20
104.2348
 30
0.0
 10
101.6771
 20
105.138
 30
0.0
 10
103.2765
 20
106.2262
 30
0.0
 10
103.2765
 20
106.2262
 30
0.0
 10
101.0523
 20
108.359
 30
0.0
 10
99.3268
 20
110.0543
 30
0.0
 10
97.6698
 20
111.99
 30
0.0
 10
97.6698
 20
111.99
 30
0.0
 10
96.3364
 20
108.8628
 30
0.0
 10
95.907
 20
106.5758
 30
0.0
 10
95.5434
 20
104.2383
 30
0.0
 10
95.5434
 20
104.2383
 30
0.0
 10
95.5434
 20
104.2383
 30
0.0
 10
95.5435
 20
104.2383
 30
0.0
 10
95.5435
 20
104.2383
 30
0.0
  0
SPLINE
  5
136
330
1F
100
AcDbEntity
  8
layer 1
 62
     7
100
AcDbSpline
210
0.0
220
0.0
230
1.0
 70
    11
 71
     3
 72
    20
 73
    16
 74
     0
 42
0.0000000001
 43
0.0000000001
 12
1.0
 22
0.0
 32
0.0
 13
1.0
 23
0.0
 33
0.0
 40
0.0
 40
0.0
 40
0.0
 40
0.0
 40
0.2
 40
0.2
 40
0.2
 40
0.2
 40
0.4
 40
0.4
 40
0.4
 40
0.4
 40
0.6
 40
0.6
 40
0.6
 40
0.6
 40
1.0
 40
1.0
 40
1.0
 40
1.0
 10
141.6971
 20
115.8254
 30
0.0
 10
139.5223
 20
119.039
 30
0.0
 10
136.7567
 20
121.766
 30
0.0
 10
134.0463
 20
123.1642
 30
0.0
 10
134.0463
 20
123.1642
 30
0.0
 10
130.9299
 20
121.3939
 30
0.0
 10
128.9435
 20
118.9958
 30
0.0
 10
126.5103
 20
115.8762
 30
0.0
 10
126.5103
 20
115.8762
 30
0.0
 10
128.2619
 20
113.2775
 30
0.0
 10
131.6511
 20
109.7617
 30
0.0
 10
134.105
 20
108.2675
 30
0.0
 10
134.105
 20
108.2675
 30
0.0
 10
137.2668
 20
110.5848
 30
0.0
 10
139.0589
 20
112.4432
 30
0.0
 10
141.6971
 20
115.8254
 30
0.0
  0
SPLINE
  5
137
330
1F
100
AcDbEntity
  8
layer 1
 62
     7
100
AcDbSpline
210
0.0
220
0.0
230
1.0
 70
    11
 71
     3
 72
    12
 73
     8
 74
     0
 42
0.0000000001
 43
0.0000000001
 12
1.0
 22
0.0
 32
0.0
 13
1.0
 23
0.0
 33
0.0
 40
0.0
 40
0.0
 40
0.0
 40
0.0
 40
0.3333333333333333
 40
0.3333333333333333
 40
0.3333333333333333
 40
0.3333333333333333
 40
1.0
 40
1.0
 40
1.0
 40
1.0
 10
120.6476
 20
118.9698
 30
0.0
 10
118.7634
 20
117.2511
 30
0.0
 10
119.0709
 20
114.0982
 30
0.0
 10
120.6628
 20
112.6542
 30
0.0
 10
120.6628
 20
112.6542
 30
0.0
 10
122.5907
 20
114.2567
 30
0.0
 10
122.3594
 20
117.2686
 30
0.0
 10
120.6476
 20
118.9698
 30
0.0
  0
SPLINE
  5
138
330
1F
100
AcDbEntity
  8
layer 1
 62
     7
100
AcDbSpline
210
0.0
220
0.0
230
1.0
 70
    11
 71
     3
 72
    20
 73
    16
 74
     0
 42
0.0000000001
 43
0.0000000001
 12
1.0
 22
0.0
 32
0.0
 13
1.0
 23
0.0
 33
0.0
 40
0.0
 40
0.0
 40
0.0
 40
0.0
 40
0.2
 40
0.2
 40
0.2
 40
0.2
 40
0.4
 40
0.4
 40
0.4
 40
0.4
 40
0.6
 40
0.6
 40
0.6
 40
0.6
 40
1.0
 40
1.0
 40
1.0
 40
1.0
 10
119.0171
 20
104.2383
 30
0.0
 10
117.008
 20
104.2348
 30
0.0
 10
112.8835
 20
105.138
 30
0.0
 10
111.2841
 20
106.2262
 30
0.0
 10
111.2841
 20
106.2262
 30
0.0
 10
113.5082
 20
108.359
 30
0.0
 10
115.2338
 20
110.0543
 30
0.0
 10
116.8908
 20
111.99
 30
0.0
 10
116.8908
 20
111.99
 30
0.0
 10
118.2242
 20
108.8628
 30
0.0
 10
118.6536
 20
106.5758
 30
0.0
 10
119.0172
 20
104.2383
 30
0.0
 10
119.0172
 20
104.2383
 30
0.0
 10
119.0172
 20
104.2383
 30
0.0
 10
119.0171
 20
104.2383
 30
0.0
 10
119.0171
 20
104.2383
 30
0.0
  0
SPLINE
  5
139
330
1F
100
AcDbEntity
  8
layer 1
 62
     7
100
AcDbSpline
210
0.0
220
0.0
230
1.0
 70
    11
 71
     3
 72
    20
 73
    16
 74
     0
 42
0.0000000001
 43
0.0000000001
 12
1.0
 22
0.0
 32
0.0
 13
1.0
 23
0.0
 33
0.0
 40
0.0
 40
0.0
 40
0.0
 40
0.0
 40
0.2
 40
0.2
 40
0.2
 40
0.2
 40
0.4
 40
0.4
 40
0.4
 40
0.4
 40
0.6
 40
0.6
 40
0.6
 40
0.6
 40
1.0
 40
1.0
 40
1.0
 40
1.0
 10
122.405
 20
104.2383
 30
0.0
 10
124.4142
 20
104.2348
 30
0.0
 10
128.5387
 20
105.138
 30
0.0
 10
130.138
 20
106.2262
 30
0.0
 10
130.138
 20
106.2262
 30
0.0
 10
127.9139
 20
108.359
 30
0.0
 10
126.1883
 20
110.0543
 30
0.0
 10
124.5313
 20
111.99
 30
0.0
 10
124.5313
 20
111.99
 30
0.0
 10
123.1979
 20
108.8628
 30
0.0
 10
122.7685
 20
106.5758
 30
0.0
 10
122.4049
 20
104.2383
 30
0.0
 10
122.4049
 20
104.2383
 30
0.0
 10
122.4049
 20
104.2383
 30
0.0
 10
122.405
 20
104.2383
 30
0.0
 10
122.405
 20
104.2383
 30
0.0
  0
SPLINE
  5
13A
330
1F
100
AcDbEntity
  8
layer 1
 62
     7
100
AcDbSpline
210
0.0
220
0.0
230
1.0
 70
    11
 71
     3
 72
    20
 73
    16
 74
     0
 42
0.0000000001
 43
0.0000000001
 12
1.0
 22
0.0
 32
0.0
 13
1.0
 23
0.0
 33
0.0
 40
0.0
 40
0.0
 40
0.0
 40
0.0
 40
0.2
 40
0.2
 40
0.2
 40
0.2
 40
0.4
 40
0.4
 40
0.4
 40
0.4
 40
0.6
 40
0.6
 40
0.6
 40
0.6
 40
1.0
 40
1.0
 40
1.0
 40
1.0
 10
168.4721
 20
115.8254
 30
0.0
 10
166.2972
 20
119.039
 30
0.0
 10
163.5317
 20
121.766
 30
0.0
 10
160.8213
 20
123.1642
 30
0.0
 10
160.8213
 20
123.1642
 30
0.0
 10
157.7048
 20
121.3939
 30
0.0
 10
155.7185
 20
118.9958
 30
0.0
 10
153.2852
 20
115.8762
 30
0.0
 10
153.2852
 20
115.8762
 30
0.0
 10
155.0368
 20
113.2775
 30
0.0
 10
158.426
 20
109.7617
 30
0.0
 10
160.88
 20
108.2675
 30
0.0
 10
160.88
 20
108.2675
 30
0.0
 10
164.0418
 20
110.5848
 30
0.0
 10
165.8339
 20
112.4432
 30
0.0
 10
168.4721
 20
115.8254
 30
0.0
  0
SPLINE
  5
13B
330
1F
100
AcDbEntity
  8
layer 1
 62
     7
100
AcDbSpline
210
0.0
220
0.0
230
1.0
 70
    11
 71
     3
 72
    12
 73
     8
 74
     0
 42
0.0000000001
 43
0.0000000001
 12
1.0
 22
0.0
 32
0.0
 13
1.0
 23
0.0
 33
0.0
 40
0.0
 40
0.0
 40
0.0
 40
0.0
 40
0.3333333333333333
 40
0.3333333333333333
 40
0.3333333333333333
 40
0.3333333333333333
 40
1.0
 40
1.0
 40
1.0
 40
1.0
 10
147.4226
 20
118.9698
 30
0.0
 10
145.5383
 20
117.2511
 30
0.0
 10
145.8459
 20
114.0982
 30
0.0
 10
147.4378
 20
112.6542
 30
0.0
 10
147.4378
 20
112.6542
 30
0.0
 10
149.3657
 20
114.2567
 30
0.0
 10
149.1344
 20
117.2686
 30
0.0
 10
147.4226
 20
118.9698
 30
0.0
  0
SPLINE
  5
13C
330
1F
100
AcDbEntity
  8
layer 1
 62
     7
100
AcDbSpline
210
0.0
220
0.0
230
1.0
 70
    11
 71
     3
 72
    20
 73
    16
 74
     0
 42
0.0000000001
 43
0.0000000001
 12
1.0
 22
0.0
 32
0.0
 13
1.0
 23
0.0
 33
0.0
 40
0.0
 40
0.0
 40
0.0
 40
0.0
 40
0.2
 40
0.2
 40
0.2
 40
0.2
 40
0.4
 40
0.4
 40
0.4
 40
0.4
 40
0.6
 40
0.6
 40
0.6
 40
0.6
 40
1.0
 40
1.0
 40
1.0
 40
1.0
 10
145.792
 20
104.2383
 30
0.0
 10
143.7829
 20
104.2348
 30
0.0
 10
139.6584
 20
105.138
 30
0.0
 10
138.059
 20
106.2262
 30
0.0
 10
138.059
 20
106.2262
 30
0.0
 10
140.2832
 20
108.359
 30
0.0
 10
142.0087
 20
110.0543
 30
0.0
 10
143.6658
 20
111.99
 30
0.0
 10
143.6658
 20
111.99
 30
0.0
 10
144.9991
 20
108.8628
 30
0.0
 10
145.4285
 20
106.5758
 30
0.0
 10
145.7922
 20
104.2383
 30
0.0
 10
145.7922
 20
104.2383
 30
0.0
 10
145.7922
 20
104.2383
 30
0.0
 10
145.792
 20
104.2383
 30
0.0
 10
145.792
 20
104.2383
 30
0.0
  0
SPLINE
  5
13D
330
1F
100
AcDbEntity
  8
layer 1
 62
     7
100
AcDbSpline
210
0.0
220
0.0
230
1.0
 70
    11
 71
     3
 72
    20
 73
    16
 74
     0
 42
0.0000000001
 43
0.0000000001
 12
1.0
 22
0.0
 32
0.0
 13
1.0
 23
0.0
 33
0.0
 40
0.0
 40
0.0
 40
0.0
 40
0.0
 40
0.2
 40
0.2
 40
0.2
 40
0.2
 40
0.4
 40
0.4
 40
0.4
 40
0.4
 40
0.6
 40
0.6
 40
0.6
 40
0.6
 40
1.0
 40
1.0
 40
1.0
 40
1.0
 10
149.18
 20
104.2383
 30
0.0
 10
151.1891
 20
104.2348
 30
0.0
 10
155.3136
 20
105.138
 30
0.0
 10
156.913
 20
106.2262
 30
0.0
 10
156.913
 20
106.2262
 30
0.0
 10
154.6888
 20
108.359
 30
0.0
 10
152.9633
 20
110.0543
 30
0.0
 10
151.3062
 20
111.99
 30
0.0
 10
151.3062
 20
111.99
 30
0.0
 10
149.9729
 20
108.8628
 30
0.0
 10
149.5435
 20
106.5758
 30
0.0
 10
149.1799
 20
104.2383
 30
0.0
 10
149.1799
 20
104.2383
 30
0.0
 10
149.1799
 20
104.2383
 30
0.0
 10
149.18
 20
104.2383
 30
0.0
 10
149.18
 20
104.2383
 30
0.0
  0
SPLINE
  5
13E
330
1F
100
AcDbEntity
  8
layer 1
 62
     7
100
AcDbSpline
210
0.0
220
0.0
230
1.0
 70
    11
 71
     3
 72
    24
 73
    20
 74
     0
 42
0.0000000001
 43
0.0000000001
 12
1.0
 22
0.0
 32
0.0
 13
1.0
 23
0.0
 33
0.0
 40
0.0
 40
0.0
 40
0.0
 40
0.0
 40
0.1666666666666667
 40
0.1666666666666667
 40
0.1666666666666667
 40
0.1666666666666667
 40
0.3333333333333333
 40
0.3333333333333333
 40
0.3333333333333333
 40
0.3333333333333333
 40
0.5
 40
0.5
 40
0.5
 40
0.5
 40
0.6666666666666666
 40
0.6666666666666666
 40
0.6666666666666666
 40
0.6666666666666666
 40
1.0
 40
1.0
 40
1.0
 40
1.0
 10
188.7052
 20
122.5762
 30
0.0
 10
188.3644
 20
122.792
 30
0.0
 10
188.0232
 20
122.9886
 30
0.0
 10
187.6828
 20
123.1642
 30
0.0
 10
187.6828
 20
123.1642
 30
0.0
 10
184.5663
 20
121.3939
 30
0.0
 10
182.58
 20
118.9958
 30
0.0
 10
180.1468
 20
115.8762
 30
0.0
 10
180.1468
 20
115.8762
 30
0.0
 10
181.8984
 20
113.2775
 30
0.0
 10
185.2875
 20
109.7617
 30
0.0
 10
187.7415
 20
108.2675
 30
0.0
 10
187.7415
 20
108.2675
 30
0.0
 10
188.0553
 20
108.4975
 30
0.0
 10
188.3557
 20
108.723
 30
0.0
 10
188.6446
 20
108.9459
 30
0.0
 10
188.6446
 20
108.9459
 30
0.0
 10
188.6446
 20
108.9459
 30
0.0
 10
188.7052
 20
122.5762
 30
0.0
 10
188.7052
 20
122.5762
 30
0.0
  0
SPLINE
  5
13F
330
1F
100
AcDbEntity
  8
layer 1
 62
     7
100
AcDbSpline
210
0.0
220
0.0
230
1.0
 70
    11
 71
     3
 72
    12
 73
     8
 74
     0
 42
0.0000000001
 43
0.0000000001
 12
1.0
 22
0.0
 32
0.0
 13
1.0
 23
0.0
 33
0.0
 40
0.0
 40
0.0
 40
0.0
 40
0.0
 40
0.3333333333333333
 40
0.3333333333333333
 40
0.3333333333333333
 40
0.3333333333333333
 40
1.0
 40
1.0
 40
1.0
 40
1.0
 10
174.2843
 20
118.9698
 30
0.0
 10
172.4
 20
117.2511
 30
0.0
 10
172.7076
 20
114.0982
 30
0.0
 10
174.2995
 20
112.6542
 30
0.0
 10
174.2995
 20
112.6542
 30
0.0
 10
176.2273
 20
114.2567
 30
0.0
 10
175.9961
 20
117.2686
 30
0.0
 10
174.2843
 20
118.9698
 30
0.0
  0
SPLINE
  5
140
330
1F
100
AcDbEntity
  8
layer 1
 62
     7
100
AcDbSpline
210
0.0
220
0.0
230
1.0
 70
    11
 71
     3
 72
    20
 73
    16
 74
     0
 42
0.0000000001
 43
0.0000000001
 12
1.0
 22
0.0
 32
0.0
 13
1.0
 23
0.0
 33
0.0
 40
0.0
 40
0.0
 40
0.0
 40
0.0
 40
0.2
 40
0.2
 40
0.2
 40
0.2
 40
0.4
 40
0.4
 40
0.4
 40
0.4
 40
0.6
 40
0.6
 40
0.6
 40
0.6
 40
1.0
 40
1.0
 40
1.0
 40
1.0
 10
172.6537
 20
104.2383
 30
0.0
 10
170.6446
 20
104.2348
 30
0.0
 10
166.5201
 20
105.138
 30
0.0
 10
164.9207
 20
106.2262
 30
0.0
 10
164.9207
 20
106.2262
 30
0.0
 10
167.1449
 20
108.359
 30
0.0
 10
168.8704
 20
110.0543
 30
0.0
 10
170.5274
 20
111.99
 30
0.0
 10
170.5274
 20
111.99
 30
0.0
 10
171.8608
 20
108.8628
 30
0.0
 10
172.2902
 20
106.5758
 30
0.0
 10
172.6538
 20
104.2383
 30
0.0
 10
172.6538
 20
104.2383
 30
0.0
 10
172.6538
 20
104.2383
 30
0.0
 10
172.6537
 20
104.2383
 30
0.0
 10
172.6537
 20
104.2383
 30
0.0
  0
SPLINE
  5
141
330
1F
100
AcDbEntity
  8
layer 1
 62
     7
100
AcDbSpline
210
0.0
220
0.0
230
1.0
 70
    11
 71
     3
 72
    20
 73
    16
 74
     0
 42
0.0000000001
 43
0.0000000001
 12
1.0
 22
0.0
 32
0.0
 13
1.0
 23
0.0
 33
0.0
 40
0.0
 40
0.0
 40
0.0
 40
0.0
 40
0.2
 40
0.2
 40
0.2
 40
0.2
 40
0.4
 40
0.4
 40
0.4
 40
0.4
 40
0.6
 40
0.6
 40
0.6
 40
0.6
 40
1.0
 40
1.0
 40
1.0
 40
1.0
 10
176.0415
 20
104.2383
 30
0.0
 10
178.0506
 20
104.2348
 30
0.0
 10
182.1751
 20
105.138
 30
0.0
 10
183.7745
 20
106.2262
 30
0.0
 10
183.7745
 20
106.2262
 30
0.0
 10
181.5504
 20
108.359
 30
0.0
 10
179.8248
 20
110.0543
 30
0.0
 10
178.1678
 20
111.99
 30
0.0
 10
178.1678
 20
111.99
 30
0.0
 10
176.8344
 20
108.8628
 30
0.0
 10
176.405
 20
106.5758
 30
0.0
 10
176.0414
 20
104.2383
 30
0.0
 10
176.0414
 20
104.2383
 30
0.0
 10
176.0414
 20
104.2383
 30
0.0
 10
176.0415
 20
104.2383
 30
0.0
 10
176.0415
 20
104.2383
 30
0.0
  0
SPLINE
  5
142
330
1F
100
AcDbEntity
  8
layer 1
 62
     7
100
AcDbSpline
210
0.0
220
0.0
230
1.0
 70
    11
 71
     3
 72
    24
 73
    20
 74
     0
 42
0.0000000001
 43
0.0000000001
 12
1.0
 22
0.0
 32
0.0
 13
1.0
 23
0.0
 33
0.0
 40
0.0
 40
0.0
 40
0.0
 40
0.0
 40
0.1666666666666667
 40
0.1666666666666667
 40
0.1666666666666667
 40
0.1666666666666667
 40
0.3333333333333333
 40
0.3333333333333333
 40
0.3333333333333333
 40
0.3333333333333333
 40
0.5
 40
0.5
 40
0.5
 40
0.5
 40
0.6666666666666666
 40
0.6666666666666666
 40
0.6666666666666666
 40
0.6666666666666666
 40
1.0
 40
1.0
 40
1.0
 40
1.0
 10
79.3077
 20
122.5762
 30
0.0
 10
79.6485
 20
122.792
 30
0.0
 10
79.9897
 20
122.9886
 30
0.0
 10
80.3302
 20
123.1642
 30
0.0
 10
80.3302
 20
123.1642
 30
0.0
 10
83.4466
 20
121.3939
 30
0.0
 10
85.4329
 20
118.9958
 30
0.0
 10
87.8662
 20
115.8762
 30
0.0
 10
87.8662
 20
115.8762
 30
0.0
 10
86.1146
 20
113.2775
 30
0.0
 10
82.7254
 20
109.7617
 30
0.0
 10
80.2715
 20
108.2675
 30
0.0
 10
80.2715
 20
108.2675
 30
0.0
 10
79.9576
 20
108.4975
 30
0.0
 10
79.6573
 20
108.723
 30
0.0
 10
79.3684
 20
108.9459
 30
0.0
 10
79.3684
 20
108.9459
 30
0.0
 10
79.3684
 20
108.9459
 30
0.0
 10
79.3077
 20
122.5762
 30
0.0
 10
79.3077
 20
122.5762
 30
0.0
  0
SPLINE
  5
143
330
1F
100
AcDbEntity
  8
layer 1
 62
     7
100
AcDbSpline
210
0.0
220
0.0
230
1.0
 70
    11
 71
     3
 72
    16
 73
    12
 74
     0
 42
0.0000000001
 43
0.0000000001
 12
1.0
 22
0.0
 32
0.0
 13
1.0
 23
0.0
 33
0.0
 40
0.0
 40
0.0
 40
0.0
 40
0.0
 40
0.25
 40
0.25
 40
0.25
 40
0.25
 40
0.5
 40
0.5
 40
0.5
 40
0.5
 40
1.0
 40
1.0
 40
1.0
 40
1.0
 10
85.2165
 20
124.7254
 30
0.0
 10
87.0674
 20
122.9383
 30
0.0
 10
88.5747
 20
121.4243
 30
0.0
 10
90.0293
 20
119.7252
 30
0.0
 10
90.0293
 20
119.7252
 30
0.0
 10
90.8457
 20
121.6401
 30
0.0
 10
91.3233
 20
123.24
 30
0.0
 10
91.6543
 20
124.7293
 30
0.0
 10
91.6543
 20
124.7293
 30
0.0
 10
91.6543
 20
124.7293
 30
0.0
 10
85.2165
 20
124.7254
 30
0.0
 10
85.2165
 20
124.7254
 30
0.0
  0
SPLINE
  5
144
330
1F
100
AcDbEntity
  8
layer 1
 62
     7
100
AcDbSpline
210
0.0
220
0.0
230
1.0
 70
    11
 71
     3
 72
    16
 73
    12
 74
     0
 42
0.0000000001
 43
0.0000000001
 12
1.0
 22
0.0
 32
0.0
 13
1.0
 23
0.0
 33
0.0
 40
0.0
 40
0.0
 40
0.0
 40
0.0
 40
0.25
 40
0.25
 40
0.25
 40
0.25
 40
0.5
 40
0.5
 40
0.5
 40
0.5
 40
1.0
 40
1.0
 40
1.0
 40
1.0
 10
102.4523
 20
124.7254
 30
0.0
 10
100.6013
 20
122.9383
 30
0.0
 10
99.0941
 20
121.4243
 30
0.0
 10
97.6395
 20
119.7252
 30
0.0
 10
97.6395
 20
119.7252
 30
0.0
 10
96.823
 20
121.6401
 30
0.0
 10
96.3454
 20
123.24
 30
0.0
 10
96.0144
 20
124.7293
 30
0.0
 10
96.0144
 20
124.7293
 30
0.0
 10
96.0144
 20
124.7293
 30
0.0
 10
102.4523
 20
124.7254
 30
0.0
 10
102.4523
 20
124.7254
 30
0.0
  0
SPLINE
  5
145
330
1F
100
AcDbEntity
  8
layer 1
 62
     7
100
AcDbSpline
210
0.0
220
0.0
230
1.0
 70
    11
 71
     3
 72
    16
 73
    12
 74
     0
 42
0.0000000001
 43
0.0000000001
 12
1.0
 22
0.0
 32
0.0
 13
1.0
 23
0.0
 33
0.0
 40
0.0
 40
0.0
 40
0.0
 40
0.0
 40
0.25
 40
0.25
 40
0.25
 40
0.25
 40
0.5
 40
0.5
 40
0.5
 40
0.5
 40
1.0
 40
1.0
 40
1.0
 40
1.0
 10
112.1285
 20
124.7254
 30
0.0
 10
113.9794
 20
122.9383
 30
0.0
 10
115.4867
 20
121.4243
 30
0.0
 10
116.9413
 20
119.7252
 30
0.0
 10
116.9413
 20
119.7252
 30
0.0
 10
117.7577
 20
121.6401
 30
0.0
 10
118.2353
 20
123.24
 30
0.0
 10
118.5663
 20
124.7293
 30
0.0
 10
118.5663
 20
124.7293
 30
0.0
 10
118.5663
 20
124.7293
 30
0.0
 10
112.1285
 20
124.7254
 30
0.0
 10
112.1285
 20
124.7254
 30
0.0
  0
SPLINE
  5
146
330
1F
100
AcDbEntity
  8
layer 1
 62
     7
100
AcDbSpline
210
0.0
220
0.0
230
1.0
 70
    11
 71
     3
 72
    16
 73
    12
 74
     0
 42
0.0000000001
 43
0.0000000001
 12
1.0
 22
0.0
 32
0.0
 13
1.0
 23
0.0
 33
0.0
 40
0.0
 40
0.0
 40
0.0
 40
0.0
 40
0.25
 40
0.25
 40
0.25
 40
0.25
 40
0.5
 40
0.5
 40
0.5
 40
0.5
 40
1.0
 40
1.0
 40
1.0
 40
1.0
 10
129.3643
 20
124.7254
 30
0.0
 10
127.5133
 20
122.9383
 30
0.0
 10
126.0061
 20
121.4243
 30
0.0
 10
124.5515
 20
119.7252
 30
0.0
 10
124.5515
 20
119.7252
 30
0.0
 10
123.735
 20
121.6401
 30
0.0
 10
123.2574
 20
123.24
 30
0.0
 10
122.9264
 20
124.7293
 30
0.0
 10
122.9264
 20
124.7293
 30
0.0
 10
122.9264
 20
124.7293
 30
0.0
 10
129.3643
 20
124.7254
 30
0.0
 10
129.3643
 20
124.7254
 30
0.0
  0
SPLINE
  5
147
330
1F
100
AcDbEntity
  8
layer 1
 62
     7
100
AcDbSpline
210
0.0
220
0.0
230
1.0
 70
    11
 71
     3
 72
    16
 73
    12
 74
     0
 42
0.0000000001
 43
0.0000000001
 12
1.0
 22
0.0
 32
0.0
 13
1.0
 23
0.0
 33
0.0
 40
0.0
 40
0.0
 40
0.0
 40
0.0
 40
0.25
 40
0.25
 40
0.25
 40
0.25
 40
0.5
 40
0.5
 40
0.5
 40
0.5
 40
1.0
 40
1.0
 40
1.0
 40
1.0
 10
138.7914
 20
124.7254
 30
0.0
 10
140.6423
 20
122.9383
 30
0.0
 10
142.1496
 20
121.4243
 30
0.0
 10
143.6042
 20
119.7252
 30
0.0
 10
143.6042
 20
119.7252
 30
0.0
 10
144.4206
 20
121.6401
 30
0.0
 10
144.8983
 20
123.24
 30
0.0
 10
145.2292
 20
124.7293
 30
0.0
 10
145.2292
 20
124.7293
 30
0.0
 10
145.2292
 20
124.7293
 30
0.0
 10
138.7914
 20
124.7254
 30
0.0
 10
138.7914
 20
124.7254
 30
0.0
  0
SPLINE
  5
148
330
1F
100
AcDbEntity
  8
layer 1
 62
     7
100
AcDbSpline
210
0.0
220
0.0
230
1.0
 70
    11
 71
     3
 72
    16
 73
    12
 74
     0
 42
0.0000000001
 43
0.0000000001
 12
1.0
 22
0.0
 32
0.0
 13
1.0
 23
0.0
 33
0.0
 40
0.0
 40
0.0
 40
0.0
 40
0.0
 40
0.25
 40
0.25
 40
0.25
 40
0.25
 40
0.5
 40
0.5
 40
0.5
 40
0.5
 40
1.0
 40
1.0
 40
1.0
 40
1.0
 10
156.0272
 20
124.7254
 30
0.0
 10
154.1762
 20
122.9383
 30
0.0
 10
152.669
 20
121.4243
 30
0.0
 10
151.2144
 20
119.7252
 30
0.0
 10
151.2144
 20
119.7252
 30
0.0
 10
150.3979
 20
121.6401
 30
0.0
 10
149.9203
 20
123.24
 30
0.0
 10
149.5893
 20
124.7293
 30
0.0
 10
149.5893
 20
124.7293
 30
0.0
 10
149.5893
 20
124.7293
 30
0.0
 10
156.0272
 20
124.7254
 30
0.0
 10
156.0272
 20
124.7254
 30
0.0
  0
SPLINE
  5
149
330
1F
100
AcDbEntity
  8
layer 1
 62
     7
100
AcDbSpline
210
0.0
220
0.0
230
1.0
 70
    11
 71
     3
 72
    16
 73
    12
 74
     0
 42
0.0000000001
 43
0.0000000001
 12
1.0
 22
0.0
 32
0.0
 13
1.0
 23
0.0
 33
0.0
 40
0.0
 40
0.0
 40
0.0
 40
0.0
 40
0.25
 40
0.25
 40
0.25
 40
0.25
 40
0.5
 40
0.5
 40
0.5
 40
0.5
 40
1.0
 40
1.0
 40
1.0
 40
1.0
 10
165.6203
 20
124.7254
 30
0.0
 10
167.4713
 20
122.9383
 30
0.0
 10
168.9785
 20
121.4243
 30
0.0
 10
170.4331
 20
119.7252
 30
0.0
 10
170.4331
 20
119.7252
 30
0.0
 10
171.2496
 20
121.6401
 30
0.0
 10
171.7272
 20
123.24
 30
0.0
 10
172.0582
 20
124.7293
 30
0.0
 10
172.0582
 20
124.7293
 30
0.0
 10
172.0582
 20
124.7293
 30
0.0
 10
165.6203
 20
124.7254
 30
0.0
 10
165.6203
 20
124.7254
 30
0.0
  0
SPLINE
  5
14A
330
1F
100
AcDbEntity
  8
layer 1
 62
     7
100
AcDbSpline
210
0.0
220
0.0
230
1.0
 70
    11
 71
     3
 72
    16
 73
    12
 74
     0
 42
0.0000000001
 43
0.0000000001
 12
1.0
 22
0.0
 32
0.0
 13
1.0
 23
0.0
 33
0.0
 40
0.0
 40
0.0
 40
0.0
 40
0.0
 40
0.25
 40
0.25
 40
0.25
 40
0.25
 40
0.5
 40
0.5
 40
0.5
 40
0.5
 40
1.0
 40
1.0
 40
1.0
 40
1.0
 10
182.8561
 20
124.7254
 30
0.0
 10
181.0052
 20
122.9383
 30
0.0
 10
179.4979
 20
121.4243
 30
0.0
 10
178.0433
 20
119.7252
 30
0.0
 10
178.0433
 20
119.7252
 30
0.0
 10
177.2268
 20
121.6401
 30
0.0
 10
176.7492
 20
123.24
 30
0.0
 10
176.4182
 20
124.7293
 30
0.0
 10
176.4182
 20
124.7293
 30
0.0
 10
176.4182
 20
124.7293
 30
0.0
 10
182.8561
 20
124.7254
 30
0.0
 10
182.8561
 20
124.7254
 30
0.0
  0
ENDSEC
  0
SECTION
  2
OBJECTS
  0
DICTIONARY
  5
C
330
0
100
AcDbDictionary
281
     1
  3
ACAD_GROUP
350
D
  3
ACAD_LAYOUT
350
1A
  3
ACAD_MATERIAL
350
3B
  3
ACAD_MLEADERSTYLE
350
16D
  3
ACAD_MLINESTYLE
350
17
  3
ACAD_PLOTSETTINGS
350
19
  3
ACAD_PLOTSTYLENAME
350
E
  3
ACAD_TABLESTYLE
350
16C
  3
ACAD_VISUALSTYLE
350
2A
  0
DICTIONARY
  5
D
102
{ACAD_REACTORS
330
C
102
}
330
C
100
AcDbDictionary
281
     1
  0
DICTIONARY
  5
1A
102
{ACAD_REACTORS
330
C
102
}
330
C
100
AcDbDictionary
281
     1
  3
Layout1
350
1E
  3
Layout2
350
26
  3
Model
350
22
  0
DICTIONARY
  5
3B
102
{ACAD_REACTORS
330
C
102
}
330
C
100
AcDbDictionary
281
     1
  3
ByBlock
350
3D
  3
ByLayer
350
3C
  3
Global
350
3E
  0
DICTIONARY
  5
16D
102
{ACAD_REACTORS
330
C
102
}
330
C
100
AcDbDictionary
281
     1
  0
DICTIONARY
  5
17
102
{ACAD_REACTORS
330
C
102
}
330
C
100
AcDbDictionary
281
     1
  3
Standard
350
18
  0
DICTIONARY
  5
19
102
{ACAD_REACTORS
330
C
102
}
330
C
100
AcDbDictionary
281
     1
  0
ACDBDICTIONARYWDFLT
  5
E
102
{ACAD_REACTORS
330
C
102
}
330
C
100
AcDbDictionary
281
     1
  3
Normal
350
F
100
AcDbDictionaryWithDefault
340
F
  0
DICTIONARY
  5
16C
102
{ACAD_REACTORS
330
C
102
}
330
C
100
AcDbDictionary
281
     1
  0
DICTIONARY
  5
2A
102
{ACAD_REACTORS
330
C
102
}
330
C
100
AcDbDictionary
281
     1
  3
2dWireframe
350
2F
  3
3D Hidden
350
31
  3
3dWireframe
350
30
  3
Basic
350
32
  3
Brighten
350
36
  3
ColorChange
350
3A
  3
Conceptual
350
34
  3
Dim
350
35
  3
Facepattern
350
39
  3
Flat
350
2B
  3
FlatWithEdges
350
2C
  3
Gouraud
350
2D
  3
GouraudWithEdges
350
2E
  3
Linepattern
350
38
  3
Realistic
350
33
  3
Thicken
350
37
  0
LAYOUT
  5
1E
102
{ACAD_REACTORS
330
1A
102
}
330
1A
100
AcDbPlotSettings
  1

  2
none_device
  4

  6

 40
0.0
 41
0.0
 42
0.0
 43
0.0
 44
0.0
 45
0.0
 46
0.0
 47
0.0
 48
0.0
 49
0.0
140
0.0
141
0.0
142
1.0
143
1.0
 70
   688
 72
     0
 73
     0
 74
     5
  7

 75
    16
 76
     0
 77
     2
 78
   300
147
1.0
148
0.0
149
0.0
100
AcDbLayout
  1
Layout1
 70
     1
 71
     1
 10
0.0
 20
0.0
 11
12.0
 21
9.0
 12
0.0
 22
0.0
 32
0.0
 14
1.000000000000000E+20
 24
1.000000000000000E+20
 34
1.000000000000000E+20
 15
-1.000000000000000E+20
 25
-1.000000000000000E+20
 35
-1.000000000000000E+20
146
0.0
 13
0.0
 23
0.0
 33
0.0
 16
1.0
 26
0.0
 36
0.0
 17
0.0
 27
1.0
 37
0.0
 76
     0
330
1B
  0
LAYOUT
  5
26
102
{ACAD_REACTORS
330
1A
102
}
330
1A
100
AcDbPlotSettings
  1

  2
none_device
  4

  6

 40
0.0
 41
0.0
 42
0.0
 43
0.0
 44
0.0
 45
0.0
 46
0.0
 47
0.0
 48
0.0
 49
0.0
140
0.0
141
0.0
142
1.0
143
1.0
 70
   688
 72
     0
 73
     0
 74
     5
  7

 75
    16
 76
     0
 77
     2
 78
   300
147
1.0
148
0.0
149
0.0
100
AcDbLayout
  1
Layout2
 70
     1
 71
     2
 10
0.0
 20
0.0
 11
0.0
 21
0.0
 12
0.0
 22
0.0
 32
0.0
 14
0.0
 24
0.0
 34
0.0
 15
0.0
 25
0.0
 35
0.0
146
0.0
 13
0.0
 23
0.0
 33
0.0
 16
1.0
 26
0.0
 36
0.0
 17
0.0
 27
1.0
 37
0.0
 76
     0
330
23
  0
LAYOUT
  5
22
102
{ACAD_REACTORS
330
1A
102
}
330
1A
100
AcDbPlotSettings
  1

  2
none_device
  4

  6

 40
0.0
 41
0.0
 42
0.0
 43
0.0
 44
0.0
 45
0.0
 46
0.0
 47
0.0
 48
0.0
 49
0.0
140
0.0
141
0.0
142
1.0
143
1.0
 70
  1712
 72
     0
 73
     0
 74
     0
  7

 75
     0
 76
     0
 77
     2
 78
   300
147
1.0
148
0.0
149
0.0
100
AcDbLayout
  1
Model
 70
     1
 71
     0
 10
0.0
 20
0.0
 11
12.0
 21
9.0
 12
0.0
 22
0.0
 32
0.0
 14
72.957
 24
-114.9873
 34
0.0
 15
196.2168
 25
131.8541
 35
0.0
146
0.0
 13
0.0
 23
0.0
 33
0.0
 16
1.0
 26
0.0
 36
0.0
 17
0.0
 27
1.0
 37
0.0
 76
     0
330
1F
331
29
  0
MATERIAL
  5
3D
102
{ACAD_REACTORS
330
3B
102
}
330
3B
100
AcDbMaterial
  1
ByBlock
 72
     1
 94
      127
  0
MATERIAL
  5
3C
102
{ACAD_REACTORS
330
3B
102
}
330
3B
100
AcDbMaterial
  1
ByLayer
 72
     1
 94
      127
  0
MATERIAL
  5
3E
102
{ACAD_REACTORS
330
3B
102
}
330
3B
100
AcDbMaterial
  1
Global
 72
     1
 94
      127
  0
MLINESTYLE
  5
18
102
{ACAD_REACTORS
330
17
102
}
330
17
100
AcDbMlineStyle
  2
Standard
 70
     0
  3

 62
   256
 51
90.0
 52
90.0
 71
     2
 49
0.5
 62
   256
  6
BYLAYER
 49
-0.5
 62
   256
  6
BYLAYER
  0
ACDBPLACEHOLDER
  5
F
102
{ACAD_REACTORS
330
E
102
}
330
E
  0
VISUALSTYLE
  5
2F
102
{ACAD_REACTORS
330
2A
102
}
102
{ACAD_XDICTIONARY
360
154
102
}
330
2A
100
AcDbVisualStyle
  2
2dWireframe
 70
     4
 71
     0
 72
     2
 73
     0
 90
        0
 40
-0.6
 41
-30.0
 62
     5
 63
     7
421
 16777215
 74
     1
 91
        4
 64
     7
 65
   257
 75
     1
175
     1
 42
1.0
 92
        0
 66
   257
 43
1.0
 76
     1
 77
     6
 78
     2
 67
     7
 79
     5
170
     0
171
     0
290
     0
174
     0
 93
        1
 44
0.0
173
     0
291
     0
 45
0.0
  0
VISUALSTYLE
  5
31
102
{ACAD_REACTORS
330
2A
102
}
102
{ACAD_XDICTIONARY
360
158
102
}
330
2A
100
AcDbVisualStyle
  2
3D Hidden
 70
     6
 71
     1
 72
     2
 73
     2
 90
        0
 40
-0.6
 41
-30.0
 62
     5
 63
     7
421
 16777215
 74
     2
 91
        2
 64
     7
 65
   257
 75
     2
175
     1
 42
40.0
 92
        0
 66
   257
 43
1.0
 76
     1
 77
     6
 78
     2
 67
     7
 79
     3
170
     0
171
     0
290
     0
174
     0
 93
        1
 44
0.0
173
     0
291
     0
 45
0.0
  0
VISUALSTYLE
  5
30
102
{ACAD_REACTORS
330
2A
102
}
102
{ACAD_XDICTIONARY
360
156
102
}
330
2A
100
AcDbVisualStyle
  2
3dWireframe
 70
     5
 71
     0
 72
     2
 73
     0
 90
        0
 40
-0.6
 41
-30.0
 62
     5
 63
     7
421
 16777215
 74
     1
 91
        4
 64
     7
 65
   257
 75
     1
175
     1
 42
1.0
 92
        0
 66
   257
 43
1.0
 76
     1
 77
     6
 78
     2
 67
     7
 79
     5
170
     0
171
     0
290
     0
174
     0
 93
        1
 44
0.0
173
     0
291
     0
 45
0.0
  0
VISUALSTYLE
  5
32
102
{ACAD_REACTORS
330
2A
102
}
102
{ACAD_XDICTIONARY
360
15A
102
}
330
2A
100
AcDbVisualStyle
  2
Basic
 70
     7
 71
     1
 72
     0
 73
     1
 90
        0
 40
-0.6
 41
-30.0
 62
     5
 63
     7
421
 16777215
 74
     0
 91
        4
 64
     7
 65
   257
 75
     1
175
     1
 42
1.0
 92
        8
 66
     7
 43
1.0
 76
     1
 77
     6
 78
     2
 67
     7
 79
     5
170
     0
171
     0
290
     0
174
     0
 93
        1
 44
0.0
173
     0
291
     1
 45
0.0
  0
VISUALSTYLE
  5
36
102
{ACAD_REACTORS
330
2A
102
}
102
{ACAD_XDICTIONARY
360
162
102
}
330
2A
100
AcDbVisualStyle
  2
Brighten
 70
    12
 71
     2
 72
     2
 73
     0
 90
        0
 40
-0.6
 41
-30.0
 62
     5
 63
     7
421
 16777215
 74
     1
 91
        4
 64
     7
 65
   257
 75
     1
175
     1
 42
1.0
 92
        8
 66
     7
 43
1.0
 76
     1
 77
     6
 78
     2
 67
     7
 79
     5
170
     0
171
     0
290
     0
174
     0
 93
        1
 44
50.0
173
     0
291
     1
 45
0.0
  0
VISUALSTYLE
  5
3A
102
{ACAD_REACTORS
330
2A
102
}
102
{ACAD_XDICTIONARY
360
16A
102
}
330
2A
100
AcDbVisualStyle
  2
ColorChange
 70
    16
 71
     2
 72
     2
 73
     3
 90
        0
 40
-0.6
 41
-30.0
 62
     5
 63
     8
421
  8421504
 74
     1
 91
        4
 64
     7
 65
   257
 75
     1
175
     1
 42
1.0
 92
        8
 66
     8
424
  8421504
 43
1.0
 76
     1
 77
     6
 78
     2
 67
     7
 79
     5
170
     0
171
     0
290
     0
174
     0
 93
        1
 44
0.0
173
     0
291
     1
 45
0.0
  0
VISUALSTYLE
  5
34
102
{ACAD_REACTORS
330
2A
102
}
102
{ACAD_XDICTIONARY
360
15E
102
}
330
2A
100
AcDbVisualStyle
  2
Conceptual
 70
     9
 71
     3
 72
     2
 73
     0
 90
        0
 40
-0.6
 41
-30.0
 62
     5
 63
     7
421
 16777215
 74
     2
 91
        2
 64
     7
 65
   257
 75
     1
175
     1
 42
40.0
 92
        8
 66
     7
 43
1.0
 76
     1
 77
     6
 78
     2
 67
     7
 79
     3
170
     0
171
     0
290
     0
174
     0
 93
        1
 44
0.0
173
     0
291
     0
 45
0.0
  0
VISUALSTYLE
  5
35
102
{ACAD_REACTORS
330
2A
102
}
102
{ACAD_XDICTIONARY
360
160
102
}
330
2A
100
AcDbVisualStyle
  2
Dim
 70
    11
 71
     2
 72
     2
 73
     0
 90
        0
 40
-0.6
 41
-30.0
 62
     5
 63
     7
421
 16777215
 74
     1
 91
        4
 64
     7
 65
   257
 75
     1
175
     1
 42
1.0
 92
        8
 66
     7
 43
1.0
 76
     1
 77
     6
 78
     2
 67
     7
 79
     5
170
     0
171
     0
290
     0
174
     0
 93
        1
 44
-50.0
173
     0
291
     1
 45
0.0
  0
VISUALSTYLE
  5
39
102
{ACAD_REACTORS
330
2A
102
}
102
{ACAD_XDICTIONARY
360
168
102
}
330
2A
100
AcDbVisualStyle
  2
Facepattern
 70
    15
 71
     2
 72
     2
 73
     0
 90
        0
 40
-0.6
 41
-30.0
 62
     5
 63
     7
421
 16777215
 74
     1
 91
        4
 64
     7
 65
   257
 75
     1
175
     1
 42
1.0
 92
        8
 66
     7
 43
1.0
 76
     1
 77
     6
 78
     2
 67
     7
 79
     5
170
     0
171
     0
290
     0
174
     0
 93
        1
 44
0.0
173
     0
291
     1
 45
0.0
  0
VISUALSTYLE
  5
2B
102
{ACAD_REACTORS
330
2A
102
}
102
{ACAD_XDICTIONARY
360
14C
102
}
330
2A
100
AcDbVisualStyle
  2
Flat
 70
     0
 71
     2
 72
     1
 73
     1
 90
        2
 40
-0.6
 41
30.0
 62
     5
 63
     7
421
 16777215
 74
     0
 91
        4
 64
     7
 65
   257
 75
     1
175
     1
 42
1.0
 92
        8
 66
     7
 43
1.0
 76
     1
 77
     6
 78
     2
 67
     7
 79
     5
170
     0
171
     0
290
     0
174
     0
 93
       13
 44
0.0
173
     0
291
     1
 45
0.0
  0
VISUALSTYLE
  5
2C
102
{ACAD_REACTORS
330
2A
102
}
102
{ACAD_XDICTIONARY
360
14E
102
}
330
2A
100
AcDbVisualStyle
  2
FlatWithEdges
 70
     1
 71
     2
 72
     1
 73
     1
 90
        2
 40
-0.6
 41
30.0
 62
     5
 63
     7
421
 16777215
 74
     1
 91
        4
 64
     7
 65
   257
 75
     1
175
     1
 42
1.0
 92
        0
 66
   257
 43
1.0
 76
     1
 77
     6
 78
     2
 67
     7
 79
     5
170
     0
171
     0
290
     0
174
     0
 93
       13
 44
0.0
173
     0
291
     1
 45
0.0
  0
VISUALSTYLE
  5
2D
102
{ACAD_REACTORS
330
2A
102
}
102
{ACAD_XDICTIONARY
360
150
102
}
330
2A
100
AcDbVisualStyle
  2
Gouraud
 70
     2
 71
     2
 72
     2
 73
     1
 90
        2
 40
-0.6
 41
30.0
 62
     5
 63
     7
421
 16777215
 74
     0
 91
        4
 64
     7
 65
   257
 75
     1
175
     1
 42
1.0
 92
        0
 66
     7
 43
1.0
 76
     1
 77
     6
 78
     2
 67
     7
 79
     5
170
     0
171
     0
290
     0
174
     0
 93
       13
 44
0.0
173
     0
291
     1
 45
0.0
  0
VISUALSTYLE
  5
2E
102
{ACAD_REACTORS
330
2A
102
}
102
{ACAD_XDICTIONARY
360
152
102
}
330
2A
100
AcDbVisualStyle
  2
GouraudWithEdges
 70
     3
 71
     2
 72
     2
 73
     1
 90
        2
 40
-0.6
 41
30.0
 62
     5
 63
     7
421
 16777215
 74
     1
 91
        4
 64
     7
 65
   257
 75
     1
175
     1
 42
1.0
 92
        0
 66
   257
 43
1.0
 76
     1
 77
     6
 78
     2
 67
     7
 79
     5
170
     0
171
     0
290
     0
174
     0
 93
       13
 44
0.0
173
     0
291
     1
 45
0.0
  0
VISUALSTYLE
  5
38
102
{ACAD_REACTORS
330
2A
102
}
102
{ACAD_XDICTIONARY
360
166
102
}
330
2A
100
AcDbVisualStyle
  2
Linepattern
 70
    14
 71
     2
 72
     2
 73
     0
 90
        0
 40
-0.6
 41
-30.0
 62
     5
 63
     7
421
 16777215
 74
     1
 91
        4
 64
     7
 65
   257
 75
     7
175
     7
 42
1.0
 92
        8
 66
     7
 43
1.0
 76
     1
 77
     6
 78
     2
 67
     7
 79
     5
170
     0
171
     0
290
     0
174
     0
 93
        1
 44
0.0
173
     0
291
     1
 45
0.0
  0
VISUALSTYLE
  5
33
102
{ACAD_REACTORS
330
2A
102
}
102
{ACAD_XDICTIONARY
360
15C
102
}
330
2A
100
AcDbVisualStyle
  2
Realistic
 70
     8
 71
     2
 72
     2
 73
     0
 90
        0
 40
-0.6
 41
-30.0
 62
     5
 63
     7
421
 16777215
 74
     1
 91
        0
 64
     7
 65
   257
 75
     1
175
     1
 42
1.0
 92
        8
 66
     8
424
  7895160
 43
1.0
 76
     1
 77
     6
 78
     2
 67
     7
 79
     5
170
     0
171
     0
290
     0
174
     0
 93
       13
 44
0.0
173
     0
291
     0
 45
0.0
  0
VISUALSTYLE
  5
37
102
{ACAD_REACTORS
330
2A
102
}
102
{ACAD_XDICTIONARY
360
164
102
}
330
2A
100
AcDbVisualStyle
  2
Thicken
 70
    13
 71
     2
 72
     2
 73
     0
 90
        0
 40
-0.6
 41
-30.0
 62
     5
 63
     7
421
 16777215
 74
     1
 91
        4
 64
     7
 65
   257
 75
     1
175
     1
 42
1.0
 92
       12
 66
     7
 43
1.0
 76
     1
 77
     6
 78
     2
 67
     7
 79
     5
170
     0
171
     0
290
     0
174
     0
 93
        1
 44
0.0
173
     0
291
     1
 45
0.0
  0
DICTIONARY
  5
154
330
2F
100
AcDbDictionary
280
     1
281
     1
  3
ACAD_XREC_ROUNDTRIP
360
155
  0
DICTIONARY
  5
158
330
31
100
AcDbDictionary
280
     1
281
     1
  3
ACAD_XREC_ROUNDTRIP
360
159
  0
DICTIONARY
  5
156
330
30
100
AcDbDictionary
280
     1
281
     1
  3
ACAD_XREC_ROUNDTRIP
360
157
  0
DICTIONARY
  5
15A
330
32
100
AcDbDictionary
280
     1
281
     1
  3
ACAD_XREC_ROUNDTRIP
360
15B
  0
DICTIONARY
  5
162
330
36
100
AcDbDictionary
280
     1
281
     1
  3
ACAD_XREC_ROUNDTRIP
360
163
  0
DICTIONARY
  5
16A
330
3A
100
AcDbDictionary
280
     1
281
     1
  3
ACAD_XREC_ROUNDTRIP
360
16B
  0
DICTIONARY
  5
15E
330
34
100
AcDbDictionary
280
     1
281
     1
  3
ACAD_XREC_ROUNDTRIP
360
15F
  0
DICTIONARY
  5
160
330
35
100
AcDbDictionary
280
     1
281
     1
  3
ACAD_XREC_ROUNDTRIP
360
161
  0
DICTIONARY
  5
168
330
39
100
AcDbDictionary
280
     1
281
     1
  3
ACAD_XREC_ROUNDTRIP
360
169
  0
DICTIONARY
  5
14C
330
2B
100
AcDbDictionary
280
     1
281
     1
  3
ACAD_XREC_ROUNDTRIP
360
14D
  0
DICTIONARY
  5
14E
330
2C
100
AcDbDictionary
280
     1
281
     1
  3
ACAD_XREC_ROUNDTRIP
360
14F
  0
DICTIONARY
  5
150
330
2D
100
AcDbDictionary
280
     1
281
     1
  3
ACAD_XREC_ROUNDTRIP
360
151
  0
DICTIONARY
  5
152
330
2E
100
AcDbDictionary
280
     1
281
     1
  3
ACAD_XREC_ROUNDTRIP
360
153
  0
DICTIONARY
  5
166
330
38
100
AcDbDictionary
280
     1
281
     1
  3
ACAD_XREC_ROUNDTRIP
360
167
  0
DICTIONARY
  5
15C
330
33
100
AcDbDictionary
280
     1
281
     1
  3
ACAD_XREC_ROUNDTRIP
360
15D
  0
DICTIONARY
  5
164
330
37
100
AcDbDictionary
280
     1
281
     1
  3
ACAD_XREC_ROUNDTRIP
360
165
  0
XRECORD
  5
155
102
{ACAD_REACTORS
330
154
102
}
330
154
100
AcDbXrecord
280
     1
102
RTVSPropertyOp0
 70
     1
102
RTVSPropertyOp1
 70
     1
102
RTVSPropertyOp2
 70
     1
102
RTVSPropertyOp3
 70
     1
102
RTVSPropertyOp4
 70
     1
102
RTVSPropertyOp5
 70
     1
102
RTVSPropertyOp6
 70
     1
102
RTVSPropertyOp7
 70
     1
102
RTVSPropertyOp8
 70
     1
102
RTVSPropertyOp9
 70
     1
102
RTVSPropertyOp10
 70
     1
102
RTVSPropertyOp11
 70
     1
102
RTVSPropertyOp12
 70
     1
102
RTVSPropertyOp13
 70
     1
102
RTVSPropertyOp14
 70
     1
102
RTVSPropertyOp15
 70
     1
102
RTVSPropertyOp16
 70
     1
102
RTVSPropertyOp17
 70
     1
102
RTVSPropertyOp18
 70
     1
102
RTVSPropertyOp19
 70
     1
102
RTVSPropertyOp20
 70
     1
102
RTVSPropertyOp21
 70
     1
102
RTVSPropertyOp22
 70
     1
102
RTVSPropertyOp23
 70
     1
102
RTVSPropertyOp24
 70
     1
102
RTVSPropertyOp25
 70
     1
102
RTVSPropertyOp26
 70
     1
102
RTVSPropertyOp27
 70
     1
102
RTVSPropertyOp28
 70
     1
102
RTVSPropertyOp29
 70
     1
102
RTVSPropertyOp30
 70
     1
102
RTVSPropertyOp31
 70
     1
102
RTVSPropertyOp32
 70
     1
  0
XRECORD
  5
159
102
{ACAD_REACTORS
330
158
102
}
330
158
100
AcDbXrecord
280
     1
102
RTVSPropertyOp0
 70
     1
102
RTVSPropertyOp1
 70
     1
102
RTVSPropertyOp2
 70
     1
102
RTVSPropertyOp3
 70
     1
102
RTVSPropertyOp4
 70
     1
102
RTVSPropertyOp5
 70
     1
102
RTVSPropertyOp6
 70
     1
102
RTVSPropertyOp7
 70
     1
102
RTVSPropertyOp8
 70
     1
102
RTVSPropertyOp9
 70
     1
102
RTVSPropertyOp10
 70
     1
102
RTVSPropertyOp11
 70
     1
102
RTVSPropertyOp12
 70
     1
102
RTVSPropertyOp13
 70
     1
102
RTVSPropertyOp14
 70
     1
102
RTVSPropertyOp15
 70
     1
102
RTVSPropertyOp16
 70
     1
102
RTVSPropertyOp17
 70
     1
102
RTVSPropertyOp18
 70
     1
102
RTVSPropertyOp19
 70
     1
102
RTVSPropertyOp20
 70
     1
102
RTVSPropertyOp21
 70
     1
102
RTVSPropertyOp22
 70
     1
102
RTVSPropertyOp23
 70
     1
102
RTVSPropertyOp24
 70
     1
102
RTVSPropertyOp25
 70
     1
102
RTVSPropertyOp26
 70
     1
102
RTVSPropertyOp27
 70
     1
102
RTVSPropertyOp28
 70
     1
102
RTVSPropertyOp29
 70
     1
102
RTVSPropertyOp30
 70
     1
102
RTVSPropertyOp31
 70
     1
102
RTVSPropertyOp32
 70
     1
  0
XRECORD
  5
157
102
{ACAD_REACTORS
330
156
102
}
330
156
100
AcDbXrecord
280
     1
102
RTVSPropertyOp0
 70
     1
102
RTVSPropertyOp1
 70
     1
102
RTVSPropertyOp2
 70
     1
102
RTVSPropertyOp3
 70
     1
102
RTVSPropertyOp4
 70
     1
102
RTVSPropertyOp5
 70
     1
102
RTVSPropertyOp6
 70
     1
102
RTVSPropertyOp7
 70
     1
102
RTVSPropertyOp8
 70
     1
102
RTVSPropertyOp9
 70
     1
102
RTVSPropertyOp10
 70
     1
102
RTVSPropertyOp11
 70
     1
102
RTVSPropertyOp12
 70
     1
102
RTVSPropertyOp13
 70
     1
102
RTVSPropertyOp14
 70
     1
102
RTVSPropertyOp15
 70
     1
102
RTVSPropertyOp16
 70
     1
102
RTVSPropertyOp17
 70
     1
102
RTVSPropertyOp18
 70
     1
102
RTVSPropertyOp19
 70
     1
102
RTVSPropertyOp20
 70
     1
102
RTVSPropertyOp21
 70
     1
102
RTVSPropertyOp22
 70
     1
102
RTVSPropertyOp23
 70
     1
102
RTVSPropertyOp24
 70
     1
102
RTVSPropertyOp25
 70
     1
102
RTVSPropertyOp26
 70
     1
102
RTVSPropertyOp27
 70
     1
102
RTVSPropertyOp28
 70
     1
102
RTVSPropertyOp29
 70
     1
102
RTVSPropertyOp30
 70
     1
102
RTVSPropertyOp31
 70
     1
102
RTVSPropertyOp32
 70
     1
  0
XRECORD
  5
15B
102
{ACAD_REACTORS
330
15A
102
}
330
15A
100
AcDbXrecord
280
     1
102
RTVSPropertyOp0
 70
     1
102
RTVSPropertyOp1
 70
     1
102
RTVSPropertyOp2
 70
     1
102
RTVSPropertyOp3
 70
     1
102
RTVSPropertyOp4
 70
     1
102
RTVSPropertyOp5
 70
     1
102
RTVSPropertyOp6
 70
     1
102
RTVSPropertyOp7
 70
     1
102
RTVSPropertyOp8
 70
     1
102
RTVSPropertyOp9
 70
     1
102
RTVSPropertyOp10
 70
     1
102
RTVSPropertyOp11
 70
     1
102
RTVSPropertyOp12
 70
     1
102
RTVSPropertyOp13
 70
     1
102
RTVSPropertyOp14
 70
     1
102
RTVSPropertyOp15
 70
     1
102
RTVSPropertyOp16
 70
     1
102
RTVSPropertyOp17
 70
     1
102
RTVSPropertyOp18
 70
     1
102
RTVSPropertyOp19
 70
     1
102
RTVSPropertyOp20
 70
     1
102
RTVSPropertyOp21
 70
     1
102
RTVSPropertyOp22
 70
     1
102
RTVSPropertyOp23
 70
     1
102
RTVSPropertyOp24
 70
     1
102
RTVSPropertyOp25
 70
     1
102
RTVSPropertyOp26
 70
     1
102
RTVSPropertyOp27
 70
     1
102
RTVSPropertyOp28
 70
     1
102
RTVSPropertyOp29
 70
     1
102
RTVSPropertyOp30
 70
     1
102
RTVSPropertyOp31
 70
     1
102
RTVSPropertyOp32
 70
     1
  0
XRECORD
  5
163
102
{ACAD_REACTORS
330
162
102
}
330
162
100
AcDbXrecord
280
     1
102
RTVSPropertyOp0
 70
     1
102
RTVSPropertyOp1
 70
     1
102
RTVSPropertyOp2
 70
     1
102
RTVSPropertyOp3
 70
     1
102
RTVSPropertyOp4
 70
     1
102
RTVSPropertyOp5
 70
     1
102
RTVSPropertyOp6
 70
     1
102
RTVSPropertyOp7
 70
     1
102
RTVSPropertyOp8
 70
     1
102
RTVSPropertyOp9
 70
     1
102
RTVSPropertyOp10
 70
     1
102
RTVSPropertyOp11
 70
     1
102
RTVSPropertyOp12
 70
     1
102
RTVSPropertyOp13
 70
     1
102
RTVSPropertyOp14
 70
     1
102
RTVSPropertyOp15
 70
     1
102
RTVSPropertyOp16
 70
     1
102
RTVSPropertyOp17
 70
     1
102
RTVSPropertyOp18
 70
     1
102
RTVSPropertyOp19
 70
     1
102
RTVSPropertyOp20
 70
     1
102
RTVSPropertyOp21
 70
     1
102
RTVSPropertyOp22
 70
     1
102
RTVSPropertyOp23
 70
     1
102
RTVSPropertyOp24
 70
     1
102
RTVSPropertyOp25
 70
     1
102
RTVSPropertyOp26
 70
     1
102
RTVSPropertyOp27
 70
     1
102
RTVSPropertyOp28
 70
     1
102
RTVSPropertyOp29
 70
     1
102
RTVSPropertyOp30
 70
     1
102
RTVSPropertyOp31
 70
     1
102
RTVSPropertyOp32
 70
     1
  0
XRECORD
  5
16B
102
{ACAD_REACTORS
330
16A
102
}
330
16A
100
AcDbXrecord
280
     1
102
RTVSPropertyOp0
 70
     1
102
RTVSPropertyOp1
 70
     1
102
RTVSPropertyOp2
 70
     1
102
RTVSPropertyOp3
 70
     1
102
RTVSPropertyOp4
 70
     1
102
RTVSPropertyOp5
 70
     1
102
RTVSPropertyOp6
 70
     1
102
RTVSPropertyOp7
 70
     1
102
RTVSPropertyOp8
 70
     1
102
RTVSPropertyOp9
 70
     1
102
RTVSPropertyOp10
 70
     1
102
RTVSPropertyOp11
 70
     1
102
RTVSPropertyOp12
 70
     1
102
RTVSPropertyOp13
 70
     1
102
RTVSPropertyOp14
 70
     1
102
RTVSPropertyOp15
 70
     1
102
RTVSPropertyOp16
 70
     1
102
RTVSPropertyOp17
 70
     1
102
RTVSPropertyOp18
 70
     1
102
RTVSPropertyOp19
 70
     1
102
RTVSPropertyOp20
 70
     1
102
RTVSPropertyOp21
 70
     1
102
RTVSPropertyOp22
 70
     1
102
RTVSPropertyOp23
 70
     1
102
RTVSPropertyOp24
 70
     1
102
RTVSPropertyOp25
 70
     1
102
RTVSPropertyOp26
 70
     1
102
RTVSPropertyOp27
 70
     1
102
RTVSPropertyOp28
 70
     1
102
RTVSPropertyOp29
 70
     1
102
RTVSPropertyOp30
 70
     1
102
RTVSPropertyOp31
 70
     1
102
RTVSPropertyOp32
 70
     1
  0
XRECORD
  5
15F
102
{ACAD_REACTORS
330
15E
102
}
330
15E
100
AcDbXrecord
280
     1
102
RTVSPropertyOp0
 70
     1
102
RTVSPropertyOp1
 70
     1
102
RTVSPropertyOp2
 70
     1
102
RTVSPropertyOp3
 70
     1
102
RTVSPropertyOp4
 70
     1
102
RTVSPropertyOp5
 70
     1
102
RTVSPropertyOp6
 70
     1
102
RTVSPropertyOp7
 70
     1
102
RTVSPropertyOp8
 70
     1
102
RTVSPropertyOp9
 70
     1
102
RTVSPropertyOp10
 70
     1
102
RTVSPropertyOp11
 70
     1
102
RTVSPropertyOp12
 70
     1
102
RTVSPropertyOp13
 70
     1
102
RTVSPropertyOp14
 70
     1
102
RTVSPropertyOp15
 70
     1
102
RTVSPropertyOp16
 70
     1
102
RTVSPropertyOp17
 70
     1
102
RTVSPropertyOp18
 70
     1
102
RTVSPropertyOp19
 70
     1
102
RTVSPropertyOp20
 70
     1
102
RTVSPropertyOp21
 70
     1
102
RTVSPropertyOp22
 70
     1
102
RTVSPropertyOp23
 70
     1
102
RTVSPropertyOp24
 70
     1
102
RTVSPropertyOp25
 70
     1
102
RTVSPropertyOp26
 70
     1
102
RTVSPropertyOp27
 70
     1
102
RTVSPropertyOp28
 70
     1
102
RTVSPropertyOp29
 70
     1
102
RTVSPropertyOp30
 70
     1
102
RTVSPropertyOp31
 70
     1
102
RTVSPropertyOp32
 70
     1
  0
XRECORD
  5
161
102
{ACAD_REACTORS
330
160
102
}
330
160
100
AcDbXrecord
280
     1
102
RTVSPropertyOp0
 70
     1
102
RTVSPropertyOp1
 70
     1
102
RTVSPropertyOp2
 70
     1
102
RTVSPropertyOp3
 70
     1
102
RTVSPropertyOp4
 70
     1
102
RTVSPropertyOp5
 70
     1
102
RTVSPropertyOp6
 70
     1
102
RTVSPropertyOp7
 70
     1
102
RTVSPropertyOp8
 70
     1
102
RTVSPropertyOp9
 70
     1
102
RTVSPropertyOp10
 70
     1
102
RTVSPropertyOp11
 70
     1
102
RTVSPropertyOp12
 70
     1
102
RTVSPropertyOp13
 70
     1
102
RTVSPropertyOp14
 70
     1
102
RTVSPropertyOp15
 70
     1
102
RTVSPropertyOp16
 70
     1
102
RTVSPropertyOp17
 70
     1
102
RTVSPropertyOp18
 70
     1
102
RTVSPropertyOp19
 70
     1
102
RTVSPropertyOp20
 70
     1
102
RTVSPropertyOp21
 70
     1
102
RTVSPropertyOp22
 70
     1
102
RTVSPropertyOp23
 70
     1
102
RTVSPropertyOp24
 70
     1
102
RTVSPropertyOp25
 70
     1
102
RTVSPropertyOp26
 70
     1
102
RTVSPropertyOp27
 70
     1
102
RTVSPropertyOp28
 70
     1
102
RTVSPropertyOp29
 70
     1
102
RTVSPropertyOp30
 70
     1
102
RTVSPropertyOp31
 70
     1
102
RTVSPropertyOp32
 70
     1
  0
XRECORD
  5
169
102
{ACAD_REACTORS
330
168
102
}
330
168
100
AcDbXrecord
280
     1
102
RTVSPropertyOp0
 70
     1
102
RTVSPropertyOp1
 70
     1
102
RTVSPropertyOp2
 70
     1
102
RTVSPropertyOp3
 70
     1
102
RTVSPropertyOp4
 70
     1
102
RTVSPropertyOp5
 70
     1
102
RTVSPropertyOp6
 70
     1
102
RTVSPropertyOp7
 70
     1
102
RTVSPropertyOp8
 70
     1
102
RTVSPropertyOp9
 70
     1
102
RTVSPropertyOp10
 70
     1
102
RTVSPropertyOp11
 70
     1
102
RTVSPropertyOp12
 70
     1
102
RTVSPropertyOp13
 70
     1
102
RTVSPropertyOp14
 70
     1
102
RTVSPropertyOp15
 70
     1
102
RTVSPropertyOp16
 70
     1
102
RTVSPropertyOp17
 70
     1
102
RTVSPropertyOp18
 70
     1
102
RTVSPropertyOp19
 70
     1
102
RTVSPropertyOp20
 70
     1
102
RTVSPropertyOp21
 70
     1
102
RTVSPropertyOp22
 70
     1
102
RTVSPropertyOp23
 70
     1
102
RTVSPropertyOp24
 70
     1
102
RTVSPropertyOp25
 70
     1
102
RTVSPropertyOp26
 70
     1
102
RTVSPropertyOp27
 70
     1
102
RTVSPropertyOp28
 70
     1
102
RTVSPropertyOp29
 70
     1
102
RTVSPropertyOp30
 70
     1
102
RTVSPropertyOp31
 70
     1
102
RTVSPropertyOp32
 70
     1
  0
XRECORD
  5
14D
102
{ACAD_REACTORS
330
14C
102
}
330
14C
100
AcDbXrecord
280
     1
102
RTVSPropertyOp0
 70
     1
102
RTVSPropertyOp1
 70
     1
102
RTVSPropertyOp2
 70
     1
102
RTVSPropertyOp3
 70
     1
102
RTVSPropertyOp4
 70
     1
102
RTVSPropertyOp5
 70
     1
102
RTVSPropertyOp6
 70
     1
102
RTVSPropertyOp7
 70
     1
102
RTVSPropertyOp8
 70
     1
102
RTVSPropertyOp9
 70
     1
102
RTVSPropertyOp10
 70
     1
102
RTVSPropertyOp11
 70
     1
102
RTVSPropertyOp12
 70
     1
102
RTVSPropertyOp13
 70
     1
102
RTVSPropertyOp14
 70
     1
102
RTVSPropertyOp15
 70
     1
102
RTVSPropertyOp16
 70
     1
102
RTVSPropertyOp17
 70
     1
102
RTVSPropertyOp18
 70
     1
102
RTVSPropertyOp19
 70
     1
102
RTVSPropertyOp20
 70
     1
102
RTVSPropertyOp21
 70
     1
102
RTVSPropertyOp22
 70
     1
102
RTVSPropertyOp23
 70
     1
102
RTVSPropertyOp24
 70
     1
102
RTVSPropertyOp25
 70
     1
102
RTVSPropertyOp26
 70
     1
102
RTVSPropertyOp27
 70
     1
102
RTVSPropertyOp28
 70
     1
102
RTVSPropertyOp29
 70
     1
102
RTVSPropertyOp30
 70
     1
102
RTVSPropertyOp31
 70
     1
102
RTVSPropertyOp32
 70
     1
  0
XRECORD
  5
14F
102
{ACAD_REACTORS
330
14E
102
}
330
14E
100
AcDbXrecord
280
     1
102
RTVSPropertyOp0
 70
     1
102
RTVSPropertyOp1
 70
     1
102
RTVSPropertyOp2
 70
     1
102
RTVSPropertyOp3
 70
     1
102
RTVSPropertyOp4
 70
     1
102
RTVSPropertyOp5
 70
     1
102
RTVSPropertyOp6
 70
     1
102
RTVSPropertyOp7
 70
     1
102
RTVSPropertyOp8
 70
     1
102
RTVSPropertyOp9
 70
     1
102
RTVSPropertyOp10
 70
     1
102
RTVSPropertyOp11
 70
     1
102
RTVSPropertyOp12
 70
     1
102
RTVSPropertyOp13
 70
     1
102
RTVSPropertyOp14
 70
     1
102
RTVSPropertyOp15
 70
     1
102
RTVSPropertyOp16
 70
     1
102
RTVSPropertyOp17
 70
     1
102
RTVSPropertyOp18
 70
     1
102
RTVSPropertyOp19
 70
     1
102
RTVSPropertyOp20
 70
     1
102
RTVSPropertyOp21
 70
     1
102
RTVSPropertyOp22
 70
     1
102
RTVSPropertyOp23
 70
     1
102
RTVSPropertyOp24
 70
     1
102
RTVSPropertyOp25
 70
     1
102
RTVSPropertyOp26
 70
     1
102
RTVSPropertyOp27
 70
     1
102
RTVSPropertyOp28
 70
     1
102
RTVSPropertyOp29
 70
     1
102
RTVSPropertyOp30
 70
     1
102
RTVSPropertyOp31
 70
     1
102
RTVSPropertyOp32
 70
     1
  0
XRECORD
  5
151
102
{ACAD_REACTORS
330
150
102
}
330
150
100
AcDbXrecord
280
     1
102
RTVSPropertyOp0
 70
     1
102
RTVSPropertyOp1
 70
     1
102
RTVSPropertyOp2
 70
     1
102
RTVSPropertyOp3
 70
     1
102
RTVSPropertyOp4
 70
     1
102
RTVSPropertyOp5
 70
     1
102
RTVSPropertyOp6
 70
     1
102
RTVSPropertyOp7
 70
     1
102
RTVSPropertyOp8
 70
     1
102
RTVSPropertyOp9
 70
     1
102
RTVSPropertyOp10
 70
     1
102
RTVSPropertyOp11
 70
     1
102
RTVSPropertyOp12
 70
     1
102
RTVSPropertyOp13
 70
     1
102
RTVSPropertyOp14
 70
     1
102
RTVSPropertyOp15
 70
     1
102
RTVSPropertyOp16
 70
     1
102
RTVSPropertyOp17
 70
     1
102
RTVSPropertyOp18
 70
     1
102
RTVSPropertyOp19
 70
     1
102
RTVSPropertyOp20
 70
     1
102
RTVSPropertyOp21
 70
     1
102
RTVSPropertyOp22
 70
     1
102
RTVSPropertyOp23
 70
     1
102
RTVSPropertyOp24
 70
     1
102
RTVSPropertyOp25
 70
     1
102
RTVSPropertyOp26
 70
     1
102
RTVSPropertyOp27
 70
     1
102
RTVSPropertyOp28
 70
     1
102
RTVSPropertyOp29
 70
     1
102
RTVSPropertyOp30
 70
     1
102
RTVSPropertyOp31
 70
     1
102
RTVSPropertyOp32
 70
     1
  0
XRECORD
  5
153
102
{ACAD_REACTORS
330
152
102
}
330
152
100
AcDbXrecord
280
     1
102
RTVSPropertyOp0
 70
     1
102
RTVSPropertyOp1
 70
     1
102
RTVSPropertyOp2
 70
     1
102
RTVSPropertyOp3
 70
     1
102
RTVSPropertyOp4
 70
     1
102
RTVSPropertyOp5
 70
     1
102
RTVSPropertyOp6
 70
     1
102
RTVSPropertyOp7
 70
     1
102
RTVSPropertyOp8
 70
     1
102
RTVSPropertyOp9
 70
     1
102
RTVSPropertyOp10
 70
     1
102
RTVSPropertyOp11
 70
     1
102
RTVSPropertyOp12
 70
     1
102
RTVSPropertyOp13
 70
     1
102
RTVSPropertyOp14
 70
     1
102
RTVSPropertyOp15
 70
     1
102
RTVSPropertyOp16
 70
     1
102
RTVSPropertyOp17
 70
     1
102
RTVSPropertyOp18
 70
     1
102
RTVSPropertyOp19
 70
     1
102
RTVSPropertyOp20
 70
     1
102
RTVSPropertyOp21
 70
     1
102
RTVSPropertyOp22
 70
     1
102
RTVSPropertyOp23
 70
     1
102
RTVSPropertyOp24
 70
     1
102
RTVSPropertyOp25
 70
     1
102
RTVSPropertyOp26
 70
     1
102
RTVSPropertyOp27
 70
     1
102
RTVSPropertyOp28
 70
     1
102
RTVSPropertyOp29
 70
     1
102
RTVSPropertyOp30
 70
     1
102
RTVSPropertyOp31
 70
     1
102
RTVSPropertyOp32
 70
     1
  0
XRECORD
  5
167
102
{ACAD_REACTORS
330
166
102
}
330
166
100
AcDbXrecord
280
     1
102
RTVSPropertyOp0
 70
     1
102
RTVSPropertyOp1
 70
     1
102
RTVSPropertyOp2
 70
     1
102
RTVSPropertyOp3
 70
     1
102
RTVSPropertyOp4
 70
     1
102
RTVSPropertyOp5
 70
     1
102
RTVSPropertyOp6
 70
     1
102
RTVSPropertyOp7
 70
     1
102
RTVSPropertyOp8
 70
     1
102
RTVSPropertyOp9
 70
     1
102
RTVSPropertyOp10
 70
     1
102
RTVSPropertyOp11
 70
     1
102
RTVSPropertyOp12
 70
     1
102
RTVSPropertyOp13
 70
     1
102
RTVSPropertyOp14
 70
     1
102
RTVSPropertyOp15
 70
     1
102
RTVSPropertyOp16
 70
     1
102
RTVSPropertyOp17
 70
     1
102
RTVSPropertyOp18
 70
     1
102
RTVSPropertyOp19
 70
     1
102
RTVSPropertyOp20
 70
     1
102
RTVSPropertyOp21
 70
     1
102
RTVSPropertyOp22
 70
     1
102
RTVSPropertyOp23
 70
     1
102
RTVSPropertyOp24
 70
     1
102
RTVSPropertyOp25
 70
     1
102
RTVSPropertyOp26
 70
     1
102
RTVSPropertyOp27
 70
     1
102
RTVSPropertyOp28
 70
     1
102
RTVSPropertyOp29
 70
     1
102
RTVSPropertyOp30
 70
     1
102
RTVSPropertyOp31
 70
     1
102
RTVSPropertyOp32
 70
     1
  0
XRECORD
  5
15D
102
{ACAD_REACTORS
330
15C
102
}
330
15C
100
AcDbXrecord
280
     1
102
RTVSPropertyOp0
 70
     1
102
RTVSPropertyOp1
 70
     1
102
RTVSPropertyOp2
 70
     1
102
RTVSPropertyOp3
 70
     1
102
RTVSPropertyOp4
 70
     1
102
RTVSPropertyOp5
 70
     1
102
RTVSPropertyOp6
 70
     1
102
RTVSPropertyOp7
 70
     1
102
RTVSPropertyOp8
 70
     1
102
RTVSPropertyOp9
 70
     1
102
RTVSPropertyOp10
 70
     1
102
RTVSPropertyOp11
 70
     1
102
RTVSPropertyOp12
 70
     1
102
RTVSPropertyOp13
 70
     1
102
RTVSPropertyOp14
 70
     1
102
RTVSPropertyOp15
 70
     1
102
RTVSPropertyOp16
 70
     1
102
RTVSPropertyOp17
 70
     1
102
RTVSPropertyOp18
 70
     1
102
RTVSPropertyOp19
 70
     1
102
RTVSPropertyOp20
 70
     1
102
RTVSPropertyOp21
 70
     1
102
RTVSPropertyOp22
 70
     1
102
RTVSPropertyOp23
 70
     1
102
RTVSPropertyOp24
 70
     1
102
RTVSPropertyOp25
 70
     1
102
RTVSPropertyOp26
 70
     1
102
RTVSPropertyOp27
 70
     1
102
RTVSPropertyOp28
 70
     1
102
RTVSPropertyOp29
 70
     1
102
RTVSPropertyOp30
 70
     1
102
RTVSPropertyOp31
 70
     1
102
RTVSPropertyOp32
 70
     1
  0
XRECORD
  5
165
102
{ACAD_REACTORS
330
164
102
}
330
164
100
AcDbXrecord
280
     1
102
RTVSPropertyOp0
 70
     1
102
RTVSPropertyOp1
 70
     1
102
RTVSPropertyOp2
 70
     1
102
RTVSPropertyOp3
 70
     1
102
RTVSPropertyOp4
 70
     1
102
RTVSPropertyOp5
 70
     1
102
RTVSPropertyOp6
 70
     1
102
RTVSPropertyOp7
 70
     1
102
RTVSPropertyOp8
 70
     1
102
RTVSPropertyOp9
 70
     1
102
RTVSPropertyOp10
 70
     1
102
RTVSPropertyOp11
 70
     1
102
RTVSPropertyOp12
 70
     1
102
RTVSPropertyOp13
 70
     1
102
RTVSPropertyOp14
 70
     1
102
RTVSPropertyOp15
 70
     1
102
RTVSPropertyOp16
 70
     1
102
RTVSPropertyOp17
 70
     1
102
RTVSPropertyOp18
 70
     1
102
RTVSPropertyOp19
 70
     1
102
RTVSPropertyOp20
 70
     1
102
RTVSPropertyOp21
 70
     1
102
RTVSPropertyOp22
 70
     1
102
RTVSPropertyOp23
 70
     1
102
RTVSPropertyOp24
 70
     1
102
RTVSPropertyOp25
 70
     1
102
RTVSPropertyOp26
 70
     1
102
RTVSPropertyOp27
 70
     1
102
RTVSPropertyOp28
 70
     1
102
RTVSPropertyOp29
 70
     1
102
RTVSPropertyOp30
 70
     1
102
RTVSPropertyOp31
 70
     1
102
RTVSPropertyOp32
 70
     1
  0
ENDSEC
  0
EOF
