  0
SECTION
  2
HEADER
  9
$ACADVER
  1
AC1021
  9
$ACADMAINTVER
 70
    25
  9
$DWGCODEPAGE
  3
ANSI_1252
  9
$INSBASE
 10
0.0
 20
0.0
 30
0.0
  9
$EXTMIN
 10
77.5386
 20
-106.2417
 30
0.0
  9
$EXTMAX
 10
196.5744
 20
131.83
 30
0.0
  9
$LIMMIN
 10
0.0
 20
0.0
  9
$LIMMAX
 10
12.0
 20
9.0
  9
$ORTHOMODE
 70
     0
  9
$REGENMODE
 70
     1
  9
$FILLMODE
 70
     1
  9
$QTEXTMODE
 70
     0
  9
$MIRRTEXT
 70
     1
  9
$LTSCALE
 40
1.0
  9
$ATTMODE
 70
     1
  9
$TEXTSIZE
 40
0.2
  9
$TRACEWID
 40
0.05
  9
$TEXTSTYLE
  7
Standard
  9
$CLAYER
  8
0
  9
$CELTYPE
  6
ByLayer
  9
$CECOLOR
 62
   256
  9
$CELTSCALE
 40
1.0
  9
$DISPSILH
 70
     0
  9
$DIMSCALE
 40
1.0
  9
$DIMASZ
 40
0.18
  9
$DIMEXO
 40
0.0625
  9
$DIMDLI
 40
0.38
  9
$DIMRND
 40
0.0
  9
$DIMDLE
 40
0.0
  9
$DIMEXE
 40
0.18
  9
$DIMTP
 40
0.0
  9
$DIMTM
 40
0.0
  9
$DIMTXT
 40
0.18
  9
$DIMCEN
 40
0.09
  9
$DIMTSZ
 40
0.0
  9
$DIMTOL
 70
     0
  9
$DIMLIM
 70
     0
  9
$DIMTIH
 70
     1
  9
$DIMTOH
 70
     1
  9
$DIMSE1
 70
     0
  9
$DIMSE2
 70
     0
  9
$DIMTAD
 70
     0
  9
$DIMZIN
 70
     0
  9
$DIMBLK
  1

  9
$DIMASO
 70
     1
  9
$DIMSHO
 70
     1
  9
$DIMPOST
  1

  9
$DIMAPOST
  1

  9
$DIMALT
 70
     0
  9
$DIMALTD
 70
     2
  9
$DIMALTF
 40
25.4
  9
$DIMLFAC
 40
1.0
  9
$DIMTOFL
 70
     0
  9
$DIMTVP
 40
0.0
  9
$DIMTIX
 70
     0
  9
$DIMSOXD
 70
     0
  9
$DIMSAH
 70
     0
  9
$DIMBLK1
  1

  9
$DIMBLK2
  1

  9
$DIMSTYLE
  2
Standard
  9
$DIMCLRD
 70
     0
  9
$DIMCLRE
 70
     0
  9
$DIMCLRT
 70
     0
  9
$DIMTFAC
 40
1.0
  9
$DIMGAP
 40
0.09
  9
$DIMJUST
 70
     0
  9
$DIMSD1
 70
     0
  9
$DIMSD2
 70
     0
  9
$DIMTOLJ
 70
     1
  9
$DIMTZIN
 70
     0
  9
$DIMALTZ
 70
     0
  9
$DIMALTTZ
 70
     0
  9
$DIMUPT
 70
     0
  9
$DIMDEC
 70
     4
  9
$DIMTDEC
 70
     4
  9
$DIMALTU
 70
     2
  9
$DIMALTTD
 70
     2
  9
$DIMTXSTY
  7
Standard
  9
$DIMAUNIT
 70
     0
  9
$DIMADEC
 70
     0
  9
$DIMALTRND
 40
0.0
  9
$DIMAZIN
 70
     0
  9
$DIMDSEP
 70
    46
  9
$DIMATFIT
 70
     3
  9
$DIMFRAC
 70
     0
  9
$DIMLDRBLK
  1

  9
$DIMLUNIT
 70
     2
  9
$DIMLWD
 70
    -2
  9
$DIMLWE
 70
    -2
  9
$DIMTMOVE
 70
     0
  9
$DIMFXL
 40
1.0
  9
$DIMFXLON
 70
     0
  9
$DIMJOGANG
 40
0.7853981633974483
  9
$DIMTFILL
 70
     0
  9
$DIMTFILLCLR
 70
     0
  9
$DIMARCSYM
 70
     0
  9
$DIMLTYPE
  6

  9
$DIMLTEX1
  6

  9
$DIMLTEX2
  6

  9
$LUNITS
 70
     2
  9
$LUPREC
 70
     4
  9
$SKETCHINC
 40
0.1
  9
$FILLETRAD
 40
0.5
  9
$AUNITS
 70
     0
  9
$AUPREC
 70
     0
  9
$MENU
  1
.
  9
$ELEVATION
 40
0.0
  9
$PELEVATION
 40
0.0
  9
$THICKNESS
 40
0.0
  9
$LIMCHECK
 70
     0
  9
$CHAMFERA
 40
0.5
  9
$CHAMFERB
 40
0.5
  9
$CHAMFERC
 40
1.0
  9
$CHAMFERD
 40
0.0
  9
$SKPOLY
 70
     0
  9
$TDCREATE
 40
2458493.709203206
  9
$TDUCREATE
 40
2458493.709203206
  9
$TDUPDATE
 40
2458493.709203333
  9
$TDUUPDATE
 40
2458493.709203333
  9
$TDINDWG
 40
0.0000000116
  9
$TDUSRTIMER
 40
0.0000000116
  9
$USRTIMER
 70
     1
  9
$ANGBASE
 50
0.0
  9
$ANGDIR
 70
     0
  9
$PDMODE
 70
     0
  9
$PDSIZE
 40
0.0
  9
$PLINEWID
 40
0.0
  9
$SPLFRAME
 70
     0
  9
$SPLINETYPE
 70
     6
  9
$SPLINESEGS
 70
     8
  9
$HANDSEED
  5
B9
  9
$SURFTAB1
 70
     6
  9
$SURFTAB2
 70
     6
  9
$SURFTYPE
 70
     6
  9
$SURFU
 70
     6
  9
$SURFV
 70
     6
  9
$UCSBASE
  2

  9
$UCSNAME
  2

  9
$UCSORG
 10
0.0
 20
0.0
 30
0.0
  9
$UCSXDIR
 10
1.0
 20
0.0
 30
0.0
  9
$UCSYDIR
 10
0.0
 20
1.0
 30
0.0
  9
$UCSORTHOREF
  2

  9
$UCSORTHOVIEW
 70
     0
  9
$UCSORGTOP
 10
0.0
 20
0.0
 30
0.0
  9
$UCSORGBOTTOM
 10
0.0
 20
0.0
 30
0.0
  9
$UCSORGLEFT
 10
0.0
 20
0.0
 30
0.0
  9
$UCSORGRIGHT
 10
0.0
 20
0.0
 30
0.0
  9
$UCSORGFRONT
 10
0.0
 20
0.0
 30
0.0
  9
$UCSORGBACK
 10
0.0
 20
0.0
 30
0.0
  9
$PUCSBASE
  2

  9
$PUCSNAME
  2

  9
$PUCSORG
 10
0.0
 20
0.0
 30
0.0
  9
$PUCSXDIR
 10
1.0
 20
0.0
 30
0.0
  9
$PUCSYDIR
 10
0.0
 20
1.0
 30
0.0
  9
$PUCSORTHOREF
  2

  9
$PUCSORTHOVIEW
 70
     0
  9
$PUCSORGTOP
 10
0.0
 20
0.0
 30
0.0
  9
$PUCSORGBOTTOM
 10
0.0
 20
0.0
 30
0.0
  9
$PUCSORGLEFT
 10
0.0
 20
0.0
 30
0.0
  9
$PUCSORGRIGHT
 10
0.0
 20
0.0
 30
0.0
  9
$PUCSORGFRONT
 10
0.0
 20
0.0
 30
0.0
  9
$PUCSORGBACK
 10
0.0
 20
0.0
 30
0.0
  9
$USERI1
 70
     0
  9
$USERI2
 70
     0
  9
$USERI3
 70
     0
  9
$USERI4
 70
     0
  9
$USERI5
 70
     0
  9
$USERR1
 40
0.0
  9
$USERR2
 40
0.0
  9
$USERR3
 40
0.0
  9
$USERR4
 40
0.0
  9
$USERR5
 40
0.0
  9
$WORLDVIEW
 70
     1
  9
$SHADEDGE
 70
     3
  9
$SHADEDIF
 70
    70
  9
$TILEMODE
 70
     1
  9
$MAXACTVP
 70
    64
  9
$PINSBASE
 10
0.0
 20
0.0
 30
0.0
  9
$PLIMCHECK
 70
     0
  9
$PEXTMIN
 10
1.000000000000000E+20
 20
1.000000000000000E+20
 30
1.000000000000000E+20
  9
$PEXTMAX
 10
-1.000000000000000E+20
 20
-1.000000000000000E+20
 30
-1.000000000000000E+20
  9
$PLIMMIN
 10
0.0
 20
0.0
  9
$PLIMMAX
 10
12.0
 20
9.0
  9
$UNITMODE
 70
     0
  9
$VISRETAIN
 70
     1
  9
$PLINEGEN
 70
     0
  9
$PSLTSCALE
 70
     1
  9
$TREEDEPTH
 70
  3020
  9
$CMLSTYLE
  2
Standard
  9
$CMLJUST
 70
     0
  9
$CMLSCALE
 40
1.0
  9
$PROXYGRAPHICS
 70
     1
  9
$MEASUREMENT
 70
     0
  9
$CELWEIGHT
370
    -1
  9
$ENDCAPS
280
     0
  9
$JOINSTYLE
280
     0
  9
$LWDISPLAY
290
     0
  9
$INSUNITS
 70
     4
  9
$HYPERLINKBASE
  1

  9
$STYLESHEET
  1

  9
$XEDIT
290
     1
  9
$CEPSNTYPE
380
     0
  9
$PSTYLEMODE
290
     1
  9
$FINGERPRINTGUID
  2
{EA69DD22-F8E7-49EB-9B66-0B10363E8268}
  9
$VERSIONGUID
  2
{FAEB1C32-E019-11D5-929B-00C0DF256EC4}
  9
$EXTNAMES
290
     1
  9
$PSVPSCALE
 40
0.0
  9
$OLESTARTUP
290
     0
  9
$SORTENTS
280
   127
  9
$INDEXCTL
280
     0
  9
$HIDETEXT
280
     1
  9
$XCLIPFRAME
290
     0
  9
$HALOGAP
280
     0
  9
$OBSCOLOR
 70
   257
  9
$OBSLTYPE
280
     0
  9
$INTERSECTIONDISPLAY
280
     0
  9
$INTERSECTIONCOLOR
 70
   257
  9
$DIMASSOC
280
     2
  9
$PROJECTNAME
  1

  9
$CAMERADISPLAY
290
     0
  9
$LENSLENGTH
 40
50.0
  9
$CAMERAHEIGHT
 40
0.0
  9
$STEPSPERSEC
 40
2.0
  9
$STEPSIZE
 40
6.0
  9
$3DDWFPREC
 40
2.0
  9
$PSOLWIDTH
 40
0.25
  9
$PSOLHEIGHT
 40
4.0
  9
$LOFTANG1
 40
1.570796326794897
  9
$LOFTANG2
 40
1.570796326794897
  9
$LOFTMAG1
 40
0.0
  9
$LOFTMAG2
 40
0.0
  9
$LOFTPARAM
 70
     7
  9
$LOFTNORMALS
280
     1
  9
$LATITUDE
 40
37.795
  9
$LONGITUDE
 40
-122.394
  9
$NORTHDIRECTION
 40
0.0
  9
$TIMEZONE
 70
 -8000
  9
$LIGHTGLYPHDISPLAY
280
     1
  9
$TILEMODELIGHTSYNCH
280
     1
  9
$SOLIDHIST
280
     1
  9
$SHOWHIST
280
     1
  9
$DWFFRAME
280
     2
  9
$DGNFRAME
280
     2
  9
$REALWORLDSCALE
290
     1
  9
$INTERFERECOLOR
 62
   256
  9
$CSHADOW
280
     0
  9
$SHADOWPLANELOCATION
 40
0.0
  0
ENDSEC
  0
SECTION
  2
CLASSES
  0
CLASS
  1
ACDBDICTIONARYWDFLT
  2
AcDbDictionaryWithDefault
  3
ObjectDBX Classes
 90
        0
 91
        4
280
     0
281
     0
  0
CLASS
  1
VISUALSTYLE
  2
AcDbVisualStyle
  3
ObjectDBX Classes
 90
     4095
 91
        4
280
     0
281
     0
  0
CLASS
  1
MATERIAL
  2
AcDbMaterial
  3
ObjectDBX Classes
 90
     1153
 91
        4
280
     0
281
     0
  0
ENDSEC
  0
SECTION
  2
TABLES
  0
TABLE
  2
VPORT
  5
8
330
0
100
AcDbSymbolTable
 70
     1
  0
VPORT
  5
29
330
8
100
AcDbSymbolTableRecord
100
AcDbViewportTableRecord
  2
*Active
 70
     0
 10
0.0
 20
0.0
 11
1.0
 21
1.0
 12
10.42990654205607
 22
4.5
 13
0.0
 23
0.0
 14
0.5
 24
0.5
 15
0.5
 25
0.5
 16
0.0
 26
0.0
 36
1.0
 17
0.0
 27
0.0
 37
0.0
 40
9.0
 41
1.972972972850329
 42
50.0
 43
0.0
 44
0.0
 50
0.0
 51
0.0
 71
     0
 72
   100
 73
     1
 74
     3
 75
     0
 76
     0
 77
     0
 78
     0
281
     0
 65
     1
110
0.0
120
0.0
130
0.0
111
1.0
121
0.0
131
0.0
112
0.0
122
1.0
132
0.0
 79
     0
146
0.0
 60
     3
 61
     5
292
     1
282
     1
141
0.0
142
0.0
 63
   250
  0
ENDTAB
  0
TABLE
  2
LTYPE
  5
5
330
0
100
AcDbSymbolTable
 70
     1
  0
LTYPE
  5
14
330
5
100
AcDbSymbolTableRecord
100
AcDbLinetypeTableRecord
  2
ByBlock
 70
     0
  3

 72
    65
 73
     0
 40
0.0
  0
LTYPE
  5
15
330
5
100
AcDbSymbolTableRecord
100
AcDbLinetypeTableRecord
  2
ByLayer
 70
     0
  3

 72
    65
 73
     0
 40
0.0
  0
LTYPE
  5
16
330
5
100
AcDbSymbolTableRecord
100
AcDbLinetypeTableRecord
  2
Continuous
 70
     0
  3
Solid line
 72
    65
 73
     0
 40
0.0
  0
ENDTAB
  0
TABLE
  2
LAYER
  5
2
330
0
100
AcDbSymbolTable
 70
     3
  0
LAYER
  5
10
330
2
100
AcDbSymbolTableRecord
100
AcDbLayerTableRecord
  2
0
 70
     0
 62
     7
  6
Continuous
370
    -3
390
F
347
3E
  0
LAYER
  5
40
330
2
100
AcDbSymbolTableRecord
100
AcDbLayerTableRecord
  2
layer 1
 70
     0
 62
     7
  6
Continuous
370
    -3
390
F
347
3E
  0
LAYER
  5
96
330
2
100
AcDbSymbolTableRecord
100
AcDbLayerTableRecord
  2
Master Guides
 70
     0
 62
     7
  6
Continuous
370
    -3
390
F
347
3E
  0
ENDTAB
  0
TABLE
  2
STYLE
  5
3
330
0
100
AcDbSymbolTable
 70
     1
  0
STYLE
  5
11
330
3
100
AcDbSymbolTableRecord
100
AcDbTextStyleTableRecord
  2
Standard
 70
     0
 40
0.0
 41
1.0
 50
0.0
 71
     0
 42
0.2
  3
txt
  4

  0
ENDTAB
  0
TABLE
  2
VIEW
  5
6
330
0
100
AcDbSymbolTable
 70
     0
  0
ENDTAB
  0
TABLE
  2
UCS
  5
7
330
0
100
AcDbSymbolTable
 70
     0
  0
ENDTAB
  0
TABLE
  2
APPID
  5
9
330
0
100
AcDbSymbolTable
 70
     2
  0
APPID
  5
12
330
9
100
AcDbSymbolTableRecord
100
AcDbRegAppTableRecord
  2
ACAD
 70
     0
  0
APPID
  5
3F
330
9
100
AcDbSymbolTableRecord
100
AcDbRegAppTableRecord
  2
ODA
 70
     0
  0
ENDTAB
  0
TABLE
  2
DIMSTYLE
  5
A
330
0
100
AcDbSymbolTable
 70
     1
100
AcDbDimStyleTable
  0
DIMSTYLE
105
27
330
A
100
AcDbSymbolTableRecord
100
AcDbDimStyleTableRecord
  2
Standard
 70
     0
178
     0
340
11
  0
ENDTAB
  0
TABLE
  2
BLOCK_RECORD
  5
1
330
0
100
AcDbSymbolTable
 70
     1
  0
BLOCK_RECORD
  5
1F
330
1
100
AcDbSymbolTableRecord
100
AcDbBlockTableRecord
  2
*Model_Space
340
22
 70
     0
280
     1
281
     0
  0
BLOCK_RECORD
  5
1B
330
1
100
AcDbSymbolTableRecord
100
AcDbBlockTableRecord
  2
*Paper_Space
340
1E
 70
     0
280
     1
281
     0
  0
BLOCK_RECORD
  5
23
330
1
100
AcDbSymbolTableRecord
100
AcDbBlockTableRecord
  2
*Paper_Space0
340
26
 70
     0
280
     1
281
     0
  0
ENDTAB
  0
ENDSEC
  0
SECTION
  2
BLOCKS
  0
BLOCK
  5
20
330
1F
100
AcDbEntity
  8
0
100
AcDbBlockBegin
  2
*Model_Space
 70
     0
 10
0.0
 20
0.0
 30
0.0
  3
*Model_Space
  1

  0
ENDBLK
  5
21
330
1F
100
AcDbEntity
  8
0
100
AcDbBlockEnd
  0
BLOCK
  5
1C
330
1B
100
AcDbEntity
 67
     1
  8
0
100
AcDbBlockBegin
  2
*Paper_Space
 70
     0
 10
0.0
 20
0.0
 30
0.0
  3
*Paper_Space
  1

  0
ENDBLK
  5
1D
330
1B
100
AcDbEntity
 67
     1
  8
0
100
AcDbBlockEnd
  0
BLOCK
  5
24
330
23
100
AcDbEntity
  8
0
100
AcDbBlockBegin
  2
*Paper_Space0
 70
     0
 10
0.0
 20
0.0
 30
0.0
  3
*Paper_Space0
  1

  0
ENDBLK
  5
25
330
23
100
AcDbEntity
  8
0
100
AcDbBlockEnd
  0
ENDSEC
  0
SECTION
  2
ENTITIES
  0
LWPOLYLINE
  5
41
330
1F
100
AcDbEntity
  8
layer 1
100
AcDbPolyline
 90
        5
 70
     1
 43
0.0
 10
77.5386
 20
-106.2417
 10
196.5744
 20
-106.2417
 10
196.5744
 20
131.8299
 10
77.5386
 20
131.8299
 10
77.5386
 20
-106.2417
  0
SPLINE
  5
42
330
1F
100
AcDbEntity
  8
layer 1
 62
     7
100
AcDbSpline
210
0.0
220
0.0
230
1.0
 70
    11
 71
     3
 72
    20
 73
    16
 74
     0
 42
0.0000000001
 43
0.0000000001
 12
1.0
 22
0.0
 32
0.0
 13
1.0
 23
0.0
 33
0.0
 40
0.0
 40
0.0
 40
0.0
 40
0.0
 40
0.2
 40
0.2
 40
0.2
 40
0.2
 40
0.4
 40
0.4
 40
0.4
 40
0.4
 40
0.6
 40
0.6
 40
0.6
 40
0.6
 40
1.0
 40
1.0
 40
1.0
 40
1.0
 10
179.228
 20
-58.9127
 30
0.0
 10
179.228
 20
-58.9127
 30
0.0
 10
186.1733
 20
-58.9127
 30
0.0
 10
186.1733
 20
-58.9127
 30
0.0
 10
186.1733
 20
-58.9127
 30
0.0
 10
186.1733
 20
-58.9127
 30
0.0
 10
186.1733
 20
-53.2903
 30
0.0
 10
186.1733
 20
-53.2903
 30
0.0
 10
186.1733
 20
-53.2903
 30
0.0
 10
186.1733
 20
-53.2903
 30
0.0
 10
179.228
 20
-53.2903
 30
0.0
 10
179.228
 20
-53.2903
 30
0.0
 10
179.228
 20
-53.2903
 30
0.0
 10
179.228
 20
-53.2903
 30
0.0
 10
179.228
 20
-58.9127
 30
0.0
 10
179.228
 20
-58.9127
 30
0.0
  0
SPLINE
  5
43
330
1F
100
AcDbEntity
  8
layer 1
 62
     7
100
AcDbSpline
210
0.0
220
0.0
230
1.0
 70
    11
 71
     3
 72
    32
 73
    28
 74
     0
 42
0.0000000001
 43
0.0000000001
 12
1.0
 22
0.0
 32
0.0
 13
1.0
 23
0.0
 33
0.0
 40
0.0
 40
0.0
 40
0.0
 40
0.0
 40
0.125
 40
0.125
 40
0.125
 40
0.125
 40
0.25
 40
0.25
 40
0.25
 40
0.25
 40
0.375
 40
0.375
 40
0.375
 40
0.375
 40
0.5
 40
0.5
 40
0.5
 40
0.5
 40
0.625
 40
0.625
 40
0.625
 40
0.625
 40
0.75
 40
0.75
 40
0.75
 40
0.75
 40
1.0
 40
1.0
 40
1.0
 40
1.0
 10
122.1414
 20
-66.3612
 30
0.0
 10
122.1414
 20
-66.3612
 30
0.0
 10
122.1414
 20
-69.3949
 30
0.0
 10
122.1414
 20
-69.3949
 30
0.0
 10
122.1414
 20
-69.3949
 30
0.0
 10
122.1414
 20
-69.3949
 30
0.0
 10
102.3469
 20
-69.3949
 30
0.0
 10
102.3469
 20
-69.3949
 30
0.0
 10
102.3469
 20
-69.3949
 30
0.0
 10
101.0148
 20
-69.3949
 30
0.0
 10
99.9825
 20
-68.9939
 30
0.0
 10
99.9825
 20
-67.1225
 30
0.0
 10
99.9825
 20
-67.1225
 30
0.0
 10
99.9825
 20
-67.1225
 30
0.0
 10
99.9825
 20
-64.1033
 30
0.0
 10
99.9825
 20
-64.1033
 30
0.0
 10
99.9825
 20
-64.1033
 30
0.0
 10
99.9825
 20
-64.1033
 30
0.0
 10
119.9343
 20
-64.1033
 30
0.0
 10
119.9343
 20
-64.1033
 30
0.0
 10
119.9343
 20
-64.1033
 30
0.0
 10
121.6927
 20
-64.1547
 30
0.0
 10
122.1348
 20
-65.3515
 30
0.0
 10
122.1413
 20
-66.3613
 30
0.0
 10
122.1413
 20
-66.3613
 30
0.0
 10
122.1413
 20
-66.3613
 30
0.0
 10
122.1414
 20
-66.3612
 30
0.0
 10
122.1414
 20
-66.3612
 30
0.0
  0
SPLINE
  5
44
330
1F
100
AcDbEntity
  8
layer 1
 62
     7
100
AcDbSpline
210
0.0
220
0.0
230
1.0
 70
    11
 71
     3
 72
    32
 73
    28
 74
     0
 42
0.0000000001
 43
0.0000000001
 12
1.0
 22
0.0
 32
0.0
 13
1.0
 23
0.0
 33
0.0
 40
0.0
 40
0.0
 40
0.0
 40
0.0
 40
0.125
 40
0.125
 40
0.125
 40
0.125
 40
0.25
 40
0.25
 40
0.25
 40
0.25
 40
0.375
 40
0.375
 40
0.375
 40
0.375
 40
0.5
 40
0.5
 40
0.5
 40
0.5
 40
0.625
 40
0.625
 40
0.625
 40
0.625
 40
0.75
 40
0.75
 40
0.75
 40
0.75
 40
1.0
 40
1.0
 40
1.0
 40
1.0
 10
151.8499
 20
-66.3612
 30
0.0
 10
151.8499
 20
-66.3612
 30
0.0
 10
151.8499
 20
-69.3949
 30
0.0
 10
151.8499
 20
-69.3949
 30
0.0
 10
151.8499
 20
-69.3949
 30
0.0
 10
151.8499
 20
-69.3949
 30
0.0
 10
171.6444
 20
-69.3949
 30
0.0
 10
171.6444
 20
-69.3949
 30
0.0
 10
171.6444
 20
-69.3949
 30
0.0
 10
172.9765
 20
-69.3949
 30
0.0
 10
174.0088
 20
-68.9939
 30
0.0
 10
174.0088
 20
-67.1225
 30
0.0
 10
174.0088
 20
-67.1225
 30
0.0
 10
174.0088
 20
-67.1225
 30
0.0
 10
174.0088
 20
-64.1033
 30
0.0
 10
174.0088
 20
-64.1033
 30
0.0
 10
174.0088
 20
-64.1033
 30
0.0
 10
174.0088
 20
-64.1033
 30
0.0
 10
154.057
 20
-64.1033
 30
0.0
 10
154.057
 20
-64.1033
 30
0.0
 10
154.057
 20
-64.1033
 30
0.0
 10
152.2986
 20
-64.1547
 30
0.0
 10
151.8565
 20
-65.3515
 30
0.0
 10
151.85
 20
-66.3613
 30
0.0
 10
151.85
 20
-66.3613
 30
0.0
 10
151.85
 20
-66.3613
 30
0.0
 10
151.8499
 20
-66.3612
 30
0.0
 10
151.8499
 20
-66.3612
 30
0.0
  0
SPLINE
  5
45
330
1F
100
AcDbEntity
  8
layer 1
 62
     7
100
AcDbSpline
210
0.0
220
0.0
230
1.0
 70
    11
 71
     3
 72
    40
 73
    36
 74
     0
 42
0.0000000001
 43
0.0000000001
 12
1.0
 22
0.0
 32
0.0
 13
1.0
 23
0.0
 33
0.0
 40
0.0
 40
0.0
 40
0.0
 40
0.0
 40
0.1
 40
0.1
 40
0.1
 40
0.1
 40
0.2
 40
0.2
 40
0.2
 40
0.2
 40
0.3
 40
0.3
 40
0.3
 40
0.3
 40
0.4
 40
0.4
 40
0.4
 40
0.4
 40
0.5
 40
0.5
 40
0.5
 40
0.5
 40
0.6
 40
0.6
 40
0.6
 40
0.6
 40
0.7
 40
0.7
 40
0.7
 40
0.7
 40
0.8
 40
0.8
 40
0.8
 40
0.8
 40
1.0
 40
1.0
 40
1.0
 40
1.0
 10
94.7129
 20
-65.9858
 30
0.0
 10
94.6055
 20
-70.4049
 30
0.0
 10
96.4807
 20
-73.3504
 30
0.0
 10
99.96
 20
-74.3656
 30
0.0
 10
99.96
 20
-74.3656
 30
0.0
 10
100.7879
 20
-74.5921
 30
0.0
 10
105.2124
 20
-74.7282
 30
0.0
 10
111.7836
 20
-74.7294
 30
0.0
 10
111.7836
 20
-74.7294
 30
0.0
 10
111.7836
 20
-74.7294
 30
0.0
 10
122.2843
 20
-74.7313
 30
0.0
 10
122.2843
 20
-74.7313
 30
0.0
 10
122.2843
 20
-74.7313
 30
0.0
 10
122.2843
 20
-74.7313
 30
0.0
 10
122.2843
 20
-80.3537
 30
0.0
 10
122.2843
 20
-80.3537
 30
0.0
 10
122.2843
 20
-80.3537
 30
0.0
 10
122.2843
 20
-80.3537
 30
0.0
 10
96.6436
 20
-80.3537
 30
0.0
 10
96.6436
 20
-80.3537
 30
0.0
 10
96.6436
 20
-80.3537
 30
0.0
 10
96.6436
 20
-80.3537
 30
0.0
 10
87.7256
 20
-71.5391
 30
0.0
 10
87.7256
 20
-71.5391
 30
0.0
 10
87.7256
 20
-71.5391
 30
0.0
 10
87.7256
 20
-71.5391
 30
0.0
 10
87.7231
 20
-64.1477
 30
0.0
 10
87.7231
 20
-64.1477
 30
0.0
 10
87.7231
 20
-64.1477
 30
0.0
 10
87.7231
 20
-64.1477
 30
0.0
 10
94.713
 20
-64.148
 30
0.0
 10
94.713
 20
-64.148
 30
0.0
 10
94.713
 20
-64.148
 30
0.0
 10
94.713
 20
-64.148
 30
0.0
 10
94.7129
 20
-65.9858
 30
0.0
 10
94.7129
 20
-65.9858
 30
0.0
  0
SPLINE
  5
46
330
1F
100
AcDbEntity
  8
layer 1
 62
     7
100
AcDbSpline
210
0.0
220
0.0
230
1.0
 70
    11
 71
     3
 72
    40
 73
    36
 74
     0
 42
0.0000000001
 43
0.0000000001
 12
1.0
 22
0.0
 32
0.0
 13
1.0
 23
0.0
 33
0.0
 40
0.0
 40
0.0
 40
0.0
 40
0.0
 40
0.1
 40
0.1
 40
0.1
 40
0.1
 40
0.2
 40
0.2
 40
0.2
 40
0.2
 40
0.3
 40
0.3
 40
0.3
 40
0.3
 40
0.4
 40
0.4
 40
0.4
 40
0.4
 40
0.5
 40
0.5
 40
0.5
 40
0.5
 40
0.6
 40
0.6
 40
0.6
 40
0.6
 40
0.7
 40
0.7
 40
0.7
 40
0.7
 40
0.8
 40
0.8
 40
0.8
 40
0.8
 40
1.0
 40
1.0
 40
1.0
 40
1.0
 10
127.456
 20
-67.6911
 30
0.0
 10
127.5634
 20
-63.272
 30
0.0
 10
125.6882
 20
-60.3265
 30
0.0
 10
122.2089
 20
-59.3113
 30
0.0
 10
122.2089
 20
-59.3113
 30
0.0
 10
121.381
 20
-59.0848
 30
0.0
 10
116.9565
 20
-58.9487
 30
0.0
 10
110.3853
 20
-58.9475
 30
0.0
 10
110.3853
 20
-58.9475
 30
0.0
 10
110.3853
 20
-58.9475
 30
0.0
 10
99.8846
 20
-58.9456
 30
0.0
 10
99.8846
 20
-58.9456
 30
0.0
 10
99.8846
 20
-58.9456
 30
0.0
 10
99.8846
 20
-58.9456
 30
0.0
 10
99.8846
 20
-53.3232
 30
0.0
 10
99.8846
 20
-53.3232
 30
0.0
 10
99.8846
 20
-53.3232
 30
0.0
 10
99.8846
 20
-53.3232
 30
0.0
 10
125.5253
 20
-53.3232
 30
0.0
 10
125.5253
 20
-53.3232
 30
0.0
 10
125.5253
 20
-53.3232
 30
0.0
 10
125.5253
 20
-53.3232
 30
0.0
 10
134.3217
 20
-62.1378
 30
0.0
 10
134.3217
 20
-62.1378
 30
0.0
 10
134.3217
 20
-62.1378
 30
0.0
 10
134.3217
 20
-62.1378
 30
0.0
 10
134.4458
 20
-69.5292
 30
0.0
 10
134.4458
 20
-69.5292
 30
0.0
 10
134.4458
 20
-69.5292
 30
0.0
 10
134.4458
 20
-69.5292
 30
0.0
 10
127.4559
 20
-69.5289
 30
0.0
 10
127.4559
 20
-69.5289
 30
0.0
 10
127.4559
 20
-69.5289
 30
0.0
 10
127.4559
 20
-69.5289
 30
0.0
 10
127.456
 20
-67.6911
 30
0.0
 10
127.456
 20
-67.6911
 30
0.0
  0
SPLINE
  5
47
330
1F
100
AcDbEntity
  8
layer 1
 62
     7
100
AcDbSpline
210
0.0
220
0.0
230
1.0
 70
    11
 71
     3
 72
    20
 73
    16
 74
     0
 42
0.0000000001
 43
0.0000000001
 12
1.0
 22
0.0
 32
0.0
 13
1.0
 23
0.0
 33
0.0
 40
0.0
 40
0.0
 40
0.0
 40
0.0
 40
0.2
 40
0.2
 40
0.2
 40
0.2
 40
0.4
 40
0.4
 40
0.4
 40
0.4
 40
0.6
 40
0.6
 40
0.6
 40
0.6
 40
1.0
 40
1.0
 40
1.0
 40
1.0
 10
127.4056
 20
-74.7642
 30
0.0
 10
127.4056
 20
-74.7642
 30
0.0
 10
134.3509
 20
-74.7642
 30
0.0
 10
134.3509
 20
-74.7642
 30
0.0
 10
134.3509
 20
-74.7642
 30
0.0
 10
134.3509
 20
-74.7642
 30
0.0
 10
134.3509
 20
-80.3866
 30
0.0
 10
134.3509
 20
-80.3866
 30
0.0
 10
134.3509
 20
-80.3866
 30
0.0
 10
134.3509
 20
-80.3866
 30
0.0
 10
127.4056
 20
-80.3866
 30
0.0
 10
127.4056
 20
-80.3866
 30
0.0
 10
127.4056
 20
-80.3866
 30
0.0
 10
127.4056
 20
-80.3866
 30
0.0
 10
127.4056
 20
-74.7642
 30
0.0
 10
127.4056
 20
-74.7642
 30
0.0
  0
SPLINE
  5
48
330
1F
100
AcDbEntity
  8
layer 1
 62
     7
100
AcDbSpline
210
0.0
220
0.0
230
1.0
 70
    11
 71
     3
 72
    40
 73
    36
 74
     0
 42
0.0000000001
 43
0.0000000001
 12
1.0
 22
0.0
 32
0.0
 13
1.0
 23
0.0
 33
0.0
 40
0.0
 40
0.0
 40
0.0
 40
0.0
 40
0.1
 40
0.1
 40
0.1
 40
0.1
 40
0.2
 40
0.2
 40
0.2
 40
0.2
 40
0.3
 40
0.3
 40
0.3
 40
0.3
 40
0.4
 40
0.4
 40
0.4
 40
0.4
 40
0.5
 40
0.5
 40
0.5
 40
0.5
 40
0.6
 40
0.6
 40
0.6
 40
0.6
 40
0.7
 40
0.7
 40
0.7
 40
0.7
 40
0.8
 40
0.8
 40
0.8
 40
0.8
 40
1.0
 40
1.0
 40
1.0
 40
1.0
 10
179.2784
 20
-65.9858
 30
0.0
 10
179.3858
 20
-70.4049
 30
0.0
 10
177.5106
 20
-73.3504
 30
0.0
 10
174.0313
 20
-74.3656
 30
0.0
 10
174.0313
 20
-74.3656
 30
0.0
 10
173.2034
 20
-74.5921
 30
0.0
 10
168.7789
 20
-74.7282
 30
0.0
 10
162.2077
 20
-74.7294
 30
0.0
 10
162.2077
 20
-74.7294
 30
0.0
 10
162.2077
 20
-74.7294
 30
0.0
 10
151.707
 20
-74.7313
 30
0.0
 10
151.707
 20
-74.7313
 30
0.0
 10
151.707
 20
-74.7313
 30
0.0
 10
151.707
 20
-74.7313
 30
0.0
 10
151.707
 20
-80.3537
 30
0.0
 10
151.707
 20
-80.3537
 30
0.0
 10
151.707
 20
-80.3537
 30
0.0
 10
151.707
 20
-80.3537
 30
0.0
 10
177.3477
 20
-80.3537
 30
0.0
 10
177.3477
 20
-80.3537
 30
0.0
 10
177.3477
 20
-80.3537
 30
0.0
 10
177.3477
 20
-80.3537
 30
0.0
 10
186.2657
 20
-71.5391
 30
0.0
 10
186.2657
 20
-71.5391
 30
0.0
 10
186.2657
 20
-71.5391
 30
0.0
 10
186.2657
 20
-71.5391
 30
0.0
 10
186.2683
 20
-64.1477
 30
0.0
 10
186.2683
 20
-64.1477
 30
0.0
 10
186.2683
 20
-64.1477
 30
0.0
 10
186.2683
 20
-64.1477
 30
0.0
 10
179.2784
 20
-64.148
 30
0.0
 10
179.2784
 20
-64.148
 30
0.0
 10
179.2784
 20
-64.148
 30
0.0
 10
179.2784
 20
-64.148
 30
0.0
 10
179.2784
 20
-65.9858
 30
0.0
 10
179.2784
 20
-65.9858
 30
0.0
  0
SPLINE
  5
49
330
1F
100
AcDbEntity
  8
layer 1
 62
     7
100
AcDbSpline
210
0.0
220
0.0
230
1.0
 70
    11
 71
     3
 72
    40
 73
    36
 74
     0
 42
0.0000000001
 43
0.0000000001
 12
1.0
 22
0.0
 32
0.0
 13
1.0
 23
0.0
 33
0.0
 40
0.0
 40
0.0
 40
0.0
 40
0.0
 40
0.1
 40
0.1
 40
0.1
 40
0.1
 40
0.2
 40
0.2
 40
0.2
 40
0.2
 40
0.3
 40
0.3
 40
0.3
 40
0.3
 40
0.4
 40
0.4
 40
0.4
 40
0.4
 40
0.5
 40
0.5
 40
0.5
 40
0.5
 40
0.6
 40
0.6
 40
0.6
 40
0.6
 40
0.7
 40
0.7
 40
0.7
 40
0.7
 40
0.8
 40
0.8
 40
0.8
 40
0.8
 40
1.0
 40
1.0
 40
1.0
 40
1.0
 10
146.5353
 20
-67.6911
 30
0.0
 10
146.4279
 20
-63.272
 30
0.0
 10
148.3031
 20
-60.3265
 30
0.0
 10
151.7824
 20
-59.3113
 30
0.0
 10
151.7824
 20
-59.3113
 30
0.0
 10
152.6103
 20
-59.0848
 30
0.0
 10
157.0348
 20
-58.9487
 30
0.0
 10
163.606
 20
-58.9475
 30
0.0
 10
163.606
 20
-58.9475
 30
0.0
 10
163.606
 20
-58.9475
 30
0.0
 10
174.1067
 20
-58.9456
 30
0.0
 10
174.1067
 20
-58.9456
 30
0.0
 10
174.1067
 20
-58.9456
 30
0.0
 10
174.1067
 20
-58.9456
 30
0.0
 10
174.1067
 20
-53.3232
 30
0.0
 10
174.1067
 20
-53.3232
 30
0.0
 10
174.1067
 20
-53.3232
 30
0.0
 10
174.1067
 20
-53.3232
 30
0.0
 10
148.466
 20
-53.3232
 30
0.0
 10
148.466
 20
-53.3232
 30
0.0
 10
148.466
 20
-53.3232
 30
0.0
 10
148.466
 20
-53.3232
 30
0.0
 10
139.6696
 20
-62.1378
 30
0.0
 10
139.6696
 20
-62.1378
 30
0.0
 10
139.6696
 20
-62.1378
 30
0.0
 10
139.6696
 20
-62.1378
 30
0.0
 10
139.6898
 20
-69.5292
 30
0.0
 10
139.6898
 20
-69.5292
 30
0.0
 10
139.6898
 20
-69.5292
 30
0.0
 10
139.6898
 20
-69.5292
 30
0.0
 10
146.6011
 20
-69.5289
 30
0.0
 10
146.6011
 20
-69.5289
 30
0.0
 10
146.6011
 20
-69.5289
 30
0.0
 10
146.6011
 20
-69.5289
 30
0.0
 10
146.5353
 20
-67.6911
 30
0.0
 10
146.5353
 20
-67.6911
 30
0.0
  0
SPLINE
  5
4A
330
1F
100
AcDbEntity
  8
layer 1
 62
     7
100
AcDbSpline
210
0.0
220
0.0
230
1.0
 70
    11
 71
     3
 72
    20
 73
    16
 74
     0
 42
0.0000000001
 43
0.0000000001
 12
1.0
 22
0.0
 32
0.0
 13
1.0
 23
0.0
 33
0.0
 40
0.0
 40
0.0
 40
0.0
 40
0.0
 40
0.2
 40
0.2
 40
0.2
 40
0.2
 40
0.4
 40
0.4
 40
0.4
 40
0.4
 40
0.6
 40
0.6
 40
0.6
 40
0.6
 40
1.0
 40
1.0
 40
1.0
 40
1.0
 10
146.5857
 20
-74.7642
 30
0.0
 10
146.5857
 20
-74.7642
 30
0.0
 10
139.6404
 20
-74.7642
 30
0.0
 10
139.6404
 20
-74.7642
 30
0.0
 10
139.6404
 20
-74.7642
 30
0.0
 10
139.6404
 20
-74.7642
 30
0.0
 10
139.6404
 20
-80.3866
 30
0.0
 10
139.6404
 20
-80.3866
 30
0.0
 10
139.6404
 20
-80.3866
 30
0.0
 10
139.6404
 20
-80.3866
 30
0.0
 10
146.5857
 20
-80.3866
 30
0.0
 10
146.5857
 20
-80.3866
 30
0.0
 10
146.5857
 20
-80.3866
 30
0.0
 10
146.5857
 20
-80.3866
 30
0.0
 10
146.5857
 20
-74.7642
 30
0.0
 10
146.5857
 20
-74.7642
 30
0.0
  0
SPLINE
  5
4B
330
1F
100
AcDbEntity
  8
layer 1
 62
     7
100
AcDbSpline
210
0.0
220
0.0
230
1.0
 70
    11
 71
     3
 72
    20
 73
    16
 74
     0
 42
0.0000000001
 43
0.0000000001
 12
1.0
 22
0.0
 32
0.0
 13
1.0
 23
0.0
 33
0.0
 40
0.0
 40
0.0
 40
0.0
 40
0.0
 40
0.2
 40
0.2
 40
0.2
 40
0.2
 40
0.4
 40
0.4
 40
0.4
 40
0.4
 40
0.6
 40
0.6
 40
0.6
 40
0.6
 40
1.0
 40
1.0
 40
1.0
 40
1.0
 10
139.6882
 20
-90.9926
 30
0.0
 10
139.6882
 20
-90.9926
 30
0.0
 10
146.6335
 20
-90.9926
 30
0.0
 10
146.6335
 20
-90.9926
 30
0.0
 10
146.6335
 20
-90.9926
 30
0.0
 10
146.6335
 20
-90.9926
 30
0.0
 10
146.6335
 20
-85.3702
 30
0.0
 10
146.6335
 20
-85.3702
 30
0.0
 10
146.6335
 20
-85.3702
 30
0.0
 10
146.6335
 20
-85.3702
 30
0.0
 10
139.6882
 20
-85.3702
 30
0.0
 10
139.6882
 20
-85.3702
 30
0.0
 10
139.6882
 20
-85.3702
 30
0.0
 10
139.6882
 20
-85.3702
 30
0.0
 10
139.6882
 20
-90.9926
 30
0.0
 10
139.6882
 20
-90.9926
 30
0.0
  0
SPLINE
  5
4C
330
1F
100
AcDbEntity
  8
layer 1
 62
     7
100
AcDbSpline
210
0.0
220
0.0
230
1.0
 70
    11
 71
     3
 72
    36
 73
    32
 74
     0
 42
0.0000000001
 43
0.0000000001
 12
1.0
 22
0.0
 32
0.0
 13
1.0
 23
0.0
 33
0.0
 40
0.0
 40
0.0
 40
0.0
 40
0.0
 40
0.1111111111111111
 40
0.1111111111111111
 40
0.1111111111111111
 40
0.1111111111111111
 40
0.2222222222222222
 40
0.2222222222222222
 40
0.2222222222222222
 40
0.2222222222222222
 40
0.3333333333333333
 40
0.3333333333333333
 40
0.3333333333333333
 40
0.3333333333333333
 40
0.4444444444444444
 40
0.4444444444444444
 40
0.4444444444444444
 40
0.4444444444444444
 40
0.5555555555555556
 40
0.5555555555555556
 40
0.5555555555555556
 40
0.5555555555555556
 40
0.6666666666666666
 40
0.6666666666666666
 40
0.6666666666666666
 40
0.6666666666666666
 40
0.7777777777777778
 40
0.7777777777777778
 40
0.7777777777777778
 40
0.7777777777777778
 40
1.0
 40
1.0
 40
1.0
 40
1.0
 10
179.2512
 20
-97.0746
 30
0.0
 10
178.7211
 20
-94.2888
 30
0.0
 10
176.9249
 20
-92.1381
 30
0.0
 10
174.2494
 20
-91.3574
 30
0.0
 10
174.2494
 20
-91.3574
 30
0.0
 10
173.4215
 20
-91.1309
 30
0.0
 10
168.997
 20
-90.9948
 30
0.0
 10
162.4258
 20
-90.9936
 30
0.0
 10
162.4258
 20
-90.9936
 30
0.0
 10
162.4258
 20
-90.9936
 30
0.0
 10
151.9252
 20
-90.9917
 30
0.0
 10
151.9252
 20
-90.9917
 30
0.0
 10
151.9252
 20
-90.9917
 30
0.0
 10
151.9252
 20
-90.9917
 30
0.0
 10
151.9252
 20
-85.3693
 30
0.0
 10
151.9252
 20
-85.3693
 30
0.0
 10
151.9252
 20
-85.3693
 30
0.0
 10
151.9252
 20
-85.3693
 30
0.0
 10
177.5659
 20
-85.3693
 30
0.0
 10
177.5659
 20
-85.3693
 30
0.0
 10
177.5659
 20
-85.3693
 30
0.0
 10
177.5659
 20
-85.3693
 30
0.0
 10
186.3623
 20
-94.1839
 30
0.0
 10
186.3623
 20
-94.1839
 30
0.0
 10
186.3623
 20
-94.1839
 30
0.0
 10
186.3623
 20
-94.1839
 30
0.0
 10
186.4109
 20
-97.0791
 30
0.0
 10
186.4109
 20
-97.0791
 30
0.0
 10
186.4109
 20
-97.0791
 30
0.0
 10
186.4109
 20
-97.0791
 30
0.0
 10
179.2512
 20
-97.0746
 30
0.0
 10
179.2512
 20
-97.0746
 30
0.0
  0
SPLINE
  5
4D
330
1F
100
AcDbEntity
  8
layer 1
 62
     7
100
AcDbSpline
210
0.0
220
0.0
230
1.0
 70
    11
 71
     3
 72
    20
 73
    16
 74
     0
 42
0.0000000001
 43
0.0000000001
 12
1.0
 22
0.0
 32
0.0
 13
1.0
 23
0.0
 33
0.0
 40
0.0
 40
0.0
 40
0.0
 40
0.0
 40
0.2
 40
0.2
 40
0.2
 40
0.2
 40
0.4
 40
0.4
 40
0.4
 40
0.4
 40
0.6
 40
0.6
 40
0.6
 40
0.6
 40
1.0
 40
1.0
 40
1.0
 40
1.0
 10
134.3784
 20
-91.0128
 30
0.0
 10
134.3784
 20
-91.0128
 30
0.0
 10
127.4331
 20
-91.0128
 30
0.0
 10
127.4331
 20
-91.0128
 30
0.0
 10
127.4331
 20
-91.0128
 30
0.0
 10
127.4331
 20
-91.0128
 30
0.0
 10
127.4331
 20
-85.3904
 30
0.0
 10
127.4331
 20
-85.3904
 30
0.0
 10
127.4331
 20
-85.3904
 30
0.0
 10
127.4331
 20
-85.3904
 30
0.0
 10
134.3784
 20
-85.3904
 30
0.0
 10
134.3784
 20
-85.3904
 30
0.0
 10
134.3784
 20
-85.3904
 30
0.0
 10
134.3784
 20
-85.3904
 30
0.0
 10
134.3784
 20
-91.0128
 30
0.0
 10
134.3784
 20
-91.0128
 30
0.0
  0
SPLINE
  5
4E
330
1F
100
AcDbEntity
  8
layer 1
 62
     7
100
AcDbSpline
210
0.0
220
0.0
230
1.0
 70
    11
 71
     3
 72
    36
 73
    32
 74
     0
 42
0.0000000001
 43
0.0000000001
 12
1.0
 22
0.0
 32
0.0
 13
1.0
 23
0.0
 33
0.0
 40
0.0
 40
0.0
 40
0.0
 40
0.0
 40
0.1111111111111111
 40
0.1111111111111111
 40
0.1111111111111111
 40
0.1111111111111111
 40
0.2222222222222222
 40
0.2222222222222222
 40
0.2222222222222222
 40
0.2222222222222222
 40
0.3333333333333333
 40
0.3333333333333333
 40
0.3333333333333333
 40
0.3333333333333333
 40
0.4444444444444444
 40
0.4444444444444444
 40
0.4444444444444444
 40
0.4444444444444444
 40
0.5555555555555556
 40
0.5555555555555556
 40
0.5555555555555556
 40
0.5555555555555556
 40
0.6666666666666666
 40
0.6666666666666666
 40
0.6666666666666666
 40
0.6666666666666666
 40
0.7777777777777778
 40
0.7777777777777778
 40
0.7777777777777778
 40
0.7777777777777778
 40
1.0
 40
1.0
 40
1.0
 40
1.0
 10
94.8153
 20
-97.0789
 30
0.0
 10
95.3454
 20
-94.2931
 30
0.0
 10
97.1416
 20
-92.1424
 30
0.0
 10
99.8171
 20
-91.3617
 30
0.0
 10
99.8171
 20
-91.3617
 30
0.0
 10
100.645
 20
-91.1352
 30
0.0
 10
105.0695
 20
-90.9991
 30
0.0
 10
111.6407
 20
-90.9979
 30
0.0
 10
111.6407
 20
-90.9979
 30
0.0
 10
111.6407
 20
-90.9979
 30
0.0
 10
122.1414
 20
-90.996
 30
0.0
 10
122.1414
 20
-90.996
 30
0.0
 10
122.1414
 20
-90.996
 30
0.0
 10
122.1414
 20
-90.996
 30
0.0
 10
122.1414
 20
-85.3736
 30
0.0
 10
122.1414
 20
-85.3736
 30
0.0
 10
122.1414
 20
-85.3736
 30
0.0
 10
122.1414
 20
-85.3736
 30
0.0
 10
96.5007
 20
-85.3736
 30
0.0
 10
96.5007
 20
-85.3736
 30
0.0
 10
96.5007
 20
-85.3736
 30
0.0
 10
96.5007
 20
-85.3736
 30
0.0
 10
87.7043
 20
-94.1882
 30
0.0
 10
87.7043
 20
-94.1882
 30
0.0
 10
87.7043
 20
-94.1882
 30
0.0
 10
87.7043
 20
-94.1882
 30
0.0
 10
87.6557
 20
-97.0834
 30
0.0
 10
87.6557
 20
-97.0834
 30
0.0
 10
87.6557
 20
-97.0834
 30
0.0
 10
87.6557
 20
-97.0834
 30
0.0
 10
94.8153
 20
-97.0789
 30
0.0
 10
94.8153
 20
-97.0789
 30
0.0
  0
SPLINE
  5
4F
330
1F
100
AcDbEntity
  8
layer 1
 62
     7
100
AcDbSpline
210
0.0
220
0.0
230
1.0
 70
    11
 71
     3
 72
    16
 73
    12
 74
     0
 42
0.0000000001
 43
0.0000000001
 12
1.0
 22
0.0
 32
0.0
 13
1.0
 23
0.0
 33
0.0
 40
0.0
 40
0.0
 40
0.0
 40
0.0
 40
0.25
 40
0.25
 40
0.25
 40
0.25
 40
0.5
 40
0.5
 40
0.5
 40
0.5
 40
1.0
 40
1.0
 40
1.0
 40
1.0
 10
91.7146
 20
-82.8031
 30
0.0
 10
91.7146
 20
-82.8031
 30
0.0
 10
85.0233
 20
-76.3418
 30
0.0
 10
85.0233
 20
-76.3418
 30
0.0
 10
85.0233
 20
-76.3418
 30
0.0
 10
85.0233
 20
-76.3418
 30
0.0
 10
85.0112
 20
-89.2402
 30
0.0
 10
85.0112
 20
-89.2402
 30
0.0
 10
85.0112
 20
-89.2402
 30
0.0
 10
85.0112
 20
-89.2402
 30
0.0
 10
91.7146
 20
-82.8031
 30
0.0
 10
91.7146
 20
-82.8031
 30
0.0
  0
SPLINE
  5
50
330
1F
100
AcDbEntity
  8
layer 1
 62
     7
100
AcDbSpline
210
0.0
220
0.0
230
1.0
 70
    11
 71
     3
 72
    16
 73
    12
 74
     0
 42
0.0000000001
 43
0.0000000001
 12
1.0
 22
0.0
 32
0.0
 13
1.0
 23
0.0
 33
0.0
 40
0.0
 40
0.0
 40
0.0
 40
0.0
 40
0.25
 40
0.25
 40
0.25
 40
0.25
 40
0.5
 40
0.5
 40
0.5
 40
0.5
 40
1.0
 40
1.0
 40
1.0
 40
1.0
 10
182.2767
 20
-82.8031
 30
0.0
 10
182.2767
 20
-82.8031
 30
0.0
 10
188.968
 20
-76.3418
 30
0.0
 10
188.968
 20
-76.3418
 30
0.0
 10
188.968
 20
-76.3418
 30
0.0
 10
188.968
 20
-76.3418
 30
0.0
 10
188.9801
 20
-89.2402
 30
0.0
 10
188.9801
 20
-89.2402
 30
0.0
 10
188.9801
 20
-89.2402
 30
0.0
 10
188.9801
 20
-89.2402
 30
0.0
 10
182.2767
 20
-82.8031
 30
0.0
 10
182.2767
 20
-82.8031
 30
0.0
  0
SPLINE
  5
51
330
1F
100
AcDbEntity
  8
layer 1
 62
     7
100
AcDbSpline
210
0.0
220
0.0
230
1.0
 70
    11
 71
     3
 72
    20
 73
    16
 74
     0
 42
0.0000000001
 43
0.0000000001
 12
1.0
 22
0.0
 32
0.0
 13
1.0
 23
0.0
 33
0.0
 40
0.0
 40
0.0
 40
0.0
 40
0.0
 40
0.2
 40
0.2
 40
0.2
 40
0.2
 40
0.4
 40
0.4
 40
0.4
 40
0.4
 40
0.6
 40
0.6
 40
0.6
 40
0.6
 40
1.0
 40
1.0
 40
1.0
 40
1.0
 10
94.7342
 20
-42.6124
 30
0.0
 10
94.7342
 20
-42.6124
 30
0.0
 10
87.7889
 20
-42.6124
 30
0.0
 10
87.7889
 20
-42.6124
 30
0.0
 10
87.7889
 20
-42.6124
 30
0.0
 10
87.7889
 20
-42.6124
 30
0.0
 10
87.7889
 20
-48.2348
 30
0.0
 10
87.7889
 20
-48.2348
 30
0.0
 10
87.7889
 20
-48.2348
 30
0.0
 10
87.7889
 20
-48.2348
 30
0.0
 10
94.7342
 20
-48.2348
 30
0.0
 10
94.7342
 20
-48.2348
 30
0.0
 10
94.7342
 20
-48.2348
 30
0.0
 10
94.7342
 20
-48.2348
 30
0.0
 10
94.7342
 20
-42.6124
 30
0.0
 10
94.7342
 20
-42.6124
 30
0.0
  0
SPLINE
  5
52
330
1F
100
AcDbEntity
  8
layer 1
 62
     7
100
AcDbSpline
210
0.0
220
0.0
230
1.0
 70
    11
 71
     3
 72
    20
 73
    16
 74
     0
 42
0.0000000001
 43
0.0000000001
 12
1.0
 22
0.0
 32
0.0
 13
1.0
 23
0.0
 33
0.0
 40
0.0
 40
0.0
 40
0.0
 40
0.0
 40
0.2
 40
0.2
 40
0.2
 40
0.2
 40
0.4
 40
0.4
 40
0.4
 40
0.4
 40
0.6
 40
0.6
 40
0.6
 40
0.6
 40
1.0
 40
1.0
 40
1.0
 40
1.0
 10
94.7632
 20
-58.9127
 30
0.0
 10
94.7632
 20
-58.9127
 30
0.0
 10
87.8179
 20
-58.9127
 30
0.0
 10
87.8179
 20
-58.9127
 30
0.0
 10
87.8179
 20
-58.9127
 30
0.0
 10
87.8179
 20
-58.9127
 30
0.0
 10
87.8179
 20
-53.2903
 30
0.0
 10
87.8179
 20
-53.2903
 30
0.0
 10
87.8179
 20
-53.2903
 30
0.0
 10
87.8179
 20
-53.2903
 30
0.0
 10
94.7632
 20
-53.2903
 30
0.0
 10
94.7632
 20
-53.2903
 30
0.0
 10
94.7632
 20
-53.2903
 30
0.0
 10
94.7632
 20
-53.2903
 30
0.0
 10
94.7632
 20
-58.9127
 30
0.0
 10
94.7632
 20
-58.9127
 30
0.0
  0
SPLINE
  5
53
330
1F
100
AcDbEntity
  8
layer 1
 62
     7
100
AcDbSpline
210
0.0
220
0.0
230
1.0
 70
    11
 71
     3
 72
    20
 73
    16
 74
     0
 42
0.0000000001
 43
0.0000000001
 12
1.0
 22
0.0
 32
0.0
 13
1.0
 23
0.0
 33
0.0
 40
0.0
 40
0.0
 40
0.0
 40
0.0
 40
0.2
 40
0.2
 40
0.2
 40
0.2
 40
0.4
 40
0.4
 40
0.4
 40
0.4
 40
0.6
 40
0.6
 40
0.6
 40
0.6
 40
1.0
 40
1.0
 40
1.0
 40
1.0
 10
179.2743
 20
-42.6326
 30
0.0
 10
179.2743
 20
-42.6326
 30
0.0
 10
186.2196
 20
-42.6326
 30
0.0
 10
186.2196
 20
-42.6326
 30
0.0
 10
186.2196
 20
-42.6326
 30
0.0
 10
186.2196
 20
-42.6326
 30
0.0
 10
186.2196
 20
-48.255
 30
0.0
 10
186.2196
 20
-48.255
 30
0.0
 10
186.2196
 20
-48.255
 30
0.0
 10
186.2196
 20
-48.255
 30
0.0
 10
179.2743
 20
-48.255
 30
0.0
 10
179.2743
 20
-48.255
 30
0.0
 10
179.2743
 20
-48.255
 30
0.0
 10
179.2743
 20
-48.255
 30
0.0
 10
179.2743
 20
-42.6326
 30
0.0
 10
179.2743
 20
-42.6326
 30
0.0
  0
SPLINE
  5
54
330
1F
100
AcDbEntity
  8
layer 1
 62
     7
100
AcDbSpline
210
0.0
220
0.0
230
1.0
 70
    11
 71
     3
 72
    20
 73
    16
 74
     0
 42
0.0000000001
 43
0.0000000001
 12
1.0
 22
0.0
 32
0.0
 13
1.0
 23
0.0
 33
0.0
 40
0.0
 40
0.0
 40
0.0
 40
0.0
 40
0.2
 40
0.2
 40
0.2
 40
0.2
 40
0.4
 40
0.4
 40
0.4
 40
0.4
 40
0.6
 40
0.6
 40
0.6
 40
0.6
 40
1.0
 40
1.0
 40
1.0
 40
1.0
 10
137.0038
 20
-57.4575
 30
0.0
 10
137.0038
 20
-57.4575
 30
0.0
 10
143.7348
 20
-50.7265
 30
0.0
 10
143.7348
 20
-50.7265
 30
0.0
 10
143.7348
 20
-50.7265
 30
0.0
 10
143.7348
 20
-50.7265
 30
0.0
 10
137.0038
 20
-43.9954
 30
0.0
 10
137.0038
 20
-43.9954
 30
0.0
 10
137.0038
 20
-43.9954
 30
0.0
 10
137.0038
 20
-43.9954
 30
0.0
 10
130.2727
 20
-50.7265
 30
0.0
 10
130.2727
 20
-50.7265
 30
0.0
 10
130.2727
 20
-50.7265
 30
0.0
 10
130.2727
 20
-50.7265
 30
0.0
 10
137.0038
 20
-57.4575
 30
0.0
 10
137.0038
 20
-57.4575
 30
0.0
  0
SPLINE
  5
55
330
1F
100
AcDbEntity
  8
layer 1
 62
     7
100
AcDbSpline
210
0.0
220
0.0
230
1.0
 70
    11
 71
     3
 72
    40
 73
    36
 74
     0
 42
0.0000000001
 43
0.0000000001
 12
1.0
 22
0.0
 32
0.0
 13
1.0
 23
0.0
 33
0.0
 40
0.0
 40
0.0
 40
0.0
 40
0.0
 40
0.1
 40
0.1
 40
0.1
 40
0.1
 40
0.2
 40
0.2
 40
0.2
 40
0.2
 40
0.3
 40
0.3
 40
0.3
 40
0.3
 40
0.4
 40
0.4
 40
0.4
 40
0.4
 40
0.5
 40
0.5
 40
0.5
 40
0.5
 40
0.6
 40
0.6
 40
0.6
 40
0.6
 40
0.7
 40
0.7
 40
0.7
 40
0.7
 40
0.8
 40
0.8
 40
0.8
 40
0.8
 40
1.0
 40
1.0
 40
1.0
 40
1.0
 10
179.3467
 20
-35.6041
 30
0.0
 10
179.692
 20
-31.5714
 30
0.0
 10
177.6996
 20
-28.2395
 30
0.0
 10
174.2204
 20
-27.2243
 30
0.0
 10
174.2204
 20
-27.2243
 30
0.0
 10
173.3925
 20
-26.9978
 30
0.0
 10
168.968
 20
-26.8617
 30
0.0
 10
162.3968
 20
-26.8605
 30
0.0
 10
162.3968
 20
-26.8605
 30
0.0
 10
162.3968
 20
-26.8605
 30
0.0
 10
151.8962
 20
-26.8586
 30
0.0
 10
151.8962
 20
-26.8586
 30
0.0
 10
151.8962
 20
-26.8586
 30
0.0
 10
151.8962
 20
-26.8586
 30
0.0
 10
151.8962
 20
-21.2362
 30
0.0
 10
151.8962
 20
-21.2362
 30
0.0
 10
151.8962
 20
-21.2362
 30
0.0
 10
151.8962
 20
-21.2362
 30
0.0
 10
177.5369
 20
-21.2362
 30
0.0
 10
177.5369
 20
-21.2362
 30
0.0
 10
177.5369
 20
-21.2362
 30
0.0
 10
177.5369
 20
-21.2362
 30
0.0
 10
186.3333
 20
-30.0508
 30
0.0
 10
186.3333
 20
-30.0508
 30
0.0
 10
186.3333
 20
-30.0508
 30
0.0
 10
186.3333
 20
-30.0508
 30
0.0
 10
186.4574
 20
-37.4422
 30
0.0
 10
186.4574
 20
-37.4422
 30
0.0
 10
186.4574
 20
-37.4422
 30
0.0
 10
186.4574
 20
-37.4422
 30
0.0
 10
179.3467
 20
-37.4419
 30
0.0
 10
179.3467
 20
-37.4419
 30
0.0
 10
179.3467
 20
-37.4419
 30
0.0
 10
179.3467
 20
-37.4419
 30
0.0
 10
179.3467
 20
-35.6041
 30
0.0
 10
179.3467
 20
-35.6041
 30
0.0
  0
SPLINE
  5
56
330
1F
100
AcDbEntity
  8
layer 1
 62
     7
100
AcDbSpline
210
0.0
220
0.0
230
1.0
 70
    11
 71
     3
 72
    40
 73
    36
 74
     0
 42
0.0000000001
 43
0.0000000001
 12
1.0
 22
0.0
 32
0.0
 13
1.0
 23
0.0
 33
0.0
 40
0.0
 40
0.0
 40
0.0
 40
0.0
 40
0.1
 40
0.1
 40
0.1
 40
0.1
 40
0.2
 40
0.2
 40
0.2
 40
0.2
 40
0.3
 40
0.3
 40
0.3
 40
0.3
 40
0.4
 40
0.4
 40
0.4
 40
0.4
 40
0.5
 40
0.5
 40
0.5
 40
0.5
 40
0.6
 40
0.6
 40
0.6
 40
0.6
 40
0.7
 40
0.7
 40
0.7
 40
0.7
 40
0.8
 40
0.8
 40
0.8
 40
0.8
 40
1.0
 40
1.0
 40
1.0
 40
1.0
 10
146.5816
 20
-33.8542
 30
0.0
 10
146.4742
 20
-38.2733
 30
0.0
 10
148.3494
 20
-41.2188
 30
0.0
 10
151.8287
 20
-42.234
 30
0.0
 10
151.8287
 20
-42.234
 30
0.0
 10
152.6566
 20
-42.4605
 30
0.0
 10
157.0811
 20
-42.5966
 30
0.0
 10
163.6523
 20
-42.5978
 30
0.0
 10
163.6523
 20
-42.5978
 30
0.0
 10
163.6523
 20
-42.5978
 30
0.0
 10
174.153
 20
-42.5997
 30
0.0
 10
174.153
 20
-42.5997
 30
0.0
 10
174.153
 20
-42.5997
 30
0.0
 10
174.153
 20
-42.5997
 30
0.0
 10
174.153
 20
-48.2221
 30
0.0
 10
174.153
 20
-48.2221
 30
0.0
 10
174.153
 20
-48.2221
 30
0.0
 10
174.153
 20
-48.2221
 30
0.0
 10
148.5123
 20
-48.2221
 30
0.0
 10
148.5123
 20
-48.2221
 30
0.0
 10
148.5123
 20
-48.2221
 30
0.0
 10
148.5123
 20
-48.2221
 30
0.0
 10
139.7159
 20
-39.4075
 30
0.0
 10
139.7159
 20
-39.4075
 30
0.0
 10
139.7159
 20
-39.4075
 30
0.0
 10
139.7159
 20
-39.4075
 30
0.0
 10
139.5918
 20
-32.0161
 30
0.0
 10
139.5918
 20
-32.0161
 30
0.0
 10
139.5918
 20
-32.0161
 30
0.0
 10
139.5918
 20
-32.0161
 30
0.0
 10
146.5817
 20
-32.0164
 30
0.0
 10
146.5817
 20
-32.0164
 30
0.0
 10
146.5817
 20
-32.0164
 30
0.0
 10
146.5817
 20
-32.0164
 30
0.0
 10
146.5816
 20
-33.8542
 30
0.0
 10
146.5816
 20
-33.8542
 30
0.0
  0
SPLINE
  5
57
330
1F
100
AcDbEntity
  8
layer 1
 62
     7
100
AcDbSpline
210
0.0
220
0.0
230
1.0
 70
    11
 71
     3
 72
    40
 73
    36
 74
     0
 42
0.0000000001
 43
0.0000000001
 12
1.0
 22
0.0
 32
0.0
 13
1.0
 23
0.0
 33
0.0
 40
0.0
 40
0.0
 40
0.0
 40
0.0
 40
0.1
 40
0.1
 40
0.1
 40
0.1
 40
0.2
 40
0.2
 40
0.2
 40
0.2
 40
0.3
 40
0.3
 40
0.3
 40
0.3
 40
0.4
 40
0.4
 40
0.4
 40
0.4
 40
0.5
 40
0.5
 40
0.5
 40
0.5
 40
0.6
 40
0.6
 40
0.6
 40
0.6
 40
0.7
 40
0.7
 40
0.7
 40
0.7
 40
0.8
 40
0.8
 40
0.8
 40
0.8
 40
1.0
 40
1.0
 40
1.0
 40
1.0
 10
94.6619
 20
-35.584
 30
0.0
 10
94.3166
 20
-31.5513
 30
0.0
 10
96.309
 20
-28.2194
 30
0.0
 10
99.7882
 20
-27.2042
 30
0.0
 10
99.7882
 20
-27.2042
 30
0.0
 10
100.6161
 20
-26.9777
 30
0.0
 10
105.0406
 20
-26.8416
 30
0.0
 10
111.6118
 20
-26.8404
 30
0.0
 10
111.6118
 20
-26.8404
 30
0.0
 10
111.6118
 20
-26.8404
 30
0.0
 10
122.1125
 20
-26.8385
 30
0.0
 10
122.1125
 20
-26.8385
 30
0.0
 10
122.1125
 20
-26.8385
 30
0.0
 10
122.1125
 20
-26.8385
 30
0.0
 10
122.1125
 20
-21.2161
 30
0.0
 10
122.1125
 20
-21.2161
 30
0.0
 10
122.1125
 20
-21.2161
 30
0.0
 10
122.1125
 20
-21.2161
 30
0.0
 10
96.4718
 20
-21.2161
 30
0.0
 10
96.4718
 20
-21.2161
 30
0.0
 10
96.4718
 20
-21.2161
 30
0.0
 10
96.4718
 20
-21.2161
 30
0.0
 10
87.6754
 20
-30.0307
 30
0.0
 10
87.6754
 20
-30.0307
 30
0.0
 10
87.6754
 20
-30.0307
 30
0.0
 10
87.6754
 20
-30.0307
 30
0.0
 10
87.5513
 20
-37.4221
 30
0.0
 10
87.5513
 20
-37.4221
 30
0.0
 10
87.5513
 20
-37.4221
 30
0.0
 10
87.5513
 20
-37.4221
 30
0.0
 10
94.662
 20
-37.4218
 30
0.0
 10
94.662
 20
-37.4218
 30
0.0
 10
94.662
 20
-37.4218
 30
0.0
 10
94.662
 20
-37.4218
 30
0.0
 10
94.6619
 20
-35.584
 30
0.0
 10
94.6619
 20
-35.584
 30
0.0
  0
SPLINE
  5
58
330
1F
100
AcDbEntity
  8
layer 1
 62
     7
100
AcDbSpline
210
0.0
220
0.0
230
1.0
 70
    11
 71
     3
 72
    32
 73
    28
 74
     0
 42
0.0000000001
 43
0.0000000001
 12
1.0
 22
0.0
 32
0.0
 13
1.0
 23
0.0
 33
0.0
 40
0.0
 40
0.0
 40
0.0
 40
0.0
 40
0.125
 40
0.125
 40
0.125
 40
0.125
 40
0.25
 40
0.25
 40
0.25
 40
0.25
 40
0.375
 40
0.375
 40
0.375
 40
0.375
 40
0.5
 40
0.5
 40
0.5
 40
0.5
 40
0.625
 40
0.625
 40
0.625
 40
0.625
 40
0.75
 40
0.75
 40
0.75
 40
0.75
 40
1.0
 40
1.0
 40
1.0
 40
1.0
 10
122.1124
 20
-35.1639
 30
0.0
 10
122.1124
 20
-35.1639
 30
0.0
 10
122.1124
 20
-32.1302
 30
0.0
 10
122.1124
 20
-32.1302
 30
0.0
 10
122.1124
 20
-32.1302
 30
0.0
 10
122.1124
 20
-32.1302
 30
0.0
 10
102.3179
 20
-32.1302
 30
0.0
 10
102.3179
 20
-32.1302
 30
0.0
 10
102.3179
 20
-32.1302
 30
0.0
 10
100.9858
 20
-32.1302
 30
0.0
 10
99.9535
 20
-32.5312
 30
0.0
 10
99.9535
 20
-34.4026
 30
0.0
 10
99.9535
 20
-34.4026
 30
0.0
 10
99.9535
 20
-34.4026
 30
0.0
 10
99.9535
 20
-37.4218
 30
0.0
 10
99.9535
 20
-37.4218
 30
0.0
 10
99.9535
 20
-37.4218
 30
0.0
 10
99.9535
 20
-37.4218
 30
0.0
 10
119.9053
 20
-37.4218
 30
0.0
 10
119.9053
 20
-37.4218
 30
0.0
 10
119.9053
 20
-37.4218
 30
0.0
 10
121.6637
 20
-37.3704
 30
0.0
 10
122.1058
 20
-36.1736
 30
0.0
 10
122.1123
 20
-35.1638
 30
0.0
 10
122.1123
 20
-35.1638
 30
0.0
 10
122.1123
 20
-35.1638
 30
0.0
 10
122.1124
 20
-35.1639
 30
0.0
 10
122.1124
 20
-35.1639
 30
0.0
  0
SPLINE
  5
59
330
1F
100
AcDbEntity
  8
layer 1
 62
     7
100
AcDbSpline
210
0.0
220
0.0
230
1.0
 70
    11
 71
     3
 72
    40
 73
    36
 74
     0
 42
0.0000000001
 43
0.0000000001
 12
1.0
 22
0.0
 32
0.0
 13
1.0
 23
0.0
 33
0.0
 40
0.0
 40
0.0
 40
0.0
 40
0.0
 40
0.1
 40
0.1
 40
0.1
 40
0.1
 40
0.2
 40
0.2
 40
0.2
 40
0.2
 40
0.3
 40
0.3
 40
0.3
 40
0.3
 40
0.4
 40
0.4
 40
0.4
 40
0.4
 40
0.5
 40
0.5
 40
0.5
 40
0.5
 40
0.6
 40
0.6
 40
0.6
 40
0.6
 40
0.7
 40
0.7
 40
0.7
 40
0.7
 40
0.8
 40
0.8
 40
0.8
 40
0.8
 40
1.0
 40
1.0
 40
1.0
 40
1.0
 10
127.427
 20
-33.834
 30
0.0
 10
127.5344
 20
-38.2531
 30
0.0
 10
125.6592
 20
-41.1986
 30
0.0
 10
122.1799
 20
-42.2138
 30
0.0
 10
122.1799
 20
-42.2138
 30
0.0
 10
121.352
 20
-42.4403
 30
0.0
 10
116.9275
 20
-42.5764
 30
0.0
 10
110.3563
 20
-42.5776
 30
0.0
 10
110.3563
 20
-42.5776
 30
0.0
 10
110.3563
 20
-42.5776
 30
0.0
 10
99.8556
 20
-42.5795
 30
0.0
 10
99.8556
 20
-42.5795
 30
0.0
 10
99.8556
 20
-42.5795
 30
0.0
 10
99.8556
 20
-42.5795
 30
0.0
 10
99.8556
 20
-48.2019
 30
0.0
 10
99.8556
 20
-48.2019
 30
0.0
 10
99.8556
 20
-48.2019
 30
0.0
 10
99.8556
 20
-48.2019
 30
0.0
 10
125.4963
 20
-48.2019
 30
0.0
 10
125.4963
 20
-48.2019
 30
0.0
 10
125.4963
 20
-48.2019
 30
0.0
 10
125.4963
 20
-48.2019
 30
0.0
 10
134.2927
 20
-39.3873
 30
0.0
 10
134.2927
 20
-39.3873
 30
0.0
 10
134.2927
 20
-39.3873
 30
0.0
 10
134.2927
 20
-39.3873
 30
0.0
 10
134.4168
 20
-31.9959
 30
0.0
 10
134.4168
 20
-31.9959
 30
0.0
 10
134.4168
 20
-31.9959
 30
0.0
 10
134.4168
 20
-31.9959
 30
0.0
 10
127.4269
 20
-31.9962
 30
0.0
 10
127.4269
 20
-31.9962
 30
0.0
 10
127.4269
 20
-31.9962
 30
0.0
 10
127.4269
 20
-31.9962
 30
0.0
 10
127.427
 20
-33.834
 30
0.0
 10
127.427
 20
-33.834
 30
0.0
  0
SPLINE
  5
5A
330
1F
100
AcDbEntity
  8
layer 1
 62
     7
100
AcDbSpline
210
0.0
220
0.0
230
1.0
 70
    11
 71
     3
 72
    32
 73
    28
 74
     0
 42
0.0000000001
 43
0.0000000001
 12
1.0
 22
0.0
 32
0.0
 13
1.0
 23
0.0
 33
0.0
 40
0.0
 40
0.0
 40
0.0
 40
0.0
 40
0.125
 40
0.125
 40
0.125
 40
0.125
 40
0.25
 40
0.25
 40
0.25
 40
0.25
 40
0.375
 40
0.375
 40
0.375
 40
0.375
 40
0.5
 40
0.5
 40
0.5
 40
0.5
 40
0.625
 40
0.625
 40
0.625
 40
0.625
 40
0.75
 40
0.75
 40
0.75
 40
0.75
 40
1.0
 40
1.0
 40
1.0
 40
1.0
 10
151.8962
 20
-35.1841
 30
0.0
 10
151.8962
 20
-35.1841
 30
0.0
 10
151.8962
 20
-32.1504
 30
0.0
 10
151.8962
 20
-32.1504
 30
0.0
 10
151.8962
 20
-32.1504
 30
0.0
 10
151.8962
 20
-32.1504
 30
0.0
 10
171.6907
 20
-32.1504
 30
0.0
 10
171.6907
 20
-32.1504
 30
0.0
 10
171.6907
 20
-32.1504
 30
0.0
 10
173.0228
 20
-32.1504
 30
0.0
 10
174.0551
 20
-32.5514
 30
0.0
 10
174.0551
 20
-34.4228
 30
0.0
 10
174.0551
 20
-34.4228
 30
0.0
 10
174.0551
 20
-34.4228
 30
0.0
 10
174.0551
 20
-37.442
 30
0.0
 10
174.0551
 20
-37.442
 30
0.0
 10
174.0551
 20
-37.442
 30
0.0
 10
174.0551
 20
-37.442
 30
0.0
 10
154.1033
 20
-37.442
 30
0.0
 10
154.1033
 20
-37.442
 30
0.0
 10
154.1033
 20
-37.442
 30
0.0
 10
152.3449
 20
-37.3906
 30
0.0
 10
151.9028
 20
-36.1938
 30
0.0
 10
151.8963
 20
-35.184
 30
0.0
 10
151.8963
 20
-35.184
 30
0.0
 10
151.8963
 20
-35.184
 30
0.0
 10
151.8962
 20
-35.1841
 30
0.0
 10
151.8962
 20
-35.1841
 30
0.0
  0
SPLINE
  5
5B
330
1F
100
AcDbEntity
  8
layer 1
 62
     7
100
AcDbSpline
210
0.0
220
0.0
230
1.0
 70
    11
 71
     3
 72
    32
 73
    28
 74
     0
 42
0.0000000001
 43
0.0000000001
 12
1.0
 22
0.0
 32
0.0
 13
1.0
 23
0.0
 33
0.0
 40
0.0
 40
0.0
 40
0.0
 40
0.0
 40
0.125
 40
0.125
 40
0.125
 40
0.125
 40
0.25
 40
0.25
 40
0.25
 40
0.25
 40
0.375
 40
0.375
 40
0.375
 40
0.375
 40
0.5
 40
0.5
 40
0.5
 40
0.5
 40
0.625
 40
0.625
 40
0.625
 40
0.625
 40
0.75
 40
0.75
 40
0.75
 40
0.75
 40
1.0
 40
1.0
 40
1.0
 40
1.0
 10
122.1414
 20
-1.9285
 30
0.0
 10
122.1414
 20
-1.9285
 30
0.0
 10
122.1414
 20
-4.9622
 30
0.0
 10
122.1414
 20
-4.9622
 30
0.0
 10
122.1414
 20
-4.9622
 30
0.0
 10
122.1414
 20
-4.9622
 30
0.0
 10
102.3469
 20
-4.9622
 30
0.0
 10
102.3469
 20
-4.9622
 30
0.0
 10
102.3469
 20
-4.9622
 30
0.0
 10
101.0148
 20
-4.9622
 30
0.0
 10
99.9825
 20
-4.5612
 30
0.0
 10
99.9825
 20
-2.6898
 30
0.0
 10
99.9825
 20
-2.6898
 30
0.0
 10
99.9825
 20
-2.6898
 30
0.0
 10
99.9825
 20
0.3294
 30
0.0
 10
99.9825
 20
0.3294
 30
0.0
 10
99.9825
 20
0.3294
 30
0.0
 10
99.9825
 20
0.3294
 30
0.0
 10
119.9343
 20
0.3294
 30
0.0
 10
119.9343
 20
0.3294
 30
0.0
 10
119.9343
 20
0.3294
 30
0.0
 10
121.6927
 20
0.278
 30
0.0
 10
122.1348
 20
-0.9188
 30
0.0
 10
122.1413
 20
-1.9286
 30
0.0
 10
122.1413
 20
-1.9286
 30
0.0
 10
122.1413
 20
-1.9286
 30
0.0
 10
122.1414
 20
-1.9285
 30
0.0
 10
122.1414
 20
-1.9285
 30
0.0
  0
SPLINE
  5
5C
330
1F
100
AcDbEntity
  8
layer 1
 62
     7
100
AcDbSpline
210
0.0
220
0.0
230
1.0
 70
    11
 71
     3
 72
    32
 73
    28
 74
     0
 42
0.0000000001
 43
0.0000000001
 12
1.0
 22
0.0
 32
0.0
 13
1.0
 23
0.0
 33
0.0
 40
0.0
 40
0.0
 40
0.0
 40
0.0
 40
0.125
 40
0.125
 40
0.125
 40
0.125
 40
0.25
 40
0.25
 40
0.25
 40
0.25
 40
0.375
 40
0.375
 40
0.375
 40
0.375
 40
0.5
 40
0.5
 40
0.5
 40
0.5
 40
0.625
 40
0.625
 40
0.625
 40
0.625
 40
0.75
 40
0.75
 40
0.75
 40
0.75
 40
1.0
 40
1.0
 40
1.0
 40
1.0
 10
151.8499
 20
-1.9285
 30
0.0
 10
151.8499
 20
-1.9285
 30
0.0
 10
151.8499
 20
-4.9622
 30
0.0
 10
151.8499
 20
-4.9622
 30
0.0
 10
151.8499
 20
-4.9622
 30
0.0
 10
151.8499
 20
-4.9622
 30
0.0
 10
171.6444
 20
-4.9622
 30
0.0
 10
171.6444
 20
-4.9622
 30
0.0
 10
171.6444
 20
-4.9622
 30
0.0
 10
172.9765
 20
-4.9622
 30
0.0
 10
174.0088
 20
-4.5612
 30
0.0
 10
174.0088
 20
-2.6898
 30
0.0
 10
174.0088
 20
-2.6898
 30
0.0
 10
174.0088
 20
-2.6898
 30
0.0
 10
174.0088
 20
0.3294
 30
0.0
 10
174.0088
 20
0.3294
 30
0.0
 10
174.0088
 20
0.3294
 30
0.0
 10
174.0088
 20
0.3294
 30
0.0
 10
154.057
 20
0.3294
 30
0.0
 10
154.057
 20
0.3294
 30
0.0
 10
154.057
 20
0.3294
 30
0.0
 10
152.2986
 20
0.278
 30
0.0
 10
151.8565
 20
-0.9188
 30
0.0
 10
151.85
 20
-1.9286
 30
0.0
 10
151.85
 20
-1.9286
 30
0.0
 10
151.85
 20
-1.9286
 30
0.0
 10
151.8499
 20
-1.9285
 30
0.0
 10
151.8499
 20
-1.9285
 30
0.0
  0
SPLINE
  5
5D
330
1F
100
AcDbEntity
  8
layer 1
 62
     7
100
AcDbSpline
210
0.0
220
0.0
230
1.0
 70
    11
 71
     3
 72
    20
 73
    16
 74
     0
 42
0.0000000001
 43
0.0000000001
 12
1.0
 22
0.0
 32
0.0
 13
1.0
 23
0.0
 33
0.0
 40
0.0
 40
0.0
 40
0.0
 40
0.0
 40
0.2
 40
0.2
 40
0.2
 40
0.2
 40
0.4
 40
0.4
 40
0.4
 40
0.4
 40
0.6
 40
0.6
 40
0.6
 40
0.6
 40
1.0
 40
1.0
 40
1.0
 40
1.0
 10
94.7342
 20
21.8205
 30
0.0
 10
94.7342
 20
21.8205
 30
0.0
 10
87.7889
 20
21.8205
 30
0.0
 10
87.7889
 20
21.8205
 30
0.0
 10
87.7889
 20
21.8205
 30
0.0
 10
87.7889
 20
21.8205
 30
0.0
 10
87.7889
 20
16.1981
 30
0.0
 10
87.7889
 20
16.1981
 30
0.0
 10
87.7889
 20
16.1981
 30
0.0
 10
87.7889
 20
16.1981
 30
0.0
 10
94.7342
 20
16.1981
 30
0.0
 10
94.7342
 20
16.1981
 30
0.0
 10
94.7342
 20
16.1981
 30
0.0
 10
94.7342
 20
16.1981
 30
0.0
 10
94.7342
 20
21.8205
 30
0.0
 10
94.7342
 20
21.8205
 30
0.0
  0
SPLINE
  5
5E
330
1F
100
AcDbEntity
  8
layer 1
 62
     7
100
AcDbSpline
210
0.0
220
0.0
230
1.0
 70
    11
 71
     3
 72
    20
 73
    16
 74
     0
 42
0.0000000001
 43
0.0000000001
 12
1.0
 22
0.0
 32
0.0
 13
1.0
 23
0.0
 33
0.0
 40
0.0
 40
0.0
 40
0.0
 40
0.0
 40
0.2
 40
0.2
 40
0.2
 40
0.2
 40
0.4
 40
0.4
 40
0.4
 40
0.4
 40
0.6
 40
0.6
 40
0.6
 40
0.6
 40
1.0
 40
1.0
 40
1.0
 40
1.0
 10
94.7632
 20
5.52
 30
0.0
 10
94.7632
 20
5.52
 30
0.0
 10
87.8179
 20
5.52
 30
0.0
 10
87.8179
 20
5.52
 30
0.0
 10
87.8179
 20
5.52
 30
0.0
 10
87.8179
 20
5.52
 30
0.0
 10
87.8179
 20
11.1424
 30
0.0
 10
87.8179
 20
11.1424
 30
0.0
 10
87.8179
 20
11.1424
 30
0.0
 10
87.8179
 20
11.1424
 30
0.0
 10
94.7632
 20
11.1424
 30
0.0
 10
94.7632
 20
11.1424
 30
0.0
 10
94.7632
 20
11.1424
 30
0.0
 10
94.7632
 20
11.1424
 30
0.0
 10
94.7632
 20
5.52
 30
0.0
 10
94.7632
 20
5.52
 30
0.0
  0
SPLINE
  5
5F
330
1F
100
AcDbEntity
  8
layer 1
 62
     7
100
AcDbSpline
210
0.0
220
0.0
230
1.0
 70
    11
 71
     3
 72
    40
 73
    36
 74
     0
 42
0.0000000001
 43
0.0000000001
 12
1.0
 22
0.0
 32
0.0
 13
1.0
 23
0.0
 33
0.0
 40
0.0
 40
0.0
 40
0.0
 40
0.0
 40
0.1
 40
0.1
 40
0.1
 40
0.1
 40
0.2
 40
0.2
 40
0.2
 40
0.2
 40
0.3
 40
0.3
 40
0.3
 40
0.3
 40
0.4
 40
0.4
 40
0.4
 40
0.4
 40
0.5
 40
0.5
 40
0.5
 40
0.5
 40
0.6
 40
0.6
 40
0.6
 40
0.6
 40
0.7
 40
0.7
 40
0.7
 40
0.7
 40
0.8
 40
0.8
 40
0.8
 40
0.8
 40
1.0
 40
1.0
 40
1.0
 40
1.0
 10
94.7129
 20
-1.553
 30
0.0
 10
94.6055
 20
-5.9721
 30
0.0
 10
96.4807
 20
-8.9176
 30
0.0
 10
99.96
 20
-9.9328
 30
0.0
 10
99.96
 20
-9.9328
 30
0.0
 10
100.7879
 20
-10.1593
 30
0.0
 10
105.2124
 20
-10.2954
 30
0.0
 10
111.7836
 20
-10.2966
 30
0.0
 10
111.7836
 20
-10.2966
 30
0.0
 10
111.7836
 20
-10.2966
 30
0.0
 10
122.2843
 20
-10.2985
 30
0.0
 10
122.2843
 20
-10.2985
 30
0.0
 10
122.2843
 20
-10.2985
 30
0.0
 10
122.2843
 20
-10.2985
 30
0.0
 10
122.2843
 20
-15.9209
 30
0.0
 10
122.2843
 20
-15.9209
 30
0.0
 10
122.2843
 20
-15.9209
 30
0.0
 10
122.2843
 20
-15.9209
 30
0.0
 10
96.6436
 20
-15.9209
 30
0.0
 10
96.6436
 20
-15.9209
 30
0.0
 10
96.6436
 20
-15.9209
 30
0.0
 10
96.6436
 20
-15.9209
 30
0.0
 10
87.7256
 20
-7.1063
 30
0.0
 10
87.7256
 20
-7.1063
 30
0.0
 10
87.7256
 20
-7.1063
 30
0.0
 10
87.7256
 20
-7.1063
 30
0.0
 10
87.7231
 20
0.2851
 30
0.0
 10
87.7231
 20
0.2851
 30
0.0
 10
87.7231
 20
0.2851
 30
0.0
 10
87.7231
 20
0.2851
 30
0.0
 10
94.713
 20
0.2848
 30
0.0
 10
94.713
 20
0.2848
 30
0.0
 10
94.713
 20
0.2848
 30
0.0
 10
94.713
 20
0.2848
 30
0.0
 10
94.7129
 20
-1.553
 30
0.0
 10
94.7129
 20
-1.553
 30
0.0
  0
SPLINE
  5
60
330
1F
100
AcDbEntity
  8
layer 1
 62
     7
100
AcDbSpline
210
0.0
220
0.0
230
1.0
 70
    11
 71
     3
 72
    16
 73
    12
 74
     0
 42
0.0000000001
 43
0.0000000001
 12
1.0
 22
0.0
 32
0.0
 13
1.0
 23
0.0
 33
0.0
 40
0.0
 40
0.0
 40
0.0
 40
0.0
 40
0.25
 40
0.25
 40
0.25
 40
0.25
 40
0.5
 40
0.5
 40
0.5
 40
0.5
 40
1.0
 40
1.0
 40
1.0
 40
1.0
 10
91.7146
 20
-18.5817
 30
0.0
 10
91.7146
 20
-18.5817
 30
0.0
 10
85.0233
 20
-12.1204
 30
0.0
 10
85.0233
 20
-12.1204
 30
0.0
 10
85.0233
 20
-12.1204
 30
0.0
 10
85.0233
 20
-12.1204
 30
0.0
 10
85.0112
 20
-25.0188
 30
0.0
 10
85.0112
 20
-25.0188
 30
0.0
 10
85.0112
 20
-25.0188
 30
0.0
 10
85.0112
 20
-25.0188
 30
0.0
 10
91.7146
 20
-18.5817
 30
0.0
 10
91.7146
 20
-18.5817
 30
0.0
  0
SPLINE
  5
61
330
1F
100
AcDbEntity
  8
layer 1
 62
     7
100
AcDbSpline
210
0.0
220
0.0
230
1.0
 70
    11
 71
     3
 72
    16
 73
    12
 74
     0
 42
0.0000000001
 43
0.0000000001
 12
1.0
 22
0.0
 32
0.0
 13
1.0
 23
0.0
 33
0.0
 40
0.0
 40
0.0
 40
0.0
 40
0.0
 40
0.25
 40
0.25
 40
0.25
 40
0.25
 40
0.5
 40
0.5
 40
0.5
 40
0.5
 40
1.0
 40
1.0
 40
1.0
 40
1.0
 10
182.2767
 20
-18.5817
 30
0.0
 10
182.2767
 20
-18.5817
 30
0.0
 10
188.968
 20
-12.1204
 30
0.0
 10
188.968
 20
-12.1204
 30
0.0
 10
188.968
 20
-12.1204
 30
0.0
 10
188.968
 20
-12.1204
 30
0.0
 10
188.9801
 20
-25.0188
 30
0.0
 10
188.9801
 20
-25.0188
 30
0.0
 10
188.9801
 20
-25.0188
 30
0.0
 10
188.9801
 20
-25.0188
 30
0.0
 10
182.2767
 20
-18.5817
 30
0.0
 10
182.2767
 20
-18.5817
 30
0.0
  0
SPLINE
  5
62
330
1F
100
AcDbEntity
  8
layer 1
 62
     7
100
AcDbSpline
210
0.0
220
0.0
230
1.0
 70
    11
 71
     3
 72
    40
 73
    36
 74
     0
 42
0.0000000001
 43
0.0000000001
 12
1.0
 22
0.0
 32
0.0
 13
1.0
 23
0.0
 33
0.0
 40
0.0
 40
0.0
 40
0.0
 40
0.0
 40
0.1
 40
0.1
 40
0.1
 40
0.1
 40
0.2
 40
0.2
 40
0.2
 40
0.2
 40
0.3
 40
0.3
 40
0.3
 40
0.3
 40
0.4
 40
0.4
 40
0.4
 40
0.4
 40
0.5
 40
0.5
 40
0.5
 40
0.5
 40
0.6
 40
0.6
 40
0.6
 40
0.6
 40
0.7
 40
0.7
 40
0.7
 40
0.7
 40
0.8
 40
0.8
 40
0.8
 40
0.8
 40
1.0
 40
1.0
 40
1.0
 40
1.0
 10
127.456
 20
-3.2584
 30
0.0
 10
127.5634
 20
1.1607
 30
0.0
 10
125.6882
 20
4.1062
 30
0.0
 10
122.2089
 20
5.1214
 30
0.0
 10
122.2089
 20
5.1214
 30
0.0
 10
121.381
 20
5.3479
 30
0.0
 10
116.9565
 20
5.484
 30
0.0
 10
110.3853
 20
5.4852
 30
0.0
 10
110.3853
 20
5.4852
 30
0.0
 10
110.3853
 20
5.4852
 30
0.0
 10
99.8846
 20
5.4871
 30
0.0
 10
99.8846
 20
5.4871
 30
0.0
 10
99.8846
 20
5.4871
 30
0.0
 10
99.8846
 20
5.4871
 30
0.0
 10
99.8846
 20
11.1095
 30
0.0
 10
99.8846
 20
11.1095
 30
0.0
 10
99.8846
 20
11.1095
 30
0.0
 10
99.8846
 20
11.1095
 30
0.0
 10
125.5253
 20
11.1095
 30
0.0
 10
125.5253
 20
11.1095
 30
0.0
 10
125.5253
 20
11.1095
 30
0.0
 10
125.5253
 20
11.1095
 30
0.0
 10
134.3217
 20
2.2949
 30
0.0
 10
134.3217
 20
2.2949
 30
0.0
 10
134.3217
 20
2.2949
 30
0.0
 10
134.3217
 20
2.2949
 30
0.0
 10
134.4458
 20
-5.0965
 30
0.0
 10
134.4458
 20
-5.0965
 30
0.0
 10
134.4458
 20
-5.0965
 30
0.0
 10
134.4458
 20
-5.0965
 30
0.0
 10
127.4559
 20
-5.0962
 30
0.0
 10
127.4559
 20
-5.0962
 30
0.0
 10
127.4559
 20
-5.0962
 30
0.0
 10
127.4559
 20
-5.0962
 30
0.0
 10
127.456
 20
-3.2584
 30
0.0
 10
127.456
 20
-3.2584
 30
0.0
  0
SPLINE
  5
63
330
1F
100
AcDbEntity
  8
layer 1
 62
     7
100
AcDbSpline
210
0.0
220
0.0
230
1.0
 70
    11
 71
     3
 72
    20
 73
    16
 74
     0
 42
0.0000000001
 43
0.0000000001
 12
1.0
 22
0.0
 32
0.0
 13
1.0
 23
0.0
 33
0.0
 40
0.0
 40
0.0
 40
0.0
 40
0.0
 40
0.2
 40
0.2
 40
0.2
 40
0.2
 40
0.4
 40
0.4
 40
0.4
 40
0.4
 40
0.6
 40
0.6
 40
0.6
 40
0.6
 40
1.0
 40
1.0
 40
1.0
 40
1.0
 10
127.4056
 20
-10.3314
 30
0.0
 10
127.4056
 20
-10.3314
 30
0.0
 10
134.3509
 20
-10.3314
 30
0.0
 10
134.3509
 20
-10.3314
 30
0.0
 10
134.3509
 20
-10.3314
 30
0.0
 10
134.3509
 20
-10.3314
 30
0.0
 10
134.3509
 20
-15.9538
 30
0.0
 10
134.3509
 20
-15.9538
 30
0.0
 10
134.3509
 20
-15.9538
 30
0.0
 10
134.3509
 20
-15.9538
 30
0.0
 10
127.4056
 20
-15.9538
 30
0.0
 10
127.4056
 20
-15.9538
 30
0.0
 10
127.4056
 20
-15.9538
 30
0.0
 10
127.4056
 20
-15.9538
 30
0.0
 10
127.4056
 20
-10.3314
 30
0.0
 10
127.4056
 20
-10.3314
 30
0.0
  0
SPLINE
  5
64
330
1F
100
AcDbEntity
  8
layer 1
 62
     7
100
AcDbSpline
210
0.0
220
0.0
230
1.0
 70
    11
 71
     3
 72
    20
 73
    16
 74
     0
 42
0.0000000001
 43
0.0000000001
 12
1.0
 22
0.0
 32
0.0
 13
1.0
 23
0.0
 33
0.0
 40
0.0
 40
0.0
 40
0.0
 40
0.0
 40
0.2
 40
0.2
 40
0.2
 40
0.2
 40
0.4
 40
0.4
 40
0.4
 40
0.4
 40
0.6
 40
0.6
 40
0.6
 40
0.6
 40
1.0
 40
1.0
 40
1.0
 40
1.0
 10
179.228
 20
5.52
 30
0.0
 10
179.228
 20
5.52
 30
0.0
 10
186.1733
 20
5.52
 30
0.0
 10
186.1733
 20
5.52
 30
0.0
 10
186.1733
 20
5.52
 30
0.0
 10
186.1733
 20
5.52
 30
0.0
 10
186.1733
 20
11.1424
 30
0.0
 10
186.1733
 20
11.1424
 30
0.0
 10
186.1733
 20
11.1424
 30
0.0
 10
186.1733
 20
11.1424
 30
0.0
 10
179.228
 20
11.1424
 30
0.0
 10
179.228
 20
11.1424
 30
0.0
 10
179.228
 20
11.1424
 30
0.0
 10
179.228
 20
11.1424
 30
0.0
 10
179.228
 20
5.52
 30
0.0
 10
179.228
 20
5.52
 30
0.0
  0
SPLINE
  5
65
330
1F
100
AcDbEntity
  8
layer 1
 62
     7
100
AcDbSpline
210
0.0
220
0.0
230
1.0
 70
    11
 71
     3
 72
    40
 73
    36
 74
     0
 42
0.0000000001
 43
0.0000000001
 12
1.0
 22
0.0
 32
0.0
 13
1.0
 23
0.0
 33
0.0
 40
0.0
 40
0.0
 40
0.0
 40
0.0
 40
0.1
 40
0.1
 40
0.1
 40
0.1
 40
0.2
 40
0.2
 40
0.2
 40
0.2
 40
0.3
 40
0.3
 40
0.3
 40
0.3
 40
0.4
 40
0.4
 40
0.4
 40
0.4
 40
0.5
 40
0.5
 40
0.5
 40
0.5
 40
0.6
 40
0.6
 40
0.6
 40
0.6
 40
0.7
 40
0.7
 40
0.7
 40
0.7
 40
0.8
 40
0.8
 40
0.8
 40
0.8
 40
1.0
 40
1.0
 40
1.0
 40
1.0
 10
179.2784
 20
-1.553
 30
0.0
 10
179.3858
 20
-5.9721
 30
0.0
 10
177.5106
 20
-8.9176
 30
0.0
 10
174.0313
 20
-9.9328
 30
0.0
 10
174.0313
 20
-9.9328
 30
0.0
 10
173.2034
 20
-10.1593
 30
0.0
 10
168.7789
 20
-10.2954
 30
0.0
 10
162.2077
 20
-10.2966
 30
0.0
 10
162.2077
 20
-10.2966
 30
0.0
 10
162.2077
 20
-10.2966
 30
0.0
 10
151.707
 20
-10.2985
 30
0.0
 10
151.707
 20
-10.2985
 30
0.0
 10
151.707
 20
-10.2985
 30
0.0
 10
151.707
 20
-10.2985
 30
0.0
 10
151.707
 20
-15.9209
 30
0.0
 10
151.707
 20
-15.9209
 30
0.0
 10
151.707
 20
-15.9209
 30
0.0
 10
151.707
 20
-15.9209
 30
0.0
 10
177.3477
 20
-15.9209
 30
0.0
 10
177.3477
 20
-15.9209
 30
0.0
 10
177.3477
 20
-15.9209
 30
0.0
 10
177.3477
 20
-15.9209
 30
0.0
 10
186.2657
 20
-7.1063
 30
0.0
 10
186.2657
 20
-7.1063
 30
0.0
 10
186.2657
 20
-7.1063
 30
0.0
 10
186.2657
 20
-7.1063
 30
0.0
 10
186.2683
 20
0.2851
 30
0.0
 10
186.2683
 20
0.2851
 30
0.0
 10
186.2683
 20
0.2851
 30
0.0
 10
186.2683
 20
0.2851
 30
0.0
 10
179.2784
 20
0.2848
 30
0.0
 10
179.2784
 20
0.2848
 30
0.0
 10
179.2784
 20
0.2848
 30
0.0
 10
179.2784
 20
0.2848
 30
0.0
 10
179.2784
 20
-1.553
 30
0.0
 10
179.2784
 20
-1.553
 30
0.0
  0
SPLINE
  5
66
330
1F
100
AcDbEntity
  8
layer 1
 62
     7
100
AcDbSpline
210
0.0
220
0.0
230
1.0
 70
    11
 71
     3
 72
    40
 73
    36
 74
     0
 42
0.0000000001
 43
0.0000000001
 12
1.0
 22
0.0
 32
0.0
 13
1.0
 23
0.0
 33
0.0
 40
0.0
 40
0.0
 40
0.0
 40
0.0
 40
0.1
 40
0.1
 40
0.1
 40
0.1
 40
0.2
 40
0.2
 40
0.2
 40
0.2
 40
0.3
 40
0.3
 40
0.3
 40
0.3
 40
0.4
 40
0.4
 40
0.4
 40
0.4
 40
0.5
 40
0.5
 40
0.5
 40
0.5
 40
0.6
 40
0.6
 40
0.6
 40
0.6
 40
0.7
 40
0.7
 40
0.7
 40
0.7
 40
0.8
 40
0.8
 40
0.8
 40
0.8
 40
1.0
 40
1.0
 40
1.0
 40
1.0
 10
146.5353
 20
-3.2584
 30
0.0
 10
146.4279
 20
1.1607
 30
0.0
 10
148.3031
 20
4.1062
 30
0.0
 10
151.7824
 20
5.1214
 30
0.0
 10
151.7824
 20
5.1214
 30
0.0
 10
152.6103
 20
5.3479
 30
0.0
 10
157.0348
 20
5.484
 30
0.0
 10
163.606
 20
5.4852
 30
0.0
 10
163.606
 20
5.4852
 30
0.0
 10
163.606
 20
5.4852
 30
0.0
 10
174.1067
 20
5.4871
 30
0.0
 10
174.1067
 20
5.4871
 30
0.0
 10
174.1067
 20
5.4871
 30
0.0
 10
174.1067
 20
5.4871
 30
0.0
 10
174.1067
 20
11.1095
 30
0.0
 10
174.1067
 20
11.1095
 30
0.0
 10
174.1067
 20
11.1095
 30
0.0
 10
174.1067
 20
11.1095
 30
0.0
 10
148.466
 20
11.1095
 30
0.0
 10
148.466
 20
11.1095
 30
0.0
 10
148.466
 20
11.1095
 30
0.0
 10
148.466
 20
11.1095
 30
0.0
 10
139.6696
 20
2.2949
 30
0.0
 10
139.6696
 20
2.2949
 30
0.0
 10
139.6696
 20
2.2949
 30
0.0
 10
139.6696
 20
2.2949
 30
0.0
 10
139.6898
 20
-5.0965
 30
0.0
 10
139.6898
 20
-5.0965
 30
0.0
 10
139.6898
 20
-5.0965
 30
0.0
 10
139.6898
 20
-5.0965
 30
0.0
 10
146.6011
 20
-5.0962
 30
0.0
 10
146.6011
 20
-5.0962
 30
0.0
 10
146.6011
 20
-5.0962
 30
0.0
 10
146.6011
 20
-5.0962
 30
0.0
 10
146.5353
 20
-3.2584
 30
0.0
 10
146.5353
 20
-3.2584
 30
0.0
  0
SPLINE
  5
67
330
1F
100
AcDbEntity
  8
layer 1
 62
     7
100
AcDbSpline
210
0.0
220
0.0
230
1.0
 70
    11
 71
     3
 72
    20
 73
    16
 74
     0
 42
0.0000000001
 43
0.0000000001
 12
1.0
 22
0.0
 32
0.0
 13
1.0
 23
0.0
 33
0.0
 40
0.0
 40
0.0
 40
0.0
 40
0.0
 40
0.2
 40
0.2
 40
0.2
 40
0.2
 40
0.4
 40
0.4
 40
0.4
 40
0.4
 40
0.6
 40
0.6
 40
0.6
 40
0.6
 40
1.0
 40
1.0
 40
1.0
 40
1.0
 10
146.5857
 20
-10.3314
 30
0.0
 10
146.5857
 20
-10.3314
 30
0.0
 10
139.6404
 20
-10.3314
 30
0.0
 10
139.6404
 20
-10.3314
 30
0.0
 10
139.6404
 20
-10.3314
 30
0.0
 10
139.6404
 20
-10.3314
 30
0.0
 10
139.6404
 20
-15.9538
 30
0.0
 10
139.6404
 20
-15.9538
 30
0.0
 10
139.6404
 20
-15.9538
 30
0.0
 10
139.6404
 20
-15.9538
 30
0.0
 10
146.5857
 20
-15.9538
 30
0.0
 10
146.5857
 20
-15.9538
 30
0.0
 10
146.5857
 20
-15.9538
 30
0.0
 10
146.5857
 20
-15.9538
 30
0.0
 10
146.5857
 20
-10.3314
 30
0.0
 10
146.5857
 20
-10.3314
 30
0.0
  0
SPLINE
  5
68
330
1F
100
AcDbEntity
  8
layer 1
 62
     7
100
AcDbSpline
210
0.0
220
0.0
230
1.0
 70
    11
 71
     3
 72
    20
 73
    16
 74
     0
 42
0.0000000001
 43
0.0000000001
 12
1.0
 22
0.0
 32
0.0
 13
1.0
 23
0.0
 33
0.0
 40
0.0
 40
0.0
 40
0.0
 40
0.0
 40
0.2
 40
0.2
 40
0.2
 40
0.2
 40
0.4
 40
0.4
 40
0.4
 40
0.4
 40
0.6
 40
0.6
 40
0.6
 40
0.6
 40
1.0
 40
1.0
 40
1.0
 40
1.0
 10
179.2743
 20
21.8003
 30
0.0
 10
179.2743
 20
21.8003
 30
0.0
 10
186.2196
 20
21.8003
 30
0.0
 10
186.2196
 20
21.8003
 30
0.0
 10
186.2196
 20
21.8003
 30
0.0
 10
186.2196
 20
21.8003
 30
0.0
 10
186.2196
 20
16.1779
 30
0.0
 10
186.2196
 20
16.1779
 30
0.0
 10
186.2196
 20
16.1779
 30
0.0
 10
186.2196
 20
16.1779
 30
0.0
 10
179.2743
 20
16.1779
 30
0.0
 10
179.2743
 20
16.1779
 30
0.0
 10
179.2743
 20
16.1779
 30
0.0
 10
179.2743
 20
16.1779
 30
0.0
 10
179.2743
 20
21.8003
 30
0.0
 10
179.2743
 20
21.8003
 30
0.0
  0
SPLINE
  5
69
330
1F
100
AcDbEntity
  8
layer 1
 62
     7
100
AcDbSpline
210
0.0
220
0.0
230
1.0
 70
    11
 71
     3
 72
    40
 73
    36
 74
     0
 42
0.0000000001
 43
0.0000000001
 12
1.0
 22
0.0
 32
0.0
 13
1.0
 23
0.0
 33
0.0
 40
0.0
 40
0.0
 40
0.0
 40
0.0
 40
0.1
 40
0.1
 40
0.1
 40
0.1
 40
0.2
 40
0.2
 40
0.2
 40
0.2
 40
0.3
 40
0.3
 40
0.3
 40
0.3
 40
0.4
 40
0.4
 40
0.4
 40
0.4
 40
0.5
 40
0.5
 40
0.5
 40
0.5
 40
0.6
 40
0.6
 40
0.6
 40
0.6
 40
0.7
 40
0.7
 40
0.7
 40
0.7
 40
0.8
 40
0.8
 40
0.8
 40
0.8
 40
1.0
 40
1.0
 40
1.0
 40
1.0
 10
179.3467
 20
28.8287
 30
0.0
 10
179.692
 20
32.8614
 30
0.0
 10
177.6996
 20
36.1933
 30
0.0
 10
174.2204
 20
37.2085
 30
0.0
 10
174.2204
 20
37.2085
 30
0.0
 10
173.3925
 20
37.435
 30
0.0
 10
168.968
 20
37.5711
 30
0.0
 10
162.3968
 20
37.5723
 30
0.0
 10
162.3968
 20
37.5723
 30
0.0
 10
162.3968
 20
37.5723
 30
0.0
 10
151.8962
 20
37.5742
 30
0.0
 10
151.8962
 20
37.5742
 30
0.0
 10
151.8962
 20
37.5742
 30
0.0
 10
151.8962
 20
37.5742
 30
0.0
 10
151.8962
 20
43.1966
 30
0.0
 10
151.8962
 20
43.1966
 30
0.0
 10
151.8962
 20
43.1966
 30
0.0
 10
151.8962
 20
43.1966
 30
0.0
 10
177.5369
 20
43.1966
 30
0.0
 10
177.5369
 20
43.1966
 30
0.0
 10
177.5369
 20
43.1966
 30
0.0
 10
177.5369
 20
43.1966
 30
0.0
 10
186.3333
 20
34.382
 30
0.0
 10
186.3333
 20
34.382
 30
0.0
 10
186.3333
 20
34.382
 30
0.0
 10
186.3333
 20
34.382
 30
0.0
 10
186.4574
 20
26.9906
 30
0.0
 10
186.4574
 20
26.9906
 30
0.0
 10
186.4574
 20
26.9906
 30
0.0
 10
186.4574
 20
26.9906
 30
0.0
 10
179.3467
 20
26.9909
 30
0.0
 10
179.3467
 20
26.9909
 30
0.0
 10
179.3467
 20
26.9909
 30
0.0
 10
179.3467
 20
26.9909
 30
0.0
 10
179.3467
 20
28.8287
 30
0.0
 10
179.3467
 20
28.8287
 30
0.0
  0
SPLINE
  5
6A
330
1F
100
AcDbEntity
  8
layer 1
 62
     7
100
AcDbSpline
210
0.0
220
0.0
230
1.0
 70
    11
 71
     3
 72
    20
 73
    16
 74
     0
 42
0.0000000001
 43
0.0000000001
 12
1.0
 22
0.0
 32
0.0
 13
1.0
 23
0.0
 33
0.0
 40
0.0
 40
0.0
 40
0.0
 40
0.0
 40
0.2
 40
0.2
 40
0.2
 40
0.2
 40
0.4
 40
0.4
 40
0.4
 40
0.4
 40
0.6
 40
0.6
 40
0.6
 40
0.6
 40
1.0
 40
1.0
 40
1.0
 40
1.0
 10
139.6592
 20
43.1965
 30
0.0
 10
141.9743
 20
43.1965
 30
0.0
 10
144.2894
 20
43.1965
 30
0.0
 10
146.6045
 20
43.1965
 30
0.0
 10
146.6045
 20
43.1965
 30
0.0
 10
146.6045
 20
41.3224
 30
0.0
 10
146.6045
 20
39.4482
 30
0.0
 10
146.6045
 20
37.5741
 30
0.0
 10
146.6045
 20
37.5741
 30
0.0
 10
144.2894
 20
37.5741
 30
0.0
 10
141.9743
 20
37.5741
 30
0.0
 10
139.6592
 20
37.5741
 30
0.0
 10
139.6592
 20
37.5741
 30
0.0
 10
139.6592
 20
39.4482
 30
0.0
 10
139.6592
 20
41.3224
 30
0.0
 10
139.6592
 20
43.1965
 30
0.0
  0
SPLINE
  5
6B
330
1F
100
AcDbEntity
  8
layer 1
 62
     7
100
AcDbSpline
210
0.0
220
0.0
230
1.0
 70
    11
 71
     3
 72
    40
 73
    36
 74
     0
 42
0.0000000001
 43
0.0000000001
 12
1.0
 22
0.0
 32
0.0
 13
1.0
 23
0.0
 33
0.0
 40
0.0
 40
0.0
 40
0.0
 40
0.0
 40
0.1
 40
0.1
 40
0.1
 40
0.1
 40
0.2
 40
0.2
 40
0.2
 40
0.2
 40
0.3
 40
0.3
 40
0.3
 40
0.3
 40
0.4
 40
0.4
 40
0.4
 40
0.4
 40
0.5
 40
0.5
 40
0.5
 40
0.5
 40
0.6
 40
0.6
 40
0.6
 40
0.6
 40
0.7
 40
0.7
 40
0.7
 40
0.7
 40
0.8
 40
0.8
 40
0.8
 40
0.8
 40
1.0
 40
1.0
 40
1.0
 40
1.0
 10
146.5816
 20
30.5787
 30
0.0
 10
146.4742
 20
26.1596
 30
0.0
 10
148.3494
 20
23.2141
 30
0.0
 10
151.8287
 20
22.1989
 30
0.0
 10
151.8287
 20
22.1989
 30
0.0
 10
152.6566
 20
21.9724
 30
0.0
 10
157.0811
 20
21.8363
 30
0.0
 10
163.6523
 20
21.8351
 30
0.0
 10
163.6523
 20
21.8351
 30
0.0
 10
163.6523
 20
21.8351
 30
0.0
 10
174.153
 20
21.8332
 30
0.0
 10
174.153
 20
21.8332
 30
0.0
 10
174.153
 20
21.8332
 30
0.0
 10
174.153
 20
21.8332
 30
0.0
 10
174.153
 20
16.2108
 30
0.0
 10
174.153
 20
16.2108
 30
0.0
 10
174.153
 20
16.2108
 30
0.0
 10
174.153
 20
16.2108
 30
0.0
 10
148.5123
 20
16.2108
 30
0.0
 10
148.5123
 20
16.2108
 30
0.0
 10
148.5123
 20
16.2108
 30
0.0
 10
148.5123
 20
16.2108
 30
0.0
 10
139.7159
 20
25.0254
 30
0.0
 10
139.7159
 20
25.0254
 30
0.0
 10
139.7159
 20
25.0254
 30
0.0
 10
139.7159
 20
25.0254
 30
0.0
 10
139.5918
 20
32.4168
 30
0.0
 10
139.5918
 20
32.4168
 30
0.0
 10
139.5918
 20
32.4168
 30
0.0
 10
139.5918
 20
32.4168
 30
0.0
 10
146.5817
 20
32.4165
 30
0.0
 10
146.5817
 20
32.4165
 30
0.0
 10
146.5817
 20
32.4165
 30
0.0
 10
146.5817
 20
32.4165
 30
0.0
 10
146.5816
 20
30.5787
 30
0.0
 10
146.5816
 20
30.5787
 30
0.0
  0
SPLINE
  5
6C
330
1F
100
AcDbEntity
  8
layer 1
 62
     7
100
AcDbSpline
210
0.0
220
0.0
230
1.0
 70
    11
 71
     3
 72
    40
 73
    36
 74
     0
 42
0.0000000001
 43
0.0000000001
 12
1.0
 22
0.0
 32
0.0
 13
1.0
 23
0.0
 33
0.0
 40
0.0
 40
0.0
 40
0.0
 40
0.0
 40
0.1
 40
0.1
 40
0.1
 40
0.1
 40
0.2
 40
0.2
 40
0.2
 40
0.2
 40
0.3
 40
0.3
 40
0.3
 40
0.3
 40
0.4
 40
0.4
 40
0.4
 40
0.4
 40
0.5
 40
0.5
 40
0.5
 40
0.5
 40
0.6
 40
0.6
 40
0.6
 40
0.6
 40
0.7
 40
0.7
 40
0.7
 40
0.7
 40
0.8
 40
0.8
 40
0.8
 40
0.8
 40
1.0
 40
1.0
 40
1.0
 40
1.0
 10
94.6619
 20
28.8489
 30
0.0
 10
94.3166
 20
32.8816
 30
0.0
 10
96.309
 20
36.2135
 30
0.0
 10
99.7882
 20
37.2287
 30
0.0
 10
99.7882
 20
37.2287
 30
0.0
 10
100.6161
 20
37.4552
 30
0.0
 10
105.0406
 20
37.5913
 30
0.0
 10
111.6118
 20
37.5925
 30
0.0
 10
111.6118
 20
37.5925
 30
0.0
 10
111.6118
 20
37.5925
 30
0.0
 10
122.1125
 20
37.5944
 30
0.0
 10
122.1125
 20
37.5944
 30
0.0
 10
122.1125
 20
37.5944
 30
0.0
 10
122.1125
 20
37.5944
 30
0.0
 10
122.1125
 20
43.2168
 30
0.0
 10
122.1125
 20
43.2168
 30
0.0
 10
122.1125
 20
43.2168
 30
0.0
 10
122.1125
 20
43.2168
 30
0.0
 10
96.4718
 20
43.2168
 30
0.0
 10
96.4718
 20
43.2168
 30
0.0
 10
96.4718
 20
43.2168
 30
0.0
 10
96.4718
 20
43.2168
 30
0.0
 10
87.6754
 20
34.4022
 30
0.0
 10
87.6754
 20
34.4022
 30
0.0
 10
87.6754
 20
34.4022
 30
0.0
 10
87.6754
 20
34.4022
 30
0.0
 10
87.5513
 20
27.0108
 30
0.0
 10
87.5513
 20
27.0108
 30
0.0
 10
87.5513
 20
27.0108
 30
0.0
 10
87.5513
 20
27.0108
 30
0.0
 10
94.662
 20
27.0111
 30
0.0
 10
94.662
 20
27.0111
 30
0.0
 10
94.662
 20
27.0111
 30
0.0
 10
94.662
 20
27.0111
 30
0.0
 10
94.6619
 20
28.8489
 30
0.0
 10
94.6619
 20
28.8489
 30
0.0
  0
SPLINE
  5
6D
330
1F
100
AcDbEntity
  8
layer 1
 62
     7
100
AcDbSpline
210
0.0
220
0.0
230
1.0
 70
    11
 71
     3
 72
    32
 73
    28
 74
     0
 42
0.0000000001
 43
0.0000000001
 12
1.0
 22
0.0
 32
0.0
 13
1.0
 23
0.0
 33
0.0
 40
0.0
 40
0.0
 40
0.0
 40
0.0
 40
0.125
 40
0.125
 40
0.125
 40
0.125
 40
0.25
 40
0.25
 40
0.25
 40
0.25
 40
0.375
 40
0.375
 40
0.375
 40
0.375
 40
0.5
 40
0.5
 40
0.5
 40
0.5
 40
0.625
 40
0.625
 40
0.625
 40
0.625
 40
0.75
 40
0.75
 40
0.75
 40
0.75
 40
1.0
 40
1.0
 40
1.0
 40
1.0
 10
122.1124
 20
29.269
 30
0.0
 10
122.1124
 20
29.269
 30
0.0
 10
122.1124
 20
32.3027
 30
0.0
 10
122.1124
 20
32.3027
 30
0.0
 10
122.1124
 20
32.3027
 30
0.0
 10
122.1124
 20
32.3027
 30
0.0
 10
102.3179
 20
32.3027
 30
0.0
 10
102.3179
 20
32.3027
 30
0.0
 10
102.3179
 20
32.3027
 30
0.0
 10
100.9858
 20
32.3027
 30
0.0
 10
99.9535
 20
31.9017
 30
0.0
 10
99.9535
 20
30.0303
 30
0.0
 10
99.9535
 20
30.0303
 30
0.0
 10
99.9535
 20
30.0303
 30
0.0
 10
99.9535
 20
27.0111
 30
0.0
 10
99.9535
 20
27.0111
 30
0.0
 10
99.9535
 20
27.0111
 30
0.0
 10
99.9535
 20
27.0111
 30
0.0
 10
119.9053
 20
27.0111
 30
0.0
 10
119.9053
 20
27.0111
 30
0.0
 10
119.9053
 20
27.0111
 30
0.0
 10
121.6637
 20
27.0625
 30
0.0
 10
122.1058
 20
28.2593
 30
0.0
 10
122.1123
 20
29.2691
 30
0.0
 10
122.1123
 20
29.2691
 30
0.0
 10
122.1123
 20
29.2691
 30
0.0
 10
122.1124
 20
29.269
 30
0.0
 10
122.1124
 20
29.269
 30
0.0
  0
SPLINE
  5
6E
330
1F
100
AcDbEntity
  8
layer 1
 62
     7
100
AcDbSpline
210
0.0
220
0.0
230
1.0
 70
    11
 71
     3
 72
    40
 73
    36
 74
     0
 42
0.0000000001
 43
0.0000000001
 12
1.0
 22
0.0
 32
0.0
 13
1.0
 23
0.0
 33
0.0
 40
0.0
 40
0.0
 40
0.0
 40
0.0
 40
0.1
 40
0.1
 40
0.1
 40
0.1
 40
0.2
 40
0.2
 40
0.2
 40
0.2
 40
0.3
 40
0.3
 40
0.3
 40
0.3
 40
0.4
 40
0.4
 40
0.4
 40
0.4
 40
0.5
 40
0.5
 40
0.5
 40
0.5
 40
0.6
 40
0.6
 40
0.6
 40
0.6
 40
0.7
 40
0.7
 40
0.7
 40
0.7
 40
0.8
 40
0.8
 40
0.8
 40
0.8
 40
1.0
 40
1.0
 40
1.0
 40
1.0
 10
127.427
 20
30.5989
 30
0.0
 10
127.5344
 20
26.1798
 30
0.0
 10
125.6592
 20
23.2343
 30
0.0
 10
122.1799
 20
22.2191
 30
0.0
 10
122.1799
 20
22.2191
 30
0.0
 10
121.352
 20
21.9926
 30
0.0
 10
116.9275
 20
21.8565
 30
0.0
 10
110.3563
 20
21.8553
 30
0.0
 10
110.3563
 20
21.8553
 30
0.0
 10
110.3563
 20
21.8553
 30
0.0
 10
99.8556
 20
21.8534
 30
0.0
 10
99.8556
 20
21.8534
 30
0.0
 10
99.8556
 20
21.8534
 30
0.0
 10
99.8556
 20
21.8534
 30
0.0
 10
99.8556
 20
16.231
 30
0.0
 10
99.8556
 20
16.231
 30
0.0
 10
99.8556
 20
16.231
 30
0.0
 10
99.8556
 20
16.231
 30
0.0
 10
125.4963
 20
16.231
 30
0.0
 10
125.4963
 20
16.231
 30
0.0
 10
125.4963
 20
16.231
 30
0.0
 10
125.4963
 20
16.231
 30
0.0
 10
134.2927
 20
25.0456
 30
0.0
 10
134.2927
 20
25.0456
 30
0.0
 10
134.2927
 20
25.0456
 30
0.0
 10
134.2927
 20
25.0456
 30
0.0
 10
134.4168
 20
32.437
 30
0.0
 10
134.4168
 20
32.437
 30
0.0
 10
134.4168
 20
32.437
 30
0.0
 10
134.4168
 20
32.437
 30
0.0
 10
127.4269
 20
32.4367
 30
0.0
 10
127.4269
 20
32.4367
 30
0.0
 10
127.4269
 20
32.4367
 30
0.0
 10
127.4269
 20
32.4367
 30
0.0
 10
127.427
 20
30.5989
 30
0.0
 10
127.427
 20
30.5989
 30
0.0
  0
SPLINE
  5
6F
330
1F
100
AcDbEntity
  8
layer 1
 62
     7
100
AcDbSpline
210
0.0
220
0.0
230
1.0
 70
    11
 71
     3
 72
    20
 73
    16
 74
     0
 42
0.0000000001
 43
0.0000000001
 12
1.0
 22
0.0
 32
0.0
 13
1.0
 23
0.0
 33
0.0
 40
0.0
 40
0.0
 40
0.0
 40
0.0
 40
0.2
 40
0.2
 40
0.2
 40
0.2
 40
0.4
 40
0.4
 40
0.4
 40
0.4
 40
0.6
 40
0.6
 40
0.6
 40
0.6
 40
1.0
 40
1.0
 40
1.0
 40
1.0
 10
134.3494
 20
43.2167
 30
0.0
 10
132.0343
 20
43.2167
 30
0.0
 10
129.7192
 20
43.2167
 30
0.0
 10
127.4041
 20
43.2167
 30
0.0
 10
127.4041
 20
43.2167
 30
0.0
 10
127.4041
 20
41.3426
 30
0.0
 10
127.4041
 20
39.4684
 30
0.0
 10
127.4041
 20
37.5943
 30
0.0
 10
127.4041
 20
37.5943
 30
0.0
 10
129.7192
 20
37.5943
 30
0.0
 10
132.0343
 20
37.5943
 30
0.0
 10
134.3494
 20
37.5943
 30
0.0
 10
134.3494
 20
37.5943
 30
0.0
 10
134.3494
 20
39.4684
 30
0.0
 10
134.3494
 20
41.3426
 30
0.0
 10
134.3494
 20
43.2167
 30
0.0
  0
SPLINE
  5
70
330
1F
100
AcDbEntity
  8
layer 1
 62
     7
100
AcDbSpline
210
0.0
220
0.0
230
1.0
 70
    11
 71
     3
 72
    32
 73
    28
 74
     0
 42
0.0000000001
 43
0.0000000001
 12
1.0
 22
0.0
 32
0.0
 13
1.0
 23
0.0
 33
0.0
 40
0.0
 40
0.0
 40
0.0
 40
0.0
 40
0.125
 40
0.125
 40
0.125
 40
0.125
 40
0.25
 40
0.25
 40
0.25
 40
0.25
 40
0.375
 40
0.375
 40
0.375
 40
0.375
 40
0.5
 40
0.5
 40
0.5
 40
0.5
 40
0.625
 40
0.625
 40
0.625
 40
0.625
 40
0.75
 40
0.75
 40
0.75
 40
0.75
 40
1.0
 40
1.0
 40
1.0
 40
1.0
 10
151.8962
 20
29.2488
 30
0.0
 10
151.8962
 20
29.2488
 30
0.0
 10
151.8962
 20
32.2825
 30
0.0
 10
151.8962
 20
32.2825
 30
0.0
 10
151.8962
 20
32.2825
 30
0.0
 10
151.8962
 20
32.2825
 30
0.0
 10
171.6907
 20
32.2825
 30
0.0
 10
171.6907
 20
32.2825
 30
0.0
 10
171.6907
 20
32.2825
 30
0.0
 10
173.0228
 20
32.2825
 30
0.0
 10
174.0551
 20
31.8815
 30
0.0
 10
174.0551
 20
30.0101
 30
0.0
 10
174.0551
 20
30.0101
 30
0.0
 10
174.0551
 20
30.0101
 30
0.0
 10
174.0551
 20
26.9909
 30
0.0
 10
174.0551
 20
26.9909
 30
0.0
 10
174.0551
 20
26.9909
 30
0.0
 10
174.0551
 20
26.9909
 30
0.0
 10
154.1033
 20
26.9909
 30
0.0
 10
154.1033
 20
26.9909
 30
0.0
 10
154.1033
 20
26.9909
 30
0.0
 10
152.3449
 20
27.0423
 30
0.0
 10
151.9028
 20
28.2391
 30
0.0
 10
151.8963
 20
29.2489
 30
0.0
 10
151.8963
 20
29.2489
 30
0.0
 10
151.8963
 20
29.2489
 30
0.0
 10
151.8962
 20
29.2488
 30
0.0
 10
151.8962
 20
29.2488
 30
0.0
  0
SPLINE
  5
71
330
1F
100
AcDbEntity
  8
layer 1
 62
     7
100
AcDbSpline
210
0.0
220
0.0
230
1.0
 70
    11
 71
     3
 72
    20
 73
    16
 74
     0
 42
0.0000000001
 43
0.0000000001
 12
1.0
 22
0.0
 32
0.0
 13
1.0
 23
0.0
 33
0.0
 40
0.0
 40
0.0
 40
0.0
 40
0.0
 40
0.2
 40
0.2
 40
0.2
 40
0.2
 40
0.4
 40
0.4
 40
0.4
 40
0.4
 40
0.6
 40
0.6
 40
0.6
 40
0.6
 40
1.0
 40
1.0
 40
1.0
 40
1.0
 10
137.0038
 20
6.9752
 30
0.0
 10
137.0038
 20
6.9752
 30
0.0
 10
143.7348
 20
13.7063
 30
0.0
 10
143.7348
 20
13.7063
 30
0.0
 10
143.7348
 20
13.7063
 30
0.0
 10
143.7348
 20
13.7063
 30
0.0
 10
137.0038
 20
20.4374
 30
0.0
 10
137.0038
 20
20.4374
 30
0.0
 10
137.0038
 20
20.4374
 30
0.0
 10
137.0038
 20
20.4374
 30
0.0
 10
130.2727
 20
13.7063
 30
0.0
 10
130.2727
 20
13.7063
 30
0.0
 10
130.2727
 20
13.7063
 30
0.0
 10
130.2727
 20
13.7063
 30
0.0
 10
137.0038
 20
6.9752
 30
0.0
 10
137.0038
 20
6.9752
 30
0.0
  0
SPLINE
  5
72
330
1F
100
AcDbEntity
  8
layer 1
 62
     7
100
AcDbSpline
210
0.0
220
0.0
230
1.0
 70
    11
 71
     3
 72
    20
 73
    16
 74
     0
 42
0.0000000001
 43
0.0000000001
 12
1.0
 22
0.0
 32
0.0
 13
1.0
 23
0.0
 33
0.0
 40
0.0
 40
0.0
 40
0.0
 40
0.0
 40
0.2
 40
0.2
 40
0.2
 40
0.2
 40
0.4
 40
0.4
 40
0.4
 40
0.4
 40
0.6
 40
0.6
 40
0.6
 40
0.6
 40
1.0
 40
1.0
 40
1.0
 40
1.0
 10
179.3033
 20
85.9985
 30
0.0
 10
179.3033
 20
85.9985
 30
0.0
 10
186.2486
 20
85.9985
 30
0.0
 10
186.2486
 20
85.9985
 30
0.0
 10
186.2486
 20
85.9985
 30
0.0
 10
186.2486
 20
85.9985
 30
0.0
 10
186.2486
 20
80.3761
 30
0.0
 10
186.2486
 20
80.3761
 30
0.0
 10
186.2486
 20
80.3761
 30
0.0
 10
186.2486
 20
80.3761
 30
0.0
 10
179.3033
 20
80.3761
 30
0.0
 10
179.3033
 20
80.3761
 30
0.0
 10
179.3033
 20
80.3761
 30
0.0
 10
179.3033
 20
80.3761
 30
0.0
 10
179.3033
 20
85.9985
 30
0.0
 10
179.3033
 20
85.9985
 30
0.0
  0
SPLINE
  5
73
330
1F
100
AcDbEntity
  8
layer 1
 62
     7
100
AcDbSpline
210
0.0
220
0.0
230
1.0
 70
    11
 71
     3
 72
    40
 73
    36
 74
     0
 42
0.0000000001
 43
0.0000000001
 12
1.0
 22
0.0
 32
0.0
 13
1.0
 23
0.0
 33
0.0
 40
0.0
 40
0.0
 40
0.0
 40
0.0
 40
0.1
 40
0.1
 40
0.1
 40
0.1
 40
0.2
 40
0.2
 40
0.2
 40
0.2
 40
0.3
 40
0.3
 40
0.3
 40
0.3
 40
0.4
 40
0.4
 40
0.4
 40
0.4
 40
0.5
 40
0.5
 40
0.5
 40
0.5
 40
0.6
 40
0.6
 40
0.6
 40
0.6
 40
0.7
 40
0.7
 40
0.7
 40
0.7
 40
0.8
 40
0.8
 40
0.8
 40
0.8
 40
1.0
 40
1.0
 40
1.0
 40
1.0
 10
179.3757
 20
93.0269
 30
0.0
 10
179.721
 20
97.0596
 30
0.0
 10
177.7286
 20
100.3915
 30
0.0
 10
174.2494
 20
101.4067
 30
0.0
 10
174.2494
 20
101.4067
 30
0.0
 10
173.4215
 20
101.6332
 30
0.0
 10
168.997
 20
101.7693
 30
0.0
 10
162.4258
 20
101.7705
 30
0.0
 10
162.4258
 20
101.7705
 30
0.0
 10
162.4258
 20
101.7705
 30
0.0
 10
151.9252
 20
101.7724
 30
0.0
 10
151.9252
 20
101.7724
 30
0.0
 10
151.9252
 20
101.7724
 30
0.0
 10
151.9252
 20
101.7724
 30
0.0
 10
151.9252
 20
107.3948
 30
0.0
 10
151.9252
 20
107.3948
 30
0.0
 10
151.9252
 20
107.3948
 30
0.0
 10
151.9252
 20
107.3948
 30
0.0
 10
177.5659
 20
107.3948
 30
0.0
 10
177.5659
 20
107.3948
 30
0.0
 10
177.5659
 20
107.3948
 30
0.0
 10
177.5659
 20
107.3948
 30
0.0
 10
186.3623
 20
98.5802
 30
0.0
 10
186.3623
 20
98.5802
 30
0.0
 10
186.3623
 20
98.5802
 30
0.0
 10
186.3623
 20
98.5802
 30
0.0
 10
186.4864
 20
91.1888
 30
0.0
 10
186.4864
 20
91.1888
 30
0.0
 10
186.4864
 20
91.1888
 30
0.0
 10
186.4864
 20
91.1888
 30
0.0
 10
179.3757
 20
91.1891
 30
0.0
 10
179.3757
 20
91.1891
 30
0.0
 10
179.3757
 20
91.1891
 30
0.0
 10
179.3757
 20
91.1891
 30
0.0
 10
179.3757
 20
93.0269
 30
0.0
 10
179.3757
 20
93.0269
 30
0.0
  0
SPLINE
  5
74
330
1F
100
AcDbEntity
  8
layer 1
 62
     7
100
AcDbSpline
210
0.0
220
0.0
230
1.0
 70
    11
 71
     3
 72
    20
 73
    16
 74
     0
 42
0.0000000001
 43
0.0000000001
 12
1.0
 22
0.0
 32
0.0
 13
1.0
 23
0.0
 33
0.0
 40
0.0
 40
0.0
 40
0.0
 40
0.0
 40
0.2
 40
0.2
 40
0.2
 40
0.2
 40
0.4
 40
0.4
 40
0.4
 40
0.4
 40
0.6
 40
0.6
 40
0.6
 40
0.6
 40
1.0
 40
1.0
 40
1.0
 40
1.0
 10
139.6882
 20
107.3947
 30
0.0
 10
142.0033
 20
107.3947
 30
0.0
 10
144.3184
 20
107.3947
 30
0.0
 10
146.6335
 20
107.3947
 30
0.0
 10
146.6335
 20
107.3947
 30
0.0
 10
146.6335
 20
105.5206
 30
0.0
 10
146.6335
 20
103.6464
 30
0.0
 10
146.6335
 20
101.7723
 30
0.0
 10
146.6335
 20
101.7723
 30
0.0
 10
144.3184
 20
101.7723
 30
0.0
 10
142.0033
 20
101.7723
 30
0.0
 10
139.6882
 20
101.7723
 30
0.0
 10
139.6882
 20
101.7723
 30
0.0
 10
139.6882
 20
103.6464
 30
0.0
 10
139.6882
 20
105.5206
 30
0.0
 10
139.6882
 20
107.3947
 30
0.0
  0
SPLINE
  5
75
330
1F
100
AcDbEntity
  8
layer 1
 62
     7
100
AcDbSpline
210
0.0
220
0.0
230
1.0
 70
    11
 71
     3
 72
    16
 73
    12
 74
     0
 42
0.0000000001
 43
0.0000000001
 12
1.0
 22
0.0
 32
0.0
 13
1.0
 23
0.0
 33
0.0
 40
0.0
 40
0.0
 40
0.0
 40
0.0
 40
0.25
 40
0.25
 40
0.25
 40
0.25
 40
0.5
 40
0.5
 40
0.5
 40
0.5
 40
1.0
 40
1.0
 40
1.0
 40
1.0
 10
182.352
 20
109.863
 30
0.0
 10
182.352
 20
109.863
 30
0.0
 10
189.0433
 20
116.3243
 30
0.0
 10
189.0433
 20
116.3243
 30
0.0
 10
189.0433
 20
116.3243
 30
0.0
 10
189.0433
 20
116.3243
 30
0.0
 10
189.0554
 20
103.4259
 30
0.0
 10
189.0554
 20
103.4259
 30
0.0
 10
189.0554
 20
103.4259
 30
0.0
 10
189.0554
 20
103.4259
 30
0.0
 10
182.352
 20
109.863
 30
0.0
 10
182.352
 20
109.863
 30
0.0
  0
SPLINE
  5
76
330
1F
100
AcDbEntity
  8
layer 1
 62
     7
100
AcDbSpline
210
0.0
220
0.0
230
1.0
 70
    11
 71
     3
 72
    20
 73
    16
 74
     0
 42
0.0000000001
 43
0.0000000001
 12
1.0
 22
0.0
 32
0.0
 13
1.0
 23
0.0
 33
0.0
 40
0.0
 40
0.0
 40
0.0
 40
0.0
 40
0.2
 40
0.2
 40
0.2
 40
0.2
 40
0.4
 40
0.4
 40
0.4
 40
0.4
 40
0.6
 40
0.6
 40
0.6
 40
0.6
 40
1.0
 40
1.0
 40
1.0
 40
1.0
 10
139.6882
 20
117.978
 30
0.0
 10
139.6882
 20
117.978
 30
0.0
 10
146.6335
 20
117.978
 30
0.0
 10
146.6335
 20
117.978
 30
0.0
 10
146.6335
 20
117.978
 30
0.0
 10
146.6335
 20
117.978
 30
0.0
 10
146.6335
 20
112.3556
 30
0.0
 10
146.6335
 20
112.3556
 30
0.0
 10
146.6335
 20
112.3556
 30
0.0
 10
146.6335
 20
112.3556
 30
0.0
 10
139.6882
 20
112.3556
 30
0.0
 10
139.6882
 20
112.3556
 30
0.0
 10
139.6882
 20
112.3556
 30
0.0
 10
139.6882
 20
112.3556
 30
0.0
 10
139.6882
 20
117.978
 30
0.0
 10
139.6882
 20
117.978
 30
0.0
  0
SPLINE
  5
77
330
1F
100
AcDbEntity
  8
layer 1
 62
     7
100
AcDbSpline
210
0.0
220
0.0
230
1.0
 70
    11
 71
     3
 72
    36
 73
    32
 74
     0
 42
0.0000000001
 43
0.0000000001
 12
1.0
 22
0.0
 32
0.0
 13
1.0
 23
0.0
 33
0.0
 40
0.0
 40
0.0
 40
0.0
 40
0.0
 40
0.1111111111111111
 40
0.1111111111111111
 40
0.1111111111111111
 40
0.1111111111111111
 40
0.2222222222222222
 40
0.2222222222222222
 40
0.2222222222222222
 40
0.2222222222222222
 40
0.3333333333333333
 40
0.3333333333333333
 40
0.3333333333333333
 40
0.3333333333333333
 40
0.4444444444444444
 40
0.4444444444444444
 40
0.4444444444444444
 40
0.4444444444444444
 40
0.5555555555555556
 40
0.5555555555555556
 40
0.5555555555555556
 40
0.5555555555555556
 40
0.6666666666666666
 40
0.6666666666666666
 40
0.6666666666666666
 40
0.6666666666666666
 40
0.7777777777777778
 40
0.7777777777777778
 40
0.7777777777777778
 40
0.7777777777777778
 40
1.0
 40
1.0
 40
1.0
 40
1.0
 10
179.2512
 20
124.06
 30
0.0
 10
178.7211
 20
121.2742
 30
0.0
 10
176.9249
 20
119.1235
 30
0.0
 10
174.2494
 20
118.3428
 30
0.0
 10
174.2494
 20
118.3428
 30
0.0
 10
173.4215
 20
118.1163
 30
0.0
 10
168.997
 20
117.9802
 30
0.0
 10
162.4258
 20
117.979
 30
0.0
 10
162.4258
 20
117.979
 30
0.0
 10
162.4258
 20
117.979
 30
0.0
 10
151.9252
 20
117.9771
 30
0.0
 10
151.9252
 20
117.9771
 30
0.0
 10
151.9252
 20
117.9771
 30
0.0
 10
151.9252
 20
117.9771
 30
0.0
 10
151.9252
 20
112.3547
 30
0.0
 10
151.9252
 20
112.3547
 30
0.0
 10
151.9252
 20
112.3547
 30
0.0
 10
151.9252
 20
112.3547
 30
0.0
 10
177.5659
 20
112.3547
 30
0.0
 10
177.5659
 20
112.3547
 30
0.0
 10
177.5659
 20
112.3547
 30
0.0
 10
177.5659
 20
112.3547
 30
0.0
 10
186.3623
 20
121.1693
 30
0.0
 10
186.3623
 20
121.1693
 30
0.0
 10
186.3623
 20
121.1693
 30
0.0
 10
186.3623
 20
121.1693
 30
0.0
 10
186.4109
 20
124.0645
 30
0.0
 10
186.4109
 20
124.0645
 30
0.0
 10
186.4109
 20
124.0645
 30
0.0
 10
186.4109
 20
124.0645
 30
0.0
 10
179.2512
 20
124.06
 30
0.0
 10
179.2512
 20
124.06
 30
0.0
  0
SPLINE
  5
78
330
1F
100
AcDbEntity
  8
layer 1
 62
     7
100
AcDbSpline
210
0.0
220
0.0
230
1.0
 70
    11
 71
     3
 72
    40
 73
    36
 74
     0
 42
0.0000000001
 43
0.0000000001
 12
1.0
 22
0.0
 32
0.0
 13
1.0
 23
0.0
 33
0.0
 40
0.0
 40
0.0
 40
0.0
 40
0.0
 40
0.1
 40
0.1
 40
0.1
 40
0.1
 40
0.2
 40
0.2
 40
0.2
 40
0.2
 40
0.3
 40
0.3
 40
0.3
 40
0.3
 40
0.4
 40
0.4
 40
0.4
 40
0.4
 40
0.5
 40
0.5
 40
0.5
 40
0.5
 40
0.6
 40
0.6
 40
0.6
 40
0.6
 40
0.7
 40
0.7
 40
0.7
 40
0.7
 40
0.8
 40
0.8
 40
0.8
 40
0.8
 40
1.0
 40
1.0
 40
1.0
 40
1.0
 10
146.6106
 20
94.7769
 30
0.0
 10
146.5032
 20
90.3578
 30
0.0
 10
148.3784
 20
87.4123
 30
0.0
 10
151.8577
 20
86.3971
 30
0.0
 10
151.8577
 20
86.3971
 30
0.0
 10
152.6856
 20
86.1706
 30
0.0
 10
157.1101
 20
86.0345
 30
0.0
 10
163.6813
 20
86.0333
 30
0.0
 10
163.6813
 20
86.0333
 30
0.0
 10
163.6813
 20
86.0333
 30
0.0
 10
174.182
 20
86.0314
 30
0.0
 10
174.182
 20
86.0314
 30
0.0
 10
174.182
 20
86.0314
 30
0.0
 10
174.182
 20
86.0314
 30
0.0
 10
174.182
 20
80.409
 30
0.0
 10
174.182
 20
80.409
 30
0.0
 10
174.182
 20
80.409
 30
0.0
 10
174.182
 20
80.409
 30
0.0
 10
148.5413
 20
80.409
 30
0.0
 10
148.5413
 20
80.409
 30
0.0
 10
148.5413
 20
80.409
 30
0.0
 10
148.5413
 20
80.409
 30
0.0
 10
139.7449
 20
89.2236
 30
0.0
 10
139.7449
 20
89.2236
 30
0.0
 10
139.7449
 20
89.2236
 30
0.0
 10
139.7449
 20
89.2236
 30
0.0
 10
139.6208
 20
96.615
 30
0.0
 10
139.6208
 20
96.615
 30
0.0
 10
139.6208
 20
96.615
 30
0.0
 10
139.6208
 20
96.615
 30
0.0
 10
146.6107
 20
96.6147
 30
0.0
 10
146.6107
 20
96.6147
 30
0.0
 10
146.6107
 20
96.6147
 30
0.0
 10
146.6107
 20
96.6147
 30
0.0
 10
146.6106
 20
94.7769
 30
0.0
 10
146.6106
 20
94.7769
 30
0.0
  0
SPLINE
  5
79
330
1F
100
AcDbEntity
  8
layer 1
 62
     7
100
AcDbSpline
210
0.0
220
0.0
230
1.0
 70
    11
 71
     3
 72
    20
 73
    16
 74
     0
 42
0.0000000001
 43
0.0000000001
 12
1.0
 22
0.0
 32
0.0
 13
1.0
 23
0.0
 33
0.0
 40
0.0
 40
0.0
 40
0.0
 40
0.0
 40
0.2
 40
0.2
 40
0.2
 40
0.2
 40
0.4
 40
0.4
 40
0.4
 40
0.4
 40
0.6
 40
0.6
 40
0.6
 40
0.6
 40
1.0
 40
1.0
 40
1.0
 40
1.0
 10
94.7632
 20
69.6306
 30
0.0
 10
94.7632
 20
69.6306
 30
0.0
 10
87.8179
 20
69.6306
 30
0.0
 10
87.8179
 20
69.6306
 30
0.0
 10
87.8179
 20
69.6306
 30
0.0
 10
87.8179
 20
69.6306
 30
0.0
 10
87.8179
 20
75.2529
 30
0.0
 10
87.8179
 20
75.2529
 30
0.0
 10
87.8179
 20
75.2529
 30
0.0
 10
87.8179
 20
75.2529
 30
0.0
 10
94.7632
 20
75.2529
 30
0.0
 10
94.7632
 20
75.2529
 30
0.0
 10
94.7632
 20
75.2529
 30
0.0
 10
94.7632
 20
75.2529
 30
0.0
 10
94.7632
 20
69.6306
 30
0.0
 10
94.7632
 20
69.6306
 30
0.0
  0
SPLINE
  5
7A
330
1F
100
AcDbEntity
  8
layer 1
 62
     7
100
AcDbSpline
210
0.0
220
0.0
230
1.0
 70
    11
 71
     3
 72
    32
 73
    28
 74
     0
 42
0.0000000001
 43
0.0000000001
 12
1.0
 22
0.0
 32
0.0
 13
1.0
 23
0.0
 33
0.0
 40
0.0
 40
0.0
 40
0.0
 40
0.0
 40
0.125
 40
0.125
 40
0.125
 40
0.125
 40
0.25
 40
0.25
 40
0.25
 40
0.25
 40
0.375
 40
0.375
 40
0.375
 40
0.375
 40
0.5
 40
0.5
 40
0.5
 40
0.5
 40
0.625
 40
0.625
 40
0.625
 40
0.625
 40
0.75
 40
0.75
 40
0.75
 40
0.75
 40
1.0
 40
1.0
 40
1.0
 40
1.0
 10
122.1414
 20
62.1821
 30
0.0
 10
122.1414
 20
62.1821
 30
0.0
 10
122.1414
 20
59.1484
 30
0.0
 10
122.1414
 20
59.1484
 30
0.0
 10
122.1414
 20
59.1484
 30
0.0
 10
122.1414
 20
59.1484
 30
0.0
 10
102.3469
 20
59.1484
 30
0.0
 10
102.3469
 20
59.1484
 30
0.0
 10
102.3469
 20
59.1484
 30
0.0
 10
101.0148
 20
59.1484
 30
0.0
 10
99.9825
 20
59.5494
 30
0.0
 10
99.9825
 20
61.4208
 30
0.0
 10
99.9825
 20
61.4208
 30
0.0
 10
99.9825
 20
61.4208
 30
0.0
 10
99.9825
 20
64.44
 30
0.0
 10
99.9825
 20
64.44
 30
0.0
 10
99.9825
 20
64.44
 30
0.0
 10
99.9825
 20
64.44
 30
0.0
 10
119.9343
 20
64.44
 30
0.0
 10
119.9343
 20
64.44
 30
0.0
 10
119.9343
 20
64.44
 30
0.0
 10
121.6927
 20
64.3886
 30
0.0
 10
122.1348
 20
63.1918
 30
0.0
 10
122.1413
 20
62.182
 30
0.0
 10
122.1413
 20
62.182
 30
0.0
 10
122.1413
 20
62.182
 30
0.0
 10
122.1414
 20
62.1821
 30
0.0
 10
122.1414
 20
62.1821
 30
0.0
  0
SPLINE
  5
7B
330
1F
100
AcDbEntity
  8
layer 1
 62
     7
100
AcDbSpline
210
0.0
220
0.0
230
1.0
 70
    11
 71
     3
 72
    36
 73
    32
 74
     0
 42
0.0000000001
 43
0.0000000001
 12
1.0
 22
0.0
 32
0.0
 13
1.0
 23
0.0
 33
0.0
 40
0.0
 40
0.0
 40
0.0
 40
0.0
 40
0.1111111111111111
 40
0.1111111111111111
 40
0.1111111111111111
 40
0.1111111111111111
 40
0.2222222222222222
 40
0.2222222222222222
 40
0.2222222222222222
 40
0.2222222222222222
 40
0.3333333333333333
 40
0.3333333333333333
 40
0.3333333333333333
 40
0.3333333333333333
 40
0.4444444444444444
 40
0.4444444444444444
 40
0.4444444444444444
 40
0.4444444444444444
 40
0.5555555555555556
 40
0.5555555555555556
 40
0.5555555555555556
 40
0.5555555555555556
 40
0.6666666666666666
 40
0.6666666666666666
 40
0.6666666666666666
 40
0.6666666666666666
 40
0.7777777777777778
 40
0.7777777777777778
 40
0.7777777777777778
 40
0.7777777777777778
 40
1.0
 40
1.0
 40
1.0
 40
1.0
 10
134.3784
 20
-24.0499
 30
0.0
 10
134.3784
 20
-24.0499
 30
0.0
 10
134.3784
 20
-21.2387
 30
0.0
 10
134.3784
 20
-21.2387
 30
0.0
 10
134.3784
 20
-21.2387
 30
0.0
 10
134.3784
 20
-21.2387
 30
0.0
 10
130.9057
 20
-21.2387
 30
0.0
 10
130.9057
 20
-21.2387
 30
0.0
 10
130.9057
 20
-21.2387
 30
0.0
 10
130.9057
 20
-21.2387
 30
0.0
 10
127.433
 20
-21.2387
 30
0.0
 10
127.433
 20
-21.2387
 30
0.0
 10
127.433
 20
-21.2387
 30
0.0
 10
127.433
 20
-21.2387
 30
0.0
 10
127.433
 20
-24.0499
 30
0.0
 10
127.433
 20
-24.0499
 30
0.0
 10
127.433
 20
-24.0499
 30
0.0
 10
127.433
 20
-24.0499
 30
0.0
 10
127.433
 20
-26.8611
 30
0.0
 10
127.433
 20
-26.8611
 30
0.0
 10
127.433
 20
-26.8611
 30
0.0
 10
127.433
 20
-26.8611
 30
0.0
 10
130.9057
 20
-26.8611
 30
0.0
 10
130.9057
 20
-26.8611
 30
0.0
 10
130.9057
 20
-26.8611
 30
0.0
 10
130.9057
 20
-26.8611
 30
0.0
 10
134.3784
 20
-26.8611
 30
0.0
 10
134.3784
 20
-26.8611
 30
0.0
 10
134.3784
 20
-26.8611
 30
0.0
 10
134.3784
 20
-26.8611
 30
0.0
 10
134.3784
 20
-24.0499
 30
0.0
 10
134.3784
 20
-24.0499
 30
0.0
  0
SPLINE
  5
7C
330
1F
100
AcDbEntity
  8
layer 1
 62
     7
100
AcDbSpline
210
0.0
220
0.0
230
1.0
 70
    11
 71
     3
 72
    36
 73
    32
 74
     0
 42
0.0000000001
 43
0.0000000001
 12
1.0
 22
0.0
 32
0.0
 13
1.0
 23
0.0
 33
0.0
 40
0.0
 40
0.0
 40
0.0
 40
0.0
 40
0.1111111111111111
 40
0.1111111111111111
 40
0.1111111111111111
 40
0.1111111111111111
 40
0.2222222222222222
 40
0.2222222222222222
 40
0.2222222222222222
 40
0.2222222222222222
 40
0.3333333333333333
 40
0.3333333333333333
 40
0.3333333333333333
 40
0.3333333333333333
 40
0.4444444444444444
 40
0.4444444444444444
 40
0.4444444444444444
 40
0.4444444444444444
 40
0.5555555555555556
 40
0.5555555555555556
 40
0.5555555555555556
 40
0.5555555555555556
 40
0.6666666666666666
 40
0.6666666666666666
 40
0.6666666666666666
 40
0.6666666666666666
 40
0.7777777777777778
 40
0.7777777777777778
 40
0.7777777777777778
 40
0.7777777777777778
 40
1.0
 40
1.0
 40
1.0
 40
1.0
 10
146.6152
 20
-24.0499
 30
0.0
 10
146.6152
 20
-24.0499
 30
0.0
 10
146.6152
 20
-21.2387
 30
0.0
 10
146.6152
 20
-21.2387
 30
0.0
 10
146.6152
 20
-21.2387
 30
0.0
 10
146.6152
 20
-21.2387
 30
0.0
 10
143.1425
 20
-21.2387
 30
0.0
 10
143.1425
 20
-21.2387
 30
0.0
 10
143.1425
 20
-21.2387
 30
0.0
 10
143.1425
 20
-21.2387
 30
0.0
 10
139.6698
 20
-21.2387
 30
0.0
 10
139.6698
 20
-21.2387
 30
0.0
 10
139.6698
 20
-21.2387
 30
0.0
 10
139.6698
 20
-21.2387
 30
0.0
 10
139.6698
 20
-24.0499
 30
0.0
 10
139.6698
 20
-24.0499
 30
0.0
 10
139.6698
 20
-24.0499
 30
0.0
 10
139.6698
 20
-24.0499
 30
0.0
 10
139.6698
 20
-26.8611
 30
0.0
 10
139.6698
 20
-26.8611
 30
0.0
 10
139.6698
 20
-26.8611
 30
0.0
 10
139.6698
 20
-26.8611
 30
0.0
 10
143.1425
 20
-26.8611
 30
0.0
 10
143.1425
 20
-26.8611
 30
0.0
 10
143.1425
 20
-26.8611
 30
0.0
 10
143.1425
 20
-26.8611
 30
0.0
 10
146.6152
 20
-26.8611
 30
0.0
 10
146.6152
 20
-26.8611
 30
0.0
 10
146.6152
 20
-26.8611
 30
0.0
 10
146.6152
 20
-26.8611
 30
0.0
 10
146.6152
 20
-24.0499
 30
0.0
 10
146.6152
 20
-24.0499
 30
0.0
  0
SPLINE
  5
7D
330
1F
100
AcDbEntity
  8
layer 1
 62
     7
100
AcDbSpline
210
0.0
220
0.0
230
1.0
 70
    11
 71
     3
 72
    40
 73
    36
 74
     0
 42
0.0000000001
 43
0.0000000001
 12
1.0
 22
0.0
 32
0.0
 13
1.0
 23
0.0
 33
0.0
 40
0.0
 40
0.0
 40
0.0
 40
0.0
 40
0.1
 40
0.1
 40
0.1
 40
0.1
 40
0.2
 40
0.2
 40
0.2
 40
0.2
 40
0.3
 40
0.3
 40
0.3
 40
0.3
 40
0.4
 40
0.4
 40
0.4
 40
0.4
 40
0.5
 40
0.5
 40
0.5
 40
0.5
 40
0.6
 40
0.6
 40
0.6
 40
0.6
 40
0.7
 40
0.7
 40
0.7
 40
0.7
 40
0.8
 40
0.8
 40
0.8
 40
0.8
 40
1.0
 40
1.0
 40
1.0
 40
1.0
 10
94.7129
 20
62.5575
 30
0.0
 10
94.6055
 20
58.1384
 30
0.0
 10
96.4807
 20
55.1929
 30
0.0
 10
99.96
 20
54.1777
 30
0.0
 10
99.96
 20
54.1777
 30
0.0
 10
100.7879
 20
53.9512
 30
0.0
 10
105.2124
 20
53.8151
 30
0.0
 10
111.7836
 20
53.8139
 30
0.0
 10
111.7836
 20
53.8139
 30
0.0
 10
111.7836
 20
53.8139
 30
0.0
 10
122.2843
 20
53.812
 30
0.0
 10
122.2843
 20
53.812
 30
0.0
 10
122.2843
 20
53.812
 30
0.0
 10
122.2843
 20
53.812
 30
0.0
 10
122.2843
 20
48.1896
 30
0.0
 10
122.2843
 20
48.1896
 30
0.0
 10
122.2843
 20
48.1896
 30
0.0
 10
122.2843
 20
48.1896
 30
0.0
 10
96.6436
 20
48.1896
 30
0.0
 10
96.6436
 20
48.1896
 30
0.0
 10
96.6436
 20
48.1896
 30
0.0
 10
96.6436
 20
48.1896
 30
0.0
 10
87.7256
 20
57.0042
 30
0.0
 10
87.7256
 20
57.0042
 30
0.0
 10
87.7256
 20
57.0042
 30
0.0
 10
87.7256
 20
57.0042
 30
0.0
 10
87.7231
 20
64.3956
 30
0.0
 10
87.7231
 20
64.3956
 30
0.0
 10
87.7231
 20
64.3956
 30
0.0
 10
87.7231
 20
64.3956
 30
0.0
 10
94.713
 20
64.3953
 30
0.0
 10
94.713
 20
64.3953
 30
0.0
 10
94.713
 20
64.3953
 30
0.0
 10
94.713
 20
64.3953
 30
0.0
 10
94.7129
 20
62.5575
 30
0.0
 10
94.7129
 20
62.5575
 30
0.0
  0
SPLINE
  5
7E
330
1F
100
AcDbEntity
  8
layer 1
 62
     7
100
AcDbSpline
210
0.0
220
0.0
230
1.0
 70
    11
 71
     3
 72
    16
 73
    12
 74
     0
 42
0.0000000001
 43
0.0000000001
 12
1.0
 22
0.0
 32
0.0
 13
1.0
 23
0.0
 33
0.0
 40
0.0
 40
0.0
 40
0.0
 40
0.0
 40
0.25
 40
0.25
 40
0.25
 40
0.25
 40
0.5
 40
0.5
 40
0.5
 40
0.5
 40
1.0
 40
1.0
 40
1.0
 40
1.0
 10
91.7146
 20
45.5289
 30
0.0
 10
91.7146
 20
45.5289
 30
0.0
 10
85.0233
 20
51.9902
 30
0.0
 10
85.0233
 20
51.9902
 30
0.0
 10
85.0233
 20
51.9902
 30
0.0
 10
85.0233
 20
51.9902
 30
0.0
 10
85.0112
 20
39.0918
 30
0.0
 10
85.0112
 20
39.0918
 30
0.0
 10
85.0112
 20
39.0918
 30
0.0
 10
85.0112
 20
39.0918
 30
0.0
 10
91.7146
 20
45.5289
 30
0.0
 10
91.7146
 20
45.5289
 30
0.0
  0
SPLINE
  5
7F
330
1F
100
AcDbEntity
  8
layer 1
 62
     7
100
AcDbSpline
210
0.0
220
0.0
230
1.0
 70
    11
 71
     3
 72
    16
 73
    12
 74
     0
 42
0.0000000001
 43
0.0000000001
 12
1.0
 22
0.0
 32
0.0
 13
1.0
 23
0.0
 33
0.0
 40
0.0
 40
0.0
 40
0.0
 40
0.0
 40
0.25
 40
0.25
 40
0.25
 40
0.25
 40
0.5
 40
0.5
 40
0.5
 40
0.5
 40
1.0
 40
1.0
 40
1.0
 40
1.0
 10
182.2767
 20
45.5289
 30
0.0
 10
182.2767
 20
45.5289
 30
0.0
 10
188.968
 20
51.9902
 30
0.0
 10
188.968
 20
51.9902
 30
0.0
 10
188.968
 20
51.9902
 30
0.0
 10
188.968
 20
51.9902
 30
0.0
 10
188.9801
 20
39.0918
 30
0.0
 10
188.9801
 20
39.0918
 30
0.0
 10
188.9801
 20
39.0918
 30
0.0
 10
188.9801
 20
39.0918
 30
0.0
 10
182.2767
 20
45.5289
 30
0.0
 10
182.2767
 20
45.5289
 30
0.0
  0
SPLINE
  5
80
330
1F
100
AcDbEntity
  8
layer 1
 62
     7
100
AcDbSpline
210
0.0
220
0.0
230
1.0
 70
    11
 71
     3
 72
    36
 73
    32
 74
     0
 42
0.0000000001
 43
0.0000000001
 12
1.0
 22
0.0
 32
0.0
 13
1.0
 23
0.0
 33
0.0
 40
0.0
 40
0.0
 40
0.0
 40
0.0
 40
0.1111111111111111
 40
0.1111111111111111
 40
0.1111111111111111
 40
0.1111111111111111
 40
0.2222222222222222
 40
0.2222222222222222
 40
0.2222222222222222
 40
0.2222222222222222
 40
0.3333333333333333
 40
0.3333333333333333
 40
0.3333333333333333
 40
0.3333333333333333
 40
0.4444444444444444
 40
0.4444444444444444
 40
0.4444444444444444
 40
0.4444444444444444
 40
0.5555555555555556
 40
0.5555555555555556
 40
0.5555555555555556
 40
0.5555555555555556
 40
0.6666666666666666
 40
0.6666666666666666
 40
0.6666666666666666
 40
0.6666666666666666
 40
0.7777777777777778
 40
0.7777777777777778
 40
0.7777777777777778
 40
0.7777777777777778
 40
1.0
 40
1.0
 40
1.0
 40
1.0
 10
134.3784
 20
51.0257
 30
0.0
 10
134.3784
 20
51.0257
 30
0.0
 10
134.3784
 20
53.8369
 30
0.0
 10
134.3784
 20
53.8369
 30
0.0
 10
134.3784
 20
53.8369
 30
0.0
 10
134.3784
 20
53.8369
 30
0.0
 10
130.9057
 20
53.8369
 30
0.0
 10
130.9057
 20
53.8369
 30
0.0
 10
130.9057
 20
53.8369
 30
0.0
 10
130.9057
 20
53.8369
 30
0.0
 10
127.433
 20
53.8369
 30
0.0
 10
127.433
 20
53.8369
 30
0.0
 10
127.433
 20
53.8369
 30
0.0
 10
127.433
 20
53.8369
 30
0.0
 10
127.433
 20
51.0257
 30
0.0
 10
127.433
 20
51.0257
 30
0.0
 10
127.433
 20
51.0257
 30
0.0
 10
127.433
 20
51.0257
 30
0.0
 10
127.433
 20
48.2145
 30
0.0
 10
127.433
 20
48.2145
 30
0.0
 10
127.433
 20
48.2145
 30
0.0
 10
127.433
 20
48.2145
 30
0.0
 10
130.9057
 20
48.2145
 30
0.0
 10
130.9057
 20
48.2145
 30
0.0
 10
130.9057
 20
48.2145
 30
0.0
 10
130.9057
 20
48.2145
 30
0.0
 10
134.3784
 20
48.2145
 30
0.0
 10
134.3784
 20
48.2145
 30
0.0
 10
134.3784
 20
48.2145
 30
0.0
 10
134.3784
 20
48.2145
 30
0.0
 10
134.3784
 20
51.0257
 30
0.0
 10
134.3784
 20
51.0257
 30
0.0
  0
SPLINE
  5
81
330
1F
100
AcDbEntity
  8
layer 1
 62
     7
100
AcDbSpline
210
0.0
220
0.0
230
1.0
 70
    11
 71
     3
 72
    36
 73
    32
 74
     0
 42
0.0000000001
 43
0.0000000001
 12
1.0
 22
0.0
 32
0.0
 13
1.0
 23
0.0
 33
0.0
 40
0.0
 40
0.0
 40
0.0
 40
0.0
 40
0.1111111111111111
 40
0.1111111111111111
 40
0.1111111111111111
 40
0.1111111111111111
 40
0.2222222222222222
 40
0.2222222222222222
 40
0.2222222222222222
 40
0.2222222222222222
 40
0.3333333333333333
 40
0.3333333333333333
 40
0.3333333333333333
 40
0.3333333333333333
 40
0.4444444444444444
 40
0.4444444444444444
 40
0.4444444444444444
 40
0.4444444444444444
 40
0.5555555555555556
 40
0.5555555555555556
 40
0.5555555555555556
 40
0.5555555555555556
 40
0.6666666666666666
 40
0.6666666666666666
 40
0.6666666666666666
 40
0.6666666666666666
 40
0.7777777777777778
 40
0.7777777777777778
 40
0.7777777777777778
 40
0.7777777777777778
 40
1.0
 40
1.0
 40
1.0
 40
1.0
 10
146.6152
 20
51.0257
 30
0.0
 10
146.6152
 20
51.0257
 30
0.0
 10
146.6152
 20
53.8369
 30
0.0
 10
146.6152
 20
53.8369
 30
0.0
 10
146.6152
 20
53.8369
 30
0.0
 10
146.6152
 20
53.8369
 30
0.0
 10
143.1425
 20
53.8369
 30
0.0
 10
143.1425
 20
53.8369
 30
0.0
 10
143.1425
 20
53.8369
 30
0.0
 10
143.1425
 20
53.8369
 30
0.0
 10
139.6698
 20
53.8369
 30
0.0
 10
139.6698
 20
53.8369
 30
0.0
 10
139.6698
 20
53.8369
 30
0.0
 10
139.6698
 20
53.8369
 30
0.0
 10
139.6698
 20
51.0257
 30
0.0
 10
139.6698
 20
51.0257
 30
0.0
 10
139.6698
 20
51.0257
 30
0.0
 10
139.6698
 20
51.0257
 30
0.0
 10
139.6698
 20
48.2145
 30
0.0
 10
139.6698
 20
48.2145
 30
0.0
 10
139.6698
 20
48.2145
 30
0.0
 10
139.6698
 20
48.2145
 30
0.0
 10
143.1425
 20
48.2145
 30
0.0
 10
143.1425
 20
48.2145
 30
0.0
 10
143.1425
 20
48.2145
 30
0.0
 10
143.1425
 20
48.2145
 30
0.0
 10
146.6152
 20
48.2145
 30
0.0
 10
146.6152
 20
48.2145
 30
0.0
 10
146.6152
 20
48.2145
 30
0.0
 10
146.6152
 20
48.2145
 30
0.0
 10
146.6152
 20
51.0257
 30
0.0
 10
146.6152
 20
51.0257
 30
0.0
  0
SPLINE
  5
82
330
1F
100
AcDbEntity
  8
layer 1
 62
     7
100
AcDbSpline
210
0.0
220
0.0
230
1.0
 70
    11
 71
     3
 72
    40
 73
    36
 74
     0
 42
0.0000000001
 43
0.0000000001
 12
1.0
 22
0.0
 32
0.0
 13
1.0
 23
0.0
 33
0.0
 40
0.0
 40
0.0
 40
0.0
 40
0.0
 40
0.1
 40
0.1
 40
0.1
 40
0.1
 40
0.2
 40
0.2
 40
0.2
 40
0.2
 40
0.3
 40
0.3
 40
0.3
 40
0.3
 40
0.4
 40
0.4
 40
0.4
 40
0.4
 40
0.5
 40
0.5
 40
0.5
 40
0.5
 40
0.6
 40
0.6
 40
0.6
 40
0.6
 40
0.7
 40
0.7
 40
0.7
 40
0.7
 40
0.8
 40
0.8
 40
0.8
 40
0.8
 40
1.0
 40
1.0
 40
1.0
 40
1.0
 10
127.456
 20
60.8522
 30
0.0
 10
127.5634
 20
65.2713
 30
0.0
 10
125.6882
 20
68.2168
 30
0.0
 10
122.2089
 20
69.232
 30
0.0
 10
122.2089
 20
69.232
 30
0.0
 10
121.381
 20
69.4585
 30
0.0
 10
116.9565
 20
69.5946
 30
0.0
 10
110.3853
 20
69.5958
 30
0.0
 10
110.3853
 20
69.5958
 30
0.0
 10
110.3853
 20
69.5958
 30
0.0
 10
99.8846
 20
69.5977
 30
0.0
 10
99.8846
 20
69.5977
 30
0.0
 10
99.8846
 20
69.5977
 30
0.0
 10
99.8846
 20
69.5977
 30
0.0
 10
99.8846
 20
75.22
 30
0.0
 10
99.8846
 20
75.22
 30
0.0
 10
99.8846
 20
75.22
 30
0.0
 10
99.8846
 20
75.22
 30
0.0
 10
125.5253
 20
75.22
 30
0.0
 10
125.5253
 20
75.22
 30
0.0
 10
125.5253
 20
75.22
 30
0.0
 10
125.5253
 20
75.22
 30
0.0
 10
134.3217
 20
66.4055
 30
0.0
 10
134.3217
 20
66.4055
 30
0.0
 10
134.3217
 20
66.4055
 30
0.0
 10
134.3217
 20
66.4055
 30
0.0
 10
134.4458
 20
59.0141
 30
0.0
 10
134.4458
 20
59.0141
 30
0.0
 10
134.4458
 20
59.0141
 30
0.0
 10
134.4458
 20
59.0141
 30
0.0
 10
127.4559
 20
59.0144
 30
0.0
 10
127.4559
 20
59.0144
 30
0.0
 10
127.4559
 20
59.0144
 30
0.0
 10
127.4559
 20
59.0144
 30
0.0
 10
127.456
 20
60.8522
 30
0.0
 10
127.456
 20
60.8522
 30
0.0
  0
SPLINE
  5
83
330
1F
100
AcDbEntity
  8
layer 1
 62
     7
100
AcDbSpline
210
0.0
220
0.0
230
1.0
 70
    11
 71
     3
 72
    20
 73
    16
 74
     0
 42
0.0000000001
 43
0.0000000001
 12
1.0
 22
0.0
 32
0.0
 13
1.0
 23
0.0
 33
0.0
 40
0.0
 40
0.0
 40
0.0
 40
0.0
 40
0.2
 40
0.2
 40
0.2
 40
0.2
 40
0.4
 40
0.4
 40
0.4
 40
0.4
 40
0.6
 40
0.6
 40
0.6
 40
0.6
 40
1.0
 40
1.0
 40
1.0
 40
1.0
 10
137.0038
 20
71.0094
 30
0.0
 10
137.0038
 20
71.0094
 30
0.0
 10
143.7348
 20
77.7405
 30
0.0
 10
143.7348
 20
77.7405
 30
0.0
 10
143.7348
 20
77.7405
 30
0.0
 10
143.7348
 20
77.7405
 30
0.0
 10
137.0038
 20
84.4715
 30
0.0
 10
137.0038
 20
84.4715
 30
0.0
 10
137.0038
 20
84.4715
 30
0.0
 10
137.0038
 20
84.4715
 30
0.0
 10
130.2727
 20
77.7405
 30
0.0
 10
130.2727
 20
77.7405
 30
0.0
 10
130.2727
 20
77.7405
 30
0.0
 10
130.2727
 20
77.7405
 30
0.0
 10
137.0038
 20
71.0094
 30
0.0
 10
137.0038
 20
71.0094
 30
0.0
  0
SPLINE
  5
84
330
1F
100
AcDbEntity
  8
layer 1
 62
     7
100
AcDbSpline
210
0.0
220
0.0
230
1.0
 70
    11
 71
     3
 72
    20
 73
    16
 74
     0
 42
0.0000000001
 43
0.0000000001
 12
1.0
 22
0.0
 32
0.0
 13
1.0
 23
0.0
 33
0.0
 40
0.0
 40
0.0
 40
0.0
 40
0.0
 40
0.2
 40
0.2
 40
0.2
 40
0.2
 40
0.4
 40
0.4
 40
0.4
 40
0.4
 40
0.6
 40
0.6
 40
0.6
 40
0.6
 40
1.0
 40
1.0
 40
1.0
 40
1.0
 10
94.7632
 20
86.0187
 30
0.0
 10
94.7632
 20
86.0187
 30
0.0
 10
87.8179
 20
86.0187
 30
0.0
 10
87.8179
 20
86.0187
 30
0.0
 10
87.8179
 20
86.0187
 30
0.0
 10
87.8179
 20
86.0187
 30
0.0
 10
87.8179
 20
80.3963
 30
0.0
 10
87.8179
 20
80.3963
 30
0.0
 10
87.8179
 20
80.3963
 30
0.0
 10
87.8179
 20
80.3963
 30
0.0
 10
94.7632
 20
80.3963
 30
0.0
 10
94.7632
 20
80.3963
 30
0.0
 10
94.7632
 20
80.3963
 30
0.0
 10
94.7632
 20
80.3963
 30
0.0
 10
94.7632
 20
86.0187
 30
0.0
 10
94.7632
 20
86.0187
 30
0.0
  0
SPLINE
  5
85
330
1F
100
AcDbEntity
  8
layer 1
 62
     7
100
AcDbSpline
210
0.0
220
0.0
230
1.0
 70
    11
 71
     3
 72
    40
 73
    36
 74
     0
 42
0.0000000001
 43
0.0000000001
 12
1.0
 22
0.0
 32
0.0
 13
1.0
 23
0.0
 33
0.0
 40
0.0
 40
0.0
 40
0.0
 40
0.0
 40
0.1
 40
0.1
 40
0.1
 40
0.1
 40
0.2
 40
0.2
 40
0.2
 40
0.2
 40
0.3
 40
0.3
 40
0.3
 40
0.3
 40
0.4
 40
0.4
 40
0.4
 40
0.4
 40
0.5
 40
0.5
 40
0.5
 40
0.5
 40
0.6
 40
0.6
 40
0.6
 40
0.6
 40
0.7
 40
0.7
 40
0.7
 40
0.7
 40
0.8
 40
0.8
 40
0.8
 40
0.8
 40
1.0
 40
1.0
 40
1.0
 40
1.0
 10
94.6909
 20
93.0471
 30
0.0
 10
94.3456
 20
97.0798
 30
0.0
 10
96.338
 20
100.4117
 30
0.0
 10
99.8172
 20
101.4269
 30
0.0
 10
99.8172
 20
101.4269
 30
0.0
 10
100.6451
 20
101.6534
 30
0.0
 10
105.0696
 20
101.7895
 30
0.0
 10
111.6408
 20
101.7907
 30
0.0
 10
111.6408
 20
101.7907
 30
0.0
 10
111.6408
 20
101.7907
 30
0.0
 10
122.1414
 20
101.7925
 30
0.0
 10
122.1414
 20
101.7925
 30
0.0
 10
122.1414
 20
101.7925
 30
0.0
 10
122.1414
 20
101.7925
 30
0.0
 10
122.1414
 20
107.4149
 30
0.0
 10
122.1414
 20
107.4149
 30
0.0
 10
122.1414
 20
107.4149
 30
0.0
 10
122.1414
 20
107.4149
 30
0.0
 10
96.5007
 20
107.4149
 30
0.0
 10
96.5007
 20
107.4149
 30
0.0
 10
96.5007
 20
107.4149
 30
0.0
 10
96.5007
 20
107.4149
 30
0.0
 10
87.7042
 20
98.6003
 30
0.0
 10
87.7042
 20
98.6003
 30
0.0
 10
87.7042
 20
98.6003
 30
0.0
 10
87.7042
 20
98.6003
 30
0.0
 10
87.5802
 20
91.2089
 30
0.0
 10
87.5802
 20
91.2089
 30
0.0
 10
87.5802
 20
91.2089
 30
0.0
 10
87.5802
 20
91.2089
 30
0.0
 10
94.6909
 20
91.2092
 30
0.0
 10
94.6909
 20
91.2092
 30
0.0
 10
94.6909
 20
91.2092
 30
0.0
 10
94.6909
 20
91.2092
 30
0.0
 10
94.6909
 20
93.0471
 30
0.0
 10
94.6909
 20
93.0471
 30
0.0
  0
SPLINE
  5
86
330
1F
100
AcDbEntity
  8
layer 1
 62
     7
100
AcDbSpline
210
0.0
220
0.0
230
1.0
 70
    11
 71
     3
 72
    32
 73
    28
 74
     0
 42
0.0000000001
 43
0.0000000001
 12
1.0
 22
0.0
 32
0.0
 13
1.0
 23
0.0
 33
0.0
 40
0.0
 40
0.0
 40
0.0
 40
0.0
 40
0.125
 40
0.125
 40
0.125
 40
0.125
 40
0.25
 40
0.25
 40
0.25
 40
0.25
 40
0.375
 40
0.375
 40
0.375
 40
0.375
 40
0.5
 40
0.5
 40
0.5
 40
0.5
 40
0.625
 40
0.625
 40
0.625
 40
0.625
 40
0.75
 40
0.75
 40
0.75
 40
0.75
 40
1.0
 40
1.0
 40
1.0
 40
1.0
 10
122.1414
 20
93.4672
 30
0.0
 10
122.1414
 20
93.4672
 30
0.0
 10
122.1414
 20
96.5009
 30
0.0
 10
122.1414
 20
96.5009
 30
0.0
 10
122.1414
 20
96.5009
 30
0.0
 10
122.1414
 20
96.5009
 30
0.0
 10
102.3469
 20
96.5009
 30
0.0
 10
102.3469
 20
96.5009
 30
0.0
 10
102.3469
 20
96.5009
 30
0.0
 10
101.0148
 20
96.5009
 30
0.0
 10
99.9825
 20
96.0999
 30
0.0
 10
99.9825
 20
94.2285
 30
0.0
 10
99.9825
 20
94.2285
 30
0.0
 10
99.9825
 20
94.2285
 30
0.0
 10
99.9825
 20
91.2093
 30
0.0
 10
99.9825
 20
91.2093
 30
0.0
 10
99.9825
 20
91.2093
 30
0.0
 10
99.9825
 20
91.2093
 30
0.0
 10
119.9343
 20
91.2093
 30
0.0
 10
119.9343
 20
91.2093
 30
0.0
 10
119.9343
 20
91.2093
 30
0.0
 10
121.6927
 20
91.2607
 30
0.0
 10
122.1348
 20
92.4575
 30
0.0
 10
122.1413
 20
93.4673
 30
0.0
 10
122.1413
 20
93.4673
 30
0.0
 10
122.1413
 20
93.4673
 30
0.0
 10
122.1414
 20
93.4672
 30
0.0
 10
122.1414
 20
93.4672
 30
0.0
  0
SPLINE
  5
87
330
1F
100
AcDbEntity
  8
layer 1
 62
     7
100
AcDbSpline
210
0.0
220
0.0
230
1.0
 70
    11
 71
     3
 72
    20
 73
    16
 74
     0
 42
0.0000000001
 43
0.0000000001
 12
1.0
 22
0.0
 32
0.0
 13
1.0
 23
0.0
 33
0.0
 40
0.0
 40
0.0
 40
0.0
 40
0.0
 40
0.2
 40
0.2
 40
0.2
 40
0.2
 40
0.4
 40
0.4
 40
0.4
 40
0.4
 40
0.6
 40
0.6
 40
0.6
 40
0.6
 40
1.0
 40
1.0
 40
1.0
 40
1.0
 10
134.3784
 20
107.4149
 30
0.0
 10
132.0633
 20
107.4149
 30
0.0
 10
129.7482
 20
107.4149
 30
0.0
 10
127.4331
 20
107.4149
 30
0.0
 10
127.4331
 20
107.4149
 30
0.0
 10
127.4331
 20
105.5408
 30
0.0
 10
127.4331
 20
103.6666
 30
0.0
 10
127.4331
 20
101.7925
 30
0.0
 10
127.4331
 20
101.7925
 30
0.0
 10
129.7482
 20
101.7925
 30
0.0
 10
132.0633
 20
101.7925
 30
0.0
 10
134.3784
 20
101.7925
 30
0.0
 10
134.3784
 20
101.7925
 30
0.0
 10
134.3784
 20
103.6666
 30
0.0
 10
134.3784
 20
105.5408
 30
0.0
 10
134.3784
 20
107.4149
 30
0.0
  0
SPLINE
  5
88
330
1F
100
AcDbEntity
  8
layer 1
 62
     7
100
AcDbSpline
210
0.0
220
0.0
230
1.0
 70
    11
 71
     3
 72
    16
 73
    12
 74
     0
 42
0.0000000001
 43
0.0000000001
 12
1.0
 22
0.0
 32
0.0
 13
1.0
 23
0.0
 33
0.0
 40
0.0
 40
0.0
 40
0.0
 40
0.0
 40
0.25
 40
0.25
 40
0.25
 40
0.25
 40
0.5
 40
0.5
 40
0.5
 40
0.5
 40
1.0
 40
1.0
 40
1.0
 40
1.0
 10
91.7146
 20
109.8832
 30
0.0
 10
91.7146
 20
109.8832
 30
0.0
 10
85.0232
 20
116.3446
 30
0.0
 10
85.0232
 20
116.3446
 30
0.0
 10
85.0232
 20
116.3446
 30
0.0
 10
85.0232
 20
116.3446
 30
0.0
 10
85.0111
 20
103.4461
 30
0.0
 10
85.0111
 20
103.4461
 30
0.0
 10
85.0111
 20
103.4461
 30
0.0
 10
85.0111
 20
103.4461
 30
0.0
 10
91.7146
 20
109.8832
 30
0.0
 10
91.7146
 20
109.8832
 30
0.0
  0
SPLINE
  5
89
330
1F
100
AcDbEntity
  8
layer 1
 62
     7
100
AcDbSpline
210
0.0
220
0.0
230
1.0
 70
    11
 71
     3
 72
    20
 73
    16
 74
     0
 42
0.0000000001
 43
0.0000000001
 12
1.0
 22
0.0
 32
0.0
 13
1.0
 23
0.0
 33
0.0
 40
0.0
 40
0.0
 40
0.0
 40
0.0
 40
0.2
 40
0.2
 40
0.2
 40
0.2
 40
0.4
 40
0.4
 40
0.4
 40
0.4
 40
0.6
 40
0.6
 40
0.6
 40
0.6
 40
1.0
 40
1.0
 40
1.0
 40
1.0
 10
134.3784
 20
117.9982
 30
0.0
 10
134.3784
 20
117.9982
 30
0.0
 10
127.4331
 20
117.9982
 30
0.0
 10
127.4331
 20
117.9982
 30
0.0
 10
127.4331
 20
117.9982
 30
0.0
 10
127.4331
 20
117.9982
 30
0.0
 10
127.4331
 20
112.3758
 30
0.0
 10
127.4331
 20
112.3758
 30
0.0
 10
127.4331
 20
112.3758
 30
0.0
 10
127.4331
 20
112.3758
 30
0.0
 10
134.3784
 20
112.3758
 30
0.0
 10
134.3784
 20
112.3758
 30
0.0
 10
134.3784
 20
112.3758
 30
0.0
 10
134.3784
 20
112.3758
 30
0.0
 10
134.3784
 20
117.9982
 30
0.0
 10
134.3784
 20
117.9982
 30
0.0
  0
SPLINE
  5
8A
330
1F
100
AcDbEntity
  8
layer 1
 62
     7
100
AcDbSpline
210
0.0
220
0.0
230
1.0
 70
    11
 71
     3
 72
    36
 73
    32
 74
     0
 42
0.0000000001
 43
0.0000000001
 12
1.0
 22
0.0
 32
0.0
 13
1.0
 23
0.0
 33
0.0
 40
0.0
 40
0.0
 40
0.0
 40
0.0
 40
0.1111111111111111
 40
0.1111111111111111
 40
0.1111111111111111
 40
0.1111111111111111
 40
0.2222222222222222
 40
0.2222222222222222
 40
0.2222222222222222
 40
0.2222222222222222
 40
0.3333333333333333
 40
0.3333333333333333
 40
0.3333333333333333
 40
0.3333333333333333
 40
0.4444444444444444
 40
0.4444444444444444
 40
0.4444444444444444
 40
0.4444444444444444
 40
0.5555555555555556
 40
0.5555555555555556
 40
0.5555555555555556
 40
0.5555555555555556
 40
0.6666666666666666
 40
0.6666666666666666
 40
0.6666666666666666
 40
0.6666666666666666
 40
0.7777777777777778
 40
0.7777777777777778
 40
0.7777777777777778
 40
0.7777777777777778
 40
1.0
 40
1.0
 40
1.0
 40
1.0
 10
94.8153
 20
124.0643
 30
0.0
 10
95.3454
 20
121.2785
 30
0.0
 10
97.1416
 20
119.1278
 30
0.0
 10
99.8171
 20
118.3471
 30
0.0
 10
99.8171
 20
118.3471
 30
0.0
 10
100.645
 20
118.1206
 30
0.0
 10
105.0695
 20
117.9845
 30
0.0
 10
111.6407
 20
117.9833
 30
0.0
 10
111.6407
 20
117.9833
 30
0.0
 10
111.6407
 20
117.9833
 30
0.0
 10
122.1414
 20
117.9814
 30
0.0
 10
122.1414
 20
117.9814
 30
0.0
 10
122.1414
 20
117.9814
 30
0.0
 10
122.1414
 20
117.9814
 30
0.0
 10
122.1414
 20
112.359
 30
0.0
 10
122.1414
 20
112.359
 30
0.0
 10
122.1414
 20
112.359
 30
0.0
 10
122.1414
 20
112.359
 30
0.0
 10
96.5007
 20
112.359
 30
0.0
 10
96.5007
 20
112.359
 30
0.0
 10
96.5007
 20
112.359
 30
0.0
 10
96.5007
 20
112.359
 30
0.0
 10
87.7043
 20
121.1736
 30
0.0
 10
87.7043
 20
121.1736
 30
0.0
 10
87.7043
 20
121.1736
 30
0.0
 10
87.7043
 20
121.1736
 30
0.0
 10
87.6557
 20
124.0688
 30
0.0
 10
87.6557
 20
124.0688
 30
0.0
 10
87.6557
 20
124.0688
 30
0.0
 10
87.6557
 20
124.0688
 30
0.0
 10
94.8153
 20
124.0643
 30
0.0
 10
94.8153
 20
124.0643
 30
0.0
  0
SPLINE
  5
8B
330
1F
100
AcDbEntity
  8
layer 1
 62
     7
100
AcDbSpline
210
0.0
220
0.0
230
1.0
 70
    11
 71
     3
 72
    32
 73
    28
 74
     0
 42
0.0000000001
 43
0.0000000001
 12
1.0
 22
0.0
 32
0.0
 13
1.0
 23
0.0
 33
0.0
 40
0.0
 40
0.0
 40
0.0
 40
0.0
 40
0.125
 40
0.125
 40
0.125
 40
0.125
 40
0.25
 40
0.25
 40
0.25
 40
0.25
 40
0.375
 40
0.375
 40
0.375
 40
0.375
 40
0.5
 40
0.5
 40
0.5
 40
0.5
 40
0.625
 40
0.625
 40
0.625
 40
0.625
 40
0.75
 40
0.75
 40
0.75
 40
0.75
 40
1.0
 40
1.0
 40
1.0
 40
1.0
 10
151.9252
 20
93.447
 30
0.0
 10
151.9252
 20
93.447
 30
0.0
 10
151.9252
 20
96.4807
 30
0.0
 10
151.9252
 20
96.4807
 30
0.0
 10
151.9252
 20
96.4807
 30
0.0
 10
151.9252
 20
96.4807
 30
0.0
 10
171.7197
 20
96.4807
 30
0.0
 10
171.7197
 20
96.4807
 30
0.0
 10
171.7197
 20
96.4807
 30
0.0
 10
173.0518
 20
96.4807
 30
0.0
 10
174.0841
 20
96.0797
 30
0.0
 10
174.0841
 20
94.2083
 30
0.0
 10
174.0841
 20
94.2083
 30
0.0
 10
174.0841
 20
94.2083
 30
0.0
 10
174.0841
 20
91.1891
 30
0.0
 10
174.0841
 20
91.1891
 30
0.0
 10
174.0841
 20
91.1891
 30
0.0
 10
174.0841
 20
91.1891
 30
0.0
 10
154.1323
 20
91.1891
 30
0.0
 10
154.1323
 20
91.1891
 30
0.0
 10
154.1323
 20
91.1891
 30
0.0
 10
152.3739
 20
91.2405
 30
0.0
 10
151.9318
 20
92.4373
 30
0.0
 10
151.9253
 20
93.4471
 30
0.0
 10
151.9253
 20
93.4471
 30
0.0
 10
151.9253
 20
93.4471
 30
0.0
 10
151.9252
 20
93.447
 30
0.0
 10
151.9252
 20
93.447
 30
0.0
  0
SPLINE
  5
8C
330
1F
100
AcDbEntity
  8
layer 1
 62
     7
100
AcDbSpline
210
0.0
220
0.0
230
1.0
 70
    11
 71
     3
 72
    40
 73
    36
 74
     0
 42
0.0000000001
 43
0.0000000001
 12
1.0
 22
0.0
 32
0.0
 13
1.0
 23
0.0
 33
0.0
 40
0.0
 40
0.0
 40
0.0
 40
0.0
 40
0.1
 40
0.1
 40
0.1
 40
0.1
 40
0.2
 40
0.2
 40
0.2
 40
0.2
 40
0.3
 40
0.3
 40
0.3
 40
0.3
 40
0.4
 40
0.4
 40
0.4
 40
0.4
 40
0.5
 40
0.5
 40
0.5
 40
0.5
 40
0.6
 40
0.6
 40
0.6
 40
0.6
 40
0.7
 40
0.7
 40
0.7
 40
0.7
 40
0.8
 40
0.8
 40
0.8
 40
0.8
 40
1.0
 40
1.0
 40
1.0
 40
1.0
 10
127.456
 20
94.7971
 30
0.0
 10
127.5634
 20
90.378
 30
0.0
 10
125.6882
 20
87.4325
 30
0.0
 10
122.2089
 20
86.4173
 30
0.0
 10
122.2089
 20
86.4173
 30
0.0
 10
121.381
 20
86.1908
 30
0.0
 10
116.9565
 20
86.0547
 30
0.0
 10
110.3853
 20
86.0535
 30
0.0
 10
110.3853
 20
86.0535
 30
0.0
 10
110.3853
 20
86.0535
 30
0.0
 10
99.8846
 20
86.0516
 30
0.0
 10
99.8846
 20
86.0516
 30
0.0
 10
99.8846
 20
86.0516
 30
0.0
 10
99.8846
 20
86.0516
 30
0.0
 10
99.8846
 20
80.4292
 30
0.0
 10
99.8846
 20
80.4292
 30
0.0
 10
99.8846
 20
80.4292
 30
0.0
 10
99.8846
 20
80.4292
 30
0.0
 10
125.5253
 20
80.4292
 30
0.0
 10
125.5253
 20
80.4292
 30
0.0
 10
125.5253
 20
80.4292
 30
0.0
 10
125.5253
 20
80.4292
 30
0.0
 10
134.3217
 20
89.2438
 30
0.0
 10
134.3217
 20
89.2438
 30
0.0
 10
134.3217
 20
89.2438
 30
0.0
 10
134.3217
 20
89.2438
 30
0.0
 10
134.4458
 20
96.6352
 30
0.0
 10
134.4458
 20
96.6352
 30
0.0
 10
134.4458
 20
96.6352
 30
0.0
 10
134.4458
 20
96.6352
 30
0.0
 10
127.4559
 20
96.6349
 30
0.0
 10
127.4559
 20
96.6349
 30
0.0
 10
127.4559
 20
96.6349
 30
0.0
 10
127.4559
 20
96.6349
 30
0.0
 10
127.456
 20
94.7971
 30
0.0
 10
127.456
 20
94.7971
 30
0.0
  0
SPLINE
  5
8D
330
1F
100
AcDbEntity
  8
layer 1
 62
     7
100
AcDbSpline
210
0.0
220
0.0
230
1.0
 70
    11
 71
     3
 72
    20
 73
    16
 74
     0
 42
0.0000000001
 43
0.0000000001
 12
1.0
 22
0.0
 32
0.0
 13
1.0
 23
0.0
 33
0.0
 40
0.0
 40
0.0
 40
0.0
 40
0.0
 40
0.2
 40
0.2
 40
0.2
 40
0.2
 40
0.4
 40
0.4
 40
0.4
 40
0.4
 40
0.6
 40
0.6
 40
0.6
 40
0.6
 40
1.0
 40
1.0
 40
1.0
 40
1.0
 10
127.4056
 20
53.7791
 30
0.0
 10
127.4056
 20
53.7791
 30
0.0
 10
134.3509
 20
53.7791
 30
0.0
 10
134.3509
 20
53.7791
 30
0.0
 10
134.3509
 20
53.7791
 30
0.0
 10
134.3509
 20
53.7791
 30
0.0
 10
134.3509
 20
48.1567
 30
0.0
 10
134.3509
 20
48.1567
 30
0.0
 10
134.3509
 20
48.1567
 30
0.0
 10
134.3509
 20
48.1567
 30
0.0
 10
127.4056
 20
48.1567
 30
0.0
 10
127.4056
 20
48.1567
 30
0.0
 10
127.4056
 20
48.1567
 30
0.0
 10
127.4056
 20
48.1567
 30
0.0
 10
127.4056
 20
53.7791
 30
0.0
 10
127.4056
 20
53.7791
 30
0.0
  0
SPLINE
  5
8E
330
1F
100
AcDbEntity
  8
layer 1
 62
     7
100
AcDbSpline
210
0.0
220
0.0
230
1.0
 70
    11
 71
     3
 72
    20
 73
    16
 74
     0
 42
0.0000000001
 43
0.0000000001
 12
1.0
 22
0.0
 32
0.0
 13
1.0
 23
0.0
 33
0.0
 40
0.0
 40
0.0
 40
0.0
 40
0.0
 40
0.2
 40
0.2
 40
0.2
 40
0.2
 40
0.4
 40
0.4
 40
0.4
 40
0.4
 40
0.6
 40
0.6
 40
0.6
 40
0.6
 40
1.0
 40
1.0
 40
1.0
 40
1.0
 10
179.228
 20
69.6306
 30
0.0
 10
179.228
 20
69.6306
 30
0.0
 10
186.1733
 20
69.6306
 30
0.0
 10
186.1733
 20
69.6306
 30
0.0
 10
186.1733
 20
69.6306
 30
0.0
 10
186.1733
 20
69.6306
 30
0.0
 10
186.1733
 20
75.2529
 30
0.0
 10
186.1733
 20
75.2529
 30
0.0
 10
186.1733
 20
75.2529
 30
0.0
 10
186.1733
 20
75.2529
 30
0.0
 10
179.228
 20
75.2529
 30
0.0
 10
179.228
 20
75.2529
 30
0.0
 10
179.228
 20
75.2529
 30
0.0
 10
179.228
 20
75.2529
 30
0.0
 10
179.228
 20
69.6306
 30
0.0
 10
179.228
 20
69.6306
 30
0.0
  0
SPLINE
  5
8F
330
1F
100
AcDbEntity
  8
layer 1
 62
     7
100
AcDbSpline
210
0.0
220
0.0
230
1.0
 70
    11
 71
     3
 72
    32
 73
    28
 74
     0
 42
0.0000000001
 43
0.0000000001
 12
1.0
 22
0.0
 32
0.0
 13
1.0
 23
0.0
 33
0.0
 40
0.0
 40
0.0
 40
0.0
 40
0.0
 40
0.125
 40
0.125
 40
0.125
 40
0.125
 40
0.25
 40
0.25
 40
0.25
 40
0.25
 40
0.375
 40
0.375
 40
0.375
 40
0.375
 40
0.5
 40
0.5
 40
0.5
 40
0.5
 40
0.625
 40
0.625
 40
0.625
 40
0.625
 40
0.75
 40
0.75
 40
0.75
 40
0.75
 40
1.0
 40
1.0
 40
1.0
 40
1.0
 10
151.8499
 20
62.1821
 30
0.0
 10
151.8499
 20
62.1821
 30
0.0
 10
151.8499
 20
59.1484
 30
0.0
 10
151.8499
 20
59.1484
 30
0.0
 10
151.8499
 20
59.1484
 30
0.0
 10
151.8499
 20
59.1484
 30
0.0
 10
171.6444
 20
59.1484
 30
0.0
 10
171.6444
 20
59.1484
 30
0.0
 10
171.6444
 20
59.1484
 30
0.0
 10
172.9765
 20
59.1484
 30
0.0
 10
174.0088
 20
59.5494
 30
0.0
 10
174.0088
 20
61.4208
 30
0.0
 10
174.0088
 20
61.4208
 30
0.0
 10
174.0088
 20
61.4208
 30
0.0
 10
174.0088
 20
64.44
 30
0.0
 10
174.0088
 20
64.44
 30
0.0
 10
174.0088
 20
64.44
 30
0.0
 10
174.0088
 20
64.44
 30
0.0
 10
154.057
 20
64.44
 30
0.0
 10
154.057
 20
64.44
 30
0.0
 10
154.057
 20
64.44
 30
0.0
 10
152.2986
 20
64.3886
 30
0.0
 10
151.8565
 20
63.1918
 30
0.0
 10
151.85
 20
62.182
 30
0.0
 10
151.85
 20
62.182
 30
0.0
 10
151.85
 20
62.182
 30
0.0
 10
151.8499
 20
62.1821
 30
0.0
 10
151.8499
 20
62.1821
 30
0.0
  0
SPLINE
  5
90
330
1F
100
AcDbEntity
  8
layer 1
 62
     7
100
AcDbSpline
210
0.0
220
0.0
230
1.0
 70
    11
 71
     3
 72
    40
 73
    36
 74
     0
 42
0.0000000001
 43
0.0000000001
 12
1.0
 22
0.0
 32
0.0
 13
1.0
 23
0.0
 33
0.0
 40
0.0
 40
0.0
 40
0.0
 40
0.0
 40
0.1
 40
0.1
 40
0.1
 40
0.1
 40
0.2
 40
0.2
 40
0.2
 40
0.2
 40
0.3
 40
0.3
 40
0.3
 40
0.3
 40
0.4
 40
0.4
 40
0.4
 40
0.4
 40
0.5
 40
0.5
 40
0.5
 40
0.5
 40
0.6
 40
0.6
 40
0.6
 40
0.6
 40
0.7
 40
0.7
 40
0.7
 40
0.7
 40
0.8
 40
0.8
 40
0.8
 40
0.8
 40
1.0
 40
1.0
 40
1.0
 40
1.0
 10
179.2784
 20
62.5575
 30
0.0
 10
179.3858
 20
58.1384
 30
0.0
 10
177.5106
 20
55.1929
 30
0.0
 10
174.0313
 20
54.1777
 30
0.0
 10
174.0313
 20
54.1777
 30
0.0
 10
173.2034
 20
53.9512
 30
0.0
 10
168.7789
 20
53.8151
 30
0.0
 10
162.2077
 20
53.8139
 30
0.0
 10
162.2077
 20
53.8139
 30
0.0
 10
162.2077
 20
53.8139
 30
0.0
 10
151.707
 20
53.812
 30
0.0
 10
151.707
 20
53.812
 30
0.0
 10
151.707
 20
53.812
 30
0.0
 10
151.707
 20
53.812
 30
0.0
 10
151.707
 20
48.1896
 30
0.0
 10
151.707
 20
48.1896
 30
0.0
 10
151.707
 20
48.1896
 30
0.0
 10
151.707
 20
48.1896
 30
0.0
 10
177.3477
 20
48.1896
 30
0.0
 10
177.3477
 20
48.1896
 30
0.0
 10
177.3477
 20
48.1896
 30
0.0
 10
177.3477
 20
48.1896
 30
0.0
 10
186.2657
 20
57.0042
 30
0.0
 10
186.2657
 20
57.0042
 30
0.0
 10
186.2657
 20
57.0042
 30
0.0
 10
186.2657
 20
57.0042
 30
0.0
 10
186.2683
 20
64.3956
 30
0.0
 10
186.2683
 20
64.3956
 30
0.0
 10
186.2683
 20
64.3956
 30
0.0
 10
186.2683
 20
64.3956
 30
0.0
 10
179.2784
 20
64.3953
 30
0.0
 10
179.2784
 20
64.3953
 30
0.0
 10
179.2784
 20
64.3953
 30
0.0
 10
179.2784
 20
64.3953
 30
0.0
 10
179.2784
 20
62.5575
 30
0.0
 10
179.2784
 20
62.5575
 30
0.0
  0
SPLINE
  5
91
330
1F
100
AcDbEntity
  8
layer 1
 62
     7
100
AcDbSpline
210
0.0
220
0.0
230
1.0
 70
    11
 71
     3
 72
    36
 73
    32
 74
     0
 42
0.0000000001
 43
0.0000000001
 12
1.0
 22
0.0
 32
0.0
 13
1.0
 23
0.0
 33
0.0
 40
0.0
 40
0.0
 40
0.0
 40
0.0
 40
0.1111111111111111
 40
0.1111111111111111
 40
0.1111111111111111
 40
0.1111111111111111
 40
0.2222222222222222
 40
0.2222222222222222
 40
0.2222222222222222
 40
0.2222222222222222
 40
0.3333333333333333
 40
0.3333333333333333
 40
0.3333333333333333
 40
0.3333333333333333
 40
0.4444444444444444
 40
0.4444444444444444
 40
0.4444444444444444
 40
0.4444444444444444
 40
0.5555555555555556
 40
0.5555555555555556
 40
0.5555555555555556
 40
0.5555555555555556
 40
0.6666666666666666
 40
0.6666666666666666
 40
0.6666666666666666
 40
0.6666666666666666
 40
0.7777777777777778
 40
0.7777777777777778
 40
0.7777777777777778
 40
0.7777777777777778
 40
1.0
 40
1.0
 40
1.0
 40
1.0
 10
139.6129
 20
51.0257
 30
0.0
 10
139.6129
 20
51.0257
 30
0.0
 10
139.6129
 20
53.8369
 30
0.0
 10
139.6129
 20
53.8369
 30
0.0
 10
139.6129
 20
53.8369
 30
0.0
 10
139.6129
 20
53.8369
 30
0.0
 10
143.0856
 20
53.8369
 30
0.0
 10
143.0856
 20
53.8369
 30
0.0
 10
143.0856
 20
53.8369
 30
0.0
 10
143.0856
 20
53.8369
 30
0.0
 10
146.5583
 20
53.8369
 30
0.0
 10
146.5583
 20
53.8369
 30
0.0
 10
146.5583
 20
53.8369
 30
0.0
 10
146.5583
 20
53.8369
 30
0.0
 10
146.5583
 20
51.0257
 30
0.0
 10
146.5583
 20
51.0257
 30
0.0
 10
146.5583
 20
51.0257
 30
0.0
 10
146.5583
 20
51.0257
 30
0.0
 10
146.5583
 20
48.2145
 30
0.0
 10
146.5583
 20
48.2145
 30
0.0
 10
146.5583
 20
48.2145
 30
0.0
 10
146.5583
 20
48.2145
 30
0.0
 10
143.0856
 20
48.2145
 30
0.0
 10
143.0856
 20
48.2145
 30
0.0
 10
143.0856
 20
48.2145
 30
0.0
 10
143.0856
 20
48.2145
 30
0.0
 10
139.6129
 20
48.2145
 30
0.0
 10
139.6129
 20
48.2145
 30
0.0
 10
139.6129
 20
48.2145
 30
0.0
 10
139.6129
 20
48.2145
 30
0.0
 10
139.6129
 20
51.0257
 30
0.0
 10
139.6129
 20
51.0257
 30
0.0
  0
SPLINE
  5
92
330
1F
100
AcDbEntity
  8
layer 1
 62
     7
100
AcDbSpline
210
0.0
220
0.0
230
1.0
 70
    11
 71
     3
 72
    40
 73
    36
 74
     0
 42
0.0000000001
 43
0.0000000001
 12
1.0
 22
0.0
 32
0.0
 13
1.0
 23
0.0
 33
0.0
 40
0.0
 40
0.0
 40
0.0
 40
0.0
 40
0.1
 40
0.1
 40
0.1
 40
0.1
 40
0.2
 40
0.2
 40
0.2
 40
0.2
 40
0.3
 40
0.3
 40
0.3
 40
0.3
 40
0.4
 40
0.4
 40
0.4
 40
0.4
 40
0.5
 40
0.5
 40
0.5
 40
0.5
 40
0.6
 40
0.6
 40
0.6
 40
0.6
 40
0.7
 40
0.7
 40
0.7
 40
0.7
 40
0.8
 40
0.8
 40
0.8
 40
0.8
 40
1.0
 40
1.0
 40
1.0
 40
1.0
 10
146.5353
 20
60.8522
 30
0.0
 10
146.4279
 20
65.2713
 30
0.0
 10
148.3031
 20
68.2168
 30
0.0
 10
151.7824
 20
69.232
 30
0.0
 10
151.7824
 20
69.232
 30
0.0
 10
152.6103
 20
69.4585
 30
0.0
 10
157.0348
 20
69.5946
 30
0.0
 10
163.606
 20
69.5958
 30
0.0
 10
163.606
 20
69.5958
 30
0.0
 10
163.606
 20
69.5958
 30
0.0
 10
174.1067
 20
69.5977
 30
0.0
 10
174.1067
 20
69.5977
 30
0.0
 10
174.1067
 20
69.5977
 30
0.0
 10
174.1067
 20
69.5977
 30
0.0
 10
174.1067
 20
75.22
 30
0.0
 10
174.1067
 20
75.22
 30
0.0
 10
174.1067
 20
75.22
 30
0.0
 10
174.1067
 20
75.22
 30
0.0
 10
148.466
 20
75.22
 30
0.0
 10
148.466
 20
75.22
 30
0.0
 10
148.466
 20
75.22
 30
0.0
 10
148.466
 20
75.22
 30
0.0
 10
139.6696
 20
66.4055
 30
0.0
 10
139.6696
 20
66.4055
 30
0.0
 10
139.6696
 20
66.4055
 30
0.0
 10
139.6696
 20
66.4055
 30
0.0
 10
139.6898
 20
59.0141
 30
0.0
 10
139.6898
 20
59.0141
 30
0.0
 10
139.6898
 20
59.0141
 30
0.0
 10
139.6898
 20
59.0141
 30
0.0
 10
146.6011
 20
59.0144
 30
0.0
 10
146.6011
 20
59.0144
 30
0.0
 10
146.6011
 20
59.0144
 30
0.0
 10
146.6011
 20
59.0144
 30
0.0
 10
146.5353
 20
60.8522
 30
0.0
 10
146.5353
 20
60.8522
 30
0.0
  0
SPLINE
  5
93
330
1F
100
AcDbEntity
  8
layer 1
 62
     7
100
AcDbSpline
210
0.0
220
0.0
230
1.0
 70
    11
 71
     3
 72
    20
 73
    16
 74
     0
 42
0.0000000001
 43
0.0000000001
 12
1.0
 22
0.0
 32
0.0
 13
1.0
 23
0.0
 33
0.0
 40
0.0
 40
0.0
 40
0.0
 40
0.0
 40
0.2
 40
0.2
 40
0.2
 40
0.2
 40
0.4
 40
0.4
 40
0.4
 40
0.4
 40
0.6
 40
0.6
 40
0.6
 40
0.6
 40
1.0
 40
1.0
 40
1.0
 40
1.0
 10
146.5857
 20
53.7791
 30
0.0
 10
146.5857
 20
53.7791
 30
0.0
 10
139.6404
 20
53.7791
 30
0.0
 10
139.6404
 20
53.7791
 30
0.0
 10
139.6404
 20
53.7791
 30
0.0
 10
139.6404
 20
53.7791
 30
0.0
 10
139.6404
 20
48.1567
 30
0.0
 10
139.6404
 20
48.1567
 30
0.0
 10
139.6404
 20
48.1567
 30
0.0
 10
139.6404
 20
48.1567
 30
0.0
 10
146.5857
 20
48.1567
 30
0.0
 10
146.5857
 20
48.1567
 30
0.0
 10
146.5857
 20
48.1567
 30
0.0
 10
146.5857
 20
48.1567
 30
0.0
 10
146.5857
 20
53.7791
 30
0.0
 10
146.5857
 20
53.7791
 30
0.0
  0
SPLINE
  5
94
330
1F
100
AcDbEntity
  8
layer 1
 62
     7
100
AcDbSpline
210
0.0
220
0.0
230
1.0
 70
    11
 71
     3
 72
    20
 73
    16
 74
     0
 42
0.0000000001
 43
0.0000000001
 12
1.0
 22
0.0
 32
0.0
 13
1.0
 23
0.0
 33
0.0
 40
0.0
 40
0.0
 40
0.0
 40
0.0
 40
0.2
 40
0.2
 40
0.2
 40
0.2
 40
0.4
 40
0.4
 40
0.4
 40
0.4
 40
0.6
 40
0.6
 40
0.6
 40
0.6
 40
1.0
 40
1.0
 40
1.0
 40
1.0
 10
139.6592
 20
-21.2363
 30
0.0
 10
141.9743
 20
-21.2363
 30
0.0
 10
144.2894
 20
-21.2363
 30
0.0
 10
146.6045
 20
-21.2363
 30
0.0
 10
146.6045
 20
-21.2363
 30
0.0
 10
146.6045
 20
-23.1104
 30
0.0
 10
146.6045
 20
-24.9846
 30
0.0
 10
146.6045
 20
-26.8587
 30
0.0
 10
146.6045
 20
-26.8587
 30
0.0
 10
144.2894
 20
-26.8587
 30
0.0
 10
141.9743
 20
-26.8587
 30
0.0
 10
139.6592
 20
-26.8587
 30
0.0
 10
139.6592
 20
-26.8587
 30
0.0
 10
139.6592
 20
-24.9846
 30
0.0
 10
139.6592
 20
-23.1104
 30
0.0
 10
139.6592
 20
-21.2363
 30
0.0
  0
SPLINE
  5
95
330
1F
100
AcDbEntity
  8
layer 1
 62
     7
100
AcDbSpline
210
0.0
220
0.0
230
1.0
 70
    11
 71
     3
 72
    20
 73
    16
 74
     0
 42
0.0000000001
 43
0.0000000001
 12
1.0
 22
0.0
 32
0.0
 13
1.0
 23
0.0
 33
0.0
 40
0.0
 40
0.0
 40
0.0
 40
0.0
 40
0.2
 40
0.2
 40
0.2
 40
0.2
 40
0.4
 40
0.4
 40
0.4
 40
0.4
 40
0.6
 40
0.6
 40
0.6
 40
0.6
 40
1.0
 40
1.0
 40
1.0
 40
1.0
 10
134.3494
 20
-21.2161
 30
0.0
 10
132.0343
 20
-21.2161
 30
0.0
 10
129.7192
 20
-21.2161
 30
0.0
 10
127.4041
 20
-21.2161
 30
0.0
 10
127.4041
 20
-21.2161
 30
0.0
 10
127.4041
 20
-23.0902
 30
0.0
 10
127.4041
 20
-24.9644
 30
0.0
 10
127.4041
 20
-26.8385
 30
0.0
 10
127.4041
 20
-26.8385
 30
0.0
 10
129.7192
 20
-26.8385
 30
0.0
 10
132.0343
 20
-26.8385
 30
0.0
 10
134.3494
 20
-26.8385
 30
0.0
 10
134.3494
 20
-26.8385
 30
0.0
 10
134.3494
 20
-24.9644
 30
0.0
 10
134.3494
 20
-23.0902
 30
0.0
 10
134.3494
 20
-21.2161
 30
0.0
  0
ENDSEC
  0
SECTION
  2
OBJECTS
  0
DICTIONARY
  5
C
330
0
100
AcDbDictionary
281
     1
  3
ACAD_GROUP
350
D
  3
ACAD_LAYOUT
350
1A
  3
ACAD_MATERIAL
350
3B
  3
ACAD_MLEADERSTYLE
350
B8
  3
ACAD_MLINESTYLE
350
17
  3
ACAD_PLOTSETTINGS
350
19
  3
ACAD_PLOTSTYLENAME
350
E
  3
ACAD_TABLESTYLE
350
B7
  3
ACAD_VISUALSTYLE
350
2A
  0
DICTIONARY
  5
D
102
{ACAD_REACTORS
330
C
102
}
330
C
100
AcDbDictionary
281
     1
  0
DICTIONARY
  5
1A
102
{ACAD_REACTORS
330
C
102
}
330
C
100
AcDbDictionary
281
     1
  3
Layout1
350
1E
  3
Layout2
350
26
  3
Model
350
22
  0
DICTIONARY
  5
3B
102
{ACAD_REACTORS
330
C
102
}
330
C
100
AcDbDictionary
281
     1
  3
ByBlock
350
3D
  3
ByLayer
350
3C
  3
Global
350
3E
  0
DICTIONARY
  5
B8
102
{ACAD_REACTORS
330
C
102
}
330
C
100
AcDbDictionary
281
     1
  0
DICTIONARY
  5
17
102
{ACAD_REACTORS
330
C
102
}
330
C
100
AcDbDictionary
281
     1
  3
Standard
350
18
  0
DICTIONARY
  5
19
102
{ACAD_REACTORS
330
C
102
}
330
C
100
AcDbDictionary
281
     1
  0
ACDBDICTIONARYWDFLT
  5
E
102
{ACAD_REACTORS
330
C
102
}
330
C
100
AcDbDictionary
281
     1
  3
Normal
350
F
100
AcDbDictionaryWithDefault
340
F
  0
DICTIONARY
  5
B7
102
{ACAD_REACTORS
330
C
102
}
330
C
100
AcDbDictionary
281
     1
  0
DICTIONARY
  5
2A
102
{ACAD_REACTORS
330
C
102
}
330
C
100
AcDbDictionary
281
     1
  3
2dWireframe
350
2F
  3
3D Hidden
350
31
  3
3dWireframe
350
30
  3
Basic
350
32
  3
Brighten
350
36
  3
ColorChange
350
3A
  3
Conceptual
350
34
  3
Dim
350
35
  3
Facepattern
350
39
  3
Flat
350
2B
  3
FlatWithEdges
350
2C
  3
Gouraud
350
2D
  3
GouraudWithEdges
350
2E
  3
Linepattern
350
38
  3
Realistic
350
33
  3
Thicken
350
37
  0
LAYOUT
  5
1E
102
{ACAD_REACTORS
330
1A
102
}
330
1A
100
AcDbPlotSettings
  1

  2
none_device
  4

  6

 40
0.0
 41
0.0
 42
0.0
 43
0.0
 44
0.0
 45
0.0
 46
0.0
 47
0.0
 48
0.0
 49
0.0
140
0.0
141
0.0
142
1.0
143
1.0
 70
   688
 72
     0
 73
     0
 74
     5
  7

 75
    16
 76
     0
 77
     2
 78
   300
147
1.0
148
0.0
149
0.0
100
AcDbLayout
  1
Layout1
 70
     1
 71
     1
 10
0.0
 20
0.0
 11
12.0
 21
9.0
 12
0.0
 22
0.0
 32
0.0
 14
1.000000000000000E+20
 24
1.000000000000000E+20
 34
1.000000000000000E+20
 15
-1.000000000000000E+20
 25
-1.000000000000000E+20
 35
-1.000000000000000E+20
146
0.0
 13
0.0
 23
0.0
 33
0.0
 16
1.0
 26
0.0
 36
0.0
 17
0.0
 27
1.0
 37
0.0
 76
     0
330
1B
  0
LAYOUT
  5
26
102
{ACAD_REACTORS
330
1A
102
}
330
1A
100
AcDbPlotSettings
  1

  2
none_device
  4

  6

 40
0.0
 41
0.0
 42
0.0
 43
0.0
 44
0.0
 45
0.0
 46
0.0
 47
0.0
 48
0.0
 49
0.0
140
0.0
141
0.0
142
1.0
143
1.0
 70
   688
 72
     0
 73
     0
 74
     5
  7

 75
    16
 76
     0
 77
     2
 78
   300
147
1.0
148
0.0
149
0.0
100
AcDbLayout
  1
Layout2
 70
     1
 71
     2
 10
0.0
 20
0.0
 11
0.0
 21
0.0
 12
0.0
 22
0.0
 32
0.0
 14
0.0
 24
0.0
 34
0.0
 15
0.0
 25
0.0
 35
0.0
146
0.0
 13
0.0
 23
0.0
 33
0.0
 16
1.0
 26
0.0
 36
0.0
 17
0.0
 27
1.0
 37
0.0
 76
     0
330
23
  0
LAYOUT
  5
22
102
{ACAD_REACTORS
330
1A
102
}
330
1A
100
AcDbPlotSettings
  1

  2
none_device
  4

  6

 40
0.0
 41
0.0
 42
0.0
 43
0.0
 44
0.0
 45
0.0
 46
0.0
 47
0.0
 48
0.0
 49
0.0
140
0.0
141
0.0
142
1.0
143
1.0
 70
  1712
 72
     0
 73
     0
 74
     0
  7

 75
     0
 76
     0
 77
     2
 78
   300
147
1.0
148
0.0
149
0.0
100
AcDbLayout
  1
Model
 70
     1
 71
     0
 10
0.0
 20
0.0
 11
12.0
 21
9.0
 12
0.0
 22
0.0
 32
0.0
 14
77.5386
 24
-106.2417
 34
0.0
 15
196.5744
 25
131.83
 35
0.0
146
0.0
 13
0.0
 23
0.0
 33
0.0
 16
1.0
 26
0.0
 36
0.0
 17
0.0
 27
1.0
 37
0.0
 76
     0
330
1F
331
29
  0
MATERIAL
  5
3D
102
{ACAD_REACTORS
330
3B
102
}
330
3B
100
AcDbMaterial
  1
ByBlock
 72
     1
 94
      127
  0
MATERIAL
  5
3C
102
{ACAD_REACTORS
330
3B
102
}
330
3B
100
AcDbMaterial
  1
ByLayer
 72
     1
 94
      127
  0
MATERIAL
  5
3E
102
{ACAD_REACTORS
330
3B
102
}
330
3B
100
AcDbMaterial
  1
Global
 72
     1
 94
      127
  0
MLINESTYLE
  5
18
102
{ACAD_REACTORS
330
17
102
}
330
17
100
AcDbMlineStyle
  2
Standard
 70
     0
  3

 62
   256
 51
90.0
 52
90.0
 71
     2
 49
0.5
 62
   256
  6
BYLAYER
 49
-0.5
 62
   256
  6
BYLAYER
  0
ACDBPLACEHOLDER
  5
F
102
{ACAD_REACTORS
330
E
102
}
330
E
  0
VISUALSTYLE
  5
2F
102
{ACAD_REACTORS
330
2A
102
}
102
{ACAD_XDICTIONARY
360
9F
102
}
330
2A
100
AcDbVisualStyle
  2
2dWireframe
 70
     4
 71
     0
 72
     2
 73
     0
 90
        0
 40
-0.6
 41
-30.0
 62
     5
 63
     7
421
 16777215
 74
     1
 91
        4
 64
     7
 65
   257
 75
     1
175
     1
 42
1.0
 92
        0
 66
   257
 43
1.0
 76
     1
 77
     6
 78
     2
 67
     7
 79
     5
170
     0
171
     0
290
     0
174
     0
 93
        1
 44
0.0
173
     0
291
     0
 45
0.0
  0
VISUALSTYLE
  5
31
102
{ACAD_REACTORS
330
2A
102
}
102
{ACAD_XDICTIONARY
360
A3
102
}
330
2A
100
AcDbVisualStyle
  2
3D Hidden
 70
     6
 71
     1
 72
     2
 73
     2
 90
        0
 40
-0.6
 41
-30.0
 62
     5
 63
     7
421
 16777215
 74
     2
 91
        2
 64
     7
 65
   257
 75
     2
175
     1
 42
40.0
 92
        0
 66
   257
 43
1.0
 76
     1
 77
     6
 78
     2
 67
     7
 79
     3
170
     0
171
     0
290
     0
174
     0
 93
        1
 44
0.0
173
     0
291
     0
 45
0.0
  0
VISUALSTYLE
  5
30
102
{ACAD_REACTORS
330
2A
102
}
102
{ACAD_XDICTIONARY
360
A1
102
}
330
2A
100
AcDbVisualStyle
  2
3dWireframe
 70
     5
 71
     0
 72
     2
 73
     0
 90
        0
 40
-0.6
 41
-30.0
 62
     5
 63
     7
421
 16777215
 74
     1
 91
        4
 64
     7
 65
   257
 75
     1
175
     1
 42
1.0
 92
        0
 66
   257
 43
1.0
 76
     1
 77
     6
 78
     2
 67
     7
 79
     5
170
     0
171
     0
290
     0
174
     0
 93
        1
 44
0.0
173
     0
291
     0
 45
0.0
  0
VISUALSTYLE
  5
32
102
{ACAD_REACTORS
330
2A
102
}
102
{ACAD_XDICTIONARY
360
A5
102
}
330
2A
100
AcDbVisualStyle
  2
Basic
 70
     7
 71
     1
 72
     0
 73
     1
 90
        0
 40
-0.6
 41
-30.0
 62
     5
 63
     7
421
 16777215
 74
     0
 91
        4
 64
     7
 65
   257
 75
     1
175
     1
 42
1.0
 92
        8
 66
     7
 43
1.0
 76
     1
 77
     6
 78
     2
 67
     7
 79
     5
170
     0
171
     0
290
     0
174
     0
 93
        1
 44
0.0
173
     0
291
     1
 45
0.0
  0
VISUALSTYLE
  5
36
102
{ACAD_REACTORS
330
2A
102
}
102
{ACAD_XDICTIONARY
360
AD
102
}
330
2A
100
AcDbVisualStyle
  2
Brighten
 70
    12
 71
     2
 72
     2
 73
     0
 90
        0
 40
-0.6
 41
-30.0
 62
     5
 63
     7
421
 16777215
 74
     1
 91
        4
 64
     7
 65
   257
 75
     1
175
     1
 42
1.0
 92
        8
 66
     7
 43
1.0
 76
     1
 77
     6
 78
     2
 67
     7
 79
     5
170
     0
171
     0
290
     0
174
     0
 93
        1
 44
50.0
173
     0
291
     1
 45
0.0
  0
VISUALSTYLE
  5
3A
102
{ACAD_REACTORS
330
2A
102
}
102
{ACAD_XDICTIONARY
360
B5
102
}
330
2A
100
AcDbVisualStyle
  2
ColorChange
 70
    16
 71
     2
 72
     2
 73
     3
 90
        0
 40
-0.6
 41
-30.0
 62
     5
 63
     8
421
  8421504
 74
     1
 91
        4
 64
     7
 65
   257
 75
     1
175
     1
 42
1.0
 92
        8
 66
     8
424
  8421504
 43
1.0
 76
     1
 77
     6
 78
     2
 67
     7
 79
     5
170
     0
171
     0
290
     0
174
     0
 93
        1
 44
0.0
173
     0
291
     1
 45
0.0
  0
VISUALSTYLE
  5
34
102
{ACAD_REACTORS
330
2A
102
}
102
{ACAD_XDICTIONARY
360
A9
102
}
330
2A
100
AcDbVisualStyle
  2
Conceptual
 70
     9
 71
     3
 72
     2
 73
     0
 90
        0
 40
-0.6
 41
-30.0
 62
     5
 63
     7
421
 16777215
 74
     2
 91
        2
 64
     7
 65
   257
 75
     1
175
     1
 42
40.0
 92
        8
 66
     7
 43
1.0
 76
     1
 77
     6
 78
     2
 67
     7
 79
     3
170
     0
171
     0
290
     0
174
     0
 93
        1
 44
0.0
173
     0
291
     0
 45
0.0
  0
VISUALSTYLE
  5
35
102
{ACAD_REACTORS
330
2A
102
}
102
{ACAD_XDICTIONARY
360
AB
102
}
330
2A
100
AcDbVisualStyle
  2
Dim
 70
    11
 71
     2
 72
     2
 73
     0
 90
        0
 40
-0.6
 41
-30.0
 62
     5
 63
     7
421
 16777215
 74
     1
 91
        4
 64
     7
 65
   257
 75
     1
175
     1
 42
1.0
 92
        8
 66
     7
 43
1.0
 76
     1
 77
     6
 78
     2
 67
     7
 79
     5
170
     0
171
     0
290
     0
174
     0
 93
        1
 44
-50.0
173
     0
291
     1
 45
0.0
  0
VISUALSTYLE
  5
39
102
{ACAD_REACTORS
330
2A
102
}
102
{ACAD_XDICTIONARY
360
B3
102
}
330
2A
100
AcDbVisualStyle
  2
Facepattern
 70
    15
 71
     2
 72
     2
 73
     0
 90
        0
 40
-0.6
 41
-30.0
 62
     5
 63
     7
421
 16777215
 74
     1
 91
        4
 64
     7
 65
   257
 75
     1
175
     1
 42
1.0
 92
        8
 66
     7
 43
1.0
 76
     1
 77
     6
 78
     2
 67
     7
 79
     5
170
     0
171
     0
290
     0
174
     0
 93
        1
 44
0.0
173
     0
291
     1
 45
0.0
  0
VISUALSTYLE
  5
2B
102
{ACAD_REACTORS
330
2A
102
}
102
{ACAD_XDICTIONARY
360
97
102
}
330
2A
100
AcDbVisualStyle
  2
Flat
 70
     0
 71
     2
 72
     1
 73
     1
 90
        2
 40
-0.6
 41
30.0
 62
     5
 63
     7
421
 16777215
 74
     0
 91
        4
 64
     7
 65
   257
 75
     1
175
     1
 42
1.0
 92
        8
 66
     7
 43
1.0
 76
     1
 77
     6
 78
     2
 67
     7
 79
     5
170
     0
171
     0
290
     0
174
     0
 93
       13
 44
0.0
173
     0
291
     1
 45
0.0
  0
VISUALSTYLE
  5
2C
102
{ACAD_REACTORS
330
2A
102
}
102
{ACAD_XDICTIONARY
360
99
102
}
330
2A
100
AcDbVisualStyle
  2
FlatWithEdges
 70
     1
 71
     2
 72
     1
 73
     1
 90
        2
 40
-0.6
 41
30.0
 62
     5
 63
     7
421
 16777215
 74
     1
 91
        4
 64
     7
 65
   257
 75
     1
175
     1
 42
1.0
 92
        0
 66
   257
 43
1.0
 76
     1
 77
     6
 78
     2
 67
     7
 79
     5
170
     0
171
     0
290
     0
174
     0
 93
       13
 44
0.0
173
     0
291
     1
 45
0.0
  0
VISUALSTYLE
  5
2D
102
{ACAD_REACTORS
330
2A
102
}
102
{ACAD_XDICTIONARY
360
9B
102
}
330
2A
100
AcDbVisualStyle
  2
Gouraud
 70
     2
 71
     2
 72
     2
 73
     1
 90
        2
 40
-0.6
 41
30.0
 62
     5
 63
     7
421
 16777215
 74
     0
 91
        4
 64
     7
 65
   257
 75
     1
175
     1
 42
1.0
 92
        0
 66
     7
 43
1.0
 76
     1
 77
     6
 78
     2
 67
     7
 79
     5
170
     0
171
     0
290
     0
174
     0
 93
       13
 44
0.0
173
     0
291
     1
 45
0.0
  0
VISUALSTYLE
  5
2E
102
{ACAD_REACTORS
330
2A
102
}
102
{ACAD_XDICTIONARY
360
9D
102
}
330
2A
100
AcDbVisualStyle
  2
GouraudWithEdges
 70
     3
 71
     2
 72
     2
 73
     1
 90
        2
 40
-0.6
 41
30.0
 62
     5
 63
     7
421
 16777215
 74
     1
 91
        4
 64
     7
 65
   257
 75
     1
175
     1
 42
1.0
 92
        0
 66
   257
 43
1.0
 76
     1
 77
     6
 78
     2
 67
     7
 79
     5
170
     0
171
     0
290
     0
174
     0
 93
       13
 44
0.0
173
     0
291
     1
 45
0.0
  0
VISUALSTYLE
  5
38
102
{ACAD_REACTORS
330
2A
102
}
102
{ACAD_XDICTIONARY
360
B1
102
}
330
2A
100
AcDbVisualStyle
  2
Linepattern
 70
    14
 71
     2
 72
     2
 73
     0
 90
        0
 40
-0.6
 41
-30.0
 62
     5
 63
     7
421
 16777215
 74
     1
 91
        4
 64
     7
 65
   257
 75
     7
175
     7
 42
1.0
 92
        8
 66
     7
 43
1.0
 76
     1
 77
     6
 78
     2
 67
     7
 79
     5
170
     0
171
     0
290
     0
174
     0
 93
        1
 44
0.0
173
     0
291
     1
 45
0.0
  0
VISUALSTYLE
  5
33
102
{ACAD_REACTORS
330
2A
102
}
102
{ACAD_XDICTIONARY
360
A7
102
}
330
2A
100
AcDbVisualStyle
  2
Realistic
 70
     8
 71
     2
 72
     2
 73
     0
 90
        0
 40
-0.6
 41
-30.0
 62
     5
 63
     7
421
 16777215
 74
     1
 91
        0
 64
     7
 65
   257
 75
     1
175
     1
 42
1.0
 92
        8
 66
     8
424
  7895160
 43
1.0
 76
     1
 77
     6
 78
     2
 67
     7
 79
     5
170
     0
171
     0
290
     0
174
     0
 93
       13
 44
0.0
173
     0
291
     0
 45
0.0
  0
VISUALSTYLE
  5
37
102
{ACAD_REACTORS
330
2A
102
}
102
{ACAD_XDICTIONARY
360
AF
102
}
330
2A
100
AcDbVisualStyle
  2
Thicken
 70
    13
 71
     2
 72
     2
 73
     0
 90
        0
 40
-0.6
 41
-30.0
 62
     5
 63
     7
421
 16777215
 74
     1
 91
        4
 64
     7
 65
   257
 75
     1
175
     1
 42
1.0
 92
       12
 66
     7
 43
1.0
 76
     1
 77
     6
 78
     2
 67
     7
 79
     5
170
     0
171
     0
290
     0
174
     0
 93
        1
 44
0.0
173
     0
291
     1
 45
0.0
  0
DICTIONARY
  5
9F
330
2F
100
AcDbDictionary
280
     1
281
     1
  3
ACAD_XREC_ROUNDTRIP
360
A0
  0
DICTIONARY
  5
A3
330
31
100
AcDbDictionary
280
     1
281
     1
  3
ACAD_XREC_ROUNDTRIP
360
A4
  0
DICTIONARY
  5
A1
330
30
100
AcDbDictionary
280
     1
281
     1
  3
ACAD_XREC_ROUNDTRIP
360
A2
  0
DICTIONARY
  5
A5
330
32
100
AcDbDictionary
280
     1
281
     1
  3
ACAD_XREC_ROUNDTRIP
360
A6
  0
DICTIONARY
  5
AD
330
36
100
AcDbDictionary
280
     1
281
     1
  3
ACAD_XREC_ROUNDTRIP
360
AE
  0
DICTIONARY
  5
B5
330
3A
100
AcDbDictionary
280
     1
281
     1
  3
ACAD_XREC_ROUNDTRIP
360
B6
  0
DICTIONARY
  5
A9
330
34
100
AcDbDictionary
280
     1
281
     1
  3
ACAD_XREC_ROUNDTRIP
360
AA
  0
DICTIONARY
  5
AB
330
35
100
AcDbDictionary
280
     1
281
     1
  3
ACAD_XREC_ROUNDTRIP
360
AC
  0
DICTIONARY
  5
B3
330
39
100
AcDbDictionary
280
     1
281
     1
  3
ACAD_XREC_ROUNDTRIP
360
B4
  0
DICTIONARY
  5
97
330
2B
100
AcDbDictionary
280
     1
281
     1
  3
ACAD_XREC_ROUNDTRIP
360
98
  0
DICTIONARY
  5
99
330
2C
100
AcDbDictionary
280
     1
281
     1
  3
ACAD_XREC_ROUNDTRIP
360
9A
  0
DICTIONARY
  5
9B
330
2D
100
AcDbDictionary
280
     1
281
     1
  3
ACAD_XREC_ROUNDTRIP
360
9C
  0
DICTIONARY
  5
9D
330
2E
100
AcDbDictionary
280
     1
281
     1
  3
ACAD_XREC_ROUNDTRIP
360
9E
  0
DICTIONARY
  5
B1
330
38
100
AcDbDictionary
280
     1
281
     1
  3
ACAD_XREC_ROUNDTRIP
360
B2
  0
DICTIONARY
  5
A7
330
33
100
AcDbDictionary
280
     1
281
     1
  3
ACAD_XREC_ROUNDTRIP
360
A8
  0
DICTIONARY
  5
AF
330
37
100
AcDbDictionary
280
     1
281
     1
  3
ACAD_XREC_ROUNDTRIP
360
B0
  0
XRECORD
  5
A0
102
{ACAD_REACTORS
330
9F
102
}
330
9F
100
AcDbXrecord
280
     1
102
RTVSPropertyOp0
 70
     1
102
RTVSPropertyOp1
 70
     1
102
RTVSPropertyOp2
 70
     1
102
RTVSPropertyOp3
 70
     1
102
RTVSPropertyOp4
 70
     1
102
RTVSPropertyOp5
 70
     1
102
RTVSPropertyOp6
 70
     1
102
RTVSPropertyOp7
 70
     1
102
RTVSPropertyOp8
 70
     1
102
RTVSPropertyOp9
 70
     1
102
RTVSPropertyOp10
 70
     1
102
RTVSPropertyOp11
 70
     1
102
RTVSPropertyOp12
 70
     1
102
RTVSPropertyOp13
 70
     1
102
RTVSPropertyOp14
 70
     1
102
RTVSPropertyOp15
 70
     1
102
RTVSPropertyOp16
 70
     1
102
RTVSPropertyOp17
 70
     1
102
RTVSPropertyOp18
 70
     1
102
RTVSPropertyOp19
 70
     1
102
RTVSPropertyOp20
 70
     1
102
RTVSPropertyOp21
 70
     1
102
RTVSPropertyOp22
 70
     1
102
RTVSPropertyOp23
 70
     1
102
RTVSPropertyOp24
 70
     1
102
RTVSPropertyOp25
 70
     1
102
RTVSPropertyOp26
 70
     1
102
RTVSPropertyOp27
 70
     1
102
RTVSPropertyOp28
 70
     1
102
RTVSPropertyOp29
 70
     1
102
RTVSPropertyOp30
 70
     1
102
RTVSPropertyOp31
 70
     1
102
RTVSPropertyOp32
 70
     1
  0
XRECORD
  5
A4
102
{ACAD_REACTORS
330
A3
102
}
330
A3
100
AcDbXrecord
280
     1
102
RTVSPropertyOp0
 70
     1
102
RTVSPropertyOp1
 70
     1
102
RTVSPropertyOp2
 70
     1
102
RTVSPropertyOp3
 70
     1
102
RTVSPropertyOp4
 70
     1
102
RTVSPropertyOp5
 70
     1
102
RTVSPropertyOp6
 70
     1
102
RTVSPropertyOp7
 70
     1
102
RTVSPropertyOp8
 70
     1
102
RTVSPropertyOp9
 70
     1
102
RTVSPropertyOp10
 70
     1
102
RTVSPropertyOp11
 70
     1
102
RTVSPropertyOp12
 70
     1
102
RTVSPropertyOp13
 70
     1
102
RTVSPropertyOp14
 70
     1
102
RTVSPropertyOp15
 70
     1
102
RTVSPropertyOp16
 70
     1
102
RTVSPropertyOp17
 70
     1
102
RTVSPropertyOp18
 70
     1
102
RTVSPropertyOp19
 70
     1
102
RTVSPropertyOp20
 70
     1
102
RTVSPropertyOp21
 70
     1
102
RTVSPropertyOp22
 70
     1
102
RTVSPropertyOp23
 70
     1
102
RTVSPropertyOp24
 70
     1
102
RTVSPropertyOp25
 70
     1
102
RTVSPropertyOp26
 70
     1
102
RTVSPropertyOp27
 70
     1
102
RTVSPropertyOp28
 70
     1
102
RTVSPropertyOp29
 70
     1
102
RTVSPropertyOp30
 70
     1
102
RTVSPropertyOp31
 70
     1
102
RTVSPropertyOp32
 70
     1
  0
XRECORD
  5
A2
102
{ACAD_REACTORS
330
A1
102
}
330
A1
100
AcDbXrecord
280
     1
102
RTVSPropertyOp0
 70
     1
102
RTVSPropertyOp1
 70
     1
102
RTVSPropertyOp2
 70
     1
102
RTVSPropertyOp3
 70
     1
102
RTVSPropertyOp4
 70
     1
102
RTVSPropertyOp5
 70
     1
102
RTVSPropertyOp6
 70
     1
102
RTVSPropertyOp7
 70
     1
102
RTVSPropertyOp8
 70
     1
102
RTVSPropertyOp9
 70
     1
102
RTVSPropertyOp10
 70
     1
102
RTVSPropertyOp11
 70
     1
102
RTVSPropertyOp12
 70
     1
102
RTVSPropertyOp13
 70
     1
102
RTVSPropertyOp14
 70
     1
102
RTVSPropertyOp15
 70
     1
102
RTVSPropertyOp16
 70
     1
102
RTVSPropertyOp17
 70
     1
102
RTVSPropertyOp18
 70
     1
102
RTVSPropertyOp19
 70
     1
102
RTVSPropertyOp20
 70
     1
102
RTVSPropertyOp21
 70
     1
102
RTVSPropertyOp22
 70
     1
102
RTVSPropertyOp23
 70
     1
102
RTVSPropertyOp24
 70
     1
102
RTVSPropertyOp25
 70
     1
102
RTVSPropertyOp26
 70
     1
102
RTVSPropertyOp27
 70
     1
102
RTVSPropertyOp28
 70
     1
102
RTVSPropertyOp29
 70
     1
102
RTVSPropertyOp30
 70
     1
102
RTVSPropertyOp31
 70
     1
102
RTVSPropertyOp32
 70
     1
  0
XRECORD
  5
A6
102
{ACAD_REACTORS
330
A5
102
}
330
A5
100
AcDbXrecord
280
     1
102
RTVSPropertyOp0
 70
     1
102
RTVSPropertyOp1
 70
     1
102
RTVSPropertyOp2
 70
     1
102
RTVSPropertyOp3
 70
     1
102
RTVSPropertyOp4
 70
     1
102
RTVSPropertyOp5
 70
     1
102
RTVSPropertyOp6
 70
     1
102
RTVSPropertyOp7
 70
     1
102
RTVSPropertyOp8
 70
     1
102
RTVSPropertyOp9
 70
     1
102
RTVSPropertyOp10
 70
     1
102
RTVSPropertyOp11
 70
     1
102
RTVSPropertyOp12
 70
     1
102
RTVSPropertyOp13
 70
     1
102
RTVSPropertyOp14
 70
     1
102
RTVSPropertyOp15
 70
     1
102
RTVSPropertyOp16
 70
     1
102
RTVSPropertyOp17
 70
     1
102
RTVSPropertyOp18
 70
     1
102
RTVSPropertyOp19
 70
     1
102
RTVSPropertyOp20
 70
     1
102
RTVSPropertyOp21
 70
     1
102
RTVSPropertyOp22
 70
     1
102
RTVSPropertyOp23
 70
     1
102
RTVSPropertyOp24
 70
     1
102
RTVSPropertyOp25
 70
     1
102
RTVSPropertyOp26
 70
     1
102
RTVSPropertyOp27
 70
     1
102
RTVSPropertyOp28
 70
     1
102
RTVSPropertyOp29
 70
     1
102
RTVSPropertyOp30
 70
     1
102
RTVSPropertyOp31
 70
     1
102
RTVSPropertyOp32
 70
     1
  0
XRECORD
  5
AE
102
{ACAD_REACTORS
330
AD
102
}
330
AD
100
AcDbXrecord
280
     1
102
RTVSPropertyOp0
 70
     1
102
RTVSPropertyOp1
 70
     1
102
RTVSPropertyOp2
 70
     1
102
RTVSPropertyOp3
 70
     1
102
RTVSPropertyOp4
 70
     1
102
RTVSPropertyOp5
 70
     1
102
RTVSPropertyOp6
 70
     1
102
RTVSPropertyOp7
 70
     1
102
RTVSPropertyOp8
 70
     1
102
RTVSPropertyOp9
 70
     1
102
RTVSPropertyOp10
 70
     1
102
RTVSPropertyOp11
 70
     1
102
RTVSPropertyOp12
 70
     1
102
RTVSPropertyOp13
 70
     1
102
RTVSPropertyOp14
 70
     1
102
RTVSPropertyOp15
 70
     1
102
RTVSPropertyOp16
 70
     1
102
RTVSPropertyOp17
 70
     1
102
RTVSPropertyOp18
 70
     1
102
RTVSPropertyOp19
 70
     1
102
RTVSPropertyOp20
 70
     1
102
RTVSPropertyOp21
 70
     1
102
RTVSPropertyOp22
 70
     1
102
RTVSPropertyOp23
 70
     1
102
RTVSPropertyOp24
 70
     1
102
RTVSPropertyOp25
 70
     1
102
RTVSPropertyOp26
 70
     1
102
RTVSPropertyOp27
 70
     1
102
RTVSPropertyOp28
 70
     1
102
RTVSPropertyOp29
 70
     1
102
RTVSPropertyOp30
 70
     1
102
RTVSPropertyOp31
 70
     1
102
RTVSPropertyOp32
 70
     1
  0
XRECORD
  5
B6
102
{ACAD_REACTORS
330
B5
102
}
330
B5
100
AcDbXrecord
280
     1
102
RTVSPropertyOp0
 70
     1
102
RTVSPropertyOp1
 70
     1
102
RTVSPropertyOp2
 70
     1
102
RTVSPropertyOp3
 70
     1
102
RTVSPropertyOp4
 70
     1
102
RTVSPropertyOp5
 70
     1
102
RTVSPropertyOp6
 70
     1
102
RTVSPropertyOp7
 70
     1
102
RTVSPropertyOp8
 70
     1
102
RTVSPropertyOp9
 70
     1
102
RTVSPropertyOp10
 70
     1
102
RTVSPropertyOp11
 70
     1
102
RTVSPropertyOp12
 70
     1
102
RTVSPropertyOp13
 70
     1
102
RTVSPropertyOp14
 70
     1
102
RTVSPropertyOp15
 70
     1
102
RTVSPropertyOp16
 70
     1
102
RTVSPropertyOp17
 70
     1
102
RTVSPropertyOp18
 70
     1
102
RTVSPropertyOp19
 70
     1
102
RTVSPropertyOp20
 70
     1
102
RTVSPropertyOp21
 70
     1
102
RTVSPropertyOp22
 70
     1
102
RTVSPropertyOp23
 70
     1
102
RTVSPropertyOp24
 70
     1
102
RTVSPropertyOp25
 70
     1
102
RTVSPropertyOp26
 70
     1
102
RTVSPropertyOp27
 70
     1
102
RTVSPropertyOp28
 70
     1
102
RTVSPropertyOp29
 70
     1
102
RTVSPropertyOp30
 70
     1
102
RTVSPropertyOp31
 70
     1
102
RTVSPropertyOp32
 70
     1
  0
XRECORD
  5
AA
102
{ACAD_REACTORS
330
A9
102
}
330
A9
100
AcDbXrecord
280
     1
102
RTVSPropertyOp0
 70
     1
102
RTVSPropertyOp1
 70
     1
102
RTVSPropertyOp2
 70
     1
102
RTVSPropertyOp3
 70
     1
102
RTVSPropertyOp4
 70
     1
102
RTVSPropertyOp5
 70
     1
102
RTVSPropertyOp6
 70
     1
102
RTVSPropertyOp7
 70
     1
102
RTVSPropertyOp8
 70
     1
102
RTVSPropertyOp9
 70
     1
102
RTVSPropertyOp10
 70
     1
102
RTVSPropertyOp11
 70
     1
102
RTVSPropertyOp12
 70
     1
102
RTVSPropertyOp13
 70
     1
102
RTVSPropertyOp14
 70
     1
102
RTVSPropertyOp15
 70
     1
102
RTVSPropertyOp16
 70
     1
102
RTVSPropertyOp17
 70
     1
102
RTVSPropertyOp18
 70
     1
102
RTVSPropertyOp19
 70
     1
102
RTVSPropertyOp20
 70
     1
102
RTVSPropertyOp21
 70
     1
102
RTVSPropertyOp22
 70
     1
102
RTVSPropertyOp23
 70
     1
102
RTVSPropertyOp24
 70
     1
102
RTVSPropertyOp25
 70
     1
102
RTVSPropertyOp26
 70
     1
102
RTVSPropertyOp27
 70
     1
102
RTVSPropertyOp28
 70
     1
102
RTVSPropertyOp29
 70
     1
102
RTVSPropertyOp30
 70
     1
102
RTVSPropertyOp31
 70
     1
102
RTVSPropertyOp32
 70
     1
  0
XRECORD
  5
AC
102
{ACAD_REACTORS
330
AB
102
}
330
AB
100
AcDbXrecord
280
     1
102
RTVSPropertyOp0
 70
     1
102
RTVSPropertyOp1
 70
     1
102
RTVSPropertyOp2
 70
     1
102
RTVSPropertyOp3
 70
     1
102
RTVSPropertyOp4
 70
     1
102
RTVSPropertyOp5
 70
     1
102
RTVSPropertyOp6
 70
     1
102
RTVSPropertyOp7
 70
     1
102
RTVSPropertyOp8
 70
     1
102
RTVSPropertyOp9
 70
     1
102
RTVSPropertyOp10
 70
     1
102
RTVSPropertyOp11
 70
     1
102
RTVSPropertyOp12
 70
     1
102
RTVSPropertyOp13
 70
     1
102
RTVSPropertyOp14
 70
     1
102
RTVSPropertyOp15
 70
     1
102
RTVSPropertyOp16
 70
     1
102
RTVSPropertyOp17
 70
     1
102
RTVSPropertyOp18
 70
     1
102
RTVSPropertyOp19
 70
     1
102
RTVSPropertyOp20
 70
     1
102
RTVSPropertyOp21
 70
     1
102
RTVSPropertyOp22
 70
     1
102
RTVSPropertyOp23
 70
     1
102
RTVSPropertyOp24
 70
     1
102
RTVSPropertyOp25
 70
     1
102
RTVSPropertyOp26
 70
     1
102
RTVSPropertyOp27
 70
     1
102
RTVSPropertyOp28
 70
     1
102
RTVSPropertyOp29
 70
     1
102
RTVSPropertyOp30
 70
     1
102
RTVSPropertyOp31
 70
     1
102
RTVSPropertyOp32
 70
     1
  0
XRECORD
  5
B4
102
{ACAD_REACTORS
330
B3
102
}
330
B3
100
AcDbXrecord
280
     1
102
RTVSPropertyOp0
 70
     1
102
RTVSPropertyOp1
 70
     1
102
RTVSPropertyOp2
 70
     1
102
RTVSPropertyOp3
 70
     1
102
RTVSPropertyOp4
 70
     1
102
RTVSPropertyOp5
 70
     1
102
RTVSPropertyOp6
 70
     1
102
RTVSPropertyOp7
 70
     1
102
RTVSPropertyOp8
 70
     1
102
RTVSPropertyOp9
 70
     1
102
RTVSPropertyOp10
 70
     1
102
RTVSPropertyOp11
 70
     1
102
RTVSPropertyOp12
 70
     1
102
RTVSPropertyOp13
 70
     1
102
RTVSPropertyOp14
 70
     1
102
RTVSPropertyOp15
 70
     1
102
RTVSPropertyOp16
 70
     1
102
RTVSPropertyOp17
 70
     1
102
RTVSPropertyOp18
 70
     1
102
RTVSPropertyOp19
 70
     1
102
RTVSPropertyOp20
 70
     1
102
RTVSPropertyOp21
 70
     1
102
RTVSPropertyOp22
 70
     1
102
RTVSPropertyOp23
 70
     1
102
RTVSPropertyOp24
 70
     1
102
RTVSPropertyOp25
 70
     1
102
RTVSPropertyOp26
 70
     1
102
RTVSPropertyOp27
 70
     1
102
RTVSPropertyOp28
 70
     1
102
RTVSPropertyOp29
 70
     1
102
RTVSPropertyOp30
 70
     1
102
RTVSPropertyOp31
 70
     1
102
RTVSPropertyOp32
 70
     1
  0
XRECORD
  5
98
102
{ACAD_REACTORS
330
97
102
}
330
97
100
AcDbXrecord
280
     1
102
RTVSPropertyOp0
 70
     1
102
RTVSPropertyOp1
 70
     1
102
RTVSPropertyOp2
 70
     1
102
RTVSPropertyOp3
 70
     1
102
RTVSPropertyOp4
 70
     1
102
RTVSPropertyOp5
 70
     1
102
RTVSPropertyOp6
 70
     1
102
RTVSPropertyOp7
 70
     1
102
RTVSPropertyOp8
 70
     1
102
RTVSPropertyOp9
 70
     1
102
RTVSPropertyOp10
 70
     1
102
RTVSPropertyOp11
 70
     1
102
RTVSPropertyOp12
 70
     1
102
RTVSPropertyOp13
 70
     1
102
RTVSPropertyOp14
 70
     1
102
RTVSPropertyOp15
 70
     1
102
RTVSPropertyOp16
 70
     1
102
RTVSPropertyOp17
 70
     1
102
RTVSPropertyOp18
 70
     1
102
RTVSPropertyOp19
 70
     1
102
RTVSPropertyOp20
 70
     1
102
RTVSPropertyOp21
 70
     1
102
RTVSPropertyOp22
 70
     1
102
RTVSPropertyOp23
 70
     1
102
RTVSPropertyOp24
 70
     1
102
RTVSPropertyOp25
 70
     1
102
RTVSPropertyOp26
 70
     1
102
RTVSPropertyOp27
 70
     1
102
RTVSPropertyOp28
 70
     1
102
RTVSPropertyOp29
 70
     1
102
RTVSPropertyOp30
 70
     1
102
RTVSPropertyOp31
 70
     1
102
RTVSPropertyOp32
 70
     1
  0
XRECORD
  5
9A
102
{ACAD_REACTORS
330
99
102
}
330
99
100
AcDbXrecord
280
     1
102
RTVSPropertyOp0
 70
     1
102
RTVSPropertyOp1
 70
     1
102
RTVSPropertyOp2
 70
     1
102
RTVSPropertyOp3
 70
     1
102
RTVSPropertyOp4
 70
     1
102
RTVSPropertyOp5
 70
     1
102
RTVSPropertyOp6
 70
     1
102
RTVSPropertyOp7
 70
     1
102
RTVSPropertyOp8
 70
     1
102
RTVSPropertyOp9
 70
     1
102
RTVSPropertyOp10
 70
     1
102
RTVSPropertyOp11
 70
     1
102
RTVSPropertyOp12
 70
     1
102
RTVSPropertyOp13
 70
     1
102
RTVSPropertyOp14
 70
     1
102
RTVSPropertyOp15
 70
     1
102
RTVSPropertyOp16
 70
     1
102
RTVSPropertyOp17
 70
     1
102
RTVSPropertyOp18
 70
     1
102
RTVSPropertyOp19
 70
     1
102
RTVSPropertyOp20
 70
     1
102
RTVSPropertyOp21
 70
     1
102
RTVSPropertyOp22
 70
     1
102
RTVSPropertyOp23
 70
     1
102
RTVSPropertyOp24
 70
     1
102
RTVSPropertyOp25
 70
     1
102
RTVSPropertyOp26
 70
     1
102
RTVSPropertyOp27
 70
     1
102
RTVSPropertyOp28
 70
     1
102
RTVSPropertyOp29
 70
     1
102
RTVSPropertyOp30
 70
     1
102
RTVSPropertyOp31
 70
     1
102
RTVSPropertyOp32
 70
     1
  0
XRECORD
  5
9C
102
{ACAD_REACTORS
330
9B
102
}
330
9B
100
AcDbXrecord
280
     1
102
RTVSPropertyOp0
 70
     1
102
RTVSPropertyOp1
 70
     1
102
RTVSPropertyOp2
 70
     1
102
RTVSPropertyOp3
 70
     1
102
RTVSPropertyOp4
 70
     1
102
RTVSPropertyOp5
 70
     1
102
RTVSPropertyOp6
 70
     1
102
RTVSPropertyOp7
 70
     1
102
RTVSPropertyOp8
 70
     1
102
RTVSPropertyOp9
 70
     1
102
RTVSPropertyOp10
 70
     1
102
RTVSPropertyOp11
 70
     1
102
RTVSPropertyOp12
 70
     1
102
RTVSPropertyOp13
 70
     1
102
RTVSPropertyOp14
 70
     1
102
RTVSPropertyOp15
 70
     1
102
RTVSPropertyOp16
 70
     1
102
RTVSPropertyOp17
 70
     1
102
RTVSPropertyOp18
 70
     1
102
RTVSPropertyOp19
 70
     1
102
RTVSPropertyOp20
 70
     1
102
RTVSPropertyOp21
 70
     1
102
RTVSPropertyOp22
 70
     1
102
RTVSPropertyOp23
 70
     1
102
RTVSPropertyOp24
 70
     1
102
RTVSPropertyOp25
 70
     1
102
RTVSPropertyOp26
 70
     1
102
RTVSPropertyOp27
 70
     1
102
RTVSPropertyOp28
 70
     1
102
RTVSPropertyOp29
 70
     1
102
RTVSPropertyOp30
 70
     1
102
RTVSPropertyOp31
 70
     1
102
RTVSPropertyOp32
 70
     1
  0
XRECORD
  5
9E
102
{ACAD_REACTORS
330
9D
102
}
330
9D
100
AcDbXrecord
280
     1
102
RTVSPropertyOp0
 70
     1
102
RTVSPropertyOp1
 70
     1
102
RTVSPropertyOp2
 70
     1
102
RTVSPropertyOp3
 70
     1
102
RTVSPropertyOp4
 70
     1
102
RTVSPropertyOp5
 70
     1
102
RTVSPropertyOp6
 70
     1
102
RTVSPropertyOp7
 70
     1
102
RTVSPropertyOp8
 70
     1
102
RTVSPropertyOp9
 70
     1
102
RTVSPropertyOp10
 70
     1
102
RTVSPropertyOp11
 70
     1
102
RTVSPropertyOp12
 70
     1
102
RTVSPropertyOp13
 70
     1
102
RTVSPropertyOp14
 70
     1
102
RTVSPropertyOp15
 70
     1
102
RTVSPropertyOp16
 70
     1
102
RTVSPropertyOp17
 70
     1
102
RTVSPropertyOp18
 70
     1
102
RTVSPropertyOp19
 70
     1
102
RTVSPropertyOp20
 70
     1
102
RTVSPropertyOp21
 70
     1
102
RTVSPropertyOp22
 70
     1
102
RTVSPropertyOp23
 70
     1
102
RTVSPropertyOp24
 70
     1
102
RTVSPropertyOp25
 70
     1
102
RTVSPropertyOp26
 70
     1
102
RTVSPropertyOp27
 70
     1
102
RTVSPropertyOp28
 70
     1
102
RTVSPropertyOp29
 70
     1
102
RTVSPropertyOp30
 70
     1
102
RTVSPropertyOp31
 70
     1
102
RTVSPropertyOp32
 70
     1
  0
XRECORD
  5
B2
102
{ACAD_REACTORS
330
B1
102
}
330
B1
100
AcDbXrecord
280
     1
102
RTVSPropertyOp0
 70
     1
102
RTVSPropertyOp1
 70
     1
102
RTVSPropertyOp2
 70
     1
102
RTVSPropertyOp3
 70
     1
102
RTVSPropertyOp4
 70
     1
102
RTVSPropertyOp5
 70
     1
102
RTVSPropertyOp6
 70
     1
102
RTVSPropertyOp7
 70
     1
102
RTVSPropertyOp8
 70
     1
102
RTVSPropertyOp9
 70
     1
102
RTVSPropertyOp10
 70
     1
102
RTVSPropertyOp11
 70
     1
102
RTVSPropertyOp12
 70
     1
102
RTVSPropertyOp13
 70
     1
102
RTVSPropertyOp14
 70
     1
102
RTVSPropertyOp15
 70
     1
102
RTVSPropertyOp16
 70
     1
102
RTVSPropertyOp17
 70
     1
102
RTVSPropertyOp18
 70
     1
102
RTVSPropertyOp19
 70
     1
102
RTVSPropertyOp20
 70
     1
102
RTVSPropertyOp21
 70
     1
102
RTVSPropertyOp22
 70
     1
102
RTVSPropertyOp23
 70
     1
102
RTVSPropertyOp24
 70
     1
102
RTVSPropertyOp25
 70
     1
102
RTVSPropertyOp26
 70
     1
102
RTVSPropertyOp27
 70
     1
102
RTVSPropertyOp28
 70
     1
102
RTVSPropertyOp29
 70
     1
102
RTVSPropertyOp30
 70
     1
102
RTVSPropertyOp31
 70
     1
102
RTVSPropertyOp32
 70
     1
  0
XRECORD
  5
A8
102
{ACAD_REACTORS
330
A7
102
}
330
A7
100
AcDbXrecord
280
     1
102
RTVSPropertyOp0
 70
     1
102
RTVSPropertyOp1
 70
     1
102
RTVSPropertyOp2
 70
     1
102
RTVSPropertyOp3
 70
     1
102
RTVSPropertyOp4
 70
     1
102
RTVSPropertyOp5
 70
     1
102
RTVSPropertyOp6
 70
     1
102
RTVSPropertyOp7
 70
     1
102
RTVSPropertyOp8
 70
     1
102
RTVSPropertyOp9
 70
     1
102
RTVSPropertyOp10
 70
     1
102
RTVSPropertyOp11
 70
     1
102
RTVSPropertyOp12
 70
     1
102
RTVSPropertyOp13
 70
     1
102
RTVSPropertyOp14
 70
     1
102
RTVSPropertyOp15
 70
     1
102
RTVSPropertyOp16
 70
     1
102
RTVSPropertyOp17
 70
     1
102
RTVSPropertyOp18
 70
     1
102
RTVSPropertyOp19
 70
     1
102
RTVSPropertyOp20
 70
     1
102
RTVSPropertyOp21
 70
     1
102
RTVSPropertyOp22
 70
     1
102
RTVSPropertyOp23
 70
     1
102
RTVSPropertyOp24
 70
     1
102
RTVSPropertyOp25
 70
     1
102
RTVSPropertyOp26
 70
     1
102
RTVSPropertyOp27
 70
     1
102
RTVSPropertyOp28
 70
     1
102
RTVSPropertyOp29
 70
     1
102
RTVSPropertyOp30
 70
     1
102
RTVSPropertyOp31
 70
     1
102
RTVSPropertyOp32
 70
     1
  0
XRECORD
  5
B0
102
{ACAD_REACTORS
330
AF
102
}
330
AF
100
AcDbXrecord
280
     1
102
RTVSPropertyOp0
 70
     1
102
RTVSPropertyOp1
 70
     1
102
RTVSPropertyOp2
 70
     1
102
RTVSPropertyOp3
 70
     1
102
RTVSPropertyOp4
 70
     1
102
RTVSPropertyOp5
 70
     1
102
RTVSPropertyOp6
 70
     1
102
RTVSPropertyOp7
 70
     1
102
RTVSPropertyOp8
 70
     1
102
RTVSPropertyOp9
 70
     1
102
RTVSPropertyOp10
 70
     1
102
RTVSPropertyOp11
 70
     1
102
RTVSPropertyOp12
 70
     1
102
RTVSPropertyOp13
 70
     1
102
RTVSPropertyOp14
 70
     1
102
RTVSPropertyOp15
 70
     1
102
RTVSPropertyOp16
 70
     1
102
RTVSPropertyOp17
 70
     1
102
RTVSPropertyOp18
 70
     1
102
RTVSPropertyOp19
 70
     1
102
RTVSPropertyOp20
 70
     1
102
RTVSPropertyOp21
 70
     1
102
RTVSPropertyOp22
 70
     1
102
RTVSPropertyOp23
 70
     1
102
RTVSPropertyOp24
 70
     1
102
RTVSPropertyOp25
 70
     1
102
RTVSPropertyOp26
 70
     1
102
RTVSPropertyOp27
 70
     1
102
RTVSPropertyOp28
 70
     1
102
RTVSPropertyOp29
 70
     1
102
RTVSPropertyOp30
 70
     1
102
RTVSPropertyOp31
 70
     1
102
RTVSPropertyOp32
 70
     1
  0
ENDSEC
  0
EOF
