  0
SECTION
  2
HEADER
  9
$ACADVER
  1
AC1021
  9
$ACADMAINTVER
 70
    25
  9
$DWGCODEPAGE
  3
ANSI_1252
  9
$INSBASE
 10
0.0
 20
0.0
 30
0.0
  9
$EXTMIN
 10
-187.1588
 20
-106.3941
 30
0.0
  9
$EXTMAX
 10
-61.9639
 20
131.8595
 30
0.0
  9
$LIMMIN
 10
0.0
 20
0.0
  9
$LIMMAX
 10
12.0
 20
9.0
  9
$ORTHOMODE
 70
     0
  9
$REGENMODE
 70
     1
  9
$FILLMODE
 70
     1
  9
$QTEXTMODE
 70
     0
  9
$MIRRTEXT
 70
     1
  9
$LTSCALE
 40
1.0
  9
$ATTMODE
 70
     1
  9
$TEXTSIZE
 40
0.2
  9
$TRACEWID
 40
0.05
  9
$TEXTSTYLE
  7
Standard
  9
$CLAYER
  8
0
  9
$CELTYPE
  6
ByLayer
  9
$CECOLOR
 62
   256
  9
$CELTSCALE
 40
1.0
  9
$DISPSILH
 70
     0
  9
$DIMSCALE
 40
1.0
  9
$DIMASZ
 40
0.18
  9
$DIMEXO
 40
0.0625
  9
$DIMDLI
 40
0.38
  9
$DIMRND
 40
0.0
  9
$DIMDLE
 40
0.0
  9
$DIMEXE
 40
0.18
  9
$DIMTP
 40
0.0
  9
$DIMTM
 40
0.0
  9
$DIMTXT
 40
0.18
  9
$DIMCEN
 40
0.09
  9
$DIMTSZ
 40
0.0
  9
$DIMTOL
 70
     0
  9
$DIMLIM
 70
     0
  9
$DIMTIH
 70
     1
  9
$DIMTOH
 70
     1
  9
$DIMSE1
 70
     0
  9
$DIMSE2
 70
     0
  9
$DIMTAD
 70
     0
  9
$DIMZIN
 70
     0
  9
$DIMBLK
  1

  9
$DIMASO
 70
     1
  9
$DIMSHO
 70
     1
  9
$DIMPOST
  1

  9
$DIMAPOST
  1

  9
$DIMALT
 70
     0
  9
$DIMALTD
 70
     2
  9
$DIMALTF
 40
25.4
  9
$DIMLFAC
 40
1.0
  9
$DIMTOFL
 70
     0
  9
$DIMTVP
 40
0.0
  9
$DIMTIX
 70
     0
  9
$DIMSOXD
 70
     0
  9
$DIMSAH
 70
     0
  9
$DIMBLK1
  1

  9
$DIMBLK2
  1

  9
$DIMSTYLE
  2
Standard
  9
$DIMCLRD
 70
     0
  9
$DIMCLRE
 70
     0
  9
$DIMCLRT
 70
     0
  9
$DIMTFAC
 40
1.0
  9
$DIMGAP
 40
0.09
  9
$DIMJUST
 70
     0
  9
$DIMSD1
 70
     0
  9
$DIMSD2
 70
     0
  9
$DIMTOLJ
 70
     1
  9
$DIMTZIN
 70
     0
  9
$DIMALTZ
 70
     0
  9
$DIMALTTZ
 70
     0
  9
$DIMUPT
 70
     0
  9
$DIMDEC
 70
     4
  9
$DIMTDEC
 70
     4
  9
$DIMALTU
 70
     2
  9
$DIMALTTD
 70
     2
  9
$DIMTXSTY
  7
Standard
  9
$DIMAUNIT
 70
     0
  9
$DIMADEC
 70
     0
  9
$DIMALTRND
 40
0.0
  9
$DIMAZIN
 70
     0
  9
$DIMDSEP
 70
    46
  9
$DIMATFIT
 70
     3
  9
$DIMFRAC
 70
     0
  9
$DIMLDRBLK
  1

  9
$DIMLUNIT
 70
     2
  9
$DIMLWD
 70
    -2
  9
$DIMLWE
 70
    -2
  9
$DIMTMOVE
 70
     0
  9
$DIMFXL
 40
1.0
  9
$DIMFXLON
 70
     0
  9
$DIMJOGANG
 40
0.7853981633974483
  9
$DIMTFILL
 70
     0
  9
$DIMTFILLCLR
 70
     0
  9
$DIMARCSYM
 70
     0
  9
$DIMLTYPE
  6

  9
$DIMLTEX1
  6

  9
$DIMLTEX2
  6

  9
$LUNITS
 70
     2
  9
$LUPREC
 70
     4
  9
$SKETCHINC
 40
0.1
  9
$FILLETRAD
 40
0.5
  9
$AUNITS
 70
     0
  9
$AUPREC
 70
     0
  9
$MENU
  1
.
  9
$ELEVATION
 40
0.0
  9
$PELEVATION
 40
0.0
  9
$THICKNESS
 40
0.0
  9
$LIMCHECK
 70
     0
  9
$CHAMFERA
 40
0.5
  9
$CHAMFERB
 40
0.5
  9
$CHAMFERC
 40
1.0
  9
$CHAMFERD
 40
0.0
  9
$SKPOLY
 70
     0
  9
$TDCREATE
 40
2458493.708418276
  9
$TDUCREATE
 40
2458493.708418276
  9
$TDUPDATE
 40
2458493.708418449
  9
$TDUUPDATE
 40
2458493.708418449
  9
$TDINDWG
 40
0.0000000116
  9
$TDUSRTIMER
 40
0.0000000116
  9
$USRTIMER
 70
     1
  9
$ANGBASE
 50
0.0
  9
$ANGDIR
 70
     0
  9
$PDMODE
 70
     0
  9
$PDSIZE
 40
0.0
  9
$PLINEWID
 40
0.0
  9
$SPLFRAME
 70
     0
  9
$SPLINETYPE
 70
     6
  9
$SPLINESEGS
 70
     8
  9
$HANDSEED
  5
97
  9
$SURFTAB1
 70
     6
  9
$SURFTAB2
 70
     6
  9
$SURFTYPE
 70
     6
  9
$SURFU
 70
     6
  9
$SURFV
 70
     6
  9
$UCSBASE
  2

  9
$UCSNAME
  2

  9
$UCSORG
 10
0.0
 20
0.0
 30
0.0
  9
$UCSXDIR
 10
1.0
 20
0.0
 30
0.0
  9
$UCSYDIR
 10
0.0
 20
1.0
 30
0.0
  9
$UCSORTHOREF
  2

  9
$UCSORTHOVIEW
 70
     0
  9
$UCSORGTOP
 10
0.0
 20
0.0
 30
0.0
  9
$UCSORGBOTTOM
 10
0.0
 20
0.0
 30
0.0
  9
$UCSORGLEFT
 10
0.0
 20
0.0
 30
0.0
  9
$UCSORGRIGHT
 10
0.0
 20
0.0
 30
0.0
  9
$UCSORGFRONT
 10
0.0
 20
0.0
 30
0.0
  9
$UCSORGBACK
 10
0.0
 20
0.0
 30
0.0
  9
$PUCSBASE
  2

  9
$PUCSNAME
  2

  9
$PUCSORG
 10
0.0
 20
0.0
 30
0.0
  9
$PUCSXDIR
 10
1.0
 20
0.0
 30
0.0
  9
$PUCSYDIR
 10
0.0
 20
1.0
 30
0.0
  9
$PUCSORTHOREF
  2

  9
$PUCSORTHOVIEW
 70
     0
  9
$PUCSORGTOP
 10
0.0
 20
0.0
 30
0.0
  9
$PUCSORGBOTTOM
 10
0.0
 20
0.0
 30
0.0
  9
$PUCSORGLEFT
 10
0.0
 20
0.0
 30
0.0
  9
$PUCSORGRIGHT
 10
0.0
 20
0.0
 30
0.0
  9
$PUCSORGFRONT
 10
0.0
 20
0.0
 30
0.0
  9
$PUCSORGBACK
 10
0.0
 20
0.0
 30
0.0
  9
$USERI1
 70
     0
  9
$USERI2
 70
     0
  9
$USERI3
 70
     0
  9
$USERI4
 70
     0
  9
$USERI5
 70
     0
  9
$USERR1
 40
0.0
  9
$USERR2
 40
0.0
  9
$USERR3
 40
0.0
  9
$USERR4
 40
0.0
  9
$USERR5
 40
0.0
  9
$WORLDVIEW
 70
     1
  9
$SHADEDGE
 70
     3
  9
$SHADEDIF
 70
    70
  9
$TILEMODE
 70
     1
  9
$MAXACTVP
 70
    64
  9
$PINSBASE
 10
0.0
 20
0.0
 30
0.0
  9
$PLIMCHECK
 70
     0
  9
$PEXTMIN
 10
1.000000000000000E+20
 20
1.000000000000000E+20
 30
1.000000000000000E+20
  9
$PEXTMAX
 10
-1.000000000000000E+20
 20
-1.000000000000000E+20
 30
-1.000000000000000E+20
  9
$PLIMMIN
 10
0.0
 20
0.0
  9
$PLIMMAX
 10
12.0
 20
9.0
  9
$UNITMODE
 70
     0
  9
$VISRETAIN
 70
     1
  9
$PLINEGEN
 70
     0
  9
$PSLTSCALE
 70
     1
  9
$TREEDEPTH
 70
  3020
  9
$CMLSTYLE
  2
Standard
  9
$CMLJUST
 70
     0
  9
$CMLSCALE
 40
1.0
  9
$PROXYGRAPHICS
 70
     1
  9
$MEASUREMENT
 70
     0
  9
$CELWEIGHT
370
    -1
  9
$ENDCAPS
280
     0
  9
$JOINSTYLE
280
     0
  9
$LWDISPLAY
290
     0
  9
$INSUNITS
 70
     4
  9
$HYPERLINKBASE
  1

  9
$STYLESHEET
  1

  9
$XEDIT
290
     1
  9
$CEPSNTYPE
380
     0
  9
$PSTYLEMODE
290
     1
  9
$FINGERPRINTGUID
  2
{3B786199-35D4-4C3E-8B46-2DAACED38852}
  9
$VERSIONGUID
  2
{FAEB1C32-E019-11D5-929B-00C0DF256EC4}
  9
$EXTNAMES
290
     1
  9
$PSVPSCALE
 40
0.0
  9
$OLESTARTUP
290
     0
  9
$SORTENTS
280
   127
  9
$INDEXCTL
280
     0
  9
$HIDETEXT
280
     1
  9
$XCLIPFRAME
290
     0
  9
$HALOGAP
280
     0
  9
$OBSCOLOR
 70
   257
  9
$OBSLTYPE
280
     0
  9
$INTERSECTIONDISPLAY
280
     0
  9
$INTERSECTIONCOLOR
 70
   257
  9
$DIMASSOC
280
     2
  9
$PROJECTNAME
  1

  9
$CAMERADISPLAY
290
     0
  9
$LENSLENGTH
 40
50.0
  9
$CAMERAHEIGHT
 40
0.0
  9
$STEPSPERSEC
 40
2.0
  9
$STEPSIZE
 40
6.0
  9
$3DDWFPREC
 40
2.0
  9
$PSOLWIDTH
 40
0.25
  9
$PSOLHEIGHT
 40
4.0
  9
$LOFTANG1
 40
1.570796326794897
  9
$LOFTANG2
 40
1.570796326794897
  9
$LOFTMAG1
 40
0.0
  9
$LOFTMAG2
 40
0.0
  9
$LOFTPARAM
 70
     7
  9
$LOFTNORMALS
280
     1
  9
$LATITUDE
 40
37.795
  9
$LONGITUDE
 40
-122.394
  9
$NORTHDIRECTION
 40
0.0
  9
$TIMEZONE
 70
 -8000
  9
$LIGHTGLYPHDISPLAY
280
     1
  9
$TILEMODELIGHTSYNCH
280
     1
  9
$SOLIDHIST
280
     1
  9
$SHOWHIST
280
     1
  9
$DWFFRAME
280
     2
  9
$DGNFRAME
280
     2
  9
$REALWORLDSCALE
290
     1
  9
$INTERFERECOLOR
 62
   256
  9
$CSHADOW
280
     0
  9
$SHADOWPLANELOCATION
 40
0.0
  0
ENDSEC
  0
SECTION
  2
CLASSES
  0
CLASS
  1
ACDBDICTIONARYWDFLT
  2
AcDbDictionaryWithDefault
  3
ObjectDBX Classes
 90
        0
 91
        4
280
     0
281
     0
  0
CLASS
  1
VISUALSTYLE
  2
AcDbVisualStyle
  3
ObjectDBX Classes
 90
     4095
 91
        4
280
     0
281
     0
  0
CLASS
  1
MATERIAL
  2
AcDbMaterial
  3
ObjectDBX Classes
 90
     1153
 91
        4
280
     0
281
     0
  0
ENDSEC
  0
SECTION
  2
TABLES
  0
TABLE
  2
VPORT
  5
8
330
0
100
AcDbSymbolTable
 70
     1
  0
VPORT
  5
29
330
8
100
AcDbSymbolTableRecord
100
AcDbViewportTableRecord
  2
*Active
 70
     0
 10
0.0
 20
0.0
 11
1.0
 21
1.0
 12
10.42990654205607
 22
4.5
 13
0.0
 23
0.0
 14
0.5
 24
0.5
 15
0.5
 25
0.5
 16
0.0
 26
0.0
 36
1.0
 17
0.0
 27
0.0
 37
0.0
 40
9.0
 41
1.972972972850329
 42
50.0
 43
0.0
 44
0.0
 50
0.0
 51
0.0
 71
     0
 72
   100
 73
     1
 74
     3
 75
     0
 76
     0
 77
     0
 78
     0
281
     0
 65
     1
110
0.0
120
0.0
130
0.0
111
1.0
121
0.0
131
0.0
112
0.0
122
1.0
132
0.0
 79
     0
146
0.0
 60
     3
 61
     5
292
     1
282
     1
141
0.0
142
0.0
 63
   250
  0
ENDTAB
  0
TABLE
  2
LTYPE
  5
5
330
0
100
AcDbSymbolTable
 70
     1
  0
LTYPE
  5
14
330
5
100
AcDbSymbolTableRecord
100
AcDbLinetypeTableRecord
  2
ByBlock
 70
     0
  3

 72
    65
 73
     0
 40
0.0
  0
LTYPE
  5
15
330
5
100
AcDbSymbolTableRecord
100
AcDbLinetypeTableRecord
  2
ByLayer
 70
     0
  3

 72
    65
 73
     0
 40
0.0
  0
LTYPE
  5
16
330
5
100
AcDbSymbolTableRecord
100
AcDbLinetypeTableRecord
  2
Continuous
 70
     0
  3
Solid line
 72
    65
 73
     0
 40
0.0
  0
ENDTAB
  0
TABLE
  2
LAYER
  5
2
330
0
100
AcDbSymbolTable
 70
     3
  0
LAYER
  5
10
330
2
100
AcDbSymbolTableRecord
100
AcDbLayerTableRecord
  2
0
 70
     0
 62
     7
  6
Continuous
370
    -3
390
F
347
3E
  0
LAYER
  5
40
330
2
100
AcDbSymbolTableRecord
100
AcDbLayerTableRecord
  2
layer 1
 70
     0
 62
     7
  6
Continuous
370
    -3
390
F
347
3E
  0
LAYER
  5
74
330
2
100
AcDbSymbolTableRecord
100
AcDbLayerTableRecord
  2
Master Guides
 70
     0
 62
     7
  6
Continuous
370
    -3
390
F
347
3E
  0
ENDTAB
  0
TABLE
  2
STYLE
  5
3
330
0
100
AcDbSymbolTable
 70
     1
  0
STYLE
  5
11
330
3
100
AcDbSymbolTableRecord
100
AcDbTextStyleTableRecord
  2
Standard
 70
     0
 40
0.0
 41
1.0
 50
0.0
 71
     0
 42
0.2
  3
txt
  4

  0
ENDTAB
  0
TABLE
  2
VIEW
  5
6
330
0
100
AcDbSymbolTable
 70
     0
  0
ENDTAB
  0
TABLE
  2
UCS
  5
7
330
0
100
AcDbSymbolTable
 70
     0
  0
ENDTAB
  0
TABLE
  2
APPID
  5
9
330
0
100
AcDbSymbolTable
 70
     2
  0
APPID
  5
12
330
9
100
AcDbSymbolTableRecord
100
AcDbRegAppTableRecord
  2
ACAD
 70
     0
  0
APPID
  5
3F
330
9
100
AcDbSymbolTableRecord
100
AcDbRegAppTableRecord
  2
ODA
 70
     0
  0
ENDTAB
  0
TABLE
  2
DIMSTYLE
  5
A
330
0
100
AcDbSymbolTable
 70
     1
100
AcDbDimStyleTable
  0
DIMSTYLE
105
27
330
A
100
AcDbSymbolTableRecord
100
AcDbDimStyleTableRecord
  2
Standard
 70
     0
178
     0
340
11
  0
ENDTAB
  0
TABLE
  2
BLOCK_RECORD
  5
1
330
0
100
AcDbSymbolTable
 70
     1
  0
BLOCK_RECORD
  5
1F
330
1
100
AcDbSymbolTableRecord
100
AcDbBlockTableRecord
  2
*Model_Space
340
22
 70
     0
280
     1
281
     0
  0
BLOCK_RECORD
  5
1B
330
1
100
AcDbSymbolTableRecord
100
AcDbBlockTableRecord
  2
*Paper_Space
340
1E
 70
     0
280
     1
281
     0
  0
BLOCK_RECORD
  5
23
330
1
100
AcDbSymbolTableRecord
100
AcDbBlockTableRecord
  2
*Paper_Space0
340
26
 70
     0
280
     1
281
     0
  0
ENDTAB
  0
ENDSEC
  0
SECTION
  2
BLOCKS
  0
BLOCK
  5
20
330
1F
100
AcDbEntity
  8
0
100
AcDbBlockBegin
  2
*Model_Space
 70
     0
 10
0.0
 20
0.0
 30
0.0
  3
*Model_Space
  1

  0
ENDBLK
  5
21
330
1F
100
AcDbEntity
  8
0
100
AcDbBlockEnd
  0
BLOCK
  5
1C
330
1B
100
AcDbEntity
 67
     1
  8
0
100
AcDbBlockBegin
  2
*Paper_Space
 70
     0
 10
0.0
 20
0.0
 30
0.0
  3
*Paper_Space
  1

  0
ENDBLK
  5
1D
330
1B
100
AcDbEntity
 67
     1
  8
0
100
AcDbBlockEnd
  0
BLOCK
  5
24
330
23
100
AcDbEntity
  8
0
100
AcDbBlockBegin
  2
*Paper_Space0
 70
     0
 10
0.0
 20
0.0
 30
0.0
  3
*Paper_Space0
  1

  0
ENDBLK
  5
25
330
23
100
AcDbEntity
  8
0
100
AcDbBlockEnd
  0
ENDSEC
  0
SECTION
  2
ENTITIES
  0
SPLINE
  5
41
330
1F
100
AcDbEntity
  8
layer 1
100
AcDbSpline
210
0.0
220
0.0
230
1.0
 70
     8
 71
     3
 72
    36
 73
    32
 74
     0
 42
0.0000000001
 43
0.0000000001
 12
1.0
 22
0.0
 32
0.0
 13
1.0
 23
0.0
 33
0.0
 40
0.0
 40
0.0
 40
0.0
 40
0.0
 40
0.1111111111111111
 40
0.1111111111111111
 40
0.1111111111111111
 40
0.1111111111111111
 40
0.2222222222222222
 40
0.2222222222222222
 40
0.2222222222222222
 40
0.2222222222222222
 40
0.3333333333333333
 40
0.3333333333333333
 40
0.3333333333333333
 40
0.3333333333333333
 40
0.4444444444444444
 40
0.4444444444444444
 40
0.4444444444444444
 40
0.4444444444444444
 40
0.5555555555555556
 40
0.5555555555555556
 40
0.5555555555555556
 40
0.5555555555555556
 40
0.6666666666666666
 40
0.6666666666666666
 40
0.6666666666666666
 40
0.6666666666666666
 40
0.7777777777777778
 40
0.7777777777777778
 40
0.7777777777777778
 40
0.7777777777777778
 40
1.0
 40
1.0
 40
1.0
 40
1.0
 10
-187.1552
 20
131.8595
 30
0.0
 10
-187.1552
 20
131.8595
 30
0.0
 10
-61.9675
 20
131.8595
 30
0.0
 10
-61.9675
 20
131.8595
 30
0.0
 10
-61.9675
 20
131.8595
 30
0.0
 10
-61.9656
 20
131.8595
 30
0.0
 10
-61.964
 20
131.8579
 30
0.0
 10
-61.964
 20
131.8561
 30
0.0
 10
-61.964
 20
131.8561
 30
0.0
 10
-61.964
 20
131.8561
 30
0.0
 10
-61.9639
 20
-106.3906
 30
0.0
 10
-61.9639
 20
-106.3906
 30
0.0
 10
-61.9639
 20
-106.3906
 30
0.0
 10
-61.964
 20
-106.3924
 30
0.0
 10
-61.9656
 20
-106.394
 30
0.0
 10
-61.9676
 20
-106.394
 30
0.0
 10
-61.9676
 20
-106.394
 30
0.0
 10
-61.9676
 20
-106.394
 30
0.0
 10
-187.1552
 20
-106.3941
 30
0.0
 10
-187.1552
 20
-106.3941
 30
0.0
 10
-187.1552
 20
-106.3941
 30
0.0
 10
-187.1571
 20
-106.394
 30
0.0
 10
-187.1587
 20
-106.3924
 30
0.0
 10
-187.1587
 20
-106.3906
 30
0.0
 10
-187.1587
 20
-106.3906
 30
0.0
 10
-187.1587
 20
-106.3906
 30
0.0
 10
-187.1588
 20
131.8561
 30
0.0
 10
-187.1588
 20
131.8561
 30
0.0
 10
-187.1588
 20
131.8561
 30
0.0
 10
-187.1587
 20
131.8579
 30
0.0
 10
-187.1571
 20
131.8595
 30
0.0
 10
-187.1551
 20
131.8595
 30
0.0
  0
SPLINE
  5
42
330
1F
100
AcDbEntity
  8
layer 1
 62
     7
100
AcDbSpline
210
0.0
220
0.0
230
1.0
 70
    11
 71
     3
 72
    28
 73
    24
 74
     0
 42
0.0000000001
 43
0.0000000001
 12
1.0
 22
0.0
 32
0.0
 13
1.0
 23
0.0
 33
0.0
 40
0.0
 40
0.0
 40
0.0
 40
0.0
 40
0.1428571428571428
 40
0.1428571428571428
 40
0.1428571428571428
 40
0.1428571428571428
 40
0.2857142857142857
 40
0.2857142857142857
 40
0.2857142857142857
 40
0.2857142857142857
 40
0.4285714285714285
 40
0.4285714285714285
 40
0.4285714285714285
 40
0.4285714285714285
 40
0.5714285714285714
 40
0.5714285714285714
 40
0.5714285714285714
 40
0.5714285714285714
 40
0.7142857142857143
 40
0.7142857142857143
 40
0.7142857142857143
 40
0.7142857142857143
 40
1.0
 40
1.0
 40
1.0
 40
1.0
 10
-135.6165
 20
67.9761
 30
0.0
 10
-135.6165
 20
67.9761
 30
0.0
 10
-156.8796
 20
68.0271
 30
0.0
 10
-156.8796
 20
68.0271
 30
0.0
 10
-156.8796
 20
68.0271
 30
0.0
 10
-158.132
 20
68.0324
 30
0.0
 10
-158.6394
 20
67.9833
 30
0.0
 10
-159.6522
 20
66.236
 30
0.0
 10
-159.6522
 20
66.236
 30
0.0
 10
-159.6522
 20
66.236
 30
0.0
 10
-169.2116
 20
49.3633
 30
0.0
 10
-169.2116
 20
49.3633
 30
0.0
 10
-169.2116
 20
49.3633
 30
0.0
 10
-170.2043
 20
47.6759
 30
0.0
 10
-168.6778
 20
46.6338
 30
0.0
 10
-167.2324
 20
47.4339
 30
0.0
 10
-167.2324
 20
47.4339
 30
0.0
 10
-167.2324
 20
47.4339
 30
0.0
 10
-134.9945
 20
65.2639
 30
0.0
 10
-134.9945
 20
65.2639
 30
0.0
 10
-134.9945
 20
65.2639
 30
0.0
 10
-133.6579
 20
66.0807
 30
0.0
 10
-133.9548
 20
67.8541
 30
0.0
 10
-135.6165
 20
67.9761
 30
0.0
  0
SPLINE
  5
43
330
1F
100
AcDbEntity
  8
layer 1
 62
     7
100
AcDbSpline
210
0.0
220
0.0
230
1.0
 70
    11
 71
     3
 72
    32
 73
    28
 74
     0
 42
0.0000000001
 43
0.0000000001
 12
1.0
 22
0.0
 32
0.0
 13
1.0
 23
0.0
 33
0.0
 40
0.0
 40
0.0
 40
0.0
 40
0.0
 40
0.125
 40
0.125
 40
0.125
 40
0.125
 40
0.25
 40
0.25
 40
0.25
 40
0.25
 40
0.375
 40
0.375
 40
0.375
 40
0.375
 40
0.5
 40
0.5
 40
0.5
 40
0.5
 40
0.625
 40
0.625
 40
0.625
 40
0.625
 40
0.75
 40
0.75
 40
0.75
 40
0.75
 40
1.0
 40
1.0
 40
1.0
 40
1.0
 10
-135.6165
 20
71.2631
 30
0.0
 10
-135.6165
 20
71.2631
 30
0.0
 10
-156.8796
 20
71.2121
 30
0.0
 10
-156.8796
 20
71.2121
 30
0.0
 10
-156.8796
 20
71.2121
 30
0.0
 10
-158.132
 20
71.2068
 30
0.0
 10
-158.6394
 20
71.2559
 30
0.0
 10
-159.6522
 20
73.0033
 30
0.0
 10
-159.6522
 20
73.0033
 30
0.0
 10
-159.6522
 20
73.0033
 30
0.0
 10
-169.2116
 20
89.8759
 30
0.0
 10
-169.2116
 20
89.8759
 30
0.0
 10
-169.2116
 20
89.8759
 30
0.0
 10
-170.2043
 20
91.5633
 30
0.0
 10
-168.6778
 20
92.6055
 30
0.0
 10
-167.2324
 20
91.8054
 30
0.0
 10
-167.2324
 20
91.8054
 30
0.0
 10
-167.2324
 20
91.8054
 30
0.0
 10
-134.9945
 20
73.8439
 30
0.0
 10
-134.9945
 20
73.8439
 30
0.0
 10
-134.9945
 20
73.8439
 30
0.0
 10
-133.6579
 20
73.0271
 30
0.0
 10
-133.9548
 20
71.3851
 30
0.0
 10
-135.6165
 20
71.2632
 30
0.0
 10
-135.6165
 20
71.2632
 30
0.0
 10
-135.6165
 20
71.2632
 30
0.0
 10
-135.6165
 20
71.2631
 30
0.0
 10
-135.6165
 20
71.2631
 30
0.0
  0
SPLINE
  5
44
330
1F
100
AcDbEntity
  8
layer 1
 62
     7
100
AcDbSpline
210
0.0
220
0.0
230
1.0
 70
    11
 71
     3
 72
    28
 73
    24
 74
     0
 42
0.0000000001
 43
0.0000000001
 12
1.0
 22
0.0
 32
0.0
 13
1.0
 23
0.0
 33
0.0
 40
0.0
 40
0.0
 40
0.0
 40
0.0
 40
0.1428571428571428
 40
0.1428571428571428
 40
0.1428571428571428
 40
0.1428571428571428
 40
0.2857142857142857
 40
0.2857142857142857
 40
0.2857142857142857
 40
0.2857142857142857
 40
0.4285714285714285
 40
0.4285714285714285
 40
0.4285714285714285
 40
0.4285714285714285
 40
0.5714285714285714
 40
0.5714285714285714
 40
0.5714285714285714
 40
0.5714285714285714
 40
0.7142857142857143
 40
0.7142857142857143
 40
0.7142857142857143
 40
0.7142857142857143
 40
1.0
 40
1.0
 40
1.0
 40
1.0
 10
-114.5064
 20
67.9761
 30
0.0
 10
-114.5064
 20
67.9761
 30
0.0
 10
-93.2433
 20
68.0271
 30
0.0
 10
-93.2433
 20
68.0271
 30
0.0
 10
-93.2433
 20
68.0271
 30
0.0
 10
-91.9908
 20
68.0324
 30
0.0
 10
-91.4834
 20
67.9833
 30
0.0
 10
-90.4706
 20
66.236
 30
0.0
 10
-90.4706
 20
66.236
 30
0.0
 10
-90.4706
 20
66.236
 30
0.0
 10
-80.9113
 20
49.3633
 30
0.0
 10
-80.9113
 20
49.3633
 30
0.0
 10
-80.9113
 20
49.3633
 30
0.0
 10
-79.9185
 20
47.6759
 30
0.0
 10
-81.4451
 20
46.6338
 30
0.0
 10
-82.8905
 20
47.4339
 30
0.0
 10
-82.8905
 20
47.4339
 30
0.0
 10
-82.8905
 20
47.4339
 30
0.0
 10
-115.1283
 20
65.2639
 30
0.0
 10
-115.1283
 20
65.2639
 30
0.0
 10
-115.1283
 20
65.2639
 30
0.0
 10
-116.465
 20
66.0807
 30
0.0
 10
-116.168
 20
67.8541
 30
0.0
 10
-114.5064
 20
67.9761
 30
0.0
  0
SPLINE
  5
45
330
1F
100
AcDbEntity
  8
layer 1
 62
     7
100
AcDbSpline
210
0.0
220
0.0
230
1.0
 70
    11
 71
     3
 72
    32
 73
    28
 74
     0
 42
0.0000000001
 43
0.0000000001
 12
1.0
 22
0.0
 32
0.0
 13
1.0
 23
0.0
 33
0.0
 40
0.0
 40
0.0
 40
0.0
 40
0.0
 40
0.125
 40
0.125
 40
0.125
 40
0.125
 40
0.25
 40
0.25
 40
0.25
 40
0.25
 40
0.375
 40
0.375
 40
0.375
 40
0.375
 40
0.5
 40
0.5
 40
0.5
 40
0.5
 40
0.625
 40
0.625
 40
0.625
 40
0.625
 40
0.75
 40
0.75
 40
0.75
 40
0.75
 40
1.0
 40
1.0
 40
1.0
 40
1.0
 10
-114.5064
 20
71.2631
 30
0.0
 10
-114.5064
 20
71.2631
 30
0.0
 10
-93.2433
 20
71.2121
 30
0.0
 10
-93.2433
 20
71.2121
 30
0.0
 10
-93.2433
 20
71.2121
 30
0.0
 10
-91.9908
 20
71.2068
 30
0.0
 10
-91.4834
 20
71.2559
 30
0.0
 10
-90.4706
 20
73.0033
 30
0.0
 10
-90.4706
 20
73.0033
 30
0.0
 10
-90.4706
 20
73.0033
 30
0.0
 10
-80.9113
 20
89.8759
 30
0.0
 10
-80.9113
 20
89.8759
 30
0.0
 10
-80.9113
 20
89.8759
 30
0.0
 10
-79.9185
 20
91.5633
 30
0.0
 10
-81.4451
 20
92.6054
 30
0.0
 10
-82.8905
 20
91.8053
 30
0.0
 10
-82.8905
 20
91.8053
 30
0.0
 10
-82.8905
 20
91.8053
 30
0.0
 10
-115.1284
 20
73.8438
 30
0.0
 10
-115.1284
 20
73.8438
 30
0.0
 10
-115.1284
 20
73.8438
 30
0.0
 10
-116.465
 20
73.027
 30
0.0
 10
-116.1681
 20
71.385
 30
0.0
 10
-114.5064
 20
71.2631
 30
0.0
 10
-114.5064
 20
71.2631
 30
0.0
 10
-114.5064
 20
71.2631
 30
0.0
 10
-114.5064
 20
71.2631
 30
0.0
 10
-114.5064
 20
71.2631
 30
0.0
  0
SPLINE
  5
46
330
1F
100
AcDbEntity
  8
layer 1
 62
     7
100
AcDbSpline
210
0.0
220
0.0
230
1.0
 70
    11
 71
     3
 72
    32
 73
    28
 74
     0
 42
0.0000000001
 43
0.0000000001
 12
1.0
 22
0.0
 32
0.0
 13
1.0
 23
0.0
 33
0.0
 40
0.0
 40
0.0
 40
0.0
 40
0.0
 40
0.125
 40
0.125
 40
0.125
 40
0.125
 40
0.25
 40
0.25
 40
0.25
 40
0.25
 40
0.375
 40
0.375
 40
0.375
 40
0.375
 40
0.5
 40
0.5
 40
0.5
 40
0.5
 40
0.625
 40
0.625
 40
0.625
 40
0.625
 40
0.75
 40
0.75
 40
0.75
 40
0.75
 40
1.0
 40
1.0
 40
1.0
 40
1.0
 10
-85.4749
 20
96.938
 30
0.0
 10
-85.4749
 20
96.938
 30
0.0
 10
-106.738
 20
96.989
 30
0.0
 10
-106.738
 20
96.989
 30
0.0
 10
-106.738
 20
96.989
 30
0.0
 10
-107.9904
 20
96.9943
 30
0.0
 10
-108.4978
 20
96.9452
 30
0.0
 10
-109.5106
 20
95.1978
 30
0.0
 10
-109.5106
 20
95.1978
 30
0.0
 10
-109.5106
 20
95.1978
 30
0.0
 10
-119.0699
 20
78.3252
 30
0.0
 10
-119.0699
 20
78.3252
 30
0.0
 10
-119.0699
 20
78.3252
 30
0.0
 10
-120.0627
 20
76.6378
 30
0.0
 10
-118.5362
 20
75.5956
 30
0.0
 10
-117.0907
 20
76.3958
 30
0.0
 10
-117.0907
 20
76.3958
 30
0.0
 10
-117.0907
 20
76.3958
 30
0.0
 10
-84.8529
 20
94.3573
 30
0.0
 10
-84.8529
 20
94.3573
 30
0.0
 10
-84.8529
 20
94.3573
 30
0.0
 10
-83.5162
 20
95.174
 30
0.0
 10
-83.8132
 20
96.816
 30
0.0
 10
-85.4748
 20
96.938
 30
0.0
 10
-85.4748
 20
96.938
 30
0.0
 10
-85.4748
 20
96.938
 30
0.0
 10
-85.4749
 20
96.938
 30
0.0
 10
-85.4749
 20
96.938
 30
0.0
  0
SPLINE
  5
47
330
1F
100
AcDbEntity
  8
layer 1
 62
     7
100
AcDbSpline
210
0.0
220
0.0
230
1.0
 70
    11
 71
     3
 72
    32
 73
    28
 74
     0
 42
0.0000000001
 43
0.0000000001
 12
1.0
 22
0.0
 32
0.0
 13
1.0
 23
0.0
 33
0.0
 40
0.0
 40
0.0
 40
0.0
 40
0.0
 40
0.125
 40
0.125
 40
0.125
 40
0.125
 40
0.25
 40
0.25
 40
0.25
 40
0.25
 40
0.375
 40
0.375
 40
0.375
 40
0.375
 40
0.5
 40
0.5
 40
0.5
 40
0.5
 40
0.625
 40
0.625
 40
0.625
 40
0.625
 40
0.75
 40
0.75
 40
0.75
 40
0.75
 40
1.0
 40
1.0
 40
1.0
 40
1.0
 10
-164.5656
 20
96.938
 30
0.0
 10
-164.5656
 20
96.938
 30
0.0
 10
-143.3025
 20
96.989
 30
0.0
 10
-143.3025
 20
96.989
 30
0.0
 10
-143.3025
 20
96.989
 30
0.0
 10
-142.05
 20
96.9943
 30
0.0
 10
-141.5426
 20
96.9452
 30
0.0
 10
-140.5298
 20
95.1978
 30
0.0
 10
-140.5298
 20
95.1978
 30
0.0
 10
-140.5298
 20
95.1978
 30
0.0
 10
-130.9705
 20
78.3252
 30
0.0
 10
-130.9705
 20
78.3252
 30
0.0
 10
-130.9705
 20
78.3252
 30
0.0
 10
-129.9777
 20
76.6378
 30
0.0
 10
-131.5043
 20
75.5956
 30
0.0
 10
-132.9497
 20
76.3958
 30
0.0
 10
-132.9497
 20
76.3958
 30
0.0
 10
-132.9497
 20
76.3958
 30
0.0
 10
-165.1875
 20
94.3572
 30
0.0
 10
-165.1875
 20
94.3572
 30
0.0
 10
-165.1875
 20
94.3572
 30
0.0
 10
-166.5242
 20
95.174
 30
0.0
 10
-166.2272
 20
96.8159
 30
0.0
 10
-164.5656
 20
96.9379
 30
0.0
 10
-164.5656
 20
96.9379
 30
0.0
 10
-164.5656
 20
96.9379
 30
0.0
 10
-164.5656
 20
96.938
 30
0.0
 10
-164.5656
 20
96.938
 30
0.0
  0
SPLINE
  5
48
330
1F
100
AcDbEntity
  8
layer 1
 62
     7
100
AcDbSpline
210
0.0
220
0.0
230
1.0
 70
    11
 71
     3
 72
    32
 73
    28
 74
     0
 42
0.0000000001
 43
0.0000000001
 12
1.0
 22
0.0
 32
0.0
 13
1.0
 23
0.0
 33
0.0
 40
0.0
 40
0.0
 40
0.0
 40
0.0
 40
0.125
 40
0.125
 40
0.125
 40
0.125
 40
0.25
 40
0.25
 40
0.25
 40
0.25
 40
0.375
 40
0.375
 40
0.375
 40
0.375
 40
0.5
 40
0.5
 40
0.5
 40
0.5
 40
0.625
 40
0.625
 40
0.625
 40
0.625
 40
0.75
 40
0.75
 40
0.75
 40
0.75
 40
1.0
 40
1.0
 40
1.0
 40
1.0
 10
-85.4749
 20
42.0693
 30
0.0
 10
-85.4749
 20
42.0693
 30
0.0
 10
-106.738
 20
42.0182
 30
0.0
 10
-106.738
 20
42.0182
 30
0.0
 10
-106.738
 20
42.0182
 30
0.0
 10
-107.9904
 20
42.013
 30
0.0
 10
-108.4978
 20
42.062
 30
0.0
 10
-109.5106
 20
43.8094
 30
0.0
 10
-109.5106
 20
43.8094
 30
0.0
 10
-109.5106
 20
43.8094
 30
0.0
 10
-119.0699
 20
60.682
 30
0.0
 10
-119.0699
 20
60.682
 30
0.0
 10
-119.0699
 20
60.682
 30
0.0
 10
-120.0627
 20
62.3694
 30
0.0
 10
-118.5362
 20
63.4116
 30
0.0
 10
-117.0907
 20
62.6115
 30
0.0
 10
-117.0907
 20
62.6115
 30
0.0
 10
-117.0907
 20
62.6115
 30
0.0
 10
-84.8529
 20
44.65
 30
0.0
 10
-84.8529
 20
44.65
 30
0.0
 10
-84.8529
 20
44.65
 30
0.0
 10
-83.5162
 20
43.8332
 30
0.0
 10
-83.8132
 20
42.1912
 30
0.0
 10
-85.4748
 20
42.0693
 30
0.0
 10
-85.4748
 20
42.0693
 30
0.0
 10
-85.4748
 20
42.0693
 30
0.0
 10
-85.4749
 20
42.0693
 30
0.0
 10
-85.4749
 20
42.0693
 30
0.0
  0
SPLINE
  5
49
330
1F
100
AcDbEntity
  8
layer 1
 62
     7
100
AcDbSpline
210
0.0
220
0.0
230
1.0
 70
    11
 71
     3
 72
    32
 73
    28
 74
     0
 42
0.0000000001
 43
0.0000000001
 12
1.0
 22
0.0
 32
0.0
 13
1.0
 23
0.0
 33
0.0
 40
0.0
 40
0.0
 40
0.0
 40
0.0
 40
0.125
 40
0.125
 40
0.125
 40
0.125
 40
0.25
 40
0.25
 40
0.25
 40
0.25
 40
0.375
 40
0.375
 40
0.375
 40
0.375
 40
0.5
 40
0.5
 40
0.5
 40
0.5
 40
0.625
 40
0.625
 40
0.625
 40
0.625
 40
0.75
 40
0.75
 40
0.75
 40
0.75
 40
1.0
 40
1.0
 40
1.0
 40
1.0
 10
-164.5656
 20
42.0693
 30
0.0
 10
-164.5656
 20
42.0693
 30
0.0
 10
-143.3025
 20
42.0182
 30
0.0
 10
-143.3025
 20
42.0182
 30
0.0
 10
-143.3025
 20
42.0182
 30
0.0
 10
-142.05
 20
42.013
 30
0.0
 10
-141.5426
 20
42.062
 30
0.0
 10
-140.5298
 20
43.8094
 30
0.0
 10
-140.5298
 20
43.8094
 30
0.0
 10
-140.5298
 20
43.8094
 30
0.0
 10
-130.9705
 20
60.682
 30
0.0
 10
-130.9705
 20
60.682
 30
0.0
 10
-130.9705
 20
60.682
 30
0.0
 10
-129.9777
 20
62.3694
 30
0.0
 10
-131.5043
 20
63.4116
 30
0.0
 10
-132.9497
 20
62.6115
 30
0.0
 10
-132.9497
 20
62.6115
 30
0.0
 10
-132.9497
 20
62.6115
 30
0.0
 10
-165.1876
 20
44.65
 30
0.0
 10
-165.1876
 20
44.65
 30
0.0
 10
-165.1876
 20
44.65
 30
0.0
 10
-166.5242
 20
43.8332
 30
0.0
 10
-166.2273
 20
42.1912
 30
0.0
 10
-164.5656
 20
42.0693
 30
0.0
 10
-164.5656
 20
42.0693
 30
0.0
 10
-164.5656
 20
42.0693
 30
0.0
 10
-164.5656
 20
42.0693
 30
0.0
 10
-164.5656
 20
42.0693
 30
0.0
  0
SPLINE
  5
4A
330
1F
100
AcDbEntity
  8
layer 1
 62
     7
100
AcDbSpline
210
0.0
220
0.0
230
1.0
 70
    11
 71
     3
 72
    32
 73
    28
 74
     0
 42
0.0000000001
 43
0.0000000001
 12
1.0
 22
0.0
 32
0.0
 13
1.0
 23
0.0
 33
0.0
 40
0.0
 40
0.0
 40
0.0
 40
0.0
 40
0.125
 40
0.125
 40
0.125
 40
0.125
 40
0.25
 40
0.25
 40
0.25
 40
0.25
 40
0.375
 40
0.375
 40
0.375
 40
0.375
 40
0.5
 40
0.5
 40
0.5
 40
0.5
 40
0.625
 40
0.625
 40
0.625
 40
0.625
 40
0.75
 40
0.75
 40
0.75
 40
0.75
 40
1.0
 40
1.0
 40
1.0
 40
1.0
 10
-129.143
 20
115.5294
 30
0.0
 10
-129.143
 20
115.5294
 30
0.0
 10
-138.0009
 20
100.1419
 30
0.0
 10
-138.0009
 20
100.1419
 30
0.0
 10
-138.0009
 20
100.1419
 30
0.0
 10
-138.6318
 20
99.0599
 30
0.0
 10
-138.8429
 20
98.596
 30
0.0
 10
-137.8361
 20
96.8452
 30
0.0
 10
-137.8361
 20
96.8452
 30
0.0
 10
-137.8361
 20
96.8452
 30
0.0
 10
-129.3986
 20
82.2017
 30
0.0
 10
-129.3986
 20
82.2017
 30
0.0
 10
-129.3986
 20
82.2017
 30
0.0
 10
-128.4337
 20
80.4982
 30
0.0
 10
-126.6834
 20
81.3415
 30
0.0
 10
-126.6536
 20
82.9933
 30
0.0
 10
-126.6536
 20
82.9933
 30
0.0
 10
-126.6536
 20
82.9933
 30
0.0
 10
-126.5971
 20
114.7777
 30
0.0
 10
-126.5971
 20
114.7777
 30
0.0
 10
-126.5971
 20
114.7777
 30
0.0
 10
-126.6361
 20
116.3436
 30
0.0
 10
-128.2066
 20
116.9074
 30
0.0
 10
-129.143
 20
115.5294
 30
0.0
 10
-129.143
 20
115.5294
 30
0.0
 10
-129.143
 20
115.5294
 30
0.0
 10
-129.143
 20
115.5294
 30
0.0
 10
-129.143
 20
115.5294
 30
0.0
  0
SPLINE
  5
4B
330
1F
100
AcDbEntity
  8
layer 1
 62
     7
100
AcDbSpline
210
0.0
220
0.0
230
1.0
 70
    11
 71
     3
 72
    28
 73
    24
 74
     0
 42
0.0000000001
 43
0.0000000001
 12
1.0
 22
0.0
 32
0.0
 13
1.0
 23
0.0
 33
0.0
 40
0.0
 40
0.0
 40
0.0
 40
0.0
 40
0.1428571428571428
 40
0.1428571428571428
 40
0.1428571428571428
 40
0.1428571428571428
 40
0.2857142857142857
 40
0.2857142857142857
 40
0.2857142857142857
 40
0.2857142857142857
 40
0.4285714285714285
 40
0.4285714285714285
 40
0.4285714285714285
 40
0.4285714285714285
 40
0.5714285714285714
 40
0.5714285714285714
 40
0.5714285714285714
 40
0.5714285714285714
 40
0.7142857142857143
 40
0.7142857142857143
 40
0.7142857142857143
 40
0.7142857142857143
 40
1.0
 40
1.0
 40
1.0
 40
1.0
 10
-120.768
 20
115.5294
 30
0.0
 10
-120.768
 20
115.5294
 30
0.0
 10
-111.91
 20
100.1419
 30
0.0
 10
-111.91
 20
100.1419
 30
0.0
 10
-111.91
 20
100.1419
 30
0.0
 10
-111.2792
 20
99.0599
 30
0.0
 10
-111.0681
 20
98.596
 30
0.0
 10
-112.0749
 20
96.8452
 30
0.0
 10
-112.0749
 20
96.8452
 30
0.0
 10
-112.0749
 20
96.8452
 30
0.0
 10
-120.5124
 20
82.2017
 30
0.0
 10
-120.5124
 20
82.2017
 30
0.0
 10
-120.5124
 20
82.2017
 30
0.0
 10
-121.4773
 20
80.4982
 30
0.0
 10
-123.2276
 20
81.3415
 30
0.0
 10
-123.2574
 20
82.9933
 30
0.0
 10
-123.2574
 20
82.9933
 30
0.0
 10
-123.2574
 20
82.9933
 30
0.0
 10
-123.314
 20
114.7777
 30
0.0
 10
-123.314
 20
114.7777
 30
0.0
 10
-123.314
 20
114.7777
 30
0.0
 10
-123.275
 20
116.3436
 30
0.0
 10
-121.7045
 20
116.9074
 30
0.0
 10
-120.768
 20
115.5294
 30
0.0
  0
SPLINE
  5
4C
330
1F
100
AcDbEntity
  8
layer 1
 62
     7
100
AcDbSpline
210
0.0
220
0.0
230
1.0
 70
    11
 71
     3
 72
    32
 73
    28
 74
     0
 42
0.0000000001
 43
0.0000000001
 12
1.0
 22
0.0
 32
0.0
 13
1.0
 23
0.0
 33
0.0
 40
0.0
 40
0.0
 40
0.0
 40
0.0
 40
0.125
 40
0.125
 40
0.125
 40
0.125
 40
0.25
 40
0.25
 40
0.25
 40
0.25
 40
0.375
 40
0.375
 40
0.375
 40
0.375
 40
0.5
 40
0.5
 40
0.5
 40
0.5
 40
0.625
 40
0.625
 40
0.625
 40
0.625
 40
0.75
 40
0.75
 40
0.75
 40
0.75
 40
1.0
 40
1.0
 40
1.0
 40
1.0
 10
-85.2407
 20
100.4985
 30
0.0
 10
-85.2407
 20
100.4985
 30
0.0
 10
-106.5038
 20
100.4475
 30
0.0
 10
-106.5038
 20
100.4475
 30
0.0
 10
-106.5038
 20
100.4475
 30
0.0
 10
-107.7562
 20
100.4422
 30
0.0
 10
-108.2636
 20
100.4913
 30
0.0
 10
-109.2765
 20
102.2387
 30
0.0
 10
-109.2765
 20
102.2387
 30
0.0
 10
-109.2765
 20
102.2387
 30
0.0
 10
-118.8357
 20
119.1114
 30
0.0
 10
-118.8357
 20
119.1114
 30
0.0
 10
-118.8357
 20
119.1114
 30
0.0
 10
-119.8285
 20
120.7987
 30
0.0
 10
-118.302
 20
121.8409
 30
0.0
 10
-116.8565
 20
121.0408
 30
0.0
 10
-116.8565
 20
121.0408
 30
0.0
 10
-116.8565
 20
121.0408
 30
0.0
 10
-84.6187
 20
103.0793
 30
0.0
 10
-84.6187
 20
103.0793
 30
0.0
 10
-84.6187
 20
103.0793
 30
0.0
 10
-83.2821
 20
102.2625
 30
0.0
 10
-83.5791
 20
100.6205
 30
0.0
 10
-85.2407
 20
100.4986
 30
0.0
 10
-85.2407
 20
100.4986
 30
0.0
 10
-85.2407
 20
100.4986
 30
0.0
 10
-85.2407
 20
100.4985
 30
0.0
 10
-85.2407
 20
100.4985
 30
0.0
  0
SPLINE
  5
4D
330
1F
100
AcDbEntity
  8
layer 1
 62
     7
100
AcDbSpline
210
0.0
220
0.0
230
1.0
 70
    11
 71
     3
 72
    32
 73
    28
 74
     0
 42
0.0000000001
 43
0.0000000001
 12
1.0
 22
0.0
 32
0.0
 13
1.0
 23
0.0
 33
0.0
 40
0.0
 40
0.0
 40
0.0
 40
0.0
 40
0.125
 40
0.125
 40
0.125
 40
0.125
 40
0.25
 40
0.25
 40
0.25
 40
0.25
 40
0.375
 40
0.375
 40
0.375
 40
0.375
 40
0.5
 40
0.5
 40
0.5
 40
0.5
 40
0.625
 40
0.625
 40
0.625
 40
0.625
 40
0.75
 40
0.75
 40
0.75
 40
0.75
 40
1.0
 40
1.0
 40
1.0
 40
1.0
 10
-164.4488
 20
100.4985
 30
0.0
 10
-164.4488
 20
100.4985
 30
0.0
 10
-143.1857
 20
100.4475
 30
0.0
 10
-143.1857
 20
100.4475
 30
0.0
 10
-143.1857
 20
100.4475
 30
0.0
 10
-141.9332
 20
100.4422
 30
0.0
 10
-141.4259
 20
100.4913
 30
0.0
 10
-140.413
 20
102.2387
 30
0.0
 10
-140.413
 20
102.2387
 30
0.0
 10
-140.413
 20
102.2387
 30
0.0
 10
-130.8537
 20
119.1114
 30
0.0
 10
-130.8537
 20
119.1114
 30
0.0
 10
-130.8537
 20
119.1114
 30
0.0
 10
-129.8609
 20
120.7987
 30
0.0
 10
-131.3875
 20
121.8409
 30
0.0
 10
-132.8329
 20
121.0408
 30
0.0
 10
-132.8329
 20
121.0408
 30
0.0
 10
-132.8329
 20
121.0408
 30
0.0
 10
-165.0708
 20
103.0793
 30
0.0
 10
-165.0708
 20
103.0793
 30
0.0
 10
-165.0708
 20
103.0793
 30
0.0
 10
-166.4074
 20
102.2625
 30
0.0
 10
-166.1104
 20
100.6205
 30
0.0
 10
-164.4488
 20
100.4986
 30
0.0
 10
-164.4488
 20
100.4986
 30
0.0
 10
-164.4488
 20
100.4986
 30
0.0
 10
-164.4488
 20
100.4985
 30
0.0
 10
-164.4488
 20
100.4985
 30
0.0
  0
SPLINE
  5
4E
330
1F
100
AcDbEntity
  8
layer 1
 62
     7
100
AcDbSpline
210
0.0
220
0.0
230
1.0
 70
    11
 71
     3
 72
    32
 73
    28
 74
     0
 42
0.0000000001
 43
0.0000000001
 12
1.0
 22
0.0
 32
0.0
 13
1.0
 23
0.0
 33
0.0
 40
0.0
 40
0.0
 40
0.0
 40
0.0
 40
0.125
 40
0.125
 40
0.125
 40
0.125
 40
0.25
 40
0.25
 40
0.25
 40
0.25
 40
0.375
 40
0.375
 40
0.375
 40
0.375
 40
0.5
 40
0.5
 40
0.5
 40
0.5
 40
0.625
 40
0.625
 40
0.625
 40
0.625
 40
0.75
 40
0.75
 40
0.75
 40
0.75
 40
1.0
 40
1.0
 40
1.0
 40
1.0
 10
-129.2494
 20
57.2014
 30
0.0
 10
-129.2494
 20
57.2014
 30
0.0
 10
-138.1074
 20
41.814
 30
0.0
 10
-138.1074
 20
41.814
 30
0.0
 10
-138.1074
 20
41.814
 30
0.0
 10
-138.7382
 20
40.732
 30
0.0
 10
-138.9494
 20
40.2681
 30
0.0
 10
-137.9425
 20
38.5172
 30
0.0
 10
-137.9425
 20
38.5172
 30
0.0
 10
-137.9425
 20
38.5172
 30
0.0
 10
-129.5051
 20
23.8738
 30
0.0
 10
-129.5051
 20
23.8738
 30
0.0
 10
-129.5051
 20
23.8738
 30
0.0
 10
-128.5402
 20
22.1703
 30
0.0
 10
-126.7898
 20
23.0136
 30
0.0
 10
-126.7601
 20
24.6654
 30
0.0
 10
-126.7601
 20
24.6654
 30
0.0
 10
-126.7601
 20
24.6654
 30
0.0
 10
-126.7035
 20
56.4497
 30
0.0
 10
-126.7035
 20
56.4497
 30
0.0
 10
-126.7035
 20
56.4497
 30
0.0
 10
-126.7425
 20
58.0157
 30
0.0
 10
-128.313
 20
58.5794
 30
0.0
 10
-129.2495
 20
57.2014
 30
0.0
 10
-129.2495
 20
57.2014
 30
0.0
 10
-129.2495
 20
57.2014
 30
0.0
 10
-129.2494
 20
57.2014
 30
0.0
 10
-129.2494
 20
57.2014
 30
0.0
  0
SPLINE
  5
4F
330
1F
100
AcDbEntity
  8
layer 1
 62
     7
100
AcDbSpline
210
0.0
220
0.0
230
1.0
 70
    11
 71
     3
 72
    32
 73
    28
 74
     0
 42
0.0000000001
 43
0.0000000001
 12
1.0
 22
0.0
 32
0.0
 13
1.0
 23
0.0
 33
0.0
 40
0.0
 40
0.0
 40
0.0
 40
0.0
 40
0.125
 40
0.125
 40
0.125
 40
0.125
 40
0.25
 40
0.25
 40
0.25
 40
0.25
 40
0.375
 40
0.375
 40
0.375
 40
0.375
 40
0.5
 40
0.5
 40
0.5
 40
0.5
 40
0.625
 40
0.625
 40
0.625
 40
0.625
 40
0.75
 40
0.75
 40
0.75
 40
0.75
 40
1.0
 40
1.0
 40
1.0
 40
1.0
 10
-120.8745
 20
57.2014
 30
0.0
 10
-120.8745
 20
57.2014
 30
0.0
 10
-112.0165
 20
41.814
 30
0.0
 10
-112.0165
 20
41.814
 30
0.0
 10
-112.0165
 20
41.814
 30
0.0
 10
-111.3857
 20
40.732
 30
0.0
 10
-111.1745
 20
40.2681
 30
0.0
 10
-112.1814
 20
38.5172
 30
0.0
 10
-112.1814
 20
38.5172
 30
0.0
 10
-112.1814
 20
38.5172
 30
0.0
 10
-120.6188
 20
23.8738
 30
0.0
 10
-120.6188
 20
23.8738
 30
0.0
 10
-120.6188
 20
23.8738
 30
0.0
 10
-121.5837
 20
22.1703
 30
0.0
 10
-123.3341
 20
23.0136
 30
0.0
 10
-123.3638
 20
24.6654
 30
0.0
 10
-123.3638
 20
24.6654
 30
0.0
 10
-123.3638
 20
24.6654
 30
0.0
 10
-123.4204
 20
56.4497
 30
0.0
 10
-123.4204
 20
56.4497
 30
0.0
 10
-123.4204
 20
56.4497
 30
0.0
 10
-123.3814
 20
58.0157
 30
0.0
 10
-121.8109
 20
58.5794
 30
0.0
 10
-120.8744
 20
57.2014
 30
0.0
 10
-120.8744
 20
57.2014
 30
0.0
 10
-120.8744
 20
57.2014
 30
0.0
 10
-120.8745
 20
57.2014
 30
0.0
 10
-120.8745
 20
57.2014
 30
0.0
  0
SPLINE
  5
50
330
1F
100
AcDbEntity
  8
layer 1
 62
     7
100
AcDbSpline
210
0.0
220
0.0
230
1.0
 70
    11
 71
     3
 72
    28
 73
    24
 74
     0
 42
0.0000000001
 43
0.0000000001
 12
1.0
 22
0.0
 32
0.0
 13
1.0
 23
0.0
 33
0.0
 40
0.0
 40
0.0
 40
0.0
 40
0.0
 40
0.1428571428571428
 40
0.1428571428571428
 40
0.1428571428571428
 40
0.1428571428571428
 40
0.2857142857142857
 40
0.2857142857142857
 40
0.2857142857142857
 40
0.2857142857142857
 40
0.4285714285714285
 40
0.4285714285714285
 40
0.4285714285714285
 40
0.4285714285714285
 40
0.5714285714285714
 40
0.5714285714285714
 40
0.5714285714285714
 40
0.5714285714285714
 40
0.7142857142857143
 40
0.7142857142857143
 40
0.7142857142857143
 40
0.7142857142857143
 40
1.0
 40
1.0
 40
1.0
 40
1.0
 10
-135.6165
 20
10.2685
 30
0.0
 10
-135.6165
 20
10.2685
 30
0.0
 10
-156.8796
 20
10.3195
 30
0.0
 10
-156.8796
 20
10.3195
 30
0.0
 10
-156.8796
 20
10.3195
 30
0.0
 10
-158.132
 20
10.3248
 30
0.0
 10
-158.6394
 20
10.2757
 30
0.0
 10
-159.6522
 20
8.5284
 30
0.0
 10
-159.6522
 20
8.5284
 30
0.0
 10
-159.6522
 20
8.5284
 30
0.0
 10
-169.2116
 20
-8.3443
 30
0.0
 10
-169.2116
 20
-8.3443
 30
0.0
 10
-169.2116
 20
-8.3443
 30
0.0
 10
-170.2043
 20
-10.0317
 30
0.0
 10
-168.6778
 20
-11.0739
 30
0.0
 10
-167.2324
 20
-10.2737
 30
0.0
 10
-167.2324
 20
-10.2737
 30
0.0
 10
-167.2324
 20
-10.2737
 30
0.0
 10
-134.9945
 20
7.5563
 30
0.0
 10
-134.9945
 20
7.5563
 30
0.0
 10
-134.9945
 20
7.5563
 30
0.0
 10
-133.6579
 20
8.3731
 30
0.0
 10
-133.9548
 20
10.1465
 30
0.0
 10
-135.6165
 20
10.2685
 30
0.0
  0
SPLINE
  5
51
330
1F
100
AcDbEntity
  8
layer 1
 62
     7
100
AcDbSpline
210
0.0
220
0.0
230
1.0
 70
    11
 71
     3
 72
    28
 73
    24
 74
     0
 42
0.0000000001
 43
0.0000000001
 12
1.0
 22
0.0
 32
0.0
 13
1.0
 23
0.0
 33
0.0
 40
0.0
 40
0.0
 40
0.0
 40
0.0
 40
0.1428571428571428
 40
0.1428571428571428
 40
0.1428571428571428
 40
0.1428571428571428
 40
0.2857142857142857
 40
0.2857142857142857
 40
0.2857142857142857
 40
0.2857142857142857
 40
0.4285714285714285
 40
0.4285714285714285
 40
0.4285714285714285
 40
0.4285714285714285
 40
0.5714285714285714
 40
0.5714285714285714
 40
0.5714285714285714
 40
0.5714285714285714
 40
0.7142857142857143
 40
0.7142857142857143
 40
0.7142857142857143
 40
0.7142857142857143
 40
1.0
 40
1.0
 40
1.0
 40
1.0
 10
-135.6165
 20
13.5555
 30
0.0
 10
-135.6165
 20
13.5555
 30
0.0
 10
-156.8796
 20
13.5045
 30
0.0
 10
-156.8796
 20
13.5045
 30
0.0
 10
-156.8796
 20
13.5045
 30
0.0
 10
-158.132
 20
13.4992
 30
0.0
 10
-158.6394
 20
13.5483
 30
0.0
 10
-159.6522
 20
15.2957
 30
0.0
 10
-159.6522
 20
15.2957
 30
0.0
 10
-159.6522
 20
15.2957
 30
0.0
 10
-169.2116
 20
32.1683
 30
0.0
 10
-169.2116
 20
32.1683
 30
0.0
 10
-169.2116
 20
32.1683
 30
0.0
 10
-170.2043
 20
33.8557
 30
0.0
 10
-168.6778
 20
34.8978
 30
0.0
 10
-167.2324
 20
34.0977
 30
0.0
 10
-167.2324
 20
34.0977
 30
0.0
 10
-167.2324
 20
34.0977
 30
0.0
 10
-134.9945
 20
16.1362
 30
0.0
 10
-134.9945
 20
16.1362
 30
0.0
 10
-134.9945
 20
16.1362
 30
0.0
 10
-133.6579
 20
15.3194
 30
0.0
 10
-133.9548
 20
13.6775
 30
0.0
 10
-135.6165
 20
13.5555
 30
0.0
  0
SPLINE
  5
52
330
1F
100
AcDbEntity
  8
layer 1
 62
     7
100
AcDbSpline
210
0.0
220
0.0
230
1.0
 70
    11
 71
     3
 72
    28
 73
    24
 74
     0
 42
0.0000000001
 43
0.0000000001
 12
1.0
 22
0.0
 32
0.0
 13
1.0
 23
0.0
 33
0.0
 40
0.0
 40
0.0
 40
0.0
 40
0.0
 40
0.1428571428571428
 40
0.1428571428571428
 40
0.1428571428571428
 40
0.1428571428571428
 40
0.2857142857142857
 40
0.2857142857142857
 40
0.2857142857142857
 40
0.2857142857142857
 40
0.4285714285714285
 40
0.4285714285714285
 40
0.4285714285714285
 40
0.4285714285714285
 40
0.5714285714285714
 40
0.5714285714285714
 40
0.5714285714285714
 40
0.5714285714285714
 40
0.7142857142857143
 40
0.7142857142857143
 40
0.7142857142857143
 40
0.7142857142857143
 40
1.0
 40
1.0
 40
1.0
 40
1.0
 10
-114.5064
 20
10.2685
 30
0.0
 10
-114.5064
 20
10.2685
 30
0.0
 10
-93.2433
 20
10.3195
 30
0.0
 10
-93.2433
 20
10.3195
 30
0.0
 10
-93.2433
 20
10.3195
 30
0.0
 10
-91.9908
 20
10.3248
 30
0.0
 10
-91.4834
 20
10.2757
 30
0.0
 10
-90.4706
 20
8.5284
 30
0.0
 10
-90.4706
 20
8.5284
 30
0.0
 10
-90.4706
 20
8.5284
 30
0.0
 10
-80.9113
 20
-8.3443
 30
0.0
 10
-80.9113
 20
-8.3443
 30
0.0
 10
-80.9113
 20
-8.3443
 30
0.0
 10
-79.9185
 20
-10.0317
 30
0.0
 10
-81.4451
 20
-11.0738
 30
0.0
 10
-82.8905
 20
-10.2737
 30
0.0
 10
-82.8905
 20
-10.2737
 30
0.0
 10
-82.8905
 20
-10.2737
 30
0.0
 10
-115.1283
 20
7.5563
 30
0.0
 10
-115.1283
 20
7.5563
 30
0.0
 10
-115.1283
 20
7.5563
 30
0.0
 10
-116.465
 20
8.3731
 30
0.0
 10
-116.168
 20
10.1465
 30
0.0
 10
-114.5064
 20
10.2685
 30
0.0
  0
SPLINE
  5
53
330
1F
100
AcDbEntity
  8
layer 1
 62
     7
100
AcDbSpline
210
0.0
220
0.0
230
1.0
 70
    11
 71
     3
 72
    32
 73
    28
 74
     0
 42
0.0000000001
 43
0.0000000001
 12
1.0
 22
0.0
 32
0.0
 13
1.0
 23
0.0
 33
0.0
 40
0.0
 40
0.0
 40
0.0
 40
0.0
 40
0.125
 40
0.125
 40
0.125
 40
0.125
 40
0.25
 40
0.25
 40
0.25
 40
0.25
 40
0.375
 40
0.375
 40
0.375
 40
0.375
 40
0.5
 40
0.5
 40
0.5
 40
0.5
 40
0.625
 40
0.625
 40
0.625
 40
0.625
 40
0.75
 40
0.75
 40
0.75
 40
0.75
 40
1.0
 40
1.0
 40
1.0
 40
1.0
 10
-114.5064
 20
13.5555
 30
0.0
 10
-114.5064
 20
13.5555
 30
0.0
 10
-93.2433
 20
13.5045
 30
0.0
 10
-93.2433
 20
13.5045
 30
0.0
 10
-93.2433
 20
13.5045
 30
0.0
 10
-91.9908
 20
13.4992
 30
0.0
 10
-91.4834
 20
13.5483
 30
0.0
 10
-90.4706
 20
15.2957
 30
0.0
 10
-90.4706
 20
15.2957
 30
0.0
 10
-90.4706
 20
15.2957
 30
0.0
 10
-80.9113
 20
32.1683
 30
0.0
 10
-80.9113
 20
32.1683
 30
0.0
 10
-80.9113
 20
32.1683
 30
0.0
 10
-79.9185
 20
33.8557
 30
0.0
 10
-81.4451
 20
34.8978
 30
0.0
 10
-82.8905
 20
34.0977
 30
0.0
 10
-82.8905
 20
34.0977
 30
0.0
 10
-82.8905
 20
34.0977
 30
0.0
 10
-115.1284
 20
16.1362
 30
0.0
 10
-115.1284
 20
16.1362
 30
0.0
 10
-115.1284
 20
16.1362
 30
0.0
 10
-116.465
 20
15.3194
 30
0.0
 10
-116.1681
 20
13.6775
 30
0.0
 10
-114.5064
 20
13.5555
 30
0.0
 10
-114.5064
 20
13.5555
 30
0.0
 10
-114.5064
 20
13.5555
 30
0.0
 10
-114.5064
 20
13.5555
 30
0.0
 10
-114.5064
 20
13.5555
 30
0.0
  0
SPLINE
  5
54
330
1F
100
AcDbEntity
  8
layer 1
 62
     7
100
AcDbSpline
210
0.0
220
0.0
230
1.0
 70
    11
 71
     3
 72
    32
 73
    28
 74
     0
 42
0.0000000001
 43
0.0000000001
 12
1.0
 22
0.0
 32
0.0
 13
1.0
 23
0.0
 33
0.0
 40
0.0
 40
0.0
 40
0.0
 40
0.0
 40
0.125
 40
0.125
 40
0.125
 40
0.125
 40
0.25
 40
0.25
 40
0.25
 40
0.25
 40
0.375
 40
0.375
 40
0.375
 40
0.375
 40
0.5
 40
0.5
 40
0.5
 40
0.5
 40
0.625
 40
0.625
 40
0.625
 40
0.625
 40
0.75
 40
0.75
 40
0.75
 40
0.75
 40
1.0
 40
1.0
 40
1.0
 40
1.0
 10
-85.4749
 20
39.2303
 30
0.0
 10
-85.4749
 20
39.2303
 30
0.0
 10
-106.738
 20
39.2813
 30
0.0
 10
-106.738
 20
39.2813
 30
0.0
 10
-106.738
 20
39.2813
 30
0.0
 10
-107.9904
 20
39.2866
 30
0.0
 10
-108.4978
 20
39.2375
 30
0.0
 10
-109.5106
 20
37.4901
 30
0.0
 10
-109.5106
 20
37.4901
 30
0.0
 10
-109.5106
 20
37.4901
 30
0.0
 10
-119.0699
 20
20.6175
 30
0.0
 10
-119.0699
 20
20.6175
 30
0.0
 10
-119.0699
 20
20.6175
 30
0.0
 10
-120.0627
 20
18.9301
 30
0.0
 10
-118.5362
 20
17.888
 30
0.0
 10
-117.0907
 20
18.6881
 30
0.0
 10
-117.0907
 20
18.6881
 30
0.0
 10
-117.0907
 20
18.6881
 30
0.0
 10
-84.8529
 20
36.6496
 30
0.0
 10
-84.8529
 20
36.6496
 30
0.0
 10
-84.8529
 20
36.6496
 30
0.0
 10
-83.5162
 20
37.4664
 30
0.0
 10
-83.8132
 20
39.1083
 30
0.0
 10
-85.4748
 20
39.2303
 30
0.0
 10
-85.4748
 20
39.2303
 30
0.0
 10
-85.4748
 20
39.2303
 30
0.0
 10
-85.4749
 20
39.2303
 30
0.0
 10
-85.4749
 20
39.2303
 30
0.0
  0
SPLINE
  5
55
330
1F
100
AcDbEntity
  8
layer 1
 62
     7
100
AcDbSpline
210
0.0
220
0.0
230
1.0
 70
    11
 71
     3
 72
    28
 73
    24
 74
     0
 42
0.0000000001
 43
0.0000000001
 12
1.0
 22
0.0
 32
0.0
 13
1.0
 23
0.0
 33
0.0
 40
0.0
 40
0.0
 40
0.0
 40
0.0
 40
0.1428571428571428
 40
0.1428571428571428
 40
0.1428571428571428
 40
0.1428571428571428
 40
0.2857142857142857
 40
0.2857142857142857
 40
0.2857142857142857
 40
0.2857142857142857
 40
0.4285714285714285
 40
0.4285714285714285
 40
0.4285714285714285
 40
0.4285714285714285
 40
0.5714285714285714
 40
0.5714285714285714
 40
0.5714285714285714
 40
0.5714285714285714
 40
0.7142857142857143
 40
0.7142857142857143
 40
0.7142857142857143
 40
0.7142857142857143
 40
1.0
 40
1.0
 40
1.0
 40
1.0
 10
-164.5656
 20
39.2303
 30
0.0
 10
-164.5656
 20
39.2303
 30
0.0
 10
-143.3025
 20
39.2813
 30
0.0
 10
-143.3025
 20
39.2813
 30
0.0
 10
-143.3025
 20
39.2813
 30
0.0
 10
-142.05
 20
39.2866
 30
0.0
 10
-141.5426
 20
39.2375
 30
0.0
 10
-140.5298
 20
37.4901
 30
0.0
 10
-140.5298
 20
37.4901
 30
0.0
 10
-140.5298
 20
37.4901
 30
0.0
 10
-130.9705
 20
20.6175
 30
0.0
 10
-130.9705
 20
20.6175
 30
0.0
 10
-130.9705
 20
20.6175
 30
0.0
 10
-129.9777
 20
18.9301
 30
0.0
 10
-131.5043
 20
17.888
 30
0.0
 10
-132.9497
 20
18.6881
 30
0.0
 10
-132.9497
 20
18.6881
 30
0.0
 10
-132.9497
 20
18.6881
 30
0.0
 10
-165.1875
 20
36.6496
 30
0.0
 10
-165.1875
 20
36.6496
 30
0.0
 10
-165.1875
 20
36.6496
 30
0.0
 10
-166.5242
 20
37.4664
 30
0.0
 10
-166.2272
 20
39.1083
 30
0.0
 10
-164.5656
 20
39.2303
 30
0.0
  0
SPLINE
  5
56
330
1F
100
AcDbEntity
  8
layer 1
 62
     7
100
AcDbSpline
210
0.0
220
0.0
230
1.0
 70
    11
 71
     3
 72
    32
 73
    28
 74
     0
 42
0.0000000001
 43
0.0000000001
 12
1.0
 22
0.0
 32
0.0
 13
1.0
 23
0.0
 33
0.0
 40
0.0
 40
0.0
 40
0.0
 40
0.0
 40
0.125
 40
0.125
 40
0.125
 40
0.125
 40
0.25
 40
0.25
 40
0.25
 40
0.25
 40
0.375
 40
0.375
 40
0.375
 40
0.375
 40
0.5
 40
0.5
 40
0.5
 40
0.5
 40
0.625
 40
0.625
 40
0.625
 40
0.625
 40
0.75
 40
0.75
 40
0.75
 40
0.75
 40
1.0
 40
1.0
 40
1.0
 40
1.0
 10
-85.4749
 20
-15.6384
 30
0.0
 10
-85.4749
 20
-15.6384
 30
0.0
 10
-106.738
 20
-15.6894
 30
0.0
 10
-106.738
 20
-15.6894
 30
0.0
 10
-106.738
 20
-15.6894
 30
0.0
 10
-107.9904
 20
-15.6947
 30
0.0
 10
-108.4978
 20
-15.6456
 30
0.0
 10
-109.5106
 20
-13.8983
 30
0.0
 10
-109.5106
 20
-13.8983
 30
0.0
 10
-109.5106
 20
-13.8983
 30
0.0
 10
-119.0699
 20
2.9744
 30
0.0
 10
-119.0699
 20
2.9744
 30
0.0
 10
-119.0699
 20
2.9744
 30
0.0
 10
-120.0627
 20
4.6618
 30
0.0
 10
-118.5362
 20
5.704
 30
0.0
 10
-117.0907
 20
4.9039
 30
0.0
 10
-117.0907
 20
4.9039
 30
0.0
 10
-117.0907
 20
4.9039
 30
0.0
 10
-84.8529
 20
-13.0576
 30
0.0
 10
-84.8529
 20
-13.0576
 30
0.0
 10
-84.8529
 20
-13.0576
 30
0.0
 10
-83.5162
 20
-13.8744
 30
0.0
 10
-83.8132
 20
-15.5164
 30
0.0
 10
-85.4748
 20
-15.6383
 30
0.0
 10
-85.4748
 20
-15.6383
 30
0.0
 10
-85.4748
 20
-15.6383
 30
0.0
 10
-85.4749
 20
-15.6384
 30
0.0
 10
-85.4749
 20
-15.6384
 30
0.0
  0
SPLINE
  5
57
330
1F
100
AcDbEntity
  8
layer 1
 62
     7
100
AcDbSpline
210
0.0
220
0.0
230
1.0
 70
    11
 71
     3
 72
    32
 73
    28
 74
     0
 42
0.0000000001
 43
0.0000000001
 12
1.0
 22
0.0
 32
0.0
 13
1.0
 23
0.0
 33
0.0
 40
0.0
 40
0.0
 40
0.0
 40
0.0
 40
0.125
 40
0.125
 40
0.125
 40
0.125
 40
0.25
 40
0.25
 40
0.25
 40
0.25
 40
0.375
 40
0.375
 40
0.375
 40
0.375
 40
0.5
 40
0.5
 40
0.5
 40
0.5
 40
0.625
 40
0.625
 40
0.625
 40
0.625
 40
0.75
 40
0.75
 40
0.75
 40
0.75
 40
1.0
 40
1.0
 40
1.0
 40
1.0
 10
-164.5656
 20
-15.6384
 30
0.0
 10
-164.5656
 20
-15.6384
 30
0.0
 10
-143.3025
 20
-15.6894
 30
0.0
 10
-143.3025
 20
-15.6894
 30
0.0
 10
-143.3025
 20
-15.6894
 30
0.0
 10
-142.05
 20
-15.6947
 30
0.0
 10
-141.5426
 20
-15.6456
 30
0.0
 10
-140.5298
 20
-13.8983
 30
0.0
 10
-140.5298
 20
-13.8983
 30
0.0
 10
-140.5298
 20
-13.8983
 30
0.0
 10
-130.9705
 20
2.9744
 30
0.0
 10
-130.9705
 20
2.9744
 30
0.0
 10
-130.9705
 20
2.9744
 30
0.0
 10
-129.9777
 20
4.6618
 30
0.0
 10
-131.5043
 20
5.7039
 30
0.0
 10
-132.9497
 20
4.9038
 30
0.0
 10
-132.9497
 20
4.9038
 30
0.0
 10
-132.9497
 20
4.9038
 30
0.0
 10
-165.1876
 20
-13.0577
 30
0.0
 10
-165.1876
 20
-13.0577
 30
0.0
 10
-165.1876
 20
-13.0577
 30
0.0
 10
-166.5242
 20
-13.8745
 30
0.0
 10
-166.2273
 20
-15.5165
 30
0.0
 10
-164.5656
 20
-15.6384
 30
0.0
 10
-164.5656
 20
-15.6384
 30
0.0
 10
-164.5656
 20
-15.6384
 30
0.0
 10
-164.5656
 20
-15.6384
 30
0.0
 10
-164.5656
 20
-15.6384
 30
0.0
  0
SPLINE
  5
58
330
1F
100
AcDbEntity
  8
layer 1
 62
     7
100
AcDbSpline
210
0.0
220
0.0
230
1.0
 70
    11
 71
     3
 72
    32
 73
    28
 74
     0
 42
0.0000000001
 43
0.0000000001
 12
1.0
 22
0.0
 32
0.0
 13
1.0
 23
0.0
 33
0.0
 40
0.0
 40
0.0
 40
0.0
 40
0.0
 40
0.125
 40
0.125
 40
0.125
 40
0.125
 40
0.25
 40
0.25
 40
0.25
 40
0.25
 40
0.375
 40
0.375
 40
0.375
 40
0.375
 40
0.5
 40
0.5
 40
0.5
 40
0.5
 40
0.625
 40
0.625
 40
0.625
 40
0.625
 40
0.75
 40
0.75
 40
0.75
 40
0.75
 40
1.0
 40
1.0
 40
1.0
 40
1.0
 10
-129.2494
 20
-0.5062
 30
0.0
 10
-129.2494
 20
-0.5062
 30
0.0
 10
-138.1074
 20
-15.8937
 30
0.0
 10
-138.1074
 20
-15.8937
 30
0.0
 10
-138.1074
 20
-15.8937
 30
0.0
 10
-138.7382
 20
-16.9757
 30
0.0
 10
-138.9494
 20
-17.4396
 30
0.0
 10
-137.9425
 20
-19.1904
 30
0.0
 10
-137.9425
 20
-19.1904
 30
0.0
 10
-137.9425
 20
-19.1904
 30
0.0
 10
-129.5051
 20
-33.8339
 30
0.0
 10
-129.5051
 20
-33.8339
 30
0.0
 10
-129.5051
 20
-33.8339
 30
0.0
 10
-128.5402
 20
-35.5374
 30
0.0
 10
-126.7898
 20
-34.6941
 30
0.0
 10
-126.7601
 20
-33.0423
 30
0.0
 10
-126.7601
 20
-33.0423
 30
0.0
 10
-126.7601
 20
-33.0423
 30
0.0
 10
-126.7035
 20
-1.2579
 30
0.0
 10
-126.7035
 20
-1.2579
 30
0.0
 10
-126.7035
 20
-1.2579
 30
0.0
 10
-126.7425
 20
0.308
 30
0.0
 10
-128.313
 20
0.8718
 30
0.0
 10
-129.2495
 20
-0.5062
 30
0.0
 10
-129.2495
 20
-0.5062
 30
0.0
 10
-129.2495
 20
-0.5062
 30
0.0
 10
-129.2494
 20
-0.5062
 30
0.0
 10
-129.2494
 20
-0.5062
 30
0.0
  0
SPLINE
  5
59
330
1F
100
AcDbEntity
  8
layer 1
 62
     7
100
AcDbSpline
210
0.0
220
0.0
230
1.0
 70
    11
 71
     3
 72
    32
 73
    28
 74
     0
 42
0.0000000001
 43
0.0000000001
 12
1.0
 22
0.0
 32
0.0
 13
1.0
 23
0.0
 33
0.0
 40
0.0
 40
0.0
 40
0.0
 40
0.0
 40
0.125
 40
0.125
 40
0.125
 40
0.125
 40
0.25
 40
0.25
 40
0.25
 40
0.25
 40
0.375
 40
0.375
 40
0.375
 40
0.375
 40
0.5
 40
0.5
 40
0.5
 40
0.5
 40
0.625
 40
0.625
 40
0.625
 40
0.625
 40
0.75
 40
0.75
 40
0.75
 40
0.75
 40
1.0
 40
1.0
 40
1.0
 40
1.0
 10
-120.8745
 20
-0.5062
 30
0.0
 10
-120.8745
 20
-0.5062
 30
0.0
 10
-112.0165
 20
-15.8937
 30
0.0
 10
-112.0165
 20
-15.8937
 30
0.0
 10
-112.0165
 20
-15.8937
 30
0.0
 10
-111.3857
 20
-16.9757
 30
0.0
 10
-111.1745
 20
-17.4396
 30
0.0
 10
-112.1814
 20
-19.1904
 30
0.0
 10
-112.1814
 20
-19.1904
 30
0.0
 10
-112.1814
 20
-19.1904
 30
0.0
 10
-120.6188
 20
-33.8339
 30
0.0
 10
-120.6188
 20
-33.8339
 30
0.0
 10
-120.6188
 20
-33.8339
 30
0.0
 10
-121.5837
 20
-35.5374
 30
0.0
 10
-123.3341
 20
-34.6941
 30
0.0
 10
-123.3638
 20
-33.0423
 30
0.0
 10
-123.3638
 20
-33.0423
 30
0.0
 10
-123.3638
 20
-33.0423
 30
0.0
 10
-123.4204
 20
-1.2579
 30
0.0
 10
-123.4204
 20
-1.2579
 30
0.0
 10
-123.4204
 20
-1.2579
 30
0.0
 10
-123.3814
 20
0.308
 30
0.0
 10
-121.8109
 20
0.8718
 30
0.0
 10
-120.8744
 20
-0.5062
 30
0.0
 10
-120.8744
 20
-0.5062
 30
0.0
 10
-120.8744
 20
-0.5062
 30
0.0
 10
-120.8745
 20
-0.5062
 30
0.0
 10
-120.8745
 20
-0.5062
 30
0.0
  0
SPLINE
  5
5A
330
1F
100
AcDbEntity
  8
layer 1
 62
     7
100
AcDbSpline
210
0.0
220
0.0
230
1.0
 70
    11
 71
     3
 72
    28
 73
    24
 74
     0
 42
0.0000000001
 43
0.0000000001
 12
1.0
 22
0.0
 32
0.0
 13
1.0
 23
0.0
 33
0.0
 40
0.0
 40
0.0
 40
0.0
 40
0.0
 40
0.1428571428571428
 40
0.1428571428571428
 40
0.1428571428571428
 40
0.1428571428571428
 40
0.2857142857142857
 40
0.2857142857142857
 40
0.2857142857142857
 40
0.2857142857142857
 40
0.4285714285714285
 40
0.4285714285714285
 40
0.4285714285714285
 40
0.4285714285714285
 40
0.5714285714285714
 40
0.5714285714285714
 40
0.5714285714285714
 40
0.5714285714285714
 40
0.7142857142857143
 40
0.7142857142857143
 40
0.7142857142857143
 40
0.7142857142857143
 40
1.0
 40
1.0
 40
1.0
 40
1.0
 10
-135.6165
 20
-46.8879
 30
0.0
 10
-135.6165
 20
-46.8879
 30
0.0
 10
-156.8796
 20
-46.8369
 30
0.0
 10
-156.8796
 20
-46.8369
 30
0.0
 10
-156.8796
 20
-46.8369
 30
0.0
 10
-158.132
 20
-46.8316
 30
0.0
 10
-158.6394
 20
-46.8807
 30
0.0
 10
-159.6522
 20
-48.628
 30
0.0
 10
-159.6522
 20
-48.628
 30
0.0
 10
-159.6522
 20
-48.628
 30
0.0
 10
-169.2115
 20
-65.5007
 30
0.0
 10
-169.2115
 20
-65.5007
 30
0.0
 10
-169.2115
 20
-65.5007
 30
0.0
 10
-170.2043
 20
-67.1881
 30
0.0
 10
-168.6777
 20
-68.2302
 30
0.0
 10
-167.2323
 20
-67.4301
 30
0.0
 10
-167.2323
 20
-67.4301
 30
0.0
 10
-167.2323
 20
-67.4301
 30
0.0
 10
-134.9945
 20
-49.6001
 30
0.0
 10
-134.9945
 20
-49.6001
 30
0.0
 10
-134.9945
 20
-49.6001
 30
0.0
 10
-133.6579
 20
-48.7833
 30
0.0
 10
-133.9548
 20
-47.0099
 30
0.0
 10
-135.6165
 20
-46.8879
 30
0.0
  0
SPLINE
  5
5B
330
1F
100
AcDbEntity
  8
layer 1
 62
     7
100
AcDbSpline
210
0.0
220
0.0
230
1.0
 70
    11
 71
     3
 72
    32
 73
    28
 74
     0
 42
0.0000000001
 43
0.0000000001
 12
1.0
 22
0.0
 32
0.0
 13
1.0
 23
0.0
 33
0.0
 40
0.0
 40
0.0
 40
0.0
 40
0.0
 40
0.125
 40
0.125
 40
0.125
 40
0.125
 40
0.25
 40
0.25
 40
0.25
 40
0.25
 40
0.375
 40
0.375
 40
0.375
 40
0.375
 40
0.5
 40
0.5
 40
0.5
 40
0.5
 40
0.625
 40
0.625
 40
0.625
 40
0.625
 40
0.75
 40
0.75
 40
0.75
 40
0.75
 40
1.0
 40
1.0
 40
1.0
 40
1.0
 10
-135.6165
 20
-43.6008
 30
0.0
 10
-135.6165
 20
-43.6008
 30
0.0
 10
-156.8796
 20
-43.6519
 30
0.0
 10
-156.8796
 20
-43.6519
 30
0.0
 10
-156.8796
 20
-43.6519
 30
0.0
 10
-158.132
 20
-43.6572
 30
0.0
 10
-158.6394
 20
-43.6081
 30
0.0
 10
-159.6522
 20
-41.8607
 30
0.0
 10
-159.6522
 20
-41.8607
 30
0.0
 10
-159.6522
 20
-41.8607
 30
0.0
 10
-169.2116
 20
-24.9881
 30
0.0
 10
-169.2116
 20
-24.9881
 30
0.0
 10
-169.2116
 20
-24.9881
 30
0.0
 10
-170.2043
 20
-23.3007
 30
0.0
 10
-168.6777
 20
-22.2585
 30
0.0
 10
-167.2324
 20
-23.0587
 30
0.0
 10
-167.2324
 20
-23.0587
 30
0.0
 10
-167.2324
 20
-23.0587
 30
0.0
 10
-134.9945
 20
-41.0201
 30
0.0
 10
-134.9945
 20
-41.0201
 30
0.0
 10
-134.9945
 20
-41.0201
 30
0.0
 10
-133.6579
 20
-41.8369
 30
0.0
 10
-133.9548
 20
-43.4789
 30
0.0
 10
-135.6165
 20
-43.6009
 30
0.0
 10
-135.6165
 20
-43.6009
 30
0.0
 10
-135.6165
 20
-43.6009
 30
0.0
 10
-135.6165
 20
-43.6008
 30
0.0
 10
-135.6165
 20
-43.6008
 30
0.0
  0
SPLINE
  5
5C
330
1F
100
AcDbEntity
  8
layer 1
 62
     7
100
AcDbSpline
210
0.0
220
0.0
230
1.0
 70
    11
 71
     3
 72
    28
 73
    24
 74
     0
 42
0.0000000001
 43
0.0000000001
 12
1.0
 22
0.0
 32
0.0
 13
1.0
 23
0.0
 33
0.0
 40
0.0
 40
0.0
 40
0.0
 40
0.0
 40
0.1428571428571428
 40
0.1428571428571428
 40
0.1428571428571428
 40
0.1428571428571428
 40
0.2857142857142857
 40
0.2857142857142857
 40
0.2857142857142857
 40
0.2857142857142857
 40
0.4285714285714285
 40
0.4285714285714285
 40
0.4285714285714285
 40
0.4285714285714285
 40
0.5714285714285714
 40
0.5714285714285714
 40
0.5714285714285714
 40
0.5714285714285714
 40
0.7142857142857143
 40
0.7142857142857143
 40
0.7142857142857143
 40
0.7142857142857143
 40
1.0
 40
1.0
 40
1.0
 40
1.0
 10
-114.5064
 20
-46.8879
 30
0.0
 10
-114.5064
 20
-46.8879
 30
0.0
 10
-93.2433
 20
-46.8369
 30
0.0
 10
-93.2433
 20
-46.8369
 30
0.0
 10
-93.2433
 20
-46.8369
 30
0.0
 10
-91.9908
 20
-46.8316
 30
0.0
 10
-91.4834
 20
-46.8807
 30
0.0
 10
-90.4706
 20
-48.628
 30
0.0
 10
-90.4706
 20
-48.628
 30
0.0
 10
-90.4706
 20
-48.628
 30
0.0
 10
-80.9113
 20
-65.5007
 30
0.0
 10
-80.9113
 20
-65.5007
 30
0.0
 10
-80.9113
 20
-65.5007
 30
0.0
 10
-79.9185
 20
-67.1881
 30
0.0
 10
-81.4451
 20
-68.2302
 30
0.0
 10
-82.8905
 20
-67.4301
 30
0.0
 10
-82.8905
 20
-67.4301
 30
0.0
 10
-82.8905
 20
-67.4301
 30
0.0
 10
-115.1283
 20
-49.6001
 30
0.0
 10
-115.1283
 20
-49.6001
 30
0.0
 10
-115.1283
 20
-49.6001
 30
0.0
 10
-116.465
 20
-48.7833
 30
0.0
 10
-116.168
 20
-47.0099
 30
0.0
 10
-114.5064
 20
-46.8879
 30
0.0
  0
SPLINE
  5
5D
330
1F
100
AcDbEntity
  8
layer 1
 62
     7
100
AcDbSpline
210
0.0
220
0.0
230
1.0
 70
    11
 71
     3
 72
    32
 73
    28
 74
     0
 42
0.0000000001
 43
0.0000000001
 12
1.0
 22
0.0
 32
0.0
 13
1.0
 23
0.0
 33
0.0
 40
0.0
 40
0.0
 40
0.0
 40
0.0
 40
0.125
 40
0.125
 40
0.125
 40
0.125
 40
0.25
 40
0.25
 40
0.25
 40
0.25
 40
0.375
 40
0.375
 40
0.375
 40
0.375
 40
0.5
 40
0.5
 40
0.5
 40
0.5
 40
0.625
 40
0.625
 40
0.625
 40
0.625
 40
0.75
 40
0.75
 40
0.75
 40
0.75
 40
1.0
 40
1.0
 40
1.0
 40
1.0
 10
-114.5064
 20
-43.6008
 30
0.0
 10
-114.5064
 20
-43.6008
 30
0.0
 10
-93.2433
 20
-43.6519
 30
0.0
 10
-93.2433
 20
-43.6519
 30
0.0
 10
-93.2433
 20
-43.6519
 30
0.0
 10
-91.9908
 20
-43.6572
 30
0.0
 10
-91.4834
 20
-43.6081
 30
0.0
 10
-90.4706
 20
-41.8607
 30
0.0
 10
-90.4706
 20
-41.8607
 30
0.0
 10
-90.4706
 20
-41.8607
 30
0.0
 10
-80.9113
 20
-24.9881
 30
0.0
 10
-80.9113
 20
-24.9881
 30
0.0
 10
-80.9113
 20
-24.9881
 30
0.0
 10
-79.9185
 20
-23.3007
 30
0.0
 10
-81.4451
 20
-22.2585
 30
0.0
 10
-82.8905
 20
-23.0587
 30
0.0
 10
-82.8905
 20
-23.0587
 30
0.0
 10
-82.8905
 20
-23.0587
 30
0.0
 10
-115.1283
 20
-41.0201
 30
0.0
 10
-115.1283
 20
-41.0201
 30
0.0
 10
-115.1283
 20
-41.0201
 30
0.0
 10
-116.465
 20
-41.8369
 30
0.0
 10
-116.168
 20
-43.4789
 30
0.0
 10
-114.5064
 20
-43.6009
 30
0.0
 10
-114.5064
 20
-43.6009
 30
0.0
 10
-114.5064
 20
-43.6009
 30
0.0
 10
-114.5064
 20
-43.6008
 30
0.0
 10
-114.5064
 20
-43.6008
 30
0.0
  0
SPLINE
  5
5E
330
1F
100
AcDbEntity
  8
layer 1
 62
     7
100
AcDbSpline
210
0.0
220
0.0
230
1.0
 70
    11
 71
     3
 72
    32
 73
    28
 74
     0
 42
0.0000000001
 43
0.0000000001
 12
1.0
 22
0.0
 32
0.0
 13
1.0
 23
0.0
 33
0.0
 40
0.0
 40
0.0
 40
0.0
 40
0.0
 40
0.125
 40
0.125
 40
0.125
 40
0.125
 40
0.25
 40
0.25
 40
0.25
 40
0.25
 40
0.375
 40
0.375
 40
0.375
 40
0.375
 40
0.5
 40
0.5
 40
0.5
 40
0.5
 40
0.625
 40
0.625
 40
0.625
 40
0.625
 40
0.75
 40
0.75
 40
0.75
 40
0.75
 40
1.0
 40
1.0
 40
1.0
 40
1.0
 10
-85.4749
 20
-17.9261
 30
0.0
 10
-85.4749
 20
-17.9261
 30
0.0
 10
-106.738
 20
-17.875
 30
0.0
 10
-106.738
 20
-17.875
 30
0.0
 10
-106.738
 20
-17.875
 30
0.0
 10
-107.9904
 20
-17.8698
 30
0.0
 10
-108.4978
 20
-17.9188
 30
0.0
 10
-109.5106
 20
-19.6662
 30
0.0
 10
-109.5106
 20
-19.6662
 30
0.0
 10
-109.5106
 20
-19.6662
 30
0.0
 10
-119.0699
 20
-36.5388
 30
0.0
 10
-119.0699
 20
-36.5388
 30
0.0
 10
-119.0699
 20
-36.5388
 30
0.0
 10
-120.0627
 20
-38.2262
 30
0.0
 10
-118.5362
 20
-39.2684
 30
0.0
 10
-117.0907
 20
-38.4683
 30
0.0
 10
-117.0907
 20
-38.4683
 30
0.0
 10
-117.0907
 20
-38.4683
 30
0.0
 10
-84.8529
 20
-20.5068
 30
0.0
 10
-84.8529
 20
-20.5068
 30
0.0
 10
-84.8529
 20
-20.5068
 30
0.0
 10
-83.5162
 20
-19.69
 30
0.0
 10
-83.8132
 20
-18.048
 30
0.0
 10
-85.4748
 20
-17.9261
 30
0.0
 10
-85.4748
 20
-17.9261
 30
0.0
 10
-85.4748
 20
-17.9261
 30
0.0
 10
-85.4749
 20
-17.9261
 30
0.0
 10
-85.4749
 20
-17.9261
 30
0.0
  0
SPLINE
  5
5F
330
1F
100
AcDbEntity
  8
layer 1
 62
     7
100
AcDbSpline
210
0.0
220
0.0
230
1.0
 70
    11
 71
     3
 72
    28
 73
    24
 74
     0
 42
0.0000000001
 43
0.0000000001
 12
1.0
 22
0.0
 32
0.0
 13
1.0
 23
0.0
 33
0.0
 40
0.0
 40
0.0
 40
0.0
 40
0.0
 40
0.1428571428571428
 40
0.1428571428571428
 40
0.1428571428571428
 40
0.1428571428571428
 40
0.2857142857142857
 40
0.2857142857142857
 40
0.2857142857142857
 40
0.2857142857142857
 40
0.4285714285714285
 40
0.4285714285714285
 40
0.4285714285714285
 40
0.4285714285714285
 40
0.5714285714285714
 40
0.5714285714285714
 40
0.5714285714285714
 40
0.5714285714285714
 40
0.7142857142857143
 40
0.7142857142857143
 40
0.7142857142857143
 40
0.7142857142857143
 40
1.0
 40
1.0
 40
1.0
 40
1.0
 10
-164.5656
 20
-17.9261
 30
0.0
 10
-164.5656
 20
-17.9261
 30
0.0
 10
-143.3025
 20
-17.875
 30
0.0
 10
-143.3025
 20
-17.875
 30
0.0
 10
-143.3025
 20
-17.875
 30
0.0
 10
-142.05
 20
-17.8698
 30
0.0
 10
-141.5426
 20
-17.9188
 30
0.0
 10
-140.5298
 20
-19.6662
 30
0.0
 10
-140.5298
 20
-19.6662
 30
0.0
 10
-140.5298
 20
-19.6662
 30
0.0
 10
-130.9705
 20
-36.5388
 30
0.0
 10
-130.9705
 20
-36.5388
 30
0.0
 10
-130.9705
 20
-36.5388
 30
0.0
 10
-129.9777
 20
-38.2262
 30
0.0
 10
-131.5043
 20
-39.2684
 30
0.0
 10
-132.9497
 20
-38.4683
 30
0.0
 10
-132.9497
 20
-38.4683
 30
0.0
 10
-132.9497
 20
-38.4683
 30
0.0
 10
-165.1875
 20
-20.5068
 30
0.0
 10
-165.1875
 20
-20.5068
 30
0.0
 10
-165.1875
 20
-20.5068
 30
0.0
 10
-166.5242
 20
-19.69
 30
0.0
 10
-166.2272
 20
-18.048
 30
0.0
 10
-164.5656
 20
-17.9261
 30
0.0
  0
SPLINE
  5
60
330
1F
100
AcDbEntity
  8
layer 1
 62
     7
100
AcDbSpline
210
0.0
220
0.0
230
1.0
 70
    11
 71
     3
 72
    32
 73
    28
 74
     0
 42
0.0000000001
 43
0.0000000001
 12
1.0
 22
0.0
 32
0.0
 13
1.0
 23
0.0
 33
0.0
 40
0.0
 40
0.0
 40
0.0
 40
0.0
 40
0.125
 40
0.125
 40
0.125
 40
0.125
 40
0.25
 40
0.25
 40
0.25
 40
0.25
 40
0.375
 40
0.375
 40
0.375
 40
0.375
 40
0.5
 40
0.5
 40
0.5
 40
0.5
 40
0.625
 40
0.625
 40
0.625
 40
0.625
 40
0.75
 40
0.75
 40
0.75
 40
0.75
 40
1.0
 40
1.0
 40
1.0
 40
1.0
 10
-85.4749
 20
-72.7948
 30
0.0
 10
-85.4749
 20
-72.7948
 30
0.0
 10
-106.738
 20
-72.8458
 30
0.0
 10
-106.738
 20
-72.8458
 30
0.0
 10
-106.738
 20
-72.8458
 30
0.0
 10
-107.9904
 20
-72.8511
 30
0.0
 10
-108.4978
 20
-72.802
 30
0.0
 10
-109.5106
 20
-71.0546
 30
0.0
 10
-109.5106
 20
-71.0546
 30
0.0
 10
-109.5106
 20
-71.0546
 30
0.0
 10
-119.0699
 20
-54.182
 30
0.0
 10
-119.0699
 20
-54.182
 30
0.0
 10
-119.0699
 20
-54.182
 30
0.0
 10
-120.0627
 20
-52.4946
 30
0.0
 10
-118.5362
 20
-51.4525
 30
0.0
 10
-117.0907
 20
-52.2526
 30
0.0
 10
-117.0907
 20
-52.2526
 30
0.0
 10
-117.0907
 20
-52.2526
 30
0.0
 10
-84.8529
 20
-70.2141
 30
0.0
 10
-84.8529
 20
-70.2141
 30
0.0
 10
-84.8529
 20
-70.2141
 30
0.0
 10
-83.5162
 20
-71.0308
 30
0.0
 10
-83.8132
 20
-72.6728
 30
0.0
 10
-85.4748
 20
-72.7948
 30
0.0
 10
-85.4748
 20
-72.7948
 30
0.0
 10
-85.4748
 20
-72.7948
 30
0.0
 10
-85.4749
 20
-72.7948
 30
0.0
 10
-85.4749
 20
-72.7948
 30
0.0
  0
SPLINE
  5
61
330
1F
100
AcDbEntity
  8
layer 1
 62
     7
100
AcDbSpline
210
0.0
220
0.0
230
1.0
 70
    11
 71
     3
 72
    32
 73
    28
 74
     0
 42
0.0000000001
 43
0.0000000001
 12
1.0
 22
0.0
 32
0.0
 13
1.0
 23
0.0
 33
0.0
 40
0.0
 40
0.0
 40
0.0
 40
0.0
 40
0.125
 40
0.125
 40
0.125
 40
0.125
 40
0.25
 40
0.25
 40
0.25
 40
0.25
 40
0.375
 40
0.375
 40
0.375
 40
0.375
 40
0.5
 40
0.5
 40
0.5
 40
0.5
 40
0.625
 40
0.625
 40
0.625
 40
0.625
 40
0.75
 40
0.75
 40
0.75
 40
0.75
 40
1.0
 40
1.0
 40
1.0
 40
1.0
 10
-164.5656
 20
-72.7948
 30
0.0
 10
-164.5656
 20
-72.7948
 30
0.0
 10
-143.3025
 20
-72.8458
 30
0.0
 10
-143.3025
 20
-72.8458
 30
0.0
 10
-143.3025
 20
-72.8458
 30
0.0
 10
-142.05
 20
-72.8511
 30
0.0
 10
-141.5426
 20
-72.802
 30
0.0
 10
-140.5298
 20
-71.0546
 30
0.0
 10
-140.5298
 20
-71.0546
 30
0.0
 10
-140.5298
 20
-71.0546
 30
0.0
 10
-130.9705
 20
-54.182
 30
0.0
 10
-130.9705
 20
-54.182
 30
0.0
 10
-130.9705
 20
-54.182
 30
0.0
 10
-129.9777
 20
-52.4946
 30
0.0
 10
-131.5043
 20
-51.4525
 30
0.0
 10
-132.9497
 20
-52.2526
 30
0.0
 10
-132.9497
 20
-52.2526
 30
0.0
 10
-132.9497
 20
-52.2526
 30
0.0
 10
-165.1876
 20
-70.2141
 30
0.0
 10
-165.1876
 20
-70.2141
 30
0.0
 10
-165.1876
 20
-70.2141
 30
0.0
 10
-166.5242
 20
-71.0308
 30
0.0
 10
-166.2273
 20
-72.6728
 30
0.0
 10
-164.5656
 20
-72.7948
 30
0.0
 10
-164.5656
 20
-72.7948
 30
0.0
 10
-164.5656
 20
-72.7948
 30
0.0
 10
-164.5656
 20
-72.7948
 30
0.0
 10
-164.5656
 20
-72.7948
 30
0.0
  0
SPLINE
  5
62
330
1F
100
AcDbEntity
  8
layer 1
 62
     7
100
AcDbSpline
210
0.0
220
0.0
230
1.0
 70
    11
 71
     3
 72
    32
 73
    28
 74
     0
 42
0.0000000001
 43
0.0000000001
 12
1.0
 22
0.0
 32
0.0
 13
1.0
 23
0.0
 33
0.0
 40
0.0
 40
0.0
 40
0.0
 40
0.0
 40
0.125
 40
0.125
 40
0.125
 40
0.125
 40
0.25
 40
0.25
 40
0.25
 40
0.25
 40
0.375
 40
0.375
 40
0.375
 40
0.375
 40
0.5
 40
0.5
 40
0.5
 40
0.5
 40
0.625
 40
0.625
 40
0.625
 40
0.625
 40
0.75
 40
0.75
 40
0.75
 40
0.75
 40
1.0
 40
1.0
 40
1.0
 40
1.0
 10
-129.2494
 20
-57.6626
 30
0.0
 10
-129.2494
 20
-57.6626
 30
0.0
 10
-138.1074
 20
-73.05
 30
0.0
 10
-138.1074
 20
-73.05
 30
0.0
 10
-138.1074
 20
-73.05
 30
0.0
 10
-138.7382
 20
-74.1321
 30
0.0
 10
-138.9494
 20
-74.5959
 30
0.0
 10
-137.9425
 20
-76.3468
 30
0.0
 10
-137.9425
 20
-76.3468
 30
0.0
 10
-137.9425
 20
-76.3468
 30
0.0
 10
-129.5051
 20
-90.9903
 30
0.0
 10
-129.5051
 20
-90.9903
 30
0.0
 10
-129.5051
 20
-90.9903
 30
0.0
 10
-128.5402
 20
-92.6938
 30
0.0
 10
-126.7898
 20
-91.8505
 30
0.0
 10
-126.7601
 20
-90.1987
 30
0.0
 10
-126.7601
 20
-90.1987
 30
0.0
 10
-126.7601
 20
-90.1987
 30
0.0
 10
-126.7035
 20
-58.4143
 30
0.0
 10
-126.7035
 20
-58.4143
 30
0.0
 10
-126.7035
 20
-58.4143
 30
0.0
 10
-126.7425
 20
-56.8483
 30
0.0
 10
-128.313
 20
-56.2846
 30
0.0
 10
-129.2495
 20
-57.6626
 30
0.0
 10
-129.2495
 20
-57.6626
 30
0.0
 10
-129.2495
 20
-57.6626
 30
0.0
 10
-129.2494
 20
-57.6626
 30
0.0
 10
-129.2494
 20
-57.6626
 30
0.0
  0
SPLINE
  5
63
330
1F
100
AcDbEntity
  8
layer 1
 62
     7
100
AcDbSpline
210
0.0
220
0.0
230
1.0
 70
    11
 71
     3
 72
    32
 73
    28
 74
     0
 42
0.0000000001
 43
0.0000000001
 12
1.0
 22
0.0
 32
0.0
 13
1.0
 23
0.0
 33
0.0
 40
0.0
 40
0.0
 40
0.0
 40
0.0
 40
0.125
 40
0.125
 40
0.125
 40
0.125
 40
0.25
 40
0.25
 40
0.25
 40
0.25
 40
0.375
 40
0.375
 40
0.375
 40
0.375
 40
0.5
 40
0.5
 40
0.5
 40
0.5
 40
0.625
 40
0.625
 40
0.625
 40
0.625
 40
0.75
 40
0.75
 40
0.75
 40
0.75
 40
1.0
 40
1.0
 40
1.0
 40
1.0
 10
-120.8745
 20
-57.6626
 30
0.0
 10
-120.8745
 20
-57.6626
 30
0.0
 10
-112.0165
 20
-73.05
 30
0.0
 10
-112.0165
 20
-73.05
 30
0.0
 10
-112.0165
 20
-73.05
 30
0.0
 10
-111.3857
 20
-74.1321
 30
0.0
 10
-111.1745
 20
-74.5959
 30
0.0
 10
-112.1814
 20
-76.3468
 30
0.0
 10
-112.1814
 20
-76.3468
 30
0.0
 10
-112.1814
 20
-76.3468
 30
0.0
 10
-120.6188
 20
-90.9903
 30
0.0
 10
-120.6188
 20
-90.9903
 30
0.0
 10
-120.6188
 20
-90.9903
 30
0.0
 10
-121.5837
 20
-92.6938
 30
0.0
 10
-123.3341
 20
-91.8505
 30
0.0
 10
-123.3638
 20
-90.1987
 30
0.0
 10
-123.3638
 20
-90.1987
 30
0.0
 10
-123.3638
 20
-90.1987
 30
0.0
 10
-123.4204
 20
-58.4143
 30
0.0
 10
-123.4204
 20
-58.4143
 30
0.0
 10
-123.4204
 20
-58.4143
 30
0.0
 10
-123.3814
 20
-56.8483
 30
0.0
 10
-121.8109
 20
-56.2846
 30
0.0
 10
-120.8744
 20
-57.6626
 30
0.0
 10
-120.8744
 20
-57.6626
 30
0.0
 10
-120.8744
 20
-57.6626
 30
0.0
 10
-120.8745
 20
-57.6626
 30
0.0
 10
-120.8745
 20
-57.6626
 30
0.0
  0
SPLINE
  5
64
330
1F
100
AcDbEntity
  8
layer 1
 62
     7
100
AcDbSpline
210
0.0
220
0.0
230
1.0
 70
    11
 71
     3
 72
    32
 73
    28
 74
     0
 42
0.0000000001
 43
0.0000000001
 12
1.0
 22
0.0
 32
0.0
 13
1.0
 23
0.0
 33
0.0
 40
0.0
 40
0.0
 40
0.0
 40
0.0
 40
0.125
 40
0.125
 40
0.125
 40
0.125
 40
0.25
 40
0.25
 40
0.25
 40
0.25
 40
0.375
 40
0.375
 40
0.375
 40
0.375
 40
0.5
 40
0.5
 40
0.5
 40
0.5
 40
0.625
 40
0.625
 40
0.625
 40
0.625
 40
0.75
 40
0.75
 40
0.75
 40
0.75
 40
1.0
 40
1.0
 40
1.0
 40
1.0
 10
-85.4749
 20
-75.6227
 30
0.0
 10
-85.4749
 20
-75.6227
 30
0.0
 10
-106.738
 20
-75.5717
 30
0.0
 10
-106.738
 20
-75.5717
 30
0.0
 10
-106.738
 20
-75.5717
 30
0.0
 10
-107.9904
 20
-75.5664
 30
0.0
 10
-108.4978
 20
-75.6155
 30
0.0
 10
-109.5106
 20
-77.3629
 30
0.0
 10
-109.5106
 20
-77.3629
 30
0.0
 10
-109.5106
 20
-77.3629
 30
0.0
 10
-119.0699
 20
-94.2355
 30
0.0
 10
-119.0699
 20
-94.2355
 30
0.0
 10
-119.0699
 20
-94.2355
 30
0.0
 10
-120.0627
 20
-95.9229
 30
0.0
 10
-118.5362
 20
-96.965
 30
0.0
 10
-117.0907
 20
-96.1649
 30
0.0
 10
-117.0907
 20
-96.1649
 30
0.0
 10
-117.0907
 20
-96.1649
 30
0.0
 10
-84.8529
 20
-78.2034
 30
0.0
 10
-84.8529
 20
-78.2034
 30
0.0
 10
-84.8529
 20
-78.2034
 30
0.0
 10
-83.5162
 20
-77.3866
 30
0.0
 10
-83.8132
 20
-75.7447
 30
0.0
 10
-85.4748
 20
-75.6226
 30
0.0
 10
-85.4748
 20
-75.6226
 30
0.0
 10
-85.4748
 20
-75.6226
 30
0.0
 10
-85.4749
 20
-75.6227
 30
0.0
 10
-85.4749
 20
-75.6227
 30
0.0
  0
SPLINE
  5
65
330
1F
100
AcDbEntity
  8
layer 1
 62
     7
100
AcDbSpline
210
0.0
220
0.0
230
1.0
 70
    11
 71
     3
 72
    28
 73
    24
 74
     0
 42
0.0000000001
 43
0.0000000001
 12
1.0
 22
0.0
 32
0.0
 13
1.0
 23
0.0
 33
0.0
 40
0.0
 40
0.0
 40
0.0
 40
0.0
 40
0.1428571428571428
 40
0.1428571428571428
 40
0.1428571428571428
 40
0.1428571428571428
 40
0.2857142857142857
 40
0.2857142857142857
 40
0.2857142857142857
 40
0.2857142857142857
 40
0.4285714285714285
 40
0.4285714285714285
 40
0.4285714285714285
 40
0.4285714285714285
 40
0.5714285714285714
 40
0.5714285714285714
 40
0.5714285714285714
 40
0.5714285714285714
 40
0.7142857142857143
 40
0.7142857142857143
 40
0.7142857142857143
 40
0.7142857142857143
 40
1.0
 40
1.0
 40
1.0
 40
1.0
 10
-164.5656
 20
-75.6227
 30
0.0
 10
-164.5656
 20
-75.6227
 30
0.0
 10
-143.3025
 20
-75.5717
 30
0.0
 10
-143.3025
 20
-75.5717
 30
0.0
 10
-143.3025
 20
-75.5717
 30
0.0
 10
-142.05
 20
-75.5664
 30
0.0
 10
-141.5426
 20
-75.6155
 30
0.0
 10
-140.5298
 20
-77.3629
 30
0.0
 10
-140.5298
 20
-77.3629
 30
0.0
 10
-140.5298
 20
-77.3629
 30
0.0
 10
-130.9705
 20
-94.2355
 30
0.0
 10
-130.9705
 20
-94.2355
 30
0.0
 10
-130.9705
 20
-94.2355
 30
0.0
 10
-129.9777
 20
-95.9229
 30
0.0
 10
-131.5043
 20
-96.965
 30
0.0
 10
-132.9497
 20
-96.1649
 30
0.0
 10
-132.9497
 20
-96.1649
 30
0.0
 10
-132.9497
 20
-96.1649
 30
0.0
 10
-165.1875
 20
-78.2035
 30
0.0
 10
-165.1875
 20
-78.2035
 30
0.0
 10
-165.1875
 20
-78.2035
 30
0.0
 10
-166.5242
 20
-77.3867
 30
0.0
 10
-166.2272
 20
-75.7447
 30
0.0
 10
-164.5656
 20
-75.6227
 30
0.0
  0
SPLINE
  5
66
330
1F
100
AcDbEntity
  8
layer 1
 62
     7
100
AcDbSpline
210
0.0
220
0.0
230
1.0
 70
    11
 71
     3
 72
    32
 73
    28
 74
     0
 42
0.0000000001
 43
0.0000000001
 12
1.0
 22
0.0
 32
0.0
 13
1.0
 23
0.0
 33
0.0
 40
0.0
 40
0.0
 40
0.0
 40
0.0
 40
0.125
 40
0.125
 40
0.125
 40
0.125
 40
0.25
 40
0.25
 40
0.25
 40
0.25
 40
0.375
 40
0.375
 40
0.375
 40
0.375
 40
0.5
 40
0.5
 40
0.5
 40
0.5
 40
0.625
 40
0.625
 40
0.625
 40
0.625
 40
0.75
 40
0.75
 40
0.75
 40
0.75
 40
1.0
 40
1.0
 40
1.0
 40
1.0
 10
-175.7631
 20
-69.5546
 30
0.0
 10
-175.7631
 20
-69.5546
 30
0.0
 10
-162.4437
 20
-47.0597
 30
0.0
 10
-162.4437
 20
-47.0597
 30
0.0
 10
-162.4437
 20
-47.0597
 30
0.0
 10
-161.813
 20
-45.9777
 30
0.0
 10
-161.6017
 20
-45.5138
 30
0.0
 10
-162.6086
 20
-43.7629
 30
0.0
 10
-162.6086
 20
-43.7629
 30
0.0
 10
-162.6086
 20
-43.7629
 30
0.0
 10
-175.6472
 20
-21.4795
 30
0.0
 10
-175.6472
 20
-21.4795
 30
0.0
 10
-175.6472
 20
-21.4795
 30
0.0
 10
-176.6121
 20
-19.776
 30
0.0
 10
-178.2779
 20
-20.5771
 30
0.0
 10
-178.3077
 20
-22.2289
 30
0.0
 10
-178.3077
 20
-22.2289
 30
0.0
 10
-178.3077
 20
-22.2289
 30
0.0
 10
-178.423
 20
-68.7372
 30
0.0
 10
-178.423
 20
-68.7372
 30
0.0
 10
-178.423
 20
-68.7372
 30
0.0
 10
-178.384
 20
-70.3032
 30
0.0
 10
-176.6996
 20
-70.9327
 30
0.0
 10
-175.7631
 20
-69.5546
 30
0.0
 10
-175.7631
 20
-69.5546
 30
0.0
 10
-175.7631
 20
-69.5546
 30
0.0
 10
-175.7631
 20
-69.5546
 30
0.0
 10
-175.7631
 20
-69.5546
 30
0.0
  0
SPLINE
  5
67
330
1F
100
AcDbEntity
  8
layer 1
 62
     7
100
AcDbSpline
210
0.0
220
0.0
230
1.0
 70
    11
 71
     3
 72
    32
 73
    28
 74
     0
 42
0.0000000001
 43
0.0000000001
 12
1.0
 22
0.0
 32
0.0
 13
1.0
 23
0.0
 33
0.0
 40
0.0
 40
0.0
 40
0.0
 40
0.0
 40
0.125
 40
0.125
 40
0.125
 40
0.125
 40
0.25
 40
0.25
 40
0.25
 40
0.25
 40
0.375
 40
0.375
 40
0.375
 40
0.375
 40
0.5
 40
0.5
 40
0.5
 40
0.5
 40
0.625
 40
0.625
 40
0.625
 40
0.625
 40
0.75
 40
0.75
 40
0.75
 40
0.75
 40
1.0
 40
1.0
 40
1.0
 40
1.0
 10
-74.4285
 20
-69.5546
 30
0.0
 10
-74.4285
 20
-69.5546
 30
0.0
 10
-87.7478
 20
-47.0597
 30
0.0
 10
-87.7478
 20
-47.0597
 30
0.0
 10
-87.7478
 20
-47.0597
 30
0.0
 10
-88.3786
 20
-45.9777
 30
0.0
 10
-88.5898
 20
-45.5138
 30
0.0
 10
-87.5829
 20
-43.7629
 30
0.0
 10
-87.5829
 20
-43.7629
 30
0.0
 10
-87.5829
 20
-43.7629
 30
0.0
 10
-74.5443
 20
-21.4795
 30
0.0
 10
-74.5443
 20
-21.4795
 30
0.0
 10
-74.5443
 20
-21.4795
 30
0.0
 10
-73.5794
 20
-19.776
 30
0.0
 10
-71.9136
 20
-20.5771
 30
0.0
 10
-71.8838
 20
-22.2289
 30
0.0
 10
-71.8838
 20
-22.2289
 30
0.0
 10
-71.8838
 20
-22.2289
 30
0.0
 10
-71.7686
 20
-68.7372
 30
0.0
 10
-71.7686
 20
-68.7372
 30
0.0
 10
-71.7686
 20
-68.7372
 30
0.0
 10
-71.8076
 20
-70.3032
 30
0.0
 10
-73.492
 20
-70.9327
 30
0.0
 10
-74.4284
 20
-69.5546
 30
0.0
 10
-74.4284
 20
-69.5546
 30
0.0
 10
-74.4284
 20
-69.5546
 30
0.0
 10
-74.4285
 20
-69.5546
 30
0.0
 10
-74.4285
 20
-69.5546
 30
0.0
  0
SPLINE
  5
68
330
1F
100
AcDbEntity
  8
layer 1
 62
     7
100
AcDbSpline
210
0.0
220
0.0
230
1.0
 70
    11
 71
     3
 72
    32
 73
    28
 74
     0
 42
0.0000000001
 43
0.0000000001
 12
1.0
 22
0.0
 32
0.0
 13
1.0
 23
0.0
 33
0.0
 40
0.0
 40
0.0
 40
0.0
 40
0.0
 40
0.125
 40
0.125
 40
0.125
 40
0.125
 40
0.25
 40
0.25
 40
0.25
 40
0.25
 40
0.375
 40
0.375
 40
0.375
 40
0.375
 40
0.5
 40
0.5
 40
0.5
 40
0.5
 40
0.625
 40
0.625
 40
0.625
 40
0.625
 40
0.75
 40
0.75
 40
0.75
 40
0.75
 40
1.0
 40
1.0
 40
1.0
 40
1.0
 10
-175.7631
 20
-12.0452
 30
0.0
 10
-175.7631
 20
-12.0452
 30
0.0
 10
-162.4437
 20
10.4498
 30
0.0
 10
-162.4437
 20
10.4498
 30
0.0
 10
-162.4437
 20
10.4498
 30
0.0
 10
-161.813
 20
11.5318
 30
0.0
 10
-161.6017
 20
11.9957
 30
0.0
 10
-162.6086
 20
13.7465
 30
0.0
 10
-162.6086
 20
13.7465
 30
0.0
 10
-162.6086
 20
13.7465
 30
0.0
 10
-175.6472
 20
36.0299
 30
0.0
 10
-175.6472
 20
36.0299
 30
0.0
 10
-175.6472
 20
36.0299
 30
0.0
 10
-176.6121
 20
37.7334
 30
0.0
 10
-178.2779
 20
36.9324
 30
0.0
 10
-178.3077
 20
35.2806
 30
0.0
 10
-178.3077
 20
35.2806
 30
0.0
 10
-178.3077
 20
35.2806
 30
0.0
 10
-178.423
 20
-11.2278
 30
0.0
 10
-178.423
 20
-11.2278
 30
0.0
 10
-178.423
 20
-11.2278
 30
0.0
 10
-178.384
 20
-12.7937
 30
0.0
 10
-176.6996
 20
-13.4232
 30
0.0
 10
-175.7631
 20
-12.0452
 30
0.0
 10
-175.7631
 20
-12.0452
 30
0.0
 10
-175.7631
 20
-12.0452
 30
0.0
 10
-175.7631
 20
-12.0452
 30
0.0
 10
-175.7631
 20
-12.0452
 30
0.0
  0
SPLINE
  5
69
330
1F
100
AcDbEntity
  8
layer 1
 62
     7
100
AcDbSpline
210
0.0
220
0.0
230
1.0
 70
    11
 71
     3
 72
    32
 73
    28
 74
     0
 42
0.0000000001
 43
0.0000000001
 12
1.0
 22
0.0
 32
0.0
 13
1.0
 23
0.0
 33
0.0
 40
0.0
 40
0.0
 40
0.0
 40
0.0
 40
0.125
 40
0.125
 40
0.125
 40
0.125
 40
0.25
 40
0.25
 40
0.25
 40
0.25
 40
0.375
 40
0.375
 40
0.375
 40
0.375
 40
0.5
 40
0.5
 40
0.5
 40
0.5
 40
0.625
 40
0.625
 40
0.625
 40
0.625
 40
0.75
 40
0.75
 40
0.75
 40
0.75
 40
1.0
 40
1.0
 40
1.0
 40
1.0
 10
-74.4285
 20
-12.0452
 30
0.0
 10
-74.4285
 20
-12.0452
 30
0.0
 10
-87.7478
 20
10.4498
 30
0.0
 10
-87.7478
 20
10.4498
 30
0.0
 10
-87.7478
 20
10.4498
 30
0.0
 10
-88.3786
 20
11.5318
 30
0.0
 10
-88.5898
 20
11.9957
 30
0.0
 10
-87.5829
 20
13.7465
 30
0.0
 10
-87.5829
 20
13.7465
 30
0.0
 10
-87.5829
 20
13.7465
 30
0.0
 10
-74.5443
 20
36.0299
 30
0.0
 10
-74.5443
 20
36.0299
 30
0.0
 10
-74.5443
 20
36.0299
 30
0.0
 10
-73.5794
 20
37.7334
 30
0.0
 10
-71.9136
 20
36.9324
 30
0.0
 10
-71.8838
 20
35.2806
 30
0.0
 10
-71.8838
 20
35.2806
 30
0.0
 10
-71.8838
 20
35.2806
 30
0.0
 10
-71.7686
 20
-11.2278
 30
0.0
 10
-71.7686
 20
-11.2278
 30
0.0
 10
-71.7686
 20
-11.2278
 30
0.0
 10
-71.8076
 20
-12.7937
 30
0.0
 10
-73.492
 20
-13.4232
 30
0.0
 10
-74.4284
 20
-12.0452
 30
0.0
 10
-74.4284
 20
-12.0452
 30
0.0
 10
-74.4284
 20
-12.0452
 30
0.0
 10
-74.4285
 20
-12.0452
 30
0.0
 10
-74.4285
 20
-12.0452
 30
0.0
  0
SPLINE
  5
6A
330
1F
100
AcDbEntity
  8
layer 1
 62
     7
100
AcDbSpline
210
0.0
220
0.0
230
1.0
 70
    11
 71
     3
 72
    28
 73
    24
 74
     0
 42
0.0000000001
 43
0.0000000001
 12
1.0
 22
0.0
 32
0.0
 13
1.0
 23
0.0
 33
0.0
 40
0.0
 40
0.0
 40
0.0
 40
0.0
 40
0.1428571428571428
 40
0.1428571428571428
 40
0.1428571428571428
 40
0.1428571428571428
 40
0.2857142857142857
 40
0.2857142857142857
 40
0.2857142857142857
 40
0.2857142857142857
 40
0.4285714285714285
 40
0.4285714285714285
 40
0.4285714285714285
 40
0.4285714285714285
 40
0.5714285714285714
 40
0.5714285714285714
 40
0.5714285714285714
 40
0.5714285714285714
 40
0.7142857142857143
 40
0.7142857142857143
 40
0.7142857142857143
 40
0.7142857142857143
 40
1.0
 40
1.0
 40
1.0
 40
1.0
 10
-175.5897
 20
45.5355
 30
0.0
 10
-175.5897
 20
45.5355
 30
0.0
 10
-162.2703
 20
68.0304
 30
0.0
 10
-162.2703
 20
68.0304
 30
0.0
 10
-162.2703
 20
68.0304
 30
0.0
 10
-161.6396
 20
69.1124
 30
0.0
 10
-161.4283
 20
69.5763
 30
0.0
 10
-162.4352
 20
71.3272
 30
0.0
 10
-162.4352
 20
71.3272
 30
0.0
 10
-162.4352
 20
71.3272
 30
0.0
 10
-175.4738
 20
93.6106
 30
0.0
 10
-175.4738
 20
93.6106
 30
0.0
 10
-175.4738
 20
93.6106
 30
0.0
 10
-176.4387
 20
95.3141
 30
0.0
 10
-178.1045
 20
94.513
 30
0.0
 10
-178.1343
 20
92.8612
 30
0.0
 10
-178.1343
 20
92.8612
 30
0.0
 10
-178.1343
 20
92.8612
 30
0.0
 10
-178.2495
 20
46.3529
 30
0.0
 10
-178.2495
 20
46.3529
 30
0.0
 10
-178.2495
 20
46.3529
 30
0.0
 10
-178.2105
 20
44.787
 30
0.0
 10
-176.5261
 20
44.1574
 30
0.0
 10
-175.5897
 20
45.5355
 30
0.0
  0
SPLINE
  5
6B
330
1F
100
AcDbEntity
  8
layer 1
 62
     7
100
AcDbSpline
210
0.0
220
0.0
230
1.0
 70
    11
 71
     3
 72
    32
 73
    28
 74
     0
 42
0.0000000001
 43
0.0000000001
 12
1.0
 22
0.0
 32
0.0
 13
1.0
 23
0.0
 33
0.0
 40
0.0
 40
0.0
 40
0.0
 40
0.0
 40
0.125
 40
0.125
 40
0.125
 40
0.125
 40
0.25
 40
0.25
 40
0.25
 40
0.25
 40
0.375
 40
0.375
 40
0.375
 40
0.375
 40
0.5
 40
0.5
 40
0.5
 40
0.5
 40
0.625
 40
0.625
 40
0.625
 40
0.625
 40
0.75
 40
0.75
 40
0.75
 40
0.75
 40
1.0
 40
1.0
 40
1.0
 40
1.0
 10
-74.2551
 20
45.5355
 30
0.0
 10
-74.2551
 20
45.5355
 30
0.0
 10
-87.5744
 20
68.0304
 30
0.0
 10
-87.5744
 20
68.0304
 30
0.0
 10
-87.5744
 20
68.0304
 30
0.0
 10
-88.2052
 20
69.1124
 30
0.0
 10
-88.4164
 20
69.5763
 30
0.0
 10
-87.4095
 20
71.3272
 30
0.0
 10
-87.4095
 20
71.3272
 30
0.0
 10
-87.4095
 20
71.3272
 30
0.0
 10
-74.3709
 20
93.6106
 30
0.0
 10
-74.3709
 20
93.6106
 30
0.0
 10
-74.3709
 20
93.6106
 30
0.0
 10
-73.406
 20
95.3141
 30
0.0
 10
-71.7402
 20
94.513
 30
0.0
 10
-71.7104
 20
92.8612
 30
0.0
 10
-71.7104
 20
92.8612
 30
0.0
 10
-71.7104
 20
92.8612
 30
0.0
 10
-71.5952
 20
46.3529
 30
0.0
 10
-71.5952
 20
46.3529
 30
0.0
 10
-71.5952
 20
46.3529
 30
0.0
 10
-71.6342
 20
44.787
 30
0.0
 10
-73.3186
 20
44.1574
 30
0.0
 10
-74.255
 20
45.5355
 30
0.0
 10
-74.255
 20
45.5355
 30
0.0
 10
-74.255
 20
45.5355
 30
0.0
 10
-74.2551
 20
45.5355
 30
0.0
 10
-74.2551
 20
45.5355
 30
0.0
  0
SPLINE
  5
6C
330
1F
100
AcDbEntity
  8
layer 1
 62
     7
100
AcDbSpline
210
0.0
220
0.0
230
1.0
 70
    11
 71
     3
 72
    32
 73
    28
 74
     0
 42
0.0000000001
 43
0.0000000001
 12
1.0
 22
0.0
 32
0.0
 13
1.0
 23
0.0
 33
0.0
 40
0.0
 40
0.0
 40
0.0
 40
0.0
 40
0.125
 40
0.125
 40
0.125
 40
0.125
 40
0.25
 40
0.25
 40
0.25
 40
0.25
 40
0.375
 40
0.375
 40
0.375
 40
0.375
 40
0.5
 40
0.5
 40
0.5
 40
0.5
 40
0.625
 40
0.625
 40
0.625
 40
0.625
 40
0.75
 40
0.75
 40
0.75
 40
0.75
 40
1.0
 40
1.0
 40
1.0
 40
1.0
 10
-178.3955
 20
-79.0194
 30
0.0
 10
-178.3955
 20
-79.0194
 30
0.0
 10
-178.4465
 20
-94.1904
 30
0.0
 10
-178.4465
 20
-94.1904
 30
0.0
 10
-178.4465
 20
-94.1904
 30
0.0
 10
-178.4518
 20
-95.4429
 30
0.0
 10
-178.4465
 20
-96.3211
 30
0.0
 10
-176.6554
 20
-96.9631
 30
0.0
 10
-176.6554
 20
-96.9631
 30
0.0
 10
-176.6554
 20
-96.9631
 30
0.0
 10
-168.7355
 20
-96.9371
 30
0.0
 10
-168.7355
 20
-96.9371
 30
0.0
 10
-168.7355
 20
-96.9371
 30
0.0
 10
-166.4654
 20
-96.9371
 30
0.0
 10
-165.847
 20
-95.5557
 30
0.0
 10
-166.6472
 20
-94.1103
 30
0.0
 10
-166.6472
 20
-94.1103
 30
0.0
 10
-166.6472
 20
-94.1103
 30
0.0
 10
-175.8148
 20
-78.3974
 30
0.0
 10
-175.8148
 20
-78.3974
 30
0.0
 10
-175.8148
 20
-78.3974
 30
0.0
 10
-176.6316
 20
-77.0608
 30
0.0
 10
-178.2736
 20
-77.3578
 30
0.0
 10
-178.3956
 20
-79.0194
 30
0.0
 10
-178.3956
 20
-79.0194
 30
0.0
 10
-178.3956
 20
-79.0194
 30
0.0
 10
-178.3955
 20
-79.0194
 30
0.0
 10
-178.3955
 20
-79.0194
 30
0.0
  0
SPLINE
  5
6D
330
1F
100
AcDbEntity
  8
layer 1
 62
     7
100
AcDbSpline
210
0.0
220
0.0
230
1.0
 70
    11
 71
     3
 72
    32
 73
    28
 74
     0
 42
0.0000000001
 43
0.0000000001
 12
1.0
 22
0.0
 32
0.0
 13
1.0
 23
0.0
 33
0.0
 40
0.0
 40
0.0
 40
0.0
 40
0.0
 40
0.125
 40
0.125
 40
0.125
 40
0.125
 40
0.25
 40
0.25
 40
0.25
 40
0.25
 40
0.375
 40
0.375
 40
0.375
 40
0.375
 40
0.5
 40
0.5
 40
0.5
 40
0.5
 40
0.625
 40
0.625
 40
0.625
 40
0.625
 40
0.75
 40
0.75
 40
0.75
 40
0.75
 40
1.0
 40
1.0
 40
1.0
 40
1.0
 10
-169.6427
 20
-82.2675
 30
0.0
 10
-169.6427
 20
-82.2675
 30
0.0
 10
-161.9317
 20
-95.4073
 30
0.0
 10
-161.9317
 20
-95.4073
 30
0.0
 10
-161.9317
 20
-95.4073
 30
0.0
 10
-161.31
 20
-96.4945
 30
0.0
 10
-160.8906
 20
-96.9371
 30
0.0
 10
-159.1638
 20
-96.9371
 30
0.0
 10
-159.1638
 20
-96.9371
 30
0.0
 10
-159.1638
 20
-96.9371
 30
0.0
 10
-143.5951
 20
-96.9371
 30
0.0
 10
-143.5951
 20
-96.9371
 30
0.0
 10
-143.5951
 20
-96.9371
 30
0.0
 10
-141.6775
 20
-96.9371
 30
0.0
 10
-141.1543
 20
-94.7085
 30
0.0
 10
-143.2484
 20
-93.8083
 30
0.0
 10
-143.2484
 20
-93.8083
 30
0.0
 10
-143.2484
 20
-93.8083
 30
0.0
 10
-167.7187
 20
-80.4384
 30
0.0
 10
-167.7187
 20
-80.4384
 30
0.0
 10
-167.7187
 20
-80.4384
 30
0.0
 10
-169.0943
 20
-79.6893
 30
0.0
 10
-170.3679
 20
-80.7674
 30
0.0
 10
-169.6427
 20
-82.2675
 30
0.0
 10
-169.6427
 20
-82.2675
 30
0.0
 10
-169.6427
 20
-82.2675
 30
0.0
 10
-169.6427
 20
-82.2675
 30
0.0
 10
-169.6427
 20
-82.2675
 30
0.0
  0
SPLINE
  5
6E
330
1F
100
AcDbEntity
  8
layer 1
 62
     7
100
AcDbSpline
210
0.0
220
0.0
230
1.0
 70
    11
 71
     3
 72
    32
 73
    28
 74
     0
 42
0.0000000001
 43
0.0000000001
 12
1.0
 22
0.0
 32
0.0
 13
1.0
 23
0.0
 33
0.0
 40
0.0
 40
0.0
 40
0.0
 40
0.0
 40
0.125
 40
0.125
 40
0.125
 40
0.125
 40
0.25
 40
0.25
 40
0.25
 40
0.25
 40
0.375
 40
0.375
 40
0.375
 40
0.375
 40
0.5
 40
0.5
 40
0.5
 40
0.5
 40
0.625
 40
0.625
 40
0.625
 40
0.625
 40
0.75
 40
0.75
 40
0.75
 40
0.75
 40
1.0
 40
1.0
 40
1.0
 40
1.0
 10
-71.9751
 20
-79.0194
 30
0.0
 10
-71.9751
 20
-79.0194
 30
0.0
 10
-71.9241
 20
-94.1904
 30
0.0
 10
-71.9241
 20
-94.1904
 30
0.0
 10
-71.9241
 20
-94.1904
 30
0.0
 10
-71.9188
 20
-95.4429
 30
0.0
 10
-71.9241
 20
-96.3211
 30
0.0
 10
-73.7153
 20
-96.9631
 30
0.0
 10
-73.7153
 20
-96.9631
 30
0.0
 10
-73.7153
 20
-96.9631
 30
0.0
 10
-81.6352
 20
-96.9371
 30
0.0
 10
-81.6352
 20
-96.9371
 30
0.0
 10
-81.6352
 20
-96.9371
 30
0.0
 10
-83.9053
 20
-96.9371
 30
0.0
 10
-84.5236
 20
-95.5557
 30
0.0
 10
-83.7235
 20
-94.1103
 30
0.0
 10
-83.7235
 20
-94.1103
 30
0.0
 10
-83.7235
 20
-94.1103
 30
0.0
 10
-74.5558
 20
-78.3974
 30
0.0
 10
-74.5558
 20
-78.3974
 30
0.0
 10
-74.5558
 20
-78.3974
 30
0.0
 10
-73.739
 20
-77.0608
 30
0.0
 10
-72.0971
 20
-77.3578
 30
0.0
 10
-71.9751
 20
-79.0194
 30
0.0
 10
-71.9751
 20
-79.0194
 30
0.0
 10
-71.9751
 20
-79.0194
 30
0.0
 10
-71.9751
 20
-79.0194
 30
0.0
 10
-71.9751
 20
-79.0194
 30
0.0
  0
SPLINE
  5
6F
330
1F
100
AcDbEntity
  8
layer 1
 62
     7
100
AcDbSpline
210
0.0
220
0.0
230
1.0
 70
    11
 71
     3
 72
    28
 73
    24
 74
     0
 42
0.0000000001
 43
0.0000000001
 12
1.0
 22
0.0
 32
0.0
 13
1.0
 23
0.0
 33
0.0
 40
0.0
 40
0.0
 40
0.0
 40
0.0
 40
0.1428571428571428
 40
0.1428571428571428
 40
0.1428571428571428
 40
0.1428571428571428
 40
0.2857142857142857
 40
0.2857142857142857
 40
0.2857142857142857
 40
0.2857142857142857
 40
0.4285714285714285
 40
0.4285714285714285
 40
0.4285714285714285
 40
0.4285714285714285
 40
0.5714285714285714
 40
0.5714285714285714
 40
0.5714285714285714
 40
0.5714285714285714
 40
0.7142857142857143
 40
0.7142857142857143
 40
0.7142857142857143
 40
0.7142857142857143
 40
1.0
 40
1.0
 40
1.0
 40
1.0
 10
-80.728
 20
-82.2675
 30
0.0
 10
-80.728
 20
-82.2675
 30
0.0
 10
-88.439
 20
-95.4073
 30
0.0
 10
-88.439
 20
-95.4073
 30
0.0
 10
-88.439
 20
-95.4073
 30
0.0
 10
-89.0607
 20
-96.4945
 30
0.0
 10
-89.4801
 20
-96.9371
 30
0.0
 10
-91.2069
 20
-96.9371
 30
0.0
 10
-91.2069
 20
-96.9371
 30
0.0
 10
-91.2069
 20
-96.9371
 30
0.0
 10
-106.7756
 20
-96.9371
 30
0.0
 10
-106.7756
 20
-96.9371
 30
0.0
 10
-106.7756
 20
-96.9371
 30
0.0
 10
-108.6931
 20
-96.9371
 30
0.0
 10
-109.2164
 20
-94.7085
 30
0.0
 10
-107.1223
 20
-93.8083
 30
0.0
 10
-107.1223
 20
-93.8083
 30
0.0
 10
-107.1223
 20
-93.8083
 30
0.0
 10
-82.652
 20
-80.4384
 30
0.0
 10
-82.652
 20
-80.4384
 30
0.0
 10
-82.652
 20
-80.4384
 30
0.0
 10
-81.2764
 20
-79.6893
 30
0.0
 10
-80.0029
 20
-80.7674
 30
0.0
 10
-80.728
 20
-82.2675
 30
0.0
  0
SPLINE
  5
70
330
1F
100
AcDbEntity
  8
layer 1
 62
     7
100
AcDbSpline
210
0.0
220
0.0
230
1.0
 70
    11
 71
     3
 72
    32
 73
    28
 74
     0
 42
0.0000000001
 43
0.0000000001
 12
1.0
 22
0.0
 32
0.0
 13
1.0
 23
0.0
 33
0.0
 40
0.0
 40
0.0
 40
0.0
 40
0.0
 40
0.125
 40
0.125
 40
0.125
 40
0.125
 40
0.25
 40
0.25
 40
0.25
 40
0.25
 40
0.375
 40
0.375
 40
0.375
 40
0.375
 40
0.5
 40
0.5
 40
0.5
 40
0.5
 40
0.625
 40
0.625
 40
0.625
 40
0.625
 40
0.75
 40
0.75
 40
0.75
 40
0.75
 40
1.0
 40
1.0
 40
1.0
 40
1.0
 10
-178.3955
 20
104.4447
 30
0.0
 10
-178.3955
 20
104.4447
 30
0.0
 10
-178.4465
 20
119.6157
 30
0.0
 10
-178.4465
 20
119.6157
 30
0.0
 10
-178.4465
 20
119.6157
 30
0.0
 10
-178.4518
 20
120.8682
 30
0.0
 10
-178.4465
 20
121.7464
 30
0.0
 10
-176.6554
 20
122.3884
 30
0.0
 10
-176.6554
 20
122.3884
 30
0.0
 10
-176.6554
 20
122.3884
 30
0.0
 10
-168.7355
 20
122.3624
 30
0.0
 10
-168.7355
 20
122.3624
 30
0.0
 10
-168.7355
 20
122.3624
 30
0.0
 10
-166.4654
 20
122.3624
 30
0.0
 10
-165.847
 20
120.981
 30
0.0
 10
-166.6472
 20
119.5356
 30
0.0
 10
-166.6472
 20
119.5356
 30
0.0
 10
-166.6472
 20
119.5356
 30
0.0
 10
-175.8148
 20
103.8226
 30
0.0
 10
-175.8148
 20
103.8226
 30
0.0
 10
-175.8148
 20
103.8226
 30
0.0
 10
-176.6316
 20
102.486
 30
0.0
 10
-178.2736
 20
102.7831
 30
0.0
 10
-178.3956
 20
104.4447
 30
0.0
 10
-178.3956
 20
104.4447
 30
0.0
 10
-178.3956
 20
104.4447
 30
0.0
 10
-178.3955
 20
104.4447
 30
0.0
 10
-178.3955
 20
104.4447
 30
0.0
  0
SPLINE
  5
71
330
1F
100
AcDbEntity
  8
layer 1
 62
     7
100
AcDbSpline
210
0.0
220
0.0
230
1.0
 70
    11
 71
     3
 72
    32
 73
    28
 74
     0
 42
0.0000000001
 43
0.0000000001
 12
1.0
 22
0.0
 32
0.0
 13
1.0
 23
0.0
 33
0.0
 40
0.0
 40
0.0
 40
0.0
 40
0.0
 40
0.125
 40
0.125
 40
0.125
 40
0.125
 40
0.25
 40
0.25
 40
0.25
 40
0.25
 40
0.375
 40
0.375
 40
0.375
 40
0.375
 40
0.5
 40
0.5
 40
0.5
 40
0.5
 40
0.625
 40
0.625
 40
0.625
 40
0.625
 40
0.75
 40
0.75
 40
0.75
 40
0.75
 40
1.0
 40
1.0
 40
1.0
 40
1.0
 10
-169.6427
 20
107.6928
 30
0.0
 10
-169.6427
 20
107.6928
 30
0.0
 10
-161.9317
 20
120.8325
 30
0.0
 10
-161.9317
 20
120.8325
 30
0.0
 10
-161.9317
 20
120.8325
 30
0.0
 10
-161.31
 20
121.9198
 30
0.0
 10
-160.8906
 20
122.3623
 30
0.0
 10
-159.1638
 20
122.3623
 30
0.0
 10
-159.1638
 20
122.3623
 30
0.0
 10
-159.1638
 20
122.3623
 30
0.0
 10
-143.5951
 20
122.3623
 30
0.0
 10
-143.5951
 20
122.3623
 30
0.0
 10
-143.5951
 20
122.3623
 30
0.0
 10
-141.6775
 20
122.3623
 30
0.0
 10
-141.1543
 20
120.1337
 30
0.0
 10
-143.2484
 20
119.2336
 30
0.0
 10
-143.2484
 20
119.2336
 30
0.0
 10
-143.2484
 20
119.2336
 30
0.0
 10
-167.7187
 20
105.8637
 30
0.0
 10
-167.7187
 20
105.8637
 30
0.0
 10
-167.7187
 20
105.8637
 30
0.0
 10
-169.0943
 20
105.1146
 30
0.0
 10
-170.3679
 20
106.1927
 30
0.0
 10
-169.6427
 20
107.6928
 30
0.0
 10
-169.6427
 20
107.6928
 30
0.0
 10
-169.6427
 20
107.6928
 30
0.0
 10
-169.6427
 20
107.6928
 30
0.0
 10
-169.6427
 20
107.6928
 30
0.0
  0
SPLINE
  5
72
330
1F
100
AcDbEntity
  8
layer 1
 62
     7
100
AcDbSpline
210
0.0
220
0.0
230
1.0
 70
    11
 71
     3
 72
    32
 73
    28
 74
     0
 42
0.0000000001
 43
0.0000000001
 12
1.0
 22
0.0
 32
0.0
 13
1.0
 23
0.0
 33
0.0
 40
0.0
 40
0.0
 40
0.0
 40
0.0
 40
0.125
 40
0.125
 40
0.125
 40
0.125
 40
0.25
 40
0.25
 40
0.25
 40
0.25
 40
0.375
 40
0.375
 40
0.375
 40
0.375
 40
0.5
 40
0.5
 40
0.5
 40
0.5
 40
0.625
 40
0.625
 40
0.625
 40
0.625
 40
0.75
 40
0.75
 40
0.75
 40
0.75
 40
1.0
 40
1.0
 40
1.0
 40
1.0
 10
-71.9751
 20
104.4447
 30
0.0
 10
-71.9751
 20
104.4447
 30
0.0
 10
-71.9241
 20
119.6157
 30
0.0
 10
-71.9241
 20
119.6157
 30
0.0
 10
-71.9241
 20
119.6157
 30
0.0
 10
-71.9188
 20
120.8682
 30
0.0
 10
-71.9241
 20
121.7464
 30
0.0
 10
-73.7153
 20
122.3884
 30
0.0
 10
-73.7153
 20
122.3884
 30
0.0
 10
-73.7153
 20
122.3884
 30
0.0
 10
-81.6352
 20
122.3624
 30
0.0
 10
-81.6352
 20
122.3624
 30
0.0
 10
-81.6352
 20
122.3624
 30
0.0
 10
-83.9053
 20
122.3624
 30
0.0
 10
-84.5236
 20
120.981
 30
0.0
 10
-83.7235
 20
119.5356
 30
0.0
 10
-83.7235
 20
119.5356
 30
0.0
 10
-83.7235
 20
119.5356
 30
0.0
 10
-74.5558
 20
103.8227
 30
0.0
 10
-74.5558
 20
103.8227
 30
0.0
 10
-74.5558
 20
103.8227
 30
0.0
 10
-73.739
 20
102.4861
 30
0.0
 10
-72.0971
 20
102.7831
 30
0.0
 10
-71.9751
 20
104.4447
 30
0.0
 10
-71.9751
 20
104.4447
 30
0.0
 10
-71.9751
 20
104.4447
 30
0.0
 10
-71.9751
 20
104.4447
 30
0.0
 10
-71.9751
 20
104.4447
 30
0.0
  0
SPLINE
  5
73
330
1F
100
AcDbEntity
  8
layer 1
 62
     7
100
AcDbSpline
210
0.0
220
0.0
230
1.0
 70
    11
 71
     3
 72
    28
 73
    24
 74
     0
 42
0.0000000001
 43
0.0000000001
 12
1.0
 22
0.0
 32
0.0
 13
1.0
 23
0.0
 33
0.0
 40
0.0
 40
0.0
 40
0.0
 40
0.0
 40
0.1428571428571428
 40
0.1428571428571428
 40
0.1428571428571428
 40
0.1428571428571428
 40
0.2857142857142857
 40
0.2857142857142857
 40
0.2857142857142857
 40
0.2857142857142857
 40
0.4285714285714285
 40
0.4285714285714285
 40
0.4285714285714285
 40
0.4285714285714285
 40
0.5714285714285714
 40
0.5714285714285714
 40
0.5714285714285714
 40
0.5714285714285714
 40
0.7142857142857143
 40
0.7142857142857143
 40
0.7142857142857143
 40
0.7142857142857143
 40
1.0
 40
1.0
 40
1.0
 40
1.0
 10
-80.728
 20
107.6928
 30
0.0
 10
-80.728
 20
107.6928
 30
0.0
 10
-88.439
 20
120.8326
 30
0.0
 10
-88.439
 20
120.8326
 30
0.0
 10
-88.439
 20
120.8326
 30
0.0
 10
-89.0607
 20
121.9198
 30
0.0
 10
-89.4801
 20
122.3624
 30
0.0
 10
-91.2069
 20
122.3624
 30
0.0
 10
-91.2069
 20
122.3624
 30
0.0
 10
-91.2069
 20
122.3624
 30
0.0
 10
-106.7756
 20
122.3624
 30
0.0
 10
-106.7756
 20
122.3624
 30
0.0
 10
-106.7756
 20
122.3624
 30
0.0
 10
-108.6931
 20
122.3624
 30
0.0
 10
-109.2164
 20
120.1338
 30
0.0
 10
-107.1223
 20
119.2336
 30
0.0
 10
-107.1223
 20
119.2336
 30
0.0
 10
-107.1223
 20
119.2336
 30
0.0
 10
-82.652
 20
105.8637
 30
0.0
 10
-82.652
 20
105.8637
 30
0.0
 10
-82.652
 20
105.8637
 30
0.0
 10
-81.2764
 20
105.1146
 30
0.0
 10
-80.0029
 20
106.1927
 30
0.0
 10
-80.728
 20
107.6928
 30
0.0
  0
ENDSEC
  0
SECTION
  2
OBJECTS
  0
DICTIONARY
  5
C
330
0
100
AcDbDictionary
281
     1
  3
ACAD_GROUP
350
D
  3
ACAD_LAYOUT
350
1A
  3
ACAD_MATERIAL
350
3B
  3
ACAD_MLEADERSTYLE
350
96
  3
ACAD_MLINESTYLE
350
17
  3
ACAD_PLOTSETTINGS
350
19
  3
ACAD_PLOTSTYLENAME
350
E
  3
ACAD_TABLESTYLE
350
95
  3
ACAD_VISUALSTYLE
350
2A
  0
DICTIONARY
  5
D
102
{ACAD_REACTORS
330
C
102
}
330
C
100
AcDbDictionary
281
     1
  0
DICTIONARY
  5
1A
102
{ACAD_REACTORS
330
C
102
}
330
C
100
AcDbDictionary
281
     1
  3
Layout1
350
1E
  3
Layout2
350
26
  3
Model
350
22
  0
DICTIONARY
  5
3B
102
{ACAD_REACTORS
330
C
102
}
330
C
100
AcDbDictionary
281
     1
  3
ByBlock
350
3D
  3
ByLayer
350
3C
  3
Global
350
3E
  0
DICTIONARY
  5
96
102
{ACAD_REACTORS
330
C
102
}
330
C
100
AcDbDictionary
281
     1
  0
DICTIONARY
  5
17
102
{ACAD_REACTORS
330
C
102
}
330
C
100
AcDbDictionary
281
     1
  3
Standard
350
18
  0
DICTIONARY
  5
19
102
{ACAD_REACTORS
330
C
102
}
330
C
100
AcDbDictionary
281
     1
  0
ACDBDICTIONARYWDFLT
  5
E
102
{ACAD_REACTORS
330
C
102
}
330
C
100
AcDbDictionary
281
     1
  3
Normal
350
F
100
AcDbDictionaryWithDefault
340
F
  0
DICTIONARY
  5
95
102
{ACAD_REACTORS
330
C
102
}
330
C
100
AcDbDictionary
281
     1
  0
DICTIONARY
  5
2A
102
{ACAD_REACTORS
330
C
102
}
330
C
100
AcDbDictionary
281
     1
  3
2dWireframe
350
2F
  3
3D Hidden
350
31
  3
3dWireframe
350
30
  3
Basic
350
32
  3
Brighten
350
36
  3
ColorChange
350
3A
  3
Conceptual
350
34
  3
Dim
350
35
  3
Facepattern
350
39
  3
Flat
350
2B
  3
FlatWithEdges
350
2C
  3
Gouraud
350
2D
  3
GouraudWithEdges
350
2E
  3
Linepattern
350
38
  3
Realistic
350
33
  3
Thicken
350
37
  0
LAYOUT
  5
1E
102
{ACAD_REACTORS
330
1A
102
}
330
1A
100
AcDbPlotSettings
  1

  2
none_device
  4

  6

 40
0.0
 41
0.0
 42
0.0
 43
0.0
 44
0.0
 45
0.0
 46
0.0
 47
0.0
 48
0.0
 49
0.0
140
0.0
141
0.0
142
1.0
143
1.0
 70
   688
 72
     0
 73
     0
 74
     5
  7

 75
    16
 76
     0
 77
     2
 78
   300
147
1.0
148
0.0
149
0.0
100
AcDbLayout
  1
Layout1
 70
     1
 71
     1
 10
0.0
 20
0.0
 11
12.0
 21
9.0
 12
0.0
 22
0.0
 32
0.0
 14
1.000000000000000E+20
 24
1.000000000000000E+20
 34
1.000000000000000E+20
 15
-1.000000000000000E+20
 25
-1.000000000000000E+20
 35
-1.000000000000000E+20
146
0.0
 13
0.0
 23
0.0
 33
0.0
 16
1.0
 26
0.0
 36
0.0
 17
0.0
 27
1.0
 37
0.0
 76
     0
330
1B
  0
LAYOUT
  5
26
102
{ACAD_REACTORS
330
1A
102
}
330
1A
100
AcDbPlotSettings
  1

  2
none_device
  4

  6

 40
0.0
 41
0.0
 42
0.0
 43
0.0
 44
0.0
 45
0.0
 46
0.0
 47
0.0
 48
0.0
 49
0.0
140
0.0
141
0.0
142
1.0
143
1.0
 70
   688
 72
     0
 73
     0
 74
     5
  7

 75
    16
 76
     0
 77
     2
 78
   300
147
1.0
148
0.0
149
0.0
100
AcDbLayout
  1
Layout2
 70
     1
 71
     2
 10
0.0
 20
0.0
 11
0.0
 21
0.0
 12
0.0
 22
0.0
 32
0.0
 14
0.0
 24
0.0
 34
0.0
 15
0.0
 25
0.0
 35
0.0
146
0.0
 13
0.0
 23
0.0
 33
0.0
 16
1.0
 26
0.0
 36
0.0
 17
0.0
 27
1.0
 37
0.0
 76
     0
330
23
  0
LAYOUT
  5
22
102
{ACAD_REACTORS
330
1A
102
}
330
1A
100
AcDbPlotSettings
  1

  2
none_device
  4

  6

 40
0.0
 41
0.0
 42
0.0
 43
0.0
 44
0.0
 45
0.0
 46
0.0
 47
0.0
 48
0.0
 49
0.0
140
0.0
141
0.0
142
1.0
143
1.0
 70
  1712
 72
     0
 73
     0
 74
     0
  7

 75
     0
 76
     0
 77
     2
 78
   300
147
1.0
148
0.0
149
0.0
100
AcDbLayout
  1
Model
 70
     1
 71
     0
 10
0.0
 20
0.0
 11
12.0
 21
9.0
 12
0.0
 22
0.0
 32
0.0
 14
-187.1588
 24
-106.3941
 34
0.0
 15
-61.9639
 25
131.8595
 35
0.0
146
0.0
 13
0.0
 23
0.0
 33
0.0
 16
1.0
 26
0.0
 36
0.0
 17
0.0
 27
1.0
 37
0.0
 76
     0
330
1F
331
29
  0
MATERIAL
  5
3D
102
{ACAD_REACTORS
330
3B
102
}
330
3B
100
AcDbMaterial
  1
ByBlock
 72
     1
 94
      127
  0
MATERIAL
  5
3C
102
{ACAD_REACTORS
330
3B
102
}
330
3B
100
AcDbMaterial
  1
ByLayer
 72
     1
 94
      127
  0
MATERIAL
  5
3E
102
{ACAD_REACTORS
330
3B
102
}
330
3B
100
AcDbMaterial
  1
Global
 72
     1
 94
      127
  0
MLINESTYLE
  5
18
102
{ACAD_REACTORS
330
17
102
}
330
17
100
AcDbMlineStyle
  2
Standard
 70
     0
  3

 62
   256
 51
90.0
 52
90.0
 71
     2
 49
0.5
 62
   256
  6
BYLAYER
 49
-0.5
 62
   256
  6
BYLAYER
  0
ACDBPLACEHOLDER
  5
F
102
{ACAD_REACTORS
330
E
102
}
330
E
  0
VISUALSTYLE
  5
2F
102
{ACAD_REACTORS
330
2A
102
}
102
{ACAD_XDICTIONARY
360
7D
102
}
330
2A
100
AcDbVisualStyle
  2
2dWireframe
 70
     4
 71
     0
 72
     2
 73
     0
 90
        0
 40
-0.6
 41
-30.0
 62
     5
 63
     7
421
 16777215
 74
     1
 91
        4
 64
     7
 65
   257
 75
     1
175
     1
 42
1.0
 92
        0
 66
   257
 43
1.0
 76
     1
 77
     6
 78
     2
 67
     7
 79
     5
170
     0
171
     0
290
     0
174
     0
 93
        1
 44
0.0
173
     0
291
     0
 45
0.0
  0
VISUALSTYLE
  5
31
102
{ACAD_REACTORS
330
2A
102
}
102
{ACAD_XDICTIONARY
360
81
102
}
330
2A
100
AcDbVisualStyle
  2
3D Hidden
 70
     6
 71
     1
 72
     2
 73
     2
 90
        0
 40
-0.6
 41
-30.0
 62
     5
 63
     7
421
 16777215
 74
     2
 91
        2
 64
     7
 65
   257
 75
     2
175
     1
 42
40.0
 92
        0
 66
   257
 43
1.0
 76
     1
 77
     6
 78
     2
 67
     7
 79
     3
170
     0
171
     0
290
     0
174
     0
 93
        1
 44
0.0
173
     0
291
     0
 45
0.0
  0
VISUALSTYLE
  5
30
102
{ACAD_REACTORS
330
2A
102
}
102
{ACAD_XDICTIONARY
360
7F
102
}
330
2A
100
AcDbVisualStyle
  2
3dWireframe
 70
     5
 71
     0
 72
     2
 73
     0
 90
        0
 40
-0.6
 41
-30.0
 62
     5
 63
     7
421
 16777215
 74
     1
 91
        4
 64
     7
 65
   257
 75
     1
175
     1
 42
1.0
 92
        0
 66
   257
 43
1.0
 76
     1
 77
     6
 78
     2
 67
     7
 79
     5
170
     0
171
     0
290
     0
174
     0
 93
        1
 44
0.0
173
     0
291
     0
 45
0.0
  0
VISUALSTYLE
  5
32
102
{ACAD_REACTORS
330
2A
102
}
102
{ACAD_XDICTIONARY
360
83
102
}
330
2A
100
AcDbVisualStyle
  2
Basic
 70
     7
 71
     1
 72
     0
 73
     1
 90
        0
 40
-0.6
 41
-30.0
 62
     5
 63
     7
421
 16777215
 74
     0
 91
        4
 64
     7
 65
   257
 75
     1
175
     1
 42
1.0
 92
        8
 66
     7
 43
1.0
 76
     1
 77
     6
 78
     2
 67
     7
 79
     5
170
     0
171
     0
290
     0
174
     0
 93
        1
 44
0.0
173
     0
291
     1
 45
0.0
  0
VISUALSTYLE
  5
36
102
{ACAD_REACTORS
330
2A
102
}
102
{ACAD_XDICTIONARY
360
8B
102
}
330
2A
100
AcDbVisualStyle
  2
Brighten
 70
    12
 71
     2
 72
     2
 73
     0
 90
        0
 40
-0.6
 41
-30.0
 62
     5
 63
     7
421
 16777215
 74
     1
 91
        4
 64
     7
 65
   257
 75
     1
175
     1
 42
1.0
 92
        8
 66
     7
 43
1.0
 76
     1
 77
     6
 78
     2
 67
     7
 79
     5
170
     0
171
     0
290
     0
174
     0
 93
        1
 44
50.0
173
     0
291
     1
 45
0.0
  0
VISUALSTYLE
  5
3A
102
{ACAD_REACTORS
330
2A
102
}
102
{ACAD_XDICTIONARY
360
93
102
}
330
2A
100
AcDbVisualStyle
  2
ColorChange
 70
    16
 71
     2
 72
     2
 73
     3
 90
        0
 40
-0.6
 41
-30.0
 62
     5
 63
     8
421
  8421504
 74
     1
 91
        4
 64
     7
 65
   257
 75
     1
175
     1
 42
1.0
 92
        8
 66
     8
424
  8421504
 43
1.0
 76
     1
 77
     6
 78
     2
 67
     7
 79
     5
170
     0
171
     0
290
     0
174
     0
 93
        1
 44
0.0
173
     0
291
     1
 45
0.0
  0
VISUALSTYLE
  5
34
102
{ACAD_REACTORS
330
2A
102
}
102
{ACAD_XDICTIONARY
360
87
102
}
330
2A
100
AcDbVisualStyle
  2
Conceptual
 70
     9
 71
     3
 72
     2
 73
     0
 90
        0
 40
-0.6
 41
-30.0
 62
     5
 63
     7
421
 16777215
 74
     2
 91
        2
 64
     7
 65
   257
 75
     1
175
     1
 42
40.0
 92
        8
 66
     7
 43
1.0
 76
     1
 77
     6
 78
     2
 67
     7
 79
     3
170
     0
171
     0
290
     0
174
     0
 93
        1
 44
0.0
173
     0
291
     0
 45
0.0
  0
VISUALSTYLE
  5
35
102
{ACAD_REACTORS
330
2A
102
}
102
{ACAD_XDICTIONARY
360
89
102
}
330
2A
100
AcDbVisualStyle
  2
Dim
 70
    11
 71
     2
 72
     2
 73
     0
 90
        0
 40
-0.6
 41
-30.0
 62
     5
 63
     7
421
 16777215
 74
     1
 91
        4
 64
     7
 65
   257
 75
     1
175
     1
 42
1.0
 92
        8
 66
     7
 43
1.0
 76
     1
 77
     6
 78
     2
 67
     7
 79
     5
170
     0
171
     0
290
     0
174
     0
 93
        1
 44
-50.0
173
     0
291
     1
 45
0.0
  0
VISUALSTYLE
  5
39
102
{ACAD_REACTORS
330
2A
102
}
102
{ACAD_XDICTIONARY
360
91
102
}
330
2A
100
AcDbVisualStyle
  2
Facepattern
 70
    15
 71
     2
 72
     2
 73
     0
 90
        0
 40
-0.6
 41
-30.0
 62
     5
 63
     7
421
 16777215
 74
     1
 91
        4
 64
     7
 65
   257
 75
     1
175
     1
 42
1.0
 92
        8
 66
     7
 43
1.0
 76
     1
 77
     6
 78
     2
 67
     7
 79
     5
170
     0
171
     0
290
     0
174
     0
 93
        1
 44
0.0
173
     0
291
     1
 45
0.0
  0
VISUALSTYLE
  5
2B
102
{ACAD_REACTORS
330
2A
102
}
102
{ACAD_XDICTIONARY
360
75
102
}
330
2A
100
AcDbVisualStyle
  2
Flat
 70
     0
 71
     2
 72
     1
 73
     1
 90
        2
 40
-0.6
 41
30.0
 62
     5
 63
     7
421
 16777215
 74
     0
 91
        4
 64
     7
 65
   257
 75
     1
175
     1
 42
1.0
 92
        8
 66
     7
 43
1.0
 76
     1
 77
     6
 78
     2
 67
     7
 79
     5
170
     0
171
     0
290
     0
174
     0
 93
       13
 44
0.0
173
     0
291
     1
 45
0.0
  0
VISUALSTYLE
  5
2C
102
{ACAD_REACTORS
330
2A
102
}
102
{ACAD_XDICTIONARY
360
77
102
}
330
2A
100
AcDbVisualStyle
  2
FlatWithEdges
 70
     1
 71
     2
 72
     1
 73
     1
 90
        2
 40
-0.6
 41
30.0
 62
     5
 63
     7
421
 16777215
 74
     1
 91
        4
 64
     7
 65
   257
 75
     1
175
     1
 42
1.0
 92
        0
 66
   257
 43
1.0
 76
     1
 77
     6
 78
     2
 67
     7
 79
     5
170
     0
171
     0
290
     0
174
     0
 93
       13
 44
0.0
173
     0
291
     1
 45
0.0
  0
VISUALSTYLE
  5
2D
102
{ACAD_REACTORS
330
2A
102
}
102
{ACAD_XDICTIONARY
360
79
102
}
330
2A
100
AcDbVisualStyle
  2
Gouraud
 70
     2
 71
     2
 72
     2
 73
     1
 90
        2
 40
-0.6
 41
30.0
 62
     5
 63
     7
421
 16777215
 74
     0
 91
        4
 64
     7
 65
   257
 75
     1
175
     1
 42
1.0
 92
        0
 66
     7
 43
1.0
 76
     1
 77
     6
 78
     2
 67
     7
 79
     5
170
     0
171
     0
290
     0
174
     0
 93
       13
 44
0.0
173
     0
291
     1
 45
0.0
  0
VISUALSTYLE
  5
2E
102
{ACAD_REACTORS
330
2A
102
}
102
{ACAD_XDICTIONARY
360
7B
102
}
330
2A
100
AcDbVisualStyle
  2
GouraudWithEdges
 70
     3
 71
     2
 72
     2
 73
     1
 90
        2
 40
-0.6
 41
30.0
 62
     5
 63
     7
421
 16777215
 74
     1
 91
        4
 64
     7
 65
   257
 75
     1
175
     1
 42
1.0
 92
        0
 66
   257
 43
1.0
 76
     1
 77
     6
 78
     2
 67
     7
 79
     5
170
     0
171
     0
290
     0
174
     0
 93
       13
 44
0.0
173
     0
291
     1
 45
0.0
  0
VISUALSTYLE
  5
38
102
{ACAD_REACTORS
330
2A
102
}
102
{ACAD_XDICTIONARY
360
8F
102
}
330
2A
100
AcDbVisualStyle
  2
Linepattern
 70
    14
 71
     2
 72
     2
 73
     0
 90
        0
 40
-0.6
 41
-30.0
 62
     5
 63
     7
421
 16777215
 74
     1
 91
        4
 64
     7
 65
   257
 75
     7
175
     7
 42
1.0
 92
        8
 66
     7
 43
1.0
 76
     1
 77
     6
 78
     2
 67
     7
 79
     5
170
     0
171
     0
290
     0
174
     0
 93
        1
 44
0.0
173
     0
291
     1
 45
0.0
  0
VISUALSTYLE
  5
33
102
{ACAD_REACTORS
330
2A
102
}
102
{ACAD_XDICTIONARY
360
85
102
}
330
2A
100
AcDbVisualStyle
  2
Realistic
 70
     8
 71
     2
 72
     2
 73
     0
 90
        0
 40
-0.6
 41
-30.0
 62
     5
 63
     7
421
 16777215
 74
     1
 91
        0
 64
     7
 65
   257
 75
     1
175
     1
 42
1.0
 92
        8
 66
     8
424
  7895160
 43
1.0
 76
     1
 77
     6
 78
     2
 67
     7
 79
     5
170
     0
171
     0
290
     0
174
     0
 93
       13
 44
0.0
173
     0
291
     0
 45
0.0
  0
VISUALSTYLE
  5
37
102
{ACAD_REACTORS
330
2A
102
}
102
{ACAD_XDICTIONARY
360
8D
102
}
330
2A
100
AcDbVisualStyle
  2
Thicken
 70
    13
 71
     2
 72
     2
 73
     0
 90
        0
 40
-0.6
 41
-30.0
 62
     5
 63
     7
421
 16777215
 74
     1
 91
        4
 64
     7
 65
   257
 75
     1
175
     1
 42
1.0
 92
       12
 66
     7
 43
1.0
 76
     1
 77
     6
 78
     2
 67
     7
 79
     5
170
     0
171
     0
290
     0
174
     0
 93
        1
 44
0.0
173
     0
291
     1
 45
0.0
  0
DICTIONARY
  5
7D
330
2F
100
AcDbDictionary
280
     1
281
     1
  3
ACAD_XREC_ROUNDTRIP
360
7E
  0
DICTIONARY
  5
81
330
31
100
AcDbDictionary
280
     1
281
     1
  3
ACAD_XREC_ROUNDTRIP
360
82
  0
DICTIONARY
  5
7F
330
30
100
AcDbDictionary
280
     1
281
     1
  3
ACAD_XREC_ROUNDTRIP
360
80
  0
DICTIONARY
  5
83
330
32
100
AcDbDictionary
280
     1
281
     1
  3
ACAD_XREC_ROUNDTRIP
360
84
  0
DICTIONARY
  5
8B
330
36
100
AcDbDictionary
280
     1
281
     1
  3
ACAD_XREC_ROUNDTRIP
360
8C
  0
DICTIONARY
  5
93
330
3A
100
AcDbDictionary
280
     1
281
     1
  3
ACAD_XREC_ROUNDTRIP
360
94
  0
DICTIONARY
  5
87
330
34
100
AcDbDictionary
280
     1
281
     1
  3
ACAD_XREC_ROUNDTRIP
360
88
  0
DICTIONARY
  5
89
330
35
100
AcDbDictionary
280
     1
281
     1
  3
ACAD_XREC_ROUNDTRIP
360
8A
  0
DICTIONARY
  5
91
330
39
100
AcDbDictionary
280
     1
281
     1
  3
ACAD_XREC_ROUNDTRIP
360
92
  0
DICTIONARY
  5
75
330
2B
100
AcDbDictionary
280
     1
281
     1
  3
ACAD_XREC_ROUNDTRIP
360
76
  0
DICTIONARY
  5
77
330
2C
100
AcDbDictionary
280
     1
281
     1
  3
ACAD_XREC_ROUNDTRIP
360
78
  0
DICTIONARY
  5
79
330
2D
100
AcDbDictionary
280
     1
281
     1
  3
ACAD_XREC_ROUNDTRIP
360
7A
  0
DICTIONARY
  5
7B
330
2E
100
AcDbDictionary
280
     1
281
     1
  3
ACAD_XREC_ROUNDTRIP
360
7C
  0
DICTIONARY
  5
8F
330
38
100
AcDbDictionary
280
     1
281
     1
  3
ACAD_XREC_ROUNDTRIP
360
90
  0
DICTIONARY
  5
85
330
33
100
AcDbDictionary
280
     1
281
     1
  3
ACAD_XREC_ROUNDTRIP
360
86
  0
DICTIONARY
  5
8D
330
37
100
AcDbDictionary
280
     1
281
     1
  3
ACAD_XREC_ROUNDTRIP
360
8E
  0
XRECORD
  5
7E
102
{ACAD_REACTORS
330
7D
102
}
330
7D
100
AcDbXrecord
280
     1
102
RTVSPropertyOp0
 70
     1
102
RTVSPropertyOp1
 70
     1
102
RTVSPropertyOp2
 70
     1
102
RTVSPropertyOp3
 70
     1
102
RTVSPropertyOp4
 70
     1
102
RTVSPropertyOp5
 70
     1
102
RTVSPropertyOp6
 70
     1
102
RTVSPropertyOp7
 70
     1
102
RTVSPropertyOp8
 70
     1
102
RTVSPropertyOp9
 70
     1
102
RTVSPropertyOp10
 70
     1
102
RTVSPropertyOp11
 70
     1
102
RTVSPropertyOp12
 70
     1
102
RTVSPropertyOp13
 70
     1
102
RTVSPropertyOp14
 70
     1
102
RTVSPropertyOp15
 70
     1
102
RTVSPropertyOp16
 70
     1
102
RTVSPropertyOp17
 70
     1
102
RTVSPropertyOp18
 70
     1
102
RTVSPropertyOp19
 70
     1
102
RTVSPropertyOp20
 70
     1
102
RTVSPropertyOp21
 70
     1
102
RTVSPropertyOp22
 70
     1
102
RTVSPropertyOp23
 70
     1
102
RTVSPropertyOp24
 70
     1
102
RTVSPropertyOp25
 70
     1
102
RTVSPropertyOp26
 70
     1
102
RTVSPropertyOp27
 70
     1
102
RTVSPropertyOp28
 70
     1
102
RTVSPropertyOp29
 70
     1
102
RTVSPropertyOp30
 70
     1
102
RTVSPropertyOp31
 70
     1
102
RTVSPropertyOp32
 70
     1
  0
XRECORD
  5
82
102
{ACAD_REACTORS
330
81
102
}
330
81
100
AcDbXrecord
280
     1
102
RTVSPropertyOp0
 70
     1
102
RTVSPropertyOp1
 70
     1
102
RTVSPropertyOp2
 70
     1
102
RTVSPropertyOp3
 70
     1
102
RTVSPropertyOp4
 70
     1
102
RTVSPropertyOp5
 70
     1
102
RTVSPropertyOp6
 70
     1
102
RTVSPropertyOp7
 70
     1
102
RTVSPropertyOp8
 70
     1
102
RTVSPropertyOp9
 70
     1
102
RTVSPropertyOp10
 70
     1
102
RTVSPropertyOp11
 70
     1
102
RTVSPropertyOp12
 70
     1
102
RTVSPropertyOp13
 70
     1
102
RTVSPropertyOp14
 70
     1
102
RTVSPropertyOp15
 70
     1
102
RTVSPropertyOp16
 70
     1
102
RTVSPropertyOp17
 70
     1
102
RTVSPropertyOp18
 70
     1
102
RTVSPropertyOp19
 70
     1
102
RTVSPropertyOp20
 70
     1
102
RTVSPropertyOp21
 70
     1
102
RTVSPropertyOp22
 70
     1
102
RTVSPropertyOp23
 70
     1
102
RTVSPropertyOp24
 70
     1
102
RTVSPropertyOp25
 70
     1
102
RTVSPropertyOp26
 70
     1
102
RTVSPropertyOp27
 70
     1
102
RTVSPropertyOp28
 70
     1
102
RTVSPropertyOp29
 70
     1
102
RTVSPropertyOp30
 70
     1
102
RTVSPropertyOp31
 70
     1
102
RTVSPropertyOp32
 70
     1
  0
XRECORD
  5
80
102
{ACAD_REACTORS
330
7F
102
}
330
7F
100
AcDbXrecord
280
     1
102
RTVSPropertyOp0
 70
     1
102
RTVSPropertyOp1
 70
     1
102
RTVSPropertyOp2
 70
     1
102
RTVSPropertyOp3
 70
     1
102
RTVSPropertyOp4
 70
     1
102
RTVSPropertyOp5
 70
     1
102
RTVSPropertyOp6
 70
     1
102
RTVSPropertyOp7
 70
     1
102
RTVSPropertyOp8
 70
     1
102
RTVSPropertyOp9
 70
     1
102
RTVSPropertyOp10
 70
     1
102
RTVSPropertyOp11
 70
     1
102
RTVSPropertyOp12
 70
     1
102
RTVSPropertyOp13
 70
     1
102
RTVSPropertyOp14
 70
     1
102
RTVSPropertyOp15
 70
     1
102
RTVSPropertyOp16
 70
     1
102
RTVSPropertyOp17
 70
     1
102
RTVSPropertyOp18
 70
     1
102
RTVSPropertyOp19
 70
     1
102
RTVSPropertyOp20
 70
     1
102
RTVSPropertyOp21
 70
     1
102
RTVSPropertyOp22
 70
     1
102
RTVSPropertyOp23
 70
     1
102
RTVSPropertyOp24
 70
     1
102
RTVSPropertyOp25
 70
     1
102
RTVSPropertyOp26
 70
     1
102
RTVSPropertyOp27
 70
     1
102
RTVSPropertyOp28
 70
     1
102
RTVSPropertyOp29
 70
     1
102
RTVSPropertyOp30
 70
     1
102
RTVSPropertyOp31
 70
     1
102
RTVSPropertyOp32
 70
     1
  0
XRECORD
  5
84
102
{ACAD_REACTORS
330
83
102
}
330
83
100
AcDbXrecord
280
     1
102
RTVSPropertyOp0
 70
     1
102
RTVSPropertyOp1
 70
     1
102
RTVSPropertyOp2
 70
     1
102
RTVSPropertyOp3
 70
     1
102
RTVSPropertyOp4
 70
     1
102
RTVSPropertyOp5
 70
     1
102
RTVSPropertyOp6
 70
     1
102
RTVSPropertyOp7
 70
     1
102
RTVSPropertyOp8
 70
     1
102
RTVSPropertyOp9
 70
     1
102
RTVSPropertyOp10
 70
     1
102
RTVSPropertyOp11
 70
     1
102
RTVSPropertyOp12
 70
     1
102
RTVSPropertyOp13
 70
     1
102
RTVSPropertyOp14
 70
     1
102
RTVSPropertyOp15
 70
     1
102
RTVSPropertyOp16
 70
     1
102
RTVSPropertyOp17
 70
     1
102
RTVSPropertyOp18
 70
     1
102
RTVSPropertyOp19
 70
     1
102
RTVSPropertyOp20
 70
     1
102
RTVSPropertyOp21
 70
     1
102
RTVSPropertyOp22
 70
     1
102
RTVSPropertyOp23
 70
     1
102
RTVSPropertyOp24
 70
     1
102
RTVSPropertyOp25
 70
     1
102
RTVSPropertyOp26
 70
     1
102
RTVSPropertyOp27
 70
     1
102
RTVSPropertyOp28
 70
     1
102
RTVSPropertyOp29
 70
     1
102
RTVSPropertyOp30
 70
     1
102
RTVSPropertyOp31
 70
     1
102
RTVSPropertyOp32
 70
     1
  0
XRECORD
  5
8C
102
{ACAD_REACTORS
330
8B
102
}
330
8B
100
AcDbXrecord
280
     1
102
RTVSPropertyOp0
 70
     1
102
RTVSPropertyOp1
 70
     1
102
RTVSPropertyOp2
 70
     1
102
RTVSPropertyOp3
 70
     1
102
RTVSPropertyOp4
 70
     1
102
RTVSPropertyOp5
 70
     1
102
RTVSPropertyOp6
 70
     1
102
RTVSPropertyOp7
 70
     1
102
RTVSPropertyOp8
 70
     1
102
RTVSPropertyOp9
 70
     1
102
RTVSPropertyOp10
 70
     1
102
RTVSPropertyOp11
 70
     1
102
RTVSPropertyOp12
 70
     1
102
RTVSPropertyOp13
 70
     1
102
RTVSPropertyOp14
 70
     1
102
RTVSPropertyOp15
 70
     1
102
RTVSPropertyOp16
 70
     1
102
RTVSPropertyOp17
 70
     1
102
RTVSPropertyOp18
 70
     1
102
RTVSPropertyOp19
 70
     1
102
RTVSPropertyOp20
 70
     1
102
RTVSPropertyOp21
 70
     1
102
RTVSPropertyOp22
 70
     1
102
RTVSPropertyOp23
 70
     1
102
RTVSPropertyOp24
 70
     1
102
RTVSPropertyOp25
 70
     1
102
RTVSPropertyOp26
 70
     1
102
RTVSPropertyOp27
 70
     1
102
RTVSPropertyOp28
 70
     1
102
RTVSPropertyOp29
 70
     1
102
RTVSPropertyOp30
 70
     1
102
RTVSPropertyOp31
 70
     1
102
RTVSPropertyOp32
 70
     1
  0
XRECORD
  5
94
102
{ACAD_REACTORS
330
93
102
}
330
93
100
AcDbXrecord
280
     1
102
RTVSPropertyOp0
 70
     1
102
RTVSPropertyOp1
 70
     1
102
RTVSPropertyOp2
 70
     1
102
RTVSPropertyOp3
 70
     1
102
RTVSPropertyOp4
 70
     1
102
RTVSPropertyOp5
 70
     1
102
RTVSPropertyOp6
 70
     1
102
RTVSPropertyOp7
 70
     1
102
RTVSPropertyOp8
 70
     1
102
RTVSPropertyOp9
 70
     1
102
RTVSPropertyOp10
 70
     1
102
RTVSPropertyOp11
 70
     1
102
RTVSPropertyOp12
 70
     1
102
RTVSPropertyOp13
 70
     1
102
RTVSPropertyOp14
 70
     1
102
RTVSPropertyOp15
 70
     1
102
RTVSPropertyOp16
 70
     1
102
RTVSPropertyOp17
 70
     1
102
RTVSPropertyOp18
 70
     1
102
RTVSPropertyOp19
 70
     1
102
RTVSPropertyOp20
 70
     1
102
RTVSPropertyOp21
 70
     1
102
RTVSPropertyOp22
 70
     1
102
RTVSPropertyOp23
 70
     1
102
RTVSPropertyOp24
 70
     1
102
RTVSPropertyOp25
 70
     1
102
RTVSPropertyOp26
 70
     1
102
RTVSPropertyOp27
 70
     1
102
RTVSPropertyOp28
 70
     1
102
RTVSPropertyOp29
 70
     1
102
RTVSPropertyOp30
 70
     1
102
RTVSPropertyOp31
 70
     1
102
RTVSPropertyOp32
 70
     1
  0
XRECORD
  5
88
102
{ACAD_REACTORS
330
87
102
}
330
87
100
AcDbXrecord
280
     1
102
RTVSPropertyOp0
 70
     1
102
RTVSPropertyOp1
 70
     1
102
RTVSPropertyOp2
 70
     1
102
RTVSPropertyOp3
 70
     1
102
RTVSPropertyOp4
 70
     1
102
RTVSPropertyOp5
 70
     1
102
RTVSPropertyOp6
 70
     1
102
RTVSPropertyOp7
 70
     1
102
RTVSPropertyOp8
 70
     1
102
RTVSPropertyOp9
 70
     1
102
RTVSPropertyOp10
 70
     1
102
RTVSPropertyOp11
 70
     1
102
RTVSPropertyOp12
 70
     1
102
RTVSPropertyOp13
 70
     1
102
RTVSPropertyOp14
 70
     1
102
RTVSPropertyOp15
 70
     1
102
RTVSPropertyOp16
 70
     1
102
RTVSPropertyOp17
 70
     1
102
RTVSPropertyOp18
 70
     1
102
RTVSPropertyOp19
 70
     1
102
RTVSPropertyOp20
 70
     1
102
RTVSPropertyOp21
 70
     1
102
RTVSPropertyOp22
 70
     1
102
RTVSPropertyOp23
 70
     1
102
RTVSPropertyOp24
 70
     1
102
RTVSPropertyOp25
 70
     1
102
RTVSPropertyOp26
 70
     1
102
RTVSPropertyOp27
 70
     1
102
RTVSPropertyOp28
 70
     1
102
RTVSPropertyOp29
 70
     1
102
RTVSPropertyOp30
 70
     1
102
RTVSPropertyOp31
 70
     1
102
RTVSPropertyOp32
 70
     1
  0
XRECORD
  5
8A
102
{ACAD_REACTORS
330
89
102
}
330
89
100
AcDbXrecord
280
     1
102
RTVSPropertyOp0
 70
     1
102
RTVSPropertyOp1
 70
     1
102
RTVSPropertyOp2
 70
     1
102
RTVSPropertyOp3
 70
     1
102
RTVSPropertyOp4
 70
     1
102
RTVSPropertyOp5
 70
     1
102
RTVSPropertyOp6
 70
     1
102
RTVSPropertyOp7
 70
     1
102
RTVSPropertyOp8
 70
     1
102
RTVSPropertyOp9
 70
     1
102
RTVSPropertyOp10
 70
     1
102
RTVSPropertyOp11
 70
     1
102
RTVSPropertyOp12
 70
     1
102
RTVSPropertyOp13
 70
     1
102
RTVSPropertyOp14
 70
     1
102
RTVSPropertyOp15
 70
     1
102
RTVSPropertyOp16
 70
     1
102
RTVSPropertyOp17
 70
     1
102
RTVSPropertyOp18
 70
     1
102
RTVSPropertyOp19
 70
     1
102
RTVSPropertyOp20
 70
     1
102
RTVSPropertyOp21
 70
     1
102
RTVSPropertyOp22
 70
     1
102
RTVSPropertyOp23
 70
     1
102
RTVSPropertyOp24
 70
     1
102
RTVSPropertyOp25
 70
     1
102
RTVSPropertyOp26
 70
     1
102
RTVSPropertyOp27
 70
     1
102
RTVSPropertyOp28
 70
     1
102
RTVSPropertyOp29
 70
     1
102
RTVSPropertyOp30
 70
     1
102
RTVSPropertyOp31
 70
     1
102
RTVSPropertyOp32
 70
     1
  0
XRECORD
  5
92
102
{ACAD_REACTORS
330
91
102
}
330
91
100
AcDbXrecord
280
     1
102
RTVSPropertyOp0
 70
     1
102
RTVSPropertyOp1
 70
     1
102
RTVSPropertyOp2
 70
     1
102
RTVSPropertyOp3
 70
     1
102
RTVSPropertyOp4
 70
     1
102
RTVSPropertyOp5
 70
     1
102
RTVSPropertyOp6
 70
     1
102
RTVSPropertyOp7
 70
     1
102
RTVSPropertyOp8
 70
     1
102
RTVSPropertyOp9
 70
     1
102
RTVSPropertyOp10
 70
     1
102
RTVSPropertyOp11
 70
     1
102
RTVSPropertyOp12
 70
     1
102
RTVSPropertyOp13
 70
     1
102
RTVSPropertyOp14
 70
     1
102
RTVSPropertyOp15
 70
     1
102
RTVSPropertyOp16
 70
     1
102
RTVSPropertyOp17
 70
     1
102
RTVSPropertyOp18
 70
     1
102
RTVSPropertyOp19
 70
     1
102
RTVSPropertyOp20
 70
     1
102
RTVSPropertyOp21
 70
     1
102
RTVSPropertyOp22
 70
     1
102
RTVSPropertyOp23
 70
     1
102
RTVSPropertyOp24
 70
     1
102
RTVSPropertyOp25
 70
     1
102
RTVSPropertyOp26
 70
     1
102
RTVSPropertyOp27
 70
     1
102
RTVSPropertyOp28
 70
     1
102
RTVSPropertyOp29
 70
     1
102
RTVSPropertyOp30
 70
     1
102
RTVSPropertyOp31
 70
     1
102
RTVSPropertyOp32
 70
     1
  0
XRECORD
  5
76
102
{ACAD_REACTORS
330
75
102
}
330
75
100
AcDbXrecord
280
     1
102
RTVSPropertyOp0
 70
     1
102
RTVSPropertyOp1
 70
     1
102
RTVSPropertyOp2
 70
     1
102
RTVSPropertyOp3
 70
     1
102
RTVSPropertyOp4
 70
     1
102
RTVSPropertyOp5
 70
     1
102
RTVSPropertyOp6
 70
     1
102
RTVSPropertyOp7
 70
     1
102
RTVSPropertyOp8
 70
     1
102
RTVSPropertyOp9
 70
     1
102
RTVSPropertyOp10
 70
     1
102
RTVSPropertyOp11
 70
     1
102
RTVSPropertyOp12
 70
     1
102
RTVSPropertyOp13
 70
     1
102
RTVSPropertyOp14
 70
     1
102
RTVSPropertyOp15
 70
     1
102
RTVSPropertyOp16
 70
     1
102
RTVSPropertyOp17
 70
     1
102
RTVSPropertyOp18
 70
     1
102
RTVSPropertyOp19
 70
     1
102
RTVSPropertyOp20
 70
     1
102
RTVSPropertyOp21
 70
     1
102
RTVSPropertyOp22
 70
     1
102
RTVSPropertyOp23
 70
     1
102
RTVSPropertyOp24
 70
     1
102
RTVSPropertyOp25
 70
     1
102
RTVSPropertyOp26
 70
     1
102
RTVSPropertyOp27
 70
     1
102
RTVSPropertyOp28
 70
     1
102
RTVSPropertyOp29
 70
     1
102
RTVSPropertyOp30
 70
     1
102
RTVSPropertyOp31
 70
     1
102
RTVSPropertyOp32
 70
     1
  0
XRECORD
  5
78
102
{ACAD_REACTORS
330
77
102
}
330
77
100
AcDbXrecord
280
     1
102
RTVSPropertyOp0
 70
     1
102
RTVSPropertyOp1
 70
     1
102
RTVSPropertyOp2
 70
     1
102
RTVSPropertyOp3
 70
     1
102
RTVSPropertyOp4
 70
     1
102
RTVSPropertyOp5
 70
     1
102
RTVSPropertyOp6
 70
     1
102
RTVSPropertyOp7
 70
     1
102
RTVSPropertyOp8
 70
     1
102
RTVSPropertyOp9
 70
     1
102
RTVSPropertyOp10
 70
     1
102
RTVSPropertyOp11
 70
     1
102
RTVSPropertyOp12
 70
     1
102
RTVSPropertyOp13
 70
     1
102
RTVSPropertyOp14
 70
     1
102
RTVSPropertyOp15
 70
     1
102
RTVSPropertyOp16
 70
     1
102
RTVSPropertyOp17
 70
     1
102
RTVSPropertyOp18
 70
     1
102
RTVSPropertyOp19
 70
     1
102
RTVSPropertyOp20
 70
     1
102
RTVSPropertyOp21
 70
     1
102
RTVSPropertyOp22
 70
     1
102
RTVSPropertyOp23
 70
     1
102
RTVSPropertyOp24
 70
     1
102
RTVSPropertyOp25
 70
     1
102
RTVSPropertyOp26
 70
     1
102
RTVSPropertyOp27
 70
     1
102
RTVSPropertyOp28
 70
     1
102
RTVSPropertyOp29
 70
     1
102
RTVSPropertyOp30
 70
     1
102
RTVSPropertyOp31
 70
     1
102
RTVSPropertyOp32
 70
     1
  0
XRECORD
  5
7A
102
{ACAD_REACTORS
330
79
102
}
330
79
100
AcDbXrecord
280
     1
102
RTVSPropertyOp0
 70
     1
102
RTVSPropertyOp1
 70
     1
102
RTVSPropertyOp2
 70
     1
102
RTVSPropertyOp3
 70
     1
102
RTVSPropertyOp4
 70
     1
102
RTVSPropertyOp5
 70
     1
102
RTVSPropertyOp6
 70
     1
102
RTVSPropertyOp7
 70
     1
102
RTVSPropertyOp8
 70
     1
102
RTVSPropertyOp9
 70
     1
102
RTVSPropertyOp10
 70
     1
102
RTVSPropertyOp11
 70
     1
102
RTVSPropertyOp12
 70
     1
102
RTVSPropertyOp13
 70
     1
102
RTVSPropertyOp14
 70
     1
102
RTVSPropertyOp15
 70
     1
102
RTVSPropertyOp16
 70
     1
102
RTVSPropertyOp17
 70
     1
102
RTVSPropertyOp18
 70
     1
102
RTVSPropertyOp19
 70
     1
102
RTVSPropertyOp20
 70
     1
102
RTVSPropertyOp21
 70
     1
102
RTVSPropertyOp22
 70
     1
102
RTVSPropertyOp23
 70
     1
102
RTVSPropertyOp24
 70
     1
102
RTVSPropertyOp25
 70
     1
102
RTVSPropertyOp26
 70
     1
102
RTVSPropertyOp27
 70
     1
102
RTVSPropertyOp28
 70
     1
102
RTVSPropertyOp29
 70
     1
102
RTVSPropertyOp30
 70
     1
102
RTVSPropertyOp31
 70
     1
102
RTVSPropertyOp32
 70
     1
  0
XRECORD
  5
7C
102
{ACAD_REACTORS
330
7B
102
}
330
7B
100
AcDbXrecord
280
     1
102
RTVSPropertyOp0
 70
     1
102
RTVSPropertyOp1
 70
     1
102
RTVSPropertyOp2
 70
     1
102
RTVSPropertyOp3
 70
     1
102
RTVSPropertyOp4
 70
     1
102
RTVSPropertyOp5
 70
     1
102
RTVSPropertyOp6
 70
     1
102
RTVSPropertyOp7
 70
     1
102
RTVSPropertyOp8
 70
     1
102
RTVSPropertyOp9
 70
     1
102
RTVSPropertyOp10
 70
     1
102
RTVSPropertyOp11
 70
     1
102
RTVSPropertyOp12
 70
     1
102
RTVSPropertyOp13
 70
     1
102
RTVSPropertyOp14
 70
     1
102
RTVSPropertyOp15
 70
     1
102
RTVSPropertyOp16
 70
     1
102
RTVSPropertyOp17
 70
     1
102
RTVSPropertyOp18
 70
     1
102
RTVSPropertyOp19
 70
     1
102
RTVSPropertyOp20
 70
     1
102
RTVSPropertyOp21
 70
     1
102
RTVSPropertyOp22
 70
     1
102
RTVSPropertyOp23
 70
     1
102
RTVSPropertyOp24
 70
     1
102
RTVSPropertyOp25
 70
     1
102
RTVSPropertyOp26
 70
     1
102
RTVSPropertyOp27
 70
     1
102
RTVSPropertyOp28
 70
     1
102
RTVSPropertyOp29
 70
     1
102
RTVSPropertyOp30
 70
     1
102
RTVSPropertyOp31
 70
     1
102
RTVSPropertyOp32
 70
     1
  0
XRECORD
  5
90
102
{ACAD_REACTORS
330
8F
102
}
330
8F
100
AcDbXrecord
280
     1
102
RTVSPropertyOp0
 70
     1
102
RTVSPropertyOp1
 70
     1
102
RTVSPropertyOp2
 70
     1
102
RTVSPropertyOp3
 70
     1
102
RTVSPropertyOp4
 70
     1
102
RTVSPropertyOp5
 70
     1
102
RTVSPropertyOp6
 70
     1
102
RTVSPropertyOp7
 70
     1
102
RTVSPropertyOp8
 70
     1
102
RTVSPropertyOp9
 70
     1
102
RTVSPropertyOp10
 70
     1
102
RTVSPropertyOp11
 70
     1
102
RTVSPropertyOp12
 70
     1
102
RTVSPropertyOp13
 70
     1
102
RTVSPropertyOp14
 70
     1
102
RTVSPropertyOp15
 70
     1
102
RTVSPropertyOp16
 70
     1
102
RTVSPropertyOp17
 70
     1
102
RTVSPropertyOp18
 70
     1
102
RTVSPropertyOp19
 70
     1
102
RTVSPropertyOp20
 70
     1
102
RTVSPropertyOp21
 70
     1
102
RTVSPropertyOp22
 70
     1
102
RTVSPropertyOp23
 70
     1
102
RTVSPropertyOp24
 70
     1
102
RTVSPropertyOp25
 70
     1
102
RTVSPropertyOp26
 70
     1
102
RTVSPropertyOp27
 70
     1
102
RTVSPropertyOp28
 70
     1
102
RTVSPropertyOp29
 70
     1
102
RTVSPropertyOp30
 70
     1
102
RTVSPropertyOp31
 70
     1
102
RTVSPropertyOp32
 70
     1
  0
XRECORD
  5
86
102
{ACAD_REACTORS
330
85
102
}
330
85
100
AcDbXrecord
280
     1
102
RTVSPropertyOp0
 70
     1
102
RTVSPropertyOp1
 70
     1
102
RTVSPropertyOp2
 70
     1
102
RTVSPropertyOp3
 70
     1
102
RTVSPropertyOp4
 70
     1
102
RTVSPropertyOp5
 70
     1
102
RTVSPropertyOp6
 70
     1
102
RTVSPropertyOp7
 70
     1
102
RTVSPropertyOp8
 70
     1
102
RTVSPropertyOp9
 70
     1
102
RTVSPropertyOp10
 70
     1
102
RTVSPropertyOp11
 70
     1
102
RTVSPropertyOp12
 70
     1
102
RTVSPropertyOp13
 70
     1
102
RTVSPropertyOp14
 70
     1
102
RTVSPropertyOp15
 70
     1
102
RTVSPropertyOp16
 70
     1
102
RTVSPropertyOp17
 70
     1
102
RTVSPropertyOp18
 70
     1
102
RTVSPropertyOp19
 70
     1
102
RTVSPropertyOp20
 70
     1
102
RTVSPropertyOp21
 70
     1
102
RTVSPropertyOp22
 70
     1
102
RTVSPropertyOp23
 70
     1
102
RTVSPropertyOp24
 70
     1
102
RTVSPropertyOp25
 70
     1
102
RTVSPropertyOp26
 70
     1
102
RTVSPropertyOp27
 70
     1
102
RTVSPropertyOp28
 70
     1
102
RTVSPropertyOp29
 70
     1
102
RTVSPropertyOp30
 70
     1
102
RTVSPropertyOp31
 70
     1
102
RTVSPropertyOp32
 70
     1
  0
XRECORD
  5
8E
102
{ACAD_REACTORS
330
8D
102
}
330
8D
100
AcDbXrecord
280
     1
102
RTVSPropertyOp0
 70
     1
102
RTVSPropertyOp1
 70
     1
102
RTVSPropertyOp2
 70
     1
102
RTVSPropertyOp3
 70
     1
102
RTVSPropertyOp4
 70
     1
102
RTVSPropertyOp5
 70
     1
102
RTVSPropertyOp6
 70
     1
102
RTVSPropertyOp7
 70
     1
102
RTVSPropertyOp8
 70
     1
102
RTVSPropertyOp9
 70
     1
102
RTVSPropertyOp10
 70
     1
102
RTVSPropertyOp11
 70
     1
102
RTVSPropertyOp12
 70
     1
102
RTVSPropertyOp13
 70
     1
102
RTVSPropertyOp14
 70
     1
102
RTVSPropertyOp15
 70
     1
102
RTVSPropertyOp16
 70
     1
102
RTVSPropertyOp17
 70
     1
102
RTVSPropertyOp18
 70
     1
102
RTVSPropertyOp19
 70
     1
102
RTVSPropertyOp20
 70
     1
102
RTVSPropertyOp21
 70
     1
102
RTVSPropertyOp22
 70
     1
102
RTVSPropertyOp23
 70
     1
102
RTVSPropertyOp24
 70
     1
102
RTVSPropertyOp25
 70
     1
102
RTVSPropertyOp26
 70
     1
102
RTVSPropertyOp27
 70
     1
102
RTVSPropertyOp28
 70
     1
102
RTVSPropertyOp29
 70
     1
102
RTVSPropertyOp30
 70
     1
102
RTVSPropertyOp31
 70
     1
102
RTVSPropertyOp32
 70
     1
  0
ENDSEC
  0
EOF
