  0
SECTION
  2
HEADER
  9
$ACADVER
  1
AC1021
  9
$ACADMAINTVER
 70
    25
  9
$DWGCODEPAGE
  3
ANSI_1252
  9
$INSBASE
 10
0.0
 20
0.0
 30
0.0
  9
$EXTMIN
 10
84.0769
 20
-106.3946
 30
0.0
  9
$EXTMAX
 10
196.2241
 20
131.8335
 30
0.0
  9
$LIMMIN
 10
0.0
 20
0.0
  9
$LIMMAX
 10
12.0
 20
9.0
  9
$ORTHOMODE
 70
     0
  9
$REGENMODE
 70
     1
  9
$FILLMODE
 70
     1
  9
$QTEXTMODE
 70
     0
  9
$MIRRTEXT
 70
     1
  9
$LTSCALE
 40
1.0
  9
$ATTMODE
 70
     1
  9
$TEXTSIZE
 40
0.2
  9
$TRACEWID
 40
0.05
  9
$TEXTSTYLE
  7
Standard
  9
$CLAYER
  8
0
  9
$CELTYPE
  6
ByLayer
  9
$CECOLOR
 62
   256
  9
$CELTSCALE
 40
1.0
  9
$DISPSILH
 70
     0
  9
$DIMSCALE
 40
1.0
  9
$DIMASZ
 40
0.18
  9
$DIMEXO
 40
0.0625
  9
$DIMDLI
 40
0.38
  9
$DIMRND
 40
0.0
  9
$DIMDLE
 40
0.0
  9
$DIMEXE
 40
0.18
  9
$DIMTP
 40
0.0
  9
$DIMTM
 40
0.0
  9
$DIMTXT
 40
0.18
  9
$DIMCEN
 40
0.09
  9
$DIMTSZ
 40
0.0
  9
$DIMTOL
 70
     0
  9
$DIMLIM
 70
     0
  9
$DIMTIH
 70
     1
  9
$DIMTOH
 70
     1
  9
$DIMSE1
 70
     0
  9
$DIMSE2
 70
     0
  9
$DIMTAD
 70
     0
  9
$DIMZIN
 70
     0
  9
$DIMBLK
  1

  9
$DIMASO
 70
     1
  9
$DIMSHO
 70
     1
  9
$DIMPOST
  1

  9
$DIMAPOST
  1

  9
$DIMALT
 70
     0
  9
$DIMALTD
 70
     2
  9
$DIMALTF
 40
25.4
  9
$DIMLFAC
 40
1.0
  9
$DIMTOFL
 70
     0
  9
$DIMTVP
 40
0.0
  9
$DIMTIX
 70
     0
  9
$DIMSOXD
 70
     0
  9
$DIMSAH
 70
     0
  9
$DIMBLK1
  1

  9
$DIMBLK2
  1

  9
$DIMSTYLE
  2
Standard
  9
$DIMCLRD
 70
     0
  9
$DIMCLRE
 70
     0
  9
$DIMCLRT
 70
     0
  9
$DIMTFAC
 40
1.0
  9
$DIMGAP
 40
0.09
  9
$DIMJUST
 70
     0
  9
$DIMSD1
 70
     0
  9
$DIMSD2
 70
     0
  9
$DIMTOLJ
 70
     1
  9
$DIMTZIN
 70
     0
  9
$DIMALTZ
 70
     0
  9
$DIMALTTZ
 70
     0
  9
$DIMUPT
 70
     0
  9
$DIMDEC
 70
     4
  9
$DIMTDEC
 70
     4
  9
$DIMALTU
 70
     2
  9
$DIMALTTD
 70
     2
  9
$DIMTXSTY
  7
Standard
  9
$DIMAUNIT
 70
     0
  9
$DIMADEC
 70
     0
  9
$DIMALTRND
 40
0.0
  9
$DIMAZIN
 70
     0
  9
$DIMDSEP
 70
    46
  9
$DIMATFIT
 70
     3
  9
$DIMFRAC
 70
     0
  9
$DIMLDRBLK
  1

  9
$DIMLUNIT
 70
     2
  9
$DIMLWD
 70
    -2
  9
$DIMLWE
 70
    -2
  9
$DIMTMOVE
 70
     0
  9
$DIMFXL
 40
1.0
  9
$DIMFXLON
 70
     0
  9
$DIMJOGANG
 40
0.7853981633974483
  9
$DIMTFILL
 70
     0
  9
$DIMTFILLCLR
 70
     0
  9
$DIMARCSYM
 70
     0
  9
$DIMLTYPE
  6

  9
$DIMLTEX1
  6

  9
$DIMLTEX2
  6

  9
$LUNITS
 70
     2
  9
$LUPREC
 70
     4
  9
$SKETCHINC
 40
0.1
  9
$FILLETRAD
 40
0.5
  9
$AUNITS
 70
     0
  9
$AUPREC
 70
     0
  9
$MENU
  1
.
  9
$ELEVATION
 40
0.0
  9
$PELEVATION
 40
0.0
  9
$THICKNESS
 40
0.0
  9
$LIMCHECK
 70
     0
  9
$CHAMFERA
 40
0.5
  9
$CHAMFERB
 40
0.5
  9
$CHAMFERC
 40
1.0
  9
$CHAMFERD
 40
0.0
  9
$SKPOLY
 70
     0
  9
$TDCREATE
 40
2458493.708023333
  9
$TDUCREATE
 40
2458493.708023333
  9
$TDUPDATE
 40
2458493.708023646
  9
$TDUUPDATE
 40
2458493.708023646
  9
$TDINDWG
 40
0.0000000116
  9
$TDUSRTIMER
 40
0.0000000116
  9
$USRTIMER
 70
     1
  9
$ANGBASE
 50
0.0
  9
$ANGDIR
 70
     0
  9
$PDMODE
 70
     0
  9
$PDSIZE
 40
0.0
  9
$PLINEWID
 40
0.0
  9
$SPLFRAME
 70
     0
  9
$SPLINETYPE
 70
     6
  9
$SPLINESEGS
 70
     8
  9
$HANDSEED
  5
10B
  9
$SURFTAB1
 70
     6
  9
$SURFTAB2
 70
     6
  9
$SURFTYPE
 70
     6
  9
$SURFU
 70
     6
  9
$SURFV
 70
     6
  9
$UCSBASE
  2

  9
$UCSNAME
  2

  9
$UCSORG
 10
0.0
 20
0.0
 30
0.0
  9
$UCSXDIR
 10
1.0
 20
0.0
 30
0.0
  9
$UCSYDIR
 10
0.0
 20
1.0
 30
0.0
  9
$UCSORTHOREF
  2

  9
$UCSORTHOVIEW
 70
     0
  9
$UCSORGTOP
 10
0.0
 20
0.0
 30
0.0
  9
$UCSORGBOTTOM
 10
0.0
 20
0.0
 30
0.0
  9
$UCSORGLEFT
 10
0.0
 20
0.0
 30
0.0
  9
$UCSORGRIGHT
 10
0.0
 20
0.0
 30
0.0
  9
$UCSORGFRONT
 10
0.0
 20
0.0
 30
0.0
  9
$UCSORGBACK
 10
0.0
 20
0.0
 30
0.0
  9
$PUCSBASE
  2

  9
$PUCSNAME
  2

  9
$PUCSORG
 10
0.0
 20
0.0
 30
0.0
  9
$PUCSXDIR
 10
1.0
 20
0.0
 30
0.0
  9
$PUCSYDIR
 10
0.0
 20
1.0
 30
0.0
  9
$PUCSORTHOREF
  2

  9
$PUCSORTHOVIEW
 70
     0
  9
$PUCSORGTOP
 10
0.0
 20
0.0
 30
0.0
  9
$PUCSORGBOTTOM
 10
0.0
 20
0.0
 30
0.0
  9
$PUCSORGLEFT
 10
0.0
 20
0.0
 30
0.0
  9
$PUCSORGRIGHT
 10
0.0
 20
0.0
 30
0.0
  9
$PUCSORGFRONT
 10
0.0
 20
0.0
 30
0.0
  9
$PUCSORGBACK
 10
0.0
 20
0.0
 30
0.0
  9
$USERI1
 70
     0
  9
$USERI2
 70
     0
  9
$USERI3
 70
     0
  9
$USERI4
 70
     0
  9
$USERI5
 70
     0
  9
$USERR1
 40
0.0
  9
$USERR2
 40
0.0
  9
$USERR3
 40
0.0
  9
$USERR4
 40
0.0
  9
$USERR5
 40
0.0
  9
$WORLDVIEW
 70
     1
  9
$SHADEDGE
 70
     3
  9
$SHADEDIF
 70
    70
  9
$TILEMODE
 70
     1
  9
$MAXACTVP
 70
    64
  9
$PINSBASE
 10
0.0
 20
0.0
 30
0.0
  9
$PLIMCHECK
 70
     0
  9
$PEXTMIN
 10
1.000000000000000E+20
 20
1.000000000000000E+20
 30
1.000000000000000E+20
  9
$PEXTMAX
 10
-1.000000000000000E+20
 20
-1.000000000000000E+20
 30
-1.000000000000000E+20
  9
$PLIMMIN
 10
0.0
 20
0.0
  9
$PLIMMAX
 10
12.0
 20
9.0
  9
$UNITMODE
 70
     0
  9
$VISRETAIN
 70
     1
  9
$PLINEGEN
 70
     0
  9
$PSLTSCALE
 70
     1
  9
$TREEDEPTH
 70
  3020
  9
$CMLSTYLE
  2
Standard
  9
$CMLJUST
 70
     0
  9
$CMLSCALE
 40
1.0
  9
$PROXYGRAPHICS
 70
     1
  9
$MEASUREMENT
 70
     0
  9
$CELWEIGHT
370
    -1
  9
$ENDCAPS
280
     0
  9
$JOINSTYLE
280
     0
  9
$LWDISPLAY
290
     0
  9
$INSUNITS
 70
     4
  9
$HYPERLINKBASE
  1

  9
$STYLESHEET
  1

  9
$XEDIT
290
     1
  9
$CEPSNTYPE
380
     0
  9
$PSTYLEMODE
290
     1
  9
$FINGERPRINTGUID
  2
{6402F8EE-D6D9-446B-9AA9-D9032E6D4128}
  9
$VERSIONGUID
  2
{FAEB1C32-E019-11D5-929B-00C0DF256EC4}
  9
$EXTNAMES
290
     1
  9
$PSVPSCALE
 40
0.0
  9
$OLESTARTUP
290
     0
  9
$SORTENTS
280
   127
  9
$INDEXCTL
280
     0
  9
$HIDETEXT
280
     1
  9
$XCLIPFRAME
290
     0
  9
$HALOGAP
280
     0
  9
$OBSCOLOR
 70
   257
  9
$OBSLTYPE
280
     0
  9
$INTERSECTIONDISPLAY
280
     0
  9
$INTERSECTIONCOLOR
 70
   257
  9
$DIMASSOC
280
     2
  9
$PROJECTNAME
  1

  9
$CAMERADISPLAY
290
     0
  9
$LENSLENGTH
 40
50.0
  9
$CAMERAHEIGHT
 40
0.0
  9
$STEPSPERSEC
 40
2.0
  9
$STEPSIZE
 40
6.0
  9
$3DDWFPREC
 40
2.0
  9
$PSOLWIDTH
 40
0.25
  9
$PSOLHEIGHT
 40
4.0
  9
$LOFTANG1
 40
1.570796326794897
  9
$LOFTANG2
 40
1.570796326794897
  9
$LOFTMAG1
 40
0.0
  9
$LOFTMAG2
 40
0.0
  9
$LOFTPARAM
 70
     7
  9
$LOFTNORMALS
280
     1
  9
$LATITUDE
 40
37.795
  9
$LONGITUDE
 40
-122.394
  9
$NORTHDIRECTION
 40
0.0
  9
$TIMEZONE
 70
 -8000
  9
$LIGHTGLYPHDISPLAY
280
     1
  9
$TILEMODELIGHTSYNCH
280
     1
  9
$SOLIDHIST
280
     1
  9
$SHOWHIST
280
     1
  9
$DWFFRAME
280
     2
  9
$DGNFRAME
280
     2
  9
$REALWORLDSCALE
290
     1
  9
$INTERFERECOLOR
 62
   256
  9
$CSHADOW
280
     0
  9
$SHADOWPLANELOCATION
 40
0.0
  0
ENDSEC
  0
SECTION
  2
CLASSES
  0
CLASS
  1
ACDBDICTIONARYWDFLT
  2
AcDbDictionaryWithDefault
  3
ObjectDBX Classes
 90
        0
 91
        4
280
     0
281
     0
  0
CLASS
  1
VISUALSTYLE
  2
AcDbVisualStyle
  3
ObjectDBX Classes
 90
     4095
 91
        4
280
     0
281
     0
  0
CLASS
  1
MATERIAL
  2
AcDbMaterial
  3
ObjectDBX Classes
 90
     1153
 91
        4
280
     0
281
     0
  0
ENDSEC
  0
SECTION
  2
TABLES
  0
TABLE
  2
VPORT
  5
8
330
0
100
AcDbSymbolTable
 70
     1
  0
VPORT
  5
29
330
8
100
AcDbSymbolTableRecord
100
AcDbViewportTableRecord
  2
*Active
 70
     0
 10
0.0
 20
0.0
 11
1.0
 21
1.0
 12
10.42990654205607
 22
4.5
 13
0.0
 23
0.0
 14
0.5
 24
0.5
 15
0.5
 25
0.5
 16
0.0
 26
0.0
 36
1.0
 17
0.0
 27
0.0
 37
0.0
 40
9.0
 41
1.972972972850329
 42
50.0
 43
0.0
 44
0.0
 50
0.0
 51
0.0
 71
     0
 72
   100
 73
     1
 74
     3
 75
     0
 76
     0
 77
     0
 78
     0
281
     0
 65
     1
110
0.0
120
0.0
130
0.0
111
1.0
121
0.0
131
0.0
112
0.0
122
1.0
132
0.0
 79
     0
146
0.0
 60
     3
 61
     5
292
     1
282
     1
141
0.0
142
0.0
 63
   250
  0
ENDTAB
  0
TABLE
  2
LTYPE
  5
5
330
0
100
AcDbSymbolTable
 70
     1
  0
LTYPE
  5
14
330
5
100
AcDbSymbolTableRecord
100
AcDbLinetypeTableRecord
  2
ByBlock
 70
     0
  3

 72
    65
 73
     0
 40
0.0
  0
LTYPE
  5
15
330
5
100
AcDbSymbolTableRecord
100
AcDbLinetypeTableRecord
  2
ByLayer
 70
     0
  3

 72
    65
 73
     0
 40
0.0
  0
LTYPE
  5
16
330
5
100
AcDbSymbolTableRecord
100
AcDbLinetypeTableRecord
  2
Continuous
 70
     0
  3
Solid line
 72
    65
 73
     0
 40
0.0
  0
ENDTAB
  0
TABLE
  2
LAYER
  5
2
330
0
100
AcDbSymbolTable
 70
     3
  0
LAYER
  5
10
330
2
100
AcDbSymbolTableRecord
100
AcDbLayerTableRecord
  2
0
 70
     0
 62
     7
  6
Continuous
370
    -3
390
F
347
3E
  0
LAYER
  5
40
330
2
100
AcDbSymbolTableRecord
100
AcDbLayerTableRecord
  2
layer 1
 70
     0
 62
     7
  6
Continuous
370
    -3
390
F
347
3E
  0
LAYER
  5
E8
330
2
100
AcDbSymbolTableRecord
100
AcDbLayerTableRecord
  2
Master Guides
 70
     0
 62
     7
  6
Continuous
370
    -3
390
F
347
3E
  0
ENDTAB
  0
TABLE
  2
STYLE
  5
3
330
0
100
AcDbSymbolTable
 70
     1
  0
STYLE
  5
11
330
3
100
AcDbSymbolTableRecord
100
AcDbTextStyleTableRecord
  2
Standard
 70
     0
 40
0.0
 41
1.0
 50
0.0
 71
     0
 42
0.2
  3
txt
  4

  0
ENDTAB
  0
TABLE
  2
VIEW
  5
6
330
0
100
AcDbSymbolTable
 70
     0
  0
ENDTAB
  0
TABLE
  2
UCS
  5
7
330
0
100
AcDbSymbolTable
 70
     0
  0
ENDTAB
  0
TABLE
  2
APPID
  5
9
330
0
100
AcDbSymbolTable
 70
     2
  0
APPID
  5
12
330
9
100
AcDbSymbolTableRecord
100
AcDbRegAppTableRecord
  2
ACAD
 70
     0
  0
APPID
  5
3F
330
9
100
AcDbSymbolTableRecord
100
AcDbRegAppTableRecord
  2
ODA
 70
     0
  0
ENDTAB
  0
TABLE
  2
DIMSTYLE
  5
A
330
0
100
AcDbSymbolTable
 70
     1
100
AcDbDimStyleTable
  0
DIMSTYLE
105
27
330
A
100
AcDbSymbolTableRecord
100
AcDbDimStyleTableRecord
  2
Standard
 70
     0
178
     0
340
11
  0
ENDTAB
  0
TABLE
  2
BLOCK_RECORD
  5
1
330
0
100
AcDbSymbolTable
 70
     1
  0
BLOCK_RECORD
  5
1F
330
1
100
AcDbSymbolTableRecord
100
AcDbBlockTableRecord
  2
*Model_Space
340
22
 70
     0
280
     1
281
     0
  0
BLOCK_RECORD
  5
1B
330
1
100
AcDbSymbolTableRecord
100
AcDbBlockTableRecord
  2
*Paper_Space
340
1E
 70
     0
280
     1
281
     0
  0
BLOCK_RECORD
  5
23
330
1
100
AcDbSymbolTableRecord
100
AcDbBlockTableRecord
  2
*Paper_Space0
340
26
 70
     0
280
     1
281
     0
  0
ENDTAB
  0
ENDSEC
  0
SECTION
  2
BLOCKS
  0
BLOCK
  5
20
330
1F
100
AcDbEntity
  8
0
100
AcDbBlockBegin
  2
*Model_Space
 70
     0
 10
0.0
 20
0.0
 30
0.0
  3
*Model_Space
  1

  0
ENDBLK
  5
21
330
1F
100
AcDbEntity
  8
0
100
AcDbBlockEnd
  0
BLOCK
  5
1C
330
1B
100
AcDbEntity
 67
     1
  8
0
100
AcDbBlockBegin
  2
*Paper_Space
 70
     0
 10
0.0
 20
0.0
 30
0.0
  3
*Paper_Space
  1

  0
ENDBLK
  5
1D
330
1B
100
AcDbEntity
 67
     1
  8
0
100
AcDbBlockEnd
  0
BLOCK
  5
24
330
23
100
AcDbEntity
  8
0
100
AcDbBlockBegin
  2
*Paper_Space0
 70
     0
 10
0.0
 20
0.0
 30
0.0
  3
*Paper_Space0
  1

  0
ENDBLK
  5
25
330
23
100
AcDbEntity
  8
0
100
AcDbBlockEnd
  0
ENDSEC
  0
SECTION
  2
ENTITIES
  0
LWPOLYLINE
  5
41
330
1F
100
AcDbEntity
  8
layer 1
 62
   250
100
AcDbPolyline
 90
        5
 70
     1
 43
0.0
 10
84.0769
 20
-106.3945
 10
196.2241
 20
-106.3945
 10
196.2241
 20
131.8335
 10
84.0769
 20
131.8335
 10
84.0769
 20
-106.3945
  0
SPLINE
  5
42
330
1F
100
AcDbEntity
  8
layer 1
 62
     7
100
AcDbSpline
210
0.0
220
0.0
230
1.0
 70
    11
 71
     3
 72
    20
 73
    16
 74
     0
 42
0.0000000001
 43
0.0000000001
 12
1.0
 22
0.0
 32
0.0
 13
1.0
 23
0.0
 33
0.0
 40
0.0
 40
0.0
 40
0.0
 40
0.0
 40
0.2
 40
0.2
 40
0.2
 40
0.2
 40
0.4
 40
0.4
 40
0.4
 40
0.4
 40
0.6
 40
0.6
 40
0.6
 40
0.6
 40
1.0
 40
1.0
 40
1.0
 40
1.0
 10
131.2039
 20
98.7722
 30
0.0
 10
131.4262
 20
99.9428
 30
0.0
 10
130.9942
 20
106.6914
 30
0.0
 10
129.9119
 20
108.2979
 30
0.0
 10
129.9119
 20
108.2979
 30
0.0
 10
133.0601
 20
107.6045
 30
0.0
 10
136.0107
 20
105.2447
 30
0.0
 10
137.3342
 20
101.8792
 30
0.0
 10
137.3342
 20
101.8792
 30
0.0
 10
134.7963
 20
101.3246
 30
0.0
 10
132.9972
 20
100.4408
 30
0.0
 10
131.2037
 20
98.7722
 30
0.0
 10
131.2037
 20
98.7722
 30
0.0
 10
131.2037
 20
98.7722
 30
0.0
 10
131.2039
 20
98.7722
 30
0.0
 10
131.2039
 20
98.7722
 30
0.0
  0
SPLINE
  5
43
330
1F
100
AcDbEntity
  8
layer 1
 62
     7
100
AcDbSpline
210
0.0
220
0.0
230
1.0
 70
    11
 71
     3
 72
    20
 73
    16
 74
     0
 42
0.0000000001
 43
0.0000000001
 12
1.0
 22
0.0
 32
0.0
 13
1.0
 23
0.0
 33
0.0
 40
0.0
 40
0.0
 40
0.0
 40
0.0
 40
0.2
 40
0.2
 40
0.2
 40
0.2
 40
0.4
 40
0.4
 40
0.4
 40
0.4
 40
0.6
 40
0.6
 40
0.6
 40
0.6
 40
1.0
 40
1.0
 40
1.0
 40
1.0
 10
138.3955
 20
108.3966
 30
0.0
 10
139.5661
 20
108.1743
 30
0.0
 10
146.3147
 20
108.6062
 30
0.0
 10
147.9212
 20
109.6885
 30
0.0
 10
147.9212
 20
109.6885
 30
0.0
 10
147.2278
 20
106.5403
 30
0.0
 10
144.8681
 20
103.5897
 30
0.0
 10
141.5025
 20
102.2663
 30
0.0
 10
141.5025
 20
102.2663
 30
0.0
 10
140.948
 20
104.8041
 30
0.0
 10
140.0641
 20
106.6032
 30
0.0
 10
138.3955
 20
108.3967
 30
0.0
 10
138.3955
 20
108.3967
 30
0.0
 10
138.3955
 20
108.3967
 30
0.0
 10
138.3955
 20
108.3966
 30
0.0
 10
138.3955
 20
108.3966
 30
0.0
  0
SPLINE
  5
44
330
1F
100
AcDbEntity
  8
layer 1
 62
     7
100
AcDbSpline
210
0.0
220
0.0
230
1.0
 70
    11
 71
     3
 72
    20
 73
    16
 74
     0
 42
0.0000000001
 43
0.0000000001
 12
1.0
 22
0.0
 32
0.0
 13
1.0
 23
0.0
 33
0.0
 40
0.0
 40
0.0
 40
0.0
 40
0.0
 40
0.2
 40
0.2
 40
0.2
 40
0.2
 40
0.4
 40
0.4
 40
0.4
 40
0.4
 40
0.6
 40
0.6
 40
0.6
 40
0.6
 40
1.0
 40
1.0
 40
1.0
 40
1.0
 10
148.1051
 20
101.1765
 30
0.0
 10
147.8827
 20
100.0059
 30
0.0
 10
148.3147
 20
93.2573
 30
0.0
 10
149.397
 20
91.6508
 30
0.0
 10
149.397
 20
91.6508
 30
0.0
 10
146.2488
 20
92.3442
 30
0.0
 10
143.2982
 20
94.7039
 30
0.0
 10
141.9748
 20
98.0695
 30
0.0
 10
141.9748
 20
98.0695
 30
0.0
 10
144.5126
 20
98.624
 30
0.0
 10
146.3117
 20
99.5079
 30
0.0
 10
148.1052
 20
101.1765
 30
0.0
 10
148.1052
 20
101.1765
 30
0.0
 10
148.1052
 20
101.1765
 30
0.0
 10
148.1051
 20
101.1765
 30
0.0
 10
148.1051
 20
101.1765
 30
0.0
  0
SPLINE
  5
45
330
1F
100
AcDbEntity
  8
layer 1
 62
     7
100
AcDbSpline
210
0.0
220
0.0
230
1.0
 70
    11
 71
     3
 72
    20
 73
    16
 74
     0
 42
0.0000000001
 43
0.0000000001
 12
1.0
 22
0.0
 32
0.0
 13
1.0
 23
0.0
 33
0.0
 40
0.0
 40
0.0
 40
0.0
 40
0.0
 40
0.2
 40
0.2
 40
0.2
 40
0.2
 40
0.4
 40
0.4
 40
0.4
 40
0.4
 40
0.6
 40
0.6
 40
0.6
 40
0.6
 40
1.0
 40
1.0
 40
1.0
 40
1.0
 10
141.0223
 20
91.439
 30
0.0
 10
139.8517
 20
91.6613
 30
0.0
 10
133.1031
 20
91.2294
 30
0.0
 10
131.4966
 20
90.1471
 30
0.0
 10
131.4966
 20
90.1471
 30
0.0
 10
132.19
 20
93.2952
 30
0.0
 10
134.5497
 20
96.2459
 30
0.0
 10
137.9153
 20
97.5693
 30
0.0
 10
137.9153
 20
97.5693
 30
0.0
 10
138.4698
 20
95.0314
 30
0.0
 10
139.3537
 20
93.2324
 30
0.0
 10
141.0223
 20
91.4389
 30
0.0
 10
141.0223
 20
91.4389
 30
0.0
 10
141.0223
 20
91.4389
 30
0.0
 10
141.0223
 20
91.439
 30
0.0
 10
141.0223
 20
91.439
 30
0.0
  0
SPLINE
  5
46
330
1F
100
AcDbEntity
  8
layer 1
 62
     7
100
AcDbSpline
210
0.0
220
0.0
230
1.0
 70
    11
 71
     3
 72
    16
 73
    12
 74
     0
 42
0.0000000001
 43
0.0000000001
 12
1.0
 22
0.0
 32
0.0
 13
1.0
 23
0.0
 33
0.0
 40
0.0
 40
0.0
 40
0.0
 40
0.0
 40
0.25
 40
0.25
 40
0.25
 40
0.25
 40
0.5
 40
0.5
 40
0.5
 40
0.5
 40
1.0
 40
1.0
 40
1.0
 40
1.0
 10
125.6754
 20
108.2411
 30
0.0
 10
127.169
 20
105.4995
 30
0.0
 10
127.3594
 20
94.4244
 30
0.0
 10
125.8313
 20
91.682
 30
0.0
 10
125.8313
 20
91.682
 30
0.0
 10
123.5773
 20
92.8104
 30
0.0
 10
120.5784
 20
96.7171
 30
0.0
 10
120.6084
 20
100.0101
 30
0.0
 10
120.6084
 20
100.0101
 30
0.0
 10
120.6084
 20
103.8518
 30
0.0
 10
123.8819
 20
106.5725
 30
0.0
 10
125.6754
 20
108.2411
 30
0.0
  0
SPLINE
  5
47
330
1F
100
AcDbEntity
  8
layer 1
 62
     7
100
AcDbSpline
210
0.0
220
0.0
230
1.0
 70
    11
 71
     3
 72
    16
 73
    12
 74
     0
 42
0.0000000001
 43
0.0000000001
 12
1.0
 22
0.0
 32
0.0
 13
1.0
 23
0.0
 33
0.0
 40
0.0
 40
0.0
 40
0.0
 40
0.0
 40
0.25
 40
0.25
 40
0.25
 40
0.25
 40
0.5
 40
0.5
 40
0.5
 40
0.5
 40
1.0
 40
1.0
 40
1.0
 40
1.0
 10
131.2284
 20
85.5489
 30
0.0
 10
133.97
 20
87.0426
 30
0.0
 10
145.0451
 20
87.2329
 30
0.0
 10
147.7874
 20
85.7048
 30
0.0
 10
147.7874
 20
85.7048
 30
0.0
 10
146.659
 20
83.4509
 30
0.0
 10
142.7524
 20
80.452
 30
0.0
 10
139.4594
 20
80.482
 30
0.0
 10
139.4594
 20
80.482
 30
0.0
 10
135.6177
 20
80.482
 30
0.0
 10
132.897
 20
83.7554
 30
0.0
 10
131.2284
 20
85.5489
 30
0.0
  0
SPLINE
  5
48
330
1F
100
AcDbEntity
  8
layer 1
 62
     7
100
AcDbSpline
210
0.0
220
0.0
230
1.0
 70
    11
 71
     3
 72
    16
 73
    12
 74
     0
 42
0.0000000001
 43
0.0000000001
 12
1.0
 22
0.0
 32
0.0
 13
1.0
 23
0.0
 33
0.0
 40
0.0
 40
0.0
 40
0.0
 40
0.0
 40
0.25
 40
0.25
 40
0.25
 40
0.25
 40
0.5
 40
0.5
 40
0.5
 40
0.5
 40
1.0
 40
1.0
 40
1.0
 40
1.0
 10
131.2284
 20
114.1808
 30
0.0
 10
133.97
 20
112.6872
 30
0.0
 10
145.0451
 20
112.4968
 30
0.0
 10
147.7874
 20
114.0249
 30
0.0
 10
147.7874
 20
114.0249
 30
0.0
 10
146.659
 20
116.2789
 30
0.0
 10
142.7524
 20
119.2778
 30
0.0
 10
139.4594
 20
119.2478
 30
0.0
 10
139.4594
 20
119.2478
 30
0.0
 10
135.6177
 20
119.2478
 30
0.0
 10
132.897
 20
115.9743
 30
0.0
 10
131.2284
 20
114.1808
 30
0.0
  0
SPLINE
  5
49
330
1F
100
AcDbEntity
  8
layer 1
 62
     7
100
AcDbSpline
210
0.0
220
0.0
230
1.0
 70
    11
 71
     3
 72
    16
 73
    12
 74
     0
 42
0.0000000001
 43
0.0000000001
 12
1.0
 22
0.0
 32
0.0
 13
1.0
 23
0.0
 33
0.0
 40
0.0
 40
0.0
 40
0.0
 40
0.0
 40
0.25
 40
0.25
 40
0.25
 40
0.25
 40
0.5
 40
0.5
 40
0.5
 40
0.5
 40
1.0
 40
1.0
 40
1.0
 40
1.0
 10
153.9207
 20
108.2411
 30
0.0
 10
152.427
 20
105.4995
 30
0.0
 10
152.2367
 20
94.4244
 30
0.0
 10
153.7648
 20
91.682
 30
0.0
 10
153.7648
 20
91.682
 30
0.0
 10
156.0187
 20
92.8104
 30
0.0
 10
159.0176
 20
96.7171
 30
0.0
 10
158.9876
 20
100.0101
 30
0.0
 10
158.9876
 20
100.0101
 30
0.0
 10
158.9876
 20
103.8518
 30
0.0
 10
155.7142
 20
106.5725
 30
0.0
 10
153.9207
 20
108.2411
 30
0.0
  0
SPLINE
  5
4A
330
1F
100
AcDbEntity
  8
layer 1
 62
     7
100
AcDbSpline
210
0.0
220
0.0
230
1.0
 70
    11
 71
     3
 72
    20
 73
    16
 74
     0
 42
0.0000000001
 43
0.0000000001
 12
1.0
 22
0.0
 32
0.0
 13
1.0
 23
0.0
 33
0.0
 40
0.0
 40
0.0
 40
0.0
 40
0.0
 40
0.2
 40
0.2
 40
0.2
 40
0.2
 40
0.4
 40
0.4
 40
0.4
 40
0.4
 40
0.6
 40
0.6
 40
0.6
 40
0.6
 40
1.0
 40
1.0
 40
1.0
 40
1.0
 10
123.5115
 20
87.5059
 30
0.0
 10
121.8263
 20
89.0115
 30
0.0
 10
118.7748
 20
91.6875
 30
0.0
 10
118.0194
 20
93.775
 30
0.0
 10
118.0194
 20
93.775
 30
0.0
 10
117.2638
 20
91.6876
 30
0.0
 10
114.2123
 20
89.0115
 30
0.0
 10
112.5272
 20
87.5059
 30
0.0
 10
112.5272
 20
87.5059
 30
0.0
 10
113.8054
 20
85.9066
 30
0.0
 10
116.3435
 20
83.0506
 30
0.0
 10
118.0194
 20
80.878
 30
0.0
 10
118.0194
 20
80.878
 30
0.0
 10
119.6952
 20
83.0506
 30
0.0
 10
122.2335
 20
85.9066
 30
0.0
 10
123.5115
 20
87.5059
 30
0.0
  0
SPLINE
  5
4B
330
1F
100
AcDbEntity
  8
layer 1
 62
     7
100
AcDbSpline
210
0.0
220
0.0
230
1.0
 70
    11
 71
     3
 72
    20
 73
    16
 74
     0
 42
0.0000000001
 43
0.0000000001
 12
1.0
 22
0.0
 32
0.0
 13
1.0
 23
0.0
 33
0.0
 40
0.0
 40
0.0
 40
0.0
 40
0.0
 40
0.2
 40
0.2
 40
0.2
 40
0.2
 40
0.4
 40
0.4
 40
0.4
 40
0.4
 40
0.6
 40
0.6
 40
0.6
 40
0.6
 40
1.0
 40
1.0
 40
1.0
 40
1.0
 10
123.5115
 20
68.5096
 30
0.0
 10
121.8263
 20
67.004
 30
0.0
 10
118.7748
 20
64.3281
 30
0.0
 10
118.0194
 20
62.2406
 30
0.0
 10
118.0194
 20
62.2406
 30
0.0
 10
117.2638
 20
64.3279
 30
0.0
 10
114.2123
 20
67.004
 30
0.0
 10
112.5272
 20
68.5096
 30
0.0
 10
112.5272
 20
68.5096
 30
0.0
 10
113.8054
 20
70.109
 30
0.0
 10
116.3435
 20
72.965
 30
0.0
 10
118.0194
 20
75.1376
 30
0.0
 10
118.0194
 20
75.1376
 30
0.0
 10
119.6952
 20
72.965
 30
0.0
 10
122.2335
 20
70.109
 30
0.0
 10
123.5115
 20
68.5096
 30
0.0
  0
SPLINE
  5
4C
330
1F
100
AcDbEntity
  8
layer 1
 62
     7
100
AcDbSpline
210
0.0
220
0.0
230
1.0
 70
    11
 71
     3
 72
    20
 73
    16
 74
     0
 42
0.0000000001
 43
0.0000000001
 12
1.0
 22
0.0
 32
0.0
 13
1.0
 23
0.0
 33
0.0
 40
0.0
 40
0.0
 40
0.0
 40
0.0
 40
0.2
 40
0.2
 40
0.2
 40
0.2
 40
0.4
 40
0.4
 40
0.4
 40
0.4
 40
0.6
 40
0.6
 40
0.6
 40
0.6
 40
1.0
 40
1.0
 40
1.0
 40
1.0
 10
108.9889
 20
72.4795
 30
0.0
 10
107.4833
 20
74.1648
 30
0.0
 10
104.8073
 20
77.2163
 30
0.0
 10
102.7198
 20
77.9717
 30
0.0
 10
102.7198
 20
77.9717
 30
0.0
 10
104.8072
 20
78.7272
 30
0.0
 10
107.4833
 20
81.7787
 30
0.0
 10
108.9889
 20
83.4639
 30
0.0
 10
108.9889
 20
83.4639
 30
0.0
 10
110.5883
 20
82.1857
 30
0.0
 10
113.4442
 20
79.6476
 30
0.0
 10
115.6168
 20
77.9717
 30
0.0
 10
115.6168
 20
77.9717
 30
0.0
 10
113.4442
 20
76.2958
 30
0.0
 10
110.5883
 20
73.7576
 30
0.0
 10
108.9889
 20
72.4795
 30
0.0
  0
SPLINE
  5
4D
330
1F
100
AcDbEntity
  8
layer 1
 62
     7
100
AcDbSpline
210
0.0
220
0.0
230
1.0
 70
    11
 71
     3
 72
    20
 73
    16
 74
     0
 42
0.0000000001
 43
0.0000000001
 12
1.0
 22
0.0
 32
0.0
 13
1.0
 23
0.0
 33
0.0
 40
0.0
 40
0.0
 40
0.0
 40
0.0
 40
0.2
 40
0.2
 40
0.2
 40
0.2
 40
0.4
 40
0.4
 40
0.4
 40
0.4
 40
0.6
 40
0.6
 40
0.6
 40
0.6
 40
1.0
 40
1.0
 40
1.0
 40
1.0
 10
127.2656
 20
72.4795
 30
0.0
 10
128.7712
 20
74.1648
 30
0.0
 10
131.4472
 20
77.2163
 30
0.0
 10
133.5346
 20
77.9717
 30
0.0
 10
133.5346
 20
77.9717
 30
0.0
 10
131.4473
 20
78.7272
 30
0.0
 10
128.7712
 20
81.7787
 30
0.0
 10
127.2656
 20
83.4639
 30
0.0
 10
127.2656
 20
83.4639
 30
0.0
 10
125.6662
 20
82.1857
 30
0.0
 10
122.8102
 20
79.6476
 30
0.0
 10
120.6376
 20
77.9717
 30
0.0
 10
120.6376
 20
77.9717
 30
0.0
 10
122.8102
 20
76.2958
 30
0.0
 10
125.6662
 20
73.7576
 30
0.0
 10
127.2656
 20
72.4795
 30
0.0
  0
SPLINE
  5
4E
330
1F
100
AcDbEntity
  8
layer 1
 62
     7
100
AcDbSpline
210
0.0
220
0.0
230
1.0
 70
    11
 71
     3
 72
    20
 73
    16
 74
     0
 42
0.0000000001
 43
0.0000000001
 12
1.0
 22
0.0
 32
0.0
 13
1.0
 23
0.0
 33
0.0
 40
0.0
 40
0.0
 40
0.0
 40
0.0
 40
0.2
 40
0.2
 40
0.2
 40
0.2
 40
0.4
 40
0.4
 40
0.4
 40
0.4
 40
0.6
 40
0.6
 40
0.6
 40
0.6
 40
1.0
 40
1.0
 40
1.0
 40
1.0
 10
166.8637
 20
87.5059
 30
0.0
 10
165.1784
 20
89.0115
 30
0.0
 10
162.1269
 20
91.6875
 30
0.0
 10
161.3715
 20
93.775
 30
0.0
 10
161.3715
 20
93.775
 30
0.0
 10
160.616
 20
91.6876
 30
0.0
 10
157.5645
 20
89.0115
 30
0.0
 10
155.8793
 20
87.5059
 30
0.0
 10
155.8793
 20
87.5059
 30
0.0
 10
157.1575
 20
85.9066
 30
0.0
 10
159.6956
 20
83.0506
 30
0.0
 10
161.3715
 20
80.878
 30
0.0
 10
161.3715
 20
80.878
 30
0.0
 10
163.0473
 20
83.0506
 30
0.0
 10
165.5856
 20
85.9066
 30
0.0
 10
166.8637
 20
87.5059
 30
0.0
  0
SPLINE
  5
4F
330
1F
100
AcDbEntity
  8
layer 1
 62
     7
100
AcDbSpline
210
0.0
220
0.0
230
1.0
 70
    11
 71
     3
 72
    20
 73
    16
 74
     0
 42
0.0000000001
 43
0.0000000001
 12
1.0
 22
0.0
 32
0.0
 13
1.0
 23
0.0
 33
0.0
 40
0.0
 40
0.0
 40
0.0
 40
0.0
 40
0.2
 40
0.2
 40
0.2
 40
0.2
 40
0.4
 40
0.4
 40
0.4
 40
0.4
 40
0.6
 40
0.6
 40
0.6
 40
0.6
 40
1.0
 40
1.0
 40
1.0
 40
1.0
 10
166.8637
 20
68.5096
 30
0.0
 10
165.1784
 20
67.004
 30
0.0
 10
162.1269
 20
64.3281
 30
0.0
 10
161.3715
 20
62.2406
 30
0.0
 10
161.3715
 20
62.2406
 30
0.0
 10
160.616
 20
64.3279
 30
0.0
 10
157.5645
 20
67.004
 30
0.0
 10
155.8793
 20
68.5096
 30
0.0
 10
155.8793
 20
68.5096
 30
0.0
 10
157.1575
 20
70.109
 30
0.0
 10
159.6956
 20
72.965
 30
0.0
 10
161.3715
 20
75.1376
 30
0.0
 10
161.3715
 20
75.1376
 30
0.0
 10
163.0473
 20
72.965
 30
0.0
 10
165.5856
 20
70.109
 30
0.0
 10
166.8637
 20
68.5096
 30
0.0
  0
SPLINE
  5
50
330
1F
100
AcDbEntity
  8
layer 1
 62
     7
100
AcDbSpline
210
0.0
220
0.0
230
1.0
 70
    11
 71
     3
 72
    20
 73
    16
 74
     0
 42
0.0000000001
 43
0.0000000001
 12
1.0
 22
0.0
 32
0.0
 13
1.0
 23
0.0
 33
0.0
 40
0.0
 40
0.0
 40
0.0
 40
0.0
 40
0.2
 40
0.2
 40
0.2
 40
0.2
 40
0.4
 40
0.4
 40
0.4
 40
0.4
 40
0.6
 40
0.6
 40
0.6
 40
0.6
 40
1.0
 40
1.0
 40
1.0
 40
1.0
 10
152.341
 20
72.4795
 30
0.0
 10
150.8354
 20
74.1648
 30
0.0
 10
148.1594
 20
77.2163
 30
0.0
 10
146.072
 20
77.9717
 30
0.0
 10
146.072
 20
77.9717
 30
0.0
 10
148.1593
 20
78.7272
 30
0.0
 10
150.8354
 20
81.7787
 30
0.0
 10
152.341
 20
83.4639
 30
0.0
 10
152.341
 20
83.4639
 30
0.0
 10
153.9404
 20
82.1857
 30
0.0
 10
156.7963
 20
79.6476
 30
0.0
 10
158.9689
 20
77.9717
 30
0.0
 10
158.9689
 20
77.9717
 30
0.0
 10
156.7963
 20
76.2958
 30
0.0
 10
153.9404
 20
73.7576
 30
0.0
 10
152.341
 20
72.4795
 30
0.0
  0
SPLINE
  5
51
330
1F
100
AcDbEntity
  8
layer 1
 62
     7
100
AcDbSpline
210
0.0
220
0.0
230
1.0
 70
    11
 71
     3
 72
    20
 73
    16
 74
     0
 42
0.0000000001
 43
0.0000000001
 12
1.0
 22
0.0
 32
0.0
 13
1.0
 23
0.0
 33
0.0
 40
0.0
 40
0.0
 40
0.0
 40
0.0
 40
0.2
 40
0.2
 40
0.2
 40
0.2
 40
0.4
 40
0.4
 40
0.4
 40
0.4
 40
0.6
 40
0.6
 40
0.6
 40
0.6
 40
1.0
 40
1.0
 40
1.0
 40
1.0
 10
170.6177
 20
72.4795
 30
0.0
 10
172.1233
 20
74.1648
 30
0.0
 10
174.7993
 20
77.2163
 30
0.0
 10
176.8868
 20
77.9717
 30
0.0
 10
176.8868
 20
77.9717
 30
0.0
 10
174.7994
 20
78.7272
 30
0.0
 10
172.1233
 20
81.7787
 30
0.0
 10
170.6177
 20
83.4639
 30
0.0
 10
170.6177
 20
83.4639
 30
0.0
 10
169.0183
 20
82.1857
 30
0.0
 10
166.1624
 20
79.6476
 30
0.0
 10
163.9898
 20
77.9717
 30
0.0
 10
163.9898
 20
77.9717
 30
0.0
 10
166.1624
 20
76.2958
 30
0.0
 10
169.0183
 20
73.7576
 30
0.0
 10
170.6177
 20
72.4795
 30
0.0
  0
SPLINE
  5
52
330
1F
100
AcDbEntity
  8
layer 1
 62
     7
100
AcDbSpline
210
0.0
220
0.0
230
1.0
 70
    11
 71
     3
 72
    20
 73
    16
 74
     0
 42
0.0000000001
 43
0.0000000001
 12
1.0
 22
0.0
 32
0.0
 13
1.0
 23
0.0
 33
0.0
 40
0.0
 40
0.0
 40
0.0
 40
0.0
 40
0.2
 40
0.2
 40
0.2
 40
0.2
 40
0.4
 40
0.4
 40
0.4
 40
0.4
 40
0.6
 40
0.6
 40
0.6
 40
0.6
 40
1.0
 40
1.0
 40
1.0
 40
1.0
 10
123.5115
 20
0.3946
 30
0.0
 10
121.8263
 20
1.9002
 30
0.0
 10
118.7748
 20
4.5762
 30
0.0
 10
118.0194
 20
6.6637
 30
0.0
 10
118.0194
 20
6.6637
 30
0.0
 10
117.2638
 20
4.5763
 30
0.0
 10
114.2123
 20
1.9002
 30
0.0
 10
112.5272
 20
0.3946
 30
0.0
 10
112.5272
 20
0.3946
 30
0.0
 10
113.8054
 20
-1.2047
 30
0.0
 10
116.3435
 20
-4.0607
 30
0.0
 10
118.0194
 20
-6.2333
 30
0.0
 10
118.0194
 20
-6.2333
 30
0.0
 10
119.6952
 20
-4.0607
 30
0.0
 10
122.2335
 20
-1.2047
 30
0.0
 10
123.5115
 20
0.3946
 30
0.0
  0
SPLINE
  5
53
330
1F
100
AcDbEntity
  8
layer 1
 62
     7
100
AcDbSpline
210
0.0
220
0.0
230
1.0
 70
    11
 71
     3
 72
    20
 73
    16
 74
     0
 42
0.0000000001
 43
0.0000000001
 12
1.0
 22
0.0
 32
0.0
 13
1.0
 23
0.0
 33
0.0
 40
0.0
 40
0.0
 40
0.0
 40
0.0
 40
0.2
 40
0.2
 40
0.2
 40
0.2
 40
0.4
 40
0.4
 40
0.4
 40
0.4
 40
0.6
 40
0.6
 40
0.6
 40
0.6
 40
1.0
 40
1.0
 40
1.0
 40
1.0
 10
123.5115
 20
-18.6017
 30
0.0
 10
121.8263
 20
-20.1073
 30
0.0
 10
118.7748
 20
-22.7832
 30
0.0
 10
118.0194
 20
-24.8707
 30
0.0
 10
118.0194
 20
-24.8707
 30
0.0
 10
117.2638
 20
-22.7834
 30
0.0
 10
114.2123
 20
-20.1073
 30
0.0
 10
112.5272
 20
-18.6017
 30
0.0
 10
112.5272
 20
-18.6017
 30
0.0
 10
113.8054
 20
-17.0023
 30
0.0
 10
116.3435
 20
-14.1463
 30
0.0
 10
118.0194
 20
-11.9737
 30
0.0
 10
118.0194
 20
-11.9737
 30
0.0
 10
119.6952
 20
-14.1463
 30
0.0
 10
122.2335
 20
-17.0023
 30
0.0
 10
123.5115
 20
-18.6017
 30
0.0
  0
SPLINE
  5
54
330
1F
100
AcDbEntity
  8
layer 1
 62
     7
100
AcDbSpline
210
0.0
220
0.0
230
1.0
 70
    11
 71
     3
 72
    20
 73
    16
 74
     0
 42
0.0000000001
 43
0.0000000001
 12
1.0
 22
0.0
 32
0.0
 13
1.0
 23
0.0
 33
0.0
 40
0.0
 40
0.0
 40
0.0
 40
0.0
 40
0.2
 40
0.2
 40
0.2
 40
0.2
 40
0.4
 40
0.4
 40
0.4
 40
0.4
 40
0.6
 40
0.6
 40
0.6
 40
0.6
 40
1.0
 40
1.0
 40
1.0
 40
1.0
 10
108.9889
 20
-14.6316
 30
0.0
 10
107.4833
 20
-12.9464
 30
0.0
 10
104.8073
 20
-9.8949
 30
0.0
 10
102.7198
 20
-9.1395
 30
0.0
 10
102.7198
 20
-9.1395
 30
0.0
 10
104.8072
 20
-8.3839
 30
0.0
 10
107.4833
 20
-5.3324
 30
0.0
 10
108.9889
 20
-3.6473
 30
0.0
 10
108.9889
 20
-3.6473
 30
0.0
 10
110.5883
 20
-4.9255
 30
0.0
 10
113.4442
 20
-7.4636
 30
0.0
 10
115.6168
 20
-9.1395
 30
0.0
 10
115.6168
 20
-9.1395
 30
0.0
 10
113.4442
 20
-10.8153
 30
0.0
 10
110.5883
 20
-13.3536
 30
0.0
 10
108.9889
 20
-14.6316
 30
0.0
  0
SPLINE
  5
55
330
1F
100
AcDbEntity
  8
layer 1
 62
     7
100
AcDbSpline
210
0.0
220
0.0
230
1.0
 70
    11
 71
     3
 72
    20
 73
    16
 74
     0
 42
0.0000000001
 43
0.0000000001
 12
1.0
 22
0.0
 32
0.0
 13
1.0
 23
0.0
 33
0.0
 40
0.0
 40
0.0
 40
0.0
 40
0.0
 40
0.2
 40
0.2
 40
0.2
 40
0.2
 40
0.4
 40
0.4
 40
0.4
 40
0.4
 40
0.6
 40
0.6
 40
0.6
 40
0.6
 40
1.0
 40
1.0
 40
1.0
 40
1.0
 10
127.2656
 20
-14.6316
 30
0.0
 10
128.7712
 20
-12.9464
 30
0.0
 10
131.4472
 20
-9.8949
 30
0.0
 10
133.5346
 20
-9.1395
 30
0.0
 10
133.5346
 20
-9.1395
 30
0.0
 10
131.4473
 20
-8.3839
 30
0.0
 10
128.7712
 20
-5.3324
 30
0.0
 10
127.2656
 20
-3.6473
 30
0.0
 10
127.2656
 20
-3.6473
 30
0.0
 10
125.6662
 20
-4.9255
 30
0.0
 10
122.8102
 20
-7.4636
 30
0.0
 10
120.6376
 20
-9.1395
 30
0.0
 10
120.6376
 20
-9.1395
 30
0.0
 10
122.8102
 20
-10.8153
 30
0.0
 10
125.6662
 20
-13.3536
 30
0.0
 10
127.2656
 20
-14.6316
 30
0.0
  0
SPLINE
  5
56
330
1F
100
AcDbEntity
  8
layer 1
 62
     7
100
AcDbSpline
210
0.0
220
0.0
230
1.0
 70
    11
 71
     3
 72
    20
 73
    16
 74
     0
 42
0.0000000001
 43
0.0000000001
 12
1.0
 22
0.0
 32
0.0
 13
1.0
 23
0.0
 33
0.0
 40
0.0
 40
0.0
 40
0.0
 40
0.0
 40
0.2
 40
0.2
 40
0.2
 40
0.2
 40
0.4
 40
0.4
 40
0.4
 40
0.4
 40
0.6
 40
0.6
 40
0.6
 40
0.6
 40
1.0
 40
1.0
 40
1.0
 40
1.0
 10
166.8637
 20
0.3946
 30
0.0
 10
165.1784
 20
1.9002
 30
0.0
 10
162.1269
 20
4.5762
 30
0.0
 10
161.3715
 20
6.6637
 30
0.0
 10
161.3715
 20
6.6637
 30
0.0
 10
160.616
 20
4.5763
 30
0.0
 10
157.5645
 20
1.9002
 30
0.0
 10
155.8793
 20
0.3946
 30
0.0
 10
155.8793
 20
0.3946
 30
0.0
 10
157.1575
 20
-1.2047
 30
0.0
 10
159.6956
 20
-4.0607
 30
0.0
 10
161.3715
 20
-6.2333
 30
0.0
 10
161.3715
 20
-6.2333
 30
0.0
 10
163.0473
 20
-4.0607
 30
0.0
 10
165.5856
 20
-1.2047
 30
0.0
 10
166.8637
 20
0.3946
 30
0.0
  0
SPLINE
  5
57
330
1F
100
AcDbEntity
  8
layer 1
 62
     7
100
AcDbSpline
210
0.0
220
0.0
230
1.0
 70
    11
 71
     3
 72
    20
 73
    16
 74
     0
 42
0.0000000001
 43
0.0000000001
 12
1.0
 22
0.0
 32
0.0
 13
1.0
 23
0.0
 33
0.0
 40
0.0
 40
0.0
 40
0.0
 40
0.0
 40
0.2
 40
0.2
 40
0.2
 40
0.2
 40
0.4
 40
0.4
 40
0.4
 40
0.4
 40
0.6
 40
0.6
 40
0.6
 40
0.6
 40
1.0
 40
1.0
 40
1.0
 40
1.0
 10
166.8637
 20
-18.6017
 30
0.0
 10
165.1784
 20
-20.1073
 30
0.0
 10
162.1269
 20
-22.7832
 30
0.0
 10
161.3715
 20
-24.8707
 30
0.0
 10
161.3715
 20
-24.8707
 30
0.0
 10
160.616
 20
-22.7834
 30
0.0
 10
157.5645
 20
-20.1073
 30
0.0
 10
155.8793
 20
-18.6017
 30
0.0
 10
155.8793
 20
-18.6017
 30
0.0
 10
157.1575
 20
-17.0023
 30
0.0
 10
159.6956
 20
-14.1463
 30
0.0
 10
161.3715
 20
-11.9737
 30
0.0
 10
161.3715
 20
-11.9737
 30
0.0
 10
163.0473
 20
-14.1463
 30
0.0
 10
165.5856
 20
-17.0023
 30
0.0
 10
166.8637
 20
-18.6017
 30
0.0
  0
SPLINE
  5
58
330
1F
100
AcDbEntity
  8
layer 1
 62
     7
100
AcDbSpline
210
0.0
220
0.0
230
1.0
 70
    11
 71
     3
 72
    20
 73
    16
 74
     0
 42
0.0000000001
 43
0.0000000001
 12
1.0
 22
0.0
 32
0.0
 13
1.0
 23
0.0
 33
0.0
 40
0.0
 40
0.0
 40
0.0
 40
0.0
 40
0.2
 40
0.2
 40
0.2
 40
0.2
 40
0.4
 40
0.4
 40
0.4
 40
0.4
 40
0.6
 40
0.6
 40
0.6
 40
0.6
 40
1.0
 40
1.0
 40
1.0
 40
1.0
 10
152.341
 20
-14.6316
 30
0.0
 10
150.8354
 20
-12.9464
 30
0.0
 10
148.1594
 20
-9.8949
 30
0.0
 10
146.072
 20
-9.1395
 30
0.0
 10
146.072
 20
-9.1395
 30
0.0
 10
148.1593
 20
-8.3839
 30
0.0
 10
150.8354
 20
-5.3324
 30
0.0
 10
152.341
 20
-3.6473
 30
0.0
 10
152.341
 20
-3.6473
 30
0.0
 10
153.9404
 20
-4.9255
 30
0.0
 10
156.7963
 20
-7.4636
 30
0.0
 10
158.9689
 20
-9.1395
 30
0.0
 10
158.9689
 20
-9.1395
 30
0.0
 10
156.7963
 20
-10.8153
 30
0.0
 10
153.9404
 20
-13.3536
 30
0.0
 10
152.341
 20
-14.6316
 30
0.0
  0
SPLINE
  5
59
330
1F
100
AcDbEntity
  8
layer 1
 62
     7
100
AcDbSpline
210
0.0
220
0.0
230
1.0
 70
    11
 71
     3
 72
    20
 73
    16
 74
     0
 42
0.0000000001
 43
0.0000000001
 12
1.0
 22
0.0
 32
0.0
 13
1.0
 23
0.0
 33
0.0
 40
0.0
 40
0.0
 40
0.0
 40
0.0
 40
0.2
 40
0.2
 40
0.2
 40
0.2
 40
0.4
 40
0.4
 40
0.4
 40
0.4
 40
0.6
 40
0.6
 40
0.6
 40
0.6
 40
1.0
 40
1.0
 40
1.0
 40
1.0
 10
170.6177
 20
-14.6316
 30
0.0
 10
172.1233
 20
-12.9464
 30
0.0
 10
174.7993
 20
-9.8949
 30
0.0
 10
176.8868
 20
-9.1395
 30
0.0
 10
176.8868
 20
-9.1395
 30
0.0
 10
174.7994
 20
-8.3839
 30
0.0
 10
172.1233
 20
-5.3324
 30
0.0
 10
170.6177
 20
-3.6473
 30
0.0
 10
170.6177
 20
-3.6473
 30
0.0
 10
169.0183
 20
-4.9255
 30
0.0
 10
166.1624
 20
-7.4636
 30
0.0
 10
163.9898
 20
-9.1395
 30
0.0
 10
163.9898
 20
-9.1395
 30
0.0
 10
166.1624
 20
-10.8153
 30
0.0
 10
169.0183
 20
-13.3536
 30
0.0
 10
170.6177
 20
-14.6316
 30
0.0
  0
SPLINE
  5
5A
330
1F
100
AcDbEntity
  8
layer 1
 62
     7
100
AcDbSpline
210
0.0
220
0.0
230
1.0
 70
    11
 71
     3
 72
    20
 73
    16
 74
     0
 42
0.0000000001
 43
0.0000000001
 12
1.0
 22
0.0
 32
0.0
 13
1.0
 23
0.0
 33
0.0
 40
0.0
 40
0.0
 40
0.0
 40
0.0
 40
0.2
 40
0.2
 40
0.2
 40
0.2
 40
0.4
 40
0.4
 40
0.4
 40
0.4
 40
0.6
 40
0.6
 40
0.6
 40
0.6
 40
1.0
 40
1.0
 40
1.0
 40
1.0
 10
123.5115
 20
43.9503
 30
0.0
 10
121.8263
 20
45.4559
 30
0.0
 10
118.7748
 20
48.1318
 30
0.0
 10
118.0194
 20
50.2193
 30
0.0
 10
118.0194
 20
50.2193
 30
0.0
 10
117.2638
 20
48.132
 30
0.0
 10
114.2123
 20
45.4559
 30
0.0
 10
112.5272
 20
43.9503
 30
0.0
 10
112.5272
 20
43.9503
 30
0.0
 10
113.8054
 20
42.3509
 30
0.0
 10
116.3435
 20
39.4949
 30
0.0
 10
118.0194
 20
37.3223
 30
0.0
 10
118.0194
 20
37.3223
 30
0.0
 10
119.6952
 20
39.4949
 30
0.0
 10
122.2335
 20
42.3509
 30
0.0
 10
123.5115
 20
43.9503
 30
0.0
  0
SPLINE
  5
5B
330
1F
100
AcDbEntity
  8
layer 1
 62
     7
100
AcDbSpline
210
0.0
220
0.0
230
1.0
 70
    11
 71
     3
 72
    20
 73
    16
 74
     0
 42
0.0000000001
 43
0.0000000001
 12
1.0
 22
0.0
 32
0.0
 13
1.0
 23
0.0
 33
0.0
 40
0.0
 40
0.0
 40
0.0
 40
0.0
 40
0.2
 40
0.2
 40
0.2
 40
0.2
 40
0.4
 40
0.4
 40
0.4
 40
0.4
 40
0.6
 40
0.6
 40
0.6
 40
0.6
 40
1.0
 40
1.0
 40
1.0
 40
1.0
 10
123.5115
 20
24.954
 30
0.0
 10
121.8263
 20
23.4484
 30
0.0
 10
118.7748
 20
20.7724
 30
0.0
 10
118.0194
 20
18.6849
 30
0.0
 10
118.0194
 20
18.6849
 30
0.0
 10
117.2638
 20
20.7723
 30
0.0
 10
114.2123
 20
23.4484
 30
0.0
 10
112.5272
 20
24.954
 30
0.0
 10
112.5272
 20
24.954
 30
0.0
 10
113.8054
 20
26.5534
 30
0.0
 10
116.3435
 20
29.4093
 30
0.0
 10
118.0194
 20
31.5819
 30
0.0
 10
118.0194
 20
31.5819
 30
0.0
 10
119.6952
 20
29.4093
 30
0.0
 10
122.2335
 20
26.5534
 30
0.0
 10
123.5115
 20
24.954
 30
0.0
  0
SPLINE
  5
5C
330
1F
100
AcDbEntity
  8
layer 1
 62
     7
100
AcDbSpline
210
0.0
220
0.0
230
1.0
 70
    11
 71
     3
 72
    20
 73
    16
 74
     0
 42
0.0000000001
 43
0.0000000001
 12
1.0
 22
0.0
 32
0.0
 13
1.0
 23
0.0
 33
0.0
 40
0.0
 40
0.0
 40
0.0
 40
0.0
 40
0.2
 40
0.2
 40
0.2
 40
0.2
 40
0.4
 40
0.4
 40
0.4
 40
0.4
 40
0.6
 40
0.6
 40
0.6
 40
0.6
 40
1.0
 40
1.0
 40
1.0
 40
1.0
 10
108.9889
 20
28.9239
 30
0.0
 10
107.4833
 20
30.6091
 30
0.0
 10
104.8073
 20
33.6606
 30
0.0
 10
102.7198
 20
34.4161
 30
0.0
 10
102.7198
 20
34.4161
 30
0.0
 10
104.8072
 20
35.1716
 30
0.0
 10
107.4833
 20
38.2231
 30
0.0
 10
108.9889
 20
39.9082
 30
0.0
 10
108.9889
 20
39.9082
 30
0.0
 10
110.5883
 20
38.63
 30
0.0
 10
113.4442
 20
36.0919
 30
0.0
 10
115.6168
 20
34.4161
 30
0.0
 10
115.6168
 20
34.4161
 30
0.0
 10
113.4442
 20
32.7402
 30
0.0
 10
110.5883
 20
30.202
 30
0.0
 10
108.9889
 20
28.9239
 30
0.0
  0
SPLINE
  5
5D
330
1F
100
AcDbEntity
  8
layer 1
 62
     7
100
AcDbSpline
210
0.0
220
0.0
230
1.0
 70
    11
 71
     3
 72
    20
 73
    16
 74
     0
 42
0.0000000001
 43
0.0000000001
 12
1.0
 22
0.0
 32
0.0
 13
1.0
 23
0.0
 33
0.0
 40
0.0
 40
0.0
 40
0.0
 40
0.0
 40
0.2
 40
0.2
 40
0.2
 40
0.2
 40
0.4
 40
0.4
 40
0.4
 40
0.4
 40
0.6
 40
0.6
 40
0.6
 40
0.6
 40
1.0
 40
1.0
 40
1.0
 40
1.0
 10
127.2656
 20
28.9239
 30
0.0
 10
128.7712
 20
30.6091
 30
0.0
 10
131.4472
 20
33.6606
 30
0.0
 10
133.5346
 20
34.4161
 30
0.0
 10
133.5346
 20
34.4161
 30
0.0
 10
131.4473
 20
35.1716
 30
0.0
 10
128.7712
 20
38.2231
 30
0.0
 10
127.2656
 20
39.9082
 30
0.0
 10
127.2656
 20
39.9082
 30
0.0
 10
125.6662
 20
38.63
 30
0.0
 10
122.8102
 20
36.0919
 30
0.0
 10
120.6376
 20
34.4161
 30
0.0
 10
120.6376
 20
34.4161
 30
0.0
 10
122.8102
 20
32.7402
 30
0.0
 10
125.6662
 20
30.202
 30
0.0
 10
127.2656
 20
28.9239
 30
0.0
  0
SPLINE
  5
5E
330
1F
100
AcDbEntity
  8
layer 1
 62
     7
100
AcDbSpline
210
0.0
220
0.0
230
1.0
 70
    11
 71
     3
 72
    20
 73
    16
 74
     0
 42
0.0000000001
 43
0.0000000001
 12
1.0
 22
0.0
 32
0.0
 13
1.0
 23
0.0
 33
0.0
 40
0.0
 40
0.0
 40
0.0
 40
0.0
 40
0.2
 40
0.2
 40
0.2
 40
0.2
 40
0.4
 40
0.4
 40
0.4
 40
0.4
 40
0.6
 40
0.6
 40
0.6
 40
0.6
 40
1.0
 40
1.0
 40
1.0
 40
1.0
 10
166.8637
 20
43.9503
 30
0.0
 10
165.1784
 20
45.4559
 30
0.0
 10
162.1269
 20
48.1318
 30
0.0
 10
161.3715
 20
50.2193
 30
0.0
 10
161.3715
 20
50.2193
 30
0.0
 10
160.616
 20
48.132
 30
0.0
 10
157.5645
 20
45.4559
 30
0.0
 10
155.8793
 20
43.9503
 30
0.0
 10
155.8793
 20
43.9503
 30
0.0
 10
157.1575
 20
42.3509
 30
0.0
 10
159.6956
 20
39.4949
 30
0.0
 10
161.3715
 20
37.3223
 30
0.0
 10
161.3715
 20
37.3223
 30
0.0
 10
163.0473
 20
39.4949
 30
0.0
 10
165.5856
 20
42.3509
 30
0.0
 10
166.8637
 20
43.9503
 30
0.0
  0
SPLINE
  5
5F
330
1F
100
AcDbEntity
  8
layer 1
 62
     7
100
AcDbSpline
210
0.0
220
0.0
230
1.0
 70
    11
 71
     3
 72
    20
 73
    16
 74
     0
 42
0.0000000001
 43
0.0000000001
 12
1.0
 22
0.0
 32
0.0
 13
1.0
 23
0.0
 33
0.0
 40
0.0
 40
0.0
 40
0.0
 40
0.0
 40
0.2
 40
0.2
 40
0.2
 40
0.2
 40
0.4
 40
0.4
 40
0.4
 40
0.4
 40
0.6
 40
0.6
 40
0.6
 40
0.6
 40
1.0
 40
1.0
 40
1.0
 40
1.0
 10
166.8637
 20
24.954
 30
0.0
 10
165.1784
 20
23.4484
 30
0.0
 10
162.1269
 20
20.7724
 30
0.0
 10
161.3715
 20
18.6849
 30
0.0
 10
161.3715
 20
18.6849
 30
0.0
 10
160.616
 20
20.7723
 30
0.0
 10
157.5645
 20
23.4484
 30
0.0
 10
155.8793
 20
24.954
 30
0.0
 10
155.8793
 20
24.954
 30
0.0
 10
157.1575
 20
26.5534
 30
0.0
 10
159.6956
 20
29.4093
 30
0.0
 10
161.3715
 20
31.5819
 30
0.0
 10
161.3715
 20
31.5819
 30
0.0
 10
163.0473
 20
29.4093
 30
0.0
 10
165.5856
 20
26.5534
 30
0.0
 10
166.8637
 20
24.954
 30
0.0
  0
SPLINE
  5
60
330
1F
100
AcDbEntity
  8
layer 1
 62
     7
100
AcDbSpline
210
0.0
220
0.0
230
1.0
 70
    11
 71
     3
 72
    20
 73
    16
 74
     0
 42
0.0000000001
 43
0.0000000001
 12
1.0
 22
0.0
 32
0.0
 13
1.0
 23
0.0
 33
0.0
 40
0.0
 40
0.0
 40
0.0
 40
0.0
 40
0.2
 40
0.2
 40
0.2
 40
0.2
 40
0.4
 40
0.4
 40
0.4
 40
0.4
 40
0.6
 40
0.6
 40
0.6
 40
0.6
 40
1.0
 40
1.0
 40
1.0
 40
1.0
 10
152.341
 20
28.9239
 30
0.0
 10
150.8354
 20
30.6091
 30
0.0
 10
148.1594
 20
33.6606
 30
0.0
 10
146.072
 20
34.4161
 30
0.0
 10
146.072
 20
34.4161
 30
0.0
 10
148.1593
 20
35.1716
 30
0.0
 10
150.8354
 20
38.2231
 30
0.0
 10
152.341
 20
39.9082
 30
0.0
 10
152.341
 20
39.9082
 30
0.0
 10
153.9404
 20
38.63
 30
0.0
 10
156.7963
 20
36.0919
 30
0.0
 10
158.9689
 20
34.4161
 30
0.0
 10
158.9689
 20
34.4161
 30
0.0
 10
156.7963
 20
32.7402
 30
0.0
 10
153.9404
 20
30.202
 30
0.0
 10
152.341
 20
28.9239
 30
0.0
  0
SPLINE
  5
61
330
1F
100
AcDbEntity
  8
layer 1
 62
     7
100
AcDbSpline
210
0.0
220
0.0
230
1.0
 70
    11
 71
     3
 72
    20
 73
    16
 74
     0
 42
0.0000000001
 43
0.0000000001
 12
1.0
 22
0.0
 32
0.0
 13
1.0
 23
0.0
 33
0.0
 40
0.0
 40
0.0
 40
0.0
 40
0.0
 40
0.2
 40
0.2
 40
0.2
 40
0.2
 40
0.4
 40
0.4
 40
0.4
 40
0.4
 40
0.6
 40
0.6
 40
0.6
 40
0.6
 40
1.0
 40
1.0
 40
1.0
 40
1.0
 10
170.6177
 20
28.9239
 30
0.0
 10
172.1233
 20
30.6091
 30
0.0
 10
174.7993
 20
33.6606
 30
0.0
 10
176.8868
 20
34.4161
 30
0.0
 10
176.8868
 20
34.4161
 30
0.0
 10
174.7994
 20
35.1716
 30
0.0
 10
172.1233
 20
38.2231
 30
0.0
 10
170.6177
 20
39.9082
 30
0.0
 10
170.6177
 20
39.9082
 30
0.0
 10
169.0183
 20
38.63
 30
0.0
 10
166.1624
 20
36.0919
 30
0.0
 10
163.9898
 20
34.4161
 30
0.0
 10
163.9898
 20
34.4161
 30
0.0
 10
166.1624
 20
32.7402
 30
0.0
 10
169.0183
 20
30.202
 30
0.0
 10
170.6177
 20
28.9239
 30
0.0
  0
SPLINE
  5
62
330
1F
100
AcDbEntity
  8
layer 1
 62
     7
100
AcDbSpline
210
0.0
220
0.0
230
1.0
 70
    11
 71
     3
 72
    20
 73
    16
 74
     0
 42
0.0000000001
 43
0.0000000001
 12
1.0
 22
0.0
 32
0.0
 13
1.0
 23
0.0
 33
0.0
 40
0.0
 40
0.0
 40
0.0
 40
0.0
 40
0.2
 40
0.2
 40
0.2
 40
0.2
 40
0.4
 40
0.4
 40
0.4
 40
0.4
 40
0.6
 40
0.6
 40
0.6
 40
0.6
 40
1.0
 40
1.0
 40
1.0
 40
1.0
 10
123.5115
 20
-43.5681
 30
0.0
 10
121.8263
 20
-42.0625
 30
0.0
 10
118.7748
 20
-39.3865
 30
0.0
 10
118.0194
 20
-37.299
 30
0.0
 10
118.0194
 20
-37.299
 30
0.0
 10
117.2638
 20
-39.3864
 30
0.0
 10
114.2123
 20
-42.0625
 30
0.0
 10
112.5272
 20
-43.5681
 30
0.0
 10
112.5272
 20
-43.5681
 30
0.0
 10
113.8054
 20
-45.1674
 30
0.0
 10
116.3435
 20
-48.0234
 30
0.0
 10
118.0194
 20
-50.196
 30
0.0
 10
118.0194
 20
-50.196
 30
0.0
 10
119.6952
 20
-48.0234
 30
0.0
 10
122.2335
 20
-45.1674
 30
0.0
 10
123.5115
 20
-43.5681
 30
0.0
  0
SPLINE
  5
63
330
1F
100
AcDbEntity
  8
layer 1
 62
     7
100
AcDbSpline
210
0.0
220
0.0
230
1.0
 70
    11
 71
     3
 72
    20
 73
    16
 74
     0
 42
0.0000000001
 43
0.0000000001
 12
1.0
 22
0.0
 32
0.0
 13
1.0
 23
0.0
 33
0.0
 40
0.0
 40
0.0
 40
0.0
 40
0.0
 40
0.2
 40
0.2
 40
0.2
 40
0.2
 40
0.4
 40
0.4
 40
0.4
 40
0.4
 40
0.6
 40
0.6
 40
0.6
 40
0.6
 40
1.0
 40
1.0
 40
1.0
 40
1.0
 10
123.5115
 20
-62.5644
 30
0.0
 10
121.8263
 20
-64.07
 30
0.0
 10
118.7748
 20
-66.7459
 30
0.0
 10
118.0194
 20
-68.8334
 30
0.0
 10
118.0194
 20
-68.8334
 30
0.0
 10
117.2638
 20
-66.7461
 30
0.0
 10
114.2123
 20
-64.07
 30
0.0
 10
112.5272
 20
-62.5644
 30
0.0
 10
112.5272
 20
-62.5644
 30
0.0
 10
113.8054
 20
-60.965
 30
0.0
 10
116.3435
 20
-58.109
 30
0.0
 10
118.0194
 20
-55.9364
 30
0.0
 10
118.0194
 20
-55.9364
 30
0.0
 10
119.6952
 20
-58.109
 30
0.0
 10
122.2335
 20
-60.965
 30
0.0
 10
123.5115
 20
-62.5644
 30
0.0
  0
SPLINE
  5
64
330
1F
100
AcDbEntity
  8
layer 1
 62
     7
100
AcDbSpline
210
0.0
220
0.0
230
1.0
 70
    11
 71
     3
 72
    20
 73
    16
 74
     0
 42
0.0000000001
 43
0.0000000001
 12
1.0
 22
0.0
 32
0.0
 13
1.0
 23
0.0
 33
0.0
 40
0.0
 40
0.0
 40
0.0
 40
0.0
 40
0.2
 40
0.2
 40
0.2
 40
0.2
 40
0.4
 40
0.4
 40
0.4
 40
0.4
 40
0.6
 40
0.6
 40
0.6
 40
0.6
 40
1.0
 40
1.0
 40
1.0
 40
1.0
 10
108.9889
 20
-58.5943
 30
0.0
 10
107.4833
 20
-56.9091
 30
0.0
 10
104.8073
 20
-53.8576
 30
0.0
 10
102.7198
 20
-53.1022
 30
0.0
 10
102.7198
 20
-53.1022
 30
0.0
 10
104.8072
 20
-52.3466
 30
0.0
 10
107.4833
 20
-49.2951
 30
0.0
 10
108.9889
 20
-47.61
 30
0.0
 10
108.9889
 20
-47.61
 30
0.0
 10
110.5883
 20
-48.8882
 30
0.0
 10
113.4442
 20
-51.4263
 30
0.0
 10
115.6168
 20
-53.1022
 30
0.0
 10
115.6168
 20
-53.1022
 30
0.0
 10
113.4442
 20
-54.778
 30
0.0
 10
110.5883
 20
-57.3163
 30
0.0
 10
108.9889
 20
-58.5943
 30
0.0
  0
SPLINE
  5
65
330
1F
100
AcDbEntity
  8
layer 1
 62
     7
100
AcDbSpline
210
0.0
220
0.0
230
1.0
 70
    11
 71
     3
 72
    20
 73
    16
 74
     0
 42
0.0000000001
 43
0.0000000001
 12
1.0
 22
0.0
 32
0.0
 13
1.0
 23
0.0
 33
0.0
 40
0.0
 40
0.0
 40
0.0
 40
0.0
 40
0.2
 40
0.2
 40
0.2
 40
0.2
 40
0.4
 40
0.4
 40
0.4
 40
0.4
 40
0.6
 40
0.6
 40
0.6
 40
0.6
 40
1.0
 40
1.0
 40
1.0
 40
1.0
 10
127.2656
 20
-58.5943
 30
0.0
 10
128.7712
 20
-56.9091
 30
0.0
 10
131.4472
 20
-53.8576
 30
0.0
 10
133.5346
 20
-53.1022
 30
0.0
 10
133.5346
 20
-53.1022
 30
0.0
 10
131.4473
 20
-52.3466
 30
0.0
 10
128.7712
 20
-49.2951
 30
0.0
 10
127.2656
 20
-47.61
 30
0.0
 10
127.2656
 20
-47.61
 30
0.0
 10
125.6662
 20
-48.8882
 30
0.0
 10
122.8102
 20
-51.4263
 30
0.0
 10
120.6376
 20
-53.1022
 30
0.0
 10
120.6376
 20
-53.1022
 30
0.0
 10
122.8102
 20
-54.778
 30
0.0
 10
125.6662
 20
-57.3163
 30
0.0
 10
127.2656
 20
-58.5943
 30
0.0
  0
SPLINE
  5
66
330
1F
100
AcDbEntity
  8
layer 1
 62
     7
100
AcDbSpline
210
0.0
220
0.0
230
1.0
 70
    11
 71
     3
 72
    20
 73
    16
 74
     0
 42
0.0000000001
 43
0.0000000001
 12
1.0
 22
0.0
 32
0.0
 13
1.0
 23
0.0
 33
0.0
 40
0.0
 40
0.0
 40
0.0
 40
0.0
 40
0.2
 40
0.2
 40
0.2
 40
0.2
 40
0.4
 40
0.4
 40
0.4
 40
0.4
 40
0.6
 40
0.6
 40
0.6
 40
0.6
 40
1.0
 40
1.0
 40
1.0
 40
1.0
 10
166.8637
 20
-43.5681
 30
0.0
 10
165.1784
 20
-42.0625
 30
0.0
 10
162.1269
 20
-39.3865
 30
0.0
 10
161.3715
 20
-37.299
 30
0.0
 10
161.3715
 20
-37.299
 30
0.0
 10
160.616
 20
-39.3864
 30
0.0
 10
157.5645
 20
-42.0625
 30
0.0
 10
155.8793
 20
-43.5681
 30
0.0
 10
155.8793
 20
-43.5681
 30
0.0
 10
157.1575
 20
-45.1674
 30
0.0
 10
159.6956
 20
-48.0234
 30
0.0
 10
161.3715
 20
-50.196
 30
0.0
 10
161.3715
 20
-50.196
 30
0.0
 10
163.0473
 20
-48.0234
 30
0.0
 10
165.5856
 20
-45.1674
 30
0.0
 10
166.8637
 20
-43.5681
 30
0.0
  0
SPLINE
  5
67
330
1F
100
AcDbEntity
  8
layer 1
 62
     7
100
AcDbSpline
210
0.0
220
0.0
230
1.0
 70
    11
 71
     3
 72
    20
 73
    16
 74
     0
 42
0.0000000001
 43
0.0000000001
 12
1.0
 22
0.0
 32
0.0
 13
1.0
 23
0.0
 33
0.0
 40
0.0
 40
0.0
 40
0.0
 40
0.0
 40
0.2
 40
0.2
 40
0.2
 40
0.2
 40
0.4
 40
0.4
 40
0.4
 40
0.4
 40
0.6
 40
0.6
 40
0.6
 40
0.6
 40
1.0
 40
1.0
 40
1.0
 40
1.0
 10
166.8637
 20
-62.5644
 30
0.0
 10
165.1784
 20
-64.07
 30
0.0
 10
162.1269
 20
-66.7459
 30
0.0
 10
161.3715
 20
-68.8334
 30
0.0
 10
161.3715
 20
-68.8334
 30
0.0
 10
160.616
 20
-66.7461
 30
0.0
 10
157.5645
 20
-64.07
 30
0.0
 10
155.8793
 20
-62.5644
 30
0.0
 10
155.8793
 20
-62.5644
 30
0.0
 10
157.1575
 20
-60.965
 30
0.0
 10
159.6956
 20
-58.109
 30
0.0
 10
161.3715
 20
-55.9364
 30
0.0
 10
161.3715
 20
-55.9364
 30
0.0
 10
163.0473
 20
-58.109
 30
0.0
 10
165.5856
 20
-60.965
 30
0.0
 10
166.8637
 20
-62.5644
 30
0.0
  0
SPLINE
  5
68
330
1F
100
AcDbEntity
  8
layer 1
 62
     7
100
AcDbSpline
210
0.0
220
0.0
230
1.0
 70
    11
 71
     3
 72
    20
 73
    16
 74
     0
 42
0.0000000001
 43
0.0000000001
 12
1.0
 22
0.0
 32
0.0
 13
1.0
 23
0.0
 33
0.0
 40
0.0
 40
0.0
 40
0.0
 40
0.0
 40
0.2
 40
0.2
 40
0.2
 40
0.2
 40
0.4
 40
0.4
 40
0.4
 40
0.4
 40
0.6
 40
0.6
 40
0.6
 40
0.6
 40
1.0
 40
1.0
 40
1.0
 40
1.0
 10
152.341
 20
-58.5943
 30
0.0
 10
150.8354
 20
-56.9091
 30
0.0
 10
148.1594
 20
-53.8576
 30
0.0
 10
146.072
 20
-53.1022
 30
0.0
 10
146.072
 20
-53.1022
 30
0.0
 10
148.1593
 20
-52.3466
 30
0.0
 10
150.8354
 20
-49.2951
 30
0.0
 10
152.341
 20
-47.61
 30
0.0
 10
152.341
 20
-47.61
 30
0.0
 10
153.9404
 20
-48.8882
 30
0.0
 10
156.7963
 20
-51.4263
 30
0.0
 10
158.9689
 20
-53.1022
 30
0.0
 10
158.9689
 20
-53.1022
 30
0.0
 10
156.7963
 20
-54.778
 30
0.0
 10
153.9404
 20
-57.3163
 30
0.0
 10
152.341
 20
-58.5943
 30
0.0
  0
SPLINE
  5
69
330
1F
100
AcDbEntity
  8
layer 1
 62
     7
100
AcDbSpline
210
0.0
220
0.0
230
1.0
 70
    11
 71
     3
 72
    20
 73
    16
 74
     0
 42
0.0000000001
 43
0.0000000001
 12
1.0
 22
0.0
 32
0.0
 13
1.0
 23
0.0
 33
0.0
 40
0.0
 40
0.0
 40
0.0
 40
0.0
 40
0.2
 40
0.2
 40
0.2
 40
0.2
 40
0.4
 40
0.4
 40
0.4
 40
0.4
 40
0.6
 40
0.6
 40
0.6
 40
0.6
 40
1.0
 40
1.0
 40
1.0
 40
1.0
 10
170.6177
 20
-58.5943
 30
0.0
 10
172.1233
 20
-56.9091
 30
0.0
 10
174.7993
 20
-53.8576
 30
0.0
 10
176.8868
 20
-53.1022
 30
0.0
 10
176.8868
 20
-53.1022
 30
0.0
 10
174.7994
 20
-52.3466
 30
0.0
 10
172.1233
 20
-49.2951
 30
0.0
 10
170.6177
 20
-47.61
 30
0.0
 10
170.6177
 20
-47.61
 30
0.0
 10
169.0183
 20
-48.8882
 30
0.0
 10
166.1624
 20
-51.4263
 30
0.0
 10
163.9898
 20
-53.1022
 30
0.0
 10
163.9898
 20
-53.1022
 30
0.0
 10
166.1624
 20
-54.778
 30
0.0
 10
169.0183
 20
-57.3163
 30
0.0
 10
170.6177
 20
-58.5943
 30
0.0
  0
SPLINE
  5
6A
330
1F
100
AcDbEntity
  8
layer 1
 62
     7
100
AcDbSpline
210
0.0
220
0.0
230
1.0
 70
    11
 71
     3
 72
    20
 73
    16
 74
     0
 42
0.0000000001
 43
0.0000000001
 12
1.0
 22
0.0
 32
0.0
 13
1.0
 23
0.0
 33
0.0
 40
0.0
 40
0.0
 40
0.0
 40
0.0
 40
0.2
 40
0.2
 40
0.2
 40
0.2
 40
0.4
 40
0.4
 40
0.4
 40
0.4
 40
0.6
 40
0.6
 40
0.6
 40
0.6
 40
1.0
 40
1.0
 40
1.0
 40
1.0
 10
123.5115
 20
-87.1236
 30
0.0
 10
121.8263
 20
-85.618
 30
0.0
 10
118.7748
 20
-82.942
 30
0.0
 10
118.0194
 20
-80.8545
 30
0.0
 10
118.0194
 20
-80.8545
 30
0.0
 10
117.2638
 20
-82.9419
 30
0.0
 10
114.2123
 20
-85.618
 30
0.0
 10
112.5272
 20
-87.1236
 30
0.0
 10
112.5272
 20
-87.1236
 30
0.0
 10
113.8054
 20
-88.723
 30
0.0
 10
116.3435
 20
-91.5789
 30
0.0
 10
118.0194
 20
-93.7515
 30
0.0
 10
118.0194
 20
-93.7515
 30
0.0
 10
119.6952
 20
-91.5789
 30
0.0
 10
122.2335
 20
-88.723
 30
0.0
 10
123.5115
 20
-87.1236
 30
0.0
  0
SPLINE
  5
6B
330
1F
100
AcDbEntity
  8
layer 1
 62
     7
100
AcDbSpline
210
0.0
220
0.0
230
1.0
 70
    11
 71
     3
 72
    24
 73
    20
 74
     0
 42
0.0000000001
 43
0.0000000001
 12
1.0
 22
0.0
 32
0.0
 13
1.0
 23
0.0
 33
0.0
 40
0.0
 40
0.0
 40
0.0
 40
0.0
 40
0.1666666666666667
 40
0.1666666666666667
 40
0.1666666666666667
 40
0.1666666666666667
 40
0.3333333333333333
 40
0.3333333333333333
 40
0.3333333333333333
 40
0.3333333333333333
 40
0.5
 40
0.5
 40
0.5
 40
0.5
 40
0.6666666666666666
 40
0.6666666666666666
 40
0.6666666666666666
 40
0.6666666666666666
 40
1.0
 40
1.0
 40
1.0
 40
1.0
 10
106.6811
 20
-99.6538
 30
0.0
 10
105.3977
 20
-98.357
 30
0.0
 10
103.9556
 20
-97.105
 30
0.0
 10
102.7198
 20
-96.6578
 30
0.0
 10
102.7198
 20
-96.6578
 30
0.0
 10
104.8072
 20
-95.9023
 30
0.0
 10
107.4833
 20
-92.8508
 30
0.0
 10
108.9889
 20
-91.1657
 30
0.0
 10
108.9889
 20
-91.1657
 30
0.0
 10
110.5883
 20
-92.4439
 30
0.0
 10
113.4442
 20
-94.982
 30
0.0
 10
115.6168
 20
-96.6578
 30
0.0
 10
115.6168
 20
-96.6578
 30
0.0
 10
114.4945
 20
-97.5235
 30
0.0
 10
113.1898
 20
-98.6194
 30
0.0
 10
111.9702
 20
-99.6528
 30
0.0
 10
111.9702
 20
-99.6528
 30
0.0
 10
111.9702
 20
-99.6528
 30
0.0
 10
106.6811
 20
-99.6538
 30
0.0
 10
106.6811
 20
-99.6538
 30
0.0
  0
SPLINE
  5
6C
330
1F
100
AcDbEntity
  8
layer 1
 62
     7
100
AcDbSpline
210
0.0
220
0.0
230
1.0
 70
    11
 71
     3
 72
    24
 73
    20
 74
     0
 42
0.0000000001
 43
0.0000000001
 12
1.0
 22
0.0
 32
0.0
 13
1.0
 23
0.0
 33
0.0
 40
0.0
 40
0.0
 40
0.0
 40
0.0
 40
0.1666666666666667
 40
0.1666666666666667
 40
0.1666666666666667
 40
0.1666666666666667
 40
0.3333333333333333
 40
0.3333333333333333
 40
0.3333333333333333
 40
0.3333333333333333
 40
0.5
 40
0.5
 40
0.5
 40
0.5
 40
0.6666666666666666
 40
0.6666666666666666
 40
0.6666666666666666
 40
0.6666666666666666
 40
1.0
 40
1.0
 40
1.0
 40
1.0
 10
129.5985
 20
-99.6284
 30
0.0
 10
130.8756
 20
-98.3407
 30
0.0
 10
132.3069
 20
-97.1021
 30
0.0
 10
133.5345
 20
-96.6578
 30
0.0
 10
133.5345
 20
-96.6578
 30
0.0
 10
131.4472
 20
-95.9023
 30
0.0
 10
128.7711
 20
-92.8508
 30
0.0
 10
127.2655
 20
-91.1657
 30
0.0
 10
127.2655
 20
-91.1657
 30
0.0
 10
125.6661
 20
-92.4439
 30
0.0
 10
122.8101
 20
-94.982
 30
0.0
 10
120.6375
 20
-96.6578
 30
0.0
 10
120.6375
 20
-96.6578
 30
0.0
 10
121.7521
 20
-97.5175
 30
0.0
 10
123.0464
 20
-98.6041
 30
0.0
 10
124.2588
 20
-99.6312
 30
0.0
 10
124.2588
 20
-99.6312
 30
0.0
 10
124.2588
 20
-99.6312
 30
0.0
 10
129.5985
 20
-99.6284
 30
0.0
 10
129.5985
 20
-99.6284
 30
0.0
  0
SPLINE
  5
6D
330
1F
100
AcDbEntity
  8
layer 1
 62
     7
100
AcDbSpline
210
0.0
220
0.0
230
1.0
 70
    11
 71
     3
 72
    20
 73
    16
 74
     0
 42
0.0000000001
 43
0.0000000001
 12
1.0
 22
0.0
 32
0.0
 13
1.0
 23
0.0
 33
0.0
 40
0.0
 40
0.0
 40
0.0
 40
0.0
 40
0.2
 40
0.2
 40
0.2
 40
0.2
 40
0.4
 40
0.4
 40
0.4
 40
0.4
 40
0.6
 40
0.6
 40
0.6
 40
0.6
 40
1.0
 40
1.0
 40
1.0
 40
1.0
 10
166.8637
 20
-87.1236
 30
0.0
 10
165.1784
 20
-85.618
 30
0.0
 10
162.1269
 20
-82.942
 30
0.0
 10
161.3715
 20
-80.8545
 30
0.0
 10
161.3715
 20
-80.8545
 30
0.0
 10
160.616
 20
-82.9419
 30
0.0
 10
157.5645
 20
-85.618
 30
0.0
 10
155.8793
 20
-87.1236
 30
0.0
 10
155.8793
 20
-87.1236
 30
0.0
 10
157.1575
 20
-88.723
 30
0.0
 10
159.6956
 20
-91.5789
 30
0.0
 10
161.3715
 20
-93.7515
 30
0.0
 10
161.3715
 20
-93.7515
 30
0.0
 10
163.0473
 20
-91.5789
 30
0.0
 10
165.5856
 20
-88.723
 30
0.0
 10
166.8637
 20
-87.1236
 30
0.0
  0
SPLINE
  5
6E
330
1F
100
AcDbEntity
  8
layer 1
 62
     7
100
AcDbSpline
210
0.0
220
0.0
230
1.0
 70
    11
 71
     3
 72
    20
 73
    16
 74
     0
 42
0.0000000001
 43
0.0000000001
 12
1.0
 22
0.0
 32
0.0
 13
1.0
 23
0.0
 33
0.0
 40
0.0
 40
0.0
 40
0.0
 40
0.0
 40
0.2
 40
0.2
 40
0.2
 40
0.2
 40
0.4
 40
0.4
 40
0.4
 40
0.4
 40
0.6
 40
0.6
 40
0.6
 40
0.6
 40
1.0
 40
1.0
 40
1.0
 40
1.0
 10
131.2039
 20
55.0131
 30
0.0
 10
131.4262
 20
56.1837
 30
0.0
 10
130.9942
 20
62.9323
 30
0.0
 10
129.9119
 20
64.5388
 30
0.0
 10
129.9119
 20
64.5388
 30
0.0
 10
133.0601
 20
63.8454
 30
0.0
 10
136.0107
 20
61.4857
 30
0.0
 10
137.3342
 20
58.1201
 30
0.0
 10
137.3342
 20
58.1201
 30
0.0
 10
134.7963
 20
57.5656
 30
0.0
 10
132.9972
 20
56.6817
 30
0.0
 10
131.2037
 20
55.0131
 30
0.0
 10
131.2037
 20
55.0131
 30
0.0
 10
131.2037
 20
55.0131
 30
0.0
 10
131.2039
 20
55.0131
 30
0.0
 10
131.2039
 20
55.0131
 30
0.0
  0
SPLINE
  5
6F
330
1F
100
AcDbEntity
  8
layer 1
 62
     7
100
AcDbSpline
210
0.0
220
0.0
230
1.0
 70
    11
 71
     3
 72
    20
 73
    16
 74
     0
 42
0.0000000001
 43
0.0000000001
 12
1.0
 22
0.0
 32
0.0
 13
1.0
 23
0.0
 33
0.0
 40
0.0
 40
0.0
 40
0.0
 40
0.0
 40
0.2
 40
0.2
 40
0.2
 40
0.2
 40
0.4
 40
0.4
 40
0.4
 40
0.4
 40
0.6
 40
0.6
 40
0.6
 40
0.6
 40
1.0
 40
1.0
 40
1.0
 40
1.0
 10
138.3955
 20
64.6374
 30
0.0
 10
139.5661
 20
64.4151
 30
0.0
 10
146.3147
 20
64.847
 30
0.0
 10
147.9212
 20
65.9293
 30
0.0
 10
147.9212
 20
65.9293
 30
0.0
 10
147.2278
 20
62.7812
 30
0.0
 10
144.8681
 20
59.8305
 30
0.0
 10
141.5025
 20
58.5071
 30
0.0
 10
141.5025
 20
58.5071
 30
0.0
 10
140.948
 20
61.045
 30
0.0
 10
140.0641
 20
62.8441
 30
0.0
 10
138.3955
 20
64.6375
 30
0.0
 10
138.3955
 20
64.6375
 30
0.0
 10
138.3955
 20
64.6375
 30
0.0
 10
138.3955
 20
64.6374
 30
0.0
 10
138.3955
 20
64.6374
 30
0.0
  0
SPLINE
  5
70
330
1F
100
AcDbEntity
  8
layer 1
 62
     7
100
AcDbSpline
210
0.0
220
0.0
230
1.0
 70
    11
 71
     3
 72
    20
 73
    16
 74
     0
 42
0.0000000001
 43
0.0000000001
 12
1.0
 22
0.0
 32
0.0
 13
1.0
 23
0.0
 33
0.0
 40
0.0
 40
0.0
 40
0.0
 40
0.0
 40
0.2
 40
0.2
 40
0.2
 40
0.2
 40
0.4
 40
0.4
 40
0.4
 40
0.4
 40
0.6
 40
0.6
 40
0.6
 40
0.6
 40
1.0
 40
1.0
 40
1.0
 40
1.0
 10
148.1051
 20
57.4173
 30
0.0
 10
147.8827
 20
56.2467
 30
0.0
 10
148.3147
 20
49.4981
 30
0.0
 10
149.397
 20
47.8916
 30
0.0
 10
149.397
 20
47.8916
 30
0.0
 10
146.2488
 20
48.585
 30
0.0
 10
143.2982
 20
50.9448
 30
0.0
 10
141.9748
 20
54.3103
 30
0.0
 10
141.9748
 20
54.3103
 30
0.0
 10
144.5126
 20
54.8649
 30
0.0
 10
146.3117
 20
55.7487
 30
0.0
 10
148.1052
 20
57.4173
 30
0.0
 10
148.1052
 20
57.4173
 30
0.0
 10
148.1052
 20
57.4173
 30
0.0
 10
148.1051
 20
57.4173
 30
0.0
 10
148.1051
 20
57.4173
 30
0.0
  0
SPLINE
  5
71
330
1F
100
AcDbEntity
  8
layer 1
 62
     7
100
AcDbSpline
210
0.0
220
0.0
230
1.0
 70
    11
 71
     3
 72
    20
 73
    16
 74
     0
 42
0.0000000001
 43
0.0000000001
 12
1.0
 22
0.0
 32
0.0
 13
1.0
 23
0.0
 33
0.0
 40
0.0
 40
0.0
 40
0.0
 40
0.0
 40
0.2
 40
0.2
 40
0.2
 40
0.2
 40
0.4
 40
0.4
 40
0.4
 40
0.4
 40
0.6
 40
0.6
 40
0.6
 40
0.6
 40
1.0
 40
1.0
 40
1.0
 40
1.0
 10
141.0223
 20
47.6799
 30
0.0
 10
139.8517
 20
47.9023
 30
0.0
 10
133.1031
 20
47.4703
 30
0.0
 10
131.4966
 20
46.388
 30
0.0
 10
131.4966
 20
46.388
 30
0.0
 10
132.19
 20
49.5362
 30
0.0
 10
134.5497
 20
52.4868
 30
0.0
 10
137.9153
 20
53.8103
 30
0.0
 10
137.9153
 20
53.8103
 30
0.0
 10
138.4698
 20
51.2724
 30
0.0
 10
139.3537
 20
49.4733
 30
0.0
 10
141.0223
 20
47.6798
 30
0.0
 10
141.0223
 20
47.6798
 30
0.0
 10
141.0223
 20
47.6798
 30
0.0
 10
141.0223
 20
47.6799
 30
0.0
 10
141.0223
 20
47.6799
 30
0.0
  0
SPLINE
  5
72
330
1F
100
AcDbEntity
  8
layer 1
 62
     7
100
AcDbSpline
210
0.0
220
0.0
230
1.0
 70
    11
 71
     3
 72
    16
 73
    12
 74
     0
 42
0.0000000001
 43
0.0000000001
 12
1.0
 22
0.0
 32
0.0
 13
1.0
 23
0.0
 33
0.0
 40
0.0
 40
0.0
 40
0.0
 40
0.0
 40
0.25
 40
0.25
 40
0.25
 40
0.25
 40
0.5
 40
0.5
 40
0.5
 40
0.5
 40
1.0
 40
1.0
 40
1.0
 40
1.0
 10
125.6754
 20
64.4819
 30
0.0
 10
127.169
 20
61.7403
 30
0.0
 10
127.3594
 20
50.6653
 30
0.0
 10
125.8313
 20
47.9229
 30
0.0
 10
125.8313
 20
47.9229
 30
0.0
 10
123.5773
 20
49.0513
 30
0.0
 10
120.5784
 20
52.9579
 30
0.0
 10
120.6084
 20
56.2509
 30
0.0
 10
120.6084
 20
56.2509
 30
0.0
 10
120.6084
 20
60.0926
 30
0.0
 10
123.8819
 20
62.8133
 30
0.0
 10
125.6754
 20
64.4819
 30
0.0
  0
SPLINE
  5
73
330
1F
100
AcDbEntity
  8
layer 1
 62
     7
100
AcDbSpline
210
0.0
220
0.0
230
1.0
 70
    11
 71
     3
 72
    16
 73
    12
 74
     0
 42
0.0000000001
 43
0.0000000001
 12
1.0
 22
0.0
 32
0.0
 13
1.0
 23
0.0
 33
0.0
 40
0.0
 40
0.0
 40
0.0
 40
0.0
 40
0.25
 40
0.25
 40
0.25
 40
0.25
 40
0.5
 40
0.5
 40
0.5
 40
0.5
 40
1.0
 40
1.0
 40
1.0
 40
1.0
 10
131.2284
 20
41.7898
 30
0.0
 10
133.97
 20
43.2834
 30
0.0
 10
145.0451
 20
43.4737
 30
0.0
 10
147.7874
 20
41.9456
 30
0.0
 10
147.7874
 20
41.9456
 30
0.0
 10
146.659
 20
39.6917
 30
0.0
 10
142.7524
 20
36.6928
 30
0.0
 10
139.4594
 20
36.7228
 30
0.0
 10
139.4594
 20
36.7228
 30
0.0
 10
135.6177
 20
36.7228
 30
0.0
 10
132.897
 20
39.9963
 30
0.0
 10
131.2284
 20
41.7898
 30
0.0
  0
SPLINE
  5
74
330
1F
100
AcDbEntity
  8
layer 1
 62
     7
100
AcDbSpline
210
0.0
220
0.0
230
1.0
 70
    11
 71
     3
 72
    16
 73
    12
 74
     0
 42
0.0000000001
 43
0.0000000001
 12
1.0
 22
0.0
 32
0.0
 13
1.0
 23
0.0
 33
0.0
 40
0.0
 40
0.0
 40
0.0
 40
0.0
 40
0.25
 40
0.25
 40
0.25
 40
0.25
 40
0.5
 40
0.5
 40
0.5
 40
0.5
 40
1.0
 40
1.0
 40
1.0
 40
1.0
 10
131.2284
 20
70.4217
 30
0.0
 10
133.97
 20
68.928
 30
0.0
 10
145.0451
 20
68.7377
 30
0.0
 10
147.7874
 20
70.2658
 30
0.0
 10
147.7874
 20
70.2658
 30
0.0
 10
146.659
 20
72.5197
 30
0.0
 10
142.7524
 20
75.5186
 30
0.0
 10
139.4594
 20
75.4886
 30
0.0
 10
139.4594
 20
75.4886
 30
0.0
 10
135.6177
 20
75.4886
 30
0.0
 10
132.897
 20
72.2152
 30
0.0
 10
131.2284
 20
70.4217
 30
0.0
  0
SPLINE
  5
75
330
1F
100
AcDbEntity
  8
layer 1
 62
     7
100
AcDbSpline
210
0.0
220
0.0
230
1.0
 70
    11
 71
     3
 72
    16
 73
    12
 74
     0
 42
0.0000000001
 43
0.0000000001
 12
1.0
 22
0.0
 32
0.0
 13
1.0
 23
0.0
 33
0.0
 40
0.0
 40
0.0
 40
0.0
 40
0.0
 40
0.25
 40
0.25
 40
0.25
 40
0.25
 40
0.5
 40
0.5
 40
0.5
 40
0.5
 40
1.0
 40
1.0
 40
1.0
 40
1.0
 10
153.9207
 20
64.4819
 30
0.0
 10
152.427
 20
61.7403
 30
0.0
 10
152.2367
 20
50.6653
 30
0.0
 10
153.7648
 20
47.9229
 30
0.0
 10
153.7648
 20
47.9229
 30
0.0
 10
156.0187
 20
49.0513
 30
0.0
 10
159.0176
 20
52.9579
 30
0.0
 10
158.9876
 20
56.2509
 30
0.0
 10
158.9876
 20
56.2509
 30
0.0
 10
158.9876
 20
60.0926
 30
0.0
 10
155.7142
 20
62.8133
 30
0.0
 10
153.9207
 20
64.4819
 30
0.0
  0
SPLINE
  5
76
330
1F
100
AcDbEntity
  8
layer 1
 62
     7
100
AcDbSpline
210
0.0
220
0.0
230
1.0
 70
    11
 71
     3
 72
    20
 73
    16
 74
     0
 42
0.0000000001
 43
0.0000000001
 12
1.0
 22
0.0
 32
0.0
 13
1.0
 23
0.0
 33
0.0
 40
0.0
 40
0.0
 40
0.0
 40
0.0
 40
0.2
 40
0.2
 40
0.2
 40
0.2
 40
0.4
 40
0.4
 40
0.4
 40
0.4
 40
0.6
 40
0.6
 40
0.6
 40
0.6
 40
1.0
 40
1.0
 40
1.0
 40
1.0
 10
131.2039
 20
11.661
 30
0.0
 10
131.4262
 20
12.8316
 30
0.0
 10
130.9942
 20
19.5802
 30
0.0
 10
129.9119
 20
21.1867
 30
0.0
 10
129.9119
 20
21.1867
 30
0.0
 10
133.0601
 20
20.4933
 30
0.0
 10
136.0107
 20
18.1336
 30
0.0
 10
137.3342
 20
14.768
 30
0.0
 10
137.3342
 20
14.768
 30
0.0
 10
134.7963
 20
14.2135
 30
0.0
 10
132.9972
 20
13.3296
 30
0.0
 10
131.2037
 20
11.661
 30
0.0
 10
131.2037
 20
11.661
 30
0.0
 10
131.2037
 20
11.661
 30
0.0
 10
131.2039
 20
11.661
 30
0.0
 10
131.2039
 20
11.661
 30
0.0
  0
SPLINE
  5
77
330
1F
100
AcDbEntity
  8
layer 1
 62
     7
100
AcDbSpline
210
0.0
220
0.0
230
1.0
 70
    11
 71
     3
 72
    20
 73
    16
 74
     0
 42
0.0000000001
 43
0.0000000001
 12
1.0
 22
0.0
 32
0.0
 13
1.0
 23
0.0
 33
0.0
 40
0.0
 40
0.0
 40
0.0
 40
0.0
 40
0.2
 40
0.2
 40
0.2
 40
0.2
 40
0.4
 40
0.4
 40
0.4
 40
0.4
 40
0.6
 40
0.6
 40
0.6
 40
0.6
 40
1.0
 40
1.0
 40
1.0
 40
1.0
 10
138.3955
 20
21.2853
 30
0.0
 10
139.5661
 20
21.063
 30
0.0
 10
146.3147
 20
21.4949
 30
0.0
 10
147.9212
 20
22.5772
 30
0.0
 10
147.9212
 20
22.5772
 30
0.0
 10
147.2278
 20
19.429
 30
0.0
 10
144.8681
 20
16.4784
 30
0.0
 10
141.5025
 20
15.155
 30
0.0
 10
141.5025
 20
15.155
 30
0.0
 10
140.948
 20
17.6928
 30
0.0
 10
140.0641
 20
19.4919
 30
0.0
 10
138.3955
 20
21.2854
 30
0.0
 10
138.3955
 20
21.2854
 30
0.0
 10
138.3955
 20
21.2854
 30
0.0
 10
138.3955
 20
21.2853
 30
0.0
 10
138.3955
 20
21.2853
 30
0.0
  0
SPLINE
  5
78
330
1F
100
AcDbEntity
  8
layer 1
 62
     7
100
AcDbSpline
210
0.0
220
0.0
230
1.0
 70
    11
 71
     3
 72
    20
 73
    16
 74
     0
 42
0.0000000001
 43
0.0000000001
 12
1.0
 22
0.0
 32
0.0
 13
1.0
 23
0.0
 33
0.0
 40
0.0
 40
0.0
 40
0.0
 40
0.0
 40
0.2
 40
0.2
 40
0.2
 40
0.2
 40
0.4
 40
0.4
 40
0.4
 40
0.4
 40
0.6
 40
0.6
 40
0.6
 40
0.6
 40
1.0
 40
1.0
 40
1.0
 40
1.0
 10
148.1051
 20
14.0652
 30
0.0
 10
147.8827
 20
12.8946
 30
0.0
 10
148.3147
 20
6.146
 30
0.0
 10
149.397
 20
4.5395
 30
0.0
 10
149.397
 20
4.5395
 30
0.0
 10
146.2488
 20
5.2329
 30
0.0
 10
143.2982
 20
7.5926
 30
0.0
 10
141.9748
 20
10.9582
 30
0.0
 10
141.9748
 20
10.9582
 30
0.0
 10
144.5126
 20
11.5127
 30
0.0
 10
146.3117
 20
12.3966
 30
0.0
 10
148.1052
 20
14.0652
 30
0.0
 10
148.1052
 20
14.0652
 30
0.0
 10
148.1052
 20
14.0652
 30
0.0
 10
148.1051
 20
14.0652
 30
0.0
 10
148.1051
 20
14.0652
 30
0.0
  0
SPLINE
  5
79
330
1F
100
AcDbEntity
  8
layer 1
 62
     7
100
AcDbSpline
210
0.0
220
0.0
230
1.0
 70
    11
 71
     3
 72
    20
 73
    16
 74
     0
 42
0.0000000001
 43
0.0000000001
 12
1.0
 22
0.0
 32
0.0
 13
1.0
 23
0.0
 33
0.0
 40
0.0
 40
0.0
 40
0.0
 40
0.0
 40
0.2
 40
0.2
 40
0.2
 40
0.2
 40
0.4
 40
0.4
 40
0.4
 40
0.4
 40
0.6
 40
0.6
 40
0.6
 40
0.6
 40
1.0
 40
1.0
 40
1.0
 40
1.0
 10
141.0223
 20
4.3278
 30
0.0
 10
139.8517
 20
4.5502
 30
0.0
 10
133.1031
 20
4.1182
 30
0.0
 10
131.4966
 20
3.0359
 30
0.0
 10
131.4966
 20
3.0359
 30
0.0
 10
132.19
 20
6.1841
 30
0.0
 10
134.5497
 20
9.1347
 30
0.0
 10
137.9153
 20
10.4581
 30
0.0
 10
137.9153
 20
10.4581
 30
0.0
 10
138.4698
 20
7.9203
 30
0.0
 10
139.3537
 20
6.1212
 30
0.0
 10
141.0223
 20
4.3277
 30
0.0
 10
141.0223
 20
4.3277
 30
0.0
 10
141.0223
 20
4.3277
 30
0.0
 10
141.0223
 20
4.3278
 30
0.0
 10
141.0223
 20
4.3278
 30
0.0
  0
SPLINE
  5
7A
330
1F
100
AcDbEntity
  8
layer 1
 62
     7
100
AcDbSpline
210
0.0
220
0.0
230
1.0
 70
    11
 71
     3
 72
    16
 73
    12
 74
     0
 42
0.0000000001
 43
0.0000000001
 12
1.0
 22
0.0
 32
0.0
 13
1.0
 23
0.0
 33
0.0
 40
0.0
 40
0.0
 40
0.0
 40
0.0
 40
0.25
 40
0.25
 40
0.25
 40
0.25
 40
0.5
 40
0.5
 40
0.5
 40
0.5
 40
1.0
 40
1.0
 40
1.0
 40
1.0
 10
125.6754
 20
21.1298
 30
0.0
 10
127.169
 20
18.3882
 30
0.0
 10
127.3594
 20
7.3131
 30
0.0
 10
125.8313
 20
4.5707
 30
0.0
 10
125.8313
 20
4.5707
 30
0.0
 10
123.5773
 20
5.6991
 30
0.0
 10
120.5784
 20
9.6058
 30
0.0
 10
120.6084
 20
12.8988
 30
0.0
 10
120.6084
 20
12.8988
 30
0.0
 10
120.6084
 20
16.7405
 30
0.0
 10
123.8819
 20
19.4612
 30
0.0
 10
125.6754
 20
21.1298
 30
0.0
  0
SPLINE
  5
7B
330
1F
100
AcDbEntity
  8
layer 1
 62
     7
100
AcDbSpline
210
0.0
220
0.0
230
1.0
 70
    11
 71
     3
 72
    16
 73
    12
 74
     0
 42
0.0000000001
 43
0.0000000001
 12
1.0
 22
0.0
 32
0.0
 13
1.0
 23
0.0
 33
0.0
 40
0.0
 40
0.0
 40
0.0
 40
0.0
 40
0.25
 40
0.25
 40
0.25
 40
0.25
 40
0.5
 40
0.5
 40
0.5
 40
0.5
 40
1.0
 40
1.0
 40
1.0
 40
1.0
 10
131.2284
 20
-1.5624
 30
0.0
 10
133.97
 20
-0.0687
 30
0.0
 10
145.0451
 20
0.1216
 30
0.0
 10
147.7874
 20
-1.4065
 30
0.0
 10
147.7874
 20
-1.4065
 30
0.0
 10
146.659
 20
-3.6604
 30
0.0
 10
142.7524
 20
-6.6593
 30
0.0
 10
139.4594
 20
-6.6293
 30
0.0
 10
139.4594
 20
-6.6293
 30
0.0
 10
135.6177
 20
-6.6293
 30
0.0
 10
132.897
 20
-3.3559
 30
0.0
 10
131.2284
 20
-1.5624
 30
0.0
  0
SPLINE
  5
7C
330
1F
100
AcDbEntity
  8
layer 1
 62
     7
100
AcDbSpline
210
0.0
220
0.0
230
1.0
 70
    11
 71
     3
 72
    16
 73
    12
 74
     0
 42
0.0000000001
 43
0.0000000001
 12
1.0
 22
0.0
 32
0.0
 13
1.0
 23
0.0
 33
0.0
 40
0.0
 40
0.0
 40
0.0
 40
0.0
 40
0.25
 40
0.25
 40
0.25
 40
0.25
 40
0.5
 40
0.5
 40
0.5
 40
0.5
 40
1.0
 40
1.0
 40
1.0
 40
1.0
 10
131.2284
 20
27.0695
 30
0.0
 10
133.97
 20
25.5759
 30
0.0
 10
145.0451
 20
25.3856
 30
0.0
 10
147.7874
 20
26.9137
 30
0.0
 10
147.7874
 20
26.9137
 30
0.0
 10
146.659
 20
29.1676
 30
0.0
 10
142.7524
 20
32.1665
 30
0.0
 10
139.4594
 20
32.1365
 30
0.0
 10
139.4594
 20
32.1365
 30
0.0
 10
135.6177
 20
32.1365
 30
0.0
 10
132.897
 20
28.863
 30
0.0
 10
131.2284
 20
27.0695
 30
0.0
  0
SPLINE
  5
7D
330
1F
100
AcDbEntity
  8
layer 1
 62
     7
100
AcDbSpline
210
0.0
220
0.0
230
1.0
 70
    11
 71
     3
 72
    16
 73
    12
 74
     0
 42
0.0000000001
 43
0.0000000001
 12
1.0
 22
0.0
 32
0.0
 13
1.0
 23
0.0
 33
0.0
 40
0.0
 40
0.0
 40
0.0
 40
0.0
 40
0.25
 40
0.25
 40
0.25
 40
0.25
 40
0.5
 40
0.5
 40
0.5
 40
0.5
 40
1.0
 40
1.0
 40
1.0
 40
1.0
 10
153.9207
 20
21.1298
 30
0.0
 10
152.427
 20
18.3882
 30
0.0
 10
152.2367
 20
7.3131
 30
0.0
 10
153.7648
 20
4.5707
 30
0.0
 10
153.7648
 20
4.5707
 30
0.0
 10
156.0187
 20
5.6991
 30
0.0
 10
159.0176
 20
9.6058
 30
0.0
 10
158.9876
 20
12.8988
 30
0.0
 10
158.9876
 20
12.8988
 30
0.0
 10
158.9876
 20
16.7405
 30
0.0
 10
155.7142
 20
19.4612
 30
0.0
 10
153.9207
 20
21.1298
 30
0.0
  0
SPLINE
  5
7E
330
1F
100
AcDbEntity
  8
layer 1
 62
     7
100
AcDbSpline
210
0.0
220
0.0
230
1.0
 70
    11
 71
     3
 72
    20
 73
    16
 74
     0
 42
0.0000000001
 43
0.0000000001
 12
1.0
 22
0.0
 32
0.0
 13
1.0
 23
0.0
 33
0.0
 40
0.0
 40
0.0
 40
0.0
 40
0.0
 40
0.2
 40
0.2
 40
0.2
 40
0.2
 40
0.4
 40
0.4
 40
0.4
 40
0.4
 40
0.6
 40
0.6
 40
0.6
 40
0.6
 40
1.0
 40
1.0
 40
1.0
 40
1.0
 10
131.2039
 20
-32.3017
 30
0.0
 10
131.4262
 20
-31.1311
 30
0.0
 10
130.9942
 20
-24.3825
 30
0.0
 10
129.9119
 20
-22.776
 30
0.0
 10
129.9119
 20
-22.776
 30
0.0
 10
133.0601
 20
-23.4694
 30
0.0
 10
136.0107
 20
-25.8291
 30
0.0
 10
137.3342
 20
-29.1947
 30
0.0
 10
137.3342
 20
-29.1947
 30
0.0
 10
134.7963
 20
-29.7492
 30
0.0
 10
132.9972
 20
-30.6331
 30
0.0
 10
131.2037
 20
-32.3017
 30
0.0
 10
131.2037
 20
-32.3017
 30
0.0
 10
131.2037
 20
-32.3017
 30
0.0
 10
131.2039
 20
-32.3017
 30
0.0
 10
131.2039
 20
-32.3017
 30
0.0
  0
SPLINE
  5
7F
330
1F
100
AcDbEntity
  8
layer 1
 62
     7
100
AcDbSpline
210
0.0
220
0.0
230
1.0
 70
    11
 71
     3
 72
    20
 73
    16
 74
     0
 42
0.0000000001
 43
0.0000000001
 12
1.0
 22
0.0
 32
0.0
 13
1.0
 23
0.0
 33
0.0
 40
0.0
 40
0.0
 40
0.0
 40
0.0
 40
0.2
 40
0.2
 40
0.2
 40
0.2
 40
0.4
 40
0.4
 40
0.4
 40
0.4
 40
0.6
 40
0.6
 40
0.6
 40
0.6
 40
1.0
 40
1.0
 40
1.0
 40
1.0
 10
138.3955
 20
-22.6774
 30
0.0
 10
139.5661
 20
-22.8997
 30
0.0
 10
146.3147
 20
-22.4678
 30
0.0
 10
147.9212
 20
-21.3855
 30
0.0
 10
147.9212
 20
-21.3855
 30
0.0
 10
147.2278
 20
-24.5337
 30
0.0
 10
144.8681
 20
-27.4843
 30
0.0
 10
141.5025
 20
-28.8077
 30
0.0
 10
141.5025
 20
-28.8077
 30
0.0
 10
140.948
 20
-26.2699
 30
0.0
 10
140.0641
 20
-24.4708
 30
0.0
 10
138.3955
 20
-22.6773
 30
0.0
 10
138.3955
 20
-22.6773
 30
0.0
 10
138.3955
 20
-22.6773
 30
0.0
 10
138.3955
 20
-22.6774
 30
0.0
 10
138.3955
 20
-22.6774
 30
0.0
  0
SPLINE
  5
80
330
1F
100
AcDbEntity
  8
layer 1
 62
     7
100
AcDbSpline
210
0.0
220
0.0
230
1.0
 70
    11
 71
     3
 72
    20
 73
    16
 74
     0
 42
0.0000000001
 43
0.0000000001
 12
1.0
 22
0.0
 32
0.0
 13
1.0
 23
0.0
 33
0.0
 40
0.0
 40
0.0
 40
0.0
 40
0.0
 40
0.2
 40
0.2
 40
0.2
 40
0.2
 40
0.4
 40
0.4
 40
0.4
 40
0.4
 40
0.6
 40
0.6
 40
0.6
 40
0.6
 40
1.0
 40
1.0
 40
1.0
 40
1.0
 10
148.1051
 20
-29.8975
 30
0.0
 10
147.8827
 20
-31.0681
 30
0.0
 10
148.3147
 20
-37.8167
 30
0.0
 10
149.397
 20
-39.4232
 30
0.0
 10
149.397
 20
-39.4232
 30
0.0
 10
146.2488
 20
-38.7298
 30
0.0
 10
143.2982
 20
-36.3701
 30
0.0
 10
141.9748
 20
-33.0045
 30
0.0
 10
141.9748
 20
-33.0045
 30
0.0
 10
144.5126
 20
-32.45
 30
0.0
 10
146.3117
 20
-31.5661
 30
0.0
 10
148.1052
 20
-29.8975
 30
0.0
 10
148.1052
 20
-29.8975
 30
0.0
 10
148.1052
 20
-29.8975
 30
0.0
 10
148.1051
 20
-29.8975
 30
0.0
 10
148.1051
 20
-29.8975
 30
0.0
  0
SPLINE
  5
81
330
1F
100
AcDbEntity
  8
layer 1
 62
     7
100
AcDbSpline
210
0.0
220
0.0
230
1.0
 70
    11
 71
     3
 72
    20
 73
    16
 74
     0
 42
0.0000000001
 43
0.0000000001
 12
1.0
 22
0.0
 32
0.0
 13
1.0
 23
0.0
 33
0.0
 40
0.0
 40
0.0
 40
0.0
 40
0.0
 40
0.2
 40
0.2
 40
0.2
 40
0.2
 40
0.4
 40
0.4
 40
0.4
 40
0.4
 40
0.6
 40
0.6
 40
0.6
 40
0.6
 40
1.0
 40
1.0
 40
1.0
 40
1.0
 10
141.0223
 20
-39.6349
 30
0.0
 10
139.8517
 20
-39.4125
 30
0.0
 10
133.1031
 20
-39.8445
 30
0.0
 10
131.4966
 20
-40.9268
 30
0.0
 10
131.4966
 20
-40.9268
 30
0.0
 10
132.19
 20
-37.7786
 30
0.0
 10
134.5497
 20
-34.828
 30
0.0
 10
137.9153
 20
-33.5046
 30
0.0
 10
137.9153
 20
-33.5046
 30
0.0
 10
138.4698
 20
-36.0424
 30
0.0
 10
139.3537
 20
-37.8415
 30
0.0
 10
141.0223
 20
-39.635
 30
0.0
 10
141.0223
 20
-39.635
 30
0.0
 10
141.0223
 20
-39.635
 30
0.0
 10
141.0223
 20
-39.6349
 30
0.0
 10
141.0223
 20
-39.6349
 30
0.0
  0
SPLINE
  5
82
330
1F
100
AcDbEntity
  8
layer 1
 62
     7
100
AcDbSpline
210
0.0
220
0.0
230
1.0
 70
    11
 71
     3
 72
    16
 73
    12
 74
     0
 42
0.0000000001
 43
0.0000000001
 12
1.0
 22
0.0
 32
0.0
 13
1.0
 23
0.0
 33
0.0
 40
0.0
 40
0.0
 40
0.0
 40
0.0
 40
0.25
 40
0.25
 40
0.25
 40
0.25
 40
0.5
 40
0.5
 40
0.5
 40
0.5
 40
1.0
 40
1.0
 40
1.0
 40
1.0
 10
125.6754
 20
-22.8328
 30
0.0
 10
127.169
 20
-25.5744
 30
0.0
 10
127.3594
 20
-36.6494
 30
0.0
 10
125.8313
 20
-39.3918
 30
0.0
 10
125.8313
 20
-39.3918
 30
0.0
 10
123.5773
 20
-38.2634
 30
0.0
 10
120.5784
 20
-34.3568
 30
0.0
 10
120.6084
 20
-31.0638
 30
0.0
 10
120.6084
 20
-31.0638
 30
0.0
 10
120.6084
 20
-27.2221
 30
0.0
 10
123.8819
 20
-24.5014
 30
0.0
 10
125.6754
 20
-22.8328
 30
0.0
  0
SPLINE
  5
83
330
1F
100
AcDbEntity
  8
layer 1
 62
     7
100
AcDbSpline
210
0.0
220
0.0
230
1.0
 70
    11
 71
     3
 72
    16
 73
    12
 74
     0
 42
0.0000000001
 43
0.0000000001
 12
1.0
 22
0.0
 32
0.0
 13
1.0
 23
0.0
 33
0.0
 40
0.0
 40
0.0
 40
0.0
 40
0.0
 40
0.25
 40
0.25
 40
0.25
 40
0.25
 40
0.5
 40
0.5
 40
0.5
 40
0.5
 40
1.0
 40
1.0
 40
1.0
 40
1.0
 10
131.2284
 20
-45.5251
 30
0.0
 10
133.97
 20
-44.0314
 30
0.0
 10
145.0451
 20
-43.8411
 30
0.0
 10
147.7874
 20
-45.3692
 30
0.0
 10
147.7874
 20
-45.3692
 30
0.0
 10
146.659
 20
-47.6231
 30
0.0
 10
142.7524
 20
-50.622
 30
0.0
 10
139.4594
 20
-50.592
 30
0.0
 10
139.4594
 20
-50.592
 30
0.0
 10
135.6177
 20
-50.592
 30
0.0
 10
132.897
 20
-47.3186
 30
0.0
 10
131.2284
 20
-45.5251
 30
0.0
  0
SPLINE
  5
84
330
1F
100
AcDbEntity
  8
layer 1
 62
     7
100
AcDbSpline
210
0.0
220
0.0
230
1.0
 70
    11
 71
     3
 72
    16
 73
    12
 74
     0
 42
0.0000000001
 43
0.0000000001
 12
1.0
 22
0.0
 32
0.0
 13
1.0
 23
0.0
 33
0.0
 40
0.0
 40
0.0
 40
0.0
 40
0.0
 40
0.25
 40
0.25
 40
0.25
 40
0.25
 40
0.5
 40
0.5
 40
0.5
 40
0.5
 40
1.0
 40
1.0
 40
1.0
 40
1.0
 10
131.2284
 20
-16.8932
 30
0.0
 10
133.97
 20
-18.3868
 30
0.0
 10
145.0451
 20
-18.5771
 30
0.0
 10
147.7874
 20
-17.049
 30
0.0
 10
147.7874
 20
-17.049
 30
0.0
 10
146.659
 20
-14.7951
 30
0.0
 10
142.7524
 20
-11.7962
 30
0.0
 10
139.4594
 20
-11.8262
 30
0.0
 10
139.4594
 20
-11.8262
 30
0.0
 10
135.6177
 20
-11.8262
 30
0.0
 10
132.897
 20
-15.0997
 30
0.0
 10
131.2284
 20
-16.8932
 30
0.0
  0
SPLINE
  5
85
330
1F
100
AcDbEntity
  8
layer 1
 62
     7
100
AcDbSpline
210
0.0
220
0.0
230
1.0
 70
    11
 71
     3
 72
    16
 73
    12
 74
     0
 42
0.0000000001
 43
0.0000000001
 12
1.0
 22
0.0
 32
0.0
 13
1.0
 23
0.0
 33
0.0
 40
0.0
 40
0.0
 40
0.0
 40
0.0
 40
0.25
 40
0.25
 40
0.25
 40
0.25
 40
0.5
 40
0.5
 40
0.5
 40
0.5
 40
1.0
 40
1.0
 40
1.0
 40
1.0
 10
153.9207
 20
-22.8328
 30
0.0
 10
152.427
 20
-25.5744
 30
0.0
 10
152.2367
 20
-36.6494
 30
0.0
 10
153.7648
 20
-39.3918
 30
0.0
 10
153.7648
 20
-39.3918
 30
0.0
 10
156.0187
 20
-38.2634
 30
0.0
 10
159.0176
 20
-34.3568
 30
0.0
 10
158.9876
 20
-31.0638
 30
0.0
 10
158.9876
 20
-31.0638
 30
0.0
 10
158.9876
 20
-27.2221
 30
0.0
 10
155.7142
 20
-24.5014
 30
0.0
 10
153.9207
 20
-22.8328
 30
0.0
  0
SPLINE
  5
86
330
1F
100
AcDbEntity
  8
layer 1
 62
     7
100
AcDbSpline
210
0.0
220
0.0
230
1.0
 70
    11
 71
     3
 72
    20
 73
    16
 74
     0
 42
0.0000000001
 43
0.0000000001
 12
1.0
 22
0.0
 32
0.0
 13
1.0
 23
0.0
 33
0.0
 40
0.0
 40
0.0
 40
0.0
 40
0.0
 40
0.2
 40
0.2
 40
0.2
 40
0.2
 40
0.4
 40
0.4
 40
0.4
 40
0.4
 40
0.6
 40
0.6
 40
0.6
 40
0.6
 40
1.0
 40
1.0
 40
1.0
 40
1.0
 10
131.2039
 20
-75.8573
 30
0.0
 10
131.4262
 20
-74.6868
 30
0.0
 10
130.9942
 20
-67.9381
 30
0.0
 10
129.9119
 20
-66.3316
 30
0.0
 10
129.9119
 20
-66.3316
 30
0.0
 10
133.0601
 20
-67.025
 30
0.0
 10
136.0107
 20
-69.3848
 30
0.0
 10
137.3342
 20
-72.7503
 30
0.0
 10
137.3342
 20
-72.7503
 30
0.0
 10
134.7963
 20
-73.3049
 30
0.0
 10
132.9972
 20
-74.1887
 30
0.0
 10
131.2037
 20
-75.8573
 30
0.0
 10
131.2037
 20
-75.8573
 30
0.0
 10
131.2037
 20
-75.8573
 30
0.0
 10
131.2039
 20
-75.8573
 30
0.0
 10
131.2039
 20
-75.8573
 30
0.0
  0
SPLINE
  5
87
330
1F
100
AcDbEntity
  8
layer 1
 62
     7
100
AcDbSpline
210
0.0
220
0.0
230
1.0
 70
    11
 71
     3
 72
    20
 73
    16
 74
     0
 42
0.0000000001
 43
0.0000000001
 12
1.0
 22
0.0
 32
0.0
 13
1.0
 23
0.0
 33
0.0
 40
0.0
 40
0.0
 40
0.0
 40
0.0
 40
0.2
 40
0.2
 40
0.2
 40
0.2
 40
0.4
 40
0.4
 40
0.4
 40
0.4
 40
0.6
 40
0.6
 40
0.6
 40
0.6
 40
1.0
 40
1.0
 40
1.0
 40
1.0
 10
138.3955
 20
-66.233
 30
0.0
 10
139.5661
 20
-66.4554
 30
0.0
 10
146.3147
 20
-66.0234
 30
0.0
 10
147.9212
 20
-64.9411
 30
0.0
 10
147.9212
 20
-64.9411
 30
0.0
 10
147.2278
 20
-68.0893
 30
0.0
 10
144.8681
 20
-71.0399
 30
0.0
 10
141.5025
 20
-72.3634
 30
0.0
 10
141.5025
 20
-72.3634
 30
0.0
 10
140.948
 20
-69.8255
 30
0.0
 10
140.0641
 20
-68.0264
 30
0.0
 10
138.3955
 20
-66.2329
 30
0.0
 10
138.3955
 20
-66.2329
 30
0.0
 10
138.3955
 20
-66.2329
 30
0.0
 10
138.3955
 20
-66.233
 30
0.0
 10
138.3955
 20
-66.233
 30
0.0
  0
SPLINE
  5
88
330
1F
100
AcDbEntity
  8
layer 1
 62
     7
100
AcDbSpline
210
0.0
220
0.0
230
1.0
 70
    11
 71
     3
 72
    20
 73
    16
 74
     0
 42
0.0000000001
 43
0.0000000001
 12
1.0
 22
0.0
 32
0.0
 13
1.0
 23
0.0
 33
0.0
 40
0.0
 40
0.0
 40
0.0
 40
0.0
 40
0.2
 40
0.2
 40
0.2
 40
0.2
 40
0.4
 40
0.4
 40
0.4
 40
0.4
 40
0.6
 40
0.6
 40
0.6
 40
0.6
 40
1.0
 40
1.0
 40
1.0
 40
1.0
 10
148.1051
 20
-73.453
 30
0.0
 10
147.8827
 20
-74.6236
 30
0.0
 10
148.3147
 20
-81.3723
 30
0.0
 10
149.397
 20
-82.9787
 30
0.0
 10
149.397
 20
-82.9787
 30
0.0
 10
146.2488
 20
-82.2853
 30
0.0
 10
143.2982
 20
-79.9256
 30
0.0
 10
141.9748
 20
-76.56
 30
0.0
 10
141.9748
 20
-76.56
 30
0.0
 10
144.5126
 20
-76.0055
 30
0.0
 10
146.3117
 20
-75.1216
 30
0.0
 10
148.1052
 20
-73.453
 30
0.0
 10
148.1052
 20
-73.453
 30
0.0
 10
148.1052
 20
-73.453
 30
0.0
 10
148.1051
 20
-73.453
 30
0.0
 10
148.1051
 20
-73.453
 30
0.0
  0
SPLINE
  5
89
330
1F
100
AcDbEntity
  8
layer 1
 62
     7
100
AcDbSpline
210
0.0
220
0.0
230
1.0
 70
    11
 71
     3
 72
    20
 73
    16
 74
     0
 42
0.0000000001
 43
0.0000000001
 12
1.0
 22
0.0
 32
0.0
 13
1.0
 23
0.0
 33
0.0
 40
0.0
 40
0.0
 40
0.0
 40
0.0
 40
0.2
 40
0.2
 40
0.2
 40
0.2
 40
0.4
 40
0.4
 40
0.4
 40
0.4
 40
0.6
 40
0.6
 40
0.6
 40
0.6
 40
1.0
 40
1.0
 40
1.0
 40
1.0
 10
141.0223
 20
-83.1905
 30
0.0
 10
139.8517
 20
-82.9682
 30
0.0
 10
133.1031
 20
-83.4001
 30
0.0
 10
131.4966
 20
-84.4824
 30
0.0
 10
131.4966
 20
-84.4824
 30
0.0
 10
132.19
 20
-81.3343
 30
0.0
 10
134.5497
 20
-78.3836
 30
0.0
 10
137.9153
 20
-77.0602
 30
0.0
 10
137.9153
 20
-77.0602
 30
0.0
 10
138.4698
 20
-79.5981
 30
0.0
 10
139.3537
 20
-81.3972
 30
0.0
 10
141.0223
 20
-83.1906
 30
0.0
 10
141.0223
 20
-83.1906
 30
0.0
 10
141.0223
 20
-83.1906
 30
0.0
 10
141.0223
 20
-83.1905
 30
0.0
 10
141.0223
 20
-83.1905
 30
0.0
  0
SPLINE
  5
8A
330
1F
100
AcDbEntity
  8
layer 1
 62
     7
100
AcDbSpline
210
0.0
220
0.0
230
1.0
 70
    11
 71
     3
 72
    16
 73
    12
 74
     0
 42
0.0000000001
 43
0.0000000001
 12
1.0
 22
0.0
 32
0.0
 13
1.0
 23
0.0
 33
0.0
 40
0.0
 40
0.0
 40
0.0
 40
0.0
 40
0.25
 40
0.25
 40
0.25
 40
0.25
 40
0.5
 40
0.5
 40
0.5
 40
0.5
 40
1.0
 40
1.0
 40
1.0
 40
1.0
 10
125.6754
 20
-66.3884
 30
0.0
 10
127.169
 20
-69.1301
 30
0.0
 10
127.3594
 20
-80.2051
 30
0.0
 10
125.8313
 20
-82.9475
 30
0.0
 10
125.8313
 20
-82.9475
 30
0.0
 10
123.5773
 20
-81.8191
 30
0.0
 10
120.5784
 20
-77.9124
 30
0.0
 10
120.6084
 20
-74.6194
 30
0.0
 10
120.6084
 20
-74.6194
 30
0.0
 10
120.6084
 20
-70.7777
 30
0.0
 10
123.8819
 20
-68.057
 30
0.0
 10
125.6754
 20
-66.3884
 30
0.0
  0
SPLINE
  5
8B
330
1F
100
AcDbEntity
  8
layer 1
 62
     7
100
AcDbSpline
210
0.0
220
0.0
230
1.0
 70
    11
 71
     3
 72
    16
 73
    12
 74
     0
 42
0.0000000001
 43
0.0000000001
 12
1.0
 22
0.0
 32
0.0
 13
1.0
 23
0.0
 33
0.0
 40
0.0
 40
0.0
 40
0.0
 40
0.0
 40
0.25
 40
0.25
 40
0.25
 40
0.25
 40
0.5
 40
0.5
 40
0.5
 40
0.5
 40
1.0
 40
1.0
 40
1.0
 40
1.0
 10
131.2284
 20
-89.0807
 30
0.0
 10
133.97
 20
-87.587
 30
0.0
 10
145.0451
 20
-87.3967
 30
0.0
 10
147.7874
 20
-88.9248
 30
0.0
 10
147.7874
 20
-88.9248
 30
0.0
 10
146.659
 20
-91.1787
 30
0.0
 10
142.7524
 20
-94.1776
 30
0.0
 10
139.4594
 20
-94.1477
 30
0.0
 10
139.4594
 20
-94.1477
 30
0.0
 10
135.6177
 20
-94.1477
 30
0.0
 10
132.897
 20
-90.8742
 30
0.0
 10
131.2284
 20
-89.0807
 30
0.0
  0
SPLINE
  5
8C
330
1F
100
AcDbEntity
  8
layer 1
 62
     7
100
AcDbSpline
210
0.0
220
0.0
230
1.0
 70
    11
 71
     3
 72
    16
 73
    12
 74
     0
 42
0.0000000001
 43
0.0000000001
 12
1.0
 22
0.0
 32
0.0
 13
1.0
 23
0.0
 33
0.0
 40
0.0
 40
0.0
 40
0.0
 40
0.0
 40
0.25
 40
0.25
 40
0.25
 40
0.25
 40
0.5
 40
0.5
 40
0.5
 40
0.5
 40
1.0
 40
1.0
 40
1.0
 40
1.0
 10
131.2284
 20
-60.4487
 30
0.0
 10
133.97
 20
-61.9423
 30
0.0
 10
145.0451
 20
-62.1327
 30
0.0
 10
147.7874
 20
-60.6046
 30
0.0
 10
147.7874
 20
-60.6046
 30
0.0
 10
146.659
 20
-58.3507
 30
0.0
 10
142.7524
 20
-55.3518
 30
0.0
 10
139.4594
 20
-55.3817
 30
0.0
 10
139.4594
 20
-55.3817
 30
0.0
 10
135.6177
 20
-55.3817
 30
0.0
 10
132.897
 20
-58.6552
 30
0.0
 10
131.2284
 20
-60.4487
 30
0.0
  0
SPLINE
  5
8D
330
1F
100
AcDbEntity
  8
layer 1
 62
     7
100
AcDbSpline
210
0.0
220
0.0
230
1.0
 70
    11
 71
     3
 72
    16
 73
    12
 74
     0
 42
0.0000000001
 43
0.0000000001
 12
1.0
 22
0.0
 32
0.0
 13
1.0
 23
0.0
 33
0.0
 40
0.0
 40
0.0
 40
0.0
 40
0.0
 40
0.25
 40
0.25
 40
0.25
 40
0.25
 40
0.5
 40
0.5
 40
0.5
 40
0.5
 40
1.0
 40
1.0
 40
1.0
 40
1.0
 10
153.9207
 20
-66.3884
 30
0.0
 10
152.427
 20
-69.1301
 30
0.0
 10
152.2367
 20
-80.2051
 30
0.0
 10
153.7648
 20
-82.9475
 30
0.0
 10
153.7648
 20
-82.9475
 30
0.0
 10
156.0187
 20
-81.8191
 30
0.0
 10
159.0176
 20
-77.9124
 30
0.0
 10
158.9876
 20
-74.6194
 30
0.0
 10
158.9876
 20
-74.6194
 30
0.0
 10
158.9876
 20
-70.7777
 30
0.0
 10
155.7142
 20
-68.057
 30
0.0
 10
153.9207
 20
-66.3884
 30
0.0
  0
SPLINE
  5
8E
330
1F
100
AcDbEntity
  8
layer 1
 62
     7
100
AcDbSpline
210
0.0
220
0.0
230
1.0
 70
    11
 71
     3
 72
    20
 73
    16
 74
     0
 42
0.0000000001
 43
0.0000000001
 12
1.0
 22
0.0
 32
0.0
 13
1.0
 23
0.0
 33
0.0
 40
0.0
 40
0.0
 40
0.0
 40
0.0
 40
0.2
 40
0.2
 40
0.2
 40
0.2
 40
0.4
 40
0.4
 40
0.4
 40
0.4
 40
0.6
 40
0.6
 40
0.6
 40
0.6
 40
1.0
 40
1.0
 40
1.0
 40
1.0
 10
88.2588
 20
-75.8573
 30
0.0
 10
88.4811
 20
-74.6868
 30
0.0
 10
88.0492
 20
-67.9381
 30
0.0
 10
86.9669
 20
-66.3316
 30
0.0
 10
86.9669
 20
-66.3316
 30
0.0
 10
90.1151
 20
-67.025
 30
0.0
 10
93.0657
 20
-69.3848
 30
0.0
 10
94.3891
 20
-72.7503
 30
0.0
 10
94.3891
 20
-72.7503
 30
0.0
 10
91.8513
 20
-73.3049
 30
0.0
 10
90.0522
 20
-74.1887
 30
0.0
 10
88.2587
 20
-75.8573
 30
0.0
 10
88.2587
 20
-75.8573
 30
0.0
 10
88.2587
 20
-75.8573
 30
0.0
 10
88.2588
 20
-75.8573
 30
0.0
 10
88.2588
 20
-75.8573
 30
0.0
  0
SPLINE
  5
8F
330
1F
100
AcDbEntity
  8
layer 1
 62
     7
100
AcDbSpline
210
0.0
220
0.0
230
1.0
 70
    11
 71
     3
 72
    20
 73
    16
 74
     0
 42
0.0000000001
 43
0.0000000001
 12
1.0
 22
0.0
 32
0.0
 13
1.0
 23
0.0
 33
0.0
 40
0.0
 40
0.0
 40
0.0
 40
0.0
 40
0.2
 40
0.2
 40
0.2
 40
0.2
 40
0.4
 40
0.4
 40
0.4
 40
0.4
 40
0.6
 40
0.6
 40
0.6
 40
0.6
 40
1.0
 40
1.0
 40
1.0
 40
1.0
 10
95.4504
 20
-66.233
 30
0.0
 10
96.621
 20
-66.4554
 30
0.0
 10
103.3697
 20
-66.0234
 30
0.0
 10
104.9762
 20
-64.9411
 30
0.0
 10
104.9762
 20
-64.9411
 30
0.0
 10
104.2827
 20
-68.0893
 30
0.0
 10
101.923
 20
-71.0399
 30
0.0
 10
98.5575
 20
-72.3634
 30
0.0
 10
98.5575
 20
-72.3634
 30
0.0
 10
98.0029
 20
-69.8255
 30
0.0
 10
97.1191
 20
-68.0264
 30
0.0
 10
95.4504
 20
-66.2329
 30
0.0
 10
95.4504
 20
-66.2329
 30
0.0
 10
95.4504
 20
-66.2329
 30
0.0
 10
95.4504
 20
-66.233
 30
0.0
 10
95.4504
 20
-66.233
 30
0.0
  0
SPLINE
  5
90
330
1F
100
AcDbEntity
  8
layer 1
 62
     7
100
AcDbSpline
210
0.0
220
0.0
230
1.0
 70
    11
 71
     3
 72
    20
 73
    16
 74
     0
 42
0.0000000001
 43
0.0000000001
 12
1.0
 22
0.0
 32
0.0
 13
1.0
 23
0.0
 33
0.0
 40
0.0
 40
0.0
 40
0.0
 40
0.0
 40
0.2
 40
0.2
 40
0.2
 40
0.2
 40
0.4
 40
0.4
 40
0.4
 40
0.4
 40
0.6
 40
0.6
 40
0.6
 40
0.6
 40
1.0
 40
1.0
 40
1.0
 40
1.0
 10
105.16
 20
-73.453
 30
0.0
 10
104.9377
 20
-74.6236
 30
0.0
 10
105.3696
 20
-81.3723
 30
0.0
 10
106.4519
 20
-82.9787
 30
0.0
 10
106.4519
 20
-82.9787
 30
0.0
 10
103.3037
 20
-82.2853
 30
0.0
 10
100.3531
 20
-79.9256
 30
0.0
 10
99.0297
 20
-76.56
 30
0.0
 10
99.0297
 20
-76.56
 30
0.0
 10
101.5675
 20
-76.0055
 30
0.0
 10
103.3666
 20
-75.1216
 30
0.0
 10
105.1601
 20
-73.453
 30
0.0
 10
105.1601
 20
-73.453
 30
0.0
 10
105.1601
 20
-73.453
 30
0.0
 10
105.16
 20
-73.453
 30
0.0
 10
105.16
 20
-73.453
 30
0.0
  0
SPLINE
  5
91
330
1F
100
AcDbEntity
  8
layer 1
 62
     7
100
AcDbSpline
210
0.0
220
0.0
230
1.0
 70
    11
 71
     3
 72
    20
 73
    16
 74
     0
 42
0.0000000001
 43
0.0000000001
 12
1.0
 22
0.0
 32
0.0
 13
1.0
 23
0.0
 33
0.0
 40
0.0
 40
0.0
 40
0.0
 40
0.0
 40
0.2
 40
0.2
 40
0.2
 40
0.2
 40
0.4
 40
0.4
 40
0.4
 40
0.4
 40
0.6
 40
0.6
 40
0.6
 40
0.6
 40
1.0
 40
1.0
 40
1.0
 40
1.0
 10
98.0772
 20
-83.1905
 30
0.0
 10
96.9066
 20
-82.9682
 30
0.0
 10
90.158
 20
-83.4001
 30
0.0
 10
88.5515
 20
-84.4824
 30
0.0
 10
88.5515
 20
-84.4824
 30
0.0
 10
89.2449
 20
-81.3343
 30
0.0
 10
91.6047
 20
-78.3836
 30
0.0
 10
94.9702
 20
-77.0602
 30
0.0
 10
94.9702
 20
-77.0602
 30
0.0
 10
95.5248
 20
-79.5981
 30
0.0
 10
96.4086
 20
-81.3972
 30
0.0
 10
98.0772
 20
-83.1906
 30
0.0
 10
98.0772
 20
-83.1906
 30
0.0
 10
98.0772
 20
-83.1906
 30
0.0
 10
98.0772
 20
-83.1905
 30
0.0
 10
98.0772
 20
-83.1905
 30
0.0
  0
SPLINE
  5
92
330
1F
100
AcDbEntity
  8
layer 1
 62
     7
100
AcDbSpline
210
0.0
220
0.0
230
1.0
 70
    11
 71
     3
 72
    16
 73
    12
 74
     0
 42
0.0000000001
 43
0.0000000001
 12
1.0
 22
0.0
 32
0.0
 13
1.0
 23
0.0
 33
0.0
 40
0.0
 40
0.0
 40
0.0
 40
0.0
 40
0.25
 40
0.25
 40
0.25
 40
0.25
 40
0.5
 40
0.5
 40
0.5
 40
0.5
 40
1.0
 40
1.0
 40
1.0
 40
1.0
 10
88.2834
 20
-89.0807
 30
0.0
 10
91.0251
 20
-87.587
 30
0.0
 10
102.1001
 20
-87.3967
 30
0.0
 10
104.8425
 20
-88.9248
 30
0.0
 10
104.8425
 20
-88.9248
 30
0.0
 10
103.7141
 20
-91.1787
 30
0.0
 10
99.8075
 20
-94.1776
 30
0.0
 10
96.5144
 20
-94.1477
 30
0.0
 10
96.5144
 20
-94.1477
 30
0.0
 10
92.6727
 20
-94.1477
 30
0.0
 10
89.9521
 20
-90.8742
 30
0.0
 10
88.2834
 20
-89.0807
 30
0.0
  0
SPLINE
  5
93
330
1F
100
AcDbEntity
  8
layer 1
 62
     7
100
AcDbSpline
210
0.0
220
0.0
230
1.0
 70
    11
 71
     3
 72
    16
 73
    12
 74
     0
 42
0.0000000001
 43
0.0000000001
 12
1.0
 22
0.0
 32
0.0
 13
1.0
 23
0.0
 33
0.0
 40
0.0
 40
0.0
 40
0.0
 40
0.0
 40
0.25
 40
0.25
 40
0.25
 40
0.25
 40
0.5
 40
0.5
 40
0.5
 40
0.5
 40
1.0
 40
1.0
 40
1.0
 40
1.0
 10
88.2834
 20
-60.4487
 30
0.0
 10
91.0251
 20
-61.9423
 30
0.0
 10
102.1001
 20
-62.1327
 30
0.0
 10
104.8425
 20
-60.6046
 30
0.0
 10
104.8425
 20
-60.6046
 30
0.0
 10
103.7141
 20
-58.3507
 30
0.0
 10
99.8075
 20
-55.3518
 30
0.0
 10
96.5144
 20
-55.3817
 30
0.0
 10
96.5144
 20
-55.3817
 30
0.0
 10
92.6727
 20
-55.3817
 30
0.0
 10
89.9521
 20
-58.6552
 30
0.0
 10
88.2834
 20
-60.4487
 30
0.0
  0
SPLINE
  5
94
330
1F
100
AcDbEntity
  8
layer 1
 62
     7
100
AcDbSpline
210
0.0
220
0.0
230
1.0
 70
    11
 71
     3
 72
    16
 73
    12
 74
     0
 42
0.0000000001
 43
0.0000000001
 12
1.0
 22
0.0
 32
0.0
 13
1.0
 23
0.0
 33
0.0
 40
0.0
 40
0.0
 40
0.0
 40
0.0
 40
0.25
 40
0.25
 40
0.25
 40
0.25
 40
0.5
 40
0.5
 40
0.5
 40
0.5
 40
1.0
 40
1.0
 40
1.0
 40
1.0
 10
110.9756
 20
-66.3884
 30
0.0
 10
109.4819
 20
-69.1301
 30
0.0
 10
109.2916
 20
-80.2051
 30
0.0
 10
110.8197
 20
-82.9475
 30
0.0
 10
110.8197
 20
-82.9475
 30
0.0
 10
113.0736
 20
-81.8191
 30
0.0
 10
116.0725
 20
-77.9124
 30
0.0
 10
116.0426
 20
-74.6194
 30
0.0
 10
116.0426
 20
-74.6194
 30
0.0
 10
116.0426
 20
-70.7777
 30
0.0
 10
112.7691
 20
-68.057
 30
0.0
 10
110.9756
 20
-66.3884
 30
0.0
  0
SPLINE
  5
95
330
1F
100
AcDbEntity
  8
layer 1
 62
     7
100
AcDbSpline
210
0.0
220
0.0
230
1.0
 70
    11
 71
     3
 72
    20
 73
    16
 74
     0
 42
0.0000000001
 43
0.0000000001
 12
1.0
 22
0.0
 32
0.0
 13
1.0
 23
0.0
 33
0.0
 40
0.0
 40
0.0
 40
0.0
 40
0.0
 40
0.2
 40
0.2
 40
0.2
 40
0.2
 40
0.4
 40
0.4
 40
0.4
 40
0.4
 40
0.6
 40
0.6
 40
0.6
 40
0.6
 40
1.0
 40
1.0
 40
1.0
 40
1.0
 10
88.2588
 20
-32.3017
 30
0.0
 10
88.4811
 20
-31.1311
 30
0.0
 10
88.0492
 20
-24.3825
 30
0.0
 10
86.9669
 20
-22.776
 30
0.0
 10
86.9669
 20
-22.776
 30
0.0
 10
90.1151
 20
-23.4694
 30
0.0
 10
93.0657
 20
-25.8291
 30
0.0
 10
94.3891
 20
-29.1947
 30
0.0
 10
94.3891
 20
-29.1947
 30
0.0
 10
91.8513
 20
-29.7492
 30
0.0
 10
90.0522
 20
-30.6331
 30
0.0
 10
88.2587
 20
-32.3017
 30
0.0
 10
88.2587
 20
-32.3017
 30
0.0
 10
88.2587
 20
-32.3017
 30
0.0
 10
88.2588
 20
-32.3017
 30
0.0
 10
88.2588
 20
-32.3017
 30
0.0
  0
SPLINE
  5
96
330
1F
100
AcDbEntity
  8
layer 1
 62
     7
100
AcDbSpline
210
0.0
220
0.0
230
1.0
 70
    11
 71
     3
 72
    20
 73
    16
 74
     0
 42
0.0000000001
 43
0.0000000001
 12
1.0
 22
0.0
 32
0.0
 13
1.0
 23
0.0
 33
0.0
 40
0.0
 40
0.0
 40
0.0
 40
0.0
 40
0.2
 40
0.2
 40
0.2
 40
0.2
 40
0.4
 40
0.4
 40
0.4
 40
0.4
 40
0.6
 40
0.6
 40
0.6
 40
0.6
 40
1.0
 40
1.0
 40
1.0
 40
1.0
 10
95.4504
 20
-22.6774
 30
0.0
 10
96.621
 20
-22.8997
 30
0.0
 10
103.3697
 20
-22.4678
 30
0.0
 10
104.9762
 20
-21.3855
 30
0.0
 10
104.9762
 20
-21.3855
 30
0.0
 10
104.2827
 20
-24.5337
 30
0.0
 10
101.923
 20
-27.4843
 30
0.0
 10
98.5575
 20
-28.8077
 30
0.0
 10
98.5575
 20
-28.8077
 30
0.0
 10
98.0029
 20
-26.2699
 30
0.0
 10
97.1191
 20
-24.4708
 30
0.0
 10
95.4504
 20
-22.6773
 30
0.0
 10
95.4504
 20
-22.6773
 30
0.0
 10
95.4504
 20
-22.6773
 30
0.0
 10
95.4504
 20
-22.6774
 30
0.0
 10
95.4504
 20
-22.6774
 30
0.0
  0
SPLINE
  5
97
330
1F
100
AcDbEntity
  8
layer 1
 62
     7
100
AcDbSpline
210
0.0
220
0.0
230
1.0
 70
    11
 71
     3
 72
    20
 73
    16
 74
     0
 42
0.0000000001
 43
0.0000000001
 12
1.0
 22
0.0
 32
0.0
 13
1.0
 23
0.0
 33
0.0
 40
0.0
 40
0.0
 40
0.0
 40
0.0
 40
0.2
 40
0.2
 40
0.2
 40
0.2
 40
0.4
 40
0.4
 40
0.4
 40
0.4
 40
0.6
 40
0.6
 40
0.6
 40
0.6
 40
1.0
 40
1.0
 40
1.0
 40
1.0
 10
105.16
 20
-29.8975
 30
0.0
 10
104.9377
 20
-31.0681
 30
0.0
 10
105.3696
 20
-37.8167
 30
0.0
 10
106.4519
 20
-39.4232
 30
0.0
 10
106.4519
 20
-39.4232
 30
0.0
 10
103.3037
 20
-38.7298
 30
0.0
 10
100.3531
 20
-36.3701
 30
0.0
 10
99.0297
 20
-33.0045
 30
0.0
 10
99.0297
 20
-33.0045
 30
0.0
 10
101.5675
 20
-32.45
 30
0.0
 10
103.3666
 20
-31.5661
 30
0.0
 10
105.1601
 20
-29.8975
 30
0.0
 10
105.1601
 20
-29.8975
 30
0.0
 10
105.1601
 20
-29.8975
 30
0.0
 10
105.16
 20
-29.8975
 30
0.0
 10
105.16
 20
-29.8975
 30
0.0
  0
SPLINE
  5
98
330
1F
100
AcDbEntity
  8
layer 1
 62
     7
100
AcDbSpline
210
0.0
220
0.0
230
1.0
 70
    11
 71
     3
 72
    20
 73
    16
 74
     0
 42
0.0000000001
 43
0.0000000001
 12
1.0
 22
0.0
 32
0.0
 13
1.0
 23
0.0
 33
0.0
 40
0.0
 40
0.0
 40
0.0
 40
0.0
 40
0.2
 40
0.2
 40
0.2
 40
0.2
 40
0.4
 40
0.4
 40
0.4
 40
0.4
 40
0.6
 40
0.6
 40
0.6
 40
0.6
 40
1.0
 40
1.0
 40
1.0
 40
1.0
 10
98.0772
 20
-39.6349
 30
0.0
 10
96.9066
 20
-39.4125
 30
0.0
 10
90.158
 20
-39.8445
 30
0.0
 10
88.5515
 20
-40.9268
 30
0.0
 10
88.5515
 20
-40.9268
 30
0.0
 10
89.2449
 20
-37.7786
 30
0.0
 10
91.6047
 20
-34.828
 30
0.0
 10
94.9702
 20
-33.5046
 30
0.0
 10
94.9702
 20
-33.5046
 30
0.0
 10
95.5248
 20
-36.0424
 30
0.0
 10
96.4086
 20
-37.8415
 30
0.0
 10
98.0772
 20
-39.635
 30
0.0
 10
98.0772
 20
-39.635
 30
0.0
 10
98.0772
 20
-39.635
 30
0.0
 10
98.0772
 20
-39.6349
 30
0.0
 10
98.0772
 20
-39.6349
 30
0.0
  0
SPLINE
  5
99
330
1F
100
AcDbEntity
  8
layer 1
 62
     7
100
AcDbSpline
210
0.0
220
0.0
230
1.0
 70
    11
 71
     3
 72
    16
 73
    12
 74
     0
 42
0.0000000001
 43
0.0000000001
 12
1.0
 22
0.0
 32
0.0
 13
1.0
 23
0.0
 33
0.0
 40
0.0
 40
0.0
 40
0.0
 40
0.0
 40
0.25
 40
0.25
 40
0.25
 40
0.25
 40
0.5
 40
0.5
 40
0.5
 40
0.5
 40
1.0
 40
1.0
 40
1.0
 40
1.0
 10
88.2834
 20
-45.5251
 30
0.0
 10
91.0251
 20
-44.0314
 30
0.0
 10
102.1001
 20
-43.8411
 30
0.0
 10
104.8425
 20
-45.3692
 30
0.0
 10
104.8425
 20
-45.3692
 30
0.0
 10
103.7141
 20
-47.6231
 30
0.0
 10
99.8075
 20
-50.622
 30
0.0
 10
96.5144
 20
-50.592
 30
0.0
 10
96.5144
 20
-50.592
 30
0.0
 10
92.6727
 20
-50.592
 30
0.0
 10
89.9521
 20
-47.3186
 30
0.0
 10
88.2834
 20
-45.5251
 30
0.0
  0
SPLINE
  5
9A
330
1F
100
AcDbEntity
  8
layer 1
 62
     7
100
AcDbSpline
210
0.0
220
0.0
230
1.0
 70
    11
 71
     3
 72
    16
 73
    12
 74
     0
 42
0.0000000001
 43
0.0000000001
 12
1.0
 22
0.0
 32
0.0
 13
1.0
 23
0.0
 33
0.0
 40
0.0
 40
0.0
 40
0.0
 40
0.0
 40
0.25
 40
0.25
 40
0.25
 40
0.25
 40
0.5
 40
0.5
 40
0.5
 40
0.5
 40
1.0
 40
1.0
 40
1.0
 40
1.0
 10
88.2834
 20
-16.8932
 30
0.0
 10
91.0251
 20
-18.3868
 30
0.0
 10
102.1001
 20
-18.5771
 30
0.0
 10
104.8425
 20
-17.049
 30
0.0
 10
104.8425
 20
-17.049
 30
0.0
 10
103.7141
 20
-14.7951
 30
0.0
 10
99.8075
 20
-11.7962
 30
0.0
 10
96.5144
 20
-11.8262
 30
0.0
 10
96.5144
 20
-11.8262
 30
0.0
 10
92.6727
 20
-11.8262
 30
0.0
 10
89.9521
 20
-15.0997
 30
0.0
 10
88.2834
 20
-16.8932
 30
0.0
  0
SPLINE
  5
9B
330
1F
100
AcDbEntity
  8
layer 1
 62
     7
100
AcDbSpline
210
0.0
220
0.0
230
1.0
 70
    11
 71
     3
 72
    16
 73
    12
 74
     0
 42
0.0000000001
 43
0.0000000001
 12
1.0
 22
0.0
 32
0.0
 13
1.0
 23
0.0
 33
0.0
 40
0.0
 40
0.0
 40
0.0
 40
0.0
 40
0.25
 40
0.25
 40
0.25
 40
0.25
 40
0.5
 40
0.5
 40
0.5
 40
0.5
 40
1.0
 40
1.0
 40
1.0
 40
1.0
 10
110.9756
 20
-22.8328
 30
0.0
 10
109.4819
 20
-25.5744
 30
0.0
 10
109.2916
 20
-36.6494
 30
0.0
 10
110.8197
 20
-39.3918
 30
0.0
 10
110.8197
 20
-39.3918
 30
0.0
 10
113.0736
 20
-38.2634
 30
0.0
 10
116.0725
 20
-34.3568
 30
0.0
 10
116.0426
 20
-31.0638
 30
0.0
 10
116.0426
 20
-31.0638
 30
0.0
 10
116.0426
 20
-27.2221
 30
0.0
 10
112.7691
 20
-24.5014
 30
0.0
 10
110.9756
 20
-22.8328
 30
0.0
  0
SPLINE
  5
9C
330
1F
100
AcDbEntity
  8
layer 1
 62
     7
100
AcDbSpline
210
0.0
220
0.0
230
1.0
 70
    11
 71
     3
 72
    20
 73
    16
 74
     0
 42
0.0000000001
 43
0.0000000001
 12
1.0
 22
0.0
 32
0.0
 13
1.0
 23
0.0
 33
0.0
 40
0.0
 40
0.0
 40
0.0
 40
0.0
 40
0.2
 40
0.2
 40
0.2
 40
0.2
 40
0.4
 40
0.4
 40
0.4
 40
0.4
 40
0.6
 40
0.6
 40
0.6
 40
0.6
 40
1.0
 40
1.0
 40
1.0
 40
1.0
 10
88.2588
 20
11.4575
 30
0.0
 10
88.4811
 20
12.6281
 30
0.0
 10
88.0492
 20
19.3767
 30
0.0
 10
86.9669
 20
20.9832
 30
0.0
 10
86.9669
 20
20.9832
 30
0.0
 10
90.1151
 20
20.2898
 30
0.0
 10
93.0657
 20
17.93
 30
0.0
 10
94.3891
 20
14.5645
 30
0.0
 10
94.3891
 20
14.5645
 30
0.0
 10
91.8513
 20
14.0099
 30
0.0
 10
90.0522
 20
13.1261
 30
0.0
 10
88.2587
 20
11.4575
 30
0.0
 10
88.2587
 20
11.4575
 30
0.0
 10
88.2587
 20
11.4575
 30
0.0
 10
88.2588
 20
11.4575
 30
0.0
 10
88.2588
 20
11.4575
 30
0.0
  0
SPLINE
  5
9D
330
1F
100
AcDbEntity
  8
layer 1
 62
     7
100
AcDbSpline
210
0.0
220
0.0
230
1.0
 70
    11
 71
     3
 72
    20
 73
    16
 74
     0
 42
0.0000000001
 43
0.0000000001
 12
1.0
 22
0.0
 32
0.0
 13
1.0
 23
0.0
 33
0.0
 40
0.0
 40
0.0
 40
0.0
 40
0.0
 40
0.2
 40
0.2
 40
0.2
 40
0.2
 40
0.4
 40
0.4
 40
0.4
 40
0.4
 40
0.6
 40
0.6
 40
0.6
 40
0.6
 40
1.0
 40
1.0
 40
1.0
 40
1.0
 10
95.4504
 20
21.0818
 30
0.0
 10
96.621
 20
20.8594
 30
0.0
 10
103.3697
 20
21.2914
 30
0.0
 10
104.9762
 20
22.3737
 30
0.0
 10
104.9762
 20
22.3737
 30
0.0
 10
104.2827
 20
19.2255
 30
0.0
 10
101.923
 20
16.2749
 30
0.0
 10
98.5575
 20
14.9515
 30
0.0
 10
98.5575
 20
14.9515
 30
0.0
 10
98.0029
 20
17.4893
 30
0.0
 10
97.1191
 20
19.2884
 30
0.0
 10
95.4504
 20
21.0819
 30
0.0
 10
95.4504
 20
21.0819
 30
0.0
 10
95.4504
 20
21.0819
 30
0.0
 10
95.4504
 20
21.0818
 30
0.0
 10
95.4504
 20
21.0818
 30
0.0
  0
SPLINE
  5
9E
330
1F
100
AcDbEntity
  8
layer 1
 62
     7
100
AcDbSpline
210
0.0
220
0.0
230
1.0
 70
    11
 71
     3
 72
    20
 73
    16
 74
     0
 42
0.0000000001
 43
0.0000000001
 12
1.0
 22
0.0
 32
0.0
 13
1.0
 23
0.0
 33
0.0
 40
0.0
 40
0.0
 40
0.0
 40
0.0
 40
0.2
 40
0.2
 40
0.2
 40
0.2
 40
0.4
 40
0.4
 40
0.4
 40
0.4
 40
0.6
 40
0.6
 40
0.6
 40
0.6
 40
1.0
 40
1.0
 40
1.0
 40
1.0
 10
105.16
 20
13.8617
 30
0.0
 10
104.9377
 20
12.6911
 30
0.0
 10
105.3696
 20
5.9424
 30
0.0
 10
106.4519
 20
4.336
 30
0.0
 10
106.4519
 20
4.336
 30
0.0
 10
103.3037
 20
5.0294
 30
0.0
 10
100.3531
 20
7.3891
 30
0.0
 10
99.0297
 20
10.7547
 30
0.0
 10
99.0297
 20
10.7547
 30
0.0
 10
101.5675
 20
11.3092
 30
0.0
 10
103.3666
 20
12.1931
 30
0.0
 10
105.1601
 20
13.8617
 30
0.0
 10
105.1601
 20
13.8617
 30
0.0
 10
105.1601
 20
13.8617
 30
0.0
 10
105.16
 20
13.8617
 30
0.0
 10
105.16
 20
13.8617
 30
0.0
  0
SPLINE
  5
9F
330
1F
100
AcDbEntity
  8
layer 1
 62
     7
100
AcDbSpline
210
0.0
220
0.0
230
1.0
 70
    11
 71
     3
 72
    20
 73
    16
 74
     0
 42
0.0000000001
 43
0.0000000001
 12
1.0
 22
0.0
 32
0.0
 13
1.0
 23
0.0
 33
0.0
 40
0.0
 40
0.0
 40
0.0
 40
0.0
 40
0.2
 40
0.2
 40
0.2
 40
0.2
 40
0.4
 40
0.4
 40
0.4
 40
0.4
 40
0.6
 40
0.6
 40
0.6
 40
0.6
 40
1.0
 40
1.0
 40
1.0
 40
1.0
 10
98.0772
 20
4.1243
 30
0.0
 10
96.9066
 20
4.3466
 30
0.0
 10
90.158
 20
3.9147
 30
0.0
 10
88.5515
 20
2.8324
 30
0.0
 10
88.5515
 20
2.8324
 30
0.0
 10
89.2449
 20
5.9806
 30
0.0
 10
91.6047
 20
8.9312
 30
0.0
 10
94.9702
 20
10.2546
 30
0.0
 10
94.9702
 20
10.2546
 30
0.0
 10
95.5248
 20
7.7168
 30
0.0
 10
96.4086
 20
5.9177
 30
0.0
 10
98.0772
 20
4.1242
 30
0.0
 10
98.0772
 20
4.1242
 30
0.0
 10
98.0772
 20
4.1242
 30
0.0
 10
98.0772
 20
4.1243
 30
0.0
 10
98.0772
 20
4.1243
 30
0.0
  0
SPLINE
  5
A0
330
1F
100
AcDbEntity
  8
layer 1
 62
     7
100
AcDbSpline
210
0.0
220
0.0
230
1.0
 70
    11
 71
     3
 72
    16
 73
    12
 74
     0
 42
0.0000000001
 43
0.0000000001
 12
1.0
 22
0.0
 32
0.0
 13
1.0
 23
0.0
 33
0.0
 40
0.0
 40
0.0
 40
0.0
 40
0.0
 40
0.25
 40
0.25
 40
0.25
 40
0.25
 40
0.5
 40
0.5
 40
0.5
 40
0.5
 40
1.0
 40
1.0
 40
1.0
 40
1.0
 10
88.2834
 20
-1.7659
 30
0.0
 10
91.0251
 20
-0.2722
 30
0.0
 10
102.1001
 20
-0.0819
 30
0.0
 10
104.8425
 20
-1.61
 30
0.0
 10
104.8425
 20
-1.61
 30
0.0
 10
103.7141
 20
-3.8639
 30
0.0
 10
99.8075
 20
-6.8628
 30
0.0
 10
96.5144
 20
-6.8328
 30
0.0
 10
96.5144
 20
-6.8328
 30
0.0
 10
92.6727
 20
-6.8328
 30
0.0
 10
89.9521
 20
-3.5594
 30
0.0
 10
88.2834
 20
-1.7659
 30
0.0
  0
SPLINE
  5
A1
330
1F
100
AcDbEntity
  8
layer 1
 62
     7
100
AcDbSpline
210
0.0
220
0.0
230
1.0
 70
    11
 71
     3
 72
    16
 73
    12
 74
     0
 42
0.0000000001
 43
0.0000000001
 12
1.0
 22
0.0
 32
0.0
 13
1.0
 23
0.0
 33
0.0
 40
0.0
 40
0.0
 40
0.0
 40
0.0
 40
0.25
 40
0.25
 40
0.25
 40
0.25
 40
0.5
 40
0.5
 40
0.5
 40
0.5
 40
1.0
 40
1.0
 40
1.0
 40
1.0
 10
88.2834
 20
26.866
 30
0.0
 10
91.0251
 20
25.3723
 30
0.0
 10
102.1001
 20
25.182
 30
0.0
 10
104.8425
 20
26.7101
 30
0.0
 10
104.8425
 20
26.7101
 30
0.0
 10
103.7141
 20
28.964
 30
0.0
 10
99.8075
 20
31.9629
 30
0.0
 10
96.5144
 20
31.933
 30
0.0
 10
96.5144
 20
31.933
 30
0.0
 10
92.6727
 20
31.933
 30
0.0
 10
89.9521
 20
28.6595
 30
0.0
 10
88.2834
 20
26.866
 30
0.0
  0
SPLINE
  5
A2
330
1F
100
AcDbEntity
  8
layer 1
 62
     7
100
AcDbSpline
210
0.0
220
0.0
230
1.0
 70
    11
 71
     3
 72
    16
 73
    12
 74
     0
 42
0.0000000001
 43
0.0000000001
 12
1.0
 22
0.0
 32
0.0
 13
1.0
 23
0.0
 33
0.0
 40
0.0
 40
0.0
 40
0.0
 40
0.0
 40
0.25
 40
0.25
 40
0.25
 40
0.25
 40
0.5
 40
0.5
 40
0.5
 40
0.5
 40
1.0
 40
1.0
 40
1.0
 40
1.0
 10
110.9756
 20
20.9263
 30
0.0
 10
109.4819
 20
18.1846
 30
0.0
 10
109.2916
 20
7.1096
 30
0.0
 10
110.8197
 20
4.3672
 30
0.0
 10
110.8197
 20
4.3672
 30
0.0
 10
113.0736
 20
5.4956
 30
0.0
 10
116.0725
 20
9.4023
 30
0.0
 10
116.0426
 20
12.6953
 30
0.0
 10
116.0426
 20
12.6953
 30
0.0
 10
116.0426
 20
16.537
 30
0.0
 10
112.7691
 20
19.2577
 30
0.0
 10
110.9756
 20
20.9263
 30
0.0
  0
SPLINE
  5
A3
330
1F
100
AcDbEntity
  8
layer 1
 62
     7
100
AcDbSpline
210
0.0
220
0.0
230
1.0
 70
    11
 71
     3
 72
    20
 73
    16
 74
     0
 42
0.0000000001
 43
0.0000000001
 12
1.0
 22
0.0
 32
0.0
 13
1.0
 23
0.0
 33
0.0
 40
0.0
 40
0.0
 40
0.0
 40
0.0
 40
0.2
 40
0.2
 40
0.2
 40
0.2
 40
0.4
 40
0.4
 40
0.4
 40
0.4
 40
0.6
 40
0.6
 40
0.6
 40
0.6
 40
1.0
 40
1.0
 40
1.0
 40
1.0
 10
88.2588
 20
55.0131
 30
0.0
 10
88.4811
 20
56.1837
 30
0.0
 10
88.0492
 20
62.9323
 30
0.0
 10
86.9669
 20
64.5388
 30
0.0
 10
86.9669
 20
64.5388
 30
0.0
 10
90.1151
 20
63.8454
 30
0.0
 10
93.0657
 20
61.4857
 30
0.0
 10
94.3891
 20
58.1201
 30
0.0
 10
94.3891
 20
58.1201
 30
0.0
 10
91.8513
 20
57.5656
 30
0.0
 10
90.0522
 20
56.6817
 30
0.0
 10
88.2587
 20
55.0131
 30
0.0
 10
88.2587
 20
55.0131
 30
0.0
 10
88.2587
 20
55.0131
 30
0.0
 10
88.2588
 20
55.0131
 30
0.0
 10
88.2588
 20
55.0131
 30
0.0
  0
SPLINE
  5
A4
330
1F
100
AcDbEntity
  8
layer 1
 62
     7
100
AcDbSpline
210
0.0
220
0.0
230
1.0
 70
    11
 71
     3
 72
    20
 73
    16
 74
     0
 42
0.0000000001
 43
0.0000000001
 12
1.0
 22
0.0
 32
0.0
 13
1.0
 23
0.0
 33
0.0
 40
0.0
 40
0.0
 40
0.0
 40
0.0
 40
0.2
 40
0.2
 40
0.2
 40
0.2
 40
0.4
 40
0.4
 40
0.4
 40
0.4
 40
0.6
 40
0.6
 40
0.6
 40
0.6
 40
1.0
 40
1.0
 40
1.0
 40
1.0
 10
95.4504
 20
64.6374
 30
0.0
 10
96.621
 20
64.4151
 30
0.0
 10
103.3697
 20
64.847
 30
0.0
 10
104.9762
 20
65.9293
 30
0.0
 10
104.9762
 20
65.9293
 30
0.0
 10
104.2827
 20
62.7812
 30
0.0
 10
101.923
 20
59.8305
 30
0.0
 10
98.5575
 20
58.5071
 30
0.0
 10
98.5575
 20
58.5071
 30
0.0
 10
98.0029
 20
61.045
 30
0.0
 10
97.1191
 20
62.8441
 30
0.0
 10
95.4504
 20
64.6375
 30
0.0
 10
95.4504
 20
64.6375
 30
0.0
 10
95.4504
 20
64.6375
 30
0.0
 10
95.4504
 20
64.6374
 30
0.0
 10
95.4504
 20
64.6374
 30
0.0
  0
SPLINE
  5
A5
330
1F
100
AcDbEntity
  8
layer 1
 62
     7
100
AcDbSpline
210
0.0
220
0.0
230
1.0
 70
    11
 71
     3
 72
    20
 73
    16
 74
     0
 42
0.0000000001
 43
0.0000000001
 12
1.0
 22
0.0
 32
0.0
 13
1.0
 23
0.0
 33
0.0
 40
0.0
 40
0.0
 40
0.0
 40
0.0
 40
0.2
 40
0.2
 40
0.2
 40
0.2
 40
0.4
 40
0.4
 40
0.4
 40
0.4
 40
0.6
 40
0.6
 40
0.6
 40
0.6
 40
1.0
 40
1.0
 40
1.0
 40
1.0
 10
105.16
 20
57.4173
 30
0.0
 10
104.9377
 20
56.2467
 30
0.0
 10
105.3696
 20
49.4981
 30
0.0
 10
106.4519
 20
47.8916
 30
0.0
 10
106.4519
 20
47.8916
 30
0.0
 10
103.3037
 20
48.585
 30
0.0
 10
100.3531
 20
50.9448
 30
0.0
 10
99.0297
 20
54.3103
 30
0.0
 10
99.0297
 20
54.3103
 30
0.0
 10
101.5675
 20
54.8649
 30
0.0
 10
103.3666
 20
55.7487
 30
0.0
 10
105.1601
 20
57.4173
 30
0.0
 10
105.1601
 20
57.4173
 30
0.0
 10
105.1601
 20
57.4173
 30
0.0
 10
105.16
 20
57.4173
 30
0.0
 10
105.16
 20
57.4173
 30
0.0
  0
SPLINE
  5
A6
330
1F
100
AcDbEntity
  8
layer 1
 62
     7
100
AcDbSpline
210
0.0
220
0.0
230
1.0
 70
    11
 71
     3
 72
    20
 73
    16
 74
     0
 42
0.0000000001
 43
0.0000000001
 12
1.0
 22
0.0
 32
0.0
 13
1.0
 23
0.0
 33
0.0
 40
0.0
 40
0.0
 40
0.0
 40
0.0
 40
0.2
 40
0.2
 40
0.2
 40
0.2
 40
0.4
 40
0.4
 40
0.4
 40
0.4
 40
0.6
 40
0.6
 40
0.6
 40
0.6
 40
1.0
 40
1.0
 40
1.0
 40
1.0
 10
98.0772
 20
47.6799
 30
0.0
 10
96.9066
 20
47.9023
 30
0.0
 10
90.158
 20
47.4703
 30
0.0
 10
88.5515
 20
46.388
 30
0.0
 10
88.5515
 20
46.388
 30
0.0
 10
89.2449
 20
49.5362
 30
0.0
 10
91.6047
 20
52.4868
 30
0.0
 10
94.9702
 20
53.8103
 30
0.0
 10
94.9702
 20
53.8103
 30
0.0
 10
95.5248
 20
51.2724
 30
0.0
 10
96.4086
 20
49.4733
 30
0.0
 10
98.0772
 20
47.6798
 30
0.0
 10
98.0772
 20
47.6798
 30
0.0
 10
98.0772
 20
47.6798
 30
0.0
 10
98.0772
 20
47.6799
 30
0.0
 10
98.0772
 20
47.6799
 30
0.0
  0
SPLINE
  5
A7
330
1F
100
AcDbEntity
  8
layer 1
 62
     7
100
AcDbSpline
210
0.0
220
0.0
230
1.0
 70
    11
 71
     3
 72
    16
 73
    12
 74
     0
 42
0.0000000001
 43
0.0000000001
 12
1.0
 22
0.0
 32
0.0
 13
1.0
 23
0.0
 33
0.0
 40
0.0
 40
0.0
 40
0.0
 40
0.0
 40
0.25
 40
0.25
 40
0.25
 40
0.25
 40
0.5
 40
0.5
 40
0.5
 40
0.5
 40
1.0
 40
1.0
 40
1.0
 40
1.0
 10
88.2834
 20
41.7898
 30
0.0
 10
91.0251
 20
43.2834
 30
0.0
 10
102.1001
 20
43.4737
 30
0.0
 10
104.8425
 20
41.9456
 30
0.0
 10
104.8425
 20
41.9456
 30
0.0
 10
103.7141
 20
39.6917
 30
0.0
 10
99.8075
 20
36.6928
 30
0.0
 10
96.5144
 20
36.7228
 30
0.0
 10
96.5144
 20
36.7228
 30
0.0
 10
92.6727
 20
36.7228
 30
0.0
 10
89.9521
 20
39.9963
 30
0.0
 10
88.2834
 20
41.7898
 30
0.0
  0
SPLINE
  5
A8
330
1F
100
AcDbEntity
  8
layer 1
 62
     7
100
AcDbSpline
210
0.0
220
0.0
230
1.0
 70
    11
 71
     3
 72
    16
 73
    12
 74
     0
 42
0.0000000001
 43
0.0000000001
 12
1.0
 22
0.0
 32
0.0
 13
1.0
 23
0.0
 33
0.0
 40
0.0
 40
0.0
 40
0.0
 40
0.0
 40
0.25
 40
0.25
 40
0.25
 40
0.25
 40
0.5
 40
0.5
 40
0.5
 40
0.5
 40
1.0
 40
1.0
 40
1.0
 40
1.0
 10
88.2834
 20
70.4217
 30
0.0
 10
91.0251
 20
68.928
 30
0.0
 10
102.1001
 20
68.7377
 30
0.0
 10
104.8425
 20
70.2658
 30
0.0
 10
104.8425
 20
70.2658
 30
0.0
 10
103.7141
 20
72.5197
 30
0.0
 10
99.8075
 20
75.5186
 30
0.0
 10
96.5144
 20
75.4886
 30
0.0
 10
96.5144
 20
75.4886
 30
0.0
 10
92.6727
 20
75.4886
 30
0.0
 10
89.9521
 20
72.2152
 30
0.0
 10
88.2834
 20
70.4217
 30
0.0
  0
SPLINE
  5
A9
330
1F
100
AcDbEntity
  8
layer 1
 62
     7
100
AcDbSpline
210
0.0
220
0.0
230
1.0
 70
    11
 71
     3
 72
    16
 73
    12
 74
     0
 42
0.0000000001
 43
0.0000000001
 12
1.0
 22
0.0
 32
0.0
 13
1.0
 23
0.0
 33
0.0
 40
0.0
 40
0.0
 40
0.0
 40
0.0
 40
0.25
 40
0.25
 40
0.25
 40
0.25
 40
0.5
 40
0.5
 40
0.5
 40
0.5
 40
1.0
 40
1.0
 40
1.0
 40
1.0
 10
110.9756
 20
64.4819
 30
0.0
 10
109.4819
 20
61.7403
 30
0.0
 10
109.2916
 20
50.6653
 30
0.0
 10
110.8197
 20
47.9229
 30
0.0
 10
110.8197
 20
47.9229
 30
0.0
 10
113.0736
 20
49.0513
 30
0.0
 10
116.0725
 20
52.9579
 30
0.0
 10
116.0426
 20
56.2509
 30
0.0
 10
116.0426
 20
56.2509
 30
0.0
 10
116.0426
 20
60.0926
 30
0.0
 10
112.7691
 20
62.8133
 30
0.0
 10
110.9756
 20
64.4819
 30
0.0
  0
SPLINE
  5
AA
330
1F
100
AcDbEntity
  8
layer 1
 62
     7
100
AcDbSpline
210
0.0
220
0.0
230
1.0
 70
    11
 71
     3
 72
    20
 73
    16
 74
     0
 42
0.0000000001
 43
0.0000000001
 12
1.0
 22
0.0
 32
0.0
 13
1.0
 23
0.0
 33
0.0
 40
0.0
 40
0.0
 40
0.0
 40
0.0
 40
0.2
 40
0.2
 40
0.2
 40
0.2
 40
0.4
 40
0.4
 40
0.4
 40
0.4
 40
0.6
 40
0.6
 40
0.6
 40
0.6
 40
1.0
 40
1.0
 40
1.0
 40
1.0
 10
88.2588
 20
98.7722
 30
0.0
 10
88.4811
 20
99.9428
 30
0.0
 10
88.0492
 20
106.6914
 30
0.0
 10
86.9669
 20
108.2979
 30
0.0
 10
86.9669
 20
108.2979
 30
0.0
 10
90.1151
 20
107.6045
 30
0.0
 10
93.0657
 20
105.2447
 30
0.0
 10
94.3891
 20
101.8792
 30
0.0
 10
94.3891
 20
101.8792
 30
0.0
 10
91.8513
 20
101.3246
 30
0.0
 10
90.0522
 20
100.4408
 30
0.0
 10
88.2587
 20
98.7722
 30
0.0
 10
88.2587
 20
98.7722
 30
0.0
 10
88.2587
 20
98.7722
 30
0.0
 10
88.2588
 20
98.7722
 30
0.0
 10
88.2588
 20
98.7722
 30
0.0
  0
SPLINE
  5
AB
330
1F
100
AcDbEntity
  8
layer 1
 62
     7
100
AcDbSpline
210
0.0
220
0.0
230
1.0
 70
    11
 71
     3
 72
    20
 73
    16
 74
     0
 42
0.0000000001
 43
0.0000000001
 12
1.0
 22
0.0
 32
0.0
 13
1.0
 23
0.0
 33
0.0
 40
0.0
 40
0.0
 40
0.0
 40
0.0
 40
0.2
 40
0.2
 40
0.2
 40
0.2
 40
0.4
 40
0.4
 40
0.4
 40
0.4
 40
0.6
 40
0.6
 40
0.6
 40
0.6
 40
1.0
 40
1.0
 40
1.0
 40
1.0
 10
95.4504
 20
108.3966
 30
0.0
 10
96.621
 20
108.1743
 30
0.0
 10
103.3697
 20
108.6062
 30
0.0
 10
104.9762
 20
109.6885
 30
0.0
 10
104.9762
 20
109.6885
 30
0.0
 10
104.2827
 20
106.5403
 30
0.0
 10
101.923
 20
103.5897
 30
0.0
 10
98.5575
 20
102.2663
 30
0.0
 10
98.5575
 20
102.2663
 30
0.0
 10
98.0029
 20
104.8041
 30
0.0
 10
97.1191
 20
106.6032
 30
0.0
 10
95.4504
 20
108.3967
 30
0.0
 10
95.4504
 20
108.3967
 30
0.0
 10
95.4504
 20
108.3967
 30
0.0
 10
95.4504
 20
108.3966
 30
0.0
 10
95.4504
 20
108.3966
 30
0.0
  0
SPLINE
  5
AC
330
1F
100
AcDbEntity
  8
layer 1
 62
     7
100
AcDbSpline
210
0.0
220
0.0
230
1.0
 70
    11
 71
     3
 72
    20
 73
    16
 74
     0
 42
0.0000000001
 43
0.0000000001
 12
1.0
 22
0.0
 32
0.0
 13
1.0
 23
0.0
 33
0.0
 40
0.0
 40
0.0
 40
0.0
 40
0.0
 40
0.2
 40
0.2
 40
0.2
 40
0.2
 40
0.4
 40
0.4
 40
0.4
 40
0.4
 40
0.6
 40
0.6
 40
0.6
 40
0.6
 40
1.0
 40
1.0
 40
1.0
 40
1.0
 10
105.16
 20
101.1765
 30
0.0
 10
104.9377
 20
100.0059
 30
0.0
 10
105.3696
 20
93.2573
 30
0.0
 10
106.4519
 20
91.6508
 30
0.0
 10
106.4519
 20
91.6508
 30
0.0
 10
103.3037
 20
92.3442
 30
0.0
 10
100.3531
 20
94.7039
 30
0.0
 10
99.0297
 20
98.0695
 30
0.0
 10
99.0297
 20
98.0695
 30
0.0
 10
101.5675
 20
98.624
 30
0.0
 10
103.3666
 20
99.5079
 30
0.0
 10
105.1601
 20
101.1765
 30
0.0
 10
105.1601
 20
101.1765
 30
0.0
 10
105.1601
 20
101.1765
 30
0.0
 10
105.16
 20
101.1765
 30
0.0
 10
105.16
 20
101.1765
 30
0.0
  0
SPLINE
  5
AD
330
1F
100
AcDbEntity
  8
layer 1
 62
     7
100
AcDbSpline
210
0.0
220
0.0
230
1.0
 70
    11
 71
     3
 72
    20
 73
    16
 74
     0
 42
0.0000000001
 43
0.0000000001
 12
1.0
 22
0.0
 32
0.0
 13
1.0
 23
0.0
 33
0.0
 40
0.0
 40
0.0
 40
0.0
 40
0.0
 40
0.2
 40
0.2
 40
0.2
 40
0.2
 40
0.4
 40
0.4
 40
0.4
 40
0.4
 40
0.6
 40
0.6
 40
0.6
 40
0.6
 40
1.0
 40
1.0
 40
1.0
 40
1.0
 10
98.0772
 20
91.439
 30
0.0
 10
96.9066
 20
91.6613
 30
0.0
 10
90.158
 20
91.2294
 30
0.0
 10
88.5515
 20
90.1471
 30
0.0
 10
88.5515
 20
90.1471
 30
0.0
 10
89.2449
 20
93.2952
 30
0.0
 10
91.6047
 20
96.2459
 30
0.0
 10
94.9702
 20
97.5693
 30
0.0
 10
94.9702
 20
97.5693
 30
0.0
 10
95.5248
 20
95.0314
 30
0.0
 10
96.4086
 20
93.2324
 30
0.0
 10
98.0772
 20
91.4389
 30
0.0
 10
98.0772
 20
91.4389
 30
0.0
 10
98.0772
 20
91.4389
 30
0.0
 10
98.0772
 20
91.439
 30
0.0
 10
98.0772
 20
91.439
 30
0.0
  0
SPLINE
  5
AE
330
1F
100
AcDbEntity
  8
layer 1
 62
     7
100
AcDbSpline
210
0.0
220
0.0
230
1.0
 70
    11
 71
     3
 72
    16
 73
    12
 74
     0
 42
0.0000000001
 43
0.0000000001
 12
1.0
 22
0.0
 32
0.0
 13
1.0
 23
0.0
 33
0.0
 40
0.0
 40
0.0
 40
0.0
 40
0.0
 40
0.25
 40
0.25
 40
0.25
 40
0.25
 40
0.5
 40
0.5
 40
0.5
 40
0.5
 40
1.0
 40
1.0
 40
1.0
 40
1.0
 10
88.2834
 20
85.5489
 30
0.0
 10
91.0251
 20
87.0426
 30
0.0
 10
102.1001
 20
87.2329
 30
0.0
 10
104.8425
 20
85.7048
 30
0.0
 10
104.8425
 20
85.7048
 30
0.0
 10
103.7141
 20
83.4509
 30
0.0
 10
99.8075
 20
80.452
 30
0.0
 10
96.5144
 20
80.482
 30
0.0
 10
96.5144
 20
80.482
 30
0.0
 10
92.6727
 20
80.482
 30
0.0
 10
89.9521
 20
83.7554
 30
0.0
 10
88.2834
 20
85.5489
 30
0.0
  0
SPLINE
  5
AF
330
1F
100
AcDbEntity
  8
layer 1
 62
     7
100
AcDbSpline
210
0.0
220
0.0
230
1.0
 70
    11
 71
     3
 72
    16
 73
    12
 74
     0
 42
0.0000000001
 43
0.0000000001
 12
1.0
 22
0.0
 32
0.0
 13
1.0
 23
0.0
 33
0.0
 40
0.0
 40
0.0
 40
0.0
 40
0.0
 40
0.25
 40
0.25
 40
0.25
 40
0.25
 40
0.5
 40
0.5
 40
0.5
 40
0.5
 40
1.0
 40
1.0
 40
1.0
 40
1.0
 10
88.2834
 20
114.1808
 30
0.0
 10
91.0251
 20
112.6872
 30
0.0
 10
102.1001
 20
112.4968
 30
0.0
 10
104.8425
 20
114.0249
 30
0.0
 10
104.8425
 20
114.0249
 30
0.0
 10
103.7141
 20
116.2789
 30
0.0
 10
99.8075
 20
119.2778
 30
0.0
 10
96.5144
 20
119.2478
 30
0.0
 10
96.5144
 20
119.2478
 30
0.0
 10
92.6727
 20
119.2478
 30
0.0
 10
89.9521
 20
115.9743
 30
0.0
 10
88.2834
 20
114.1808
 30
0.0
  0
SPLINE
  5
B0
330
1F
100
AcDbEntity
  8
layer 1
 62
     7
100
AcDbSpline
210
0.0
220
0.0
230
1.0
 70
    11
 71
     3
 72
    16
 73
    12
 74
     0
 42
0.0000000001
 43
0.0000000001
 12
1.0
 22
0.0
 32
0.0
 13
1.0
 23
0.0
 33
0.0
 40
0.0
 40
0.0
 40
0.0
 40
0.0
 40
0.25
 40
0.25
 40
0.25
 40
0.25
 40
0.5
 40
0.5
 40
0.5
 40
0.5
 40
1.0
 40
1.0
 40
1.0
 40
1.0
 10
110.9756
 20
108.2411
 30
0.0
 10
109.4819
 20
105.4995
 30
0.0
 10
109.2916
 20
94.4244
 30
0.0
 10
110.8197
 20
91.682
 30
0.0
 10
110.8197
 20
91.682
 30
0.0
 10
113.0736
 20
92.8104
 30
0.0
 10
116.0725
 20
96.7171
 30
0.0
 10
116.0426
 20
100.0101
 30
0.0
 10
116.0426
 20
100.0101
 30
0.0
 10
116.0426
 20
103.8518
 30
0.0
 10
112.7691
 20
106.5725
 30
0.0
 10
110.9756
 20
108.2411
 30
0.0
  0
SPLINE
  5
B1
330
1F
100
AcDbEntity
  8
layer 1
 62
     7
100
AcDbSpline
210
0.0
220
0.0
230
1.0
 70
    11
 71
     3
 72
    20
 73
    16
 74
     0
 42
0.0000000001
 43
0.0000000001
 12
1.0
 22
0.0
 32
0.0
 13
1.0
 23
0.0
 33
0.0
 40
0.0
 40
0.0
 40
0.0
 40
0.0
 40
0.2
 40
0.2
 40
0.2
 40
0.2
 40
0.4
 40
0.4
 40
0.4
 40
0.4
 40
0.6
 40
0.6
 40
0.6
 40
0.6
 40
1.0
 40
1.0
 40
1.0
 40
1.0
 10
174.7595
 20
98.7722
 30
0.0
 10
174.9818
 20
99.9428
 30
0.0
 10
174.5499
 20
106.6914
 30
0.0
 10
173.4676
 20
108.2979
 30
0.0
 10
173.4676
 20
108.2979
 30
0.0
 10
176.6158
 20
107.6045
 30
0.0
 10
179.5664
 20
105.2447
 30
0.0
 10
180.8898
 20
101.8792
 30
0.0
 10
180.8898
 20
101.8792
 30
0.0
 10
178.352
 20
101.3246
 30
0.0
 10
176.5529
 20
100.4408
 30
0.0
 10
174.7594
 20
98.7722
 30
0.0
 10
174.7594
 20
98.7722
 30
0.0
 10
174.7594
 20
98.7722
 30
0.0
 10
174.7595
 20
98.7722
 30
0.0
 10
174.7595
 20
98.7722
 30
0.0
  0
SPLINE
  5
B2
330
1F
100
AcDbEntity
  8
layer 1
 62
     7
100
AcDbSpline
210
0.0
220
0.0
230
1.0
 70
    11
 71
     3
 72
    20
 73
    16
 74
     0
 42
0.0000000001
 43
0.0000000001
 12
1.0
 22
0.0
 32
0.0
 13
1.0
 23
0.0
 33
0.0
 40
0.0
 40
0.0
 40
0.0
 40
0.0
 40
0.2
 40
0.2
 40
0.2
 40
0.2
 40
0.4
 40
0.4
 40
0.4
 40
0.4
 40
0.6
 40
0.6
 40
0.6
 40
0.6
 40
1.0
 40
1.0
 40
1.0
 40
1.0
 10
181.9512
 20
108.3966
 30
0.0
 10
183.1218
 20
108.1743
 30
0.0
 10
189.8704
 20
108.6062
 30
0.0
 10
191.4769
 20
109.6885
 30
0.0
 10
191.4769
 20
109.6885
 30
0.0
 10
190.7835
 20
106.5403
 30
0.0
 10
188.4237
 20
103.5897
 30
0.0
 10
185.0582
 20
102.2663
 30
0.0
 10
185.0582
 20
102.2663
 30
0.0
 10
184.5036
 20
104.8041
 30
0.0
 10
183.6198
 20
106.6032
 30
0.0
 10
181.9512
 20
108.3967
 30
0.0
 10
181.9512
 20
108.3967
 30
0.0
 10
181.9512
 20
108.3967
 30
0.0
 10
181.9512
 20
108.3966
 30
0.0
 10
181.9512
 20
108.3966
 30
0.0
  0
SPLINE
  5
B3
330
1F
100
AcDbEntity
  8
layer 1
 62
     7
100
AcDbSpline
210
0.0
220
0.0
230
1.0
 70
    11
 71
     3
 72
    20
 73
    16
 74
     0
 42
0.0000000001
 43
0.0000000001
 12
1.0
 22
0.0
 32
0.0
 13
1.0
 23
0.0
 33
0.0
 40
0.0
 40
0.0
 40
0.0
 40
0.0
 40
0.2
 40
0.2
 40
0.2
 40
0.2
 40
0.4
 40
0.4
 40
0.4
 40
0.4
 40
0.6
 40
0.6
 40
0.6
 40
0.6
 40
1.0
 40
1.0
 40
1.0
 40
1.0
 10
191.6607
 20
101.1765
 30
0.0
 10
191.4384
 20
100.0059
 30
0.0
 10
191.8703
 20
93.2573
 30
0.0
 10
192.9526
 20
91.6508
 30
0.0
 10
192.9526
 20
91.6508
 30
0.0
 10
189.8045
 20
92.3442
 30
0.0
 10
186.8538
 20
94.7039
 30
0.0
 10
185.5304
 20
98.0695
 30
0.0
 10
185.5304
 20
98.0695
 30
0.0
 10
188.0683
 20
98.624
 30
0.0
 10
189.8673
 20
99.5079
 30
0.0
 10
191.6608
 20
101.1765
 30
0.0
 10
191.6608
 20
101.1765
 30
0.0
 10
191.6608
 20
101.1765
 30
0.0
 10
191.6607
 20
101.1765
 30
0.0
 10
191.6607
 20
101.1765
 30
0.0
  0
SPLINE
  5
B4
330
1F
100
AcDbEntity
  8
layer 1
 62
     7
100
AcDbSpline
210
0.0
220
0.0
230
1.0
 70
    11
 71
     3
 72
    20
 73
    16
 74
     0
 42
0.0000000001
 43
0.0000000001
 12
1.0
 22
0.0
 32
0.0
 13
1.0
 23
0.0
 33
0.0
 40
0.0
 40
0.0
 40
0.0
 40
0.0
 40
0.2
 40
0.2
 40
0.2
 40
0.2
 40
0.4
 40
0.4
 40
0.4
 40
0.4
 40
0.6
 40
0.6
 40
0.6
 40
0.6
 40
1.0
 40
1.0
 40
1.0
 40
1.0
 10
184.5779
 20
91.439
 30
0.0
 10
183.4073
 20
91.6613
 30
0.0
 10
176.6587
 20
91.2294
 30
0.0
 10
175.0522
 20
90.1471
 30
0.0
 10
175.0522
 20
90.1471
 30
0.0
 10
175.7456
 20
93.2952
 30
0.0
 10
178.1054
 20
96.2459
 30
0.0
 10
181.4709
 20
97.5693
 30
0.0
 10
181.4709
 20
97.5693
 30
0.0
 10
182.0255
 20
95.0314
 30
0.0
 10
182.9093
 20
93.2324
 30
0.0
 10
184.5779
 20
91.4389
 30
0.0
 10
184.5779
 20
91.4389
 30
0.0
 10
184.5779
 20
91.4389
 30
0.0
 10
184.5779
 20
91.439
 30
0.0
 10
184.5779
 20
91.439
 30
0.0
  0
SPLINE
  5
B5
330
1F
100
AcDbEntity
  8
layer 1
 62
     7
100
AcDbSpline
210
0.0
220
0.0
230
1.0
 70
    11
 71
     3
 72
    16
 73
    12
 74
     0
 42
0.0000000001
 43
0.0000000001
 12
1.0
 22
0.0
 32
0.0
 13
1.0
 23
0.0
 33
0.0
 40
0.0
 40
0.0
 40
0.0
 40
0.0
 40
0.25
 40
0.25
 40
0.25
 40
0.25
 40
0.5
 40
0.5
 40
0.5
 40
0.5
 40
1.0
 40
1.0
 40
1.0
 40
1.0
 10
169.231
 20
108.2411
 30
0.0
 10
170.7247
 20
105.4995
 30
0.0
 10
170.915
 20
94.4244
 30
0.0
 10
169.3869
 20
91.682
 30
0.0
 10
169.3869
 20
91.682
 30
0.0
 10
167.133
 20
92.8104
 30
0.0
 10
164.1341
 20
96.7171
 30
0.0
 10
164.1641
 20
100.0101
 30
0.0
 10
164.1641
 20
100.0101
 30
0.0
 10
164.1641
 20
103.8518
 30
0.0
 10
167.4375
 20
106.5725
 30
0.0
 10
169.231
 20
108.2411
 30
0.0
  0
SPLINE
  5
B6
330
1F
100
AcDbEntity
  8
layer 1
 62
     7
100
AcDbSpline
210
0.0
220
0.0
230
1.0
 70
    11
 71
     3
 72
    16
 73
    12
 74
     0
 42
0.0000000001
 43
0.0000000001
 12
1.0
 22
0.0
 32
0.0
 13
1.0
 23
0.0
 33
0.0
 40
0.0
 40
0.0
 40
0.0
 40
0.0
 40
0.25
 40
0.25
 40
0.25
 40
0.25
 40
0.5
 40
0.5
 40
0.5
 40
0.5
 40
1.0
 40
1.0
 40
1.0
 40
1.0
 10
174.784
 20
85.5489
 30
0.0
 10
177.5257
 20
87.0426
 30
0.0
 10
188.6007
 20
87.2329
 30
0.0
 10
191.3431
 20
85.7048
 30
0.0
 10
191.3431
 20
85.7048
 30
0.0
 10
190.2147
 20
83.4509
 30
0.0
 10
186.308
 20
80.452
 30
0.0
 10
183.015
 20
80.482
 30
0.0
 10
183.015
 20
80.482
 30
0.0
 10
179.1733
 20
80.482
 30
0.0
 10
176.4526
 20
83.7554
 30
0.0
 10
174.784
 20
85.5489
 30
0.0
  0
SPLINE
  5
B7
330
1F
100
AcDbEntity
  8
layer 1
 62
     7
100
AcDbSpline
210
0.0
220
0.0
230
1.0
 70
    11
 71
     3
 72
    16
 73
    12
 74
     0
 42
0.0000000001
 43
0.0000000001
 12
1.0
 22
0.0
 32
0.0
 13
1.0
 23
0.0
 33
0.0
 40
0.0
 40
0.0
 40
0.0
 40
0.0
 40
0.25
 40
0.25
 40
0.25
 40
0.25
 40
0.5
 40
0.5
 40
0.5
 40
0.5
 40
1.0
 40
1.0
 40
1.0
 40
1.0
 10
174.784
 20
114.1808
 30
0.0
 10
177.5257
 20
112.6872
 30
0.0
 10
188.6007
 20
112.4968
 30
0.0
 10
191.3431
 20
114.0249
 30
0.0
 10
191.3431
 20
114.0249
 30
0.0
 10
190.2147
 20
116.2789
 30
0.0
 10
186.308
 20
119.2778
 30
0.0
 10
183.015
 20
119.2478
 30
0.0
 10
183.015
 20
119.2478
 30
0.0
 10
179.1733
 20
119.2478
 30
0.0
 10
176.4526
 20
115.9743
 30
0.0
 10
174.784
 20
114.1808
 30
0.0
  0
SPLINE
  5
B8
330
1F
100
AcDbEntity
  8
layer 1
 62
     7
100
AcDbSpline
210
0.0
220
0.0
230
1.0
 70
    11
 71
     3
 72
    20
 73
    16
 74
     0
 42
0.0000000001
 43
0.0000000001
 12
1.0
 22
0.0
 32
0.0
 13
1.0
 23
0.0
 33
0.0
 40
0.0
 40
0.0
 40
0.0
 40
0.0
 40
0.2
 40
0.2
 40
0.2
 40
0.2
 40
0.4
 40
0.4
 40
0.4
 40
0.4
 40
0.6
 40
0.6
 40
0.6
 40
0.6
 40
1.0
 40
1.0
 40
1.0
 40
1.0
 10
174.7595
 20
55.0131
 30
0.0
 10
174.9818
 20
56.1837
 30
0.0
 10
174.5499
 20
62.9323
 30
0.0
 10
173.4676
 20
64.5388
 30
0.0
 10
173.4676
 20
64.5388
 30
0.0
 10
176.6158
 20
63.8454
 30
0.0
 10
179.5664
 20
61.4857
 30
0.0
 10
180.8898
 20
58.1201
 30
0.0
 10
180.8898
 20
58.1201
 30
0.0
 10
178.352
 20
57.5656
 30
0.0
 10
176.5529
 20
56.6817
 30
0.0
 10
174.7594
 20
55.0131
 30
0.0
 10
174.7594
 20
55.0131
 30
0.0
 10
174.7594
 20
55.0131
 30
0.0
 10
174.7595
 20
55.0131
 30
0.0
 10
174.7595
 20
55.0131
 30
0.0
  0
SPLINE
  5
B9
330
1F
100
AcDbEntity
  8
layer 1
 62
     7
100
AcDbSpline
210
0.0
220
0.0
230
1.0
 70
    11
 71
     3
 72
    20
 73
    16
 74
     0
 42
0.0000000001
 43
0.0000000001
 12
1.0
 22
0.0
 32
0.0
 13
1.0
 23
0.0
 33
0.0
 40
0.0
 40
0.0
 40
0.0
 40
0.0
 40
0.2
 40
0.2
 40
0.2
 40
0.2
 40
0.4
 40
0.4
 40
0.4
 40
0.4
 40
0.6
 40
0.6
 40
0.6
 40
0.6
 40
1.0
 40
1.0
 40
1.0
 40
1.0
 10
181.9512
 20
64.6374
 30
0.0
 10
183.1218
 20
64.4151
 30
0.0
 10
189.8704
 20
64.847
 30
0.0
 10
191.4769
 20
65.9293
 30
0.0
 10
191.4769
 20
65.9293
 30
0.0
 10
190.7835
 20
62.7812
 30
0.0
 10
188.4237
 20
59.8305
 30
0.0
 10
185.0582
 20
58.5071
 30
0.0
 10
185.0582
 20
58.5071
 30
0.0
 10
184.5036
 20
61.045
 30
0.0
 10
183.6198
 20
62.8441
 30
0.0
 10
181.9512
 20
64.6375
 30
0.0
 10
181.9512
 20
64.6375
 30
0.0
 10
181.9512
 20
64.6375
 30
0.0
 10
181.9512
 20
64.6374
 30
0.0
 10
181.9512
 20
64.6374
 30
0.0
  0
SPLINE
  5
BA
330
1F
100
AcDbEntity
  8
layer 1
 62
     7
100
AcDbSpline
210
0.0
220
0.0
230
1.0
 70
    11
 71
     3
 72
    20
 73
    16
 74
     0
 42
0.0000000001
 43
0.0000000001
 12
1.0
 22
0.0
 32
0.0
 13
1.0
 23
0.0
 33
0.0
 40
0.0
 40
0.0
 40
0.0
 40
0.0
 40
0.2
 40
0.2
 40
0.2
 40
0.2
 40
0.4
 40
0.4
 40
0.4
 40
0.4
 40
0.6
 40
0.6
 40
0.6
 40
0.6
 40
1.0
 40
1.0
 40
1.0
 40
1.0
 10
191.6607
 20
57.4173
 30
0.0
 10
191.4384
 20
56.2467
 30
0.0
 10
191.8703
 20
49.4981
 30
0.0
 10
192.9526
 20
47.8916
 30
0.0
 10
192.9526
 20
47.8916
 30
0.0
 10
189.8045
 20
48.585
 30
0.0
 10
186.8538
 20
50.9448
 30
0.0
 10
185.5304
 20
54.3103
 30
0.0
 10
185.5304
 20
54.3103
 30
0.0
 10
188.0683
 20
54.8649
 30
0.0
 10
189.8673
 20
55.7487
 30
0.0
 10
191.6608
 20
57.4173
 30
0.0
 10
191.6608
 20
57.4173
 30
0.0
 10
191.6608
 20
57.4173
 30
0.0
 10
191.6607
 20
57.4173
 30
0.0
 10
191.6607
 20
57.4173
 30
0.0
  0
SPLINE
  5
BB
330
1F
100
AcDbEntity
  8
layer 1
 62
     7
100
AcDbSpline
210
0.0
220
0.0
230
1.0
 70
    11
 71
     3
 72
    20
 73
    16
 74
     0
 42
0.0000000001
 43
0.0000000001
 12
1.0
 22
0.0
 32
0.0
 13
1.0
 23
0.0
 33
0.0
 40
0.0
 40
0.0
 40
0.0
 40
0.0
 40
0.2
 40
0.2
 40
0.2
 40
0.2
 40
0.4
 40
0.4
 40
0.4
 40
0.4
 40
0.6
 40
0.6
 40
0.6
 40
0.6
 40
1.0
 40
1.0
 40
1.0
 40
1.0
 10
184.5779
 20
47.6799
 30
0.0
 10
183.4073
 20
47.9023
 30
0.0
 10
176.6587
 20
47.4703
 30
0.0
 10
175.0522
 20
46.388
 30
0.0
 10
175.0522
 20
46.388
 30
0.0
 10
175.7456
 20
49.5362
 30
0.0
 10
178.1054
 20
52.4868
 30
0.0
 10
181.4709
 20
53.8103
 30
0.0
 10
181.4709
 20
53.8103
 30
0.0
 10
182.0255
 20
51.2724
 30
0.0
 10
182.9093
 20
49.4733
 30
0.0
 10
184.5779
 20
47.6798
 30
0.0
 10
184.5779
 20
47.6798
 30
0.0
 10
184.5779
 20
47.6798
 30
0.0
 10
184.5779
 20
47.6799
 30
0.0
 10
184.5779
 20
47.6799
 30
0.0
  0
SPLINE
  5
BC
330
1F
100
AcDbEntity
  8
layer 1
 62
     7
100
AcDbSpline
210
0.0
220
0.0
230
1.0
 70
    11
 71
     3
 72
    16
 73
    12
 74
     0
 42
0.0000000001
 43
0.0000000001
 12
1.0
 22
0.0
 32
0.0
 13
1.0
 23
0.0
 33
0.0
 40
0.0
 40
0.0
 40
0.0
 40
0.0
 40
0.25
 40
0.25
 40
0.25
 40
0.25
 40
0.5
 40
0.5
 40
0.5
 40
0.5
 40
1.0
 40
1.0
 40
1.0
 40
1.0
 10
169.231
 20
64.4819
 30
0.0
 10
170.7247
 20
61.7403
 30
0.0
 10
170.915
 20
50.6653
 30
0.0
 10
169.3869
 20
47.9229
 30
0.0
 10
169.3869
 20
47.9229
 30
0.0
 10
167.133
 20
49.0513
 30
0.0
 10
164.1341
 20
52.9579
 30
0.0
 10
164.1641
 20
56.2509
 30
0.0
 10
164.1641
 20
56.2509
 30
0.0
 10
164.1641
 20
60.0926
 30
0.0
 10
167.4375
 20
62.8133
 30
0.0
 10
169.231
 20
64.4819
 30
0.0
  0
SPLINE
  5
BD
330
1F
100
AcDbEntity
  8
layer 1
 62
     7
100
AcDbSpline
210
0.0
220
0.0
230
1.0
 70
    11
 71
     3
 72
    16
 73
    12
 74
     0
 42
0.0000000001
 43
0.0000000001
 12
1.0
 22
0.0
 32
0.0
 13
1.0
 23
0.0
 33
0.0
 40
0.0
 40
0.0
 40
0.0
 40
0.0
 40
0.25
 40
0.25
 40
0.25
 40
0.25
 40
0.5
 40
0.5
 40
0.5
 40
0.5
 40
1.0
 40
1.0
 40
1.0
 40
1.0
 10
174.784
 20
41.7898
 30
0.0
 10
177.5257
 20
43.2834
 30
0.0
 10
188.6007
 20
43.4737
 30
0.0
 10
191.3431
 20
41.9456
 30
0.0
 10
191.3431
 20
41.9456
 30
0.0
 10
190.2147
 20
39.6917
 30
0.0
 10
186.308
 20
36.6928
 30
0.0
 10
183.015
 20
36.7228
 30
0.0
 10
183.015
 20
36.7228
 30
0.0
 10
179.1733
 20
36.7228
 30
0.0
 10
176.4526
 20
39.9963
 30
0.0
 10
174.784
 20
41.7898
 30
0.0
  0
SPLINE
  5
BE
330
1F
100
AcDbEntity
  8
layer 1
 62
     7
100
AcDbSpline
210
0.0
220
0.0
230
1.0
 70
    11
 71
     3
 72
    16
 73
    12
 74
     0
 42
0.0000000001
 43
0.0000000001
 12
1.0
 22
0.0
 32
0.0
 13
1.0
 23
0.0
 33
0.0
 40
0.0
 40
0.0
 40
0.0
 40
0.0
 40
0.25
 40
0.25
 40
0.25
 40
0.25
 40
0.5
 40
0.5
 40
0.5
 40
0.5
 40
1.0
 40
1.0
 40
1.0
 40
1.0
 10
174.784
 20
70.4217
 30
0.0
 10
177.5257
 20
68.928
 30
0.0
 10
188.6007
 20
68.7377
 30
0.0
 10
191.3431
 20
70.2658
 30
0.0
 10
191.3431
 20
70.2658
 30
0.0
 10
190.2147
 20
72.5197
 30
0.0
 10
186.308
 20
75.5186
 30
0.0
 10
183.015
 20
75.4886
 30
0.0
 10
183.015
 20
75.4886
 30
0.0
 10
179.1733
 20
75.4886
 30
0.0
 10
176.4526
 20
72.2152
 30
0.0
 10
174.784
 20
70.4217
 30
0.0
  0
SPLINE
  5
BF
330
1F
100
AcDbEntity
  8
layer 1
 62
     7
100
AcDbSpline
210
0.0
220
0.0
230
1.0
 70
    11
 71
     3
 72
    20
 73
    16
 74
     0
 42
0.0000000001
 43
0.0000000001
 12
1.0
 22
0.0
 32
0.0
 13
1.0
 23
0.0
 33
0.0
 40
0.0
 40
0.0
 40
0.0
 40
0.0
 40
0.2
 40
0.2
 40
0.2
 40
0.2
 40
0.4
 40
0.4
 40
0.4
 40
0.4
 40
0.6
 40
0.6
 40
0.6
 40
0.6
 40
1.0
 40
1.0
 40
1.0
 40
1.0
 10
174.7595
 20
11.2539
 30
0.0
 10
174.9818
 20
12.4245
 30
0.0
 10
174.5499
 20
19.1732
 30
0.0
 10
173.4676
 20
20.7797
 30
0.0
 10
173.4676
 20
20.7797
 30
0.0
 10
176.6158
 20
20.0862
 30
0.0
 10
179.5664
 20
17.7265
 30
0.0
 10
180.8898
 20
14.361
 30
0.0
 10
180.8898
 20
14.361
 30
0.0
 10
178.352
 20
13.8064
 30
0.0
 10
176.5529
 20
12.9226
 30
0.0
 10
174.7594
 20
11.2539
 30
0.0
 10
174.7594
 20
11.2539
 30
0.0
 10
174.7594
 20
11.2539
 30
0.0
 10
174.7595
 20
11.2539
 30
0.0
 10
174.7595
 20
11.2539
 30
0.0
  0
SPLINE
  5
C0
330
1F
100
AcDbEntity
  8
layer 1
 62
     7
100
AcDbSpline
210
0.0
220
0.0
230
1.0
 70
    11
 71
     3
 72
    20
 73
    16
 74
     0
 42
0.0000000001
 43
0.0000000001
 12
1.0
 22
0.0
 32
0.0
 13
1.0
 23
0.0
 33
0.0
 40
0.0
 40
0.0
 40
0.0
 40
0.0
 40
0.2
 40
0.2
 40
0.2
 40
0.2
 40
0.4
 40
0.4
 40
0.4
 40
0.4
 40
0.6
 40
0.6
 40
0.6
 40
0.6
 40
1.0
 40
1.0
 40
1.0
 40
1.0
 10
181.9512
 20
20.8782
 30
0.0
 10
183.1218
 20
20.6559
 30
0.0
 10
189.8704
 20
21.0879
 30
0.0
 10
191.4769
 20
22.1702
 30
0.0
 10
191.4769
 20
22.1702
 30
0.0
 10
190.7835
 20
19.022
 30
0.0
 10
188.4237
 20
16.0714
 30
0.0
 10
185.0582
 20
14.7479
 30
0.0
 10
185.0582
 20
14.7479
 30
0.0
 10
184.5036
 20
17.2858
 30
0.0
 10
183.6198
 20
19.0849
 30
0.0
 10
181.9512
 20
20.8784
 30
0.0
 10
181.9512
 20
20.8784
 30
0.0
 10
181.9512
 20
20.8784
 30
0.0
 10
181.9512
 20
20.8782
 30
0.0
 10
181.9512
 20
20.8782
 30
0.0
  0
SPLINE
  5
C1
330
1F
100
AcDbEntity
  8
layer 1
 62
     7
100
AcDbSpline
210
0.0
220
0.0
230
1.0
 70
    11
 71
     3
 72
    20
 73
    16
 74
     0
 42
0.0000000001
 43
0.0000000001
 12
1.0
 22
0.0
 32
0.0
 13
1.0
 23
0.0
 33
0.0
 40
0.0
 40
0.0
 40
0.0
 40
0.0
 40
0.2
 40
0.2
 40
0.2
 40
0.2
 40
0.4
 40
0.4
 40
0.4
 40
0.4
 40
0.6
 40
0.6
 40
0.6
 40
0.6
 40
1.0
 40
1.0
 40
1.0
 40
1.0
 10
191.6607
 20
13.6581
 30
0.0
 10
191.4384
 20
12.4876
 30
0.0
 10
191.8703
 20
5.7389
 30
0.0
 10
192.9526
 20
4.1324
 30
0.0
 10
192.9526
 20
4.1324
 30
0.0
 10
189.8045
 20
4.8258
 30
0.0
 10
186.8538
 20
7.1856
 30
0.0
 10
185.5304
 20
10.5511
 30
0.0
 10
185.5304
 20
10.5511
 30
0.0
 10
188.0683
 20
11.1057
 30
0.0
 10
189.8673
 20
11.9895
 30
0.0
 10
191.6608
 20
13.6581
 30
0.0
 10
191.6608
 20
13.6581
 30
0.0
 10
191.6608
 20
13.6581
 30
0.0
 10
191.6607
 20
13.6581
 30
0.0
 10
191.6607
 20
13.6581
 30
0.0
  0
SPLINE
  5
C2
330
1F
100
AcDbEntity
  8
layer 1
 62
     7
100
AcDbSpline
210
0.0
220
0.0
230
1.0
 70
    11
 71
     3
 72
    20
 73
    16
 74
     0
 42
0.0000000001
 43
0.0000000001
 12
1.0
 22
0.0
 32
0.0
 13
1.0
 23
0.0
 33
0.0
 40
0.0
 40
0.0
 40
0.0
 40
0.0
 40
0.2
 40
0.2
 40
0.2
 40
0.2
 40
0.4
 40
0.4
 40
0.4
 40
0.4
 40
0.6
 40
0.6
 40
0.6
 40
0.6
 40
1.0
 40
1.0
 40
1.0
 40
1.0
 10
184.5779
 20
3.9208
 30
0.0
 10
183.4073
 20
4.1431
 30
0.0
 10
176.6587
 20
3.7111
 30
0.0
 10
175.0522
 20
2.6288
 30
0.0
 10
175.0522
 20
2.6288
 30
0.0
 10
175.7456
 20
5.777
 30
0.0
 10
178.1054
 20
8.7277
 30
0.0
 10
181.4709
 20
10.0511
 30
0.0
 10
181.4709
 20
10.0511
 30
0.0
 10
182.0255
 20
7.5132
 30
0.0
 10
182.9093
 20
5.7141
 30
0.0
 10
184.5779
 20
3.9206
 30
0.0
 10
184.5779
 20
3.9206
 30
0.0
 10
184.5779
 20
3.9206
 30
0.0
 10
184.5779
 20
3.9208
 30
0.0
 10
184.5779
 20
3.9208
 30
0.0
  0
SPLINE
  5
C3
330
1F
100
AcDbEntity
  8
layer 1
 62
     7
100
AcDbSpline
210
0.0
220
0.0
230
1.0
 70
    11
 71
     3
 72
    16
 73
    12
 74
     0
 42
0.0000000001
 43
0.0000000001
 12
1.0
 22
0.0
 32
0.0
 13
1.0
 23
0.0
 33
0.0
 40
0.0
 40
0.0
 40
0.0
 40
0.0
 40
0.25
 40
0.25
 40
0.25
 40
0.25
 40
0.5
 40
0.5
 40
0.5
 40
0.5
 40
1.0
 40
1.0
 40
1.0
 40
1.0
 10
169.231
 20
20.7227
 30
0.0
 10
170.7247
 20
17.9811
 30
0.0
 10
170.915
 20
6.9061
 30
0.0
 10
169.3869
 20
4.1637
 30
0.0
 10
169.3869
 20
4.1637
 30
0.0
 10
167.133
 20
5.2921
 30
0.0
 10
164.1341
 20
9.1987
 30
0.0
 10
164.1641
 20
12.4917
 30
0.0
 10
164.1641
 20
12.4917
 30
0.0
 10
164.1641
 20
16.3335
 30
0.0
 10
167.4375
 20
19.0541
 30
0.0
 10
169.231
 20
20.7227
 30
0.0
  0
SPLINE
  5
C4
330
1F
100
AcDbEntity
  8
layer 1
 62
     7
100
AcDbSpline
210
0.0
220
0.0
230
1.0
 70
    11
 71
     3
 72
    16
 73
    12
 74
     0
 42
0.0000000001
 43
0.0000000001
 12
1.0
 22
0.0
 32
0.0
 13
1.0
 23
0.0
 33
0.0
 40
0.0
 40
0.0
 40
0.0
 40
0.0
 40
0.25
 40
0.25
 40
0.25
 40
0.25
 40
0.5
 40
0.5
 40
0.5
 40
0.5
 40
1.0
 40
1.0
 40
1.0
 40
1.0
 10
174.784
 20
-1.9694
 30
0.0
 10
177.5257
 20
-0.4758
 30
0.0
 10
188.6007
 20
-0.2854
 30
0.0
 10
191.3431
 20
-1.8135
 30
0.0
 10
191.3431
 20
-1.8135
 30
0.0
 10
190.2147
 20
-4.0674
 30
0.0
 10
186.308
 20
-7.0663
 30
0.0
 10
183.015
 20
-7.0364
 30
0.0
 10
183.015
 20
-7.0364
 30
0.0
 10
179.1733
 20
-7.0364
 30
0.0
 10
176.4526
 20
-3.7629
 30
0.0
 10
174.784
 20
-1.9694
 30
0.0
  0
SPLINE
  5
C5
330
1F
100
AcDbEntity
  8
layer 1
 62
     7
100
AcDbSpline
210
0.0
220
0.0
230
1.0
 70
    11
 71
     3
 72
    16
 73
    12
 74
     0
 42
0.0000000001
 43
0.0000000001
 12
1.0
 22
0.0
 32
0.0
 13
1.0
 23
0.0
 33
0.0
 40
0.0
 40
0.0
 40
0.0
 40
0.0
 40
0.25
 40
0.25
 40
0.25
 40
0.25
 40
0.5
 40
0.5
 40
0.5
 40
0.5
 40
1.0
 40
1.0
 40
1.0
 40
1.0
 10
174.784
 20
26.6625
 30
0.0
 10
177.5257
 20
25.1688
 30
0.0
 10
188.6007
 20
24.9785
 30
0.0
 10
191.3431
 20
26.5066
 30
0.0
 10
191.3431
 20
26.5066
 30
0.0
 10
190.2147
 20
28.7605
 30
0.0
 10
186.308
 20
31.7594
 30
0.0
 10
183.015
 20
31.7294
 30
0.0
 10
183.015
 20
31.7294
 30
0.0
 10
179.1733
 20
31.7294
 30
0.0
 10
176.4526
 20
28.456
 30
0.0
 10
174.784
 20
26.6625
 30
0.0
  0
SPLINE
  5
C6
330
1F
100
AcDbEntity
  8
layer 1
 62
     7
100
AcDbSpline
210
0.0
220
0.0
230
1.0
 70
    11
 71
     3
 72
    20
 73
    16
 74
     0
 42
0.0000000001
 43
0.0000000001
 12
1.0
 22
0.0
 32
0.0
 13
1.0
 23
0.0
 33
0.0
 40
0.0
 40
0.0
 40
0.0
 40
0.0
 40
0.2
 40
0.2
 40
0.2
 40
0.2
 40
0.4
 40
0.4
 40
0.4
 40
0.4
 40
0.6
 40
0.6
 40
0.6
 40
0.6
 40
1.0
 40
1.0
 40
1.0
 40
1.0
 10
174.7595
 20
-32.3017
 30
0.0
 10
174.9818
 20
-31.1311
 30
0.0
 10
174.5499
 20
-24.3825
 30
0.0
 10
173.4676
 20
-22.776
 30
0.0
 10
173.4676
 20
-22.776
 30
0.0
 10
176.6158
 20
-23.4694
 30
0.0
 10
179.5664
 20
-25.8291
 30
0.0
 10
180.8898
 20
-29.1947
 30
0.0
 10
180.8898
 20
-29.1947
 30
0.0
 10
178.352
 20
-29.7492
 30
0.0
 10
176.5529
 20
-30.6331
 30
0.0
 10
174.7594
 20
-32.3017
 30
0.0
 10
174.7594
 20
-32.3017
 30
0.0
 10
174.7594
 20
-32.3017
 30
0.0
 10
174.7595
 20
-32.3017
 30
0.0
 10
174.7595
 20
-32.3017
 30
0.0
  0
SPLINE
  5
C7
330
1F
100
AcDbEntity
  8
layer 1
 62
     7
100
AcDbSpline
210
0.0
220
0.0
230
1.0
 70
    11
 71
     3
 72
    20
 73
    16
 74
     0
 42
0.0000000001
 43
0.0000000001
 12
1.0
 22
0.0
 32
0.0
 13
1.0
 23
0.0
 33
0.0
 40
0.0
 40
0.0
 40
0.0
 40
0.0
 40
0.2
 40
0.2
 40
0.2
 40
0.2
 40
0.4
 40
0.4
 40
0.4
 40
0.4
 40
0.6
 40
0.6
 40
0.6
 40
0.6
 40
1.0
 40
1.0
 40
1.0
 40
1.0
 10
181.9512
 20
-22.6774
 30
0.0
 10
183.1218
 20
-22.8997
 30
0.0
 10
189.8704
 20
-22.4678
 30
0.0
 10
191.4769
 20
-21.3855
 30
0.0
 10
191.4769
 20
-21.3855
 30
0.0
 10
190.7835
 20
-24.5337
 30
0.0
 10
188.4237
 20
-27.4843
 30
0.0
 10
185.0582
 20
-28.8077
 30
0.0
 10
185.0582
 20
-28.8077
 30
0.0
 10
184.5036
 20
-26.2699
 30
0.0
 10
183.6198
 20
-24.4708
 30
0.0
 10
181.9512
 20
-22.6773
 30
0.0
 10
181.9512
 20
-22.6773
 30
0.0
 10
181.9512
 20
-22.6773
 30
0.0
 10
181.9512
 20
-22.6774
 30
0.0
 10
181.9512
 20
-22.6774
 30
0.0
  0
SPLINE
  5
C8
330
1F
100
AcDbEntity
  8
layer 1
 62
     7
100
AcDbSpline
210
0.0
220
0.0
230
1.0
 70
    11
 71
     3
 72
    20
 73
    16
 74
     0
 42
0.0000000001
 43
0.0000000001
 12
1.0
 22
0.0
 32
0.0
 13
1.0
 23
0.0
 33
0.0
 40
0.0
 40
0.0
 40
0.0
 40
0.0
 40
0.2
 40
0.2
 40
0.2
 40
0.2
 40
0.4
 40
0.4
 40
0.4
 40
0.4
 40
0.6
 40
0.6
 40
0.6
 40
0.6
 40
1.0
 40
1.0
 40
1.0
 40
1.0
 10
191.6607
 20
-29.8975
 30
0.0
 10
191.4384
 20
-31.0681
 30
0.0
 10
191.8703
 20
-37.8167
 30
0.0
 10
192.9526
 20
-39.4232
 30
0.0
 10
192.9526
 20
-39.4232
 30
0.0
 10
189.8045
 20
-38.7298
 30
0.0
 10
186.8538
 20
-36.3701
 30
0.0
 10
185.5304
 20
-33.0045
 30
0.0
 10
185.5304
 20
-33.0045
 30
0.0
 10
188.0683
 20
-32.45
 30
0.0
 10
189.8673
 20
-31.5661
 30
0.0
 10
191.6608
 20
-29.8975
 30
0.0
 10
191.6608
 20
-29.8975
 30
0.0
 10
191.6608
 20
-29.8975
 30
0.0
 10
191.6607
 20
-29.8975
 30
0.0
 10
191.6607
 20
-29.8975
 30
0.0
  0
SPLINE
  5
C9
330
1F
100
AcDbEntity
  8
layer 1
 62
     7
100
AcDbSpline
210
0.0
220
0.0
230
1.0
 70
    11
 71
     3
 72
    20
 73
    16
 74
     0
 42
0.0000000001
 43
0.0000000001
 12
1.0
 22
0.0
 32
0.0
 13
1.0
 23
0.0
 33
0.0
 40
0.0
 40
0.0
 40
0.0
 40
0.0
 40
0.2
 40
0.2
 40
0.2
 40
0.2
 40
0.4
 40
0.4
 40
0.4
 40
0.4
 40
0.6
 40
0.6
 40
0.6
 40
0.6
 40
1.0
 40
1.0
 40
1.0
 40
1.0
 10
184.5779
 20
-39.6349
 30
0.0
 10
183.4073
 20
-39.4125
 30
0.0
 10
176.6587
 20
-39.8445
 30
0.0
 10
175.0522
 20
-40.9268
 30
0.0
 10
175.0522
 20
-40.9268
 30
0.0
 10
175.7456
 20
-37.7786
 30
0.0
 10
178.1054
 20
-34.828
 30
0.0
 10
181.4709
 20
-33.5046
 30
0.0
 10
181.4709
 20
-33.5046
 30
0.0
 10
182.0255
 20
-36.0424
 30
0.0
 10
182.9093
 20
-37.8415
 30
0.0
 10
184.5779
 20
-39.635
 30
0.0
 10
184.5779
 20
-39.635
 30
0.0
 10
184.5779
 20
-39.635
 30
0.0
 10
184.5779
 20
-39.6349
 30
0.0
 10
184.5779
 20
-39.6349
 30
0.0
  0
SPLINE
  5
CA
330
1F
100
AcDbEntity
  8
layer 1
 62
     7
100
AcDbSpline
210
0.0
220
0.0
230
1.0
 70
    11
 71
     3
 72
    16
 73
    12
 74
     0
 42
0.0000000001
 43
0.0000000001
 12
1.0
 22
0.0
 32
0.0
 13
1.0
 23
0.0
 33
0.0
 40
0.0
 40
0.0
 40
0.0
 40
0.0
 40
0.25
 40
0.25
 40
0.25
 40
0.25
 40
0.5
 40
0.5
 40
0.5
 40
0.5
 40
1.0
 40
1.0
 40
1.0
 40
1.0
 10
169.231
 20
-22.8328
 30
0.0
 10
170.7247
 20
-25.5744
 30
0.0
 10
170.915
 20
-36.6494
 30
0.0
 10
169.3869
 20
-39.3918
 30
0.0
 10
169.3869
 20
-39.3918
 30
0.0
 10
167.133
 20
-38.2634
 30
0.0
 10
164.1341
 20
-34.3568
 30
0.0
 10
164.1641
 20
-31.0638
 30
0.0
 10
164.1641
 20
-31.0638
 30
0.0
 10
164.1641
 20
-27.2221
 30
0.0
 10
167.4375
 20
-24.5014
 30
0.0
 10
169.231
 20
-22.8328
 30
0.0
  0
SPLINE
  5
CB
330
1F
100
AcDbEntity
  8
layer 1
 62
     7
100
AcDbSpline
210
0.0
220
0.0
230
1.0
 70
    11
 71
     3
 72
    16
 73
    12
 74
     0
 42
0.0000000001
 43
0.0000000001
 12
1.0
 22
0.0
 32
0.0
 13
1.0
 23
0.0
 33
0.0
 40
0.0
 40
0.0
 40
0.0
 40
0.0
 40
0.25
 40
0.25
 40
0.25
 40
0.25
 40
0.5
 40
0.5
 40
0.5
 40
0.5
 40
1.0
 40
1.0
 40
1.0
 40
1.0
 10
174.784
 20
-45.5251
 30
0.0
 10
177.5257
 20
-44.0314
 30
0.0
 10
188.6007
 20
-43.8411
 30
0.0
 10
191.3431
 20
-45.3692
 30
0.0
 10
191.3431
 20
-45.3692
 30
0.0
 10
190.2147
 20
-47.6231
 30
0.0
 10
186.308
 20
-50.622
 30
0.0
 10
183.015
 20
-50.592
 30
0.0
 10
183.015
 20
-50.592
 30
0.0
 10
179.1733
 20
-50.592
 30
0.0
 10
176.4526
 20
-47.3186
 30
0.0
 10
174.784
 20
-45.5251
 30
0.0
  0
SPLINE
  5
CC
330
1F
100
AcDbEntity
  8
layer 1
 62
     7
100
AcDbSpline
210
0.0
220
0.0
230
1.0
 70
    11
 71
     3
 72
    16
 73
    12
 74
     0
 42
0.0000000001
 43
0.0000000001
 12
1.0
 22
0.0
 32
0.0
 13
1.0
 23
0.0
 33
0.0
 40
0.0
 40
0.0
 40
0.0
 40
0.0
 40
0.25
 40
0.25
 40
0.25
 40
0.25
 40
0.5
 40
0.5
 40
0.5
 40
0.5
 40
1.0
 40
1.0
 40
1.0
 40
1.0
 10
174.784
 20
-16.8932
 30
0.0
 10
177.5257
 20
-18.3868
 30
0.0
 10
188.6007
 20
-18.5771
 30
0.0
 10
191.3431
 20
-17.049
 30
0.0
 10
191.3431
 20
-17.049
 30
0.0
 10
190.2147
 20
-14.7951
 30
0.0
 10
186.308
 20
-11.7962
 30
0.0
 10
183.015
 20
-11.8262
 30
0.0
 10
183.015
 20
-11.8262
 30
0.0
 10
179.1733
 20
-11.8262
 30
0.0
 10
176.4526
 20
-15.0997
 30
0.0
 10
174.784
 20
-16.8932
 30
0.0
  0
SPLINE
  5
CD
330
1F
100
AcDbEntity
  8
layer 1
 62
     7
100
AcDbSpline
210
0.0
220
0.0
230
1.0
 70
    11
 71
     3
 72
    20
 73
    16
 74
     0
 42
0.0000000001
 43
0.0000000001
 12
1.0
 22
0.0
 32
0.0
 13
1.0
 23
0.0
 33
0.0
 40
0.0
 40
0.0
 40
0.0
 40
0.0
 40
0.2
 40
0.2
 40
0.2
 40
0.2
 40
0.4
 40
0.4
 40
0.4
 40
0.4
 40
0.6
 40
0.6
 40
0.6
 40
0.6
 40
1.0
 40
1.0
 40
1.0
 40
1.0
 10
174.7595
 20
-75.6538
 30
0.0
 10
174.9818
 20
-74.4832
 30
0.0
 10
174.5499
 20
-67.7346
 30
0.0
 10
173.4676
 20
-66.1281
 30
0.0
 10
173.4676
 20
-66.1281
 30
0.0
 10
176.6158
 20
-66.8215
 30
0.0
 10
179.5664
 20
-69.1813
 30
0.0
 10
180.8898
 20
-72.5468
 30
0.0
 10
180.8898
 20
-72.5468
 30
0.0
 10
178.352
 20
-73.1014
 30
0.0
 10
176.5529
 20
-73.9852
 30
0.0
 10
174.7594
 20
-75.6538
 30
0.0
 10
174.7594
 20
-75.6538
 30
0.0
 10
174.7594
 20
-75.6538
 30
0.0
 10
174.7595
 20
-75.6538
 30
0.0
 10
174.7595
 20
-75.6538
 30
0.0
  0
SPLINE
  5
CE
330
1F
100
AcDbEntity
  8
layer 1
 62
     7
100
AcDbSpline
210
0.0
220
0.0
230
1.0
 70
    11
 71
     3
 72
    20
 73
    16
 74
     0
 42
0.0000000001
 43
0.0000000001
 12
1.0
 22
0.0
 32
0.0
 13
1.0
 23
0.0
 33
0.0
 40
0.0
 40
0.0
 40
0.0
 40
0.0
 40
0.2
 40
0.2
 40
0.2
 40
0.2
 40
0.4
 40
0.4
 40
0.4
 40
0.4
 40
0.6
 40
0.6
 40
0.6
 40
0.6
 40
1.0
 40
1.0
 40
1.0
 40
1.0
 10
181.9512
 20
-66.0295
 30
0.0
 10
183.1218
 20
-66.2518
 30
0.0
 10
189.8704
 20
-65.8199
 30
0.0
 10
191.4769
 20
-64.7376
 30
0.0
 10
191.4769
 20
-64.7376
 30
0.0
 10
190.7835
 20
-67.8858
 30
0.0
 10
188.4237
 20
-70.8364
 30
0.0
 10
185.0582
 20
-72.1598
 30
0.0
 10
185.0582
 20
-72.1598
 30
0.0
 10
184.5036
 20
-69.622
 30
0.0
 10
183.6198
 20
-67.8229
 30
0.0
 10
181.9512
 20
-66.0294
 30
0.0
 10
181.9512
 20
-66.0294
 30
0.0
 10
181.9512
 20
-66.0294
 30
0.0
 10
181.9512
 20
-66.0295
 30
0.0
 10
181.9512
 20
-66.0295
 30
0.0
  0
SPLINE
  5
CF
330
1F
100
AcDbEntity
  8
layer 1
 62
     7
100
AcDbSpline
210
0.0
220
0.0
230
1.0
 70
    11
 71
     3
 72
    20
 73
    16
 74
     0
 42
0.0000000001
 43
0.0000000001
 12
1.0
 22
0.0
 32
0.0
 13
1.0
 23
0.0
 33
0.0
 40
0.0
 40
0.0
 40
0.0
 40
0.0
 40
0.2
 40
0.2
 40
0.2
 40
0.2
 40
0.4
 40
0.4
 40
0.4
 40
0.4
 40
0.6
 40
0.6
 40
0.6
 40
0.6
 40
1.0
 40
1.0
 40
1.0
 40
1.0
 10
191.6607
 20
-73.2495
 30
0.0
 10
191.4384
 20
-74.4201
 30
0.0
 10
191.8703
 20
-81.1687
 30
0.0
 10
192.9526
 20
-82.7752
 30
0.0
 10
192.9526
 20
-82.7752
 30
0.0
 10
189.8045
 20
-82.0818
 30
0.0
 10
186.8538
 20
-79.7221
 30
0.0
 10
185.5304
 20
-76.3565
 30
0.0
 10
185.5304
 20
-76.3565
 30
0.0
 10
188.0683
 20
-75.802
 30
0.0
 10
189.8673
 20
-74.9181
 30
0.0
 10
191.6608
 20
-73.2495
 30
0.0
 10
191.6608
 20
-73.2495
 30
0.0
 10
191.6608
 20
-73.2495
 30
0.0
 10
191.6607
 20
-73.2495
 30
0.0
 10
191.6607
 20
-73.2495
 30
0.0
  0
SPLINE
  5
D0
330
1F
100
AcDbEntity
  8
layer 1
 62
     7
100
AcDbSpline
210
0.0
220
0.0
230
1.0
 70
    11
 71
     3
 72
    20
 73
    16
 74
     0
 42
0.0000000001
 43
0.0000000001
 12
1.0
 22
0.0
 32
0.0
 13
1.0
 23
0.0
 33
0.0
 40
0.0
 40
0.0
 40
0.0
 40
0.0
 40
0.2
 40
0.2
 40
0.2
 40
0.2
 40
0.4
 40
0.4
 40
0.4
 40
0.4
 40
0.6
 40
0.6
 40
0.6
 40
0.6
 40
1.0
 40
1.0
 40
1.0
 40
1.0
 10
184.5779
 20
-82.987
 30
0.0
 10
183.4073
 20
-82.7647
 30
0.0
 10
176.6587
 20
-83.1966
 30
0.0
 10
175.0522
 20
-84.2789
 30
0.0
 10
175.0522
 20
-84.2789
 30
0.0
 10
175.7456
 20
-81.1307
 30
0.0
 10
178.1054
 20
-78.1801
 30
0.0
 10
181.4709
 20
-76.8567
 30
0.0
 10
181.4709
 20
-76.8567
 30
0.0
 10
182.0255
 20
-79.3945
 30
0.0
 10
182.9093
 20
-81.1936
 30
0.0
 10
184.5779
 20
-82.9871
 30
0.0
 10
184.5779
 20
-82.9871
 30
0.0
 10
184.5779
 20
-82.9871
 30
0.0
 10
184.5779
 20
-82.987
 30
0.0
 10
184.5779
 20
-82.987
 30
0.0
  0
SPLINE
  5
D1
330
1F
100
AcDbEntity
  8
layer 1
 62
     7
100
AcDbSpline
210
0.0
220
0.0
230
1.0
 70
    11
 71
     3
 72
    16
 73
    12
 74
     0
 42
0.0000000001
 43
0.0000000001
 12
1.0
 22
0.0
 32
0.0
 13
1.0
 23
0.0
 33
0.0
 40
0.0
 40
0.0
 40
0.0
 40
0.0
 40
0.25
 40
0.25
 40
0.25
 40
0.25
 40
0.5
 40
0.5
 40
0.5
 40
0.5
 40
1.0
 40
1.0
 40
1.0
 40
1.0
 10
169.231
 20
-66.1849
 30
0.0
 10
170.7247
 20
-68.9265
 30
0.0
 10
170.915
 20
-80.0016
 30
0.0
 10
169.3869
 20
-82.744
 30
0.0
 10
169.3869
 20
-82.744
 30
0.0
 10
167.133
 20
-81.6155
 30
0.0
 10
164.1341
 20
-77.7089
 30
0.0
 10
164.1641
 20
-74.4159
 30
0.0
 10
164.1641
 20
-74.4159
 30
0.0
 10
164.1641
 20
-70.5742
 30
0.0
 10
167.4375
 20
-67.8535
 30
0.0
 10
169.231
 20
-66.1849
 30
0.0
  0
SPLINE
  5
D2
330
1F
100
AcDbEntity
  8
layer 1
 62
     7
100
AcDbSpline
210
0.0
220
0.0
230
1.0
 70
    11
 71
     3
 72
    16
 73
    12
 74
     0
 42
0.0000000001
 43
0.0000000001
 12
1.0
 22
0.0
 32
0.0
 13
1.0
 23
0.0
 33
0.0
 40
0.0
 40
0.0
 40
0.0
 40
0.0
 40
0.25
 40
0.25
 40
0.25
 40
0.25
 40
0.5
 40
0.5
 40
0.5
 40
0.5
 40
1.0
 40
1.0
 40
1.0
 40
1.0
 10
174.784
 20
-88.8771
 30
0.0
 10
177.5257
 20
-87.3834
 30
0.0
 10
188.6007
 20
-87.1931
 30
0.0
 10
191.3431
 20
-88.7212
 30
0.0
 10
191.3431
 20
-88.7212
 30
0.0
 10
190.2147
 20
-90.9751
 30
0.0
 10
186.308
 20
-93.974
 30
0.0
 10
183.015
 20
-93.944
 30
0.0
 10
183.015
 20
-93.944
 30
0.0
 10
179.1733
 20
-93.944
 30
0.0
 10
176.4526
 20
-90.6706
 30
0.0
 10
174.784
 20
-88.8771
 30
0.0
  0
SPLINE
  5
D3
330
1F
100
AcDbEntity
  8
layer 1
 62
     7
100
AcDbSpline
210
0.0
220
0.0
230
1.0
 70
    11
 71
     3
 72
    16
 73
    12
 74
     0
 42
0.0000000001
 43
0.0000000001
 12
1.0
 22
0.0
 32
0.0
 13
1.0
 23
0.0
 33
0.0
 40
0.0
 40
0.0
 40
0.0
 40
0.0
 40
0.25
 40
0.25
 40
0.25
 40
0.25
 40
0.5
 40
0.5
 40
0.5
 40
0.5
 40
1.0
 40
1.0
 40
1.0
 40
1.0
 10
174.784
 20
-60.2452
 30
0.0
 10
177.5257
 20
-61.7388
 30
0.0
 10
188.6007
 20
-61.9291
 30
0.0
 10
191.3431
 20
-60.401
 30
0.0
 10
191.3431
 20
-60.401
 30
0.0
 10
190.2147
 20
-58.1471
 30
0.0
 10
186.308
 20
-55.1482
 30
0.0
 10
183.015
 20
-55.1782
 30
0.0
 10
183.015
 20
-55.1782
 30
0.0
 10
179.1733
 20
-55.1782
 30
0.0
 10
176.4526
 20
-58.4517
 30
0.0
 10
174.784
 20
-60.2452
 30
0.0
  0
SPLINE
  5
D4
330
1F
100
AcDbEntity
  8
layer 1
 62
     7
100
AcDbSpline
210
0.0
220
0.0
230
1.0
 70
    11
 71
     3
 72
    20
 73
    16
 74
     0
 42
0.0000000001
 43
0.0000000001
 12
1.0
 22
0.0
 32
0.0
 13
1.0
 23
0.0
 33
0.0
 40
0.0
 40
0.0
 40
0.0
 40
0.0
 40
0.2
 40
0.2
 40
0.2
 40
0.2
 40
0.4
 40
0.4
 40
0.4
 40
0.4
 40
0.6
 40
0.6
 40
0.6
 40
0.6
 40
1.0
 40
1.0
 40
1.0
 40
1.0
 10
123.5115
 20
112.2688
 30
0.0
 10
121.8263
 20
110.7632
 30
0.0
 10
118.7748
 20
108.0872
 30
0.0
 10
118.0194
 20
105.9998
 30
0.0
 10
118.0194
 20
105.9998
 30
0.0
 10
117.2638
 20
108.0871
 30
0.0
 10
114.2123
 20
110.7632
 30
0.0
 10
112.5272
 20
112.2688
 30
0.0
 10
112.5272
 20
112.2688
 30
0.0
 10
113.8054
 20
113.8682
 30
0.0
 10
116.3435
 20
116.7241
 30
0.0
 10
118.0194
 20
118.8967
 30
0.0
 10
118.0194
 20
118.8967
 30
0.0
 10
119.6952
 20
116.7241
 30
0.0
 10
122.2335
 20
113.8682
 30
0.0
 10
123.5115
 20
112.2688
 30
0.0
  0
SPLINE
  5
D5
330
1F
100
AcDbEntity
  8
layer 1
 62
     7
100
AcDbSpline
210
0.0
220
0.0
230
1.0
 70
    11
 71
     3
 72
    24
 73
    20
 74
     0
 42
0.0000000001
 43
0.0000000001
 12
1.0
 22
0.0
 32
0.0
 13
1.0
 23
0.0
 33
0.0
 40
0.0
 40
0.0
 40
0.0
 40
0.0
 40
0.1666666666666667
 40
0.1666666666666667
 40
0.1666666666666667
 40
0.1666666666666667
 40
0.3333333333333333
 40
0.3333333333333333
 40
0.3333333333333333
 40
0.3333333333333333
 40
0.5
 40
0.5
 40
0.5
 40
0.5
 40
0.6666666666666666
 40
0.6666666666666666
 40
0.6666666666666666
 40
0.6666666666666666
 40
1.0
 40
1.0
 40
1.0
 40
1.0
 10
108.9889
 20
116.2387
 30
0.0
 10
107.4833
 20
117.924
 30
0.0
 10
104.8073
 20
120.9755
 30
0.0
 10
102.7198
 20
121.7309
 30
0.0
 10
102.7198
 20
121.7309
 30
0.0
 10
104.0229
 20
122.2025
 30
0.0
 10
105.5555
 20
123.569
 30
0.0
 10
106.8895
 20
124.9393
 30
0.0
 10
106.8895
 20
124.9393
 30
0.0
 10
106.8895
 20
124.9393
 30
0.0
 10
111.5379
 20
125.0924
 30
0.0
 10
111.5379
 20
125.0924
 30
0.0
 10
111.5379
 20
125.0924
 30
0.0
 10
112.876
 20
123.9571
 30
0.0
 10
114.3606
 20
122.6998
 30
0.0
 10
115.6168
 20
121.7309
 30
0.0
 10
115.6168
 20
121.7309
 30
0.0
 10
113.4442
 20
120.055
 30
0.0
 10
110.5883
 20
117.5168
 30
0.0
 10
108.9889
 20
116.2387
 30
0.0
  0
SPLINE
  5
D6
330
1F
100
AcDbEntity
  8
layer 1
 62
     7
100
AcDbSpline
210
0.0
220
0.0
230
1.0
 70
    11
 71
     3
 72
    28
 73
    24
 74
     0
 42
0.0000000001
 43
0.0000000001
 12
1.0
 22
0.0
 32
0.0
 13
1.0
 23
0.0
 33
0.0
 40
0.0
 40
0.0
 40
0.0
 40
0.0
 40
0.1428571428571428
 40
0.1428571428571428
 40
0.1428571428571428
 40
0.1428571428571428
 40
0.2857142857142857
 40
0.2857142857142857
 40
0.2857142857142857
 40
0.2857142857142857
 40
0.4285714285714285
 40
0.4285714285714285
 40
0.4285714285714285
 40
0.4285714285714285
 40
0.5714285714285714
 40
0.5714285714285714
 40
0.5714285714285714
 40
0.5714285714285714
 40
0.7142857142857143
 40
0.7142857142857143
 40
0.7142857142857143
 40
0.7142857142857143
 40
1.0
 40
1.0
 40
1.0
 40
1.0
 10
127.2656
 20
116.2387
 30
0.0
 10
128.7712
 20
117.924
 30
0.0
 10
131.4472
 20
120.9755
 30
0.0
 10
133.5346
 20
121.7309
 30
0.0
 10
133.5346
 20
121.7309
 30
0.0
 10
132.2113
 20
122.2098
 30
0.0
 10
130.6515
 20
123.6115
 30
0.0
 10
129.3031
 20
125.0029
 30
0.0
 10
129.3031
 20
125.0029
 30
0.0
 10
129.3031
 20
125.0029
 30
0.0
 10
124.6877
 20
125.068
 30
0.0
 10
124.6877
 20
125.068
 30
0.0
 10
124.6877
 20
125.068
 30
0.0
 10
123.3572
 20
123.9392
 30
0.0
 10
121.8849
 20
122.693
 30
0.0
 10
120.6376
 20
121.731
 30
0.0
 10
120.6376
 20
121.731
 30
0.0
 10
122.8102
 20
120.0551
 30
0.0
 10
125.6662
 20
117.5169
 30
0.0
 10
127.2656
 20
116.2388
 30
0.0
 10
127.2656
 20
116.2388
 30
0.0
 10
127.2656
 20
116.2388
 30
0.0
 10
127.2656
 20
116.2387
 30
0.0
 10
127.2656
 20
116.2387
 30
0.0
  0
SPLINE
  5
D7
330
1F
100
AcDbEntity
  8
layer 1
 62
     7
100
AcDbSpline
210
0.0
220
0.0
230
1.0
 70
    11
 71
     3
 72
    20
 73
    16
 74
     0
 42
0.0000000001
 43
0.0000000001
 12
1.0
 22
0.0
 32
0.0
 13
1.0
 23
0.0
 33
0.0
 40
0.0
 40
0.0
 40
0.0
 40
0.0
 40
0.2
 40
0.2
 40
0.2
 40
0.2
 40
0.4
 40
0.4
 40
0.4
 40
0.4
 40
0.6
 40
0.6
 40
0.6
 40
0.6
 40
1.0
 40
1.0
 40
1.0
 40
1.0
 10
166.9104
 20
112.2688
 30
0.0
 10
165.2252
 20
110.7632
 30
0.0
 10
162.1737
 20
108.0872
 30
0.0
 10
161.4182
 20
105.9998
 30
0.0
 10
161.4182
 20
105.9998
 30
0.0
 10
160.6627
 20
108.0871
 30
0.0
 10
157.6112
 20
110.7632
 30
0.0
 10
155.9261
 20
112.2688
 30
0.0
 10
155.9261
 20
112.2688
 30
0.0
 10
157.2043
 20
113.8682
 30
0.0
 10
159.7424
 20
116.7241
 30
0.0
 10
161.4182
 20
118.8967
 30
0.0
 10
161.4182
 20
118.8967
 30
0.0
 10
163.0941
 20
116.7241
 30
0.0
 10
165.6323
 20
113.8682
 30
0.0
 10
166.9104
 20
112.2688
 30
0.0
  0
SPLINE
  5
D8
330
1F
100
AcDbEntity
  8
layer 1
 62
     7
100
AcDbSpline
210
0.0
220
0.0
230
1.0
 70
    11
 71
     3
 72
    28
 73
    24
 74
     0
 42
0.0000000001
 43
0.0000000001
 12
1.0
 22
0.0
 32
0.0
 13
1.0
 23
0.0
 33
0.0
 40
0.0
 40
0.0
 40
0.0
 40
0.0
 40
0.1428571428571428
 40
0.1428571428571428
 40
0.1428571428571428
 40
0.1428571428571428
 40
0.2857142857142857
 40
0.2857142857142857
 40
0.2857142857142857
 40
0.2857142857142857
 40
0.4285714285714285
 40
0.4285714285714285
 40
0.4285714285714285
 40
0.4285714285714285
 40
0.5714285714285714
 40
0.5714285714285714
 40
0.5714285714285714
 40
0.5714285714285714
 40
0.7142857142857143
 40
0.7142857142857143
 40
0.7142857142857143
 40
0.7142857142857143
 40
1.0
 40
1.0
 40
1.0
 40
1.0
 10
152.3878
 20
116.2387
 30
0.0
 10
150.8821
 20
117.924
 30
0.0
 10
148.2062
 20
120.9755
 30
0.0
 10
146.1187
 20
121.7309
 30
0.0
 10
146.1187
 20
121.7309
 30
0.0
 10
147.4218
 20
122.2025
 30
0.0
 10
148.9544
 20
123.569
 30
0.0
 10
150.2883
 20
124.9393
 30
0.0
 10
150.2883
 20
124.9393
 30
0.0
 10
150.2883
 20
124.9393
 30
0.0
 10
154.9368
 20
125.0925
 30
0.0
 10
154.9368
 20
125.0925
 30
0.0
 10
154.9368
 20
125.0925
 30
0.0
 10
156.2748
 20
123.9572
 30
0.0
 10
157.7595
 20
122.7
 30
0.0
 10
159.0157
 20
121.731
 30
0.0
 10
159.0157
 20
121.731
 30
0.0
 10
156.8431
 20
120.0551
 30
0.0
 10
153.9871
 20
117.5169
 30
0.0
 10
152.3878
 20
116.2388
 30
0.0
 10
152.3878
 20
116.2388
 30
0.0
 10
152.3878
 20
116.2388
 30
0.0
 10
152.3878
 20
116.2387
 30
0.0
 10
152.3878
 20
116.2387
 30
0.0
  0
SPLINE
  5
D9
330
1F
100
AcDbEntity
  8
layer 1
 62
     7
100
AcDbSpline
210
0.0
220
0.0
230
1.0
 70
    11
 71
     3
 72
    28
 73
    24
 74
     0
 42
0.0000000001
 43
0.0000000001
 12
1.0
 22
0.0
 32
0.0
 13
1.0
 23
0.0
 33
0.0
 40
0.0
 40
0.0
 40
0.0
 40
0.0
 40
0.1428571428571428
 40
0.1428571428571428
 40
0.1428571428571428
 40
0.1428571428571428
 40
0.2857142857142857
 40
0.2857142857142857
 40
0.2857142857142857
 40
0.2857142857142857
 40
0.4285714285714285
 40
0.4285714285714285
 40
0.4285714285714285
 40
0.4285714285714285
 40
0.5714285714285714
 40
0.5714285714285714
 40
0.5714285714285714
 40
0.5714285714285714
 40
0.7142857142857143
 40
0.7142857142857143
 40
0.7142857142857143
 40
0.7142857142857143
 40
1.0
 40
1.0
 40
1.0
 40
1.0
 10
170.6645
 20
116.2387
 30
0.0
 10
172.1701
 20
117.924
 30
0.0
 10
174.846
 20
120.9755
 30
0.0
 10
176.9335
 20
121.7309
 30
0.0
 10
176.9335
 20
121.7309
 30
0.0
 10
175.6102
 20
122.2098
 30
0.0
 10
174.0503
 20
123.6115
 30
0.0
 10
172.702
 20
125.0029
 30
0.0
 10
172.702
 20
125.0029
 30
0.0
 10
172.702
 20
125.0029
 30
0.0
 10
168.0866
 20
125.068
 30
0.0
 10
168.0866
 20
125.068
 30
0.0
 10
168.0866
 20
125.068
 30
0.0
 10
166.7561
 20
123.9392
 30
0.0
 10
165.2837
 20
122.693
 30
0.0
 10
164.0365
 20
121.731
 30
0.0
 10
164.0365
 20
121.731
 30
0.0
 10
166.2091
 20
120.0551
 30
0.0
 10
169.0651
 20
117.5169
 30
0.0
 10
170.6645
 20
116.2388
 30
0.0
 10
170.6645
 20
116.2388
 30
0.0
 10
170.6645
 20
116.2388
 30
0.0
 10
170.6645
 20
116.2387
 30
0.0
 10
170.6645
 20
116.2387
 30
0.0
  0
SPLINE
  5
DA
330
1F
100
AcDbEntity
  8
layer 1
 62
     7
100
AcDbSpline
210
0.0
220
0.0
230
1.0
 70
    11
 71
     3
 72
    24
 73
    20
 74
     0
 42
0.0000000001
 43
0.0000000001
 12
1.0
 22
0.0
 32
0.0
 13
1.0
 23
0.0
 33
0.0
 40
0.0
 40
0.0
 40
0.0
 40
0.0
 40
0.1666666666666667
 40
0.1666666666666667
 40
0.1666666666666667
 40
0.1666666666666667
 40
0.3333333333333333
 40
0.3333333333333333
 40
0.3333333333333333
 40
0.3333333333333333
 40
0.5
 40
0.5
 40
0.5
 40
0.5
 40
0.6666666666666666
 40
0.6666666666666666
 40
0.6666666666666666
 40
0.6666666666666666
 40
1.0
 40
1.0
 40
1.0
 40
1.0
 10
149.9313
 20
-99.6538
 30
0.0
 10
148.6479
 20
-98.357
 30
0.0
 10
147.2058
 20
-97.105
 30
0.0
 10
145.9701
 20
-96.6578
 30
0.0
 10
145.9701
 20
-96.6578
 30
0.0
 10
148.0574
 20
-95.9023
 30
0.0
 10
150.7335
 20
-92.8508
 30
0.0
 10
152.2391
 20
-91.1657
 30
0.0
 10
152.2391
 20
-91.1657
 30
0.0
 10
153.8385
 20
-92.4439
 30
0.0
 10
156.6945
 20
-94.982
 30
0.0
 10
158.8671
 20
-96.6578
 30
0.0
 10
158.8671
 20
-96.6578
 30
0.0
 10
157.7447
 20
-97.5235
 30
0.0
 10
156.44
 20
-98.6194
 30
0.0
 10
155.2205
 20
-99.6528
 30
0.0
 10
155.2205
 20
-99.6528
 30
0.0
 10
155.2205
 20
-99.6528
 30
0.0
 10
149.9313
 20
-99.6538
 30
0.0
 10
149.9313
 20
-99.6538
 30
0.0
  0
SPLINE
  5
DB
330
1F
100
AcDbEntity
  8
layer 1
 62
     7
100
AcDbSpline
210
0.0
220
0.0
230
1.0
 70
    11
 71
     3
 72
    24
 73
    20
 74
     0
 42
0.0000000001
 43
0.0000000001
 12
1.0
 22
0.0
 32
0.0
 13
1.0
 23
0.0
 33
0.0
 40
0.0
 40
0.0
 40
0.0
 40
0.0
 40
0.1666666666666667
 40
0.1666666666666667
 40
0.1666666666666667
 40
0.1666666666666667
 40
0.3333333333333333
 40
0.3333333333333333
 40
0.3333333333333333
 40
0.3333333333333333
 40
0.5
 40
0.5
 40
0.5
 40
0.5
 40
0.6666666666666666
 40
0.6666666666666666
 40
0.6666666666666666
 40
0.6666666666666666
 40
1.0
 40
1.0
 40
1.0
 40
1.0
 10
172.8488
 20
-99.6284
 30
0.0
 10
174.1258
 20
-98.3407
 30
0.0
 10
175.5571
 20
-97.1021
 30
0.0
 10
176.7847
 20
-96.6578
 30
0.0
 10
176.7847
 20
-96.6578
 30
0.0
 10
174.6974
 20
-95.9023
 30
0.0
 10
172.0213
 20
-92.8508
 30
0.0
 10
170.5157
 20
-91.1657
 30
0.0
 10
170.5157
 20
-91.1657
 30
0.0
 10
168.9163
 20
-92.4439
 30
0.0
 10
166.0604
 20
-94.982
 30
0.0
 10
163.8878
 20
-96.6578
 30
0.0
 10
163.8878
 20
-96.6578
 30
0.0
 10
165.0023
 20
-97.5175
 30
0.0
 10
166.2967
 20
-98.6041
 30
0.0
 10
167.509
 20
-99.6312
 30
0.0
 10
167.509
 20
-99.6312
 30
0.0
 10
167.509
 20
-99.6312
 30
0.0
 10
172.8488
 20
-99.6284
 30
0.0
 10
172.8488
 20
-99.6284
 30
0.0
  0
SPLINE
  5
DC
330
1F
100
AcDbEntity
  8
layer 1
 62
     7
100
AcDbSpline
210
0.0
220
0.0
230
1.0
 70
    11
 71
     3
 72
    16
 73
    12
 74
     0
 42
0.0000000001
 43
0.0000000001
 12
1.0
 22
0.0
 32
0.0
 13
1.0
 23
0.0
 33
0.0
 40
0.0
 40
0.0
 40
0.0
 40
0.0
 40
0.25
 40
0.25
 40
0.25
 40
0.25
 40
0.5
 40
0.5
 40
0.5
 40
0.5
 40
1.0
 40
1.0
 40
1.0
 40
1.0
 10
86.7508
 20
-93.7843
 30
0.0
 10
87.9287
 20
-94.7815
 30
0.0
 10
89.1756
 20
-95.8259
 30
0.0
 10
90.2539
 20
-96.6577
 30
0.0
 10
90.2539
 20
-96.6577
 30
0.0
 10
89.1316
 20
-97.5234
 30
0.0
 10
88.0034
 20
-98.1026
 30
0.0
 10
86.7838
 20
-99.136
 30
0.0
 10
86.7838
 20
-99.136
 30
0.0
 10
86.7838
 20
-99.136
 30
0.0
 10
86.7508
 20
-93.7843
 30
0.0
 10
86.7508
 20
-93.7843
 30
0.0
  0
SPLINE
  5
DD
330
1F
100
AcDbEntity
  8
layer 1
 62
     7
100
AcDbSpline
210
0.0
220
0.0
230
1.0
 70
    11
 71
     3
 72
    16
 73
    12
 74
     0
 42
0.0000000001
 43
0.0000000001
 12
1.0
 22
0.0
 32
0.0
 13
1.0
 23
0.0
 33
0.0
 40
0.0
 40
0.0
 40
0.0
 40
0.0
 40
0.25
 40
0.25
 40
0.25
 40
0.25
 40
0.5
 40
0.5
 40
0.5
 40
0.5
 40
1.0
 40
1.0
 40
1.0
 40
1.0
 10
86.7508
 20
-50.3928
 30
0.0
 10
87.9287
 20
-51.39
 30
0.0
 10
89.1756
 20
-52.4344
 30
0.0
 10
90.2539
 20
-53.2662
 30
0.0
 10
90.2539
 20
-53.2662
 30
0.0
 10
89.1316
 20
-54.1319
 30
0.0
 10
88.0034
 20
-54.7111
 30
0.0
 10
86.7838
 20
-55.7445
 30
0.0
 10
86.7838
 20
-55.7445
 30
0.0
 10
86.7838
 20
-55.7445
 30
0.0
 10
86.7508
 20
-50.3928
 30
0.0
 10
86.7508
 20
-50.3928
 30
0.0
  0
SPLINE
  5
DE
330
1F
100
AcDbEntity
  8
layer 1
 62
     7
100
AcDbSpline
210
0.0
220
0.0
230
1.0
 70
    11
 71
     3
 72
    16
 73
    12
 74
     0
 42
0.0000000001
 43
0.0000000001
 12
1.0
 22
0.0
 32
0.0
 13
1.0
 23
0.0
 33
0.0
 40
0.0
 40
0.0
 40
0.0
 40
0.0
 40
0.25
 40
0.25
 40
0.25
 40
0.25
 40
0.5
 40
0.5
 40
0.5
 40
0.5
 40
1.0
 40
1.0
 40
1.0
 40
1.0
 10
86.7508
 20
-6.5516
 30
0.0
 10
87.9287
 20
-7.5487
 30
0.0
 10
89.1756
 20
-8.5932
 30
0.0
 10
90.2539
 20
-9.4249
 30
0.0
 10
90.2539
 20
-9.4249
 30
0.0
 10
89.1316
 20
-10.2906
 30
0.0
 10
88.0034
 20
-10.8698
 30
0.0
 10
86.7838
 20
-11.9032
 30
0.0
 10
86.7838
 20
-11.9032
 30
0.0
 10
86.7838
 20
-11.9032
 30
0.0
 10
86.7508
 20
-6.5516
 30
0.0
 10
86.7508
 20
-6.5516
 30
0.0
  0
SPLINE
  5
DF
330
1F
100
AcDbEntity
  8
layer 1
 62
     7
100
AcDbSpline
210
0.0
220
0.0
230
1.0
 70
    11
 71
     3
 72
    16
 73
    12
 74
     0
 42
0.0000000001
 43
0.0000000001
 12
1.0
 22
0.0
 32
0.0
 13
1.0
 23
0.0
 33
0.0
 40
0.0
 40
0.0
 40
0.0
 40
0.0
 40
0.25
 40
0.25
 40
0.25
 40
0.25
 40
0.5
 40
0.5
 40
0.5
 40
0.5
 40
1.0
 40
1.0
 40
1.0
 40
1.0
 10
86.7508
 20
37.0648
 30
0.0
 10
87.9287
 20
36.0676
 30
0.0
 10
89.1756
 20
35.0232
 30
0.0
 10
90.2539
 20
34.1914
 30
0.0
 10
90.2539
 20
34.1914
 30
0.0
 10
89.1316
 20
33.3257
 30
0.0
 10
88.0034
 20
32.7466
 30
0.0
 10
86.7838
 20
31.7132
 30
0.0
 10
86.7838
 20
31.7132
 30
0.0
 10
86.7838
 20
31.7132
 30
0.0
 10
86.7508
 20
37.0648
 30
0.0
 10
86.7508
 20
37.0648
 30
0.0
  0
SPLINE
  5
E0
330
1F
100
AcDbEntity
  8
layer 1
 62
     7
100
AcDbSpline
210
0.0
220
0.0
230
1.0
 70
    11
 71
     3
 72
    16
 73
    12
 74
     0
 42
0.0000000001
 43
0.0000000001
 12
1.0
 22
0.0
 32
0.0
 13
1.0
 23
0.0
 33
0.0
 40
0.0
 40
0.0
 40
0.0
 40
0.0
 40
0.25
 40
0.25
 40
0.25
 40
0.25
 40
0.5
 40
0.5
 40
0.5
 40
0.5
 40
1.0
 40
1.0
 40
1.0
 40
1.0
 10
86.7508
 20
80.4563
 30
0.0
 10
87.9287
 20
79.4591
 30
0.0
 10
89.1756
 20
78.4147
 30
0.0
 10
90.2539
 20
77.5829
 30
0.0
 10
90.2539
 20
77.5829
 30
0.0
 10
89.1316
 20
76.7173
 30
0.0
 10
88.0034
 20
76.1381
 30
0.0
 10
86.7838
 20
75.1047
 30
0.0
 10
86.7838
 20
75.1047
 30
0.0
 10
86.7838
 20
75.1047
 30
0.0
 10
86.7508
 20
80.4563
 30
0.0
 10
86.7508
 20
80.4563
 30
0.0
  0
SPLINE
  5
E1
330
1F
100
AcDbEntity
  8
layer 1
 62
     7
100
AcDbSpline
210
0.0
220
0.0
230
1.0
 70
    11
 71
     3
 72
    16
 73
    12
 74
     0
 42
0.0000000001
 43
0.0000000001
 12
1.0
 22
0.0
 32
0.0
 13
1.0
 23
0.0
 33
0.0
 40
0.0
 40
0.0
 40
0.0
 40
0.0
 40
0.25
 40
0.25
 40
0.25
 40
0.25
 40
0.5
 40
0.5
 40
0.5
 40
0.5
 40
1.0
 40
1.0
 40
1.0
 40
1.0
 10
86.7839
 20
124.3865
 30
0.0
 10
87.9619
 20
123.3893
 30
0.0
 10
89.2087
 20
122.3449
 30
0.0
 10
90.2871
 20
121.5131
 30
0.0
 10
90.2871
 20
121.5131
 30
0.0
 10
89.1648
 20
120.6474
 30
0.0
 10
88.0366
 20
120.0682
 30
0.0
 10
86.817
 20
119.0348
 30
0.0
 10
86.817
 20
119.0348
 30
0.0
 10
86.817
 20
119.0348
 30
0.0
 10
86.7839
 20
124.3865
 30
0.0
 10
86.7839
 20
124.3865
 30
0.0
  0
SPLINE
  5
E2
330
1F
100
AcDbEntity
  8
layer 1
 62
     7
100
AcDbSpline
210
0.0
220
0.0
230
1.0
 70
    11
 71
     3
 72
    16
 73
    12
 74
     0
 42
0.0000000001
 43
0.0000000001
 12
1.0
 22
0.0
 32
0.0
 13
1.0
 23
0.0
 33
0.0
 40
0.0
 40
0.0
 40
0.0
 40
0.0
 40
0.25
 40
0.25
 40
0.25
 40
0.25
 40
0.5
 40
0.5
 40
0.5
 40
0.5
 40
1.0
 40
1.0
 40
1.0
 40
1.0
 10
192.7523
 20
-93.7843
 30
0.0
 10
191.5743
 20
-94.7815
 30
0.0
 10
190.3275
 20
-95.8259
 30
0.0
 10
189.2491
 20
-96.6577
 30
0.0
 10
189.2491
 20
-96.6577
 30
0.0
 10
190.3715
 20
-97.5234
 30
0.0
 10
191.4996
 20
-98.1026
 30
0.0
 10
192.7192
 20
-99.136
 30
0.0
 10
192.7192
 20
-99.136
 30
0.0
 10
192.7192
 20
-99.136
 30
0.0
 10
192.7523
 20
-93.7843
 30
0.0
 10
192.7523
 20
-93.7843
 30
0.0
  0
SPLINE
  5
E3
330
1F
100
AcDbEntity
  8
layer 1
 62
     7
100
AcDbSpline
210
0.0
220
0.0
230
1.0
 70
    11
 71
     3
 72
    16
 73
    12
 74
     0
 42
0.0000000001
 43
0.0000000001
 12
1.0
 22
0.0
 32
0.0
 13
1.0
 23
0.0
 33
0.0
 40
0.0
 40
0.0
 40
0.0
 40
0.0
 40
0.25
 40
0.25
 40
0.25
 40
0.25
 40
0.5
 40
0.5
 40
0.5
 40
0.5
 40
1.0
 40
1.0
 40
1.0
 40
1.0
 10
192.7523
 20
-50.3928
 30
0.0
 10
191.5743
 20
-51.39
 30
0.0
 10
190.3275
 20
-52.4344
 30
0.0
 10
189.2491
 20
-53.2662
 30
0.0
 10
189.2491
 20
-53.2662
 30
0.0
 10
190.3715
 20
-54.1319
 30
0.0
 10
191.4996
 20
-54.7111
 30
0.0
 10
192.7192
 20
-55.7445
 30
0.0
 10
192.7192
 20
-55.7445
 30
0.0
 10
192.7192
 20
-55.7445
 30
0.0
 10
192.7523
 20
-50.3928
 30
0.0
 10
192.7523
 20
-50.3928
 30
0.0
  0
SPLINE
  5
E4
330
1F
100
AcDbEntity
  8
layer 1
 62
     7
100
AcDbSpline
210
0.0
220
0.0
230
1.0
 70
    11
 71
     3
 72
    16
 73
    12
 74
     0
 42
0.0000000001
 43
0.0000000001
 12
1.0
 22
0.0
 32
0.0
 13
1.0
 23
0.0
 33
0.0
 40
0.0
 40
0.0
 40
0.0
 40
0.0
 40
0.25
 40
0.25
 40
0.25
 40
0.25
 40
0.5
 40
0.5
 40
0.5
 40
0.5
 40
1.0
 40
1.0
 40
1.0
 40
1.0
 10
192.7523
 20
-6.5516
 30
0.0
 10
191.5743
 20
-7.5487
 30
0.0
 10
190.3275
 20
-8.5932
 30
0.0
 10
189.2491
 20
-9.4249
 30
0.0
 10
189.2491
 20
-9.4249
 30
0.0
 10
190.3715
 20
-10.2906
 30
0.0
 10
191.4996
 20
-10.8698
 30
0.0
 10
192.7192
 20
-11.9032
 30
0.0
 10
192.7192
 20
-11.9032
 30
0.0
 10
192.7192
 20
-11.9032
 30
0.0
 10
192.7523
 20
-6.5516
 30
0.0
 10
192.7523
 20
-6.5516
 30
0.0
  0
SPLINE
  5
E5
330
1F
100
AcDbEntity
  8
layer 1
 62
     7
100
AcDbSpline
210
0.0
220
0.0
230
1.0
 70
    11
 71
     3
 72
    16
 73
    12
 74
     0
 42
0.0000000001
 43
0.0000000001
 12
1.0
 22
0.0
 32
0.0
 13
1.0
 23
0.0
 33
0.0
 40
0.0
 40
0.0
 40
0.0
 40
0.0
 40
0.25
 40
0.25
 40
0.25
 40
0.25
 40
0.5
 40
0.5
 40
0.5
 40
0.5
 40
1.0
 40
1.0
 40
1.0
 40
1.0
 10
192.7523
 20
37.0648
 30
0.0
 10
191.5743
 20
36.0676
 30
0.0
 10
190.3275
 20
35.0232
 30
0.0
 10
189.2491
 20
34.1914
 30
0.0
 10
189.2491
 20
34.1914
 30
0.0
 10
190.3715
 20
33.3257
 30
0.0
 10
191.4996
 20
32.7466
 30
0.0
 10
192.7192
 20
31.7132
 30
0.0
 10
192.7192
 20
31.7132
 30
0.0
 10
192.7192
 20
31.7132
 30
0.0
 10
192.7523
 20
37.0648
 30
0.0
 10
192.7523
 20
37.0648
 30
0.0
  0
SPLINE
  5
E6
330
1F
100
AcDbEntity
  8
layer 1
 62
     7
100
AcDbSpline
210
0.0
220
0.0
230
1.0
 70
    11
 71
     3
 72
    16
 73
    12
 74
     0
 42
0.0000000001
 43
0.0000000001
 12
1.0
 22
0.0
 32
0.0
 13
1.0
 23
0.0
 33
0.0
 40
0.0
 40
0.0
 40
0.0
 40
0.0
 40
0.25
 40
0.25
 40
0.25
 40
0.25
 40
0.5
 40
0.5
 40
0.5
 40
0.5
 40
1.0
 40
1.0
 40
1.0
 40
1.0
 10
192.7523
 20
80.4563
 30
0.0
 10
191.5743
 20
79.4591
 30
0.0
 10
190.3275
 20
78.4147
 30
0.0
 10
189.2491
 20
77.5829
 30
0.0
 10
189.2491
 20
77.5829
 30
0.0
 10
190.3715
 20
76.7173
 30
0.0
 10
191.4996
 20
76.1381
 30
0.0
 10
192.7192
 20
75.1047
 30
0.0
 10
192.7192
 20
75.1047
 30
0.0
 10
192.7192
 20
75.1047
 30
0.0
 10
192.7523
 20
80.4563
 30
0.0
 10
192.7523
 20
80.4563
 30
0.0
  0
SPLINE
  5
E7
330
1F
100
AcDbEntity
  8
layer 1
 62
     7
100
AcDbSpline
210
0.0
220
0.0
230
1.0
 70
    11
 71
     3
 72
    16
 73
    12
 74
     0
 42
0.0000000001
 43
0.0000000001
 12
1.0
 22
0.0
 32
0.0
 13
1.0
 23
0.0
 33
0.0
 40
0.0
 40
0.0
 40
0.0
 40
0.0
 40
0.25
 40
0.25
 40
0.25
 40
0.25
 40
0.5
 40
0.5
 40
0.5
 40
0.5
 40
1.0
 40
1.0
 40
1.0
 40
1.0
 10
192.7191
 20
124.3865
 30
0.0
 10
191.5412
 20
123.3893
 30
0.0
 10
190.2943
 20
122.3449
 30
0.0
 10
189.216
 20
121.5131
 30
0.0
 10
189.216
 20
121.5131
 30
0.0
 10
190.3383
 20
120.6474
 30
0.0
 10
191.4665
 20
120.0682
 30
0.0
 10
192.6861
 20
119.0348
 30
0.0
 10
192.6861
 20
119.0348
 30
0.0
 10
192.6861
 20
119.0348
 30
0.0
 10
192.7191
 20
124.3865
 30
0.0
 10
192.7191
 20
124.3865
 30
0.0
  0
ENDSEC
  0
SECTION
  2
OBJECTS
  0
DICTIONARY
  5
C
330
0
100
AcDbDictionary
281
     1
  3
ACAD_GROUP
350
D
  3
ACAD_LAYOUT
350
1A
  3
ACAD_MATERIAL
350
3B
  3
ACAD_MLEADERSTYLE
350
10A
  3
ACAD_MLINESTYLE
350
17
  3
ACAD_PLOTSETTINGS
350
19
  3
ACAD_PLOTSTYLENAME
350
E
  3
ACAD_TABLESTYLE
350
109
  3
ACAD_VISUALSTYLE
350
2A
  0
DICTIONARY
  5
D
102
{ACAD_REACTORS
330
C
102
}
330
C
100
AcDbDictionary
281
     1
  0
DICTIONARY
  5
1A
102
{ACAD_REACTORS
330
C
102
}
330
C
100
AcDbDictionary
281
     1
  3
Layout1
350
1E
  3
Layout2
350
26
  3
Model
350
22
  0
DICTIONARY
  5
3B
102
{ACAD_REACTORS
330
C
102
}
330
C
100
AcDbDictionary
281
     1
  3
ByBlock
350
3D
  3
ByLayer
350
3C
  3
Global
350
3E
  0
DICTIONARY
  5
10A
102
{ACAD_REACTORS
330
C
102
}
330
C
100
AcDbDictionary
281
     1
  0
DICTIONARY
  5
17
102
{ACAD_REACTORS
330
C
102
}
330
C
100
AcDbDictionary
281
     1
  3
Standard
350
18
  0
DICTIONARY
  5
19
102
{ACAD_REACTORS
330
C
102
}
330
C
100
AcDbDictionary
281
     1
  0
ACDBDICTIONARYWDFLT
  5
E
102
{ACAD_REACTORS
330
C
102
}
330
C
100
AcDbDictionary
281
     1
  3
Normal
350
F
100
AcDbDictionaryWithDefault
340
F
  0
DICTIONARY
  5
109
102
{ACAD_REACTORS
330
C
102
}
330
C
100
AcDbDictionary
281
     1
  0
DICTIONARY
  5
2A
102
{ACAD_REACTORS
330
C
102
}
330
C
100
AcDbDictionary
281
     1
  3
2dWireframe
350
2F
  3
3D Hidden
350
31
  3
3dWireframe
350
30
  3
Basic
350
32
  3
Brighten
350
36
  3
ColorChange
350
3A
  3
Conceptual
350
34
  3
Dim
350
35
  3
Facepattern
350
39
  3
Flat
350
2B
  3
FlatWithEdges
350
2C
  3
Gouraud
350
2D
  3
GouraudWithEdges
350
2E
  3
Linepattern
350
38
  3
Realistic
350
33
  3
Thicken
350
37
  0
LAYOUT
  5
1E
102
{ACAD_REACTORS
330
1A
102
}
330
1A
100
AcDbPlotSettings
  1

  2
none_device
  4

  6

 40
0.0
 41
0.0
 42
0.0
 43
0.0
 44
0.0
 45
0.0
 46
0.0
 47
0.0
 48
0.0
 49
0.0
140
0.0
141
0.0
142
1.0
143
1.0
 70
   688
 72
     0
 73
     0
 74
     5
  7

 75
    16
 76
     0
 77
     2
 78
   300
147
1.0
148
0.0
149
0.0
100
AcDbLayout
  1
Layout1
 70
     1
 71
     1
 10
0.0
 20
0.0
 11
12.0
 21
9.0
 12
0.0
 22
0.0
 32
0.0
 14
1.000000000000000E+20
 24
1.000000000000000E+20
 34
1.000000000000000E+20
 15
-1.000000000000000E+20
 25
-1.000000000000000E+20
 35
-1.000000000000000E+20
146
0.0
 13
0.0
 23
0.0
 33
0.0
 16
1.0
 26
0.0
 36
0.0
 17
0.0
 27
1.0
 37
0.0
 76
     0
330
1B
  0
LAYOUT
  5
26
102
{ACAD_REACTORS
330
1A
102
}
330
1A
100
AcDbPlotSettings
  1

  2
none_device
  4

  6

 40
0.0
 41
0.0
 42
0.0
 43
0.0
 44
0.0
 45
0.0
 46
0.0
 47
0.0
 48
0.0
 49
0.0
140
0.0
141
0.0
142
1.0
143
1.0
 70
   688
 72
     0
 73
     0
 74
     5
  7

 75
    16
 76
     0
 77
     2
 78
   300
147
1.0
148
0.0
149
0.0
100
AcDbLayout
  1
Layout2
 70
     1
 71
     2
 10
0.0
 20
0.0
 11
0.0
 21
0.0
 12
0.0
 22
0.0
 32
0.0
 14
0.0
 24
0.0
 34
0.0
 15
0.0
 25
0.0
 35
0.0
146
0.0
 13
0.0
 23
0.0
 33
0.0
 16
1.0
 26
0.0
 36
0.0
 17
0.0
 27
1.0
 37
0.0
 76
     0
330
23
  0
LAYOUT
  5
22
102
{ACAD_REACTORS
330
1A
102
}
330
1A
100
AcDbPlotSettings
  1

  2
none_device
  4

  6

 40
0.0
 41
0.0
 42
0.0
 43
0.0
 44
0.0
 45
0.0
 46
0.0
 47
0.0
 48
0.0
 49
0.0
140
0.0
141
0.0
142
1.0
143
1.0
 70
  1712
 72
     0
 73
     0
 74
     0
  7

 75
     0
 76
     0
 77
     2
 78
   300
147
1.0
148
0.0
149
0.0
100
AcDbLayout
  1
Model
 70
     1
 71
     0
 10
0.0
 20
0.0
 11
12.0
 21
9.0
 12
0.0
 22
0.0
 32
0.0
 14
84.0769
 24
-106.3946
 34
0.0
 15
196.2241
 25
131.8335
 35
0.0
146
0.0
 13
0.0
 23
0.0
 33
0.0
 16
1.0
 26
0.0
 36
0.0
 17
0.0
 27
1.0
 37
0.0
 76
     0
330
1F
331
29
  0
MATERIAL
  5
3D
102
{ACAD_REACTORS
330
3B
102
}
330
3B
100
AcDbMaterial
  1
ByBlock
 72
     1
 94
      127
  0
MATERIAL
  5
3C
102
{ACAD_REACTORS
330
3B
102
}
330
3B
100
AcDbMaterial
  1
ByLayer
 72
     1
 94
      127
  0
MATERIAL
  5
3E
102
{ACAD_REACTORS
330
3B
102
}
330
3B
100
AcDbMaterial
  1
Global
 72
     1
 94
      127
  0
MLINESTYLE
  5
18
102
{ACAD_REACTORS
330
17
102
}
330
17
100
AcDbMlineStyle
  2
Standard
 70
     0
  3

 62
   256
 51
90.0
 52
90.0
 71
     2
 49
0.5
 62
   256
  6
BYLAYER
 49
-0.5
 62
   256
  6
BYLAYER
  0
ACDBPLACEHOLDER
  5
F
102
{ACAD_REACTORS
330
E
102
}
330
E
  0
VISUALSTYLE
  5
2F
102
{ACAD_REACTORS
330
2A
102
}
102
{ACAD_XDICTIONARY
360
F1
102
}
330
2A
100
AcDbVisualStyle
  2
2dWireframe
 70
     4
 71
     0
 72
     2
 73
     0
 90
        0
 40
-0.6
 41
-30.0
 62
     5
 63
     7
421
 16777215
 74
     1
 91
        4
 64
     7
 65
   257
 75
     1
175
     1
 42
1.0
 92
        0
 66
   257
 43
1.0
 76
     1
 77
     6
 78
     2
 67
     7
 79
     5
170
     0
171
     0
290
     0
174
     0
 93
        1
 44
0.0
173
     0
291
     0
 45
0.0
  0
VISUALSTYLE
  5
31
102
{ACAD_REACTORS
330
2A
102
}
102
{ACAD_XDICTIONARY
360
F5
102
}
330
2A
100
AcDbVisualStyle
  2
3D Hidden
 70
     6
 71
     1
 72
     2
 73
     2
 90
        0
 40
-0.6
 41
-30.0
 62
     5
 63
     7
421
 16777215
 74
     2
 91
        2
 64
     7
 65
   257
 75
     2
175
     1
 42
40.0
 92
        0
 66
   257
 43
1.0
 76
     1
 77
     6
 78
     2
 67
     7
 79
     3
170
     0
171
     0
290
     0
174
     0
 93
        1
 44
0.0
173
     0
291
     0
 45
0.0
  0
VISUALSTYLE
  5
30
102
{ACAD_REACTORS
330
2A
102
}
102
{ACAD_XDICTIONARY
360
F3
102
}
330
2A
100
AcDbVisualStyle
  2
3dWireframe
 70
     5
 71
     0
 72
     2
 73
     0
 90
        0
 40
-0.6
 41
-30.0
 62
     5
 63
     7
421
 16777215
 74
     1
 91
        4
 64
     7
 65
   257
 75
     1
175
     1
 42
1.0
 92
        0
 66
   257
 43
1.0
 76
     1
 77
     6
 78
     2
 67
     7
 79
     5
170
     0
171
     0
290
     0
174
     0
 93
        1
 44
0.0
173
     0
291
     0
 45
0.0
  0
VISUALSTYLE
  5
32
102
{ACAD_REACTORS
330
2A
102
}
102
{ACAD_XDICTIONARY
360
F7
102
}
330
2A
100
AcDbVisualStyle
  2
Basic
 70
     7
 71
     1
 72
     0
 73
     1
 90
        0
 40
-0.6
 41
-30.0
 62
     5
 63
     7
421
 16777215
 74
     0
 91
        4
 64
     7
 65
   257
 75
     1
175
     1
 42
1.0
 92
        8
 66
     7
 43
1.0
 76
     1
 77
     6
 78
     2
 67
     7
 79
     5
170
     0
171
     0
290
     0
174
     0
 93
        1
 44
0.0
173
     0
291
     1
 45
0.0
  0
VISUALSTYLE
  5
36
102
{ACAD_REACTORS
330
2A
102
}
102
{ACAD_XDICTIONARY
360
FF
102
}
330
2A
100
AcDbVisualStyle
  2
Brighten
 70
    12
 71
     2
 72
     2
 73
     0
 90
        0
 40
-0.6
 41
-30.0
 62
     5
 63
     7
421
 16777215
 74
     1
 91
        4
 64
     7
 65
   257
 75
     1
175
     1
 42
1.0
 92
        8
 66
     7
 43
1.0
 76
     1
 77
     6
 78
     2
 67
     7
 79
     5
170
     0
171
     0
290
     0
174
     0
 93
        1
 44
50.0
173
     0
291
     1
 45
0.0
  0
VISUALSTYLE
  5
3A
102
{ACAD_REACTORS
330
2A
102
}
102
{ACAD_XDICTIONARY
360
107
102
}
330
2A
100
AcDbVisualStyle
  2
ColorChange
 70
    16
 71
     2
 72
     2
 73
     3
 90
        0
 40
-0.6
 41
-30.0
 62
     5
 63
     8
421
  8421504
 74
     1
 91
        4
 64
     7
 65
   257
 75
     1
175
     1
 42
1.0
 92
        8
 66
     8
424
  8421504
 43
1.0
 76
     1
 77
     6
 78
     2
 67
     7
 79
     5
170
     0
171
     0
290
     0
174
     0
 93
        1
 44
0.0
173
     0
291
     1
 45
0.0
  0
VISUALSTYLE
  5
34
102
{ACAD_REACTORS
330
2A
102
}
102
{ACAD_XDICTIONARY
360
FB
102
}
330
2A
100
AcDbVisualStyle
  2
Conceptual
 70
     9
 71
     3
 72
     2
 73
     0
 90
        0
 40
-0.6
 41
-30.0
 62
     5
 63
     7
421
 16777215
 74
     2
 91
        2
 64
     7
 65
   257
 75
     1
175
     1
 42
40.0
 92
        8
 66
     7
 43
1.0
 76
     1
 77
     6
 78
     2
 67
     7
 79
     3
170
     0
171
     0
290
     0
174
     0
 93
        1
 44
0.0
173
     0
291
     0
 45
0.0
  0
VISUALSTYLE
  5
35
102
{ACAD_REACTORS
330
2A
102
}
102
{ACAD_XDICTIONARY
360
FD
102
}
330
2A
100
AcDbVisualStyle
  2
Dim
 70
    11
 71
     2
 72
     2
 73
     0
 90
        0
 40
-0.6
 41
-30.0
 62
     5
 63
     7
421
 16777215
 74
     1
 91
        4
 64
     7
 65
   257
 75
     1
175
     1
 42
1.0
 92
        8
 66
     7
 43
1.0
 76
     1
 77
     6
 78
     2
 67
     7
 79
     5
170
     0
171
     0
290
     0
174
     0
 93
        1
 44
-50.0
173
     0
291
     1
 45
0.0
  0
VISUALSTYLE
  5
39
102
{ACAD_REACTORS
330
2A
102
}
102
{ACAD_XDICTIONARY
360
105
102
}
330
2A
100
AcDbVisualStyle
  2
Facepattern
 70
    15
 71
     2
 72
     2
 73
     0
 90
        0
 40
-0.6
 41
-30.0
 62
     5
 63
     7
421
 16777215
 74
     1
 91
        4
 64
     7
 65
   257
 75
     1
175
     1
 42
1.0
 92
        8
 66
     7
 43
1.0
 76
     1
 77
     6
 78
     2
 67
     7
 79
     5
170
     0
171
     0
290
     0
174
     0
 93
        1
 44
0.0
173
     0
291
     1
 45
0.0
  0
VISUALSTYLE
  5
2B
102
{ACAD_REACTORS
330
2A
102
}
102
{ACAD_XDICTIONARY
360
E9
102
}
330
2A
100
AcDbVisualStyle
  2
Flat
 70
     0
 71
     2
 72
     1
 73
     1
 90
        2
 40
-0.6
 41
30.0
 62
     5
 63
     7
421
 16777215
 74
     0
 91
        4
 64
     7
 65
   257
 75
     1
175
     1
 42
1.0
 92
        8
 66
     7
 43
1.0
 76
     1
 77
     6
 78
     2
 67
     7
 79
     5
170
     0
171
     0
290
     0
174
     0
 93
       13
 44
0.0
173
     0
291
     1
 45
0.0
  0
VISUALSTYLE
  5
2C
102
{ACAD_REACTORS
330
2A
102
}
102
{ACAD_XDICTIONARY
360
EB
102
}
330
2A
100
AcDbVisualStyle
  2
FlatWithEdges
 70
     1
 71
     2
 72
     1
 73
     1
 90
        2
 40
-0.6
 41
30.0
 62
     5
 63
     7
421
 16777215
 74
     1
 91
        4
 64
     7
 65
   257
 75
     1
175
     1
 42
1.0
 92
        0
 66
   257
 43
1.0
 76
     1
 77
     6
 78
     2
 67
     7
 79
     5
170
     0
171
     0
290
     0
174
     0
 93
       13
 44
0.0
173
     0
291
     1
 45
0.0
  0
VISUALSTYLE
  5
2D
102
{ACAD_REACTORS
330
2A
102
}
102
{ACAD_XDICTIONARY
360
ED
102
}
330
2A
100
AcDbVisualStyle
  2
Gouraud
 70
     2
 71
     2
 72
     2
 73
     1
 90
        2
 40
-0.6
 41
30.0
 62
     5
 63
     7
421
 16777215
 74
     0
 91
        4
 64
     7
 65
   257
 75
     1
175
     1
 42
1.0
 92
        0
 66
     7
 43
1.0
 76
     1
 77
     6
 78
     2
 67
     7
 79
     5
170
     0
171
     0
290
     0
174
     0
 93
       13
 44
0.0
173
     0
291
     1
 45
0.0
  0
VISUALSTYLE
  5
2E
102
{ACAD_REACTORS
330
2A
102
}
102
{ACAD_XDICTIONARY
360
EF
102
}
330
2A
100
AcDbVisualStyle
  2
GouraudWithEdges
 70
     3
 71
     2
 72
     2
 73
     1
 90
        2
 40
-0.6
 41
30.0
 62
     5
 63
     7
421
 16777215
 74
     1
 91
        4
 64
     7
 65
   257
 75
     1
175
     1
 42
1.0
 92
        0
 66
   257
 43
1.0
 76
     1
 77
     6
 78
     2
 67
     7
 79
     5
170
     0
171
     0
290
     0
174
     0
 93
       13
 44
0.0
173
     0
291
     1
 45
0.0
  0
VISUALSTYLE
  5
38
102
{ACAD_REACTORS
330
2A
102
}
102
{ACAD_XDICTIONARY
360
103
102
}
330
2A
100
AcDbVisualStyle
  2
Linepattern
 70
    14
 71
     2
 72
     2
 73
     0
 90
        0
 40
-0.6
 41
-30.0
 62
     5
 63
     7
421
 16777215
 74
     1
 91
        4
 64
     7
 65
   257
 75
     7
175
     7
 42
1.0
 92
        8
 66
     7
 43
1.0
 76
     1
 77
     6
 78
     2
 67
     7
 79
     5
170
     0
171
     0
290
     0
174
     0
 93
        1
 44
0.0
173
     0
291
     1
 45
0.0
  0
VISUALSTYLE
  5
33
102
{ACAD_REACTORS
330
2A
102
}
102
{ACAD_XDICTIONARY
360
F9
102
}
330
2A
100
AcDbVisualStyle
  2
Realistic
 70
     8
 71
     2
 72
     2
 73
     0
 90
        0
 40
-0.6
 41
-30.0
 62
     5
 63
     7
421
 16777215
 74
     1
 91
        0
 64
     7
 65
   257
 75
     1
175
     1
 42
1.0
 92
        8
 66
     8
424
  7895160
 43
1.0
 76
     1
 77
     6
 78
     2
 67
     7
 79
     5
170
     0
171
     0
290
     0
174
     0
 93
       13
 44
0.0
173
     0
291
     0
 45
0.0
  0
VISUALSTYLE
  5
37
102
{ACAD_REACTORS
330
2A
102
}
102
{ACAD_XDICTIONARY
360
101
102
}
330
2A
100
AcDbVisualStyle
  2
Thicken
 70
    13
 71
     2
 72
     2
 73
     0
 90
        0
 40
-0.6
 41
-30.0
 62
     5
 63
     7
421
 16777215
 74
     1
 91
        4
 64
     7
 65
   257
 75
     1
175
     1
 42
1.0
 92
       12
 66
     7
 43
1.0
 76
     1
 77
     6
 78
     2
 67
     7
 79
     5
170
     0
171
     0
290
     0
174
     0
 93
        1
 44
0.0
173
     0
291
     1
 45
0.0
  0
DICTIONARY
  5
F1
330
2F
100
AcDbDictionary
280
     1
281
     1
  3
ACAD_XREC_ROUNDTRIP
360
F2
  0
DICTIONARY
  5
F5
330
31
100
AcDbDictionary
280
     1
281
     1
  3
ACAD_XREC_ROUNDTRIP
360
F6
  0
DICTIONARY
  5
F3
330
30
100
AcDbDictionary
280
     1
281
     1
  3
ACAD_XREC_ROUNDTRIP
360
F4
  0
DICTIONARY
  5
F7
330
32
100
AcDbDictionary
280
     1
281
     1
  3
ACAD_XREC_ROUNDTRIP
360
F8
  0
DICTIONARY
  5
FF
330
36
100
AcDbDictionary
280
     1
281
     1
  3
ACAD_XREC_ROUNDTRIP
360
100
  0
DICTIONARY
  5
107
330
3A
100
AcDbDictionary
280
     1
281
     1
  3
ACAD_XREC_ROUNDTRIP
360
108
  0
DICTIONARY
  5
FB
330
34
100
AcDbDictionary
280
     1
281
     1
  3
ACAD_XREC_ROUNDTRIP
360
FC
  0
DICTIONARY
  5
FD
330
35
100
AcDbDictionary
280
     1
281
     1
  3
ACAD_XREC_ROUNDTRIP
360
FE
  0
DICTIONARY
  5
105
330
39
100
AcDbDictionary
280
     1
281
     1
  3
ACAD_XREC_ROUNDTRIP
360
106
  0
DICTIONARY
  5
E9
330
2B
100
AcDbDictionary
280
     1
281
     1
  3
ACAD_XREC_ROUNDTRIP
360
EA
  0
DICTIONARY
  5
EB
330
2C
100
AcDbDictionary
280
     1
281
     1
  3
ACAD_XREC_ROUNDTRIP
360
EC
  0
DICTIONARY
  5
ED
330
2D
100
AcDbDictionary
280
     1
281
     1
  3
ACAD_XREC_ROUNDTRIP
360
EE
  0
DICTIONARY
  5
EF
330
2E
100
AcDbDictionary
280
     1
281
     1
  3
ACAD_XREC_ROUNDTRIP
360
F0
  0
DICTIONARY
  5
103
330
38
100
AcDbDictionary
280
     1
281
     1
  3
ACAD_XREC_ROUNDTRIP
360
104
  0
DICTIONARY
  5
F9
330
33
100
AcDbDictionary
280
     1
281
     1
  3
ACAD_XREC_ROUNDTRIP
360
FA
  0
DICTIONARY
  5
101
330
37
100
AcDbDictionary
280
     1
281
     1
  3
ACAD_XREC_ROUNDTRIP
360
102
  0
XRECORD
  5
F2
102
{ACAD_REACTORS
330
F1
102
}
330
F1
100
AcDbXrecord
280
     1
102
RTVSPropertyOp0
 70
     1
102
RTVSPropertyOp1
 70
     1
102
RTVSPropertyOp2
 70
     1
102
RTVSPropertyOp3
 70
     1
102
RTVSPropertyOp4
 70
     1
102
RTVSPropertyOp5
 70
     1
102
RTVSPropertyOp6
 70
     1
102
RTVSPropertyOp7
 70
     1
102
RTVSPropertyOp8
 70
     1
102
RTVSPropertyOp9
 70
     1
102
RTVSPropertyOp10
 70
     1
102
RTVSPropertyOp11
 70
     1
102
RTVSPropertyOp12
 70
     1
102
RTVSPropertyOp13
 70
     1
102
RTVSPropertyOp14
 70
     1
102
RTVSPropertyOp15
 70
     1
102
RTVSPropertyOp16
 70
     1
102
RTVSPropertyOp17
 70
     1
102
RTVSPropertyOp18
 70
     1
102
RTVSPropertyOp19
 70
     1
102
RTVSPropertyOp20
 70
     1
102
RTVSPropertyOp21
 70
     1
102
RTVSPropertyOp22
 70
     1
102
RTVSPropertyOp23
 70
     1
102
RTVSPropertyOp24
 70
     1
102
RTVSPropertyOp25
 70
     1
102
RTVSPropertyOp26
 70
     1
102
RTVSPropertyOp27
 70
     1
102
RTVSPropertyOp28
 70
     1
102
RTVSPropertyOp29
 70
     1
102
RTVSPropertyOp30
 70
     1
102
RTVSPropertyOp31
 70
     1
102
RTVSPropertyOp32
 70
     1
  0
XRECORD
  5
F6
102
{ACAD_REACTORS
330
F5
102
}
330
F5
100
AcDbXrecord
280
     1
102
RTVSPropertyOp0
 70
     1
102
RTVSPropertyOp1
 70
     1
102
RTVSPropertyOp2
 70
     1
102
RTVSPropertyOp3
 70
     1
102
RTVSPropertyOp4
 70
     1
102
RTVSPropertyOp5
 70
     1
102
RTVSPropertyOp6
 70
     1
102
RTVSPropertyOp7
 70
     1
102
RTVSPropertyOp8
 70
     1
102
RTVSPropertyOp9
 70
     1
102
RTVSPropertyOp10
 70
     1
102
RTVSPropertyOp11
 70
     1
102
RTVSPropertyOp12
 70
     1
102
RTVSPropertyOp13
 70
     1
102
RTVSPropertyOp14
 70
     1
102
RTVSPropertyOp15
 70
     1
102
RTVSPropertyOp16
 70
     1
102
RTVSPropertyOp17
 70
     1
102
RTVSPropertyOp18
 70
     1
102
RTVSPropertyOp19
 70
     1
102
RTVSPropertyOp20
 70
     1
102
RTVSPropertyOp21
 70
     1
102
RTVSPropertyOp22
 70
     1
102
RTVSPropertyOp23
 70
     1
102
RTVSPropertyOp24
 70
     1
102
RTVSPropertyOp25
 70
     1
102
RTVSPropertyOp26
 70
     1
102
RTVSPropertyOp27
 70
     1
102
RTVSPropertyOp28
 70
     1
102
RTVSPropertyOp29
 70
     1
102
RTVSPropertyOp30
 70
     1
102
RTVSPropertyOp31
 70
     1
102
RTVSPropertyOp32
 70
     1
  0
XRECORD
  5
F4
102
{ACAD_REACTORS
330
F3
102
}
330
F3
100
AcDbXrecord
280
     1
102
RTVSPropertyOp0
 70
     1
102
RTVSPropertyOp1
 70
     1
102
RTVSPropertyOp2
 70
     1
102
RTVSPropertyOp3
 70
     1
102
RTVSPropertyOp4
 70
     1
102
RTVSPropertyOp5
 70
     1
102
RTVSPropertyOp6
 70
     1
102
RTVSPropertyOp7
 70
     1
102
RTVSPropertyOp8
 70
     1
102
RTVSPropertyOp9
 70
     1
102
RTVSPropertyOp10
 70
     1
102
RTVSPropertyOp11
 70
     1
102
RTVSPropertyOp12
 70
     1
102
RTVSPropertyOp13
 70
     1
102
RTVSPropertyOp14
 70
     1
102
RTVSPropertyOp15
 70
     1
102
RTVSPropertyOp16
 70
     1
102
RTVSPropertyOp17
 70
     1
102
RTVSPropertyOp18
 70
     1
102
RTVSPropertyOp19
 70
     1
102
RTVSPropertyOp20
 70
     1
102
RTVSPropertyOp21
 70
     1
102
RTVSPropertyOp22
 70
     1
102
RTVSPropertyOp23
 70
     1
102
RTVSPropertyOp24
 70
     1
102
RTVSPropertyOp25
 70
     1
102
RTVSPropertyOp26
 70
     1
102
RTVSPropertyOp27
 70
     1
102
RTVSPropertyOp28
 70
     1
102
RTVSPropertyOp29
 70
     1
102
RTVSPropertyOp30
 70
     1
102
RTVSPropertyOp31
 70
     1
102
RTVSPropertyOp32
 70
     1
  0
XRECORD
  5
F8
102
{ACAD_REACTORS
330
F7
102
}
330
F7
100
AcDbXrecord
280
     1
102
RTVSPropertyOp0
 70
     1
102
RTVSPropertyOp1
 70
     1
102
RTVSPropertyOp2
 70
     1
102
RTVSPropertyOp3
 70
     1
102
RTVSPropertyOp4
 70
     1
102
RTVSPropertyOp5
 70
     1
102
RTVSPropertyOp6
 70
     1
102
RTVSPropertyOp7
 70
     1
102
RTVSPropertyOp8
 70
     1
102
RTVSPropertyOp9
 70
     1
102
RTVSPropertyOp10
 70
     1
102
RTVSPropertyOp11
 70
     1
102
RTVSPropertyOp12
 70
     1
102
RTVSPropertyOp13
 70
     1
102
RTVSPropertyOp14
 70
     1
102
RTVSPropertyOp15
 70
     1
102
RTVSPropertyOp16
 70
     1
102
RTVSPropertyOp17
 70
     1
102
RTVSPropertyOp18
 70
     1
102
RTVSPropertyOp19
 70
     1
102
RTVSPropertyOp20
 70
     1
102
RTVSPropertyOp21
 70
     1
102
RTVSPropertyOp22
 70
     1
102
RTVSPropertyOp23
 70
     1
102
RTVSPropertyOp24
 70
     1
102
RTVSPropertyOp25
 70
     1
102
RTVSPropertyOp26
 70
     1
102
RTVSPropertyOp27
 70
     1
102
RTVSPropertyOp28
 70
     1
102
RTVSPropertyOp29
 70
     1
102
RTVSPropertyOp30
 70
     1
102
RTVSPropertyOp31
 70
     1
102
RTVSPropertyOp32
 70
     1
  0
XRECORD
  5
100
102
{ACAD_REACTORS
330
FF
102
}
330
FF
100
AcDbXrecord
280
     1
102
RTVSPropertyOp0
 70
     1
102
RTVSPropertyOp1
 70
     1
102
RTVSPropertyOp2
 70
     1
102
RTVSPropertyOp3
 70
     1
102
RTVSPropertyOp4
 70
     1
102
RTVSPropertyOp5
 70
     1
102
RTVSPropertyOp6
 70
     1
102
RTVSPropertyOp7
 70
     1
102
RTVSPropertyOp8
 70
     1
102
RTVSPropertyOp9
 70
     1
102
RTVSPropertyOp10
 70
     1
102
RTVSPropertyOp11
 70
     1
102
RTVSPropertyOp12
 70
     1
102
RTVSPropertyOp13
 70
     1
102
RTVSPropertyOp14
 70
     1
102
RTVSPropertyOp15
 70
     1
102
RTVSPropertyOp16
 70
     1
102
RTVSPropertyOp17
 70
     1
102
RTVSPropertyOp18
 70
     1
102
RTVSPropertyOp19
 70
     1
102
RTVSPropertyOp20
 70
     1
102
RTVSPropertyOp21
 70
     1
102
RTVSPropertyOp22
 70
     1
102
RTVSPropertyOp23
 70
     1
102
RTVSPropertyOp24
 70
     1
102
RTVSPropertyOp25
 70
     1
102
RTVSPropertyOp26
 70
     1
102
RTVSPropertyOp27
 70
     1
102
RTVSPropertyOp28
 70
     1
102
RTVSPropertyOp29
 70
     1
102
RTVSPropertyOp30
 70
     1
102
RTVSPropertyOp31
 70
     1
102
RTVSPropertyOp32
 70
     1
  0
XRECORD
  5
108
102
{ACAD_REACTORS
330
107
102
}
330
107
100
AcDbXrecord
280
     1
102
RTVSPropertyOp0
 70
     1
102
RTVSPropertyOp1
 70
     1
102
RTVSPropertyOp2
 70
     1
102
RTVSPropertyOp3
 70
     1
102
RTVSPropertyOp4
 70
     1
102
RTVSPropertyOp5
 70
     1
102
RTVSPropertyOp6
 70
     1
102
RTVSPropertyOp7
 70
     1
102
RTVSPropertyOp8
 70
     1
102
RTVSPropertyOp9
 70
     1
102
RTVSPropertyOp10
 70
     1
102
RTVSPropertyOp11
 70
     1
102
RTVSPropertyOp12
 70
     1
102
RTVSPropertyOp13
 70
     1
102
RTVSPropertyOp14
 70
     1
102
RTVSPropertyOp15
 70
     1
102
RTVSPropertyOp16
 70
     1
102
RTVSPropertyOp17
 70
     1
102
RTVSPropertyOp18
 70
     1
102
RTVSPropertyOp19
 70
     1
102
RTVSPropertyOp20
 70
     1
102
RTVSPropertyOp21
 70
     1
102
RTVSPropertyOp22
 70
     1
102
RTVSPropertyOp23
 70
     1
102
RTVSPropertyOp24
 70
     1
102
RTVSPropertyOp25
 70
     1
102
RTVSPropertyOp26
 70
     1
102
RTVSPropertyOp27
 70
     1
102
RTVSPropertyOp28
 70
     1
102
RTVSPropertyOp29
 70
     1
102
RTVSPropertyOp30
 70
     1
102
RTVSPropertyOp31
 70
     1
102
RTVSPropertyOp32
 70
     1
  0
XRECORD
  5
FC
102
{ACAD_REACTORS
330
FB
102
}
330
FB
100
AcDbXrecord
280
     1
102
RTVSPropertyOp0
 70
     1
102
RTVSPropertyOp1
 70
     1
102
RTVSPropertyOp2
 70
     1
102
RTVSPropertyOp3
 70
     1
102
RTVSPropertyOp4
 70
     1
102
RTVSPropertyOp5
 70
     1
102
RTVSPropertyOp6
 70
     1
102
RTVSPropertyOp7
 70
     1
102
RTVSPropertyOp8
 70
     1
102
RTVSPropertyOp9
 70
     1
102
RTVSPropertyOp10
 70
     1
102
RTVSPropertyOp11
 70
     1
102
RTVSPropertyOp12
 70
     1
102
RTVSPropertyOp13
 70
     1
102
RTVSPropertyOp14
 70
     1
102
RTVSPropertyOp15
 70
     1
102
RTVSPropertyOp16
 70
     1
102
RTVSPropertyOp17
 70
     1
102
RTVSPropertyOp18
 70
     1
102
RTVSPropertyOp19
 70
     1
102
RTVSPropertyOp20
 70
     1
102
RTVSPropertyOp21
 70
     1
102
RTVSPropertyOp22
 70
     1
102
RTVSPropertyOp23
 70
     1
102
RTVSPropertyOp24
 70
     1
102
RTVSPropertyOp25
 70
     1
102
RTVSPropertyOp26
 70
     1
102
RTVSPropertyOp27
 70
     1
102
RTVSPropertyOp28
 70
     1
102
RTVSPropertyOp29
 70
     1
102
RTVSPropertyOp30
 70
     1
102
RTVSPropertyOp31
 70
     1
102
RTVSPropertyOp32
 70
     1
  0
XRECORD
  5
FE
102
{ACAD_REACTORS
330
FD
102
}
330
FD
100
AcDbXrecord
280
     1
102
RTVSPropertyOp0
 70
     1
102
RTVSPropertyOp1
 70
     1
102
RTVSPropertyOp2
 70
     1
102
RTVSPropertyOp3
 70
     1
102
RTVSPropertyOp4
 70
     1
102
RTVSPropertyOp5
 70
     1
102
RTVSPropertyOp6
 70
     1
102
RTVSPropertyOp7
 70
     1
102
RTVSPropertyOp8
 70
     1
102
RTVSPropertyOp9
 70
     1
102
RTVSPropertyOp10
 70
     1
102
RTVSPropertyOp11
 70
     1
102
RTVSPropertyOp12
 70
     1
102
RTVSPropertyOp13
 70
     1
102
RTVSPropertyOp14
 70
     1
102
RTVSPropertyOp15
 70
     1
102
RTVSPropertyOp16
 70
     1
102
RTVSPropertyOp17
 70
     1
102
RTVSPropertyOp18
 70
     1
102
RTVSPropertyOp19
 70
     1
102
RTVSPropertyOp20
 70
     1
102
RTVSPropertyOp21
 70
     1
102
RTVSPropertyOp22
 70
     1
102
RTVSPropertyOp23
 70
     1
102
RTVSPropertyOp24
 70
     1
102
RTVSPropertyOp25
 70
     1
102
RTVSPropertyOp26
 70
     1
102
RTVSPropertyOp27
 70
     1
102
RTVSPropertyOp28
 70
     1
102
RTVSPropertyOp29
 70
     1
102
RTVSPropertyOp30
 70
     1
102
RTVSPropertyOp31
 70
     1
102
RTVSPropertyOp32
 70
     1
  0
XRECORD
  5
106
102
{ACAD_REACTORS
330
105
102
}
330
105
100
AcDbXrecord
280
     1
102
RTVSPropertyOp0
 70
     1
102
RTVSPropertyOp1
 70
     1
102
RTVSPropertyOp2
 70
     1
102
RTVSPropertyOp3
 70
     1
102
RTVSPropertyOp4
 70
     1
102
RTVSPropertyOp5
 70
     1
102
RTVSPropertyOp6
 70
     1
102
RTVSPropertyOp7
 70
     1
102
RTVSPropertyOp8
 70
     1
102
RTVSPropertyOp9
 70
     1
102
RTVSPropertyOp10
 70
     1
102
RTVSPropertyOp11
 70
     1
102
RTVSPropertyOp12
 70
     1
102
RTVSPropertyOp13
 70
     1
102
RTVSPropertyOp14
 70
     1
102
RTVSPropertyOp15
 70
     1
102
RTVSPropertyOp16
 70
     1
102
RTVSPropertyOp17
 70
     1
102
RTVSPropertyOp18
 70
     1
102
RTVSPropertyOp19
 70
     1
102
RTVSPropertyOp20
 70
     1
102
RTVSPropertyOp21
 70
     1
102
RTVSPropertyOp22
 70
     1
102
RTVSPropertyOp23
 70
     1
102
RTVSPropertyOp24
 70
     1
102
RTVSPropertyOp25
 70
     1
102
RTVSPropertyOp26
 70
     1
102
RTVSPropertyOp27
 70
     1
102
RTVSPropertyOp28
 70
     1
102
RTVSPropertyOp29
 70
     1
102
RTVSPropertyOp30
 70
     1
102
RTVSPropertyOp31
 70
     1
102
RTVSPropertyOp32
 70
     1
  0
XRECORD
  5
EA
102
{ACAD_REACTORS
330
E9
102
}
330
E9
100
AcDbXrecord
280
     1
102
RTVSPropertyOp0
 70
     1
102
RTVSPropertyOp1
 70
     1
102
RTVSPropertyOp2
 70
     1
102
RTVSPropertyOp3
 70
     1
102
RTVSPropertyOp4
 70
     1
102
RTVSPropertyOp5
 70
     1
102
RTVSPropertyOp6
 70
     1
102
RTVSPropertyOp7
 70
     1
102
RTVSPropertyOp8
 70
     1
102
RTVSPropertyOp9
 70
     1
102
RTVSPropertyOp10
 70
     1
102
RTVSPropertyOp11
 70
     1
102
RTVSPropertyOp12
 70
     1
102
RTVSPropertyOp13
 70
     1
102
RTVSPropertyOp14
 70
     1
102
RTVSPropertyOp15
 70
     1
102
RTVSPropertyOp16
 70
     1
102
RTVSPropertyOp17
 70
     1
102
RTVSPropertyOp18
 70
     1
102
RTVSPropertyOp19
 70
     1
102
RTVSPropertyOp20
 70
     1
102
RTVSPropertyOp21
 70
     1
102
RTVSPropertyOp22
 70
     1
102
RTVSPropertyOp23
 70
     1
102
RTVSPropertyOp24
 70
     1
102
RTVSPropertyOp25
 70
     1
102
RTVSPropertyOp26
 70
     1
102
RTVSPropertyOp27
 70
     1
102
RTVSPropertyOp28
 70
     1
102
RTVSPropertyOp29
 70
     1
102
RTVSPropertyOp30
 70
     1
102
RTVSPropertyOp31
 70
     1
102
RTVSPropertyOp32
 70
     1
  0
XRECORD
  5
EC
102
{ACAD_REACTORS
330
EB
102
}
330
EB
100
AcDbXrecord
280
     1
102
RTVSPropertyOp0
 70
     1
102
RTVSPropertyOp1
 70
     1
102
RTVSPropertyOp2
 70
     1
102
RTVSPropertyOp3
 70
     1
102
RTVSPropertyOp4
 70
     1
102
RTVSPropertyOp5
 70
     1
102
RTVSPropertyOp6
 70
     1
102
RTVSPropertyOp7
 70
     1
102
RTVSPropertyOp8
 70
     1
102
RTVSPropertyOp9
 70
     1
102
RTVSPropertyOp10
 70
     1
102
RTVSPropertyOp11
 70
     1
102
RTVSPropertyOp12
 70
     1
102
RTVSPropertyOp13
 70
     1
102
RTVSPropertyOp14
 70
     1
102
RTVSPropertyOp15
 70
     1
102
RTVSPropertyOp16
 70
     1
102
RTVSPropertyOp17
 70
     1
102
RTVSPropertyOp18
 70
     1
102
RTVSPropertyOp19
 70
     1
102
RTVSPropertyOp20
 70
     1
102
RTVSPropertyOp21
 70
     1
102
RTVSPropertyOp22
 70
     1
102
RTVSPropertyOp23
 70
     1
102
RTVSPropertyOp24
 70
     1
102
RTVSPropertyOp25
 70
     1
102
RTVSPropertyOp26
 70
     1
102
RTVSPropertyOp27
 70
     1
102
RTVSPropertyOp28
 70
     1
102
RTVSPropertyOp29
 70
     1
102
RTVSPropertyOp30
 70
     1
102
RTVSPropertyOp31
 70
     1
102
RTVSPropertyOp32
 70
     1
  0
XRECORD
  5
EE
102
{ACAD_REACTORS
330
ED
102
}
330
ED
100
AcDbXrecord
280
     1
102
RTVSPropertyOp0
 70
     1
102
RTVSPropertyOp1
 70
     1
102
RTVSPropertyOp2
 70
     1
102
RTVSPropertyOp3
 70
     1
102
RTVSPropertyOp4
 70
     1
102
RTVSPropertyOp5
 70
     1
102
RTVSPropertyOp6
 70
     1
102
RTVSPropertyOp7
 70
     1
102
RTVSPropertyOp8
 70
     1
102
RTVSPropertyOp9
 70
     1
102
RTVSPropertyOp10
 70
     1
102
RTVSPropertyOp11
 70
     1
102
RTVSPropertyOp12
 70
     1
102
RTVSPropertyOp13
 70
     1
102
RTVSPropertyOp14
 70
     1
102
RTVSPropertyOp15
 70
     1
102
RTVSPropertyOp16
 70
     1
102
RTVSPropertyOp17
 70
     1
102
RTVSPropertyOp18
 70
     1
102
RTVSPropertyOp19
 70
     1
102
RTVSPropertyOp20
 70
     1
102
RTVSPropertyOp21
 70
     1
102
RTVSPropertyOp22
 70
     1
102
RTVSPropertyOp23
 70
     1
102
RTVSPropertyOp24
 70
     1
102
RTVSPropertyOp25
 70
     1
102
RTVSPropertyOp26
 70
     1
102
RTVSPropertyOp27
 70
     1
102
RTVSPropertyOp28
 70
     1
102
RTVSPropertyOp29
 70
     1
102
RTVSPropertyOp30
 70
     1
102
RTVSPropertyOp31
 70
     1
102
RTVSPropertyOp32
 70
     1
  0
XRECORD
  5
F0
102
{ACAD_REACTORS
330
EF
102
}
330
EF
100
AcDbXrecord
280
     1
102
RTVSPropertyOp0
 70
     1
102
RTVSPropertyOp1
 70
     1
102
RTVSPropertyOp2
 70
     1
102
RTVSPropertyOp3
 70
     1
102
RTVSPropertyOp4
 70
     1
102
RTVSPropertyOp5
 70
     1
102
RTVSPropertyOp6
 70
     1
102
RTVSPropertyOp7
 70
     1
102
RTVSPropertyOp8
 70
     1
102
RTVSPropertyOp9
 70
     1
102
RTVSPropertyOp10
 70
     1
102
RTVSPropertyOp11
 70
     1
102
RTVSPropertyOp12
 70
     1
102
RTVSPropertyOp13
 70
     1
102
RTVSPropertyOp14
 70
     1
102
RTVSPropertyOp15
 70
     1
102
RTVSPropertyOp16
 70
     1
102
RTVSPropertyOp17
 70
     1
102
RTVSPropertyOp18
 70
     1
102
RTVSPropertyOp19
 70
     1
102
RTVSPropertyOp20
 70
     1
102
RTVSPropertyOp21
 70
     1
102
RTVSPropertyOp22
 70
     1
102
RTVSPropertyOp23
 70
     1
102
RTVSPropertyOp24
 70
     1
102
RTVSPropertyOp25
 70
     1
102
RTVSPropertyOp26
 70
     1
102
RTVSPropertyOp27
 70
     1
102
RTVSPropertyOp28
 70
     1
102
RTVSPropertyOp29
 70
     1
102
RTVSPropertyOp30
 70
     1
102
RTVSPropertyOp31
 70
     1
102
RTVSPropertyOp32
 70
     1
  0
XRECORD
  5
104
102
{ACAD_REACTORS
330
103
102
}
330
103
100
AcDbXrecord
280
     1
102
RTVSPropertyOp0
 70
     1
102
RTVSPropertyOp1
 70
     1
102
RTVSPropertyOp2
 70
     1
102
RTVSPropertyOp3
 70
     1
102
RTVSPropertyOp4
 70
     1
102
RTVSPropertyOp5
 70
     1
102
RTVSPropertyOp6
 70
     1
102
RTVSPropertyOp7
 70
     1
102
RTVSPropertyOp8
 70
     1
102
RTVSPropertyOp9
 70
     1
102
RTVSPropertyOp10
 70
     1
102
RTVSPropertyOp11
 70
     1
102
RTVSPropertyOp12
 70
     1
102
RTVSPropertyOp13
 70
     1
102
RTVSPropertyOp14
 70
     1
102
RTVSPropertyOp15
 70
     1
102
RTVSPropertyOp16
 70
     1
102
RTVSPropertyOp17
 70
     1
102
RTVSPropertyOp18
 70
     1
102
RTVSPropertyOp19
 70
     1
102
RTVSPropertyOp20
 70
     1
102
RTVSPropertyOp21
 70
     1
102
RTVSPropertyOp22
 70
     1
102
RTVSPropertyOp23
 70
     1
102
RTVSPropertyOp24
 70
     1
102
RTVSPropertyOp25
 70
     1
102
RTVSPropertyOp26
 70
     1
102
RTVSPropertyOp27
 70
     1
102
RTVSPropertyOp28
 70
     1
102
RTVSPropertyOp29
 70
     1
102
RTVSPropertyOp30
 70
     1
102
RTVSPropertyOp31
 70
     1
102
RTVSPropertyOp32
 70
     1
  0
XRECORD
  5
FA
102
{ACAD_REACTORS
330
F9
102
}
330
F9
100
AcDbXrecord
280
     1
102
RTVSPropertyOp0
 70
     1
102
RTVSPropertyOp1
 70
     1
102
RTVSPropertyOp2
 70
     1
102
RTVSPropertyOp3
 70
     1
102
RTVSPropertyOp4
 70
     1
102
RTVSPropertyOp5
 70
     1
102
RTVSPropertyOp6
 70
     1
102
RTVSPropertyOp7
 70
     1
102
RTVSPropertyOp8
 70
     1
102
RTVSPropertyOp9
 70
     1
102
RTVSPropertyOp10
 70
     1
102
RTVSPropertyOp11
 70
     1
102
RTVSPropertyOp12
 70
     1
102
RTVSPropertyOp13
 70
     1
102
RTVSPropertyOp14
 70
     1
102
RTVSPropertyOp15
 70
     1
102
RTVSPropertyOp16
 70
     1
102
RTVSPropertyOp17
 70
     1
102
RTVSPropertyOp18
 70
     1
102
RTVSPropertyOp19
 70
     1
102
RTVSPropertyOp20
 70
     1
102
RTVSPropertyOp21
 70
     1
102
RTVSPropertyOp22
 70
     1
102
RTVSPropertyOp23
 70
     1
102
RTVSPropertyOp24
 70
     1
102
RTVSPropertyOp25
 70
     1
102
RTVSPropertyOp26
 70
     1
102
RTVSPropertyOp27
 70
     1
102
RTVSPropertyOp28
 70
     1
102
RTVSPropertyOp29
 70
     1
102
RTVSPropertyOp30
 70
     1
102
RTVSPropertyOp31
 70
     1
102
RTVSPropertyOp32
 70
     1
  0
XRECORD
  5
102
102
{ACAD_REACTORS
330
101
102
}
330
101
100
AcDbXrecord
280
     1
102
RTVSPropertyOp0
 70
     1
102
RTVSPropertyOp1
 70
     1
102
RTVSPropertyOp2
 70
     1
102
RTVSPropertyOp3
 70
     1
102
RTVSPropertyOp4
 70
     1
102
RTVSPropertyOp5
 70
     1
102
RTVSPropertyOp6
 70
     1
102
RTVSPropertyOp7
 70
     1
102
RTVSPropertyOp8
 70
     1
102
RTVSPropertyOp9
 70
     1
102
RTVSPropertyOp10
 70
     1
102
RTVSPropertyOp11
 70
     1
102
RTVSPropertyOp12
 70
     1
102
RTVSPropertyOp13
 70
     1
102
RTVSPropertyOp14
 70
     1
102
RTVSPropertyOp15
 70
     1
102
RTVSPropertyOp16
 70
     1
102
RTVSPropertyOp17
 70
     1
102
RTVSPropertyOp18
 70
     1
102
RTVSPropertyOp19
 70
     1
102
RTVSPropertyOp20
 70
     1
102
RTVSPropertyOp21
 70
     1
102
RTVSPropertyOp22
 70
     1
102
RTVSPropertyOp23
 70
     1
102
RTVSPropertyOp24
 70
     1
102
RTVSPropertyOp25
 70
     1
102
RTVSPropertyOp26
 70
     1
102
RTVSPropertyOp27
 70
     1
102
RTVSPropertyOp28
 70
     1
102
RTVSPropertyOp29
 70
     1
102
RTVSPropertyOp30
 70
     1
102
RTVSPropertyOp31
 70
     1
102
RTVSPropertyOp32
 70
     1
  0
ENDSEC
  0
EOF
