  0
SECTION
  2
HEADER
  9
$ACADVER
  1
AC1021
  9
$ACADMAINTVER
 70
    25
  9
$DWGCODEPAGE
  3
ANSI_1252
  9
$INSBASE
 10
0.0
 20
0.0
 30
0.0
  9
$EXTMIN
 10
-58.8833
 20
-115.1348
 30
0.0
  9
$EXTMAX
 10
66.2066
 20
131.7386
 30
0.0
  9
$LIMMIN
 10
0.0
 20
0.0
  9
$LIMMAX
 10
12.0
 20
9.0
  9
$ORTHOMODE
 70
     0
  9
$REGENMODE
 70
     1
  9
$FILLMODE
 70
     1
  9
$QTEXTMODE
 70
     0
  9
$MIRRTEXT
 70
     1
  9
$LTSCALE
 40
1.0
  9
$ATTMODE
 70
     1
  9
$TEXTSIZE
 40
0.2
  9
$TRACEWID
 40
0.05
  9
$TEXTSTYLE
  7
Standard
  9
$CLAYER
  8
0
  9
$CELTYPE
  6
ByLayer
  9
$CECOLOR
 62
   256
  9
$CELTSCALE
 40
1.0
  9
$DISPSILH
 70
     0
  9
$DIMSCALE
 40
1.0
  9
$DIMASZ
 40
0.18
  9
$DIMEXO
 40
0.0625
  9
$DIMDLI
 40
0.38
  9
$DIMRND
 40
0.0
  9
$DIMDLE
 40
0.0
  9
$DIMEXE
 40
0.18
  9
$DIMTP
 40
0.0
  9
$DIMTM
 40
0.0
  9
$DIMTXT
 40
0.18
  9
$DIMCEN
 40
0.09
  9
$DIMTSZ
 40
0.0
  9
$DIMTOL
 70
     0
  9
$DIMLIM
 70
     0
  9
$DIMTIH
 70
     1
  9
$DIMTOH
 70
     1
  9
$DIMSE1
 70
     0
  9
$DIMSE2
 70
     0
  9
$DIMTAD
 70
     0
  9
$DIMZIN
 70
     0
  9
$DIMBLK
  1

  9
$DIMASO
 70
     1
  9
$DIMSHO
 70
     1
  9
$DIMPOST
  1

  9
$DIMAPOST
  1

  9
$DIMALT
 70
     0
  9
$DIMALTD
 70
     2
  9
$DIMALTF
 40
25.4
  9
$DIMLFAC
 40
1.0
  9
$DIMTOFL
 70
     0
  9
$DIMTVP
 40
0.0
  9
$DIMTIX
 70
     0
  9
$DIMSOXD
 70
     0
  9
$DIMSAH
 70
     0
  9
$DIMBLK1
  1

  9
$DIMBLK2
  1

  9
$DIMSTYLE
  2
Standard
  9
$DIMCLRD
 70
     0
  9
$DIMCLRE
 70
     0
  9
$DIMCLRT
 70
     0
  9
$DIMTFAC
 40
1.0
  9
$DIMGAP
 40
0.09
  9
$DIMJUST
 70
     0
  9
$DIMSD1
 70
     0
  9
$DIMSD2
 70
     0
  9
$DIMTOLJ
 70
     1
  9
$DIMTZIN
 70
     0
  9
$DIMALTZ
 70
     0
  9
$DIMALTTZ
 70
     0
  9
$DIMUPT
 70
     0
  9
$DIMDEC
 70
     4
  9
$DIMTDEC
 70
     4
  9
$DIMALTU
 70
     2
  9
$DIMALTTD
 70
     2
  9
$DIMTXSTY
  7
Standard
  9
$DIMAUNIT
 70
     0
  9
$DIMADEC
 70
     0
  9
$DIMALTRND
 40
0.0
  9
$DIMAZIN
 70
     0
  9
$DIMDSEP
 70
    46
  9
$DIMATFIT
 70
     3
  9
$DIMFRAC
 70
     0
  9
$DIMLDRBLK
  1

  9
$DIMLUNIT
 70
     2
  9
$DIMLWD
 70
    -2
  9
$DIMLWE
 70
    -2
  9
$DIMTMOVE
 70
     0
  9
$DIMFXL
 40
1.0
  9
$DIMFXLON
 70
     0
  9
$DIMJOGANG
 40
0.7853981633974483
  9
$DIMTFILL
 70
     0
  9
$DIMTFILLCLR
 70
     0
  9
$DIMARCSYM
 70
     0
  9
$DIMLTYPE
  6

  9
$DIMLTEX1
  6

  9
$DIMLTEX2
  6

  9
$LUNITS
 70
     2
  9
$LUPREC
 70
     4
  9
$SKETCHINC
 40
0.1
  9
$FILLETRAD
 40
0.5
  9
$AUNITS
 70
     0
  9
$AUPREC
 70
     0
  9
$MENU
  1
.
  9
$ELEVATION
 40
0.0
  9
$PELEVATION
 40
0.0
  9
$THICKNESS
 40
0.0
  9
$LIMCHECK
 70
     0
  9
$CHAMFERA
 40
0.5
  9
$CHAMFERB
 40
0.5
  9
$CHAMFERC
 40
1.0
  9
$CHAMFERD
 40
0.0
  9
$SKPOLY
 70
     0
  9
$TDCREATE
 40
2458493.705017558
  9
$TDUCREATE
 40
2458493.705017558
  9
$TDUPDATE
 40
2458493.705017801
  9
$TDUUPDATE
 40
2458493.705017801
  9
$TDINDWG
 40
0.0000000116
  9
$TDUSRTIMER
 40
0.0000000116
  9
$USRTIMER
 70
     1
  9
$ANGBASE
 50
0.0
  9
$ANGDIR
 70
     0
  9
$PDMODE
 70
     0
  9
$PDSIZE
 40
0.0
  9
$PLINEWID
 40
0.0
  9
$SPLFRAME
 70
     0
  9
$SPLINETYPE
 70
     6
  9
$SPLINESEGS
 70
     8
  9
$HANDSEED
  5
120
  9
$SURFTAB1
 70
     6
  9
$SURFTAB2
 70
     6
  9
$SURFTYPE
 70
     6
  9
$SURFU
 70
     6
  9
$SURFV
 70
     6
  9
$UCSBASE
  2

  9
$UCSNAME
  2

  9
$UCSORG
 10
0.0
 20
0.0
 30
0.0
  9
$UCSXDIR
 10
1.0
 20
0.0
 30
0.0
  9
$UCSYDIR
 10
0.0
 20
1.0
 30
0.0
  9
$UCSORTHOREF
  2

  9
$UCSORTHOVIEW
 70
     0
  9
$UCSORGTOP
 10
0.0
 20
0.0
 30
0.0
  9
$UCSORGBOTTOM
 10
0.0
 20
0.0
 30
0.0
  9
$UCSORGLEFT
 10
0.0
 20
0.0
 30
0.0
  9
$UCSORGRIGHT
 10
0.0
 20
0.0
 30
0.0
  9
$UCSORGFRONT
 10
0.0
 20
0.0
 30
0.0
  9
$UCSORGBACK
 10
0.0
 20
0.0
 30
0.0
  9
$PUCSBASE
  2

  9
$PUCSNAME
  2

  9
$PUCSORG
 10
0.0
 20
0.0
 30
0.0
  9
$PUCSXDIR
 10
1.0
 20
0.0
 30
0.0
  9
$PUCSYDIR
 10
0.0
 20
1.0
 30
0.0
  9
$PUCSORTHOREF
  2

  9
$PUCSORTHOVIEW
 70
     0
  9
$PUCSORGTOP
 10
0.0
 20
0.0
 30
0.0
  9
$PUCSORGBOTTOM
 10
0.0
 20
0.0
 30
0.0
  9
$PUCSORGLEFT
 10
0.0
 20
0.0
 30
0.0
  9
$PUCSORGRIGHT
 10
0.0
 20
0.0
 30
0.0
  9
$PUCSORGFRONT
 10
0.0
 20
0.0
 30
0.0
  9
$PUCSORGBACK
 10
0.0
 20
0.0
 30
0.0
  9
$USERI1
 70
     0
  9
$USERI2
 70
     0
  9
$USERI3
 70
     0
  9
$USERI4
 70
     0
  9
$USERI5
 70
     0
  9
$USERR1
 40
0.0
  9
$USERR2
 40
0.0
  9
$USERR3
 40
0.0
  9
$USERR4
 40
0.0
  9
$USERR5
 40
0.0
  9
$WORLDVIEW
 70
     1
  9
$SHADEDGE
 70
     3
  9
$SHADEDIF
 70
    70
  9
$TILEMODE
 70
     1
  9
$MAXACTVP
 70
    64
  9
$PINSBASE
 10
0.0
 20
0.0
 30
0.0
  9
$PLIMCHECK
 70
     0
  9
$PEXTMIN
 10
1.000000000000000E+20
 20
1.000000000000000E+20
 30
1.000000000000000E+20
  9
$PEXTMAX
 10
-1.000000000000000E+20
 20
-1.000000000000000E+20
 30
-1.000000000000000E+20
  9
$PLIMMIN
 10
0.0
 20
0.0
  9
$PLIMMAX
 10
12.0
 20
9.0
  9
$UNITMODE
 70
     0
  9
$VISRETAIN
 70
     1
  9
$PLINEGEN
 70
     0
  9
$PSLTSCALE
 70
     1
  9
$TREEDEPTH
 70
  3020
  9
$CMLSTYLE
  2
Standard
  9
$CMLJUST
 70
     0
  9
$CMLSCALE
 40
1.0
  9
$PROXYGRAPHICS
 70
     1
  9
$MEASUREMENT
 70
     0
  9
$CELWEIGHT
370
    -1
  9
$ENDCAPS
280
     0
  9
$JOINSTYLE
280
     0
  9
$LWDISPLAY
290
     0
  9
$INSUNITS
 70
     4
  9
$HYPERLINKBASE
  1

  9
$STYLESHEET
  1

  9
$XEDIT
290
     1
  9
$CEPSNTYPE
380
     0
  9
$PSTYLEMODE
290
     1
  9
$FINGERPRINTGUID
  2
{EA365258-D52E-4070-B9C4-C1C5CC654037}
  9
$VERSIONGUID
  2
{FAEB1C32-E019-11D5-929B-00C0DF256EC4}
  9
$EXTNAMES
290
     1
  9
$PSVPSCALE
 40
0.0
  9
$OLESTARTUP
290
     0
  9
$SORTENTS
280
   127
  9
$INDEXCTL
280
     0
  9
$HIDETEXT
280
     1
  9
$XCLIPFRAME
290
     0
  9
$HALOGAP
280
     0
  9
$OBSCOLOR
 70
   257
  9
$OBSLTYPE
280
     0
  9
$INTERSECTIONDISPLAY
280
     0
  9
$INTERSECTIONCOLOR
 70
   257
  9
$DIMASSOC
280
     2
  9
$PROJECTNAME
  1

  9
$CAMERADISPLAY
290
     0
  9
$LENSLENGTH
 40
50.0
  9
$CAMERAHEIGHT
 40
0.0
  9
$STEPSPERSEC
 40
2.0
  9
$STEPSIZE
 40
6.0
  9
$3DDWFPREC
 40
2.0
  9
$PSOLWIDTH
 40
0.25
  9
$PSOLHEIGHT
 40
4.0
  9
$LOFTANG1
 40
1.570796326794897
  9
$LOFTANG2
 40
1.570796326794897
  9
$LOFTMAG1
 40
0.0
  9
$LOFTMAG2
 40
0.0
  9
$LOFTPARAM
 70
     7
  9
$LOFTNORMALS
280
     1
  9
$LATITUDE
 40
37.795
  9
$LONGITUDE
 40
-122.394
  9
$NORTHDIRECTION
 40
0.0
  9
$TIMEZONE
 70
 -8000
  9
$LIGHTGLYPHDISPLAY
280
     1
  9
$TILEMODELIGHTSYNCH
280
     1
  9
$SOLIDHIST
280
     1
  9
$SHOWHIST
280
     1
  9
$DWFFRAME
280
     2
  9
$DGNFRAME
280
     2
  9
$REALWORLDSCALE
290
     1
  9
$INTERFERECOLOR
 62
   256
  9
$CSHADOW
280
     0
  9
$SHADOWPLANELOCATION
 40
0.0
  0
ENDSEC
  0
SECTION
  2
CLASSES
  0
CLASS
  1
ACDBDICTIONARYWDFLT
  2
AcDbDictionaryWithDefault
  3
ObjectDBX Classes
 90
        0
 91
        4
280
     0
281
     0
  0
CLASS
  1
VISUALSTYLE
  2
AcDbVisualStyle
  3
ObjectDBX Classes
 90
     4095
 91
        4
280
     0
281
     0
  0
CLASS
  1
MATERIAL
  2
AcDbMaterial
  3
ObjectDBX Classes
 90
     1153
 91
        4
280
     0
281
     0
  0
ENDSEC
  0
SECTION
  2
TABLES
  0
TABLE
  2
VPORT
  5
8
330
0
100
AcDbSymbolTable
 70
     1
  0
VPORT
  5
29
330
8
100
AcDbSymbolTableRecord
100
AcDbViewportTableRecord
  2
*Active
 70
     0
 10
0.0
 20
0.0
 11
1.0
 21
1.0
 12
10.42990654205607
 22
4.5
 13
0.0
 23
0.0
 14
0.5
 24
0.5
 15
0.5
 25
0.5
 16
0.0
 26
0.0
 36
1.0
 17
0.0
 27
0.0
 37
0.0
 40
9.0
 41
1.972972972850329
 42
50.0
 43
0.0
 44
0.0
 50
0.0
 51
0.0
 71
     0
 72
   100
 73
     1
 74
     3
 75
     0
 76
     0
 77
     0
 78
     0
281
     0
 65
     1
110
0.0
120
0.0
130
0.0
111
1.0
121
0.0
131
0.0
112
0.0
122
1.0
132
0.0
 79
     0
146
0.0
 60
     3
 61
     5
292
     1
282
     1
141
0.0
142
0.0
 63
   250
  0
ENDTAB
  0
TABLE
  2
LTYPE
  5
5
330
0
100
AcDbSymbolTable
 70
     1
  0
LTYPE
  5
14
330
5
100
AcDbSymbolTableRecord
100
AcDbLinetypeTableRecord
  2
ByBlock
 70
     0
  3

 72
    65
 73
     0
 40
0.0
  0
LTYPE
  5
15
330
5
100
AcDbSymbolTableRecord
100
AcDbLinetypeTableRecord
  2
ByLayer
 70
     0
  3

 72
    65
 73
     0
 40
0.0
  0
LTYPE
  5
16
330
5
100
AcDbSymbolTableRecord
100
AcDbLinetypeTableRecord
  2
Continuous
 70
     0
  3
Solid line
 72
    65
 73
     0
 40
0.0
  0
ENDTAB
  0
TABLE
  2
LAYER
  5
2
330
0
100
AcDbSymbolTable
 70
     3
  0
LAYER
  5
10
330
2
100
AcDbSymbolTableRecord
100
AcDbLayerTableRecord
  2
0
 70
     0
 62
     7
  6
Continuous
370
    -3
390
F
347
3E
  0
LAYER
  5
40
330
2
100
AcDbSymbolTableRecord
100
AcDbLayerTableRecord
  2
layer 1
 70
     0
 62
     7
  6
Continuous
370
    -3
390
F
347
3E
  0
LAYER
  5
FD
330
2
100
AcDbSymbolTableRecord
100
AcDbLayerTableRecord
  2
Master Guides
 70
     0
 62
     7
  6
Continuous
370
    -3
390
F
347
3E
  0
ENDTAB
  0
TABLE
  2
STYLE
  5
3
330
0
100
AcDbSymbolTable
 70
     1
  0
STYLE
  5
11
330
3
100
AcDbSymbolTableRecord
100
AcDbTextStyleTableRecord
  2
Standard
 70
     0
 40
0.0
 41
1.0
 50
0.0
 71
     0
 42
0.2
  3
txt
  4

  0
ENDTAB
  0
TABLE
  2
VIEW
  5
6
330
0
100
AcDbSymbolTable
 70
     0
  0
ENDTAB
  0
TABLE
  2
UCS
  5
7
330
0
100
AcDbSymbolTable
 70
     0
  0
ENDTAB
  0
TABLE
  2
APPID
  5
9
330
0
100
AcDbSymbolTable
 70
     2
  0
APPID
  5
12
330
9
100
AcDbSymbolTableRecord
100
AcDbRegAppTableRecord
  2
ACAD
 70
     0
  0
APPID
  5
3F
330
9
100
AcDbSymbolTableRecord
100
AcDbRegAppTableRecord
  2
ODA
 70
     0
  0
ENDTAB
  0
TABLE
  2
DIMSTYLE
  5
A
330
0
100
AcDbSymbolTable
 70
     1
100
AcDbDimStyleTable
  0
DIMSTYLE
105
27
330
A
100
AcDbSymbolTableRecord
100
AcDbDimStyleTableRecord
  2
Standard
 70
     0
178
     0
340
11
  0
ENDTAB
  0
TABLE
  2
BLOCK_RECORD
  5
1
330
0
100
AcDbSymbolTable
 70
     1
  0
BLOCK_RECORD
  5
1F
330
1
100
AcDbSymbolTableRecord
100
AcDbBlockTableRecord
  2
*Model_Space
340
22
 70
     0
280
     1
281
     0
  0
BLOCK_RECORD
  5
1B
330
1
100
AcDbSymbolTableRecord
100
AcDbBlockTableRecord
  2
*Paper_Space
340
1E
 70
     0
280
     1
281
     0
  0
BLOCK_RECORD
  5
23
330
1
100
AcDbSymbolTableRecord
100
AcDbBlockTableRecord
  2
*Paper_Space0
340
26
 70
     0
280
     1
281
     0
  0
ENDTAB
  0
ENDSEC
  0
SECTION
  2
BLOCKS
  0
BLOCK
  5
20
330
1F
100
AcDbEntity
  8
0
100
AcDbBlockBegin
  2
*Model_Space
 70
     0
 10
0.0
 20
0.0
 30
0.0
  3
*Model_Space
  1

  0
ENDBLK
  5
21
330
1F
100
AcDbEntity
  8
0
100
AcDbBlockEnd
  0
BLOCK
  5
1C
330
1B
100
AcDbEntity
 67
     1
  8
0
100
AcDbBlockBegin
  2
*Paper_Space
 70
     0
 10
0.0
 20
0.0
 30
0.0
  3
*Paper_Space
  1

  0
ENDBLK
  5
1D
330
1B
100
AcDbEntity
 67
     1
  8
0
100
AcDbBlockEnd
  0
BLOCK
  5
24
330
23
100
AcDbEntity
  8
0
100
AcDbBlockBegin
  2
*Paper_Space0
 70
     0
 10
0.0
 20
0.0
 30
0.0
  3
*Paper_Space0
  1

  0
ENDBLK
  5
25
330
23
100
AcDbEntity
  8
0
100
AcDbBlockEnd
  0
ENDSEC
  0
SECTION
  2
ENTITIES
  0
SPLINE
  5
41
330
1F
100
AcDbEntity
  8
layer 1
100
AcDbSpline
210
0.0
220
0.0
230
1.0
 70
    11
 71
     3
 72
    20
 73
    16
 74
     0
 42
0.0000000001
 43
0.0000000001
 12
1.0
 22
0.0
 32
0.0
 13
1.0
 23
0.0
 33
0.0
 40
0.0
 40
0.0
 40
0.0
 40
0.0
 40
0.2
 40
0.2
 40
0.2
 40
0.2
 40
0.4
 40
0.4
 40
0.4
 40
0.4
 40
0.6
 40
0.6
 40
0.6
 40
0.6
 40
1.0
 40
1.0
 40
1.0
 40
1.0
 10
-58.8833
 20
-115.1348
 30
0.0
 10
-58.8833
 20
-115.1348
 30
0.0
 10
66.2066
 20
-115.1348
 30
0.0
 10
66.2066
 20
-115.1348
 30
0.0
 10
66.2066
 20
-115.1348
 30
0.0
 10
66.2066
 20
-115.1348
 30
0.0
 10
66.2066
 20
131.7386
 30
0.0
 10
66.2066
 20
131.7386
 30
0.0
 10
66.2066
 20
131.7386
 30
0.0
 10
66.2066
 20
131.7386
 30
0.0
 10
-58.8833
 20
131.7386
 30
0.0
 10
-58.8833
 20
131.7386
 30
0.0
 10
-58.8833
 20
131.7386
 30
0.0
 10
-58.8833
 20
131.7386
 30
0.0
 10
-58.8833
 20
-115.1348
 30
0.0
 10
-58.8833
 20
-115.1348
 30
0.0
  0
SPLINE
  5
42
330
1F
100
AcDbEntity
  8
layer 1
 62
     7
100
AcDbSpline
210
0.0
220
0.0
230
1.0
 70
    11
 71
     3
 72
    20
 73
    16
 74
     0
 42
0.0000000001
 43
0.0000000001
 12
1.0
 22
0.0
 32
0.0
 13
1.0
 23
0.0
 33
0.0
 40
0.0
 40
0.0
 40
0.0
 40
0.0
 40
0.2
 40
0.2
 40
0.2
 40
0.2
 40
0.4
 40
0.4
 40
0.4
 40
0.4
 40
0.6
 40
0.6
 40
0.6
 40
0.6
 40
1.0
 40
1.0
 40
1.0
 40
1.0
 10
-35.476
 20
100.8892
 30
0.0
 10
-32.3563
 20
101.0847
 30
0.0
 10
-27.2614
 20
106.0116
 30
0.0
 10
-27.0179
 20
109.3473
 30
0.0
 10
-27.0179
 20
109.3473
 30
0.0
 10
-26.7263
 20
106.0596
 30
0.0
 10
-21.7273
 20
100.9407
 30
0.0
 10
-18.5597
 20
100.8892
 30
0.0
 10
-18.5597
 20
100.8892
 30
0.0
 10
-21.6554
 20
100.3096
 30
0.0
 10
-26.6304
 20
96.0787
 30
0.0
 10
-27.0179
 20
92.431
 30
0.0
 10
-27.0179
 20
92.431
 30
0.0
 10
-27.3334
 20
96.0547
 30
0.0
 10
-32.2604
 20
100.2617
 30
0.0
 10
-35.476
 20
100.8892
 30
0.0
  0
SPLINE
  5
43
330
1F
100
AcDbEntity
  8
layer 1
 62
     7
100
AcDbSpline
210
0.0
220
0.0
230
1.0
 70
    11
 71
     3
 72
    12
 73
     8
 74
     0
 42
0.0000000001
 43
0.0000000001
 12
1.0
 22
0.0
 32
0.0
 13
1.0
 23
0.0
 33
0.0
 40
0.0
 40
0.0
 40
0.0
 40
0.0
 40
0.3333333333333333
 40
0.3333333333333333
 40
0.3333333333333333
 40
0.3333333333333333
 40
1.0
 40
1.0
 40
1.0
 40
1.0
 10
-39.0277
 20
104.0811
 30
0.0
 10
-38.9318
 20
108.1644
 30
0.0
 10
-35.7566
 20
112.1794
 30
0.0
 10
-30.3296
 20
113.0673
 30
0.0
 10
-30.3296
 20
113.0673
 30
0.0
 10
-31.4003
 20
106.1176
 30
0.0
 10
-35.7763
 20
104.7695
 30
0.0
 10
-39.0277
 20
104.0811
 30
0.0
  0
SPLINE
  5
44
330
1F
100
AcDbEntity
  8
layer 1
 62
     7
100
AcDbSpline
210
0.0
220
0.0
230
1.0
 70
    11
 71
     3
 72
    12
 73
     8
 74
     0
 42
0.0000000001
 43
0.0000000001
 12
1.0
 22
0.0
 32
0.0
 13
1.0
 23
0.0
 33
0.0
 40
0.0
 40
0.0
 40
0.0
 40
0.0
 40
0.3333333333333333
 40
0.3333333333333333
 40
0.3333333333333333
 40
0.3333333333333333
 40
1.0
 40
1.0
 40
1.0
 40
1.0
 10
-15.1149
 20
104.0811
 30
0.0
 10
-15.2109
 20
108.1644
 30
0.0
 10
-18.386
 20
112.1794
 30
0.0
 10
-23.813
 20
113.0673
 30
0.0
 10
-23.813
 20
113.0673
 30
0.0
 10
-22.7423
 20
106.1176
 30
0.0
 10
-18.3664
 20
104.7695
 30
0.0
 10
-15.1149
 20
104.0811
 30
0.0
  0
SPLINE
  5
45
330
1F
100
AcDbEntity
  8
layer 1
 62
     7
100
AcDbSpline
210
0.0
220
0.0
230
1.0
 70
    11
 71
     3
 72
    12
 73
     8
 74
     0
 42
0.0000000001
 43
0.0000000001
 12
1.0
 22
0.0
 32
0.0
 13
1.0
 23
0.0
 33
0.0
 40
0.0
 40
0.0
 40
0.0
 40
0.0
 40
0.3333333333333333
 40
0.3333333333333333
 40
0.3333333333333333
 40
0.3333333333333333
 40
1.0
 40
1.0
 40
1.0
 40
1.0
 10
-39.0277
 20
97.5647
 30
0.0
 10
-38.9317
 20
93.4815
 30
0.0
 10
-35.7566
 20
89.4665
 30
0.0
 10
-30.3296
 20
88.5785
 30
0.0
 10
-30.3296
 20
88.5785
 30
0.0
 10
-31.4003
 20
95.5282
 30
0.0
 10
-35.7763
 20
96.8763
 30
0.0
 10
-39.0277
 20
97.5647
 30
0.0
  0
SPLINE
  5
46
330
1F
100
AcDbEntity
  8
layer 1
 62
     7
100
AcDbSpline
210
0.0
220
0.0
230
1.0
 70
    11
 71
     3
 72
    12
 73
     8
 74
     0
 42
0.0000000001
 43
0.0000000001
 12
1.0
 22
0.0
 32
0.0
 13
1.0
 23
0.0
 33
0.0
 40
0.0
 40
0.0
 40
0.0
 40
0.0
 40
0.3333333333333333
 40
0.3333333333333333
 40
0.3333333333333333
 40
0.3333333333333333
 40
1.0
 40
1.0
 40
1.0
 40
1.0
 10
-15.1149
 20
97.5647
 30
0.0
 10
-15.2108
 20
93.4815
 30
0.0
 10
-18.386
 20
89.4665
 30
0.0
 10
-23.813
 20
88.5785
 30
0.0
 10
-23.813
 20
88.5785
 30
0.0
 10
-22.7423
 20
95.5282
 30
0.0
 10
-18.3663
 20
96.8762
 30
0.0
 10
-15.1149
 20
97.5647
 30
0.0
  0
SPLINE
  5
47
330
1F
100
AcDbEntity
  8
layer 1
 62
     7
100
AcDbSpline
210
0.0
220
0.0
230
1.0
 70
    11
 71
     3
 72
    12
 73
     8
 74
     0
 42
0.0000000001
 43
0.0000000001
 12
1.0
 22
0.0
 32
0.0
 13
1.0
 23
0.0
 33
0.0
 40
0.0
 40
0.0
 40
0.0
 40
0.0
 40
0.3333333333333333
 40
0.3333333333333333
 40
0.3333333333333333
 40
0.3333333333333333
 40
1.0
 40
1.0
 40
1.0
 40
1.0
 10
-15.1149
 20
97.5647
 30
0.0
 10
-15.2108
 20
93.4815
 30
0.0
 10
-18.386
 20
89.4665
 30
0.0
 10
-23.813
 20
88.5785
 30
0.0
 10
-23.813
 20
88.5785
 30
0.0
 10
-22.7423
 20
95.5282
 30
0.0
 10
-18.3663
 20
96.8762
 30
0.0
 10
-15.1149
 20
97.5647
 30
0.0
  0
SPLINE
  5
48
330
1F
100
AcDbEntity
  8
layer 1
 62
     7
100
AcDbSpline
210
0.0
220
0.0
230
1.0
 70
    11
 71
     3
 72
    20
 73
    16
 74
     0
 42
0.0000000001
 43
0.0000000001
 12
1.0
 22
0.0
 32
0.0
 13
1.0
 23
0.0
 33
0.0
 40
0.0
 40
0.0
 40
0.0
 40
0.0
 40
0.2
 40
0.2
 40
0.2
 40
0.2
 40
0.4
 40
0.4
 40
0.4
 40
0.4
 40
0.6
 40
0.6
 40
0.6
 40
0.6
 40
1.0
 40
1.0
 40
1.0
 40
1.0
 10
-4.7384
 20
100.8892
 30
0.0
 10
-1.6187
 20
101.0847
 30
0.0
 10
3.4762
 20
106.0116
 30
0.0
 10
3.7197
 20
109.3473
 30
0.0
 10
3.7197
 20
109.3473
 30
0.0
 10
4.0113
 20
106.0596
 30
0.0
 10
9.0102
 20
100.9407
 30
0.0
 10
12.1779
 20
100.8892
 30
0.0
 10
12.1779
 20
100.8892
 30
0.0
 10
9.0822
 20
100.3097
 30
0.0
 10
4.1072
 20
96.0787
 30
0.0
 10
3.7197
 20
92.431
 30
0.0
 10
3.7197
 20
92.431
 30
0.0
 10
3.4041
 20
96.0547
 30
0.0
 10
-1.5228
 20
100.2617
 30
0.0
 10
-4.7384
 20
100.8892
 30
0.0
  0
SPLINE
  5
49
330
1F
100
AcDbEntity
  8
layer 1
 62
     7
100
AcDbSpline
210
0.0
220
0.0
230
1.0
 70
    11
 71
     3
 72
    12
 73
     8
 74
     0
 42
0.0000000001
 43
0.0000000001
 12
1.0
 22
0.0
 32
0.0
 13
1.0
 23
0.0
 33
0.0
 40
0.0
 40
0.0
 40
0.0
 40
0.0
 40
0.3333333333333333
 40
0.3333333333333333
 40
0.3333333333333333
 40
0.3333333333333333
 40
1.0
 40
1.0
 40
1.0
 40
1.0
 10
-8.2902
 20
104.0811
 30
0.0
 10
-8.1942
 20
108.1642
 30
0.0
 10
-5.019
 20
112.1793
 30
0.0
 10
0.408
 20
113.0673
 30
0.0
 10
0.408
 20
113.0673
 30
0.0
 10
-0.6627
 20
106.1176
 30
0.0
 10
-5.0388
 20
104.7695
 30
0.0
 10
-8.2902
 20
104.0811
 30
0.0
  0
SPLINE
  5
4A
330
1F
100
AcDbEntity
  8
layer 1
 62
     7
100
AcDbSpline
210
0.0
220
0.0
230
1.0
 70
    11
 71
     3
 72
    12
 73
     8
 74
     0
 42
0.0000000001
 43
0.0000000001
 12
1.0
 22
0.0
 32
0.0
 13
1.0
 23
0.0
 33
0.0
 40
0.0
 40
0.0
 40
0.0
 40
0.0
 40
0.3333333333333333
 40
0.3333333333333333
 40
0.3333333333333333
 40
0.3333333333333333
 40
1.0
 40
1.0
 40
1.0
 40
1.0
 10
15.6227
 20
104.0811
 30
0.0
 10
15.5268
 20
108.1642
 30
0.0
 10
12.3516
 20
112.1793
 30
0.0
 10
6.9245
 20
113.0673
 30
0.0
 10
6.9245
 20
113.0673
 30
0.0
 10
7.9953
 20
106.1176
 30
0.0
 10
12.3713
 20
104.7695
 30
0.0
 10
15.6227
 20
104.0811
 30
0.0
  0
SPLINE
  5
4B
330
1F
100
AcDbEntity
  8
layer 1
 62
     7
100
AcDbSpline
210
0.0
220
0.0
230
1.0
 70
    11
 71
     3
 72
    12
 73
     8
 74
     0
 42
0.0000000001
 43
0.0000000001
 12
1.0
 22
0.0
 32
0.0
 13
1.0
 23
0.0
 33
0.0
 40
0.0
 40
0.0
 40
0.0
 40
0.0
 40
0.3333333333333333
 40
0.3333333333333333
 40
0.3333333333333333
 40
0.3333333333333333
 40
1.0
 40
1.0
 40
1.0
 40
1.0
 10
-8.2902
 20
97.5647
 30
0.0
 10
-8.1942
 20
93.4815
 30
0.0
 10
-5.019
 20
89.4665
 30
0.0
 10
0.408
 20
88.5785
 30
0.0
 10
0.408
 20
88.5785
 30
0.0
 10
-0.6627
 20
95.5282
 30
0.0
 10
-5.0388
 20
96.8762
 30
0.0
 10
-8.2902
 20
97.5647
 30
0.0
  0
SPLINE
  5
4C
330
1F
100
AcDbEntity
  8
layer 1
 62
     7
100
AcDbSpline
210
0.0
220
0.0
230
1.0
 70
    11
 71
     3
 72
    12
 73
     8
 74
     0
 42
0.0000000001
 43
0.0000000001
 12
1.0
 22
0.0
 32
0.0
 13
1.0
 23
0.0
 33
0.0
 40
0.0
 40
0.0
 40
0.0
 40
0.0
 40
0.3333333333333333
 40
0.3333333333333333
 40
0.3333333333333333
 40
0.3333333333333333
 40
1.0
 40
1.0
 40
1.0
 40
1.0
 10
15.6227
 20
97.5647
 30
0.0
 10
15.5268
 20
93.4815
 30
0.0
 10
12.3516
 20
89.4665
 30
0.0
 10
6.9245
 20
88.5785
 30
0.0
 10
6.9245
 20
88.5785
 30
0.0
 10
7.9953
 20
95.5282
 30
0.0
 10
12.3713
 20
96.8762
 30
0.0
 10
15.6227
 20
97.5647
 30
0.0
  0
SPLINE
  5
4D
330
1F
100
AcDbEntity
  8
layer 1
 62
     7
100
AcDbSpline
210
0.0
220
0.0
230
1.0
 70
    11
 71
     3
 72
    20
 73
    16
 74
     0
 42
0.0000000001
 43
0.0000000001
 12
1.0
 22
0.0
 32
0.0
 13
1.0
 23
0.0
 33
0.0
 40
0.0
 40
0.0
 40
0.0
 40
0.0
 40
0.2
 40
0.2
 40
0.2
 40
0.2
 40
0.4
 40
0.4
 40
0.4
 40
0.4
 40
0.6
 40
0.6
 40
0.6
 40
0.6
 40
1.0
 40
1.0
 40
1.0
 40
1.0
 10
25.9636
 20
100.8892
 30
0.0
 10
29.0834
 20
101.0847
 30
0.0
 10
34.1783
 20
106.0116
 30
0.0
 10
34.4218
 20
109.3473
 30
0.0
 10
34.4218
 20
109.3473
 30
0.0
 10
34.7133
 20
106.0596
 30
0.0
 10
39.7123
 20
100.9407
 30
0.0
 10
42.8799
 20
100.8892
 30
0.0
 10
42.8799
 20
100.8892
 30
0.0
 10
39.7842
 20
100.3097
 30
0.0
 10
34.8093
 20
96.0787
 30
0.0
 10
34.4218
 20
92.431
 30
0.0
 10
34.4218
 20
92.431
 30
0.0
 10
34.1062
 20
96.0547
 30
0.0
 10
29.1793
 20
100.2617
 30
0.0
 10
25.9636
 20
100.8892
 30
0.0
  0
SPLINE
  5
4E
330
1F
100
AcDbEntity
  8
layer 1
 62
     7
100
AcDbSpline
210
0.0
220
0.0
230
1.0
 70
    11
 71
     3
 72
    12
 73
     8
 74
     0
 42
0.0000000001
 43
0.0000000001
 12
1.0
 22
0.0
 32
0.0
 13
1.0
 23
0.0
 33
0.0
 40
0.0
 40
0.0
 40
0.0
 40
0.0
 40
0.3333333333333333
 40
0.3333333333333333
 40
0.3333333333333333
 40
0.3333333333333333
 40
1.0
 40
1.0
 40
1.0
 40
1.0
 10
22.4119
 20
104.0811
 30
0.0
 10
22.508
 20
108.1642
 30
0.0
 10
25.683
 20
112.1793
 30
0.0
 10
31.1101
 20
113.0673
 30
0.0
 10
31.1101
 20
113.0673
 30
0.0
 10
30.0394
 20
106.1176
 30
0.0
 10
25.6633
 20
104.7695
 30
0.0
 10
22.4119
 20
104.0811
 30
0.0
  0
SPLINE
  5
4F
330
1F
100
AcDbEntity
  8
layer 1
 62
     7
100
AcDbSpline
210
0.0
220
0.0
230
1.0
 70
    11
 71
     3
 72
    12
 73
     8
 74
     0
 42
0.0000000001
 43
0.0000000001
 12
1.0
 22
0.0
 32
0.0
 13
1.0
 23
0.0
 33
0.0
 40
0.0
 40
0.0
 40
0.0
 40
0.0
 40
0.3333333333333333
 40
0.3333333333333333
 40
0.3333333333333333
 40
0.3333333333333333
 40
1.0
 40
1.0
 40
1.0
 40
1.0
 10
46.3248
 20
104.0811
 30
0.0
 10
46.2289
 20
108.1642
 30
0.0
 10
43.0537
 20
112.1793
 30
0.0
 10
37.6266
 20
113.0673
 30
0.0
 10
37.6266
 20
113.0673
 30
0.0
 10
38.6973
 20
106.1176
 30
0.0
 10
43.0734
 20
104.7695
 30
0.0
 10
46.3248
 20
104.0811
 30
0.0
  0
SPLINE
  5
50
330
1F
100
AcDbEntity
  8
layer 1
 62
     7
100
AcDbSpline
210
0.0
220
0.0
230
1.0
 70
    11
 71
     3
 72
    12
 73
     8
 74
     0
 42
0.0000000001
 43
0.0000000001
 12
1.0
 22
0.0
 32
0.0
 13
1.0
 23
0.0
 33
0.0
 40
0.0
 40
0.0
 40
0.0
 40
0.0
 40
0.3333333333333333
 40
0.3333333333333333
 40
0.3333333333333333
 40
0.3333333333333333
 40
1.0
 40
1.0
 40
1.0
 40
1.0
 10
22.4119
 20
97.5647
 30
0.0
 10
22.508
 20
93.4815
 30
0.0
 10
25.683
 20
89.4665
 30
0.0
 10
31.1101
 20
88.5785
 30
0.0
 10
31.1101
 20
88.5785
 30
0.0
 10
30.0394
 20
95.5282
 30
0.0
 10
25.6633
 20
96.8762
 30
0.0
 10
22.4119
 20
97.5647
 30
0.0
  0
SPLINE
  5
51
330
1F
100
AcDbEntity
  8
layer 1
 62
     7
100
AcDbSpline
210
0.0
220
0.0
230
1.0
 70
    11
 71
     3
 72
    20
 73
    16
 74
     0
 42
0.0000000001
 43
0.0000000001
 12
1.0
 22
0.0
 32
0.0
 13
1.0
 23
0.0
 33
0.0
 40
0.0
 40
0.0
 40
0.0
 40
0.0
 40
0.2
 40
0.2
 40
0.2
 40
0.2
 40
0.4
 40
0.4
 40
0.4
 40
0.4
 40
0.6
 40
0.6
 40
0.6
 40
0.6
 40
1.0
 40
1.0
 40
1.0
 40
1.0
 10
52.9422
 20
104.0811
 30
0.0
 10
53.0153
 20
107.1902
 30
0.0
 10
54.8737
 20
110.2597
 30
0.0
 10
58.152
 20
111.9394
 30
0.0
 10
58.152
 20
111.9394
 30
0.0
 10
58.152
 20
111.9394
 30
0.0
 10
58.1369
 20
106.2483
 30
0.0
 10
58.1369
 20
106.2483
 30
0.0
 10
58.1369
 20
106.2483
 30
0.0
 10
56.4966
 20
104.9402
 30
0.0
 10
54.5773
 20
104.4273
 30
0.0
 10
52.9422
 20
104.0812
 30
0.0
 10
52.9422
 20
104.0812
 30
0.0
 10
52.9422
 20
104.0812
 30
0.0
 10
52.9422
 20
104.0811
 30
0.0
 10
52.9422
 20
104.0811
 30
0.0
  0
SPLINE
  5
52
330
1F
100
AcDbEntity
  8
layer 1
 62
     7
100
AcDbSpline
210
0.0
220
0.0
230
1.0
 70
    11
 71
     3
 72
    16
 73
    12
 74
     0
 42
0.0000000001
 43
0.0000000001
 12
1.0
 22
0.0
 32
0.0
 13
1.0
 23
0.0
 33
0.0
 40
0.0
 40
0.0
 40
0.0
 40
0.0
 40
0.25
 40
0.25
 40
0.25
 40
0.25
 40
0.5
 40
0.5
 40
0.5
 40
0.5
 40
1.0
 40
1.0
 40
1.0
 40
1.0
 10
52.9422
 20
97.5647
 30
0.0
 10
53.0156
 20
94.4474
 30
0.0
 10
54.8834
 20
91.3698
 30
0.0
 10
58.1779
 20
89.6932
 30
0.0
 10
58.1779
 20
89.6932
 30
0.0
 10
58.1779
 20
89.6932
 30
0.0
 10
58.1877
 20
95.3567
 30
0.0
 10
58.1877
 20
95.3567
 30
0.0
 10
58.1877
 20
95.3567
 30
0.0
 10
56.5362
 20
96.6949
 30
0.0
 10
54.5941
 20
97.215
 30
0.0
 10
52.9422
 20
97.5647
 30
0.0
  0
SPLINE
  5
53
330
1F
100
AcDbEntity
  8
layer 1
 62
     7
100
AcDbSpline
210
0.0
220
0.0
230
1.0
 70
    11
 71
     3
 72
    20
 73
    16
 74
     0
 42
0.0000000001
 43
0.0000000001
 12
1.0
 22
0.0
 32
0.0
 13
1.0
 23
0.0
 33
0.0
 40
0.0
 40
0.0
 40
0.0
 40
0.0
 40
0.2
 40
0.2
 40
0.2
 40
0.2
 40
0.4
 40
0.4
 40
0.4
 40
0.4
 40
0.6
 40
0.6
 40
0.6
 40
0.6
 40
1.0
 40
1.0
 40
1.0
 40
1.0
 10
-45.7162
 20
104.0811
 30
0.0
 10
-45.7893
 20
107.1902
 30
0.0
 10
-47.6476
 20
110.2597
 30
0.0
 10
-50.9259
 20
111.9394
 30
0.0
 10
-50.9259
 20
111.9394
 30
0.0
 10
-50.9259
 20
111.9394
 30
0.0
 10
-50.9109
 20
106.2483
 30
0.0
 10
-50.9109
 20
106.2483
 30
0.0
 10
-50.9109
 20
106.2483
 30
0.0
 10
-49.2705
 20
104.9402
 30
0.0
 10
-47.3512
 20
104.4273
 30
0.0
 10
-45.7162
 20
104.0812
 30
0.0
 10
-45.7162
 20
104.0812
 30
0.0
 10
-45.7162
 20
104.0812
 30
0.0
 10
-45.7162
 20
104.0811
 30
0.0
 10
-45.7162
 20
104.0811
 30
0.0
  0
SPLINE
  5
54
330
1F
100
AcDbEntity
  8
layer 1
 62
     7
100
AcDbSpline
210
0.0
220
0.0
230
1.0
 70
    11
 71
     3
 72
    16
 73
    12
 74
     0
 42
0.0000000001
 43
0.0000000001
 12
1.0
 22
0.0
 32
0.0
 13
1.0
 23
0.0
 33
0.0
 40
0.0
 40
0.0
 40
0.0
 40
0.0
 40
0.25
 40
0.25
 40
0.25
 40
0.25
 40
0.5
 40
0.5
 40
0.5
 40
0.5
 40
1.0
 40
1.0
 40
1.0
 40
1.0
 10
-45.7162
 20
97.5647
 30
0.0
 10
-45.7895
 20
94.4474
 30
0.0
 10
-47.6574
 20
91.3698
 30
0.0
 10
-50.9519
 20
89.6932
 30
0.0
 10
-50.9519
 20
89.6932
 30
0.0
 10
-50.9519
 20
89.6932
 30
0.0
 10
-50.9617
 20
95.3567
 30
0.0
 10
-50.9617
 20
95.3567
 30
0.0
 10
-50.9617
 20
95.3567
 30
0.0
 10
-49.3102
 20
96.6949
 30
0.0
 10
-47.368
 20
97.215
 30
0.0
 10
-45.7162
 20
97.5647
 30
0.0
  0
SPLINE
  5
55
330
1F
100
AcDbEntity
  8
layer 1
 62
     7
100
AcDbSpline
210
0.0
220
0.0
230
1.0
 70
    11
 71
     3
 72
    20
 73
    16
 74
     0
 42
0.0000000001
 43
0.0000000001
 12
1.0
 22
0.0
 32
0.0
 13
1.0
 23
0.0
 33
0.0
 40
0.0
 40
0.0
 40
0.0
 40
0.0
 40
0.2
 40
0.2
 40
0.2
 40
0.2
 40
0.4
 40
0.4
 40
0.4
 40
0.4
 40
0.6
 40
0.6
 40
0.6
 40
0.6
 40
1.0
 40
1.0
 40
1.0
 40
1.0
 10
-50.9617
 20
85.34
 30
0.0
 10
-47.8419
 20
85.5355
 30
0.0
 10
-42.747
 20
90.4624
 30
0.0
 10
-42.5035
 20
93.7981
 30
0.0
 10
-42.5035
 20
93.7981
 30
0.0
 10
-42.2119
 20
90.5104
 30
0.0
 10
-37.213
 20
85.3915
 30
0.0
 10
-34.0454
 20
85.34
 30
0.0
 10
-34.0454
 20
85.34
 30
0.0
 10
-37.1411
 20
84.7604
 30
0.0
 10
-42.116
 20
80.5294
 30
0.0
 10
-42.5035
 20
76.8818
 30
0.0
 10
-42.5035
 20
76.8818
 30
0.0
 10
-42.819
 20
80.5054
 30
0.0
 10
-47.7459
 20
84.7125
 30
0.0
 10
-50.9617
 20
85.34
 30
0.0
  0
SPLINE
  5
56
330
1F
100
AcDbEntity
  8
layer 1
 62
     7
100
AcDbSpline
210
0.0
220
0.0
230
1.0
 70
    11
 71
     3
 72
    12
 73
     8
 74
     0
 42
0.0000000001
 43
0.0000000001
 12
1.0
 22
0.0
 32
0.0
 13
1.0
 23
0.0
 33
0.0
 40
0.0
 40
0.0
 40
0.0
 40
0.0
 40
0.3333333333333333
 40
0.3333333333333333
 40
0.3333333333333333
 40
0.3333333333333333
 40
1.0
 40
1.0
 40
1.0
 40
1.0
 10
-30.6005
 20
82.0154
 30
0.0
 10
-30.6964
 20
77.9323
 30
0.0
 10
-33.8716
 20
73.9172
 30
0.0
 10
-39.2987
 20
73.0292
 30
0.0
 10
-39.2987
 20
73.0292
 30
0.0
 10
-38.228
 20
79.979
 30
0.0
 10
-33.8519
 20
81.327
 30
0.0
 10
-30.6005
 20
82.0154
 30
0.0
  0
SPLINE
  5
57
330
1F
100
AcDbEntity
  8
layer 1
 62
     7
100
AcDbSpline
210
0.0
220
0.0
230
1.0
 70
    11
 71
     3
 72
    20
 73
    16
 74
     0
 42
0.0000000001
 43
0.0000000001
 12
1.0
 22
0.0
 32
0.0
 13
1.0
 23
0.0
 33
0.0
 40
0.0
 40
0.0
 40
0.0
 40
0.0
 40
0.2
 40
0.2
 40
0.2
 40
0.2
 40
0.4
 40
0.4
 40
0.4
 40
0.4
 40
0.6
 40
0.6
 40
0.6
 40
0.6
 40
1.0
 40
1.0
 40
1.0
 40
1.0
 10
-20.224
 20
85.34
 30
0.0
 10
-17.1042
 20
85.5355
 30
0.0
 10
-12.0093
 20
90.4624
 30
0.0
 10
-11.7658
 20
93.7981
 30
0.0
 10
-11.7658
 20
93.7981
 30
0.0
 10
-11.4742
 20
90.5104
 30
0.0
 10
-6.4753
 20
85.3915
 30
0.0
 10
-3.3077
 20
85.34
 30
0.0
 10
-3.3077
 20
85.34
 30
0.0
 10
-6.4034
 20
84.7604
 30
0.0
 10
-11.3783
 20
80.5294
 30
0.0
 10
-11.7658
 20
76.8818
 30
0.0
 10
-11.7658
 20
76.8818
 30
0.0
 10
-12.0814
 20
80.5054
 30
0.0
 10
-17.0083
 20
84.7125
 30
0.0
 10
-20.224
 20
85.34
 30
0.0
  0
SPLINE
  5
58
330
1F
100
AcDbEntity
  8
layer 1
 62
     7
100
AcDbSpline
210
0.0
220
0.0
230
1.0
 70
    11
 71
     3
 72
    12
 73
     8
 74
     0
 42
0.0000000001
 43
0.0000000001
 12
1.0
 22
0.0
 32
0.0
 13
1.0
 23
0.0
 33
0.0
 40
0.0
 40
0.0
 40
0.0
 40
0.0
 40
0.3333333333333333
 40
0.3333333333333333
 40
0.3333333333333333
 40
0.3333333333333333
 40
1.0
 40
1.0
 40
1.0
 40
1.0
 10
-23.7757
 20
82.0154
 30
0.0
 10
-23.6798
 20
77.9323
 30
0.0
 10
-20.5046
 20
73.9172
 30
0.0
 10
-15.0775
 20
73.0292
 30
0.0
 10
-15.0775
 20
73.0292
 30
0.0
 10
-16.1482
 20
79.979
 30
0.0
 10
-20.5243
 20
81.327
 30
0.0
 10
-23.7757
 20
82.0154
 30
0.0
  0
SPLINE
  5
59
330
1F
100
AcDbEntity
  8
layer 1
 62
     7
100
AcDbSpline
210
0.0
220
0.0
230
1.0
 70
    11
 71
     3
 72
    12
 73
     8
 74
     0
 42
0.0000000001
 43
0.0000000001
 12
1.0
 22
0.0
 32
0.0
 13
1.0
 23
0.0
 33
0.0
 40
0.0
 40
0.0
 40
0.0
 40
0.0
 40
0.3333333333333333
 40
0.3333333333333333
 40
0.3333333333333333
 40
0.3333333333333333
 40
1.0
 40
1.0
 40
1.0
 40
1.0
 10
0.1371
 20
82.0154
 30
0.0
 10
0.0411
 20
77.9323
 30
0.0
 10
-3.1341
 20
73.9172
 30
0.0
 10
-8.5611
 20
73.0292
 30
0.0
 10
-8.5611
 20
73.0292
 30
0.0
 10
-7.4904
 20
79.979
 30
0.0
 10
-3.1144
 20
81.327
 30
0.0
 10
0.1371
 20
82.0154
 30
0.0
  0
SPLINE
  5
5A
330
1F
100
AcDbEntity
  8
layer 1
 62
     7
100
AcDbSpline
210
0.0
220
0.0
230
1.0
 70
    11
 71
     3
 72
    20
 73
    16
 74
     0
 42
0.0000000001
 43
0.0000000001
 12
1.0
 22
0.0
 32
0.0
 13
1.0
 23
0.0
 33
0.0
 40
0.0
 40
0.0
 40
0.0
 40
0.0
 40
0.2
 40
0.2
 40
0.2
 40
0.2
 40
0.4
 40
0.4
 40
0.4
 40
0.4
 40
0.6
 40
0.6
 40
0.6
 40
0.6
 40
1.0
 40
1.0
 40
1.0
 40
1.0
 10
10.478
 20
85.34
 30
0.0
 10
13.5977
 20
85.5355
 30
0.0
 10
18.6926
 20
90.4624
 30
0.0
 10
18.9361
 20
93.7981
 30
0.0
 10
18.9361
 20
93.7981
 30
0.0
 10
19.2277
 20
90.5104
 30
0.0
 10
24.2267
 20
85.3915
 30
0.0
 10
27.3943
 20
85.34
 30
0.0
 10
27.3943
 20
85.34
 30
0.0
 10
24.2986
 20
84.7604
 30
0.0
 10
19.3236
 20
80.5294
 30
0.0
 10
18.9361
 20
76.8818
 30
0.0
 10
18.9361
 20
76.8818
 30
0.0
 10
18.6206
 20
80.5054
 30
0.0
 10
13.6936
 20
84.7125
 30
0.0
 10
10.478
 20
85.34
 30
0.0
  0
SPLINE
  5
5B
330
1F
100
AcDbEntity
  8
layer 1
 62
     7
100
AcDbSpline
210
0.0
220
0.0
230
1.0
 70
    11
 71
     3
 72
    12
 73
     8
 74
     0
 42
0.0000000001
 43
0.0000000001
 12
1.0
 22
0.0
 32
0.0
 13
1.0
 23
0.0
 33
0.0
 40
0.0
 40
0.0
 40
0.0
 40
0.0
 40
0.3333333333333333
 40
0.3333333333333333
 40
0.3333333333333333
 40
0.3333333333333333
 40
1.0
 40
1.0
 40
1.0
 40
1.0
 10
6.9264
 20
82.0154
 30
0.0
 10
7.0224
 20
77.9323
 30
0.0
 10
10.1975
 20
73.9172
 30
0.0
 10
15.6245
 20
73.0292
 30
0.0
 10
15.6245
 20
73.0292
 30
0.0
 10
14.5538
 20
79.979
 30
0.0
 10
10.1778
 20
81.327
 30
0.0
 10
6.9264
 20
82.0154
 30
0.0
  0
SPLINE
  5
5C
330
1F
100
AcDbEntity
  8
layer 1
 62
     7
100
AcDbSpline
210
0.0
220
0.0
230
1.0
 70
    11
 71
     3
 72
    12
 73
     8
 74
     0
 42
0.0000000001
 43
0.0000000001
 12
1.0
 22
0.0
 32
0.0
 13
1.0
 23
0.0
 33
0.0
 40
0.0
 40
0.0
 40
0.0
 40
0.0
 40
0.3333333333333333
 40
0.3333333333333333
 40
0.3333333333333333
 40
0.3333333333333333
 40
1.0
 40
1.0
 40
1.0
 40
1.0
 10
30.8391
 20
82.0154
 30
0.0
 10
30.7432
 20
77.9323
 30
0.0
 10
27.568
 20
73.9172
 30
0.0
 10
22.141
 20
73.0292
 30
0.0
 10
22.141
 20
73.0292
 30
0.0
 10
23.2117
 20
79.979
 30
0.0
 10
27.5877
 20
81.327
 30
0.0
 10
30.8391
 20
82.0154
 30
0.0
  0
SPLINE
  5
5D
330
1F
100
AcDbEntity
  8
layer 1
 62
     7
100
AcDbSpline
210
0.0
220
0.0
230
1.0
 70
    11
 71
     3
 72
    16
 73
    12
 74
     0
 42
0.0000000001
 43
0.0000000001
 12
1.0
 22
0.0
 32
0.0
 13
1.0
 23
0.0
 33
0.0
 40
0.0
 40
0.0
 40
0.0
 40
0.0
 40
0.25
 40
0.25
 40
0.25
 40
0.25
 40
0.5
 40
0.5
 40
0.5
 40
0.5
 40
1.0
 40
1.0
 40
1.0
 40
1.0
 10
52.9049
 20
72.7574
 30
0.0
 10
52.9782
 20
75.8746
 30
0.0
 10
54.8461
 20
78.9522
 30
0.0
 10
58.1406
 20
80.6289
 30
0.0
 10
58.1406
 20
80.6289
 30
0.0
 10
58.1406
 20
80.6289
 30
0.0
 10
58.1504
 20
74.9654
 30
0.0
 10
58.1504
 20
74.9654
 30
0.0
 10
58.1504
 20
74.9654
 30
0.0
 10
56.4989
 20
73.6271
 30
0.0
 10
54.5568
 20
73.107
 30
0.0
 10
52.9049
 20
72.7574
 30
0.0
  0
SPLINE
  5
5E
330
1F
100
AcDbEntity
  8
layer 1
 62
     7
100
AcDbSpline
210
0.0
220
0.0
230
1.0
 70
    11
 71
     3
 72
    16
 73
    12
 74
     0
 42
0.0000000001
 43
0.0000000001
 12
1.0
 22
0.0
 32
0.0
 13
1.0
 23
0.0
 33
0.0
 40
0.0
 40
0.0
 40
0.0
 40
0.0
 40
0.25
 40
0.25
 40
0.25
 40
0.25
 40
0.5
 40
0.5
 40
0.5
 40
0.5
 40
1.0
 40
1.0
 40
1.0
 40
1.0
 10
-45.726
 20
73.2525
 30
0.0
 10
-45.7993
 20
76.3698
 30
0.0
 10
-47.6672
 20
79.4474
 30
0.0
 10
-50.9617
 20
81.1241
 30
0.0
 10
-50.9617
 20
81.1241
 30
0.0
 10
-50.9617
 20
81.1241
 30
0.0
 10
-50.9715
 20
75.4605
 30
0.0
 10
-50.9715
 20
75.4605
 30
0.0
 10
-50.9715
 20
75.4605
 30
0.0
 10
-49.32
 20
74.1223
 30
0.0
 10
-47.3778
 20
73.6022
 30
0.0
 10
-45.726
 20
73.2525
 30
0.0
  0
SPLINE
  5
5F
330
1F
100
AcDbEntity
  8
layer 1
 62
     7
100
AcDbSpline
210
0.0
220
0.0
230
1.0
 70
    11
 71
     3
 72
    12
 73
     8
 74
     0
 42
0.0000000001
 43
0.0000000001
 12
1.0
 22
0.0
 32
0.0
 13
1.0
 23
0.0
 33
0.0
 40
0.0
 40
0.0
 40
0.0
 40
0.0
 40
0.3333333333333333
 40
0.3333333333333333
 40
0.3333333333333333
 40
0.3333333333333333
 40
1.0
 40
1.0
 40
1.0
 40
1.0
 10
46.523
 20
97.5647
 30
0.0
 10
46.4271
 20
93.4815
 30
0.0
 10
43.2519
 20
89.4665
 30
0.0
 10
37.8249
 20
88.5785
 30
0.0
 10
37.8249
 20
88.5785
 30
0.0
 10
38.8956
 20
95.5282
 30
0.0
 10
43.2716
 20
96.8762
 30
0.0
 10
46.523
 20
97.5647
 30
0.0
  0
SPLINE
  5
60
330
1F
100
AcDbEntity
  8
layer 1
 62
     7
100
AcDbSpline
210
0.0
220
0.0
230
1.0
 70
    11
 71
     3
 72
    20
 73
    16
 74
     0
 42
0.0000000001
 43
0.0000000001
 12
1.0
 22
0.0
 32
0.0
 13
1.0
 23
0.0
 33
0.0
 40
0.0
 40
0.0
 40
0.0
 40
0.0
 40
0.2
 40
0.2
 40
0.2
 40
0.2
 40
0.4
 40
0.4
 40
0.4
 40
0.4
 40
0.6
 40
0.6
 40
0.6
 40
0.6
 40
1.0
 40
1.0
 40
1.0
 40
1.0
 10
41.3784
 20
85.34
 30
0.0
 10
44.4982
 20
85.5355
 30
0.0
 10
49.593
 20
90.4624
 30
0.0
 10
49.8366
 20
93.7981
 30
0.0
 10
49.8366
 20
93.7981
 30
0.0
 10
50.1281
 20
90.5104
 30
0.0
 10
55.1271
 20
85.3915
 30
0.0
 10
58.2947
 20
85.34
 30
0.0
 10
58.2947
 20
85.34
 30
0.0
 10
55.199
 20
84.7604
 30
0.0
 10
50.2241
 20
80.5294
 30
0.0
 10
49.8366
 20
76.8818
 30
0.0
 10
49.8366
 20
76.8818
 30
0.0
 10
49.521
 20
80.5054
 30
0.0
 10
44.5941
 20
84.7125
 30
0.0
 10
41.3784
 20
85.34
 30
0.0
  0
SPLINE
  5
61
330
1F
100
AcDbEntity
  8
layer 1
 62
     7
100
AcDbSpline
210
0.0
220
0.0
230
1.0
 70
    11
 71
     3
 72
    12
 73
     8
 74
     0
 42
0.0000000001
 43
0.0000000001
 12
1.0
 22
0.0
 32
0.0
 13
1.0
 23
0.0
 33
0.0
 40
0.0
 40
0.0
 40
0.0
 40
0.0
 40
0.3333333333333333
 40
0.3333333333333333
 40
0.3333333333333333
 40
0.3333333333333333
 40
1.0
 40
1.0
 40
1.0
 40
1.0
 10
37.8267
 20
82.0154
 30
0.0
 10
37.9227
 20
77.9323
 30
0.0
 10
41.0978
 20
73.9172
 30
0.0
 10
46.5249
 20
73.0292
 30
0.0
 10
46.5249
 20
73.0292
 30
0.0
 10
45.4541
 20
79.979
 30
0.0
 10
41.0781
 20
81.327
 30
0.0
 10
37.8267
 20
82.0154
 30
0.0
  0
SPLINE
  5
62
330
1F
100
AcDbEntity
  8
layer 1
 62
     7
100
AcDbSpline
210
0.0
220
0.0
230
1.0
 70
    11
 71
     3
 72
    20
 73
    16
 74
     0
 42
0.0000000001
 43
0.0000000001
 12
1.0
 22
0.0
 32
0.0
 13
1.0
 23
0.0
 33
0.0
 40
0.0
 40
0.0
 40
0.0
 40
0.0
 40
0.2
 40
0.2
 40
0.2
 40
0.2
 40
0.4
 40
0.4
 40
0.4
 40
0.4
 40
0.6
 40
0.6
 40
0.6
 40
0.6
 40
1.0
 40
1.0
 40
1.0
 40
1.0
 10
-35.476
 20
39.1213
 30
0.0
 10
-32.3563
 20
39.3168
 30
0.0
 10
-27.2614
 20
44.2437
 30
0.0
 10
-27.0179
 20
47.5795
 30
0.0
 10
-27.0179
 20
47.5795
 30
0.0
 10
-26.7263
 20
44.2918
 30
0.0
 10
-21.7273
 20
39.1728
 30
0.0
 10
-18.5597
 20
39.1213
 30
0.0
 10
-18.5597
 20
39.1213
 30
0.0
 10
-21.6554
 20
38.5417
 30
0.0
 10
-26.6304
 20
34.3108
 30
0.0
 10
-27.0179
 20
30.6631
 30
0.0
 10
-27.0179
 20
30.6631
 30
0.0
 10
-27.3334
 20
34.2868
 30
0.0
 10
-32.2604
 20
38.4938
 30
0.0
 10
-35.476
 20
39.1213
 30
0.0
  0
SPLINE
  5
63
330
1F
100
AcDbEntity
  8
layer 1
 62
     7
100
AcDbSpline
210
0.0
220
0.0
230
1.0
 70
    11
 71
     3
 72
    12
 73
     8
 74
     0
 42
0.0000000001
 43
0.0000000001
 12
1.0
 22
0.0
 32
0.0
 13
1.0
 23
0.0
 33
0.0
 40
0.0
 40
0.0
 40
0.0
 40
0.0
 40
0.3333333333333333
 40
0.3333333333333333
 40
0.3333333333333333
 40
0.3333333333333333
 40
1.0
 40
1.0
 40
1.0
 40
1.0
 10
-39.0277
 20
42.3133
 30
0.0
 10
-38.9317
 20
46.3965
 30
0.0
 10
-35.7566
 20
50.4115
 30
0.0
 10
-30.3296
 20
51.2995
 30
0.0
 10
-30.3296
 20
51.2995
 30
0.0
 10
-31.4003
 20
44.3498
 30
0.0
 10
-35.7763
 20
43.0018
 30
0.0
 10
-39.0277
 20
42.3133
 30
0.0
  0
SPLINE
  5
64
330
1F
100
AcDbEntity
  8
layer 1
 62
     7
100
AcDbSpline
210
0.0
220
0.0
230
1.0
 70
    11
 71
     3
 72
    12
 73
     8
 74
     0
 42
0.0000000001
 43
0.0000000001
 12
1.0
 22
0.0
 32
0.0
 13
1.0
 23
0.0
 33
0.0
 40
0.0
 40
0.0
 40
0.0
 40
0.0
 40
0.3333333333333333
 40
0.3333333333333333
 40
0.3333333333333333
 40
0.3333333333333333
 40
1.0
 40
1.0
 40
1.0
 40
1.0
 10
-15.1149
 20
42.3133
 30
0.0
 10
-15.2108
 20
46.3965
 30
0.0
 10
-18.386
 20
50.4115
 30
0.0
 10
-23.813
 20
51.2995
 30
0.0
 10
-23.813
 20
51.2995
 30
0.0
 10
-22.7423
 20
44.3498
 30
0.0
 10
-18.3663
 20
43.0018
 30
0.0
 10
-15.1149
 20
42.3133
 30
0.0
  0
SPLINE
  5
65
330
1F
100
AcDbEntity
  8
layer 1
 62
     7
100
AcDbSpline
210
0.0
220
0.0
230
1.0
 70
    11
 71
     3
 72
    12
 73
     8
 74
     0
 42
0.0000000001
 43
0.0000000001
 12
1.0
 22
0.0
 32
0.0
 13
1.0
 23
0.0
 33
0.0
 40
0.0
 40
0.0
 40
0.0
 40
0.0
 40
0.3333333333333333
 40
0.3333333333333333
 40
0.3333333333333333
 40
0.3333333333333333
 40
1.0
 40
1.0
 40
1.0
 40
1.0
 10
-39.0277
 20
35.7968
 30
0.0
 10
-38.9317
 20
31.7136
 30
0.0
 10
-35.7566
 20
27.6986
 30
0.0
 10
-30.3296
 20
26.8106
 30
0.0
 10
-30.3296
 20
26.8106
 30
0.0
 10
-31.4003
 20
33.7603
 30
0.0
 10
-35.7763
 20
35.1083
 30
0.0
 10
-39.0277
 20
35.7968
 30
0.0
  0
SPLINE
  5
66
330
1F
100
AcDbEntity
  8
layer 1
 62
     7
100
AcDbSpline
210
0.0
220
0.0
230
1.0
 70
    11
 71
     3
 72
    12
 73
     8
 74
     0
 42
0.0000000001
 43
0.0000000001
 12
1.0
 22
0.0
 32
0.0
 13
1.0
 23
0.0
 33
0.0
 40
0.0
 40
0.0
 40
0.0
 40
0.0
 40
0.3333333333333333
 40
0.3333333333333333
 40
0.3333333333333333
 40
0.3333333333333333
 40
1.0
 40
1.0
 40
1.0
 40
1.0
 10
-15.1149
 20
35.7968
 30
0.0
 10
-15.2108
 20
31.7136
 30
0.0
 10
-18.386
 20
27.6986
 30
0.0
 10
-23.813
 20
26.8106
 30
0.0
 10
-23.813
 20
26.8106
 30
0.0
 10
-22.7423
 20
33.7603
 30
0.0
 10
-18.3663
 20
35.1083
 30
0.0
 10
-15.1149
 20
35.7968
 30
0.0
  0
SPLINE
  5
67
330
1F
100
AcDbEntity
  8
layer 1
 62
     7
100
AcDbSpline
210
0.0
220
0.0
230
1.0
 70
    11
 71
     3
 72
    20
 73
    16
 74
     0
 42
0.0000000001
 43
0.0000000001
 12
1.0
 22
0.0
 32
0.0
 13
1.0
 23
0.0
 33
0.0
 40
0.0
 40
0.0
 40
0.0
 40
0.0
 40
0.2
 40
0.2
 40
0.2
 40
0.2
 40
0.4
 40
0.4
 40
0.4
 40
0.4
 40
0.6
 40
0.6
 40
0.6
 40
0.6
 40
1.0
 40
1.0
 40
1.0
 40
1.0
 10
-4.7384
 20
39.1213
 30
0.0
 10
-1.6187
 20
39.3168
 30
0.0
 10
3.4762
 20
44.2437
 30
0.0
 10
3.7197
 20
47.5795
 30
0.0
 10
3.7197
 20
47.5795
 30
0.0
 10
4.0113
 20
44.2918
 30
0.0
 10
9.0102
 20
39.1728
 30
0.0
 10
12.1779
 20
39.1213
 30
0.0
 10
12.1779
 20
39.1213
 30
0.0
 10
9.0822
 20
38.5417
 30
0.0
 10
4.1072
 20
34.3108
 30
0.0
 10
3.7197
 20
30.6631
 30
0.0
 10
3.7197
 20
30.6631
 30
0.0
 10
3.4041
 20
34.2868
 30
0.0
 10
-1.5228
 20
38.4938
 30
0.0
 10
-4.7384
 20
39.1213
 30
0.0
  0
SPLINE
  5
68
330
1F
100
AcDbEntity
  8
layer 1
 62
     7
100
AcDbSpline
210
0.0
220
0.0
230
1.0
 70
    11
 71
     3
 72
    12
 73
     8
 74
     0
 42
0.0000000001
 43
0.0000000001
 12
1.0
 22
0.0
 32
0.0
 13
1.0
 23
0.0
 33
0.0
 40
0.0
 40
0.0
 40
0.0
 40
0.0
 40
0.3333333333333333
 40
0.3333333333333333
 40
0.3333333333333333
 40
0.3333333333333333
 40
1.0
 40
1.0
 40
1.0
 40
1.0
 10
-8.2902
 20
42.3133
 30
0.0
 10
-8.1942
 20
46.3965
 30
0.0
 10
-5.019
 20
50.4115
 30
0.0
 10
0.408
 20
51.2995
 30
0.0
 10
0.408
 20
51.2995
 30
0.0
 10
-0.6627
 20
44.3498
 30
0.0
 10
-5.0388
 20
43.0018
 30
0.0
 10
-8.2902
 20
42.3133
 30
0.0
  0
SPLINE
  5
69
330
1F
100
AcDbEntity
  8
layer 1
 62
     7
100
AcDbSpline
210
0.0
220
0.0
230
1.0
 70
    11
 71
     3
 72
    12
 73
     8
 74
     0
 42
0.0000000001
 43
0.0000000001
 12
1.0
 22
0.0
 32
0.0
 13
1.0
 23
0.0
 33
0.0
 40
0.0
 40
0.0
 40
0.0
 40
0.0
 40
0.3333333333333333
 40
0.3333333333333333
 40
0.3333333333333333
 40
0.3333333333333333
 40
1.0
 40
1.0
 40
1.0
 40
1.0
 10
15.6227
 20
42.3133
 30
0.0
 10
15.5268
 20
46.3965
 30
0.0
 10
12.3516
 20
50.4115
 30
0.0
 10
6.9245
 20
51.2995
 30
0.0
 10
6.9245
 20
51.2995
 30
0.0
 10
7.9953
 20
44.3498
 30
0.0
 10
12.3713
 20
43.0018
 30
0.0
 10
15.6227
 20
42.3133
 30
0.0
  0
SPLINE
  5
6A
330
1F
100
AcDbEntity
  8
layer 1
 62
     7
100
AcDbSpline
210
0.0
220
0.0
230
1.0
 70
    11
 71
     3
 72
    12
 73
     8
 74
     0
 42
0.0000000001
 43
0.0000000001
 12
1.0
 22
0.0
 32
0.0
 13
1.0
 23
0.0
 33
0.0
 40
0.0
 40
0.0
 40
0.0
 40
0.0
 40
0.3333333333333333
 40
0.3333333333333333
 40
0.3333333333333333
 40
0.3333333333333333
 40
1.0
 40
1.0
 40
1.0
 40
1.0
 10
-8.2902
 20
35.7968
 30
0.0
 10
-8.1942
 20
31.7136
 30
0.0
 10
-5.019
 20
27.6986
 30
0.0
 10
0.408
 20
26.8106
 30
0.0
 10
0.408
 20
26.8106
 30
0.0
 10
-0.6627
 20
33.7603
 30
0.0
 10
-5.0388
 20
35.1083
 30
0.0
 10
-8.2902
 20
35.7968
 30
0.0
  0
SPLINE
  5
6B
330
1F
100
AcDbEntity
  8
layer 1
 62
     7
100
AcDbSpline
210
0.0
220
0.0
230
1.0
 70
    11
 71
     3
 72
    12
 73
     8
 74
     0
 42
0.0000000001
 43
0.0000000001
 12
1.0
 22
0.0
 32
0.0
 13
1.0
 23
0.0
 33
0.0
 40
0.0
 40
0.0
 40
0.0
 40
0.0
 40
0.3333333333333333
 40
0.3333333333333333
 40
0.3333333333333333
 40
0.3333333333333333
 40
1.0
 40
1.0
 40
1.0
 40
1.0
 10
15.6227
 20
35.7968
 30
0.0
 10
15.5268
 20
31.7136
 30
0.0
 10
12.3516
 20
27.6986
 30
0.0
 10
6.9245
 20
26.8106
 30
0.0
 10
6.9245
 20
26.8106
 30
0.0
 10
7.9953
 20
33.7603
 30
0.0
 10
12.3713
 20
35.1083
 30
0.0
 10
15.6227
 20
35.7968
 30
0.0
  0
SPLINE
  5
6C
330
1F
100
AcDbEntity
  8
layer 1
 62
     7
100
AcDbSpline
210
0.0
220
0.0
230
1.0
 70
    11
 71
     3
 72
    20
 73
    16
 74
     0
 42
0.0000000001
 43
0.0000000001
 12
1.0
 22
0.0
 32
0.0
 13
1.0
 23
0.0
 33
0.0
 40
0.0
 40
0.0
 40
0.0
 40
0.0
 40
0.2
 40
0.2
 40
0.2
 40
0.2
 40
0.4
 40
0.4
 40
0.4
 40
0.4
 40
0.6
 40
0.6
 40
0.6
 40
0.6
 40
1.0
 40
1.0
 40
1.0
 40
1.0
 10
25.9636
 20
39.1213
 30
0.0
 10
29.0834
 20
39.3168
 30
0.0
 10
34.1783
 20
44.2437
 30
0.0
 10
34.4218
 20
47.5795
 30
0.0
 10
34.4218
 20
47.5795
 30
0.0
 10
34.7133
 20
44.2918
 30
0.0
 10
39.7123
 20
39.1728
 30
0.0
 10
42.8799
 20
39.1213
 30
0.0
 10
42.8799
 20
39.1213
 30
0.0
 10
39.7842
 20
38.5417
 30
0.0
 10
34.8093
 20
34.3108
 30
0.0
 10
34.4218
 20
30.6631
 30
0.0
 10
34.4218
 20
30.6631
 30
0.0
 10
34.1062
 20
34.2868
 30
0.0
 10
29.1793
 20
38.4938
 30
0.0
 10
25.9636
 20
39.1213
 30
0.0
  0
SPLINE
  5
6D
330
1F
100
AcDbEntity
  8
layer 1
 62
     7
100
AcDbSpline
210
0.0
220
0.0
230
1.0
 70
    11
 71
     3
 72
    12
 73
     8
 74
     0
 42
0.0000000001
 43
0.0000000001
 12
1.0
 22
0.0
 32
0.0
 13
1.0
 23
0.0
 33
0.0
 40
0.0
 40
0.0
 40
0.0
 40
0.0
 40
0.3333333333333333
 40
0.3333333333333333
 40
0.3333333333333333
 40
0.3333333333333333
 40
1.0
 40
1.0
 40
1.0
 40
1.0
 10
22.4119
 20
42.3133
 30
0.0
 10
22.508
 20
46.3965
 30
0.0
 10
25.683
 20
50.4115
 30
0.0
 10
31.1101
 20
51.2995
 30
0.0
 10
31.1101
 20
51.2995
 30
0.0
 10
30.0394
 20
44.3498
 30
0.0
 10
25.6633
 20
43.0018
 30
0.0
 10
22.4119
 20
42.3133
 30
0.0
  0
SPLINE
  5
6E
330
1F
100
AcDbEntity
  8
layer 1
 62
     7
100
AcDbSpline
210
0.0
220
0.0
230
1.0
 70
    11
 71
     3
 72
    12
 73
     8
 74
     0
 42
0.0000000001
 43
0.0000000001
 12
1.0
 22
0.0
 32
0.0
 13
1.0
 23
0.0
 33
0.0
 40
0.0
 40
0.0
 40
0.0
 40
0.0
 40
0.3333333333333333
 40
0.3333333333333333
 40
0.3333333333333333
 40
0.3333333333333333
 40
1.0
 40
1.0
 40
1.0
 40
1.0
 10
46.3248
 20
42.3133
 30
0.0
 10
46.2289
 20
46.3965
 30
0.0
 10
43.0537
 20
50.4115
 30
0.0
 10
37.6266
 20
51.2995
 30
0.0
 10
37.6266
 20
51.2995
 30
0.0
 10
38.6973
 20
44.3498
 30
0.0
 10
43.0734
 20
43.0018
 30
0.0
 10
46.3248
 20
42.3133
 30
0.0
  0
SPLINE
  5
6F
330
1F
100
AcDbEntity
  8
layer 1
 62
     7
100
AcDbSpline
210
0.0
220
0.0
230
1.0
 70
    11
 71
     3
 72
    12
 73
     8
 74
     0
 42
0.0000000001
 43
0.0000000001
 12
1.0
 22
0.0
 32
0.0
 13
1.0
 23
0.0
 33
0.0
 40
0.0
 40
0.0
 40
0.0
 40
0.0
 40
0.3333333333333333
 40
0.3333333333333333
 40
0.3333333333333333
 40
0.3333333333333333
 40
1.0
 40
1.0
 40
1.0
 40
1.0
 10
22.4119
 20
35.7968
 30
0.0
 10
22.508
 20
31.7136
 30
0.0
 10
25.683
 20
27.6986
 30
0.0
 10
31.1101
 20
26.8106
 30
0.0
 10
31.1101
 20
26.8106
 30
0.0
 10
30.0394
 20
33.7603
 30
0.0
 10
25.6633
 20
35.1083
 30
0.0
 10
22.4119
 20
35.7968
 30
0.0
  0
SPLINE
  5
70
330
1F
100
AcDbEntity
  8
layer 1
 62
     7
100
AcDbSpline
210
0.0
220
0.0
230
1.0
 70
    11
 71
     3
 72
    20
 73
    16
 74
     0
 42
0.0000000001
 43
0.0000000001
 12
1.0
 22
0.0
 32
0.0
 13
1.0
 23
0.0
 33
0.0
 40
0.0
 40
0.0
 40
0.0
 40
0.0
 40
0.2
 40
0.2
 40
0.2
 40
0.2
 40
0.4
 40
0.4
 40
0.4
 40
0.4
 40
0.6
 40
0.6
 40
0.6
 40
0.6
 40
1.0
 40
1.0
 40
1.0
 40
1.0
 10
52.9422
 20
42.3133
 30
0.0
 10
53.0153
 20
45.4225
 30
0.0
 10
54.8737
 20
48.492
 30
0.0
 10
58.152
 20
50.1717
 30
0.0
 10
58.152
 20
50.1717
 30
0.0
 10
58.152
 20
50.1717
 30
0.0
 10
58.1369
 20
44.4806
 30
0.0
 10
58.1369
 20
44.4806
 30
0.0
 10
58.1369
 20
44.4806
 30
0.0
 10
56.4966
 20
43.1725
 30
0.0
 10
54.5773
 20
42.6596
 30
0.0
 10
52.9422
 20
42.3135
 30
0.0
 10
52.9422
 20
42.3135
 30
0.0
 10
52.9422
 20
42.3135
 30
0.0
 10
52.9422
 20
42.3133
 30
0.0
 10
52.9422
 20
42.3133
 30
0.0
  0
SPLINE
  5
71
330
1F
100
AcDbEntity
  8
layer 1
 62
     7
100
AcDbSpline
210
0.0
220
0.0
230
1.0
 70
    11
 71
     3
 72
    16
 73
    12
 74
     0
 42
0.0000000001
 43
0.0000000001
 12
1.0
 22
0.0
 32
0.0
 13
1.0
 23
0.0
 33
0.0
 40
0.0
 40
0.0
 40
0.0
 40
0.0
 40
0.25
 40
0.25
 40
0.25
 40
0.25
 40
0.5
 40
0.5
 40
0.5
 40
0.5
 40
1.0
 40
1.0
 40
1.0
 40
1.0
 10
52.9422
 20
35.7968
 30
0.0
 10
53.0156
 20
32.6795
 30
0.0
 10
54.8834
 20
29.602
 30
0.0
 10
58.1779
 20
27.9253
 30
0.0
 10
58.1779
 20
27.9253
 30
0.0
 10
58.1779
 20
27.9253
 30
0.0
 10
58.1877
 20
33.5888
 30
0.0
 10
58.1877
 20
33.5888
 30
0.0
 10
58.1877
 20
33.5888
 30
0.0
 10
56.5362
 20
34.9271
 30
0.0
 10
54.5941
 20
35.4471
 30
0.0
 10
52.9422
 20
35.7968
 30
0.0
  0
SPLINE
  5
72
330
1F
100
AcDbEntity
  8
layer 1
 62
     7
100
AcDbSpline
210
0.0
220
0.0
230
1.0
 70
    11
 71
     3
 72
    20
 73
    16
 74
     0
 42
0.0000000001
 43
0.0000000001
 12
1.0
 22
0.0
 32
0.0
 13
1.0
 23
0.0
 33
0.0
 40
0.0
 40
0.0
 40
0.0
 40
0.0
 40
0.2
 40
0.2
 40
0.2
 40
0.2
 40
0.4
 40
0.4
 40
0.4
 40
0.4
 40
0.6
 40
0.6
 40
0.6
 40
0.6
 40
1.0
 40
1.0
 40
1.0
 40
1.0
 10
-45.7162
 20
42.3133
 30
0.0
 10
-45.7893
 20
45.4225
 30
0.0
 10
-47.6476
 20
48.492
 30
0.0
 10
-50.9259
 20
50.1717
 30
0.0
 10
-50.9259
 20
50.1717
 30
0.0
 10
-50.9259
 20
50.1717
 30
0.0
 10
-50.9109
 20
44.4806
 30
0.0
 10
-50.9109
 20
44.4806
 30
0.0
 10
-50.9109
 20
44.4806
 30
0.0
 10
-49.2705
 20
43.1725
 30
0.0
 10
-47.3512
 20
42.6596
 30
0.0
 10
-45.7162
 20
42.3135
 30
0.0
 10
-45.7162
 20
42.3135
 30
0.0
 10
-45.7162
 20
42.3135
 30
0.0
 10
-45.7162
 20
42.3133
 30
0.0
 10
-45.7162
 20
42.3133
 30
0.0
  0
SPLINE
  5
73
330
1F
100
AcDbEntity
  8
layer 1
 62
     7
100
AcDbSpline
210
0.0
220
0.0
230
1.0
 70
    11
 71
     3
 72
    16
 73
    12
 74
     0
 42
0.0000000001
 43
0.0000000001
 12
1.0
 22
0.0
 32
0.0
 13
1.0
 23
0.0
 33
0.0
 40
0.0
 40
0.0
 40
0.0
 40
0.0
 40
0.25
 40
0.25
 40
0.25
 40
0.25
 40
0.5
 40
0.5
 40
0.5
 40
0.5
 40
1.0
 40
1.0
 40
1.0
 40
1.0
 10
-45.7162
 20
35.7968
 30
0.0
 10
-45.7895
 20
32.6795
 30
0.0
 10
-47.6574
 20
29.602
 30
0.0
 10
-50.9519
 20
27.9253
 30
0.0
 10
-50.9519
 20
27.9253
 30
0.0
 10
-50.9519
 20
27.9253
 30
0.0
 10
-50.9617
 20
33.5888
 30
0.0
 10
-50.9617
 20
33.5888
 30
0.0
 10
-50.9617
 20
33.5888
 30
0.0
 10
-49.3102
 20
34.9271
 30
0.0
 10
-47.368
 20
35.4471
 30
0.0
 10
-45.7162
 20
35.7968
 30
0.0
  0
SPLINE
  5
74
330
1F
100
AcDbEntity
  8
layer 1
 62
     7
100
AcDbSpline
210
0.0
220
0.0
230
1.0
 70
    11
 71
     3
 72
    20
 73
    16
 74
     0
 42
0.0000000001
 43
0.0000000001
 12
1.0
 22
0.0
 32
0.0
 13
1.0
 23
0.0
 33
0.0
 40
0.0
 40
0.0
 40
0.0
 40
0.0
 40
0.2
 40
0.2
 40
0.2
 40
0.2
 40
0.4
 40
0.4
 40
0.4
 40
0.4
 40
0.6
 40
0.6
 40
0.6
 40
0.6
 40
1.0
 40
1.0
 40
1.0
 40
1.0
 10
-50.9617
 20
23.5721
 30
0.0
 10
-47.8419
 20
23.7676
 30
0.0
 10
-42.747
 20
28.6945
 30
0.0
 10
-42.5035
 20
32.0302
 30
0.0
 10
-42.5035
 20
32.0302
 30
0.0
 10
-42.2119
 20
28.7425
 30
0.0
 10
-37.213
 20
23.6236
 30
0.0
 10
-34.0454
 20
23.5721
 30
0.0
 10
-34.0454
 20
23.5721
 30
0.0
 10
-37.1411
 20
22.9925
 30
0.0
 10
-42.116
 20
18.7616
 30
0.0
 10
-42.5035
 20
15.1139
 30
0.0
 10
-42.5035
 20
15.1139
 30
0.0
 10
-42.819
 20
18.7376
 30
0.0
 10
-47.7459
 20
22.9446
 30
0.0
 10
-50.9617
 20
23.5721
 30
0.0
  0
SPLINE
  5
75
330
1F
100
AcDbEntity
  8
layer 1
 62
     7
100
AcDbSpline
210
0.0
220
0.0
230
1.0
 70
    11
 71
     3
 72
    12
 73
     8
 74
     0
 42
0.0000000001
 43
0.0000000001
 12
1.0
 22
0.0
 32
0.0
 13
1.0
 23
0.0
 33
0.0
 40
0.0
 40
0.0
 40
0.0
 40
0.0
 40
0.3333333333333333
 40
0.3333333333333333
 40
0.3333333333333333
 40
0.3333333333333333
 40
1.0
 40
1.0
 40
1.0
 40
1.0
 10
-30.6005
 20
20.2476
 30
0.0
 10
-30.6964
 20
16.1644
 30
0.0
 10
-33.8716
 20
12.1494
 30
0.0
 10
-39.2987
 20
11.2614
 30
0.0
 10
-39.2987
 20
11.2614
 30
0.0
 10
-38.228
 20
18.2111
 30
0.0
 10
-33.8519
 20
19.5591
 30
0.0
 10
-30.6005
 20
20.2476
 30
0.0
  0
SPLINE
  5
76
330
1F
100
AcDbEntity
  8
layer 1
 62
     7
100
AcDbSpline
210
0.0
220
0.0
230
1.0
 70
    11
 71
     3
 72
    20
 73
    16
 74
     0
 42
0.0000000001
 43
0.0000000001
 12
1.0
 22
0.0
 32
0.0
 13
1.0
 23
0.0
 33
0.0
 40
0.0
 40
0.0
 40
0.0
 40
0.0
 40
0.2
 40
0.2
 40
0.2
 40
0.2
 40
0.4
 40
0.4
 40
0.4
 40
0.4
 40
0.6
 40
0.6
 40
0.6
 40
0.6
 40
1.0
 40
1.0
 40
1.0
 40
1.0
 10
-20.224
 20
23.5721
 30
0.0
 10
-17.1042
 20
23.7676
 30
0.0
 10
-12.0093
 20
28.6945
 30
0.0
 10
-11.7658
 20
32.0302
 30
0.0
 10
-11.7658
 20
32.0302
 30
0.0
 10
-11.4742
 20
28.7425
 30
0.0
 10
-6.4753
 20
23.6236
 30
0.0
 10
-3.3077
 20
23.5721
 30
0.0
 10
-3.3077
 20
23.5721
 30
0.0
 10
-6.4034
 20
22.9925
 30
0.0
 10
-11.3783
 20
18.7616
 30
0.0
 10
-11.7658
 20
15.1139
 30
0.0
 10
-11.7658
 20
15.1139
 30
0.0
 10
-12.0814
 20
18.7376
 30
0.0
 10
-17.0083
 20
22.9446
 30
0.0
 10
-20.224
 20
23.5721
 30
0.0
  0
SPLINE
  5
77
330
1F
100
AcDbEntity
  8
layer 1
 62
     7
100
AcDbSpline
210
0.0
220
0.0
230
1.0
 70
    11
 71
     3
 72
    12
 73
     8
 74
     0
 42
0.0000000001
 43
0.0000000001
 12
1.0
 22
0.0
 32
0.0
 13
1.0
 23
0.0
 33
0.0
 40
0.0
 40
0.0
 40
0.0
 40
0.0
 40
0.3333333333333333
 40
0.3333333333333333
 40
0.3333333333333333
 40
0.3333333333333333
 40
1.0
 40
1.0
 40
1.0
 40
1.0
 10
-23.7757
 20
20.2476
 30
0.0
 10
-23.6798
 20
16.1644
 30
0.0
 10
-20.5046
 20
12.1494
 30
0.0
 10
-15.0775
 20
11.2614
 30
0.0
 10
-15.0775
 20
11.2614
 30
0.0
 10
-16.1482
 20
18.2111
 30
0.0
 10
-20.5243
 20
19.5591
 30
0.0
 10
-23.7757
 20
20.2476
 30
0.0
  0
SPLINE
  5
78
330
1F
100
AcDbEntity
  8
layer 1
 62
     7
100
AcDbSpline
210
0.0
220
0.0
230
1.0
 70
    11
 71
     3
 72
    12
 73
     8
 74
     0
 42
0.0000000001
 43
0.0000000001
 12
1.0
 22
0.0
 32
0.0
 13
1.0
 23
0.0
 33
0.0
 40
0.0
 40
0.0
 40
0.0
 40
0.0
 40
0.3333333333333333
 40
0.3333333333333333
 40
0.3333333333333333
 40
0.3333333333333333
 40
1.0
 40
1.0
 40
1.0
 40
1.0
 10
0.1371
 20
20.2476
 30
0.0
 10
0.0411
 20
16.1644
 30
0.0
 10
-3.1341
 20
12.1494
 30
0.0
 10
-8.5611
 20
11.2614
 30
0.0
 10
-8.5611
 20
11.2614
 30
0.0
 10
-7.4904
 20
18.2111
 30
0.0
 10
-3.1144
 20
19.5591
 30
0.0
 10
0.1371
 20
20.2476
 30
0.0
  0
SPLINE
  5
79
330
1F
100
AcDbEntity
  8
layer 1
 62
     7
100
AcDbSpline
210
0.0
220
0.0
230
1.0
 70
    11
 71
     3
 72
    20
 73
    16
 74
     0
 42
0.0000000001
 43
0.0000000001
 12
1.0
 22
0.0
 32
0.0
 13
1.0
 23
0.0
 33
0.0
 40
0.0
 40
0.0
 40
0.0
 40
0.0
 40
0.2
 40
0.2
 40
0.2
 40
0.2
 40
0.4
 40
0.4
 40
0.4
 40
0.4
 40
0.6
 40
0.6
 40
0.6
 40
0.6
 40
1.0
 40
1.0
 40
1.0
 40
1.0
 10
10.478
 20
23.5721
 30
0.0
 10
13.5977
 20
23.7676
 30
0.0
 10
18.6926
 20
28.6945
 30
0.0
 10
18.9361
 20
32.0302
 30
0.0
 10
18.9361
 20
32.0302
 30
0.0
 10
19.2277
 20
28.7425
 30
0.0
 10
24.2267
 20
23.6236
 30
0.0
 10
27.3943
 20
23.5721
 30
0.0
 10
27.3943
 20
23.5721
 30
0.0
 10
24.2986
 20
22.9925
 30
0.0
 10
19.3236
 20
18.7616
 30
0.0
 10
18.9361
 20
15.1139
 30
0.0
 10
18.9361
 20
15.1139
 30
0.0
 10
18.6206
 20
18.7376
 30
0.0
 10
13.6936
 20
22.9446
 30
0.0
 10
10.478
 20
23.5721
 30
0.0
  0
SPLINE
  5
7A
330
1F
100
AcDbEntity
  8
layer 1
 62
     7
100
AcDbSpline
210
0.0
220
0.0
230
1.0
 70
    11
 71
     3
 72
    12
 73
     8
 74
     0
 42
0.0000000001
 43
0.0000000001
 12
1.0
 22
0.0
 32
0.0
 13
1.0
 23
0.0
 33
0.0
 40
0.0
 40
0.0
 40
0.0
 40
0.0
 40
0.3333333333333333
 40
0.3333333333333333
 40
0.3333333333333333
 40
0.3333333333333333
 40
1.0
 40
1.0
 40
1.0
 40
1.0
 10
6.9264
 20
20.2476
 30
0.0
 10
7.0224
 20
16.1644
 30
0.0
 10
10.1975
 20
12.1494
 30
0.0
 10
15.6245
 20
11.2614
 30
0.0
 10
15.6245
 20
11.2614
 30
0.0
 10
14.5538
 20
18.2111
 30
0.0
 10
10.1778
 20
19.5591
 30
0.0
 10
6.9264
 20
20.2476
 30
0.0
  0
SPLINE
  5
7B
330
1F
100
AcDbEntity
  8
layer 1
 62
     7
100
AcDbSpline
210
0.0
220
0.0
230
1.0
 70
    11
 71
     3
 72
    12
 73
     8
 74
     0
 42
0.0000000001
 43
0.0000000001
 12
1.0
 22
0.0
 32
0.0
 13
1.0
 23
0.0
 33
0.0
 40
0.0
 40
0.0
 40
0.0
 40
0.0
 40
0.3333333333333333
 40
0.3333333333333333
 40
0.3333333333333333
 40
0.3333333333333333
 40
1.0
 40
1.0
 40
1.0
 40
1.0
 10
30.8391
 20
20.2476
 30
0.0
 10
30.7432
 20
16.1644
 30
0.0
 10
27.568
 20
12.1494
 30
0.0
 10
22.141
 20
11.2614
 30
0.0
 10
22.141
 20
11.2614
 30
0.0
 10
23.2117
 20
18.2111
 30
0.0
 10
27.5877
 20
19.5591
 30
0.0
 10
30.8391
 20
20.2476
 30
0.0
  0
SPLINE
  5
7C
330
1F
100
AcDbEntity
  8
layer 1
 62
     7
100
AcDbSpline
210
0.0
220
0.0
230
1.0
 70
    11
 71
     3
 72
    16
 73
    12
 74
     0
 42
0.0000000001
 43
0.0000000001
 12
1.0
 22
0.0
 32
0.0
 13
1.0
 23
0.0
 33
0.0
 40
0.0
 40
0.0
 40
0.0
 40
0.0
 40
0.25
 40
0.25
 40
0.25
 40
0.25
 40
0.5
 40
0.5
 40
0.5
 40
0.5
 40
1.0
 40
1.0
 40
1.0
 40
1.0
 10
52.9049
 20
10.9895
 30
0.0
 10
52.9782
 20
14.1068
 30
0.0
 10
54.8461
 20
17.1843
 30
0.0
 10
58.1406
 20
18.861
 30
0.0
 10
58.1406
 20
18.861
 30
0.0
 10
58.1406
 20
18.861
 30
0.0
 10
58.1504
 20
13.1975
 30
0.0
 10
58.1504
 20
13.1975
 30
0.0
 10
58.1504
 20
13.1975
 30
0.0
 10
56.4989
 20
11.8592
 30
0.0
 10
54.5568
 20
11.3391
 30
0.0
 10
52.9049
 20
10.9895
 30
0.0
  0
SPLINE
  5
7D
330
1F
100
AcDbEntity
  8
layer 1
 62
     7
100
AcDbSpline
210
0.0
220
0.0
230
1.0
 70
    11
 71
     3
 72
    16
 73
    12
 74
     0
 42
0.0000000001
 43
0.0000000001
 12
1.0
 22
0.0
 32
0.0
 13
1.0
 23
0.0
 33
0.0
 40
0.0
 40
0.0
 40
0.0
 40
0.0
 40
0.25
 40
0.25
 40
0.25
 40
0.25
 40
0.5
 40
0.5
 40
0.5
 40
0.5
 40
1.0
 40
1.0
 40
1.0
 40
1.0
 10
-45.726
 20
11.4847
 30
0.0
 10
-45.7993
 20
14.6019
 30
0.0
 10
-47.6672
 20
17.6795
 30
0.0
 10
-50.9617
 20
19.3562
 30
0.0
 10
-50.9617
 20
19.3562
 30
0.0
 10
-50.9617
 20
19.3562
 30
0.0
 10
-50.9715
 20
13.6927
 30
0.0
 10
-50.9715
 20
13.6927
 30
0.0
 10
-50.9715
 20
13.6927
 30
0.0
 10
-49.32
 20
12.3544
 30
0.0
 10
-47.3778
 20
11.8343
 30
0.0
 10
-45.726
 20
11.4847
 30
0.0
  0
SPLINE
  5
7E
330
1F
100
AcDbEntity
  8
layer 1
 62
     7
100
AcDbSpline
210
0.0
220
0.0
230
1.0
 70
    11
 71
     3
 72
    12
 73
     8
 74
     0
 42
0.0000000001
 43
0.0000000001
 12
1.0
 22
0.0
 32
0.0
 13
1.0
 23
0.0
 33
0.0
 40
0.0
 40
0.0
 40
0.0
 40
0.0
 40
0.3333333333333333
 40
0.3333333333333333
 40
0.3333333333333333
 40
0.3333333333333333
 40
1.0
 40
1.0
 40
1.0
 40
1.0
 10
46.523
 20
35.7968
 30
0.0
 10
46.4271
 20
31.7136
 30
0.0
 10
43.2519
 20
27.6986
 30
0.0
 10
37.8249
 20
26.8106
 30
0.0
 10
37.8249
 20
26.8106
 30
0.0
 10
38.8956
 20
33.7603
 30
0.0
 10
43.2716
 20
35.1083
 30
0.0
 10
46.523
 20
35.7968
 30
0.0
  0
SPLINE
  5
7F
330
1F
100
AcDbEntity
  8
layer 1
 62
     7
100
AcDbSpline
210
0.0
220
0.0
230
1.0
 70
    11
 71
     3
 72
    20
 73
    16
 74
     0
 42
0.0000000001
 43
0.0000000001
 12
1.0
 22
0.0
 32
0.0
 13
1.0
 23
0.0
 33
0.0
 40
0.0
 40
0.0
 40
0.0
 40
0.0
 40
0.2
 40
0.2
 40
0.2
 40
0.2
 40
0.4
 40
0.4
 40
0.4
 40
0.4
 40
0.6
 40
0.6
 40
0.6
 40
0.6
 40
1.0
 40
1.0
 40
1.0
 40
1.0
 10
41.3784
 20
23.5721
 30
0.0
 10
44.4982
 20
23.7676
 30
0.0
 10
49.593
 20
28.6945
 30
0.0
 10
49.8366
 20
32.0302
 30
0.0
 10
49.8366
 20
32.0302
 30
0.0
 10
50.1281
 20
28.7425
 30
0.0
 10
55.1271
 20
23.6236
 30
0.0
 10
58.2947
 20
23.5721
 30
0.0
 10
58.2947
 20
23.5721
 30
0.0
 10
55.199
 20
22.9925
 30
0.0
 10
50.2241
 20
18.7616
 30
0.0
 10
49.8366
 20
15.1139
 30
0.0
 10
49.8366
 20
15.1139
 30
0.0
 10
49.521
 20
18.7376
 30
0.0
 10
44.5941
 20
22.9446
 30
0.0
 10
41.3784
 20
23.5721
 30
0.0
  0
SPLINE
  5
80
330
1F
100
AcDbEntity
  8
layer 1
 62
     7
100
AcDbSpline
210
0.0
220
0.0
230
1.0
 70
    11
 71
     3
 72
    12
 73
     8
 74
     0
 42
0.0000000001
 43
0.0000000001
 12
1.0
 22
0.0
 32
0.0
 13
1.0
 23
0.0
 33
0.0
 40
0.0
 40
0.0
 40
0.0
 40
0.0
 40
0.3333333333333333
 40
0.3333333333333333
 40
0.3333333333333333
 40
0.3333333333333333
 40
1.0
 40
1.0
 40
1.0
 40
1.0
 10
37.8267
 20
20.2476
 30
0.0
 10
37.9227
 20
16.1644
 30
0.0
 10
41.0978
 20
12.1494
 30
0.0
 10
46.5249
 20
11.2614
 30
0.0
 10
46.5249
 20
11.2614
 30
0.0
 10
45.4541
 20
18.2111
 30
0.0
 10
41.0781
 20
19.5591
 30
0.0
 10
37.8267
 20
20.2476
 30
0.0
  0
SPLINE
  5
81
330
1F
100
AcDbEntity
  8
layer 1
 62
     7
100
AcDbSpline
210
0.0
220
0.0
230
1.0
 70
    11
 71
     3
 72
    20
 73
    16
 74
     0
 42
0.0000000001
 43
0.0000000001
 12
1.0
 22
0.0
 32
0.0
 13
1.0
 23
0.0
 33
0.0
 40
0.0
 40
0.0
 40
0.0
 40
0.0
 40
0.2
 40
0.2
 40
0.2
 40
0.2
 40
0.4
 40
0.4
 40
0.4
 40
0.4
 40
0.6
 40
0.6
 40
0.6
 40
0.6
 40
1.0
 40
1.0
 40
1.0
 40
1.0
 10
-35.476
 20
-22.5064
 30
0.0
 10
-32.3563
 20
-22.3109
 30
0.0
 10
-27.2614
 20
-17.384
 30
0.0
 10
-27.0179
 20
-14.0483
 30
0.0
 10
-27.0179
 20
-14.0483
 30
0.0
 10
-26.7263
 20
-17.336
 30
0.0
 10
-21.7273
 20
-22.4549
 30
0.0
 10
-18.5597
 20
-22.5064
 30
0.0
 10
-18.5597
 20
-22.5064
 30
0.0
 10
-21.6554
 20
-23.086
 30
0.0
 10
-26.6304
 20
-27.3169
 30
0.0
 10
-27.0179
 20
-30.9646
 30
0.0
 10
-27.0179
 20
-30.9646
 30
0.0
 10
-27.3334
 20
-27.3409
 30
0.0
 10
-32.2604
 20
-23.1339
 30
0.0
 10
-35.476
 20
-22.5064
 30
0.0
  0
SPLINE
  5
82
330
1F
100
AcDbEntity
  8
layer 1
 62
     7
100
AcDbSpline
210
0.0
220
0.0
230
1.0
 70
    11
 71
     3
 72
    12
 73
     8
 74
     0
 42
0.0000000001
 43
0.0000000001
 12
1.0
 22
0.0
 32
0.0
 13
1.0
 23
0.0
 33
0.0
 40
0.0
 40
0.0
 40
0.0
 40
0.0
 40
0.3333333333333333
 40
0.3333333333333333
 40
0.3333333333333333
 40
0.3333333333333333
 40
1.0
 40
1.0
 40
1.0
 40
1.0
 10
-39.0277
 20
-19.3145
 30
0.0
 10
-38.9317
 20
-15.2313
 30
0.0
 10
-35.7566
 20
-11.2163
 30
0.0
 10
-30.3296
 20
-10.3283
 30
0.0
 10
-30.3296
 20
-10.3283
 30
0.0
 10
-31.4003
 20
-17.278
 30
0.0
 10
-35.7763
 20
-18.6261
 30
0.0
 10
-39.0277
 20
-19.3145
 30
0.0
  0
SPLINE
  5
83
330
1F
100
AcDbEntity
  8
layer 1
 62
     7
100
AcDbSpline
210
0.0
220
0.0
230
1.0
 70
    11
 71
     3
 72
    12
 73
     8
 74
     0
 42
0.0000000001
 43
0.0000000001
 12
1.0
 22
0.0
 32
0.0
 13
1.0
 23
0.0
 33
0.0
 40
0.0
 40
0.0
 40
0.0
 40
0.0
 40
0.3333333333333333
 40
0.3333333333333333
 40
0.3333333333333333
 40
0.3333333333333333
 40
1.0
 40
1.0
 40
1.0
 40
1.0
 10
-15.1149
 20
-19.3145
 30
0.0
 10
-15.2108
 20
-15.2313
 30
0.0
 10
-18.386
 20
-11.2163
 30
0.0
 10
-23.813
 20
-10.3283
 30
0.0
 10
-23.813
 20
-10.3283
 30
0.0
 10
-22.7423
 20
-17.278
 30
0.0
 10
-18.3663
 20
-18.6261
 30
0.0
 10
-15.1149
 20
-19.3145
 30
0.0
  0
SPLINE
  5
84
330
1F
100
AcDbEntity
  8
layer 1
 62
     7
100
AcDbSpline
210
0.0
220
0.0
230
1.0
 70
    11
 71
     3
 72
    12
 73
     8
 74
     0
 42
0.0000000001
 43
0.0000000001
 12
1.0
 22
0.0
 32
0.0
 13
1.0
 23
0.0
 33
0.0
 40
0.0
 40
0.0
 40
0.0
 40
0.0
 40
0.3333333333333333
 40
0.3333333333333333
 40
0.3333333333333333
 40
0.3333333333333333
 40
1.0
 40
1.0
 40
1.0
 40
1.0
 10
-39.0277
 20
-25.8309
 30
0.0
 10
-38.9317
 20
-29.9141
 30
0.0
 10
-35.7566
 20
-33.9291
 30
0.0
 10
-30.3296
 20
-34.8171
 30
0.0
 10
-30.3296
 20
-34.8171
 30
0.0
 10
-31.4003
 20
-27.8674
 30
0.0
 10
-35.7763
 20
-26.5194
 30
0.0
 10
-39.0277
 20
-25.8309
 30
0.0
  0
SPLINE
  5
85
330
1F
100
AcDbEntity
  8
layer 1
 62
     7
100
AcDbSpline
210
0.0
220
0.0
230
1.0
 70
    11
 71
     3
 72
    12
 73
     8
 74
     0
 42
0.0000000001
 43
0.0000000001
 12
1.0
 22
0.0
 32
0.0
 13
1.0
 23
0.0
 33
0.0
 40
0.0
 40
0.0
 40
0.0
 40
0.0
 40
0.3333333333333333
 40
0.3333333333333333
 40
0.3333333333333333
 40
0.3333333333333333
 40
1.0
 40
1.0
 40
1.0
 40
1.0
 10
-15.1149
 20
-25.8309
 30
0.0
 10
-15.2108
 20
-29.9141
 30
0.0
 10
-18.386
 20
-33.9291
 30
0.0
 10
-23.813
 20
-34.8171
 30
0.0
 10
-23.813
 20
-34.8171
 30
0.0
 10
-22.7423
 20
-27.8674
 30
0.0
 10
-18.3663
 20
-26.5194
 30
0.0
 10
-15.1149
 20
-25.8309
 30
0.0
  0
SPLINE
  5
86
330
1F
100
AcDbEntity
  8
layer 1
 62
     7
100
AcDbSpline
210
0.0
220
0.0
230
1.0
 70
    11
 71
     3
 72
    12
 73
     8
 74
     0
 42
0.0000000001
 43
0.0000000001
 12
1.0
 22
0.0
 32
0.0
 13
1.0
 23
0.0
 33
0.0
 40
0.0
 40
0.0
 40
0.0
 40
0.0
 40
0.3333333333333333
 40
0.3333333333333333
 40
0.3333333333333333
 40
0.3333333333333333
 40
1.0
 40
1.0
 40
1.0
 40
1.0
 10
-15.1149
 20
-19.3145
 30
0.0
 10
-15.2108
 20
-15.2313
 30
0.0
 10
-18.386
 20
-11.2163
 30
0.0
 10
-23.813
 20
-10.3283
 30
0.0
 10
-23.813
 20
-10.3283
 30
0.0
 10
-22.7423
 20
-17.278
 30
0.0
 10
-18.3663
 20
-18.6261
 30
0.0
 10
-15.1149
 20
-19.3145
 30
0.0
  0
SPLINE
  5
87
330
1F
100
AcDbEntity
  8
layer 1
 62
     7
100
AcDbSpline
210
0.0
220
0.0
230
1.0
 70
    11
 71
     3
 72
    20
 73
    16
 74
     0
 42
0.0000000001
 43
0.0000000001
 12
1.0
 22
0.0
 32
0.0
 13
1.0
 23
0.0
 33
0.0
 40
0.0
 40
0.0
 40
0.0
 40
0.0
 40
0.2
 40
0.2
 40
0.2
 40
0.2
 40
0.4
 40
0.4
 40
0.4
 40
0.4
 40
0.6
 40
0.6
 40
0.6
 40
0.6
 40
1.0
 40
1.0
 40
1.0
 40
1.0
 10
-4.7384
 20
-22.5064
 30
0.0
 10
-1.6187
 20
-22.3109
 30
0.0
 10
3.4762
 20
-17.384
 30
0.0
 10
3.7197
 20
-14.0483
 30
0.0
 10
3.7197
 20
-14.0483
 30
0.0
 10
4.0113
 20
-17.336
 30
0.0
 10
9.0102
 20
-22.4549
 30
0.0
 10
12.1779
 20
-22.5064
 30
0.0
 10
12.1779
 20
-22.5064
 30
0.0
 10
9.0822
 20
-23.086
 30
0.0
 10
4.1072
 20
-27.3169
 30
0.0
 10
3.7197
 20
-30.9646
 30
0.0
 10
3.7197
 20
-30.9646
 30
0.0
 10
3.4041
 20
-27.3409
 30
0.0
 10
-1.5228
 20
-23.1339
 30
0.0
 10
-4.7384
 20
-22.5064
 30
0.0
  0
SPLINE
  5
88
330
1F
100
AcDbEntity
  8
layer 1
 62
     7
100
AcDbSpline
210
0.0
220
0.0
230
1.0
 70
    11
 71
     3
 72
    12
 73
     8
 74
     0
 42
0.0000000001
 43
0.0000000001
 12
1.0
 22
0.0
 32
0.0
 13
1.0
 23
0.0
 33
0.0
 40
0.0
 40
0.0
 40
0.0
 40
0.0
 40
0.3333333333333333
 40
0.3333333333333333
 40
0.3333333333333333
 40
0.3333333333333333
 40
1.0
 40
1.0
 40
1.0
 40
1.0
 10
-8.2902
 20
-19.3145
 30
0.0
 10
-8.1942
 20
-15.2313
 30
0.0
 10
-5.019
 20
-11.2163
 30
0.0
 10
0.408
 20
-10.3283
 30
0.0
 10
0.408
 20
-10.3283
 30
0.0
 10
-0.6627
 20
-17.278
 30
0.0
 10
-5.0388
 20
-18.6261
 30
0.0
 10
-8.2902
 20
-19.3145
 30
0.0
  0
SPLINE
  5
89
330
1F
100
AcDbEntity
  8
layer 1
 62
     7
100
AcDbSpline
210
0.0
220
0.0
230
1.0
 70
    11
 71
     3
 72
    12
 73
     8
 74
     0
 42
0.0000000001
 43
0.0000000001
 12
1.0
 22
0.0
 32
0.0
 13
1.0
 23
0.0
 33
0.0
 40
0.0
 40
0.0
 40
0.0
 40
0.0
 40
0.3333333333333333
 40
0.3333333333333333
 40
0.3333333333333333
 40
0.3333333333333333
 40
1.0
 40
1.0
 40
1.0
 40
1.0
 10
15.6227
 20
-19.3145
 30
0.0
 10
15.5268
 20
-15.2313
 30
0.0
 10
12.3516
 20
-11.2163
 30
0.0
 10
6.9245
 20
-10.3283
 30
0.0
 10
6.9245
 20
-10.3283
 30
0.0
 10
7.9953
 20
-17.278
 30
0.0
 10
12.3713
 20
-18.6261
 30
0.0
 10
15.6227
 20
-19.3145
 30
0.0
  0
SPLINE
  5
8A
330
1F
100
AcDbEntity
  8
layer 1
 62
     7
100
AcDbSpline
210
0.0
220
0.0
230
1.0
 70
    11
 71
     3
 72
    12
 73
     8
 74
     0
 42
0.0000000001
 43
0.0000000001
 12
1.0
 22
0.0
 32
0.0
 13
1.0
 23
0.0
 33
0.0
 40
0.0
 40
0.0
 40
0.0
 40
0.0
 40
0.3333333333333333
 40
0.3333333333333333
 40
0.3333333333333333
 40
0.3333333333333333
 40
1.0
 40
1.0
 40
1.0
 40
1.0
 10
-8.2902
 20
-25.8309
 30
0.0
 10
-8.1942
 20
-29.9141
 30
0.0
 10
-5.019
 20
-33.9291
 30
0.0
 10
0.408
 20
-34.8171
 30
0.0
 10
0.408
 20
-34.8171
 30
0.0
 10
-0.6627
 20
-27.8674
 30
0.0
 10
-5.0388
 20
-26.5194
 30
0.0
 10
-8.2902
 20
-25.8309
 30
0.0
  0
SPLINE
  5
8B
330
1F
100
AcDbEntity
  8
layer 1
 62
     7
100
AcDbSpline
210
0.0
220
0.0
230
1.0
 70
    11
 71
     3
 72
    12
 73
     8
 74
     0
 42
0.0000000001
 43
0.0000000001
 12
1.0
 22
0.0
 32
0.0
 13
1.0
 23
0.0
 33
0.0
 40
0.0
 40
0.0
 40
0.0
 40
0.0
 40
0.3333333333333333
 40
0.3333333333333333
 40
0.3333333333333333
 40
0.3333333333333333
 40
1.0
 40
1.0
 40
1.0
 40
1.0
 10
15.6227
 20
-25.8309
 30
0.0
 10
15.5268
 20
-29.9141
 30
0.0
 10
12.3516
 20
-33.9291
 30
0.0
 10
6.9245
 20
-34.8171
 30
0.0
 10
6.9245
 20
-34.8171
 30
0.0
 10
7.9953
 20
-27.8674
 30
0.0
 10
12.3713
 20
-26.5194
 30
0.0
 10
15.6227
 20
-25.8309
 30
0.0
  0
SPLINE
  5
8C
330
1F
100
AcDbEntity
  8
layer 1
 62
     7
100
AcDbSpline
210
0.0
220
0.0
230
1.0
 70
    11
 71
     3
 72
    20
 73
    16
 74
     0
 42
0.0000000001
 43
0.0000000001
 12
1.0
 22
0.0
 32
0.0
 13
1.0
 23
0.0
 33
0.0
 40
0.0
 40
0.0
 40
0.0
 40
0.0
 40
0.2
 40
0.2
 40
0.2
 40
0.2
 40
0.4
 40
0.4
 40
0.4
 40
0.4
 40
0.6
 40
0.6
 40
0.6
 40
0.6
 40
1.0
 40
1.0
 40
1.0
 40
1.0
 10
25.9636
 20
-22.5064
 30
0.0
 10
29.0834
 20
-22.3109
 30
0.0
 10
34.1783
 20
-17.384
 30
0.0
 10
34.4218
 20
-14.0483
 30
0.0
 10
34.4218
 20
-14.0483
 30
0.0
 10
34.7133
 20
-17.336
 30
0.0
 10
39.7123
 20
-22.4549
 30
0.0
 10
42.8799
 20
-22.5064
 30
0.0
 10
42.8799
 20
-22.5064
 30
0.0
 10
39.7842
 20
-23.086
 30
0.0
 10
34.8093
 20
-27.3169
 30
0.0
 10
34.4218
 20
-30.9646
 30
0.0
 10
34.4218
 20
-30.9646
 30
0.0
 10
34.1062
 20
-27.3409
 30
0.0
 10
29.1793
 20
-23.1339
 30
0.0
 10
25.9636
 20
-22.5064
 30
0.0
  0
SPLINE
  5
8D
330
1F
100
AcDbEntity
  8
layer 1
 62
     7
100
AcDbSpline
210
0.0
220
0.0
230
1.0
 70
    11
 71
     3
 72
    12
 73
     8
 74
     0
 42
0.0000000001
 43
0.0000000001
 12
1.0
 22
0.0
 32
0.0
 13
1.0
 23
0.0
 33
0.0
 40
0.0
 40
0.0
 40
0.0
 40
0.0
 40
0.3333333333333333
 40
0.3333333333333333
 40
0.3333333333333333
 40
0.3333333333333333
 40
1.0
 40
1.0
 40
1.0
 40
1.0
 10
22.4119
 20
-19.3145
 30
0.0
 10
22.508
 20
-15.2313
 30
0.0
 10
25.683
 20
-11.2163
 30
0.0
 10
31.1101
 20
-10.3283
 30
0.0
 10
31.1101
 20
-10.3283
 30
0.0
 10
30.0394
 20
-17.278
 30
0.0
 10
25.6633
 20
-18.6261
 30
0.0
 10
22.4119
 20
-19.3145
 30
0.0
  0
SPLINE
  5
8E
330
1F
100
AcDbEntity
  8
layer 1
 62
     7
100
AcDbSpline
210
0.0
220
0.0
230
1.0
 70
    11
 71
     3
 72
    12
 73
     8
 74
     0
 42
0.0000000001
 43
0.0000000001
 12
1.0
 22
0.0
 32
0.0
 13
1.0
 23
0.0
 33
0.0
 40
0.0
 40
0.0
 40
0.0
 40
0.0
 40
0.3333333333333333
 40
0.3333333333333333
 40
0.3333333333333333
 40
0.3333333333333333
 40
1.0
 40
1.0
 40
1.0
 40
1.0
 10
46.3248
 20
-19.3145
 30
0.0
 10
46.2289
 20
-15.2313
 30
0.0
 10
43.0537
 20
-11.2163
 30
0.0
 10
37.6266
 20
-10.3283
 30
0.0
 10
37.6266
 20
-10.3283
 30
0.0
 10
38.6973
 20
-17.278
 30
0.0
 10
43.0734
 20
-18.6261
 30
0.0
 10
46.3248
 20
-19.3145
 30
0.0
  0
SPLINE
  5
8F
330
1F
100
AcDbEntity
  8
layer 1
 62
     7
100
AcDbSpline
210
0.0
220
0.0
230
1.0
 70
    11
 71
     3
 72
    12
 73
     8
 74
     0
 42
0.0000000001
 43
0.0000000001
 12
1.0
 22
0.0
 32
0.0
 13
1.0
 23
0.0
 33
0.0
 40
0.0
 40
0.0
 40
0.0
 40
0.0
 40
0.3333333333333333
 40
0.3333333333333333
 40
0.3333333333333333
 40
0.3333333333333333
 40
1.0
 40
1.0
 40
1.0
 40
1.0
 10
22.4119
 20
-25.8309
 30
0.0
 10
22.508
 20
-29.9141
 30
0.0
 10
25.683
 20
-33.9291
 30
0.0
 10
31.1101
 20
-34.8171
 30
0.0
 10
31.1101
 20
-34.8171
 30
0.0
 10
30.0394
 20
-27.8674
 30
0.0
 10
25.6633
 20
-26.5194
 30
0.0
 10
22.4119
 20
-25.8309
 30
0.0
  0
SPLINE
  5
90
330
1F
100
AcDbEntity
  8
layer 1
 62
     7
100
AcDbSpline
210
0.0
220
0.0
230
1.0
 70
    11
 71
     3
 72
    20
 73
    16
 74
     0
 42
0.0000000001
 43
0.0000000001
 12
1.0
 22
0.0
 32
0.0
 13
1.0
 23
0.0
 33
0.0
 40
0.0
 40
0.0
 40
0.0
 40
0.0
 40
0.2
 40
0.2
 40
0.2
 40
0.2
 40
0.4
 40
0.4
 40
0.4
 40
0.4
 40
0.6
 40
0.6
 40
0.6
 40
0.6
 40
1.0
 40
1.0
 40
1.0
 40
1.0
 10
52.9422
 20
-19.3145
 30
0.0
 10
53.0153
 20
-16.2053
 30
0.0
 10
54.8737
 20
-13.1358
 30
0.0
 10
58.152
 20
-11.4562
 30
0.0
 10
58.152
 20
-11.4562
 30
0.0
 10
58.152
 20
-11.4562
 30
0.0
 10
58.1369
 20
-17.1472
 30
0.0
 10
58.1369
 20
-17.1472
 30
0.0
 10
58.1369
 20
-17.1472
 30
0.0
 10
56.4966
 20
-18.4553
 30
0.0
 10
54.5773
 20
-18.9683
 30
0.0
 10
52.9422
 20
-19.3144
 30
0.0
 10
52.9422
 20
-19.3144
 30
0.0
 10
52.9422
 20
-19.3144
 30
0.0
 10
52.9422
 20
-19.3145
 30
0.0
 10
52.9422
 20
-19.3145
 30
0.0
  0
SPLINE
  5
91
330
1F
100
AcDbEntity
  8
layer 1
 62
     7
100
AcDbSpline
210
0.0
220
0.0
230
1.0
 70
    11
 71
     3
 72
    16
 73
    12
 74
     0
 42
0.0000000001
 43
0.0000000001
 12
1.0
 22
0.0
 32
0.0
 13
1.0
 23
0.0
 33
0.0
 40
0.0
 40
0.0
 40
0.0
 40
0.0
 40
0.25
 40
0.25
 40
0.25
 40
0.25
 40
0.5
 40
0.5
 40
0.5
 40
0.5
 40
1.0
 40
1.0
 40
1.0
 40
1.0
 10
52.9422
 20
-25.8309
 30
0.0
 10
53.0156
 20
-28.9482
 30
0.0
 10
54.8834
 20
-32.0258
 30
0.0
 10
58.1779
 20
-33.7024
 30
0.0
 10
58.1779
 20
-33.7024
 30
0.0
 10
58.1779
 20
-33.7024
 30
0.0
 10
58.1877
 20
-28.0389
 30
0.0
 10
58.1877
 20
-28.0389
 30
0.0
 10
58.1877
 20
-28.0389
 30
0.0
 10
56.5362
 20
-26.7006
 30
0.0
 10
54.5941
 20
-26.1806
 30
0.0
 10
52.9422
 20
-25.8309
 30
0.0
  0
SPLINE
  5
92
330
1F
100
AcDbEntity
  8
layer 1
 62
     7
100
AcDbSpline
210
0.0
220
0.0
230
1.0
 70
    11
 71
     3
 72
    20
 73
    16
 74
     0
 42
0.0000000001
 43
0.0000000001
 12
1.0
 22
0.0
 32
0.0
 13
1.0
 23
0.0
 33
0.0
 40
0.0
 40
0.0
 40
0.0
 40
0.0
 40
0.2
 40
0.2
 40
0.2
 40
0.2
 40
0.4
 40
0.4
 40
0.4
 40
0.4
 40
0.6
 40
0.6
 40
0.6
 40
0.6
 40
1.0
 40
1.0
 40
1.0
 40
1.0
 10
-45.7162
 20
-19.3145
 30
0.0
 10
-45.7893
 20
-16.2053
 30
0.0
 10
-47.6476
 20
-13.1358
 30
0.0
 10
-50.9259
 20
-11.4562
 30
0.0
 10
-50.9259
 20
-11.4562
 30
0.0
 10
-50.9259
 20
-11.4562
 30
0.0
 10
-50.9109
 20
-17.1472
 30
0.0
 10
-50.9109
 20
-17.1472
 30
0.0
 10
-50.9109
 20
-17.1472
 30
0.0
 10
-49.2705
 20
-18.4553
 30
0.0
 10
-47.3512
 20
-18.9683
 30
0.0
 10
-45.7162
 20
-19.3144
 30
0.0
 10
-45.7162
 20
-19.3144
 30
0.0
 10
-45.7162
 20
-19.3144
 30
0.0
 10
-45.7162
 20
-19.3145
 30
0.0
 10
-45.7162
 20
-19.3145
 30
0.0
  0
SPLINE
  5
93
330
1F
100
AcDbEntity
  8
layer 1
 62
     7
100
AcDbSpline
210
0.0
220
0.0
230
1.0
 70
    11
 71
     3
 72
    16
 73
    12
 74
     0
 42
0.0000000001
 43
0.0000000001
 12
1.0
 22
0.0
 32
0.0
 13
1.0
 23
0.0
 33
0.0
 40
0.0
 40
0.0
 40
0.0
 40
0.0
 40
0.25
 40
0.25
 40
0.25
 40
0.25
 40
0.5
 40
0.5
 40
0.5
 40
0.5
 40
1.0
 40
1.0
 40
1.0
 40
1.0
 10
-45.7162
 20
-25.8309
 30
0.0
 10
-45.7895
 20
-28.9482
 30
0.0
 10
-47.6574
 20
-32.0258
 30
0.0
 10
-50.9519
 20
-33.7024
 30
0.0
 10
-50.9519
 20
-33.7024
 30
0.0
 10
-50.9519
 20
-33.7024
 30
0.0
 10
-50.9617
 20
-28.0389
 30
0.0
 10
-50.9617
 20
-28.0389
 30
0.0
 10
-50.9617
 20
-28.0389
 30
0.0
 10
-49.3102
 20
-26.7006
 30
0.0
 10
-47.368
 20
-26.1806
 30
0.0
 10
-45.7162
 20
-25.8309
 30
0.0
  0
SPLINE
  5
94
330
1F
100
AcDbEntity
  8
layer 1
 62
     7
100
AcDbSpline
210
0.0
220
0.0
230
1.0
 70
    11
 71
     3
 72
    20
 73
    16
 74
     0
 42
0.0000000001
 43
0.0000000001
 12
1.0
 22
0.0
 32
0.0
 13
1.0
 23
0.0
 33
0.0
 40
0.0
 40
0.0
 40
0.0
 40
0.0
 40
0.2
 40
0.2
 40
0.2
 40
0.2
 40
0.4
 40
0.4
 40
0.4
 40
0.4
 40
0.6
 40
0.6
 40
0.6
 40
0.6
 40
1.0
 40
1.0
 40
1.0
 40
1.0
 10
-50.9617
 20
-38.0556
 30
0.0
 10
-47.8419
 20
-37.8601
 30
0.0
 10
-42.747
 20
-32.9332
 30
0.0
 10
-42.5035
 20
-29.5975
 30
0.0
 10
-42.5035
 20
-29.5975
 30
0.0
 10
-42.2119
 20
-32.8852
 30
0.0
 10
-37.213
 20
-38.0041
 30
0.0
 10
-34.0454
 20
-38.0556
 30
0.0
 10
-34.0454
 20
-38.0556
 30
0.0
 10
-37.1411
 20
-38.6352
 30
0.0
 10
-42.116
 20
-42.8661
 30
0.0
 10
-42.5035
 20
-46.5138
 30
0.0
 10
-42.5035
 20
-46.5138
 30
0.0
 10
-42.819
 20
-42.8901
 30
0.0
 10
-47.7459
 20
-38.6833
 30
0.0
 10
-50.9617
 20
-38.0556
 30
0.0
  0
SPLINE
  5
95
330
1F
100
AcDbEntity
  8
layer 1
 62
     7
100
AcDbSpline
210
0.0
220
0.0
230
1.0
 70
    11
 71
     3
 72
    12
 73
     8
 74
     0
 42
0.0000000001
 43
0.0000000001
 12
1.0
 22
0.0
 32
0.0
 13
1.0
 23
0.0
 33
0.0
 40
0.0
 40
0.0
 40
0.0
 40
0.0
 40
0.3333333333333333
 40
0.3333333333333333
 40
0.3333333333333333
 40
0.3333333333333333
 40
1.0
 40
1.0
 40
1.0
 40
1.0
 10
-30.6005
 20
-41.3801
 30
0.0
 10
-30.6964
 20
-45.4633
 30
0.0
 10
-33.8716
 20
-49.4783
 30
0.0
 10
-39.2987
 20
-50.3663
 30
0.0
 10
-39.2987
 20
-50.3663
 30
0.0
 10
-38.228
 20
-43.4166
 30
0.0
 10
-33.8519
 20
-42.0686
 30
0.0
 10
-30.6005
 20
-41.3801
 30
0.0
  0
SPLINE
  5
96
330
1F
100
AcDbEntity
  8
layer 1
 62
     7
100
AcDbSpline
210
0.0
220
0.0
230
1.0
 70
    11
 71
     3
 72
    12
 73
     8
 74
     0
 42
0.0000000001
 43
0.0000000001
 12
1.0
 22
0.0
 32
0.0
 13
1.0
 23
0.0
 33
0.0
 40
0.0
 40
0.0
 40
0.0
 40
0.0
 40
0.3333333333333333
 40
0.3333333333333333
 40
0.3333333333333333
 40
0.3333333333333333
 40
1.0
 40
1.0
 40
1.0
 40
1.0
 10
-30.6005
 20
-41.3801
 30
0.0
 10
-30.6964
 20
-45.4633
 30
0.0
 10
-33.8716
 20
-49.4783
 30
0.0
 10
-39.2987
 20
-50.3663
 30
0.0
 10
-39.2987
 20
-50.3663
 30
0.0
 10
-38.228
 20
-43.4166
 30
0.0
 10
-33.8519
 20
-42.0686
 30
0.0
 10
-30.6005
 20
-41.3801
 30
0.0
  0
SPLINE
  5
97
330
1F
100
AcDbEntity
  8
layer 1
 62
     7
100
AcDbSpline
210
0.0
220
0.0
230
1.0
 70
    11
 71
     3
 72
    20
 73
    16
 74
     0
 42
0.0000000001
 43
0.0000000001
 12
1.0
 22
0.0
 32
0.0
 13
1.0
 23
0.0
 33
0.0
 40
0.0
 40
0.0
 40
0.0
 40
0.0
 40
0.2
 40
0.2
 40
0.2
 40
0.2
 40
0.4
 40
0.4
 40
0.4
 40
0.4
 40
0.6
 40
0.6
 40
0.6
 40
0.6
 40
1.0
 40
1.0
 40
1.0
 40
1.0
 10
-20.224
 20
-38.0556
 30
0.0
 10
-17.1042
 20
-37.8601
 30
0.0
 10
-12.0093
 20
-32.9332
 30
0.0
 10
-11.7658
 20
-29.5975
 30
0.0
 10
-11.7658
 20
-29.5975
 30
0.0
 10
-11.4742
 20
-32.8852
 30
0.0
 10
-6.4753
 20
-38.0041
 30
0.0
 10
-3.3077
 20
-38.0556
 30
0.0
 10
-3.3077
 20
-38.0556
 30
0.0
 10
-6.4034
 20
-38.6352
 30
0.0
 10
-11.3783
 20
-42.8661
 30
0.0
 10
-11.7658
 20
-46.5138
 30
0.0
 10
-11.7658
 20
-46.5138
 30
0.0
 10
-12.0814
 20
-42.8901
 30
0.0
 10
-17.0083
 20
-38.6831
 30
0.0
 10
-20.224
 20
-38.0556
 30
0.0
  0
SPLINE
  5
98
330
1F
100
AcDbEntity
  8
layer 1
 62
     7
100
AcDbSpline
210
0.0
220
0.0
230
1.0
 70
    11
 71
     3
 72
    12
 73
     8
 74
     0
 42
0.0000000001
 43
0.0000000001
 12
1.0
 22
0.0
 32
0.0
 13
1.0
 23
0.0
 33
0.0
 40
0.0
 40
0.0
 40
0.0
 40
0.0
 40
0.3333333333333333
 40
0.3333333333333333
 40
0.3333333333333333
 40
0.3333333333333333
 40
1.0
 40
1.0
 40
1.0
 40
1.0
 10
-23.7757
 20
-41.3801
 30
0.0
 10
-23.6798
 20
-45.4633
 30
0.0
 10
-20.5046
 20
-49.4783
 30
0.0
 10
-15.0775
 20
-50.3663
 30
0.0
 10
-15.0775
 20
-50.3663
 30
0.0
 10
-16.1482
 20
-43.4166
 30
0.0
 10
-20.5243
 20
-42.0686
 30
0.0
 10
-23.7757
 20
-41.3801
 30
0.0
  0
SPLINE
  5
99
330
1F
100
AcDbEntity
  8
layer 1
 62
     7
100
AcDbSpline
210
0.0
220
0.0
230
1.0
 70
    11
 71
     3
 72
    12
 73
     8
 74
     0
 42
0.0000000001
 43
0.0000000001
 12
1.0
 22
0.0
 32
0.0
 13
1.0
 23
0.0
 33
0.0
 40
0.0
 40
0.0
 40
0.0
 40
0.0
 40
0.3333333333333333
 40
0.3333333333333333
 40
0.3333333333333333
 40
0.3333333333333333
 40
1.0
 40
1.0
 40
1.0
 40
1.0
 10
0.1371
 20
-41.3801
 30
0.0
 10
0.0411
 20
-45.4633
 30
0.0
 10
-3.1341
 20
-49.4783
 30
0.0
 10
-8.5611
 20
-50.3663
 30
0.0
 10
-8.5611
 20
-50.3663
 30
0.0
 10
-7.4904
 20
-43.4166
 30
0.0
 10
-3.1144
 20
-42.0686
 30
0.0
 10
0.1371
 20
-41.3801
 30
0.0
  0
SPLINE
  5
9A
330
1F
100
AcDbEntity
  8
layer 1
 62
     7
100
AcDbSpline
210
0.0
220
0.0
230
1.0
 70
    11
 71
     3
 72
    20
 73
    16
 74
     0
 42
0.0000000001
 43
0.0000000001
 12
1.0
 22
0.0
 32
0.0
 13
1.0
 23
0.0
 33
0.0
 40
0.0
 40
0.0
 40
0.0
 40
0.0
 40
0.2
 40
0.2
 40
0.2
 40
0.2
 40
0.4
 40
0.4
 40
0.4
 40
0.4
 40
0.6
 40
0.6
 40
0.6
 40
0.6
 40
1.0
 40
1.0
 40
1.0
 40
1.0
 10
10.478
 20
-38.0556
 30
0.0
 10
13.5977
 20
-37.8601
 30
0.0
 10
18.6926
 20
-32.9332
 30
0.0
 10
18.9361
 20
-29.5975
 30
0.0
 10
18.9361
 20
-29.5975
 30
0.0
 10
19.2277
 20
-32.8852
 30
0.0
 10
24.2267
 20
-38.0041
 30
0.0
 10
27.3943
 20
-38.0556
 30
0.0
 10
27.3943
 20
-38.0556
 30
0.0
 10
24.2986
 20
-38.6352
 30
0.0
 10
19.3236
 20
-42.8661
 30
0.0
 10
18.9361
 20
-46.5138
 30
0.0
 10
18.9361
 20
-46.5138
 30
0.0
 10
18.6206
 20
-42.8901
 30
0.0
 10
13.6936
 20
-38.6831
 30
0.0
 10
10.478
 20
-38.0556
 30
0.0
  0
SPLINE
  5
9B
330
1F
100
AcDbEntity
  8
layer 1
 62
     7
100
AcDbSpline
210
0.0
220
0.0
230
1.0
 70
    11
 71
     3
 72
    12
 73
     8
 74
     0
 42
0.0000000001
 43
0.0000000001
 12
1.0
 22
0.0
 32
0.0
 13
1.0
 23
0.0
 33
0.0
 40
0.0
 40
0.0
 40
0.0
 40
0.0
 40
0.3333333333333333
 40
0.3333333333333333
 40
0.3333333333333333
 40
0.3333333333333333
 40
1.0
 40
1.0
 40
1.0
 40
1.0
 10
6.9264
 20
-41.3801
 30
0.0
 10
7.0224
 20
-45.4633
 30
0.0
 10
10.1975
 20
-49.4783
 30
0.0
 10
15.6245
 20
-50.3663
 30
0.0
 10
15.6245
 20
-50.3663
 30
0.0
 10
14.5538
 20
-43.4166
 30
0.0
 10
10.1778
 20
-42.0686
 30
0.0
 10
6.9264
 20
-41.3801
 30
0.0
  0
SPLINE
  5
9C
330
1F
100
AcDbEntity
  8
layer 1
 62
     7
100
AcDbSpline
210
0.0
220
0.0
230
1.0
 70
    11
 71
     3
 72
    12
 73
     8
 74
     0
 42
0.0000000001
 43
0.0000000001
 12
1.0
 22
0.0
 32
0.0
 13
1.0
 23
0.0
 33
0.0
 40
0.0
 40
0.0
 40
0.0
 40
0.0
 40
0.3333333333333333
 40
0.3333333333333333
 40
0.3333333333333333
 40
0.3333333333333333
 40
1.0
 40
1.0
 40
1.0
 40
1.0
 10
30.8391
 20
-41.3801
 30
0.0
 10
30.7432
 20
-45.4633
 30
0.0
 10
27.568
 20
-49.4783
 30
0.0
 10
22.141
 20
-50.3663
 30
0.0
 10
22.141
 20
-50.3663
 30
0.0
 10
23.2117
 20
-43.4166
 30
0.0
 10
27.5877
 20
-42.0686
 30
0.0
 10
30.8391
 20
-41.3801
 30
0.0
  0
SPLINE
  5
9D
330
1F
100
AcDbEntity
  8
layer 1
 62
     7
100
AcDbSpline
210
0.0
220
0.0
230
1.0
 70
    11
 71
     3
 72
    16
 73
    12
 74
     0
 42
0.0000000001
 43
0.0000000001
 12
1.0
 22
0.0
 32
0.0
 13
1.0
 23
0.0
 33
0.0
 40
0.0
 40
0.0
 40
0.0
 40
0.0
 40
0.25
 40
0.25
 40
0.25
 40
0.25
 40
0.5
 40
0.5
 40
0.5
 40
0.5
 40
1.0
 40
1.0
 40
1.0
 40
1.0
 10
52.9049
 20
-50.6382
 30
0.0
 10
52.9782
 20
-47.5209
 30
0.0
 10
54.8461
 20
-44.4434
 30
0.0
 10
58.1406
 20
-42.7667
 30
0.0
 10
58.1406
 20
-42.7667
 30
0.0
 10
58.1406
 20
-42.7667
 30
0.0
 10
58.1504
 20
-48.4302
 30
0.0
 10
58.1504
 20
-48.4302
 30
0.0
 10
58.1504
 20
-48.4302
 30
0.0
 10
56.4989
 20
-49.7685
 30
0.0
 10
54.5568
 20
-50.2886
 30
0.0
 10
52.9049
 20
-50.6382
 30
0.0
  0
SPLINE
  5
9E
330
1F
100
AcDbEntity
  8
layer 1
 62
     7
100
AcDbSpline
210
0.0
220
0.0
230
1.0
 70
    11
 71
     3
 72
    16
 73
    12
 74
     0
 42
0.0000000001
 43
0.0000000001
 12
1.0
 22
0.0
 32
0.0
 13
1.0
 23
0.0
 33
0.0
 40
0.0
 40
0.0
 40
0.0
 40
0.0
 40
0.25
 40
0.25
 40
0.25
 40
0.25
 40
0.5
 40
0.5
 40
0.5
 40
0.5
 40
1.0
 40
1.0
 40
1.0
 40
1.0
 10
-45.726
 20
-50.143
 30
0.0
 10
-45.7993
 20
-47.0258
 30
0.0
 10
-47.6672
 20
-43.9482
 30
0.0
 10
-50.9617
 20
-42.2715
 30
0.0
 10
-50.9617
 20
-42.2715
 30
0.0
 10
-50.9617
 20
-42.2715
 30
0.0
 10
-50.9715
 20
-47.9351
 30
0.0
 10
-50.9715
 20
-47.9351
 30
0.0
 10
-50.9715
 20
-47.9351
 30
0.0
 10
-49.32
 20
-49.2733
 30
0.0
 10
-47.3778
 20
-49.7934
 30
0.0
 10
-45.726
 20
-50.143
 30
0.0
  0
SPLINE
  5
9F
330
1F
100
AcDbEntity
  8
layer 1
 62
     7
100
AcDbSpline
210
0.0
220
0.0
230
1.0
 70
    11
 71
     3
 72
    12
 73
     8
 74
     0
 42
0.0000000001
 43
0.0000000001
 12
1.0
 22
0.0
 32
0.0
 13
1.0
 23
0.0
 33
0.0
 40
0.0
 40
0.0
 40
0.0
 40
0.0
 40
0.3333333333333333
 40
0.3333333333333333
 40
0.3333333333333333
 40
0.3333333333333333
 40
1.0
 40
1.0
 40
1.0
 40
1.0
 10
46.523
 20
-25.8309
 30
0.0
 10
46.4271
 20
-29.9141
 30
0.0
 10
43.2519
 20
-33.9291
 30
0.0
 10
37.8249
 20
-34.8171
 30
0.0
 10
37.8249
 20
-34.8171
 30
0.0
 10
38.8956
 20
-27.8674
 30
0.0
 10
43.2716
 20
-26.5194
 30
0.0
 10
46.523
 20
-25.8309
 30
0.0
  0
SPLINE
  5
A0
330
1F
100
AcDbEntity
  8
layer 1
 62
     7
100
AcDbSpline
210
0.0
220
0.0
230
1.0
 70
    11
 71
     3
 72
    20
 73
    16
 74
     0
 42
0.0000000001
 43
0.0000000001
 12
1.0
 22
0.0
 32
0.0
 13
1.0
 23
0.0
 33
0.0
 40
0.0
 40
0.0
 40
0.0
 40
0.0
 40
0.2
 40
0.2
 40
0.2
 40
0.2
 40
0.4
 40
0.4
 40
0.4
 40
0.4
 40
0.6
 40
0.6
 40
0.6
 40
0.6
 40
1.0
 40
1.0
 40
1.0
 40
1.0
 10
41.3784
 20
-38.0556
 30
0.0
 10
44.4982
 20
-37.8601
 30
0.0
 10
49.593
 20
-32.9332
 30
0.0
 10
49.8366
 20
-29.5975
 30
0.0
 10
49.8366
 20
-29.5975
 30
0.0
 10
50.1281
 20
-32.8852
 30
0.0
 10
55.1271
 20
-38.0041
 30
0.0
 10
58.2947
 20
-38.0556
 30
0.0
 10
58.2947
 20
-38.0556
 30
0.0
 10
55.199
 20
-38.6352
 30
0.0
 10
50.2241
 20
-42.8661
 30
0.0
 10
49.8366
 20
-46.5138
 30
0.0
 10
49.8366
 20
-46.5138
 30
0.0
 10
49.521
 20
-42.8901
 30
0.0
 10
44.5941
 20
-38.6831
 30
0.0
 10
41.3784
 20
-38.0556
 30
0.0
  0
SPLINE
  5
A1
330
1F
100
AcDbEntity
  8
layer 1
 62
     7
100
AcDbSpline
210
0.0
220
0.0
230
1.0
 70
    11
 71
     3
 72
    12
 73
     8
 74
     0
 42
0.0000000001
 43
0.0000000001
 12
1.0
 22
0.0
 32
0.0
 13
1.0
 23
0.0
 33
0.0
 40
0.0
 40
0.0
 40
0.0
 40
0.0
 40
0.3333333333333333
 40
0.3333333333333333
 40
0.3333333333333333
 40
0.3333333333333333
 40
1.0
 40
1.0
 40
1.0
 40
1.0
 10
37.8267
 20
-41.3801
 30
0.0
 10
37.9227
 20
-45.4633
 30
0.0
 10
41.0978
 20
-49.4783
 30
0.0
 10
46.5249
 20
-50.3663
 30
0.0
 10
46.5249
 20
-50.3663
 30
0.0
 10
45.4541
 20
-43.4166
 30
0.0
 10
41.0781
 20
-42.0686
 30
0.0
 10
37.8267
 20
-41.3801
 30
0.0
  0
SPLINE
  5
A2
330
1F
100
AcDbEntity
  8
layer 1
 62
     7
100
AcDbSpline
210
0.0
220
0.0
230
1.0
 70
    11
 71
     3
 72
    20
 73
    16
 74
     0
 42
0.0000000001
 43
0.0000000001
 12
1.0
 22
0.0
 32
0.0
 13
1.0
 23
0.0
 33
0.0
 40
0.0
 40
0.0
 40
0.0
 40
0.0
 40
0.2
 40
0.2
 40
0.2
 40
0.2
 40
0.4
 40
0.4
 40
0.4
 40
0.4
 40
0.6
 40
0.6
 40
0.6
 40
0.6
 40
1.0
 40
1.0
 40
1.0
 40
1.0
 10
-35.476
 20
-84.1342
 30
0.0
 10
-32.3563
 20
-83.9387
 30
0.0
 10
-27.2614
 20
-79.0118
 30
0.0
 10
-27.0179
 20
-75.6761
 30
0.0
 10
-27.0179
 20
-75.6761
 30
0.0
 10
-26.7263
 20
-78.9638
 30
0.0
 10
-21.7273
 20
-84.0827
 30
0.0
 10
-18.5597
 20
-84.1342
 30
0.0
 10
-18.5597
 20
-84.1342
 30
0.0
 10
-21.6554
 20
-84.7138
 30
0.0
 10
-26.6304
 20
-88.9448
 30
0.0
 10
-27.0179
 20
-92.5924
 30
0.0
 10
-27.0179
 20
-92.5924
 30
0.0
 10
-27.3334
 20
-88.9688
 30
0.0
 10
-32.2604
 20
-84.7617
 30
0.0
 10
-35.476
 20
-84.1342
 30
0.0
  0
SPLINE
  5
A3
330
1F
100
AcDbEntity
  8
layer 1
 62
     7
100
AcDbSpline
210
0.0
220
0.0
230
1.0
 70
    11
 71
     3
 72
    12
 73
     8
 74
     0
 42
0.0000000001
 43
0.0000000001
 12
1.0
 22
0.0
 32
0.0
 13
1.0
 23
0.0
 33
0.0
 40
0.0
 40
0.0
 40
0.0
 40
0.0
 40
0.3333333333333333
 40
0.3333333333333333
 40
0.3333333333333333
 40
0.3333333333333333
 40
1.0
 40
1.0
 40
1.0
 40
1.0
 10
-39.0277
 20
-80.9422
 30
0.0
 10
-38.9317
 20
-76.859
 30
0.0
 10
-35.7566
 20
-72.844
 30
0.0
 10
-30.3296
 20
-71.956
 30
0.0
 10
-30.3296
 20
-71.956
 30
0.0
 10
-31.4003
 20
-78.9057
 30
0.0
 10
-35.7763
 20
-80.2538
 30
0.0
 10
-39.0277
 20
-80.9422
 30
0.0
  0
SPLINE
  5
A4
330
1F
100
AcDbEntity
  8
layer 1
 62
     7
100
AcDbSpline
210
0.0
220
0.0
230
1.0
 70
    11
 71
     3
 72
    12
 73
     8
 74
     0
 42
0.0000000001
 43
0.0000000001
 12
1.0
 22
0.0
 32
0.0
 13
1.0
 23
0.0
 33
0.0
 40
0.0
 40
0.0
 40
0.0
 40
0.0
 40
0.3333333333333333
 40
0.3333333333333333
 40
0.3333333333333333
 40
0.3333333333333333
 40
1.0
 40
1.0
 40
1.0
 40
1.0
 10
-15.1149
 20
-80.9422
 30
0.0
 10
-15.2108
 20
-76.859
 30
0.0
 10
-18.386
 20
-72.844
 30
0.0
 10
-23.813
 20
-71.956
 30
0.0
 10
-23.813
 20
-71.956
 30
0.0
 10
-22.7423
 20
-78.9057
 30
0.0
 10
-18.3663
 20
-80.2538
 30
0.0
 10
-15.1149
 20
-80.9422
 30
0.0
  0
SPLINE
  5
A5
330
1F
100
AcDbEntity
  8
layer 1
 62
     7
100
AcDbSpline
210
0.0
220
0.0
230
1.0
 70
    11
 71
     3
 72
    12
 73
     8
 74
     0
 42
0.0000000001
 43
0.0000000001
 12
1.0
 22
0.0
 32
0.0
 13
1.0
 23
0.0
 33
0.0
 40
0.0
 40
0.0
 40
0.0
 40
0.0
 40
0.3333333333333333
 40
0.3333333333333333
 40
0.3333333333333333
 40
0.3333333333333333
 40
1.0
 40
1.0
 40
1.0
 40
1.0
 10
-39.0277
 20
-87.4588
 30
0.0
 10
-38.9317
 20
-91.5419
 30
0.0
 10
-35.7566
 20
-95.557
 30
0.0
 10
-30.3296
 20
-96.445
 30
0.0
 10
-30.3296
 20
-96.445
 30
0.0
 10
-31.4003
 20
-89.4952
 30
0.0
 10
-35.7763
 20
-88.1472
 30
0.0
 10
-39.0277
 20
-87.4588
 30
0.0
  0
SPLINE
  5
A6
330
1F
100
AcDbEntity
  8
layer 1
 62
     7
100
AcDbSpline
210
0.0
220
0.0
230
1.0
 70
    11
 71
     3
 72
    12
 73
     8
 74
     0
 42
0.0000000001
 43
0.0000000001
 12
1.0
 22
0.0
 32
0.0
 13
1.0
 23
0.0
 33
0.0
 40
0.0
 40
0.0
 40
0.0
 40
0.0
 40
0.3333333333333333
 40
0.3333333333333333
 40
0.3333333333333333
 40
0.3333333333333333
 40
1.0
 40
1.0
 40
1.0
 40
1.0
 10
-15.1149
 20
-87.4588
 30
0.0
 10
-15.2108
 20
-91.5419
 30
0.0
 10
-18.386
 20
-95.557
 30
0.0
 10
-23.813
 20
-96.445
 30
0.0
 10
-23.813
 20
-96.445
 30
0.0
 10
-22.7423
 20
-89.4952
 30
0.0
 10
-18.3663
 20
-88.1472
 30
0.0
 10
-15.1149
 20
-87.4588
 30
0.0
  0
SPLINE
  5
A7
330
1F
100
AcDbEntity
  8
layer 1
 62
     7
100
AcDbSpline
210
0.0
220
0.0
230
1.0
 70
    11
 71
     3
 72
    20
 73
    16
 74
     0
 42
0.0000000001
 43
0.0000000001
 12
1.0
 22
0.0
 32
0.0
 13
1.0
 23
0.0
 33
0.0
 40
0.0
 40
0.0
 40
0.0
 40
0.0
 40
0.2
 40
0.2
 40
0.2
 40
0.2
 40
0.4
 40
0.4
 40
0.4
 40
0.4
 40
0.6
 40
0.6
 40
0.6
 40
0.6
 40
1.0
 40
1.0
 40
1.0
 40
1.0
 10
-4.7384
 20
-84.1342
 30
0.0
 10
-1.6187
 20
-83.9387
 30
0.0
 10
3.4762
 20
-79.0118
 30
0.0
 10
3.7197
 20
-75.6761
 30
0.0
 10
3.7197
 20
-75.6761
 30
0.0
 10
4.0113
 20
-78.9638
 30
0.0
 10
9.0102
 20
-84.0827
 30
0.0
 10
12.1779
 20
-84.1342
 30
0.0
 10
12.1779
 20
-84.1342
 30
0.0
 10
9.0822
 20
-84.7138
 30
0.0
 10
4.1072
 20
-88.9448
 30
0.0
 10
3.7197
 20
-92.5924
 30
0.0
 10
3.7197
 20
-92.5924
 30
0.0
 10
3.4041
 20
-88.9688
 30
0.0
 10
-1.5228
 20
-84.7617
 30
0.0
 10
-4.7384
 20
-84.1342
 30
0.0
  0
SPLINE
  5
A8
330
1F
100
AcDbEntity
  8
layer 1
 62
     7
100
AcDbSpline
210
0.0
220
0.0
230
1.0
 70
    11
 71
     3
 72
    12
 73
     8
 74
     0
 42
0.0000000001
 43
0.0000000001
 12
1.0
 22
0.0
 32
0.0
 13
1.0
 23
0.0
 33
0.0
 40
0.0
 40
0.0
 40
0.0
 40
0.0
 40
0.3333333333333333
 40
0.3333333333333333
 40
0.3333333333333333
 40
0.3333333333333333
 40
1.0
 40
1.0
 40
1.0
 40
1.0
 10
-8.2902
 20
-80.9422
 30
0.0
 10
-8.1942
 20
-76.859
 30
0.0
 10
-5.019
 20
-72.844
 30
0.0
 10
0.408
 20
-71.956
 30
0.0
 10
0.408
 20
-71.956
 30
0.0
 10
-0.6627
 20
-78.9057
 30
0.0
 10
-5.0388
 20
-80.2538
 30
0.0
 10
-8.2902
 20
-80.9422
 30
0.0
  0
SPLINE
  5
A9
330
1F
100
AcDbEntity
  8
layer 1
 62
     7
100
AcDbSpline
210
0.0
220
0.0
230
1.0
 70
    11
 71
     3
 72
    12
 73
     8
 74
     0
 42
0.0000000001
 43
0.0000000001
 12
1.0
 22
0.0
 32
0.0
 13
1.0
 23
0.0
 33
0.0
 40
0.0
 40
0.0
 40
0.0
 40
0.0
 40
0.3333333333333333
 40
0.3333333333333333
 40
0.3333333333333333
 40
0.3333333333333333
 40
1.0
 40
1.0
 40
1.0
 40
1.0
 10
15.6227
 20
-80.9422
 30
0.0
 10
15.5268
 20
-76.859
 30
0.0
 10
12.3516
 20
-72.844
 30
0.0
 10
6.9245
 20
-71.956
 30
0.0
 10
6.9245
 20
-71.956
 30
0.0
 10
7.9953
 20
-78.9057
 30
0.0
 10
12.3713
 20
-80.2538
 30
0.0
 10
15.6227
 20
-80.9422
 30
0.0
  0
SPLINE
  5
AA
330
1F
100
AcDbEntity
  8
layer 1
 62
     7
100
AcDbSpline
210
0.0
220
0.0
230
1.0
 70
    11
 71
     3
 72
    12
 73
     8
 74
     0
 42
0.0000000001
 43
0.0000000001
 12
1.0
 22
0.0
 32
0.0
 13
1.0
 23
0.0
 33
0.0
 40
0.0
 40
0.0
 40
0.0
 40
0.0
 40
0.3333333333333333
 40
0.3333333333333333
 40
0.3333333333333333
 40
0.3333333333333333
 40
1.0
 40
1.0
 40
1.0
 40
1.0
 10
-8.2902
 20
-87.4588
 30
0.0
 10
-8.1942
 20
-91.5419
 30
0.0
 10
-5.019
 20
-95.557
 30
0.0
 10
0.408
 20
-96.445
 30
0.0
 10
0.408
 20
-96.445
 30
0.0
 10
-0.6627
 20
-89.4952
 30
0.0
 10
-5.0388
 20
-88.1472
 30
0.0
 10
-8.2902
 20
-87.4588
 30
0.0
  0
SPLINE
  5
AB
330
1F
100
AcDbEntity
  8
layer 1
 62
     7
100
AcDbSpline
210
0.0
220
0.0
230
1.0
 70
    11
 71
     3
 72
    12
 73
     8
 74
     0
 42
0.0000000001
 43
0.0000000001
 12
1.0
 22
0.0
 32
0.0
 13
1.0
 23
0.0
 33
0.0
 40
0.0
 40
0.0
 40
0.0
 40
0.0
 40
0.3333333333333333
 40
0.3333333333333333
 40
0.3333333333333333
 40
0.3333333333333333
 40
1.0
 40
1.0
 40
1.0
 40
1.0
 10
15.6227
 20
-87.4588
 30
0.0
 10
15.5268
 20
-91.5419
 30
0.0
 10
12.3516
 20
-95.557
 30
0.0
 10
6.9245
 20
-96.445
 30
0.0
 10
6.9245
 20
-96.445
 30
0.0
 10
7.9953
 20
-89.4952
 30
0.0
 10
12.3713
 20
-88.1472
 30
0.0
 10
15.6227
 20
-87.4588
 30
0.0
  0
SPLINE
  5
AC
330
1F
100
AcDbEntity
  8
layer 1
 62
     7
100
AcDbSpline
210
0.0
220
0.0
230
1.0
 70
    11
 71
     3
 72
    20
 73
    16
 74
     0
 42
0.0000000001
 43
0.0000000001
 12
1.0
 22
0.0
 32
0.0
 13
1.0
 23
0.0
 33
0.0
 40
0.0
 40
0.0
 40
0.0
 40
0.0
 40
0.2
 40
0.2
 40
0.2
 40
0.2
 40
0.4
 40
0.4
 40
0.4
 40
0.4
 40
0.6
 40
0.6
 40
0.6
 40
0.6
 40
1.0
 40
1.0
 40
1.0
 40
1.0
 10
25.9636
 20
-84.1342
 30
0.0
 10
29.0834
 20
-83.9387
 30
0.0
 10
34.1783
 20
-79.0118
 30
0.0
 10
34.4218
 20
-75.6761
 30
0.0
 10
34.4218
 20
-75.6761
 30
0.0
 10
34.7133
 20
-78.9638
 30
0.0
 10
39.7123
 20
-84.0827
 30
0.0
 10
42.8799
 20
-84.1342
 30
0.0
 10
42.8799
 20
-84.1342
 30
0.0
 10
39.7842
 20
-84.7138
 30
0.0
 10
34.8093
 20
-88.9448
 30
0.0
 10
34.4218
 20
-92.5924
 30
0.0
 10
34.4218
 20
-92.5924
 30
0.0
 10
34.1062
 20
-88.9688
 30
0.0
 10
29.1793
 20
-84.7617
 30
0.0
 10
25.9636
 20
-84.1342
 30
0.0
  0
SPLINE
  5
AD
330
1F
100
AcDbEntity
  8
layer 1
 62
     7
100
AcDbSpline
210
0.0
220
0.0
230
1.0
 70
    11
 71
     3
 72
    12
 73
     8
 74
     0
 42
0.0000000001
 43
0.0000000001
 12
1.0
 22
0.0
 32
0.0
 13
1.0
 23
0.0
 33
0.0
 40
0.0
 40
0.0
 40
0.0
 40
0.0
 40
0.3333333333333333
 40
0.3333333333333333
 40
0.3333333333333333
 40
0.3333333333333333
 40
1.0
 40
1.0
 40
1.0
 40
1.0
 10
22.4119
 20
-80.9422
 30
0.0
 10
22.508
 20
-76.859
 30
0.0
 10
25.683
 20
-72.844
 30
0.0
 10
31.1101
 20
-71.956
 30
0.0
 10
31.1101
 20
-71.956
 30
0.0
 10
30.0394
 20
-78.9057
 30
0.0
 10
25.6633
 20
-80.2538
 30
0.0
 10
22.4119
 20
-80.9422
 30
0.0
  0
SPLINE
  5
AE
330
1F
100
AcDbEntity
  8
layer 1
 62
     7
100
AcDbSpline
210
0.0
220
0.0
230
1.0
 70
    11
 71
     3
 72
    12
 73
     8
 74
     0
 42
0.0000000001
 43
0.0000000001
 12
1.0
 22
0.0
 32
0.0
 13
1.0
 23
0.0
 33
0.0
 40
0.0
 40
0.0
 40
0.0
 40
0.0
 40
0.3333333333333333
 40
0.3333333333333333
 40
0.3333333333333333
 40
0.3333333333333333
 40
1.0
 40
1.0
 40
1.0
 40
1.0
 10
46.3248
 20
-80.9422
 30
0.0
 10
46.2289
 20
-76.859
 30
0.0
 10
43.0537
 20
-72.844
 30
0.0
 10
37.6266
 20
-71.956
 30
0.0
 10
37.6266
 20
-71.956
 30
0.0
 10
38.6973
 20
-78.9057
 30
0.0
 10
43.0734
 20
-80.2538
 30
0.0
 10
46.3248
 20
-80.9422
 30
0.0
  0
SPLINE
  5
AF
330
1F
100
AcDbEntity
  8
layer 1
 62
     7
100
AcDbSpline
210
0.0
220
0.0
230
1.0
 70
    11
 71
     3
 72
    12
 73
     8
 74
     0
 42
0.0000000001
 43
0.0000000001
 12
1.0
 22
0.0
 32
0.0
 13
1.0
 23
0.0
 33
0.0
 40
0.0
 40
0.0
 40
0.0
 40
0.0
 40
0.3333333333333333
 40
0.3333333333333333
 40
0.3333333333333333
 40
0.3333333333333333
 40
1.0
 40
1.0
 40
1.0
 40
1.0
 10
22.4119
 20
-87.4588
 30
0.0
 10
22.508
 20
-91.5419
 30
0.0
 10
25.683
 20
-95.557
 30
0.0
 10
31.1101
 20
-96.445
 30
0.0
 10
31.1101
 20
-96.445
 30
0.0
 10
30.0394
 20
-89.4952
 30
0.0
 10
25.6633
 20
-88.1472
 30
0.0
 10
22.4119
 20
-87.4588
 30
0.0
  0
SPLINE
  5
B0
330
1F
100
AcDbEntity
  8
layer 1
 62
     7
100
AcDbSpline
210
0.0
220
0.0
230
1.0
 70
    11
 71
     3
 72
    20
 73
    16
 74
     0
 42
0.0000000001
 43
0.0000000001
 12
1.0
 22
0.0
 32
0.0
 13
1.0
 23
0.0
 33
0.0
 40
0.0
 40
0.0
 40
0.0
 40
0.0
 40
0.2
 40
0.2
 40
0.2
 40
0.2
 40
0.4
 40
0.4
 40
0.4
 40
0.4
 40
0.6
 40
0.6
 40
0.6
 40
0.6
 40
1.0
 40
1.0
 40
1.0
 40
1.0
 10
52.9422
 20
-80.9422
 30
0.0
 10
53.0153
 20
-77.833
 30
0.0
 10
54.8737
 20
-74.7636
 30
0.0
 10
58.152
 20
-73.0839
 30
0.0
 10
58.152
 20
-73.0839
 30
0.0
 10
58.152
 20
-73.0839
 30
0.0
 10
58.1369
 20
-78.7749
 30
0.0
 10
58.1369
 20
-78.7749
 30
0.0
 10
58.1369
 20
-78.7749
 30
0.0
 10
56.4966
 20
-80.0831
 30
0.0
 10
54.5773
 20
-80.596
 30
0.0
 10
52.9422
 20
-80.9421
 30
0.0
 10
52.9422
 20
-80.9421
 30
0.0
 10
52.9422
 20
-80.9421
 30
0.0
 10
52.9422
 20
-80.9422
 30
0.0
 10
52.9422
 20
-80.9422
 30
0.0
  0
SPLINE
  5
B1
330
1F
100
AcDbEntity
  8
layer 1
 62
     7
100
AcDbSpline
210
0.0
220
0.0
230
1.0
 70
    11
 71
     3
 72
    16
 73
    12
 74
     0
 42
0.0000000001
 43
0.0000000001
 12
1.0
 22
0.0
 32
0.0
 13
1.0
 23
0.0
 33
0.0
 40
0.0
 40
0.0
 40
0.0
 40
0.0
 40
0.25
 40
0.25
 40
0.25
 40
0.25
 40
0.5
 40
0.5
 40
0.5
 40
0.5
 40
1.0
 40
1.0
 40
1.0
 40
1.0
 10
52.9422
 20
-87.4588
 30
0.0
 10
53.0156
 20
-90.576
 30
0.0
 10
54.8834
 20
-93.6536
 30
0.0
 10
58.1779
 20
-95.3303
 30
0.0
 10
58.1779
 20
-95.3303
 30
0.0
 10
58.1779
 20
-95.3303
 30
0.0
 10
58.1877
 20
-89.6667
 30
0.0
 10
58.1877
 20
-89.6667
 30
0.0
 10
58.1877
 20
-89.6667
 30
0.0
 10
56.5362
 20
-88.3285
 30
0.0
 10
54.5941
 20
-87.8084
 30
0.0
 10
52.9422
 20
-87.4588
 30
0.0
  0
SPLINE
  5
B2
330
1F
100
AcDbEntity
  8
layer 1
 62
     7
100
AcDbSpline
210
0.0
220
0.0
230
1.0
 70
    11
 71
     3
 72
    20
 73
    16
 74
     0
 42
0.0000000001
 43
0.0000000001
 12
1.0
 22
0.0
 32
0.0
 13
1.0
 23
0.0
 33
0.0
 40
0.0
 40
0.0
 40
0.0
 40
0.0
 40
0.2
 40
0.2
 40
0.2
 40
0.2
 40
0.4
 40
0.4
 40
0.4
 40
0.4
 40
0.6
 40
0.6
 40
0.6
 40
0.6
 40
1.0
 40
1.0
 40
1.0
 40
1.0
 10
-45.7162
 20
-80.9422
 30
0.0
 10
-45.7893
 20
-77.833
 30
0.0
 10
-47.6476
 20
-74.7636
 30
0.0
 10
-50.9259
 20
-73.0839
 30
0.0
 10
-50.9259
 20
-73.0839
 30
0.0
 10
-50.9259
 20
-73.0839
 30
0.0
 10
-50.9109
 20
-78.7749
 30
0.0
 10
-50.9109
 20
-78.7749
 30
0.0
 10
-50.9109
 20
-78.7749
 30
0.0
 10
-49.2705
 20
-80.0831
 30
0.0
 10
-47.3512
 20
-80.596
 30
0.0
 10
-45.7162
 20
-80.9421
 30
0.0
 10
-45.7162
 20
-80.9421
 30
0.0
 10
-45.7162
 20
-80.9421
 30
0.0
 10
-45.7162
 20
-80.9422
 30
0.0
 10
-45.7162
 20
-80.9422
 30
0.0
  0
SPLINE
  5
B3
330
1F
100
AcDbEntity
  8
layer 1
 62
     7
100
AcDbSpline
210
0.0
220
0.0
230
1.0
 70
    11
 71
     3
 72
    16
 73
    12
 74
     0
 42
0.0000000001
 43
0.0000000001
 12
1.0
 22
0.0
 32
0.0
 13
1.0
 23
0.0
 33
0.0
 40
0.0
 40
0.0
 40
0.0
 40
0.0
 40
0.25
 40
0.25
 40
0.25
 40
0.25
 40
0.5
 40
0.5
 40
0.5
 40
0.5
 40
1.0
 40
1.0
 40
1.0
 40
1.0
 10
-45.7162
 20
-87.4588
 30
0.0
 10
-45.7895
 20
-90.576
 30
0.0
 10
-47.6574
 20
-93.6536
 30
0.0
 10
-50.9519
 20
-95.3303
 30
0.0
 10
-50.9519
 20
-95.3303
 30
0.0
 10
-50.9519
 20
-95.3303
 30
0.0
 10
-50.9617
 20
-89.6667
 30
0.0
 10
-50.9617
 20
-89.6667
 30
0.0
 10
-50.9617
 20
-89.6667
 30
0.0
 10
-49.3102
 20
-88.3285
 30
0.0
 10
-47.368
 20
-87.8084
 30
0.0
 10
-45.7162
 20
-87.4588
 30
0.0
  0
SPLINE
  5
B4
330
1F
100
AcDbEntity
  8
layer 1
 62
     7
100
AcDbSpline
210
0.0
220
0.0
230
1.0
 70
    11
 71
     3
 72
    20
 73
    16
 74
     0
 42
0.0000000001
 43
0.0000000001
 12
1.0
 22
0.0
 32
0.0
 13
1.0
 23
0.0
 33
0.0
 40
0.0
 40
0.0
 40
0.0
 40
0.0
 40
0.2
 40
0.2
 40
0.2
 40
0.2
 40
0.4
 40
0.4
 40
0.4
 40
0.4
 40
0.6
 40
0.6
 40
0.6
 40
0.6
 40
1.0
 40
1.0
 40
1.0
 40
1.0
 10
-50.9617
 20
-99.6835
 30
0.0
 10
-47.8419
 20
-99.488
 30
0.0
 10
-42.747
 20
-94.561
 30
0.0
 10
-42.5035
 20
-91.2253
 30
0.0
 10
-42.5035
 20
-91.2253
 30
0.0
 10
-42.2119
 20
-94.513
 30
0.0
 10
-37.213
 20
-99.6319
 30
0.0
 10
-34.0454
 20
-99.6835
 30
0.0
 10
-34.0454
 20
-99.6835
 30
0.0
 10
-37.1411
 20
-100.2631
 30
0.0
 10
-42.116
 20
-104.494
 30
0.0
 10
-42.5035
 20
-108.1416
 30
0.0
 10
-42.5035
 20
-108.1416
 30
0.0
 10
-42.819
 20
-104.518
 30
0.0
 10
-47.7459
 20
-100.311
 30
0.0
 10
-50.9617
 20
-99.6835
 30
0.0
  0
SPLINE
  5
B5
330
1F
100
AcDbEntity
  8
layer 1
 62
     7
100
AcDbSpline
210
0.0
220
0.0
230
1.0
 70
    11
 71
     3
 72
    20
 73
    16
 74
     0
 42
0.0000000001
 43
0.0000000001
 12
1.0
 22
0.0
 32
0.0
 13
1.0
 23
0.0
 33
0.0
 40
0.0
 40
0.0
 40
0.0
 40
0.0
 40
0.2
 40
0.2
 40
0.2
 40
0.2
 40
0.4
 40
0.4
 40
0.4
 40
0.4
 40
0.6
 40
0.6
 40
0.6
 40
0.6
 40
1.0
 40
1.0
 40
1.0
 40
1.0
 10
-20.224
 20
-99.6835
 30
0.0
 10
-17.1042
 20
-99.488
 30
0.0
 10
-12.0093
 20
-94.561
 30
0.0
 10
-11.7658
 20
-91.2253
 30
0.0
 10
-11.7658
 20
-91.2253
 30
0.0
 10
-11.4742
 20
-94.513
 30
0.0
 10
-6.4753
 20
-99.6319
 30
0.0
 10
-3.3077
 20
-99.6835
 30
0.0
 10
-3.3077
 20
-99.6835
 30
0.0
 10
-6.4034
 20
-100.2631
 30
0.0
 10
-11.3783
 20
-104.494
 30
0.0
 10
-11.7658
 20
-108.1416
 30
0.0
 10
-11.7658
 20
-108.1416
 30
0.0
 10
-12.0814
 20
-104.518
 30
0.0
 10
-17.0083
 20
-100.311
 30
0.0
 10
-20.224
 20
-99.6835
 30
0.0
  0
SPLINE
  5
B6
330
1F
100
AcDbEntity
  8
layer 1
 62
     7
100
AcDbSpline
210
0.0
220
0.0
230
1.0
 70
    11
 71
     3
 72
    16
 73
    12
 74
     0
 42
0.0000000001
 43
0.0000000001
 12
1.0
 22
0.0
 32
0.0
 13
1.0
 23
0.0
 33
0.0
 40
0.0
 40
0.0
 40
0.0
 40
0.0
 40
0.25
 40
0.25
 40
0.25
 40
0.25
 40
0.5
 40
0.5
 40
0.5
 40
0.5
 40
1.0
 40
1.0
 40
1.0
 40
1.0
 10
-23.7757
 20
-103.008
 30
0.0
 10
-23.7322
 20
-104.8556
 30
0.0
 10
-23.0584
 20
-106.6892
 30
0.0
 10
-21.8308
 20
-108.2254
 30
0.0
 10
-21.8308
 20
-108.2254
 30
0.0
 10
-21.8308
 20
-108.2254
 30
0.0
 10
-16.2036
 20
-108.1955
 30
0.0
 10
-16.2036
 20
-108.1955
 30
0.0
 10
-16.2036
 20
-108.1955
 30
0.0
 10
-18.0033
 20
-104.4878
 30
0.0
 10
-21.2332
 20
-103.5462
 30
0.0
 10
-23.7757
 20
-103.008
 30
0.0
  0
SPLINE
  5
B7
330
1F
100
AcDbEntity
  8
layer 1
 62
     7
100
AcDbSpline
210
0.0
220
0.0
230
1.0
 70
    11
 71
     3
 72
    20
 73
    16
 74
     0
 42
0.0000000001
 43
0.0000000001
 12
1.0
 22
0.0
 32
0.0
 13
1.0
 23
0.0
 33
0.0
 40
0.0
 40
0.0
 40
0.0
 40
0.0
 40
0.2
 40
0.2
 40
0.2
 40
0.2
 40
0.4
 40
0.4
 40
0.4
 40
0.4
 40
0.6
 40
0.6
 40
0.6
 40
0.6
 40
1.0
 40
1.0
 40
1.0
 40
1.0
 10
10.478
 20
-99.6835
 30
0.0
 10
13.5977
 20
-99.488
 30
0.0
 10
18.6926
 20
-94.561
 30
0.0
 10
18.9361
 20
-91.2253
 30
0.0
 10
18.9361
 20
-91.2253
 30
0.0
 10
19.2277
 20
-94.513
 30
0.0
 10
24.2267
 20
-99.6319
 30
0.0
 10
27.3943
 20
-99.6835
 30
0.0
 10
27.3943
 20
-99.6835
 30
0.0
 10
24.2986
 20
-100.2631
 30
0.0
 10
19.3236
 20
-104.494
 30
0.0
 10
18.9361
 20
-108.1416
 30
0.0
 10
18.9361
 20
-108.1416
 30
0.0
 10
18.6206
 20
-104.518
 30
0.0
 10
13.6936
 20
-100.311
 30
0.0
 10
10.478
 20
-99.6835
 30
0.0
  0
SPLINE
  5
B8
330
1F
100
AcDbEntity
  8
layer 1
 62
     7
100
AcDbSpline
210
0.0
220
0.0
230
1.0
 70
    11
 71
     3
 72
    16
 73
    12
 74
     0
 42
0.0000000001
 43
0.0000000001
 12
1.0
 22
0.0
 32
0.0
 13
1.0
 23
0.0
 33
0.0
 40
0.0
 40
0.0
 40
0.0
 40
0.0
 40
0.25
 40
0.25
 40
0.25
 40
0.25
 40
0.5
 40
0.5
 40
0.5
 40
0.5
 40
1.0
 40
1.0
 40
1.0
 40
1.0
 10
-30.6005
 20
-103.008
 30
0.0
 10
-30.6445
 20
-104.8788
 30
0.0
 10
-31.3349
 20
-106.7355
 30
0.0
 10
-32.5922
 20
-108.2835
 30
0.0
 10
-32.5922
 20
-108.2835
 30
0.0
 10
-32.5922
 20
-108.2835
 30
0.0
 10
-38.2089
 20
-108.2711
 30
0.0
 10
-38.2089
 20
-108.2711
 30
0.0
 10
-38.2089
 20
-108.2711
 30
0.0
 10
-36.4166
 20
-104.5006
 30
0.0
 10
-33.1601
 20
-103.5499
 30
0.0
 10
-30.6005
 20
-103.008
 30
0.0
  0
SPLINE
  5
B9
330
1F
100
AcDbEntity
  8
layer 1
 62
     7
100
AcDbSpline
210
0.0
220
0.0
230
1.0
 70
    11
 71
     3
 72
    16
 73
    12
 74
     0
 42
0.0000000001
 43
0.0000000001
 12
1.0
 22
0.0
 32
0.0
 13
1.0
 23
0.0
 33
0.0
 40
0.0
 40
0.0
 40
0.0
 40
0.0
 40
0.25
 40
0.25
 40
0.25
 40
0.25
 40
0.5
 40
0.5
 40
0.5
 40
0.5
 40
1.0
 40
1.0
 40
1.0
 40
1.0
 10
-46.6153
 20
-108.2094
 30
0.0
 10
-47.4806
 20
-106.4584
 30
0.0
 10
-48.957
 20
-104.9196
 30
0.0
 10
-50.9617
 20
-103.8994
 30
0.0
 10
-50.9617
 20
-103.8994
 30
0.0
 10
-50.9617
 20
-103.8994
 30
0.0
 10
-50.9692
 20
-108.2883
 30
0.0
 10
-50.9692
 20
-108.2883
 30
0.0
 10
-50.9692
 20
-108.2883
 30
0.0
 10
-50.9692
 20
-108.2883
 30
0.0
 10
-46.6153
 20
-108.2094
 30
0.0
 10
-46.6153
 20
-108.2094
 30
0.0
  0
SPLINE
  5
BA
330
1F
100
AcDbEntity
  8
layer 1
 62
     7
100
AcDbSpline
210
0.0
220
0.0
230
1.0
 70
    11
 71
     3
 72
    12
 73
     8
 74
     0
 42
0.0000000001
 43
0.0000000001
 12
1.0
 22
0.0
 32
0.0
 13
1.0
 23
0.0
 33
0.0
 40
0.0
 40
0.0
 40
0.0
 40
0.0
 40
0.3333333333333333
 40
0.3333333333333333
 40
0.3333333333333333
 40
0.3333333333333333
 40
1.0
 40
1.0
 40
1.0
 40
1.0
 10
46.523
 20
-87.4588
 30
0.0
 10
46.4271
 20
-91.5419
 30
0.0
 10
43.2519
 20
-95.557
 30
0.0
 10
37.8249
 20
-96.445
 30
0.0
 10
37.8249
 20
-96.445
 30
0.0
 10
38.8956
 20
-89.4952
 30
0.0
 10
43.2716
 20
-88.1472
 30
0.0
 10
46.523
 20
-87.4588
 30
0.0
  0
SPLINE
  5
BB
330
1F
100
AcDbEntity
  8
layer 1
 62
     7
100
AcDbSpline
210
0.0
220
0.0
230
1.0
 70
    11
 71
     3
 72
    20
 73
    16
 74
     0
 42
0.0000000001
 43
0.0000000001
 12
1.0
 22
0.0
 32
0.0
 13
1.0
 23
0.0
 33
0.0
 40
0.0
 40
0.0
 40
0.0
 40
0.0
 40
0.2
 40
0.2
 40
0.2
 40
0.2
 40
0.4
 40
0.4
 40
0.4
 40
0.4
 40
0.6
 40
0.6
 40
0.6
 40
0.6
 40
1.0
 40
1.0
 40
1.0
 40
1.0
 10
41.3784
 20
-99.6835
 30
0.0
 10
44.4982
 20
-99.488
 30
0.0
 10
49.593
 20
-94.561
 30
0.0
 10
49.8366
 20
-91.2253
 30
0.0
 10
49.8366
 20
-91.2253
 30
0.0
 10
50.1281
 20
-94.513
 30
0.0
 10
55.1271
 20
-99.6319
 30
0.0
 10
58.2947
 20
-99.6835
 30
0.0
 10
58.2947
 20
-99.6835
 30
0.0
 10
55.199
 20
-100.2631
 30
0.0
 10
50.2241
 20
-104.494
 30
0.0
 10
49.8366
 20
-108.1416
 30
0.0
 10
49.8366
 20
-108.1416
 30
0.0
 10
49.521
 20
-104.518
 30
0.0
 10
44.5941
 20
-100.311
 30
0.0
 10
41.3784
 20
-99.6835
 30
0.0
  0
SPLINE
  5
BC
330
1F
100
AcDbEntity
  8
layer 1
 62
     7
100
AcDbSpline
210
0.0
220
0.0
230
1.0
 70
    11
 71
     3
 72
    16
 73
    12
 74
     0
 42
0.0000000001
 43
0.0000000001
 12
1.0
 22
0.0
 32
0.0
 13
1.0
 23
0.0
 33
0.0
 40
0.0
 40
0.0
 40
0.0
 40
0.0
 40
0.25
 40
0.25
 40
0.25
 40
0.25
 40
0.5
 40
0.5
 40
0.5
 40
0.5
 40
1.0
 40
1.0
 40
1.0
 40
1.0
 10
7.1631
 20
-103.008
 30
0.0
 10
7.2066
 20
-104.8556
 30
0.0
 10
7.8804
 20
-106.6892
 30
0.0
 10
9.108
 20
-108.2254
 30
0.0
 10
9.108
 20
-108.2254
 30
0.0
 10
9.108
 20
-108.2254
 30
0.0
 10
14.7352
 20
-108.1955
 30
0.0
 10
14.7352
 20
-108.1955
 30
0.0
 10
14.7352
 20
-108.1955
 30
0.0
 10
12.9355
 20
-104.4878
 30
0.0
 10
9.7056
 20
-103.5462
 30
0.0
 10
7.1631
 20
-103.008
 30
0.0
  0
SPLINE
  5
BD
330
1F
100
AcDbEntity
  8
layer 1
 62
     7
100
AcDbSpline
210
0.0
220
0.0
230
1.0
 70
    11
 71
     3
 72
    16
 73
    12
 74
     0
 42
0.0000000001
 43
0.0000000001
 12
1.0
 22
0.0
 32
0.0
 13
1.0
 23
0.0
 33
0.0
 40
0.0
 40
0.0
 40
0.0
 40
0.0
 40
0.25
 40
0.25
 40
0.25
 40
0.25
 40
0.5
 40
0.5
 40
0.5
 40
0.5
 40
1.0
 40
1.0
 40
1.0
 40
1.0
 10
0.3383
 20
-103.008
 30
0.0
 10
0.2943
 20
-104.8788
 30
0.0
 10
-0.3961
 20
-106.7355
 30
0.0
 10
-1.6534
 20
-108.2835
 30
0.0
 10
-1.6534
 20
-108.2835
 30
0.0
 10
-1.6534
 20
-108.2835
 30
0.0
 10
-7.2701
 20
-108.2711
 30
0.0
 10
-7.2701
 20
-108.2711
 30
0.0
 10
-7.2701
 20
-108.2711
 30
0.0
 10
-5.4778
 20
-104.5006
 30
0.0
 10
-2.2213
 20
-103.5499
 30
0.0
 10
0.3383
 20
-103.008
 30
0.0
  0
SPLINE
  5
BE
330
1F
100
AcDbEntity
  8
layer 1
 62
     7
100
AcDbSpline
210
0.0
220
0.0
230
1.0
 70
    11
 71
     3
 72
    16
 73
    12
 74
     0
 42
0.0000000001
 43
0.0000000001
 12
1.0
 22
0.0
 32
0.0
 13
1.0
 23
0.0
 33
0.0
 40
0.0
 40
0.0
 40
0.0
 40
0.0
 40
0.25
 40
0.25
 40
0.25
 40
0.25
 40
0.5
 40
0.5
 40
0.5
 40
0.5
 40
1.0
 40
1.0
 40
1.0
 40
1.0
 10
37.8215
 20
-103.008
 30
0.0
 10
37.8649
 20
-104.8556
 30
0.0
 10
38.5388
 20
-106.6892
 30
0.0
 10
39.7663
 20
-108.2254
 30
0.0
 10
39.7663
 20
-108.2254
 30
0.0
 10
39.7663
 20
-108.2254
 30
0.0
 10
45.3936
 20
-108.1955
 30
0.0
 10
45.3936
 20
-108.1955
 30
0.0
 10
45.3936
 20
-108.1955
 30
0.0
 10
43.5938
 20
-104.4878
 30
0.0
 10
40.364
 20
-103.5462
 30
0.0
 10
37.8215
 20
-103.008
 30
0.0
  0
SPLINE
  5
BF
330
1F
100
AcDbEntity
  8
layer 1
 62
     7
100
AcDbSpline
210
0.0
220
0.0
230
1.0
 70
    11
 71
     3
 72
    16
 73
    12
 74
     0
 42
0.0000000001
 43
0.0000000001
 12
1.0
 22
0.0
 32
0.0
 13
1.0
 23
0.0
 33
0.0
 40
0.0
 40
0.0
 40
0.0
 40
0.0
 40
0.25
 40
0.25
 40
0.25
 40
0.25
 40
0.5
 40
0.5
 40
0.5
 40
0.5
 40
1.0
 40
1.0
 40
1.0
 40
1.0
 10
30.9967
 20
-103.008
 30
0.0
 10
30.9527
 20
-104.8788
 30
0.0
 10
30.2623
 20
-106.7355
 30
0.0
 10
29.0049
 20
-108.2835
 30
0.0
 10
29.0049
 20
-108.2835
 30
0.0
 10
29.0049
 20
-108.2835
 30
0.0
 10
23.3883
 20
-108.2711
 30
0.0
 10
23.3883
 20
-108.2711
 30
0.0
 10
23.3883
 20
-108.2711
 30
0.0
 10
25.1806
 20
-104.5006
 30
0.0
 10
28.4371
 20
-103.5499
 30
0.0
 10
30.9967
 20
-103.008
 30
0.0
  0
SPLINE
  5
C0
330
1F
100
AcDbEntity
  8
layer 1
 62
     7
100
AcDbSpline
210
0.0
220
0.0
230
1.0
 70
    11
 71
     3
 72
    16
 73
    12
 74
     0
 42
0.0000000001
 43
0.0000000001
 12
1.0
 22
0.0
 32
0.0
 13
1.0
 23
0.0
 33
0.0
 40
0.0
 40
0.0
 40
0.0
 40
0.0
 40
0.25
 40
0.25
 40
0.25
 40
0.25
 40
0.5
 40
0.5
 40
0.5
 40
0.5
 40
1.0
 40
1.0
 40
1.0
 40
1.0
 10
53.7941
 20
-108.2094
 30
0.0
 10
54.6594
 20
-106.4584
 30
0.0
 10
56.1358
 20
-104.9196
 30
0.0
 10
58.1405
 20
-103.8994
 30
0.0
 10
58.1405
 20
-103.8994
 30
0.0
 10
58.1405
 20
-103.8994
 30
0.0
 10
58.148
 20
-108.2883
 30
0.0
 10
58.148
 20
-108.2883
 30
0.0
 10
58.148
 20
-108.2883
 30
0.0
 10
58.148
 20
-108.2883
 30
0.0
 10
53.7941
 20
-108.2094
 30
0.0
 10
53.7941
 20
-108.2094
 30
0.0
  0
SPLINE
  5
C1
330
1F
100
AcDbEntity
  8
layer 1
 62
     7
100
AcDbSpline
210
0.0
220
0.0
230
1.0
 70
    11
 71
     3
 72
    16
 73
    12
 74
     0
 42
0.0000000001
 43
0.0000000001
 12
1.0
 22
0.0
 32
0.0
 13
1.0
 23
0.0
 33
0.0
 40
0.0
 40
0.0
 40
0.0
 40
0.0
 40
0.25
 40
0.25
 40
0.25
 40
0.25
 40
0.5
 40
0.5
 40
0.5
 40
0.5
 40
1.0
 40
1.0
 40
1.0
 40
1.0
 10
-23.7757
 20
119.4576
 30
0.0
 10
-23.7322
 20
121.3053
 30
0.0
 10
-23.0584
 20
123.1388
 30
0.0
 10
-21.8308
 20
124.6751
 30
0.0
 10
-21.8308
 20
124.6751
 30
0.0
 10
-21.8308
 20
124.6751
 30
0.0
 10
-16.2036
 20
124.6452
 30
0.0
 10
-16.2036
 20
124.6452
 30
0.0
 10
-16.2036
 20
124.6452
 30
0.0
 10
-18.0033
 20
120.9375
 30
0.0
 10
-21.2333
 20
119.9959
 30
0.0
 10
-23.7757
 20
119.4576
 30
0.0
  0
SPLINE
  5
C2
330
1F
100
AcDbEntity
  8
layer 1
 62
     7
100
AcDbSpline
210
0.0
220
0.0
230
1.0
 70
    11
 71
     3
 72
    16
 73
    12
 74
     0
 42
0.0000000001
 43
0.0000000001
 12
1.0
 22
0.0
 32
0.0
 13
1.0
 23
0.0
 33
0.0
 40
0.0
 40
0.0
 40
0.0
 40
0.0
 40
0.25
 40
0.25
 40
0.25
 40
0.25
 40
0.5
 40
0.5
 40
0.5
 40
0.5
 40
1.0
 40
1.0
 40
1.0
 40
1.0
 10
-30.6005
 20
119.4576
 30
0.0
 10
-30.6445
 20
121.3285
 30
0.0
 10
-31.3349
 20
123.1852
 30
0.0
 10
-32.5922
 20
124.7331
 30
0.0
 10
-32.5922
 20
124.7331
 30
0.0
 10
-32.5922
 20
124.7331
 30
0.0
 10
-38.2089
 20
124.7208
 30
0.0
 10
-38.2089
 20
124.7208
 30
0.0
 10
-38.2089
 20
124.7208
 30
0.0
 10
-36.4166
 20
120.9503
 30
0.0
 10
-33.1601
 20
119.9995
 30
0.0
 10
-30.6005
 20
119.4576
 30
0.0
  0
SPLINE
  5
C3
330
1F
100
AcDbEntity
  8
layer 1
 62
     7
100
AcDbSpline
210
0.0
220
0.0
230
1.0
 70
    11
 71
     3
 72
    16
 73
    12
 74
     0
 42
0.0000000001
 43
0.0000000001
 12
1.0
 22
0.0
 32
0.0
 13
1.0
 23
0.0
 33
0.0
 40
0.0
 40
0.0
 40
0.0
 40
0.0
 40
0.25
 40
0.25
 40
0.25
 40
0.25
 40
0.5
 40
0.5
 40
0.5
 40
0.5
 40
1.0
 40
1.0
 40
1.0
 40
1.0
 10
-46.6153
 20
124.659
 30
0.0
 10
-47.4806
 20
122.9081
 30
0.0
 10
-48.957
 20
121.3692
 30
0.0
 10
-50.9617
 20
120.349
 30
0.0
 10
-50.9617
 20
120.349
 30
0.0
 10
-50.9617
 20
120.349
 30
0.0
 10
-50.9692
 20
124.738
 30
0.0
 10
-50.9692
 20
124.738
 30
0.0
 10
-50.9692
 20
124.738
 30
0.0
 10
-50.9692
 20
124.738
 30
0.0
 10
-46.6153
 20
124.659
 30
0.0
 10
-46.6153
 20
124.659
 30
0.0
  0
SPLINE
  5
C4
330
1F
100
AcDbEntity
  8
layer 1
 62
     7
100
AcDbSpline
210
0.0
220
0.0
230
1.0
 70
    11
 71
     3
 72
    16
 73
    12
 74
     0
 42
0.0000000001
 43
0.0000000001
 12
1.0
 22
0.0
 32
0.0
 13
1.0
 23
0.0
 33
0.0
 40
0.0
 40
0.0
 40
0.0
 40
0.0
 40
0.25
 40
0.25
 40
0.25
 40
0.25
 40
0.5
 40
0.5
 40
0.5
 40
0.5
 40
1.0
 40
1.0
 40
1.0
 40
1.0
 10
7.1631
 20
119.4576
 30
0.0
 10
7.2066
 20
121.3053
 30
0.0
 10
7.8804
 20
123.1388
 30
0.0
 10
9.108
 20
124.6751
 30
0.0
 10
9.108
 20
124.6751
 30
0.0
 10
9.108
 20
124.6751
 30
0.0
 10
14.7352
 20
124.6452
 30
0.0
 10
14.7352
 20
124.6452
 30
0.0
 10
14.7352
 20
124.6452
 30
0.0
 10
12.9355
 20
120.9375
 30
0.0
 10
9.7056
 20
119.9959
 30
0.0
 10
7.1631
 20
119.4576
 30
0.0
  0
SPLINE
  5
C5
330
1F
100
AcDbEntity
  8
layer 1
 62
     7
100
AcDbSpline
210
0.0
220
0.0
230
1.0
 70
    11
 71
     3
 72
    16
 73
    12
 74
     0
 42
0.0000000001
 43
0.0000000001
 12
1.0
 22
0.0
 32
0.0
 13
1.0
 23
0.0
 33
0.0
 40
0.0
 40
0.0
 40
0.0
 40
0.0
 40
0.25
 40
0.25
 40
0.25
 40
0.25
 40
0.5
 40
0.5
 40
0.5
 40
0.5
 40
1.0
 40
1.0
 40
1.0
 40
1.0
 10
0.3383
 20
119.4576
 30
0.0
 10
0.2943
 20
121.3285
 30
0.0
 10
-0.3961
 20
123.1852
 30
0.0
 10
-1.6534
 20
124.7331
 30
0.0
 10
-1.6534
 20
124.7331
 30
0.0
 10
-1.6534
 20
124.7331
 30
0.0
 10
-7.2701
 20
124.7208
 30
0.0
 10
-7.2701
 20
124.7208
 30
0.0
 10
-7.2701
 20
124.7208
 30
0.0
 10
-5.4778
 20
120.9503
 30
0.0
 10
-2.2213
 20
119.9995
 30
0.0
 10
0.3383
 20
119.4576
 30
0.0
  0
SPLINE
  5
C6
330
1F
100
AcDbEntity
  8
layer 1
 62
     7
100
AcDbSpline
210
0.0
220
0.0
230
1.0
 70
    11
 71
     3
 72
    16
 73
    12
 74
     0
 42
0.0000000001
 43
0.0000000001
 12
1.0
 22
0.0
 32
0.0
 13
1.0
 23
0.0
 33
0.0
 40
0.0
 40
0.0
 40
0.0
 40
0.0
 40
0.25
 40
0.25
 40
0.25
 40
0.25
 40
0.5
 40
0.5
 40
0.5
 40
0.5
 40
1.0
 40
1.0
 40
1.0
 40
1.0
 10
37.8215
 20
119.4576
 30
0.0
 10
37.8649
 20
121.3053
 30
0.0
 10
38.5388
 20
123.1388
 30
0.0
 10
39.7663
 20
124.6751
 30
0.0
 10
39.7663
 20
124.6751
 30
0.0
 10
39.7663
 20
124.6751
 30
0.0
 10
45.3936
 20
124.6452
 30
0.0
 10
45.3936
 20
124.6452
 30
0.0
 10
45.3936
 20
124.6452
 30
0.0
 10
43.5938
 20
120.9375
 30
0.0
 10
40.364
 20
119.9959
 30
0.0
 10
37.8215
 20
119.4576
 30
0.0
  0
SPLINE
  5
C7
330
1F
100
AcDbEntity
  8
layer 1
 62
     7
100
AcDbSpline
210
0.0
220
0.0
230
1.0
 70
    11
 71
     3
 72
    16
 73
    12
 74
     0
 42
0.0000000001
 43
0.0000000001
 12
1.0
 22
0.0
 32
0.0
 13
1.0
 23
0.0
 33
0.0
 40
0.0
 40
0.0
 40
0.0
 40
0.0
 40
0.25
 40
0.25
 40
0.25
 40
0.25
 40
0.5
 40
0.5
 40
0.5
 40
0.5
 40
1.0
 40
1.0
 40
1.0
 40
1.0
 10
30.9967
 20
119.4576
 30
0.0
 10
30.9527
 20
121.3285
 30
0.0
 10
30.2623
 20
123.1852
 30
0.0
 10
29.0049
 20
124.7331
 30
0.0
 10
29.0049
 20
124.7331
 30
0.0
 10
29.0049
 20
124.7331
 30
0.0
 10
23.3883
 20
124.7208
 30
0.0
 10
23.3883
 20
124.7208
 30
0.0
 10
23.3883
 20
124.7208
 30
0.0
 10
25.1806
 20
120.9503
 30
0.0
 10
28.4371
 20
119.9995
 30
0.0
 10
30.9967
 20
119.4576
 30
0.0
  0
SPLINE
  5
C8
330
1F
100
AcDbEntity
  8
layer 1
 62
     7
100
AcDbSpline
210
0.0
220
0.0
230
1.0
 70
    11
 71
     3
 72
    16
 73
    12
 74
     0
 42
0.0000000001
 43
0.0000000001
 12
1.0
 22
0.0
 32
0.0
 13
1.0
 23
0.0
 33
0.0
 40
0.0
 40
0.0
 40
0.0
 40
0.0
 40
0.25
 40
0.25
 40
0.25
 40
0.25
 40
0.5
 40
0.5
 40
0.5
 40
0.5
 40
1.0
 40
1.0
 40
1.0
 40
1.0
 10
53.7941
 20
124.659
 30
0.0
 10
54.6594
 20
122.9081
 30
0.0
 10
56.1358
 20
121.3692
 30
0.0
 10
58.1405
 20
120.349
 30
0.0
 10
58.1405
 20
120.349
 30
0.0
 10
58.1405
 20
120.349
 30
0.0
 10
58.148
 20
124.738
 30
0.0
 10
58.148
 20
124.738
 30
0.0
 10
58.148
 20
124.738
 30
0.0
 10
58.148
 20
124.738
 30
0.0
 10
53.7941
 20
124.659
 30
0.0
 10
53.7941
 20
124.659
 30
0.0
  0
SPLINE
  5
C9
330
1F
100
AcDbEntity
  8
layer 1
 62
     7
100
AcDbSpline
210
0.0
220
0.0
230
1.0
 70
    11
 71
     3
 72
    20
 73
    16
 74
     0
 42
0.0000000001
 43
0.0000000001
 12
1.0
 22
0.0
 32
0.0
 13
1.0
 23
0.0
 33
0.0
 40
0.0
 40
0.0
 40
0.0
 40
0.0
 40
0.2
 40
0.2
 40
0.2
 40
0.2
 40
0.4
 40
0.4
 40
0.4
 40
0.4
 40
0.6
 40
0.6
 40
0.6
 40
0.6
 40
1.0
 40
1.0
 40
1.0
 40
1.0
 10
-35.476
 20
8.4475
 30
0.0
 10
-32.3563
 20
8.6431
 30
0.0
 10
-27.2614
 20
13.57
 30
0.0
 10
-27.0179
 20
16.9057
 30
0.0
 10
-27.0179
 20
16.9057
 30
0.0
 10
-26.7263
 20
13.618
 30
0.0
 10
-21.7273
 20
8.4991
 30
0.0
 10
-18.5597
 20
8.4475
 30
0.0
 10
-18.5597
 20
8.4475
 30
0.0
 10
-21.6554
 20
7.8679
 30
0.0
 10
-26.6304
 20
3.637
 30
0.0
 10
-27.0179
 20
-0.0106
 30
0.0
 10
-27.0179
 20
-0.0106
 30
0.0
 10
-27.3334
 20
3.613
 30
0.0
 10
-32.2604
 20
7.8199
 30
0.0
 10
-35.476
 20
8.4475
 30
0.0
  0
SPLINE
  5
CA
330
1F
100
AcDbEntity
  8
layer 1
 62
     7
100
AcDbSpline
210
0.0
220
0.0
230
1.0
 70
    11
 71
     3
 72
    12
 73
     8
 74
     0
 42
0.0000000001
 43
0.0000000001
 12
1.0
 22
0.0
 32
0.0
 13
1.0
 23
0.0
 33
0.0
 40
0.0
 40
0.0
 40
0.0
 40
0.0
 40
0.3333333333333333
 40
0.3333333333333333
 40
0.3333333333333333
 40
0.3333333333333333
 40
1.0
 40
1.0
 40
1.0
 40
1.0
 10
-39.0277
 20
5.123
 30
0.0
 10
-38.9317
 20
1.0399
 30
0.0
 10
-35.7566
 20
-2.9752
 30
0.0
 10
-30.3296
 20
-3.8632
 30
0.0
 10
-30.3296
 20
-3.8632
 30
0.0
 10
-31.4003
 20
3.0865
 30
0.0
 10
-35.7763
 20
4.4346
 30
0.0
 10
-39.0277
 20
5.123
 30
0.0
  0
SPLINE
  5
CB
330
1F
100
AcDbEntity
  8
layer 1
 62
     7
100
AcDbSpline
210
0.0
220
0.0
230
1.0
 70
    11
 71
     3
 72
    12
 73
     8
 74
     0
 42
0.0000000001
 43
0.0000000001
 12
1.0
 22
0.0
 32
0.0
 13
1.0
 23
0.0
 33
0.0
 40
0.0
 40
0.0
 40
0.0
 40
0.0
 40
0.3333333333333333
 40
0.3333333333333333
 40
0.3333333333333333
 40
0.3333333333333333
 40
1.0
 40
1.0
 40
1.0
 40
1.0
 10
-15.1149
 20
5.123
 30
0.0
 10
-15.2108
 20
1.0399
 30
0.0
 10
-18.386
 20
-2.9752
 30
0.0
 10
-23.813
 20
-3.8632
 30
0.0
 10
-23.813
 20
-3.8632
 30
0.0
 10
-22.7423
 20
3.0865
 30
0.0
 10
-18.3663
 20
4.4346
 30
0.0
 10
-15.1149
 20
5.123
 30
0.0
  0
SPLINE
  5
CC
330
1F
100
AcDbEntity
  8
layer 1
 62
     7
100
AcDbSpline
210
0.0
220
0.0
230
1.0
 70
    11
 71
     3
 72
    12
 73
     8
 74
     0
 42
0.0000000001
 43
0.0000000001
 12
1.0
 22
0.0
 32
0.0
 13
1.0
 23
0.0
 33
0.0
 40
0.0
 40
0.0
 40
0.0
 40
0.0
 40
0.3333333333333333
 40
0.3333333333333333
 40
0.3333333333333333
 40
0.3333333333333333
 40
1.0
 40
1.0
 40
1.0
 40
1.0
 10
-15.1149
 20
5.123
 30
0.0
 10
-15.2108
 20
1.0399
 30
0.0
 10
-18.386
 20
-2.9752
 30
0.0
 10
-23.813
 20
-3.8632
 30
0.0
 10
-23.813
 20
-3.8632
 30
0.0
 10
-22.7423
 20
3.0865
 30
0.0
 10
-18.3663
 20
4.4346
 30
0.0
 10
-15.1149
 20
5.123
 30
0.0
  0
SPLINE
  5
CD
330
1F
100
AcDbEntity
  8
layer 1
 62
     7
100
AcDbSpline
210
0.0
220
0.0
230
1.0
 70
    11
 71
     3
 72
    20
 73
    16
 74
     0
 42
0.0000000001
 43
0.0000000001
 12
1.0
 22
0.0
 32
0.0
 13
1.0
 23
0.0
 33
0.0
 40
0.0
 40
0.0
 40
0.0
 40
0.0
 40
0.2
 40
0.2
 40
0.2
 40
0.2
 40
0.4
 40
0.4
 40
0.4
 40
0.4
 40
0.6
 40
0.6
 40
0.6
 40
0.6
 40
1.0
 40
1.0
 40
1.0
 40
1.0
 10
-4.7384
 20
8.4475
 30
0.0
 10
-1.6187
 20
8.6431
 30
0.0
 10
3.4762
 20
13.57
 30
0.0
 10
3.7197
 20
16.9057
 30
0.0
 10
3.7197
 20
16.9057
 30
0.0
 10
4.0113
 20
13.618
 30
0.0
 10
9.0102
 20
8.4991
 30
0.0
 10
12.1779
 20
8.4475
 30
0.0
 10
12.1779
 20
8.4475
 30
0.0
 10
9.0822
 20
7.8679
 30
0.0
 10
4.1072
 20
3.637
 30
0.0
 10
3.7197
 20
-0.0106
 30
0.0
 10
3.7197
 20
-0.0106
 30
0.0
 10
3.4041
 20
3.613
 30
0.0
 10
-1.5228
 20
7.82
 30
0.0
 10
-4.7384
 20
8.4475
 30
0.0
  0
SPLINE
  5
CE
330
1F
100
AcDbEntity
  8
layer 1
 62
     7
100
AcDbSpline
210
0.0
220
0.0
230
1.0
 70
    11
 71
     3
 72
    12
 73
     8
 74
     0
 42
0.0000000001
 43
0.0000000001
 12
1.0
 22
0.0
 32
0.0
 13
1.0
 23
0.0
 33
0.0
 40
0.0
 40
0.0
 40
0.0
 40
0.0
 40
0.3333333333333333
 40
0.3333333333333333
 40
0.3333333333333333
 40
0.3333333333333333
 40
1.0
 40
1.0
 40
1.0
 40
1.0
 10
-8.2902
 20
5.123
 30
0.0
 10
-8.1942
 20
1.0399
 30
0.0
 10
-5.019
 20
-2.9752
 30
0.0
 10
0.408
 20
-3.8632
 30
0.0
 10
0.408
 20
-3.8632
 30
0.0
 10
-0.6627
 20
3.0865
 30
0.0
 10
-5.0388
 20
4.4346
 30
0.0
 10
-8.2902
 20
5.123
 30
0.0
  0
SPLINE
  5
CF
330
1F
100
AcDbEntity
  8
layer 1
 62
     7
100
AcDbSpline
210
0.0
220
0.0
230
1.0
 70
    11
 71
     3
 72
    12
 73
     8
 74
     0
 42
0.0000000001
 43
0.0000000001
 12
1.0
 22
0.0
 32
0.0
 13
1.0
 23
0.0
 33
0.0
 40
0.0
 40
0.0
 40
0.0
 40
0.0
 40
0.3333333333333333
 40
0.3333333333333333
 40
0.3333333333333333
 40
0.3333333333333333
 40
1.0
 40
1.0
 40
1.0
 40
1.0
 10
15.6227
 20
5.123
 30
0.0
 10
15.5268
 20
1.0399
 30
0.0
 10
12.3516
 20
-2.9752
 30
0.0
 10
6.9245
 20
-3.8632
 30
0.0
 10
6.9245
 20
-3.8632
 30
0.0
 10
7.9953
 20
3.0865
 30
0.0
 10
12.3713
 20
4.4346
 30
0.0
 10
15.6227
 20
5.123
 30
0.0
  0
SPLINE
  5
D0
330
1F
100
AcDbEntity
  8
layer 1
 62
     7
100
AcDbSpline
210
0.0
220
0.0
230
1.0
 70
    11
 71
     3
 72
    20
 73
    16
 74
     0
 42
0.0000000001
 43
0.0000000001
 12
1.0
 22
0.0
 32
0.0
 13
1.0
 23
0.0
 33
0.0
 40
0.0
 40
0.0
 40
0.0
 40
0.0
 40
0.2
 40
0.2
 40
0.2
 40
0.2
 40
0.4
 40
0.4
 40
0.4
 40
0.4
 40
0.6
 40
0.6
 40
0.6
 40
0.6
 40
1.0
 40
1.0
 40
1.0
 40
1.0
 10
25.9636
 20
8.4475
 30
0.0
 10
29.0834
 20
8.6431
 30
0.0
 10
34.1783
 20
13.57
 30
0.0
 10
34.4218
 20
16.9057
 30
0.0
 10
34.4218
 20
16.9057
 30
0.0
 10
34.7133
 20
13.618
 30
0.0
 10
39.7123
 20
8.4991
 30
0.0
 10
42.8799
 20
8.4475
 30
0.0
 10
42.8799
 20
8.4475
 30
0.0
 10
39.7842
 20
7.8679
 30
0.0
 10
34.8093
 20
3.637
 30
0.0
 10
34.4218
 20
-0.0106
 30
0.0
 10
34.4218
 20
-0.0106
 30
0.0
 10
34.1062
 20
3.613
 30
0.0
 10
29.1793
 20
7.82
 30
0.0
 10
25.9636
 20
8.4475
 30
0.0
  0
SPLINE
  5
D1
330
1F
100
AcDbEntity
  8
layer 1
 62
     7
100
AcDbSpline
210
0.0
220
0.0
230
1.0
 70
    11
 71
     3
 72
    12
 73
     8
 74
     0
 42
0.0000000001
 43
0.0000000001
 12
1.0
 22
0.0
 32
0.0
 13
1.0
 23
0.0
 33
0.0
 40
0.0
 40
0.0
 40
0.0
 40
0.0
 40
0.3333333333333333
 40
0.3333333333333333
 40
0.3333333333333333
 40
0.3333333333333333
 40
1.0
 40
1.0
 40
1.0
 40
1.0
 10
22.4119
 20
5.123
 30
0.0
 10
22.508
 20
1.0399
 30
0.0
 10
25.683
 20
-2.9752
 30
0.0
 10
31.1101
 20
-3.8632
 30
0.0
 10
31.1101
 20
-3.8632
 30
0.0
 10
30.0394
 20
3.0865
 30
0.0
 10
25.6633
 20
4.4346
 30
0.0
 10
22.4119
 20
5.123
 30
0.0
  0
SPLINE
  5
D2
330
1F
100
AcDbEntity
  8
layer 1
 62
     7
100
AcDbSpline
210
0.0
220
0.0
230
1.0
 70
    11
 71
     3
 72
    16
 73
    12
 74
     0
 42
0.0000000001
 43
0.0000000001
 12
1.0
 22
0.0
 32
0.0
 13
1.0
 23
0.0
 33
0.0
 40
0.0
 40
0.0
 40
0.0
 40
0.0
 40
0.25
 40
0.25
 40
0.25
 40
0.25
 40
0.5
 40
0.5
 40
0.5
 40
0.5
 40
1.0
 40
1.0
 40
1.0
 40
1.0
 10
52.9422
 20
5.123
 30
0.0
 10
53.0156
 20
2.0058
 30
0.0
 10
54.8834
 20
-1.0718
 30
0.0
 10
58.1779
 20
-2.7485
 30
0.0
 10
58.1779
 20
-2.7485
 30
0.0
 10
58.1779
 20
-2.7485
 30
0.0
 10
58.1877
 20
2.9151
 30
0.0
 10
58.1877
 20
2.9151
 30
0.0
 10
58.1877
 20
2.9151
 30
0.0
 10
56.5362
 20
4.2533
 30
0.0
 10
54.5941
 20
4.7734
 30
0.0
 10
52.9422
 20
5.123
 30
0.0
  0
SPLINE
  5
D3
330
1F
100
AcDbEntity
  8
layer 1
 62
     7
100
AcDbSpline
210
0.0
220
0.0
230
1.0
 70
    11
 71
     3
 72
    16
 73
    12
 74
     0
 42
0.0000000001
 43
0.0000000001
 12
1.0
 22
0.0
 32
0.0
 13
1.0
 23
0.0
 33
0.0
 40
0.0
 40
0.0
 40
0.0
 40
0.0
 40
0.25
 40
0.25
 40
0.25
 40
0.25
 40
0.5
 40
0.5
 40
0.5
 40
0.5
 40
1.0
 40
1.0
 40
1.0
 40
1.0
 10
-45.7162
 20
5.123
 30
0.0
 10
-45.7895
 20
2.0058
 30
0.0
 10
-47.6574
 20
-1.0718
 30
0.0
 10
-50.9519
 20
-2.7485
 30
0.0
 10
-50.9519
 20
-2.7485
 30
0.0
 10
-50.9519
 20
-2.7485
 30
0.0
 10
-50.9617
 20
2.9151
 30
0.0
 10
-50.9617
 20
2.9151
 30
0.0
 10
-50.9617
 20
2.9151
 30
0.0
 10
-49.3102
 20
4.2533
 30
0.0
 10
-47.368
 20
4.7734
 30
0.0
 10
-45.7162
 20
5.123
 30
0.0
  0
SPLINE
  5
D4
330
1F
100
AcDbEntity
  8
layer 1
 62
     7
100
AcDbSpline
210
0.0
220
0.0
230
1.0
 70
    11
 71
     3
 72
    20
 73
    16
 74
     0
 42
0.0000000001
 43
0.0000000001
 12
1.0
 22
0.0
 32
0.0
 13
1.0
 23
0.0
 33
0.0
 40
0.0
 40
0.0
 40
0.0
 40
0.0
 40
0.2
 40
0.2
 40
0.2
 40
0.2
 40
0.4
 40
0.4
 40
0.4
 40
0.4
 40
0.6
 40
0.6
 40
0.6
 40
0.6
 40
1.0
 40
1.0
 40
1.0
 40
1.0
 10
-50.9617
 20
-7.1018
 30
0.0
 10
-47.8419
 20
-6.9063
 30
0.0
 10
-42.747
 20
-1.9794
 30
0.0
 10
-42.5035
 20
1.3564
 30
0.0
 10
-42.5035
 20
1.3564
 30
0.0
 10
-42.2119
 20
-1.9313
 30
0.0
 10
-37.213
 20
-7.0502
 30
0.0
 10
-34.0454
 20
-7.1018
 30
0.0
 10
-34.0454
 20
-7.1018
 30
0.0
 10
-37.1411
 20
-7.6814
 30
0.0
 10
-42.116
 20
-11.9123
 30
0.0
 10
-42.5035
 20
-15.56
 30
0.0
 10
-42.5035
 20
-15.56
 30
0.0
 10
-42.819
 20
-11.9362
 30
0.0
 10
-47.7459
 20
-7.7293
 30
0.0
 10
-50.9617
 20
-7.1018
 30
0.0
  0
SPLINE
  5
D5
330
1F
100
AcDbEntity
  8
layer 1
 62
     7
100
AcDbSpline
210
0.0
220
0.0
230
1.0
 70
    11
 71
     3
 72
    20
 73
    16
 74
     0
 42
0.0000000001
 43
0.0000000001
 12
1.0
 22
0.0
 32
0.0
 13
1.0
 23
0.0
 33
0.0
 40
0.0
 40
0.0
 40
0.0
 40
0.0
 40
0.2
 40
0.2
 40
0.2
 40
0.2
 40
0.4
 40
0.4
 40
0.4
 40
0.4
 40
0.6
 40
0.6
 40
0.6
 40
0.6
 40
1.0
 40
1.0
 40
1.0
 40
1.0
 10
-20.224
 20
-7.1018
 30
0.0
 10
-17.1042
 20
-6.9063
 30
0.0
 10
-12.0093
 20
-1.9794
 30
0.0
 10
-11.7658
 20
1.3564
 30
0.0
 10
-11.7658
 20
1.3564
 30
0.0
 10
-11.4742
 20
-1.9313
 30
0.0
 10
-6.4753
 20
-7.0502
 30
0.0
 10
-3.3077
 20
-7.1018
 30
0.0
 10
-3.3077
 20
-7.1018
 30
0.0
 10
-6.4034
 20
-7.6814
 30
0.0
 10
-11.3783
 20
-11.9123
 30
0.0
 10
-11.7658
 20
-15.56
 30
0.0
 10
-11.7658
 20
-15.56
 30
0.0
 10
-12.0814
 20
-11.9363
 30
0.0
 10
-17.0083
 20
-7.7293
 30
0.0
 10
-20.224
 20
-7.1018
 30
0.0
  0
SPLINE
  5
D6
330
1F
100
AcDbEntity
  8
layer 1
 62
     7
100
AcDbSpline
210
0.0
220
0.0
230
1.0
 70
    11
 71
     3
 72
    20
 73
    16
 74
     0
 42
0.0000000001
 43
0.0000000001
 12
1.0
 22
0.0
 32
0.0
 13
1.0
 23
0.0
 33
0.0
 40
0.0
 40
0.0
 40
0.0
 40
0.0
 40
0.2
 40
0.2
 40
0.2
 40
0.2
 40
0.4
 40
0.4
 40
0.4
 40
0.4
 40
0.6
 40
0.6
 40
0.6
 40
0.6
 40
1.0
 40
1.0
 40
1.0
 40
1.0
 10
10.478
 20
-7.1018
 30
0.0
 10
13.5977
 20
-6.9063
 30
0.0
 10
18.6926
 20
-1.9794
 30
0.0
 10
18.9361
 20
1.3564
 30
0.0
 10
18.9361
 20
1.3564
 30
0.0
 10
19.2277
 20
-1.9313
 30
0.0
 10
24.2267
 20
-7.0502
 30
0.0
 10
27.3943
 20
-7.1018
 30
0.0
 10
27.3943
 20
-7.1018
 30
0.0
 10
24.2986
 20
-7.6814
 30
0.0
 10
19.3236
 20
-11.9123
 30
0.0
 10
18.9361
 20
-15.56
 30
0.0
 10
18.9361
 20
-15.56
 30
0.0
 10
18.6206
 20
-11.9363
 30
0.0
 10
13.6936
 20
-7.7293
 30
0.0
 10
10.478
 20
-7.1018
 30
0.0
  0
SPLINE
  5
D7
330
1F
100
AcDbEntity
  8
layer 1
 62
     7
100
AcDbSpline
210
0.0
220
0.0
230
1.0
 70
    11
 71
     3
 72
    12
 73
     8
 74
     0
 42
0.0000000001
 43
0.0000000001
 12
1.0
 22
0.0
 32
0.0
 13
1.0
 23
0.0
 33
0.0
 40
0.0
 40
0.0
 40
0.0
 40
0.0
 40
0.3333333333333333
 40
0.3333333333333333
 40
0.3333333333333333
 40
0.3333333333333333
 40
1.0
 40
1.0
 40
1.0
 40
1.0
 10
46.523
 20
5.123
 30
0.0
 10
46.4271
 20
1.0399
 30
0.0
 10
43.2519
 20
-2.9752
 30
0.0
 10
37.8249
 20
-3.8632
 30
0.0
 10
37.8249
 20
-3.8632
 30
0.0
 10
38.8956
 20
3.0865
 30
0.0
 10
43.2716
 20
4.4346
 30
0.0
 10
46.523
 20
5.123
 30
0.0
  0
SPLINE
  5
D8
330
1F
100
AcDbEntity
  8
layer 1
 62
     7
100
AcDbSpline
210
0.0
220
0.0
230
1.0
 70
    11
 71
     3
 72
    20
 73
    16
 74
     0
 42
0.0000000001
 43
0.0000000001
 12
1.0
 22
0.0
 32
0.0
 13
1.0
 23
0.0
 33
0.0
 40
0.0
 40
0.0
 40
0.0
 40
0.0
 40
0.2
 40
0.2
 40
0.2
 40
0.2
 40
0.4
 40
0.4
 40
0.4
 40
0.4
 40
0.6
 40
0.6
 40
0.6
 40
0.6
 40
1.0
 40
1.0
 40
1.0
 40
1.0
 10
41.3784
 20
-7.1018
 30
0.0
 10
44.4982
 20
-6.9063
 30
0.0
 10
49.593
 20
-1.9794
 30
0.0
 10
49.8366
 20
1.3564
 30
0.0
 10
49.8366
 20
1.3564
 30
0.0
 10
50.1281
 20
-1.9313
 30
0.0
 10
55.1271
 20
-7.0502
 30
0.0
 10
58.2947
 20
-7.1018
 30
0.0
 10
58.2947
 20
-7.1018
 30
0.0
 10
55.199
 20
-7.6814
 30
0.0
 10
50.2241
 20
-11.9123
 30
0.0
 10
49.8366
 20
-15.56
 30
0.0
 10
49.8366
 20
-15.56
 30
0.0
 10
49.521
 20
-11.9363
 30
0.0
 10
44.5941
 20
-7.7293
 30
0.0
 10
41.3784
 20
-7.1018
 30
0.0
  0
SPLINE
  5
D9
330
1F
100
AcDbEntity
  8
layer 1
 62
     7
100
AcDbSpline
210
0.0
220
0.0
230
1.0
 70
    11
 71
     3
 72
    20
 73
    16
 74
     0
 42
0.0000000001
 43
0.0000000001
 12
1.0
 22
0.0
 32
0.0
 13
1.0
 23
0.0
 33
0.0
 40
0.0
 40
0.0
 40
0.0
 40
0.0
 40
0.2
 40
0.2
 40
0.2
 40
0.2
 40
0.4
 40
0.4
 40
0.4
 40
0.4
 40
0.6
 40
0.6
 40
0.6
 40
0.6
 40
1.0
 40
1.0
 40
1.0
 40
1.0
 10
-35.476
 20
-53.3203
 30
0.0
 10
-32.3563
 20
-53.1248
 30
0.0
 10
-27.2614
 20
-48.1979
 30
0.0
 10
-27.0179
 20
-44.8622
 30
0.0
 10
-27.0179
 20
-44.8622
 30
0.0
 10
-26.7263
 20
-48.1499
 30
0.0
 10
-21.7273
 20
-53.2688
 30
0.0
 10
-18.5597
 20
-53.3203
 30
0.0
 10
-18.5597
 20
-53.3203
 30
0.0
 10
-21.6554
 20
-53.8999
 30
0.0
 10
-26.6304
 20
-58.1308
 30
0.0
 10
-27.0179
 20
-61.7785
 30
0.0
 10
-27.0179
 20
-61.7785
 30
0.0
 10
-27.3334
 20
-58.1548
 30
0.0
 10
-32.2604
 20
-53.9478
 30
0.0
 10
-35.476
 20
-53.3203
 30
0.0
  0
SPLINE
  5
DA
330
1F
100
AcDbEntity
  8
layer 1
 62
     7
100
AcDbSpline
210
0.0
220
0.0
230
1.0
 70
    11
 71
     3
 72
    12
 73
     8
 74
     0
 42
0.0000000001
 43
0.0000000001
 12
1.0
 22
0.0
 32
0.0
 13
1.0
 23
0.0
 33
0.0
 40
0.0
 40
0.0
 40
0.0
 40
0.0
 40
0.3333333333333333
 40
0.3333333333333333
 40
0.3333333333333333
 40
0.3333333333333333
 40
1.0
 40
1.0
 40
1.0
 40
1.0
 10
-39.0277
 20
-56.6448
 30
0.0
 10
-38.9317
 20
-60.728
 30
0.0
 10
-35.7566
 20
-64.743
 30
0.0
 10
-30.3296
 20
-65.631
 30
0.0
 10
-30.3296
 20
-65.631
 30
0.0
 10
-31.4003
 20
-58.6813
 30
0.0
 10
-35.7763
 20
-57.3333
 30
0.0
 10
-39.0277
 20
-56.6448
 30
0.0
  0
SPLINE
  5
DB
330
1F
100
AcDbEntity
  8
layer 1
 62
     7
100
AcDbSpline
210
0.0
220
0.0
230
1.0
 70
    11
 71
     3
 72
    12
 73
     8
 74
     0
 42
0.0000000001
 43
0.0000000001
 12
1.0
 22
0.0
 32
0.0
 13
1.0
 23
0.0
 33
0.0
 40
0.0
 40
0.0
 40
0.0
 40
0.0
 40
0.3333333333333333
 40
0.3333333333333333
 40
0.3333333333333333
 40
0.3333333333333333
 40
1.0
 40
1.0
 40
1.0
 40
1.0
 10
-15.1149
 20
-56.6448
 30
0.0
 10
-15.2108
 20
-60.728
 30
0.0
 10
-18.386
 20
-64.743
 30
0.0
 10
-23.813
 20
-65.631
 30
0.0
 10
-23.813
 20
-65.631
 30
0.0
 10
-22.7423
 20
-58.6813
 30
0.0
 10
-18.3663
 20
-57.3333
 30
0.0
 10
-15.1149
 20
-56.6448
 30
0.0
  0
SPLINE
  5
DC
330
1F
100
AcDbEntity
  8
layer 1
 62
     7
100
AcDbSpline
210
0.0
220
0.0
230
1.0
 70
    11
 71
     3
 72
    20
 73
    16
 74
     0
 42
0.0000000001
 43
0.0000000001
 12
1.0
 22
0.0
 32
0.0
 13
1.0
 23
0.0
 33
0.0
 40
0.0
 40
0.0
 40
0.0
 40
0.0
 40
0.2
 40
0.2
 40
0.2
 40
0.2
 40
0.4
 40
0.4
 40
0.4
 40
0.4
 40
0.6
 40
0.6
 40
0.6
 40
0.6
 40
1.0
 40
1.0
 40
1.0
 40
1.0
 10
-4.7384
 20
-53.3203
 30
0.0
 10
-1.6187
 20
-53.1248
 30
0.0
 10
3.4762
 20
-48.1979
 30
0.0
 10
3.7197
 20
-44.8622
 30
0.0
 10
3.7197
 20
-44.8622
 30
0.0
 10
4.0113
 20
-48.1499
 30
0.0
 10
9.0102
 20
-53.2688
 30
0.0
 10
12.1779
 20
-53.3203
 30
0.0
 10
12.1779
 20
-53.3203
 30
0.0
 10
9.0822
 20
-53.8999
 30
0.0
 10
4.1072
 20
-58.1308
 30
0.0
 10
3.7197
 20
-61.7785
 30
0.0
 10
3.7197
 20
-61.7785
 30
0.0
 10
3.4041
 20
-58.1548
 30
0.0
 10
-1.5228
 20
-53.9478
 30
0.0
 10
-4.7384
 20
-53.3203
 30
0.0
  0
SPLINE
  5
DD
330
1F
100
AcDbEntity
  8
layer 1
 62
     7
100
AcDbSpline
210
0.0
220
0.0
230
1.0
 70
    11
 71
     3
 72
    12
 73
     8
 74
     0
 42
0.0000000001
 43
0.0000000001
 12
1.0
 22
0.0
 32
0.0
 13
1.0
 23
0.0
 33
0.0
 40
0.0
 40
0.0
 40
0.0
 40
0.0
 40
0.3333333333333333
 40
0.3333333333333333
 40
0.3333333333333333
 40
0.3333333333333333
 40
1.0
 40
1.0
 40
1.0
 40
1.0
 10
-8.2902
 20
-56.6448
 30
0.0
 10
-8.1942
 20
-60.728
 30
0.0
 10
-5.019
 20
-64.743
 30
0.0
 10
0.408
 20
-65.631
 30
0.0
 10
0.408
 20
-65.631
 30
0.0
 10
-0.6627
 20
-58.6813
 30
0.0
 10
-5.0388
 20
-57.3333
 30
0.0
 10
-8.2902
 20
-56.6448
 30
0.0
  0
SPLINE
  5
DE
330
1F
100
AcDbEntity
  8
layer 1
 62
     7
100
AcDbSpline
210
0.0
220
0.0
230
1.0
 70
    11
 71
     3
 72
    12
 73
     8
 74
     0
 42
0.0000000001
 43
0.0000000001
 12
1.0
 22
0.0
 32
0.0
 13
1.0
 23
0.0
 33
0.0
 40
0.0
 40
0.0
 40
0.0
 40
0.0
 40
0.3333333333333333
 40
0.3333333333333333
 40
0.3333333333333333
 40
0.3333333333333333
 40
1.0
 40
1.0
 40
1.0
 40
1.0
 10
15.6227
 20
-56.6448
 30
0.0
 10
15.5268
 20
-60.728
 30
0.0
 10
12.3516
 20
-64.743
 30
0.0
 10
6.9245
 20
-65.631
 30
0.0
 10
6.9245
 20
-65.631
 30
0.0
 10
7.9953
 20
-58.6813
 30
0.0
 10
12.3713
 20
-57.3333
 30
0.0
 10
15.6227
 20
-56.6448
 30
0.0
  0
SPLINE
  5
DF
330
1F
100
AcDbEntity
  8
layer 1
 62
     7
100
AcDbSpline
210
0.0
220
0.0
230
1.0
 70
    11
 71
     3
 72
    20
 73
    16
 74
     0
 42
0.0000000001
 43
0.0000000001
 12
1.0
 22
0.0
 32
0.0
 13
1.0
 23
0.0
 33
0.0
 40
0.0
 40
0.0
 40
0.0
 40
0.0
 40
0.2
 40
0.2
 40
0.2
 40
0.2
 40
0.4
 40
0.4
 40
0.4
 40
0.4
 40
0.6
 40
0.6
 40
0.6
 40
0.6
 40
1.0
 40
1.0
 40
1.0
 40
1.0
 10
25.9636
 20
-53.3203
 30
0.0
 10
29.0834
 20
-53.1248
 30
0.0
 10
34.1783
 20
-48.1979
 30
0.0
 10
34.4218
 20
-44.8622
 30
0.0
 10
34.4218
 20
-44.8622
 30
0.0
 10
34.7133
 20
-48.1499
 30
0.0
 10
39.7123
 20
-53.2688
 30
0.0
 10
42.8799
 20
-53.3203
 30
0.0
 10
42.8799
 20
-53.3203
 30
0.0
 10
39.7842
 20
-53.8999
 30
0.0
 10
34.8093
 20
-58.1308
 30
0.0
 10
34.4218
 20
-61.7785
 30
0.0
 10
34.4218
 20
-61.7785
 30
0.0
 10
34.1062
 20
-58.1548
 30
0.0
 10
29.1793
 20
-53.9478
 30
0.0
 10
25.9636
 20
-53.3203
 30
0.0
  0
SPLINE
  5
E0
330
1F
100
AcDbEntity
  8
layer 1
 62
     7
100
AcDbSpline
210
0.0
220
0.0
230
1.0
 70
    11
 71
     3
 72
    12
 73
     8
 74
     0
 42
0.0000000001
 43
0.0000000001
 12
1.0
 22
0.0
 32
0.0
 13
1.0
 23
0.0
 33
0.0
 40
0.0
 40
0.0
 40
0.0
 40
0.0
 40
0.3333333333333333
 40
0.3333333333333333
 40
0.3333333333333333
 40
0.3333333333333333
 40
1.0
 40
1.0
 40
1.0
 40
1.0
 10
22.4119
 20
-56.6448
 30
0.0
 10
22.508
 20
-60.728
 30
0.0
 10
25.683
 20
-64.743
 30
0.0
 10
31.1101
 20
-65.631
 30
0.0
 10
31.1101
 20
-65.631
 30
0.0
 10
30.0394
 20
-58.6813
 30
0.0
 10
25.6633
 20
-57.3333
 30
0.0
 10
22.4119
 20
-56.6448
 30
0.0
  0
SPLINE
  5
E1
330
1F
100
AcDbEntity
  8
layer 1
 62
     7
100
AcDbSpline
210
0.0
220
0.0
230
1.0
 70
    11
 71
     3
 72
    16
 73
    12
 74
     0
 42
0.0000000001
 43
0.0000000001
 12
1.0
 22
0.0
 32
0.0
 13
1.0
 23
0.0
 33
0.0
 40
0.0
 40
0.0
 40
0.0
 40
0.0
 40
0.25
 40
0.25
 40
0.25
 40
0.25
 40
0.5
 40
0.5
 40
0.5
 40
0.5
 40
1.0
 40
1.0
 40
1.0
 40
1.0
 10
52.9422
 20
-56.6448
 30
0.0
 10
53.0156
 20
-59.7621
 30
0.0
 10
54.8834
 20
-62.8397
 30
0.0
 10
58.1779
 20
-64.5163
 30
0.0
 10
58.1779
 20
-64.5163
 30
0.0
 10
58.1779
 20
-64.5163
 30
0.0
 10
58.1877
 20
-58.8528
 30
0.0
 10
58.1877
 20
-58.8528
 30
0.0
 10
58.1877
 20
-58.8528
 30
0.0
 10
56.5362
 20
-57.5146
 30
0.0
 10
54.5941
 20
-56.9945
 30
0.0
 10
52.9422
 20
-56.6448
 30
0.0
  0
SPLINE
  5
E2
330
1F
100
AcDbEntity
  8
layer 1
 62
     7
100
AcDbSpline
210
0.0
220
0.0
230
1.0
 70
    11
 71
     3
 72
    16
 73
    12
 74
     0
 42
0.0000000001
 43
0.0000000001
 12
1.0
 22
0.0
 32
0.0
 13
1.0
 23
0.0
 33
0.0
 40
0.0
 40
0.0
 40
0.0
 40
0.0
 40
0.25
 40
0.25
 40
0.25
 40
0.25
 40
0.5
 40
0.5
 40
0.5
 40
0.5
 40
1.0
 40
1.0
 40
1.0
 40
1.0
 10
-45.7162
 20
-56.6448
 30
0.0
 10
-45.7895
 20
-59.7621
 30
0.0
 10
-47.6574
 20
-62.8397
 30
0.0
 10
-50.9519
 20
-64.5163
 30
0.0
 10
-50.9519
 20
-64.5163
 30
0.0
 10
-50.9519
 20
-64.5163
 30
0.0
 10
-50.9617
 20
-58.8528
 30
0.0
 10
-50.9617
 20
-58.8528
 30
0.0
 10
-50.9617
 20
-58.8528
 30
0.0
 10
-49.3102
 20
-57.5146
 30
0.0
 10
-47.368
 20
-56.9945
 30
0.0
 10
-45.7162
 20
-56.6448
 30
0.0
  0
SPLINE
  5
E3
330
1F
100
AcDbEntity
  8
layer 1
 62
     7
100
AcDbSpline
210
0.0
220
0.0
230
1.0
 70
    11
 71
     3
 72
    20
 73
    16
 74
     0
 42
0.0000000001
 43
0.0000000001
 12
1.0
 22
0.0
 32
0.0
 13
1.0
 23
0.0
 33
0.0
 40
0.0
 40
0.0
 40
0.0
 40
0.0
 40
0.2
 40
0.2
 40
0.2
 40
0.2
 40
0.4
 40
0.4
 40
0.4
 40
0.4
 40
0.6
 40
0.6
 40
0.6
 40
0.6
 40
1.0
 40
1.0
 40
1.0
 40
1.0
 10
-50.9617
 20
-68.8695
 30
0.0
 10
-47.8419
 20
-68.674
 30
0.0
 10
-42.747
 20
-63.7471
 30
0.0
 10
-42.5035
 20
-60.4114
 30
0.0
 10
-42.5035
 20
-60.4114
 30
0.0
 10
-42.2119
 20
-63.6991
 30
0.0
 10
-37.213
 20
-68.818
 30
0.0
 10
-34.0454
 20
-68.8695
 30
0.0
 10
-34.0454
 20
-68.8695
 30
0.0
 10
-37.1411
 20
-69.4491
 30
0.0
 10
-42.116
 20
-73.6801
 30
0.0
 10
-42.5035
 20
-77.3277
 30
0.0
 10
-42.5035
 20
-77.3277
 30
0.0
 10
-42.819
 20
-73.7041
 30
0.0
 10
-47.7459
 20
-69.497
 30
0.0
 10
-50.9617
 20
-68.8695
 30
0.0
  0
SPLINE
  5
E4
330
1F
100
AcDbEntity
  8
layer 1
 62
     7
100
AcDbSpline
210
0.0
220
0.0
230
1.0
 70
    11
 71
     3
 72
    20
 73
    16
 74
     0
 42
0.0000000001
 43
0.0000000001
 12
1.0
 22
0.0
 32
0.0
 13
1.0
 23
0.0
 33
0.0
 40
0.0
 40
0.0
 40
0.0
 40
0.0
 40
0.2
 40
0.2
 40
0.2
 40
0.2
 40
0.4
 40
0.4
 40
0.4
 40
0.4
 40
0.6
 40
0.6
 40
0.6
 40
0.6
 40
1.0
 40
1.0
 40
1.0
 40
1.0
 10
-20.224
 20
-68.8695
 30
0.0
 10
-17.1042
 20
-68.674
 30
0.0
 10
-12.0093
 20
-63.7471
 30
0.0
 10
-11.7658
 20
-60.4114
 30
0.0
 10
-11.7658
 20
-60.4114
 30
0.0
 10
-11.4742
 20
-63.6991
 30
0.0
 10
-6.4753
 20
-68.818
 30
0.0
 10
-3.3077
 20
-68.8695
 30
0.0
 10
-3.3077
 20
-68.8695
 30
0.0
 10
-6.4034
 20
-69.4491
 30
0.0
 10
-11.3783
 20
-73.6801
 30
0.0
 10
-11.7658
 20
-77.3277
 30
0.0
 10
-11.7658
 20
-77.3277
 30
0.0
 10
-12.0814
 20
-73.7041
 30
0.0
 10
-17.0083
 20
-69.497
 30
0.0
 10
-20.224
 20
-68.8695
 30
0.0
  0
SPLINE
  5
E5
330
1F
100
AcDbEntity
  8
layer 1
 62
     7
100
AcDbSpline
210
0.0
220
0.0
230
1.0
 70
    11
 71
     3
 72
    20
 73
    16
 74
     0
 42
0.0000000001
 43
0.0000000001
 12
1.0
 22
0.0
 32
0.0
 13
1.0
 23
0.0
 33
0.0
 40
0.0
 40
0.0
 40
0.0
 40
0.0
 40
0.2
 40
0.2
 40
0.2
 40
0.2
 40
0.4
 40
0.4
 40
0.4
 40
0.4
 40
0.6
 40
0.6
 40
0.6
 40
0.6
 40
1.0
 40
1.0
 40
1.0
 40
1.0
 10
10.478
 20
-68.8695
 30
0.0
 10
13.5977
 20
-68.674
 30
0.0
 10
18.6926
 20
-63.7471
 30
0.0
 10
18.9361
 20
-60.4114
 30
0.0
 10
18.9361
 20
-60.4114
 30
0.0
 10
19.2277
 20
-63.6991
 30
0.0
 10
24.2267
 20
-68.818
 30
0.0
 10
27.3943
 20
-68.8695
 30
0.0
 10
27.3943
 20
-68.8695
 30
0.0
 10
24.2986
 20
-69.4491
 30
0.0
 10
19.3236
 20
-73.6801
 30
0.0
 10
18.9361
 20
-77.3277
 30
0.0
 10
18.9361
 20
-77.3277
 30
0.0
 10
18.6206
 20
-73.7041
 30
0.0
 10
13.6936
 20
-69.497
 30
0.0
 10
10.478
 20
-68.8695
 30
0.0
  0
SPLINE
  5
E6
330
1F
100
AcDbEntity
  8
layer 1
 62
     7
100
AcDbSpline
210
0.0
220
0.0
230
1.0
 70
    11
 71
     3
 72
    12
 73
     8
 74
     0
 42
0.0000000001
 43
0.0000000001
 12
1.0
 22
0.0
 32
0.0
 13
1.0
 23
0.0
 33
0.0
 40
0.0
 40
0.0
 40
0.0
 40
0.0
 40
0.3333333333333333
 40
0.3333333333333333
 40
0.3333333333333333
 40
0.3333333333333333
 40
1.0
 40
1.0
 40
1.0
 40
1.0
 10
46.523
 20
-56.6448
 30
0.0
 10
46.4271
 20
-60.728
 30
0.0
 10
43.2519
 20
-64.743
 30
0.0
 10
37.8249
 20
-65.631
 30
0.0
 10
37.8249
 20
-65.631
 30
0.0
 10
38.8956
 20
-58.6813
 30
0.0
 10
43.2716
 20
-57.3333
 30
0.0
 10
46.523
 20
-56.6448
 30
0.0
  0
SPLINE
  5
E7
330
1F
100
AcDbEntity
  8
layer 1
 62
     7
100
AcDbSpline
210
0.0
220
0.0
230
1.0
 70
    11
 71
     3
 72
    20
 73
    16
 74
     0
 42
0.0000000001
 43
0.0000000001
 12
1.0
 22
0.0
 32
0.0
 13
1.0
 23
0.0
 33
0.0
 40
0.0
 40
0.0
 40
0.0
 40
0.0
 40
0.2
 40
0.2
 40
0.2
 40
0.2
 40
0.4
 40
0.4
 40
0.4
 40
0.4
 40
0.6
 40
0.6
 40
0.6
 40
0.6
 40
1.0
 40
1.0
 40
1.0
 40
1.0
 10
41.3784
 20
-68.8695
 30
0.0
 10
44.4982
 20
-68.674
 30
0.0
 10
49.593
 20
-63.7471
 30
0.0
 10
49.8366
 20
-60.4114
 30
0.0
 10
49.8366
 20
-60.4114
 30
0.0
 10
50.1281
 20
-63.6991
 30
0.0
 10
55.1271
 20
-68.818
 30
0.0
 10
58.2947
 20
-68.8695
 30
0.0
 10
58.2947
 20
-68.8695
 30
0.0
 10
55.199
 20
-69.4491
 30
0.0
 10
50.2241
 20
-73.6801
 30
0.0
 10
49.8366
 20
-77.3277
 30
0.0
 10
49.8366
 20
-77.3277
 30
0.0
 10
49.521
 20
-73.7041
 30
0.0
 10
44.5941
 20
-69.497
 30
0.0
 10
41.3784
 20
-68.8695
 30
0.0
  0
SPLINE
  5
E8
330
1F
100
AcDbEntity
  8
layer 1
 62
     7
100
AcDbSpline
210
0.0
220
0.0
230
1.0
 70
    11
 71
     3
 72
    20
 73
    16
 74
     0
 42
0.0000000001
 43
0.0000000001
 12
1.0
 22
0.0
 32
0.0
 13
1.0
 23
0.0
 33
0.0
 40
0.0
 40
0.0
 40
0.0
 40
0.0
 40
0.2
 40
0.2
 40
0.2
 40
0.2
 40
0.4
 40
0.4
 40
0.4
 40
0.4
 40
0.6
 40
0.6
 40
0.6
 40
0.6
 40
1.0
 40
1.0
 40
1.0
 40
1.0
 10
-35.476
 20
69.9352
 30
0.0
 10
-32.3563
 20
70.1307
 30
0.0
 10
-27.2614
 20
75.0576
 30
0.0
 10
-27.0179
 20
78.3934
 30
0.0
 10
-27.0179
 20
78.3934
 30
0.0
 10
-26.7263
 20
75.1057
 30
0.0
 10
-21.7273
 20
69.9868
 30
0.0
 10
-18.5597
 20
69.9352
 30
0.0
 10
-18.5597
 20
69.9352
 30
0.0
 10
-21.6554
 20
69.3556
 30
0.0
 10
-26.6304
 20
65.1247
 30
0.0
 10
-27.0179
 20
61.4771
 30
0.0
 10
-27.0179
 20
61.4771
 30
0.0
 10
-27.3334
 20
65.1007
 30
0.0
 10
-32.2604
 20
69.3077
 30
0.0
 10
-35.476
 20
69.9352
 30
0.0
  0
SPLINE
  5
E9
330
1F
100
AcDbEntity
  8
layer 1
 62
     7
100
AcDbSpline
210
0.0
220
0.0
230
1.0
 70
    11
 71
     3
 72
    12
 73
     8
 74
     0
 42
0.0000000001
 43
0.0000000001
 12
1.0
 22
0.0
 32
0.0
 13
1.0
 23
0.0
 33
0.0
 40
0.0
 40
0.0
 40
0.0
 40
0.0
 40
0.3333333333333333
 40
0.3333333333333333
 40
0.3333333333333333
 40
0.3333333333333333
 40
1.0
 40
1.0
 40
1.0
 40
1.0
 10
-39.0277
 20
66.6107
 30
0.0
 10
-38.9317
 20
62.5275
 30
0.0
 10
-35.7566
 20
58.5125
 30
0.0
 10
-30.3296
 20
57.6245
 30
0.0
 10
-30.3296
 20
57.6245
 30
0.0
 10
-31.4003
 20
64.5742
 30
0.0
 10
-35.7763
 20
65.9223
 30
0.0
 10
-39.0277
 20
66.6107
 30
0.0
  0
SPLINE
  5
EA
330
1F
100
AcDbEntity
  8
layer 1
 62
     7
100
AcDbSpline
210
0.0
220
0.0
230
1.0
 70
    11
 71
     3
 72
    12
 73
     8
 74
     0
 42
0.0000000001
 43
0.0000000001
 12
1.0
 22
0.0
 32
0.0
 13
1.0
 23
0.0
 33
0.0
 40
0.0
 40
0.0
 40
0.0
 40
0.0
 40
0.3333333333333333
 40
0.3333333333333333
 40
0.3333333333333333
 40
0.3333333333333333
 40
1.0
 40
1.0
 40
1.0
 40
1.0
 10
-15.1149
 20
66.6107
 30
0.0
 10
-15.2108
 20
62.5275
 30
0.0
 10
-18.386
 20
58.5125
 30
0.0
 10
-23.813
 20
57.6245
 30
0.0
 10
-23.813
 20
57.6245
 30
0.0
 10
-22.7423
 20
64.5742
 30
0.0
 10
-18.3663
 20
65.9223
 30
0.0
 10
-15.1149
 20
66.6107
 30
0.0
  0
SPLINE
  5
EB
330
1F
100
AcDbEntity
  8
layer 1
 62
     7
100
AcDbSpline
210
0.0
220
0.0
230
1.0
 70
    11
 71
     3
 72
    12
 73
     8
 74
     0
 42
0.0000000001
 43
0.0000000001
 12
1.0
 22
0.0
 32
0.0
 13
1.0
 23
0.0
 33
0.0
 40
0.0
 40
0.0
 40
0.0
 40
0.0
 40
0.3333333333333333
 40
0.3333333333333333
 40
0.3333333333333333
 40
0.3333333333333333
 40
1.0
 40
1.0
 40
1.0
 40
1.0
 10
-15.1149
 20
66.6107
 30
0.0
 10
-15.2108
 20
62.5275
 30
0.0
 10
-18.386
 20
58.5125
 30
0.0
 10
-23.813
 20
57.6245
 30
0.0
 10
-23.813
 20
57.6245
 30
0.0
 10
-22.7423
 20
64.5742
 30
0.0
 10
-18.3663
 20
65.9223
 30
0.0
 10
-15.1149
 20
66.6107
 30
0.0
  0
SPLINE
  5
EC
330
1F
100
AcDbEntity
  8
layer 1
 62
     7
100
AcDbSpline
210
0.0
220
0.0
230
1.0
 70
    11
 71
     3
 72
    20
 73
    16
 74
     0
 42
0.0000000001
 43
0.0000000001
 12
1.0
 22
0.0
 32
0.0
 13
1.0
 23
0.0
 33
0.0
 40
0.0
 40
0.0
 40
0.0
 40
0.0
 40
0.2
 40
0.2
 40
0.2
 40
0.2
 40
0.4
 40
0.4
 40
0.4
 40
0.4
 40
0.6
 40
0.6
 40
0.6
 40
0.6
 40
1.0
 40
1.0
 40
1.0
 40
1.0
 10
-4.7384
 20
69.9352
 30
0.0
 10
-1.6187
 20
70.1307
 30
0.0
 10
3.4762
 20
75.0576
 30
0.0
 10
3.7197
 20
78.3934
 30
0.0
 10
3.7197
 20
78.3934
 30
0.0
 10
4.0113
 20
75.1057
 30
0.0
 10
9.0102
 20
69.9868
 30
0.0
 10
12.1779
 20
69.9352
 30
0.0
 10
12.1779
 20
69.9352
 30
0.0
 10
9.0822
 20
69.3556
 30
0.0
 10
4.1072
 20
65.1247
 30
0.0
 10
3.7197
 20
61.4771
 30
0.0
 10
3.7197
 20
61.4771
 30
0.0
 10
3.4041
 20
65.1007
 30
0.0
 10
-1.5228
 20
69.3077
 30
0.0
 10
-4.7384
 20
69.9352
 30
0.0
  0
SPLINE
  5
ED
330
1F
100
AcDbEntity
  8
layer 1
 62
     7
100
AcDbSpline
210
0.0
220
0.0
230
1.0
 70
    11
 71
     3
 72
    12
 73
     8
 74
     0
 42
0.0000000001
 43
0.0000000001
 12
1.0
 22
0.0
 32
0.0
 13
1.0
 23
0.0
 33
0.0
 40
0.0
 40
0.0
 40
0.0
 40
0.0
 40
0.3333333333333333
 40
0.3333333333333333
 40
0.3333333333333333
 40
0.3333333333333333
 40
1.0
 40
1.0
 40
1.0
 40
1.0
 10
-8.2902
 20
66.6107
 30
0.0
 10
-8.1942
 20
62.5275
 30
0.0
 10
-5.019
 20
58.5125
 30
0.0
 10
0.408
 20
57.6245
 30
0.0
 10
0.408
 20
57.6245
 30
0.0
 10
-0.6627
 20
64.5742
 30
0.0
 10
-5.0388
 20
65.9223
 30
0.0
 10
-8.2902
 20
66.6107
 30
0.0
  0
SPLINE
  5
EE
330
1F
100
AcDbEntity
  8
layer 1
 62
     7
100
AcDbSpline
210
0.0
220
0.0
230
1.0
 70
    11
 71
     3
 72
    12
 73
     8
 74
     0
 42
0.0000000001
 43
0.0000000001
 12
1.0
 22
0.0
 32
0.0
 13
1.0
 23
0.0
 33
0.0
 40
0.0
 40
0.0
 40
0.0
 40
0.0
 40
0.3333333333333333
 40
0.3333333333333333
 40
0.3333333333333333
 40
0.3333333333333333
 40
1.0
 40
1.0
 40
1.0
 40
1.0
 10
15.6227
 20
66.6107
 30
0.0
 10
15.5268
 20
62.5275
 30
0.0
 10
12.3516
 20
58.5125
 30
0.0
 10
6.9245
 20
57.6245
 30
0.0
 10
6.9245
 20
57.6245
 30
0.0
 10
7.9953
 20
64.5742
 30
0.0
 10
12.3713
 20
65.9223
 30
0.0
 10
15.6227
 20
66.6107
 30
0.0
  0
SPLINE
  5
EF
330
1F
100
AcDbEntity
  8
layer 1
 62
     7
100
AcDbSpline
210
0.0
220
0.0
230
1.0
 70
    11
 71
     3
 72
    20
 73
    16
 74
     0
 42
0.0000000001
 43
0.0000000001
 12
1.0
 22
0.0
 32
0.0
 13
1.0
 23
0.0
 33
0.0
 40
0.0
 40
0.0
 40
0.0
 40
0.0
 40
0.2
 40
0.2
 40
0.2
 40
0.2
 40
0.4
 40
0.4
 40
0.4
 40
0.4
 40
0.6
 40
0.6
 40
0.6
 40
0.6
 40
1.0
 40
1.0
 40
1.0
 40
1.0
 10
25.9636
 20
69.9352
 30
0.0
 10
29.0834
 20
70.1307
 30
0.0
 10
34.1783
 20
75.0576
 30
0.0
 10
34.4218
 20
78.3934
 30
0.0
 10
34.4218
 20
78.3934
 30
0.0
 10
34.7133
 20
75.1057
 30
0.0
 10
39.7123
 20
69.9868
 30
0.0
 10
42.8799
 20
69.9352
 30
0.0
 10
42.8799
 20
69.9352
 30
0.0
 10
39.7842
 20
69.3556
 30
0.0
 10
34.8093
 20
65.1247
 30
0.0
 10
34.4218
 20
61.4771
 30
0.0
 10
34.4218
 20
61.4771
 30
0.0
 10
34.1062
 20
65.1007
 30
0.0
 10
29.1793
 20
69.3077
 30
0.0
 10
25.9636
 20
69.9352
 30
0.0
  0
SPLINE
  5
F0
330
1F
100
AcDbEntity
  8
layer 1
 62
     7
100
AcDbSpline
210
0.0
220
0.0
230
1.0
 70
    11
 71
     3
 72
    12
 73
     8
 74
     0
 42
0.0000000001
 43
0.0000000001
 12
1.0
 22
0.0
 32
0.0
 13
1.0
 23
0.0
 33
0.0
 40
0.0
 40
0.0
 40
0.0
 40
0.0
 40
0.3333333333333333
 40
0.3333333333333333
 40
0.3333333333333333
 40
0.3333333333333333
 40
1.0
 40
1.0
 40
1.0
 40
1.0
 10
22.4119
 20
66.6107
 30
0.0
 10
22.508
 20
62.5275
 30
0.0
 10
25.683
 20
58.5125
 30
0.0
 10
31.1101
 20
57.6245
 30
0.0
 10
31.1101
 20
57.6245
 30
0.0
 10
30.0394
 20
64.5742
 30
0.0
 10
25.6633
 20
65.9223
 30
0.0
 10
22.4119
 20
66.6107
 30
0.0
  0
SPLINE
  5
F1
330
1F
100
AcDbEntity
  8
layer 1
 62
     7
100
AcDbSpline
210
0.0
220
0.0
230
1.0
 70
    11
 71
     3
 72
    16
 73
    12
 74
     0
 42
0.0000000001
 43
0.0000000001
 12
1.0
 22
0.0
 32
0.0
 13
1.0
 23
0.0
 33
0.0
 40
0.0
 40
0.0
 40
0.0
 40
0.0
 40
0.25
 40
0.25
 40
0.25
 40
0.25
 40
0.5
 40
0.5
 40
0.5
 40
0.5
 40
1.0
 40
1.0
 40
1.0
 40
1.0
 10
52.9422
 20
66.6107
 30
0.0
 10
53.0156
 20
63.4935
 30
0.0
 10
54.8834
 20
60.4159
 30
0.0
 10
58.1779
 20
58.7392
 30
0.0
 10
58.1779
 20
58.7392
 30
0.0
 10
58.1779
 20
58.7392
 30
0.0
 10
58.1877
 20
64.4027
 30
0.0
 10
58.1877
 20
64.4027
 30
0.0
 10
58.1877
 20
64.4027
 30
0.0
 10
56.5362
 20
65.741
 30
0.0
 10
54.5941
 20
66.2611
 30
0.0
 10
52.9422
 20
66.6107
 30
0.0
  0
SPLINE
  5
F2
330
1F
100
AcDbEntity
  8
layer 1
 62
     7
100
AcDbSpline
210
0.0
220
0.0
230
1.0
 70
    11
 71
     3
 72
    16
 73
    12
 74
     0
 42
0.0000000001
 43
0.0000000001
 12
1.0
 22
0.0
 32
0.0
 13
1.0
 23
0.0
 33
0.0
 40
0.0
 40
0.0
 40
0.0
 40
0.0
 40
0.25
 40
0.25
 40
0.25
 40
0.25
 40
0.5
 40
0.5
 40
0.5
 40
0.5
 40
1.0
 40
1.0
 40
1.0
 40
1.0
 10
-45.7162
 20
66.6107
 30
0.0
 10
-45.7895
 20
63.4935
 30
0.0
 10
-47.6574
 20
60.4159
 30
0.0
 10
-50.9519
 20
58.7392
 30
0.0
 10
-50.9519
 20
58.7392
 30
0.0
 10
-50.9519
 20
58.7392
 30
0.0
 10
-50.9617
 20
64.4027
 30
0.0
 10
-50.9617
 20
64.4027
 30
0.0
 10
-50.9617
 20
64.4027
 30
0.0
 10
-49.3102
 20
65.741
 30
0.0
 10
-47.368
 20
66.2611
 30
0.0
 10
-45.7162
 20
66.6107
 30
0.0
  0
SPLINE
  5
F3
330
1F
100
AcDbEntity
  8
layer 1
 62
     7
100
AcDbSpline
210
0.0
220
0.0
230
1.0
 70
    11
 71
     3
 72
    20
 73
    16
 74
     0
 42
0.0000000001
 43
0.0000000001
 12
1.0
 22
0.0
 32
0.0
 13
1.0
 23
0.0
 33
0.0
 40
0.0
 40
0.0
 40
0.0
 40
0.0
 40
0.2
 40
0.2
 40
0.2
 40
0.2
 40
0.4
 40
0.4
 40
0.4
 40
0.4
 40
0.6
 40
0.6
 40
0.6
 40
0.6
 40
1.0
 40
1.0
 40
1.0
 40
1.0
 10
-50.9617
 20
54.386
 30
0.0
 10
-47.8419
 20
54.5815
 30
0.0
 10
-42.747
 20
59.5084
 30
0.0
 10
-42.5035
 20
62.8442
 30
0.0
 10
-42.5035
 20
62.8442
 30
0.0
 10
-42.2119
 20
59.5565
 30
0.0
 10
-37.213
 20
54.4376
 30
0.0
 10
-34.0454
 20
54.386
 30
0.0
 10
-34.0454
 20
54.386
 30
0.0
 10
-37.1411
 20
53.8064
 30
0.0
 10
-42.116
 20
49.5755
 30
0.0
 10
-42.5035
 20
45.9278
 30
0.0
 10
-42.5035
 20
45.9278
 30
0.0
 10
-42.819
 20
49.5515
 30
0.0
 10
-47.7459
 20
53.7585
 30
0.0
 10
-50.9617
 20
54.386
 30
0.0
  0
SPLINE
  5
F4
330
1F
100
AcDbEntity
  8
layer 1
 62
     7
100
AcDbSpline
210
0.0
220
0.0
230
1.0
 70
    11
 71
     3
 72
    20
 73
    16
 74
     0
 42
0.0000000001
 43
0.0000000001
 12
1.0
 22
0.0
 32
0.0
 13
1.0
 23
0.0
 33
0.0
 40
0.0
 40
0.0
 40
0.0
 40
0.0
 40
0.2
 40
0.2
 40
0.2
 40
0.2
 40
0.4
 40
0.4
 40
0.4
 40
0.4
 40
0.6
 40
0.6
 40
0.6
 40
0.6
 40
1.0
 40
1.0
 40
1.0
 40
1.0
 10
-20.224
 20
54.386
 30
0.0
 10
-17.1042
 20
54.5815
 30
0.0
 10
-12.0093
 20
59.5084
 30
0.0
 10
-11.7658
 20
62.8442
 30
0.0
 10
-11.7658
 20
62.8442
 30
0.0
 10
-11.4742
 20
59.5565
 30
0.0
 10
-6.4753
 20
54.4376
 30
0.0
 10
-3.3077
 20
54.386
 30
0.0
 10
-3.3077
 20
54.386
 30
0.0
 10
-6.4034
 20
53.8064
 30
0.0
 10
-11.3783
 20
49.5755
 30
0.0
 10
-11.7658
 20
45.9278
 30
0.0
 10
-11.7658
 20
45.9278
 30
0.0
 10
-12.0814
 20
49.5515
 30
0.0
 10
-17.0083
 20
53.7585
 30
0.0
 10
-20.224
 20
54.386
 30
0.0
  0
SPLINE
  5
F5
330
1F
100
AcDbEntity
  8
layer 1
 62
     7
100
AcDbSpline
210
0.0
220
0.0
230
1.0
 70
    11
 71
     3
 72
    20
 73
    16
 74
     0
 42
0.0000000001
 43
0.0000000001
 12
1.0
 22
0.0
 32
0.0
 13
1.0
 23
0.0
 33
0.0
 40
0.0
 40
0.0
 40
0.0
 40
0.0
 40
0.2
 40
0.2
 40
0.2
 40
0.2
 40
0.4
 40
0.4
 40
0.4
 40
0.4
 40
0.6
 40
0.6
 40
0.6
 40
0.6
 40
1.0
 40
1.0
 40
1.0
 40
1.0
 10
10.478
 20
54.386
 30
0.0
 10
13.5977
 20
54.5815
 30
0.0
 10
18.6926
 20
59.5084
 30
0.0
 10
18.9361
 20
62.8442
 30
0.0
 10
18.9361
 20
62.8442
 30
0.0
 10
19.2277
 20
59.5565
 30
0.0
 10
24.2267
 20
54.4376
 30
0.0
 10
27.3943
 20
54.386
 30
0.0
 10
27.3943
 20
54.386
 30
0.0
 10
24.2986
 20
53.8064
 30
0.0
 10
19.3236
 20
49.5755
 30
0.0
 10
18.9361
 20
45.9278
 30
0.0
 10
18.9361
 20
45.9278
 30
0.0
 10
18.6206
 20
49.5515
 30
0.0
 10
13.6936
 20
53.7585
 30
0.0
 10
10.478
 20
54.386
 30
0.0
  0
SPLINE
  5
F6
330
1F
100
AcDbEntity
  8
layer 1
 62
     7
100
AcDbSpline
210
0.0
220
0.0
230
1.0
 70
    11
 71
     3
 72
    20
 73
    16
 74
     0
 42
0.0000000001
 43
0.0000000001
 12
1.0
 22
0.0
 32
0.0
 13
1.0
 23
0.0
 33
0.0
 40
0.0
 40
0.0
 40
0.0
 40
0.0
 40
0.2
 40
0.2
 40
0.2
 40
0.2
 40
0.4
 40
0.4
 40
0.4
 40
0.4
 40
0.6
 40
0.6
 40
0.6
 40
0.6
 40
1.0
 40
1.0
 40
1.0
 40
1.0
 10
10.478
 20
54.386
 30
0.0
 10
13.5977
 20
54.5815
 30
0.0
 10
18.6926
 20
59.5084
 30
0.0
 10
18.9361
 20
62.8442
 30
0.0
 10
18.9361
 20
62.8442
 30
0.0
 10
19.2277
 20
59.5565
 30
0.0
 10
24.2267
 20
54.4376
 30
0.0
 10
27.3943
 20
54.386
 30
0.0
 10
27.3943
 20
54.386
 30
0.0
 10
24.2986
 20
53.8064
 30
0.0
 10
19.3236
 20
49.5755
 30
0.0
 10
18.9361
 20
45.9278
 30
0.0
 10
18.9361
 20
45.9278
 30
0.0
 10
18.6206
 20
49.5515
 30
0.0
 10
13.6936
 20
53.7585
 30
0.0
 10
10.478
 20
54.386
 30
0.0
  0
SPLINE
  5
F7
330
1F
100
AcDbEntity
  8
layer 1
 62
     7
100
AcDbSpline
210
0.0
220
0.0
230
1.0
 70
    11
 71
     3
 72
    12
 73
     8
 74
     0
 42
0.0000000001
 43
0.0000000001
 12
1.0
 22
0.0
 32
0.0
 13
1.0
 23
0.0
 33
0.0
 40
0.0
 40
0.0
 40
0.0
 40
0.0
 40
0.3333333333333333
 40
0.3333333333333333
 40
0.3333333333333333
 40
0.3333333333333333
 40
1.0
 40
1.0
 40
1.0
 40
1.0
 10
46.523
 20
66.6107
 30
0.0
 10
46.4271
 20
62.5275
 30
0.0
 10
43.2519
 20
58.5125
 30
0.0
 10
37.8249
 20
57.6245
 30
0.0
 10
37.8249
 20
57.6245
 30
0.0
 10
38.8956
 20
64.5742
 30
0.0
 10
43.2716
 20
65.9223
 30
0.0
 10
46.523
 20
66.6107
 30
0.0
  0
SPLINE
  5
F8
330
1F
100
AcDbEntity
  8
layer 1
 62
     7
100
AcDbSpline
210
0.0
220
0.0
230
1.0
 70
    11
 71
     3
 72
    20
 73
    16
 74
     0
 42
0.0000000001
 43
0.0000000001
 12
1.0
 22
0.0
 32
0.0
 13
1.0
 23
0.0
 33
0.0
 40
0.0
 40
0.0
 40
0.0
 40
0.0
 40
0.2
 40
0.2
 40
0.2
 40
0.2
 40
0.4
 40
0.4
 40
0.4
 40
0.4
 40
0.6
 40
0.6
 40
0.6
 40
0.6
 40
1.0
 40
1.0
 40
1.0
 40
1.0
 10
41.3784
 20
54.386
 30
0.0
 10
44.4982
 20
54.5815
 30
0.0
 10
49.593
 20
59.5084
 30
0.0
 10
49.8366
 20
62.8442
 30
0.0
 10
49.8366
 20
62.8442
 30
0.0
 10
50.1281
 20
59.5565
 30
0.0
 10
55.1271
 20
54.4376
 30
0.0
 10
58.2947
 20
54.386
 30
0.0
 10
58.2947
 20
54.386
 30
0.0
 10
55.199
 20
53.8064
 30
0.0
 10
50.2241
 20
49.5755
 30
0.0
 10
49.8366
 20
45.9278
 30
0.0
 10
49.8366
 20
45.9278
 30
0.0
 10
49.521
 20
49.5515
 30
0.0
 10
44.5941
 20
53.7585
 30
0.0
 10
41.3784
 20
54.386
 30
0.0
  0
SPLINE
  5
F9
330
1F
100
AcDbEntity
  8
layer 1
 62
     7
100
AcDbSpline
210
0.0
220
0.0
230
1.0
 70
    11
 71
     3
 72
    20
 73
    16
 74
     0
 42
0.0000000001
 43
0.0000000001
 12
1.0
 22
0.0
 32
0.0
 13
1.0
 23
0.0
 33
0.0
 40
0.0
 40
0.0
 40
0.0
 40
0.0
 40
0.2
 40
0.2
 40
0.2
 40
0.2
 40
0.4
 40
0.4
 40
0.4
 40
0.4
 40
0.6
 40
0.6
 40
0.6
 40
0.6
 40
1.0
 40
1.0
 40
1.0
 40
1.0
 10
-20.224
 20
116.434
 30
0.0
 10
-17.1042
 20
116.6295
 30
0.0
 10
-12.0093
 20
121.5564
 30
0.0
 10
-11.7658
 20
124.8921
 30
0.0
 10
-11.7658
 20
124.8921
 30
0.0
 10
-11.4742
 20
121.6044
 30
0.0
 10
-6.4753
 20
116.4855
 30
0.0
 10
-3.3077
 20
116.434
 30
0.0
 10
-3.3077
 20
116.434
 30
0.0
 10
-6.4034
 20
115.8544
 30
0.0
 10
-11.3783
 20
111.6234
 30
0.0
 10
-11.7658
 20
107.9758
 30
0.0
 10
-11.7658
 20
107.9758
 30
0.0
 10
-12.0814
 20
111.5994
 30
0.0
 10
-17.0083
 20
115.8065
 30
0.0
 10
-20.224
 20
116.434
 30
0.0
  0
SPLINE
  5
FA
330
1F
100
AcDbEntity
  8
layer 1
 62
     7
100
AcDbSpline
210
0.0
220
0.0
230
1.0
 70
    11
 71
     3
 72
    20
 73
    16
 74
     0
 42
0.0000000001
 43
0.0000000001
 12
1.0
 22
0.0
 32
0.0
 13
1.0
 23
0.0
 33
0.0
 40
0.0
 40
0.0
 40
0.0
 40
0.0
 40
0.2
 40
0.2
 40
0.2
 40
0.2
 40
0.4
 40
0.4
 40
0.4
 40
0.4
 40
0.6
 40
0.6
 40
0.6
 40
0.6
 40
1.0
 40
1.0
 40
1.0
 40
1.0
 10
-50.9617
 20
116.434
 30
0.0
 10
-47.8419
 20
116.6295
 30
0.0
 10
-42.747
 20
121.5564
 30
0.0
 10
-42.5035
 20
124.8921
 30
0.0
 10
-42.5035
 20
124.8921
 30
0.0
 10
-42.2119
 20
121.6044
 30
0.0
 10
-37.213
 20
116.4855
 30
0.0
 10
-34.0454
 20
116.434
 30
0.0
 10
-34.0454
 20
116.434
 30
0.0
 10
-37.1411
 20
115.8544
 30
0.0
 10
-42.116
 20
111.6234
 30
0.0
 10
-42.5035
 20
107.9758
 30
0.0
 10
-42.5035
 20
107.9758
 30
0.0
 10
-42.819
 20
111.5994
 30
0.0
 10
-47.7459
 20
115.8065
 30
0.0
 10
-50.9617
 20
116.434
 30
0.0
  0
SPLINE
  5
FB
330
1F
100
AcDbEntity
  8
layer 1
 62
     7
100
AcDbSpline
210
0.0
220
0.0
230
1.0
 70
    11
 71
     3
 72
    20
 73
    16
 74
     0
 42
0.0000000001
 43
0.0000000001
 12
1.0
 22
0.0
 32
0.0
 13
1.0
 23
0.0
 33
0.0
 40
0.0
 40
0.0
 40
0.0
 40
0.0
 40
0.2
 40
0.2
 40
0.2
 40
0.2
 40
0.4
 40
0.4
 40
0.4
 40
0.4
 40
0.6
 40
0.6
 40
0.6
 40
0.6
 40
1.0
 40
1.0
 40
1.0
 40
1.0
 10
10.478
 20
116.434
 30
0.0
 10
13.5977
 20
116.6295
 30
0.0
 10
18.6926
 20
121.5564
 30
0.0
 10
18.9361
 20
124.8921
 30
0.0
 10
18.9361
 20
124.8921
 30
0.0
 10
19.2277
 20
121.6044
 30
0.0
 10
24.2267
 20
116.4855
 30
0.0
 10
27.3943
 20
116.434
 30
0.0
 10
27.3943
 20
116.434
 30
0.0
 10
24.2986
 20
115.8544
 30
0.0
 10
19.3236
 20
111.6234
 30
0.0
 10
18.9361
 20
107.9758
 30
0.0
 10
18.9361
 20
107.9758
 30
0.0
 10
18.6206
 20
111.5994
 30
0.0
 10
13.6936
 20
115.8065
 30
0.0
 10
10.478
 20
116.434
 30
0.0
  0
SPLINE
  5
FC
330
1F
100
AcDbEntity
  8
layer 1
 62
     7
100
AcDbSpline
210
0.0
220
0.0
230
1.0
 70
    11
 71
     3
 72
    20
 73
    16
 74
     0
 42
0.0000000001
 43
0.0000000001
 12
1.0
 22
0.0
 32
0.0
 13
1.0
 23
0.0
 33
0.0
 40
0.0
 40
0.0
 40
0.0
 40
0.0
 40
0.2
 40
0.2
 40
0.2
 40
0.2
 40
0.4
 40
0.4
 40
0.4
 40
0.4
 40
0.6
 40
0.6
 40
0.6
 40
0.6
 40
1.0
 40
1.0
 40
1.0
 40
1.0
 10
41.3784
 20
116.434
 30
0.0
 10
44.4982
 20
116.6295
 30
0.0
 10
49.593
 20
121.5564
 30
0.0
 10
49.8366
 20
124.8921
 30
0.0
 10
49.8366
 20
124.8921
 30
0.0
 10
50.1281
 20
121.6044
 30
0.0
 10
55.1271
 20
116.4855
 30
0.0
 10
58.2947
 20
116.434
 30
0.0
 10
58.2947
 20
116.434
 30
0.0
 10
55.199
 20
115.8544
 30
0.0
 10
50.2241
 20
111.6234
 30
0.0
 10
49.8366
 20
107.9758
 30
0.0
 10
49.8366
 20
107.9758
 30
0.0
 10
49.521
 20
111.5994
 30
0.0
 10
44.5941
 20
115.8065
 30
0.0
 10
41.3784
 20
116.434
 30
0.0
  0
ENDSEC
  0
SECTION
  2
OBJECTS
  0
DICTIONARY
  5
C
330
0
100
AcDbDictionary
281
     1
  3
ACAD_GROUP
350
D
  3
ACAD_LAYOUT
350
1A
  3
ACAD_MATERIAL
350
3B
  3
ACAD_MLEADERSTYLE
350
11F
  3
ACAD_MLINESTYLE
350
17
  3
ACAD_PLOTSETTINGS
350
19
  3
ACAD_PLOTSTYLENAME
350
E
  3
ACAD_TABLESTYLE
350
11E
  3
ACAD_VISUALSTYLE
350
2A
  0
DICTIONARY
  5
D
102
{ACAD_REACTORS
330
C
102
}
330
C
100
AcDbDictionary
281
     1
  0
DICTIONARY
  5
1A
102
{ACAD_REACTORS
330
C
102
}
330
C
100
AcDbDictionary
281
     1
  3
Layout1
350
1E
  3
Layout2
350
26
  3
Model
350
22
  0
DICTIONARY
  5
3B
102
{ACAD_REACTORS
330
C
102
}
330
C
100
AcDbDictionary
281
     1
  3
ByBlock
350
3D
  3
ByLayer
350
3C
  3
Global
350
3E
  0
DICTIONARY
  5
11F
102
{ACAD_REACTORS
330
C
102
}
330
C
100
AcDbDictionary
281
     1
  0
DICTIONARY
  5
17
102
{ACAD_REACTORS
330
C
102
}
330
C
100
AcDbDictionary
281
     1
  3
Standard
350
18
  0
DICTIONARY
  5
19
102
{ACAD_REACTORS
330
C
102
}
330
C
100
AcDbDictionary
281
     1
  0
ACDBDICTIONARYWDFLT
  5
E
102
{ACAD_REACTORS
330
C
102
}
330
C
100
AcDbDictionary
281
     1
  3
Normal
350
F
100
AcDbDictionaryWithDefault
340
F
  0
DICTIONARY
  5
11E
102
{ACAD_REACTORS
330
C
102
}
330
C
100
AcDbDictionary
281
     1
  0
DICTIONARY
  5
2A
102
{ACAD_REACTORS
330
C
102
}
330
C
100
AcDbDictionary
281
     1
  3
2dWireframe
350
2F
  3
3D Hidden
350
31
  3
3dWireframe
350
30
  3
Basic
350
32
  3
Brighten
350
36
  3
ColorChange
350
3A
  3
Conceptual
350
34
  3
Dim
350
35
  3
Facepattern
350
39
  3
Flat
350
2B
  3
FlatWithEdges
350
2C
  3
Gouraud
350
2D
  3
GouraudWithEdges
350
2E
  3
Linepattern
350
38
  3
Realistic
350
33
  3
Thicken
350
37
  0
LAYOUT
  5
1E
102
{ACAD_REACTORS
330
1A
102
}
330
1A
100
AcDbPlotSettings
  1

  2
none_device
  4

  6

 40
0.0
 41
0.0
 42
0.0
 43
0.0
 44
0.0
 45
0.0
 46
0.0
 47
0.0
 48
0.0
 49
0.0
140
0.0
141
0.0
142
1.0
143
1.0
 70
   688
 72
     0
 73
     0
 74
     5
  7

 75
    16
 76
     0
 77
     2
 78
   300
147
1.0
148
0.0
149
0.0
100
AcDbLayout
  1
Layout1
 70
     1
 71
     1
 10
0.0
 20
0.0
 11
12.0
 21
9.0
 12
0.0
 22
0.0
 32
0.0
 14
1.000000000000000E+20
 24
1.000000000000000E+20
 34
1.000000000000000E+20
 15
-1.000000000000000E+20
 25
-1.000000000000000E+20
 35
-1.000000000000000E+20
146
0.0
 13
0.0
 23
0.0
 33
0.0
 16
1.0
 26
0.0
 36
0.0
 17
0.0
 27
1.0
 37
0.0
 76
     0
330
1B
  0
LAYOUT
  5
26
102
{ACAD_REACTORS
330
1A
102
}
330
1A
100
AcDbPlotSettings
  1

  2
none_device
  4

  6

 40
0.0
 41
0.0
 42
0.0
 43
0.0
 44
0.0
 45
0.0
 46
0.0
 47
0.0
 48
0.0
 49
0.0
140
0.0
141
0.0
142
1.0
143
1.0
 70
   688
 72
     0
 73
     0
 74
     5
  7

 75
    16
 76
     0
 77
     2
 78
   300
147
1.0
148
0.0
149
0.0
100
AcDbLayout
  1
Layout2
 70
     1
 71
     2
 10
0.0
 20
0.0
 11
0.0
 21
0.0
 12
0.0
 22
0.0
 32
0.0
 14
0.0
 24
0.0
 34
0.0
 15
0.0
 25
0.0
 35
0.0
146
0.0
 13
0.0
 23
0.0
 33
0.0
 16
1.0
 26
0.0
 36
0.0
 17
0.0
 27
1.0
 37
0.0
 76
     0
330
23
  0
LAYOUT
  5
22
102
{ACAD_REACTORS
330
1A
102
}
330
1A
100
AcDbPlotSettings
  1

  2
none_device
  4

  6

 40
0.0
 41
0.0
 42
0.0
 43
0.0
 44
0.0
 45
0.0
 46
0.0
 47
0.0
 48
0.0
 49
0.0
140
0.0
141
0.0
142
1.0
143
1.0
 70
  1712
 72
     0
 73
     0
 74
     0
  7

 75
     0
 76
     0
 77
     2
 78
   300
147
1.0
148
0.0
149
0.0
100
AcDbLayout
  1
Model
 70
     1
 71
     0
 10
0.0
 20
0.0
 11
12.0
 21
9.0
 12
0.0
 22
0.0
 32
0.0
 14
-58.8833
 24
-115.1348
 34
0.0
 15
66.2066
 25
131.7386
 35
0.0
146
0.0
 13
0.0
 23
0.0
 33
0.0
 16
1.0
 26
0.0
 36
0.0
 17
0.0
 27
1.0
 37
0.0
 76
     0
330
1F
331
29
  0
MATERIAL
  5
3D
102
{ACAD_REACTORS
330
3B
102
}
330
3B
100
AcDbMaterial
  1
ByBlock
 72
     1
 94
      127
  0
MATERIAL
  5
3C
102
{ACAD_REACTORS
330
3B
102
}
330
3B
100
AcDbMaterial
  1
ByLayer
 72
     1
 94
      127
  0
MATERIAL
  5
3E
102
{ACAD_REACTORS
330
3B
102
}
330
3B
100
AcDbMaterial
  1
Global
 72
     1
 94
      127
  0
MLINESTYLE
  5
18
102
{ACAD_REACTORS
330
17
102
}
330
17
100
AcDbMlineStyle
  2
Standard
 70
     0
  3

 62
   256
 51
90.0
 52
90.0
 71
     2
 49
0.5
 62
   256
  6
BYLAYER
 49
-0.5
 62
   256
  6
BYLAYER
  0
ACDBPLACEHOLDER
  5
F
102
{ACAD_REACTORS
330
E
102
}
330
E
  0
VISUALSTYLE
  5
2F
102
{ACAD_REACTORS
330
2A
102
}
102
{ACAD_XDICTIONARY
360
106
102
}
330
2A
100
AcDbVisualStyle
  2
2dWireframe
 70
     4
 71
     0
 72
     2
 73
     0
 90
        0
 40
-0.6
 41
-30.0
 62
     5
 63
     7
421
 16777215
 74
     1
 91
        4
 64
     7
 65
   257
 75
     1
175
     1
 42
1.0
 92
        0
 66
   257
 43
1.0
 76
     1
 77
     6
 78
     2
 67
     7
 79
     5
170
     0
171
     0
290
     0
174
     0
 93
        1
 44
0.0
173
     0
291
     0
 45
0.0
  0
VISUALSTYLE
  5
31
102
{ACAD_REACTORS
330
2A
102
}
102
{ACAD_XDICTIONARY
360
10A
102
}
330
2A
100
AcDbVisualStyle
  2
3D Hidden
 70
     6
 71
     1
 72
     2
 73
     2
 90
        0
 40
-0.6
 41
-30.0
 62
     5
 63
     7
421
 16777215
 74
     2
 91
        2
 64
     7
 65
   257
 75
     2
175
     1
 42
40.0
 92
        0
 66
   257
 43
1.0
 76
     1
 77
     6
 78
     2
 67
     7
 79
     3
170
     0
171
     0
290
     0
174
     0
 93
        1
 44
0.0
173
     0
291
     0
 45
0.0
  0
VISUALSTYLE
  5
30
102
{ACAD_REACTORS
330
2A
102
}
102
{ACAD_XDICTIONARY
360
108
102
}
330
2A
100
AcDbVisualStyle
  2
3dWireframe
 70
     5
 71
     0
 72
     2
 73
     0
 90
        0
 40
-0.6
 41
-30.0
 62
     5
 63
     7
421
 16777215
 74
     1
 91
        4
 64
     7
 65
   257
 75
     1
175
     1
 42
1.0
 92
        0
 66
   257
 43
1.0
 76
     1
 77
     6
 78
     2
 67
     7
 79
     5
170
     0
171
     0
290
     0
174
     0
 93
        1
 44
0.0
173
     0
291
     0
 45
0.0
  0
VISUALSTYLE
  5
32
102
{ACAD_REACTORS
330
2A
102
}
102
{ACAD_XDICTIONARY
360
10C
102
}
330
2A
100
AcDbVisualStyle
  2
Basic
 70
     7
 71
     1
 72
     0
 73
     1
 90
        0
 40
-0.6
 41
-30.0
 62
     5
 63
     7
421
 16777215
 74
     0
 91
        4
 64
     7
 65
   257
 75
     1
175
     1
 42
1.0
 92
        8
 66
     7
 43
1.0
 76
     1
 77
     6
 78
     2
 67
     7
 79
     5
170
     0
171
     0
290
     0
174
     0
 93
        1
 44
0.0
173
     0
291
     1
 45
0.0
  0
VISUALSTYLE
  5
36
102
{ACAD_REACTORS
330
2A
102
}
102
{ACAD_XDICTIONARY
360
114
102
}
330
2A
100
AcDbVisualStyle
  2
Brighten
 70
    12
 71
     2
 72
     2
 73
     0
 90
        0
 40
-0.6
 41
-30.0
 62
     5
 63
     7
421
 16777215
 74
     1
 91
        4
 64
     7
 65
   257
 75
     1
175
     1
 42
1.0
 92
        8
 66
     7
 43
1.0
 76
     1
 77
     6
 78
     2
 67
     7
 79
     5
170
     0
171
     0
290
     0
174
     0
 93
        1
 44
50.0
173
     0
291
     1
 45
0.0
  0
VISUALSTYLE
  5
3A
102
{ACAD_REACTORS
330
2A
102
}
102
{ACAD_XDICTIONARY
360
11C
102
}
330
2A
100
AcDbVisualStyle
  2
ColorChange
 70
    16
 71
     2
 72
     2
 73
     3
 90
        0
 40
-0.6
 41
-30.0
 62
     5
 63
     8
421
  8421504
 74
     1
 91
        4
 64
     7
 65
   257
 75
     1
175
     1
 42
1.0
 92
        8
 66
     8
424
  8421504
 43
1.0
 76
     1
 77
     6
 78
     2
 67
     7
 79
     5
170
     0
171
     0
290
     0
174
     0
 93
        1
 44
0.0
173
     0
291
     1
 45
0.0
  0
VISUALSTYLE
  5
34
102
{ACAD_REACTORS
330
2A
102
}
102
{ACAD_XDICTIONARY
360
110
102
}
330
2A
100
AcDbVisualStyle
  2
Conceptual
 70
     9
 71
     3
 72
     2
 73
     0
 90
        0
 40
-0.6
 41
-30.0
 62
     5
 63
     7
421
 16777215
 74
     2
 91
        2
 64
     7
 65
   257
 75
     1
175
     1
 42
40.0
 92
        8
 66
     7
 43
1.0
 76
     1
 77
     6
 78
     2
 67
     7
 79
     3
170
     0
171
     0
290
     0
174
     0
 93
        1
 44
0.0
173
     0
291
     0
 45
0.0
  0
VISUALSTYLE
  5
35
102
{ACAD_REACTORS
330
2A
102
}
102
{ACAD_XDICTIONARY
360
112
102
}
330
2A
100
AcDbVisualStyle
  2
Dim
 70
    11
 71
     2
 72
     2
 73
     0
 90
        0
 40
-0.6
 41
-30.0
 62
     5
 63
     7
421
 16777215
 74
     1
 91
        4
 64
     7
 65
   257
 75
     1
175
     1
 42
1.0
 92
        8
 66
     7
 43
1.0
 76
     1
 77
     6
 78
     2
 67
     7
 79
     5
170
     0
171
     0
290
     0
174
     0
 93
        1
 44
-50.0
173
     0
291
     1
 45
0.0
  0
VISUALSTYLE
  5
39
102
{ACAD_REACTORS
330
2A
102
}
102
{ACAD_XDICTIONARY
360
11A
102
}
330
2A
100
AcDbVisualStyle
  2
Facepattern
 70
    15
 71
     2
 72
     2
 73
     0
 90
        0
 40
-0.6
 41
-30.0
 62
     5
 63
     7
421
 16777215
 74
     1
 91
        4
 64
     7
 65
   257
 75
     1
175
     1
 42
1.0
 92
        8
 66
     7
 43
1.0
 76
     1
 77
     6
 78
     2
 67
     7
 79
     5
170
     0
171
     0
290
     0
174
     0
 93
        1
 44
0.0
173
     0
291
     1
 45
0.0
  0
VISUALSTYLE
  5
2B
102
{ACAD_REACTORS
330
2A
102
}
102
{ACAD_XDICTIONARY
360
FE
102
}
330
2A
100
AcDbVisualStyle
  2
Flat
 70
     0
 71
     2
 72
     1
 73
     1
 90
        2
 40
-0.6
 41
30.0
 62
     5
 63
     7
421
 16777215
 74
     0
 91
        4
 64
     7
 65
   257
 75
     1
175
     1
 42
1.0
 92
        8
 66
     7
 43
1.0
 76
     1
 77
     6
 78
     2
 67
     7
 79
     5
170
     0
171
     0
290
     0
174
     0
 93
       13
 44
0.0
173
     0
291
     1
 45
0.0
  0
VISUALSTYLE
  5
2C
102
{ACAD_REACTORS
330
2A
102
}
102
{ACAD_XDICTIONARY
360
100
102
}
330
2A
100
AcDbVisualStyle
  2
FlatWithEdges
 70
     1
 71
     2
 72
     1
 73
     1
 90
        2
 40
-0.6
 41
30.0
 62
     5
 63
     7
421
 16777215
 74
     1
 91
        4
 64
     7
 65
   257
 75
     1
175
     1
 42
1.0
 92
        0
 66
   257
 43
1.0
 76
     1
 77
     6
 78
     2
 67
     7
 79
     5
170
     0
171
     0
290
     0
174
     0
 93
       13
 44
0.0
173
     0
291
     1
 45
0.0
  0
VISUALSTYLE
  5
2D
102
{ACAD_REACTORS
330
2A
102
}
102
{ACAD_XDICTIONARY
360
102
102
}
330
2A
100
AcDbVisualStyle
  2
Gouraud
 70
     2
 71
     2
 72
     2
 73
     1
 90
        2
 40
-0.6
 41
30.0
 62
     5
 63
     7
421
 16777215
 74
     0
 91
        4
 64
     7
 65
   257
 75
     1
175
     1
 42
1.0
 92
        0
 66
     7
 43
1.0
 76
     1
 77
     6
 78
     2
 67
     7
 79
     5
170
     0
171
     0
290
     0
174
     0
 93
       13
 44
0.0
173
     0
291
     1
 45
0.0
  0
VISUALSTYLE
  5
2E
102
{ACAD_REACTORS
330
2A
102
}
102
{ACAD_XDICTIONARY
360
104
102
}
330
2A
100
AcDbVisualStyle
  2
GouraudWithEdges
 70
     3
 71
     2
 72
     2
 73
     1
 90
        2
 40
-0.6
 41
30.0
 62
     5
 63
     7
421
 16777215
 74
     1
 91
        4
 64
     7
 65
   257
 75
     1
175
     1
 42
1.0
 92
        0
 66
   257
 43
1.0
 76
     1
 77
     6
 78
     2
 67
     7
 79
     5
170
     0
171
     0
290
     0
174
     0
 93
       13
 44
0.0
173
     0
291
     1
 45
0.0
  0
VISUALSTYLE
  5
38
102
{ACAD_REACTORS
330
2A
102
}
102
{ACAD_XDICTIONARY
360
118
102
}
330
2A
100
AcDbVisualStyle
  2
Linepattern
 70
    14
 71
     2
 72
     2
 73
     0
 90
        0
 40
-0.6
 41
-30.0
 62
     5
 63
     7
421
 16777215
 74
     1
 91
        4
 64
     7
 65
   257
 75
     7
175
     7
 42
1.0
 92
        8
 66
     7
 43
1.0
 76
     1
 77
     6
 78
     2
 67
     7
 79
     5
170
     0
171
     0
290
     0
174
     0
 93
        1
 44
0.0
173
     0
291
     1
 45
0.0
  0
VISUALSTYLE
  5
33
102
{ACAD_REACTORS
330
2A
102
}
102
{ACAD_XDICTIONARY
360
10E
102
}
330
2A
100
AcDbVisualStyle
  2
Realistic
 70
     8
 71
     2
 72
     2
 73
     0
 90
        0
 40
-0.6
 41
-30.0
 62
     5
 63
     7
421
 16777215
 74
     1
 91
        0
 64
     7
 65
   257
 75
     1
175
     1
 42
1.0
 92
        8
 66
     8
424
  7895160
 43
1.0
 76
     1
 77
     6
 78
     2
 67
     7
 79
     5
170
     0
171
     0
290
     0
174
     0
 93
       13
 44
0.0
173
     0
291
     0
 45
0.0
  0
VISUALSTYLE
  5
37
102
{ACAD_REACTORS
330
2A
102
}
102
{ACAD_XDICTIONARY
360
116
102
}
330
2A
100
AcDbVisualStyle
  2
Thicken
 70
    13
 71
     2
 72
     2
 73
     0
 90
        0
 40
-0.6
 41
-30.0
 62
     5
 63
     7
421
 16777215
 74
     1
 91
        4
 64
     7
 65
   257
 75
     1
175
     1
 42
1.0
 92
       12
 66
     7
 43
1.0
 76
     1
 77
     6
 78
     2
 67
     7
 79
     5
170
     0
171
     0
290
     0
174
     0
 93
        1
 44
0.0
173
     0
291
     1
 45
0.0
  0
DICTIONARY
  5
106
330
2F
100
AcDbDictionary
280
     1
281
     1
  3
ACAD_XREC_ROUNDTRIP
360
107
  0
DICTIONARY
  5
10A
330
31
100
AcDbDictionary
280
     1
281
     1
  3
ACAD_XREC_ROUNDTRIP
360
10B
  0
DICTIONARY
  5
108
330
30
100
AcDbDictionary
280
     1
281
     1
  3
ACAD_XREC_ROUNDTRIP
360
109
  0
DICTIONARY
  5
10C
330
32
100
AcDbDictionary
280
     1
281
     1
  3
ACAD_XREC_ROUNDTRIP
360
10D
  0
DICTIONARY
  5
114
330
36
100
AcDbDictionary
280
     1
281
     1
  3
ACAD_XREC_ROUNDTRIP
360
115
  0
DICTIONARY
  5
11C
330
3A
100
AcDbDictionary
280
     1
281
     1
  3
ACAD_XREC_ROUNDTRIP
360
11D
  0
DICTIONARY
  5
110
330
34
100
AcDbDictionary
280
     1
281
     1
  3
ACAD_XREC_ROUNDTRIP
360
111
  0
DICTIONARY
  5
112
330
35
100
AcDbDictionary
280
     1
281
     1
  3
ACAD_XREC_ROUNDTRIP
360
113
  0
DICTIONARY
  5
11A
330
39
100
AcDbDictionary
280
     1
281
     1
  3
ACAD_XREC_ROUNDTRIP
360
11B
  0
DICTIONARY
  5
FE
330
2B
100
AcDbDictionary
280
     1
281
     1
  3
ACAD_XREC_ROUNDTRIP
360
FF
  0
DICTIONARY
  5
100
330
2C
100
AcDbDictionary
280
     1
281
     1
  3
ACAD_XREC_ROUNDTRIP
360
101
  0
DICTIONARY
  5
102
330
2D
100
AcDbDictionary
280
     1
281
     1
  3
ACAD_XREC_ROUNDTRIP
360
103
  0
DICTIONARY
  5
104
330
2E
100
AcDbDictionary
280
     1
281
     1
  3
ACAD_XREC_ROUNDTRIP
360
105
  0
DICTIONARY
  5
118
330
38
100
AcDbDictionary
280
     1
281
     1
  3
ACAD_XREC_ROUNDTRIP
360
119
  0
DICTIONARY
  5
10E
330
33
100
AcDbDictionary
280
     1
281
     1
  3
ACAD_XREC_ROUNDTRIP
360
10F
  0
DICTIONARY
  5
116
330
37
100
AcDbDictionary
280
     1
281
     1
  3
ACAD_XREC_ROUNDTRIP
360
117
  0
XRECORD
  5
107
102
{ACAD_REACTORS
330
106
102
}
330
106
100
AcDbXrecord
280
     1
102
RTVSPropertyOp0
 70
     1
102
RTVSPropertyOp1
 70
     1
102
RTVSPropertyOp2
 70
     1
102
RTVSPropertyOp3
 70
     1
102
RTVSPropertyOp4
 70
     1
102
RTVSPropertyOp5
 70
     1
102
RTVSPropertyOp6
 70
     1
102
RTVSPropertyOp7
 70
     1
102
RTVSPropertyOp8
 70
     1
102
RTVSPropertyOp9
 70
     1
102
RTVSPropertyOp10
 70
     1
102
RTVSPropertyOp11
 70
     1
102
RTVSPropertyOp12
 70
     1
102
RTVSPropertyOp13
 70
     1
102
RTVSPropertyOp14
 70
     1
102
RTVSPropertyOp15
 70
     1
102
RTVSPropertyOp16
 70
     1
102
RTVSPropertyOp17
 70
     1
102
RTVSPropertyOp18
 70
     1
102
RTVSPropertyOp19
 70
     1
102
RTVSPropertyOp20
 70
     1
102
RTVSPropertyOp21
 70
     1
102
RTVSPropertyOp22
 70
     1
102
RTVSPropertyOp23
 70
     1
102
RTVSPropertyOp24
 70
     1
102
RTVSPropertyOp25
 70
     1
102
RTVSPropertyOp26
 70
     1
102
RTVSPropertyOp27
 70
     1
102
RTVSPropertyOp28
 70
     1
102
RTVSPropertyOp29
 70
     1
102
RTVSPropertyOp30
 70
     1
102
RTVSPropertyOp31
 70
     1
102
RTVSPropertyOp32
 70
     1
  0
XRECORD
  5
10B
102
{ACAD_REACTORS
330
10A
102
}
330
10A
100
AcDbXrecord
280
     1
102
RTVSPropertyOp0
 70
     1
102
RTVSPropertyOp1
 70
     1
102
RTVSPropertyOp2
 70
     1
102
RTVSPropertyOp3
 70
     1
102
RTVSPropertyOp4
 70
     1
102
RTVSPropertyOp5
 70
     1
102
RTVSPropertyOp6
 70
     1
102
RTVSPropertyOp7
 70
     1
102
RTVSPropertyOp8
 70
     1
102
RTVSPropertyOp9
 70
     1
102
RTVSPropertyOp10
 70
     1
102
RTVSPropertyOp11
 70
     1
102
RTVSPropertyOp12
 70
     1
102
RTVSPropertyOp13
 70
     1
102
RTVSPropertyOp14
 70
     1
102
RTVSPropertyOp15
 70
     1
102
RTVSPropertyOp16
 70
     1
102
RTVSPropertyOp17
 70
     1
102
RTVSPropertyOp18
 70
     1
102
RTVSPropertyOp19
 70
     1
102
RTVSPropertyOp20
 70
     1
102
RTVSPropertyOp21
 70
     1
102
RTVSPropertyOp22
 70
     1
102
RTVSPropertyOp23
 70
     1
102
RTVSPropertyOp24
 70
     1
102
RTVSPropertyOp25
 70
     1
102
RTVSPropertyOp26
 70
     1
102
RTVSPropertyOp27
 70
     1
102
RTVSPropertyOp28
 70
     1
102
RTVSPropertyOp29
 70
     1
102
RTVSPropertyOp30
 70
     1
102
RTVSPropertyOp31
 70
     1
102
RTVSPropertyOp32
 70
     1
  0
XRECORD
  5
109
102
{ACAD_REACTORS
330
108
102
}
330
108
100
AcDbXrecord
280
     1
102
RTVSPropertyOp0
 70
     1
102
RTVSPropertyOp1
 70
     1
102
RTVSPropertyOp2
 70
     1
102
RTVSPropertyOp3
 70
     1
102
RTVSPropertyOp4
 70
     1
102
RTVSPropertyOp5
 70
     1
102
RTVSPropertyOp6
 70
     1
102
RTVSPropertyOp7
 70
     1
102
RTVSPropertyOp8
 70
     1
102
RTVSPropertyOp9
 70
     1
102
RTVSPropertyOp10
 70
     1
102
RTVSPropertyOp11
 70
     1
102
RTVSPropertyOp12
 70
     1
102
RTVSPropertyOp13
 70
     1
102
RTVSPropertyOp14
 70
     1
102
RTVSPropertyOp15
 70
     1
102
RTVSPropertyOp16
 70
     1
102
RTVSPropertyOp17
 70
     1
102
RTVSPropertyOp18
 70
     1
102
RTVSPropertyOp19
 70
     1
102
RTVSPropertyOp20
 70
     1
102
RTVSPropertyOp21
 70
     1
102
RTVSPropertyOp22
 70
     1
102
RTVSPropertyOp23
 70
     1
102
RTVSPropertyOp24
 70
     1
102
RTVSPropertyOp25
 70
     1
102
RTVSPropertyOp26
 70
     1
102
RTVSPropertyOp27
 70
     1
102
RTVSPropertyOp28
 70
     1
102
RTVSPropertyOp29
 70
     1
102
RTVSPropertyOp30
 70
     1
102
RTVSPropertyOp31
 70
     1
102
RTVSPropertyOp32
 70
     1
  0
XRECORD
  5
10D
102
{ACAD_REACTORS
330
10C
102
}
330
10C
100
AcDbXrecord
280
     1
102
RTVSPropertyOp0
 70
     1
102
RTVSPropertyOp1
 70
     1
102
RTVSPropertyOp2
 70
     1
102
RTVSPropertyOp3
 70
     1
102
RTVSPropertyOp4
 70
     1
102
RTVSPropertyOp5
 70
     1
102
RTVSPropertyOp6
 70
     1
102
RTVSPropertyOp7
 70
     1
102
RTVSPropertyOp8
 70
     1
102
RTVSPropertyOp9
 70
     1
102
RTVSPropertyOp10
 70
     1
102
RTVSPropertyOp11
 70
     1
102
RTVSPropertyOp12
 70
     1
102
RTVSPropertyOp13
 70
     1
102
RTVSPropertyOp14
 70
     1
102
RTVSPropertyOp15
 70
     1
102
RTVSPropertyOp16
 70
     1
102
RTVSPropertyOp17
 70
     1
102
RTVSPropertyOp18
 70
     1
102
RTVSPropertyOp19
 70
     1
102
RTVSPropertyOp20
 70
     1
102
RTVSPropertyOp21
 70
     1
102
RTVSPropertyOp22
 70
     1
102
RTVSPropertyOp23
 70
     1
102
RTVSPropertyOp24
 70
     1
102
RTVSPropertyOp25
 70
     1
102
RTVSPropertyOp26
 70
     1
102
RTVSPropertyOp27
 70
     1
102
RTVSPropertyOp28
 70
     1
102
RTVSPropertyOp29
 70
     1
102
RTVSPropertyOp30
 70
     1
102
RTVSPropertyOp31
 70
     1
102
RTVSPropertyOp32
 70
     1
  0
XRECORD
  5
115
102
{ACAD_REACTORS
330
114
102
}
330
114
100
AcDbXrecord
280
     1
102
RTVSPropertyOp0
 70
     1
102
RTVSPropertyOp1
 70
     1
102
RTVSPropertyOp2
 70
     1
102
RTVSPropertyOp3
 70
     1
102
RTVSPropertyOp4
 70
     1
102
RTVSPropertyOp5
 70
     1
102
RTVSPropertyOp6
 70
     1
102
RTVSPropertyOp7
 70
     1
102
RTVSPropertyOp8
 70
     1
102
RTVSPropertyOp9
 70
     1
102
RTVSPropertyOp10
 70
     1
102
RTVSPropertyOp11
 70
     1
102
RTVSPropertyOp12
 70
     1
102
RTVSPropertyOp13
 70
     1
102
RTVSPropertyOp14
 70
     1
102
RTVSPropertyOp15
 70
     1
102
RTVSPropertyOp16
 70
     1
102
RTVSPropertyOp17
 70
     1
102
RTVSPropertyOp18
 70
     1
102
RTVSPropertyOp19
 70
     1
102
RTVSPropertyOp20
 70
     1
102
RTVSPropertyOp21
 70
     1
102
RTVSPropertyOp22
 70
     1
102
RTVSPropertyOp23
 70
     1
102
RTVSPropertyOp24
 70
     1
102
RTVSPropertyOp25
 70
     1
102
RTVSPropertyOp26
 70
     1
102
RTVSPropertyOp27
 70
     1
102
RTVSPropertyOp28
 70
     1
102
RTVSPropertyOp29
 70
     1
102
RTVSPropertyOp30
 70
     1
102
RTVSPropertyOp31
 70
     1
102
RTVSPropertyOp32
 70
     1
  0
XRECORD
  5
11D
102
{ACAD_REACTORS
330
11C
102
}
330
11C
100
AcDbXrecord
280
     1
102
RTVSPropertyOp0
 70
     1
102
RTVSPropertyOp1
 70
     1
102
RTVSPropertyOp2
 70
     1
102
RTVSPropertyOp3
 70
     1
102
RTVSPropertyOp4
 70
     1
102
RTVSPropertyOp5
 70
     1
102
RTVSPropertyOp6
 70
     1
102
RTVSPropertyOp7
 70
     1
102
RTVSPropertyOp8
 70
     1
102
RTVSPropertyOp9
 70
     1
102
RTVSPropertyOp10
 70
     1
102
RTVSPropertyOp11
 70
     1
102
RTVSPropertyOp12
 70
     1
102
RTVSPropertyOp13
 70
     1
102
RTVSPropertyOp14
 70
     1
102
RTVSPropertyOp15
 70
     1
102
RTVSPropertyOp16
 70
     1
102
RTVSPropertyOp17
 70
     1
102
RTVSPropertyOp18
 70
     1
102
RTVSPropertyOp19
 70
     1
102
RTVSPropertyOp20
 70
     1
102
RTVSPropertyOp21
 70
     1
102
RTVSPropertyOp22
 70
     1
102
RTVSPropertyOp23
 70
     1
102
RTVSPropertyOp24
 70
     1
102
RTVSPropertyOp25
 70
     1
102
RTVSPropertyOp26
 70
     1
102
RTVSPropertyOp27
 70
     1
102
RTVSPropertyOp28
 70
     1
102
RTVSPropertyOp29
 70
     1
102
RTVSPropertyOp30
 70
     1
102
RTVSPropertyOp31
 70
     1
102
RTVSPropertyOp32
 70
     1
  0
XRECORD
  5
111
102
{ACAD_REACTORS
330
110
102
}
330
110
100
AcDbXrecord
280
     1
102
RTVSPropertyOp0
 70
     1
102
RTVSPropertyOp1
 70
     1
102
RTVSPropertyOp2
 70
     1
102
RTVSPropertyOp3
 70
     1
102
RTVSPropertyOp4
 70
     1
102
RTVSPropertyOp5
 70
     1
102
RTVSPropertyOp6
 70
     1
102
RTVSPropertyOp7
 70
     1
102
RTVSPropertyOp8
 70
     1
102
RTVSPropertyOp9
 70
     1
102
RTVSPropertyOp10
 70
     1
102
RTVSPropertyOp11
 70
     1
102
RTVSPropertyOp12
 70
     1
102
RTVSPropertyOp13
 70
     1
102
RTVSPropertyOp14
 70
     1
102
RTVSPropertyOp15
 70
     1
102
RTVSPropertyOp16
 70
     1
102
RTVSPropertyOp17
 70
     1
102
RTVSPropertyOp18
 70
     1
102
RTVSPropertyOp19
 70
     1
102
RTVSPropertyOp20
 70
     1
102
RTVSPropertyOp21
 70
     1
102
RTVSPropertyOp22
 70
     1
102
RTVSPropertyOp23
 70
     1
102
RTVSPropertyOp24
 70
     1
102
RTVSPropertyOp25
 70
     1
102
RTVSPropertyOp26
 70
     1
102
RTVSPropertyOp27
 70
     1
102
RTVSPropertyOp28
 70
     1
102
RTVSPropertyOp29
 70
     1
102
RTVSPropertyOp30
 70
     1
102
RTVSPropertyOp31
 70
     1
102
RTVSPropertyOp32
 70
     1
  0
XRECORD
  5
113
102
{ACAD_REACTORS
330
112
102
}
330
112
100
AcDbXrecord
280
     1
102
RTVSPropertyOp0
 70
     1
102
RTVSPropertyOp1
 70
     1
102
RTVSPropertyOp2
 70
     1
102
RTVSPropertyOp3
 70
     1
102
RTVSPropertyOp4
 70
     1
102
RTVSPropertyOp5
 70
     1
102
RTVSPropertyOp6
 70
     1
102
RTVSPropertyOp7
 70
     1
102
RTVSPropertyOp8
 70
     1
102
RTVSPropertyOp9
 70
     1
102
RTVSPropertyOp10
 70
     1
102
RTVSPropertyOp11
 70
     1
102
RTVSPropertyOp12
 70
     1
102
RTVSPropertyOp13
 70
     1
102
RTVSPropertyOp14
 70
     1
102
RTVSPropertyOp15
 70
     1
102
RTVSPropertyOp16
 70
     1
102
RTVSPropertyOp17
 70
     1
102
RTVSPropertyOp18
 70
     1
102
RTVSPropertyOp19
 70
     1
102
RTVSPropertyOp20
 70
     1
102
RTVSPropertyOp21
 70
     1
102
RTVSPropertyOp22
 70
     1
102
RTVSPropertyOp23
 70
     1
102
RTVSPropertyOp24
 70
     1
102
RTVSPropertyOp25
 70
     1
102
RTVSPropertyOp26
 70
     1
102
RTVSPropertyOp27
 70
     1
102
RTVSPropertyOp28
 70
     1
102
RTVSPropertyOp29
 70
     1
102
RTVSPropertyOp30
 70
     1
102
RTVSPropertyOp31
 70
     1
102
RTVSPropertyOp32
 70
     1
  0
XRECORD
  5
11B
102
{ACAD_REACTORS
330
11A
102
}
330
11A
100
AcDbXrecord
280
     1
102
RTVSPropertyOp0
 70
     1
102
RTVSPropertyOp1
 70
     1
102
RTVSPropertyOp2
 70
     1
102
RTVSPropertyOp3
 70
     1
102
RTVSPropertyOp4
 70
     1
102
RTVSPropertyOp5
 70
     1
102
RTVSPropertyOp6
 70
     1
102
RTVSPropertyOp7
 70
     1
102
RTVSPropertyOp8
 70
     1
102
RTVSPropertyOp9
 70
     1
102
RTVSPropertyOp10
 70
     1
102
RTVSPropertyOp11
 70
     1
102
RTVSPropertyOp12
 70
     1
102
RTVSPropertyOp13
 70
     1
102
RTVSPropertyOp14
 70
     1
102
RTVSPropertyOp15
 70
     1
102
RTVSPropertyOp16
 70
     1
102
RTVSPropertyOp17
 70
     1
102
RTVSPropertyOp18
 70
     1
102
RTVSPropertyOp19
 70
     1
102
RTVSPropertyOp20
 70
     1
102
RTVSPropertyOp21
 70
     1
102
RTVSPropertyOp22
 70
     1
102
RTVSPropertyOp23
 70
     1
102
RTVSPropertyOp24
 70
     1
102
RTVSPropertyOp25
 70
     1
102
RTVSPropertyOp26
 70
     1
102
RTVSPropertyOp27
 70
     1
102
RTVSPropertyOp28
 70
     1
102
RTVSPropertyOp29
 70
     1
102
RTVSPropertyOp30
 70
     1
102
RTVSPropertyOp31
 70
     1
102
RTVSPropertyOp32
 70
     1
  0
XRECORD
  5
FF
102
{ACAD_REACTORS
330
FE
102
}
330
FE
100
AcDbXrecord
280
     1
102
RTVSPropertyOp0
 70
     1
102
RTVSPropertyOp1
 70
     1
102
RTVSPropertyOp2
 70
     1
102
RTVSPropertyOp3
 70
     1
102
RTVSPropertyOp4
 70
     1
102
RTVSPropertyOp5
 70
     1
102
RTVSPropertyOp6
 70
     1
102
RTVSPropertyOp7
 70
     1
102
RTVSPropertyOp8
 70
     1
102
RTVSPropertyOp9
 70
     1
102
RTVSPropertyOp10
 70
     1
102
RTVSPropertyOp11
 70
     1
102
RTVSPropertyOp12
 70
     1
102
RTVSPropertyOp13
 70
     1
102
RTVSPropertyOp14
 70
     1
102
RTVSPropertyOp15
 70
     1
102
RTVSPropertyOp16
 70
     1
102
RTVSPropertyOp17
 70
     1
102
RTVSPropertyOp18
 70
     1
102
RTVSPropertyOp19
 70
     1
102
RTVSPropertyOp20
 70
     1
102
RTVSPropertyOp21
 70
     1
102
RTVSPropertyOp22
 70
     1
102
RTVSPropertyOp23
 70
     1
102
RTVSPropertyOp24
 70
     1
102
RTVSPropertyOp25
 70
     1
102
RTVSPropertyOp26
 70
     1
102
RTVSPropertyOp27
 70
     1
102
RTVSPropertyOp28
 70
     1
102
RTVSPropertyOp29
 70
     1
102
RTVSPropertyOp30
 70
     1
102
RTVSPropertyOp31
 70
     1
102
RTVSPropertyOp32
 70
     1
  0
XRECORD
  5
101
102
{ACAD_REACTORS
330
100
102
}
330
100
100
AcDbXrecord
280
     1
102
RTVSPropertyOp0
 70
     1
102
RTVSPropertyOp1
 70
     1
102
RTVSPropertyOp2
 70
     1
102
RTVSPropertyOp3
 70
     1
102
RTVSPropertyOp4
 70
     1
102
RTVSPropertyOp5
 70
     1
102
RTVSPropertyOp6
 70
     1
102
RTVSPropertyOp7
 70
     1
102
RTVSPropertyOp8
 70
     1
102
RTVSPropertyOp9
 70
     1
102
RTVSPropertyOp10
 70
     1
102
RTVSPropertyOp11
 70
     1
102
RTVSPropertyOp12
 70
     1
102
RTVSPropertyOp13
 70
     1
102
RTVSPropertyOp14
 70
     1
102
RTVSPropertyOp15
 70
     1
102
RTVSPropertyOp16
 70
     1
102
RTVSPropertyOp17
 70
     1
102
RTVSPropertyOp18
 70
     1
102
RTVSPropertyOp19
 70
     1
102
RTVSPropertyOp20
 70
     1
102
RTVSPropertyOp21
 70
     1
102
RTVSPropertyOp22
 70
     1
102
RTVSPropertyOp23
 70
     1
102
RTVSPropertyOp24
 70
     1
102
RTVSPropertyOp25
 70
     1
102
RTVSPropertyOp26
 70
     1
102
RTVSPropertyOp27
 70
     1
102
RTVSPropertyOp28
 70
     1
102
RTVSPropertyOp29
 70
     1
102
RTVSPropertyOp30
 70
     1
102
RTVSPropertyOp31
 70
     1
102
RTVSPropertyOp32
 70
     1
  0
XRECORD
  5
103
102
{ACAD_REACTORS
330
102
102
}
330
102
100
AcDbXrecord
280
     1
102
RTVSPropertyOp0
 70
     1
102
RTVSPropertyOp1
 70
     1
102
RTVSPropertyOp2
 70
     1
102
RTVSPropertyOp3
 70
     1
102
RTVSPropertyOp4
 70
     1
102
RTVSPropertyOp5
 70
     1
102
RTVSPropertyOp6
 70
     1
102
RTVSPropertyOp7
 70
     1
102
RTVSPropertyOp8
 70
     1
102
RTVSPropertyOp9
 70
     1
102
RTVSPropertyOp10
 70
     1
102
RTVSPropertyOp11
 70
     1
102
RTVSPropertyOp12
 70
     1
102
RTVSPropertyOp13
 70
     1
102
RTVSPropertyOp14
 70
     1
102
RTVSPropertyOp15
 70
     1
102
RTVSPropertyOp16
 70
     1
102
RTVSPropertyOp17
 70
     1
102
RTVSPropertyOp18
 70
     1
102
RTVSPropertyOp19
 70
     1
102
RTVSPropertyOp20
 70
     1
102
RTVSPropertyOp21
 70
     1
102
RTVSPropertyOp22
 70
     1
102
RTVSPropertyOp23
 70
     1
102
RTVSPropertyOp24
 70
     1
102
RTVSPropertyOp25
 70
     1
102
RTVSPropertyOp26
 70
     1
102
RTVSPropertyOp27
 70
     1
102
RTVSPropertyOp28
 70
     1
102
RTVSPropertyOp29
 70
     1
102
RTVSPropertyOp30
 70
     1
102
RTVSPropertyOp31
 70
     1
102
RTVSPropertyOp32
 70
     1
  0
XRECORD
  5
105
102
{ACAD_REACTORS
330
104
102
}
330
104
100
AcDbXrecord
280
     1
102
RTVSPropertyOp0
 70
     1
102
RTVSPropertyOp1
 70
     1
102
RTVSPropertyOp2
 70
     1
102
RTVSPropertyOp3
 70
     1
102
RTVSPropertyOp4
 70
     1
102
RTVSPropertyOp5
 70
     1
102
RTVSPropertyOp6
 70
     1
102
RTVSPropertyOp7
 70
     1
102
RTVSPropertyOp8
 70
     1
102
RTVSPropertyOp9
 70
     1
102
RTVSPropertyOp10
 70
     1
102
RTVSPropertyOp11
 70
     1
102
RTVSPropertyOp12
 70
     1
102
RTVSPropertyOp13
 70
     1
102
RTVSPropertyOp14
 70
     1
102
RTVSPropertyOp15
 70
     1
102
RTVSPropertyOp16
 70
     1
102
RTVSPropertyOp17
 70
     1
102
RTVSPropertyOp18
 70
     1
102
RTVSPropertyOp19
 70
     1
102
RTVSPropertyOp20
 70
     1
102
RTVSPropertyOp21
 70
     1
102
RTVSPropertyOp22
 70
     1
102
RTVSPropertyOp23
 70
     1
102
RTVSPropertyOp24
 70
     1
102
RTVSPropertyOp25
 70
     1
102
RTVSPropertyOp26
 70
     1
102
RTVSPropertyOp27
 70
     1
102
RTVSPropertyOp28
 70
     1
102
RTVSPropertyOp29
 70
     1
102
RTVSPropertyOp30
 70
     1
102
RTVSPropertyOp31
 70
     1
102
RTVSPropertyOp32
 70
     1
  0
XRECORD
  5
119
102
{ACAD_REACTORS
330
118
102
}
330
118
100
AcDbXrecord
280
     1
102
RTVSPropertyOp0
 70
     1
102
RTVSPropertyOp1
 70
     1
102
RTVSPropertyOp2
 70
     1
102
RTVSPropertyOp3
 70
     1
102
RTVSPropertyOp4
 70
     1
102
RTVSPropertyOp5
 70
     1
102
RTVSPropertyOp6
 70
     1
102
RTVSPropertyOp7
 70
     1
102
RTVSPropertyOp8
 70
     1
102
RTVSPropertyOp9
 70
     1
102
RTVSPropertyOp10
 70
     1
102
RTVSPropertyOp11
 70
     1
102
RTVSPropertyOp12
 70
     1
102
RTVSPropertyOp13
 70
     1
102
RTVSPropertyOp14
 70
     1
102
RTVSPropertyOp15
 70
     1
102
RTVSPropertyOp16
 70
     1
102
RTVSPropertyOp17
 70
     1
102
RTVSPropertyOp18
 70
     1
102
RTVSPropertyOp19
 70
     1
102
RTVSPropertyOp20
 70
     1
102
RTVSPropertyOp21
 70
     1
102
RTVSPropertyOp22
 70
     1
102
RTVSPropertyOp23
 70
     1
102
RTVSPropertyOp24
 70
     1
102
RTVSPropertyOp25
 70
     1
102
RTVSPropertyOp26
 70
     1
102
RTVSPropertyOp27
 70
     1
102
RTVSPropertyOp28
 70
     1
102
RTVSPropertyOp29
 70
     1
102
RTVSPropertyOp30
 70
     1
102
RTVSPropertyOp31
 70
     1
102
RTVSPropertyOp32
 70
     1
  0
XRECORD
  5
10F
102
{ACAD_REACTORS
330
10E
102
}
330
10E
100
AcDbXrecord
280
     1
102
RTVSPropertyOp0
 70
     1
102
RTVSPropertyOp1
 70
     1
102
RTVSPropertyOp2
 70
     1
102
RTVSPropertyOp3
 70
     1
102
RTVSPropertyOp4
 70
     1
102
RTVSPropertyOp5
 70
     1
102
RTVSPropertyOp6
 70
     1
102
RTVSPropertyOp7
 70
     1
102
RTVSPropertyOp8
 70
     1
102
RTVSPropertyOp9
 70
     1
102
RTVSPropertyOp10
 70
     1
102
RTVSPropertyOp11
 70
     1
102
RTVSPropertyOp12
 70
     1
102
RTVSPropertyOp13
 70
     1
102
RTVSPropertyOp14
 70
     1
102
RTVSPropertyOp15
 70
     1
102
RTVSPropertyOp16
 70
     1
102
RTVSPropertyOp17
 70
     1
102
RTVSPropertyOp18
 70
     1
102
RTVSPropertyOp19
 70
     1
102
RTVSPropertyOp20
 70
     1
102
RTVSPropertyOp21
 70
     1
102
RTVSPropertyOp22
 70
     1
102
RTVSPropertyOp23
 70
     1
102
RTVSPropertyOp24
 70
     1
102
RTVSPropertyOp25
 70
     1
102
RTVSPropertyOp26
 70
     1
102
RTVSPropertyOp27
 70
     1
102
RTVSPropertyOp28
 70
     1
102
RTVSPropertyOp29
 70
     1
102
RTVSPropertyOp30
 70
     1
102
RTVSPropertyOp31
 70
     1
102
RTVSPropertyOp32
 70
     1
  0
XRECORD
  5
117
102
{ACAD_REACTORS
330
116
102
}
330
116
100
AcDbXrecord
280
     1
102
RTVSPropertyOp0
 70
     1
102
RTVSPropertyOp1
 70
     1
102
RTVSPropertyOp2
 70
     1
102
RTVSPropertyOp3
 70
     1
102
RTVSPropertyOp4
 70
     1
102
RTVSPropertyOp5
 70
     1
102
RTVSPropertyOp6
 70
     1
102
RTVSPropertyOp7
 70
     1
102
RTVSPropertyOp8
 70
     1
102
RTVSPropertyOp9
 70
     1
102
RTVSPropertyOp10
 70
     1
102
RTVSPropertyOp11
 70
     1
102
RTVSPropertyOp12
 70
     1
102
RTVSPropertyOp13
 70
     1
102
RTVSPropertyOp14
 70
     1
102
RTVSPropertyOp15
 70
     1
102
RTVSPropertyOp16
 70
     1
102
RTVSPropertyOp17
 70
     1
102
RTVSPropertyOp18
 70
     1
102
RTVSPropertyOp19
 70
     1
102
RTVSPropertyOp20
 70
     1
102
RTVSPropertyOp21
 70
     1
102
RTVSPropertyOp22
 70
     1
102
RTVSPropertyOp23
 70
     1
102
RTVSPropertyOp24
 70
     1
102
RTVSPropertyOp25
 70
     1
102
RTVSPropertyOp26
 70
     1
102
RTVSPropertyOp27
 70
     1
102
RTVSPropertyOp28
 70
     1
102
RTVSPropertyOp29
 70
     1
102
RTVSPropertyOp30
 70
     1
102
RTVSPropertyOp31
 70
     1
102
RTVSPropertyOp32
 70
     1
  0
ENDSEC
  0
EOF
