  0
SECTION
  2
HEADER
  9
$ACADVER
  1
AC1021
  9
$ACADMAINTVER
 70
    25
  9
$DWGCODEPAGE
  3
ANSI_1252
  9
$INSBASE
 10
0.0
 20
0.0
 30
0.0
  9
$EXTMIN
 10
-187.2041
 20
-115.1348
 30
0.0
  9
$EXTMAX
 10
-63.617
 20
131.7185
 30
0.0
  9
$LIMMIN
 10
0.0
 20
0.0
  9
$LIMMAX
 10
12.0
 20
9.0
  9
$ORTHOMODE
 70
     0
  9
$REGENMODE
 70
     1
  9
$FILLMODE
 70
     1
  9
$QTEXTMODE
 70
     0
  9
$MIRRTEXT
 70
     1
  9
$LTSCALE
 40
1.0
  9
$ATTMODE
 70
     1
  9
$TEXTSIZE
 40
0.2
  9
$TRACEWID
 40
0.05
  9
$TEXTSTYLE
  7
Standard
  9
$CLAYER
  8
0
  9
$CELTYPE
  6
ByLayer
  9
$CECOLOR
 62
   256
  9
$CELTSCALE
 40
1.0
  9
$DISPSILH
 70
     0
  9
$DIMSCALE
 40
1.0
  9
$DIMASZ
 40
0.18
  9
$DIMEXO
 40
0.0625
  9
$DIMDLI
 40
0.38
  9
$DIMRND
 40
0.0
  9
$DIMDLE
 40
0.0
  9
$DIMEXE
 40
0.18
  9
$DIMTP
 40
0.0
  9
$DIMTM
 40
0.0
  9
$DIMTXT
 40
0.18
  9
$DIMCEN
 40
0.09
  9
$DIMTSZ
 40
0.0
  9
$DIMTOL
 70
     0
  9
$DIMLIM
 70
     0
  9
$DIMTIH
 70
     1
  9
$DIMTOH
 70
     1
  9
$DIMSE1
 70
     0
  9
$DIMSE2
 70
     0
  9
$DIMTAD
 70
     0
  9
$DIMZIN
 70
     0
  9
$DIMBLK
  1

  9
$DIMASO
 70
     1
  9
$DIMSHO
 70
     1
  9
$DIMPOST
  1

  9
$DIMAPOST
  1

  9
$DIMALT
 70
     0
  9
$DIMALTD
 70
     2
  9
$DIMALTF
 40
25.4
  9
$DIMLFAC
 40
1.0
  9
$DIMTOFL
 70
     0
  9
$DIMTVP
 40
0.0
  9
$DIMTIX
 70
     0
  9
$DIMSOXD
 70
     0
  9
$DIMSAH
 70
     0
  9
$DIMBLK1
  1

  9
$DIMBLK2
  1

  9
$DIMSTYLE
  2
Standard
  9
$DIMCLRD
 70
     0
  9
$DIMCLRE
 70
     0
  9
$DIMCLRT
 70
     0
  9
$DIMTFAC
 40
1.0
  9
$DIMGAP
 40
0.09
  9
$DIMJUST
 70
     0
  9
$DIMSD1
 70
     0
  9
$DIMSD2
 70
     0
  9
$DIMTOLJ
 70
     1
  9
$DIMTZIN
 70
     0
  9
$DIMALTZ
 70
     0
  9
$DIMALTTZ
 70
     0
  9
$DIMUPT
 70
     0
  9
$DIMDEC
 70
     4
  9
$DIMTDEC
 70
     4
  9
$DIMALTU
 70
     2
  9
$DIMALTTD
 70
     2
  9
$DIMTXSTY
  7
Standard
  9
$DIMAUNIT
 70
     0
  9
$DIMADEC
 70
     0
  9
$DIMALTRND
 40
0.0
  9
$DIMAZIN
 70
     0
  9
$DIMDSEP
 70
    46
  9
$DIMATFIT
 70
     3
  9
$DIMFRAC
 70
     0
  9
$DIMLDRBLK
  1

  9
$DIMLUNIT
 70
     2
  9
$DIMLWD
 70
    -2
  9
$DIMLWE
 70
    -2
  9
$DIMTMOVE
 70
     0
  9
$DIMFXL
 40
1.0
  9
$DIMFXLON
 70
     0
  9
$DIMJOGANG
 40
0.7853981633974483
  9
$DIMTFILL
 70
     0
  9
$DIMTFILLCLR
 70
     0
  9
$DIMARCSYM
 70
     0
  9
$DIMLTYPE
  6

  9
$DIMLTEX1
  6

  9
$DIMLTEX2
  6

  9
$LUNITS
 70
     2
  9
$LUPREC
 70
     4
  9
$SKETCHINC
 40
0.1
  9
$FILLETRAD
 40
0.5
  9
$AUNITS
 70
     0
  9
$AUPREC
 70
     0
  9
$MENU
  1
.
  9
$ELEVATION
 40
0.0
  9
$PELEVATION
 40
0.0
  9
$THICKNESS
 40
0.0
  9
$LIMCHECK
 70
     0
  9
$CHAMFERA
 40
0.5
  9
$CHAMFERB
 40
0.5
  9
$CHAMFERC
 40
1.0
  9
$CHAMFERD
 40
0.0
  9
$SKPOLY
 70
     0
  9
$TDCREATE
 40
2458493.704638577
  9
$TDUCREATE
 40
2458493.704638577
  9
$TDUPDATE
 40
2458493.704638692
  9
$TDUUPDATE
 40
2458493.704638692
  9
$TDINDWG
 40
0.0000000116
  9
$TDUSRTIMER
 40
0.0000000116
  9
$USRTIMER
 70
     1
  9
$ANGBASE
 50
0.0
  9
$ANGDIR
 70
     0
  9
$PDMODE
 70
     0
  9
$PDSIZE
 40
0.0
  9
$PLINEWID
 40
0.0
  9
$SPLFRAME
 70
     0
  9
$SPLINETYPE
 70
     6
  9
$SPLINESEGS
 70
     8
  9
$HANDSEED
  5
9E
  9
$SURFTAB1
 70
     6
  9
$SURFTAB2
 70
     6
  9
$SURFTYPE
 70
     6
  9
$SURFU
 70
     6
  9
$SURFV
 70
     6
  9
$UCSBASE
  2

  9
$UCSNAME
  2

  9
$UCSORG
 10
0.0
 20
0.0
 30
0.0
  9
$UCSXDIR
 10
1.0
 20
0.0
 30
0.0
  9
$UCSYDIR
 10
0.0
 20
1.0
 30
0.0
  9
$UCSORTHOREF
  2

  9
$UCSORTHOVIEW
 70
     0
  9
$UCSORGTOP
 10
0.0
 20
0.0
 30
0.0
  9
$UCSORGBOTTOM
 10
0.0
 20
0.0
 30
0.0
  9
$UCSORGLEFT
 10
0.0
 20
0.0
 30
0.0
  9
$UCSORGRIGHT
 10
0.0
 20
0.0
 30
0.0
  9
$UCSORGFRONT
 10
0.0
 20
0.0
 30
0.0
  9
$UCSORGBACK
 10
0.0
 20
0.0
 30
0.0
  9
$PUCSBASE
  2

  9
$PUCSNAME
  2

  9
$PUCSORG
 10
0.0
 20
0.0
 30
0.0
  9
$PUCSXDIR
 10
1.0
 20
0.0
 30
0.0
  9
$PUCSYDIR
 10
0.0
 20
1.0
 30
0.0
  9
$PUCSORTHOREF
  2

  9
$PUCSORTHOVIEW
 70
     0
  9
$PUCSORGTOP
 10
0.0
 20
0.0
 30
0.0
  9
$PUCSORGBOTTOM
 10
0.0
 20
0.0
 30
0.0
  9
$PUCSORGLEFT
 10
0.0
 20
0.0
 30
0.0
  9
$PUCSORGRIGHT
 10
0.0
 20
0.0
 30
0.0
  9
$PUCSORGFRONT
 10
0.0
 20
0.0
 30
0.0
  9
$PUCSORGBACK
 10
0.0
 20
0.0
 30
0.0
  9
$USERI1
 70
     0
  9
$USERI2
 70
     0
  9
$USERI3
 70
     0
  9
$USERI4
 70
     0
  9
$USERI5
 70
     0
  9
$USERR1
 40
0.0
  9
$USERR2
 40
0.0
  9
$USERR3
 40
0.0
  9
$USERR4
 40
0.0
  9
$USERR5
 40
0.0
  9
$WORLDVIEW
 70
     1
  9
$SHADEDGE
 70
     3
  9
$SHADEDIF
 70
    70
  9
$TILEMODE
 70
     1
  9
$MAXACTVP
 70
    64
  9
$PINSBASE
 10
0.0
 20
0.0
 30
0.0
  9
$PLIMCHECK
 70
     0
  9
$PEXTMIN
 10
1.000000000000000E+20
 20
1.000000000000000E+20
 30
1.000000000000000E+20
  9
$PEXTMAX
 10
-1.000000000000000E+20
 20
-1.000000000000000E+20
 30
-1.000000000000000E+20
  9
$PLIMMIN
 10
0.0
 20
0.0
  9
$PLIMMAX
 10
12.0
 20
9.0
  9
$UNITMODE
 70
     0
  9
$VISRETAIN
 70
     1
  9
$PLINEGEN
 70
     0
  9
$PSLTSCALE
 70
     1
  9
$TREEDEPTH
 70
  3020
  9
$CMLSTYLE
  2
Standard
  9
$CMLJUST
 70
     0
  9
$CMLSCALE
 40
1.0
  9
$PROXYGRAPHICS
 70
     1
  9
$MEASUREMENT
 70
     0
  9
$CELWEIGHT
370
    -1
  9
$ENDCAPS
280
     0
  9
$JOINSTYLE
280
     0
  9
$LWDISPLAY
290
     0
  9
$INSUNITS
 70
     4
  9
$HYPERLINKBASE
  1

  9
$STYLESHEET
  1

  9
$XEDIT
290
     1
  9
$CEPSNTYPE
380
     0
  9
$PSTYLEMODE
290
     1
  9
$FINGERPRINTGUID
  2
{2EC09768-ECA3-4373-A1DA-EC034FB2F23F}
  9
$VERSIONGUID
  2
{FAEB1C32-E019-11D5-929B-00C0DF256EC4}
  9
$EXTNAMES
290
     1
  9
$PSVPSCALE
 40
0.0
  9
$OLESTARTUP
290
     0
  9
$SORTENTS
280
   127
  9
$INDEXCTL
280
     0
  9
$HIDETEXT
280
     1
  9
$XCLIPFRAME
290
     0
  9
$HALOGAP
280
     0
  9
$OBSCOLOR
 70
   257
  9
$OBSLTYPE
280
     0
  9
$INTERSECTIONDISPLAY
280
     0
  9
$INTERSECTIONCOLOR
 70
   257
  9
$DIMASSOC
280
     2
  9
$PROJECTNAME
  1

  9
$CAMERADISPLAY
290
     0
  9
$LENSLENGTH
 40
50.0
  9
$CAMERAHEIGHT
 40
0.0
  9
$STEPSPERSEC
 40
2.0
  9
$STEPSIZE
 40
6.0
  9
$3DDWFPREC
 40
2.0
  9
$PSOLWIDTH
 40
0.25
  9
$PSOLHEIGHT
 40
4.0
  9
$LOFTANG1
 40
1.570796326794897
  9
$LOFTANG2
 40
1.570796326794897
  9
$LOFTMAG1
 40
0.0
  9
$LOFTMAG2
 40
0.0
  9
$LOFTPARAM
 70
     7
  9
$LOFTNORMALS
280
     1
  9
$LATITUDE
 40
37.795
  9
$LONGITUDE
 40
-122.394
  9
$NORTHDIRECTION
 40
0.0
  9
$TIMEZONE
 70
 -8000
  9
$LIGHTGLYPHDISPLAY
280
     1
  9
$TILEMODELIGHTSYNCH
280
     1
  9
$SOLIDHIST
280
     1
  9
$SHOWHIST
280
     1
  9
$DWFFRAME
280
     2
  9
$DGNFRAME
280
     2
  9
$REALWORLDSCALE
290
     1
  9
$INTERFERECOLOR
 62
   256
  9
$CSHADOW
280
     0
  9
$SHADOWPLANELOCATION
 40
0.0
  0
ENDSEC
  0
SECTION
  2
CLASSES
  0
CLASS
  1
ACDBDICTIONARYWDFLT
  2
AcDbDictionaryWithDefault
  3
ObjectDBX Classes
 90
        0
 91
        4
280
     0
281
     0
  0
CLASS
  1
VISUALSTYLE
  2
AcDbVisualStyle
  3
ObjectDBX Classes
 90
     4095
 91
        4
280
     0
281
     0
  0
CLASS
  1
MATERIAL
  2
AcDbMaterial
  3
ObjectDBX Classes
 90
     1153
 91
        4
280
     0
281
     0
  0
ENDSEC
  0
SECTION
  2
TABLES
  0
TABLE
  2
VPORT
  5
8
330
0
100
AcDbSymbolTable
 70
     1
  0
VPORT
  5
29
330
8
100
AcDbSymbolTableRecord
100
AcDbViewportTableRecord
  2
*Active
 70
     0
 10
0.0
 20
0.0
 11
1.0
 21
1.0
 12
10.42990654205607
 22
4.5
 13
0.0
 23
0.0
 14
0.5
 24
0.5
 15
0.5
 25
0.5
 16
0.0
 26
0.0
 36
1.0
 17
0.0
 27
0.0
 37
0.0
 40
9.0
 41
1.972972972850329
 42
50.0
 43
0.0
 44
0.0
 50
0.0
 51
0.0
 71
     0
 72
   100
 73
     1
 74
     3
 75
     0
 76
     0
 77
     0
 78
     0
281
     0
 65
     1
110
0.0
120
0.0
130
0.0
111
1.0
121
0.0
131
0.0
112
0.0
122
1.0
132
0.0
 79
     0
146
0.0
 60
     3
 61
     5
292
     1
282
     1
141
0.0
142
0.0
 63
   250
  0
ENDTAB
  0
TABLE
  2
LTYPE
  5
5
330
0
100
AcDbSymbolTable
 70
     1
  0
LTYPE
  5
14
330
5
100
AcDbSymbolTableRecord
100
AcDbLinetypeTableRecord
  2
ByBlock
 70
     0
  3

 72
    65
 73
     0
 40
0.0
  0
LTYPE
  5
15
330
5
100
AcDbSymbolTableRecord
100
AcDbLinetypeTableRecord
  2
ByLayer
 70
     0
  3

 72
    65
 73
     0
 40
0.0
  0
LTYPE
  5
16
330
5
100
AcDbSymbolTableRecord
100
AcDbLinetypeTableRecord
  2
Continuous
 70
     0
  3
Solid line
 72
    65
 73
     0
 40
0.0
  0
ENDTAB
  0
TABLE
  2
LAYER
  5
2
330
0
100
AcDbSymbolTable
 70
     3
  0
LAYER
  5
10
330
2
100
AcDbSymbolTableRecord
100
AcDbLayerTableRecord
  2
0
 70
     0
 62
     7
  6
Continuous
370
    -3
390
F
347
3E
  0
LAYER
  5
40
330
2
100
AcDbSymbolTableRecord
100
AcDbLayerTableRecord
  2
layer 1
 70
     0
 62
     7
  6
Continuous
370
    -3
390
F
347
3E
  0
LAYER
  5
7B
330
2
100
AcDbSymbolTableRecord
100
AcDbLayerTableRecord
  2
Master Guides
 70
     0
 62
     7
  6
Continuous
370
    -3
390
F
347
3E
  0
ENDTAB
  0
TABLE
  2
STYLE
  5
3
330
0
100
AcDbSymbolTable
 70
     1
  0
STYLE
  5
11
330
3
100
AcDbSymbolTableRecord
100
AcDbTextStyleTableRecord
  2
Standard
 70
     0
 40
0.0
 41
1.0
 50
0.0
 71
     0
 42
0.2
  3
txt
  4

  0
ENDTAB
  0
TABLE
  2
VIEW
  5
6
330
0
100
AcDbSymbolTable
 70
     0
  0
ENDTAB
  0
TABLE
  2
UCS
  5
7
330
0
100
AcDbSymbolTable
 70
     0
  0
ENDTAB
  0
TABLE
  2
APPID
  5
9
330
0
100
AcDbSymbolTable
 70
     2
  0
APPID
  5
12
330
9
100
AcDbSymbolTableRecord
100
AcDbRegAppTableRecord
  2
ACAD
 70
     0
  0
APPID
  5
3F
330
9
100
AcDbSymbolTableRecord
100
AcDbRegAppTableRecord
  2
ODA
 70
     0
  0
ENDTAB
  0
TABLE
  2
DIMSTYLE
  5
A
330
0
100
AcDbSymbolTable
 70
     1
100
AcDbDimStyleTable
  0
DIMSTYLE
105
27
330
A
100
AcDbSymbolTableRecord
100
AcDbDimStyleTableRecord
  2
Standard
 70
     0
178
     0
340
11
  0
ENDTAB
  0
TABLE
  2
BLOCK_RECORD
  5
1
330
0
100
AcDbSymbolTable
 70
     1
  0
BLOCK_RECORD
  5
1F
330
1
100
AcDbSymbolTableRecord
100
AcDbBlockTableRecord
  2
*Model_Space
340
22
 70
     0
280
     1
281
     0
  0
BLOCK_RECORD
  5
1B
330
1
100
AcDbSymbolTableRecord
100
AcDbBlockTableRecord
  2
*Paper_Space
340
1E
 70
     0
280
     1
281
     0
  0
BLOCK_RECORD
  5
23
330
1
100
AcDbSymbolTableRecord
100
AcDbBlockTableRecord
  2
*Paper_Space0
340
26
 70
     0
280
     1
281
     0
  0
ENDTAB
  0
ENDSEC
  0
SECTION
  2
BLOCKS
  0
BLOCK
  5
20
330
1F
100
AcDbEntity
  8
0
100
AcDbBlockBegin
  2
*Model_Space
 70
     0
 10
0.0
 20
0.0
 30
0.0
  3
*Model_Space
  1

  0
ENDBLK
  5
21
330
1F
100
AcDbEntity
  8
0
100
AcDbBlockEnd
  0
BLOCK
  5
1C
330
1B
100
AcDbEntity
 67
     1
  8
0
100
AcDbBlockBegin
  2
*Paper_Space
 70
     0
 10
0.0
 20
0.0
 30
0.0
  3
*Paper_Space
  1

  0
ENDBLK
  5
1D
330
1B
100
AcDbEntity
 67
     1
  8
0
100
AcDbBlockEnd
  0
BLOCK
  5
24
330
23
100
AcDbEntity
  8
0
100
AcDbBlockBegin
  2
*Paper_Space0
 70
     0
 10
0.0
 20
0.0
 30
0.0
  3
*Paper_Space0
  1

  0
ENDBLK
  5
25
330
23
100
AcDbEntity
  8
0
100
AcDbBlockEnd
  0
ENDSEC
  0
SECTION
  2
ENTITIES
  0
SPLINE
  5
41
330
1F
100
AcDbEntity
  8
layer 1
100
AcDbSpline
210
0.0
220
0.0
230
1.0
 70
    11
 71
     3
 72
    20
 73
    16
 74
     0
 42
0.0000000001
 43
0.0000000001
 12
1.0
 22
0.0
 32
0.0
 13
1.0
 23
0.0
 33
0.0
 40
0.0
 40
0.0
 40
0.0
 40
0.0
 40
0.2
 40
0.2
 40
0.2
 40
0.2
 40
0.4
 40
0.4
 40
0.4
 40
0.4
 40
0.6
 40
0.6
 40
0.6
 40
0.6
 40
1.0
 40
1.0
 40
1.0
 40
1.0
 10
-187.2041
 20
-115.1348
 30
0.0
 10
-187.2041
 20
-115.1348
 30
0.0
 10
-63.617
 20
-115.1348
 30
0.0
 10
-63.617
 20
-115.1348
 30
0.0
 10
-63.617
 20
-115.1348
 30
0.0
 10
-63.617
 20
-115.1348
 30
0.0
 10
-63.617
 20
131.7185
 30
0.0
 10
-63.617
 20
131.7185
 30
0.0
 10
-63.617
 20
131.7185
 30
0.0
 10
-63.617
 20
131.7185
 30
0.0
 10
-187.2041
 20
131.7185
 30
0.0
 10
-187.2041
 20
131.7185
 30
0.0
 10
-187.2041
 20
131.7185
 30
0.0
 10
-187.2041
 20
131.7185
 30
0.0
 10
-187.2041
 20
-115.1348
 30
0.0
 10
-187.2041
 20
-115.1348
 30
0.0
  0
SPLINE
  5
42
330
1F
100
AcDbEntity
  8
layer 1
 62
     7
100
AcDbSpline
210
0.0
220
0.0
230
1.0
 70
    11
 71
     3
 72
    20
 73
    16
 74
     0
 42
0.0000000001
 43
0.0000000001
 12
1.0
 22
0.0
 32
0.0
 13
1.0
 23
0.0
 33
0.0
 40
0.0
 40
0.0
 40
0.0
 40
0.0
 40
0.2
 40
0.2
 40
0.2
 40
0.2
 40
0.4
 40
0.4
 40
0.4
 40
0.4
 40
0.6
 40
0.6
 40
0.6
 40
0.6
 40
1.0
 40
1.0
 40
1.0
 40
1.0
 10
-170.9521
 20
105.9759
 30
0.0
 10
-170.9521
 20
105.9759
 30
0.0
 10
-164.7061
 20
105.9759
 30
0.0
 10
-164.7061
 20
105.9759
 30
0.0
 10
-164.7061
 20
105.9759
 30
0.0
 10
-164.7061
 20
105.9759
 30
0.0
 10
-164.7061
 20
99.7299
 30
0.0
 10
-164.7061
 20
99.7299
 30
0.0
 10
-164.7061
 20
99.7299
 30
0.0
 10
-164.7061
 20
99.7299
 30
0.0
 10
-170.9521
 20
99.7299
 30
0.0
 10
-170.9521
 20
99.7299
 30
0.0
 10
-170.9521
 20
99.7299
 30
0.0
 10
-170.9521
 20
99.7299
 30
0.0
 10
-170.9521
 20
105.9759
 30
0.0
 10
-170.9521
 20
105.9759
 30
0.0
  0
SPLINE
  5
43
330
1F
100
AcDbEntity
  8
layer 1
 62
     7
100
AcDbSpline
210
0.0
220
0.0
230
1.0
 70
    11
 71
     3
 72
    36
 73
    32
 74
     0
 42
0.0000000001
 43
0.0000000001
 12
1.0
 22
0.0
 32
0.0
 13
1.0
 23
0.0
 33
0.0
 40
0.0
 40
0.0
 40
0.0
 40
0.0
 40
0.1111111111111111
 40
0.1111111111111111
 40
0.1111111111111111
 40
0.1111111111111111
 40
0.2222222222222222
 40
0.2222222222222222
 40
0.2222222222222222
 40
0.2222222222222222
 40
0.3333333333333333
 40
0.3333333333333333
 40
0.3333333333333333
 40
0.3333333333333333
 40
0.4444444444444444
 40
0.4444444444444444
 40
0.4444444444444444
 40
0.4444444444444444
 40
0.5555555555555556
 40
0.5555555555555556
 40
0.5555555555555556
 40
0.5555555555555556
 40
0.6666666666666666
 40
0.6666666666666666
 40
0.6666666666666666
 40
0.6666666666666666
 40
0.7777777777777778
 40
0.7777777777777778
 40
0.7777777777777778
 40
0.7777777777777778
 40
1.0
 40
1.0
 40
1.0
 40
1.0
 10
-179.9066
 20
124.2165
 30
0.0
 10
-179.9066
 20
124.2165
 30
0.0
 10
-146.6313
 20
124.2165
 30
0.0
 10
-146.6313
 20
124.2165
 30
0.0
 10
-146.6313
 20
124.2165
 30
0.0
 10
-146.6313
 20
124.2165
 30
0.0
 10
-146.6313
 20
90.7501
 30
0.0
 10
-146.6313
 20
90.7501
 30
0.0
 10
-146.6313
 20
90.7501
 30
0.0
 10
-146.6313
 20
90.7501
 30
0.0
 10
-151.0533
 20
90.7499
 30
0.0
 10
-151.0533
 20
90.7499
 30
0.0
 10
-151.0533
 20
90.7499
 30
0.0
 10
-151.0533
 20
90.7499
 30
0.0
 10
-151.0533
 20
119.4629
 30
0.0
 10
-151.0533
 20
119.4629
 30
0.0
 10
-151.0533
 20
119.4629
 30
0.0
 10
-151.0533
 20
119.4629
 30
0.0
 10
-175.3741
 20
119.4629
 30
0.0
 10
-175.3741
 20
119.4629
 30
0.0
 10
-175.3741
 20
119.4629
 30
0.0
 10
-175.3741
 20
119.4629
 30
0.0
 10
-175.3741
 20
110.5636
 30
0.0
 10
-175.3741
 20
110.5636
 30
0.0
 10
-175.3741
 20
110.5636
 30
0.0
 10
-175.3741
 20
110.5636
 30
0.0
 10
-179.9066
 20
110.5636
 30
0.0
 10
-179.9066
 20
110.5636
 30
0.0
 10
-179.9066
 20
110.5636
 30
0.0
 10
-179.9066
 20
110.5636
 30
0.0
 10
-179.9066
 20
124.2165
 30
0.0
 10
-179.9066
 20
124.2165
 30
0.0
  0
SPLINE
  5
44
330
1F
100
AcDbEntity
  8
layer 1
 62
     7
100
AcDbSpline
210
0.0
220
0.0
230
1.0
 70
    11
 71
     3
 72
    44
 73
    40
 74
     0
 42
0.0000000001
 43
0.0000000001
 12
1.0
 22
0.0
 32
0.0
 13
1.0
 23
0.0
 33
0.0
 40
0.0
 40
0.0
 40
0.0
 40
0.0
 40
0.0909090909090909
 40
0.0909090909090909
 40
0.0909090909090909
 40
0.0909090909090909
 40
0.1818181818181818
 40
0.1818181818181818
 40
0.1818181818181818
 40
0.1818181818181818
 40
0.2727272727272727
 40
0.2727272727272727
 40
0.2727272727272727
 40
0.2727272727272727
 40
0.3636363636363636
 40
0.3636363636363636
 40
0.3636363636363636
 40
0.3636363636363636
 40
0.4545454545454545
 40
0.4545454545454545
 40
0.4545454545454545
 40
0.4545454545454545
 40
0.5454545454545454
 40
0.5454545454545454
 40
0.5454545454545454
 40
0.5454545454545454
 40
0.6363636363636364
 40
0.6363636363636364
 40
0.6363636363636364
 40
0.6363636363636364
 40
0.7272727272727273
 40
0.7272727272727273
 40
0.7272727272727273
 40
0.7272727272727273
 40
0.8181818181818182
 40
0.8181818181818182
 40
0.8181818181818182
 40
0.8181818181818182
 40
1.0
 40
1.0
 40
1.0
 40
1.0
 10
-179.9066
 20
90.6671
 30
0.0
 10
-179.9066
 20
90.6671
 30
0.0
 10
-155.6893
 20
90.6671
 30
0.0
 10
-155.6893
 20
90.6671
 30
0.0
 10
-155.6893
 20
90.6671
 30
0.0
 10
-155.6893
 20
90.6671
 30
0.0
 10
-155.6893
 20
115.0303
 30
0.0
 10
-155.6893
 20
115.0303
 30
0.0
 10
-155.6893
 20
115.0303
 30
0.0
 10
-155.6893
 20
115.0303
 30
0.0
 10
-171.0537
 20
115.0305
 30
0.0
 10
-171.0537
 20
115.0305
 30
0.0
 10
-171.0537
 20
115.0305
 30
0.0
 10
-171.0537
 20
115.0305
 30
0.0
 10
-171.0823
 20
110.4765
 30
0.0
 10
-171.0823
 20
110.4765
 30
0.0
 10
-171.0823
 20
110.4765
 30
0.0
 10
-171.0823
 20
110.4765
 30
0.0
 10
-160.1112
 20
110.4375
 30
0.0
 10
-160.1112
 20
110.4375
 30
0.0
 10
-160.1112
 20
110.4375
 30
0.0
 10
-160.1112
 20
110.4375
 30
0.0
 10
-160.1112
 20
95.4209
 30
0.0
 10
-160.1112
 20
95.4209
 30
0.0
 10
-160.1112
 20
95.4209
 30
0.0
 10
-160.1112
 20
95.4209
 30
0.0
 10
-175.3741
 20
95.4209
 30
0.0
 10
-175.3741
 20
95.4209
 30
0.0
 10
-175.3741
 20
95.4209
 30
0.0
 10
-175.3741
 20
95.4209
 30
0.0
 10
-175.3741
 20
106.0318
 30
0.0
 10
-175.3741
 20
106.0318
 30
0.0
 10
-175.3741
 20
106.0318
 30
0.0
 10
-175.3741
 20
106.0318
 30
0.0
 10
-179.9066
 20
106.0318
 30
0.0
 10
-179.9066
 20
106.0318
 30
0.0
 10
-179.9066
 20
106.0318
 30
0.0
 10
-179.9066
 20
106.0318
 30
0.0
 10
-179.9066
 20
90.6671
 30
0.0
 10
-179.9066
 20
90.6671
 30
0.0
  0
SPLINE
  5
45
330
1F
100
AcDbEntity
  8
layer 1
 62
     7
100
AcDbSpline
210
0.0
220
0.0
230
1.0
 70
    11
 71
     3
 72
    20
 73
    16
 74
     0
 42
0.0000000001
 43
0.0000000001
 12
1.0
 22
0.0
 32
0.0
 13
1.0
 23
0.0
 33
0.0
 40
0.0
 40
0.0
 40
0.0
 40
0.0
 40
0.2
 40
0.2
 40
0.2
 40
0.2
 40
0.4
 40
0.4
 40
0.4
 40
0.4
 40
0.6
 40
0.6
 40
0.6
 40
0.6
 40
1.0
 40
1.0
 40
1.0
 40
1.0
 10
-117.8162
 20
105.9759
 30
0.0
 10
-117.8162
 20
105.9759
 30
0.0
 10
-124.0622
 20
105.9759
 30
0.0
 10
-124.0622
 20
105.9759
 30
0.0
 10
-124.0622
 20
105.9759
 30
0.0
 10
-124.0622
 20
105.9759
 30
0.0
 10
-124.0622
 20
99.7299
 30
0.0
 10
-124.0622
 20
99.7299
 30
0.0
 10
-124.0622
 20
99.7299
 30
0.0
 10
-124.0622
 20
99.7299
 30
0.0
 10
-117.8162
 20
99.7299
 30
0.0
 10
-117.8162
 20
99.7299
 30
0.0
 10
-117.8162
 20
99.7299
 30
0.0
 10
-117.8162
 20
99.7299
 30
0.0
 10
-117.8162
 20
105.9759
 30
0.0
 10
-117.8162
 20
105.9759
 30
0.0
  0
SPLINE
  5
46
330
1F
100
AcDbEntity
  8
layer 1
 62
     7
100
AcDbSpline
210
0.0
220
0.0
230
1.0
 70
    11
 71
     3
 72
    36
 73
    32
 74
     0
 42
0.0000000001
 43
0.0000000001
 12
1.0
 22
0.0
 32
0.0
 13
1.0
 23
0.0
 33
0.0
 40
0.0
 40
0.0
 40
0.0
 40
0.0
 40
0.1111111111111111
 40
0.1111111111111111
 40
0.1111111111111111
 40
0.1111111111111111
 40
0.2222222222222222
 40
0.2222222222222222
 40
0.2222222222222222
 40
0.2222222222222222
 40
0.3333333333333333
 40
0.3333333333333333
 40
0.3333333333333333
 40
0.3333333333333333
 40
0.4444444444444444
 40
0.4444444444444444
 40
0.4444444444444444
 40
0.4444444444444444
 40
0.5555555555555556
 40
0.5555555555555556
 40
0.5555555555555556
 40
0.5555555555555556
 40
0.6666666666666666
 40
0.6666666666666666
 40
0.6666666666666666
 40
0.6666666666666666
 40
0.7777777777777778
 40
0.7777777777777778
 40
0.7777777777777778
 40
0.7777777777777778
 40
1.0
 40
1.0
 40
1.0
 40
1.0
 10
-108.8617
 20
124.2165
 30
0.0
 10
-108.8617
 20
124.2165
 30
0.0
 10
-142.137
 20
124.2165
 30
0.0
 10
-142.137
 20
124.2165
 30
0.0
 10
-142.137
 20
124.2165
 30
0.0
 10
-142.137
 20
124.2165
 30
0.0
 10
-142.137
 20
90.7501
 30
0.0
 10
-142.137
 20
90.7501
 30
0.0
 10
-142.137
 20
90.7501
 30
0.0
 10
-142.137
 20
90.7501
 30
0.0
 10
-137.7151
 20
90.7499
 30
0.0
 10
-137.7151
 20
90.7499
 30
0.0
 10
-137.7151
 20
90.7499
 30
0.0
 10
-137.7151
 20
90.7499
 30
0.0
 10
-137.7151
 20
119.4629
 30
0.0
 10
-137.7151
 20
119.4629
 30
0.0
 10
-137.7151
 20
119.4629
 30
0.0
 10
-137.7151
 20
119.4629
 30
0.0
 10
-113.3942
 20
119.4629
 30
0.0
 10
-113.3942
 20
119.4629
 30
0.0
 10
-113.3942
 20
119.4629
 30
0.0
 10
-113.3942
 20
119.4629
 30
0.0
 10
-113.3942
 20
110.5636
 30
0.0
 10
-113.3942
 20
110.5636
 30
0.0
 10
-113.3942
 20
110.5636
 30
0.0
 10
-113.3942
 20
110.5636
 30
0.0
 10
-108.8617
 20
110.5636
 30
0.0
 10
-108.8617
 20
110.5636
 30
0.0
 10
-108.8617
 20
110.5636
 30
0.0
 10
-108.8617
 20
110.5636
 30
0.0
 10
-108.8617
 20
124.2165
 30
0.0
 10
-108.8617
 20
124.2165
 30
0.0
  0
SPLINE
  5
47
330
1F
100
AcDbEntity
  8
layer 1
 62
     7
100
AcDbSpline
210
0.0
220
0.0
230
1.0
 70
    11
 71
     3
 72
    44
 73
    40
 74
     0
 42
0.0000000001
 43
0.0000000001
 12
1.0
 22
0.0
 32
0.0
 13
1.0
 23
0.0
 33
0.0
 40
0.0
 40
0.0
 40
0.0
 40
0.0
 40
0.0909090909090909
 40
0.0909090909090909
 40
0.0909090909090909
 40
0.0909090909090909
 40
0.1818181818181818
 40
0.1818181818181818
 40
0.1818181818181818
 40
0.1818181818181818
 40
0.2727272727272727
 40
0.2727272727272727
 40
0.2727272727272727
 40
0.2727272727272727
 40
0.3636363636363636
 40
0.3636363636363636
 40
0.3636363636363636
 40
0.3636363636363636
 40
0.4545454545454545
 40
0.4545454545454545
 40
0.4545454545454545
 40
0.4545454545454545
 40
0.5454545454545454
 40
0.5454545454545454
 40
0.5454545454545454
 40
0.5454545454545454
 40
0.6363636363636364
 40
0.6363636363636364
 40
0.6363636363636364
 40
0.6363636363636364
 40
0.7272727272727273
 40
0.7272727272727273
 40
0.7272727272727273
 40
0.7272727272727273
 40
0.8181818181818182
 40
0.8181818181818182
 40
0.8181818181818182
 40
0.8181818181818182
 40
1.0
 40
1.0
 40
1.0
 40
1.0
 10
-108.8617
 20
90.6671
 30
0.0
 10
-108.8617
 20
90.6671
 30
0.0
 10
-133.0791
 20
90.6671
 30
0.0
 10
-133.0791
 20
90.6671
 30
0.0
 10
-133.0791
 20
90.6671
 30
0.0
 10
-133.0791
 20
90.6671
 30
0.0
 10
-133.0791
 20
115.0303
 30
0.0
 10
-133.0791
 20
115.0303
 30
0.0
 10
-133.0791
 20
115.0303
 30
0.0
 10
-133.0791
 20
115.0303
 30
0.0
 10
-117.7147
 20
115.0305
 30
0.0
 10
-117.7147
 20
115.0305
 30
0.0
 10
-117.7147
 20
115.0305
 30
0.0
 10
-117.7147
 20
115.0305
 30
0.0
 10
-117.686
 20
110.4765
 30
0.0
 10
-117.686
 20
110.4765
 30
0.0
 10
-117.686
 20
110.4765
 30
0.0
 10
-117.686
 20
110.4765
 30
0.0
 10
-128.6571
 20
110.4375
 30
0.0
 10
-128.6571
 20
110.4375
 30
0.0
 10
-128.6571
 20
110.4375
 30
0.0
 10
-128.6571
 20
110.4375
 30
0.0
 10
-128.6571
 20
95.4209
 30
0.0
 10
-128.6571
 20
95.4209
 30
0.0
 10
-128.6571
 20
95.4209
 30
0.0
 10
-128.6571
 20
95.4209
 30
0.0
 10
-113.3942
 20
95.4209
 30
0.0
 10
-113.3942
 20
95.4209
 30
0.0
 10
-113.3942
 20
95.4209
 30
0.0
 10
-113.3942
 20
95.4209
 30
0.0
 10
-113.3942
 20
106.0318
 30
0.0
 10
-113.3942
 20
106.0318
 30
0.0
 10
-113.3942
 20
106.0318
 30
0.0
 10
-113.3942
 20
106.0318
 30
0.0
 10
-108.8617
 20
106.0318
 30
0.0
 10
-108.8617
 20
106.0318
 30
0.0
 10
-108.8617
 20
106.0318
 30
0.0
 10
-108.8617
 20
106.0318
 30
0.0
 10
-108.8617
 20
90.6671
 30
0.0
 10
-108.8617
 20
90.6671
 30
0.0
  0
SPLINE
  5
48
330
1F
100
AcDbEntity
  8
layer 1
 62
     7
100
AcDbSpline
210
0.0
220
0.0
230
1.0
 70
    11
 71
     3
 72
    20
 73
    16
 74
     0
 42
0.0000000001
 43
0.0000000001
 12
1.0
 22
0.0
 32
0.0
 13
1.0
 23
0.0
 33
0.0
 40
0.0
 40
0.0
 40
0.0
 40
0.0
 40
0.2
 40
0.2
 40
0.2
 40
0.2
 40
0.4
 40
0.4
 40
0.4
 40
0.4
 40
0.6
 40
0.6
 40
0.6
 40
0.6
 40
1.0
 40
1.0
 40
1.0
 40
1.0
 10
-86.264
 20
61.8219
 30
0.0
 10
-86.264
 20
61.8219
 30
0.0
 10
-86.264
 20
68.0679
 30
0.0
 10
-86.264
 20
68.0679
 30
0.0
 10
-86.264
 20
68.0679
 30
0.0
 10
-86.264
 20
68.0679
 30
0.0
 10
-80.018
 20
68.0679
 30
0.0
 10
-80.018
 20
68.0679
 30
0.0
 10
-80.018
 20
68.0679
 30
0.0
 10
-80.018
 20
68.0679
 30
0.0
 10
-80.018
 20
61.8219
 30
0.0
 10
-80.018
 20
61.8219
 30
0.0
 10
-80.018
 20
61.8219
 30
0.0
 10
-80.018
 20
61.8219
 30
0.0
 10
-86.264
 20
61.8219
 30
0.0
 10
-86.264
 20
61.8219
 30
0.0
  0
SPLINE
  5
49
330
1F
100
AcDbEntity
  8
layer 1
 62
     7
100
AcDbSpline
210
0.0
220
0.0
230
1.0
 70
    11
 71
     3
 72
    36
 73
    32
 74
     0
 42
0.0000000001
 43
0.0000000001
 12
1.0
 22
0.0
 32
0.0
 13
1.0
 23
0.0
 33
0.0
 40
0.0
 40
0.0
 40
0.0
 40
0.0
 40
0.1111111111111111
 40
0.1111111111111111
 40
0.1111111111111111
 40
0.1111111111111111
 40
0.2222222222222222
 40
0.2222222222222222
 40
0.2222222222222222
 40
0.2222222222222222
 40
0.3333333333333333
 40
0.3333333333333333
 40
0.3333333333333333
 40
0.3333333333333333
 40
0.4444444444444444
 40
0.4444444444444444
 40
0.4444444444444444
 40
0.4444444444444444
 40
0.5555555555555556
 40
0.5555555555555556
 40
0.5555555555555556
 40
0.5555555555555556
 40
0.6666666666666666
 40
0.6666666666666666
 40
0.6666666666666666
 40
0.6666666666666666
 40
0.7777777777777778
 40
0.7777777777777778
 40
0.7777777777777778
 40
0.7777777777777778
 40
1.0
 40
1.0
 40
1.0
 40
1.0
 10
-104.5045
 20
52.8674
 30
0.0
 10
-104.5045
 20
52.8674
 30
0.0
 10
-104.5045
 20
86.1427
 30
0.0
 10
-104.5045
 20
86.1427
 30
0.0
 10
-104.5045
 20
86.1427
 30
0.0
 10
-104.5045
 20
86.1427
 30
0.0
 10
-71.0381
 20
86.1427
 30
0.0
 10
-71.0381
 20
86.1427
 30
0.0
 10
-71.0381
 20
86.1427
 30
0.0
 10
-71.0381
 20
86.1427
 30
0.0
 10
-71.038
 20
81.7208
 30
0.0
 10
-71.038
 20
81.7208
 30
0.0
 10
-71.038
 20
81.7208
 30
0.0
 10
-71.038
 20
81.7208
 30
0.0
 10
-99.7509
 20
81.7208
 30
0.0
 10
-99.7509
 20
81.7208
 30
0.0
 10
-99.7509
 20
81.7208
 30
0.0
 10
-99.7509
 20
81.7208
 30
0.0
 10
-99.7509
 20
57.4
 30
0.0
 10
-99.7509
 20
57.4
 30
0.0
 10
-99.7509
 20
57.4
 30
0.0
 10
-99.7509
 20
57.4
 30
0.0
 10
-90.8517
 20
57.4
 30
0.0
 10
-90.8517
 20
57.4
 30
0.0
 10
-90.8517
 20
57.4
 30
0.0
 10
-90.8517
 20
57.4
 30
0.0
 10
-90.8517
 20
52.8674
 30
0.0
 10
-90.8517
 20
52.8674
 30
0.0
 10
-90.8517
 20
52.8674
 30
0.0
 10
-90.8517
 20
52.8674
 30
0.0
 10
-104.5045
 20
52.8674
 30
0.0
 10
-104.5045
 20
52.8674
 30
0.0
  0
SPLINE
  5
4A
330
1F
100
AcDbEntity
  8
layer 1
 62
     7
100
AcDbSpline
210
0.0
220
0.0
230
1.0
 70
    11
 71
     3
 72
    44
 73
    40
 74
     0
 42
0.0000000001
 43
0.0000000001
 12
1.0
 22
0.0
 32
0.0
 13
1.0
 23
0.0
 33
0.0
 40
0.0
 40
0.0
 40
0.0
 40
0.0
 40
0.0909090909090909
 40
0.0909090909090909
 40
0.0909090909090909
 40
0.0909090909090909
 40
0.1818181818181818
 40
0.1818181818181818
 40
0.1818181818181818
 40
0.1818181818181818
 40
0.2727272727272727
 40
0.2727272727272727
 40
0.2727272727272727
 40
0.2727272727272727
 40
0.3636363636363636
 40
0.3636363636363636
 40
0.3636363636363636
 40
0.3636363636363636
 40
0.4545454545454545
 40
0.4545454545454545
 40
0.4545454545454545
 40
0.4545454545454545
 40
0.5454545454545454
 40
0.5454545454545454
 40
0.5454545454545454
 40
0.5454545454545454
 40
0.6363636363636364
 40
0.6363636363636364
 40
0.6363636363636364
 40
0.6363636363636364
 40
0.7272727272727273
 40
0.7272727272727273
 40
0.7272727272727273
 40
0.7272727272727273
 40
0.8181818181818182
 40
0.8181818181818182
 40
0.8181818181818182
 40
0.8181818181818182
 40
1.0
 40
1.0
 40
1.0
 40
1.0
 10
-70.9552
 20
52.8674
 30
0.0
 10
-70.9552
 20
52.8674
 30
0.0
 10
-70.9552
 20
77.0848
 30
0.0
 10
-70.9552
 20
77.0848
 30
0.0
 10
-70.9552
 20
77.0848
 30
0.0
 10
-70.9552
 20
77.0848
 30
0.0
 10
-95.3184
 20
77.0848
 30
0.0
 10
-95.3184
 20
77.0848
 30
0.0
 10
-95.3184
 20
77.0848
 30
0.0
 10
-95.3184
 20
77.0848
 30
0.0
 10
-95.3185
 20
61.7204
 30
0.0
 10
-95.3185
 20
61.7204
 30
0.0
 10
-95.3185
 20
61.7204
 30
0.0
 10
-95.3185
 20
61.7204
 30
0.0
 10
-90.7645
 20
61.6917
 30
0.0
 10
-90.7645
 20
61.6917
 30
0.0
 10
-90.7645
 20
61.6917
 30
0.0
 10
-90.7645
 20
61.6917
 30
0.0
 10
-90.7256
 20
72.6628
 30
0.0
 10
-90.7256
 20
72.6628
 30
0.0
 10
-90.7256
 20
72.6628
 30
0.0
 10
-90.7256
 20
72.6628
 30
0.0
 10
-75.7089
 20
72.6628
 30
0.0
 10
-75.7089
 20
72.6628
 30
0.0
 10
-75.7089
 20
72.6628
 30
0.0
 10
-75.7089
 20
72.6628
 30
0.0
 10
-75.7089
 20
57.4
 30
0.0
 10
-75.7089
 20
57.4
 30
0.0
 10
-75.7089
 20
57.4
 30
0.0
 10
-75.7089
 20
57.4
 30
0.0
 10
-86.3198
 20
57.4
 30
0.0
 10
-86.3198
 20
57.4
 30
0.0
 10
-86.3198
 20
57.4
 30
0.0
 10
-86.3198
 20
57.4
 30
0.0
 10
-86.3198
 20
52.8674
 30
0.0
 10
-86.3198
 20
52.8674
 30
0.0
 10
-86.3198
 20
52.8674
 30
0.0
 10
-86.3198
 20
52.8674
 30
0.0
 10
-70.9552
 20
52.8674
 30
0.0
 10
-70.9552
 20
52.8674
 30
0.0
  0
SPLINE
  5
4B
330
1F
100
AcDbEntity
  8
layer 1
 62
     7
100
AcDbSpline
210
0.0
220
0.0
230
1.0
 70
    11
 71
     3
 72
    20
 73
    16
 74
     0
 42
0.0000000001
 43
0.0000000001
 12
1.0
 22
0.0
 32
0.0
 13
1.0
 23
0.0
 33
0.0
 40
0.0
 40
0.0
 40
0.0
 40
0.0
 40
0.2
 40
0.2
 40
0.2
 40
0.2
 40
0.4
 40
0.4
 40
0.4
 40
0.4
 40
0.6
 40
0.6
 40
0.6
 40
0.6
 40
1.0
 40
1.0
 40
1.0
 40
1.0
 10
-95.1521
 20
99.7586
 30
0.0
 10
-95.1521
 20
99.7586
 30
0.0
 10
-95.1521
 20
106.0046
 30
0.0
 10
-95.1521
 20
106.0046
 30
0.0
 10
-95.1521
 20
106.0046
 30
0.0
 10
-95.1521
 20
106.0046
 30
0.0
 10
-80.018
 20
106.0046
 30
0.0
 10
-80.018
 20
106.0046
 30
0.0
 10
-80.018
 20
106.0046
 30
0.0
 10
-80.018
 20
106.0046
 30
0.0
 10
-80.018
 20
99.7586
 30
0.0
 10
-80.018
 20
99.7586
 30
0.0
 10
-80.018
 20
99.7586
 30
0.0
 10
-80.018
 20
99.7586
 30
0.0
 10
-95.1521
 20
99.7586
 30
0.0
 10
-95.1521
 20
99.7586
 30
0.0
  0
SPLINE
  5
4C
330
1F
100
AcDbEntity
  8
layer 1
 62
     7
100
AcDbSpline
210
0.0
220
0.0
230
1.0
 70
    11
 71
     3
 72
    28
 73
    24
 74
     0
 42
0.0000000001
 43
0.0000000001
 12
1.0
 22
0.0
 32
0.0
 13
1.0
 23
0.0
 33
0.0
 40
0.0
 40
0.0
 40
0.0
 40
0.0
 40
0.1428571428571428
 40
0.1428571428571428
 40
0.1428571428571428
 40
0.1428571428571428
 40
0.2857142857142857
 40
0.2857142857142857
 40
0.2857142857142857
 40
0.2857142857142857
 40
0.4285714285714285
 40
0.4285714285714285
 40
0.4285714285714285
 40
0.4285714285714285
 40
0.5714285714285714
 40
0.5714285714285714
 40
0.5714285714285714
 40
0.5714285714285714
 40
0.7142857142857143
 40
0.7142857142857143
 40
0.7142857142857143
 40
0.7142857142857143
 40
1.0
 40
1.0
 40
1.0
 40
1.0
 10
-104.5045
 20
110.5469
 30
0.0
 10
-104.5045
 20
110.5469
 30
0.0
 10
-104.5045
 20
124.0794
 30
0.0
 10
-104.5045
 20
124.0794
 30
0.0
 10
-104.5045
 20
124.0794
 30
0.0
 10
-104.5045
 20
124.0794
 30
0.0
 10
-71.0381
 20
124.0794
 30
0.0
 10
-71.0381
 20
124.0794
 30
0.0
 10
-71.0381
 20
124.0794
 30
0.0
 10
-71.0381
 20
124.0794
 30
0.0
 10
-71.038
 20
119.6574
 30
0.0
 10
-71.038
 20
119.6574
 30
0.0
 10
-71.038
 20
119.6574
 30
0.0
 10
-71.038
 20
119.6574
 30
0.0
 10
-99.7509
 20
119.6574
 30
0.0
 10
-99.7509
 20
119.6574
 30
0.0
 10
-99.7509
 20
119.6574
 30
0.0
 10
-99.7509
 20
119.6574
 30
0.0
 10
-99.7509
 20
110.5848
 30
0.0
 10
-99.7509
 20
110.5848
 30
0.0
 10
-99.7509
 20
110.5848
 30
0.0
 10
-99.7509
 20
110.5848
 30
0.0
 10
-104.5045
 20
110.5469
 30
0.0
 10
-104.5045
 20
110.5469
 30
0.0
  0
SPLINE
  5
4D
330
1F
100
AcDbEntity
  8
layer 1
 62
     7
100
AcDbSpline
210
0.0
220
0.0
230
1.0
 70
    11
 71
     3
 72
    44
 73
    40
 74
     0
 42
0.0000000001
 43
0.0000000001
 12
1.0
 22
0.0
 32
0.0
 13
1.0
 23
0.0
 33
0.0
 40
0.0
 40
0.0
 40
0.0
 40
0.0
 40
0.0909090909090909
 40
0.0909090909090909
 40
0.0909090909090909
 40
0.0909090909090909
 40
0.1818181818181818
 40
0.1818181818181818
 40
0.1818181818181818
 40
0.1818181818181818
 40
0.2727272727272727
 40
0.2727272727272727
 40
0.2727272727272727
 40
0.2727272727272727
 40
0.3636363636363636
 40
0.3636363636363636
 40
0.3636363636363636
 40
0.3636363636363636
 40
0.4545454545454545
 40
0.4545454545454545
 40
0.4545454545454545
 40
0.4545454545454545
 40
0.5454545454545454
 40
0.5454545454545454
 40
0.5454545454545454
 40
0.5454545454545454
 40
0.6363636363636364
 40
0.6363636363636364
 40
0.6363636363636364
 40
0.6363636363636364
 40
0.7272727272727273
 40
0.7272727272727273
 40
0.7272727272727273
 40
0.7272727272727273
 40
0.8181818181818182
 40
0.8181818181818182
 40
0.8181818181818182
 40
0.8181818181818182
 40
1.0
 40
1.0
 40
1.0
 40
1.0
 10
-70.9552
 20
90.8041
 30
0.0
 10
-70.9552
 20
90.8041
 30
0.0
 10
-70.9552
 20
115.0214
 30
0.0
 10
-70.9552
 20
115.0214
 30
0.0
 10
-70.9552
 20
115.0214
 30
0.0
 10
-70.9552
 20
115.0214
 30
0.0
 10
-95.3184
 20
115.0214
 30
0.0
 10
-95.3184
 20
115.0214
 30
0.0
 10
-95.3184
 20
115.0214
 30
0.0
 10
-95.3184
 20
115.0214
 30
0.0
 10
-95.2876
 20
110.5414
 30
0.0
 10
-95.2876
 20
110.5414
 30
0.0
 10
-95.2876
 20
110.5414
 30
0.0
 10
-95.2876
 20
110.5414
 30
0.0
 10
-75.7088
 20
110.5203
 30
0.0
 10
-75.7088
 20
110.5203
 30
0.0
 10
-75.7088
 20
110.5203
 30
0.0
 10
-75.7088
 20
110.5203
 30
0.0
 10
-75.7088
 20
95.3366
 30
0.0
 10
-75.7088
 20
95.3366
 30
0.0
 10
-75.7088
 20
95.3366
 30
0.0
 10
-75.7088
 20
95.3366
 30
0.0
 10
-99.7356
 20
95.3366
 30
0.0
 10
-99.7356
 20
95.3366
 30
0.0
 10
-99.7356
 20
95.3366
 30
0.0
 10
-99.7356
 20
95.3366
 30
0.0
 10
-99.7378
 20
106.0341
 30
0.0
 10
-99.7378
 20
106.0341
 30
0.0
 10
-99.7378
 20
106.0341
 30
0.0
 10
-99.7378
 20
106.0341
 30
0.0
 10
-104.3427
 20
106.0341
 30
0.0
 10
-104.3427
 20
106.0341
 30
0.0
 10
-104.3427
 20
106.0341
 30
0.0
 10
-104.3427
 20
106.0341
 30
0.0
 10
-104.3427
 20
90.8041
 30
0.0
 10
-104.3427
 20
90.8041
 30
0.0
 10
-104.3427
 20
90.8041
 30
0.0
 10
-104.3427
 20
90.8041
 30
0.0
 10
-70.9552
 20
90.8041
 30
0.0
 10
-70.9552
 20
90.8041
 30
0.0
  0
SPLINE
  5
4E
330
1F
100
AcDbEntity
  8
layer 1
 62
     7
100
AcDbSpline
210
0.0
220
0.0
230
1.0
 70
    11
 71
     3
 72
    20
 73
    16
 74
     0
 42
0.0000000001
 43
0.0000000001
 12
1.0
 22
0.0
 32
0.0
 13
1.0
 23
0.0
 33
0.0
 40
0.0
 40
0.0
 40
0.0
 40
0.0
 40
0.2
 40
0.2
 40
0.2
 40
0.2
 40
0.4
 40
0.4
 40
0.4
 40
0.4
 40
0.6
 40
0.6
 40
0.6
 40
0.6
 40
1.0
 40
1.0
 40
1.0
 40
1.0
 10
-170.9521
 20
-45.3904
 30
0.0
 10
-170.9521
 20
-45.3904
 30
0.0
 10
-164.7061
 20
-45.3904
 30
0.0
 10
-164.7061
 20
-45.3904
 30
0.0
 10
-164.7061
 20
-45.3904
 30
0.0
 10
-164.7061
 20
-45.3904
 30
0.0
 10
-164.7061
 20
-51.6364
 30
0.0
 10
-164.7061
 20
-51.6364
 30
0.0
 10
-164.7061
 20
-51.6364
 30
0.0
 10
-164.7061
 20
-51.6364
 30
0.0
 10
-170.9521
 20
-51.6364
 30
0.0
 10
-170.9521
 20
-51.6364
 30
0.0
 10
-170.9521
 20
-51.6364
 30
0.0
 10
-170.9521
 20
-51.6364
 30
0.0
 10
-170.9521
 20
-45.3904
 30
0.0
 10
-170.9521
 20
-45.3904
 30
0.0
  0
SPLINE
  5
4F
330
1F
100
AcDbEntity
  8
layer 1
 62
     7
100
AcDbSpline
210
0.0
220
0.0
230
1.0
 70
    11
 71
     3
 72
    36
 73
    32
 74
     0
 42
0.0000000001
 43
0.0000000001
 12
1.0
 22
0.0
 32
0.0
 13
1.0
 23
0.0
 33
0.0
 40
0.0
 40
0.0
 40
0.0
 40
0.0
 40
0.1111111111111111
 40
0.1111111111111111
 40
0.1111111111111111
 40
0.1111111111111111
 40
0.2222222222222222
 40
0.2222222222222222
 40
0.2222222222222222
 40
0.2222222222222222
 40
0.3333333333333333
 40
0.3333333333333333
 40
0.3333333333333333
 40
0.3333333333333333
 40
0.4444444444444444
 40
0.4444444444444444
 40
0.4444444444444444
 40
0.4444444444444444
 40
0.5555555555555556
 40
0.5555555555555556
 40
0.5555555555555556
 40
0.5555555555555556
 40
0.6666666666666666
 40
0.6666666666666666
 40
0.6666666666666666
 40
0.6666666666666666
 40
0.7777777777777778
 40
0.7777777777777778
 40
0.7777777777777778
 40
0.7777777777777778
 40
1.0
 40
1.0
 40
1.0
 40
1.0
 10
-179.9066
 20
-27.1498
 30
0.0
 10
-179.9066
 20
-27.1498
 30
0.0
 10
-146.6313
 20
-27.1498
 30
0.0
 10
-146.6313
 20
-27.1498
 30
0.0
 10
-146.6313
 20
-27.1498
 30
0.0
 10
-146.6313
 20
-27.1498
 30
0.0
 10
-146.6313
 20
-60.6162
 30
0.0
 10
-146.6313
 20
-60.6162
 30
0.0
 10
-146.6313
 20
-60.6162
 30
0.0
 10
-146.6313
 20
-60.6162
 30
0.0
 10
-151.0533
 20
-60.6164
 30
0.0
 10
-151.0533
 20
-60.6164
 30
0.0
 10
-151.0533
 20
-60.6164
 30
0.0
 10
-151.0533
 20
-60.6164
 30
0.0
 10
-151.0533
 20
-31.9034
 30
0.0
 10
-151.0533
 20
-31.9034
 30
0.0
 10
-151.0533
 20
-31.9034
 30
0.0
 10
-151.0533
 20
-31.9034
 30
0.0
 10
-175.3741
 20
-31.9034
 30
0.0
 10
-175.3741
 20
-31.9034
 30
0.0
 10
-175.3741
 20
-31.9034
 30
0.0
 10
-175.3741
 20
-31.9034
 30
0.0
 10
-175.3741
 20
-40.8027
 30
0.0
 10
-175.3741
 20
-40.8027
 30
0.0
 10
-175.3741
 20
-40.8027
 30
0.0
 10
-175.3741
 20
-40.8027
 30
0.0
 10
-179.9066
 20
-40.8027
 30
0.0
 10
-179.9066
 20
-40.8027
 30
0.0
 10
-179.9066
 20
-40.8027
 30
0.0
 10
-179.9066
 20
-40.8027
 30
0.0
 10
-179.9066
 20
-27.1498
 30
0.0
 10
-179.9066
 20
-27.1498
 30
0.0
  0
SPLINE
  5
50
330
1F
100
AcDbEntity
  8
layer 1
 62
     7
100
AcDbSpline
210
0.0
220
0.0
230
1.0
 70
    11
 71
     3
 72
    44
 73
    40
 74
     0
 42
0.0000000001
 43
0.0000000001
 12
1.0
 22
0.0
 32
0.0
 13
1.0
 23
0.0
 33
0.0
 40
0.0
 40
0.0
 40
0.0
 40
0.0
 40
0.0909090909090909
 40
0.0909090909090909
 40
0.0909090909090909
 40
0.0909090909090909
 40
0.1818181818181818
 40
0.1818181818181818
 40
0.1818181818181818
 40
0.1818181818181818
 40
0.2727272727272727
 40
0.2727272727272727
 40
0.2727272727272727
 40
0.2727272727272727
 40
0.3636363636363636
 40
0.3636363636363636
 40
0.3636363636363636
 40
0.3636363636363636
 40
0.4545454545454545
 40
0.4545454545454545
 40
0.4545454545454545
 40
0.4545454545454545
 40
0.5454545454545454
 40
0.5454545454545454
 40
0.5454545454545454
 40
0.5454545454545454
 40
0.6363636363636364
 40
0.6363636363636364
 40
0.6363636363636364
 40
0.6363636363636364
 40
0.7272727272727273
 40
0.7272727272727273
 40
0.7272727272727273
 40
0.7272727272727273
 40
0.8181818181818182
 40
0.8181818181818182
 40
0.8181818181818182
 40
0.8181818181818182
 40
1.0
 40
1.0
 40
1.0
 40
1.0
 10
-179.9066
 20
-60.6992
 30
0.0
 10
-179.9066
 20
-60.6992
 30
0.0
 10
-155.6893
 20
-60.6992
 30
0.0
 10
-155.6893
 20
-60.6992
 30
0.0
 10
-155.6893
 20
-60.6992
 30
0.0
 10
-155.6893
 20
-60.6992
 30
0.0
 10
-155.6893
 20
-36.336
 30
0.0
 10
-155.6893
 20
-36.336
 30
0.0
 10
-155.6893
 20
-36.336
 30
0.0
 10
-155.6893
 20
-36.336
 30
0.0
 10
-171.0537
 20
-36.3359
 30
0.0
 10
-171.0537
 20
-36.3359
 30
0.0
 10
-171.0537
 20
-36.3359
 30
0.0
 10
-171.0537
 20
-36.3359
 30
0.0
 10
-171.0823
 20
-40.8898
 30
0.0
 10
-171.0823
 20
-40.8898
 30
0.0
 10
-171.0823
 20
-40.8898
 30
0.0
 10
-171.0823
 20
-40.8898
 30
0.0
 10
-160.1112
 20
-40.9288
 30
0.0
 10
-160.1112
 20
-40.9288
 30
0.0
 10
-160.1112
 20
-40.9288
 30
0.0
 10
-160.1112
 20
-40.9288
 30
0.0
 10
-160.1112
 20
-55.9454
 30
0.0
 10
-160.1112
 20
-55.9454
 30
0.0
 10
-160.1112
 20
-55.9454
 30
0.0
 10
-160.1112
 20
-55.9454
 30
0.0
 10
-175.3741
 20
-55.9454
 30
0.0
 10
-175.3741
 20
-55.9454
 30
0.0
 10
-175.3741
 20
-55.9454
 30
0.0
 10
-175.3741
 20
-55.9454
 30
0.0
 10
-175.3741
 20
-45.3345
 30
0.0
 10
-175.3741
 20
-45.3345
 30
0.0
 10
-175.3741
 20
-45.3345
 30
0.0
 10
-175.3741
 20
-45.3345
 30
0.0
 10
-179.9066
 20
-45.3345
 30
0.0
 10
-179.9066
 20
-45.3345
 30
0.0
 10
-179.9066
 20
-45.3345
 30
0.0
 10
-179.9066
 20
-45.3345
 30
0.0
 10
-179.9066
 20
-60.6992
 30
0.0
 10
-179.9066
 20
-60.6992
 30
0.0
  0
SPLINE
  5
51
330
1F
100
AcDbEntity
  8
layer 1
 62
     7
100
AcDbSpline
210
0.0
220
0.0
230
1.0
 70
    11
 71
     3
 72
    20
 73
    16
 74
     0
 42
0.0000000001
 43
0.0000000001
 12
1.0
 22
0.0
 32
0.0
 13
1.0
 23
0.0
 33
0.0
 40
0.0
 40
0.0
 40
0.0
 40
0.0
 40
0.2
 40
0.2
 40
0.2
 40
0.2
 40
0.4
 40
0.4
 40
0.4
 40
0.4
 40
0.6
 40
0.6
 40
0.6
 40
0.6
 40
1.0
 40
1.0
 40
1.0
 40
1.0
 10
-117.8162
 20
-45.3904
 30
0.0
 10
-117.8162
 20
-45.3904
 30
0.0
 10
-124.0622
 20
-45.3904
 30
0.0
 10
-124.0622
 20
-45.3904
 30
0.0
 10
-124.0622
 20
-45.3904
 30
0.0
 10
-124.0622
 20
-45.3904
 30
0.0
 10
-124.0622
 20
-51.6364
 30
0.0
 10
-124.0622
 20
-51.6364
 30
0.0
 10
-124.0622
 20
-51.6364
 30
0.0
 10
-124.0622
 20
-51.6364
 30
0.0
 10
-117.8162
 20
-51.6364
 30
0.0
 10
-117.8162
 20
-51.6364
 30
0.0
 10
-117.8162
 20
-51.6364
 30
0.0
 10
-117.8162
 20
-51.6364
 30
0.0
 10
-117.8162
 20
-45.3904
 30
0.0
 10
-117.8162
 20
-45.3904
 30
0.0
  0
SPLINE
  5
52
330
1F
100
AcDbEntity
  8
layer 1
 62
     7
100
AcDbSpline
210
0.0
220
0.0
230
1.0
 70
    11
 71
     3
 72
    36
 73
    32
 74
     0
 42
0.0000000001
 43
0.0000000001
 12
1.0
 22
0.0
 32
0.0
 13
1.0
 23
0.0
 33
0.0
 40
0.0
 40
0.0
 40
0.0
 40
0.0
 40
0.1111111111111111
 40
0.1111111111111111
 40
0.1111111111111111
 40
0.1111111111111111
 40
0.2222222222222222
 40
0.2222222222222222
 40
0.2222222222222222
 40
0.2222222222222222
 40
0.3333333333333333
 40
0.3333333333333333
 40
0.3333333333333333
 40
0.3333333333333333
 40
0.4444444444444444
 40
0.4444444444444444
 40
0.4444444444444444
 40
0.4444444444444444
 40
0.5555555555555556
 40
0.5555555555555556
 40
0.5555555555555556
 40
0.5555555555555556
 40
0.6666666666666666
 40
0.6666666666666666
 40
0.6666666666666666
 40
0.6666666666666666
 40
0.7777777777777778
 40
0.7777777777777778
 40
0.7777777777777778
 40
0.7777777777777778
 40
1.0
 40
1.0
 40
1.0
 40
1.0
 10
-108.8617
 20
-27.1498
 30
0.0
 10
-108.8617
 20
-27.1498
 30
0.0
 10
-142.137
 20
-27.1498
 30
0.0
 10
-142.137
 20
-27.1498
 30
0.0
 10
-142.137
 20
-27.1498
 30
0.0
 10
-142.137
 20
-27.1498
 30
0.0
 10
-142.137
 20
-60.6162
 30
0.0
 10
-142.137
 20
-60.6162
 30
0.0
 10
-142.137
 20
-60.6162
 30
0.0
 10
-142.137
 20
-60.6162
 30
0.0
 10
-137.7151
 20
-60.6164
 30
0.0
 10
-137.7151
 20
-60.6164
 30
0.0
 10
-137.7151
 20
-60.6164
 30
0.0
 10
-137.7151
 20
-60.6164
 30
0.0
 10
-137.7151
 20
-31.9034
 30
0.0
 10
-137.7151
 20
-31.9034
 30
0.0
 10
-137.7151
 20
-31.9034
 30
0.0
 10
-137.7151
 20
-31.9034
 30
0.0
 10
-113.3942
 20
-31.9034
 30
0.0
 10
-113.3942
 20
-31.9034
 30
0.0
 10
-113.3942
 20
-31.9034
 30
0.0
 10
-113.3942
 20
-31.9034
 30
0.0
 10
-113.3942
 20
-40.8027
 30
0.0
 10
-113.3942
 20
-40.8027
 30
0.0
 10
-113.3942
 20
-40.8027
 30
0.0
 10
-113.3942
 20
-40.8027
 30
0.0
 10
-108.8617
 20
-40.8027
 30
0.0
 10
-108.8617
 20
-40.8027
 30
0.0
 10
-108.8617
 20
-40.8027
 30
0.0
 10
-108.8617
 20
-40.8027
 30
0.0
 10
-108.8617
 20
-27.1498
 30
0.0
 10
-108.8617
 20
-27.1498
 30
0.0
  0
SPLINE
  5
53
330
1F
100
AcDbEntity
  8
layer 1
 62
     7
100
AcDbSpline
210
0.0
220
0.0
230
1.0
 70
    11
 71
     3
 72
    44
 73
    40
 74
     0
 42
0.0000000001
 43
0.0000000001
 12
1.0
 22
0.0
 32
0.0
 13
1.0
 23
0.0
 33
0.0
 40
0.0
 40
0.0
 40
0.0
 40
0.0
 40
0.0909090909090909
 40
0.0909090909090909
 40
0.0909090909090909
 40
0.0909090909090909
 40
0.1818181818181818
 40
0.1818181818181818
 40
0.1818181818181818
 40
0.1818181818181818
 40
0.2727272727272727
 40
0.2727272727272727
 40
0.2727272727272727
 40
0.2727272727272727
 40
0.3636363636363636
 40
0.3636363636363636
 40
0.3636363636363636
 40
0.3636363636363636
 40
0.4545454545454545
 40
0.4545454545454545
 40
0.4545454545454545
 40
0.4545454545454545
 40
0.5454545454545454
 40
0.5454545454545454
 40
0.5454545454545454
 40
0.5454545454545454
 40
0.6363636363636364
 40
0.6363636363636364
 40
0.6363636363636364
 40
0.6363636363636364
 40
0.7272727272727273
 40
0.7272727272727273
 40
0.7272727272727273
 40
0.7272727272727273
 40
0.8181818181818182
 40
0.8181818181818182
 40
0.8181818181818182
 40
0.8181818181818182
 40
1.0
 40
1.0
 40
1.0
 40
1.0
 10
-108.8617
 20
-60.6992
 30
0.0
 10
-108.8617
 20
-60.6992
 30
0.0
 10
-133.0791
 20
-60.6992
 30
0.0
 10
-133.0791
 20
-60.6992
 30
0.0
 10
-133.0791
 20
-60.6992
 30
0.0
 10
-133.0791
 20
-60.6992
 30
0.0
 10
-133.0791
 20
-36.336
 30
0.0
 10
-133.0791
 20
-36.336
 30
0.0
 10
-133.0791
 20
-36.336
 30
0.0
 10
-133.0791
 20
-36.336
 30
0.0
 10
-117.7147
 20
-36.3359
 30
0.0
 10
-117.7147
 20
-36.3359
 30
0.0
 10
-117.7147
 20
-36.3359
 30
0.0
 10
-117.7147
 20
-36.3359
 30
0.0
 10
-117.686
 20
-40.8898
 30
0.0
 10
-117.686
 20
-40.8898
 30
0.0
 10
-117.686
 20
-40.8898
 30
0.0
 10
-117.686
 20
-40.8898
 30
0.0
 10
-128.6571
 20
-40.9288
 30
0.0
 10
-128.6571
 20
-40.9288
 30
0.0
 10
-128.6571
 20
-40.9288
 30
0.0
 10
-128.6571
 20
-40.9288
 30
0.0
 10
-128.6571
 20
-55.9454
 30
0.0
 10
-128.6571
 20
-55.9454
 30
0.0
 10
-128.6571
 20
-55.9454
 30
0.0
 10
-128.6571
 20
-55.9454
 30
0.0
 10
-113.3942
 20
-55.9454
 30
0.0
 10
-113.3942
 20
-55.9454
 30
0.0
 10
-113.3942
 20
-55.9454
 30
0.0
 10
-113.3942
 20
-55.9454
 30
0.0
 10
-113.3942
 20
-45.3345
 30
0.0
 10
-113.3942
 20
-45.3345
 30
0.0
 10
-113.3942
 20
-45.3345
 30
0.0
 10
-113.3942
 20
-45.3345
 30
0.0
 10
-108.8617
 20
-45.3345
 30
0.0
 10
-108.8617
 20
-45.3345
 30
0.0
 10
-108.8617
 20
-45.3345
 30
0.0
 10
-108.8617
 20
-45.3345
 30
0.0
 10
-108.8617
 20
-60.6992
 30
0.0
 10
-108.8617
 20
-60.6992
 30
0.0
  0
SPLINE
  5
54
330
1F
100
AcDbEntity
  8
layer 1
 62
     7
100
AcDbSpline
210
0.0
220
0.0
230
1.0
 70
    11
 71
     3
 72
    20
 73
    16
 74
     0
 42
0.0000000001
 43
0.0000000001
 12
1.0
 22
0.0
 32
0.0
 13
1.0
 23
0.0
 33
0.0
 40
0.0
 40
0.0
 40
0.0
 40
0.0
 40
0.2
 40
0.2
 40
0.2
 40
0.2
 40
0.4
 40
0.4
 40
0.4
 40
0.4
 40
0.6
 40
0.6
 40
0.6
 40
0.6
 40
1.0
 40
1.0
 40
1.0
 40
1.0
 10
-95.1521
 20
-51.6076
 30
0.0
 10
-95.1521
 20
-51.6076
 30
0.0
 10
-95.1521
 20
-45.3616
 30
0.0
 10
-95.1521
 20
-45.3616
 30
0.0
 10
-95.1521
 20
-45.3616
 30
0.0
 10
-95.1521
 20
-45.3616
 30
0.0
 10
-80.018
 20
-45.3616
 30
0.0
 10
-80.018
 20
-45.3616
 30
0.0
 10
-80.018
 20
-45.3616
 30
0.0
 10
-80.018
 20
-45.3616
 30
0.0
 10
-80.018
 20
-51.6076
 30
0.0
 10
-80.018
 20
-51.6076
 30
0.0
 10
-80.018
 20
-51.6076
 30
0.0
 10
-80.018
 20
-51.6076
 30
0.0
 10
-95.1521
 20
-51.6076
 30
0.0
 10
-95.1521
 20
-51.6076
 30
0.0
  0
SPLINE
  5
55
330
1F
100
AcDbEntity
  8
layer 1
 62
     7
100
AcDbSpline
210
0.0
220
0.0
230
1.0
 70
    11
 71
     3
 72
    28
 73
    24
 74
     0
 42
0.0000000001
 43
0.0000000001
 12
1.0
 22
0.0
 32
0.0
 13
1.0
 23
0.0
 33
0.0
 40
0.0
 40
0.0
 40
0.0
 40
0.0
 40
0.1428571428571428
 40
0.1428571428571428
 40
0.1428571428571428
 40
0.1428571428571428
 40
0.2857142857142857
 40
0.2857142857142857
 40
0.2857142857142857
 40
0.2857142857142857
 40
0.4285714285714285
 40
0.4285714285714285
 40
0.4285714285714285
 40
0.4285714285714285
 40
0.5714285714285714
 40
0.5714285714285714
 40
0.5714285714285714
 40
0.5714285714285714
 40
0.7142857142857143
 40
0.7142857142857143
 40
0.7142857142857143
 40
0.7142857142857143
 40
1.0
 40
1.0
 40
1.0
 40
1.0
 10
-104.5045
 20
-40.8194
 30
0.0
 10
-104.5045
 20
-40.8194
 30
0.0
 10
-104.5045
 20
-27.2869
 30
0.0
 10
-104.5045
 20
-27.2869
 30
0.0
 10
-104.5045
 20
-27.2869
 30
0.0
 10
-104.5045
 20
-27.2869
 30
0.0
 10
-71.0381
 20
-27.2869
 30
0.0
 10
-71.0381
 20
-27.2869
 30
0.0
 10
-71.0381
 20
-27.2869
 30
0.0
 10
-71.0381
 20
-27.2869
 30
0.0
 10
-71.038
 20
-31.7089
 30
0.0
 10
-71.038
 20
-31.7089
 30
0.0
 10
-71.038
 20
-31.7089
 30
0.0
 10
-71.038
 20
-31.7089
 30
0.0
 10
-99.7509
 20
-31.7089
 30
0.0
 10
-99.7509
 20
-31.7089
 30
0.0
 10
-99.7509
 20
-31.7089
 30
0.0
 10
-99.7509
 20
-31.7089
 30
0.0
 10
-99.7509
 20
-40.7815
 30
0.0
 10
-99.7509
 20
-40.7815
 30
0.0
 10
-99.7509
 20
-40.7815
 30
0.0
 10
-99.7509
 20
-40.7815
 30
0.0
 10
-104.5045
 20
-40.8194
 30
0.0
 10
-104.5045
 20
-40.8194
 30
0.0
  0
SPLINE
  5
56
330
1F
100
AcDbEntity
  8
layer 1
 62
     7
100
AcDbSpline
210
0.0
220
0.0
230
1.0
 70
    11
 71
     3
 72
    44
 73
    40
 74
     0
 42
0.0000000001
 43
0.0000000001
 12
1.0
 22
0.0
 32
0.0
 13
1.0
 23
0.0
 33
0.0
 40
0.0
 40
0.0
 40
0.0
 40
0.0
 40
0.0909090909090909
 40
0.0909090909090909
 40
0.0909090909090909
 40
0.0909090909090909
 40
0.1818181818181818
 40
0.1818181818181818
 40
0.1818181818181818
 40
0.1818181818181818
 40
0.2727272727272727
 40
0.2727272727272727
 40
0.2727272727272727
 40
0.2727272727272727
 40
0.3636363636363636
 40
0.3636363636363636
 40
0.3636363636363636
 40
0.3636363636363636
 40
0.4545454545454545
 40
0.4545454545454545
 40
0.4545454545454545
 40
0.4545454545454545
 40
0.5454545454545454
 40
0.5454545454545454
 40
0.5454545454545454
 40
0.5454545454545454
 40
0.6363636363636364
 40
0.6363636363636364
 40
0.6363636363636364
 40
0.6363636363636364
 40
0.7272727272727273
 40
0.7272727272727273
 40
0.7272727272727273
 40
0.7272727272727273
 40
0.8181818181818182
 40
0.8181818181818182
 40
0.8181818181818182
 40
0.8181818181818182
 40
1.0
 40
1.0
 40
1.0
 40
1.0
 10
-70.9552
 20
-60.5622
 30
0.0
 10
-70.9552
 20
-60.5622
 30
0.0
 10
-70.9552
 20
-36.3449
 30
0.0
 10
-70.9552
 20
-36.3449
 30
0.0
 10
-70.9552
 20
-36.3449
 30
0.0
 10
-70.9552
 20
-36.3449
 30
0.0
 10
-95.3184
 20
-36.3449
 30
0.0
 10
-95.3184
 20
-36.3449
 30
0.0
 10
-95.3184
 20
-36.3449
 30
0.0
 10
-95.3184
 20
-36.3449
 30
0.0
 10
-95.2876
 20
-40.8249
 30
0.0
 10
-95.2876
 20
-40.8249
 30
0.0
 10
-95.2876
 20
-40.8249
 30
0.0
 10
-95.2876
 20
-40.8249
 30
0.0
 10
-75.7088
 20
-40.846
 30
0.0
 10
-75.7088
 20
-40.846
 30
0.0
 10
-75.7088
 20
-40.846
 30
0.0
 10
-75.7088
 20
-40.846
 30
0.0
 10
-75.7088
 20
-56.0297
 30
0.0
 10
-75.7088
 20
-56.0297
 30
0.0
 10
-75.7088
 20
-56.0297
 30
0.0
 10
-75.7088
 20
-56.0297
 30
0.0
 10
-99.7356
 20
-56.0297
 30
0.0
 10
-99.7356
 20
-56.0297
 30
0.0
 10
-99.7356
 20
-56.0297
 30
0.0
 10
-99.7356
 20
-56.0297
 30
0.0
 10
-99.7378
 20
-45.3322
 30
0.0
 10
-99.7378
 20
-45.3322
 30
0.0
 10
-99.7378
 20
-45.3322
 30
0.0
 10
-99.7378
 20
-45.3322
 30
0.0
 10
-104.3427
 20
-45.3322
 30
0.0
 10
-104.3427
 20
-45.3322
 30
0.0
 10
-104.3427
 20
-45.3322
 30
0.0
 10
-104.3427
 20
-45.3322
 30
0.0
 10
-104.3427
 20
-60.5622
 30
0.0
 10
-104.3427
 20
-60.5622
 30
0.0
 10
-104.3427
 20
-60.5622
 30
0.0
 10
-104.3427
 20
-60.5622
 30
0.0
 10
-70.9552
 20
-60.5622
 30
0.0
 10
-70.9552
 20
-60.5622
 30
0.0
  0
SPLINE
  5
57
330
1F
100
AcDbEntity
  8
layer 1
 62
     7
100
AcDbSpline
210
0.0
220
0.0
230
1.0
 70
    11
 71
     3
 72
    20
 73
    16
 74
     0
 42
0.0000000001
 43
0.0000000001
 12
1.0
 22
0.0
 32
0.0
 13
1.0
 23
0.0
 33
0.0
 40
0.0
 40
0.0
 40
0.0
 40
0.0
 40
0.2
 40
0.2
 40
0.2
 40
0.2
 40
0.4
 40
0.4
 40
0.4
 40
0.4
 40
0.6
 40
0.6
 40
0.6
 40
0.6
 40
1.0
 40
1.0
 40
1.0
 40
1.0
 10
-170.9521
 20
-80.3932
 30
0.0
 10
-170.9521
 20
-80.3932
 30
0.0
 10
-164.7061
 20
-80.3932
 30
0.0
 10
-164.7061
 20
-80.3932
 30
0.0
 10
-164.7061
 20
-80.3932
 30
0.0
 10
-164.7061
 20
-80.3932
 30
0.0
 10
-164.7061
 20
-74.1472
 30
0.0
 10
-164.7061
 20
-74.1472
 30
0.0
 10
-164.7061
 20
-74.1472
 30
0.0
 10
-164.7061
 20
-74.1472
 30
0.0
 10
-170.9521
 20
-74.1472
 30
0.0
 10
-170.9521
 20
-74.1472
 30
0.0
 10
-170.9521
 20
-74.1472
 30
0.0
 10
-170.9521
 20
-74.1472
 30
0.0
 10
-170.9521
 20
-80.3932
 30
0.0
 10
-170.9521
 20
-80.3932
 30
0.0
  0
SPLINE
  5
58
330
1F
100
AcDbEntity
  8
layer 1
 62
     7
100
AcDbSpline
210
0.0
220
0.0
230
1.0
 70
    11
 71
     3
 72
    36
 73
    32
 74
     0
 42
0.0000000001
 43
0.0000000001
 12
1.0
 22
0.0
 32
0.0
 13
1.0
 23
0.0
 33
0.0
 40
0.0
 40
0.0
 40
0.0
 40
0.0
 40
0.1111111111111111
 40
0.1111111111111111
 40
0.1111111111111111
 40
0.1111111111111111
 40
0.2222222222222222
 40
0.2222222222222222
 40
0.2222222222222222
 40
0.2222222222222222
 40
0.3333333333333333
 40
0.3333333333333333
 40
0.3333333333333333
 40
0.3333333333333333
 40
0.4444444444444444
 40
0.4444444444444444
 40
0.4444444444444444
 40
0.4444444444444444
 40
0.5555555555555556
 40
0.5555555555555556
 40
0.5555555555555556
 40
0.5555555555555556
 40
0.6666666666666666
 40
0.6666666666666666
 40
0.6666666666666666
 40
0.6666666666666666
 40
0.7777777777777778
 40
0.7777777777777778
 40
0.7777777777777778
 40
0.7777777777777778
 40
1.0
 40
1.0
 40
1.0
 40
1.0
 10
-179.9066
 20
-98.6338
 30
0.0
 10
-179.9066
 20
-98.6338
 30
0.0
 10
-146.6313
 20
-98.6338
 30
0.0
 10
-146.6313
 20
-98.6338
 30
0.0
 10
-146.6313
 20
-98.6338
 30
0.0
 10
-146.6313
 20
-98.6338
 30
0.0
 10
-146.6313
 20
-65.1673
 30
0.0
 10
-146.6313
 20
-65.1673
 30
0.0
 10
-146.6313
 20
-65.1673
 30
0.0
 10
-146.6313
 20
-65.1673
 30
0.0
 10
-151.0533
 20
-65.1672
 30
0.0
 10
-151.0533
 20
-65.1672
 30
0.0
 10
-151.0533
 20
-65.1672
 30
0.0
 10
-151.0533
 20
-65.1672
 30
0.0
 10
-151.0533
 20
-93.8801
 30
0.0
 10
-151.0533
 20
-93.8801
 30
0.0
 10
-151.0533
 20
-93.8801
 30
0.0
 10
-151.0533
 20
-93.8801
 30
0.0
 10
-175.3741
 20
-93.8801
 30
0.0
 10
-175.3741
 20
-93.8801
 30
0.0
 10
-175.3741
 20
-93.8801
 30
0.0
 10
-175.3741
 20
-93.8801
 30
0.0
 10
-175.3741
 20
-84.9809
 30
0.0
 10
-175.3741
 20
-84.9809
 30
0.0
 10
-175.3741
 20
-84.9809
 30
0.0
 10
-175.3741
 20
-84.9809
 30
0.0
 10
-179.9066
 20
-84.9809
 30
0.0
 10
-179.9066
 20
-84.9809
 30
0.0
 10
-179.9066
 20
-84.9809
 30
0.0
 10
-179.9066
 20
-84.9809
 30
0.0
 10
-179.9066
 20
-98.6338
 30
0.0
 10
-179.9066
 20
-98.6338
 30
0.0
  0
SPLINE
  5
59
330
1F
100
AcDbEntity
  8
layer 1
 62
     7
100
AcDbSpline
210
0.0
220
0.0
230
1.0
 70
    11
 71
     3
 72
    44
 73
    40
 74
     0
 42
0.0000000001
 43
0.0000000001
 12
1.0
 22
0.0
 32
0.0
 13
1.0
 23
0.0
 33
0.0
 40
0.0
 40
0.0
 40
0.0
 40
0.0
 40
0.0909090909090909
 40
0.0909090909090909
 40
0.0909090909090909
 40
0.0909090909090909
 40
0.1818181818181818
 40
0.1818181818181818
 40
0.1818181818181818
 40
0.1818181818181818
 40
0.2727272727272727
 40
0.2727272727272727
 40
0.2727272727272727
 40
0.2727272727272727
 40
0.3636363636363636
 40
0.3636363636363636
 40
0.3636363636363636
 40
0.3636363636363636
 40
0.4545454545454545
 40
0.4545454545454545
 40
0.4545454545454545
 40
0.4545454545454545
 40
0.5454545454545454
 40
0.5454545454545454
 40
0.5454545454545454
 40
0.5454545454545454
 40
0.6363636363636364
 40
0.6363636363636364
 40
0.6363636363636364
 40
0.6363636363636364
 40
0.7272727272727273
 40
0.7272727272727273
 40
0.7272727272727273
 40
0.7272727272727273
 40
0.8181818181818182
 40
0.8181818181818182
 40
0.8181818181818182
 40
0.8181818181818182
 40
1.0
 40
1.0
 40
1.0
 40
1.0
 10
-179.9066
 20
-65.0844
 30
0.0
 10
-179.9066
 20
-65.0844
 30
0.0
 10
-155.6893
 20
-65.0844
 30
0.0
 10
-155.6893
 20
-65.0844
 30
0.0
 10
-155.6893
 20
-65.0844
 30
0.0
 10
-155.6893
 20
-65.0844
 30
0.0
 10
-155.6893
 20
-89.4476
 30
0.0
 10
-155.6893
 20
-89.4476
 30
0.0
 10
-155.6893
 20
-89.4476
 30
0.0
 10
-155.6893
 20
-89.4476
 30
0.0
 10
-171.0537
 20
-89.4477
 30
0.0
 10
-171.0537
 20
-89.4477
 30
0.0
 10
-171.0537
 20
-89.4477
 30
0.0
 10
-171.0537
 20
-89.4477
 30
0.0
 10
-171.0823
 20
-84.8938
 30
0.0
 10
-171.0823
 20
-84.8938
 30
0.0
 10
-171.0823
 20
-84.8938
 30
0.0
 10
-171.0823
 20
-84.8938
 30
0.0
 10
-160.1112
 20
-84.8548
 30
0.0
 10
-160.1112
 20
-84.8548
 30
0.0
 10
-160.1112
 20
-84.8548
 30
0.0
 10
-160.1112
 20
-84.8548
 30
0.0
 10
-160.1112
 20
-69.8381
 30
0.0
 10
-160.1112
 20
-69.8381
 30
0.0
 10
-160.1112
 20
-69.8381
 30
0.0
 10
-160.1112
 20
-69.8381
 30
0.0
 10
-175.3741
 20
-69.8381
 30
0.0
 10
-175.3741
 20
-69.8381
 30
0.0
 10
-175.3741
 20
-69.8381
 30
0.0
 10
-175.3741
 20
-69.8381
 30
0.0
 10
-175.3741
 20
-80.449
 30
0.0
 10
-175.3741
 20
-80.449
 30
0.0
 10
-175.3741
 20
-80.449
 30
0.0
 10
-175.3741
 20
-80.449
 30
0.0
 10
-179.9066
 20
-80.449
 30
0.0
 10
-179.9066
 20
-80.449
 30
0.0
 10
-179.9066
 20
-80.449
 30
0.0
 10
-179.9066
 20
-80.449
 30
0.0
 10
-179.9066
 20
-65.0844
 30
0.0
 10
-179.9066
 20
-65.0844
 30
0.0
  0
SPLINE
  5
5A
330
1F
100
AcDbEntity
  8
layer 1
 62
     7
100
AcDbSpline
210
0.0
220
0.0
230
1.0
 70
    11
 71
     3
 72
    20
 73
    16
 74
     0
 42
0.0000000001
 43
0.0000000001
 12
1.0
 22
0.0
 32
0.0
 13
1.0
 23
0.0
 33
0.0
 40
0.0
 40
0.0
 40
0.0
 40
0.0
 40
0.2
 40
0.2
 40
0.2
 40
0.2
 40
0.4
 40
0.4
 40
0.4
 40
0.4
 40
0.6
 40
0.6
 40
0.6
 40
0.6
 40
1.0
 40
1.0
 40
1.0
 40
1.0
 10
-117.8162
 20
-80.3932
 30
0.0
 10
-117.8162
 20
-80.3932
 30
0.0
 10
-124.0622
 20
-80.3932
 30
0.0
 10
-124.0622
 20
-80.3932
 30
0.0
 10
-124.0622
 20
-80.3932
 30
0.0
 10
-124.0622
 20
-80.3932
 30
0.0
 10
-124.0622
 20
-74.1472
 30
0.0
 10
-124.0622
 20
-74.1472
 30
0.0
 10
-124.0622
 20
-74.1472
 30
0.0
 10
-124.0622
 20
-74.1472
 30
0.0
 10
-117.8162
 20
-74.1472
 30
0.0
 10
-117.8162
 20
-74.1472
 30
0.0
 10
-117.8162
 20
-74.1472
 30
0.0
 10
-117.8162
 20
-74.1472
 30
0.0
 10
-117.8162
 20
-80.3932
 30
0.0
 10
-117.8162
 20
-80.3932
 30
0.0
  0
SPLINE
  5
5B
330
1F
100
AcDbEntity
  8
layer 1
 62
     7
100
AcDbSpline
210
0.0
220
0.0
230
1.0
 70
    11
 71
     3
 72
    36
 73
    32
 74
     0
 42
0.0000000001
 43
0.0000000001
 12
1.0
 22
0.0
 32
0.0
 13
1.0
 23
0.0
 33
0.0
 40
0.0
 40
0.0
 40
0.0
 40
0.0
 40
0.1111111111111111
 40
0.1111111111111111
 40
0.1111111111111111
 40
0.1111111111111111
 40
0.2222222222222222
 40
0.2222222222222222
 40
0.2222222222222222
 40
0.2222222222222222
 40
0.3333333333333333
 40
0.3333333333333333
 40
0.3333333333333333
 40
0.3333333333333333
 40
0.4444444444444444
 40
0.4444444444444444
 40
0.4444444444444444
 40
0.4444444444444444
 40
0.5555555555555556
 40
0.5555555555555556
 40
0.5555555555555556
 40
0.5555555555555556
 40
0.6666666666666666
 40
0.6666666666666666
 40
0.6666666666666666
 40
0.6666666666666666
 40
0.7777777777777778
 40
0.7777777777777778
 40
0.7777777777777778
 40
0.7777777777777778
 40
1.0
 40
1.0
 40
1.0
 40
1.0
 10
-108.8617
 20
-98.6338
 30
0.0
 10
-108.8617
 20
-98.6338
 30
0.0
 10
-142.137
 20
-98.6338
 30
0.0
 10
-142.137
 20
-98.6338
 30
0.0
 10
-142.137
 20
-98.6338
 30
0.0
 10
-142.137
 20
-98.6338
 30
0.0
 10
-142.137
 20
-65.1673
 30
0.0
 10
-142.137
 20
-65.1673
 30
0.0
 10
-142.137
 20
-65.1673
 30
0.0
 10
-142.137
 20
-65.1673
 30
0.0
 10
-137.7151
 20
-65.1672
 30
0.0
 10
-137.7151
 20
-65.1672
 30
0.0
 10
-137.7151
 20
-65.1672
 30
0.0
 10
-137.7151
 20
-65.1672
 30
0.0
 10
-137.7151
 20
-93.8801
 30
0.0
 10
-137.7151
 20
-93.8801
 30
0.0
 10
-137.7151
 20
-93.8801
 30
0.0
 10
-137.7151
 20
-93.8801
 30
0.0
 10
-113.3942
 20
-93.8801
 30
0.0
 10
-113.3942
 20
-93.8801
 30
0.0
 10
-113.3942
 20
-93.8801
 30
0.0
 10
-113.3942
 20
-93.8801
 30
0.0
 10
-113.3942
 20
-84.9809
 30
0.0
 10
-113.3942
 20
-84.9809
 30
0.0
 10
-113.3942
 20
-84.9809
 30
0.0
 10
-113.3942
 20
-84.9809
 30
0.0
 10
-108.8617
 20
-84.9809
 30
0.0
 10
-108.8617
 20
-84.9809
 30
0.0
 10
-108.8617
 20
-84.9809
 30
0.0
 10
-108.8617
 20
-84.9809
 30
0.0
 10
-108.8617
 20
-98.6338
 30
0.0
 10
-108.8617
 20
-98.6338
 30
0.0
  0
SPLINE
  5
5C
330
1F
100
AcDbEntity
  8
layer 1
 62
     7
100
AcDbSpline
210
0.0
220
0.0
230
1.0
 70
    11
 71
     3
 72
    44
 73
    40
 74
     0
 42
0.0000000001
 43
0.0000000001
 12
1.0
 22
0.0
 32
0.0
 13
1.0
 23
0.0
 33
0.0
 40
0.0
 40
0.0
 40
0.0
 40
0.0
 40
0.0909090909090909
 40
0.0909090909090909
 40
0.0909090909090909
 40
0.0909090909090909
 40
0.1818181818181818
 40
0.1818181818181818
 40
0.1818181818181818
 40
0.1818181818181818
 40
0.2727272727272727
 40
0.2727272727272727
 40
0.2727272727272727
 40
0.2727272727272727
 40
0.3636363636363636
 40
0.3636363636363636
 40
0.3636363636363636
 40
0.3636363636363636
 40
0.4545454545454545
 40
0.4545454545454545
 40
0.4545454545454545
 40
0.4545454545454545
 40
0.5454545454545454
 40
0.5454545454545454
 40
0.5454545454545454
 40
0.5454545454545454
 40
0.6363636363636364
 40
0.6363636363636364
 40
0.6363636363636364
 40
0.6363636363636364
 40
0.7272727272727273
 40
0.7272727272727273
 40
0.7272727272727273
 40
0.7272727272727273
 40
0.8181818181818182
 40
0.8181818181818182
 40
0.8181818181818182
 40
0.8181818181818182
 40
1.0
 40
1.0
 40
1.0
 40
1.0
 10
-108.8617
 20
-65.0844
 30
0.0
 10
-108.8617
 20
-65.0844
 30
0.0
 10
-133.0791
 20
-65.0844
 30
0.0
 10
-133.0791
 20
-65.0844
 30
0.0
 10
-133.0791
 20
-65.0844
 30
0.0
 10
-133.0791
 20
-65.0844
 30
0.0
 10
-133.0791
 20
-89.4476
 30
0.0
 10
-133.0791
 20
-89.4476
 30
0.0
 10
-133.0791
 20
-89.4476
 30
0.0
 10
-133.0791
 20
-89.4476
 30
0.0
 10
-117.7147
 20
-89.4477
 30
0.0
 10
-117.7147
 20
-89.4477
 30
0.0
 10
-117.7147
 20
-89.4477
 30
0.0
 10
-117.7147
 20
-89.4477
 30
0.0
 10
-117.686
 20
-84.8938
 30
0.0
 10
-117.686
 20
-84.8938
 30
0.0
 10
-117.686
 20
-84.8938
 30
0.0
 10
-117.686
 20
-84.8938
 30
0.0
 10
-128.6571
 20
-84.8548
 30
0.0
 10
-128.6571
 20
-84.8548
 30
0.0
 10
-128.6571
 20
-84.8548
 30
0.0
 10
-128.6571
 20
-84.8548
 30
0.0
 10
-128.6571
 20
-69.8381
 30
0.0
 10
-128.6571
 20
-69.8381
 30
0.0
 10
-128.6571
 20
-69.8381
 30
0.0
 10
-128.6571
 20
-69.8381
 30
0.0
 10
-113.3942
 20
-69.8381
 30
0.0
 10
-113.3942
 20
-69.8381
 30
0.0
 10
-113.3942
 20
-69.8381
 30
0.0
 10
-113.3942
 20
-69.8381
 30
0.0
 10
-113.3942
 20
-80.449
 30
0.0
 10
-113.3942
 20
-80.449
 30
0.0
 10
-113.3942
 20
-80.449
 30
0.0
 10
-113.3942
 20
-80.449
 30
0.0
 10
-108.8617
 20
-80.449
 30
0.0
 10
-108.8617
 20
-80.449
 30
0.0
 10
-108.8617
 20
-80.449
 30
0.0
 10
-108.8617
 20
-80.449
 30
0.0
 10
-108.8617
 20
-65.0844
 30
0.0
 10
-108.8617
 20
-65.0844
 30
0.0
  0
SPLINE
  5
5D
330
1F
100
AcDbEntity
  8
layer 1
 62
     7
100
AcDbSpline
210
0.0
220
0.0
230
1.0
 70
    11
 71
     3
 72
    20
 73
    16
 74
     0
 42
0.0000000001
 43
0.0000000001
 12
1.0
 22
0.0
 32
0.0
 13
1.0
 23
0.0
 33
0.0
 40
0.0
 40
0.0
 40
0.0
 40
0.0
 40
0.2
 40
0.2
 40
0.2
 40
0.2
 40
0.4
 40
0.4
 40
0.4
 40
0.4
 40
0.6
 40
0.6
 40
0.6
 40
0.6
 40
1.0
 40
1.0
 40
1.0
 40
1.0
 10
-95.1521
 20
-74.1758
 30
0.0
 10
-95.1521
 20
-74.1758
 30
0.0
 10
-95.1521
 20
-80.4218
 30
0.0
 10
-95.1521
 20
-80.4218
 30
0.0
 10
-95.1521
 20
-80.4218
 30
0.0
 10
-95.1521
 20
-80.4218
 30
0.0
 10
-80.018
 20
-80.4218
 30
0.0
 10
-80.018
 20
-80.4218
 30
0.0
 10
-80.018
 20
-80.4218
 30
0.0
 10
-80.018
 20
-80.4218
 30
0.0
 10
-80.018
 20
-74.1758
 30
0.0
 10
-80.018
 20
-74.1758
 30
0.0
 10
-80.018
 20
-74.1758
 30
0.0
 10
-80.018
 20
-74.1758
 30
0.0
 10
-95.1521
 20
-74.1758
 30
0.0
 10
-95.1521
 20
-74.1758
 30
0.0
  0
SPLINE
  5
5E
330
1F
100
AcDbEntity
  8
layer 1
 62
     7
100
AcDbSpline
210
0.0
220
0.0
230
1.0
 70
    11
 71
     3
 72
    28
 73
    24
 74
     0
 42
0.0000000001
 43
0.0000000001
 12
1.0
 22
0.0
 32
0.0
 13
1.0
 23
0.0
 33
0.0
 40
0.0
 40
0.0
 40
0.0
 40
0.0
 40
0.1428571428571428
 40
0.1428571428571428
 40
0.1428571428571428
 40
0.1428571428571428
 40
0.2857142857142857
 40
0.2857142857142857
 40
0.2857142857142857
 40
0.2857142857142857
 40
0.4285714285714285
 40
0.4285714285714285
 40
0.4285714285714285
 40
0.4285714285714285
 40
0.5714285714285714
 40
0.5714285714285714
 40
0.5714285714285714
 40
0.5714285714285714
 40
0.7142857142857143
 40
0.7142857142857143
 40
0.7142857142857143
 40
0.7142857142857143
 40
1.0
 40
1.0
 40
1.0
 40
1.0
 10
-104.5045
 20
-84.9641
 30
0.0
 10
-104.5045
 20
-84.9641
 30
0.0
 10
-104.5045
 20
-98.4966
 30
0.0
 10
-104.5045
 20
-98.4966
 30
0.0
 10
-104.5045
 20
-98.4966
 30
0.0
 10
-104.5045
 20
-98.4966
 30
0.0
 10
-71.0381
 20
-98.4966
 30
0.0
 10
-71.0381
 20
-98.4966
 30
0.0
 10
-71.0381
 20
-98.4966
 30
0.0
 10
-71.0381
 20
-98.4966
 30
0.0
 10
-71.038
 20
-94.0747
 30
0.0
 10
-71.038
 20
-94.0747
 30
0.0
 10
-71.038
 20
-94.0747
 30
0.0
 10
-71.038
 20
-94.0747
 30
0.0
 10
-99.7509
 20
-94.0747
 30
0.0
 10
-99.7509
 20
-94.0747
 30
0.0
 10
-99.7509
 20
-94.0747
 30
0.0
 10
-99.7509
 20
-94.0747
 30
0.0
 10
-99.7509
 20
-85.0021
 30
0.0
 10
-99.7509
 20
-85.0021
 30
0.0
 10
-99.7509
 20
-85.0021
 30
0.0
 10
-99.7509
 20
-85.0021
 30
0.0
 10
-104.5045
 20
-84.9641
 30
0.0
 10
-104.5045
 20
-84.9641
 30
0.0
  0
SPLINE
  5
5F
330
1F
100
AcDbEntity
  8
layer 1
 62
     7
100
AcDbSpline
210
0.0
220
0.0
230
1.0
 70
    11
 71
     3
 72
    44
 73
    40
 74
     0
 42
0.0000000001
 43
0.0000000001
 12
1.0
 22
0.0
 32
0.0
 13
1.0
 23
0.0
 33
0.0
 40
0.0
 40
0.0
 40
0.0
 40
0.0
 40
0.0909090909090909
 40
0.0909090909090909
 40
0.0909090909090909
 40
0.0909090909090909
 40
0.1818181818181818
 40
0.1818181818181818
 40
0.1818181818181818
 40
0.1818181818181818
 40
0.2727272727272727
 40
0.2727272727272727
 40
0.2727272727272727
 40
0.2727272727272727
 40
0.3636363636363636
 40
0.3636363636363636
 40
0.3636363636363636
 40
0.3636363636363636
 40
0.4545454545454545
 40
0.4545454545454545
 40
0.4545454545454545
 40
0.4545454545454545
 40
0.5454545454545454
 40
0.5454545454545454
 40
0.5454545454545454
 40
0.5454545454545454
 40
0.6363636363636364
 40
0.6363636363636364
 40
0.6363636363636364
 40
0.6363636363636364
 40
0.7272727272727273
 40
0.7272727272727273
 40
0.7272727272727273
 40
0.7272727272727273
 40
0.8181818181818182
 40
0.8181818181818182
 40
0.8181818181818182
 40
0.8181818181818182
 40
1.0
 40
1.0
 40
1.0
 40
1.0
 10
-70.9552
 20
-65.2214
 30
0.0
 10
-70.9552
 20
-65.2214
 30
0.0
 10
-70.9552
 20
-89.4387
 30
0.0
 10
-70.9552
 20
-89.4387
 30
0.0
 10
-70.9552
 20
-89.4387
 30
0.0
 10
-70.9552
 20
-89.4387
 30
0.0
 10
-95.3184
 20
-89.4387
 30
0.0
 10
-95.3184
 20
-89.4387
 30
0.0
 10
-95.3184
 20
-89.4387
 30
0.0
 10
-95.3184
 20
-89.4387
 30
0.0
 10
-95.2876
 20
-84.9587
 30
0.0
 10
-95.2876
 20
-84.9587
 30
0.0
 10
-95.2876
 20
-84.9587
 30
0.0
 10
-95.2876
 20
-84.9587
 30
0.0
 10
-75.7088
 20
-84.9376
 30
0.0
 10
-75.7088
 20
-84.9376
 30
0.0
 10
-75.7088
 20
-84.9376
 30
0.0
 10
-75.7088
 20
-84.9376
 30
0.0
 10
-75.7088
 20
-69.7539
 30
0.0
 10
-75.7088
 20
-69.7539
 30
0.0
 10
-75.7088
 20
-69.7539
 30
0.0
 10
-75.7088
 20
-69.7539
 30
0.0
 10
-99.7356
 20
-69.7539
 30
0.0
 10
-99.7356
 20
-69.7539
 30
0.0
 10
-99.7356
 20
-69.7539
 30
0.0
 10
-99.7356
 20
-69.7539
 30
0.0
 10
-99.7378
 20
-80.4514
 30
0.0
 10
-99.7378
 20
-80.4514
 30
0.0
 10
-99.7378
 20
-80.4514
 30
0.0
 10
-99.7378
 20
-80.4514
 30
0.0
 10
-104.3427
 20
-80.4514
 30
0.0
 10
-104.3427
 20
-80.4514
 30
0.0
 10
-104.3427
 20
-80.4514
 30
0.0
 10
-104.3427
 20
-80.4514
 30
0.0
 10
-104.3427
 20
-65.2214
 30
0.0
 10
-104.3427
 20
-65.2214
 30
0.0
 10
-104.3427
 20
-65.2214
 30
0.0
 10
-104.3427
 20
-65.2214
 30
0.0
 10
-70.9552
 20
-65.2214
 30
0.0
 10
-70.9552
 20
-65.2214
 30
0.0
  0
SPLINE
  5
60
330
1F
100
AcDbEntity
  8
layer 1
 62
     7
100
AcDbSpline
210
0.0
220
0.0
230
1.0
 70
    11
 71
     3
 72
    20
 73
    16
 74
     0
 42
0.0000000001
 43
0.0000000001
 12
1.0
 22
0.0
 32
0.0
 13
1.0
 23
0.0
 33
0.0
 40
0.0
 40
0.0
 40
0.0
 40
0.0
 40
0.2
 40
0.2
 40
0.2
 40
0.2
 40
0.4
 40
0.4
 40
0.4
 40
0.4
 40
0.6
 40
0.6
 40
0.6
 40
0.6
 40
1.0
 40
1.0
 40
1.0
 40
1.0
 10
-170.9521
 20
-5.2678
 30
0.0
 10
-170.9521
 20
-5.2678
 30
0.0
 10
-164.7061
 20
-5.2678
 30
0.0
 10
-164.7061
 20
-5.2678
 30
0.0
 10
-164.7061
 20
-5.2678
 30
0.0
 10
-164.7061
 20
-5.2678
 30
0.0
 10
-164.7061
 20
0.9782
 30
0.0
 10
-164.7061
 20
0.9782
 30
0.0
 10
-164.7061
 20
0.9782
 30
0.0
 10
-164.7061
 20
0.9782
 30
0.0
 10
-170.9521
 20
0.9782
 30
0.0
 10
-170.9521
 20
0.9782
 30
0.0
 10
-170.9521
 20
0.9782
 30
0.0
 10
-170.9521
 20
0.9782
 30
0.0
 10
-170.9521
 20
-5.2678
 30
0.0
 10
-170.9521
 20
-5.2678
 30
0.0
  0
SPLINE
  5
61
330
1F
100
AcDbEntity
  8
layer 1
 62
     7
100
AcDbSpline
210
0.0
220
0.0
230
1.0
 70
    11
 71
     3
 72
    36
 73
    32
 74
     0
 42
0.0000000001
 43
0.0000000001
 12
1.0
 22
0.0
 32
0.0
 13
1.0
 23
0.0
 33
0.0
 40
0.0
 40
0.0
 40
0.0
 40
0.0
 40
0.1111111111111111
 40
0.1111111111111111
 40
0.1111111111111111
 40
0.1111111111111111
 40
0.2222222222222222
 40
0.2222222222222222
 40
0.2222222222222222
 40
0.2222222222222222
 40
0.3333333333333333
 40
0.3333333333333333
 40
0.3333333333333333
 40
0.3333333333333333
 40
0.4444444444444444
 40
0.4444444444444444
 40
0.4444444444444444
 40
0.4444444444444444
 40
0.5555555555555556
 40
0.5555555555555556
 40
0.5555555555555556
 40
0.5555555555555556
 40
0.6666666666666666
 40
0.6666666666666666
 40
0.6666666666666666
 40
0.6666666666666666
 40
0.7777777777777778
 40
0.7777777777777778
 40
0.7777777777777778
 40
0.7777777777777778
 40
1.0
 40
1.0
 40
1.0
 40
1.0
 10
-179.9066
 20
-23.5084
 30
0.0
 10
-179.9066
 20
-23.5084
 30
0.0
 10
-146.6313
 20
-23.5084
 30
0.0
 10
-146.6313
 20
-23.5084
 30
0.0
 10
-146.6313
 20
-23.5084
 30
0.0
 10
-146.6313
 20
-23.5084
 30
0.0
 10
-146.6313
 20
9.958
 30
0.0
 10
-146.6313
 20
9.958
 30
0.0
 10
-146.6313
 20
9.958
 30
0.0
 10
-146.6313
 20
9.958
 30
0.0
 10
-151.0533
 20
9.9582
 30
0.0
 10
-151.0533
 20
9.9582
 30
0.0
 10
-151.0533
 20
9.9582
 30
0.0
 10
-151.0533
 20
9.9582
 30
0.0
 10
-151.0533
 20
-18.7548
 30
0.0
 10
-151.0533
 20
-18.7548
 30
0.0
 10
-151.0533
 20
-18.7548
 30
0.0
 10
-151.0533
 20
-18.7548
 30
0.0
 10
-175.3741
 20
-18.7548
 30
0.0
 10
-175.3741
 20
-18.7548
 30
0.0
 10
-175.3741
 20
-18.7548
 30
0.0
 10
-175.3741
 20
-18.7548
 30
0.0
 10
-175.3741
 20
-9.8555
 30
0.0
 10
-175.3741
 20
-9.8555
 30
0.0
 10
-175.3741
 20
-9.8555
 30
0.0
 10
-175.3741
 20
-9.8555
 30
0.0
 10
-179.9066
 20
-9.8555
 30
0.0
 10
-179.9066
 20
-9.8555
 30
0.0
 10
-179.9066
 20
-9.8555
 30
0.0
 10
-179.9066
 20
-9.8555
 30
0.0
 10
-179.9066
 20
-23.5084
 30
0.0
 10
-179.9066
 20
-23.5084
 30
0.0
  0
SPLINE
  5
62
330
1F
100
AcDbEntity
  8
layer 1
 62
     7
100
AcDbSpline
210
0.0
220
0.0
230
1.0
 70
    11
 71
     3
 72
    44
 73
    40
 74
     0
 42
0.0000000001
 43
0.0000000001
 12
1.0
 22
0.0
 32
0.0
 13
1.0
 23
0.0
 33
0.0
 40
0.0
 40
0.0
 40
0.0
 40
0.0
 40
0.0909090909090909
 40
0.0909090909090909
 40
0.0909090909090909
 40
0.0909090909090909
 40
0.1818181818181818
 40
0.1818181818181818
 40
0.1818181818181818
 40
0.1818181818181818
 40
0.2727272727272727
 40
0.2727272727272727
 40
0.2727272727272727
 40
0.2727272727272727
 40
0.3636363636363636
 40
0.3636363636363636
 40
0.3636363636363636
 40
0.3636363636363636
 40
0.4545454545454545
 40
0.4545454545454545
 40
0.4545454545454545
 40
0.4545454545454545
 40
0.5454545454545454
 40
0.5454545454545454
 40
0.5454545454545454
 40
0.5454545454545454
 40
0.6363636363636364
 40
0.6363636363636364
 40
0.6363636363636364
 40
0.6363636363636364
 40
0.7272727272727273
 40
0.7272727272727273
 40
0.7272727272727273
 40
0.7272727272727273
 40
0.8181818181818182
 40
0.8181818181818182
 40
0.8181818181818182
 40
0.8181818181818182
 40
1.0
 40
1.0
 40
1.0
 40
1.0
 10
-179.9066
 20
10.041
 30
0.0
 10
-179.9066
 20
10.041
 30
0.0
 10
-155.6893
 20
10.041
 30
0.0
 10
-155.6893
 20
10.041
 30
0.0
 10
-155.6893
 20
10.041
 30
0.0
 10
-155.6893
 20
10.041
 30
0.0
 10
-155.6893
 20
-14.3222
 30
0.0
 10
-155.6893
 20
-14.3222
 30
0.0
 10
-155.6893
 20
-14.3222
 30
0.0
 10
-155.6893
 20
-14.3222
 30
0.0
 10
-171.0537
 20
-14.3224
 30
0.0
 10
-171.0537
 20
-14.3224
 30
0.0
 10
-171.0537
 20
-14.3224
 30
0.0
 10
-171.0537
 20
-14.3224
 30
0.0
 10
-171.0823
 20
-9.7684
 30
0.0
 10
-171.0823
 20
-9.7684
 30
0.0
 10
-171.0823
 20
-9.7684
 30
0.0
 10
-171.0823
 20
-9.7684
 30
0.0
 10
-160.1112
 20
-9.7294
 30
0.0
 10
-160.1112
 20
-9.7294
 30
0.0
 10
-160.1112
 20
-9.7294
 30
0.0
 10
-160.1112
 20
-9.7294
 30
0.0
 10
-160.1112
 20
5.2872
 30
0.0
 10
-160.1112
 20
5.2872
 30
0.0
 10
-160.1112
 20
5.2872
 30
0.0
 10
-160.1112
 20
5.2872
 30
0.0
 10
-175.3741
 20
5.2872
 30
0.0
 10
-175.3741
 20
5.2872
 30
0.0
 10
-175.3741
 20
5.2872
 30
0.0
 10
-175.3741
 20
5.2872
 30
0.0
 10
-175.3741
 20
-5.3237
 30
0.0
 10
-175.3741
 20
-5.3237
 30
0.0
 10
-175.3741
 20
-5.3237
 30
0.0
 10
-175.3741
 20
-5.3237
 30
0.0
 10
-179.9066
 20
-5.3237
 30
0.0
 10
-179.9066
 20
-5.3237
 30
0.0
 10
-179.9066
 20
-5.3237
 30
0.0
 10
-179.9066
 20
-5.3237
 30
0.0
 10
-179.9066
 20
10.041
 30
0.0
 10
-179.9066
 20
10.041
 30
0.0
  0
SPLINE
  5
63
330
1F
100
AcDbEntity
  8
layer 1
 62
     7
100
AcDbSpline
210
0.0
220
0.0
230
1.0
 70
    11
 71
     3
 72
    20
 73
    16
 74
     0
 42
0.0000000001
 43
0.0000000001
 12
1.0
 22
0.0
 32
0.0
 13
1.0
 23
0.0
 33
0.0
 40
0.0
 40
0.0
 40
0.0
 40
0.0
 40
0.2
 40
0.2
 40
0.2
 40
0.2
 40
0.4
 40
0.4
 40
0.4
 40
0.4
 40
0.6
 40
0.6
 40
0.6
 40
0.6
 40
1.0
 40
1.0
 40
1.0
 40
1.0
 10
-117.8162
 20
-5.2678
 30
0.0
 10
-117.8162
 20
-5.2678
 30
0.0
 10
-124.0622
 20
-5.2678
 30
0.0
 10
-124.0622
 20
-5.2678
 30
0.0
 10
-124.0622
 20
-5.2678
 30
0.0
 10
-124.0622
 20
-5.2678
 30
0.0
 10
-124.0622
 20
0.9782
 30
0.0
 10
-124.0622
 20
0.9782
 30
0.0
 10
-124.0622
 20
0.9782
 30
0.0
 10
-124.0622
 20
0.9782
 30
0.0
 10
-117.8162
 20
0.9782
 30
0.0
 10
-117.8162
 20
0.9782
 30
0.0
 10
-117.8162
 20
0.9782
 30
0.0
 10
-117.8162
 20
0.9782
 30
0.0
 10
-117.8162
 20
-5.2678
 30
0.0
 10
-117.8162
 20
-5.2678
 30
0.0
  0
SPLINE
  5
64
330
1F
100
AcDbEntity
  8
layer 1
 62
     7
100
AcDbSpline
210
0.0
220
0.0
230
1.0
 70
    11
 71
     3
 72
    36
 73
    32
 74
     0
 42
0.0000000001
 43
0.0000000001
 12
1.0
 22
0.0
 32
0.0
 13
1.0
 23
0.0
 33
0.0
 40
0.0
 40
0.0
 40
0.0
 40
0.0
 40
0.1111111111111111
 40
0.1111111111111111
 40
0.1111111111111111
 40
0.1111111111111111
 40
0.2222222222222222
 40
0.2222222222222222
 40
0.2222222222222222
 40
0.2222222222222222
 40
0.3333333333333333
 40
0.3333333333333333
 40
0.3333333333333333
 40
0.3333333333333333
 40
0.4444444444444444
 40
0.4444444444444444
 40
0.4444444444444444
 40
0.4444444444444444
 40
0.5555555555555556
 40
0.5555555555555556
 40
0.5555555555555556
 40
0.5555555555555556
 40
0.6666666666666666
 40
0.6666666666666666
 40
0.6666666666666666
 40
0.6666666666666666
 40
0.7777777777777778
 40
0.7777777777777778
 40
0.7777777777777778
 40
0.7777777777777778
 40
1.0
 40
1.0
 40
1.0
 40
1.0
 10
-108.8617
 20
-23.5084
 30
0.0
 10
-108.8617
 20
-23.5084
 30
0.0
 10
-142.137
 20
-23.5084
 30
0.0
 10
-142.137
 20
-23.5084
 30
0.0
 10
-142.137
 20
-23.5084
 30
0.0
 10
-142.137
 20
-23.5084
 30
0.0
 10
-142.137
 20
9.958
 30
0.0
 10
-142.137
 20
9.958
 30
0.0
 10
-142.137
 20
9.958
 30
0.0
 10
-142.137
 20
9.958
 30
0.0
 10
-137.7151
 20
9.9582
 30
0.0
 10
-137.7151
 20
9.9582
 30
0.0
 10
-137.7151
 20
9.9582
 30
0.0
 10
-137.7151
 20
9.9582
 30
0.0
 10
-137.7151
 20
-18.7548
 30
0.0
 10
-137.7151
 20
-18.7548
 30
0.0
 10
-137.7151
 20
-18.7548
 30
0.0
 10
-137.7151
 20
-18.7548
 30
0.0
 10
-113.3942
 20
-18.7548
 30
0.0
 10
-113.3942
 20
-18.7548
 30
0.0
 10
-113.3942
 20
-18.7548
 30
0.0
 10
-113.3942
 20
-18.7548
 30
0.0
 10
-113.3942
 20
-9.8555
 30
0.0
 10
-113.3942
 20
-9.8555
 30
0.0
 10
-113.3942
 20
-9.8555
 30
0.0
 10
-113.3942
 20
-9.8555
 30
0.0
 10
-108.8617
 20
-9.8555
 30
0.0
 10
-108.8617
 20
-9.8555
 30
0.0
 10
-108.8617
 20
-9.8555
 30
0.0
 10
-108.8617
 20
-9.8555
 30
0.0
 10
-108.8617
 20
-23.5084
 30
0.0
 10
-108.8617
 20
-23.5084
 30
0.0
  0
SPLINE
  5
65
330
1F
100
AcDbEntity
  8
layer 1
 62
     7
100
AcDbSpline
210
0.0
220
0.0
230
1.0
 70
    11
 71
     3
 72
    44
 73
    40
 74
     0
 42
0.0000000001
 43
0.0000000001
 12
1.0
 22
0.0
 32
0.0
 13
1.0
 23
0.0
 33
0.0
 40
0.0
 40
0.0
 40
0.0
 40
0.0
 40
0.0909090909090909
 40
0.0909090909090909
 40
0.0909090909090909
 40
0.0909090909090909
 40
0.1818181818181818
 40
0.1818181818181818
 40
0.1818181818181818
 40
0.1818181818181818
 40
0.2727272727272727
 40
0.2727272727272727
 40
0.2727272727272727
 40
0.2727272727272727
 40
0.3636363636363636
 40
0.3636363636363636
 40
0.3636363636363636
 40
0.3636363636363636
 40
0.4545454545454545
 40
0.4545454545454545
 40
0.4545454545454545
 40
0.4545454545454545
 40
0.5454545454545454
 40
0.5454545454545454
 40
0.5454545454545454
 40
0.5454545454545454
 40
0.6363636363636364
 40
0.6363636363636364
 40
0.6363636363636364
 40
0.6363636363636364
 40
0.7272727272727273
 40
0.7272727272727273
 40
0.7272727272727273
 40
0.7272727272727273
 40
0.8181818181818182
 40
0.8181818181818182
 40
0.8181818181818182
 40
0.8181818181818182
 40
1.0
 40
1.0
 40
1.0
 40
1.0
 10
-108.8617
 20
10.041
 30
0.0
 10
-108.8617
 20
10.041
 30
0.0
 10
-133.0791
 20
10.041
 30
0.0
 10
-133.0791
 20
10.041
 30
0.0
 10
-133.0791
 20
10.041
 30
0.0
 10
-133.0791
 20
10.041
 30
0.0
 10
-133.0791
 20
-14.3222
 30
0.0
 10
-133.0791
 20
-14.3222
 30
0.0
 10
-133.0791
 20
-14.3222
 30
0.0
 10
-133.0791
 20
-14.3222
 30
0.0
 10
-117.7147
 20
-14.3224
 30
0.0
 10
-117.7147
 20
-14.3224
 30
0.0
 10
-117.7147
 20
-14.3224
 30
0.0
 10
-117.7147
 20
-14.3224
 30
0.0
 10
-117.686
 20
-9.7684
 30
0.0
 10
-117.686
 20
-9.7684
 30
0.0
 10
-117.686
 20
-9.7684
 30
0.0
 10
-117.686
 20
-9.7684
 30
0.0
 10
-128.6571
 20
-9.7294
 30
0.0
 10
-128.6571
 20
-9.7294
 30
0.0
 10
-128.6571
 20
-9.7294
 30
0.0
 10
-128.6571
 20
-9.7294
 30
0.0
 10
-128.6571
 20
5.2872
 30
0.0
 10
-128.6571
 20
5.2872
 30
0.0
 10
-128.6571
 20
5.2872
 30
0.0
 10
-128.6571
 20
5.2872
 30
0.0
 10
-113.3942
 20
5.2872
 30
0.0
 10
-113.3942
 20
5.2872
 30
0.0
 10
-113.3942
 20
5.2872
 30
0.0
 10
-113.3942
 20
5.2872
 30
0.0
 10
-113.3942
 20
-5.3237
 30
0.0
 10
-113.3942
 20
-5.3237
 30
0.0
 10
-113.3942
 20
-5.3237
 30
0.0
 10
-113.3942
 20
-5.3237
 30
0.0
 10
-108.8617
 20
-5.3237
 30
0.0
 10
-108.8617
 20
-5.3237
 30
0.0
 10
-108.8617
 20
-5.3237
 30
0.0
 10
-108.8617
 20
-5.3237
 30
0.0
 10
-108.8617
 20
10.041
 30
0.0
 10
-108.8617
 20
10.041
 30
0.0
  0
SPLINE
  5
66
330
1F
100
AcDbEntity
  8
layer 1
 62
     7
100
AcDbSpline
210
0.0
220
0.0
230
1.0
 70
    11
 71
     3
 72
    20
 73
    16
 74
     0
 42
0.0000000001
 43
0.0000000001
 12
1.0
 22
0.0
 32
0.0
 13
1.0
 23
0.0
 33
0.0
 40
0.0
 40
0.0
 40
0.0
 40
0.0
 40
0.2
 40
0.2
 40
0.2
 40
0.2
 40
0.4
 40
0.4
 40
0.4
 40
0.4
 40
0.6
 40
0.6
 40
0.6
 40
0.6
 40
1.0
 40
1.0
 40
1.0
 40
1.0
 10
-95.1521
 20
0.9494
 30
0.0
 10
-95.1521
 20
0.9494
 30
0.0
 10
-95.1521
 20
-5.2966
 30
0.0
 10
-95.1521
 20
-5.2966
 30
0.0
 10
-95.1521
 20
-5.2966
 30
0.0
 10
-95.1521
 20
-5.2966
 30
0.0
 10
-80.018
 20
-5.2966
 30
0.0
 10
-80.018
 20
-5.2966
 30
0.0
 10
-80.018
 20
-5.2966
 30
0.0
 10
-80.018
 20
-5.2966
 30
0.0
 10
-80.018
 20
0.9494
 30
0.0
 10
-80.018
 20
0.9494
 30
0.0
 10
-80.018
 20
0.9494
 30
0.0
 10
-80.018
 20
0.9494
 30
0.0
 10
-95.1521
 20
0.9494
 30
0.0
 10
-95.1521
 20
0.9494
 30
0.0
  0
SPLINE
  5
67
330
1F
100
AcDbEntity
  8
layer 1
 62
     7
100
AcDbSpline
210
0.0
220
0.0
230
1.0
 70
    11
 71
     3
 72
    28
 73
    24
 74
     0
 42
0.0000000001
 43
0.0000000001
 12
1.0
 22
0.0
 32
0.0
 13
1.0
 23
0.0
 33
0.0
 40
0.0
 40
0.0
 40
0.0
 40
0.0
 40
0.1428571428571428
 40
0.1428571428571428
 40
0.1428571428571428
 40
0.1428571428571428
 40
0.2857142857142857
 40
0.2857142857142857
 40
0.2857142857142857
 40
0.2857142857142857
 40
0.4285714285714285
 40
0.4285714285714285
 40
0.4285714285714285
 40
0.4285714285714285
 40
0.5714285714285714
 40
0.5714285714285714
 40
0.5714285714285714
 40
0.5714285714285714
 40
0.7142857142857143
 40
0.7142857142857143
 40
0.7142857142857143
 40
0.7142857142857143
 40
1.0
 40
1.0
 40
1.0
 40
1.0
 10
-104.5045
 20
-9.8388
 30
0.0
 10
-104.5045
 20
-9.8388
 30
0.0
 10
-104.5045
 20
-23.3713
 30
0.0
 10
-104.5045
 20
-23.3713
 30
0.0
 10
-104.5045
 20
-23.3713
 30
0.0
 10
-104.5045
 20
-23.3713
 30
0.0
 10
-71.0381
 20
-23.3713
 30
0.0
 10
-71.0381
 20
-23.3713
 30
0.0
 10
-71.0381
 20
-23.3713
 30
0.0
 10
-71.0381
 20
-23.3713
 30
0.0
 10
-71.038
 20
-18.9493
 30
0.0
 10
-71.038
 20
-18.9493
 30
0.0
 10
-71.038
 20
-18.9493
 30
0.0
 10
-71.038
 20
-18.9493
 30
0.0
 10
-99.7509
 20
-18.9493
 30
0.0
 10
-99.7509
 20
-18.9493
 30
0.0
 10
-99.7509
 20
-18.9493
 30
0.0
 10
-99.7509
 20
-18.9493
 30
0.0
 10
-99.7509
 20
-9.8767
 30
0.0
 10
-99.7509
 20
-9.8767
 30
0.0
 10
-99.7509
 20
-9.8767
 30
0.0
 10
-99.7509
 20
-9.8767
 30
0.0
 10
-104.5045
 20
-9.8388
 30
0.0
 10
-104.5045
 20
-9.8388
 30
0.0
  0
SPLINE
  5
68
330
1F
100
AcDbEntity
  8
layer 1
 62
     7
100
AcDbSpline
210
0.0
220
0.0
230
1.0
 70
    11
 71
     3
 72
    44
 73
    40
 74
     0
 42
0.0000000001
 43
0.0000000001
 12
1.0
 22
0.0
 32
0.0
 13
1.0
 23
0.0
 33
0.0
 40
0.0
 40
0.0
 40
0.0
 40
0.0
 40
0.0909090909090909
 40
0.0909090909090909
 40
0.0909090909090909
 40
0.0909090909090909
 40
0.1818181818181818
 40
0.1818181818181818
 40
0.1818181818181818
 40
0.1818181818181818
 40
0.2727272727272727
 40
0.2727272727272727
 40
0.2727272727272727
 40
0.2727272727272727
 40
0.3636363636363636
 40
0.3636363636363636
 40
0.3636363636363636
 40
0.3636363636363636
 40
0.4545454545454545
 40
0.4545454545454545
 40
0.4545454545454545
 40
0.4545454545454545
 40
0.5454545454545454
 40
0.5454545454545454
 40
0.5454545454545454
 40
0.5454545454545454
 40
0.6363636363636364
 40
0.6363636363636364
 40
0.6363636363636364
 40
0.6363636363636364
 40
0.7272727272727273
 40
0.7272727272727273
 40
0.7272727272727273
 40
0.7272727272727273
 40
0.8181818181818182
 40
0.8181818181818182
 40
0.8181818181818182
 40
0.8181818181818182
 40
1.0
 40
1.0
 40
1.0
 40
1.0
 10
-70.9552
 20
9.9039
 30
0.0
 10
-70.9552
 20
9.9039
 30
0.0
 10
-70.9552
 20
-14.3135
 30
0.0
 10
-70.9552
 20
-14.3135
 30
0.0
 10
-70.9552
 20
-14.3135
 30
0.0
 10
-70.9552
 20
-14.3135
 30
0.0
 10
-95.3184
 20
-14.3135
 30
0.0
 10
-95.3184
 20
-14.3135
 30
0.0
 10
-95.3184
 20
-14.3135
 30
0.0
 10
-95.3184
 20
-14.3135
 30
0.0
 10
-95.2876
 20
-9.8334
 30
0.0
 10
-95.2876
 20
-9.8334
 30
0.0
 10
-95.2876
 20
-9.8334
 30
0.0
 10
-95.2876
 20
-9.8334
 30
0.0
 10
-75.7088
 20
-9.8124
 30
0.0
 10
-75.7088
 20
-9.8124
 30
0.0
 10
-75.7088
 20
-9.8124
 30
0.0
 10
-75.7088
 20
-9.8124
 30
0.0
 10
-75.7088
 20
5.3714
 30
0.0
 10
-75.7088
 20
5.3714
 30
0.0
 10
-75.7088
 20
5.3714
 30
0.0
 10
-75.7088
 20
5.3714
 30
0.0
 10
-99.7356
 20
5.3714
 30
0.0
 10
-99.7356
 20
5.3714
 30
0.0
 10
-99.7356
 20
5.3714
 30
0.0
 10
-99.7356
 20
5.3714
 30
0.0
 10
-99.7378
 20
-5.3262
 30
0.0
 10
-99.7378
 20
-5.3262
 30
0.0
 10
-99.7378
 20
-5.3262
 30
0.0
 10
-99.7378
 20
-5.3262
 30
0.0
 10
-104.3427
 20
-5.3262
 30
0.0
 10
-104.3427
 20
-5.3262
 30
0.0
 10
-104.3427
 20
-5.3262
 30
0.0
 10
-104.3427
 20
-5.3262
 30
0.0
 10
-104.3427
 20
9.9039
 30
0.0
 10
-104.3427
 20
9.9039
 30
0.0
 10
-104.3427
 20
9.9039
 30
0.0
 10
-104.3427
 20
9.9039
 30
0.0
 10
-70.9552
 20
9.9039
 30
0.0
 10
-70.9552
 20
9.9039
 30
0.0
  0
SPLINE
  5
69
330
1F
100
AcDbEntity
  8
layer 1
 62
     7
100
AcDbSpline
210
0.0
220
0.0
230
1.0
 70
    11
 71
     3
 72
    20
 73
    16
 74
     0
 42
0.0000000001
 43
0.0000000001
 12
1.0
 22
0.0
 32
0.0
 13
1.0
 23
0.0
 33
0.0
 40
0.0
 40
0.0
 40
0.0
 40
0.0
 40
0.2
 40
0.2
 40
0.2
 40
0.2
 40
0.4
 40
0.4
 40
0.4
 40
0.4
 40
0.6
 40
0.6
 40
0.6
 40
0.6
 40
1.0
 40
1.0
 40
1.0
 40
1.0
 10
-86.264
 20
39.2538
 30
0.0
 10
-86.264
 20
39.2538
 30
0.0
 10
-86.264
 20
33.0078
 30
0.0
 10
-86.264
 20
33.0078
 30
0.0
 10
-86.264
 20
33.0078
 30
0.0
 10
-86.264
 20
33.0078
 30
0.0
 10
-80.018
 20
33.0078
 30
0.0
 10
-80.018
 20
33.0078
 30
0.0
 10
-80.018
 20
33.0078
 30
0.0
 10
-80.018
 20
33.0078
 30
0.0
 10
-80.018
 20
39.2538
 30
0.0
 10
-80.018
 20
39.2538
 30
0.0
 10
-80.018
 20
39.2538
 30
0.0
 10
-80.018
 20
39.2538
 30
0.0
 10
-86.264
 20
39.2538
 30
0.0
 10
-86.264
 20
39.2538
 30
0.0
  0
SPLINE
  5
6A
330
1F
100
AcDbEntity
  8
layer 1
 62
     7
100
AcDbSpline
210
0.0
220
0.0
230
1.0
 70
    11
 71
     3
 72
    36
 73
    32
 74
     0
 42
0.0000000001
 43
0.0000000001
 12
1.0
 22
0.0
 32
0.0
 13
1.0
 23
0.0
 33
0.0
 40
0.0
 40
0.0
 40
0.0
 40
0.0
 40
0.1111111111111111
 40
0.1111111111111111
 40
0.1111111111111111
 40
0.1111111111111111
 40
0.2222222222222222
 40
0.2222222222222222
 40
0.2222222222222222
 40
0.2222222222222222
 40
0.3333333333333333
 40
0.3333333333333333
 40
0.3333333333333333
 40
0.3333333333333333
 40
0.4444444444444444
 40
0.4444444444444444
 40
0.4444444444444444
 40
0.4444444444444444
 40
0.5555555555555556
 40
0.5555555555555556
 40
0.5555555555555556
 40
0.5555555555555556
 40
0.6666666666666666
 40
0.6666666666666666
 40
0.6666666666666666
 40
0.6666666666666666
 40
0.7777777777777778
 40
0.7777777777777778
 40
0.7777777777777778
 40
0.7777777777777778
 40
1.0
 40
1.0
 40
1.0
 40
1.0
 10
-104.5045
 20
48.2083
 30
0.0
 10
-104.5045
 20
48.2083
 30
0.0
 10
-104.5045
 20
14.933
 30
0.0
 10
-104.5045
 20
14.933
 30
0.0
 10
-104.5045
 20
14.933
 30
0.0
 10
-104.5045
 20
14.933
 30
0.0
 10
-71.0381
 20
14.933
 30
0.0
 10
-71.0381
 20
14.933
 30
0.0
 10
-71.0381
 20
14.933
 30
0.0
 10
-71.0381
 20
14.933
 30
0.0
 10
-71.038
 20
19.355
 30
0.0
 10
-71.038
 20
19.355
 30
0.0
 10
-71.038
 20
19.355
 30
0.0
 10
-71.038
 20
19.355
 30
0.0
 10
-99.7509
 20
19.355
 30
0.0
 10
-99.7509
 20
19.355
 30
0.0
 10
-99.7509
 20
19.355
 30
0.0
 10
-99.7509
 20
19.355
 30
0.0
 10
-99.7509
 20
43.6758
 30
0.0
 10
-99.7509
 20
43.6758
 30
0.0
 10
-99.7509
 20
43.6758
 30
0.0
 10
-99.7509
 20
43.6758
 30
0.0
 10
-90.8517
 20
43.6758
 30
0.0
 10
-90.8517
 20
43.6758
 30
0.0
 10
-90.8517
 20
43.6758
 30
0.0
 10
-90.8517
 20
43.6758
 30
0.0
 10
-90.8517
 20
48.2083
 30
0.0
 10
-90.8517
 20
48.2083
 30
0.0
 10
-90.8517
 20
48.2083
 30
0.0
 10
-90.8517
 20
48.2083
 30
0.0
 10
-104.5045
 20
48.2083
 30
0.0
 10
-104.5045
 20
48.2083
 30
0.0
  0
SPLINE
  5
6B
330
1F
100
AcDbEntity
  8
layer 1
 62
     7
100
AcDbSpline
210
0.0
220
0.0
230
1.0
 70
    11
 71
     3
 72
    44
 73
    40
 74
     0
 42
0.0000000001
 43
0.0000000001
 12
1.0
 22
0.0
 32
0.0
 13
1.0
 23
0.0
 33
0.0
 40
0.0
 40
0.0
 40
0.0
 40
0.0
 40
0.0909090909090909
 40
0.0909090909090909
 40
0.0909090909090909
 40
0.0909090909090909
 40
0.1818181818181818
 40
0.1818181818181818
 40
0.1818181818181818
 40
0.1818181818181818
 40
0.2727272727272727
 40
0.2727272727272727
 40
0.2727272727272727
 40
0.2727272727272727
 40
0.3636363636363636
 40
0.3636363636363636
 40
0.3636363636363636
 40
0.3636363636363636
 40
0.4545454545454545
 40
0.4545454545454545
 40
0.4545454545454545
 40
0.4545454545454545
 40
0.5454545454545454
 40
0.5454545454545454
 40
0.5454545454545454
 40
0.5454545454545454
 40
0.6363636363636364
 40
0.6363636363636364
 40
0.6363636363636364
 40
0.6363636363636364
 40
0.7272727272727273
 40
0.7272727272727273
 40
0.7272727272727273
 40
0.7272727272727273
 40
0.8181818181818182
 40
0.8181818181818182
 40
0.8181818181818182
 40
0.8181818181818182
 40
1.0
 40
1.0
 40
1.0
 40
1.0
 10
-70.9552
 20
48.2083
 30
0.0
 10
-70.9552
 20
48.2083
 30
0.0
 10
-70.9552
 20
23.991
 30
0.0
 10
-70.9552
 20
23.991
 30
0.0
 10
-70.9552
 20
23.991
 30
0.0
 10
-70.9552
 20
23.991
 30
0.0
 10
-95.3184
 20
23.991
 30
0.0
 10
-95.3184
 20
23.991
 30
0.0
 10
-95.3184
 20
23.991
 30
0.0
 10
-95.3184
 20
23.991
 30
0.0
 10
-95.3185
 20
39.3554
 30
0.0
 10
-95.3185
 20
39.3554
 30
0.0
 10
-95.3185
 20
39.3554
 30
0.0
 10
-95.3185
 20
39.3554
 30
0.0
 10
-90.7645
 20
39.384
 30
0.0
 10
-90.7645
 20
39.384
 30
0.0
 10
-90.7645
 20
39.384
 30
0.0
 10
-90.7645
 20
39.384
 30
0.0
 10
-90.7256
 20
28.4129
 30
0.0
 10
-90.7256
 20
28.4129
 30
0.0
 10
-90.7256
 20
28.4129
 30
0.0
 10
-90.7256
 20
28.4129
 30
0.0
 10
-75.7089
 20
28.4129
 30
0.0
 10
-75.7089
 20
28.4129
 30
0.0
 10
-75.7089
 20
28.4129
 30
0.0
 10
-75.7089
 20
28.4129
 30
0.0
 10
-75.7089
 20
43.6758
 30
0.0
 10
-75.7089
 20
43.6758
 30
0.0
 10
-75.7089
 20
43.6758
 30
0.0
 10
-75.7089
 20
43.6758
 30
0.0
 10
-86.3198
 20
43.6758
 30
0.0
 10
-86.3198
 20
43.6758
 30
0.0
 10
-86.3198
 20
43.6758
 30
0.0
 10
-86.3198
 20
43.6758
 30
0.0
 10
-86.3198
 20
48.2083
 30
0.0
 10
-86.3198
 20
48.2083
 30
0.0
 10
-86.3198
 20
48.2083
 30
0.0
 10
-86.3198
 20
48.2083
 30
0.0
 10
-70.9552
 20
48.2083
 30
0.0
 10
-70.9552
 20
48.2083
 30
0.0
  0
SPLINE
  5
6C
330
1F
100
AcDbEntity
  8
layer 1
 62
     7
100
AcDbSpline
210
0.0
220
0.0
230
1.0
 70
    11
 71
     3
 72
    20
 73
    16
 74
     0
 42
0.0000000001
 43
0.0000000001
 12
1.0
 22
0.0
 32
0.0
 13
1.0
 23
0.0
 33
0.0
 40
0.0
 40
0.0
 40
0.0
 40
0.0
 40
0.2
 40
0.2
 40
0.2
 40
0.2
 40
0.4
 40
0.4
 40
0.4
 40
0.4
 40
0.6
 40
0.6
 40
0.6
 40
0.6
 40
1.0
 40
1.0
 40
1.0
 40
1.0
 10
-117.6323
 20
61.9089
 30
0.0
 10
-117.6323
 20
61.9089
 30
0.0
 10
-123.8783
 20
61.9089
 30
0.0
 10
-123.8783
 20
61.9089
 30
0.0
 10
-123.8783
 20
61.9089
 30
0.0
 10
-123.8783
 20
61.9089
 30
0.0
 10
-123.8783
 20
77.043
 30
0.0
 10
-123.8783
 20
77.043
 30
0.0
 10
-123.8783
 20
77.043
 30
0.0
 10
-123.8783
 20
77.043
 30
0.0
 10
-117.6323
 20
77.043
 30
0.0
 10
-117.6323
 20
77.043
 30
0.0
 10
-117.6323
 20
77.043
 30
0.0
 10
-117.6323
 20
77.043
 30
0.0
 10
-117.6323
 20
61.9089
 30
0.0
 10
-117.6323
 20
61.9089
 30
0.0
  0
SPLINE
  5
6D
330
1F
100
AcDbEntity
  8
layer 1
 62
     7
100
AcDbSpline
210
0.0
220
0.0
230
1.0
 70
    11
 71
     3
 72
    28
 73
    24
 74
     0
 42
0.0000000001
 43
0.0000000001
 12
1.0
 22
0.0
 32
0.0
 13
1.0
 23
0.0
 33
0.0
 40
0.0
 40
0.0
 40
0.0
 40
0.0
 40
0.1428571428571428
 40
0.1428571428571428
 40
0.1428571428571428
 40
0.1428571428571428
 40
0.2857142857142857
 40
0.2857142857142857
 40
0.2857142857142857
 40
0.2857142857142857
 40
0.4285714285714285
 40
0.4285714285714285
 40
0.4285714285714285
 40
0.4285714285714285
 40
0.5714285714285714
 40
0.5714285714285714
 40
0.5714285714285714
 40
0.5714285714285714
 40
0.7142857142857143
 40
0.7142857142857143
 40
0.7142857142857143
 40
0.7142857142857143
 40
1.0
 40
1.0
 40
1.0
 40
1.0
 10
-128.4204
 20
52.5565
 30
0.0
 10
-128.4204
 20
52.5565
 30
0.0
 10
-141.9529
 20
52.5565
 30
0.0
 10
-141.9529
 20
52.5565
 30
0.0
 10
-141.9529
 20
52.5565
 30
0.0
 10
-141.9529
 20
52.5565
 30
0.0
 10
-141.9529
 20
86.0229
 30
0.0
 10
-141.9529
 20
86.0229
 30
0.0
 10
-141.9529
 20
86.0229
 30
0.0
 10
-141.9529
 20
86.0229
 30
0.0
 10
-137.531
 20
86.023
 30
0.0
 10
-137.531
 20
86.023
 30
0.0
 10
-137.531
 20
86.023
 30
0.0
 10
-137.531
 20
86.023
 30
0.0
 10
-137.531
 20
57.3101
 30
0.0
 10
-137.531
 20
57.3101
 30
0.0
 10
-137.531
 20
57.3101
 30
0.0
 10
-137.531
 20
57.3101
 30
0.0
 10
-128.4584
 20
57.3101
 30
0.0
 10
-128.4584
 20
57.3101
 30
0.0
 10
-128.4584
 20
57.3101
 30
0.0
 10
-128.4584
 20
57.3101
 30
0.0
 10
-128.4204
 20
52.5565
 30
0.0
 10
-128.4204
 20
52.5565
 30
0.0
  0
SPLINE
  5
6E
330
1F
100
AcDbEntity
  8
layer 1
 62
     7
100
AcDbSpline
210
0.0
220
0.0
230
1.0
 70
    11
 71
     3
 72
    44
 73
    40
 74
     0
 42
0.0000000001
 43
0.0000000001
 12
1.0
 22
0.0
 32
0.0
 13
1.0
 23
0.0
 33
0.0
 40
0.0
 40
0.0
 40
0.0
 40
0.0
 40
0.0909090909090909
 40
0.0909090909090909
 40
0.0909090909090909
 40
0.0909090909090909
 40
0.1818181818181818
 40
0.1818181818181818
 40
0.1818181818181818
 40
0.1818181818181818
 40
0.2727272727272727
 40
0.2727272727272727
 40
0.2727272727272727
 40
0.2727272727272727
 40
0.3636363636363636
 40
0.3636363636363636
 40
0.3636363636363636
 40
0.3636363636363636
 40
0.4545454545454545
 40
0.4545454545454545
 40
0.4545454545454545
 40
0.4545454545454545
 40
0.5454545454545454
 40
0.5454545454545454
 40
0.5454545454545454
 40
0.5454545454545454
 40
0.6363636363636364
 40
0.6363636363636364
 40
0.6363636363636364
 40
0.6363636363636364
 40
0.7272727272727273
 40
0.7272727272727273
 40
0.7272727272727273
 40
0.7272727272727273
 40
0.8181818181818182
 40
0.8181818181818182
 40
0.8181818181818182
 40
0.8181818181818182
 40
1.0
 40
1.0
 40
1.0
 40
1.0
 10
-108.6778
 20
86.1058
 30
0.0
 10
-108.6778
 20
86.1058
 30
0.0
 10
-132.8951
 20
86.1058
 30
0.0
 10
-132.8951
 20
86.1058
 30
0.0
 10
-132.8951
 20
86.1058
 30
0.0
 10
-132.8951
 20
86.1058
 30
0.0
 10
-132.8951
 20
61.7426
 30
0.0
 10
-132.8951
 20
61.7426
 30
0.0
 10
-132.8951
 20
61.7426
 30
0.0
 10
-132.8951
 20
61.7426
 30
0.0
 10
-128.4151
 20
61.7734
 30
0.0
 10
-128.4151
 20
61.7734
 30
0.0
 10
-128.4151
 20
61.7734
 30
0.0
 10
-128.4151
 20
61.7734
 30
0.0
 10
-128.394
 20
81.3522
 30
0.0
 10
-128.394
 20
81.3522
 30
0.0
 10
-128.394
 20
81.3522
 30
0.0
 10
-128.394
 20
81.3522
 30
0.0
 10
-113.2103
 20
81.3522
 30
0.0
 10
-113.2103
 20
81.3522
 30
0.0
 10
-113.2103
 20
81.3522
 30
0.0
 10
-113.2103
 20
81.3522
 30
0.0
 10
-113.2103
 20
57.3254
 30
0.0
 10
-113.2103
 20
57.3254
 30
0.0
 10
-113.2103
 20
57.3254
 30
0.0
 10
-113.2103
 20
57.3254
 30
0.0
 10
-123.9078
 20
57.3232
 30
0.0
 10
-123.9078
 20
57.3232
 30
0.0
 10
-123.9078
 20
57.3232
 30
0.0
 10
-123.9078
 20
57.3232
 30
0.0
 10
-123.9078
 20
52.7183
 30
0.0
 10
-123.9078
 20
52.7183
 30
0.0
 10
-123.9078
 20
52.7183
 30
0.0
 10
-123.9078
 20
52.7183
 30
0.0
 10
-108.6778
 20
52.7183
 30
0.0
 10
-108.6778
 20
52.7183
 30
0.0
 10
-108.6778
 20
52.7183
 30
0.0
 10
-108.6778
 20
52.7183
 30
0.0
 10
-108.6778
 20
86.1058
 30
0.0
 10
-108.6778
 20
86.1058
 30
0.0
  0
SPLINE
  5
6F
330
1F
100
AcDbEntity
  8
layer 1
 62
     7
100
AcDbSpline
210
0.0
220
0.0
230
1.0
 70
    11
 71
     3
 72
    20
 73
    16
 74
     0
 42
0.0000000001
 43
0.0000000001
 12
1.0
 22
0.0
 32
0.0
 13
1.0
 23
0.0
 33
0.0
 40
0.0
 40
0.0
 40
0.0
 40
0.0
 40
0.2
 40
0.2
 40
0.2
 40
0.2
 40
0.4
 40
0.4
 40
0.4
 40
0.4
 40
0.6
 40
0.6
 40
0.6
 40
0.6
 40
1.0
 40
1.0
 40
1.0
 40
1.0
 10
-170.9043
 20
61.9089
 30
0.0
 10
-170.9043
 20
61.9089
 30
0.0
 10
-164.6583
 20
61.9089
 30
0.0
 10
-164.6583
 20
61.9089
 30
0.0
 10
-164.6583
 20
61.9089
 30
0.0
 10
-164.6583
 20
61.9089
 30
0.0
 10
-164.6583
 20
77.043
 30
0.0
 10
-164.6583
 20
77.043
 30
0.0
 10
-164.6583
 20
77.043
 30
0.0
 10
-164.6583
 20
77.043
 30
0.0
 10
-170.9043
 20
77.043
 30
0.0
 10
-170.9043
 20
77.043
 30
0.0
 10
-170.9043
 20
77.043
 30
0.0
 10
-170.9043
 20
77.043
 30
0.0
 10
-170.9043
 20
61.9089
 30
0.0
 10
-170.9043
 20
61.9089
 30
0.0
  0
SPLINE
  5
70
330
1F
100
AcDbEntity
  8
layer 1
 62
     7
100
AcDbSpline
210
0.0
220
0.0
230
1.0
 70
    11
 71
     3
 72
    28
 73
    24
 74
     0
 42
0.0000000001
 43
0.0000000001
 12
1.0
 22
0.0
 32
0.0
 13
1.0
 23
0.0
 33
0.0
 40
0.0
 40
0.0
 40
0.0
 40
0.0
 40
0.1428571428571428
 40
0.1428571428571428
 40
0.1428571428571428
 40
0.1428571428571428
 40
0.2857142857142857
 40
0.2857142857142857
 40
0.2857142857142857
 40
0.2857142857142857
 40
0.4285714285714285
 40
0.4285714285714285
 40
0.4285714285714285
 40
0.4285714285714285
 40
0.5714285714285714
 40
0.5714285714285714
 40
0.5714285714285714
 40
0.5714285714285714
 40
0.7142857142857143
 40
0.7142857142857143
 40
0.7142857142857143
 40
0.7142857142857143
 40
1.0
 40
1.0
 40
1.0
 40
1.0
 10
-160.1159
 20
52.5565
 30
0.0
 10
-160.1159
 20
52.5565
 30
0.0
 10
-146.5834
 20
52.5565
 30
0.0
 10
-146.5834
 20
52.5565
 30
0.0
 10
-146.5834
 20
52.5565
 30
0.0
 10
-146.5834
 20
52.5565
 30
0.0
 10
-146.5834
 20
86.0229
 30
0.0
 10
-146.5834
 20
86.0229
 30
0.0
 10
-146.5834
 20
86.0229
 30
0.0
 10
-146.5834
 20
86.0229
 30
0.0
 10
-151.0054
 20
86.023
 30
0.0
 10
-151.0054
 20
86.023
 30
0.0
 10
-151.0054
 20
86.023
 30
0.0
 10
-151.0054
 20
86.023
 30
0.0
 10
-151.0054
 20
57.3101
 30
0.0
 10
-151.0054
 20
57.3101
 30
0.0
 10
-151.0054
 20
57.3101
 30
0.0
 10
-151.0054
 20
57.3101
 30
0.0
 10
-160.078
 20
57.3101
 30
0.0
 10
-160.078
 20
57.3101
 30
0.0
 10
-160.078
 20
57.3101
 30
0.0
 10
-160.078
 20
57.3101
 30
0.0
 10
-160.1159
 20
52.5565
 30
0.0
 10
-160.1159
 20
52.5565
 30
0.0
  0
SPLINE
  5
71
330
1F
100
AcDbEntity
  8
layer 1
 62
     7
100
AcDbSpline
210
0.0
220
0.0
230
1.0
 70
    11
 71
     3
 72
    44
 73
    40
 74
     0
 42
0.0000000001
 43
0.0000000001
 12
1.0
 22
0.0
 32
0.0
 13
1.0
 23
0.0
 33
0.0
 40
0.0
 40
0.0
 40
0.0
 40
0.0
 40
0.0909090909090909
 40
0.0909090909090909
 40
0.0909090909090909
 40
0.0909090909090909
 40
0.1818181818181818
 40
0.1818181818181818
 40
0.1818181818181818
 40
0.1818181818181818
 40
0.2727272727272727
 40
0.2727272727272727
 40
0.2727272727272727
 40
0.2727272727272727
 40
0.3636363636363636
 40
0.3636363636363636
 40
0.3636363636363636
 40
0.3636363636363636
 40
0.4545454545454545
 40
0.4545454545454545
 40
0.4545454545454545
 40
0.4545454545454545
 40
0.5454545454545454
 40
0.5454545454545454
 40
0.5454545454545454
 40
0.5454545454545454
 40
0.6363636363636364
 40
0.6363636363636364
 40
0.6363636363636364
 40
0.6363636363636364
 40
0.7272727272727273
 40
0.7272727272727273
 40
0.7272727272727273
 40
0.7272727272727273
 40
0.8181818181818182
 40
0.8181818181818182
 40
0.8181818181818182
 40
0.8181818181818182
 40
1.0
 40
1.0
 40
1.0
 40
1.0
 10
-179.8587
 20
86.1058
 30
0.0
 10
-179.8587
 20
86.1058
 30
0.0
 10
-155.6414
 20
86.1058
 30
0.0
 10
-155.6414
 20
86.1058
 30
0.0
 10
-155.6414
 20
86.1058
 30
0.0
 10
-155.6414
 20
86.1058
 30
0.0
 10
-155.6414
 20
61.7426
 30
0.0
 10
-155.6414
 20
61.7426
 30
0.0
 10
-155.6414
 20
61.7426
 30
0.0
 10
-155.6414
 20
61.7426
 30
0.0
 10
-160.1214
 20
61.7734
 30
0.0
 10
-160.1214
 20
61.7734
 30
0.0
 10
-160.1214
 20
61.7734
 30
0.0
 10
-160.1214
 20
61.7734
 30
0.0
 10
-160.1425
 20
81.3522
 30
0.0
 10
-160.1425
 20
81.3522
 30
0.0
 10
-160.1425
 20
81.3522
 30
0.0
 10
-160.1425
 20
81.3522
 30
0.0
 10
-175.3262
 20
81.3522
 30
0.0
 10
-175.3262
 20
81.3522
 30
0.0
 10
-175.3262
 20
81.3522
 30
0.0
 10
-175.3262
 20
81.3522
 30
0.0
 10
-175.3262
 20
57.3254
 30
0.0
 10
-175.3262
 20
57.3254
 30
0.0
 10
-175.3262
 20
57.3254
 30
0.0
 10
-175.3262
 20
57.3254
 30
0.0
 10
-164.6287
 20
57.3232
 30
0.0
 10
-164.6287
 20
57.3232
 30
0.0
 10
-164.6287
 20
57.3232
 30
0.0
 10
-164.6287
 20
57.3232
 30
0.0
 10
-164.6287
 20
52.7183
 30
0.0
 10
-164.6287
 20
52.7183
 30
0.0
 10
-164.6287
 20
52.7183
 30
0.0
 10
-164.6287
 20
52.7183
 30
0.0
 10
-179.8587
 20
52.7183
 30
0.0
 10
-179.8587
 20
52.7183
 30
0.0
 10
-179.8587
 20
52.7183
 30
0.0
 10
-179.8587
 20
52.7183
 30
0.0
 10
-179.8587
 20
86.1058
 30
0.0
 10
-179.8587
 20
86.1058
 30
0.0
  0
SPLINE
  5
72
330
1F
100
AcDbEntity
  8
layer 1
 62
     7
100
AcDbSpline
210
0.0
220
0.0
230
1.0
 70
    11
 71
     3
 72
    20
 73
    16
 74
     0
 42
0.0000000001
 43
0.0000000001
 12
1.0
 22
0.0
 32
0.0
 13
1.0
 23
0.0
 33
0.0
 40
0.0
 40
0.0
 40
0.0
 40
0.0
 40
0.2
 40
0.2
 40
0.2
 40
0.2
 40
0.4
 40
0.4
 40
0.4
 40
0.4
 40
0.6
 40
0.6
 40
0.6
 40
0.6
 40
1.0
 40
1.0
 40
1.0
 40
1.0
 10
-117.6323
 20
39.0042
 30
0.0
 10
-117.6323
 20
39.0042
 30
0.0
 10
-123.8783
 20
39.0042
 30
0.0
 10
-123.8783
 20
39.0042
 30
0.0
 10
-123.8783
 20
39.0042
 30
0.0
 10
-123.8783
 20
39.0042
 30
0.0
 10
-123.8783
 20
23.8701
 30
0.0
 10
-123.8783
 20
23.8701
 30
0.0
 10
-123.8783
 20
23.8701
 30
0.0
 10
-123.8783
 20
23.8701
 30
0.0
 10
-117.6323
 20
23.8701
 30
0.0
 10
-117.6323
 20
23.8701
 30
0.0
 10
-117.6323
 20
23.8701
 30
0.0
 10
-117.6323
 20
23.8701
 30
0.0
 10
-117.6323
 20
39.0042
 30
0.0
 10
-117.6323
 20
39.0042
 30
0.0
  0
SPLINE
  5
73
330
1F
100
AcDbEntity
  8
layer 1
 62
     7
100
AcDbSpline
210
0.0
220
0.0
230
1.0
 70
    11
 71
     3
 72
    28
 73
    24
 74
     0
 42
0.0000000001
 43
0.0000000001
 12
1.0
 22
0.0
 32
0.0
 13
1.0
 23
0.0
 33
0.0
 40
0.0
 40
0.0
 40
0.0
 40
0.0
 40
0.1428571428571428
 40
0.1428571428571428
 40
0.1428571428571428
 40
0.1428571428571428
 40
0.2857142857142857
 40
0.2857142857142857
 40
0.2857142857142857
 40
0.2857142857142857
 40
0.4285714285714285
 40
0.4285714285714285
 40
0.4285714285714285
 40
0.4285714285714285
 40
0.5714285714285714
 40
0.5714285714285714
 40
0.5714285714285714
 40
0.5714285714285714
 40
0.7142857142857143
 40
0.7142857142857143
 40
0.7142857142857143
 40
0.7142857142857143
 40
1.0
 40
1.0
 40
1.0
 40
1.0
 10
-128.4204
 20
48.3568
 30
0.0
 10
-128.4204
 20
48.3568
 30
0.0
 10
-141.9529
 20
48.3568
 30
0.0
 10
-141.9529
 20
48.3568
 30
0.0
 10
-141.9529
 20
48.3568
 30
0.0
 10
-141.9529
 20
48.3568
 30
0.0
 10
-141.9529
 20
14.8904
 30
0.0
 10
-141.9529
 20
14.8904
 30
0.0
 10
-141.9529
 20
14.8904
 30
0.0
 10
-141.9529
 20
14.8904
 30
0.0
 10
-137.531
 20
14.8902
 30
0.0
 10
-137.531
 20
14.8902
 30
0.0
 10
-137.531
 20
14.8902
 30
0.0
 10
-137.531
 20
14.8902
 30
0.0
 10
-137.531
 20
43.6032
 30
0.0
 10
-137.531
 20
43.6032
 30
0.0
 10
-137.531
 20
43.6032
 30
0.0
 10
-137.531
 20
43.6032
 30
0.0
 10
-128.4584
 20
43.6032
 30
0.0
 10
-128.4584
 20
43.6032
 30
0.0
 10
-128.4584
 20
43.6032
 30
0.0
 10
-128.4584
 20
43.6032
 30
0.0
 10
-128.4204
 20
48.3568
 30
0.0
 10
-128.4204
 20
48.3568
 30
0.0
  0
SPLINE
  5
74
330
1F
100
AcDbEntity
  8
layer 1
 62
     7
100
AcDbSpline
210
0.0
220
0.0
230
1.0
 70
    11
 71
     3
 72
    44
 73
    40
 74
     0
 42
0.0000000001
 43
0.0000000001
 12
1.0
 22
0.0
 32
0.0
 13
1.0
 23
0.0
 33
0.0
 40
0.0
 40
0.0
 40
0.0
 40
0.0
 40
0.0909090909090909
 40
0.0909090909090909
 40
0.0909090909090909
 40
0.0909090909090909
 40
0.1818181818181818
 40
0.1818181818181818
 40
0.1818181818181818
 40
0.1818181818181818
 40
0.2727272727272727
 40
0.2727272727272727
 40
0.2727272727272727
 40
0.2727272727272727
 40
0.3636363636363636
 40
0.3636363636363636
 40
0.3636363636363636
 40
0.3636363636363636
 40
0.4545454545454545
 40
0.4545454545454545
 40
0.4545454545454545
 40
0.4545454545454545
 40
0.5454545454545454
 40
0.5454545454545454
 40
0.5454545454545454
 40
0.5454545454545454
 40
0.6363636363636364
 40
0.6363636363636364
 40
0.6363636363636364
 40
0.6363636363636364
 40
0.7272727272727273
 40
0.7272727272727273
 40
0.7272727272727273
 40
0.7272727272727273
 40
0.8181818181818182
 40
0.8181818181818182
 40
0.8181818181818182
 40
0.8181818181818182
 40
1.0
 40
1.0
 40
1.0
 40
1.0
 10
-108.6778
 20
14.8074
 30
0.0
 10
-108.6778
 20
14.8074
 30
0.0
 10
-132.8951
 20
14.8074
 30
0.0
 10
-132.8951
 20
14.8074
 30
0.0
 10
-132.8951
 20
14.8074
 30
0.0
 10
-132.8951
 20
14.8074
 30
0.0
 10
-132.8951
 20
39.1706
 30
0.0
 10
-132.8951
 20
39.1706
 30
0.0
 10
-132.8951
 20
39.1706
 30
0.0
 10
-132.8951
 20
39.1706
 30
0.0
 10
-128.4151
 20
39.1399
 30
0.0
 10
-128.4151
 20
39.1399
 30
0.0
 10
-128.4151
 20
39.1399
 30
0.0
 10
-128.4151
 20
39.1399
 30
0.0
 10
-128.394
 20
19.561
 30
0.0
 10
-128.394
 20
19.561
 30
0.0
 10
-128.394
 20
19.561
 30
0.0
 10
-128.394
 20
19.561
 30
0.0
 10
-113.2103
 20
19.561
 30
0.0
 10
-113.2103
 20
19.561
 30
0.0
 10
-113.2103
 20
19.561
 30
0.0
 10
-113.2103
 20
19.561
 30
0.0
 10
-113.2103
 20
43.5879
 30
0.0
 10
-113.2103
 20
43.5879
 30
0.0
 10
-113.2103
 20
43.5879
 30
0.0
 10
-113.2103
 20
43.5879
 30
0.0
 10
-123.9078
 20
43.5901
 30
0.0
 10
-123.9078
 20
43.5901
 30
0.0
 10
-123.9078
 20
43.5901
 30
0.0
 10
-123.9078
 20
43.5901
 30
0.0
 10
-123.9078
 20
48.1949
 30
0.0
 10
-123.9078
 20
48.1949
 30
0.0
 10
-123.9078
 20
48.1949
 30
0.0
 10
-123.9078
 20
48.1949
 30
0.0
 10
-108.6778
 20
48.1949
 30
0.0
 10
-108.6778
 20
48.1949
 30
0.0
 10
-108.6778
 20
48.1949
 30
0.0
 10
-108.6778
 20
48.1949
 30
0.0
 10
-108.6778
 20
14.8074
 30
0.0
 10
-108.6778
 20
14.8074
 30
0.0
  0
SPLINE
  5
75
330
1F
100
AcDbEntity
  8
layer 1
 62
     7
100
AcDbSpline
210
0.0
220
0.0
230
1.0
 70
    11
 71
     3
 72
    20
 73
    16
 74
     0
 42
0.0000000001
 43
0.0000000001
 12
1.0
 22
0.0
 32
0.0
 13
1.0
 23
0.0
 33
0.0
 40
0.0
 40
0.0
 40
0.0
 40
0.0
 40
0.2
 40
0.2
 40
0.2
 40
0.2
 40
0.4
 40
0.4
 40
0.4
 40
0.4
 40
0.6
 40
0.6
 40
0.6
 40
0.6
 40
1.0
 40
1.0
 40
1.0
 40
1.0
 10
-170.9043
 20
39.0042
 30
0.0
 10
-170.9043
 20
39.0042
 30
0.0
 10
-164.6583
 20
39.0042
 30
0.0
 10
-164.6583
 20
39.0042
 30
0.0
 10
-164.6583
 20
39.0042
 30
0.0
 10
-164.6583
 20
39.0042
 30
0.0
 10
-164.6583
 20
23.8701
 30
0.0
 10
-164.6583
 20
23.8701
 30
0.0
 10
-164.6583
 20
23.8701
 30
0.0
 10
-164.6583
 20
23.8701
 30
0.0
 10
-170.9043
 20
23.8701
 30
0.0
 10
-170.9043
 20
23.8701
 30
0.0
 10
-170.9043
 20
23.8701
 30
0.0
 10
-170.9043
 20
23.8701
 30
0.0
 10
-170.9043
 20
39.0042
 30
0.0
 10
-170.9043
 20
39.0042
 30
0.0
  0
SPLINE
  5
76
330
1F
100
AcDbEntity
  8
layer 1
 62
     7
100
AcDbSpline
210
0.0
220
0.0
230
1.0
 70
    11
 71
     3
 72
    28
 73
    24
 74
     0
 42
0.0000000001
 43
0.0000000001
 12
1.0
 22
0.0
 32
0.0
 13
1.0
 23
0.0
 33
0.0
 40
0.0
 40
0.0
 40
0.0
 40
0.0
 40
0.1428571428571428
 40
0.1428571428571428
 40
0.1428571428571428
 40
0.1428571428571428
 40
0.2857142857142857
 40
0.2857142857142857
 40
0.2857142857142857
 40
0.2857142857142857
 40
0.4285714285714285
 40
0.4285714285714285
 40
0.4285714285714285
 40
0.4285714285714285
 40
0.5714285714285714
 40
0.5714285714285714
 40
0.5714285714285714
 40
0.5714285714285714
 40
0.7142857142857143
 40
0.7142857142857143
 40
0.7142857142857143
 40
0.7142857142857143
 40
1.0
 40
1.0
 40
1.0
 40
1.0
 10
-160.1159
 20
48.3568
 30
0.0
 10
-160.1159
 20
48.3568
 30
0.0
 10
-146.5834
 20
48.3568
 30
0.0
 10
-146.5834
 20
48.3568
 30
0.0
 10
-146.5834
 20
48.3568
 30
0.0
 10
-146.5834
 20
48.3568
 30
0.0
 10
-146.5834
 20
14.8904
 30
0.0
 10
-146.5834
 20
14.8904
 30
0.0
 10
-146.5834
 20
14.8904
 30
0.0
 10
-146.5834
 20
14.8904
 30
0.0
 10
-151.0054
 20
14.8902
 30
0.0
 10
-151.0054
 20
14.8902
 30
0.0
 10
-151.0054
 20
14.8902
 30
0.0
 10
-151.0054
 20
14.8902
 30
0.0
 10
-151.0054
 20
43.6032
 30
0.0
 10
-151.0054
 20
43.6032
 30
0.0
 10
-151.0054
 20
43.6032
 30
0.0
 10
-151.0054
 20
43.6032
 30
0.0
 10
-160.078
 20
43.6032
 30
0.0
 10
-160.078
 20
43.6032
 30
0.0
 10
-160.078
 20
43.6032
 30
0.0
 10
-160.078
 20
43.6032
 30
0.0
 10
-160.1159
 20
48.3568
 30
0.0
 10
-160.1159
 20
48.3568
 30
0.0
  0
SPLINE
  5
77
330
1F
100
AcDbEntity
  8
layer 1
 62
     7
100
AcDbSpline
210
0.0
220
0.0
230
1.0
 70
    11
 71
     3
 72
    44
 73
    40
 74
     0
 42
0.0000000001
 43
0.0000000001
 12
1.0
 22
0.0
 32
0.0
 13
1.0
 23
0.0
 33
0.0
 40
0.0
 40
0.0
 40
0.0
 40
0.0
 40
0.0909090909090909
 40
0.0909090909090909
 40
0.0909090909090909
 40
0.0909090909090909
 40
0.1818181818181818
 40
0.1818181818181818
 40
0.1818181818181818
 40
0.1818181818181818
 40
0.2727272727272727
 40
0.2727272727272727
 40
0.2727272727272727
 40
0.2727272727272727
 40
0.3636363636363636
 40
0.3636363636363636
 40
0.3636363636363636
 40
0.3636363636363636
 40
0.4545454545454545
 40
0.4545454545454545
 40
0.4545454545454545
 40
0.4545454545454545
 40
0.5454545454545454
 40
0.5454545454545454
 40
0.5454545454545454
 40
0.5454545454545454
 40
0.6363636363636364
 40
0.6363636363636364
 40
0.6363636363636364
 40
0.6363636363636364
 40
0.7272727272727273
 40
0.7272727272727273
 40
0.7272727272727273
 40
0.7272727272727273
 40
0.8181818181818182
 40
0.8181818181818182
 40
0.8181818181818182
 40
0.8181818181818182
 40
1.0
 40
1.0
 40
1.0
 40
1.0
 10
-179.8587
 20
14.8074
 30
0.0
 10
-179.8587
 20
14.8074
 30
0.0
 10
-155.6414
 20
14.8074
 30
0.0
 10
-155.6414
 20
14.8074
 30
0.0
 10
-155.6414
 20
14.8074
 30
0.0
 10
-155.6414
 20
14.8074
 30
0.0
 10
-155.6414
 20
39.1706
 30
0.0
 10
-155.6414
 20
39.1706
 30
0.0
 10
-155.6414
 20
39.1706
 30
0.0
 10
-155.6414
 20
39.1706
 30
0.0
 10
-160.1214
 20
39.1399
 30
0.0
 10
-160.1214
 20
39.1399
 30
0.0
 10
-160.1214
 20
39.1399
 30
0.0
 10
-160.1214
 20
39.1399
 30
0.0
 10
-160.1425
 20
19.561
 30
0.0
 10
-160.1425
 20
19.561
 30
0.0
 10
-160.1425
 20
19.561
 30
0.0
 10
-160.1425
 20
19.561
 30
0.0
 10
-175.3262
 20
19.561
 30
0.0
 10
-175.3262
 20
19.561
 30
0.0
 10
-175.3262
 20
19.561
 30
0.0
 10
-175.3262
 20
19.561
 30
0.0
 10
-175.3262
 20
43.5879
 30
0.0
 10
-175.3262
 20
43.5879
 30
0.0
 10
-175.3262
 20
43.5879
 30
0.0
 10
-175.3262
 20
43.5879
 30
0.0
 10
-164.6287
 20
43.5901
 30
0.0
 10
-164.6287
 20
43.5901
 30
0.0
 10
-164.6287
 20
43.5901
 30
0.0
 10
-164.6287
 20
43.5901
 30
0.0
 10
-164.6287
 20
48.1949
 30
0.0
 10
-164.6287
 20
48.1949
 30
0.0
 10
-164.6287
 20
48.1949
 30
0.0
 10
-164.6287
 20
48.1949
 30
0.0
 10
-179.8587
 20
48.1949
 30
0.0
 10
-179.8587
 20
48.1949
 30
0.0
 10
-179.8587
 20
48.1949
 30
0.0
 10
-179.8587
 20
48.1949
 30
0.0
 10
-179.8587
 20
14.8074
 30
0.0
 10
-179.8587
 20
14.8074
 30
0.0
  0
SPLINE
  5
78
330
1F
100
AcDbEntity
  8
layer 1
 62
     7
100
AcDbSpline
210
0.0
220
0.0
230
1.0
 70
    11
 71
     3
 72
    20
 73
    16
 74
     0
 42
0.0000000001
 43
0.0000000001
 12
1.0
 22
0.0
 32
0.0
 13
1.0
 23
0.0
 33
0.0
 40
0.0
 40
0.0
 40
0.0
 40
0.0
 40
0.2
 40
0.2
 40
0.2
 40
0.2
 40
0.4
 40
0.4
 40
0.4
 40
0.4
 40
0.6
 40
0.6
 40
0.6
 40
0.6
 40
1.0
 40
1.0
 40
1.0
 40
1.0
 10
-179.9066
 20
-107.633
 30
0.0
 10
-179.9066
 20
-107.633
 30
0.0
 10
-146.4728
 20
-107.633
 30
0.0
 10
-146.4728
 20
-107.633
 30
0.0
 10
-146.4728
 20
-107.633
 30
0.0
 10
-146.4728
 20
-107.633
 30
0.0
 10
-146.4728
 20
-103.007
 30
0.0
 10
-146.4728
 20
-103.007
 30
0.0
 10
-146.4728
 20
-103.007
 30
0.0
 10
-146.4728
 20
-103.007
 30
0.0
 10
-179.9066
 20
-102.9632
 30
0.0
 10
-179.9066
 20
-102.9632
 30
0.0
 10
-179.9066
 20
-102.9632
 30
0.0
 10
-179.9066
 20
-102.9632
 30
0.0
 10
-179.9066
 20
-107.633
 30
0.0
 10
-179.9066
 20
-107.633
 30
0.0
  0
SPLINE
  5
79
330
1F
100
AcDbEntity
  8
layer 1
 62
     7
100
AcDbSpline
210
0.0
220
0.0
230
1.0
 70
    11
 71
     3
 72
    20
 73
    16
 74
     0
 42
0.0000000001
 43
0.0000000001
 12
1.0
 22
0.0
 32
0.0
 13
1.0
 23
0.0
 33
0.0
 40
0.0
 40
0.0
 40
0.0
 40
0.0
 40
0.2
 40
0.2
 40
0.2
 40
0.2
 40
0.4
 40
0.4
 40
0.4
 40
0.4
 40
0.6
 40
0.6
 40
0.6
 40
0.6
 40
1.0
 40
1.0
 40
1.0
 40
1.0
 10
-142.1709
 20
-107.633
 30
0.0
 10
-142.1709
 20
-107.633
 30
0.0
 10
-108.7371
 20
-107.633
 30
0.0
 10
-108.7371
 20
-107.633
 30
0.0
 10
-108.7371
 20
-107.633
 30
0.0
 10
-108.7371
 20
-107.633
 30
0.0
 10
-108.7371
 20
-103.007
 30
0.0
 10
-108.7371
 20
-103.007
 30
0.0
 10
-108.7371
 20
-103.007
 30
0.0
 10
-108.7371
 20
-103.007
 30
0.0
 10
-142.1709
 20
-102.9632
 30
0.0
 10
-142.1709
 20
-102.9632
 30
0.0
 10
-142.1709
 20
-102.9632
 30
0.0
 10
-142.1709
 20
-102.9632
 30
0.0
 10
-142.1709
 20
-107.633
 30
0.0
 10
-142.1709
 20
-107.633
 30
0.0
  0
SPLINE
  5
7A
330
1F
100
AcDbEntity
  8
layer 1
 62
     7
100
AcDbSpline
210
0.0
220
0.0
230
1.0
 70
    11
 71
     3
 72
    20
 73
    16
 74
     0
 42
0.0000000001
 43
0.0000000001
 12
1.0
 22
0.0
 32
0.0
 13
1.0
 23
0.0
 33
0.0
 40
0.0
 40
0.0
 40
0.0
 40
0.0
 40
0.2
 40
0.2
 40
0.2
 40
0.2
 40
0.4
 40
0.4
 40
0.4
 40
0.4
 40
0.6
 40
0.6
 40
0.6
 40
0.6
 40
1.0
 40
1.0
 40
1.0
 40
1.0
 10
-104.3483
 20
-107.633
 30
0.0
 10
-104.3483
 20
-107.633
 30
0.0
 10
-70.9145
 20
-107.633
 30
0.0
 10
-70.9145
 20
-107.633
 30
0.0
 10
-70.9145
 20
-107.633
 30
0.0
 10
-70.9145
 20
-107.633
 30
0.0
 10
-70.9145
 20
-103.007
 30
0.0
 10
-70.9145
 20
-103.007
 30
0.0
 10
-70.9145
 20
-103.007
 30
0.0
 10
-70.9145
 20
-103.007
 30
0.0
 10
-104.3483
 20
-102.9632
 30
0.0
 10
-104.3483
 20
-102.9632
 30
0.0
 10
-104.3483
 20
-102.9632
 30
0.0
 10
-104.3483
 20
-102.9632
 30
0.0
 10
-104.3483
 20
-107.633
 30
0.0
 10
-104.3483
 20
-107.633
 30
0.0
  0
ENDSEC
  0
SECTION
  2
OBJECTS
  0
DICTIONARY
  5
C
330
0
100
AcDbDictionary
281
     1
  3
ACAD_GROUP
350
D
  3
ACAD_LAYOUT
350
1A
  3
ACAD_MATERIAL
350
3B
  3
ACAD_MLEADERSTYLE
350
9D
  3
ACAD_MLINESTYLE
350
17
  3
ACAD_PLOTSETTINGS
350
19
  3
ACAD_PLOTSTYLENAME
350
E
  3
ACAD_TABLESTYLE
350
9C
  3
ACAD_VISUALSTYLE
350
2A
  0
DICTIONARY
  5
D
102
{ACAD_REACTORS
330
C
102
}
330
C
100
AcDbDictionary
281
     1
  0
DICTIONARY
  5
1A
102
{ACAD_REACTORS
330
C
102
}
330
C
100
AcDbDictionary
281
     1
  3
Layout1
350
1E
  3
Layout2
350
26
  3
Model
350
22
  0
DICTIONARY
  5
3B
102
{ACAD_REACTORS
330
C
102
}
330
C
100
AcDbDictionary
281
     1
  3
ByBlock
350
3D
  3
ByLayer
350
3C
  3
Global
350
3E
  0
DICTIONARY
  5
9D
102
{ACAD_REACTORS
330
C
102
}
330
C
100
AcDbDictionary
281
     1
  0
DICTIONARY
  5
17
102
{ACAD_REACTORS
330
C
102
}
330
C
100
AcDbDictionary
281
     1
  3
Standard
350
18
  0
DICTIONARY
  5
19
102
{ACAD_REACTORS
330
C
102
}
330
C
100
AcDbDictionary
281
     1
  0
ACDBDICTIONARYWDFLT
  5
E
102
{ACAD_REACTORS
330
C
102
}
330
C
100
AcDbDictionary
281
     1
  3
Normal
350
F
100
AcDbDictionaryWithDefault
340
F
  0
DICTIONARY
  5
9C
102
{ACAD_REACTORS
330
C
102
}
330
C
100
AcDbDictionary
281
     1
  0
DICTIONARY
  5
2A
102
{ACAD_REACTORS
330
C
102
}
330
C
100
AcDbDictionary
281
     1
  3
2dWireframe
350
2F
  3
3D Hidden
350
31
  3
3dWireframe
350
30
  3
Basic
350
32
  3
Brighten
350
36
  3
ColorChange
350
3A
  3
Conceptual
350
34
  3
Dim
350
35
  3
Facepattern
350
39
  3
Flat
350
2B
  3
FlatWithEdges
350
2C
  3
Gouraud
350
2D
  3
GouraudWithEdges
350
2E
  3
Linepattern
350
38
  3
Realistic
350
33
  3
Thicken
350
37
  0
LAYOUT
  5
1E
102
{ACAD_REACTORS
330
1A
102
}
330
1A
100
AcDbPlotSettings
  1

  2
none_device
  4

  6

 40
0.0
 41
0.0
 42
0.0
 43
0.0
 44
0.0
 45
0.0
 46
0.0
 47
0.0
 48
0.0
 49
0.0
140
0.0
141
0.0
142
1.0
143
1.0
 70
   688
 72
     0
 73
     0
 74
     5
  7

 75
    16
 76
     0
 77
     2
 78
   300
147
1.0
148
0.0
149
0.0
100
AcDbLayout
  1
Layout1
 70
     1
 71
     1
 10
0.0
 20
0.0
 11
12.0
 21
9.0
 12
0.0
 22
0.0
 32
0.0
 14
1.000000000000000E+20
 24
1.000000000000000E+20
 34
1.000000000000000E+20
 15
-1.000000000000000E+20
 25
-1.000000000000000E+20
 35
-1.000000000000000E+20
146
0.0
 13
0.0
 23
0.0
 33
0.0
 16
1.0
 26
0.0
 36
0.0
 17
0.0
 27
1.0
 37
0.0
 76
     0
330
1B
  0
LAYOUT
  5
26
102
{ACAD_REACTORS
330
1A
102
}
330
1A
100
AcDbPlotSettings
  1

  2
none_device
  4

  6

 40
0.0
 41
0.0
 42
0.0
 43
0.0
 44
0.0
 45
0.0
 46
0.0
 47
0.0
 48
0.0
 49
0.0
140
0.0
141
0.0
142
1.0
143
1.0
 70
   688
 72
     0
 73
     0
 74
     5
  7

 75
    16
 76
     0
 77
     2
 78
   300
147
1.0
148
0.0
149
0.0
100
AcDbLayout
  1
Layout2
 70
     1
 71
     2
 10
0.0
 20
0.0
 11
0.0
 21
0.0
 12
0.0
 22
0.0
 32
0.0
 14
0.0
 24
0.0
 34
0.0
 15
0.0
 25
0.0
 35
0.0
146
0.0
 13
0.0
 23
0.0
 33
0.0
 16
1.0
 26
0.0
 36
0.0
 17
0.0
 27
1.0
 37
0.0
 76
     0
330
23
  0
LAYOUT
  5
22
102
{ACAD_REACTORS
330
1A
102
}
330
1A
100
AcDbPlotSettings
  1

  2
none_device
  4

  6

 40
0.0
 41
0.0
 42
0.0
 43
0.0
 44
0.0
 45
0.0
 46
0.0
 47
0.0
 48
0.0
 49
0.0
140
0.0
141
0.0
142
1.0
143
1.0
 70
  1712
 72
     0
 73
     0
 74
     0
  7

 75
     0
 76
     0
 77
     2
 78
   300
147
1.0
148
0.0
149
0.0
100
AcDbLayout
  1
Model
 70
     1
 71
     0
 10
0.0
 20
0.0
 11
12.0
 21
9.0
 12
0.0
 22
0.0
 32
0.0
 14
-187.2041
 24
-115.1348
 34
0.0
 15
-63.617
 25
131.7185
 35
0.0
146
0.0
 13
0.0
 23
0.0
 33
0.0
 16
1.0
 26
0.0
 36
0.0
 17
0.0
 27
1.0
 37
0.0
 76
     0
330
1F
331
29
  0
MATERIAL
  5
3D
102
{ACAD_REACTORS
330
3B
102
}
330
3B
100
AcDbMaterial
  1
ByBlock
 72
     1
 94
      127
  0
MATERIAL
  5
3C
102
{ACAD_REACTORS
330
3B
102
}
330
3B
100
AcDbMaterial
  1
ByLayer
 72
     1
 94
      127
  0
MATERIAL
  5
3E
102
{ACAD_REACTORS
330
3B
102
}
330
3B
100
AcDbMaterial
  1
Global
 72
     1
 94
      127
  0
MLINESTYLE
  5
18
102
{ACAD_REACTORS
330
17
102
}
330
17
100
AcDbMlineStyle
  2
Standard
 70
     0
  3

 62
   256
 51
90.0
 52
90.0
 71
     2
 49
0.5
 62
   256
  6
BYLAYER
 49
-0.5
 62
   256
  6
BYLAYER
  0
ACDBPLACEHOLDER
  5
F
102
{ACAD_REACTORS
330
E
102
}
330
E
  0
VISUALSTYLE
  5
2F
102
{ACAD_REACTORS
330
2A
102
}
102
{ACAD_XDICTIONARY
360
84
102
}
330
2A
100
AcDbVisualStyle
  2
2dWireframe
 70
     4
 71
     0
 72
     2
 73
     0
 90
        0
 40
-0.6
 41
-30.0
 62
     5
 63
     7
421
 16777215
 74
     1
 91
        4
 64
     7
 65
   257
 75
     1
175
     1
 42
1.0
 92
        0
 66
   257
 43
1.0
 76
     1
 77
     6
 78
     2
 67
     7
 79
     5
170
     0
171
     0
290
     0
174
     0
 93
        1
 44
0.0
173
     0
291
     0
 45
0.0
  0
VISUALSTYLE
  5
31
102
{ACAD_REACTORS
330
2A
102
}
102
{ACAD_XDICTIONARY
360
88
102
}
330
2A
100
AcDbVisualStyle
  2
3D Hidden
 70
     6
 71
     1
 72
     2
 73
     2
 90
        0
 40
-0.6
 41
-30.0
 62
     5
 63
     7
421
 16777215
 74
     2
 91
        2
 64
     7
 65
   257
 75
     2
175
     1
 42
40.0
 92
        0
 66
   257
 43
1.0
 76
     1
 77
     6
 78
     2
 67
     7
 79
     3
170
     0
171
     0
290
     0
174
     0
 93
        1
 44
0.0
173
     0
291
     0
 45
0.0
  0
VISUALSTYLE
  5
30
102
{ACAD_REACTORS
330
2A
102
}
102
{ACAD_XDICTIONARY
360
86
102
}
330
2A
100
AcDbVisualStyle
  2
3dWireframe
 70
     5
 71
     0
 72
     2
 73
     0
 90
        0
 40
-0.6
 41
-30.0
 62
     5
 63
     7
421
 16777215
 74
     1
 91
        4
 64
     7
 65
   257
 75
     1
175
     1
 42
1.0
 92
        0
 66
   257
 43
1.0
 76
     1
 77
     6
 78
     2
 67
     7
 79
     5
170
     0
171
     0
290
     0
174
     0
 93
        1
 44
0.0
173
     0
291
     0
 45
0.0
  0
VISUALSTYLE
  5
32
102
{ACAD_REACTORS
330
2A
102
}
102
{ACAD_XDICTIONARY
360
8A
102
}
330
2A
100
AcDbVisualStyle
  2
Basic
 70
     7
 71
     1
 72
     0
 73
     1
 90
        0
 40
-0.6
 41
-30.0
 62
     5
 63
     7
421
 16777215
 74
     0
 91
        4
 64
     7
 65
   257
 75
     1
175
     1
 42
1.0
 92
        8
 66
     7
 43
1.0
 76
     1
 77
     6
 78
     2
 67
     7
 79
     5
170
     0
171
     0
290
     0
174
     0
 93
        1
 44
0.0
173
     0
291
     1
 45
0.0
  0
VISUALSTYLE
  5
36
102
{ACAD_REACTORS
330
2A
102
}
102
{ACAD_XDICTIONARY
360
92
102
}
330
2A
100
AcDbVisualStyle
  2
Brighten
 70
    12
 71
     2
 72
     2
 73
     0
 90
        0
 40
-0.6
 41
-30.0
 62
     5
 63
     7
421
 16777215
 74
     1
 91
        4
 64
     7
 65
   257
 75
     1
175
     1
 42
1.0
 92
        8
 66
     7
 43
1.0
 76
     1
 77
     6
 78
     2
 67
     7
 79
     5
170
     0
171
     0
290
     0
174
     0
 93
        1
 44
50.0
173
     0
291
     1
 45
0.0
  0
VISUALSTYLE
  5
3A
102
{ACAD_REACTORS
330
2A
102
}
102
{ACAD_XDICTIONARY
360
9A
102
}
330
2A
100
AcDbVisualStyle
  2
ColorChange
 70
    16
 71
     2
 72
     2
 73
     3
 90
        0
 40
-0.6
 41
-30.0
 62
     5
 63
     8
421
  8421504
 74
     1
 91
        4
 64
     7
 65
   257
 75
     1
175
     1
 42
1.0
 92
        8
 66
     8
424
  8421504
 43
1.0
 76
     1
 77
     6
 78
     2
 67
     7
 79
     5
170
     0
171
     0
290
     0
174
     0
 93
        1
 44
0.0
173
     0
291
     1
 45
0.0
  0
VISUALSTYLE
  5
34
102
{ACAD_REACTORS
330
2A
102
}
102
{ACAD_XDICTIONARY
360
8E
102
}
330
2A
100
AcDbVisualStyle
  2
Conceptual
 70
     9
 71
     3
 72
     2
 73
     0
 90
        0
 40
-0.6
 41
-30.0
 62
     5
 63
     7
421
 16777215
 74
     2
 91
        2
 64
     7
 65
   257
 75
     1
175
     1
 42
40.0
 92
        8
 66
     7
 43
1.0
 76
     1
 77
     6
 78
     2
 67
     7
 79
     3
170
     0
171
     0
290
     0
174
     0
 93
        1
 44
0.0
173
     0
291
     0
 45
0.0
  0
VISUALSTYLE
  5
35
102
{ACAD_REACTORS
330
2A
102
}
102
{ACAD_XDICTIONARY
360
90
102
}
330
2A
100
AcDbVisualStyle
  2
Dim
 70
    11
 71
     2
 72
     2
 73
     0
 90
        0
 40
-0.6
 41
-30.0
 62
     5
 63
     7
421
 16777215
 74
     1
 91
        4
 64
     7
 65
   257
 75
     1
175
     1
 42
1.0
 92
        8
 66
     7
 43
1.0
 76
     1
 77
     6
 78
     2
 67
     7
 79
     5
170
     0
171
     0
290
     0
174
     0
 93
        1
 44
-50.0
173
     0
291
     1
 45
0.0
  0
VISUALSTYLE
  5
39
102
{ACAD_REACTORS
330
2A
102
}
102
{ACAD_XDICTIONARY
360
98
102
}
330
2A
100
AcDbVisualStyle
  2
Facepattern
 70
    15
 71
     2
 72
     2
 73
     0
 90
        0
 40
-0.6
 41
-30.0
 62
     5
 63
     7
421
 16777215
 74
     1
 91
        4
 64
     7
 65
   257
 75
     1
175
     1
 42
1.0
 92
        8
 66
     7
 43
1.0
 76
     1
 77
     6
 78
     2
 67
     7
 79
     5
170
     0
171
     0
290
     0
174
     0
 93
        1
 44
0.0
173
     0
291
     1
 45
0.0
  0
VISUALSTYLE
  5
2B
102
{ACAD_REACTORS
330
2A
102
}
102
{ACAD_XDICTIONARY
360
7C
102
}
330
2A
100
AcDbVisualStyle
  2
Flat
 70
     0
 71
     2
 72
     1
 73
     1
 90
        2
 40
-0.6
 41
30.0
 62
     5
 63
     7
421
 16777215
 74
     0
 91
        4
 64
     7
 65
   257
 75
     1
175
     1
 42
1.0
 92
        8
 66
     7
 43
1.0
 76
     1
 77
     6
 78
     2
 67
     7
 79
     5
170
     0
171
     0
290
     0
174
     0
 93
       13
 44
0.0
173
     0
291
     1
 45
0.0
  0
VISUALSTYLE
  5
2C
102
{ACAD_REACTORS
330
2A
102
}
102
{ACAD_XDICTIONARY
360
7E
102
}
330
2A
100
AcDbVisualStyle
  2
FlatWithEdges
 70
     1
 71
     2
 72
     1
 73
     1
 90
        2
 40
-0.6
 41
30.0
 62
     5
 63
     7
421
 16777215
 74
     1
 91
        4
 64
     7
 65
   257
 75
     1
175
     1
 42
1.0
 92
        0
 66
   257
 43
1.0
 76
     1
 77
     6
 78
     2
 67
     7
 79
     5
170
     0
171
     0
290
     0
174
     0
 93
       13
 44
0.0
173
     0
291
     1
 45
0.0
  0
VISUALSTYLE
  5
2D
102
{ACAD_REACTORS
330
2A
102
}
102
{ACAD_XDICTIONARY
360
80
102
}
330
2A
100
AcDbVisualStyle
  2
Gouraud
 70
     2
 71
     2
 72
     2
 73
     1
 90
        2
 40
-0.6
 41
30.0
 62
     5
 63
     7
421
 16777215
 74
     0
 91
        4
 64
     7
 65
   257
 75
     1
175
     1
 42
1.0
 92
        0
 66
     7
 43
1.0
 76
     1
 77
     6
 78
     2
 67
     7
 79
     5
170
     0
171
     0
290
     0
174
     0
 93
       13
 44
0.0
173
     0
291
     1
 45
0.0
  0
VISUALSTYLE
  5
2E
102
{ACAD_REACTORS
330
2A
102
}
102
{ACAD_XDICTIONARY
360
82
102
}
330
2A
100
AcDbVisualStyle
  2
GouraudWithEdges
 70
     3
 71
     2
 72
     2
 73
     1
 90
        2
 40
-0.6
 41
30.0
 62
     5
 63
     7
421
 16777215
 74
     1
 91
        4
 64
     7
 65
   257
 75
     1
175
     1
 42
1.0
 92
        0
 66
   257
 43
1.0
 76
     1
 77
     6
 78
     2
 67
     7
 79
     5
170
     0
171
     0
290
     0
174
     0
 93
       13
 44
0.0
173
     0
291
     1
 45
0.0
  0
VISUALSTYLE
  5
38
102
{ACAD_REACTORS
330
2A
102
}
102
{ACAD_XDICTIONARY
360
96
102
}
330
2A
100
AcDbVisualStyle
  2
Linepattern
 70
    14
 71
     2
 72
     2
 73
     0
 90
        0
 40
-0.6
 41
-30.0
 62
     5
 63
     7
421
 16777215
 74
     1
 91
        4
 64
     7
 65
   257
 75
     7
175
     7
 42
1.0
 92
        8
 66
     7
 43
1.0
 76
     1
 77
     6
 78
     2
 67
     7
 79
     5
170
     0
171
     0
290
     0
174
     0
 93
        1
 44
0.0
173
     0
291
     1
 45
0.0
  0
VISUALSTYLE
  5
33
102
{ACAD_REACTORS
330
2A
102
}
102
{ACAD_XDICTIONARY
360
8C
102
}
330
2A
100
AcDbVisualStyle
  2
Realistic
 70
     8
 71
     2
 72
     2
 73
     0
 90
        0
 40
-0.6
 41
-30.0
 62
     5
 63
     7
421
 16777215
 74
     1
 91
        0
 64
     7
 65
   257
 75
     1
175
     1
 42
1.0
 92
        8
 66
     8
424
  7895160
 43
1.0
 76
     1
 77
     6
 78
     2
 67
     7
 79
     5
170
     0
171
     0
290
     0
174
     0
 93
       13
 44
0.0
173
     0
291
     0
 45
0.0
  0
VISUALSTYLE
  5
37
102
{ACAD_REACTORS
330
2A
102
}
102
{ACAD_XDICTIONARY
360
94
102
}
330
2A
100
AcDbVisualStyle
  2
Thicken
 70
    13
 71
     2
 72
     2
 73
     0
 90
        0
 40
-0.6
 41
-30.0
 62
     5
 63
     7
421
 16777215
 74
     1
 91
        4
 64
     7
 65
   257
 75
     1
175
     1
 42
1.0
 92
       12
 66
     7
 43
1.0
 76
     1
 77
     6
 78
     2
 67
     7
 79
     5
170
     0
171
     0
290
     0
174
     0
 93
        1
 44
0.0
173
     0
291
     1
 45
0.0
  0
DICTIONARY
  5
84
330
2F
100
AcDbDictionary
280
     1
281
     1
  3
ACAD_XREC_ROUNDTRIP
360
85
  0
DICTIONARY
  5
88
330
31
100
AcDbDictionary
280
     1
281
     1
  3
ACAD_XREC_ROUNDTRIP
360
89
  0
DICTIONARY
  5
86
330
30
100
AcDbDictionary
280
     1
281
     1
  3
ACAD_XREC_ROUNDTRIP
360
87
  0
DICTIONARY
  5
8A
330
32
100
AcDbDictionary
280
     1
281
     1
  3
ACAD_XREC_ROUNDTRIP
360
8B
  0
DICTIONARY
  5
92
330
36
100
AcDbDictionary
280
     1
281
     1
  3
ACAD_XREC_ROUNDTRIP
360
93
  0
DICTIONARY
  5
9A
330
3A
100
AcDbDictionary
280
     1
281
     1
  3
ACAD_XREC_ROUNDTRIP
360
9B
  0
DICTIONARY
  5
8E
330
34
100
AcDbDictionary
280
     1
281
     1
  3
ACAD_XREC_ROUNDTRIP
360
8F
  0
DICTIONARY
  5
90
330
35
100
AcDbDictionary
280
     1
281
     1
  3
ACAD_XREC_ROUNDTRIP
360
91
  0
DICTIONARY
  5
98
330
39
100
AcDbDictionary
280
     1
281
     1
  3
ACAD_XREC_ROUNDTRIP
360
99
  0
DICTIONARY
  5
7C
330
2B
100
AcDbDictionary
280
     1
281
     1
  3
ACAD_XREC_ROUNDTRIP
360
7D
  0
DICTIONARY
  5
7E
330
2C
100
AcDbDictionary
280
     1
281
     1
  3
ACAD_XREC_ROUNDTRIP
360
7F
  0
DICTIONARY
  5
80
330
2D
100
AcDbDictionary
280
     1
281
     1
  3
ACAD_XREC_ROUNDTRIP
360
81
  0
DICTIONARY
  5
82
330
2E
100
AcDbDictionary
280
     1
281
     1
  3
ACAD_XREC_ROUNDTRIP
360
83
  0
DICTIONARY
  5
96
330
38
100
AcDbDictionary
280
     1
281
     1
  3
ACAD_XREC_ROUNDTRIP
360
97
  0
DICTIONARY
  5
8C
330
33
100
AcDbDictionary
280
     1
281
     1
  3
ACAD_XREC_ROUNDTRIP
360
8D
  0
DICTIONARY
  5
94
330
37
100
AcDbDictionary
280
     1
281
     1
  3
ACAD_XREC_ROUNDTRIP
360
95
  0
XRECORD
  5
85
102
{ACAD_REACTORS
330
84
102
}
330
84
100
AcDbXrecord
280
     1
102
RTVSPropertyOp0
 70
     1
102
RTVSPropertyOp1
 70
     1
102
RTVSPropertyOp2
 70
     1
102
RTVSPropertyOp3
 70
     1
102
RTVSPropertyOp4
 70
     1
102
RTVSPropertyOp5
 70
     1
102
RTVSPropertyOp6
 70
     1
102
RTVSPropertyOp7
 70
     1
102
RTVSPropertyOp8
 70
     1
102
RTVSPropertyOp9
 70
     1
102
RTVSPropertyOp10
 70
     1
102
RTVSPropertyOp11
 70
     1
102
RTVSPropertyOp12
 70
     1
102
RTVSPropertyOp13
 70
     1
102
RTVSPropertyOp14
 70
     1
102
RTVSPropertyOp15
 70
     1
102
RTVSPropertyOp16
 70
     1
102
RTVSPropertyOp17
 70
     1
102
RTVSPropertyOp18
 70
     1
102
RTVSPropertyOp19
 70
     1
102
RTVSPropertyOp20
 70
     1
102
RTVSPropertyOp21
 70
     1
102
RTVSPropertyOp22
 70
     1
102
RTVSPropertyOp23
 70
     1
102
RTVSPropertyOp24
 70
     1
102
RTVSPropertyOp25
 70
     1
102
RTVSPropertyOp26
 70
     1
102
RTVSPropertyOp27
 70
     1
102
RTVSPropertyOp28
 70
     1
102
RTVSPropertyOp29
 70
     1
102
RTVSPropertyOp30
 70
     1
102
RTVSPropertyOp31
 70
     1
102
RTVSPropertyOp32
 70
     1
  0
XRECORD
  5
89
102
{ACAD_REACTORS
330
88
102
}
330
88
100
AcDbXrecord
280
     1
102
RTVSPropertyOp0
 70
     1
102
RTVSPropertyOp1
 70
     1
102
RTVSPropertyOp2
 70
     1
102
RTVSPropertyOp3
 70
     1
102
RTVSPropertyOp4
 70
     1
102
RTVSPropertyOp5
 70
     1
102
RTVSPropertyOp6
 70
     1
102
RTVSPropertyOp7
 70
     1
102
RTVSPropertyOp8
 70
     1
102
RTVSPropertyOp9
 70
     1
102
RTVSPropertyOp10
 70
     1
102
RTVSPropertyOp11
 70
     1
102
RTVSPropertyOp12
 70
     1
102
RTVSPropertyOp13
 70
     1
102
RTVSPropertyOp14
 70
     1
102
RTVSPropertyOp15
 70
     1
102
RTVSPropertyOp16
 70
     1
102
RTVSPropertyOp17
 70
     1
102
RTVSPropertyOp18
 70
     1
102
RTVSPropertyOp19
 70
     1
102
RTVSPropertyOp20
 70
     1
102
RTVSPropertyOp21
 70
     1
102
RTVSPropertyOp22
 70
     1
102
RTVSPropertyOp23
 70
     1
102
RTVSPropertyOp24
 70
     1
102
RTVSPropertyOp25
 70
     1
102
RTVSPropertyOp26
 70
     1
102
RTVSPropertyOp27
 70
     1
102
RTVSPropertyOp28
 70
     1
102
RTVSPropertyOp29
 70
     1
102
RTVSPropertyOp30
 70
     1
102
RTVSPropertyOp31
 70
     1
102
RTVSPropertyOp32
 70
     1
  0
XRECORD
  5
87
102
{ACAD_REACTORS
330
86
102
}
330
86
100
AcDbXrecord
280
     1
102
RTVSPropertyOp0
 70
     1
102
RTVSPropertyOp1
 70
     1
102
RTVSPropertyOp2
 70
     1
102
RTVSPropertyOp3
 70
     1
102
RTVSPropertyOp4
 70
     1
102
RTVSPropertyOp5
 70
     1
102
RTVSPropertyOp6
 70
     1
102
RTVSPropertyOp7
 70
     1
102
RTVSPropertyOp8
 70
     1
102
RTVSPropertyOp9
 70
     1
102
RTVSPropertyOp10
 70
     1
102
RTVSPropertyOp11
 70
     1
102
RTVSPropertyOp12
 70
     1
102
RTVSPropertyOp13
 70
     1
102
RTVSPropertyOp14
 70
     1
102
RTVSPropertyOp15
 70
     1
102
RTVSPropertyOp16
 70
     1
102
RTVSPropertyOp17
 70
     1
102
RTVSPropertyOp18
 70
     1
102
RTVSPropertyOp19
 70
     1
102
RTVSPropertyOp20
 70
     1
102
RTVSPropertyOp21
 70
     1
102
RTVSPropertyOp22
 70
     1
102
RTVSPropertyOp23
 70
     1
102
RTVSPropertyOp24
 70
     1
102
RTVSPropertyOp25
 70
     1
102
RTVSPropertyOp26
 70
     1
102
RTVSPropertyOp27
 70
     1
102
RTVSPropertyOp28
 70
     1
102
RTVSPropertyOp29
 70
     1
102
RTVSPropertyOp30
 70
     1
102
RTVSPropertyOp31
 70
     1
102
RTVSPropertyOp32
 70
     1
  0
XRECORD
  5
8B
102
{ACAD_REACTORS
330
8A
102
}
330
8A
100
AcDbXrecord
280
     1
102
RTVSPropertyOp0
 70
     1
102
RTVSPropertyOp1
 70
     1
102
RTVSPropertyOp2
 70
     1
102
RTVSPropertyOp3
 70
     1
102
RTVSPropertyOp4
 70
     1
102
RTVSPropertyOp5
 70
     1
102
RTVSPropertyOp6
 70
     1
102
RTVSPropertyOp7
 70
     1
102
RTVSPropertyOp8
 70
     1
102
RTVSPropertyOp9
 70
     1
102
RTVSPropertyOp10
 70
     1
102
RTVSPropertyOp11
 70
     1
102
RTVSPropertyOp12
 70
     1
102
RTVSPropertyOp13
 70
     1
102
RTVSPropertyOp14
 70
     1
102
RTVSPropertyOp15
 70
     1
102
RTVSPropertyOp16
 70
     1
102
RTVSPropertyOp17
 70
     1
102
RTVSPropertyOp18
 70
     1
102
RTVSPropertyOp19
 70
     1
102
RTVSPropertyOp20
 70
     1
102
RTVSPropertyOp21
 70
     1
102
RTVSPropertyOp22
 70
     1
102
RTVSPropertyOp23
 70
     1
102
RTVSPropertyOp24
 70
     1
102
RTVSPropertyOp25
 70
     1
102
RTVSPropertyOp26
 70
     1
102
RTVSPropertyOp27
 70
     1
102
RTVSPropertyOp28
 70
     1
102
RTVSPropertyOp29
 70
     1
102
RTVSPropertyOp30
 70
     1
102
RTVSPropertyOp31
 70
     1
102
RTVSPropertyOp32
 70
     1
  0
XRECORD
  5
93
102
{ACAD_REACTORS
330
92
102
}
330
92
100
AcDbXrecord
280
     1
102
RTVSPropertyOp0
 70
     1
102
RTVSPropertyOp1
 70
     1
102
RTVSPropertyOp2
 70
     1
102
RTVSPropertyOp3
 70
     1
102
RTVSPropertyOp4
 70
     1
102
RTVSPropertyOp5
 70
     1
102
RTVSPropertyOp6
 70
     1
102
RTVSPropertyOp7
 70
     1
102
RTVSPropertyOp8
 70
     1
102
RTVSPropertyOp9
 70
     1
102
RTVSPropertyOp10
 70
     1
102
RTVSPropertyOp11
 70
     1
102
RTVSPropertyOp12
 70
     1
102
RTVSPropertyOp13
 70
     1
102
RTVSPropertyOp14
 70
     1
102
RTVSPropertyOp15
 70
     1
102
RTVSPropertyOp16
 70
     1
102
RTVSPropertyOp17
 70
     1
102
RTVSPropertyOp18
 70
     1
102
RTVSPropertyOp19
 70
     1
102
RTVSPropertyOp20
 70
     1
102
RTVSPropertyOp21
 70
     1
102
RTVSPropertyOp22
 70
     1
102
RTVSPropertyOp23
 70
     1
102
RTVSPropertyOp24
 70
     1
102
RTVSPropertyOp25
 70
     1
102
RTVSPropertyOp26
 70
     1
102
RTVSPropertyOp27
 70
     1
102
RTVSPropertyOp28
 70
     1
102
RTVSPropertyOp29
 70
     1
102
RTVSPropertyOp30
 70
     1
102
RTVSPropertyOp31
 70
     1
102
RTVSPropertyOp32
 70
     1
  0
XRECORD
  5
9B
102
{ACAD_REACTORS
330
9A
102
}
330
9A
100
AcDbXrecord
280
     1
102
RTVSPropertyOp0
 70
     1
102
RTVSPropertyOp1
 70
     1
102
RTVSPropertyOp2
 70
     1
102
RTVSPropertyOp3
 70
     1
102
RTVSPropertyOp4
 70
     1
102
RTVSPropertyOp5
 70
     1
102
RTVSPropertyOp6
 70
     1
102
RTVSPropertyOp7
 70
     1
102
RTVSPropertyOp8
 70
     1
102
RTVSPropertyOp9
 70
     1
102
RTVSPropertyOp10
 70
     1
102
RTVSPropertyOp11
 70
     1
102
RTVSPropertyOp12
 70
     1
102
RTVSPropertyOp13
 70
     1
102
RTVSPropertyOp14
 70
     1
102
RTVSPropertyOp15
 70
     1
102
RTVSPropertyOp16
 70
     1
102
RTVSPropertyOp17
 70
     1
102
RTVSPropertyOp18
 70
     1
102
RTVSPropertyOp19
 70
     1
102
RTVSPropertyOp20
 70
     1
102
RTVSPropertyOp21
 70
     1
102
RTVSPropertyOp22
 70
     1
102
RTVSPropertyOp23
 70
     1
102
RTVSPropertyOp24
 70
     1
102
RTVSPropertyOp25
 70
     1
102
RTVSPropertyOp26
 70
     1
102
RTVSPropertyOp27
 70
     1
102
RTVSPropertyOp28
 70
     1
102
RTVSPropertyOp29
 70
     1
102
RTVSPropertyOp30
 70
     1
102
RTVSPropertyOp31
 70
     1
102
RTVSPropertyOp32
 70
     1
  0
XRECORD
  5
8F
102
{ACAD_REACTORS
330
8E
102
}
330
8E
100
AcDbXrecord
280
     1
102
RTVSPropertyOp0
 70
     1
102
RTVSPropertyOp1
 70
     1
102
RTVSPropertyOp2
 70
     1
102
RTVSPropertyOp3
 70
     1
102
RTVSPropertyOp4
 70
     1
102
RTVSPropertyOp5
 70
     1
102
RTVSPropertyOp6
 70
     1
102
RTVSPropertyOp7
 70
     1
102
RTVSPropertyOp8
 70
     1
102
RTVSPropertyOp9
 70
     1
102
RTVSPropertyOp10
 70
     1
102
RTVSPropertyOp11
 70
     1
102
RTVSPropertyOp12
 70
     1
102
RTVSPropertyOp13
 70
     1
102
RTVSPropertyOp14
 70
     1
102
RTVSPropertyOp15
 70
     1
102
RTVSPropertyOp16
 70
     1
102
RTVSPropertyOp17
 70
     1
102
RTVSPropertyOp18
 70
     1
102
RTVSPropertyOp19
 70
     1
102
RTVSPropertyOp20
 70
     1
102
RTVSPropertyOp21
 70
     1
102
RTVSPropertyOp22
 70
     1
102
RTVSPropertyOp23
 70
     1
102
RTVSPropertyOp24
 70
     1
102
RTVSPropertyOp25
 70
     1
102
RTVSPropertyOp26
 70
     1
102
RTVSPropertyOp27
 70
     1
102
RTVSPropertyOp28
 70
     1
102
RTVSPropertyOp29
 70
     1
102
RTVSPropertyOp30
 70
     1
102
RTVSPropertyOp31
 70
     1
102
RTVSPropertyOp32
 70
     1
  0
XRECORD
  5
91
102
{ACAD_REACTORS
330
90
102
}
330
90
100
AcDbXrecord
280
     1
102
RTVSPropertyOp0
 70
     1
102
RTVSPropertyOp1
 70
     1
102
RTVSPropertyOp2
 70
     1
102
RTVSPropertyOp3
 70
     1
102
RTVSPropertyOp4
 70
     1
102
RTVSPropertyOp5
 70
     1
102
RTVSPropertyOp6
 70
     1
102
RTVSPropertyOp7
 70
     1
102
RTVSPropertyOp8
 70
     1
102
RTVSPropertyOp9
 70
     1
102
RTVSPropertyOp10
 70
     1
102
RTVSPropertyOp11
 70
     1
102
RTVSPropertyOp12
 70
     1
102
RTVSPropertyOp13
 70
     1
102
RTVSPropertyOp14
 70
     1
102
RTVSPropertyOp15
 70
     1
102
RTVSPropertyOp16
 70
     1
102
RTVSPropertyOp17
 70
     1
102
RTVSPropertyOp18
 70
     1
102
RTVSPropertyOp19
 70
     1
102
RTVSPropertyOp20
 70
     1
102
RTVSPropertyOp21
 70
     1
102
RTVSPropertyOp22
 70
     1
102
RTVSPropertyOp23
 70
     1
102
RTVSPropertyOp24
 70
     1
102
RTVSPropertyOp25
 70
     1
102
RTVSPropertyOp26
 70
     1
102
RTVSPropertyOp27
 70
     1
102
RTVSPropertyOp28
 70
     1
102
RTVSPropertyOp29
 70
     1
102
RTVSPropertyOp30
 70
     1
102
RTVSPropertyOp31
 70
     1
102
RTVSPropertyOp32
 70
     1
  0
XRECORD
  5
99
102
{ACAD_REACTORS
330
98
102
}
330
98
100
AcDbXrecord
280
     1
102
RTVSPropertyOp0
 70
     1
102
RTVSPropertyOp1
 70
     1
102
RTVSPropertyOp2
 70
     1
102
RTVSPropertyOp3
 70
     1
102
RTVSPropertyOp4
 70
     1
102
RTVSPropertyOp5
 70
     1
102
RTVSPropertyOp6
 70
     1
102
RTVSPropertyOp7
 70
     1
102
RTVSPropertyOp8
 70
     1
102
RTVSPropertyOp9
 70
     1
102
RTVSPropertyOp10
 70
     1
102
RTVSPropertyOp11
 70
     1
102
RTVSPropertyOp12
 70
     1
102
RTVSPropertyOp13
 70
     1
102
RTVSPropertyOp14
 70
     1
102
RTVSPropertyOp15
 70
     1
102
RTVSPropertyOp16
 70
     1
102
RTVSPropertyOp17
 70
     1
102
RTVSPropertyOp18
 70
     1
102
RTVSPropertyOp19
 70
     1
102
RTVSPropertyOp20
 70
     1
102
RTVSPropertyOp21
 70
     1
102
RTVSPropertyOp22
 70
     1
102
RTVSPropertyOp23
 70
     1
102
RTVSPropertyOp24
 70
     1
102
RTVSPropertyOp25
 70
     1
102
RTVSPropertyOp26
 70
     1
102
RTVSPropertyOp27
 70
     1
102
RTVSPropertyOp28
 70
     1
102
RTVSPropertyOp29
 70
     1
102
RTVSPropertyOp30
 70
     1
102
RTVSPropertyOp31
 70
     1
102
RTVSPropertyOp32
 70
     1
  0
XRECORD
  5
7D
102
{ACAD_REACTORS
330
7C
102
}
330
7C
100
AcDbXrecord
280
     1
102
RTVSPropertyOp0
 70
     1
102
RTVSPropertyOp1
 70
     1
102
RTVSPropertyOp2
 70
     1
102
RTVSPropertyOp3
 70
     1
102
RTVSPropertyOp4
 70
     1
102
RTVSPropertyOp5
 70
     1
102
RTVSPropertyOp6
 70
     1
102
RTVSPropertyOp7
 70
     1
102
RTVSPropertyOp8
 70
     1
102
RTVSPropertyOp9
 70
     1
102
RTVSPropertyOp10
 70
     1
102
RTVSPropertyOp11
 70
     1
102
RTVSPropertyOp12
 70
     1
102
RTVSPropertyOp13
 70
     1
102
RTVSPropertyOp14
 70
     1
102
RTVSPropertyOp15
 70
     1
102
RTVSPropertyOp16
 70
     1
102
RTVSPropertyOp17
 70
     1
102
RTVSPropertyOp18
 70
     1
102
RTVSPropertyOp19
 70
     1
102
RTVSPropertyOp20
 70
     1
102
RTVSPropertyOp21
 70
     1
102
RTVSPropertyOp22
 70
     1
102
RTVSPropertyOp23
 70
     1
102
RTVSPropertyOp24
 70
     1
102
RTVSPropertyOp25
 70
     1
102
RTVSPropertyOp26
 70
     1
102
RTVSPropertyOp27
 70
     1
102
RTVSPropertyOp28
 70
     1
102
RTVSPropertyOp29
 70
     1
102
RTVSPropertyOp30
 70
     1
102
RTVSPropertyOp31
 70
     1
102
RTVSPropertyOp32
 70
     1
  0
XRECORD
  5
7F
102
{ACAD_REACTORS
330
7E
102
}
330
7E
100
AcDbXrecord
280
     1
102
RTVSPropertyOp0
 70
     1
102
RTVSPropertyOp1
 70
     1
102
RTVSPropertyOp2
 70
     1
102
RTVSPropertyOp3
 70
     1
102
RTVSPropertyOp4
 70
     1
102
RTVSPropertyOp5
 70
     1
102
RTVSPropertyOp6
 70
     1
102
RTVSPropertyOp7
 70
     1
102
RTVSPropertyOp8
 70
     1
102
RTVSPropertyOp9
 70
     1
102
RTVSPropertyOp10
 70
     1
102
RTVSPropertyOp11
 70
     1
102
RTVSPropertyOp12
 70
     1
102
RTVSPropertyOp13
 70
     1
102
RTVSPropertyOp14
 70
     1
102
RTVSPropertyOp15
 70
     1
102
RTVSPropertyOp16
 70
     1
102
RTVSPropertyOp17
 70
     1
102
RTVSPropertyOp18
 70
     1
102
RTVSPropertyOp19
 70
     1
102
RTVSPropertyOp20
 70
     1
102
RTVSPropertyOp21
 70
     1
102
RTVSPropertyOp22
 70
     1
102
RTVSPropertyOp23
 70
     1
102
RTVSPropertyOp24
 70
     1
102
RTVSPropertyOp25
 70
     1
102
RTVSPropertyOp26
 70
     1
102
RTVSPropertyOp27
 70
     1
102
RTVSPropertyOp28
 70
     1
102
RTVSPropertyOp29
 70
     1
102
RTVSPropertyOp30
 70
     1
102
RTVSPropertyOp31
 70
     1
102
RTVSPropertyOp32
 70
     1
  0
XRECORD
  5
81
102
{ACAD_REACTORS
330
80
102
}
330
80
100
AcDbXrecord
280
     1
102
RTVSPropertyOp0
 70
     1
102
RTVSPropertyOp1
 70
     1
102
RTVSPropertyOp2
 70
     1
102
RTVSPropertyOp3
 70
     1
102
RTVSPropertyOp4
 70
     1
102
RTVSPropertyOp5
 70
     1
102
RTVSPropertyOp6
 70
     1
102
RTVSPropertyOp7
 70
     1
102
RTVSPropertyOp8
 70
     1
102
RTVSPropertyOp9
 70
     1
102
RTVSPropertyOp10
 70
     1
102
RTVSPropertyOp11
 70
     1
102
RTVSPropertyOp12
 70
     1
102
RTVSPropertyOp13
 70
     1
102
RTVSPropertyOp14
 70
     1
102
RTVSPropertyOp15
 70
     1
102
RTVSPropertyOp16
 70
     1
102
RTVSPropertyOp17
 70
     1
102
RTVSPropertyOp18
 70
     1
102
RTVSPropertyOp19
 70
     1
102
RTVSPropertyOp20
 70
     1
102
RTVSPropertyOp21
 70
     1
102
RTVSPropertyOp22
 70
     1
102
RTVSPropertyOp23
 70
     1
102
RTVSPropertyOp24
 70
     1
102
RTVSPropertyOp25
 70
     1
102
RTVSPropertyOp26
 70
     1
102
RTVSPropertyOp27
 70
     1
102
RTVSPropertyOp28
 70
     1
102
RTVSPropertyOp29
 70
     1
102
RTVSPropertyOp30
 70
     1
102
RTVSPropertyOp31
 70
     1
102
RTVSPropertyOp32
 70
     1
  0
XRECORD
  5
83
102
{ACAD_REACTORS
330
82
102
}
330
82
100
AcDbXrecord
280
     1
102
RTVSPropertyOp0
 70
     1
102
RTVSPropertyOp1
 70
     1
102
RTVSPropertyOp2
 70
     1
102
RTVSPropertyOp3
 70
     1
102
RTVSPropertyOp4
 70
     1
102
RTVSPropertyOp5
 70
     1
102
RTVSPropertyOp6
 70
     1
102
RTVSPropertyOp7
 70
     1
102
RTVSPropertyOp8
 70
     1
102
RTVSPropertyOp9
 70
     1
102
RTVSPropertyOp10
 70
     1
102
RTVSPropertyOp11
 70
     1
102
RTVSPropertyOp12
 70
     1
102
RTVSPropertyOp13
 70
     1
102
RTVSPropertyOp14
 70
     1
102
RTVSPropertyOp15
 70
     1
102
RTVSPropertyOp16
 70
     1
102
RTVSPropertyOp17
 70
     1
102
RTVSPropertyOp18
 70
     1
102
RTVSPropertyOp19
 70
     1
102
RTVSPropertyOp20
 70
     1
102
RTVSPropertyOp21
 70
     1
102
RTVSPropertyOp22
 70
     1
102
RTVSPropertyOp23
 70
     1
102
RTVSPropertyOp24
 70
     1
102
RTVSPropertyOp25
 70
     1
102
RTVSPropertyOp26
 70
     1
102
RTVSPropertyOp27
 70
     1
102
RTVSPropertyOp28
 70
     1
102
RTVSPropertyOp29
 70
     1
102
RTVSPropertyOp30
 70
     1
102
RTVSPropertyOp31
 70
     1
102
RTVSPropertyOp32
 70
     1
  0
XRECORD
  5
97
102
{ACAD_REACTORS
330
96
102
}
330
96
100
AcDbXrecord
280
     1
102
RTVSPropertyOp0
 70
     1
102
RTVSPropertyOp1
 70
     1
102
RTVSPropertyOp2
 70
     1
102
RTVSPropertyOp3
 70
     1
102
RTVSPropertyOp4
 70
     1
102
RTVSPropertyOp5
 70
     1
102
RTVSPropertyOp6
 70
     1
102
RTVSPropertyOp7
 70
     1
102
RTVSPropertyOp8
 70
     1
102
RTVSPropertyOp9
 70
     1
102
RTVSPropertyOp10
 70
     1
102
RTVSPropertyOp11
 70
     1
102
RTVSPropertyOp12
 70
     1
102
RTVSPropertyOp13
 70
     1
102
RTVSPropertyOp14
 70
     1
102
RTVSPropertyOp15
 70
     1
102
RTVSPropertyOp16
 70
     1
102
RTVSPropertyOp17
 70
     1
102
RTVSPropertyOp18
 70
     1
102
RTVSPropertyOp19
 70
     1
102
RTVSPropertyOp20
 70
     1
102
RTVSPropertyOp21
 70
     1
102
RTVSPropertyOp22
 70
     1
102
RTVSPropertyOp23
 70
     1
102
RTVSPropertyOp24
 70
     1
102
RTVSPropertyOp25
 70
     1
102
RTVSPropertyOp26
 70
     1
102
RTVSPropertyOp27
 70
     1
102
RTVSPropertyOp28
 70
     1
102
RTVSPropertyOp29
 70
     1
102
RTVSPropertyOp30
 70
     1
102
RTVSPropertyOp31
 70
     1
102
RTVSPropertyOp32
 70
     1
  0
XRECORD
  5
8D
102
{ACAD_REACTORS
330
8C
102
}
330
8C
100
AcDbXrecord
280
     1
102
RTVSPropertyOp0
 70
     1
102
RTVSPropertyOp1
 70
     1
102
RTVSPropertyOp2
 70
     1
102
RTVSPropertyOp3
 70
     1
102
RTVSPropertyOp4
 70
     1
102
RTVSPropertyOp5
 70
     1
102
RTVSPropertyOp6
 70
     1
102
RTVSPropertyOp7
 70
     1
102
RTVSPropertyOp8
 70
     1
102
RTVSPropertyOp9
 70
     1
102
RTVSPropertyOp10
 70
     1
102
RTVSPropertyOp11
 70
     1
102
RTVSPropertyOp12
 70
     1
102
RTVSPropertyOp13
 70
     1
102
RTVSPropertyOp14
 70
     1
102
RTVSPropertyOp15
 70
     1
102
RTVSPropertyOp16
 70
     1
102
RTVSPropertyOp17
 70
     1
102
RTVSPropertyOp18
 70
     1
102
RTVSPropertyOp19
 70
     1
102
RTVSPropertyOp20
 70
     1
102
RTVSPropertyOp21
 70
     1
102
RTVSPropertyOp22
 70
     1
102
RTVSPropertyOp23
 70
     1
102
RTVSPropertyOp24
 70
     1
102
RTVSPropertyOp25
 70
     1
102
RTVSPropertyOp26
 70
     1
102
RTVSPropertyOp27
 70
     1
102
RTVSPropertyOp28
 70
     1
102
RTVSPropertyOp29
 70
     1
102
RTVSPropertyOp30
 70
     1
102
RTVSPropertyOp31
 70
     1
102
RTVSPropertyOp32
 70
     1
  0
XRECORD
  5
95
102
{ACAD_REACTORS
330
94
102
}
330
94
100
AcDbXrecord
280
     1
102
RTVSPropertyOp0
 70
     1
102
RTVSPropertyOp1
 70
     1
102
RTVSPropertyOp2
 70
     1
102
RTVSPropertyOp3
 70
     1
102
RTVSPropertyOp4
 70
     1
102
RTVSPropertyOp5
 70
     1
102
RTVSPropertyOp6
 70
     1
102
RTVSPropertyOp7
 70
     1
102
RTVSPropertyOp8
 70
     1
102
RTVSPropertyOp9
 70
     1
102
RTVSPropertyOp10
 70
     1
102
RTVSPropertyOp11
 70
     1
102
RTVSPropertyOp12
 70
     1
102
RTVSPropertyOp13
 70
     1
102
RTVSPropertyOp14
 70
     1
102
RTVSPropertyOp15
 70
     1
102
RTVSPropertyOp16
 70
     1
102
RTVSPropertyOp17
 70
     1
102
RTVSPropertyOp18
 70
     1
102
RTVSPropertyOp19
 70
     1
102
RTVSPropertyOp20
 70
     1
102
RTVSPropertyOp21
 70
     1
102
RTVSPropertyOp22
 70
     1
102
RTVSPropertyOp23
 70
     1
102
RTVSPropertyOp24
 70
     1
102
RTVSPropertyOp25
 70
     1
102
RTVSPropertyOp26
 70
     1
102
RTVSPropertyOp27
 70
     1
102
RTVSPropertyOp28
 70
     1
102
RTVSPropertyOp29
 70
     1
102
RTVSPropertyOp30
 70
     1
102
RTVSPropertyOp31
 70
     1
102
RTVSPropertyOp32
 70
     1
  0
ENDSEC
  0
EOF
