  0
SECTION
  2
HEADER
  9
$ACADVER
  1
AC1009
  9
$DWGCODEPAGE
  3
ansi_1256
  9
$INSBASE
 10
0.0
 20
0.0
 30
0.0
  9
$EXTMIN
 10
-352.0421900527376
 20
-109.7946372432966
 30
0.0
  9
$EXTMAX
 10
1247.959809949763
 20
90.20536275670344
 30
0.0
  9
$LIMMIN
 10
0.0
 20
0.0
  9
$LIMMAX
 10
12.0
 20
9.0
  9
$ORTHOMODE
 70
     0
  9
$REGENMODE
 70
     1
  9
$FILLMODE
 70
     1
  9
$QTEXTMODE
 70
     0
  9
$MIRRTEXT
 70
     1
  9
$DRAGMODE
 70
     2
  9
$LTSCALE
 40
1.0
  9
$OSMODE
 70
    37
  9
$ATTMODE
 70
     1
  9
$TEXTSIZE
 40
0.2
  9
$TRACEWID
 40
0.05
  9
$TEXTSTYLE
  7
STANDARD
  9
$CLAYER
  8
0
  9
$CELTYPE
  6
BYLAYER
  9
$CECOLOR
 62
   256
  9
$DIMSCALE
 40
1.0
  9
$DIMASZ
 40
0.18
  9
$DIMEXO
 40
0.0625
  9
$DIMDLI
 40
0.38
  9
$DIMRND
 40
0.0
  9
$DIMDLE
 40
0.0
  9
$DIMEXE
 40
0.18
  9
$DIMTP
 40
0.0
  9
$DIMTM
 40
0.0
  9
$DIMTXT
 40
0.18
  9
$DIMCEN
 40
0.09
  9
$DIMTSZ
 40
0.0
  9
$DIMTOL
 70
     0
  9
$DIMLIM
 70
     0
  9
$DIMTIH
 70
     1
  9
$DIMTOH
 70
     1
  9
$DIMSE1
 70
     0
  9
$DIMSE2
 70
     0
  9
$DIMTAD
 70
     0
  9
$DIMZIN
 70
     0
  9
$DIMBLK
  1

  9
$DIMASO
 70
     1
  9
$DIMSHO
 70
     1
  9
$DIMPOST
  1

  9
$DIMAPOST
  1

  9
$DIMALT
 70
     0
  9
$DIMALTD
 70
     2
  9
$DIMALTF
 40
25.4
  9
$DIMLFAC
 40
1.0
  9
$DIMTOFL
 70
     0
  9
$DIMTVP
 40
0.0
  9
$DIMTIX
 70
     0
  9
$DIMSOXD
 70
     0
  9
$DIMSAH
 70
     0
  9
$DIMBLK1
  1

  9
$DIMBLK2
  1

  9
$DIMSTYLE
  2
STANDARD
  9
$DIMCLRD
 70
     0
  9
$DIMCLRE
 70
     0
  9
$DIMCLRT
 70
     0
  9
$DIMTFAC
 40
1.0
  9
$DIMGAP
 40
0.09
  9
$LUNITS
 70
     2
  9
$LUPREC
 70
     4
  9
$SKETCHINC
 40
0.1
  9
$FILLETRAD
 40
0.5
  9
$AUNITS
 70
     0
  9
$AUPREC
 70
     0
  9
$MENU
  1
.
  9
$ELEVATION
 40
0.0
  9
$PELEVATION
 40
0.0
  9
$THICKNESS
 40
0.0
  9
$LIMCHECK
 70
     0
  9
$CHAMFERA
 40
0.5
  9
$CHAMFERB
 40
0.5
  9
$SKPOLY
 70
     0
  9
$TDCREATE
 40
2454910.5
  9
$TDUPDATE
 40
2458558.049925
  9
$TDINDWG
 40
0.0000000116
  9
$TDUSRTIMER
 40
0.0000000116
  9
$USRTIMER
 70
     1
  9
$ANGBASE
 50
0.0
  9
$ANGDIR
 70
     0
  9
$PDMODE
 70
     0
  9
$PDSIZE
 40
0.0
  9
$PLINEWID
 40
0.0
  9
$COORDS
 70
     1
  9
$SPLFRAME
 70
     0
  9
$SPLINETYPE
 70
     6
  9
$SPLINESEGS
 70
     8
  9
$ATTDIA
 70
     0
  9
$ATTREQ
 70
     1
  9
$HANDLING
 70
     1
  9
$HANDSEED
  5
1244
  9
$SURFTAB1
 70
     6
  9
$SURFTAB2
 70
     6
  9
$SURFTYPE
 70
     6
  9
$SURFU
 70
     6
  9
$SURFV
 70
     6
  9
$UCSNAME
  2

  9
$UCSORG
 10
0.0
 20
0.0
 30
0.0
  9
$UCSXDIR
 10
1.0
 20
0.0
 30
0.0
  9
$UCSYDIR
 10
0.0
 20
1.0
 30
0.0
  9
$PUCSNAME
  2

  9
$PUCSORG
 10
0.0
 20
0.0
 30
0.0
  9
$PUCSXDIR
 10
1.0
 20
0.0
 30
0.0
  9
$PUCSYDIR
 10
0.0
 20
1.0
 30
0.0
  9
$USERI1
 70
     0
  9
$USERI2
 70
     0
  9
$USERI3
 70
     0
  9
$USERI4
 70
     0
  9
$USERI5
 70
     0
  9
$USERR1
 40
0.0
  9
$USERR2
 40
0.0
  9
$USERR3
 40
0.0
  9
$USERR4
 40
0.0
  9
$USERR5
 40
0.0
  9
$WORLDVIEW
 70
     1
  9
$SHADEDGE
 70
     3
  9
$SHADEDIF
 70
    70
  9
$TILEMODE
 70
     1
  9
$MAXACTVP
 70
    64
  9
$PLIMCHECK
 70
     0
  9
$PEXTMIN
 10
1.000000000000000E+20
 20
1.000000000000000E+20
 30
1.000000000000000E+20
  9
$PEXTMAX
 10
-1.000000000000000E+20
 20
-1.000000000000000E+20
 30
-1.000000000000000E+20
  9
$PLIMMIN
 10
0.0
 20
0.0
  9
$PLIMMAX
 10
12.0
 20
9.0
  9
$UNITMODE
 70
     0
  9
$VISRETAIN
 70
     1
  9
$PLINEGEN
 70
     0
  9
$PSLTSCALE
 70
     1
  0
ENDSEC
  0
SECTION
  2
TABLES
  0
TABLE
  2
VPORT
 70
     1
  0
VPORT
  2
*ACTIVE
 70
     0
 10
0.0
 20
0.0
 11
1.0
 21
1.0
 12
10.42990654205607
 22
4.5
 13
0.0
 23
0.0
 14
0.5
 24
0.5
 15
0.5
 25
0.5
 16
0.0
 26
0.0
 36
1.0
 17
0.0
 27
0.0
 37
0.0
 40
9.0
 41
1.972972972850329
 42
50.0
 43
0.0
 44
0.0
 50
0.0
 51
0.0
 71
     0
 72
   100
 73
     1
 74
     3
 75
     0
 76
     0
 77
     0
 78
     0
  0
ENDTAB
  0
TABLE
  2
LTYPE
 70
     2
  0
LTYPE
  2
CONTINUOUS
 70
     0
  3
Solid line
 72
    65
 73
     0
 40
0.0
  0
LTYPE
  2
CONTINUOUS2
 70
     0
  3
Solid Line
 72
    65
 73
     0
 40
0.0
  0
ENDTAB
  0
TABLE
  2
LAYER
 70
     3
  0
LAYER
  2
0
 70
     0
 62
     7
  6
CONTINUOUS
  0
LAYER
  2
LAYER_1
 70
     0
 62
    18
  6
CONTINUOUS
  0
LAYER
  2
G
 70
     0
 62
     1
  6
CONTINUOUS
  0
ENDTAB
  0
TABLE
  2
STYLE
 70
     1
  0
STYLE
  2
STANDARD
 70
     0
 40
0.0
 41
1.0
 50
0.0
 71
     0
 42
0.2
  3
txt
  4

  0
ENDTAB
  0
TABLE
  2
VIEW
 70
     0
  0
ENDTAB
  0
TABLE
  2
UCS
 70
     0
  0
ENDTAB
  0
TABLE
  2
APPID
 70
     1
  0
APPID
  2
ACAD
 70
     0
  0
ENDTAB
  0
TABLE
  2
DIMSTYLE
 70
     1
  0
DIMSTYLE
  2
STANDARD
 70
     0
  3

  4

  5

  6

  7

 40
1.0
 41
0.18
 42
0.0625
 43
0.38
 44
0.18
 45
0.0
 46
0.0
 47
0.0
 48
0.0
140
0.18
141
0.09
142
0.0
143
25.4
144
1.0
145
0.0
146
1.0
147
0.09
 71
     0
 72
     0
 73
     1
 74
     1
 75
     0
 76
     0
 77
     0
 78
     0
170
     0
171
     2
172
     0
173
     0
174
     0
175
     0
176
     0
177
     0
178
     0
  0
ENDTAB
  0
ENDSEC
  0
SECTION
  2
BLOCKS
  0
BLOCK
  8
0
  2
$MODEL_SPACE
 70
     0
 10
0.0
 20
0.0
 30
0.0
  3
$MODEL_SPACE
  1

  0
ENDBLK
  5
21
  8
0
  0
BLOCK
 67
     1
  8
0
  2
$PAPER_SPACE
 70
     0
 10
0.0
 20
0.0
 30
0.0
  3
$PAPER_SPACE
  1

  0
ENDBLK
  5
1D
 67
     1
  8
0
  0
ENDSEC
  0
SECTION
  2
ENTITIES
  0
POLYLINE
  5
41
  8
LAYER_1
 66
     1
 10
0.0
 20
0.0
 30
0.0
 70
     1
  0
VERTEX
  5
32A
  8
LAYER_1
 10
-262.760078450098
 20
19.2675240844051
 30
0.0
  0
VERTEX
  5
32B
  8
LAYER_1
 10
-256.7160708950886
 20
4.938006172507707
 30
0.0
  0
VERTEX
  5
32C
  8
LAYER_1
 10
-242.1245526556909
 20
10.87351359189199
 30
0.0
  0
VERTEX
  5
32D
  8
LAYER_1
 10
-248.1660602075754
 20
-3.451254314067898
 30
0.0
  0
VERTEX
  5
32E
  8
LAYER_1
 10
-233.5745419681774
 20
-9.392261740327173
 30
0.0
  0
VERTEX
  5
32F
  8
LAYER_1
 10
-248.1680602100753
 20
-15.32851916064896
 30
0.0
  0
VERTEX
  5
330
  8
LAYER_1
 10
-242.1245526556909
 20
-29.65778707223384
 30
0.0
  0
VERTEX
  5
331
  8
LAYER_1
 10
-256.7160708950886
 20
-23.72252965316207
 30
0.0
  0
VERTEX
  5
332
  8
LAYER_1
 10
-262.760078450098
 20
-38.05229756537197
 30
0.0
  0
VERTEX
  5
333
  8
LAYER_1
 10
-268.7990859988575
 20
-23.72077965097456
 30
0.0
  0
VERTEX
  5
334
  8
LAYER_1
 10
-283.3951042438803
 20
-29.65803707254635
 30
0.0
  0
VERTEX
  5
335
  8
LAYER_1
 10
-277.3515966894959
 20
-15.32851916064896
 30
0.0
  0
VERTEX
  5
336
  8
LAYER_1
 10
-291.9458649323311
 20
-9.392261740327173
 30
0.0
  0
VERTEX
  5
337
  8
LAYER_1
 10
-277.3403466754334
 20
-3.451254314067898
 30
0.0
  0
VERTEX
  5
338
  8
LAYER_1
 10
-283.3821042276303
 20
10.88651360814201
 30
0.0
  0
VERTEX
  5
339
  8
LAYER_1
 10
-268.7990859988575
 20
4.949256186570226
 30
0.0
  0
SEQEND
  5
33A
  8
LAYER_1
  0
POLYLINE
  5
42
  8
LAYER_1
 66
     1
 10
0.0
 20
0.0
 30
0.0
 70
     1
  0
VERTEX
  5
33B
  8
LAYER_1
 10
-249.609812012265
 20
21.75052718815898
 30
0.0
  0
VERTEX
  5
33C
  8
LAYER_1
 10
-255.6618195772745
 20
36.09804512255641
 30
0.0
  0
VERTEX
  5
33D
  8
LAYER_1
 10
-248.5595606994509
 20
52.93756617195771
 30
0.0
  0
VERTEX
  5
33E
  8
LAYER_1
 10
-236.516045645057
 20
52.93756617195771
 30
0.0
  0
VERTEX
  5
33F
  8
LAYER_1
 10
-227.9345349181688
 20
44.51755564694453
 30
0.0
  0
VERTEX
  5
340
  8
LAYER_1
 10
-235.0365437956798
 20
27.67828459785574
 30
0.0
  0
SEQEND
  5
341
  8
LAYER_1
  0
POLYLINE
  5
43
  8
LAYER_1
 66
     1
 10
0.0
 20
0.0
 30
0.0
 70
     1
  0
VERTEX
  5
342
  8
LAYER_1
 10
-275.9195948994936
 20
21.7552771940965
 30
0.0
  0
VERTEX
  5
343
  8
LAYER_1
 10
-269.8673373341717
 20
36.1027951284939
 30
0.0
  0
VERTEX
  5
344
  8
LAYER_1
 10
-276.9695962119953
 20
52.94231617789521
 30
0.0
  0
VERTEX
  5
345
  8
LAYER_1
 10
-289.0131112663892
 20
52.94231617789521
 30
0.0
  0
VERTEX
  5
346
  8
LAYER_1
 10
-297.5946219932775
 20
44.52230565288205
 30
0.0
  0
VERTEX
  5
347
  8
LAYER_1
 10
-290.4926131157664
 20
27.68303460379326
 30
0.0
  0
SEQEND
  5
348
  8
LAYER_1
  0
POLYLINE
  5
44
  8
LAYER_1
 66
     1
 10
0.0
 20
0.0
 30
0.0
 70
     1
  0
VERTEX
  5
349
  8
LAYER_1
 10
-275.8755948444937
 20
-40.52805066006333
 30
0.0
  0
VERTEX
  5
34A
  8
LAYER_1
 10
-269.8233372791716
 20
-54.87556859446074
 30
0.0
  0
VERTEX
  5
34B
  8
LAYER_1
 10
-276.9260961576202
 20
-71.71508964386206
 30
0.0
  0
VERTEX
  5
34C
  8
LAYER_1
 10
-288.9693612117014
 20
-71.71508964386206
 30
0.0
  0
VERTEX
  5
34D
  8
LAYER_1
 10
-297.5511219389024
 20
-63.2948291185364
 30
0.0
  0
VERTEX
  5
34E
  8
LAYER_1
 10
-290.4486130607663
 20
-46.4558080697601
 30
0.0
  0
SEQEND
  5
34F
  8
LAYER_1
  0
POLYLINE
  5
45
  8
LAYER_1
 66
     1
 10
0.0
 20
0.0
 30
0.0
 70
     1
  0
VERTEX
  5
350
  8
LAYER_1
 10
-249.6315620394525
 20
-40.56180070225088
 30
0.0
  0
VERTEX
  5
351
  8
LAYER_1
 10
-255.6838196047745
 20
-54.9090686363358
 30
0.0
  0
VERTEX
  5
352
  8
LAYER_1
 10
-248.581060726326
 20
-71.7488396860496
 30
0.0
  0
VERTEX
  5
353
  8
LAYER_1
 10
-236.5380456725571
 20
-71.7488396860496
 30
0.0
  0
VERTEX
  5
354
  8
LAYER_1
 10
-227.9562849453562
 20
-63.32857916072396
 30
0.0
  0
VERTEX
  5
355
  8
LAYER_1
 10
-235.0585438231798
 20
-46.48955811194764
 30
0.0
  0
SEQEND
  5
356
  8
LAYER_1
  0
POLYLINE
  5
46
  8
LAYER_1
 66
     1
 10
0.0
 20
0.0
 30
0.0
 70
     1
  0
VERTEX
  5
357
  8
LAYER_1
 10
-231.037788797236
 20
-22.26802783503479
 30
0.0
  0
VERTEX
  5
358
  8
LAYER_1
 10
-224.9857812322266
 20
-36.61529576911971
 30
0.0
  0
VERTEX
  5
359
  8
LAYER_1
 10
-207.8377597971999
 20
-43.59105448881812
 30
0.0
  0
VERTEX
  5
35A
  8
LAYER_1
 10
-199.3219991524991
 20
-35.22854403568006
 30
0.0
  0
VERTEX
  5
35B
  8
LAYER_1
 10
-199.3172491465614
 20
-23.31577914472393
 30
0.0
  0
VERTEX
  5
35C
  8
LAYER_1
 10
-216.4647705809632
 20
-16.34052042565055
 30
0.0
  0
SEQEND
  5
35D
  8
LAYER_1
  0
POLYLINE
  5
47
  8
LAYER_1
 66
     1
 10
0.0
 20
0.0
 30
0.0
 70
     1
  0
VERTEX
  5
35E
  8
LAYER_1
 10
-294.5001181251477
 20
-22.29427786784733
 30
0.0
  0
VERTEX
  5
35F
  8
LAYER_1
 10
-300.5518756898447
 20
-36.64154580193225
 30
0.0
  0
VERTEX
  5
360
  8
LAYER_1
 10
-317.6998971248714
 20
-43.61730452163066
 30
0.0
  0
VERTEX
  5
361
  8
LAYER_1
 10
-326.2161577701972
 20
-35.2547940684926
 30
0.0
  0
VERTEX
  5
362
  8
LAYER_1
 10
-326.2209077761347
 20
-23.34202917753647
 30
0.0
  0
VERTEX
  5
363
  8
LAYER_1
 10
-309.0733863417329
 20
-16.36652045815058
 30
0.0
  0
SEQEND
  5
364
  8
LAYER_1
  0
POLYLINE
  5
48
  8
LAYER_1
 66
     1
 10
0.0
 20
0.0
 30
0.0
 70
     1
  0
VERTEX
  5
365
  8
LAYER_1
 10
-294.5003681254601
 20
3.498004372505456
 30
0.0
  0
VERTEX
  5
366
  8
LAYER_1
 10
-300.5523756904697
 20
17.84527230659038
 30
0.0
  0
VERTEX
  5
367
  8
LAYER_1
 10
-317.7003971254965
 20
24.82103102628878
 30
0.0
  0
VERTEX
  5
368
  8
LAYER_1
 10
-326.2164077705098
 20
16.45877057346321
 30
0.0
  0
VERTEX
  5
369
  8
LAYER_1
 10
-326.2211577764473
 20
4.545755682194594
 30
0.0
  0
VERTEX
  5
36A
  8
LAYER_1
 10
-309.0736363420455
 20
-2.429753037191302
 30
0.0
  0
SEQEND
  5
36B
  8
LAYER_1
  0
POLYLINE
  5
49
  8
LAYER_1
 66
     1
 10
0.0
 20
0.0
 30
0.0
 70
     1
  0
VERTEX
  5
36C
  8
LAYER_1
 10
-230.9810387262984
 20
3.493254366567951
 30
0.0
  0
VERTEX
  5
36D
  8
LAYER_1
 10
-216.3702704628381
 20
-2.44975306219134
 30
0.0
  0
VERTEX
  5
36E
  8
LAYER_1
 10
-199.2217490271862
 20
4.524755655944556
 30
0.0
  0
VERTEX
  5
36F
  8
LAYER_1
 10
-199.2217490271862
 20
16.35102043877555
 30
0.0
  0
VERTEX
  5
370
  8
LAYER_1
 10
-207.7965097456372
 20
24.7780309725387
 30
0.0
  0
VERTEX
  5
371
  8
LAYER_1
 10
-224.9445311806639
 20
17.80377225471532
 30
0.0
  0
SEQEND
  5
372
  8
LAYER_1
  0
POLYLINE
  5
4A
  8
LAYER_1
 66
     1
 10
0.0
 20
0.0
 30
0.0
 70
     1
  0
VERTEX
  5
373
  8
LAYER_1
 10
-262.7625784532231
 20
-71.71908964886207
 30
0.0
  0
VERTEX
  5
374
  8
LAYER_1
 10
-268.190335237919
 20
-84.58685573356968
 30
0.0
  0
VERTEX
  5
375
  8
LAYER_1
 10
-275.8865948582436
 20
-84.58685573356968
 30
0.0
  0
VERTEX
  5
376
  8
LAYER_1
 10
-263.8795798494748
 20
-96.36162045202558
 30
0.0
  0
VERTEX
  5
377
  8
LAYER_1
 10
-263.9195798994749
 20
-96.40087050108814
 30
0.0
  0
VERTEX
  5
378
  8
LAYER_1
 10
-261.6173270216589
 20
-96.40087050108814
 30
0.0
  0
VERTEX
  5
379
  8
LAYER_1
 10
-261.6525770657213
 20
-96.3661204576506
 30
0.0
  0
VERTEX
  5
37A
  8
LAYER_1
 10
-249.6408120510151
 20
-84.58685573356968
 30
0.0
  0
VERTEX
  5
37B
  8
LAYER_1
 10
-257.3348216685271
 20
-84.58685573356968
 30
0.0
  0
SEQEND
  5
37C
  8
LAYER_1
  0
POLYLINE
  5
4B
  8
LAYER_1
 66
     1
 10
0.0
 20
0.0
 30
0.0
 70
     1
  0
VERTEX
  5
37D
  8
LAYER_1
 10
-262.7618284522856
 20
52.94356617945772
 30
0.0
  0
VERTEX
  5
37E
  8
LAYER_1
 10
-268.1895852369815
 20
65.81133226416533
 30
0.0
  0
VERTEX
  5
37F
  8
LAYER_1
 10
-275.8855948569935
 20
65.81133226416533
 30
0.0
  0
VERTEX
  5
380
  8
LAYER_1
 10
-263.8788298485374
 20
77.5860969826212
 30
0.0
  0
VERTEX
  5
381
  8
LAYER_1
 10
-263.9120798900998
 20
77.61909702387125
 30
0.0
  0
VERTEX
  5
382
  8
LAYER_1
 10
-261.6228270285338
 20
77.61909702387125
 30
0.0
  0
VERTEX
  5
383
  8
LAYER_1
 10
-261.6518270647839
 20
77.59059698824622
 30
0.0
  0
VERTEX
  5
384
  8
LAYER_1
 10
-249.6400620500775
 20
65.81133226416533
 30
0.0
  0
VERTEX
  5
385
  8
LAYER_1
 10
-257.3340716675896
 20
65.81133226416533
 30
0.0
  0
SEQEND
  5
386
  8
LAYER_1
  0
POLYLINE
  5
4C
  8
LAYER_1
 66
     1
 10
0.0
 20
0.0
 30
0.0
 70
     1
  0
VERTEX
  5
387
  8
LAYER_1
 10
-294.452868066085
 20
65.80533225666531
 30
0.0
  0
VERTEX
  5
388
  8
LAYER_1
 10
-311.4853893567367
 20
65.80533225666531
 30
0.0
  0
VERTEX
  5
389
  8
LAYER_1
 10
-311.4853893567367
 20
70.88458860573573
 30
0.0
  0
VERTEX
  5
38A
  8
LAYER_1
 10
-318.1781477226847
 20
77.48884686105855
 30
0.0
  0
VERTEX
  5
38B
  8
LAYER_1
 10
-282.4228530285664
 20
77.61884702355877
 30
0.0
  0
SEQEND
  5
38C
  8
LAYER_1
  0
POLYLINE
  5
4D
  8
LAYER_1
 66
     1
 10
0.0
 20
0.0
 30
0.0
 70
     1
  0
VERTEX
  5
38D
  8
LAYER_1
 10
-294.452868066085
 20
-84.58885573606968
 30
0.0
  0
VERTEX
  5
38E
  8
LAYER_1
 10
-311.4853893567367
 20
-84.58885573606968
 30
0.0
  0
VERTEX
  5
38F
  8
LAYER_1
 10
-311.4853893567367
 20
-89.66811208514011
 30
0.0
  0
VERTEX
  5
390
  8
LAYER_1
 10
-318.1781477226847
 20
-96.27237034046293
 30
0.0
  0
VERTEX
  5
391
  8
LAYER_1
 10
-282.4228530285664
 20
-96.40237050296315
 30
0.0
  0
SEQEND
  5
392
  8
LAYER_1
  0
POLYLINE
  5
4E
  8
LAYER_1
 66
     1
 10
0.0
 20
0.0
 30
0.0
 70
     1
  0
VERTEX
  5
393
  8
LAYER_1
 10
-231.1792889741112
 20
65.80533225666531
 30
0.0
  0
VERTEX
  5
394
  8
LAYER_1
 10
-214.1470176837721
 20
65.80533225666531
 30
0.0
  0
VERTEX
  5
395
  8
LAYER_1
 10
-214.1470176837721
 20
70.88458860573573
 30
0.0
  0
VERTEX
  5
396
  8
LAYER_1
 10
-207.4540093175117
 20
77.48884686105855
 30
0.0
  0
VERTEX
  5
397
  8
LAYER_1
 10
-243.2095540119425
 20
77.61884702355877
 30
0.0
  0
SEQEND
  5
398
  8
LAYER_1
  0
POLYLINE
  5
4F
  8
LAYER_1
 66
     1
 10
0.0
 20
0.0
 30
0.0
 70
     1
  0
VERTEX
  5
399
  8
LAYER_1
 10
-230.9985387481735
 20
-84.58885573606968
 30
0.0
  0
VERTEX
  5
39A
  8
LAYER_1
 10
-213.9662674578343
 20
-84.58885573606968
 30
0.0
  0
VERTEX
  5
39B
  8
LAYER_1
 10
-213.9662674578343
 20
-89.66811208514011
 30
0.0
  0
VERTEX
  5
39C
  8
LAYER_1
 10
-207.2732590915739
 20
-96.27237034046293
 30
0.0
  0
VERTEX
  5
39D
  8
LAYER_1
 10
-243.0288037860047
 20
-96.40237050296315
 30
0.0
  0
SEQEND
  5
39E
  8
LAYER_1
  0
POLYLINE
  5
50
  8
LAYER_1
 66
     1
 10
0.0
 20
0.0
 30
0.0
 70
     1
  0
VERTEX
  5
39F
  8
LAYER_1
 10
-85.11335639169545
 20
19.2675240844051
 30
0.0
  0
VERTEX
  5
3A0
  8
LAYER_1
 10
-79.069348836686
 20
4.938006172507707
 30
0.0
  0
VERTEX
  5
3A1
  8
LAYER_1
 10
-64.47783059728829
 20
10.87351359189199
 30
0.0
  0
VERTEX
  5
3A2
  8
LAYER_1
 10
-70.51958814948512
 20
-3.451254314067898
 30
0.0
  0
VERTEX
  5
3A3
  8
LAYER_1
 10
-55.92756990946242
 20
-9.392261740327173
 30
0.0
  0
VERTEX
  5
3A4
  8
LAYER_1
 10
-70.52158815198527
 20
-15.32851916064896
 30
0.0
  0
VERTEX
  5
3A5
  8
LAYER_1
 10
-64.47808059760075
 20
-29.65778707223384
 30
0.0
  0
VERTEX
  5
3A6
  8
LAYER_1
 10
-79.069348836686
 20
-23.72252965316207
 30
0.0
  0
VERTEX
  5
3A7
  8
LAYER_1
 10
-85.11335639169545
 20
-38.05229756537197
 30
0.0
  0
VERTEX
  5
3A8
  8
LAYER_1
 10
-91.15236394045496
 20
-23.72077965097456
 30
0.0
  0
VERTEX
  5
3A9
  8
LAYER_1
 10
-105.7486321857903
 20
-29.65803707254635
 30
0.0
  0
VERTEX
  5
3AA
  8
LAYER_1
 10
-99.70487463109328
 20
-15.32851916064896
 30
0.0
  0
VERTEX
  5
3AB
  8
LAYER_1
 10
-114.2991428739286
 20
-9.392261740327173
 30
0.0
  0
VERTEX
  5
3AC
  8
LAYER_1
 10
-99.69362461703076
 20
-3.451254314067898
 30
0.0
  0
VERTEX
  5
3AD
  8
LAYER_1
 10
-105.7353821692277
 20
10.88651360814201
 30
0.0
  0
VERTEX
  5
3AE
  8
LAYER_1
 10
-91.15236394045496
 20
4.949256186570226
 30
0.0
  0
SEQEND
  5
3AF
  8
LAYER_1
  0
POLYLINE
  5
51
  8
LAYER_1
 66
     1
 10
0.0
 20
0.0
 30
0.0
 70
     1
  0
VERTEX
  5
3B0
  8
LAYER_1
 10
-71.96308995386244
 20
21.75052718815898
 30
0.0
  0
VERTEX
  5
3B1
  8
LAYER_1
 10
-78.01509751887193
 20
36.09804512255641
 30
0.0
  0
VERTEX
  5
3B2
  8
LAYER_1
 10
-70.91258864073586
 20
52.93756617195771
 30
0.0
  0
VERTEX
  5
3B3
  8
LAYER_1
 10
-58.86907358634204
 20
52.93756617195771
 30
0.0
  0
VERTEX
  5
3B4
  8
LAYER_1
 10
-50.2875628594536
 20
44.51755564694453
 30
0.0
  0
VERTEX
  5
3B5
  8
LAYER_1
 10
-57.3898217372772
 20
27.67828459785574
 30
0.0
  0
SEQEND
  5
3B6
  8
LAYER_1
  0
POLYLINE
  5
52
  8
LAYER_1
 66
     1
 10
0.0
 20
0.0
 30
0.0
 70
     1
  0
VERTEX
  5
3B7
  8
LAYER_1
 10
-98.27262284077858
 20
21.7552771940965
 30
0.0
  0
VERTEX
  5
3B8
  8
LAYER_1
 10
-92.22061527576909
 20
36.1027951284939
 30
0.0
  0
VERTEX
  5
3B9
  8
LAYER_1
 10
-99.32312415390516
 20
52.94231617789521
 30
0.0
  0
VERTEX
  5
3BA
  8
LAYER_1
 10
-111.3663892079866
 20
52.94231617789521
 30
0.0
  0
VERTEX
  5
3BB
  8
LAYER_1
 10
-119.9481499351874
 20
44.52230565288205
 30
0.0
  0
VERTEX
  5
3BC
  8
LAYER_1
 10
-112.8456410570514
 20
27.68303460379326
 30
0.0
  0
SEQEND
  5
3BD
  8
LAYER_1
  0
POLYLINE
  5
53
  8
LAYER_1
 66
     1
 10
0.0
 20
0.0
 30
0.0
 70
     1
  0
VERTEX
  5
3BE
  8
LAYER_1
 10
-98.22887278609107
 20
-40.52805066006333
 30
0.0
  0
VERTEX
  5
3BF
  8
LAYER_1
 10
-92.17686522108147
 20
-54.87556859446074
 30
0.0
  0
VERTEX
  5
3C0
  8
LAYER_1
 10
-99.27912409890519
 20
-71.71508964386206
 30
0.0
  0
VERTEX
  5
3C1
  8
LAYER_1
 10
-111.3223891529864
 20
-71.71508964386206
 30
0.0
  0
VERTEX
  5
3C2
  8
LAYER_1
 10
-119.9041498801873
 20
-63.2948291185364
 30
0.0
  0
VERTEX
  5
3C3
  8
LAYER_1
 10
-112.8018910023637
 20
-46.4558080697601
 30
0.0
  0
SEQEND
  5
3C4
  8
LAYER_1
  0
POLYLINE
  5
54
  8
LAYER_1
 66
     1
 10
0.0
 20
0.0
 30
0.0
 70
     1
  0
VERTEX
  5
3C5
  8
LAYER_1
 10
-71.98483998104996
 20
-40.56180070225088
 30
0.0
  0
VERTEX
  5
3C6
  8
LAYER_1
 10
-78.03684754605945
 20
-54.9090686363358
 30
0.0
  0
VERTEX
  5
3C7
  8
LAYER_1
 10
-70.93458866823585
 20
-71.7488396860496
 30
0.0
  0
VERTEX
  5
3C8
  8
LAYER_1
 10
-58.89132361415454
 20
-71.7488396860496
 30
0.0
  0
VERTEX
  5
3C9
  8
LAYER_1
 10
-50.30956288695364
 20
-63.32857916072396
 30
0.0
  0
VERTEX
  5
3CA
  8
LAYER_1
 10
-57.41182176477719
 20
-46.48955811194764
 30
0.0
  0
SEQEND
  5
3CB
  8
LAYER_1
  0
POLYLINE
  5
55
  8
LAYER_1
 66
     1
 10
0.0
 20
0.0
 30
0.0
 70
     1
  0
VERTEX
  5
3CC
  8
LAYER_1
 10
-53.39106673883344
 20
-22.26802783503479
 30
0.0
  0
VERTEX
  5
3CD
  8
LAYER_1
 10
-47.33905917382396
 20
-36.61529576911971
 30
0.0
  0
VERTEX
  5
3CE
  8
LAYER_1
 10
-30.19103773879721
 20
-43.59105448881812
 30
0.0
  0
VERTEX
  5
3CF
  8
LAYER_1
 10
-21.67502709378391
 20
-35.22854403568006
 30
0.0
  0
VERTEX
  5
3D0
  8
LAYER_1
 10
-21.67027708784639
 20
-23.31577914472393
 30
0.0
  0
VERTEX
  5
3D1
  8
LAYER_1
 10
-38.81779852224821
 20
-16.34052042565055
 30
0.0
  0
SEQEND
  5
3D2
  8
LAYER_1
  0
POLYLINE
  5
56
  8
LAYER_1
 66
     1
 10
0.0
 20
0.0
 30
0.0
 70
     1
  0
VERTEX
  5
3D3
  8
LAYER_1
 10
-116.8533960667451
 20
-22.29427786784733
 30
0.0
  0
VERTEX
  5
3D4
  8
LAYER_1
 10
-122.9054036317546
 20
-36.64154580193225
 30
0.0
  0
VERTEX
  5
3D5
  8
LAYER_1
 10
-140.0534250667814
 20
-43.61730452163066
 30
0.0
  0
VERTEX
  5
3D6
  8
LAYER_1
 10
-148.5691857114822
 20
-35.2547940684926
 30
0.0
  0
VERTEX
  5
3D7
  8
LAYER_1
 10
-148.5739357174197
 20
-23.34202917753647
 30
0.0
  0
VERTEX
  5
3D8
  8
LAYER_1
 10
-131.4264142830178
 20
-16.36652045815058
 30
0.0
  0
SEQEND
  5
3D9
  8
LAYER_1
  0
POLYLINE
  5
57
  8
LAYER_1
 66
     1
 10
0.0
 20
0.0
 30
0.0
 70
     1
  0
VERTEX
  5
3DA
  8
LAYER_1
 10
-116.8536460670576
 20
3.498004372505456
 30
0.0
  0
VERTEX
  5
3DB
  8
LAYER_1
 10
-122.9056536320671
 20
17.84527230659038
 30
0.0
  0
VERTEX
  5
3DC
  8
LAYER_1
 10
-140.0536750670939
 20
24.82103102628878
 30
0.0
  0
VERTEX
  5
3DD
  8
LAYER_1
 10
-148.5694357117947
 20
16.45877057346321
 30
0.0
  0
VERTEX
  5
3DE
  8
LAYER_1
 10
-148.5741857177322
 20
4.545755682194594
 30
0.0
  0
VERTEX
  5
3DF
  8
LAYER_1
 10
-131.4266642833303
 20
-2.429753037191302
 30
0.0
  0
SEQEND
  5
3E0
  8
LAYER_1
  0
POLYLINE
  5
58
  8
LAYER_1
 66
     1
 10
0.0
 20
0.0
 30
0.0
 70
     1
  0
VERTEX
  5
3E1
  8
LAYER_1
 10
-53.33406666758339
 20
3.493254366567951
 30
0.0
  0
VERTEX
  5
3E2
  8
LAYER_1
 10
-38.72379840474798
 20
-2.44975306219134
 30
0.0
  0
VERTEX
  5
3E3
  8
LAYER_1
 10
-21.57502696878367
 20
4.524755655944556
 30
0.0
  0
VERTEX
  5
3E4
  8
LAYER_1
 10
-21.57502696878367
 20
16.35102043877555
 30
0.0
  0
VERTEX
  5
3E5
  8
LAYER_1
 10
-30.14978768723461
 20
24.7780309725387
 30
0.0
  0
VERTEX
  5
3E6
  8
LAYER_1
 10
-47.29805912257393
 20
17.80377225471532
 30
0.0
  0
SEQEND
  5
3E7
  8
LAYER_1
  0
POLYLINE
  5
59
  8
LAYER_1
 66
     1
 10
0.0
 20
0.0
 30
0.0
 70
     1
  0
VERTEX
  5
3E8
  8
LAYER_1
 10
-85.11585639482053
 20
-71.71908964886207
 30
0.0
  0
VERTEX
  5
3E9
  8
LAYER_1
 10
-90.54386317982903
 20
-84.58685573356968
 30
0.0
  0
VERTEX
  5
3EA
  8
LAYER_1
 10
-98.24012280015347
 20
-84.58685573356968
 30
0.0
  0
VERTEX
  5
3EB
  8
LAYER_1
 10
-86.23260779075974
 20
-96.36162045202558
 30
0.0
  0
VERTEX
  5
3EC
  8
LAYER_1
 10
-86.27285784107232
 20
-96.40087050108814
 30
0.0
  0
VERTEX
  5
3ED
  8
LAYER_1
 10
-83.97060496325616
 20
-96.40087050108814
 30
0.0
  0
VERTEX
  5
3EE
  8
LAYER_1
 10
-84.00585500731881
 20
-96.3661204576506
 30
0.0
  0
VERTEX
  5
3EF
  8
LAYER_1
 10
-71.99408999261254
 20
-84.58685573356968
 30
0.0
  0
VERTEX
  5
3F0
  8
LAYER_1
 10
-79.68809961012448
 20
-84.58685573356968
 30
0.0
  0
SEQEND
  5
3F1
  8
LAYER_1
  0
POLYLINE
  5
5A
  8
LAYER_1
 66
     1
 10
0.0
 20
0.0
 30
0.0
 70
     1
  0
VERTEX
  5
3F2
  8
LAYER_1
 10
-85.11510639388302
 20
52.94356617945772
 30
0.0
  0
VERTEX
  5
3F3
  8
LAYER_1
 10
-90.54286317857907
 20
65.81133226416533
 30
0.0
  0
VERTEX
  5
3F4
  8
LAYER_1
 10
-98.23912279890351
 20
65.81133226416533
 30
0.0
  0
VERTEX
  5
3F5
  8
LAYER_1
 10
-86.23185778982224
 20
77.5860969826212
 30
0.0
  0
VERTEX
  5
3F6
  8
LAYER_1
 10
-86.26560783200978
 20
77.61909702387125
 30
0.0
  0
VERTEX
  5
3F7
  8
LAYER_1
 10
-83.97610497013125
 20
77.61909702387125
 30
0.0
  0
VERTEX
  5
3F8
  8
LAYER_1
 10
-84.00510500638131
 20
77.59059698824622
 30
0.0
  0
VERTEX
  5
3F9
  8
LAYER_1
 10
-71.99308999136247
 20
65.81133226416533
 30
0.0
  0
VERTEX
  5
3FA
  8
LAYER_1
 10
-79.68734960918698
 20
65.81133226416533
 30
0.0
  0
SEQEND
  5
3FB
  8
LAYER_1
  0
POLYLINE
  5
5B
  8
LAYER_1
 66
     1
 10
0.0
 20
0.0
 30
0.0
 70
     1
  0
VERTEX
  5
3FC
  8
LAYER_1
 10
-116.8061460076825
 20
65.80533225666531
 30
0.0
  0
VERTEX
  5
3FD
  8
LAYER_1
 10
-133.8384172980216
 20
65.80533225666531
 30
0.0
  0
VERTEX
  5
3FE
  8
LAYER_1
 10
-133.8384172980216
 20
70.88458860573573
 30
0.0
  0
VERTEX
  5
3FF
  8
LAYER_1
 10
-140.5314256642821
 20
77.48884686105855
 30
0.0
  0
VERTEX
  5
400
  8
LAYER_1
 10
-104.7761309701638
 20
77.61884702355877
 30
0.0
  0
SEQEND
  5
401
  8
LAYER_1
  0
POLYLINE
  5
5C
  8
LAYER_1
 66
     1
 10
0.0
 20
0.0
 30
0.0
 70
     1
  0
VERTEX
  5
402
  8
LAYER_1
 10
-116.8061460076825
 20
-84.58885573606968
 30
0.0
  0
VERTEX
  5
403
  8
LAYER_1
 10
-133.8384172980216
 20
-84.58885573606968
 30
0.0
  0
VERTEX
  5
404
  8
LAYER_1
 10
-133.8384172980216
 20
-89.66811208514011
 30
0.0
  0
VERTEX
  5
405
  8
LAYER_1
 10
-140.5314256642821
 20
-96.27237034046293
 30
0.0
  0
VERTEX
  5
406
  8
LAYER_1
 10
-104.7761309701638
 20
-96.40237050296315
 30
0.0
  0
SEQEND
  5
407
  8
LAYER_1
  0
POLYLINE
  5
5D
  8
LAYER_1
 66
     1
 10
0.0
 20
0.0
 30
0.0
 70
     1
  0
VERTEX
  5
408
  8
LAYER_1
 10
-53.5328169160212
 20
65.80533225666531
 30
0.0
  0
VERTEX
  5
409
  8
LAYER_1
 10
-36.50029562536952
 20
65.80533225666531
 30
0.0
  0
VERTEX
  5
40A
  8
LAYER_1
 10
-36.50029562536952
 20
70.88458860573573
 30
0.0
  0
VERTEX
  5
40B
  8
LAYER_1
 10
-29.80728725910905
 20
77.48884686105855
 30
0.0
  0
VERTEX
  5
40C
  8
LAYER_1
 10
-65.5628319535399
 20
77.61884702355877
 30
0.0
  0
SEQEND
  5
40D
  8
LAYER_1
  0
POLYLINE
  5
5E
  8
LAYER_1
 66
     1
 10
0.0
 20
0.0
 30
0.0
 70
     1
  0
VERTEX
  5
40E
  8
LAYER_1
 10
-53.35181668977089
 20
-84.58885573606968
 30
0.0
  0
VERTEX
  5
40F
  8
LAYER_1
 10
-36.31929539911926
 20
-84.58885573606968
 30
0.0
  0
VERTEX
  5
410
  8
LAYER_1
 10
-36.31929539911926
 20
-89.66811208514011
 30
0.0
  0
VERTEX
  5
411
  8
LAYER_1
 10
-29.6265370331713
 20
-96.27237034046293
 30
0.0
  0
VERTEX
  5
412
  8
LAYER_1
 10
-65.38208172760221
 20
-96.40237050296315
 30
0.0
  0
SEQEND
  5
413
  8
LAYER_1
  0
POLYLINE
  5
5F
  8
LAYER_1
 66
     1
 10
0.0
 20
0.0
 30
0.0
 70
     1
  0
VERTEX
  5
414
  8
LAYER_1
 10
92.53336566670703
 20
19.2675240844051
 30
0.0
  0
VERTEX
  5
415
  8
LAYER_1
 10
98.57737322171653
 20
4.938006172507707
 30
0.0
  0
VERTEX
  5
416
  8
LAYER_1
 10
113.1691414614268
 20
10.87351359189199
 30
0.0
  0
VERTEX
  5
417
  8
LAYER_1
 10
107.1271339089174
 20
-3.451254314067898
 30
0.0
  0
VERTEX
  5
418
  8
LAYER_1
 10
121.7191521489402
 20
-9.392261740327173
 30
0.0
  0
VERTEX
  5
419
  8
LAYER_1
 10
107.1251339064174
 20
-15.32851916064896
 30
0.0
  0
VERTEX
  5
41A
  8
LAYER_1
 10
113.1688914611143
 20
-29.65778707223384
 30
0.0
  0
VERTEX
  5
41B
  8
LAYER_1
 10
98.57737322171653
 20
-23.72252965316207
 30
0.0
  0
VERTEX
  5
41C
  8
LAYER_1
 10
92.53336566670703
 20
-38.05229756537197
 30
0.0
  0
VERTEX
  5
41D
  8
LAYER_1
 10
86.49435811794768
 20
-23.72077965097456
 30
0.0
  0
VERTEX
  5
41E
  8
LAYER_1
 10
71.89808987261233
 20
-29.65803707254635
 30
0.0
  0
VERTEX
  5
41F
  8
LAYER_1
 10
77.94184742730926
 20
-15.32851916064896
 30
0.0
  0
VERTEX
  5
420
  8
LAYER_1
 10
63.34782918478646
 20
-9.392261740327173
 30
0.0
  0
VERTEX
  5
421
  8
LAYER_1
 10
77.95309744137177
 20
-3.451254314067898
 30
0.0
  0
VERTEX
  5
422
  8
LAYER_1
 10
71.91133988917488
 20
10.88651360814201
 30
0.0
  0
VERTEX
  5
423
  8
LAYER_1
 10
86.49435811794768
 20
4.949256186570226
 30
0.0
  0
SEQEND
  5
424
  8
LAYER_1
  0
POLYLINE
  5
60
  8
LAYER_1
 66
     1
 10
0.0
 20
0.0
 30
0.0
 70
     1
  0
VERTEX
  5
425
  8
LAYER_1
 10
105.6836321045401
 20
21.75052718815898
 30
0.0
  0
VERTEX
  5
426
  8
LAYER_1
 10
99.63187453984318
 20
36.09804512255641
 30
0.0
  0
VERTEX
  5
427
  8
LAYER_1
 10
106.7341334176668
 20
52.93756617195771
 30
0.0
  0
VERTEX
  5
428
  8
LAYER_1
 10
118.7773984717481
 20
52.93756617195771
 30
0.0
  0
VERTEX
  5
429
  8
LAYER_1
 10
127.359159198949
 20
44.51755564694453
 30
0.0
  0
VERTEX
  5
42A
  8
LAYER_1
 10
120.2566503208129
 20
27.67828459785574
 30
0.0
  0
SEQEND
  5
42B
  8
LAYER_1
  0
POLYLINE
  5
61
  8
LAYER_1
 66
     1
 10
0.0
 20
0.0
 30
0.0
 70
     1
  0
VERTEX
  5
42C
  8
LAYER_1
 10
79.374099217624
 20
21.7552771940965
 30
0.0
  0
VERTEX
  5
42D
  8
LAYER_1
 10
85.4261067826335
 20
36.1027951284939
 30
0.0
  0
VERTEX
  5
42E
  8
LAYER_1
 10
78.32359790449738
 20
52.94231617789521
 30
0.0
  0
VERTEX
  5
42F
  8
LAYER_1
 10
66.28058285072859
 20
52.94231617789521
 30
0.0
  0
VERTEX
  5
430
  8
LAYER_1
 10
57.69882212352763
 20
44.52230565288205
 30
0.0
  0
VERTEX
  5
431
  8
LAYER_1
 10
64.80108100135124
 20
27.68303460379326
 30
0.0
  0
SEQEND
  5
432
  8
LAYER_1
  0
POLYLINE
  5
62
  8
LAYER_1
 66
     1
 10
0.0
 20
0.0
 30
0.0
 70
     1
  0
VERTEX
  5
433
  8
LAYER_1
 10
79.41809927262409
 20
-40.52805066006333
 30
0.0
  0
VERTEX
  5
434
  8
LAYER_1
 10
85.469856837321
 20
-54.87556859446074
 30
0.0
  0
VERTEX
  5
435
  8
LAYER_1
 10
78.36759795949746
 20
-71.71508964386206
 30
0.0
  0
VERTEX
  5
436
  8
LAYER_1
 10
66.32408290510358
 20
-71.71508964386206
 30
0.0
  0
VERTEX
  5
437
  8
LAYER_1
 10
57.74257217821526
 20
-63.2948291185364
 30
0.0
  0
VERTEX
  5
438
  8
LAYER_1
 10
64.84508105635132
 20
-46.4558080697601
 30
0.0
  0
SEQEND
  5
439
  8
LAYER_1
  0
POLYLINE
  5
63
  8
LAYER_1
 66
     1
 10
0.0
 20
0.0
 30
0.0
 70
     1
  0
VERTEX
  5
43A
  8
LAYER_1
 10
105.6616320770401
 20
-40.56180070225088
 30
0.0
  0
VERTEX
  5
43B
  8
LAYER_1
 10
99.60987451234314
 20
-54.9090686363358
 30
0.0
  0
VERTEX
  5
43C
  8
LAYER_1
 10
106.7118833898542
 20
-71.7488396860496
 30
0.0
  0
VERTEX
  5
43D
  8
LAYER_1
 10
118.755398444248
 20
-71.7488396860496
 30
0.0
  0
VERTEX
  5
43E
  8
LAYER_1
 10
127.3369091711364
 20
-63.32857916072396
 30
0.0
  0
VERTEX
  5
43F
  8
LAYER_1
 10
120.2349002936253
 20
-46.48955811194764
 30
0.0
  0
SEQEND
  5
440
  8
LAYER_1
  0
POLYLINE
  5
64
  8
LAYER_1
 66
     1
 10
0.0
 20
0.0
 30
0.0
 70
     1
  0
VERTEX
  5
441
  8
LAYER_1
 10
124.2559053198817
 20
-22.26802783503479
 30
0.0
  0
VERTEX
  5
442
  8
LAYER_1
 10
130.3076628845786
 20
-36.61529576911971
 30
0.0
  0
VERTEX
  5
443
  8
LAYER_1
 10
147.4559343199178
 20
-43.59105448881812
 30
0.0
  0
VERTEX
  5
444
  8
LAYER_1
 10
155.9716949646187
 20
-35.22854403568006
 30
0.0
  0
VERTEX
  5
445
  8
LAYER_1
 10
155.9764449705562
 20
-23.31577914472393
 30
0.0
  0
VERTEX
  5
446
  8
LAYER_1
 10
138.8289235361544
 20
-16.34052042565055
 30
0.0
  0
SEQEND
  5
447
  8
LAYER_1
  0
POLYLINE
  5
65
  8
LAYER_1
 66
     1
 10
0.0
 20
0.0
 30
0.0
 70
     1
  0
VERTEX
  5
448
  8
LAYER_1
 10
60.79332599165747
 20
-22.29427786784733
 30
0.0
  0
VERTEX
  5
449
  8
LAYER_1
 10
54.74156842696055
 20
-36.64154580193225
 30
0.0
  0
VERTEX
  5
44A
  8
LAYER_1
 10
37.59354699193369
 20
-43.61730452163066
 30
0.0
  0
VERTEX
  5
44B
  8
LAYER_1
 10
29.07753634692045
 20
-35.2547940684926
 30
0.0
  0
VERTEX
  5
44C
  8
LAYER_1
 10
29.07278634098293
 20
-23.34202917753647
 30
0.0
  0
VERTEX
  5
44D
  8
LAYER_1
 10
46.22030777538475
 20
-16.36652045815058
 30
0.0
  0
SEQEND
  5
44E
  8
LAYER_1
  0
POLYLINE
  5
66
  8
LAYER_1
 66
     1
 10
0.0
 20
0.0
 30
0.0
 70
     1
  0
VERTEX
  5
44F
  8
LAYER_1
 10
60.79307599134495
 20
3.498004372505456
 30
0.0
  0
VERTEX
  5
450
  8
LAYER_1
 10
54.74131842664804
 20
17.84527230659038
 30
0.0
  0
VERTEX
  5
451
  8
LAYER_1
 10
37.59304699130871
 20
24.82103102628878
 30
0.0
  0
VERTEX
  5
452
  8
LAYER_1
 10
29.07703634629542
 20
16.45877057346321
 30
0.0
  0
VERTEX
  5
453
  8
LAYER_1
 10
29.07228634035789
 20
4.545755682194594
 30
0.0
  0
VERTEX
  5
454
  8
LAYER_1
 10
46.21980777475972
 20
-2.429753037191302
 30
0.0
  0
SEQEND
  5
455
  8
LAYER_1
  0
POLYLINE
  5
67
  8
LAYER_1
 66
     1
 10
0.0
 20
0.0
 30
0.0
 70
     1
  0
VERTEX
  5
456
  8
LAYER_1
 10
124.3124053905067
 20
3.493254366567951
 30
0.0
  0
VERTEX
  5
457
  8
LAYER_1
 10
138.9229236536545
 20
-2.44975306219134
 30
0.0
  0
VERTEX
  5
458
  8
LAYER_1
 10
156.0716950896189
 20
4.524755655944556
 30
0.0
  0
VERTEX
  5
459
  8
LAYER_1
 10
156.0716950896189
 20
16.35102043877555
 30
0.0
  0
VERTEX
  5
45A
  8
LAYER_1
 10
147.4966843708554
 20
24.7780309725387
 30
0.0
  0
VERTEX
  5
45B
  8
LAYER_1
 10
130.3486629358287
 20
17.80377225471532
 30
0.0
  0
SEQEND
  5
45C
  8
LAYER_1
  0
POLYLINE
  5
68
  8
LAYER_1
 66
     1
 10
0.0
 20
0.0
 30
0.0
 70
     1
  0
VERTEX
  5
45D
  8
LAYER_1
 10
92.5306156632696
 20
-71.71908964886207
 30
0.0
  0
VERTEX
  5
45E
  8
LAYER_1
 10
87.10285887857356
 20
-84.58685573356968
 30
0.0
  0
VERTEX
  5
45F
  8
LAYER_1
 10
79.40659925824906
 20
-84.58685573356968
 30
0.0
  0
VERTEX
  5
460
  8
LAYER_1
 10
91.41386426733033
 20
-96.36162045202558
 30
0.0
  0
VERTEX
  5
461
  8
LAYER_1
 10
91.37411421764278
 20
-96.40087050108814
 30
0.0
  0
VERTEX
  5
462
  8
LAYER_1
 10
93.67611709514631
 20
-96.40087050108814
 30
0.0
  0
VERTEX
  5
463
  8
LAYER_1
 10
93.64086705108383
 20
-96.3661204576506
 30
0.0
  0
VERTEX
  5
464
  8
LAYER_1
 10
105.6526320657901
 20
-84.58685573356968
 30
0.0
  0
VERTEX
  5
465
  8
LAYER_1
 10
97.95837244796559
 20
-84.58685573356968
 30
0.0
  0
SEQEND
  5
466
  8
LAYER_1
  0
POLYLINE
  5
69
  8
LAYER_1
 66
     1
 10
0.0
 20
0.0
 30
0.0
 70
     1
  0
VERTEX
  5
467
  8
LAYER_1
 10
92.53161566451956
 20
52.94356617945772
 30
0.0
  0
VERTEX
  5
468
  8
LAYER_1
 10
87.10360887951106
 20
65.81133226416533
 30
0.0
  0
VERTEX
  5
469
  8
LAYER_1
 10
79.40784925981154
 20
65.81133226416533
 30
0.0
  0
VERTEX
  5
46A
  8
LAYER_1
 10
91.41486426858035
 20
77.5860969826212
 30
0.0
  0
VERTEX
  5
46B
  8
LAYER_1
 10
91.38136422670522
 20
77.61909702387125
 30
0.0
  0
VERTEX
  5
46C
  8
LAYER_1
 10
93.67036708795882
 20
77.61909702387125
 30
0.0
  0
VERTEX
  5
46D
  8
LAYER_1
 10
93.64161705202127
 20
77.59059698824622
 30
0.0
  0
VERTEX
  5
46E
  8
LAYER_1
 10
105.6533820667276
 20
65.81133226416533
 30
0.0
  0
VERTEX
  5
46F
  8
LAYER_1
 10
97.95937244921555
 20
65.81133226416533
 30
0.0
  0
SEQEND
  5
470
  8
LAYER_1
  0
POLYLINE
  5
6A
  8
LAYER_1
 66
     1
 10
0.0
 20
0.0
 30
0.0
 70
     1
  0
VERTEX
  5
471
  8
LAYER_1
 10
60.84057605072002
 20
65.80533225666531
 30
0.0
  0
VERTEX
  5
472
  8
LAYER_1
 10
43.80805476006844
 20
65.80533225666531
 30
0.0
  0
VERTEX
  5
473
  8
LAYER_1
 10
43.80805476006844
 20
70.88458860573573
 30
0.0
  0
VERTEX
  5
474
  8
LAYER_1
 10
37.11529639412049
 20
77.48884686105855
 30
0.0
  0
VERTEX
  5
475
  8
LAYER_1
 10
72.87059108823888
 20
77.61884702355877
 30
0.0
  0
SEQEND
  5
476
  8
LAYER_1
  0
POLYLINE
  5
6B
  8
LAYER_1
 66
     1
 10
0.0
 20
0.0
 30
0.0
 70
     1
  0
VERTEX
  5
477
  8
LAYER_1
 10
60.84057605072002
 20
-84.58885573606968
 30
0.0
  0
VERTEX
  5
478
  8
LAYER_1
 10
43.80805476006844
 20
-84.58885573606968
 30
0.0
  0
VERTEX
  5
479
  8
LAYER_1
 10
43.80805476006844
 20
-89.66811208514011
 30
0.0
  0
VERTEX
  5
47A
  8
LAYER_1
 10
37.11529639412049
 20
-96.27237034046293
 30
0.0
  0
VERTEX
  5
47B
  8
LAYER_1
 10
72.87059108823888
 20
-96.40237050296315
 30
0.0
  0
SEQEND
  5
47C
  8
LAYER_1
  0
POLYLINE
  5
6C
  8
LAYER_1
 66
     1
 10
0.0
 20
0.0
 30
0.0
 70
     1
  0
VERTEX
  5
47D
  8
LAYER_1
 10
124.114155142694
 20
65.80533225666531
 30
0.0
  0
VERTEX
  5
47E
  8
LAYER_1
 10
141.146426433033
 20
65.80533225666531
 30
0.0
  0
VERTEX
  5
47F
  8
LAYER_1
 10
141.146426433033
 20
70.88458860573573
 30
0.0
  0
VERTEX
  5
480
  8
LAYER_1
 10
147.839184798981
 20
77.48884686105855
 30
0.0
  0
VERTEX
  5
481
  8
LAYER_1
 10
112.0838901048626
 20
77.61884702355877
 30
0.0
  0
SEQEND
  5
482
  8
LAYER_1
  0
POLYLINE
  5
6D
  8
LAYER_1
 66
     1
 10
0.0
 20
0.0
 30
0.0
 70
     1
  0
VERTEX
  5
483
  8
LAYER_1
 10
124.2949053686317
 20
-84.58885573606968
 30
0.0
  0
VERTEX
  5
484
  8
LAYER_1
 10
141.3271766589708
 20
-84.58885573606968
 30
0.0
  0
VERTEX
  5
485
  8
LAYER_1
 10
141.3271766589708
 20
-89.66811208514011
 30
0.0
  0
VERTEX
  5
486
  8
LAYER_1
 10
148.0201850252313
 20
-96.27237034046293
 30
0.0
  0
VERTEX
  5
487
  8
LAYER_1
 10
112.264890331113
 20
-96.40237050296315
 30
0.0
  0
SEQEND
  5
488
  8
LAYER_1
  0
POLYLINE
  5
6E
  8
LAYER_1
 66
     1
 10
0.0
 20
0.0
 30
0.0
 70
     1
  0
VERTEX
  5
489
  8
LAYER_1
 10
270.1800877251097
 20
19.2675240844051
 30
0.0
  0
VERTEX
  5
48A
  8
LAYER_1
 10
276.2238452798066
 20
4.938006172507707
 30
0.0
  0
VERTEX
  5
48B
  8
LAYER_1
 10
290.8156135195169
 20
10.87351359189199
 30
0.0
  0
VERTEX
  5
48C
  8
LAYER_1
 10
284.7741059676325
 20
-3.451254314067898
 30
0.0
  0
VERTEX
  5
48D
  8
LAYER_1
 10
299.3658742073427
 20
-9.392261740327173
 30
0.0
  0
VERTEX
  5
48E
  8
LAYER_1
 10
284.7721059651325
 20
-15.32851916064896
 30
0.0
  0
VERTEX
  5
48F
  8
LAYER_1
 10
290.8156135195169
 20
-29.65778707223384
 30
0.0
  0
VERTEX
  5
490
  8
LAYER_1
 10
276.2238452798066
 20
-23.72252965316207
 30
0.0
  0
VERTEX
  5
491
  8
LAYER_1
 10
270.1800877251097
 20
-38.05229756537197
 30
0.0
  0
VERTEX
  5
492
  8
LAYER_1
 10
264.1413301766627
 20
-23.72077965097456
 30
0.0
  0
VERTEX
  5
493
  8
LAYER_1
 10
249.5450619313274
 20
-29.65803707254635
 30
0.0
  0
VERTEX
  5
494
  8
LAYER_1
 10
255.5885694857118
 20
-15.32851916064896
 30
0.0
  0
VERTEX
  5
495
  8
LAYER_1
 10
240.9943012428766
 20
-9.392261740327173
 30
0.0
  0
VERTEX
  5
496
  8
LAYER_1
 10
255.5998194997744
 20
-3.451254314067898
 30
0.0
  0
VERTEX
  5
497
  8
LAYER_1
 10
249.5580619475774
 20
10.88651360814201
 30
0.0
  0
VERTEX
  5
498
  8
LAYER_1
 10
264.1413301766627
 20
4.949256186570226
 30
0.0
  0
SEQEND
  5
499
  8
LAYER_1
  0
POLYLINE
  5
6F
  8
LAYER_1
 66
     1
 10
0.0
 20
0.0
 30
0.0
 70
     1
  0
VERTEX
  5
49A
  8
LAYER_1
 10
283.3306041632552
 20
21.75052718815898
 30
0.0
  0
VERTEX
  5
49B
  8
LAYER_1
 10
277.2785965982457
 20
36.09804512255641
 30
0.0
  0
VERTEX
  5
49C
  8
LAYER_1
 10
284.3811054763818
 20
52.93756617195771
 30
0.0
  0
VERTEX
  5
49D
  8
LAYER_1
 10
296.4241205301506
 20
52.93756617195771
 30
0.0
  0
VERTEX
  5
49E
  8
LAYER_1
 10
305.0058812573516
 20
44.51755564694453
 30
0.0
  0
VERTEX
  5
49F
  8
LAYER_1
 10
297.903622379528
 20
27.67828459785574
 30
0.0
  0
SEQEND
  5
4A0
  8
LAYER_1
  0
POLYLINE
  5
70
  8
LAYER_1
 66
     1
 10
0.0
 20
0.0
 30
0.0
 70
     1
  0
VERTEX
  5
4A1
  8
LAYER_1
 10
257.0210712763391
 20
21.7552771940965
 30
0.0
  0
VERTEX
  5
4A2
  8
LAYER_1
 10
263.0728288410361
 20
36.1027951284939
 30
0.0
  0
VERTEX
  5
4A3
  8
LAYER_1
 10
255.9703199628999
 20
52.94231617789521
 30
0.0
  0
VERTEX
  5
4A4
  8
LAYER_1
 10
243.9270549088186
 20
52.94231617789521
 30
0.0
  0
VERTEX
  5
4A5
  8
LAYER_1
 10
235.3452941816177
 20
44.52230565288205
 30
0.0
  0
VERTEX
  5
4A6
  8
LAYER_1
 10
242.4478030597538
 20
27.68303460379326
 30
0.0
  0
SEQEND
  5
4A7
  8
LAYER_1
  0
POLYLINE
  5
71
  8
LAYER_1
 66
     1
 10
0.0
 20
0.0
 30
0.0
 70
     1
  0
VERTEX
  5
4A8
  8
LAYER_1
 10
257.0648213310267
 20
-40.52805066006333
 30
0.0
  0
VERTEX
  5
4A9
  8
LAYER_1
 10
263.1165788957236
 20
-54.87556859446074
 30
0.0
  0
VERTEX
  5
4AA
  8
LAYER_1
 10
256.0140700175875
 20
-71.71508964386206
 30
0.0
  0
VERTEX
  5
4AB
  8
LAYER_1
 10
243.9708049635062
 20
-71.71508964386206
 30
0.0
  0
VERTEX
  5
4AC
  8
LAYER_1
 10
235.3892942366178
 20
-63.2948291185364
 30
0.0
  0
VERTEX
  5
4AD
  8
LAYER_1
 10
242.4915531144414
 20
-46.4558080697601
 30
0.0
  0
SEQEND
  5
4AE
  8
LAYER_1
  0
POLYLINE
  5
72
  8
LAYER_1
 66
     1
 10
0.0
 20
0.0
 30
0.0
 70
     1
  0
VERTEX
  5
4AF
  8
LAYER_1
 10
283.3083541354426
 20
-40.56180070225088
 30
0.0
  0
VERTEX
  5
4B0
  8
LAYER_1
 10
277.2565965707457
 20
-54.9090686363358
 30
0.0
  0
VERTEX
  5
4B1
  8
LAYER_1
 10
284.3588554485693
 20
-71.7488396860496
 30
0.0
  0
VERTEX
  5
4B2
  8
LAYER_1
 10
296.4023705029631
 20
-71.7488396860496
 30
0.0
  0
VERTEX
  5
4B3
  8
LAYER_1
 10
304.9838812298515
 20
-63.32857916072396
 30
0.0
  0
VERTEX
  5
4B4
  8
LAYER_1
 10
297.8816223520279
 20
-46.48955811194764
 30
0.0
  0
SEQEND
  5
4B5
  8
LAYER_1
  0
POLYLINE
  5
73
  8
LAYER_1
 66
     1
 10
0.0
 20
0.0
 30
0.0
 70
     1
  0
VERTEX
  5
4B6
  8
LAYER_1
 10
301.9023773779717
 20
-22.26802783503479
 30
0.0
  0
VERTEX
  5
4B7
  8
LAYER_1
 10
307.9543849429812
 20
-36.61529576911971
 30
0.0
  0
VERTEX
  5
4B8
  8
LAYER_1
 10
325.102406378008
 20
-43.59105448881812
 30
0.0
  0
VERTEX
  5
4B9
  8
LAYER_1
 10
333.6181670227087
 20
-35.22854403568006
 30
0.0
  0
VERTEX
  5
4BA
  8
LAYER_1
 10
333.6234170292713
 20
-23.31577914472393
 30
0.0
  0
VERTEX
  5
4BB
  8
LAYER_1
 10
316.475645594557
 20
-16.34052042565055
 30
0.0
  0
SEQEND
  5
4BC
  8
LAYER_1
  0
POLYLINE
  5
74
  8
LAYER_1
 66
     1
 10
0.0
 20
0.0
 30
0.0
 70
     1
  0
VERTEX
  5
4BD
  8
LAYER_1
 10
238.4402980503725
 20
-22.29427786784733
 30
0.0
  0
VERTEX
  5
4BE
  8
LAYER_1
 10
232.3880404850506
 20
-36.64154580193225
 30
0.0
  0
VERTEX
  5
4BF
  8
LAYER_1
 10
215.2400190500238
 20
-43.61730452163066
 30
0.0
  0
VERTEX
  5
4C0
  8
LAYER_1
 10
206.724258405323
 20
-35.2547940684926
 30
0.0
  0
VERTEX
  5
4C1
  8
LAYER_1
 10
206.719258399073
 20
-23.34202917753647
 30
0.0
  0
VERTEX
  5
4C2
  8
LAYER_1
 10
223.8670298337873
 20
-16.36652045815058
 30
0.0
  0
SEQEND
  5
4C3
  8
LAYER_1
  0
POLYLINE
  5
75
  8
LAYER_1
 66
     1
 10
0.0
 20
0.0
 30
0.0
 70
     1
  0
VERTEX
  5
4C4
  8
LAYER_1
 10
238.4397980497476
 20
3.498004372505456
 30
0.0
  0
VERTEX
  5
4C5
  8
LAYER_1
 10
232.3877904847381
 20
17.84527230659038
 30
0.0
  0
VERTEX
  5
4C6
  8
LAYER_1
 10
215.2397690497113
 20
24.82103102628878
 30
0.0
  0
VERTEX
  5
4C7
  8
LAYER_1
 10
206.7240084050105
 20
16.45877057346321
 30
0.0
  0
VERTEX
  5
4C8
  8
LAYER_1
 10
206.718758398448
 20
4.545755682194594
 30
0.0
  0
VERTEX
  5
4C9
  8
LAYER_1
 10
223.8667798334748
 20
-2.429753037191302
 30
0.0
  0
SEQEND
  5
4CA
  8
LAYER_1
  0
POLYLINE
  5
76
  8
LAYER_1
 66
     1
 10
0.0
 20
0.0
 30
0.0
 70
     1
  0
VERTEX
  5
4CB
  8
LAYER_1
 10
301.9591274489093
 20
3.493254366567951
 30
0.0
  0
VERTEX
  5
4CC
  8
LAYER_1
 10
316.5696457120571
 20
-2.44975306219134
 30
0.0
  0
VERTEX
  5
4CD
  8
LAYER_1
 10
333.7181671477089
 20
4.524755655944556
 30
0.0
  0
VERTEX
  5
4CE
  8
LAYER_1
 10
333.7181671477089
 20
16.35102043877555
 30
0.0
  0
VERTEX
  5
4CF
  8
LAYER_1
 10
325.1434064292581
 20
24.7780309725387
 30
0.0
  0
VERTEX
  5
4D0
  8
LAYER_1
 10
307.9953849942312
 20
17.80377225471532
 30
0.0
  0
SEQEND
  5
4D1
  8
LAYER_1
  0
POLYLINE
  5
77
  8
LAYER_1
 66
     1
 10
0.0
 20
0.0
 30
0.0
 70
     1
  0
VERTEX
  5
4D2
  8
LAYER_1
 10
270.1775877219847
 20
-71.71908964886207
 30
0.0
  0
VERTEX
  5
4D3
  8
LAYER_1
 10
264.7498309372887
 20
-84.58685573356968
 30
0.0
  0
VERTEX
  5
4D4
  8
LAYER_1
 10
257.0535713169642
 20
-84.58685573356968
 30
0.0
  0
VERTEX
  5
4D5
  8
LAYER_1
 10
269.0603363254204
 20
-96.36162045202558
 30
0.0
  0
VERTEX
  5
4D6
  8
LAYER_1
 10
269.0205862757329
 20
-96.40087050108814
 30
0.0
  0
VERTEX
  5
4D7
  8
LAYER_1
 10
271.3228391535489
 20
-96.40087050108814
 30
0.0
  0
VERTEX
  5
4D8
  8
LAYER_1
 10
271.2875891094864
 20
-96.3661204576506
 30
0.0
  0
VERTEX
  5
4D9
  8
LAYER_1
 10
283.2993541241926
 20
-84.58685573356968
 30
0.0
  0
VERTEX
  5
4DA
  8
LAYER_1
 10
275.6050945063681
 20
-84.58685573356968
 30
0.0
  0
SEQEND
  5
4DB
  8
LAYER_1
  0
POLYLINE
  5
78
  8
LAYER_1
 66
     1
 10
0.0
 20
0.0
 30
0.0
 70
     1
  0
VERTEX
  5
4DC
  8
LAYER_1
 10
270.1783377229222
 20
52.94356617945772
 30
0.0
  0
VERTEX
  5
4DD
  8
LAYER_1
 10
264.7505809382262
 20
65.81133226416533
 30
0.0
  0
VERTEX
  5
4DE
  8
LAYER_1
 10
257.0543213179017
 20
65.81133226416533
 30
0.0
  0
VERTEX
  5
4DF
  8
LAYER_1
 10
269.0615863269829
 20
77.5860969826212
 30
0.0
  0
VERTEX
  5
4E0
  8
LAYER_1
 10
269.0278362847953
 20
77.61909702387125
 30
0.0
  0
VERTEX
  5
4E1
  8
LAYER_1
 10
271.3173391466739
 20
77.61909702387125
 30
0.0
  0
VERTEX
  5
4E2
  8
LAYER_1
 10
271.2885891107364
 20
77.59059698824622
 30
0.0
  0
VERTEX
  5
4E3
  8
LAYER_1
 10
283.3003541254427
 20
65.81133226416533
 30
0.0
  0
VERTEX
  5
4E4
  8
LAYER_1
 10
275.6060945076181
 20
65.81133226416533
 30
0.0
  0
SEQEND
  5
4E5
  8
LAYER_1
  0
POLYLINE
  5
79
  8
LAYER_1
 66
     1
 10
0.0
 20
0.0
 30
0.0
 70
     1
  0
VERTEX
  5
4E6
  8
LAYER_1
 10
238.4870481088101
 20
65.80533225666531
 30
0.0
  0
VERTEX
  5
4E7
  8
LAYER_1
 10
221.454776818471
 20
65.80533225666531
 30
0.0
  0
VERTEX
  5
4E8
  8
LAYER_1
 10
221.454776818471
 20
70.88458860573573
 30
0.0
  0
VERTEX
  5
4E9
  8
LAYER_1
 10
214.7620184525231
 20
77.48884686105855
 30
0.0
  0
VERTEX
  5
4EA
  8
LAYER_1
 10
250.5175631469539
 20
77.61884702355877
 30
0.0
  0
SEQEND
  5
4EB
  8
LAYER_1
  0
POLYLINE
  5
7A
  8
LAYER_1
 66
     1
 10
0.0
 20
0.0
 30
0.0
 70
     1
  0
VERTEX
  5
4EC
  8
LAYER_1
 10
238.4870481088101
 20
-84.58885573606968
 30
0.0
  0
VERTEX
  5
4ED
  8
LAYER_1
 10
221.454776818471
 20
-84.58885573606968
 30
0.0
  0
VERTEX
  5
4EE
  8
LAYER_1
 10
221.454776818471
 20
-89.66811208514011
 30
0.0
  0
VERTEX
  5
4EF
  8
LAYER_1
 10
214.7620184525231
 20
-96.27237034046293
 30
0.0
  0
VERTEX
  5
4F0
  8
LAYER_1
 10
250.5175631469539
 20
-96.40237050296315
 30
0.0
  0
SEQEND
  5
4F1
  8
LAYER_1
  0
POLYLINE
  5
7B
  8
LAYER_1
 66
     1
 10
0.0
 20
0.0
 30
0.0
 70
     1
  0
VERTEX
  5
4F2
  8
LAYER_1
 10
301.760627200784
 20
65.80533225666531
 30
0.0
  0
VERTEX
  5
4F3
  8
LAYER_1
 10
318.7931484914357
 20
65.80533225666531
 30
0.0
  0
VERTEX
  5
4F4
  8
LAYER_1
 10
318.7931484914357
 20
70.88458860573573
 30
0.0
  0
VERTEX
  5
4F5
  8
LAYER_1
 10
325.4861568576961
 20
77.48884686105855
 30
0.0
  0
VERTEX
  5
4F6
  8
LAYER_1
 10
289.7306121632652
 20
77.61884702355877
 30
0.0
  0
SEQEND
  5
4F7
  8
LAYER_1
  0
POLYLINE
  5
7C
  8
LAYER_1
 66
     1
 10
0.0
 20
0.0
 30
0.0
 70
     1
  0
VERTEX
  5
4F8
  8
LAYER_1
 10
301.9416274270343
 20
-84.58885573606968
 30
0.0
  0
VERTEX
  5
4F9
  8
LAYER_1
 10
318.9741487176859
 20
-84.58885573606968
 30
0.0
  0
VERTEX
  5
4FA
  8
LAYER_1
 10
318.9741487176859
 20
-89.66811208514011
 30
0.0
  0
VERTEX
  5
4FB
  8
LAYER_1
 10
325.6669070836339
 20
-96.27237034046293
 30
0.0
  0
VERTEX
  5
4FC
  8
LAYER_1
 10
289.9116123895155
 20
-96.40237050296315
 30
0.0
  0
SEQEND
  5
4FD
  8
LAYER_1
  0
POLYLINE
  5
7D
  8
LAYER_1
 66
     1
 10
0.0
 20
0.0
 30
0.0
 70
     1
  0
VERTEX
  5
4FE
  8
LAYER_1
 10
447.8268097835122
 20
19.2675240844051
 30
0.0
  0
VERTEX
  5
4FF
  8
LAYER_1
 10
453.8705673382092
 20
4.938006172507707
 30
0.0
  0
VERTEX
  5
500
  8
LAYER_1
 10
468.4623355779195
 20
10.87351359189199
 30
0.0
  0
VERTEX
  5
501
  8
LAYER_1
 10
462.4205780257225
 20
-3.451254314067898
 30
0.0
  0
VERTEX
  5
502
  8
LAYER_1
 10
477.0125962657453
 20
-9.392261740327173
 30
0.0
  0
VERTEX
  5
503
  8
LAYER_1
 10
462.4185780232226
 20
-15.32851916064896
 30
0.0
  0
VERTEX
  5
504
  8
LAYER_1
 10
468.4623355779195
 20
-29.65778707223384
 30
0.0
  0
VERTEX
  5
505
  8
LAYER_1
 10
453.8705673382092
 20
-23.72252965316207
 30
0.0
  0
VERTEX
  5
506
  8
LAYER_1
 10
447.8268097835122
 20
-38.05229756537197
 30
0.0
  0
VERTEX
  5
507
  8
LAYER_1
 10
441.7878022347528
 20
-23.72077965097456
 30
0.0
  0
VERTEX
  5
508
  8
LAYER_1
 10
427.19178398973
 20
-29.65803707254635
 30
0.0
  0
VERTEX
  5
509
  8
LAYER_1
 10
433.2352915441144
 20
-15.32851916064896
 30
0.0
  0
VERTEX
  5
50A
  8
LAYER_1
 10
418.6407733009666
 20
-9.392261740327173
 30
0.0
  0
VERTEX
  5
50B
  8
LAYER_1
 10
433.2467915584895
 20
-3.451254314067898
 30
0.0
  0
VERTEX
  5
50C
  8
LAYER_1
 10
427.2050340062925
 20
10.88651360814201
 30
0.0
  0
VERTEX
  5
50D
  8
LAYER_1
 10
441.7878022347528
 20
4.949256186570226
 30
0.0
  0
SEQEND
  5
50E
  8
LAYER_1
  0
POLYLINE
  5
7E
  8
LAYER_1
 66
     1
 10
0.0
 20
0.0
 30
0.0
 70
     1
  0
VERTEX
  5
50F
  8
LAYER_1
 10
460.9770762213453
 20
21.75052718815898
 30
0.0
  0
VERTEX
  5
510
  8
LAYER_1
 10
454.9253186566483
 20
36.09804512255641
 30
0.0
  0
VERTEX
  5
511
  8
LAYER_1
 10
462.0275775344719
 20
52.93756617195771
 30
0.0
  0
VERTEX
  5
512
  8
LAYER_1
 10
474.0708425885532
 20
52.93756617195771
 30
0.0
  0
VERTEX
  5
513
  8
LAYER_1
 10
482.6526033157542
 20
44.51755564694453
 30
0.0
  0
VERTEX
  5
514
  8
LAYER_1
 10
475.550094437618
 20
27.67828459785574
 30
0.0
  0
SEQEND
  5
515
  8
LAYER_1
  0
POLYLINE
  5
7F
  8
LAYER_1
 66
     1
 10
0.0
 20
0.0
 30
0.0
 70
     1
  0
VERTEX
  5
516
  8
LAYER_1
 10
434.6675433344292
 20
21.7552771940965
 30
0.0
  0
VERTEX
  5
517
  8
LAYER_1
 10
440.7195508994386
 20
36.1027951284939
 30
0.0
  0
VERTEX
  5
518
  8
LAYER_1
 10
433.6170420213025
 20
52.94231617789521
 30
0.0
  0
VERTEX
  5
519
  8
LAYER_1
 10
421.5737769672212
 20
52.94231617789521
 30
0.0
  0
VERTEX
  5
51A
  8
LAYER_1
 10
412.9920162400203
 20
44.52230565288205
 30
0.0
  0
VERTEX
  5
51B
  8
LAYER_1
 10
420.0945251181564
 20
27.68303460379326
 30
0.0
  0
SEQEND
  5
51C
  8
LAYER_1
  0
POLYLINE
  5
80
  8
LAYER_1
 66
     1
 10
0.0
 20
0.0
 30
0.0
 70
     1
  0
VERTEX
  5
51D
  8
LAYER_1
 10
434.7115433894292
 20
-40.52805066006333
 30
0.0
  0
VERTEX
  5
51E
  8
LAYER_1
 10
440.7633009541262
 20
-54.87556859446074
 30
0.0
  0
VERTEX
  5
51F
  8
LAYER_1
 10
433.6610420763026
 20
-71.71508964386206
 30
0.0
  0
VERTEX
  5
520
  8
LAYER_1
 10
421.6177770222213
 20
-71.71508964386206
 30
0.0
  0
VERTEX
  5
521
  8
LAYER_1
 10
413.0360162950204
 20
-63.2948291185364
 30
0.0
  0
VERTEX
  5
522
  8
LAYER_1
 10
420.1380251725315
 20
-46.4558080697601
 30
0.0
  0
SEQEND
  5
523
  8
LAYER_1
  0
POLYLINE
  5
81
  8
LAYER_1
 66
     1
 10
0.0
 20
0.0
 30
0.0
 70
     1
  0
VERTEX
  5
524
  8
LAYER_1
 10
460.9550761938452
 20
-40.56180070225088
 30
0.0
  0
VERTEX
  5
525
  8
LAYER_1
 10
454.9033186291483
 20
-54.9090686363358
 30
0.0
  0
VERTEX
  5
526
  8
LAYER_1
 10
462.0055775069719
 20
-71.7488396860496
 30
0.0
  0
VERTEX
  5
527
  8
LAYER_1
 10
474.0490925613657
 20
-71.7488396860496
 30
0.0
  0
VERTEX
  5
528
  8
LAYER_1
 10
482.6306032882541
 20
-63.32857916072396
 30
0.0
  0
VERTEX
  5
529
  8
LAYER_1
 10
475.528094410118
 20
-46.48955811194764
 30
0.0
  0
SEQEND
  5
52A
  8
LAYER_1
  0
POLYLINE
  5
82
  8
LAYER_1
 66
     1
 10
0.0
 20
0.0
 30
0.0
 70
     1
  0
VERTEX
  5
52B
  8
LAYER_1
 10
479.5493494366868
 20
-22.26802783503479
 30
0.0
  0
VERTEX
  5
52C
  8
LAYER_1
 10
485.6011070013838
 20
-36.61529576911971
 30
0.0
  0
VERTEX
  5
52D
  8
LAYER_1
 10
502.7491284364106
 20
-43.59105448881812
 30
0.0
  0
VERTEX
  5
52E
  8
LAYER_1
 10
511.2651390814239
 20
-35.22854403568006
 30
0.0
  0
VERTEX
  5
52F
  8
LAYER_1
 10
511.2698890873614
 20
-23.31577914472393
 30
0.0
  0
VERTEX
  5
530
  8
LAYER_1
 10
494.1223676529596
 20
-16.34052042565055
 30
0.0
  0
SEQEND
  5
531
  8
LAYER_1
  0
POLYLINE
  5
83
  8
LAYER_1
 66
     1
 10
0.0
 20
0.0
 30
0.0
 70
     1
  0
VERTEX
  5
532
  8
LAYER_1
 10
416.0867701084626
 20
-22.29427786784733
 30
0.0
  0
VERTEX
  5
533
  8
LAYER_1
 10
410.0350125437657
 20
-36.64154580193225
 30
0.0
  0
VERTEX
  5
534
  8
LAYER_1
 10
392.8867411084263
 20
-43.61730452163066
 30
0.0
  0
VERTEX
  5
535
  8
LAYER_1
 10
384.3709804637256
 20
-35.2547940684926
 30
0.0
  0
VERTEX
  5
536
  8
LAYER_1
 10
384.366230457788
 20
-23.34202917753647
 30
0.0
  0
VERTEX
  5
537
  8
LAYER_1
 10
401.5137518921899
 20
-16.36652045815058
 30
0.0
  0
SEQEND
  5
538
  8
LAYER_1
  0
POLYLINE
  5
84
  8
LAYER_1
 66
     1
 10
0.0
 20
0.0
 30
0.0
 70
     1
  0
VERTEX
  5
539
  8
LAYER_1
 10
416.0862701078376
 20
3.498004372505456
 30
0.0
  0
VERTEX
  5
53A
  8
LAYER_1
 10
410.0347625434532
 20
17.84527230659038
 30
0.0
  0
VERTEX
  5
53B
  8
LAYER_1
 10
392.8864911081139
 20
24.82103102628878
 30
0.0
  0
VERTEX
  5
53C
  8
LAYER_1
 10
384.3707304634131
 20
16.45877057346321
 30
0.0
  0
VERTEX
  5
53D
  8
LAYER_1
 10
384.3657304571631
 20
4.545755682194594
 30
0.0
  0
VERTEX
  5
53E
  8
LAYER_1
 10
401.5132518915648
 20
-2.429753037191302
 30
0.0
  0
SEQEND
  5
53F
  8
LAYER_1
  0
POLYLINE
  5
85
  8
LAYER_1
 66
     1
 10
0.0
 20
0.0
 30
0.0
 70
     1
  0
VERTEX
  5
540
  8
LAYER_1
 10
479.6058495073119
 20
3.493254366567951
 30
0.0
  0
VERTEX
  5
541
  8
LAYER_1
 10
494.2163677704597
 20
-2.44975306219134
 30
0.0
  0
VERTEX
  5
542
  8
LAYER_1
 10
511.3648892061115
 20
4.524755655944556
 30
0.0
  0
VERTEX
  5
543
  8
LAYER_1
 10
511.3648892061115
 20
16.35102043877555
 30
0.0
  0
VERTEX
  5
544
  8
LAYER_1
 10
502.7903784879731
 20
24.7780309725387
 30
0.0
  0
VERTEX
  5
545
  8
LAYER_1
 10
485.6423570529463
 20
17.80377225471532
 30
0.0
  0
SEQEND
  5
546
  8
LAYER_1
  0
POLYLINE
  5
86
  8
LAYER_1
 66
     1
 10
0.0
 20
0.0
 30
0.0
 70
     1
  0
VERTEX
  5
547
  8
LAYER_1
 10
447.8240597800747
 20
-71.71908964886207
 30
0.0
  0
VERTEX
  5
548
  8
LAYER_1
 10
442.3965529956913
 20
-84.58685573356968
 30
0.0
  0
VERTEX
  5
549
  8
LAYER_1
 10
434.7002933753667
 20
-84.58685573356968
 30
0.0
  0
VERTEX
  5
54A
  8
LAYER_1
 10
446.7073083841355
 20
-96.36162045202558
 30
0.0
  0
VERTEX
  5
54B
  8
LAYER_1
 10
446.6673083341354
 20
-96.40087050108814
 30
0.0
  0
VERTEX
  5
54C
  8
LAYER_1
 10
448.969811212264
 20
-96.40087050108814
 30
0.0
  0
VERTEX
  5
54D
  8
LAYER_1
 10
448.9343111678889
 20
-96.3661204576506
 30
0.0
  0
VERTEX
  5
54E
  8
LAYER_1
 10
460.9460761825952
 20
-84.58685573356968
 30
0.0
  0
VERTEX
  5
54F
  8
LAYER_1
 10
453.2518165647707
 20
-84.58685573356968
 30
0.0
  0
SEQEND
  5
550
  8
LAYER_1
  0
POLYLINE
  5
87
  8
LAYER_1
 66
     1
 10
0.0
 20
0.0
 30
0.0
 70
     1
  0
VERTEX
  5
551
  8
LAYER_1
 10
447.8250597813247
 20
52.94356617945772
 30
0.0
  0
VERTEX
  5
552
  8
LAYER_1
 10
442.3973029966288
 20
65.81133226416533
 30
0.0
  0
VERTEX
  5
553
  8
LAYER_1
 10
434.7010433763042
 20
65.81133226416533
 30
0.0
  0
VERTEX
  5
554
  8
LAYER_1
 10
446.7083083853855
 20
77.5860969826212
 30
0.0
  0
VERTEX
  5
555
  8
LAYER_1
 10
446.6748083435104
 20
77.61909702387125
 30
0.0
  0
VERTEX
  5
556
  8
LAYER_1
 10
448.9640612050765
 20
77.61909702387125
 30
0.0
  0
VERTEX
  5
557
  8
LAYER_1
 10
448.935311169139
 20
77.59059698824622
 30
0.0
  0
VERTEX
  5
558
  8
LAYER_1
 10
460.9470761838452
 20
65.81133226416533
 30
0.0
  0
VERTEX
  5
559
  8
LAYER_1
 10
453.2528165660207
 20
65.81133226416533
 30
0.0
  0
SEQEND
  5
55A
  8
LAYER_1
  0
POLYLINE
  5
88
  8
LAYER_1
 66
     1
 10
0.0
 20
0.0
 30
0.0
 70
     1
  0
VERTEX
  5
55B
  8
LAYER_1
 10
416.1340201675252
 20
65.80533225666531
 30
0.0
  0
VERTEX
  5
55C
  8
LAYER_1
 10
399.1014988768736
 20
65.80533225666531
 30
0.0
  0
VERTEX
  5
55D
  8
LAYER_1
 10
399.1014988768736
 20
70.88458860573573
 30
0.0
  0
VERTEX
  5
55E
  8
LAYER_1
 10
392.4084905106131
 20
77.48884686105855
 30
0.0
  0
VERTEX
  5
55F
  8
LAYER_1
 10
428.164035205044
 20
77.61884702355877
 30
0.0
  0
SEQEND
  5
560
  8
LAYER_1
  0
POLYLINE
  5
89
  8
LAYER_1
 66
     1
 10
0.0
 20
0.0
 30
0.0
 70
     1
  0
VERTEX
  5
561
  8
LAYER_1
 10
416.1340201675252
 20
-84.58885573606968
 30
0.0
  0
VERTEX
  5
562
  8
LAYER_1
 10
399.1014988768736
 20
-84.58885573606968
 30
0.0
  0
VERTEX
  5
563
  8
LAYER_1
 10
399.1014988768736
 20
-89.66811208514011
 30
0.0
  0
VERTEX
  5
564
  8
LAYER_1
 10
392.4084905106131
 20
-96.27237034046293
 30
0.0
  0
VERTEX
  5
565
  8
LAYER_1
 10
428.164035205044
 20
-96.40237050296315
 30
0.0
  0
SEQEND
  5
566
  8
LAYER_1
  0
POLYLINE
  5
8A
  8
LAYER_1
 66
     1
 10
0.0
 20
0.0
 30
0.0
 70
     1
  0
VERTEX
  5
567
  8
LAYER_1
 10
479.4075992594991
 20
65.80533225666531
 30
0.0
  0
VERTEX
  5
568
  8
LAYER_1
 10
496.4401205501507
 20
65.80533225666531
 30
0.0
  0
VERTEX
  5
569
  8
LAYER_1
 10
496.4401205501507
 20
70.88458860573573
 30
0.0
  0
VERTEX
  5
56A
  8
LAYER_1
 10
503.1328789160987
 20
77.48884686105855
 30
0.0
  0
VERTEX
  5
56B
  8
LAYER_1
 10
467.3773342216678
 20
77.61884702355877
 30
0.0
  0
SEQEND
  5
56C
  8
LAYER_1
  0
POLYLINE
  5
8B
  8
LAYER_1
 66
     1
 10
0.0
 20
0.0
 30
0.0
 70
     1
  0
VERTEX
  5
56D
  8
LAYER_1
 10
479.5883494854369
 20
-84.58885573606968
 30
0.0
  0
VERTEX
  5
56E
  8
LAYER_1
 10
496.6208707760885
 20
-84.58885573606968
 30
0.0
  0
VERTEX
  5
56F
  8
LAYER_1
 10
496.6208707760885
 20
-89.66811208514011
 30
0.0
  0
VERTEX
  5
570
  8
LAYER_1
 10
503.3138791423489
 20
-96.27237034046293
 30
0.0
  0
VERTEX
  5
571
  8
LAYER_1
 10
467.5583344479181
 20
-96.40237050296315
 30
0.0
  0
SEQEND
  5
572
  8
LAYER_1
  0
POLYLINE
  5
8C
  8
LAYER_1
 66
     1
 10
0.0
 20
0.0
 30
0.0
 70
     1
  0
VERTEX
  5
573
  8
LAYER_1
 10
625.6972821216027
 20
19.2675240844051
 30
0.0
  0
VERTEX
  5
574
  8
LAYER_1
 10
631.7412896766122
 20
4.938006172507707
 30
0.0
  0
VERTEX
  5
575
  8
LAYER_1
 10
646.3328079160099
 20
10.87351359189199
 30
0.0
  0
VERTEX
  5
576
  8
LAYER_1
 10
640.2910503638129
 20
-3.451254314067898
 30
0.0
  0
VERTEX
  5
577
  8
LAYER_1
 10
654.8830686038358
 20
-9.392261740327173
 30
0.0
  0
VERTEX
  5
578
  8
LAYER_1
 10
640.2893003616255
 20
-15.32851916064896
 30
0.0
  0
VERTEX
  5
579
  8
LAYER_1
 10
646.3328079160099
 20
-29.65778707223384
 30
0.0
  0
VERTEX
  5
57A
  8
LAYER_1
 10
631.7412896766122
 20
-23.72252965316207
 30
0.0
  0
VERTEX
  5
57B
  8
LAYER_1
 10
625.6972821216027
 20
-38.05229756537197
 30
0.0
  0
VERTEX
  5
57C
  8
LAYER_1
 10
619.6582745728432
 20
-23.72077965097456
 30
0.0
  0
VERTEX
  5
57D
  8
LAYER_1
 10
605.0622563278204
 20
-29.65803707254635
 30
0.0
  0
VERTEX
  5
57E
  8
LAYER_1
 10
611.1057638822049
 20
-15.32851916064896
 30
0.0
  0
VERTEX
  5
57F
  8
LAYER_1
 10
596.5114956393695
 20
-9.392261740327173
 30
0.0
  0
VERTEX
  5
580
  8
LAYER_1
 10
611.1170138962673
 20
-3.451254314067898
 30
0.0
  0
VERTEX
  5
581
  8
LAYER_1
 10
605.0752563440705
 20
10.88651360814201
 30
0.0
  0
VERTEX
  5
582
  8
LAYER_1
 10
619.6582745728432
 20
4.949256186570226
 30
0.0
  0
SEQEND
  5
583
  8
LAYER_1
  0
POLYLINE
  5
8D
  8
LAYER_1
 66
     1
 10
0.0
 20
0.0
 30
0.0
 70
     1
  0
VERTEX
  5
584
  8
LAYER_1
 10
638.8475485594357
 20
21.75052718815898
 30
0.0
  0
VERTEX
  5
585
  8
LAYER_1
 10
632.7955409944262
 20
36.09804512255641
 30
0.0
  0
VERTEX
  5
586
  8
LAYER_1
 10
639.8977998722498
 20
52.93756617195771
 30
0.0
  0
VERTEX
  5
587
  8
LAYER_1
 10
651.9413149266436
 20
52.93756617195771
 30
0.0
  0
VERTEX
  5
588
  8
LAYER_1
 10
660.5228256535321
 20
44.51755564694453
 30
0.0
  0
VERTEX
  5
589
  8
LAYER_1
 10
653.420816776021
 20
27.67828459785574
 30
0.0
  0
SEQEND
  5
58A
  8
LAYER_1
  0
POLYLINE
  5
8E
  8
LAYER_1
 66
     1
 10
0.0
 20
0.0
 30
0.0
 70
     1
  0
VERTEX
  5
58B
  8
LAYER_1
 10
612.5380156725196
 20
21.7552771940965
 30
0.0
  0
VERTEX
  5
58C
  8
LAYER_1
 10
618.5900232375291
 20
36.1027951284939
 30
0.0
  0
VERTEX
  5
58D
  8
LAYER_1
 10
611.4877643597055
 20
52.94231617789521
 30
0.0
  0
VERTEX
  5
58E
  8
LAYER_1
 10
599.4442493053116
 20
52.94231617789521
 30
0.0
  0
VERTEX
  5
58F
  8
LAYER_1
 10
590.8627385784232
 20
44.52230565288205
 30
0.0
  0
VERTEX
  5
590
  8
LAYER_1
 10
597.9647474559343
 20
27.68303460379326
 30
0.0
  0
SEQEND
  5
591
  8
LAYER_1
  0
POLYLINE
  5
8F
  8
LAYER_1
 66
     1
 10
0.0
 20
0.0
 30
0.0
 70
     1
  0
VERTEX
  5
592
  8
LAYER_1
 10
612.5817657272072
 20
-40.52805066006333
 30
0.0
  0
VERTEX
  5
593
  8
LAYER_1
 10
618.634023292529
 20
-54.87556859446074
 30
0.0
  0
VERTEX
  5
594
  8
LAYER_1
 10
611.5312644140805
 20
-71.71508964386206
 30
0.0
  0
VERTEX
  5
595
  8
LAYER_1
 10
599.4879993599992
 20
-71.71508964386206
 30
0.0
  0
VERTEX
  5
596
  8
LAYER_1
 10
590.9062386327982
 20
-63.2948291185364
 30
0.0
  0
VERTEX
  5
597
  8
LAYER_1
 10
598.0087475109344
 20
-46.4558080697601
 30
0.0
  0
SEQEND
  5
598
  8
LAYER_1
  0
POLYLINE
  5
90
  8
LAYER_1
 66
     1
 10
0.0
 20
0.0
 30
0.0
 70
     1
  0
VERTEX
  5
599
  8
LAYER_1
 10
638.8257985322482
 20
-40.56180070225088
 30
0.0
  0
VERTEX
  5
59A
  8
LAYER_1
 10
632.7735409669262
 20
-54.9090686363358
 30
0.0
  0
VERTEX
  5
59B
  8
LAYER_1
 10
639.8760498450623
 20
-71.7488396860496
 30
0.0
  0
VERTEX
  5
59C
  8
LAYER_1
 10
651.9193148991436
 20
-71.7488396860496
 30
0.0
  0
VERTEX
  5
59D
  8
LAYER_1
 10
660.500825626032
 20
-63.32857916072396
 30
0.0
  0
VERTEX
  5
59E
  8
LAYER_1
 10
653.3988167485209
 20
-46.48955811194764
 30
0.0
  0
SEQEND
  5
59F
  8
LAYER_1
  0
POLYLINE
  5
91
  8
LAYER_1
 66
     1
 10
0.0
 20
0.0
 30
0.0
 70
     1
  0
VERTEX
  5
5A0
  8
LAYER_1
 10
657.4195717744648
 20
-22.26802783503479
 30
0.0
  0
VERTEX
  5
5A1
  8
LAYER_1
 10
663.4715793394741
 20
-36.61529576911971
 30
0.0
  0
VERTEX
  5
5A2
  8
LAYER_1
 10
680.6196007745009
 20
-43.59105448881812
 30
0.0
  0
VERTEX
  5
5A3
  8
LAYER_1
 10
689.1353614192018
 20
-35.22854403568006
 30
0.0
  0
VERTEX
  5
5A4
  8
LAYER_1
 10
689.1401114251393
 20
-23.31577914472393
 30
0.0
  0
VERTEX
  5
5A5
  8
LAYER_1
 10
671.9925899907375
 20
-16.34052042565055
 30
0.0
  0
SEQEND
  5
5A6
  8
LAYER_1
  0
POLYLINE
  5
92
  8
LAYER_1
 66
     1
 10
0.0
 20
0.0
 30
0.0
 70
     1
  0
VERTEX
  5
5A7
  8
LAYER_1
 10
593.957242446553
 20
-22.29427786784733
 30
0.0
  0
VERTEX
  5
5A8
  8
LAYER_1
 10
587.9052348815436
 20
-36.64154580193225
 30
0.0
  0
VERTEX
  5
5A9
  8
LAYER_1
 10
570.7572134465169
 20
-43.61730452163066
 30
0.0
  0
VERTEX
  5
5AA
  8
LAYER_1
 10
562.2412028015035
 20
-35.2547940684926
 30
0.0
  0
VERTEX
  5
5AB
  8
LAYER_1
 10
562.236452795566
 20
-23.34202917753647
 30
0.0
  0
VERTEX
  5
5AC
  8
LAYER_1
 10
579.3839742299677
 20
-16.36652045815058
 30
0.0
  0
SEQEND
  5
5AD
  8
LAYER_1
  0
POLYLINE
  5
93
  8
LAYER_1
 66
     1
 10
0.0
 20
0.0
 30
0.0
 70
     1
  0
VERTEX
  5
5AE
  8
LAYER_1
 10
593.9569924462405
 20
3.498004372505456
 30
0.0
  0
VERTEX
  5
5AF
  8
LAYER_1
 10
587.9049848812311
 20
17.84527230659038
 30
0.0
  0
VERTEX
  5
5B0
  8
LAYER_1
 10
570.7569634462043
 20
24.82103102628878
 30
0.0
  0
VERTEX
  5
5B1
  8
LAYER_1
 10
562.240952801191
 20
16.45877057346321
 30
0.0
  0
VERTEX
  5
5B2
  8
LAYER_1
 10
562.2362027952535
 20
4.545755682194594
 30
0.0
  0
VERTEX
  5
5B3
  8
LAYER_1
 10
579.3837242296553
 20
-2.429753037191302
 30
0.0
  0
SEQEND
  5
5B4
  8
LAYER_1
  0
POLYLINE
  5
94
  8
LAYER_1
 66
     1
 10
0.0
 20
0.0
 30
0.0
 70
     1
  0
VERTEX
  5
5B5
  8
LAYER_1
 10
657.4763218454023
 20
3.493254366567951
 30
0.0
  0
VERTEX
  5
5B6
  8
LAYER_1
 10
672.0870901088626
 20
-2.44975306219134
 30
0.0
  0
VERTEX
  5
5B7
  8
LAYER_1
 10
689.2356115445144
 20
4.524755655944556
 30
0.0
  0
VERTEX
  5
5B8
  8
LAYER_1
 10
689.2356115445144
 20
16.35102043877555
 30
0.0
  0
VERTEX
  5
5B9
  8
LAYER_1
 10
680.6606008257511
 20
24.7780309725387
 30
0.0
  0
VERTEX
  5
5BA
  8
LAYER_1
 10
663.5125793907242
 20
17.80377225471532
 30
0.0
  0
SEQEND
  5
5BB
  8
LAYER_1
  0
POLYLINE
  5
95
  8
LAYER_1
 66
     1
 10
0.0
 20
0.0
 30
0.0
 70
     1
  0
VERTEX
  5
5BC
  8
LAYER_1
 10
625.6947821184776
 20
-71.71908964886207
 30
0.0
  0
VERTEX
  5
5BD
  8
LAYER_1
 10
620.2667753334691
 20
-84.58685573356968
 30
0.0
  0
VERTEX
  5
5BE
  8
LAYER_1
 10
612.5707657134571
 20
-84.58685573356968
 30
0.0
  0
VERTEX
  5
5BF
  8
LAYER_1
 10
624.577780722226
 20
-96.36162045202558
 30
0.0
  0
VERTEX
  5
5C0
  8
LAYER_1
 10
624.5377806722258
 20
-96.40087050108814
 30
0.0
  0
VERTEX
  5
5C1
  8
LAYER_1
 10
626.8400335500419
 20
-96.40087050108814
 30
0.0
  0
VERTEX
  5
5C2
  8
LAYER_1
 10
626.8047835059793
 20
-96.3661204576506
 30
0.0
  0
VERTEX
  5
5C3
  8
LAYER_1
 10
638.8165485206856
 20
-84.58685573356968
 30
0.0
  0
VERTEX
  5
5C4
  8
LAYER_1
 10
631.1225389031737
 20
-84.58685573356968
 30
0.0
  0
SEQEND
  5
5C5
  8
LAYER_1
  0
POLYLINE
  5
96
  8
LAYER_1
 66
     1
 10
0.0
 20
0.0
 30
0.0
 70
     1
  0
VERTEX
  5
5C6
  8
LAYER_1
 10
625.6955321194151
 20
52.94356617945772
 30
0.0
  0
VERTEX
  5
5C7
  8
LAYER_1
 10
620.2677753347192
 20
65.81133226416533
 30
0.0
  0
VERTEX
  5
5C8
  8
LAYER_1
 10
612.5715157143946
 20
65.81133226416533
 30
0.0
  0
VERTEX
  5
5C9
  8
LAYER_1
 10
624.5785307231633
 20
77.5860969826212
 30
0.0
  0
VERTEX
  5
5CA
  8
LAYER_1
 10
624.5452806816008
 20
77.61909702387125
 30
0.0
  0
VERTEX
  5
5CB
  8
LAYER_1
 10
626.8345335431669
 20
77.61909702387125
 30
0.0
  0
VERTEX
  5
5CC
  8
LAYER_1
 10
626.8055335069168
 20
77.59059698824622
 30
0.0
  0
VERTEX
  5
5CD
  8
LAYER_1
 10
638.8172985216231
 20
65.81133226416533
 30
0.0
  0
VERTEX
  5
5CE
  8
LAYER_1
 10
631.1232889041111
 20
65.81133226416533
 30
0.0
  0
SEQEND
  5
5CF
  8
LAYER_1
  0
POLYLINE
  5
97
  8
LAYER_1
 66
     1
 10
0.0
 20
0.0
 30
0.0
 70
     1
  0
VERTEX
  5
5D0
  8
LAYER_1
 10
594.0044925056156
 20
65.80533225666531
 30
0.0
  0
VERTEX
  5
5D1
  8
LAYER_1
 10
576.971971214964
 20
65.80533225666531
 30
0.0
  0
VERTEX
  5
5D2
  8
LAYER_1
 10
576.971971214964
 20
70.88458860573573
 30
0.0
  0
VERTEX
  5
5D3
  8
LAYER_1
 10
570.2792128490161
 20
77.48884686105855
 30
0.0
  0
VERTEX
  5
5D4
  8
LAYER_1
 10
606.0345075431344
 20
77.61884702355877
 30
0.0
  0
SEQEND
  5
5D5
  8
LAYER_1
  0
POLYLINE
  5
98
  8
LAYER_1
 66
     1
 10
0.0
 20
0.0
 30
0.0
 70
     1
  0
VERTEX
  5
5D6
  8
LAYER_1
 10
594.0044925056156
 20
-84.58885573606968
 30
0.0
  0
VERTEX
  5
5D7
  8
LAYER_1
 10
576.971971214964
 20
-84.58885573606968
 30
0.0
  0
VERTEX
  5
5D8
  8
LAYER_1
 10
576.971971214964
 20
-89.66811208514011
 30
0.0
  0
VERTEX
  5
5D9
  8
LAYER_1
 10
570.2792128490161
 20
-96.27237034046293
 30
0.0
  0
VERTEX
  5
5DA
  8
LAYER_1
 10
606.0345075431344
 20
-96.40237050296315
 30
0.0
  0
SEQEND
  5
5DB
  8
LAYER_1
  0
POLYLINE
  5
99
  8
LAYER_1
 66
     1
 10
0.0
 20
0.0
 30
0.0
 70
     1
  0
VERTEX
  5
5DC
  8
LAYER_1
 10
657.2780715975895
 20
65.80533225666531
 30
0.0
  0
VERTEX
  5
5DD
  8
LAYER_1
 10
674.3103428879286
 20
65.80533225666531
 30
0.0
  0
VERTEX
  5
5DE
  8
LAYER_1
 10
674.3103428879286
 20
70.88458860573573
 30
0.0
  0
VERTEX
  5
5DF
  8
LAYER_1
 10
681.003351254189
 20
77.48884686105855
 30
0.0
  0
VERTEX
  5
5E0
  8
LAYER_1
 10
645.2478065597581
 20
77.61884702355877
 30
0.0
  0
SEQEND
  5
5E1
  8
LAYER_1
  0
POLYLINE
  5
9A
  8
LAYER_1
 66
     1
 10
0.0
 20
0.0
 30
0.0
 70
     1
  0
VERTEX
  5
5E2
  8
LAYER_1
 10
657.4588218235273
 20
-84.58885573606968
 30
0.0
  0
VERTEX
  5
5E3
  8
LAYER_1
 10
674.4913431141789
 20
-84.58885573606968
 30
0.0
  0
VERTEX
  5
5E4
  8
LAYER_1
 10
674.4913431141789
 20
-89.66811208514011
 30
0.0
  0
VERTEX
  5
5E5
  8
LAYER_1
 10
681.1841014801269
 20
-96.27237034046293
 30
0.0
  0
VERTEX
  5
5E6
  8
LAYER_1
 10
645.428556785696
 20
-96.40237050296315
 30
0.0
  0
SEQEND
  5
5E7
  8
LAYER_1
  0
POLYLINE
  5
9B
  8
LAYER_1
 66
     1
 10
0.0
 20
0.0
 30
0.0
 70
     1
  0
VERTEX
  5
5E8
  8
LAYER_1
 10
803.3440041800052
 20
19.2675240844051
 30
0.0
  0
VERTEX
  5
5E9
  8
LAYER_1
 10
809.3877617347022
 20
4.938006172507707
 30
0.0
  0
VERTEX
  5
5EA
  8
LAYER_1
 10
823.9795299744125
 20
10.87351359189199
 30
0.0
  0
VERTEX
  5
5EB
  8
LAYER_1
 10
817.9377724222156
 20
-3.451254314067898
 30
0.0
  0
VERTEX
  5
5EC
  8
LAYER_1
 10
832.5297906622384
 20
-9.392261740327173
 30
0.0
  0
VERTEX
  5
5ED
  8
LAYER_1
 10
817.9357724197155
 20
-15.32851916064896
 30
0.0
  0
VERTEX
  5
5EE
  8
LAYER_1
 10
823.9792799740999
 20
-29.65778707223384
 30
0.0
  0
VERTEX
  5
5EF
  8
LAYER_1
 10
809.3877617347022
 20
-23.72252965316207
 30
0.0
  0
VERTEX
  5
5F0
  8
LAYER_1
 10
803.3440041800052
 20
-38.05229756537197
 30
0.0
  0
VERTEX
  5
5F1
  8
LAYER_1
 10
797.3049966312458
 20
-23.72077965097456
 30
0.0
  0
VERTEX
  5
5F2
  8
LAYER_1
 10
782.7087283859105
 20
-29.65803707254635
 30
0.0
  0
VERTEX
  5
5F3
  8
LAYER_1
 10
788.7524859406074
 20
-15.32851916064896
 30
0.0
  0
VERTEX
  5
5F4
  8
LAYER_1
 10
774.1582176977722
 20
-9.392261740327173
 30
0.0
  0
VERTEX
  5
5F5
  8
LAYER_1
 10
788.76373595467
 20
-3.451254314067898
 30
0.0
  0
VERTEX
  5
5F6
  8
LAYER_1
 10
782.7217284021605
 20
10.88651360814201
 30
0.0
  0
VERTEX
  5
5F7
  8
LAYER_1
 10
797.3049966312458
 20
4.949256186570226
 30
0.0
  0
SEQEND
  5
5F8
  8
LAYER_1
  0
POLYLINE
  5
9C
  8
LAYER_1
 66
     1
 10
0.0
 20
0.0
 30
0.0
 70
     1
  0
VERTEX
  5
5F9
  8
LAYER_1
 10
816.4942706178383
 20
21.75052718815898
 30
0.0
  0
VERTEX
  5
5FA
  8
LAYER_1
 10
810.4422630528288
 20
36.09804512255641
 30
0.0
  0
VERTEX
  5
5FB
  8
LAYER_1
 10
817.544771930965
 20
52.93756617195771
 30
0.0
  0
VERTEX
  5
5FC
  8
LAYER_1
 10
829.5882869853588
 20
52.93756617195771
 30
0.0
  0
VERTEX
  5
5FD
  8
LAYER_1
 10
838.1697977122471
 20
44.51755564694453
 30
0.0
  0
VERTEX
  5
5FE
  8
LAYER_1
 10
831.0672888341111
 20
27.67828459785574
 30
0.0
  0
SEQEND
  5
5FF
  8
LAYER_1
  0
POLYLINE
  5
9D
  8
LAYER_1
 66
     1
 10
0.0
 20
0.0
 30
0.0
 70
     1
  0
VERTEX
  5
600
  8
LAYER_1
 10
790.1847377309222
 20
21.7552771940965
 30
0.0
  0
VERTEX
  5
601
  8
LAYER_1
 10
796.2367452959315
 20
36.1027951284939
 30
0.0
  0
VERTEX
  5
602
  8
LAYER_1
 10
789.1342364177955
 20
52.94231617789521
 30
0.0
  0
VERTEX
  5
603
  8
LAYER_1
 10
777.0909713637142
 20
52.94231617789521
 30
0.0
  0
VERTEX
  5
604
  8
LAYER_1
 10
768.5092106365132
 20
44.52230565288205
 30
0.0
  0
VERTEX
  5
605
  8
LAYER_1
 10
775.6117195146494
 20
27.68303460379326
 30
0.0
  0
SEQEND
  5
606
  8
LAYER_1
  0
POLYLINE
  5
9E
  8
LAYER_1
 66
     1
 10
0.0
 20
0.0
 30
0.0
 70
     1
  0
VERTEX
  5
607
  8
LAYER_1
 10
790.2287377859222
 20
-40.52805066006333
 30
0.0
  0
VERTEX
  5
608
  8
LAYER_1
 10
796.2804953506193
 20
-54.87556859446074
 30
0.0
  0
VERTEX
  5
609
  8
LAYER_1
 10
789.1782364727956
 20
-71.71508964386206
 30
0.0
  0
VERTEX
  5
60A
  8
LAYER_1
 10
777.1347214184018
 20
-71.71508964386206
 30
0.0
  0
VERTEX
  5
60B
  8
LAYER_1
 10
768.5532106915134
 20
-63.2948291185364
 30
0.0
  0
VERTEX
  5
60C
  8
LAYER_1
 10
775.6554695693369
 20
-46.4558080697601
 30
0.0
  0
SEQEND
  5
60D
  8
LAYER_1
  0
POLYLINE
  5
9F
  8
LAYER_1
 66
     1
 10
0.0
 20
0.0
 30
0.0
 70
     1
  0
VERTEX
  5
60E
  8
LAYER_1
 10
816.4722705903382
 20
-40.56180070225088
 30
0.0
  0
VERTEX
  5
60F
  8
LAYER_1
 10
810.4205130256413
 20
-54.9090686363358
 30
0.0
  0
VERTEX
  5
610
  8
LAYER_1
 10
817.5227719034649
 20
-71.7488396860496
 30
0.0
  0
VERTEX
  5
611
  8
LAYER_1
 10
829.5660369575462
 20
-71.7488396860496
 30
0.0
  0
VERTEX
  5
612
  8
LAYER_1
 10
838.1477976847472
 20
-63.32857916072396
 30
0.0
  0
VERTEX
  5
613
  8
LAYER_1
 10
831.0455388069236
 20
-46.48955811194764
 30
0.0
  0
SEQEND
  5
614
  8
LAYER_1
  0
POLYLINE
  5
A0
  8
LAYER_1
 66
     1
 10
0.0
 20
0.0
 30
0.0
 70
     1
  0
VERTEX
  5
615
  8
LAYER_1
 10
835.0665438331798
 20
-22.26802783503479
 30
0.0
  0
VERTEX
  5
616
  8
LAYER_1
 10
841.1183013978768
 20
-36.61529576911971
 30
0.0
  0
VERTEX
  5
617
  8
LAYER_1
 10
858.2663228329036
 20
-43.59105448881812
 30
0.0
  0
VERTEX
  5
618
  8
LAYER_1
 10
866.7823334779168
 20
-35.22854403568006
 30
0.0
  0
VERTEX
  5
619
  8
LAYER_1
 10
866.7870834838543
 20
-23.31577914472393
 30
0.0
  0
VERTEX
  5
61A
  8
LAYER_1
 10
849.6395620494526
 20
-16.34052042565055
 30
0.0
  0
SEQEND
  5
61B
  8
LAYER_1
  0
POLYLINE
  5
A1
  8
LAYER_1
 66
     1
 10
0.0
 20
0.0
 30
0.0
 70
     1
  0
VERTEX
  5
61C
  8
LAYER_1
 10
771.6039645049557
 20
-22.29427786784733
 30
0.0
  0
VERTEX
  5
61D
  8
LAYER_1
 10
765.5522069402587
 20
-36.64154580193225
 30
0.0
  0
VERTEX
  5
61E
  8
LAYER_1
 10
748.4039355049194
 20
-43.61730452163066
 30
0.0
  0
VERTEX
  5
61F
  8
LAYER_1
 10
739.8881748602186
 20
-35.2547940684926
 30
0.0
  0
VERTEX
  5
620
  8
LAYER_1
 10
739.883424854281
 20
-23.34202917753647
 30
0.0
  0
VERTEX
  5
621
  8
LAYER_1
 10
757.0309462886828
 20
-16.36652045815058
 30
0.0
  0
SEQEND
  5
622
  8
LAYER_1
  0
POLYLINE
  5
A2
  8
LAYER_1
 66
     1
 10
0.0
 20
0.0
 30
0.0
 70
     1
  0
VERTEX
  5
623
  8
LAYER_1
 10
771.6037145046431
 20
3.498004372505456
 30
0.0
  0
VERTEX
  5
624
  8
LAYER_1
 10
765.5519569399462
 20
17.84527230659038
 30
0.0
  0
VERTEX
  5
625
  8
LAYER_1
 10
748.4036855046069
 20
24.82103102628878
 30
0.0
  0
VERTEX
  5
626
  8
LAYER_1
 10
739.8876748595935
 20
16.45877057346321
 30
0.0
  0
VERTEX
  5
627
  8
LAYER_1
 10
739.882924853656
 20
4.545755682194594
 30
0.0
  0
VERTEX
  5
628
  8
LAYER_1
 10
757.0304462880579
 20
-2.429753037191302
 30
0.0
  0
SEQEND
  5
629
  8
LAYER_1
  0
POLYLINE
  5
A3
  8
LAYER_1
 66
     1
 10
0.0
 20
0.0
 30
0.0
 70
     1
  0
VERTEX
  5
62A
  8
LAYER_1
 10
835.1232939041174
 20
3.493254366567951
 30
0.0
  0
VERTEX
  5
62B
  8
LAYER_1
 10
849.7335621669527
 20
-2.44975306219134
 30
0.0
  0
VERTEX
  5
62C
  8
LAYER_1
 10
866.8820836026046
 20
4.524755655944556
 30
0.0
  0
VERTEX
  5
62D
  8
LAYER_1
 10
866.8820836026046
 20
16.35102043877555
 30
0.0
  0
VERTEX
  5
62E
  8
LAYER_1
 10
858.307572884466
 20
24.7780309725387
 30
0.0
  0
VERTEX
  5
62F
  8
LAYER_1
 10
841.1595514494393
 20
17.80377225471532
 30
0.0
  0
SEQEND
  5
630
  8
LAYER_1
  0
POLYLINE
  5
A4
  8
LAYER_1
 66
     1
 10
0.0
 20
0.0
 30
0.0
 70
     1
  0
VERTEX
  5
631
  8
LAYER_1
 10
803.3415041768802
 20
-71.71908964886207
 30
0.0
  0
VERTEX
  5
632
  8
LAYER_1
 10
797.9134973918717
 20
-84.58685573356968
 30
0.0
  0
VERTEX
  5
633
  8
LAYER_1
 10
790.2172377715472
 20
-84.58685573356968
 30
0.0
  0
VERTEX
  5
634
  8
LAYER_1
 10
802.2245027806284
 20
-96.36162045202558
 30
0.0
  0
VERTEX
  5
635
  8
LAYER_1
 10
802.1845027306283
 20
-96.40087050108814
 30
0.0
  0
VERTEX
  5
636
  8
LAYER_1
 10
804.4867556084446
 20
-96.40087050108814
 30
0.0
  0
VERTEX
  5
637
  8
LAYER_1
 10
804.4515055643819
 20
-96.3661204576506
 30
0.0
  0
VERTEX
  5
638
  8
LAYER_1
 10
816.4632705790882
 20
-84.58685573356968
 30
0.0
  0
VERTEX
  5
639
  8
LAYER_1
 10
808.7690109612637
 20
-84.58685573356968
 30
0.0
  0
SEQEND
  5
63A
  8
LAYER_1
  0
POLYLINE
  5
A5
  8
LAYER_1
 66
     1
 10
0.0
 20
0.0
 30
0.0
 70
     1
  0
VERTEX
  5
63B
  8
LAYER_1
 10
803.3422541778177
 20
52.94356617945772
 30
0.0
  0
VERTEX
  5
63C
  8
LAYER_1
 10
797.9144973931218
 20
65.81133226416533
 30
0.0
  0
VERTEX
  5
63D
  8
LAYER_1
 10
790.2182377727972
 20
65.81133226416533
 30
0.0
  0
VERTEX
  5
63E
  8
LAYER_1
 10
802.2255027818785
 20
77.5860969826212
 30
0.0
  0
VERTEX
  5
63F
  8
LAYER_1
 10
802.1920027400034
 20
77.61909702387125
 30
0.0
  0
VERTEX
  5
640
  8
LAYER_1
 10
804.4812556015695
 20
77.61909702387125
 30
0.0
  0
VERTEX
  5
641
  8
LAYER_1
 10
804.4522555653194
 20
77.59059698824622
 30
0.0
  0
VERTEX
  5
642
  8
LAYER_1
 10
816.4642705803383
 20
65.81133226416533
 30
0.0
  0
VERTEX
  5
643
  8
LAYER_1
 10
808.7700109625137
 20
65.81133226416533
 30
0.0
  0
SEQEND
  5
644
  8
LAYER_1
  0
POLYLINE
  5
A6
  8
LAYER_1
 66
     1
 10
0.0
 20
0.0
 30
0.0
 70
     1
  0
VERTEX
  5
645
  8
LAYER_1
 10
771.6512145640182
 20
65.80533225666531
 30
0.0
  0
VERTEX
  5
646
  8
LAYER_1
 10
754.6189432736792
 20
65.80533225666531
 30
0.0
  0
VERTEX
  5
647
  8
LAYER_1
 10
754.6189432736792
 20
70.88458860573573
 30
0.0
  0
VERTEX
  5
648
  8
LAYER_1
 10
747.9259349074187
 20
77.48884686105855
 30
0.0
  0
VERTEX
  5
649
  8
LAYER_1
 10
783.681229601537
 20
77.61884702355877
 30
0.0
  0
SEQEND
  5
64A
  8
LAYER_1
  0
POLYLINE
  5
A7
  8
LAYER_1
 66
     1
 10
0.0
 20
0.0
 30
0.0
 70
     1
  0
VERTEX
  5
64B
  8
LAYER_1
 10
771.6512145640182
 20
-84.58885573606968
 30
0.0
  0
VERTEX
  5
64C
  8
LAYER_1
 10
754.6189432736792
 20
-84.58885573606968
 30
0.0
  0
VERTEX
  5
64D
  8
LAYER_1
 10
754.6189432736792
 20
-89.66811208514011
 30
0.0
  0
VERTEX
  5
64E
  8
LAYER_1
 10
747.9259349074187
 20
-96.27237034046293
 30
0.0
  0
VERTEX
  5
64F
  8
LAYER_1
 10
783.681229601537
 20
-96.40237050296315
 30
0.0
  0
SEQEND
  5
650
  8
LAYER_1
  0
POLYLINE
  5
A8
  8
LAYER_1
 66
     1
 10
0.0
 20
0.0
 30
0.0
 70
     1
  0
VERTEX
  5
651
  8
LAYER_1
 10
834.9245436556796
 20
65.80533225666531
 30
0.0
  0
VERTEX
  5
652
  8
LAYER_1
 10
851.9568149460188
 20
65.80533225666531
 30
0.0
  0
VERTEX
  5
653
  8
LAYER_1
 10
851.9568149460188
 20
70.88458860573573
 30
0.0
  0
VERTEX
  5
654
  8
LAYER_1
 10
858.6498233122791
 20
77.48884686105855
 30
0.0
  0
VERTEX
  5
655
  8
LAYER_1
 10
822.8945286181608
 20
77.61884702355877
 30
0.0
  0
SEQEND
  5
656
  8
LAYER_1
  0
POLYLINE
  5
A9
  8
LAYER_1
 66
     1
 10
0.0
 20
0.0
 30
0.0
 70
     1
  0
VERTEX
  5
657
  8
LAYER_1
 10
835.1055438819299
 20
-84.58885573606968
 30
0.0
  0
VERTEX
  5
658
  8
LAYER_1
 10
852.1380651725815
 20
-84.58885573606968
 30
0.0
  0
VERTEX
  5
659
  8
LAYER_1
 10
852.1380651725815
 20
-89.66811208514011
 30
0.0
  0
VERTEX
  5
65A
  8
LAYER_1
 10
858.8308235385294
 20
-96.27237034046293
 30
0.0
  0
VERTEX
  5
65B
  8
LAYER_1
 10
823.0755288444111
 20
-96.40237050296315
 30
0.0
  0
SEQEND
  5
65C
  8
LAYER_1
  0
POLYLINE
  5
AA
  8
LAYER_1
 66
     1
 10
0.0
 20
0.0
 30
0.0
 70
     1
  0
VERTEX
  5
65D
  8
LAYER_1
 10
-351.7236896546121
 20
90.20536275670344
 30
0.0
  0
VERTEX
  5
65E
  8
LAYER_1
 10
-351.7236896546121
 20
-109.7946372432966
 30
0.0
  0
VERTEX
  5
65F
  8
LAYER_1
 10
1247.790809738512
 20
-109.7946372432966
 30
0.0
  0
VERTEX
  5
660
  8
LAYER_1
 10
1247.790809738512
 20
90.20536275670344
 30
0.0
  0
SEQEND
  5
661
  8
LAYER_1
  0
POLYLINE
  5
AB
  8
LAYER_1
 66
     1
 10
0.0
 20
0.0
 30
0.0
 70
     1
  0
VERTEX
  5
662
  8
LAYER_1
 10
981.3099766374708
 20
19.2675240844051
 30
0.0
  0
VERTEX
  5
663
  8
LAYER_1
 10
987.3539841924803
 20
4.938006172507707
 30
0.0
  0
VERTEX
  5
664
  8
LAYER_1
 10
1001.945502431878
 20
10.87351359189199
 30
0.0
  0
VERTEX
  5
665
  8
LAYER_1
 10
995.9037448796811
 20
-3.451254314067898
 30
0.0
  0
VERTEX
  5
666
  8
LAYER_1
 10
1010.495763119704
 20
-9.392261740327173
 30
0.0
  0
VERTEX
  5
667
  8
LAYER_1
 10
995.9019948774936
 20
-15.32851916064896
 30
0.0
  0
VERTEX
  5
668
  8
LAYER_1
 10
1001.945502431878
 20
-29.65778707223384
 30
0.0
  0
VERTEX
  5
669
  8
LAYER_1
 10
987.3539841924803
 20
-23.72252965316207
 30
0.0
  0
VERTEX
  5
66A
  8
LAYER_1
 10
981.3099766374708
 20
-38.05229756537197
 30
0.0
  0
VERTEX
  5
66B
  8
LAYER_1
 10
975.2709690887114
 20
-23.72077965097456
 30
0.0
  0
VERTEX
  5
66C
  8
LAYER_1
 10
960.6749508436885
 20
-29.65803707254635
 30
0.0
  0
VERTEX
  5
66D
  8
LAYER_1
 10
966.718458398073
 20
-15.32851916064896
 30
0.0
  0
VERTEX
  5
66E
  8
LAYER_1
 10
952.1241901552378
 20
-9.392261740327173
 30
0.0
  0
VERTEX
  5
66F
  8
LAYER_1
 10
966.729958412448
 20
-3.451254314067898
 30
0.0
  0
VERTEX
  5
670
  8
LAYER_1
 10
960.6879508599386
 20
10.88651360814201
 30
0.0
  0
VERTEX
  5
671
  8
LAYER_1
 10
975.2709690887114
 20
4.949256186570226
 30
0.0
  0
SEQEND
  5
672
  8
LAYER_1
  0
POLYLINE
  5
AC
  8
LAYER_1
 66
     1
 10
0.0
 20
0.0
 30
0.0
 70
     1
  0
VERTEX
  5
673
  8
LAYER_1
 10
994.4604930756163
 20
21.75052718815898
 30
0.0
  0
VERTEX
  5
674
  8
LAYER_1
 10
988.4082355102944
 20
36.09804512255641
 30
0.0
  0
VERTEX
  5
675
  8
LAYER_1
 10
995.5107443884306
 20
52.93756617195771
 30
0.0
  0
VERTEX
  5
676
  8
LAYER_1
 10
1007.554259442824
 20
52.93756617195771
 30
0.0
  0
VERTEX
  5
677
  8
LAYER_1
 10
1016.135770169713
 20
44.51755564694453
 30
0.0
  0
VERTEX
  5
678
  8
LAYER_1
 10
1009.033511291889
 20
27.67828459785574
 30
0.0
  0
SEQEND
  5
679
  8
LAYER_1
  0
POLYLINE
  5
AD
  8
LAYER_1
 66
     1
 10
0.0
 20
0.0
 30
0.0
 70
     1
  0
VERTEX
  5
67A
  8
LAYER_1
 10
968.1507101883877
 20
21.7552771940965
 30
0.0
  0
VERTEX
  5
67B
  8
LAYER_1
 10
974.2027177533972
 20
36.1027951284939
 30
0.0
  0
VERTEX
  5
67C
  8
LAYER_1
 10
967.1004588755736
 20
52.94231617789521
 30
0.0
  0
VERTEX
  5
67D
  8
LAYER_1
 10
955.0569438211799
 20
52.94231617789521
 30
0.0
  0
VERTEX
  5
67E
  8
LAYER_1
 10
946.4754330942914
 20
44.52230565288205
 30
0.0
  0
VERTEX
  5
67F
  8
LAYER_1
 10
953.577691972115
 20
27.68303460379326
 30
0.0
  0
SEQEND
  5
680
  8
LAYER_1
  0
POLYLINE
  5
AE
  8
LAYER_1
 66
     1
 10
0.0
 20
0.0
 30
0.0
 70
     1
  0
VERTEX
  5
681
  8
LAYER_1
 10
968.1944602430754
 20
-40.52805066006333
 30
0.0
  0
VERTEX
  5
682
  8
LAYER_1
 10
974.2467178083972
 20
-54.87556859446074
 30
0.0
  0
VERTEX
  5
683
  8
LAYER_1
 10
967.1442089302612
 20
-71.71508964386206
 30
0.0
  0
VERTEX
  5
684
  8
LAYER_1
 10
955.1009438761798
 20
-71.71508964386206
 30
0.0
  0
VERTEX
  5
685
  8
LAYER_1
 10
946.519183148979
 20
-63.2948291185364
 30
0.0
  0
VERTEX
  5
686
  8
LAYER_1
 10
953.6214420268025
 20
-46.4558080697601
 30
0.0
  0
SEQEND
  5
687
  8
LAYER_1
  0
POLYLINE
  5
AF
  8
LAYER_1
 66
     1
 10
0.0
 20
0.0
 30
0.0
 70
     1
  0
VERTEX
  5
688
  8
LAYER_1
 10
994.4384930481164
 20
-40.56180070225088
 30
0.0
  0
VERTEX
  5
689
  8
LAYER_1
 10
988.3864854831069
 20
-54.9090686363358
 30
0.0
  0
VERTEX
  5
68A
  8
LAYER_1
 10
995.4887443609305
 20
-71.7488396860496
 30
0.0
  0
VERTEX
  5
68B
  8
LAYER_1
 10
1007.532009415012
 20
-71.7488396860496
 30
0.0
  0
VERTEX
  5
68C
  8
LAYER_1
 10
1016.113770142213
 20
-63.32857916072396
 30
0.0
  0
VERTEX
  5
68D
  8
LAYER_1
 10
1009.011511264389
 20
-46.48955811194764
 30
0.0
  0
SEQEND
  5
68E
  8
LAYER_1
  0
POLYLINE
  5
B0
  8
LAYER_1
 66
     1
 10
0.0
 20
0.0
 30
0.0
 70
     1
  0
VERTEX
  5
68F
  8
LAYER_1
 10
1013.032266290333
 20
-22.26802783503479
 30
0.0
  0
VERTEX
  5
690
  8
LAYER_1
 10
1019.084273855342
 20
-36.61529576911971
 30
0.0
  0
VERTEX
  5
691
  8
LAYER_1
 10
1036.232295290369
 20
-43.59105448881812
 30
0.0
  0
VERTEX
  5
692
  8
LAYER_1
 10
1044.748305935382
 20
-35.22854403568006
 30
0.0
  0
VERTEX
  5
693
  8
LAYER_1
 10
1044.75305594132
 20
-23.31577914472393
 30
0.0
  0
VERTEX
  5
694
  8
LAYER_1
 10
1027.605534506918
 20
-16.34052042565055
 30
0.0
  0
SEQEND
  5
695
  8
LAYER_1
  0
POLYLINE
  5
B1
  8
LAYER_1
 66
     1
 10
0.0
 20
0.0
 30
0.0
 70
     1
  0
VERTEX
  5
696
  8
LAYER_1
 10
949.5699369624213
 20
-22.29427786784733
 30
0.0
  0
VERTEX
  5
697
  8
LAYER_1
 10
943.5179293974118
 20
-36.64154580193225
 30
0.0
  0
VERTEX
  5
698
  8
LAYER_1
 10
926.369907962385
 20
-43.61730452163066
 30
0.0
  0
VERTEX
  5
699
  8
LAYER_1
 10
917.8541473176842
 20
-35.2547940684926
 30
0.0
  0
VERTEX
  5
69A
  8
LAYER_1
 10
917.8493973117467
 20
-23.34202917753647
 30
0.0
  0
VERTEX
  5
69B
  8
LAYER_1
 10
934.9969187461485
 20
-16.36652045815058
 30
0.0
  0
SEQEND
  5
69C
  8
LAYER_1
  0
POLYLINE
  5
B2
  8
LAYER_1
 66
     1
 10
0.0
 20
0.0
 30
0.0
 70
     1
  0
VERTEX
  5
69D
  8
LAYER_1
 10
949.5696869621087
 20
3.498004372505456
 30
0.0
  0
VERTEX
  5
69E
  8
LAYER_1
 10
943.5176793970993
 20
17.84527230659038
 30
0.0
  0
VERTEX
  5
69F
  8
LAYER_1
 10
926.3696579620724
 20
24.82103102628878
 30
0.0
  0
VERTEX
  5
6A0
  8
LAYER_1
 10
917.8538973173717
 20
16.45877057346321
 30
0.0
  0
VERTEX
  5
6A1
  8
LAYER_1
 10
917.8491473114341
 20
4.545755682194594
 30
0.0
  0
VERTEX
  5
6A2
  8
LAYER_1
 10
934.9966687458359
 20
-2.429753037191302
 30
0.0
  0
SEQEND
  5
6A3
  8
LAYER_1
  0
POLYLINE
  5
B3
  8
LAYER_1
 66
     1
 10
0.0
 20
0.0
 30
0.0
 70
     1
  0
VERTEX
  5
6A4
  8
LAYER_1
 10
1013.089266361583
 20
3.493254366567951
 30
0.0
  0
VERTEX
  5
6A5
  8
LAYER_1
 10
1027.699784624731
 20
-2.44975306219134
 30
0.0
  0
VERTEX
  5
6A6
  8
LAYER_1
 10
1044.848306060383
 20
4.524755655944556
 30
0.0
  0
VERTEX
  5
6A7
  8
LAYER_1
 10
1044.848306060383
 20
16.35102043877555
 30
0.0
  0
VERTEX
  5
6A8
  8
LAYER_1
 10
1036.273795342244
 20
24.7780309725387
 30
0.0
  0
VERTEX
  5
6A9
  8
LAYER_1
 10
1019.125273906592
 20
17.80377225471532
 30
0.0
  0
SEQEND
  5
6AA
  8
LAYER_1
  0
POLYLINE
  5
B4
  8
LAYER_1
 66
     1
 10
0.0
 20
0.0
 30
0.0
 70
     1
  0
VERTEX
  5
6AB
  8
LAYER_1
 10
981.3074766343458
 20
-71.71908964886207
 30
0.0
  0
VERTEX
  5
6AC
  8
LAYER_1
 10
975.8794698493373
 20
-84.58685573356968
 30
0.0
  0
VERTEX
  5
6AD
  8
LAYER_1
 10
968.1834602293253
 20
-84.58685573356968
 30
0.0
  0
VERTEX
  5
6AE
  8
LAYER_1
 10
980.1907252384066
 20
-96.36162045202558
 30
0.0
  0
VERTEX
  5
6AF
  8
LAYER_1
 10
980.150475188094
 20
-96.40087050108814
 30
0.0
  0
VERTEX
  5
6B0
  8
LAYER_1
 10
982.45272806591
 20
-96.40087050108814
 30
0.0
  0
VERTEX
  5
6B1
  8
LAYER_1
 10
982.4174780218475
 20
-96.3661204576506
 30
0.0
  0
VERTEX
  5
6B2
  8
LAYER_1
 10
994.4294930368663
 20
-84.58685573356968
 30
0.0
  0
VERTEX
  5
6B3
  8
LAYER_1
 10
986.7352334190418
 20
-84.58685573356968
 30
0.0
  0
SEQEND
  5
6B4
  8
LAYER_1
  0
POLYLINE
  5
B5
  8
LAYER_1
 66
     1
 10
0.0
 20
0.0
 30
0.0
 70
     1
  0
VERTEX
  5
6B5
  8
LAYER_1
 10
981.3082266352833
 20
52.94356617945772
 30
0.0
  0
VERTEX
  5
6B6
  8
LAYER_1
 10
975.8804698505874
 20
65.81133226416533
 30
0.0
  0
VERTEX
  5
6B7
  8
LAYER_1
 10
968.1842102302628
 20
65.81133226416533
 30
0.0
  0
VERTEX
  5
6B8
  8
LAYER_1
 10
980.1914752393441
 20
77.5860969826212
 30
0.0
  0
VERTEX
  5
6B9
  8
LAYER_1
 10
980.157975197469
 20
77.61909702387125
 30
0.0
  0
VERTEX
  5
6BA
  8
LAYER_1
 10
982.4472280590351
 20
77.61909702387125
 30
0.0
  0
VERTEX
  5
6BB
  8
LAYER_1
 10
982.4182280227851
 20
77.59059698824622
 30
0.0
  0
VERTEX
  5
6BC
  8
LAYER_1
 10
994.4302430378038
 20
65.81133226416533
 30
0.0
  0
VERTEX
  5
6BD
  8
LAYER_1
 10
986.7359834199792
 20
65.81133226416533
 30
0.0
  0
SEQEND
  5
6BE
  8
LAYER_1
  0
POLYLINE
  5
B6
  8
LAYER_1
 66
     1
 10
0.0
 20
0.0
 30
0.0
 70
     1
  0
VERTEX
  5
6BF
  8
LAYER_1
 10
949.6174370217963
 20
65.80533225666531
 30
0.0
  0
VERTEX
  5
6C0
  8
LAYER_1
 10
932.5849157311447
 20
65.80533225666531
 30
0.0
  0
VERTEX
  5
6C1
  8
LAYER_1
 10
932.5849157311447
 20
70.88458860573573
 30
0.0
  0
VERTEX
  5
6C2
  8
LAYER_1
 10
925.8919073648842
 20
77.48884686105855
 30
0.0
  0
VERTEX
  5
6C3
  8
LAYER_1
 10
961.6472020590026
 20
77.61884702355877
 30
0.0
  0
SEQEND
  5
6C4
  8
LAYER_1
  0
POLYLINE
  5
B7
  8
LAYER_1
 66
     1
 10
0.0
 20
0.0
 30
0.0
 70
     1
  0
VERTEX
  5
6C5
  8
LAYER_1
 10
949.6174370217963
 20
-84.58885573606968
 30
0.0
  0
VERTEX
  5
6C6
  8
LAYER_1
 10
932.5849157311447
 20
-84.58885573606968
 30
0.0
  0
VERTEX
  5
6C7
  8
LAYER_1
 10
932.5849157311447
 20
-89.66811208514011
 30
0.0
  0
VERTEX
  5
6C8
  8
LAYER_1
 10
925.8919073648842
 20
-96.27237034046293
 30
0.0
  0
VERTEX
  5
6C9
  8
LAYER_1
 10
961.6472020590026
 20
-96.40237050296315
 30
0.0
  0
SEQEND
  5
6CA
  8
LAYER_1
  0
POLYLINE
  5
B8
  8
LAYER_1
 66
     1
 10
0.0
 20
0.0
 30
0.0
 70
     1
  0
VERTEX
  5
6CB
  8
LAYER_1
 10
1012.890766113458
 20
65.80533225666531
 30
0.0
  0
VERTEX
  5
6CC
  8
LAYER_1
 10
1029.923037403797
 20
65.80533225666531
 30
0.0
  0
VERTEX
  5
6CD
  8
LAYER_1
 10
1029.923037403797
 20
70.88458860573573
 30
0.0
  0
VERTEX
  5
6CE
  8
LAYER_1
 10
1036.616045770057
 20
77.48884686105855
 30
0.0
  0
VERTEX
  5
6CF
  8
LAYER_1
 10
1000.860501075626
 20
77.61884702355877
 30
0.0
  0
SEQEND
  5
6D0
  8
LAYER_1
  0
POLYLINE
  5
B9
  8
LAYER_1
 66
     1
 10
0.0
 20
0.0
 30
0.0
 70
     1
  0
VERTEX
  5
6D1
  8
LAYER_1
 10
1013.071766339708
 20
-84.58885573606968
 30
0.0
  0
VERTEX
  5
6D2
  8
LAYER_1
 10
1030.104037630047
 20
-84.58885573606968
 30
0.0
  0
VERTEX
  5
6D3
  8
LAYER_1
 10
1030.104037630047
 20
-89.66811208514011
 30
0.0
  0
VERTEX
  5
6D4
  8
LAYER_1
 10
1036.797045996308
 20
-96.27237034046293
 30
0.0
  0
VERTEX
  5
6D5
  8
LAYER_1
 10
1001.041251301564
 20
-96.40237050296315
 30
0.0
  0
SEQEND
  5
6D6
  8
LAYER_1
  0
POLYLINE
  5
BA
  8
LAYER_1
 66
     1
 10
0.0
 20
0.0
 30
0.0
 70
     1
  0
VERTEX
  5
6D7
  8
LAYER_1
 10
1158.956698695873
 20
19.2675240844051
 30
0.0
  0
VERTEX
  5
6D8
  8
LAYER_1
 10
1165.000706250883
 20
4.938006172507707
 30
0.0
  0
VERTEX
  5
6D9
  8
LAYER_1
 10
1179.592474490593
 20
10.87351359189199
 30
0.0
  0
VERTEX
  5
6DA
  8
LAYER_1
 10
1173.550466938084
 20
-3.451254314067898
 30
0.0
  0
VERTEX
  5
6DB
  8
LAYER_1
 10
1188.142485178107
 20
-9.392261740327173
 30
0.0
  0
VERTEX
  5
6DC
  8
LAYER_1
 10
1173.548466935584
 20
-15.32851916064896
 30
0.0
  0
VERTEX
  5
6DD
  8
LAYER_1
 10
1179.592224490281
 20
-29.65778707223384
 30
0.0
  0
VERTEX
  5
6DE
  8
LAYER_1
 10
1165.000706250883
 20
-23.72252965316207
 30
0.0
  0
VERTEX
  5
6DF
  8
LAYER_1
 10
1158.956698695873
 20
-38.05229756537197
 30
0.0
  0
VERTEX
  5
6E0
  8
LAYER_1
 10
1152.917691147114
 20
-23.72077965097456
 30
0.0
  0
VERTEX
  5
6E1
  8
LAYER_1
 10
1138.321422901779
 20
-29.65803707254635
 30
0.0
  0
VERTEX
  5
6E2
  8
LAYER_1
 10
1144.365430456788
 20
-15.32851916064896
 30
0.0
  0
VERTEX
  5
6E3
  8
LAYER_1
 10
1129.771162213953
 20
-9.392261740327173
 30
0.0
  0
VERTEX
  5
6E4
  8
LAYER_1
 10
1144.376430470538
 20
-3.451254314067898
 30
0.0
  0
VERTEX
  5
6E5
  8
LAYER_1
 10
1138.334672918341
 20
10.88651360814201
 30
0.0
  0
VERTEX
  5
6E6
  8
LAYER_1
 10
1152.917691147114
 20
4.949256186570226
 30
0.0
  0
SEQEND
  5
6E7
  8
LAYER_1
  0
POLYLINE
  5
BB
  8
LAYER_1
 66
     1
 10
0.0
 20
0.0
 30
0.0
 70
     1
  0
VERTEX
  5
6E8
  8
LAYER_1
 10
1172.106965133707
 20
21.75052718815898
 30
0.0
  0
VERTEX
  5
6E9
  8
LAYER_1
 10
1166.05520756901
 20
36.09804512255641
 30
0.0
  0
VERTEX
  5
6EA
  8
LAYER_1
 10
1173.157466446833
 20
52.93756617195771
 30
0.0
  0
VERTEX
  5
6EB
  8
LAYER_1
 10
1185.200981501227
 20
52.93756617195771
 30
0.0
  0
VERTEX
  5
6EC
  8
LAYER_1
 10
1193.782492228115
 20
44.51755564694453
 30
0.0
  0
VERTEX
  5
6ED
  8
LAYER_1
 10
1186.680233350292
 20
27.67828459785574
 30
0.0
  0
SEQEND
  5
6EE
  8
LAYER_1
  0
POLYLINE
  5
BC
  8
LAYER_1
 66
     1
 10
0.0
 20
0.0
 30
0.0
 70
     1
  0
VERTEX
  5
6EF
  8
LAYER_1
 10
1145.79743224679
 20
21.7552771940965
 30
0.0
  0
VERTEX
  5
6F0
  8
LAYER_1
 10
1151.849689812112
 20
36.1027951284939
 30
0.0
  0
VERTEX
  5
6F1
  8
LAYER_1
 10
1144.746930933664
 20
52.94231617789521
 30
0.0
  0
VERTEX
  5
6F2
  8
LAYER_1
 10
1132.703665879582
 20
52.94231617789521
 30
0.0
  0
VERTEX
  5
6F3
  8
LAYER_1
 10
1124.122155152694
 20
44.52230565288205
 30
0.0
  0
VERTEX
  5
6F4
  8
LAYER_1
 10
1131.224414030517
 20
27.68303460379326
 30
0.0
  0
SEQEND
  5
6F5
  8
LAYER_1
  0
POLYLINE
  5
BD
  8
LAYER_1
 66
     1
 10
0.0
 20
0.0
 30
0.0
 70
     1
  0
VERTEX
  5
6F6
  8
LAYER_1
 10
1145.841432301791
 20
-40.52805066006333
 30
0.0
  0
VERTEX
  5
6F7
  8
LAYER_1
 10
1151.893189866487
 20
-54.87556859446074
 30
0.0
  0
VERTEX
  5
6F8
  8
LAYER_1
 10
1144.790930988664
 20
-71.71508964386206
 30
0.0
  0
VERTEX
  5
6F9
  8
LAYER_1
 10
1132.747665934583
 20
-71.71508964386206
 30
0.0
  0
VERTEX
  5
6FA
  8
LAYER_1
 10
1124.165905207381
 20
-63.2948291185364
 30
0.0
  0
VERTEX
  5
6FB
  8
LAYER_1
 10
1131.268414085518
 20
-46.4558080697601
 30
0.0
  0
SEQEND
  5
6FC
  8
LAYER_1
  0
POLYLINE
  5
BE
  8
LAYER_1
 66
     1
 10
0.0
 20
0.0
 30
0.0
 70
     1
  0
VERTEX
  5
6FD
  8
LAYER_1
 10
1172.084965106206
 20
-40.56180070225088
 30
0.0
  0
VERTEX
  5
6FE
  8
LAYER_1
 10
1166.033207541509
 20
-54.9090686363358
 30
0.0
  0
VERTEX
  5
6FF
  8
LAYER_1
 10
1173.135466419333
 20
-71.7488396860496
 30
0.0
  0
VERTEX
  5
700
  8
LAYER_1
 10
1185.178731473414
 20
-71.7488396860496
 30
0.0
  0
VERTEX
  5
701
  8
LAYER_1
 10
1193.760492200615
 20
-63.32857916072396
 30
0.0
  0
VERTEX
  5
702
  8
LAYER_1
 10
1186.658483323104
 20
-46.48955811194764
 30
0.0
  0
SEQEND
  5
703
  8
LAYER_1
  0
POLYLINE
  5
BF
  8
LAYER_1
 66
     1
 10
0.0
 20
0.0
 30
0.0
 70
     1
  0
VERTEX
  5
704
  8
LAYER_1
 10
1190.679238349048
 20
-22.26802783503479
 30
0.0
  0
VERTEX
  5
705
  8
LAYER_1
 10
1196.730995913745
 20
-36.61529576911971
 30
0.0
  0
VERTEX
  5
706
  8
LAYER_1
 10
1213.879267349084
 20
-43.59105448881812
 30
0.0
  0
VERTEX
  5
707
  8
LAYER_1
 10
1222.395027993785
 20
-35.22854403568006
 30
0.0
  0
VERTEX
  5
708
  8
LAYER_1
 10
1222.399777999723
 20
-23.31577914472393
 30
0.0
  0
VERTEX
  5
709
  8
LAYER_1
 10
1205.252256565321
 20
-16.34052042565055
 30
0.0
  0
SEQEND
  5
70A
  8
LAYER_1
  0
POLYLINE
  5
C0
  8
LAYER_1
 66
     1
 10
0.0
 20
0.0
 30
0.0
 70
     1
  0
VERTEX
  5
70B
  8
LAYER_1
 10
1127.216659020824
 20
-22.29427786784733
 30
0.0
  0
VERTEX
  5
70C
  8
LAYER_1
 10
1121.164901456127
 20
-36.64154580193225
 30
0.0
  0
VERTEX
  5
70D
  8
LAYER_1
 10
1104.0168800211
 20
-43.61730452163066
 30
0.0
  0
VERTEX
  5
70E
  8
LAYER_1
 10
1095.500869376086
 20
-35.2547940684926
 30
0.0
  0
VERTEX
  5
70F
  8
LAYER_1
 10
1095.496119370149
 20
-23.34202917753647
 30
0.0
  0
VERTEX
  5
710
  8
LAYER_1
 10
1112.643640804551
 20
-16.36652045815058
 30
0.0
  0
SEQEND
  5
711
  8
LAYER_1
  0
POLYLINE
  5
C1
  8
LAYER_1
 66
     1
 10
0.0
 20
0.0
 30
0.0
 70
     1
  0
VERTEX
  5
712
  8
LAYER_1
 10
1127.216409020511
 20
3.498004372505456
 30
0.0
  0
VERTEX
  5
713
  8
LAYER_1
 10
1121.164651455814
 20
17.84527230659038
 30
0.0
  0
VERTEX
  5
714
  8
LAYER_1
 10
1104.016630020787
 20
24.82103102628878
 30
0.0
  0
VERTEX
  5
715
  8
LAYER_1
 10
1095.500369375462
 20
16.45877057346321
 30
0.0
  0
VERTEX
  5
716
  8
LAYER_1
 10
1095.495619369524
 20
4.545755682194594
 30
0.0
  0
VERTEX
  5
717
  8
LAYER_1
 10
1112.643140803926
 20
-2.429753037191302
 30
0.0
  0
SEQEND
  5
718
  8
LAYER_1
  0
POLYLINE
  5
C2
  8
LAYER_1
 66
     1
 10
0.0
 20
0.0
 30
0.0
 70
     1
  0
VERTEX
  5
719
  8
LAYER_1
 10
1190.735988419985
 20
3.493254366567951
 30
0.0
  0
VERTEX
  5
71A
  8
LAYER_1
 10
1205.346256682821
 20
-2.44975306219134
 30
0.0
  0
VERTEX
  5
71B
  8
LAYER_1
 10
1222.495028118785
 20
4.524755655944556
 30
0.0
  0
VERTEX
  5
71C
  8
LAYER_1
 10
1222.495028118785
 20
16.35102043877555
 30
0.0
  0
VERTEX
  5
71D
  8
LAYER_1
 10
1213.920267400334
 20
24.7780309725387
 30
0.0
  0
VERTEX
  5
71E
  8
LAYER_1
 10
1196.772245965307
 20
17.80377225471532
 30
0.0
  0
SEQEND
  5
71F
  8
LAYER_1
  0
POLYLINE
  5
C3
  8
LAYER_1
 66
     1
 10
0.0
 20
0.0
 30
0.0
 70
     1
  0
VERTEX
  5
720
  8
LAYER_1
 10
1158.954198692748
 20
-71.71908964886207
 30
0.0
  0
VERTEX
  5
721
  8
LAYER_1
 10
1153.52619190774
 20
-84.58685573356968
 30
0.0
  0
VERTEX
  5
722
  8
LAYER_1
 10
1145.829932287415
 20
-84.58685573356968
 30
0.0
  0
VERTEX
  5
723
  8
LAYER_1
 10
1157.837197296496
 20
-96.36162045202558
 30
0.0
  0
VERTEX
  5
724
  8
LAYER_1
 10
1157.797447246809
 20
-96.40087050108814
 30
0.0
  0
VERTEX
  5
725
  8
LAYER_1
 10
1160.099700124625
 20
-96.40087050108814
 30
0.0
  0
VERTEX
  5
726
  8
LAYER_1
 10
1160.06420008025
 20
-96.3661204576506
 30
0.0
  0
VERTEX
  5
727
  8
LAYER_1
 10
1172.075965094956
 20
-84.58685573356968
 30
0.0
  0
VERTEX
  5
728
  8
LAYER_1
 10
1164.381955477444
 20
-84.58685573356968
 30
0.0
  0
SEQEND
  5
729
  8
LAYER_1
  0
POLYLINE
  5
C4
  8
LAYER_1
 66
     1
 10
0.0
 20
0.0
 30
0.0
 70
     1
  0
VERTEX
  5
72A
  8
LAYER_1
 10
1158.954948693686
 20
52.94356617945772
 30
0.0
  0
VERTEX
  5
72B
  8
LAYER_1
 10
1153.52719190899
 20
65.81133226416533
 30
0.0
  0
VERTEX
  5
72C
  8
LAYER_1
 10
1145.830932288665
 20
65.81133226416533
 30
0.0
  0
VERTEX
  5
72D
  8
LAYER_1
 10
1157.838197297747
 20
77.5860969826212
 30
0.0
  0
VERTEX
  5
72E
  8
LAYER_1
 10
1157.804697255872
 20
77.61909702387125
 30
0.0
  0
VERTEX
  5
72F
  8
LAYER_1
 10
1160.093950117438
 20
77.61909702387125
 30
0.0
  0
VERTEX
  5
730
  8
LAYER_1
 10
1160.064950081188
 20
77.59059698824622
 30
0.0
  0
VERTEX
  5
731
  8
LAYER_1
 10
1172.076965096207
 20
65.81133226416533
 30
0.0
  0
VERTEX
  5
732
  8
LAYER_1
 10
1164.382705478382
 20
65.81133226416533
 30
0.0
  0
SEQEND
  5
733
  8
LAYER_1
  0
POLYLINE
  5
C5
  8
LAYER_1
 66
     1
 10
0.0
 20
0.0
 30
0.0
 70
     1
  0
VERTEX
  5
734
  8
LAYER_1
 10
1127.263909079886
 20
65.80533225666531
 30
0.0
  0
VERTEX
  5
735
  8
LAYER_1
 10
1110.231637789547
 20
65.80533225666531
 30
0.0
  0
VERTEX
  5
736
  8
LAYER_1
 10
1110.231637789547
 20
70.88458860573573
 30
0.0
  0
VERTEX
  5
737
  8
LAYER_1
 10
1103.538629423287
 20
77.48884686105855
 30
0.0
  0
VERTEX
  5
738
  8
LAYER_1
 10
1139.293924117405
 20
77.61884702355877
 30
0.0
  0
SEQEND
  5
739
  8
LAYER_1
  0
POLYLINE
  5
C6
  8
LAYER_1
 66
     1
 10
0.0
 20
0.0
 30
0.0
 70
     1
  0
VERTEX
  5
73A
  8
LAYER_1
 10
1127.263909079886
 20
-84.58885573606968
 30
0.0
  0
VERTEX
  5
73B
  8
LAYER_1
 10
1110.231637789547
 20
-84.58885573606968
 30
0.0
  0
VERTEX
  5
73C
  8
LAYER_1
 10
1110.231637789547
 20
-89.66811208514011
 30
0.0
  0
VERTEX
  5
73D
  8
LAYER_1
 10
1103.538629423287
 20
-96.27237034046293
 30
0.0
  0
VERTEX
  5
73E
  8
LAYER_1
 10
1139.293924117405
 20
-96.40237050296315
 30
0.0
  0
SEQEND
  5
73F
  8
LAYER_1
  0
POLYLINE
  5
C7
  8
LAYER_1
 66
     1
 10
0.0
 20
0.0
 30
0.0
 70
     1
  0
VERTEX
  5
740
  8
LAYER_1
 10
1190.53748817186
 20
65.80533225666531
 30
0.0
  0
VERTEX
  5
741
  8
LAYER_1
 10
1207.569759462199
 20
65.80533225666531
 30
0.0
  0
VERTEX
  5
742
  8
LAYER_1
 10
1207.569759462199
 20
70.88458860573573
 30
0.0
  0
VERTEX
  5
743
  8
LAYER_1
 10
1214.262517828147
 20
77.48884686105855
 30
0.0
  0
VERTEX
  5
744
  8
LAYER_1
 10
1178.507223134029
 20
77.61884702355877
 30
0.0
  0
SEQEND
  5
745
  8
LAYER_1
  0
POLYLINE
  5
C8
  8
LAYER_1
 66
     1
 10
0.0
 20
0.0
 30
0.0
 70
     1
  0
VERTEX
  5
746
  8
LAYER_1
 10
1190.718238397798
 20
-84.58885573606968
 30
0.0
  0
VERTEX
  5
747
  8
LAYER_1
 10
1207.75075968845
 20
-84.58885573606968
 30
0.0
  0
VERTEX
  5
748
  8
LAYER_1
 10
1207.75075968845
 20
-89.66811208514011
 30
0.0
  0
VERTEX
  5
749
  8
LAYER_1
 10
1214.443518054398
 20
-96.27237034046293
 30
0.0
  0
VERTEX
  5
74A
  8
LAYER_1
 10
1178.688223360279
 20
-96.40237050296315
 30
0.0
  0
SEQEND
  5
74B
  8
LAYER_1
  0
POLYLINE
  5
C9
  8
LAYER_1
 66
     1
 10
0.0
 20
0.0
 30
0.0
 70
     1
  0
VERTEX
  5
74C
  8
LAYER_1
 10
1069.963587454484
 20
63.70707963384955
 30
0.0
  0
VERTEX
  5
74D
  8
LAYER_1
 10
1057.300321625402
 20
51.2718140897676
 30
0.0
  0
VERTEX
  5
74E
  8
LAYER_1
 10
1044.61405576757
 20
51.30431413039265
 30
0.0
  0
VERTEX
  5
74F
  8
LAYER_1
 10
1044.625305781632
 20
34.6407933009916
 30
0.0
  0
VERTEX
  5
750
  8
LAYER_1
 10
1039.183798979749
 20
39.98479998099998
 30
0.0
  0
VERTEX
  5
751
  8
LAYER_1
 10
1026.079782599728
 20
34.65479331849164
 30
0.0
  0
VERTEX
  5
752
  8
LAYER_1
 10
1031.507539384424
 20
47.52230940288675
 30
0.0
  0
VERTEX
  5
753
  8
LAYER_1
 10
1026.067032583791
 20
52.86506608133261
 30
0.0
  0
VERTEX
  5
754
  8
LAYER_1
 10
1043.042803803505
 20
52.85381606727007
 30
0.0
  0
VERTEX
  5
755
  8
LAYER_1
 10
1043.032053790067
 20
65.49808187260233
 30
0.0
  0
VERTEX
  5
756
  8
LAYER_1
 10
1055.405819257274
 20
77.6493470616838
 30
0.0
  0
VERTEX
  5
757
  8
LAYER_1
 10
1069.963587454484
 20
77.56934696168369
 30
0.0
  0
VERTEX
  5
758
  8
LAYER_1
 10
1084.74885593607
 20
77.6493470616838
 30
0.0
  0
VERTEX
  5
759
  8
LAYER_1
 10
1097.122871403589
 20
65.49808187260233
 30
0.0
  0
VERTEX
  5
75A
  8
LAYER_1
 10
1097.111871389839
 20
52.85381606727007
 30
0.0
  0
VERTEX
  5
75B
  8
LAYER_1
 10
1114.087392609241
 20
52.86506608133261
 30
0.0
  0
VERTEX
  5
75C
  8
LAYER_1
 10
1108.64713580892
 20
47.52230940288675
 30
0.0
  0
VERTEX
  5
75D
  8
LAYER_1
 10
1114.074892593616
 20
34.65479331849164
 30
0.0
  0
VERTEX
  5
75E
  8
LAYER_1
 10
1100.971126213908
 20
39.98479998099998
 30
0.0
  0
VERTEX
  5
75F
  8
LAYER_1
 10
1095.529119411399
 20
34.6407933009916
 30
0.0
  0
VERTEX
  5
760
  8
LAYER_1
 10
1095.540619425774
 20
51.30431413039265
 30
0.0
  0
VERTEX
  5
761
  8
LAYER_1
 10
1082.854353567942
 20
51.2718140897676
 30
0.0
  0
SEQEND
  5
762
  8
LAYER_1
  0
POLYLINE
  5
CA
  8
LAYER_1
 66
     1
 10
0.0
 20
0.0
 30
0.0
 70
     1
  0
VERTEX
  5
763
  8
LAYER_1
 10
1069.963587454484
 20
9.784262230327773
 30
0.0
  0
VERTEX
  5
764
  8
LAYER_1
 10
1057.773822217278
 20
21.7582771978465
 30
0.0
  0
VERTEX
  5
765
  8
LAYER_1
 10
1057.773822217278
 20
38.48379810474761
 30
0.0
  0
VERTEX
  5
766
  8
LAYER_1
 10
1062.815578519473
 20
38.48404810506013
 30
0.0
  0
VERTEX
  5
767
  8
LAYER_1
 10
1069.963587454484
 20
45.53180691475865
 30
0.0
  0
VERTEX
  5
768
  8
LAYER_1
 10
1077.339096673871
 20
38.48404810506013
 30
0.0
  0
VERTEX
  5
769
  8
LAYER_1
 10
1082.380852976066
 20
38.48379810474761
 30
0.0
  0
VERTEX
  5
76A
  8
LAYER_1
 10
1082.380852976066
 20
21.7582771978465
 30
0.0
  0
SEQEND
  5
76B
  8
LAYER_1
  0
POLYLINE
  5
CB
  8
LAYER_1
 66
     1
 10
0.0
 20
0.0
 30
0.0
 70
     1
  0
VERTEX
  5
76C
  8
LAYER_1
 10
1070.144587680735
 20
-96.32537040671302
 30
0.0
  0
VERTEX
  5
76D
  8
LAYER_1
 10
1055.586819483524
 20
-96.40512050640064
 30
0.0
  0
VERTEX
  5
76E
  8
LAYER_1
 10
1043.212804016005
 20
-84.25385531731916
 30
0.0
  0
VERTEX
  5
76F
  8
LAYER_1
 10
1043.223804029755
 20
-71.6095895119869
 30
0.0
  0
VERTEX
  5
770
  8
LAYER_1
 10
1026.248032810041
 20
-71.62083952604942
 30
0.0
  0
VERTEX
  5
771
  8
LAYER_1
 10
1031.688289610362
 20
-66.27833284791606
 30
0.0
  0
VERTEX
  5
772
  8
LAYER_1
 10
1026.260532825666
 20
-53.41081676352097
 30
0.0
  0
VERTEX
  5
773
  8
LAYER_1
 10
1039.364549205686
 20
-58.74082342602929
 30
0.0
  0
VERTEX
  5
774
  8
LAYER_1
 10
1044.806306007883
 20
-53.39656674570843
 30
0.0
  0
VERTEX
  5
775
  8
LAYER_1
 10
1044.79505599382
 20
-70.06008757510948
 30
0.0
  0
VERTEX
  5
776
  8
LAYER_1
 10
1057.48107185134
 20
-70.02758753448443
 30
0.0
  0
VERTEX
  5
777
  8
LAYER_1
 10
1070.144587680735
 20
-82.46285307856637
 30
0.0
  0
VERTEX
  5
778
  8
LAYER_1
 10
1082.854353567942
 20
-70.02758753448443
 30
0.0
  0
VERTEX
  5
779
  8
LAYER_1
 10
1095.540619425774
 20
-70.06008757510948
 30
0.0
  0
VERTEX
  5
77A
  8
LAYER_1
 10
1095.529119411399
 20
-53.39656674570843
 30
0.0
  0
VERTEX
  5
77B
  8
LAYER_1
 10
1100.971126213908
 20
-58.74082342602929
 30
0.0
  0
VERTEX
  5
77C
  8
LAYER_1
 10
1114.074892593616
 20
-53.41081676352097
 30
0.0
  0
VERTEX
  5
77D
  8
LAYER_1
 10
1108.64713580892
 20
-66.27833284791606
 30
0.0
  0
VERTEX
  5
77E
  8
LAYER_1
 10
1114.087392609241
 20
-71.62083952604942
 30
0.0
  0
VERTEX
  5
77F
  8
LAYER_1
 10
1097.111871389839
 20
-71.6095895119869
 30
0.0
  0
VERTEX
  5
780
  8
LAYER_1
 10
1097.122871403589
 20
-84.25385531731916
 30
0.0
  0
VERTEX
  5
781
  8
LAYER_1
 10
1084.74885593607
 20
-96.40512050640064
 30
0.0
  0
SEQEND
  5
782
  8
LAYER_1
  0
POLYLINE
  5
CC
  8
LAYER_1
 66
     1
 10
0.0
 20
0.0
 30
0.0
 70
     1
  0
VERTEX
  5
783
  8
LAYER_1
 10
714.3508929386162
 20
63.70707963384955
 30
0.0
  0
VERTEX
  5
784
  8
LAYER_1
 10
701.6876271095339
 20
51.2718140897676
 30
0.0
  0
VERTEX
  5
785
  8
LAYER_1
 10
689.001111251389
 20
51.30431413039265
 30
0.0
  0
VERTEX
  5
786
  8
LAYER_1
 10
689.0126112657641
 20
34.6407933009916
 30
0.0
  0
VERTEX
  5
787
  8
LAYER_1
 10
683.5708544635681
 20
39.98479998099998
 30
0.0
  0
VERTEX
  5
788
  8
LAYER_1
 10
670.4668380835476
 20
34.65479331849164
 30
0.0
  0
VERTEX
  5
789
  8
LAYER_1
 10
675.8945948682435
 20
47.52230940288675
 30
0.0
  0
VERTEX
  5
78A
  8
LAYER_1
 10
670.4543380679225
 20
52.86506608133261
 30
0.0
  0
VERTEX
  5
78B
  8
LAYER_1
 10
687.4301092876366
 20
52.85381606727007
 30
0.0
  0
VERTEX
  5
78C
  8
LAYER_1
 10
687.4191092738865
 20
65.49808187260233
 30
0.0
  0
VERTEX
  5
78D
  8
LAYER_1
 10
699.7931247414059
 20
77.6493470616838
 30
0.0
  0
VERTEX
  5
78E
  8
LAYER_1
 10
714.3508929386162
 20
77.56934696168369
 30
0.0
  0
VERTEX
  5
78F
  8
LAYER_1
 10
729.1359114198892
 20
77.6493470616838
 30
0.0
  0
VERTEX
  5
790
  8
LAYER_1
 10
741.5099268874087
 20
65.49808187260233
 30
0.0
  0
VERTEX
  5
791
  8
LAYER_1
 10
741.4991768739711
 20
52.85381606727007
 30
0.0
  0
VERTEX
  5
792
  8
LAYER_1
 10
758.4746980933726
 20
52.86506608133261
 30
0.0
  0
VERTEX
  5
793
  8
LAYER_1
 10
753.0344412930516
 20
47.52230940288675
 30
0.0
  0
VERTEX
  5
794
  8
LAYER_1
 10
758.4621980777476
 20
34.65479331849164
 30
0.0
  0
VERTEX
  5
795
  8
LAYER_1
 10
745.3581816977271
 20
39.98479998099998
 30
0.0
  0
VERTEX
  5
796
  8
LAYER_1
 10
739.9164248955311
 20
34.6407933009916
 30
0.0
  0
VERTEX
  5
797
  8
LAYER_1
 10
739.9276749095936
 20
51.30431413039265
 30
0.0
  0
VERTEX
  5
798
  8
LAYER_1
 10
727.2414090517614
 20
51.2718140897676
 30
0.0
  0
SEQEND
  5
799
  8
LAYER_1
  0
POLYLINE
  5
CD
  8
LAYER_1
 66
     1
 10
0.0
 20
0.0
 30
0.0
 70
     1
  0
VERTEX
  5
79A
  8
LAYER_1
 10
714.3508929386162
 20
9.784262230327773
 30
0.0
  0
VERTEX
  5
79B
  8
LAYER_1
 10
726.768158460198
 20
21.7582771978465
 30
0.0
  0
VERTEX
  5
79C
  8
LAYER_1
 10
726.768158460198
 20
38.48379810474761
 30
0.0
  0
VERTEX
  5
79D
  8
LAYER_1
 10
721.7264021580027
 20
38.48404810506013
 30
0.0
  0
VERTEX
  5
79E
  8
LAYER_1
 10
714.3508929386162
 20
45.53180691475865
 30
0.0
  0
VERTEX
  5
79F
  8
LAYER_1
 10
707.202884003605
 20
38.48404810506013
 30
0.0
  0
VERTEX
  5
7A0
  8
LAYER_1
 10
702.1611277014097
 20
38.48379810474761
 30
0.0
  0
VERTEX
  5
7A1
  8
LAYER_1
 10
702.1611277014097
 20
21.7582771978465
 30
0.0
  0
SEQEND
  5
7A2
  8
LAYER_1
  0
POLYLINE
  5
CE
  8
LAYER_1
 66
     1
 10
0.0
 20
0.0
 30
0.0
 70
     1
  0
VERTEX
  5
7A3
  8
LAYER_1
 10
714.531643164554
 20
-96.32537040671302
 30
0.0
  0
VERTEX
  5
7A4
  8
LAYER_1
 10
729.1359114198892
 20
-96.40512050640064
 30
0.0
  0
VERTEX
  5
7A5
  8
LAYER_1
 10
741.5099268874087
 20
-84.25385531731916
 30
0.0
  0
VERTEX
  5
7A6
  8
LAYER_1
 10
741.4991768739711
 20
-71.6095895119869
 30
0.0
  0
VERTEX
  5
7A7
  8
LAYER_1
 10
758.4746980933726
 20
-71.62083952604942
 30
0.0
  0
VERTEX
  5
7A8
  8
LAYER_1
 10
753.0344412930516
 20
-66.27833284791606
 30
0.0
  0
VERTEX
  5
7A9
  8
LAYER_1
 10
758.4621980777476
 20
-53.41081676352097
 30
0.0
  0
VERTEX
  5
7AA
  8
LAYER_1
 10
745.3581816977271
 20
-58.74082342602929
 30
0.0
  0
VERTEX
  5
7AB
  8
LAYER_1
 10
739.9164248955311
 20
-53.39656674570843
 30
0.0
  0
VERTEX
  5
7AC
  8
LAYER_1
 10
739.9276749095936
 20
-70.06008757510948
 30
0.0
  0
VERTEX
  5
7AD
  8
LAYER_1
 10
727.2414090517614
 20
-70.02758753448443
 30
0.0
  0
VERTEX
  5
7AE
  8
LAYER_1
 10
714.531643164554
 20
-82.46285307856637
 30
0.0
  0
VERTEX
  5
7AF
  8
LAYER_1
 10
701.8683773354717
 20
-70.02758753448443
 30
0.0
  0
VERTEX
  5
7B0
  8
LAYER_1
 10
689.1823614779519
 20
-70.06008757510948
 30
0.0
  0
VERTEX
  5
7B1
  8
LAYER_1
 10
689.1933614917018
 20
-53.39656674570843
 30
0.0
  0
VERTEX
  5
7B2
  8
LAYER_1
 10
683.7518546898184
 20
-58.74082342602929
 30
0.0
  0
VERTEX
  5
7B3
  8
LAYER_1
 10
670.6478383097979
 20
-53.41081676352097
 30
0.0
  0
VERTEX
  5
7B4
  8
LAYER_1
 10
676.0755950944938
 20
-66.27833284791606
 30
0.0
  0
VERTEX
  5
7B5
  8
LAYER_1
 10
670.6350882938603
 20
-71.62083952604942
 30
0.0
  0
VERTEX
  5
7B6
  8
LAYER_1
 10
687.6106095132619
 20
-71.6095895119869
 30
0.0
  0
VERTEX
  5
7B7
  8
LAYER_1
 10
687.6001095001369
 20
-84.25385531731916
 30
0.0
  0
VERTEX
  5
7B8
  8
LAYER_1
 10
699.9741249676563
 20
-96.40512050640064
 30
0.0
  0
SEQEND
  5
7B9
  8
LAYER_1
  0
POLYLINE
  5
CF
  8
LAYER_1
 66
     1
 10
0.0
 20
0.0
 30
0.0
 70
     1
  0
VERTEX
  5
7BA
  8
LAYER_1
 10
358.8336985421232
 20
63.70707963384955
 30
0.0
  0
VERTEX
  5
7BB
  8
LAYER_1
 10
371.7242146552683
 20
51.2718140897676
 30
0.0
  0
VERTEX
  5
7BC
  8
LAYER_1
 10
384.4104805131007
 20
51.30431413039265
 30
0.0
  0
VERTEX
  5
7BD
  8
LAYER_1
 10
384.3992304990381
 20
34.6407933009916
 30
0.0
  0
VERTEX
  5
7BE
  8
LAYER_1
 10
389.8412373015466
 20
39.98479998099998
 30
0.0
  0
VERTEX
  5
7BF
  8
LAYER_1
 10
402.9450036812546
 20
34.65479331849164
 30
0.0
  0
VERTEX
  5
7C0
  8
LAYER_1
 10
397.5172468965586
 20
47.52230940288675
 30
0.0
  0
VERTEX
  5
7C1
  8
LAYER_1
 10
402.9575036968796
 20
52.86506608133261
 30
0.0
  0
VERTEX
  5
7C2
  8
LAYER_1
 10
385.9819824774781
 20
52.85381606727007
 30
0.0
  0
VERTEX
  5
7C3
  8
LAYER_1
 10
385.9929824912281
 20
65.49808187260233
 30
0.0
  0
VERTEX
  5
7C4
  8
LAYER_1
 10
373.6189670237088
 20
77.6493470616838
 30
0.0
  0
VERTEX
  5
7C5
  8
LAYER_1
 10
358.8336985421232
 20
77.56934696168369
 30
0.0
  0
VERTEX
  5
7C6
  8
LAYER_1
 10
344.2759303449129
 20
77.6493470616838
 30
0.0
  0
VERTEX
  5
7C7
  8
LAYER_1
 10
331.9019148773936
 20
65.49808187260233
 30
0.0
  0
VERTEX
  5
7C8
  8
LAYER_1
 10
331.9126648908311
 20
52.85381606727007
 30
0.0
  0
VERTEX
  5
7C9
  8
LAYER_1
 10
314.9371436714296
 20
52.86506608133261
 30
0.0
  0
VERTEX
  5
7CA
  8
LAYER_1
 10
320.3776504720631
 20
47.52230940288675
 30
0.0
  0
VERTEX
  5
7CB
  8
LAYER_1
 10
314.9498936873671
 20
34.65479331849164
 30
0.0
  0
VERTEX
  5
7CC
  8
LAYER_1
 10
328.0539100673876
 20
39.98479998099998
 30
0.0
  0
VERTEX
  5
7CD
  8
LAYER_1
 10
333.4954168692711
 20
34.6407933009916
 30
0.0
  0
VERTEX
  5
7CE
  8
LAYER_1
 10
333.4841668552085
 20
51.30431413039265
 30
0.0
  0
VERTEX
  5
7CF
  8
LAYER_1
 10
346.1704327130409
 20
51.2718140897676
 30
0.0
  0
SEQEND
  5
7D0
  8
LAYER_1
  0
POLYLINE
  5
D0
  8
LAYER_1
 66
     1
 10
0.0
 20
0.0
 30
0.0
 70
     1
  0
VERTEX
  5
7D1
  8
LAYER_1
 10
358.8336985421232
 20
9.784262230327773
 30
0.0
  0
VERTEX
  5
7D2
  8
LAYER_1
 10
371.2509640637051
 20
21.7582771978465
 30
0.0
  0
VERTEX
  5
7D3
  8
LAYER_1
 10
371.2509640637051
 20
38.48379810474761
 30
0.0
  0
VERTEX
  5
7D4
  8
LAYER_1
 10
366.2092077615097
 20
38.48404810506013
 30
0.0
  0
VERTEX
  5
7D5
  8
LAYER_1
 10
358.8336985421232
 20
45.53180691475865
 30
0.0
  0
VERTEX
  5
7D6
  8
LAYER_1
 10
351.685689607112
 20
38.48404810506013
 30
0.0
  0
VERTEX
  5
7D7
  8
LAYER_1
 10
346.6439333049166
 20
38.48379810474761
 30
0.0
  0
VERTEX
  5
7D8
  8
LAYER_1
 10
346.6439333049166
 20
21.7582771978465
 30
0.0
  0
SEQEND
  5
7D9
  8
LAYER_1
  0
POLYLINE
  5
D1
  8
LAYER_1
 66
     1
 10
0.0
 20
0.0
 30
0.0
 70
     1
  0
VERTEX
  5
7DA
  8
LAYER_1
 10
359.014448768061
 20
-64.28758035947546
 30
0.0
  0
VERTEX
  5
7DB
  8
LAYER_1
 10
366.2092077615097
 20
-57.23982154977695
 30
0.0
  0
VERTEX
  5
7DC
  8
LAYER_1
 10
371.2509640637051
 20
-57.23957154946446
 30
0.0
  0
VERTEX
  5
7DD
  8
LAYER_1
 10
371.2509640637051
 20
-40.51430064287582
 30
0.0
  0
VERTEX
  5
7DE
  8
LAYER_1
 10
359.014448768061
 20
-28.5400356750446
 30
0.0
  0
VERTEX
  5
7DF
  8
LAYER_1
 10
346.8244335305419
 20
-40.51430064287582
 30
0.0
  0
VERTEX
  5
7E0
  8
LAYER_1
 10
346.8244335305419
 20
-57.23957154946446
 30
0.0
  0
VERTEX
  5
7E1
  8
LAYER_1
 10
351.8664398330498
 20
-57.23982154977695
 30
0.0
  0
SEQEND
  5
7E2
  8
LAYER_1
  0
POLYLINE
  5
D2
  8
LAYER_1
 66
     1
 10
0.0
 20
0.0
 30
0.0
 70
     1
  0
VERTEX
  5
7E3
  8
LAYER_1
 10
181.4144767680959
 20
63.70707963384955
 30
0.0
  0
VERTEX
  5
7E4
  8
LAYER_1
 10
168.5237106546383
 20
51.2718140897676
 30
0.0
  0
VERTEX
  5
7E5
  8
LAYER_1
 10
155.837444796806
 20
51.30431413039265
 30
0.0
  0
VERTEX
  5
7E6
  8
LAYER_1
 10
155.848944811181
 20
34.6407933009916
 30
0.0
  0
VERTEX
  5
7E7
  8
LAYER_1
 10
150.4069380086725
 20
39.98479998099998
 30
0.0
  0
VERTEX
  5
7E8
  8
LAYER_1
 10
137.3031716289645
 20
34.65479331849164
 30
0.0
  0
VERTEX
  5
7E9
  8
LAYER_1
 10
142.7309284136605
 20
47.52230940288675
 30
0.0
  0
VERTEX
  5
7EA
  8
LAYER_1
 10
137.290421613027
 20
52.86506608133261
 30
0.0
  0
VERTEX
  5
7EB
  8
LAYER_1
 10
154.2659428324285
 20
52.85381606727007
 30
0.0
  0
VERTEX
  5
7EC
  8
LAYER_1
 10
154.255192818991
 20
65.49808187260233
 30
0.0
  0
VERTEX
  5
7ED
  8
LAYER_1
 10
166.6292082865104
 20
77.6493470616838
 30
0.0
  0
VERTEX
  5
7EE
  8
LAYER_1
 10
181.4144767680959
 20
77.56934696168369
 30
0.0
  0
VERTEX
  5
7EF
  8
LAYER_1
 10
195.9719949649937
 20
77.6493470616838
 30
0.0
  0
VERTEX
  5
7F0
  8
LAYER_1
 10
208.346010432513
 20
65.49808187260233
 30
0.0
  0
VERTEX
  5
7F1
  8
LAYER_1
 10
208.3352604190755
 20
52.85381606727007
 30
0.0
  0
VERTEX
  5
7F2
  8
LAYER_1
 10
225.3110316387895
 20
52.86506608133261
 30
0.0
  0
VERTEX
  5
7F3
  8
LAYER_1
 10
219.8705248381561
 20
47.52230940288675
 30
0.0
  0
VERTEX
  5
7F4
  8
LAYER_1
 10
225.2980316225395
 20
34.65479331849164
 30
0.0
  0
VERTEX
  5
7F5
  8
LAYER_1
 10
212.1942652428316
 20
39.98479998099998
 30
0.0
  0
VERTEX
  5
7F6
  8
LAYER_1
 10
206.7525084406355
 20
34.6407933009916
 30
0.0
  0
VERTEX
  5
7F7
  8
LAYER_1
 10
206.7637584546981
 20
51.30431413039265
 30
0.0
  0
VERTEX
  5
7F8
  8
LAYER_1
 10
194.0777425971783
 20
51.2718140897676
 30
0.0
  0
SEQEND
  5
7F9
  8
LAYER_1
  0
POLYLINE
  5
D3
  8
LAYER_1
 66
     1
 10
0.0
 20
0.0
 30
0.0
 70
     1
  0
VERTEX
  5
7FA
  8
LAYER_1
 10
3.540254425318039
 20
63.70707963384955
 30
0.0
  0
VERTEX
  5
7FB
  8
LAYER_1
 10
-9.12301140376428
 20
51.2718140897676
 30
0.0
  0
VERTEX
  5
7FC
  8
LAYER_1
 10
-21.80927726159661
 20
51.30431413039265
 30
0.0
  0
VERTEX
  5
7FD
  8
LAYER_1
 10
-21.79802724753404
 20
34.6407933009916
 30
0.0
  0
VERTEX
  5
7FE
  8
LAYER_1
 10
-27.23978404973008
 20
39.98479998099998
 30
0.0
  0
VERTEX
  5
7FF
  8
LAYER_1
 10
-40.3435504294381
 20
34.65479331849164
 30
0.0
  0
VERTEX
  5
800
  8
LAYER_1
 10
-34.91579364474211
 20
47.52230940288675
 30
0.0
  0
VERTEX
  5
801
  8
LAYER_1
 10
-40.35630044537561
 20
52.86506608133261
 30
0.0
  0
VERTEX
  5
802
  8
LAYER_1
 10
-23.38077922597409
 20
52.85381606727007
 30
0.0
  0
VERTEX
  5
803
  8
LAYER_1
 10
-23.39152923941157
 20
65.49808187260233
 30
0.0
  0
VERTEX
  5
804
  8
LAYER_1
 10
-11.01751377189225
 20
77.6493470616838
 30
0.0
  0
VERTEX
  5
805
  8
LAYER_1
 10
3.540254425318039
 20
77.56934696168369
 30
0.0
  0
VERTEX
  5
806
  8
LAYER_1
 10
18.32527290659112
 20
77.6493470616838
 30
0.0
  0
VERTEX
  5
807
  8
LAYER_1
 10
30.69953837442296
 20
65.49808187260233
 30
0.0
  0
VERTEX
  5
808
  8
LAYER_1
 10
30.68853836067291
 20
52.85381606727007
 30
0.0
  0
VERTEX
  5
809
  8
LAYER_1
 10
47.66405958007442
 20
52.86506608133261
 30
0.0
  0
VERTEX
  5
80A
  8
LAYER_1
 10
42.2238027797535
 20
47.52230940288675
 30
0.0
  0
VERTEX
  5
80B
  8
LAYER_1
 10
47.65155956444943
 20
34.65479331849164
 30
0.0
  0
VERTEX
  5
80C
  8
LAYER_1
 10
34.54779318474147
 20
39.98479998099998
 30
0.0
  0
VERTEX
  5
80D
  8
LAYER_1
 10
29.10578638223302
 20
34.6407933009916
 30
0.0
  0
VERTEX
  5
80E
  8
LAYER_1
 10
29.11728639660799
 20
51.30431413039265
 30
0.0
  0
VERTEX
  5
80F
  8
LAYER_1
 10
16.43102053877567
 20
51.2718140897676
 30
0.0
  0
SEQEND
  5
810
  8
LAYER_1
  0
POLYLINE
  5
D4
  8
LAYER_1
 66
     1
 10
0.0
 20
0.0
 30
0.0
 70
     1
  0
VERTEX
  5
811
  8
LAYER_1
 10
3.767504709380887
 20
9.784262230327773
 30
0.0
  0
VERTEX
  5
812
  8
LAYER_1
 10
-8.64976081220101
 20
21.7582771978465
 30
0.0
  0
VERTEX
  5
813
  8
LAYER_1
 10
-8.64976081220101
 20
38.48379810474761
 30
0.0
  0
VERTEX
  5
814
  8
LAYER_1
 10
-3.607754509693166
 20
38.48404810506013
 30
0.0
  0
VERTEX
  5
815
  8
LAYER_1
 10
3.540254425318039
 20
45.53180691475865
 30
0.0
  0
VERTEX
  5
816
  8
LAYER_1
 10
10.91551364439204
 20
38.48404810506013
 30
0.0
  0
VERTEX
  5
817
  8
LAYER_1
 10
15.95726994658747
 20
38.48379810474761
 30
0.0
  0
VERTEX
  5
818
  8
LAYER_1
 10
15.95726994658747
 20
21.7582771978465
 30
0.0
  0
SEQEND
  5
819
  8
LAYER_1
  0
POLYLINE
  5
D5
  8
LAYER_1
 66
     1
 10
0.0
 20
0.0
 30
0.0
 70
     1
  0
VERTEX
  5
81A
  8
LAYER_1
 10
3.721254651568302
 20
-64.28758035947546
 30
0.0
  0
VERTEX
  5
81B
  8
LAYER_1
 10
10.91551364439204
 20
-57.23982154977695
 30
0.0
  0
VERTEX
  5
81C
  8
LAYER_1
 10
15.95726994658747
 20
-57.23957154946446
 30
0.0
  0
VERTEX
  5
81D
  8
LAYER_1
 10
15.95726994658747
 20
-40.51430064287582
 30
0.0
  0
VERTEX
  5
81E
  8
LAYER_1
 10
3.721254651568302
 20
-28.5400356750446
 30
0.0
  0
VERTEX
  5
81F
  8
LAYER_1
 10
-8.468760585950747
 20
-40.51430064287582
 30
0.0
  0
VERTEX
  5
820
  8
LAYER_1
 10
-8.468760585950747
 20
-57.23957154946446
 30
0.0
  0
VERTEX
  5
821
  8
LAYER_1
 10
-3.426754283442847
 20
-57.23982154977695
 30
0.0
  0
SEQEND
  5
822
  8
LAYER_1
  0
POLYLINE
  5
D6
  8
LAYER_1
 66
     1
 10
0.0
 20
0.0
 30
0.0
 70
     1
  0
VERTEX
  5
823
  8
LAYER_1
 10
-174.1064676330845
 20
63.70707963384955
 30
0.0
  0
VERTEX
  5
824
  8
LAYER_1
 10
-186.7699834624794
 20
51.2718140897676
 30
0.0
  0
VERTEX
  5
825
  8
LAYER_1
 10
-199.4562493203117
 20
51.30431413039265
 30
0.0
  0
VERTEX
  5
826
  8
LAYER_1
 10
-199.4444993056242
 20
34.6407933009916
 30
0.0
  0
VERTEX
  5
827
  8
LAYER_1
 10
-204.8865061081327
 20
39.98479998099998
 30
0.0
  0
VERTEX
  5
828
  8
LAYER_1
 10
-217.9902724878406
 20
34.65479331849164
 30
0.0
  0
VERTEX
  5
829
  8
LAYER_1
 10
-212.5627657034571
 20
47.52230940288675
 30
0.0
  0
VERTEX
  5
82A
  8
LAYER_1
 10
-218.0030225037782
 20
52.86506608133261
 30
0.0
  0
VERTEX
  5
82B
  8
LAYER_1
 10
-201.0272512840642
 20
52.85381606727007
 30
0.0
  0
VERTEX
  5
82C
  8
LAYER_1
 10
-201.0382512978141
 20
65.49808187260233
 30
0.0
  0
VERTEX
  5
82D
  8
LAYER_1
 10
-188.6642358302948
 20
77.6493470616838
 30
0.0
  0
VERTEX
  5
82E
  8
LAYER_1
 10
-174.1064676330845
 20
77.56934696168369
 30
0.0
  0
VERTEX
  5
82F
  8
LAYER_1
 10
-159.3211991514989
 20
77.6493470616838
 30
0.0
  0
VERTEX
  5
830
  8
LAYER_1
 10
-146.947433684292
 20
65.49808187260233
 30
0.0
  0
VERTEX
  5
831
  8
LAYER_1
 10
-146.9581836977296
 20
52.85381606727007
 30
0.0
  0
VERTEX
  5
832
  8
LAYER_1
 10
-129.9826624783281
 20
52.86506608133261
 30
0.0
  0
VERTEX
  5
833
  8
LAYER_1
 10
-135.4231692789616
 20
47.52230940288675
 30
0.0
  0
VERTEX
  5
834
  8
LAYER_1
 10
-129.9954124942656
 20
34.65479331849164
 30
0.0
  0
VERTEX
  5
835
  8
LAYER_1
 10
-143.0991788739736
 20
39.98479998099998
 30
0.0
  0
VERTEX
  5
836
  8
LAYER_1
 10
-148.5409356761696
 20
34.6407933009916
 30
0.0
  0
VERTEX
  5
837
  8
LAYER_1
 10
-148.5296856621071
 20
51.30431413039265
 30
0.0
  0
VERTEX
  5
838
  8
LAYER_1
 10
-161.2159515199394
 20
51.2718140897676
 30
0.0
  0
SEQEND
  5
839
  8
LAYER_1
  0
POLYLINE
  5
D7
  8
LAYER_1
 66
     1
 10
0.0
 20
0.0
 30
0.0
 70
     1
  0
VERTEX
  5
83A
  8
LAYER_1
 10
-174.1064676330845
 20
9.784262230327773
 30
0.0
  0
VERTEX
  5
83B
  8
LAYER_1
 10
-186.2962328702911
 20
21.7582771978465
 30
0.0
  0
VERTEX
  5
83C
  8
LAYER_1
 10
-186.2962328702911
 20
38.48379810474761
 30
0.0
  0
VERTEX
  5
83D
  8
LAYER_1
 10
-181.2544765680957
 20
38.48404810506013
 30
0.0
  0
VERTEX
  5
83E
  8
LAYER_1
 10
-174.1064676330845
 20
45.53180691475865
 30
0.0
  0
VERTEX
  5
83F
  8
LAYER_1
 10
-166.7309584136981
 20
38.48404810506013
 30
0.0
  0
VERTEX
  5
840
  8
LAYER_1
 10
-161.6892021115026
 20
38.48379810474761
 30
0.0
  0
VERTEX
  5
841
  8
LAYER_1
 10
-161.6892021115026
 20
21.7582771978465
 30
0.0
  0
SEQEND
  5
842
  8
LAYER_1
  0
POLYLINE
  5
D8
  8
LAYER_1
 66
     1
 10
0.0
 20
0.0
 30
0.0
 70
     1
  0
VERTEX
  5
843
  8
LAYER_1
 10
-173.9257174071469
 20
-96.32537040671302
 30
0.0
  0
VERTEX
  5
844
  8
LAYER_1
 10
-159.3211991514989
 20
-96.40512050640064
 30
0.0
  0
VERTEX
  5
845
  8
LAYER_1
 10
-146.947433684292
 20
-84.25385531731916
 30
0.0
  0
VERTEX
  5
846
  8
LAYER_1
 10
-146.9581836977296
 20
-71.6095895119869
 30
0.0
  0
VERTEX
  5
847
  8
LAYER_1
 10
-129.9826624783281
 20
-71.62083952604942
 30
0.0
  0
VERTEX
  5
848
  8
LAYER_1
 10
-135.4231692789616
 20
-66.27833284791606
 30
0.0
  0
VERTEX
  5
849
  8
LAYER_1
 10
-129.9954124942656
 20
-53.41081676352097
 30
0.0
  0
VERTEX
  5
84A
  8
LAYER_1
 10
-143.0991788739736
 20
-58.74082342602929
 30
0.0
  0
VERTEX
  5
84B
  8
LAYER_1
 10
-148.5409356761696
 20
-53.39656674570843
 30
0.0
  0
VERTEX
  5
84C
  8
LAYER_1
 10
-148.5296856621071
 20
-70.06008757510948
 30
0.0
  0
VERTEX
  5
84D
  8
LAYER_1
 10
-161.2159515199394
 20
-70.02758753448443
 30
0.0
  0
VERTEX
  5
84E
  8
LAYER_1
 10
-173.9257174071469
 20
-82.46285307856637
 30
0.0
  0
VERTEX
  5
84F
  8
LAYER_1
 10
-186.5889832362291
 20
-70.02758753448443
 30
0.0
  0
VERTEX
  5
850
  8
LAYER_1
 10
-199.274999093749
 20
-70.06008757510948
 30
0.0
  0
VERTEX
  5
851
  8
LAYER_1
 10
-199.2637490796864
 20
-53.39656674570843
 30
0.0
  0
VERTEX
  5
852
  8
LAYER_1
 10
-204.7055058818823
 20
-58.74082342602929
 30
0.0
  0
VERTEX
  5
853
  8
LAYER_1
 10
-217.8092722615903
 20
-53.41081676352097
 30
0.0
  0
VERTEX
  5
854
  8
LAYER_1
 10
-212.3817654772068
 20
-66.27833284791606
 30
0.0
  0
VERTEX
  5
855
  8
LAYER_1
 10
-217.8222722778403
 20
-71.62083952604942
 30
0.0
  0
VERTEX
  5
856
  8
LAYER_1
 10
-200.8465010581263
 20
-71.6095895119869
 30
0.0
  0
VERTEX
  5
857
  8
LAYER_1
 10
-200.8572510715638
 20
-84.25385531731916
 30
0.0
  0
VERTEX
  5
858
  8
LAYER_1
 10
-188.4832356040446
 20
-96.40512050640064
 30
0.0
  0
SEQEND
  5
859
  8
LAYER_1
  0
POLYLINE
  5
D9
  8
LAYER_1
 66
     1
 10
0.0
 20
0.0
 30
0.0
 70
     1
  0
VERTEX
  5
85A
  8
LAYER_1
 10
358.8633235791544
 20
-10.36288795360995
 30
0.0
  0
VERTEX
  5
85B
  8
LAYER_1
 10
346.7614334517918
 20
-22.31277789097238
 30
0.0
  0
VERTEX
  5
85C
  8
LAYER_1
 10
346.7614334517918
 20
-14.75526844408556
 30
0.0
  0
VERTEX
  5
85D
  8
LAYER_1
 10
333.6579170723963
 20
-9.425511781889726
 30
0.0
  0
VERTEX
  5
85E
  8
LAYER_1
 10
346.7614334517918
 20
-4.095255119068913
 30
0.0
  0
VERTEX
  5
85F
  8
LAYER_1
 10
346.7614334517918
 20
3.460004325005396
 30
0.0
  0
VERTEX
  5
860
  8
LAYER_1
 10
358.8633235791544
 20
-8.513510641888313
 30
0.0
  0
VERTEX
  5
861
  8
LAYER_1
 10
371.2704640880801
 20
3.48475435594294
 30
0.0
  0
VERTEX
  5
862
  8
LAYER_1
 10
371.2704640880801
 20
-4.072755090943877
 30
0.0
  0
VERTEX
  5
863
  8
LAYER_1
 10
384.3744804681006
 20
-9.4027617534522
 30
0.0
  0
VERTEX
  5
864
  8
LAYER_1
 10
371.2704640880801
 20
-14.73276841596052
 30
0.0
  0
VERTEX
  5
865
  8
LAYER_1
 10
371.2704640880801
 20
-22.28827786034732
 30
0.0
  0
SEQEND
  5
866
  8
LAYER_1
  0
POLYLINE
  5
DA
  8
LAYER_1
 66
     1
 10
0.0
 20
0.0
 30
0.0
 70
     1
  0
VERTEX
  5
867
  8
LAYER_1
 10
181.2166015207519
 20
-10.36288795360995
 30
0.0
  0
VERTEX
  5
868
  8
LAYER_1
 10
169.1147113933893
 20
-22.31277789097238
 30
0.0
  0
VERTEX
  5
869
  8
LAYER_1
 10
169.1147113933893
 20
-14.75526844408556
 30
0.0
  0
VERTEX
  5
86A
  8
LAYER_1
 10
156.0109450136813
 20
-9.425511781889726
 30
0.0
  0
VERTEX
  5
86B
  8
LAYER_1
 10
169.1147113933893
 20
-4.095255119068913
 30
0.0
  0
VERTEX
  5
86C
  8
LAYER_1
 10
169.1147113933893
 20
3.460004325005396
 30
0.0
  0
VERTEX
  5
86D
  8
LAYER_1
 10
181.2166015207519
 20
-8.513510641888313
 30
0.0
  0
VERTEX
  5
86E
  8
LAYER_1
 10
193.62399202999
 20
3.48475435594294
 30
0.0
  0
VERTEX
  5
86F
  8
LAYER_1
 10
193.62399202999
 20
-4.072755090943877
 30
0.0
  0
VERTEX
  5
870
  8
LAYER_1
 10
206.727758409698
 20
-9.4027617534522
 30
0.0
  0
VERTEX
  5
871
  8
LAYER_1
 10
193.62399202999
 20
-14.73276841596052
 30
0.0
  0
VERTEX
  5
872
  8
LAYER_1
 10
193.62399202999
 20
-22.28827786034732
 30
0.0
  0
SEQEND
  5
873
  8
LAYER_1
  0
POLYLINE
  5
DB
  8
LAYER_1
 66
     1
 10
0.0
 20
0.0
 30
0.0
 70
     1
  0
VERTEX
  5
874
  8
LAYER_1
 10
3.569879462349263
 20
-10.36288795360995
 30
0.0
  0
VERTEX
  5
875
  8
LAYER_1
 10
15.9770199712749
 20
-22.28827786034732
 30
0.0
  0
VERTEX
  5
876
  8
LAYER_1
 10
15.9770199712749
 20
-14.73276841596052
 30
0.0
  0
VERTEX
  5
877
  8
LAYER_1
 10
29.08103635129544
 20
-9.4027617534522
 30
0.0
  0
VERTEX
  5
878
  8
LAYER_1
 10
15.9770199712749
 20
-4.072755090943877
 30
0.0
  0
VERTEX
  5
879
  8
LAYER_1
 10
15.9770199712749
 20
3.48475435594294
 30
0.0
  0
VERTEX
  5
87A
  8
LAYER_1
 10
3.569879462349263
 20
-8.513510641888313
 30
0.0
  0
VERTEX
  5
87B
  8
LAYER_1
 10
-8.53226066532585
 20
3.460004325005396
 30
0.0
  0
VERTEX
  5
87C
  8
LAYER_1
 10
-8.53226066532585
 20
-4.095255119068913
 30
0.0
  0
VERTEX
  5
87D
  8
LAYER_1
 10
-21.63577704472129
 20
-9.425511781889726
 30
0.0
  0
VERTEX
  5
87E
  8
LAYER_1
 10
-8.53226066532585
 20
-14.75526844408556
 30
0.0
  0
VERTEX
  5
87F
  8
LAYER_1
 10
-8.53226066532585
 20
-22.31277789097238
 30
0.0
  0
SEQEND
  5
880
  8
LAYER_1
  0
POLYLINE
  5
DC
  8
LAYER_1
 66
     1
 10
0.0
 20
0.0
 30
0.0
 70
     1
  0
VERTEX
  5
881
  8
LAYER_1
 10
1247.640059550075
 20
-9.438136797671007
 30
0.0
  0
VERTEX
  5
882
  8
LAYER_1
 10
1235.538044422556
 20
-22.31277789097238
 30
0.0
  0
VERTEX
  5
883
  8
LAYER_1
 10
1235.538044422556
 20
-14.75526844408556
 30
0.0
  0
VERTEX
  5
884
  8
LAYER_1
 10
1222.434278042848
 20
-9.425511781889726
 30
0.0
  0
VERTEX
  5
885
  8
LAYER_1
 10
1235.538044422556
 20
-4.095255119068913
 30
0.0
  0
VERTEX
  5
886
  8
LAYER_1
 10
1235.538044422556
 20
3.460004325005396
 30
0.0
  0
SEQEND
  5
887
  8
LAYER_1
  0
POLYLINE
  5
DD
  8
LAYER_1
 66
     1
 10
0.0
 20
0.0
 30
0.0
 70
     1
  0
VERTEX
  5
888
  8
LAYER_1
 10
1070.092087615109
 20
-10.36288795360995
 30
0.0
  0
VERTEX
  5
889
  8
LAYER_1
 10
1057.891072363841
 20
-22.31277789097238
 30
0.0
  0
VERTEX
  5
88A
  8
LAYER_1
 10
1057.891072363841
 20
-14.75526844408556
 30
0.0
  0
VERTEX
  5
88B
  8
LAYER_1
 10
1044.787555984445
 20
-9.425511781889726
 30
0.0
  0
VERTEX
  5
88C
  8
LAYER_1
 10
1057.891072363841
 20
-4.095255119068913
 30
0.0
  0
VERTEX
  5
88D
  8
LAYER_1
 10
1057.891072363841
 20
3.460004325005396
 30
0.0
  0
VERTEX
  5
88E
  8
LAYER_1
 10
1069.993337491672
 20
-8.513510641888313
 30
0.0
  0
VERTEX
  5
88F
  8
LAYER_1
 10
1082.400603000754
 20
3.48475435594294
 30
0.0
  0
VERTEX
  5
890
  8
LAYER_1
 10
1082.400603000754
 20
-4.072755090943877
 30
0.0
  0
VERTEX
  5
891
  8
LAYER_1
 10
1095.504369380462
 20
-9.4027617534522
 30
0.0
  0
VERTEX
  5
892
  8
LAYER_1
 10
1082.400603000754
 20
-14.73276841596052
 30
0.0
  0
VERTEX
  5
893
  8
LAYER_1
 10
1082.400603000754
 20
-22.28827786034732
 30
0.0
  0
SEQEND
  5
894
  8
LAYER_1
  0
POLYLINE
  5
DE
  8
LAYER_1
 66
     1
 10
0.0
 20
0.0
 30
0.0
 70
     1
  0
VERTEX
  5
895
  8
LAYER_1
 10
1070.167712709641
 20
-64.28758035947546
 30
0.0
  0
VERTEX
  5
896
  8
LAYER_1
 10
1062.996578745724
 20
-57.23982154977695
 30
0.0
  0
VERTEX
  5
897
  8
LAYER_1
 10
1057.954572443216
 20
-57.23957154946446
 30
0.0
  0
VERTEX
  5
898
  8
LAYER_1
 10
1057.954572443216
 20
-40.51430064287582
 30
0.0
  0
VERTEX
  5
899
  8
LAYER_1
 10
1070.144587680735
 20
-28.5400356750446
 30
0.0
  0
VERTEX
  5
89A
  8
LAYER_1
 10
1082.380852976066
 20
-40.51430064287582
 30
0.0
  0
VERTEX
  5
89B
  8
LAYER_1
 10
1082.380852976066
 20
-57.23957154946446
 30
0.0
  0
VERTEX
  5
89C
  8
LAYER_1
 10
1077.339096673871
 20
-57.23982154977695
 30
0.0
  0
SEQEND
  5
89D
  8
LAYER_1
  0
POLYLINE
  5
DF
  8
LAYER_1
 66
     1
 10
0.0
 20
0.0
 30
0.0
 70
     1
  0
VERTEX
  5
89E
  8
LAYER_1
 10
892.1719902149878
 20
63.692829616037
 30
0.0
  0
VERTEX
  5
89F
  8
LAYER_1
 10
905.2073815092269
 20
51.2718140897676
 30
0.0
  0
VERTEX
  5
8A0
  8
LAYER_1
 10
917.8938973673717
 20
51.30431413039265
 30
0.0
  0
VERTEX
  5
8A1
  8
LAYER_1
 10
917.8826473533093
 20
34.6407933009916
 30
0.0
  0
VERTEX
  5
8A2
  8
LAYER_1
 10
923.3241541551927
 20
39.98479998099998
 30
0.0
  0
VERTEX
  5
8A3
  8
LAYER_1
 10
936.4279205349006
 20
34.65479331849164
 30
0.0
  0
VERTEX
  5
8A4
  8
LAYER_1
 10
931.0001637502047
 20
47.52230940288675
 30
0.0
  0
VERTEX
  5
8A5
  8
LAYER_1
 10
936.4409205511506
 20
52.86506608133261
 30
0.0
  0
VERTEX
  5
8A6
  8
LAYER_1
 10
919.4653993317492
 20
52.85381606727007
 30
0.0
  0
VERTEX
  5
8A7
  8
LAYER_1
 10
919.4758993448742
 20
65.49808187260233
 30
0.0
  0
VERTEX
  5
8A8
  8
LAYER_1
 10
907.1021338776673
 20
77.6493470616838
 30
0.0
  0
VERTEX
  5
8A9
  8
LAYER_1
 10
892.1719902149878
 20
77.56947196183994
 30
0.0
  0
VERTEX
  5
8AA
  8
LAYER_1
 10
891.9976149970187
 20
77.56934696168369
 30
0.0
  0
VERTEX
  5
8AB
  8
LAYER_1
 10
877.4398467998085
 20
77.6493470616838
 30
0.0
  0
VERTEX
  5
8AC
  8
LAYER_1
 10
865.0658313322892
 20
65.49808187260233
 30
0.0
  0
VERTEX
  5
8AD
  8
LAYER_1
 10
865.0765813457267
 20
52.85381606727007
 30
0.0
  0
VERTEX
  5
8AE
  8
LAYER_1
 10
848.1010601263251
 20
52.86506608133261
 30
0.0
  0
VERTEX
  5
8AF
  8
LAYER_1
 10
853.5415669269587
 20
47.52230940288675
 30
0.0
  0
VERTEX
  5
8B0
  8
LAYER_1
 10
848.1138101422628
 20
34.65479331849164
 30
0.0
  0
VERTEX
  5
8B1
  8
LAYER_1
 10
861.2175765219706
 20
39.98479998099998
 30
0.0
  0
VERTEX
  5
8B2
  8
LAYER_1
 10
866.6593333241667
 20
34.6407933009916
 30
0.0
  0
VERTEX
  5
8B3
  8
LAYER_1
 10
866.6480833101041
 20
51.30431413039265
 30
0.0
  0
VERTEX
  5
8B4
  8
LAYER_1
 10
879.3343491679365
 20
51.2718140897676
 30
0.0
  0
VERTEX
  5
8B5
  8
LAYER_1
 10
891.9976149970187
 20
63.70707963384955
 30
0.0
  0
SEQEND
  5
8B6
  8
LAYER_1
  0
POLYLINE
  5
E0
  8
LAYER_1
 66
     1
 10
0.0
 20
0.0
 30
0.0
 70
     1
  0
VERTEX
  5
8B7
  8
LAYER_1
 10
892.2857403571754
 20
9.879637349546677
 30
0.0
  0
VERTEX
  5
8B8
  8
LAYER_1
 10
904.7341309176636
 20
21.7582771978465
 30
0.0
  0
VERTEX
  5
8B9
  8
LAYER_1
 10
904.7341309176636
 20
38.48379810474761
 30
0.0
  0
VERTEX
  5
8BA
  8
LAYER_1
 10
899.6923746154682
 20
38.48404810506013
 30
0.0
  0
VERTEX
  5
8BB
  8
LAYER_1
 10
892.1719902149878
 20
45.51768189710236
 30
0.0
  0
VERTEX
  5
8BC
  8
LAYER_1
 10
891.9976149970187
 20
45.53180691475865
 30
0.0
  0
VERTEX
  5
8BD
  8
LAYER_1
 10
884.8496060620076
 20
38.48404810506013
 30
0.0
  0
VERTEX
  5
8BE
  8
LAYER_1
 10
879.8075997594997
 20
38.48379810474761
 30
0.0
  0
VERTEX
  5
8BF
  8
LAYER_1
 10
879.8075997594997
 20
21.7582771978465
 30
0.0
  0
SEQEND
  5
8C0
  8
LAYER_1
  0
POLYLINE
  5
E1
  8
LAYER_1
 66
     1
 10
0.0
 20
0.0
 30
0.0
 70
     1
  0
VERTEX
  5
8C1
  8
LAYER_1
 10
892.1868652335816
 20
-10.36288795360995
 30
0.0
  0
VERTEX
  5
8C2
  8
LAYER_1
 10
904.7538809423511
 20
-22.28827786034732
 30
0.0
  0
VERTEX
  5
8C3
  8
LAYER_1
 10
904.7538809423511
 20
-14.73276841596052
 30
0.0
  0
VERTEX
  5
8C4
  8
LAYER_1
 10
917.8576473220592
 20
-9.4027617534522
 30
0.0
  0
VERTEX
  5
8C5
  8
LAYER_1
 10
904.7538809423511
 20
-4.072755090943877
 30
0.0
  0
VERTEX
  5
8C6
  8
LAYER_1
 10
904.7538809423511
 20
3.48475435594294
 30
0.0
  0
VERTEX
  5
8C7
  8
LAYER_1
 10
892.1868652335816
 20
-8.513510641888313
 30
0.0
  0
VERTEX
  5
8C8
  8
LAYER_1
 10
879.9250999063748
 20
3.460004325005396
 30
0.0
  0
VERTEX
  5
8C9
  8
LAYER_1
 10
879.9250999063748
 20
-4.095255119068913
 30
0.0
  0
VERTEX
  5
8CA
  8
LAYER_1
 10
866.8215835269793
 20
-9.425511781889726
 30
0.0
  0
VERTEX
  5
8CB
  8
LAYER_1
 10
879.9250999063748
 20
-14.75526844408556
 30
0.0
  0
VERTEX
  5
8CC
  8
LAYER_1
 10
879.9250999063748
 20
-22.31277789097238
 30
0.0
  0
SEQEND
  5
8CD
  8
LAYER_1
  0
POLYLINE
  5
E2
  8
LAYER_1
 66
     1
 10
0.0
 20
0.0
 30
0.0
 70
     1
  0
VERTEX
  5
8CE
  8
LAYER_1
 10
892.2623653279566
 20
-64.21308026635033
 30
0.0
  0
VERTEX
  5
8CF
  8
LAYER_1
 10
899.6923746154682
 20
-57.23982154977695
 30
0.0
  0
VERTEX
  5
8D0
  8
LAYER_1
 10
904.7341309176636
 20
-57.23957154946446
 30
0.0
  0
VERTEX
  5
8D1
  8
LAYER_1
 10
904.7341309176636
 20
-40.51430064287582
 30
0.0
  0
VERTEX
  5
8D2
  8
LAYER_1
 10
892.2623653279566
 20
-28.61428576785722
 30
0.0
  0
VERTEX
  5
8D3
  8
LAYER_1
 10
879.9885999857499
 20
-40.51430064287582
 30
0.0
  0
VERTEX
  5
8D4
  8
LAYER_1
 10
879.9885999857499
 20
-57.23957154946446
 30
0.0
  0
VERTEX
  5
8D5
  8
LAYER_1
 10
885.0306062882578
 20
-57.23982154977695
 30
0.0
  0
SEQEND
  5
8D6
  8
LAYER_1
  0
POLYLINE
  5
E3
  8
LAYER_1
 66
     1
 10
0.0
 20
0.0
 30
0.0
 70
     1
  0
VERTEX
  5
8D7
  8
LAYER_1
 10
892.2857403571754
 20
-96.32574540718176
 30
0.0
  0
VERTEX
  5
8D8
  8
LAYER_1
 10
907.1021338776673
 20
-96.40512050640064
 30
0.0
  0
VERTEX
  5
8D9
  8
LAYER_1
 10
919.4758993448742
 20
-84.25385531731916
 30
0.0
  0
VERTEX
  5
8DA
  8
LAYER_1
 10
919.4653993317492
 20
-71.6095895119869
 30
0.0
  0
VERTEX
  5
8DB
  8
LAYER_1
 10
936.4409205511506
 20
-71.62083952604942
 30
0.0
  0
VERTEX
  5
8DC
  8
LAYER_1
 10
931.0001637502047
 20
-66.27833284791606
 30
0.0
  0
VERTEX
  5
8DD
  8
LAYER_1
 10
936.4279205349006
 20
-53.41081676352097
 30
0.0
  0
VERTEX
  5
8DE
  8
LAYER_1
 10
923.3241541551927
 20
-58.74082342602929
 30
0.0
  0
VERTEX
  5
8DF
  8
LAYER_1
 10
917.8826473533093
 20
-53.39656674570843
 30
0.0
  0
VERTEX
  5
8E0
  8
LAYER_1
 10
917.8938973673717
 20
-70.06008757510948
 30
0.0
  0
VERTEX
  5
8E1
  8
LAYER_1
 10
905.2073815092269
 20
-70.02758753448443
 30
0.0
  0
VERTEX
  5
8E2
  8
LAYER_1
 10
892.2623653279566
 20
-82.38860298575374
 30
0.0
  0
VERTEX
  5
8E3
  8
LAYER_1
 10
879.5150993938743
 20
-70.02758753448443
 30
0.0
  0
VERTEX
  5
8E4
  8
LAYER_1
 10
866.8288335360419
 20
-70.06008757510948
 30
0.0
  0
VERTEX
  5
8E5
  8
LAYER_1
 10
866.840333550417
 20
-53.39656674570843
 30
0.0
  0
VERTEX
  5
8E6
  8
LAYER_1
 10
861.3985767482209
 20
-58.74082342602929
 30
0.0
  0
VERTEX
  5
8E7
  8
LAYER_1
 10
848.2945603682005
 20
-53.41081676352097
 30
0.0
  0
VERTEX
  5
8E8
  8
LAYER_1
 10
853.7223171528965
 20
-66.27833284791606
 30
0.0
  0
VERTEX
  5
8E9
  8
LAYER_1
 10
848.2820603525754
 20
-71.62083952604942
 30
0.0
  0
VERTEX
  5
8EA
  8
LAYER_1
 10
865.257581571977
 20
-71.6095895119869
 30
0.0
  0
VERTEX
  5
8EB
  8
LAYER_1
 10
865.2465815582269
 20
-84.25385531731916
 30
0.0
  0
VERTEX
  5
8EC
  8
LAYER_1
 10
877.6205970257463
 20
-96.40512050640064
 30
0.0
  0
SEQEND
  5
8ED
  8
LAYER_1
  0
POLYLINE
  5
E4
  8
LAYER_1
 66
     1
 10
0.0
 20
0.0
 30
0.0
 70
     1
  0
VERTEX
  5
8EE
  8
LAYER_1
 10
714.4793930992414
 20
-10.36288795360995
 30
0.0
  0
VERTEX
  5
8EF
  8
LAYER_1
 10
702.2783778479724
 20
-22.31277789097238
 30
0.0
  0
VERTEX
  5
8F0
  8
LAYER_1
 10
702.2783778479724
 20
-14.75526844408556
 30
0.0
  0
VERTEX
  5
8F1
  8
LAYER_1
 10
689.1748614685769
 20
-9.425511781889726
 30
0.0
  0
VERTEX
  5
8F2
  8
LAYER_1
 10
702.2783778479724
 20
-4.095255119068913
 30
0.0
  0
VERTEX
  5
8F3
  8
LAYER_1
 10
702.2783778479724
 20
3.460004325005396
 30
0.0
  0
VERTEX
  5
8F4
  8
LAYER_1
 10
714.3806429758038
 20
-8.513510641888313
 30
0.0
  0
VERTEX
  5
8F5
  8
LAYER_1
 10
726.7879084848856
 20
3.48475435594294
 30
0.0
  0
VERTEX
  5
8F6
  8
LAYER_1
 10
726.7879084848856
 20
-4.072755090943877
 30
0.0
  0
VERTEX
  5
8F7
  8
LAYER_1
 10
739.8916748645936
 20
-9.4027617534522
 30
0.0
  0
VERTEX
  5
8F8
  8
LAYER_1
 10
726.7879084848856
 20
-14.73276841596052
 30
0.0
  0
VERTEX
  5
8F9
  8
LAYER_1
 10
726.7879084848856
 20
-22.28827786034732
 30
0.0
  0
SEQEND
  5
8FA
  8
LAYER_1
  0
POLYLINE
  5
E5
  8
LAYER_1
 66
     1
 10
0.0
 20
0.0
 30
0.0
 70
     1
  0
VERTEX
  5
8FB
  8
LAYER_1
 10
714.5548931936164
 20
-64.28758035947546
 30
0.0
  0
VERTEX
  5
8FC
  8
LAYER_1
 10
707.3836342295428
 20
-57.23982154977695
 30
0.0
  0
VERTEX
  5
8FD
  8
LAYER_1
 10
702.3418779273475
 20
-57.23957154946446
 30
0.0
  0
VERTEX
  5
8FE
  8
LAYER_1
 10
702.3418779273475
 20
-40.51430064287582
 30
0.0
  0
VERTEX
  5
8FF
  8
LAYER_1
 10
714.531643164554
 20
-28.5400356750446
 30
0.0
  0
VERTEX
  5
900
  8
LAYER_1
 10
726.768158460198
 20
-40.51430064287582
 30
0.0
  0
VERTEX
  5
901
  8
LAYER_1
 10
726.768158460198
 20
-57.23957154946446
 30
0.0
  0
VERTEX
  5
902
  8
LAYER_1
 10
721.7264021580027
 20
-57.23982154977695
 30
0.0
  0
SEQEND
  5
903
  8
LAYER_1
  0
POLYLINE
  5
E6
  8
LAYER_1
 66
     1
 10
0.0
 20
0.0
 30
0.0
 70
     1
  0
VERTEX
  5
904
  8
LAYER_1
 10
536.5920457400572
 20
77.56934696168369
 30
0.0
  0
VERTEX
  5
905
  8
LAYER_1
 10
521.9226524033155
 20
77.6493470616838
 30
0.0
  0
VERTEX
  5
906
  8
LAYER_1
 10
509.5486369357961
 20
65.49808187260233
 30
0.0
  0
VERTEX
  5
907
  8
LAYER_1
 10
509.5593869492337
 20
52.85381606727007
 30
0.0
  0
VERTEX
  5
908
  8
LAYER_1
 10
492.5838657298322
 20
52.86506608133261
 30
0.0
  0
VERTEX
  5
909
  8
LAYER_1
 10
498.0246225307782
 20
47.52230940288675
 30
0.0
  0
VERTEX
  5
90A
  8
LAYER_1
 10
492.5966157457697
 20
34.65479331849164
 30
0.0
  0
VERTEX
  5
90B
  8
LAYER_1
 10
505.7003821254776
 20
39.98479998099998
 30
0.0
  0
VERTEX
  5
90C
  8
LAYER_1
 10
511.1421389276737
 20
34.6407933009916
 30
0.0
  0
VERTEX
  5
90D
  8
LAYER_1
 10
511.1308889136112
 20
51.30431413039265
 30
0.0
  0
VERTEX
  5
90E
  8
LAYER_1
 10
523.8171547714435
 20
51.2718140897676
 30
0.0
  0
VERTEX
  5
90F
  8
LAYER_1
 10
536.4801706002132
 20
63.70707963384955
 30
0.0
  0
VERTEX
  5
910
  8
LAYER_1
 10
549.5946869933588
 20
51.2718140897676
 30
0.0
  0
VERTEX
  5
911
  8
LAYER_1
 10
562.2812028515036
 20
51.30431413039265
 30
0.0
  0
VERTEX
  5
912
  8
LAYER_1
 10
562.2697028371285
 20
34.6407933009916
 30
0.0
  0
VERTEX
  5
913
  8
LAYER_1
 10
567.7114596393245
 20
39.98479998099998
 30
0.0
  0
VERTEX
  5
914
  8
LAYER_1
 10
580.8152260190325
 20
34.65479331849164
 30
0.0
  0
VERTEX
  5
915
  8
LAYER_1
 10
575.3874692343365
 20
47.52230940288675
 30
0.0
  0
VERTEX
  5
916
  8
LAYER_1
 10
580.8282260352826
 20
52.86506608133261
 30
0.0
  0
VERTEX
  5
917
  8
LAYER_1
 10
563.852704815881
 20
52.85381606727007
 30
0.0
  0
VERTEX
  5
918
  8
LAYER_1
 10
563.863204829006
 20
65.49808187260233
 30
0.0
  0
VERTEX
  5
919
  8
LAYER_1
 10
551.4891893614868
 20
77.6493470616838
 30
0.0
  0
SEQEND
  5
91A
  8
LAYER_1
  0
POLYLINE
  5
E7
  8
LAYER_1
 66
     1
 10
0.0
 20
0.0
 30
0.0
 70
     1
  0
VERTEX
  5
91B
  8
LAYER_1
 10
536.7059208824011
 20
9.784262230327773
 30
0.0
  0
VERTEX
  5
91C
  8
LAYER_1
 10
549.1214364017954
 20
21.7582771978465
 30
0.0
  0
VERTEX
  5
91D
  8
LAYER_1
 10
549.1214364017954
 20
38.48379810474761
 30
0.0
  0
VERTEX
  5
91E
  8
LAYER_1
 10
544.0796800996001
 20
38.48404810506013
 30
0.0
  0
VERTEX
  5
91F
  8
LAYER_1
 10
536.5931707414634
 20
45.65680707100884
 30
0.0
  0
VERTEX
  5
920
  8
LAYER_1
 10
529.3324116655145
 20
38.48404810506013
 30
0.0
  0
VERTEX
  5
921
  8
LAYER_1
 10
524.2904053630067
 20
38.48379810474761
 30
0.0
  0
VERTEX
  5
922
  8
LAYER_1
 10
524.2904053630067
 20
21.7582771978465
 30
0.0
  0
SEQEND
  5
923
  8
LAYER_1
  0
POLYLINE
  5
E8
  8
LAYER_1
 66
     1
 10
0.0
 20
0.0
 30
0.0
 70
     1
  0
VERTEX
  5
924
  8
LAYER_1
 10
536.6217957772448
 20
-10.36288795360995
 30
0.0
  0
VERTEX
  5
925
  8
LAYER_1
 10
524.4081555101944
 20
-22.31277789097238
 30
0.0
  0
VERTEX
  5
926
  8
LAYER_1
 10
524.4081555101944
 20
-14.75526844408556
 30
0.0
  0
VERTEX
  5
927
  8
LAYER_1
 10
511.3043891304864
 20
-9.425511781889726
 30
0.0
  0
VERTEX
  5
928
  8
LAYER_1
 10
524.4081555101944
 20
-4.095255119068913
 30
0.0
  0
VERTEX
  5
929
  8
LAYER_1
 10
524.4081555101944
 20
3.460004325005396
 30
0.0
  0
VERTEX
  5
92A
  8
LAYER_1
 10
536.618920773651
 20
-8.607510759388454
 30
0.0
  0
VERTEX
  5
92B
  8
LAYER_1
 10
549.1409364261706
 20
3.48475435594294
 30
0.0
  0
VERTEX
  5
92C
  8
LAYER_1
 10
549.1409364261706
 20
-4.072755090943877
 30
0.0
  0
VERTEX
  5
92D
  8
LAYER_1
 10
562.244952806191
 20
-9.4027617534522
 30
0.0
  0
VERTEX
  5
92E
  8
LAYER_1
 10
549.1409364261706
 20
-14.73276841596052
 30
0.0
  0
VERTEX
  5
92F
  8
LAYER_1
 10
549.1409364261706
 20
-22.28827786034732
 30
0.0
  0
SEQEND
  5
930
  8
LAYER_1
  0
POLYLINE
  5
E9
  8
LAYER_1
 66
     1
 10
0.0
 20
0.0
 30
0.0
 70
     1
  0
VERTEX
  5
931
  8
LAYER_1
 10
536.7731709664637
 20
-64.28758035947546
 30
0.0
  0
VERTEX
  5
932
  8
LAYER_1
 10
544.0796800996001
 20
-57.23982154977695
 30
0.0
  0
VERTEX
  5
933
  8
LAYER_1
 10
549.1214364017954
 20
-57.23957154946446
 30
0.0
  0
VERTEX
  5
934
  8
LAYER_1
 10
549.1214364017954
 20
-40.51430064287582
 30
0.0
  0
VERTEX
  5
935
  8
LAYER_1
 10
536.7731709664637
 20
-28.5400356750446
 30
0.0
  0
VERTEX
  5
936
  8
LAYER_1
 10
524.471405589257
 20
-40.51430064287582
 30
0.0
  0
VERTEX
  5
937
  8
LAYER_1
 10
524.471405589257
 20
-57.23957154946446
 30
0.0
  0
VERTEX
  5
938
  8
LAYER_1
 10
529.5131618914523
 20
-57.23982154977695
 30
0.0
  0
SEQEND
  5
939
  8
LAYER_1
  0
POLYLINE
  5
EA
  8
LAYER_1
 66
     1
 10
0.0
 20
0.0
 30
0.0
 70
     1
  0
VERTEX
  5
93A
  8
LAYER_1
 10
536.6337957922448
 20
-96.32537040671302
 30
0.0
  0
VERTEX
  5
93B
  8
LAYER_1
 10
551.4891893614868
 20
-96.40512050640064
 30
0.0
  0
VERTEX
  5
93C
  8
LAYER_1
 10
563.863204829006
 20
-84.25385531731916
 30
0.0
  0
VERTEX
  5
93D
  8
LAYER_1
 10
563.852704815881
 20
-71.6095895119869
 30
0.0
  0
VERTEX
  5
93E
  8
LAYER_1
 10
580.8282260352826
 20
-71.62083952604942
 30
0.0
  0
VERTEX
  5
93F
  8
LAYER_1
 10
575.3874692343365
 20
-66.27833284791606
 30
0.0
  0
VERTEX
  5
940
  8
LAYER_1
 10
580.8152260190325
 20
-53.41081676352097
 30
0.0
  0
VERTEX
  5
941
  8
LAYER_1
 10
567.7114596393245
 20
-58.74082342602929
 30
0.0
  0
VERTEX
  5
942
  8
LAYER_1
 10
562.2697028371285
 20
-53.39656674570843
 30
0.0
  0
VERTEX
  5
943
  8
LAYER_1
 10
562.2812028515036
 20
-70.06008757510948
 30
0.0
  0
VERTEX
  5
944
  8
LAYER_1
 10
549.5946869933588
 20
-70.02758753448443
 30
0.0
  0
VERTEX
  5
945
  8
LAYER_1
 10
536.7731709664637
 20
-82.46285307856637
 30
0.0
  0
VERTEX
  5
946
  8
LAYER_1
 10
523.9981549976937
 20
-70.02758753448443
 30
0.0
  0
VERTEX
  5
947
  8
LAYER_1
 10
511.3118891398614
 20
-70.06008757510948
 30
0.0
  0
VERTEX
  5
948
  8
LAYER_1
 10
511.3231391539239
 20
-53.39656674570843
 30
0.0
  0
VERTEX
  5
949
  8
LAYER_1
 10
505.8811323514154
 20
-58.74082342602929
 30
0.0
  0
VERTEX
  5
94A
  8
LAYER_1
 10
492.7776159720199
 20
-53.41081676352097
 30
0.0
  0
VERTEX
  5
94B
  8
LAYER_1
 10
498.2051227564035
 20
-66.27833284791606
 30
0.0
  0
VERTEX
  5
94C
  8
LAYER_1
 10
492.7648659560824
 20
-71.62083952604942
 30
0.0
  0
VERTEX
  5
94D
  8
LAYER_1
 10
509.740387175484
 20
-71.6095895119869
 30
0.0
  0
VERTEX
  5
94E
  8
LAYER_1
 10
509.7293871617339
 20
-84.25385531731916
 30
0.0
  0
VERTEX
  5
94F
  8
LAYER_1
 10
522.1036526295658
 20
-96.40512050640064
 30
0.0
  0
SEQEND
  5
950
  8
LAYER_1
  0
POLYLINE
  5
EB
  8
LAYER_1
 66
     1
 10
0.0
 20
0.0
 30
0.0
 70
     1
  0
VERTEX
  5
951
  8
LAYER_1
 10
359.0378237972798
 20
-96.32537040671302
 30
0.0
  0
VERTEX
  5
952
  8
LAYER_1
 10
373.6189670237088
 20
-96.40512050640064
 30
0.0
  0
VERTEX
  5
953
  8
LAYER_1
 10
385.9929824912281
 20
-84.25385531731916
 30
0.0
  0
VERTEX
  5
954
  8
LAYER_1
 10
385.9819824774781
 20
-71.6095895119869
 30
0.0
  0
VERTEX
  5
955
  8
LAYER_1
 10
402.9575036968796
 20
-71.62083952604942
 30
0.0
  0
VERTEX
  5
956
  8
LAYER_1
 10
397.5172468965586
 20
-66.27833284791606
 30
0.0
  0
VERTEX
  5
957
  8
LAYER_1
 10
402.9450036812546
 20
-53.41081676352097
 30
0.0
  0
VERTEX
  5
958
  8
LAYER_1
 10
389.8412373015466
 20
-58.74082342602929
 30
0.0
  0
VERTEX
  5
959
  8
LAYER_1
 10
384.3992304990381
 20
-53.39656674570843
 30
0.0
  0
VERTEX
  5
95A
  8
LAYER_1
 10
384.4104805131007
 20
-70.06008757510948
 30
0.0
  0
VERTEX
  5
95B
  8
LAYER_1
 10
371.7242146552683
 20
-70.02758753448443
 30
0.0
  0
VERTEX
  5
95C
  8
LAYER_1
 10
359.0378237972798
 20
-82.46285307856637
 30
0.0
  0
VERTEX
  5
95D
  8
LAYER_1
 10
346.3514329392912
 20
-70.02758753448443
 30
0.0
  0
VERTEX
  5
95E
  8
LAYER_1
 10
333.6649170811463
 20
-70.06008757510948
 30
0.0
  0
VERTEX
  5
95F
  8
LAYER_1
 10
333.6764170955214
 20
-53.39656674570843
 30
0.0
  0
VERTEX
  5
960
  8
LAYER_1
 10
328.2346602933254
 20
-58.74082342602929
 30
0.0
  0
VERTEX
  5
961
  8
LAYER_1
 10
315.1308939136174
 20
-53.41081676352097
 30
0.0
  0
VERTEX
  5
962
  8
LAYER_1
 10
320.5586506983134
 20
-66.27833284791606
 30
0.0
  0
VERTEX
  5
963
  8
LAYER_1
 10
315.1178938973674
 20
-71.62083952604942
 30
0.0
  0
VERTEX
  5
964
  8
LAYER_1
 10
332.0934151167689
 20
-71.6095895119869
 30
0.0
  0
VERTEX
  5
965
  8
LAYER_1
 10
332.0829151036439
 20
-84.25385531731916
 30
0.0
  0
VERTEX
  5
966
  8
LAYER_1
 10
344.4569305711632
 20
-96.40512050640064
 30
0.0
  0
SEQEND
  5
967
  8
LAYER_1
  0
POLYLINE
  5
EC
  8
LAYER_1
 66
     1
 10
0.0
 20
0.0
 30
0.0
 70
     1
  0
VERTEX
  5
968
  8
LAYER_1
 10
181.3008516260645
 20
9.784262230327773
 30
0.0
  0
VERTEX
  5
969
  8
LAYER_1
 10
193.6042420053025
 20
21.7582771978465
 30
0.0
  0
VERTEX
  5
96A
  8
LAYER_1
 10
193.6042420053025
 20
38.48379810474761
 30
0.0
  0
VERTEX
  5
96B
  8
LAYER_1
 10
188.5624857031071
 20
38.48404810506013
 30
0.0
  0
VERTEX
  5
96C
  8
LAYER_1
 10
181.4144767680959
 20
45.53180691475865
 30
0.0
  0
VERTEX
  5
96D
  8
LAYER_1
 10
174.0387175483969
 20
38.48404810506013
 30
0.0
  0
VERTEX
  5
96E
  8
LAYER_1
 10
168.9969612462016
 20
38.48379810474761
 30
0.0
  0
VERTEX
  5
96F
  8
LAYER_1
 10
168.9969612462016
 20
21.7582771978465
 30
0.0
  0
SEQEND
  5
970
  8
LAYER_1
  0
POLYLINE
  5
ED
  8
LAYER_1
 66
     1
 10
0.0
 20
0.0
 30
0.0
 70
     1
  0
VERTEX
  5
971
  8
LAYER_1
 10
181.3911017388772
 20
-64.28758035947546
 30
0.0
  0
VERTEX
  5
972
  8
LAYER_1
 10
188.5624857031071
 20
-57.23982154977695
 30
0.0
  0
VERTEX
  5
973
  8
LAYER_1
 10
193.6042420053025
 20
-57.23957154946446
 30
0.0
  0
VERTEX
  5
974
  8
LAYER_1
 10
193.6042420053025
 20
-40.51430064287582
 30
0.0
  0
VERTEX
  5
975
  8
LAYER_1
 10
181.3911017388772
 20
-28.5400356750446
 30
0.0
  0
VERTEX
  5
976
  8
LAYER_1
 10
169.1779614724518
 20
-40.51430064287582
 30
0.0
  0
VERTEX
  5
977
  8
LAYER_1
 10
169.1779614724518
 20
-57.23957154946446
 30
0.0
  0
VERTEX
  5
978
  8
LAYER_1
 10
174.2199677749597
 20
-57.23982154977695
 30
0.0
  0
SEQEND
  5
979
  8
LAYER_1
  0
POLYLINE
  5
EE
  8
LAYER_1
 66
     1
 10
0.0
 20
0.0
 30
0.0
 70
     1
  0
VERTEX
  5
97A
  8
LAYER_1
 10
181.3911017388772
 20
-96.32537040671302
 30
0.0
  0
VERTEX
  5
97B
  8
LAYER_1
 10
195.9719949649937
 20
-96.40512050640064
 30
0.0
  0
VERTEX
  5
97C
  8
LAYER_1
 10
208.346010432513
 20
-84.25385531731916
 30
0.0
  0
VERTEX
  5
97D
  8
LAYER_1
 10
208.3352604190755
 20
-71.6095895119869
 30
0.0
  0
VERTEX
  5
97E
  8
LAYER_1
 10
225.3110316387895
 20
-71.62083952604942
 30
0.0
  0
VERTEX
  5
97F
  8
LAYER_1
 10
219.8705248381561
 20
-66.27833284791606
 30
0.0
  0
VERTEX
  5
980
  8
LAYER_1
 10
225.2980316225395
 20
-53.41081676352097
 30
0.0
  0
VERTEX
  5
981
  8
LAYER_1
 10
212.1942652428316
 20
-58.74082342602929
 30
0.0
  0
VERTEX
  5
982
  8
LAYER_1
 10
206.7525084406355
 20
-53.39656674570843
 30
0.0
  0
VERTEX
  5
983
  8
LAYER_1
 10
206.7637584546981
 20
-70.06008757510948
 30
0.0
  0
VERTEX
  5
984
  8
LAYER_1
 10
194.0777425971783
 20
-70.02758753448443
 30
0.0
  0
VERTEX
  5
985
  8
LAYER_1
 10
181.3911017388772
 20
-82.46285307856637
 30
0.0
  0
VERTEX
  5
986
  8
LAYER_1
 10
168.7047108808886
 20
-70.02758753448443
 30
0.0
  0
VERTEX
  5
987
  8
LAYER_1
 10
156.0184450230562
 20
-70.06008757510948
 30
0.0
  0
VERTEX
  5
988
  8
LAYER_1
 10
156.0296950371188
 20
-53.39656674570843
 30
0.0
  0
VERTEX
  5
989
  8
LAYER_1
 10
150.5879382349228
 20
-58.74082342602929
 30
0.0
  0
VERTEX
  5
98A
  8
LAYER_1
 10
137.4841718552148
 20
-53.41081676352097
 30
0.0
  0
VERTEX
  5
98B
  8
LAYER_1
 10
142.9116786395983
 20
-66.27833284791606
 30
0.0
  0
VERTEX
  5
98C
  8
LAYER_1
 10
137.4714218392773
 20
-71.62083952604942
 30
0.0
  0
VERTEX
  5
98D
  8
LAYER_1
 10
154.4469430586788
 20
-71.6095895119869
 30
0.0
  0
VERTEX
  5
98E
  8
LAYER_1
 10
154.4361930452413
 20
-84.25385531731916
 30
0.0
  0
VERTEX
  5
98F
  8
LAYER_1
 10
166.8099585124481
 20
-96.40512050640064
 30
0.0
  0
SEQEND
  5
990
  8
LAYER_1
  0
POLYLINE
  5
EF
  8
LAYER_1
 66
     1
 10
0.0
 20
0.0
 30
0.0
 70
     1
  0
VERTEX
  5
991
  8
LAYER_1
 10
3.744379680474594
 20
-96.32537040671302
 30
0.0
  0
VERTEX
  5
992
  8
LAYER_1
 10
-10.83651354564194
 20
-96.40512050640064
 30
0.0
  0
VERTEX
  5
993
  8
LAYER_1
 10
-23.21077901347377
 20
-84.25385531731916
 30
0.0
  0
VERTEX
  5
994
  8
LAYER_1
 10
-23.19977899972372
 20
-71.6095895119869
 30
0.0
  0
VERTEX
  5
995
  8
LAYER_1
 10
-40.17530021912529
 20
-71.62083952604942
 30
0.0
  0
VERTEX
  5
996
  8
LAYER_1
 10
-34.73504341880431
 20
-66.27833284791606
 30
0.0
  0
VERTEX
  5
997
  8
LAYER_1
 10
-40.16280020350024
 20
-53.41081676352097
 30
0.0
  0
VERTEX
  5
998
  8
LAYER_1
 10
-27.05878382347976
 20
-58.74082342602929
 30
0.0
  0
VERTEX
  5
999
  8
LAYER_1
 10
-21.61702702128383
 20
-53.39656674570843
 30
0.0
  0
VERTEX
  5
99A
  8
LAYER_1
 10
-21.62852703565881
 20
-70.06008757510948
 30
0.0
  0
VERTEX
  5
99B
  8
LAYER_1
 10
-8.942261177826481
 20
-70.02758753448443
 30
0.0
  0
VERTEX
  5
99C
  8
LAYER_1
 10
3.721254651568302
 20
-82.46285307856637
 30
0.0
  0
VERTEX
  5
99D
  8
LAYER_1
 10
16.43102053877567
 20
-70.02758753448443
 30
0.0
  0
VERTEX
  5
99E
  8
LAYER_1
 10
29.11728639660799
 20
-70.06008757510948
 30
0.0
  0
VERTEX
  5
99F
  8
LAYER_1
 10
29.10578638223302
 20
-53.39656674570843
 30
0.0
  0
VERTEX
  5
9A0
  8
LAYER_1
 10
34.54779318474147
 20
-58.74082342602929
 30
0.0
  0
VERTEX
  5
9A1
  8
LAYER_1
 10
47.65155956444943
 20
-53.41081676352097
 30
0.0
  0
VERTEX
  5
9A2
  8
LAYER_1
 10
42.2238027797535
 20
-66.27833284791606
 30
0.0
  0
VERTEX
  5
9A3
  8
LAYER_1
 10
47.66405958007442
 20
-71.62083952604942
 30
0.0
  0
VERTEX
  5
9A4
  8
LAYER_1
 10
30.68853836067291
 20
-71.6095895119869
 30
0.0
  0
VERTEX
  5
9A5
  8
LAYER_1
 10
30.69953837442296
 20
-84.25385531731916
 30
0.0
  0
VERTEX
  5
9A6
  8
LAYER_1
 10
18.32527290659112
 20
-96.40512050640064
 30
0.0
  0
SEQEND
  5
9A7
  8
LAYER_1
  0
POLYLINE
  5
F0
  8
LAYER_1
 66
     1
 10
0.0
 20
0.0
 30
0.0
 70
     1
  0
VERTEX
  5
9A8
  8
LAYER_1
 10
-173.9779674724593
 20
-10.36288795360995
 30
0.0
  0
VERTEX
  5
9A9
  8
LAYER_1
 10
-186.1787327234159
 20
-22.31277789097238
 30
0.0
  0
VERTEX
  5
9AA
  8
LAYER_1
 10
-186.1787327234159
 20
-14.75526844408556
 30
0.0
  0
VERTEX
  5
9AB
  8
LAYER_1
 10
-199.2822491028113
 20
-9.425511781889726
 30
0.0
  0
VERTEX
  5
9AC
  8
LAYER_1
 10
-186.1787327234159
 20
-4.095255119068913
 30
0.0
  0
VERTEX
  5
9AD
  8
LAYER_1
 10
-186.1787327234159
 20
3.460004325005396
 30
0.0
  0
VERTEX
  5
9AE
  8
LAYER_1
 10
-174.076717595897
 20
-8.513510641888313
 30
0.0
  0
VERTEX
  5
9AF
  8
LAYER_1
 10
-161.6694520868151
 20
3.48475435594294
 30
0.0
  0
VERTEX
  5
9B0
  8
LAYER_1
 10
-161.6694520868151
 20
-4.072755090943877
 30
0.0
  0
VERTEX
  5
9B1
  8
LAYER_1
 10
-148.5656857071071
 20
-9.4027617534522
 30
0.0
  0
VERTEX
  5
9B2
  8
LAYER_1
 10
-161.6694520868151
 20
-14.73276841596052
 30
0.0
  0
VERTEX
  5
9B3
  8
LAYER_1
 10
-161.6694520868151
 20
-22.28827786034732
 30
0.0
  0
SEQEND
  5
9B4
  8
LAYER_1
  0
POLYLINE
  5
F1
  8
LAYER_1
 66
     1
 10
0.0
 20
0.0
 30
0.0
 70
     1
  0
VERTEX
  5
9B5
  8
LAYER_1
 10
-173.902342377928
 20
-64.28758035947546
 30
0.0
  0
VERTEX
  5
9B6
  8
LAYER_1
 10
-166.7309584136981
 20
-57.23982154977695
 30
0.0
  0
VERTEX
  5
9B7
  8
LAYER_1
 10
-161.6892021115026
 20
-57.23957154946446
 30
0.0
  0
VERTEX
  5
9B8
  8
LAYER_1
 10
-161.6892021115026
 20
-40.51430064287582
 30
0.0
  0
VERTEX
  5
9B9
  8
LAYER_1
 10
-173.9257174071469
 20
-28.5400356750446
 30
0.0
  0
VERTEX
  5
9BA
  8
LAYER_1
 10
-186.1154826443534
 20
-40.51430064287582
 30
0.0
  0
VERTEX
  5
9BB
  8
LAYER_1
 10
-186.1154826443534
 20
-57.23957154946446
 30
0.0
  0
VERTEX
  5
9BC
  8
LAYER_1
 10
-181.073726342158
 20
-57.23982154977695
 30
0.0
  0
SEQEND
  5
9BD
  8
LAYER_1
  0
POLYLINE
  5
F2
  8
LAYER_1
 66
     1
 10
0.0
 20
0.0
 30
0.0
 70
     1
  0
VERTEX
  5
9BE
  8
LAYER_1
 10
-351.7236896546121
 20
-9.438261797827252
 30
0.0
  0
VERTEX
  5
9BF
  8
LAYER_1
 10
-339.3164241455302
 20
-22.28827786034732
 30
0.0
  0
VERTEX
  5
9C0
  8
LAYER_1
 10
-339.3164241455302
 20
-14.73276841596052
 30
0.0
  0
VERTEX
  5
9C1
  8
LAYER_1
 10
-326.2124077655096
 20
-9.4027617534522
 30
0.0
  0
VERTEX
  5
9C2
  8
LAYER_1
 10
-339.3164241455302
 20
-4.072755090943877
 30
0.0
  0
VERTEX
  5
9C3
  8
LAYER_1
 10
-339.3164241455302
 20
3.48475435594294
 30
0.0
  0
SEQEND
  5
9C4
  8
LAYER_1
  0
POLYLINE
  5
F3
  8
LAYER_1
 66
     1
 10
0.0
 20
0.0
 30
0.0
  0
VERTEX
  5
9C5
  8
LAYER_1
 10
1247.610559513199
 20
63.70707963384955
 30
0.0
  0
VERTEX
  5
9C6
  8
LAYER_1
 10
1234.947043683805
 20
51.2718140897676
 30
0.0
  0
VERTEX
  5
9C7
  8
LAYER_1
 10
1222.260777825972
 20
51.30431413039265
 30
0.0
  0
VERTEX
  5
9C8
  8
LAYER_1
 10
1222.272277840347
 20
34.6407933009916
 30
0.0
  0
VERTEX
  5
9C9
  8
LAYER_1
 10
1216.830271037839
 20
39.98479998099998
 30
0.0
  0
VERTEX
  5
9CA
  8
LAYER_1
 10
1203.726504658131
 20
34.65479331849164
 30
0.0
  0
VERTEX
  5
9CB
  8
LAYER_1
 10
1209.154261442827
 20
47.52230940288675
 30
0.0
  0
VERTEX
  5
9CC
  8
LAYER_1
 10
1203.714004642506
 20
52.86506608133261
 30
0.0
  0
VERTEX
  5
9CD
  8
LAYER_1
 10
1220.689275861595
 20
52.85381606727007
 30
0.0
  0
VERTEX
  5
9CE
  8
LAYER_1
 10
1220.678525848157
 20
65.49808187260233
 30
0.0
  0
VERTEX
  5
9CF
  8
LAYER_1
 10
1233.052791315989
 20
77.6493470616838
 30
0.0
  0
VERTEX
  5
9D0
  8
LAYER_1
 10
1247.610559513199
 20
77.56934696168369
 30
0.0
  0
SEQEND
  5
9D1
  8
LAYER_1
  0
POLYLINE
  5
F4
  8
LAYER_1
 66
     1
 10
0.0
 20
0.0
 30
0.0
  0
VERTEX
  5
9D2
  8
LAYER_1
 10
1247.837809797262
 20
9.784262230327773
 30
0.0
  0
VERTEX
  5
9D3
  8
LAYER_1
 10
1235.420294275368
 20
21.7582771978465
 30
0.0
  0
VERTEX
  5
9D4
  8
LAYER_1
 10
1235.420294275368
 20
38.48379810474761
 30
0.0
  0
VERTEX
  5
9D5
  8
LAYER_1
 10
1240.462300577876
 20
38.48404810506013
 30
0.0
  0
VERTEX
  5
9D6
  8
LAYER_1
 10
1247.610559513199
 20
45.53180691475865
 30
0.0
  0
SEQEND
  5
9D7
  8
LAYER_1
  0
POLYLINE
  5
F5
  8
LAYER_1
 66
     1
 10
0.0
 20
0.0
 30
0.0
  0
VERTEX
  5
9D8
  8
LAYER_1
 10
1247.791309739137
 20
-28.5400356750446
 30
0.0
  0
VERTEX
  5
9D9
  8
LAYER_1
 10
1235.601294501618
 20
-40.51430064287582
 30
0.0
  0
VERTEX
  5
9DA
  8
LAYER_1
 10
1235.601294501618
 20
-57.23957154946446
 30
0.0
  0
VERTEX
  5
9DB
  8
LAYER_1
 10
1240.643300804126
 20
-57.23982154977695
 30
0.0
  0
VERTEX
  5
9DC
  8
LAYER_1
 10
1247.791309739137
 20
-64.28758035947546
 30
0.0
  0
SEQEND
  5
9DD
  8
LAYER_1
  0
POLYLINE
  5
F6
  8
LAYER_1
 66
     1
 10
0.0
 20
0.0
 30
0.0
  0
VERTEX
  5
9DE
  8
LAYER_1
 10
1247.791309739137
 20
-82.46285307856637
 30
0.0
  0
VERTEX
  5
9DF
  8
LAYER_1
 10
1235.128043910055
 20
-70.02758753448443
 30
0.0
  0
VERTEX
  5
9E0
  8
LAYER_1
 10
1222.441778052223
 20
-70.06008757510948
 30
0.0
  0
VERTEX
  5
9E1
  8
LAYER_1
 10
1222.453028066285
 20
-53.39656674570843
 30
0.0
  0
VERTEX
  5
9E2
  8
LAYER_1
 10
1217.011521264402
 20
-58.74082342602929
 30
0.0
  0
VERTEX
  5
9E3
  8
LAYER_1
 10
1203.907254884069
 20
-53.41081676352097
 30
0.0
  0
VERTEX
  5
9E4
  8
LAYER_1
 10
1209.335011668765
 20
-66.27833284791606
 30
0.0
  0
VERTEX
  5
9E5
  8
LAYER_1
 10
1203.894754868444
 20
-71.62083952604942
 30
0.0
  0
VERTEX
  5
9E6
  8
LAYER_1
 10
1220.870276087845
 20
-71.6095895119869
 30
0.0
  0
VERTEX
  5
9E7
  8
LAYER_1
 10
1220.859526074408
 20
-84.25385531731916
 30
0.0
  0
VERTEX
  5
9E8
  8
LAYER_1
 10
1233.233291541615
 20
-96.40512050640064
 30
0.0
  0
VERTEX
  5
9E9
  8
LAYER_1
 10
1247.791309739137
 20
-96.32537040671302
 30
0.0
  0
SEQEND
  5
9EA
  8
LAYER_1
  0
POLYLINE
  5
F7
  8
LAYER_1
 66
     1
 10
0.0
 20
0.0
 30
0.0
  0
VERTEX
  5
9EB
  8
LAYER_1
 10
-351.7534396917996
 20
63.70707963384955
 30
0.0
  0
VERTEX
  5
9EC
  8
LAYER_1
 10
-338.862673578342
 20
51.2718140897676
 30
0.0
  0
VERTEX
  5
9ED
  8
LAYER_1
 10
-326.1761577201971
 20
51.30431413039265
 30
0.0
  0
VERTEX
  5
9EE
  8
LAYER_1
 10
-326.1876577345722
 20
34.6407933009916
 30
0.0
  0
VERTEX
  5
9EF
  8
LAYER_1
 10
-320.7459009323761
 20
39.98479998099998
 30
0.0
  0
VERTEX
  5
9F0
  8
LAYER_1
 10
-307.6421345526683
 20
34.65479331849164
 30
0.0
  0
VERTEX
  5
9F1
  8
LAYER_1
 10
-313.0698913373643
 20
47.52230940288675
 30
0.0
  0
VERTEX
  5
9F2
  8
LAYER_1
 10
-307.6291345364182
 20
52.86506608133261
 30
0.0
  0
VERTEX
  5
9F3
  8
LAYER_1
 10
-324.6046557558197
 20
52.85381606727007
 30
0.0
  0
VERTEX
  5
9F4
  8
LAYER_1
 10
-324.5941557426947
 20
65.49808187260233
 30
0.0
  0
VERTEX
  5
9F5
  8
LAYER_1
 10
-336.968171210214
 20
77.6493470616838
 30
0.0
  0
VERTEX
  5
9F6
  8
LAYER_1
 10
-351.7534396917996
 20
77.56934696168369
 30
0.0
  0
SEQEND
  5
9F7
  8
LAYER_1
  0
POLYLINE
  5
F8
  8
LAYER_1
 66
     1
 10
0.0
 20
0.0
 30
0.0
  0
VERTEX
  5
9F8
  8
LAYER_1
 10
-351.5256894071118
 20
9.784262230327773
 30
0.0
  0
VERTEX
  5
9F9
  8
LAYER_1
 10
-339.3356741695927
 20
21.7582771978465
 30
0.0
  0
VERTEX
  5
9FA
  8
LAYER_1
 10
-339.3356741695927
 20
38.48379810474761
 30
0.0
  0
VERTEX
  5
9FB
  8
LAYER_1
 10
-344.3776804721007
 20
38.48404810506013
 30
0.0
  0
VERTEX
  5
9FC
  8
LAYER_1
 10
-351.7534396917996
 20
45.53180691475865
 30
0.0
  0
SEQEND
  5
9FD
  8
LAYER_1
  0
POLYLINE
  5
F9
  8
LAYER_1
 66
     1
 10
0.0
 20
0.0
 30
0.0
  0
VERTEX
  5
9FE
  8
LAYER_1
 10
-351.5724394655493
 20
-28.5400356750446
 30
0.0
  0
VERTEX
  5
9FF
  8
LAYER_1
 10
-339.3356741695927
 20
-40.51430064287582
 30
0.0
  0
VERTEX
  5
A00
  8
LAYER_1
 10
-339.3356741695927
 20
-57.23957154946446
 30
0.0
  0
VERTEX
  5
A01
  8
LAYER_1
 10
-344.3776804721007
 20
-57.23982154977695
 30
0.0
  0
VERTEX
  5
A02
  8
LAYER_1
 10
-351.5724394655493
 20
-64.28758035947546
 30
0.0
  0
SEQEND
  5
A03
  8
LAYER_1
  0
POLYLINE
  5
FA
  8
LAYER_1
 66
     1
 10
0.0
 20
0.0
 30
0.0
  0
VERTEX
  5
A04
  8
LAYER_1
 10
-351.5724394655493
 20
-82.46285307856637
 30
0.0
  0
VERTEX
  5
A05
  8
LAYER_1
 10
-338.862673578342
 20
-70.02758753448443
 30
0.0
  0
VERTEX
  5
A06
  8
LAYER_1
 10
-326.1761577201971
 20
-70.06008757510948
 30
0.0
  0
VERTEX
  5
A07
  8
LAYER_1
 10
-326.1876577345722
 20
-53.39656674570843
 30
0.0
  0
VERTEX
  5
A08
  8
LAYER_1
 10
-320.7459009323761
 20
-58.74082342602929
 30
0.0
  0
VERTEX
  5
A09
  8
LAYER_1
 10
-307.6421345526683
 20
-53.41081676352097
 30
0.0
  0
VERTEX
  5
A0A
  8
LAYER_1
 10
-313.0698913373643
 20
-66.27833284791606
 30
0.0
  0
VERTEX
  5
A0B
  8
LAYER_1
 10
-307.6291345364182
 20
-71.62083952604942
 30
0.0
  0
VERTEX
  5
A0C
  8
LAYER_1
 10
-324.6046557558197
 20
-71.6095895119869
 30
0.0
  0
VERTEX
  5
A0D
  8
LAYER_1
 10
-324.5941557426947
 20
-84.25385531731916
 30
0.0
  0
VERTEX
  5
A0E
  8
LAYER_1
 10
-336.968171210214
 20
-96.40512050640064
 30
0.0
  0
VERTEX
  5
A0F
  8
LAYER_1
 10
-351.5256894071118
 20
-96.32537040671302
 30
0.0
  0
SEQEND
  5
A10
  8
LAYER_1
  0
POLYLINE
  5
FC
  8
G
 66
     1
 10
0.0
 20
0.0
 30
0.0
  0
VERTEX
  5
A11
  8
G
 10
1233.052791315989
 20
77.6493470616838
 30
0.0
  0
VERTEX
  5
A12
  8
G
 10
1214.262517828147
 20
77.48884686105855
 30
0.0
  0
SEQEND
  5
A13
  8
G
  0
POLYLINE
  5
FD
  8
G
 66
     1
 10
0.0
 20
0.0
 30
0.0
  0
VERTEX
  5
A14
  8
G
 10
1247.610559513199
 20
54.60031825039781
 30
0.0
  0
VERTEX
  5
A15
  8
G
 10
1237.830547288184
 20
44.9965562456953
 30
0.0
  0
VERTEX
  5
A16
  8
G
 10
1228.882786103483
 20
44.9965562456953
 30
0.0
  0
VERTEX
  5
A17
  8
G
 10
1228.882786103483
 20
28.38903548629436
 30
0.0
  0
SEQEND
  5
A18
  8
G
  0
POLYLINE
  5
FE
  8
G
 66
     1
 10
0.0
 20
0.0
 30
0.0
  0
VERTEX
  5
A19
  8
G
 10
1171.838214797769
 20
84.26910533638167
 30
0.0
  0
VERTEX
  5
A1A
  8
G
 10
1247.959809949763
 20
84.26910533638167
 30
0.0
  0
SEQEND
  5
A1B
  8
G
  0
POLYLINE
  5
FF
  8
G
 66
     1
 10
0.0
 20
0.0
 30
0.0
  0
VERTEX
  5
A1C
  8
G
 10
1178.507223134029
 20
77.61884702355877
 30
0.0
  0
VERTEX
  5
A1D
  8
G
 10
1165.884207355259
 20
90.20536275670344
 30
0.0
  0
SEQEND
  5
A1E
  8
G
  0
POLYLINE
  5
100
  8
G
 66
     1
 10
0.0
 20
0.0
 30
0.0
  0
VERTEX
  5
A1F
  8
G
 10
1190.639738299673
 20
65.80533225666531
 30
0.0
  0
VERTEX
  5
A20
  8
G
 10
1172.076715095894
 20
65.8115822644778
 30
0.0
  0
SEQEND
  5
A21
  8
G
  0
POLYLINE
  5
101
  8
G
 66
     1
 10
0.0
 20
0.0
 30
0.0
  0
VERTEX
  5
A22
  8
G
 10
1203.801004751256
 20
52.85556606945757
 30
0.0
  0
VERTEX
  5
A23
  8
G
 10
1185.200981501227
 20
52.93756617195771
 30
0.0
  0
SEQEND
  5
A24
  8
G
  0
POLYLINE
  5
102
  8
G
 66
     1
 10
0.0
 20
0.0
 30
0.0
  0
VERTEX
  5
A25
  8
G
 10
1222.35952794941
 20
34.6312932891166
 30
0.0
  0
VERTEX
  5
A26
  8
G
 10
1235.42054427568
 20
21.75802719753399
 30
0.0
  0
SEQEND
  5
A27
  8
G
  0
POLYLINE
  5
103
  8
G
 66
     1
 10
0.0
 20
0.0
 30
0.0
  0
VERTEX
  5
A28
  8
G
 10
1203.815004768756
 20
34.64354330442913
 30
0.0
  0
VERTEX
  5
A29
  8
G
 10
1196.772245965307
 20
17.80377225471532
 30
0.0
  0
SEQEND
  5
A2A
  8
G
  0
POLYLINE
  5
104
  8
G
 66
     1
 10
0.0
 20
0.0
 30
0.0
  0
VERTEX
  5
A2B
  8
G
 10
1139.294174117718
 20
77.61909702387125
 30
0.0
  0
VERTEX
  5
A2C
  8
G
 10
1157.804697255872
 20
77.61909702387125
 30
0.0
  0
SEQEND
  5
A2D
  8
G
  0
POLYLINE
  5
105
  8
G
 66
     1
 10
0.0
 20
0.0
 30
0.0
  0
VERTEX
  5
A2E
  8
G
 10
1235.538044422556
 20
3.460254325317905
 30
0.0
  0
VERTEX
  5
A2F
  8
G
 10
1222.495028118785
 20
16.35127043908804
 30
0.0
  0
SEQEND
  5
A30
  8
G
  0
POLYLINE
  5
106
  8
G
 66
     1
 10
0.0
 20
0.0
 30
0.0
  0
VERTEX
  5
A31
  8
G
 10
1235.538044422556
 20
3.460254325317905
 30
0.0
  0
VERTEX
  5
A32
  8
G
 10
1222.495028118785
 20
16.35127043908804
 30
0.0
  0
SEQEND
  5
A33
  8
G
  0
POLYLINE
  5
107
  8
G
 66
     1
 10
0.0
 20
0.0
 30
0.0
  0
VERTEX
  5
A34
  8
G
 10
1145.830932288665
 20
65.8115822644778
 30
0.0
  0
VERTEX
  5
A35
  8
G
 10
1132.703665879582
 20
52.94231617789521
 30
0.0
  0
SEQEND
  5
A36
  8
G
  0
POLYLINE
  5
108
  8
G
 66
     1
 10
0.0
 20
0.0
 30
0.0
  0
VERTEX
  5
A37
  8
G
 10
1200.455500569376
 20
26.3695329619162
 30
0.0
  0
VERTEX
  5
A38
  8
G
 10
1215.487519359399
 20
32.48379060473826
 30
0.0
  0
VERTEX
  5
A39
  8
G
 10
1247.817809772262
 20
0.7352509190636383
 30
0.0
  0
SEQEND
  5
A3A
  8
G
  0
POLYLINE
  5
109
  8
G
 66
     1
 10
0.0
 20
0.0
 30
0.0
  0
VERTEX
  5
A3B
  8
G
 10
1186.680233350292
 20
27.67828459785574
 30
0.0
  0
VERTEX
  5
A3C
  8
G
 10
1179.592224490281
 20
10.87351359189199
 30
0.0
  0
SEQEND
  5
A3D
  8
G
  0
POLYLINE
  5
10A
  8
G
 66
     1
 10
0.0
 20
0.0
 30
0.0
  0
VERTEX
  5
A3E
  8
G
 10
1162.527203159004
 20
44.56855571069464
 30
0.0
  0
VERTEX
  5
A3F
  8
G
 10
1168.753210941514
 20
59.32957416196768
 30
0.0
  0
VERTEX
  5
A40
  8
G
 10
1214.262517828147
 20
59.35107418884273
 30
0.0
  0
VERTEX
  5
A41
  8
G
 10
1214.262517828147
 20
68.2978353722942
 30
0.0
  0
VERTEX
  5
A42
  8
G
 10
1223.716029645037
 20
77.5808469760587
 30
0.0
  0
SEQEND
  5
A43
  8
G
  0
POLYLINE
  5
10B
  8
G
 66
     1
 10
0.0
 20
0.0
 30
0.0
  0
VERTEX
  5
A44
  8
G
 10
1127.263909079886
 20
65.80533225666531
 30
0.0
  0
VERTEX
  5
A45
  8
G
 10
1114.087642609553
 20
52.86506608133261
 30
0.0
  0
SEQEND
  5
A46
  8
G
  0
POLYLINE
  5
10C
  8
G
 66
     1
 10
0.0
 20
0.0
 30
0.0
  0
VERTEX
  5
A47
  8
G
 10
1166.05520756901
 20
36.09804512255641
 30
0.0
  0
VERTEX
  5
A48
  8
G
 10
1158.954948693686
 20
52.94356617945772
 30
0.0
  0
SEQEND
  5
A49
  8
G
  0
POLYLINE
  5
10D
  8
G
 66
     1
 10
0.0
 20
0.0
 30
0.0
  0
VERTEX
  5
A4A
  8
G
 10
1096.733120916401
 20
84.20435525544404
 30
0.0
  0
VERTEX
  5
A4B
  8
G
 10
1162.619703274629
 20
84.26910533638167
 30
0.0
  0
VERTEX
  5
A4C
  8
G
 10
1181.418476773096
 20
65.80883226104032
 30
0.0
  0
SEQEND
  5
A4D
  8
G
  0
POLYLINE
  5
10E
  8
G
 66
     1
 10
0.0
 20
0.0
 30
0.0
  0
VERTEX
  5
A4E
  8
G
 10
1103.538629423287
 20
77.48884686105855
 30
0.0
  0
VERTEX
  5
A4F
  8
G
 10
1090.650863313579
 20
90.20536275670344
 30
0.0
  0
SEQEND
  5
A50
  8
G
  0
POLYLINE
  5
10F
  8
G
 66
     1
 10
0.0
 20
0.0
 30
0.0
  0
VERTEX
  5
A51
  8
G
 10
1182.604228255285
 20
19.29852412315514
 30
0.0
  0
VERTEX
  5
A52
  8
G
 10
1167.930209912762
 20
13.33001666252082
 30
0.0
  0
VERTEX
  5
A53
  8
G
 10
1148.522185652732
 20
59.34157417696771
 30
0.0
  0
VERTEX
  5
A54
  8
G
 10
1138.633673292092
 20
59.34157417696771
 30
0.0
  0
SEQEND
  5
A55
  8
G
  0
POLYLINE
  5
110
  8
G
 66
     1
 10
0.0
 20
0.0
 30
0.0
  0
VERTEX
  5
A56
  8
G
 10
1222.434278042848
 20
-9.425511781889726
 30
0.0
  0
VERTEX
  5
A57
  8
G
 10
1205.252006565008
 20
-16.34027042533804
 30
0.0
  0
SEQEND
  5
A58
  8
G
  0
POLYLINE
  5
111
  8
G
 66
     1
 10
0.0
 20
0.0
 30
0.0
  0
VERTEX
  5
A59
  8
G
 10
1235.538044422556
 20
-22.31277789097238
 30
0.0
  0
VERTEX
  5
A5A
  8
G
 10
1235.545294431618
 20
-40.31480039350049
 30
0.0
  0
SEQEND
  5
A5B
  8
G
  0
POLYLINE
  5
112
  8
G
 66
     1
 10
0.0
 20
0.0
 30
0.0
  0
VERTEX
  5
A5C
  8
G
 10
1205.346256682821
 20
-2.449503061878832
 30
0.0
  0
VERTEX
  5
A5D
  8
G
 10
1188.142235177794
 20
-9.392011740014683
 30
0.0
  0
SEQEND
  5
A5E
  8
G
  0
POLYLINE
  5
113
  8
G
 66
     1
 10
0.0
 20
0.0
 30
0.0
  0
VERTEX
  5
A5F
  8
G
 10
1155.52594440743
 20
27.98203497754371
 30
0.0
  0
VERTEX
  5
A60
  8
G
 10
1149.447686809609
 20
13.57276696595871
 30
0.0
  0
VERTEX
  5
A61
  8
G
 10
1102.59212824016
 20
32.63129078911348
 30
0.0
  0
VERTEX
  5
A62
  8
G
 10
1095.599869499837
 20
25.76478220597775
 30
0.0
  0
SEQEND
  5
A63
  8
G
  0
POLYLINE
  5
114
  8
G
 66
     1
 10
0.0
 20
0.0
 30
0.0
  0
VERTEX
  5
A64
  8
G
 10
1235.541794427243
 20
-31.46578933223668
 30
0.0
  0
VERTEX
  5
A65
  8
G
 10
1247.620559525699
 20
-19.53777442221804
 30
0.0
  0
SEQEND
  5
A66
  8
G
  0
POLYLINE
  5
115
  8
G
 66
     1
 10
0.0
 20
0.0
 30
0.0
  0
VERTEX
  5
A67
  8
G
 10
1196.685745857182
 20
-6.013757517196899
 30
0.0
  0
VERTEX
  5
A68
  8
G
 10
1182.011977514972
 20
-0.0452500565625744
 30
0.0
  0
VERTEX
  5
A69
  8
G
 10
1201.420251775315
 20
45.96630745788433
 30
0.0
  0
VERTEX
  5
A6A
  8
G
 10
1194.427743034679
 20
52.83281604102005
 30
0.0
  0
SEQEND
  5
A6B
  8
G
  0
POLYLINE
  5
116
  8
G
 66
     1
 10
0.0
 20
0.0
 30
0.0
  0
VERTEX
  5
A6C
  8
G
 10
1158.956698695873
 20
19.2677740847176
 30
0.0
  0
VERTEX
  5
A6D
  8
G
 10
1151.849689812112
 20
36.1027951284939
 30
0.0
  0
SEQEND
  5
A6E
  8
G
  0
POLYLINE
  5
117
  8
G
 66
     1
 10
0.0
 20
0.0
 30
0.0
  0
VERTEX
  5
A6F
  8
G
 10
1122.655653319567
 20
31.10503888129859
 30
0.0
  0
VERTEX
  5
A70
  8
G
 10
1116.429145536432
 20
45.86605733257164
 30
0.0
  0
VERTEX
  5
A71
  8
G
 10
1148.723435904295
 20
77.57859697324619
 30
0.0
  0
SEQEND
  5
A72
  8
G
  0
POLYLINE
  5
118
  8
G
 66
     1
 10
0.0
 20
0.0
 30
0.0
  0
VERTEX
  5
A73
  8
G
 10
1114.074892593616
 20
34.65454331817912
 30
0.0
  0
VERTEX
  5
A74
  8
G
 10
1131.224414030517
 20
27.68303460379326
 30
0.0
  0
SEQEND
  5
A75
  8
G
  0
POLYLINE
  5
119
  8
G
 66
     1
 10
0.0
 20
0.0
 30
0.0
  0
VERTEX
  5
A76
  8
G
 10
1055.405819257274
 20
77.6493470616838
 30
0.0
  0
VERTEX
  5
A77
  8
G
 10
1036.616045770057
 20
77.48884686105855
 30
0.0
  0
SEQEND
  5
A78
  8
G
  0
POLYLINE
  5
11A
  8
G
 66
     1
 10
0.0
 20
0.0
 30
0.0
  0
VERTEX
  5
A79
  8
G
 10
1138.334672918341
 20
10.8867636084545
 30
0.0
  0
VERTEX
  5
A7A
  8
G
 10
1121.164651455814
 20
17.84527230659038
 30
0.0
  0
SEQEND
  5
A7B
  8
G
  0
POLYLINE
  5
11B
  8
G
 66
     1
 10
0.0
 20
0.0
 30
0.0
  0
VERTEX
  5
A7C
  8
G
 10
1129.69591211989
 20
14.38776798470997
 30
0.0
  0
VERTEX
  5
A7D
  8
G
 10
1135.773669717087
 20
-0.0217500271875384
 30
0.0
  0
VERTEX
  5
A7E
  8
G
 10
1088.918611148264
 20
-19.08052385065482
 30
0.0
  0
VERTEX
  5
A7F
  8
G
 10
1088.918611148264
 20
-28.79103598879499
 30
0.0
  0
SEQEND
  5
A80
  8
G
  0
POLYLINE
  5
11C
  8
G
 66
     1
 10
0.0
 20
0.0
 30
0.0
  0
VERTEX
  5
A81
  8
G
 10
1222.369277961598
 20
-53.44456680570852
 30
0.0
  0
VERTEX
  5
A82
  8
G
 10
1222.395027993785
 20
-35.22854403568006
 30
0.0
  0
SEQEND
  5
A83
  8
G
  0
POLYLINE
  5
11D
  8
G
 66
     1
 10
0.0
 20
0.0
 30
0.0
  0
VERTEX
  5
A84
  8
G
 10
1196.730995913745
 20
-36.61554576943222
 30
0.0
  0
VERTEX
  5
A85
  8
G
 10
1179.592224490281
 20
-29.65778707223384
 30
0.0
  0
SEQEND
  5
A86
  8
G
  0
POLYLINE
  5
11E
  8
G
 66
     1
 10
0.0
 20
0.0
 30
0.0
  0
VERTEX
  5
A87
  8
G
 10
1095.529119411399
 20
34.6407933009916
 30
0.0
  0
VERTEX
  5
A88
  8
G
 10
1095.500369375462
 20
16.45852057315072
 30
0.0
  0
SEQEND
  5
A89
  8
G
  0
POLYLINE
  5
11F
  8
G
 66
     1
 10
0.0
 20
0.0
 30
0.0
  0
VERTEX
  5
A8A
  8
G
 10
1188.291735364669
 20
-33.21229151536441
 30
0.0
  0
VERTEX
  5
A8B
  8
G
 10
1182.21372776716
 20
-18.80277350346688
 30
0.0
  0
VERTEX
  5
A8C
  8
G
 10
1229.069036336296
 20
0.2560003200003962
 30
0.0
  0
VERTEX
  5
A8D
  8
G
 10
1229.069036336296
 20
9.96651245814057
 30
0.0
  0
SEQEND
  5
A8E
  8
G
  0
POLYLINE
  5
120
  8
G
 66
     1
 10
0.0
 20
0.0
 30
0.0
  0
VERTEX
  5
A8F
  8
G
 10
1247.791309739137
 20
-73.35609169511463
 30
0.0
  0
VERTEX
  5
A90
  8
G
 10
1238.011547514434
 20
-63.75257969072462
 30
0.0
  0
VERTEX
  5
A91
  8
G
 10
1229.063786329733
 20
-63.75257969072462
 30
0.0
  0
VERTEX
  5
A92
  8
G
 10
1228.794285992858
 20
-19.06352382940479
 30
0.0
  0
VERTEX
  5
A93
  8
G
 10
1213.762267202834
 20
-12.94976618720774
 30
0.0
  0
SEQEND
  5
A94
  8
G
  0
POLYLINE
  5
121
  8
G
 66
     1
 10
0.0
 20
0.0
 30
0.0
  0
VERTEX
  5
A95
  8
G
 10
1203.825254781569
 20
-53.45706682133353
 30
0.0
  0
VERTEX
  5
A96
  8
G
 10
1186.658483323104
 20
-46.48955811194764
 30
0.0
  0
SEQEND
  5
A97
  8
G
  0
POLYLINE
  5
122
  8
G
 66
     1
 10
0.0
 20
0.0
 30
0.0
  0
VERTEX
  5
A98
  8
G
 10
1129.771162213953
 20
-9.392011740014683
 30
0.0
  0
VERTEX
  5
A99
  8
G
 10
1112.643640804551
 20
-16.36677045846309
 30
0.0
  0
SEQEND
  5
A9A
  8
G
  0
POLYLINE
  5
123
  8
G
 66
     1
 10
0.0
 20
0.0
 30
0.0
  0
VERTEX
  5
A9B
  8
G
 10
1112.643140803926
 20
-2.429753037191302
 30
0.0
  0
VERTEX
  5
A9C
  8
G
 10
1095.504369380462
 20
-9.4027617534522
 30
0.0
  0
SEQEND
  5
A9D
  8
G
  0
POLYLINE
  5
124
  8
G
 66
     1
 10
0.0
 20
0.0
 30
0.0
  0
VERTEX
  5
A9E
  8
G
 10
1158.956698695873
 20
-38.05229756537197
 30
0.0
  0
VERTEX
  5
A9F
  8
G
 10
1166.033207541509
 20
-54.9090686363358
 30
0.0
  0
SEQEND
  5
AA0
  8
G
  0
POLYLINE
  5
125
  8
G
 66
     1
 10
0.0
 20
0.0
 30
0.0
  0
VERTEX
  5
AA1
  8
G
 10
994.1912427390535
 20
84.26910533638167
 30
0.0
  0
VERTEX
  5
AA2
  8
G
 10
1087.274109092637
 20
84.26910533638167
 30
0.0
  0
VERTEX
  5
AA3
  8
G
 10
1103.538629423287
 20
68.2975853719817
 30
0.0
  0
VERTEX
  5
AA4
  8
G
 10
1103.538629423287
 20
59.35107418884273
 30
0.0
  0
VERTEX
  5
AA5
  8
G
 10
1120.691400864251
 20
59.35107418884273
 30
0.0
  0
SEQEND
  5
AA6
  8
G
  0
POLYLINE
  5
126
  8
G
 66
     1
 10
0.0
 20
0.0
 30
0.0
  0
VERTEX
  5
AA7
  8
G
 10
1121.031651289564
 20
-12.91426614283269
 30
0.0
  0
VERTEX
  5
AA8
  8
G
 10
1135.705419631774
 20
-18.88302360377951
 30
0.0
  0
VERTEX
  5
AA9
  8
G
 10
1116.297145371432
 20
-64.89458111822641
 30
0.0
  0
VERTEX
  5
AAA
  8
G
 10
1123.289654112068
 20
-71.76083970104963
 30
0.0
  0
SEQEND
  5
AAB
  8
G
  0
POLYLINE
  5
127
  8
G
 66
     1
 10
0.0
 20
0.0
 30
0.0
  0
VERTEX
  5
AAC
  8
G
 10
1000.860501075626
 20
77.61884702355877
 30
0.0
  0
VERTEX
  5
AAD
  8
G
 10
988.2374852968567
 20
90.20536275670344
 30
0.0
  0
SEQEND
  5
AAE
  8
G
  0
POLYLINE
  5
128
  8
G
 66
     1
 10
0.0
 20
0.0
 30
0.0
  0
VERTEX
  5
AAF
  8
G
 10
1203.810754763444
 20
-71.66883958604949
 30
0.0
  0
VERTEX
  5
AB0
  8
G
 10
1190.639738299673
 20
-84.60985576231971
 30
0.0
  0
SEQEND
  5
AB1
  8
G
  0
POLYLINE
  5
129
  8
G
 66
     1
 10
0.0
 20
0.0
 30
0.0
  0
VERTEX
  5
AB2
  8
G
 10
1012.99301624127
 20
65.80533225666531
 30
0.0
  0
VERTEX
  5
AB3
  8
G
 10
994.4302430378038
 20
65.8115822644778
 30
0.0
  0
SEQEND
  5
AB4
  8
G
  0
POLYLINE
  5
12A
  8
G
 66
     1
 10
0.0
 20
0.0
 30
0.0
  0
VERTEX
  5
AB5
  8
G
 10
1247.791059738825
 20
-102.9336286670358
 30
0.0
  0
VERTEX
  5
AB6
  8
G
 10
1230.168537710672
 20
-102.9113786392233
 30
0.0
  0
VERTEX
  5
AB7
  8
G
 10
1214.443518054398
 20
-87.05360881701102
 30
0.0
  0
VERTEX
  5
AB8
  8
G
 10
1214.164017705022
 20
-78.15309769137212
 30
0.0
  0
VERTEX
  5
AB9
  8
G
 10
1197.211246514058
 20
-78.15309769137212
 30
0.0
  0
SEQEND
  5
ABA
  8
G
  0
POLYLINE
  5
12B
  8
G
 66
     1
 10
0.0
 20
0.0
 30
0.0
  0
VERTEX
  5
ABB
  8
G
 10
1138.321672902091
 20
-29.65828707285884
 30
0.0
  0
VERTEX
  5
ABC
  8
G
 10
1131.268414085518
 20
-46.4558080697601
 30
0.0
  0
SEQEND
  5
ABD
  8
G
  0
POLYLINE
  5
12C
  8
G
 66
     1
 10
0.0
 20
0.0
 30
0.0
  0
VERTEX
  5
ABE
  8
G
 10
1162.493453116816
 20
-46.68855836069795
 30
0.0
  0
VERTEX
  5
ABF
  8
G
 10
1168.571960714951
 20
-32.27929034911294
 30
0.0
  0
VERTEX
  5
AC0
  8
G
 10
1215.427019283774
 20
-51.33781417226773
 30
0.0
  0
VERTEX
  5
AC1
  8
G
 10
1222.41952802441
 20
-44.471305589132
 30
0.0
  0
SEQEND
  5
AC2
  8
G
  0
POLYLINE
  5
12D
  8
G
 66
     1
 10
0.0
 20
0.0
 30
0.0
  0
VERTEX
  5
AC3
  8
G
 10
1026.154032692541
 20
52.85556606945757
 30
0.0
  0
VERTEX
  5
AC4
  8
G
 10
1007.554259442824
 20
52.93756617195771
 30
0.0
  0
SEQEND
  5
AC5
  8
G
  0
POLYLINE
  5
12E
  8
G
 66
     1
 10
0.0
 20
0.0
 30
0.0
  0
VERTEX
  5
AC6
  8
G
 10
1103.950129937662
 20
-5.966257457821828
 30
0.0
  0
VERTEX
  5
AC7
  8
G
 10
1088.918611148264
 20
0.1477501846877214
 30
0.0
  0
VERTEX
  5
AC8
  8
G
 10
1088.918611148264
 20
44.9965562456953
 30
0.0
  0
VERTEX
  5
AC9
  8
G
 10
1079.97059996325
 20
44.9965562456953
 30
0.0
  0
VERTEX
  5
ACA
  8
G
 10
1069.963587454484
 20
54.60031825039781
 30
0.0
  0
VERTEX
  5
ACB
  8
G
 10
1060.183825229782
 20
44.9965562456953
 30
0.0
  0
VERTEX
  5
ACC
  8
G
 10
1051.23606404508
 20
44.9965562456953
 30
0.0
  0
VERTEX
  5
ACD
  8
G
 10
1051.23606404508
 20
28.38903548629436
 30
0.0
  0
SEQEND
  5
ACE
  8
G
  0
POLYLINE
  5
12F
  8
G
 66
     1
 10
0.0
 20
0.0
 30
0.0
  0
VERTEX
  5
ACF
  8
G
 10
1044.712555890695
 20
34.6312932891166
 30
0.0
  0
VERTEX
  5
AD0
  8
G
 10
1057.773822217278
 20
21.75802719753399
 30
0.0
  0
SEQEND
  5
AD1
  8
G
  0
POLYLINE
  5
130
  8
G
 66
     1
 10
0.0
 20
0.0
 30
0.0
  0
VERTEX
  5
AD2
  8
G
 10
1082.400353000441
 20
3.48475435594294
 30
0.0
  0
VERTEX
  5
AD3
  8
G
 10
1082.380852976066
 20
21.7582771978465
 30
0.0
  0
SEQEND
  5
AD4
  8
G
  0
POLYLINE
  5
131
  8
G
 66
     1
 10
0.0
 20
0.0
 30
0.0
  0
VERTEX
  5
AD5
  8
G
 10
1134.789668487086
 20
-38.15254769068461
 30
0.0
  0
VERTEX
  5
AD6
  8
G
 10
1149.463436829296
 20
-32.1842902303628
 30
0.0
  0
VERTEX
  5
AD7
  8
G
 10
1168.871461089326
 20
-78.19559774449719
 30
0.0
  0
VERTEX
  5
AD8
  8
G
 10
1178.759973449967
 20
-78.19559774449719
 30
0.0
  0
SEQEND
  5
AD9
  8
G
  0
POLYLINE
  5
132
  8
G
 66
     1
 10
0.0
 20
0.0
 30
0.0
  0
VERTEX
  5
ADA
  8
G
 10
1214.443518054398
 20
-96.27237034046293
 30
0.0
  0
VERTEX
  5
ADB
  8
G
 10
1228.147285184107
 20
-109.7946372432966
 30
0.0
  0
SEQEND
  5
ADC
  8
G
  0
POLYLINE
  5
133
  8
G
 66
     1
 10
0.0
 20
0.0
 30
0.0
  0
VERTEX
  5
ADD
  8
G
 10
1151.893189866487
 20
-54.87531859414825
 30
0.0
  0
VERTEX
  5
ADE
  8
G
 10
1158.953948692436
 20
-71.71908964886207
 30
0.0
  0
SEQEND
  5
ADF
  8
G
  0
POLYLINE
  5
134
  8
G
 66
     1
 10
0.0
 20
0.0
 30
0.0
  0
VERTEX
  5
AE0
  8
G
 10
1026.168282710353
 20
34.64354330442913
 30
0.0
  0
VERTEX
  5
AE1
  8
G
 10
1019.125273906592
 20
17.80377225471532
 30
0.0
  0
SEQEND
  5
AE2
  8
G
  0
POLYLINE
  5
135
  8
G
 66
     1
 10
0.0
 20
0.0
 30
0.0
  0
VERTEX
  5
AE3
  8
G
 10
1121.164901456127
 20
-36.64154580193225
 30
0.0
  0
VERTEX
  5
AE4
  8
G
 10
1114.138142672678
 20
-53.39531674414594
 30
0.0
  0
SEQEND
  5
AE5
  8
G
  0
POLYLINE
  5
136
  8
G
 66
     1
 10
0.0
 20
0.0
 30
0.0
  0
VERTEX
  5
AE6
  8
G
 10
1155.451694314618
 20
-63.41832927291159
 30
0.0
  0
VERTEX
  5
AE7
  8
G
 10
1149.225686532108
 20
-78.17959772449717
 30
0.0
  0
VERTEX
  5
AE8
  8
G
 10
1103.554379442974
 20
-78.17959772449717
 30
0.0
  0
VERTEX
  5
AE9
  8
G
 10
1103.538629423287
 20
-87.05360881701102
 30
0.0
  0
VERTEX
  5
AEA
  8
G
 10
1094.017117521397
 20
-96.40362050452565
 30
0.0
  0
SEQEND
  5
AEB
  8
G
  0
POLYLINE
  5
137
  8
G
 66
     1
 10
0.0
 20
0.0
 30
0.0
  0
VERTEX
  5
AEC
  8
G
 10
1057.891072363841
 20
3.460254325317905
 30
0.0
  0
VERTEX
  5
AED
  8
G
 10
1044.84805606007
 20
16.35127043908804
 30
0.0
  0
SEQEND
  5
AEE
  8
G
  0
POLYLINE
  5
138
  8
G
 66
     1
 10
0.0
 20
0.0
 30
0.0
  0
VERTEX
  5
AEF
  8
G
 10
1057.891072363841
 20
3.460254325317905
 30
0.0
  0
VERTEX
  5
AF0
  8
G
 10
1044.84805606007
 20
16.35127043908804
 30
0.0
  0
SEQEND
  5
AF1
  8
G
  0
POLYLINE
  5
139
  8
G
 66
     1
 10
0.0
 20
0.0
 30
0.0
  0
VERTEX
  5
AF2
  8
G
 10
961.6474520593151
 20
77.61909702387125
 30
0.0
  0
VERTEX
  5
AF3
  8
G
 10
980.1577251971565
 20
77.61909702387125
 30
0.0
  0
SEQEND
  5
AF4
  8
G
  0
POLYLINE
  5
13A
  8
G
 66
     1
 10
0.0
 20
0.0
 30
0.0
  0
VERTEX
  5
AF5
  8
G
 10
1022.808778510973
 20
26.3695329619162
 30
0.0
  0
VERTEX
  5
AF6
  8
G
 10
1037.840547300684
 20
32.48379060473826
 30
0.0
  0
VERTEX
  5
AF7
  8
G
 10
1070.180837726047
 20
0.6480008100010011
 30
0.0
  0
VERTEX
  5
AF8
  8
G
 10
1082.390852988566
 20
12.54126567658209
 30
0.0
  0
SEQEND
  5
AF9
  8
G
  0
POLYLINE
  5
13B
  8
G
 66
     1
 10
0.0
 20
0.0
 30
0.0
  0
VERTEX
  5
AFA
  8
G
 10
1172.075965094956
 20
-84.58685573356968
 30
0.0
  0
VERTEX
  5
AFB
  8
G
 10
1185.178731473414
 20
-71.7488396860496
 30
0.0
  0
SEQEND
  5
AFC
  8
G
  0
POLYLINE
  5
13C
  8
G
 66
     1
 10
0.0
 20
0.0
 30
0.0
  0
VERTEX
  5
AFD
  8
G
 10
968.1842102302628
 20
65.8115822644778
 30
0.0
  0
VERTEX
  5
AFE
  8
G
 10
955.0569438211799
 20
52.94231617789521
 30
0.0
  0
SEQEND
  5
AFF
  8
G
  0
POLYLINE
  5
13D
  8
G
 66
     1
 10
0.0
 20
0.0
 30
0.0
  0
VERTEX
  5
B00
  8
G
 10
1095.500869376086
 20
-35.2547940684926
 30
0.0
  0
VERTEX
  5
B01
  8
G
 10
1082.400353000441
 20
-22.28827786034732
 30
0.0
  0
SEQEND
  5
B02
  8
G
  0
POLYLINE
  5
13E
  8
G
 66
     1
 10
0.0
 20
0.0
 30
0.0
  0
VERTEX
  5
B03
  8
G
 10
1009.033511291889
 20
27.67828459785574
 30
0.0
  0
VERTEX
  5
B04
  8
G
 10
1001.945502431878
 20
10.87351359189199
 30
0.0
  0
SEQEND
  5
B05
  8
G
  0
POLYLINE
  5
13F
  8
G
 66
     1
 10
0.0
 20
0.0
 30
0.0
  0
VERTEX
  5
B06
  8
G
 10
1178.632473290592
 20
-96.40112050140064
 30
0.0
  0
VERTEX
  5
B07
  8
G
 10
1160.099700124625
 20
-96.40112050140064
 30
0.0
  0
SEQEND
  5
B08
  8
G
  0
POLYLINE
  5
140
  8
G
 66
     1
 10
0.0
 20
0.0
 30
0.0
  0
VERTEX
  5
B09
  8
G
 10
984.8804811006014
 20
44.56855571069464
 30
0.0
  0
VERTEX
  5
B0A
  8
G
 10
991.1064888831111
 20
59.32957416196768
 30
0.0
  0
VERTEX
  5
B0B
  8
G
 10
1036.616045770057
 20
59.35107418884273
 30
0.0
  0
VERTEX
  5
B0C
  8
G
 10
1036.616045770057
 20
68.2978353722942
 30
0.0
  0
VERTEX
  5
B0D
  8
G
 10
1046.069307586635
 20
77.5808469760587
 30
0.0
  0
SEQEND
  5
B0E
  8
G
  0
POLYLINE
  5
141
  8
G
 66
     1
 10
0.0
 20
0.0
 30
0.0
  0
VERTEX
  5
B0F
  8
G
 10
988.4084855106069
 20
36.09804512255641
 30
0.0
  0
VERTEX
  5
B10
  8
G
 10
981.3082266352833
 20
52.94356617945772
 30
0.0
  0
SEQEND
  5
B11
  8
G
  0
POLYLINE
  5
142
  8
G
 66
     1
 10
0.0
 20
0.0
 30
0.0
  0
VERTEX
  5
B12
  8
G
 10
1169.543461929327
 20
-96.55487069358837
 30
0.0
  0
VERTEX
  5
B13
  8
G
 10
1201.730252162815
 20
-64.94758118447649
 30
0.0
  0
VERTEX
  5
B14
  8
G
 10
1195.50374437968
 20
-50.18656273320342
 30
0.0
  0
SEQEND
  5
B15
  8
G
  0
POLYLINE
  5
143
  8
G
 66
     1
 10
0.0
 20
0.0
 30
0.0
  0
VERTEX
  5
B16
  8
G
 10
949.6171870214837
 20
65.80533225666531
 30
0.0
  0
VERTEX
  5
B17
  8
G
 10
936.4409205511506
 20
52.86506608133261
 30
0.0
  0
SEQEND
  5
B18
  8
G
  0
POLYLINE
  5
144
  8
G
 66
     1
 10
0.0
 20
0.0
 30
0.0
  0
VERTEX
  5
B19
  8
G
 10
1044.787555984445
 20
-9.425511781889726
 30
0.0
  0
VERTEX
  5
B1A
  8
G
 10
1027.605534506918
 20
-16.34027042533804
 30
0.0
  0
SEQEND
  5
B1B
  8
G
  0
POLYLINE
  5
145
  8
G
 66
     1
 10
0.0
 20
0.0
 30
0.0
  0
VERTEX
  5
B1C
  8
G
 10
1004.957506196883
 20
19.29852412315514
 30
0.0
  0
VERTEX
  5
B1D
  8
G
 10
990.2837378546724
 20
13.33001666252082
 30
0.0
  0
VERTEX
  5
B1E
  8
G
 10
970.8754635943295
 20
59.34157417696771
 30
0.0
  0
VERTEX
  5
B1F
  8
G
 10
960.9867012333765
 20
59.34157417696771
 30
0.0
  0
SEQEND
  5
B20
  8
G
  0
POLYLINE
  5
146
  8
G
 66
     1
 10
0.0
 20
0.0
 30
0.0
  0
VERTEX
  5
B21
  8
G
 10
1057.891072363841
 20
-22.31277789097238
 30
0.0
  0
VERTEX
  5
B22
  8
G
 10
1057.898572373215
 20
-40.31480039350049
 30
0.0
  0
SEQEND
  5
B23
  8
G
  0
POLYLINE
  5
147
  8
G
 66
     1
 10
0.0
 20
0.0
 30
0.0
  0
VERTEX
  5
B24
  8
G
 10
1082.376352970441
 20
-40.49480061850078
 30
0.0
  0
VERTEX
  5
B25
  8
G
 10
1095.593869492337
 20
-53.38281672852092
 30
0.0
  0
SEQEND
  5
B26
  8
G
  0
POLYLINE
  5
148
  8
G
 66
     1
 10
0.0
 20
0.0
 30
0.0
  0
VERTEX
  5
B27
  8
G
 10
1027.699784624731
 20
-2.449503061878832
 30
0.0
  0
VERTEX
  5
B28
  8
G
 10
1010.495763119704
 20
-9.392011740014683
 30
0.0
  0
SEQEND
  5
B29
  8
G
  0
POLYLINE
  5
149
  8
G
 66
     1
 10
0.0
 20
0.0
 30
0.0
  0
VERTEX
  5
B2A
  8
G
 10
919.0861488576861
 20
84.20435525544404
 30
0.0
  0
VERTEX
  5
B2B
  8
G
 10
984.9729812162266
 20
84.26910533638167
 30
0.0
  0
VERTEX
  5
B2C
  8
G
 10
1003.771754714693
 20
65.80883226104032
 30
0.0
  0
SEQEND
  5
B2D
  8
G
  0
POLYLINE
  5
14A
  8
G
 66
     1
 10
0.0
 20
0.0
 30
0.0
  0
VERTEX
  5
B2E
  8
G
 10
925.8919073648842
 20
77.48884686105855
 30
0.0
  0
VERTEX
  5
B2F
  8
G
 10
913.004391255489
 20
90.20536275670344
 30
0.0
  0
SEQEND
  5
B30
  8
G
  0
POLYLINE
  5
14B
  8
G
 66
     1
 10
0.0
 20
0.0
 30
0.0
  0
VERTEX
  5
B31
  8
G
 10
1136.470170587713
 20
-84.5983557479447
 30
0.0
  0
VERTEX
  5
B32
  8
G
 10
1155.27594409493
 20
-103.0646288307861
 30
0.0
  0
VERTEX
  5
B33
  8
G
 10
1220.885026106283
 20
-102.9113786392233
 30
0.0
  0
SEQEND
  5
B34
  8
G
  0
POLYLINE
  5
14C
  8
G
 66
     1
 10
0.0
 20
0.0
 30
0.0
  0
VERTEX
  5
B35
  8
G
 10
1036.115795144744
 20
-12.94976618720774
 30
0.0
  0
VERTEX
  5
B36
  8
G
 10
1051.147563934455
 20
-19.06352382940479
 30
0.0
  0
VERTEX
  5
B37
  8
G
 10
1051.416814271018
 20
-63.75257969072462
 30
0.0
  0
VERTEX
  5
B38
  8
G
 10
1060.364825456032
 20
-63.75257969072462
 30
0.0
  0
VERTEX
  5
B39
  8
G
 10
1070.144587680735
 20
-73.35609169511463
 30
0.0
  0
VERTEX
  5
B3A
  8
G
 10
1079.97059996325
 20
-63.75257969072462
 30
0.0
  0
VERTEX
  5
B3B
  8
G
 10
1088.918611148264
 20
-63.75257969072462
 30
0.0
  0
VERTEX
  5
B3C
  8
G
 10
1088.918611148264
 20
-46.87405859257325
 30
0.0
  0
SEQEND
  5
B3D
  8
G
  0
POLYLINE
  5
14D
  8
G
 66
     1
 10
0.0
 20
0.0
 30
0.0
  0
VERTEX
  5
B3E
  8
G
 10
1114.152392690491
 20
-71.60708950886189
 30
0.0
  0
VERTEX
  5
B3F
  8
G
 10
1132.747665934583
 20
-71.71533964417456
 30
0.0
  0
SEQEND
  5
B40
  8
G
  0
POLYLINE
  5
14E
  8
G
 66
     1
 10
0.0
 20
0.0
 30
0.0
  0
VERTEX
  5
B41
  8
G
 10
1057.894822368528
 20
-31.46578933223668
 30
0.0
  0
VERTEX
  5
B42
  8
G
 10
1069.973587466984
 20
-19.53789942237429
 30
0.0
  0
VERTEX
  5
B43
  8
G
 10
1102.465378081723
 20
-51.25056406320509
 30
0.0
  0
VERTEX
  5
B44
  8
G
 10
1117.496896871121
 20
-45.13630642038304
 30
0.0
  0
SEQEND
  5
B45
  8
G
  0
POLYLINE
  5
14F
  8
G
 66
     1
 10
0.0
 20
0.0
 30
0.0
  0
VERTEX
  5
B46
  8
G
 10
977.8789723487155
 20
27.98203497754371
 30
0.0
  0
VERTEX
  5
B47
  8
G
 10
971.8009647512059
 20
13.57276696595871
 30
0.0
  0
VERTEX
  5
B48
  8
G
 10
924.9456561820703
 20
32.63129078911348
 30
0.0
  0
VERTEX
  5
B49
  8
G
 10
917.9528974411219
 20
25.76478220597775
 30
0.0
  0
SEQEND
  5
B4A
  8
G
  0
POLYLINE
  5
150
  8
G
 66
     1
 10
0.0
 20
0.0
 30
0.0
  0
VERTEX
  5
B4B
  8
G
 10
1127.263909079886
 20
-84.60985576231971
 30
0.0
  0
VERTEX
  5
B4C
  8
G
 10
1145.830182287728
 20
-84.58685573356968
 30
0.0
  0
SEQEND
  5
B4D
  8
G
  0
POLYLINE
  5
151
  8
G
 66
     1
 10
0.0
 20
0.0
 30
0.0
  0
VERTEX
  5
B4E
  8
G
 10
1019.03902379878
 20
-6.013757517196899
 30
0.0
  0
VERTEX
  5
B4F
  8
G
 10
1004.365505456882
 20
-0.0452500565625744
 30
0.0
  0
VERTEX
  5
B50
  8
G
 10
1023.7732797166
 20
45.96630745788433
 30
0.0
  0
VERTEX
  5
B51
  8
G
 10
1016.781020976276
 20
52.83281604102005
 30
0.0
  0
SEQEND
  5
B52
  8
G
  0
POLYLINE
  5
152
  8
G
 66
     1
 10
0.0
 20
0.0
 30
0.0
  0
VERTEX
  5
B53
  8
G
 10
1139.293924117405
 20
-96.40237050296315
 30
0.0
  0
VERTEX
  5
B54
  8
G
 10
1152.866941083676
 20
-109.7726372157965
 30
0.0
  0
SEQEND
  5
B55
  8
G
  0
POLYLINE
  5
153
  8
G
 66
     1
 10
0.0
 20
0.0
 30
0.0
  0
VERTEX
  5
B56
  8
G
 10
981.3099766374708
 20
19.2677740847176
 30
0.0
  0
VERTEX
  5
B57
  8
G
 10
974.2027177533972
 20
36.1027951284939
 30
0.0
  0
SEQEND
  5
B58
  8
G
  0
POLYLINE
  5
154
  8
G
 66
     1
 10
0.0
 20
0.0
 30
0.0
  0
VERTEX
  5
B59
  8
G
 10
1146.022432528041
 20
-103.030628788286
 30
0.0
  0
VERTEX
  5
B5A
  8
G
 10
1070.190837738547
 20
-102.9740037175046
 30
0.0
  0
VERTEX
  5
B5B
  8
G
 10
1052.521565651957
 20
-102.9115036393796
 30
0.0
  0
VERTEX
  5
B5C
  8
G
 10
1036.797045996308
 20
-87.05360881701102
 30
0.0
  0
VERTEX
  5
B5D
  8
G
 10
1036.517045646307
 20
-78.15309769137212
 30
0.0
  0
VERTEX
  5
B5E
  8
G
 10
1019.564274455343
 20
-78.15309769137212
 30
0.0
  0
SEQEND
  5
B5F
  8
G
  0
POLYLINE
  5
155
  8
G
 66
     1
 10
0.0
 20
0.0
 30
0.0
  0
VERTEX
  5
B60
  8
G
 10
925.8919073648842
 20
59.35107418884273
 30
0.0
  0
VERTEX
  5
B61
  8
G
 10
943.044428805536
 20
59.35107418884273
 30
0.0
  0
VERTEX
  5
B62
  8
G
 10
925.8919073648842
 20
59.35107418884273
 30
0.0
  0
VERTEX
  5
B63
  8
G
 10
925.8919073648842
 20
68.2978353722942
 30
0.0
  0
VERTEX
  5
B64
  8
G
 10
909.6273870342338
 20
84.26910533638167
 30
0.0
  0
VERTEX
  5
B65
  8
G
 10
892.0274900343626
 20
84.26910533638167
 30
0.0
  0
VERTEX
  5
B66
  8
G
 10
816.2252702815879
 20
84.26910533638167
 30
0.0
  0
SEQEND
  5
B67
  8
G
  0
POLYLINE
  5
156
  8
G
 66
     1
 10
0.0
 20
0.0
 30
0.0
  0
VERTEX
  5
B68
  8
G
 10
945.0086812608515
 20
31.10503888129859
 30
0.0
  0
VERTEX
  5
B69
  8
G
 10
938.7821734777168
 20
45.86605733257164
 30
0.0
  0
VERTEX
  5
B6A
  8
G
 10
971.0767138458923
 20
77.57859697324619
 30
0.0
  0
SEQEND
  5
B6B
  8
G
  0
POLYLINE
  5
157
  8
G
 66
     1
 10
0.0
 20
0.0
 30
0.0
  0
VERTEX
  5
B6C
  8
G
 10
936.4281705352132
 20
34.65454331817912
 30
0.0
  0
VERTEX
  5
B6D
  8
G
 10
953.577691972115
 20
27.68303460379326
 30
0.0
  0
SEQEND
  5
B6E
  8
G
  0
POLYLINE
  5
158
  8
G
 66
     1
 10
0.0
 20
0.0
 30
0.0
  0
VERTEX
  5
B6F
  8
G
 10
960.6879508599386
 20
10.8867636084545
 30
0.0
  0
VERTEX
  5
B70
  8
G
 10
943.5176793970993
 20
17.84527230659038
 30
0.0
  0
SEQEND
  5
B71
  8
G
  0
POLYLINE
  5
159
  8
G
 66
     1
 10
0.0
 20
0.0
 30
0.0
  0
VERTEX
  5
B72
  8
G
 10
1044.722555903195
 20
-53.44456680570852
 30
0.0
  0
VERTEX
  5
B73
  8
G
 10
1044.748305935382
 20
-35.22854403568006
 30
0.0
  0
SEQEND
  5
B74
  8
G
  0
POLYLINE
  5
15A
  8
G
 66
     1
 10
0.0
 20
0.0
 30
0.0
  0
VERTEX
  5
B75
  8
G
 10
877.4398467998085
 20
77.6493470616838
 30
0.0
  0
VERTEX
  5
B76
  8
G
 10
858.6498233122791
 20
77.48884686105855
 30
0.0
  0
SEQEND
  5
B77
  8
G
  0
POLYLINE
  5
15B
  8
G
 66
     1
 10
0.0
 20
0.0
 30
0.0
  0
VERTEX
  5
B78
  8
G
 10
1019.084273855342
 20
-36.61554576943222
 30
0.0
  0
VERTEX
  5
B79
  8
G
 10
1001.945502431878
 20
-29.65778707223384
 30
0.0
  0
SEQEND
  5
B7A
  8
G
  0
POLYLINE
  5
15C
  8
G
 66
     1
 10
0.0
 20
0.0
 30
0.0
  0
VERTEX
  5
B7B
  8
G
 10
952.0491900614876
 20
14.38776798470997
 30
0.0
  0
VERTEX
  5
B7C
  8
G
 10
958.127197658997
 20
-0.0217500271875384
 30
0.0
  0
VERTEX
  5
B7D
  8
G
 10
911.2718890898614
 20
-19.08052385065482
 30
0.0
  0
VERTEX
  5
B7E
  8
G
 10
911.2718890898614
 20
-28.79103598879499
 30
0.0
  0
SEQEND
  5
B7F
  8
G
  0
POLYLINE
  5
15D
  8
G
 66
     1
 10
0.0
 20
0.0
 30
0.0
  0
VERTEX
  5
B80
  8
G
 10
1010.645013306267
 20
-33.21229151536441
 30
0.0
  0
VERTEX
  5
B81
  8
G
 10
1004.567005708757
 20
-18.80277350346688
 30
0.0
  0
VERTEX
  5
B82
  8
G
 10
1051.422564278205
 20
0.2560003200003962
 30
0.0
  0
VERTEX
  5
B83
  8
G
 10
1051.422564278205
 20
9.96651245814057
 30
0.0
  0
SEQEND
  5
B84
  8
G
  0
POLYLINE
  5
15E
  8
G
 66
     1
 10
0.0
 20
0.0
 30
0.0
  0
VERTEX
  5
B85
  8
G
 10
917.8826473533093
 20
34.6407933009916
 30
0.0
  0
VERTEX
  5
B86
  8
G
 10
917.8538973173717
 20
16.45852057315072
 30
0.0
  0
SEQEND
  5
B87
  8
G
  0
POLYLINE
  5
15F
  8
G
 66
     1
 10
0.0
 20
0.0
 30
0.0
  0
VERTEX
  5
B88
  8
G
 10
1026.178282722854
 20
-53.45706682133353
 30
0.0
  0
VERTEX
  5
B89
  8
G
 10
1009.011511264389
 20
-46.48955811194764
 30
0.0
  0
SEQEND
  5
B8A
  8
G
  0
POLYLINE
  5
160
  8
G
 66
     1
 10
0.0
 20
0.0
 30
0.0
  0
VERTEX
  5
B8B
  8
G
 10
1084.74885593607
 20
-96.40512050640064
 30
0.0
  0
VERTEX
  5
B8C
  8
G
 10
1103.538629423287
 20
-96.27237034046293
 30
0.0
  0
SEQEND
  5
B8D
  8
G
  0
POLYLINE
  5
161
  8
G
 66
     1
 10
0.0
 20
0.0
 30
0.0
  0
VERTEX
  5
B8E
  8
G
 10
952.1241901552378
 20
-9.392011740014683
 30
0.0
  0
VERTEX
  5
B8F
  8
G
 10
934.9971687464609
 20
-16.36677045846309
 30
0.0
  0
SEQEND
  5
B90
  8
G
  0
POLYLINE
  5
162
  8
G
 66
     1
 10
0.0
 20
0.0
 30
0.0
  0
VERTEX
  5
B91
  8
G
 10
1026.164032705041
 20
-71.66883958604949
 30
0.0
  0
VERTEX
  5
B92
  8
G
 10
1012.99301624127
 20
-84.60985576231971
 30
0.0
  0
SEQEND
  5
B93
  8
G
  0
POLYLINE
  5
163
  8
G
 66
     1
 10
0.0
 20
0.0
 30
0.0
  0
VERTEX
  5
B94
  8
G
 10
981.3099766374708
 20
-38.05229756537197
 30
0.0
  0
VERTEX
  5
B95
  8
G
 10
988.3867354834193
 20
-54.9090686363358
 30
0.0
  0
SEQEND
  5
B96
  8
G
  0
POLYLINE
  5
164
  8
G
 66
     1
 10
0.0
 20
0.0
 30
0.0
  0
VERTEX
  5
B97
  8
G
 10
934.9966687458359
 20
-2.429753037191302
 30
0.0
  0
VERTEX
  5
B98
  8
G
 10
917.8578973223716
 20
-9.4027617534522
 30
0.0
  0
SEQEND
  5
B99
  8
G
  0
POLYLINE
  5
165
  8
G
 66
     1
 10
0.0
 20
0.0
 30
0.0
  0
VERTEX
  5
B9A
  8
G
 10
943.3849292311615
 20
-12.91426614283269
 30
0.0
  0
VERTEX
  5
B9B
  8
G
 10
958.0584475730594
 20
-18.88302360377951
 30
0.0
  0
VERTEX
  5
B9C
  8
G
 10
938.6506733133417
 20
-64.89458111822641
 30
0.0
  0
VERTEX
  5
B9D
  8
G
 10
945.6426820533526
 20
-71.76083970104963
 30
0.0
  0
SEQEND
  5
B9E
  8
G
  0
POLYLINE
  5
166
  8
G
 66
     1
 10
0.0
 20
0.0
 30
0.0
  0
VERTEX
  5
B9F
  8
G
 10
984.8469810587263
 20
-46.68855836069795
 30
0.0
  0
VERTEX
  5
BA0
  8
G
 10
990.9249886562358
 20
-32.27929034911294
 30
0.0
  0
VERTEX
  5
BA1
  8
G
 10
1037.780547225684
 20
-51.33781417226773
 30
0.0
  0
VERTEX
  5
BA2
  8
G
 10
1044.772805966008
 20
-44.471305589132
 30
0.0
  0
SEQEND
  5
BA3
  8
G
  0
POLYLINE
  5
167
  8
G
 66
     1
 10
0.0
 20
0.0
 30
0.0
  0
VERTEX
  5
BA4
  8
G
 10
960.6749508436885
 20
-29.65828707285884
 30
0.0
  0
VERTEX
  5
BA5
  8
G
 10
953.6214420268025
 20
-46.4558080697601
 30
0.0
  0
SEQEND
  5
BA6
  8
G
  0
POLYLINE
  5
168
  8
G
 66
     1
 10
0.0
 20
0.0
 30
0.0
  0
VERTEX
  5
BA7
  8
G
 10
904.7438809298512
 20
12.54126567658209
 30
0.0
  0
VERTEX
  5
BA8
  8
G
 10
892.2756153445191
 20
0.8226260282825297
 30
0.0
  0
VERTEX
  5
BA9
  8
G
 10
859.8745748432186
 20
32.48379060473826
 30
0.0
  0
VERTEX
  5
BAA
  8
G
 10
844.8428060535076
 20
26.3695329619162
 30
0.0
  0
SEQEND
  5
BAB
  8
G
  0
POLYLINE
  5
169
  8
G
 66
     1
 10
0.0
 20
0.0
 30
0.0
  0
VERTEX
  5
BAC
  8
G
 10
926.3034078792598
 20
-5.966257457821828
 30
0.0
  0
VERTEX
  5
BAD
  8
G
 10
911.2718890898614
 20
0.1477501846877214
 30
0.0
  0
VERTEX
  5
BAE
  8
G
 10
911.2718890898614
 20
44.9965562456953
 30
0.0
  0
VERTEX
  5
BAF
  8
G
 10
902.3238779048474
 20
44.9965562456953
 30
0.0
  0
VERTEX
  5
BB0
  8
G
 10
892.1719902149878
 20
54.58606823258528
 30
0.0
  0
VERTEX
  5
BB1
  8
G
 10
891.9976149970187
 20
54.60031825039781
 30
0.0
  0
VERTEX
  5
BB2
  8
G
 10
882.217852772316
 20
44.9965562456953
 30
0.0
  0
VERTEX
  5
BB3
  8
G
 10
873.2700915876145
 20
44.9965562456953
 30
0.0
  0
VERTEX
  5
BB4
  8
G
 10
873.2700915876145
 20
28.38903548629436
 30
0.0
  0
SEQEND
  5
BB5
  8
G
  0
POLYLINE
  5
16A
  8
G
 66
     1
 10
0.0
 20
0.0
 30
0.0
  0
VERTEX
  5
BB6
  8
G
 10
822.8945286181608
 20
77.61884702355877
 30
0.0
  0
VERTEX
  5
BB7
  8
G
 10
810.2712628390786
 20
90.20536275670344
 30
0.0
  0
SEQEND
  5
BB8
  8
G
  0
POLYLINE
  5
16B
  8
G
 66
     1
 10
0.0
 20
0.0
 30
0.0
  0
VERTEX
  5
BB9
  8
G
 10
835.0270437838047
 20
65.80533225666531
 30
0.0
  0
VERTEX
  5
BBA
  8
G
 10
816.4640205800258
 20
65.8115822644778
 30
0.0
  0
SEQEND
  5
BBB
  8
G
  0
POLYLINE
  5
16C
  8
G
 66
     1
 10
0.0
 20
0.0
 30
0.0
  0
VERTEX
  5
BBC
  8
G
 10
848.1880602350752
 20
52.85556606945757
 30
0.0
  0
VERTEX
  5
BBD
  8
G
 10
829.5882869853588
 20
52.93756617195771
 30
0.0
  0
SEQEND
  5
BBE
  8
G
  0
POLYLINE
  5
16D
  8
G
 66
     1
 10
0.0
 20
0.0
 30
0.0
  0
VERTEX
  5
BBF
  8
G
 10
1036.797045996308
 20
-96.27237034046293
 30
0.0
  0
VERTEX
  5
BC0
  8
G
 10
1050.500563125704
 20
-109.7946372432966
 30
0.0
  0
SEQEND
  5
BC1
  8
G
  0
POLYLINE
  5
16E
  8
G
 66
     1
 10
0.0
 20
0.0
 30
0.0
  0
VERTEX
  5
BC2
  8
G
 10
957.1426964283705
 20
-38.15254769068461
 30
0.0
  0
VERTEX
  5
BC3
  8
G
 10
971.816464770581
 20
-32.1842902303628
 30
0.0
  0
VERTEX
  5
BC4
  8
G
 10
991.2247390309237
 20
-78.19559774449719
 30
0.0
  0
VERTEX
  5
BC5
  8
G
 10
1001.113501391877
 20
-78.19559774449719
 30
0.0
  0
SEQEND
  5
BC6
  8
G
  0
POLYLINE
  5
16F
  8
G
 66
     1
 10
0.0
 20
0.0
 30
0.0
  0
VERTEX
  5
BC7
  8
G
 10
904.7538809423511
 20
3.48475435594294
 30
0.0
  0
VERTEX
  5
BC8
  8
G
 10
904.7341309176636
 20
21.7582771978465
 30
0.0
  0
SEQEND
  5
BC9
  8
G
  0
POLYLINE
  5
170
  8
G
 66
     1
 10
0.0
 20
0.0
 30
0.0
  0
VERTEX
  5
BCA
  8
G
 10
866.7465834332293
 20
34.6312932891166
 30
0.0
  0
VERTEX
  5
BCB
  8
G
 10
879.8078497598121
 20
21.75802719753399
 30
0.0
  0
SEQEND
  5
BCC
  8
G
  0
POLYLINE
  5
171
  8
G
 66
     1
 10
0.0
 20
0.0
 30
0.0
  0
VERTEX
  5
BCD
  8
G
 10
974.2467178083972
 20
-54.87531859414825
 30
0.0
  0
VERTEX
  5
BCE
  8
G
 10
981.3072266340333
 20
-71.71908964886207
 30
0.0
  0
SEQEND
  5
BCF
  8
G
  0
POLYLINE
  5
172
  8
G
 66
     1
 10
0.0
 20
0.0
 30
0.0
  0
VERTEX
  5
BD0
  8
G
 10
943.5179293974118
 20
-36.64154580193225
 30
0.0
  0
VERTEX
  5
BD1
  8
G
 10
936.4914206142757
 20
-53.39531674414594
 30
0.0
  0
SEQEND
  5
BD2
  8
G
  0
POLYLINE
  5
173
  8
G
 66
     1
 10
0.0
 20
0.0
 30
0.0
  0
VERTEX
  5
BD3
  8
G
 10
977.8047222559028
 20
-63.41832927291159
 30
0.0
  0
VERTEX
  5
BD4
  8
G
 10
971.5789644737056
 20
-78.17959772449717
 30
0.0
  0
VERTEX
  5
BD5
  8
G
 10
925.9076573845717
 20
-78.17959772449717
 30
0.0
  0
VERTEX
  5
BD6
  8
G
 10
925.8919073648842
 20
-87.05360881701102
 30
0.0
  0
VERTEX
  5
BD7
  8
G
 10
916.3703954629943
 20
-96.40362050452565
 30
0.0
  0
SEQEND
  5
BD8
  8
G
  0
POLYLINE
  5
174
  8
G
 66
     1
 10
0.0
 20
0.0
 30
0.0
  0
VERTEX
  5
BD9
  8
G
 10
848.2023102528879
 20
34.64354330442913
 30
0.0
  0
VERTEX
  5
BDA
  8
G
 10
841.1595514494393
 20
17.80377225471532
 30
0.0
  0
SEQEND
  5
BDB
  8
G
  0
POLYLINE
  5
175
  8
G
 66
     1
 10
0.0
 20
0.0
 30
0.0
  0
VERTEX
  5
BDC
  8
G
 10
994.4292430365538
 20
-84.58685573356968
 30
0.0
  0
VERTEX
  5
BDD
  8
G
 10
1007.532009415012
 20
-71.7488396860496
 30
0.0
  0
SEQEND
  5
BDE
  8
G
  0
POLYLINE
  5
176
  8
G
 66
     1
 10
0.0
 20
0.0
 30
0.0
  0
VERTEX
  5
BDF
  8
G
 10
879.9250999063748
 20
3.460254325317905
 30
0.0
  0
VERTEX
  5
BE0
  8
G
 10
866.8820836026046
 20
16.35127043908804
 30
0.0
  0
SEQEND
  5
BE1
  8
G
  0
POLYLINE
  5
177
  8
G
 66
     1
 10
0.0
 20
0.0
 30
0.0
  0
VERTEX
  5
BE2
  8
G
 10
879.9250999063748
 20
3.460254325317905
 30
0.0
  0
VERTEX
  5
BE3
  8
G
 10
866.8820836026046
 20
16.35127043908804
 30
0.0
  0
SEQEND
  5
BE4
  8
G
  0
POLYLINE
  5
178
  8
G
 66
     1
 10
0.0
 20
0.0
 30
0.0
  0
VERTEX
  5
BE5
  8
G
 10
939.8501748127185
 20
-45.13630642038304
 30
0.0
  0
VERTEX
  5
BE6
  8
G
 10
924.8184060230076
 20
-51.25056406320509
 30
0.0
  0
VERTEX
  5
BE7
  8
G
 10
892.1769902212378
 20
-19.5473994342493
 30
0.0
  0
VERTEX
  5
BE8
  8
G
 10
892.0078650098312
 20
-19.53777442221804
 30
0.0
  0
VERTEX
  5
BE9
  8
G
 10
879.9288499110623
 20
-31.46578933223668
 30
0.0
  0
SEQEND
  5
BEA
  8
G
  0
POLYLINE
  5
179
  8
G
 66
     1
 10
0.0
 20
0.0
 30
0.0
  0
VERTEX
  5
BEB
  8
G
 10
1000.985501231877
 20
-96.40112050140064
 30
0.0
  0
VERTEX
  5
BEC
  8
G
 10
982.45272806591
 20
-96.40112050140064
 30
0.0
  0
SEQEND
  5
BED
  8
G
  0
POLYLINE
  5
17A
  8
G
 66
     1
 10
0.0
 20
0.0
 30
0.0
  0
VERTEX
  5
BEE
  8
G
 10
917.8541473176842
 20
-35.2547940684926
 30
0.0
  0
VERTEX
  5
BEF
  8
G
 10
904.7538809423511
 20
-22.28827786034732
 30
0.0
  0
SEQEND
  5
BF0
  8
G
  0
POLYLINE
  5
17B
  8
G
 66
     1
 10
0.0
 20
0.0
 30
0.0
  0
VERTEX
  5
BF1
  8
G
 10
783.6814796018496
 20
77.61909702387125
 30
0.0
  0
VERTEX
  5
BF2
  8
G
 10
802.1920027400034
 20
77.61909702387125
 30
0.0
  0
SEQEND
  5
BF3
  8
G
  0
POLYLINE
  5
17C
  8
G
 66
     1
 10
0.0
 20
0.0
 30
0.0
  0
VERTEX
  5
BF4
  8
G
 10
991.8964898706123
 20
-96.55487069358837
 30
0.0
  0
VERTEX
  5
BF5
  8
G
 10
1024.0832801041
 20
-64.94758118447649
 30
0.0
  0
VERTEX
  5
BF6
  8
G
 10
1017.85727232159
 20
-50.18656273320342
 30
0.0
  0
SEQEND
  5
BF7
  8
G
  0
POLYLINE
  5
17D
  8
G
 66
     1
 10
0.0
 20
0.0
 30
0.0
  0
VERTEX
  5
BF8
  8
G
 10
790.2179877724848
 20
65.8115822644778
 30
0.0
  0
VERTEX
  5
BF9
  8
G
 10
777.0909713637142
 20
52.94231617789521
 30
0.0
  0
SEQEND
  5
BFA
  8
G
  0
POLYLINE
  5
17E
  8
G
 66
     1
 10
0.0
 20
0.0
 30
0.0
  0
VERTEX
  5
BFB
  8
G
 10
831.0672888341111
 20
27.67828459785574
 30
0.0
  0
VERTEX
  5
BFC
  8
G
 10
823.9792799740999
 20
10.87351359189199
 30
0.0
  0
SEQEND
  5
BFD
  8
G
  0
POLYLINE
  5
17F
  8
G
 66
     1
 10
0.0
 20
0.0
 30
0.0
  0
VERTEX
  5
BFE
  8
G
 10
806.9142586428234
 20
44.56855571069464
 30
0.0
  0
VERTEX
  5
BFF
  8
G
 10
813.1405164256455
 20
59.32957416196768
 30
0.0
  0
VERTEX
  5
C00
  8
G
 10
858.6498233122791
 20
59.35107418884273
 30
0.0
  0
VERTEX
  5
C01
  8
G
 10
858.6498233122791
 20
68.2978353722942
 30
0.0
  0
VERTEX
  5
C02
  8
G
 10
868.1030851288565
 20
77.5808469760587
 30
0.0
  0
SEQEND
  5
C03
  8
G
  0
POLYLINE
  5
180
  8
G
 66
     1
 10
0.0
 20
0.0
 30
0.0
  0
VERTEX
  5
C04
  8
G
 10
866.8215835269793
 20
-9.425511781889726
 30
0.0
  0
VERTEX
  5
C05
  8
G
 10
849.63931204914
 20
-16.34027042533804
 30
0.0
  0
SEQEND
  5
C06
  8
G
  0
POLYLINE
  5
181
  8
G
 66
     1
 10
0.0
 20
0.0
 30
0.0
  0
VERTEX
  5
C07
  8
G
 10
904.7296309120386
 20
-40.49480061850078
 30
0.0
  0
VERTEX
  5
C08
  8
G
 10
917.9468974336219
 20
-53.38281672852092
 30
0.0
  0
SEQEND
  5
C09
  8
G
  0
POLYLINE
  5
182
  8
G
 66
     1
 10
0.0
 20
0.0
 30
0.0
  0
VERTEX
  5
C0A
  8
G
 10
911.2718890898614
 20
-46.87405859257325
 30
0.0
  0
VERTEX
  5
C0B
  8
G
 10
911.2718890898614
 20
-63.75257969072462
 30
0.0
  0
VERTEX
  5
C0C
  8
G
 10
902.3238779048474
 20
-63.75257969072462
 30
0.0
  0
VERTEX
  5
C0D
  8
G
 10
892.2623653279566
 20
-73.28184160230201
 30
0.0
  0
VERTEX
  5
C0E
  8
G
 10
882.3988529985663
 20
-63.75257969072462
 30
0.0
  0
VERTEX
  5
C0F
  8
G
 10
873.4510918138648
 20
-63.75257969072462
 30
0.0
  0
VERTEX
  5
C10
  8
G
 10
873.1815914769893
 20
-19.06352382940479
 30
0.0
  0
VERTEX
  5
C11
  8
G
 10
858.1495726869659
 20
-12.94976618720774
 30
0.0
  0
SEQEND
  5
C12
  8
G
  0
POLYLINE
  5
183
  8
G
 66
     1
 10
0.0
 20
0.0
 30
0.0
  0
VERTEX
  5
C13
  8
G
 10
810.4422630528288
 20
36.09804512255641
 30
0.0
  0
VERTEX
  5
C14
  8
G
 10
803.3422541778177
 20
52.94356617945772
 30
0.0
  0
SEQEND
  5
C15
  8
G
  0
POLYLINE
  5
184
  8
G
 66
     1
 10
0.0
 20
0.0
 30
0.0
  0
VERTEX
  5
C16
  8
G
 10
879.9250999063748
 20
-22.31277789097238
 30
0.0
  0
VERTEX
  5
C17
  8
G
 10
879.93259991575
 20
-40.31480039350049
 30
0.0
  0
SEQEND
  5
C18
  8
G
  0
POLYLINE
  5
185
  8
G
 66
     1
 10
0.0
 20
0.0
 30
0.0
  0
VERTEX
  5
C19
  8
G
 10
958.8236985296232
 20
-84.5983557479447
 30
0.0
  0
VERTEX
  5
C1A
  8
G
 10
977.6292220365276
 20
-103.0646288307861
 30
0.0
  0
VERTEX
  5
C1B
  8
G
 10
1043.238054047568
 20
-102.9113786392233
 30
0.0
  0
SEQEND
  5
C1C
  8
G
  0
POLYLINE
  5
186
  8
G
 66
     1
 10
0.0
 20
0.0
 30
0.0
  0
VERTEX
  5
C1D
  8
G
 10
826.9915337394173
 20
19.29852412315514
 30
0.0
  0
VERTEX
  5
C1E
  8
G
 10
812.3175153968942
 20
13.33001666252082
 30
0.0
  0
VERTEX
  5
C1F
  8
G
 10
792.9092411365514
 20
59.34157417696771
 30
0.0
  0
VERTEX
  5
C20
  8
G
 10
783.020728775911
 20
59.34157417696771
 30
0.0
  0
SEQEND
  5
C21
  8
G
  0
POLYLINE
  5
187
  8
G
 66
     1
 10
0.0
 20
0.0
 30
0.0
  0
VERTEX
  5
C22
  8
G
 10
771.6512145640182
 20
65.80533225666531
 30
0.0
  0
VERTEX
  5
C23
  8
G
 10
758.474948093685
 20
52.86506608133261
 30
0.0
  0
SEQEND
  5
C24
  8
G
  0
POLYLINE
  5
188
  8
G
 66
     1
 10
0.0
 20
0.0
 30
0.0
  0
VERTEX
  5
C25
  8
G
 10
936.5054206317758
 20
-71.60708950886189
 30
0.0
  0
VERTEX
  5
C26
  8
G
 10
955.1009438761798
 20
-71.71533964417456
 30
0.0
  0
SEQEND
  5
C27
  8
G
  0
POLYLINE
  5
189
  8
G
 66
     1
 10
0.0
 20
0.0
 30
0.0
  0
VERTEX
  5
C28
  8
G
 10
849.7335621669527
 20
-2.449503061878832
 30
0.0
  0
VERTEX
  5
C29
  8
G
 10
832.5295406619258
 20
-9.392011740014683
 30
0.0
  0
SEQEND
  5
C2A
  8
G
  0
POLYLINE
  5
18A
  8
G
 66
     1
 10
0.0
 20
0.0
 30
0.0
  0
VERTEX
  5
C2B
  8
G
 10
949.6171870214837
 20
-84.60985576231971
 30
0.0
  0
VERTEX
  5
C2C
  8
G
 10
968.1834602293253
 20
-84.58685573356968
 30
0.0
  0
SEQEND
  5
C2D
  8
G
  0
POLYLINE
  5
18B
  8
G
 66
     1
 10
0.0
 20
0.0
 30
0.0
  0
VERTEX
  5
C2E
  8
G
 10
961.6472020590026
 20
-96.40237050296315
 30
0.0
  0
VERTEX
  5
C2F
  8
G
 10
975.2202190252738
 20
-109.7726372157965
 30
0.0
  0
SEQEND
  5
C30
  8
G
  0
POLYLINE
  5
18C
  8
G
 66
     1
 10
0.0
 20
0.0
 30
0.0
  0
VERTEX
  5
C31
  8
G
 10
968.3757104696381
 20
-103.030628788286
 30
0.0
  0
VERTEX
  5
C32
  8
G
 10
892.2856153570192
 20
-102.9537536921921
 30
0.0
  0
VERTEX
  5
C33
  8
G
 10
874.5555931944915
 20
-102.9113786392233
 30
0.0
  0
VERTEX
  5
C34
  8
G
 10
858.8308235385294
 20
-87.05360881701102
 30
0.0
  0
VERTEX
  5
C35
  8
G
 10
858.551323189154
 20
-78.15309769137212
 30
0.0
  0
VERTEX
  5
C36
  8
G
 10
841.5983019978776
 20
-78.15309769137212
 30
0.0
  0
SEQEND
  5
C37
  8
G
  0
POLYLINE
  5
18D
  8
G
 66
     1
 10
0.0
 20
0.0
 30
0.0
  0
VERTEX
  5
C38
  8
G
 10
741.1201764002205
 20
84.20435525544404
 30
0.0
  0
VERTEX
  5
C39
  8
G
 10
807.0067587584484
 20
84.26910533638167
 30
0.0
  0
VERTEX
  5
C3A
  8
G
 10
825.8057822572279
 20
65.80883226104032
 30
0.0
  0
SEQEND
  5
C3B
  8
G
  0
POLYLINE
  5
18E
  8
G
 66
     1
 10
0.0
 20
0.0
 30
0.0
  0
VERTEX
  5
C3C
  8
G
 10
747.9259349074187
 20
77.48884686105855
 30
0.0
  0
VERTEX
  5
C3D
  8
G
 10
735.038168797711
 20
90.20536275670344
 30
0.0
  0
SEQEND
  5
C3E
  8
G
  0
POLYLINE
  5
18F
  8
G
 66
     1
 10
0.0
 20
0.0
 30
0.0
  0
VERTEX
  5
C3F
  8
G
 10
841.0728013410017
 20
-6.013757517196899
 30
0.0
  0
VERTEX
  5
C40
  8
G
 10
826.3992829991037
 20
-0.0452500565625744
 30
0.0
  0
VERTEX
  5
C41
  8
G
 10
845.8073072591341
 20
45.96630745788433
 30
0.0
  0
VERTEX
  5
C42
  8
G
 10
838.8150485188107
 20
52.83281604102005
 30
0.0
  0
SEQEND
  5
C43
  8
G
  0
POLYLINE
  5
190
  8
G
 66
     1
 10
0.0
 20
0.0
 30
0.0
  0
VERTEX
  5
C44
  8
G
 10
799.9129998912499
 20
27.98203497754371
 30
0.0
  0
VERTEX
  5
C45
  8
G
 10
793.8349922937405
 20
13.57276696595871
 30
0.0
  0
VERTEX
  5
C46
  8
G
 10
746.9794337242922
 20
32.63129078911348
 30
0.0
  0
VERTEX
  5
C47
  8
G
 10
739.9869249836563
 20
25.76478220597775
 30
0.0
  0
SEQEND
  5
C48
  8
G
  0
POLYLINE
  5
191
  8
G
 66
     1
 10
0.0
 20
0.0
 30
0.0
  0
VERTEX
  5
C49
  8
G
 10
803.3440041800052
 20
19.2677740847176
 30
0.0
  0
VERTEX
  5
C4A
  8
G
 10
796.2367452959315
 20
36.1027951284939
 30
0.0
  0
SEQEND
  5
C4B
  8
G
  0
POLYLINE
  5
192
  8
G
 66
     1
 10
0.0
 20
0.0
 30
0.0
  0
VERTEX
  5
C4C
  8
G
 10
767.042708803386
 20
31.10503888129859
 30
0.0
  0
VERTEX
  5
C4D
  8
G
 10
760.8164510205638
 20
45.86605733257164
 30
0.0
  0
VERTEX
  5
C4E
  8
G
 10
793.1107413884267
 20
77.57859697324619
 30
0.0
  0
SEQEND
  5
C4F
  8
G
  0
POLYLINE
  5
193
  8
G
 66
     1
 10
0.0
 20
0.0
 30
0.0
  0
VERTEX
  5
C50
  8
G
 10
866.7565834457293
 20
-53.44456680570852
 30
0.0
  0
VERTEX
  5
C51
  8
G
 10
866.7823334779168
 20
-35.22854403568006
 30
0.0
  0
SEQEND
  5
C52
  8
G
  0
POLYLINE
  5
194
  8
G
 66
     1
 10
0.0
 20
0.0
 30
0.0
  0
VERTEX
  5
C53
  8
G
 10
758.4621980777476
 20
34.65454331817912
 30
0.0
  0
VERTEX
  5
C54
  8
G
 10
775.6117195146494
 20
27.68303460379326
 30
0.0
  0
SEQEND
  5
C55
  8
G
  0
POLYLINE
  5
195
  8
G
 66
     1
 10
0.0
 20
0.0
 30
0.0
  0
VERTEX
  5
C56
  8
G
 10
841.1183013978768
 20
-36.61554576943222
 30
0.0
  0
VERTEX
  5
C57
  8
G
 10
823.9792799740999
 20
-29.65778707223384
 30
0.0
  0
SEQEND
  5
C58
  8
G
  0
POLYLINE
  5
196
  8
G
 66
     1
 10
0.0
 20
0.0
 30
0.0
  0
VERTEX
  5
C59
  8
G
 10
782.7217284021605
 20
10.8867636084545
 30
0.0
  0
VERTEX
  5
C5A
  8
G
 10
765.5519569399462
 20
17.84527230659038
 30
0.0
  0
SEQEND
  5
C5B
  8
G
  0
POLYLINE
  5
197
  8
G
 66
     1
 10
0.0
 20
0.0
 30
0.0
  0
VERTEX
  5
C5C
  8
G
 10
832.6787908484886
 20
-33.21229151536441
 30
0.0
  0
VERTEX
  5
C5D
  8
G
 10
826.6010332512916
 20
-18.80277350346688
 30
0.0
  0
VERTEX
  5
C5E
  8
G
 10
873.4563418204273
 20
0.2560003200003962
 30
0.0
  0
VERTEX
  5
C5F
  8
G
 10
873.4563418204273
 20
9.96651245814057
 30
0.0
  0
SEQEND
  5
C60
  8
G
  0
POLYLINE
  5
198
  8
G
 66
     1
 10
0.0
 20
0.0
 30
0.0
  0
VERTEX
  5
C61
  8
G
 10
774.0832176040219
 20
14.38776798470997
 30
0.0
  0
VERTEX
  5
C62
  8
G
 10
780.160975201219
 20
-0.0217500271875384
 30
0.0
  0
VERTEX
  5
C63
  8
G
 10
733.3056666320833
 20
-19.08052385065482
 30
0.0
  0
VERTEX
  5
C64
  8
G
 10
733.3056666320833
 20
-28.79103598879499
 30
0.0
  0
SEQEND
  5
C65
  8
G
  0
POLYLINE
  5
199
  8
G
 66
     1
 10
0.0
 20
0.0
 30
0.0
  0
VERTEX
  5
C66
  8
G
 10
907.1021338776673
 20
-96.40512050640064
 30
0.0
  0
VERTEX
  5
C67
  8
G
 10
925.8919073648842
 20
-96.27237034046293
 30
0.0
  0
SEQEND
  5
C68
  8
G
  0
POLYLINE
  5
19A
  8
G
 66
     1
 10
0.0
 20
0.0
 30
0.0
  0
VERTEX
  5
C69
  8
G
 10
699.7931247414059
 20
77.6493470616838
 30
0.0
  0
VERTEX
  5
C6A
  8
G
 10
681.003351254189
 20
77.48884686105855
 30
0.0
  0
SEQEND
  5
C6B
  8
G
  0
POLYLINE
  5
19B
  8
G
 66
     1
 10
0.0
 20
0.0
 30
0.0
  0
VERTEX
  5
C6C
  8
G
 10
848.2123102653879
 20
-53.45706682133353
 30
0.0
  0
VERTEX
  5
C6D
  8
G
 10
831.0455388069236
 20
-46.48955811194764
 30
0.0
  0
SEQEND
  5
C6E
  8
G
  0
POLYLINE
  5
19C
  8
G
 66
     1
 10
0.0
 20
0.0
 30
0.0
  0
VERTEX
  5
C6F
  8
G
 10
739.9164248955311
 20
34.6407933009916
 30
0.0
  0
VERTEX
  5
C70
  8
G
 10
739.8876748595935
 20
16.45852057315072
 30
0.0
  0
SEQEND
  5
C71
  8
G
  0
POLYLINE
  5
19D
  8
G
 66
     1
 10
0.0
 20
0.0
 30
0.0
  0
VERTEX
  5
C72
  8
G
 10
774.1582176977722
 20
-9.392011740014683
 30
0.0
  0
VERTEX
  5
C73
  8
G
 10
757.0309462886828
 20
-16.36677045846309
 30
0.0
  0
SEQEND
  5
C74
  8
G
  0
POLYLINE
  5
19E
  8
G
 66
     1
 10
0.0
 20
0.0
 30
0.0
  0
VERTEX
  5
C75
  8
G
 10
848.1980602475753
 20
-71.66883958604949
 30
0.0
  0
VERTEX
  5
C76
  8
G
 10
835.0270437838047
 20
-84.60985576231971
 30
0.0
  0
SEQEND
  5
C77
  8
G
  0
POLYLINE
  5
19F
  8
G
 66
     1
 10
0.0
 20
0.0
 30
0.0
  0
VERTEX
  5
C78
  8
G
 10
803.3440041800052
 20
-38.05229756537197
 30
0.0
  0
VERTEX
  5
C79
  8
G
 10
810.4205130256413
 20
-54.9090686363358
 30
0.0
  0
SEQEND
  5
C7A
  8
G
  0
POLYLINE
  5
1A0
  8
G
 66
     1
 10
0.0
 20
0.0
 30
0.0
  0
VERTEX
  5
C7B
  8
G
 10
757.0304462880579
 20
-2.429753037191302
 30
0.0
  0
VERTEX
  5
C7C
  8
G
 10
739.8916748645936
 20
-9.4027617534522
 30
0.0
  0
SEQEND
  5
C7D
  8
G
  0
POLYLINE
  5
1A1
  8
G
 66
     1
 10
0.0
 20
0.0
 30
0.0
  0
VERTEX
  5
C7E
  8
G
 10
806.8807586009483
 20
-46.68855836069795
 30
0.0
  0
VERTEX
  5
C7F
  8
G
 10
812.9590161987703
 20
-32.27929034911294
 30
0.0
  0
VERTEX
  5
C80
  8
G
 10
859.814324767906
 20
-51.33781417226773
 30
0.0
  0
VERTEX
  5
C81
  8
G
 10
866.8068335085419
 20
-44.471305589132
 30
0.0
  0
SEQEND
  5
C82
  8
G
  0
POLYLINE
  5
1A2
  8
G
 66
     1
 10
0.0
 20
0.0
 30
0.0
  0
VERTEX
  5
C83
  8
G
 10
765.418956773696
 20
-12.91426614283269
 30
0.0
  0
VERTEX
  5
C84
  8
G
 10
780.0927251159064
 20
-18.88302360377951
 30
0.0
  0
VERTEX
  5
C85
  8
G
 10
760.6844508555636
 20
-64.89458111822641
 30
0.0
  0
VERTEX
  5
C86
  8
G
 10
767.6767095958869
 20
-71.76083970104963
 30
0.0
  0
SEQEND
  5
C87
  8
G
  0
POLYLINE
  5
1A3
  8
G
 66
     1
 10
0.0
 20
0.0
 30
0.0
  0
VERTEX
  5
C88
  8
G
 10
782.708978386223
 20
-29.65828707285884
 30
0.0
  0
VERTEX
  5
C89
  8
G
 10
775.6554695693369
 20
-46.4558080697601
 30
0.0
  0
SEQEND
  5
C8A
  8
G
  0
POLYLINE
  5
1A4
  8
G
 66
     1
 10
0.0
 20
0.0
 30
0.0
  0
VERTEX
  5
C8B
  8
G
 10
858.8308235385294
 20
-96.27237034046293
 30
0.0
  0
VERTEX
  5
C8C
  8
G
 10
872.5343406679258
 20
-109.7946372432966
 30
0.0
  0
SEQEND
  5
C8D
  8
G
  0
POLYLINE
  5
1A5
  8
G
 66
     1
 10
0.0
 20
0.0
 30
0.0
  0
VERTEX
  5
C8E
  8
G
 10
748.3374354217942
 20
-5.966257457821828
 30
0.0
  0
VERTEX
  5
C8F
  8
G
 10
733.3056666320833
 20
0.1477501846877214
 30
0.0
  0
VERTEX
  5
C90
  8
G
 10
733.3056666320833
 20
44.9965562456953
 30
0.0
  0
VERTEX
  5
C91
  8
G
 10
724.3579054473819
 20
44.9965562456953
 30
0.0
  0
VERTEX
  5
C92
  8
G
 10
714.3508929386162
 20
54.60031825039781
 30
0.0
  0
VERTEX
  5
C93
  8
G
 10
704.5711307139134
 20
44.9965562456953
 30
0.0
  0
VERTEX
  5
C94
  8
G
 10
695.6233695292119
 20
44.9965562456953
 30
0.0
  0
VERTEX
  5
C95
  8
G
 10
695.6233695292119
 20
28.38903548629436
 30
0.0
  0
SEQEND
  5
C96
  8
G
  0
POLYLINE
  5
1A6
  8
G
 66
     1
 10
0.0
 20
0.0
 30
0.0
  0
VERTEX
  5
C97
  8
G
 10
779.1764739705925
 20
-38.15254769068461
 30
0.0
  0
VERTEX
  5
C98
  8
G
 10
793.8504923131154
 20
-32.1842902303628
 30
0.0
  0
VERTEX
  5
C99
  8
G
 10
813.2587665734582
 20
-78.19559774449719
 30
0.0
  0
VERTEX
  5
C9A
  8
G
 10
823.1472789340987
 20
-78.19559774449719
 30
0.0
  0
SEQEND
  5
C9B
  8
G
  0
POLYLINE
  5
1A7
  8
G
 66
     1
 10
0.0
 20
0.0
 30
0.0
  0
VERTEX
  5
C9C
  8
G
 10
796.2804953506193
 20
-54.87531859414825
 30
0.0
  0
VERTEX
  5
C9D
  8
G
 10
803.3412541765676
 20
-71.71908964886207
 30
0.0
  0
SEQEND
  5
C9E
  8
G
  0
POLYLINE
  5
1A8
  8
G
 66
     1
 10
0.0
 20
0.0
 30
0.0
  0
VERTEX
  5
C9F
  8
G
 10
726.7876584845731
 20
3.48475435594294
 30
0.0
  0
VERTEX
  5
CA0
  8
G
 10
726.768158460198
 20
21.7582771978465
 30
0.0
  0
SEQEND
  5
CA1
  8
G
  0
POLYLINE
  5
1A9
  8
G
 66
     1
 10
0.0
 20
0.0
 30
0.0
  0
VERTEX
  5
CA2
  8
G
 10
638.5785482231853
 20
84.26910533638167
 30
0.0
  0
VERTEX
  5
CA3
  8
G
 10
731.6614145767683
 20
84.26910533638167
 30
0.0
  0
VERTEX
  5
CA4
  8
G
 10
747.9259349074187
 20
68.2975853719817
 30
0.0
  0
VERTEX
  5
CA5
  8
G
 10
747.9259349074187
 20
59.35107418884273
 30
0.0
  0
VERTEX
  5
CA6
  8
G
 10
765.0784563480704
 20
59.35107418884273
 30
0.0
  0
SEQEND
  5
CA7
  8
G
  0
POLYLINE
  5
1AA
  8
G
 66
     1
 10
0.0
 20
0.0
 30
0.0
  0
VERTEX
  5
CA8
  8
G
 10
645.2478065597581
 20
77.61884702355877
 30
0.0
  0
VERTEX
  5
CA9
  8
G
 10
632.6245407806759
 20
90.20536275670344
 30
0.0
  0
SEQEND
  5
CAA
  8
G
  0
POLYLINE
  5
1AB
  8
G
 66
     1
 10
0.0
 20
0.0
 30
0.0
  0
VERTEX
  5
CAB
  8
G
 10
657.3803217254022
 20
65.80533225666531
 30
0.0
  0
VERTEX
  5
CAC
  8
G
 10
638.8172985216231
 20
65.8115822644778
 30
0.0
  0
SEQEND
  5
CAD
  8
G
  0
POLYLINE
  5
1AC
  8
G
 66
     1
 10
0.0
 20
0.0
 30
0.0
  0
VERTEX
  5
CAE
  8
G
 10
670.5413381766728
 20
52.85556606945757
 30
0.0
  0
VERTEX
  5
CAF
  8
G
 10
651.9413149266436
 20
52.93756617195771
 30
0.0
  0
SEQEND
  5
CB0
  8
G
  0
POLYLINE
  5
1AD
  8
G
 66
     1
 10
0.0
 20
0.0
 30
0.0
  0
VERTEX
  5
CB1
  8
G
 10
689.0998613748267
 20
34.6312932891166
 30
0.0
  0
VERTEX
  5
CB2
  8
G
 10
702.1611277014097
 20
21.75802719753399
 30
0.0
  0
SEQEND
  5
CB3
  8
G
  0
POLYLINE
  5
1AE
  8
G
 66
     1
 10
0.0
 20
0.0
 30
0.0
  0
VERTEX
  5
CB4
  8
G
 10
799.8389997987497
 20
-63.41832927291159
 30
0.0
  0
VERTEX
  5
CB5
  8
G
 10
793.61299201624
 20
-78.17959772449717
 30
0.0
  0
VERTEX
  5
CB6
  8
G
 10
747.9416849271062
 20
-78.17959772449717
 30
0.0
  0
VERTEX
  5
CB7
  8
G
 10
747.9259349074187
 20
-87.05360881701102
 30
0.0
  0
VERTEX
  5
CB8
  8
G
 10
738.4041730052163
 20
-96.40362050452565
 30
0.0
  0
SEQEND
  5
CB9
  8
G
  0
POLYLINE
  5
1AF
  8
G
 66
     1
 10
0.0
 20
0.0
 30
0.0
  0
VERTEX
  5
CBA
  8
G
 10
765.5522069402587
 20
-36.64154580193225
 30
0.0
  0
VERTEX
  5
CBB
  8
G
 10
758.5254481568102
 20
-53.39531674414594
 30
0.0
  0
SEQEND
  5
CBC
  8
G
  0
POLYLINE
  5
1B0
  8
G
 66
     1
 10
0.0
 20
0.0
 30
0.0
  0
VERTEX
  5
CBD
  8
G
 10
816.4632705790882
 20
-84.58685573356968
 30
0.0
  0
VERTEX
  5
CBE
  8
G
 10
829.5660369575462
 20
-71.7488396860496
 30
0.0
  0
SEQEND
  5
CBF
  8
G
  0
POLYLINE
  5
1B1
  8
G
 66
     1
 10
0.0
 20
0.0
 30
0.0
  0
VERTEX
  5
CC0
  8
G
 10
823.0197787747236
 20
-96.40112050140064
 30
0.0
  0
VERTEX
  5
CC1
  8
G
 10
804.4867556084446
 20
-96.40112050140064
 30
0.0
  0
SEQEND
  5
CC2
  8
G
  0
POLYLINE
  5
1B2
  8
G
 66
     1
 10
0.0
 20
0.0
 30
0.0
  0
VERTEX
  5
CC3
  8
G
 10
670.5553381941727
 20
34.64354330442913
 30
0.0
  0
VERTEX
  5
CC4
  8
G
 10
663.5125793907242
 20
17.80377225471532
 30
0.0
  0
SEQEND
  5
CC5
  8
G
  0
POLYLINE
  5
1B3
  8
G
 66
     1
 10
0.0
 20
0.0
 30
0.0
  0
VERTEX
  5
CC6
  8
G
 10
702.2783778479724
 20
3.460254325317905
 30
0.0
  0
VERTEX
  5
CC7
  8
G
 10
689.235361544202
 20
16.35127043908804
 30
0.0
  0
SEQEND
  5
CC8
  8
G
  0
POLYLINE
  5
1B4
  8
G
 66
     1
 10
0.0
 20
0.0
 30
0.0
  0
VERTEX
  5
CC9
  8
G
 10
702.2783778479724
 20
3.460254325317905
 30
0.0
  0
VERTEX
  5
CCA
  8
G
 10
689.235361544202
 20
16.35127043908804
 30
0.0
  0
SEQEND
  5
CCB
  8
G
  0
POLYLINE
  5
1B5
  8
G
 66
     1
 10
0.0
 20
0.0
 30
0.0
  0
VERTEX
  5
CCC
  8
G
 10
813.9305174131468
 20
-96.55487069358837
 30
0.0
  0
VERTEX
  5
CCD
  8
G
 10
846.117557646947
 20
-64.94758118447649
 30
0.0
  0
VERTEX
  5
CCE
  8
G
 10
839.8910498638123
 20
-50.18656273320342
 30
0.0
  0
SEQEND
  5
CCF
  8
G
  0
POLYLINE
  5
1B6
  8
G
 66
     1
 10
0.0
 20
0.0
 30
0.0
  0
VERTEX
  5
CD0
  8
G
 10
739.8881748602186
 20
-35.2547940684926
 30
0.0
  0
VERTEX
  5
CD1
  8
G
 10
726.7876584845731
 20
-22.28827786034732
 30
0.0
  0
SEQEND
  5
CD2
  8
G
  0
POLYLINE
  5
1B7
  8
G
 66
     1
 10
0.0
 20
0.0
 30
0.0
  0
VERTEX
  5
CD3
  8
G
 10
667.196083995105
 20
26.3695329619162
 30
0.0
  0
VERTEX
  5
CD4
  8
G
 10
682.2278527848159
 20
32.48379060473826
 30
0.0
  0
VERTEX
  5
CD5
  8
G
 10
714.5680182100227
 20
0.6480008100010011
 30
0.0
  0
VERTEX
  5
CD6
  8
G
 10
726.7779084723857
 20
12.54126567658209
 30
0.0
  0
SEQEND
  5
CD7
  8
G
  0
POLYLINE
  5
1B8
  8
G
 66
     1
 10
0.0
 20
0.0
 30
0.0
  0
VERTEX
  5
CD8
  8
G
 10
606.034757543447
 20
77.61909702387125
 30
0.0
  0
VERTEX
  5
CD9
  8
G
 10
624.5450306812884
 20
77.61909702387125
 30
0.0
  0
SEQEND
  5
CDA
  8
G
  0
POLYLINE
  5
1B9
  8
G
 66
     1
 10
0.0
 20
0.0
 30
0.0
  0
VERTEX
  5
CDB
  8
G
 10
653.420816776021
 20
27.67828459785574
 30
0.0
  0
VERTEX
  5
CDC
  8
G
 10
646.3328079160099
 20
10.87351359189199
 30
0.0
  0
SEQEND
  5
CDD
  8
G
  0
POLYLINE
  5
1BA
  8
G
 66
     1
 10
0.0
 20
0.0
 30
0.0
  0
VERTEX
  5
CDE
  8
G
 10
780.857476071845
 20
-84.5983557479447
 30
0.0
  0
VERTEX
  5
CDF
  8
G
 10
799.6629995787493
 20
-103.0646288307861
 30
0.0
  0
VERTEX
  5
CE0
  8
G
 10
865.2720815901021
 20
-102.9113786392233
 30
0.0
  0
SEQEND
  5
CE1
  8
G
  0
POLYLINE
  5
1BB
  8
G
 66
     1
 10
0.0
 20
0.0
 30
0.0
  0
VERTEX
  5
CE2
  8
G
 10
612.5715157143946
 20
65.8115822644778
 30
0.0
  0
VERTEX
  5
CE3
  8
G
 10
599.4442493053116
 20
52.94231617789521
 30
0.0
  0
SEQEND
  5
CE4
  8
G
  0
POLYLINE
  5
1BC
  8
G
 66
     1
 10
0.0
 20
0.0
 30
0.0
  0
VERTEX
  5
CE5
  8
G
 10
726.763658454573
 20
-40.49480061850078
 30
0.0
  0
VERTEX
  5
CE6
  8
G
 10
739.9809249761562
 20
-53.38281672852092
 30
0.0
  0
SEQEND
  5
CE7
  8
G
  0
POLYLINE
  5
1BD
  8
G
 66
     1
 10
0.0
 20
0.0
 30
0.0
  0
VERTEX
  5
CE8
  8
G
 10
733.3056666320833
 20
-46.87405859257325
 30
0.0
  0
VERTEX
  5
CE9
  8
G
 10
733.3056666320833
 20
-63.75257969072462
 30
0.0
  0
VERTEX
  5
CEA
  8
G
 10
724.3579054473819
 20
-63.75257969072462
 30
0.0
  0
VERTEX
  5
CEB
  8
G
 10
714.531643164554
 20
-73.35609169511463
 30
0.0
  0
VERTEX
  5
CEC
  8
G
 10
704.7518809398512
 20
-63.75257969072462
 30
0.0
  0
VERTEX
  5
CED
  8
G
 10
695.8041197551497
 20
-63.75257969072462
 30
0.0
  0
VERTEX
  5
CEE
  8
G
 10
695.5346194182742
 20
-19.06352382940479
 30
0.0
  0
VERTEX
  5
CEF
  8
G
 10
680.5028506285632
 20
-12.94976618720774
 30
0.0
  0
SEQEND
  5
CF0
  8
G
  0
POLYLINE
  5
1BE
  8
G
 66
     1
 10
0.0
 20
0.0
 30
0.0
  0
VERTEX
  5
CF1
  8
G
 10
689.1748614685769
 20
-9.425511781889726
 30
0.0
  0
VERTEX
  5
CF2
  8
G
 10
671.9925899907375
 20
-16.34027042533804
 30
0.0
  0
SEQEND
  5
CF3
  8
G
  0
POLYLINE
  5
1BF
  8
G
 66
     1
 10
0.0
 20
0.0
 30
0.0
  0
VERTEX
  5
CF4
  8
G
 10
702.2783778479724
 20
-22.31277789097238
 30
0.0
  0
VERTEX
  5
CF5
  8
G
 10
702.2858778573473
 20
-40.31480039350049
 30
0.0
  0
SEQEND
  5
CF6
  8
G
  0
POLYLINE
  5
1C0
  8
G
 66
     1
 10
0.0
 20
0.0
 30
0.0
  0
VERTEX
  5
CF7
  8
G
 10
629.2677865847332
 20
44.56855571069464
 30
0.0
  0
VERTEX
  5
CF8
  8
G
 10
635.4935443669305
 20
59.32957416196768
 30
0.0
  0
VERTEX
  5
CF9
  8
G
 10
681.003351254189
 20
59.35107418884273
 30
0.0
  0
VERTEX
  5
CFA
  8
G
 10
681.003351254189
 20
68.2978353722942
 30
0.0
  0
VERTEX
  5
CFB
  8
G
 10
690.4566130707664
 20
77.5808469760587
 30
0.0
  0
SEQEND
  5
CFC
  8
G
  0
POLYLINE
  5
1C1
  8
G
 66
     1
 10
0.0
 20
0.0
 30
0.0
  0
VERTEX
  5
CFD
  8
G
 10
758.5394481743102
 20
-71.60708950886189
 30
0.0
  0
VERTEX
  5
CFE
  8
G
 10
777.1347214184018
 20
-71.71533964417456
 30
0.0
  0
SEQEND
  5
CFF
  8
G
  0
POLYLINE
  5
1C2
  8
G
 66
     1
 10
0.0
 20
0.0
 30
0.0
  0
VERTEX
  5
D00
  8
G
 10
771.6512145640182
 20
-84.60985576231971
 30
0.0
  0
VERTEX
  5
D01
  8
G
 10
790.2174877718597
 20
-84.58685573356968
 30
0.0
  0
SEQEND
  5
D02
  8
G
  0
POLYLINE
  5
1C3
  8
G
 66
     1
 10
0.0
 20
0.0
 30
0.0
  0
VERTEX
  5
D03
  8
G
 10
783.681229601537
 20
-96.40237050296315
 30
0.0
  0
VERTEX
  5
D04
  8
G
 10
797.2539965674957
 20
-109.7726372157965
 30
0.0
  0
SEQEND
  5
D05
  8
G
  0
POLYLINE
  5
1C4
  8
G
 66
     1
 10
0.0
 20
0.0
 30
0.0
  0
VERTEX
  5
D06
  8
G
 10
632.7957909947388
 20
36.09804512255641
 30
0.0
  0
VERTEX
  5
D07
  8
G
 10
625.6955321194151
 20
52.94356617945772
 30
0.0
  0
SEQEND
  5
D08
  8
G
  0
POLYLINE
  5
1C5
  8
G
 66
     1
 10
0.0
 20
0.0
 30
0.0
  0
VERTEX
  5
D09
  8
G
 10
790.40948801186
 20
-103.030628788286
 30
0.0
  0
VERTEX
  5
D0A
  8
G
 10
714.578143222679
 20
-102.9740037175046
 30
0.0
  0
VERTEX
  5
D0B
  8
G
 10
696.9088711360889
 20
-102.9115036393796
 30
0.0
  0
VERTEX
  5
D0C
  8
G
 10
681.1841014801269
 20
-87.05360881701102
 30
0.0
  0
VERTEX
  5
D0D
  8
G
 10
680.904351130439
 20
-78.15309769137212
 30
0.0
  0
VERTEX
  5
D0E
  8
G
 10
663.9515799394749
 20
-78.15309769137212
 30
0.0
  0
SEQEND
  5
D0F
  8
G
  0
POLYLINE
  5
1C6
  8
G
 66
     1
 10
0.0
 20
0.0
 30
0.0
  0
VERTEX
  5
D10
  8
G
 10
649.3448116810146
 20
19.29852412315514
 30
0.0
  0
VERTEX
  5
D11
  8
G
 10
634.6707933384916
 20
13.33001666252082
 30
0.0
  0
VERTEX
  5
D12
  8
G
 10
615.2625190781489
 20
59.34157417696771
 30
0.0
  0
VERTEX
  5
D13
  8
G
 10
605.3740067175083
 20
59.34157417696771
 30
0.0
  0
SEQEND
  5
D14
  8
G
  0
POLYLINE
  5
1C7
  8
G
 66
     1
 10
0.0
 20
0.0
 30
0.0
  0
VERTEX
  5
D15
  8
G
 10
672.0870901088626
 20
-2.449503061878832
 30
0.0
  0
VERTEX
  5
D16
  8
G
 10
654.8830686038358
 20
-9.392011740014683
 30
0.0
  0
SEQEND
  5
D17
  8
G
  0
POLYLINE
  5
1C8
  8
G
 66
     1
 10
0.0
 20
0.0
 30
0.0
  0
VERTEX
  5
D18
  8
G
 10
702.2821278526599
 20
-31.46578933223668
 30
0.0
  0
VERTEX
  5
D19
  8
G
 10
714.3608929511163
 20
-19.53789942237429
 30
0.0
  0
VERTEX
  5
D1A
  8
G
 10
746.852433565542
 20
-51.25056406320509
 30
0.0
  0
VERTEX
  5
D1B
  8
G
 10
761.8842023552529
 20
-45.13630642038304
 30
0.0
  0
SEQEND
  5
D1C
  8
G
  0
POLYLINE
  5
1C9
  8
G
 66
     1
 10
0.0
 20
0.0
 30
0.0
  0
VERTEX
  5
D1D
  8
G
 10
594.0042425053032
 20
65.80533225666531
 30
0.0
  0
VERTEX
  5
D1E
  8
G
 10
580.8282260352826
 20
52.86506608133261
 30
0.0
  0
SEQEND
  5
D1F
  8
G
  0
POLYLINE
  5
1CA
  8
G
 66
     1
 10
0.0
 20
0.0
 30
0.0
  0
VERTEX
  5
D20
  8
G
 10
663.4263292829116
 20
-6.013757517196899
 30
0.0
  0
VERTEX
  5
D21
  8
G
 10
648.7525609407012
 20
-0.0452500565625744
 30
0.0
  0
VERTEX
  5
D22
  8
G
 10
668.1605852007315
 20
45.96630745788433
 30
0.0
  0
VERTEX
  5
D23
  8
G
 10
661.1680764600956
 20
52.83281604102005
 30
0.0
  0
SEQEND
  5
D24
  8
G
  0
POLYLINE
  5
1CB
  8
G
 66
     1
 10
0.0
 20
0.0
 30
0.0
  0
VERTEX
  5
D25
  8
G
 10
622.2662778328472
 20
27.98203497754371
 30
0.0
  0
VERTEX
  5
D26
  8
G
 10
616.1880202350253
 20
13.57276696595871
 30
0.0
  0
VERTEX
  5
D27
  8
G
 10
569.3329616662021
 20
32.63129078911348
 30
0.0
  0
VERTEX
  5
D28
  8
G
 10
562.3402029252536
 20
25.76478220597775
 30
0.0
  0
SEQEND
  5
D29
  8
G
  0
POLYLINE
  5
1CC
  8
G
 66
     1
 10
0.0
 20
0.0
 30
0.0
  0
VERTEX
  5
D2A
  8
G
 10
570.2792128490161
 20
77.48884686105855
 30
0.0
  0
VERTEX
  5
D2B
  8
G
 10
557.3914467393084
 20
90.20536275670344
 30
0.0
  0
SEQEND
  5
D2C
  8
G
  0
POLYLINE
  5
1CD
  8
G
 66
     1
 10
0.0
 20
0.0
 30
0.0
  0
VERTEX
  5
D2D
  8
G
 10
563.473454341818
 20
84.20435525544404
 30
0.0
  0
VERTEX
  5
D2E
  8
G
 10
629.3602867003584
 20
84.26910533638167
 30
0.0
  0
VERTEX
  5
D2F
  8
G
 10
648.1590601988253
 20
65.80883226104032
 30
0.0
  0
SEQEND
  5
D30
  8
G
  0
POLYLINE
  5
1CE
  8
G
 66
     1
 10
0.0
 20
0.0
 30
0.0
  0
VERTEX
  5
D31
  8
G
 10
625.6972821216027
 20
19.2677740847176
 30
0.0
  0
VERTEX
  5
D32
  8
G
 10
618.5900232375291
 20
36.1027951284939
 30
0.0
  0
SEQEND
  5
D33
  8
G
  0
POLYLINE
  5
1CF
  8
G
 66
     1
 10
0.0
 20
0.0
 30
0.0
  0
VERTEX
  5
D34
  8
G
 10
570.2792128490161
 20
59.35107418884273
 30
0.0
  0
VERTEX
  5
D35
  8
G
 10
587.4317342896679
 20
59.35107418884273
 30
0.0
  0
VERTEX
  5
D36
  8
G
 10
570.2792128490161
 20
59.35107418884273
 30
0.0
  0
VERTEX
  5
D37
  8
G
 10
570.2792128490161
 20
68.2978353722942
 30
0.0
  0
VERTEX
  5
D38
  8
G
 10
554.0144425180531
 20
84.26910533638167
 30
0.0
  0
VERTEX
  5
D39
  8
G
 10
536.3034203792755
 20
84.26910533638167
 30
0.0
  0
VERTEX
  5
D3A
  8
G
 10
460.7078258847824
 20
84.26910533638167
 30
0.0
  0
SEQEND
  5
D3B
  8
G
  0
POLYLINE
  5
1D0
  8
G
 66
     1
 10
0.0
 20
0.0
 30
0.0
  0
VERTEX
  5
D3C
  8
G
 10
689.1096113870142
 20
-53.44456680570852
 30
0.0
  0
VERTEX
  5
D3D
  8
G
 10
689.1353614192018
 20
-35.22854403568006
 30
0.0
  0
SEQEND
  5
D3E
  8
G
  0
POLYLINE
  5
1D1
  8
G
 66
     1
 10
0.0
 20
0.0
 30
0.0
  0
VERTEX
  5
D3F
  8
G
 10
663.4715793394741
 20
-36.61554576943222
 30
0.0
  0
VERTEX
  5
D40
  8
G
 10
646.3328079160099
 20
-29.65778707223384
 30
0.0
  0
SEQEND
  5
D41
  8
G
  0
POLYLINE
  5
1D2
  8
G
 66
     1
 10
0.0
 20
0.0
 30
0.0
  0
VERTEX
  5
D42
  8
G
 10
589.3959867449835
 20
31.10503888129859
 30
0.0
  0
VERTEX
  5
D43
  8
G
 10
583.1694789618487
 20
45.86605733257164
 30
0.0
  0
VERTEX
  5
D44
  8
G
 10
615.4637693297117
 20
77.57859697324619
 30
0.0
  0
SEQEND
  5
D45
  8
G
  0
POLYLINE
  5
1D3
  8
G
 66
     1
 10
0.0
 20
0.0
 30
0.0
  0
VERTEX
  5
D46
  8
G
 10
729.1359114198892
 20
-96.40512050640064
 30
0.0
  0
VERTEX
  5
D47
  8
G
 10
747.9259349074187
 20
-96.27237034046293
 30
0.0
  0
SEQEND
  5
D48
  8
G
  0
POLYLINE
  5
1D4
  8
G
 66
     1
 10
0.0
 20
0.0
 30
0.0
  0
VERTEX
  5
D49
  8
G
 10
655.0323187903984
 20
-33.21229151536441
 30
0.0
  0
VERTEX
  5
D4A
  8
G
 10
648.9540611925765
 20
-18.80277350346688
 30
0.0
  0
VERTEX
  5
D4B
  8
G
 10
695.8093697617122
 20
0.2560003200003962
 30
0.0
  0
VERTEX
  5
D4C
  8
G
 10
695.8093697617122
 20
9.96651245814057
 30
0.0
  0
SEQEND
  5
D4D
  8
G
  0
POLYLINE
  5
1D5
  8
G
 66
     1
 10
0.0
 20
0.0
 30
0.0
  0
VERTEX
  5
D4E
  8
G
 10
580.815476019345
 20
34.65454331817912
 30
0.0
  0
VERTEX
  5
D4F
  8
G
 10
597.9647474559343
 20
27.68303460379326
 30
0.0
  0
SEQEND
  5
D50
  8
G
  0
POLYLINE
  5
1D6
  8
G
 66
     1
 10
0.0
 20
0.0
 30
0.0
  0
VERTEX
  5
D51
  8
G
 10
605.0752563440705
 20
10.8867636084545
 30
0.0
  0
VERTEX
  5
D52
  8
G
 10
587.9049848812311
 20
17.84527230659038
 30
0.0
  0
SEQEND
  5
D53
  8
G
  0
POLYLINE
  5
1D7
  8
G
 66
     1
 10
0.0
 20
0.0
 30
0.0
  0
VERTEX
  5
D54
  8
G
 10
670.5655882069852
 20
-53.45706682133353
 30
0.0
  0
VERTEX
  5
D55
  8
G
 10
653.3988167485209
 20
-46.48955811194764
 30
0.0
  0
SEQEND
  5
D56
  8
G
  0
POLYLINE
  5
1D8
  8
G
 66
     1
 10
0.0
 20
0.0
 30
0.0
  0
VERTEX
  5
D57
  8
G
 10
596.436245545307
 20
14.38776798470997
 30
0.0
  0
VERTEX
  5
D58
  8
G
 10
602.5145031431289
 20
-0.0217500271875384
 30
0.0
  0
VERTEX
  5
D59
  8
G
 10
555.6591945739932
 20
-19.08052385065482
 30
0.0
  0
VERTEX
  5
D5A
  8
G
 10
555.6591945739932
 20
-28.79103598879499
 30
0.0
  0
SEQEND
  5
D5B
  8
G
  0
POLYLINE
  5
1D9
  8
G
 66
     1
 10
0.0
 20
0.0
 30
0.0
  0
VERTEX
  5
D5C
  8
G
 10
521.9226524033155
 20
77.6493470616838
 30
0.0
  0
VERTEX
  5
D5D
  8
G
 10
503.1328789160987
 20
77.48884686105855
 30
0.0
  0
SEQEND
  5
D5E
  8
G
  0
POLYLINE
  5
1DA
  8
G
 66
     1
 10
0.0
 20
0.0
 30
0.0
  0
VERTEX
  5
D5F
  8
G
 10
562.2697028371285
 20
34.6407933009916
 30
0.0
  0
VERTEX
  5
D60
  8
G
 10
562.240952801191
 20
16.45852057315072
 30
0.0
  0
SEQEND
  5
D61
  8
G
  0
POLYLINE
  5
1DB
  8
G
 66
     1
 10
0.0
 20
0.0
 30
0.0
  0
VERTEX
  5
D62
  8
G
 10
670.5510881888603
 20
-71.66883958604949
 30
0.0
  0
VERTEX
  5
D63
  8
G
 10
657.3803217254022
 20
-84.60985576231971
 30
0.0
  0
SEQEND
  5
D64
  8
G
  0
POLYLINE
  5
1DC
  8
G
 66
     1
 10
0.0
 20
0.0
 30
0.0
  0
VERTEX
  5
D65
  8
G
 10
596.5114956393695
 20
-9.392011740014683
 30
0.0
  0
VERTEX
  5
D66
  8
G
 10
579.3842242302803
 20
-16.36677045846309
 30
0.0
  0
SEQEND
  5
D67
  8
G
  0
POLYLINE
  5
1DD
  8
G
 66
     1
 10
0.0
 20
0.0
 30
0.0
  0
VERTEX
  5
D68
  8
G
 10
625.6972821216027
 20
-38.05229756537197
 30
0.0
  0
VERTEX
  5
D69
  8
G
 10
632.7737909672387
 20
-54.9090686363358
 30
0.0
  0
SEQEND
  5
D6A
  8
G
  0
POLYLINE
  5
1DE
  8
G
 66
     1
 10
0.0
 20
0.0
 30
0.0
  0
VERTEX
  5
D6B
  8
G
 10
629.2340365425457
 20
-46.68855836069795
 30
0.0
  0
VERTEX
  5
D6C
  8
G
 10
635.3122941403676
 20
-32.27929034911294
 30
0.0
  0
VERTEX
  5
D6D
  8
G
 10
682.1678527098159
 20
-51.33781417226773
 30
0.0
  0
VERTEX
  5
D6E
  8
G
 10
689.1598614498268
 20
-44.471305589132
 30
0.0
  0
SEQEND
  5
D6F
  8
G
  0
POLYLINE
  5
1DF
  8
G
 66
     1
 10
0.0
 20
0.0
 30
0.0
  0
VERTEX
  5
D70
  8
G
 10
579.3837242296553
 20
-2.429753037191302
 30
0.0
  0
VERTEX
  5
D71
  8
G
 10
562.2452028065035
 20
-9.4027617534522
 30
0.0
  0
SEQEND
  5
D72
  8
G
  0
POLYLINE
  5
1E0
  8
G
 66
     1
 10
0.0
 20
0.0
 30
0.0
  0
VERTEX
  5
D73
  8
G
 10
681.1841014801269
 20
-96.27237034046293
 30
0.0
  0
VERTEX
  5
D74
  8
G
 10
694.8878686098358
 20
-109.7946372432966
 30
0.0
  0
SEQEND
  5
D75
  8
G
  0
POLYLINE
  5
1E1
  8
G
 66
     1
 10
0.0
 20
0.0
 30
0.0
  0
VERTEX
  5
D76
  8
G
 10
587.7719847149808
 20
-12.91426614283269
 30
0.0
  0
VERTEX
  5
D77
  8
G
 10
602.4457530571913
 20
-18.88302360377951
 30
0.0
  0
VERTEX
  5
D78
  8
G
 10
583.037728797161
 20
-64.89458111822641
 30
0.0
  0
VERTEX
  5
D79
  8
G
 10
590.0299875374844
 20
-71.76083970104963
 30
0.0
  0
SEQEND
  5
D7A
  8
G
  0
POLYLINE
  5
1E2
  8
G
 66
     1
 10
0.0
 20
0.0
 30
0.0
  0
VERTEX
  5
D7B
  8
G
 10
605.0622563278204
 20
-29.65828707285884
 30
0.0
  0
VERTEX
  5
D7C
  8
G
 10
598.0087475109344
 20
-46.4558080697601
 30
0.0
  0
SEQEND
  5
D7D
  8
G
  0
POLYLINE
  5
1E3
  8
G
 66
     1
 10
0.0
 20
0.0
 30
0.0
  0
VERTEX
  5
D7E
  8
G
 10
570.6907133633918
 20
-5.966257457821828
 30
0.0
  0
VERTEX
  5
D7F
  8
G
 10
555.6591945739932
 20
0.1477501846877214
 30
0.0
  0
VERTEX
  5
D80
  8
G
 10
555.6591945739932
 20
44.9965562456953
 30
0.0
  0
VERTEX
  5
D81
  8
G
 10
546.7111833889792
 20
44.9965562456953
 30
0.0
  0
VERTEX
  5
D82
  8
G
 10
536.5920457400572
 20
54.60031825039781
 30
0.0
  0
VERTEX
  5
D83
  8
G
 10
526.7009083761354
 20
44.9965562456953
 30
0.0
  0
VERTEX
  5
D84
  8
G
 10
517.752647190809
 20
44.9965562456953
 30
0.0
  0
VERTEX
  5
D85
  8
G
 10
517.752647190809
 20
28.38903548629436
 30
0.0
  0
SEQEND
  5
D86
  8
G
  0
POLYLINE
  5
1E4
  8
G
 66
     1
 10
0.0
 20
0.0
 30
0.0
  0
VERTEX
  5
D87
  8
G
 10
549.131186413983
 20
12.54126567658209
 30
0.0
  0
VERTEX
  5
D88
  8
G
 10
536.7995459994324
 20
0.7352509190636383
 30
0.0
  0
VERTEX
  5
D89
  8
G
 10
504.3571304464131
 20
32.48379060473826
 30
0.0
  0
VERTEX
  5
D8A
  8
G
 10
489.3258616573271
 20
26.3695329619162
 30
0.0
  0
SEQEND
  5
D8B
  8
G
  0
POLYLINE
  5
1E5
  8
G
 66
     1
 10
0.0
 20
0.0
 30
0.0
  0
VERTEX
  5
D8C
  8
G
 10
601.5300019125024
 20
-38.15254769068461
 30
0.0
  0
VERTEX
  5
D8D
  8
G
 10
616.2037702547128
 20
-32.1842902303628
 30
0.0
  0
VERTEX
  5
D8E
  8
G
 10
635.6120445150557
 20
-78.19559774449719
 30
0.0
  0
VERTEX
  5
D8F
  8
G
 10
645.5008068760086
 20
-78.19559774449719
 30
0.0
  0
SEQEND
  5
D90
  8
G
  0
POLYLINE
  5
1E6
  8
G
 66
     1
 10
0.0
 20
0.0
 30
0.0
  0
VERTEX
  5
D91
  8
G
 10
618.634023292529
 20
-54.87531859414825
 30
0.0
  0
VERTEX
  5
D92
  8
G
 10
625.6945321181652
 20
-71.71908964886207
 30
0.0
  0
SEQEND
  5
D93
  8
G
  0
POLYLINE
  5
1E7
  8
G
 66
     1
 10
0.0
 20
0.0
 30
0.0
  0
VERTEX
  5
D94
  8
G
 10
622.1920277400346
 20
-63.41832927291159
 30
0.0
  0
VERTEX
  5
D95
  8
G
 10
615.966019957525
 20
-78.17959772449717
 30
0.0
  0
VERTEX
  5
D96
  8
G
 10
570.2947128683911
 20
-78.17959772449717
 30
0.0
  0
VERTEX
  5
D97
  8
G
 10
570.2792128490161
 20
-87.05360881701102
 30
0.0
  0
VERTEX
  5
D98
  8
G
 10
560.7577009471262
 20
-96.40362050452565
 30
0.0
  0
SEQEND
  5
D99
  8
G
  0
POLYLINE
  5
1E8
  8
G
 66
     1
 10
0.0
 20
0.0
 30
0.0
  0
VERTEX
  5
D9A
  8
G
 10
549.1409364261706
 20
3.48475435594294
 30
0.0
  0
VERTEX
  5
D9B
  8
G
 10
549.1214364017954
 20
21.7582771978465
 30
0.0
  0
SEQEND
  5
D9C
  8
G
  0
POLYLINE
  5
1E9
  8
G
 66
     1
 10
0.0
 20
0.0
 30
0.0
  0
VERTEX
  5
D9D
  8
G
 10
587.9052348815436
 20
-36.64154580193225
 30
0.0
  0
VERTEX
  5
D9E
  8
G
 10
580.8784760980951
 20
-53.39531674414594
 30
0.0
  0
SEQEND
  5
D9F
  8
G
  0
POLYLINE
  5
1EA
  8
G
 66
     1
 10
0.0
 20
0.0
 30
0.0
  0
VERTEX
  5
DA0
  8
G
 10
638.8162985203732
 20
-84.58685573356968
 30
0.0
  0
VERTEX
  5
DA1
  8
G
 10
651.9193148991436
 20
-71.7488396860496
 30
0.0
  0
SEQEND
  5
DA2
  8
G
  0
POLYLINE
  5
1EB
  8
G
 66
     1
 10
0.0
 20
0.0
 30
0.0
  0
VERTEX
  5
DA3
  8
G
 10
511.2296390370488
 20
34.6312932891166
 30
0.0
  0
VERTEX
  5
DA4
  8
G
 10
524.2906553633192
 20
21.75802719753399
 30
0.0
  0
SEQEND
  5
DA5
  8
G
  0
POLYLINE
  5
1EC
  8
G
 66
     1
 10
0.0
 20
0.0
 30
0.0
  0
VERTEX
  5
DA6
  8
G
 10
492.6708658385823
 20
52.85556606945757
 30
0.0
  0
VERTEX
  5
DA7
  8
G
 10
474.0708425885532
 20
52.93756617195771
 30
0.0
  0
SEQEND
  5
DA8
  8
G
  0
POLYLINE
  5
1ED
  8
G
 66
     1
 10
0.0
 20
0.0
 30
0.0
  0
VERTEX
  5
DA9
  8
G
 10
479.5098493873117
 20
65.80533225666531
 30
0.0
  0
VERTEX
  5
DAA
  8
G
 10
460.9470761838452
 20
65.8115822644778
 30
0.0
  0
SEQEND
  5
DAB
  8
G
  0
POLYLINE
  5
1EE
  8
G
 66
     1
 10
0.0
 20
0.0
 30
0.0
  0
VERTEX
  5
DAC
  8
G
 10
467.3773342216678
 20
77.61884702355877
 30
0.0
  0
VERTEX
  5
DAD
  8
G
 10
454.7543184428981
 20
90.20536275670344
 30
0.0
  0
SEQEND
  5
DAE
  8
G
  0
POLYLINE
  5
1EF
  8
G
 66
     1
 10
0.0
 20
0.0
 30
0.0
  0
VERTEX
  5
DAF
  8
G
 10
645.3728067160084
 20
-96.40112050140064
 30
0.0
  0
VERTEX
  5
DB0
  8
G
 10
626.8400335500419
 20
-96.40112050140064
 30
0.0
  0
SEQEND
  5
DB1
  8
G
  0
POLYLINE
  5
1F0
  8
G
 66
     1
 10
0.0
 20
0.0
 30
0.0
  0
VERTEX
  5
DB2
  8
G
 10
584.2374802968504
 20
-45.13630642038304
 30
0.0
  0
VERTEX
  5
DB3
  8
G
 10
569.2057115071394
 20
-51.25056406320509
 30
0.0
  0
VERTEX
  5
DB4
  8
G
 10
536.6022957528697
 20
-19.53789942237429
 30
0.0
  0
VERTEX
  5
DB5
  8
G
 10
524.4119055148819
 20
-31.46578933223668
 30
0.0
  0
SEQEND
  5
DB6
  8
G
  0
POLYLINE
  5
1F1
  8
G
 66
     1
 10
0.0
 20
0.0
 30
0.0
  0
VERTEX
  5
DB7
  8
G
 10
636.2837953547441
 20
-96.55487069358837
 30
0.0
  0
VERTEX
  5
DB8
  8
G
 10
668.470585588232
 20
-64.94758118447649
 30
0.0
  0
VERTEX
  5
DB9
  8
G
 10
662.2443278054097
 20
-50.18656273320342
 30
0.0
  0
SEQEND
  5
DBA
  8
G
  0
POLYLINE
  5
1F2
  8
G
 66
     1
 10
0.0
 20
0.0
 30
0.0
  0
VERTEX
  5
DBB
  8
G
 10
524.4081555101944
 20
3.460254325317905
 30
0.0
  0
VERTEX
  5
DBC
  8
G
 10
511.3648892061115
 20
16.35127043908804
 30
0.0
  0
SEQEND
  5
DBD
  8
G
  0
POLYLINE
  5
1F3
  8
G
 66
     1
 10
0.0
 20
0.0
 30
0.0
  0
VERTEX
  5
DBE
  8
G
 10
492.6851158563948
 20
34.64354330442913
 30
0.0
  0
VERTEX
  5
DBF
  8
G
 10
485.6423570529463
 20
17.80377225471532
 30
0.0
  0
SEQEND
  5
DC0
  8
G
  0
POLYLINE
  5
1F4
  8
G
 66
     1
 10
0.0
 20
0.0
 30
0.0
  0
VERTEX
  5
DC1
  8
G
 10
562.2412028015035
 20
-35.2547940684926
 30
0.0
  0
VERTEX
  5
DC2
  8
G
 10
549.1409364261706
 20
-22.28827786034732
 30
0.0
  0
SEQEND
  5
DC3
  8
G
  0
POLYLINE
  5
1F5
  8
G
 66
     1
 10
0.0
 20
0.0
 30
0.0
  0
VERTEX
  5
DC4
  8
G
 10
603.211004013755
 20
-84.5983557479447
 30
0.0
  0
VERTEX
  5
DC5
  8
G
 10
622.0162775203469
 20
-103.0646288307861
 30
0.0
  0
VERTEX
  5
DC6
  8
G
 10
687.6253595316994
 20
-102.9113786392233
 30
0.0
  0
SEQEND
  5
DC7
  8
G
  0
POLYLINE
  5
1F6
  8
G
 66
     1
 10
0.0
 20
0.0
 30
0.0
  0
VERTEX
  5
DC8
  8
G
 10
549.1169363961706
 20
-40.49480061850078
 30
0.0
  0
VERTEX
  5
DC9
  8
G
 10
562.3342029177536
 20
-53.38281672852092
 30
0.0
  0
SEQEND
  5
DCA
  8
G
  0
POLYLINE
  5
1F7
  8
G
 66
     1
 10
0.0
 20
0.0
 30
0.0
  0
VERTEX
  5
DCB
  8
G
 10
555.6591945739932
 20
-46.87405859257325
 30
0.0
  0
VERTEX
  5
DCC
  8
G
 10
555.6591945739932
 20
-63.75257969072462
 30
0.0
  0
VERTEX
  5
DCD
  8
G
 10
546.7111833889792
 20
-63.75257969072462
 30
0.0
  0
VERTEX
  5
DCE
  8
G
 10
536.7731709664637
 20
-73.35609169511463
 30
0.0
  0
VERTEX
  5
DCF
  8
G
 10
526.8819086023857
 20
-63.75257969072462
 30
0.0
  0
VERTEX
  5
DD0
  8
G
 10
517.9336474170593
 20
-63.75257969072462
 30
0.0
  0
VERTEX
  5
DD1
  8
G
 10
517.6641470801839
 20
-19.06352382940479
 30
0.0
  0
VERTEX
  5
DD2
  8
G
 10
502.6323782904728
 20
-12.94976618720774
 30
0.0
  0
SEQEND
  5
DD3
  8
G
  0
POLYLINE
  5
1F8
  8
G
 66
     1
 10
0.0
 20
0.0
 30
0.0
  0
VERTEX
  5
DD4
  8
G
 10
580.8927261159076
 20
-71.60708950886189
 30
0.0
  0
VERTEX
  5
DD5
  8
G
 10
599.4879993599992
 20
-71.71533964417456
 30
0.0
  0
SEQEND
  5
DD6
  8
G
  0
POLYLINE
  5
1F9
  8
G
 66
     1
 10
0.0
 20
0.0
 30
0.0
  0
VERTEX
  5
DD7
  8
G
 10
428.164035205044
 20
77.61909702387125
 30
0.0
  0
VERTEX
  5
DD8
  8
G
 10
446.6748083435104
 20
77.61909702387125
 30
0.0
  0
SEQEND
  5
DD9
  8
G
  0
POLYLINE
  5
1FA
  8
G
 66
     1
 10
0.0
 20
0.0
 30
0.0
  0
VERTEX
  5
DDA
  8
G
 10
594.0042425053032
 20
-84.60985576231971
 30
0.0
  0
VERTEX
  5
DDB
  8
G
 10
612.5707657134571
 20
-84.58685573356968
 30
0.0
  0
SEQEND
  5
DDC
  8
G
  0
POLYLINE
  5
1FB
  8
G
 66
     1
 10
0.0
 20
0.0
 30
0.0
  0
VERTEX
  5
DDD
  8
G
 10
606.0345075431344
 20
-96.40237050296315
 30
0.0
  0
VERTEX
  5
DDE
  8
G
 10
619.6075245094056
 20
-109.7726372157965
 30
0.0
  0
SEQEND
  5
DDF
  8
G
  0
POLYLINE
  5
1FC
  8
G
 66
     1
 10
0.0
 20
0.0
 30
0.0
  0
VERTEX
  5
DE0
  8
G
 10
475.550094437618
 20
27.67828459785574
 30
0.0
  0
VERTEX
  5
DE1
  8
G
 10
468.4623355779195
 20
10.87351359189199
 30
0.0
  0
SEQEND
  5
DE2
  8
G
  0
POLYLINE
  5
1FD
  8
G
 66
     1
 10
0.0
 20
0.0
 30
0.0
  0
VERTEX
  5
DE3
  8
G
 10
511.3046391307989
 20
-9.425511781889726
 30
0.0
  0
VERTEX
  5
DE4
  8
G
 10
494.1223676529596
 20
-16.34027042533804
 30
0.0
  0
SEQEND
  5
DE5
  8
G
  0
POLYLINE
  5
1FE
  8
G
 66
     1
 10
0.0
 20
0.0
 30
0.0
  0
VERTEX
  5
DE6
  8
G
 10
524.4081555101944
 20
-22.31277789097238
 30
0.0
  0
VERTEX
  5
DE7
  8
G
 10
524.4154055192569
 20
-40.31480039350049
 30
0.0
  0
SEQEND
  5
DE8
  8
G
  0
POLYLINE
  5
1FF
  8
G
 66
     1
 10
0.0
 20
0.0
 30
0.0
  0
VERTEX
  5
DE9
  8
G
 10
434.7010433763042
 20
65.8115822644778
 30
0.0
  0
VERTEX
  5
DEA
  8
G
 10
421.5735269669087
 20
52.94231617789521
 30
0.0
  0
SEQEND
  5
DEB
  8
G
  0
POLYLINE
  5
200
  8
G
 66
     1
 10
0.0
 20
0.0
 30
0.0
  0
VERTEX
  5
DEC
  8
G
 10
451.3970642463303
 20
44.56855571069464
 30
0.0
  0
VERTEX
  5
DED
  8
G
 10
457.6233220291525
 20
59.32957416196768
 30
0.0
  0
VERTEX
  5
DEE
  8
G
 10
503.1328789160987
 20
59.35107418884273
 30
0.0
  0
VERTEX
  5
DEF
  8
G
 10
503.1328789160987
 20
68.2978353722942
 30
0.0
  0
VERTEX
  5
DF0
  8
G
 10
512.5861407326759
 20
77.5808469760587
 30
0.0
  0
SEQEND
  5
DF1
  8
G
  0
POLYLINE
  5
201
  8
G
 66
     1
 10
0.0
 20
0.0
 30
0.0
  0
VERTEX
  5
DF2
  8
G
 10
494.2163677704597
 20
-2.449503061878832
 30
0.0
  0
VERTEX
  5
DF3
  8
G
 10
477.0125962657453
 20
-9.392011740014683
 30
0.0
  0
SEQEND
  5
DF4
  8
G
  0
POLYLINE
  5
202
  8
G
 66
     1
 10
0.0
 20
0.0
 30
0.0
  0
VERTEX
  5
DF5
  8
G
 10
454.9253186566483
 20
36.09804512255641
 30
0.0
  0
VERTEX
  5
DF6
  8
G
 10
447.8250597813247
 20
52.94356617945772
 30
0.0
  0
SEQEND
  5
DF7
  8
G
  0
POLYLINE
  5
203
  8
G
 66
     1
 10
0.0
 20
0.0
 30
0.0
  0
VERTEX
  5
DF8
  8
G
 10
471.4740893426116
 20
19.29852412315514
 30
0.0
  0
VERTEX
  5
DF9
  8
G
 10
456.8005710007138
 20
13.33001666252082
 30
0.0
  0
VERTEX
  5
DFA
  8
G
 10
437.3922967403709
 20
59.34157417696771
 30
0.0
  0
VERTEX
  5
DFB
  8
G
 10
427.503534379418
 20
59.34157417696771
 30
0.0
  0
SEQEND
  5
DFC
  8
G
  0
POLYLINE
  5
204
  8
G
 66
     1
 10
0.0
 20
0.0
 30
0.0
  0
VERTEX
  5
DFD
  8
G
 10
416.1340201675252
 20
65.80533225666531
 30
0.0
  0
VERTEX
  5
DFE
  8
G
 10
402.9577536971921
 20
52.86506608133261
 30
0.0
  0
SEQEND
  5
DFF
  8
G
  0
POLYLINE
  5
205
  8
G
 66
     1
 10
0.0
 20
0.0
 30
0.0
  0
VERTEX
  5
E00
  8
G
 10
485.5558569448212
 20
-6.013757517196899
 30
0.0
  0
VERTEX
  5
E01
  8
G
 10
470.8820886026107
 20
-0.0452500565625744
 30
0.0
  0
VERTEX
  5
E02
  8
G
 10
490.2901128626411
 20
45.96630745788433
 30
0.0
  0
VERTEX
  5
E03
  8
G
 10
483.2978541223176
 20
52.83281604102005
 30
0.0
  0
SEQEND
  5
E04
  8
G
  0
POLYLINE
  5
206
  8
G
 66
     1
 10
0.0
 20
0.0
 30
0.0
  0
VERTEX
  5
E05
  8
G
 10
444.3958054947569
 20
27.98203497754371
 30
0.0
  0
VERTEX
  5
E06
  8
G
 10
438.3177978972474
 20
13.57276696595871
 30
0.0
  0
VERTEX
  5
E07
  8
G
 10
391.4622393277991
 20
32.63129078911348
 30
0.0
  0
VERTEX
  5
E08
  8
G
 10
384.4702305877883
 20
25.76478220597775
 30
0.0
  0
SEQEND
  5
E09
  8
G
  0
POLYLINE
  5
207
  8
G
 66
     1
 10
0.0
 20
0.0
 30
0.0
  0
VERTEX
  5
E0A
  8
G
 10
392.4084905106131
 20
77.48884686105855
 30
0.0
  0
VERTEX
  5
E0B
  8
G
 10
379.520974401218
 20
90.20536275670344
 30
0.0
  0
SEQEND
  5
E0C
  8
G
  0
POLYLINE
  5
208
  8
G
 66
     1
 10
0.0
 20
0.0
 30
0.0
  0
VERTEX
  5
E0D
  8
G
 10
385.6029820037275
 20
84.20435525544404
 30
0.0
  0
VERTEX
  5
E0E
  8
G
 10
451.4900643625804
 20
84.26910533638167
 30
0.0
  0
VERTEX
  5
E0F
  8
G
 10
470.2885878607348
 20
65.80883226104032
 30
0.0
  0
SEQEND
  5
E10
  8
G
  0
POLYLINE
  5
209
  8
G
 66
     1
 10
0.0
 20
0.0
 30
0.0
  0
VERTEX
  5
E11
  8
G
 10
447.8268097835122
 20
19.2677740847176
 30
0.0
  0
VERTEX
  5
E12
  8
G
 10
440.7195508994386
 20
36.1027951284939
 30
0.0
  0
SEQEND
  5
E13
  8
G
  0
POLYLINE
  5
20A
  8
G
 66
     1
 10
0.0
 20
0.0
 30
0.0
  0
VERTEX
  5
E14
  8
G
 10
511.2396390495488
 20
-53.44456680570852
 30
0.0
  0
VERTEX
  5
E15
  8
G
 10
511.2651390814239
 20
-35.22854403568006
 30
0.0
  0
SEQEND
  5
E16
  8
G
  0
POLYLINE
  5
20B
  8
G
 66
     1
 10
0.0
 20
0.0
 30
0.0
  0
VERTEX
  5
E17
  8
G
 10
551.4891893614868
 20
-96.40512050640064
 30
0.0
  0
VERTEX
  5
E18
  8
G
 10
570.2792128490161
 20
-96.27237034046293
 30
0.0
  0
SEQEND
  5
E19
  8
G
  0
POLYLINE
  5
20C
  8
G
 66
     1
 10
0.0
 20
0.0
 30
0.0
  0
VERTEX
  5
E1A
  8
G
 10
485.6008570010712
 20
-36.61554576943222
 30
0.0
  0
VERTEX
  5
E1B
  8
G
 10
468.4623355779195
 20
-29.65778707223384
 30
0.0
  0
SEQEND
  5
E1C
  8
G
  0
POLYLINE
  5
20D
  8
G
 66
     1
 10
0.0
 20
0.0
 30
0.0
  0
VERTEX
  5
E1D
  8
G
 10
477.1615964519956
 20
-33.21229151536441
 30
0.0
  0
VERTEX
  5
E1E
  8
G
 10
471.0838388547986
 20
-18.80277350346688
 30
0.0
  0
VERTEX
  5
E1F
  8
G
 10
517.9393974242467
 20
0.2560003200003962
 30
0.0
  0
VERTEX
  5
E20
  8
G
 10
517.9393974242467
 20
9.96651245814057
 30
0.0
  0
SEQEND
  5
E21
  8
G
  0
POLYLINE
  5
20E
  8
G
 66
     1
 10
0.0
 20
0.0
 30
0.0
  0
VERTEX
  5
E22
  8
G
 10
411.525514406893
 20
31.10503888129859
 30
0.0
  0
VERTEX
  5
E23
  8
G
 10
405.2995066243833
 20
45.86605733257164
 30
0.0
  0
VERTEX
  5
E24
  8
G
 10
437.5935469919337
 20
77.57859697324619
 30
0.0
  0
SEQEND
  5
E25
  8
G
  0
POLYLINE
  5
20F
  8
G
 66
     1
 10
0.0
 20
0.0
 30
0.0
  0
VERTEX
  5
E26
  8
G
 10
492.6948658685823
 20
-53.45706682133353
 30
0.0
  0
VERTEX
  5
E27
  8
G
 10
475.528094410118
 20
-46.48955811194764
 30
0.0
  0
SEQEND
  5
E28
  8
G
  0
POLYLINE
  5
210
  8
G
 66
     1
 10
0.0
 20
0.0
 30
0.0
  0
VERTEX
  5
E29
  8
G
 10
427.2050340062925
 20
10.8867636084545
 30
0.0
  0
VERTEX
  5
E2A
  8
G
 10
410.0347625434532
 20
17.84527230659038
 30
0.0
  0
SEQEND
  5
E2B
  8
G
  0
POLYLINE
  5
211
  8
G
 66
     1
 10
0.0
 20
0.0
 30
0.0
  0
VERTEX
  5
E2C
  8
G
 10
402.9452536815671
 20
34.65454331817912
 30
0.0
  0
VERTEX
  5
E2D
  8
G
 10
420.0945251181564
 20
27.68303460379326
 30
0.0
  0
SEQEND
  5
E2E
  8
G
  0
POLYLINE
  5
212
  8
G
 66
     1
 10
0.0
 20
0.0
 30
0.0
  0
VERTEX
  5
E2F
  8
G
 10
418.566023207529
 20
14.38776798470997
 30
0.0
  0
VERTEX
  5
E30
  8
G
 10
424.6440308050385
 20
-0.0217500271875384
 30
0.0
  0
VERTEX
  5
E31
  8
G
 10
377.7884722355903
 20
-19.08052385065482
 30
0.0
  0
VERTEX
  5
E32
  8
G
 10
377.7884722355903
 20
-28.79103598879499
 30
0.0
  0
SEQEND
  5
E33
  8
G
  0
POLYLINE
  5
213
  8
G
 66
     1
 10
0.0
 20
0.0
 30
0.0
  0
VERTEX
  5
E34
  8
G
 10
492.6806158507698
 20
-71.66883958604949
 30
0.0
  0
VERTEX
  5
E35
  8
G
 10
479.5098493873117
 20
-84.60985576231971
 30
0.0
  0
SEQEND
  5
E36
  8
G
  0
POLYLINE
  5
214
  8
G
 66
     1
 10
0.0
 20
0.0
 30
0.0
  0
VERTEX
  5
E37
  8
G
 10
344.2759303449129
 20
77.6493470616838
 30
0.0
  0
VERTEX
  5
E38
  8
G
 10
325.4861568576961
 20
77.48884686105855
 30
0.0
  0
SEQEND
  5
E39
  8
G
  0
POLYLINE
  5
215
  8
G
 66
     1
 10
0.0
 20
0.0
 30
0.0
  0
VERTEX
  5
E3A
  8
G
 10
384.3992304990381
 20
34.6407933009916
 30
0.0
  0
VERTEX
  5
E3B
  8
G
 10
384.3707304634131
 20
16.45852057315072
 30
0.0
  0
SEQEND
  5
E3C
  8
G
  0
POLYLINE
  5
216
  8
G
 66
     1
 10
0.0
 20
0.0
 30
0.0
  0
VERTEX
  5
E3D
  8
G
 10
447.8268097835122
 20
-38.05229756537197
 30
0.0
  0
VERTEX
  5
E3E
  8
G
 10
454.9033186291483
 20
-54.9090686363358
 30
0.0
  0
SEQEND
  5
E3F
  8
G
  0
POLYLINE
  5
217
  8
G
 66
     1
 10
0.0
 20
0.0
 30
0.0
  0
VERTEX
  5
E40
  8
G
 10
418.6407733009666
 20
-9.392011740014683
 30
0.0
  0
VERTEX
  5
E41
  8
G
 10
401.5137518921899
 20
-16.36677045846309
 30
0.0
  0
SEQEND
  5
E42
  8
G
  0
POLYLINE
  5
218
  8
G
 66
     1
 10
0.0
 20
0.0
 30
0.0
  0
VERTEX
  5
E43
  8
G
 10
486.081357601697
 20
-78.15309769137212
 30
0.0
  0
VERTEX
  5
E44
  8
G
 10
503.0338787923485
 20
-78.15309769137212
 30
0.0
  0
VERTEX
  5
E45
  8
G
 10
503.3136291420364
 20
-87.05360881701102
 30
0.0
  0
VERTEX
  5
E46
  8
G
 10
519.0383987979985
 20
-102.9113786392233
 30
0.0
  0
VERTEX
  5
E47
  8
G
 10
536.167295209119
 20
-102.9426286782859
 30
0.0
  0
VERTEX
  5
E48
  8
G
 10
612.7630159537699
 20
-103.030628788286
 30
0.0
  0
SEQEND
  5
E49
  8
G
  0
POLYLINE
  5
219
  8
G
 66
     1
 10
0.0
 20
0.0
 30
0.0
  0
VERTEX
  5
E4A
  8
G
 10
503.3138791423489
 20
-96.27237034046293
 30
0.0
  0
VERTEX
  5
E4B
  8
G
 10
517.0173962717454
 20
-109.7946372432966
 30
0.0
  0
SEQEND
  5
E4C
  8
G
  0
POLYLINE
  5
21A
  8
G
 66
     1
 10
0.0
 20
0.0
 30
0.0
  0
VERTEX
  5
E4D
  8
G
 10
451.3638142047678
 20
-46.68855836069795
 30
0.0
  0
VERTEX
  5
E4E
  8
G
 10
457.4418218022773
 20
-32.27929034911294
 30
0.0
  0
VERTEX
  5
E4F
  8
G
 10
504.2971303714129
 20
-51.33781417226773
 30
0.0
  0
VERTEX
  5
E50
  8
G
 10
511.2898891123614
 20
-44.471305589132
 30
0.0
  0
SEQEND
  5
E51
  8
G
  0
POLYLINE
  5
21B
  8
G
 66
     1
 10
0.0
 20
0.0
 30
0.0
  0
VERTEX
  5
E52
  8
G
 10
509.754887193609
 20
-102.9113786392233
 30
0.0
  0
VERTEX
  5
E53
  8
G
 10
444.146055182569
 20
-103.0646288307861
 30
0.0
  0
VERTEX
  5
E54
  8
G
 10
425.4170317712897
 20
-84.5983557479447
 30
0.0
  0
SEQEND
  5
E55
  8
G
  0
POLYLINE
  5
21C
  8
G
 66
     1
 10
0.0
 20
0.0
 30
0.0
  0
VERTEX
  5
E56
  8
G
 10
401.5132518915648
 20
-2.429753037191302
 30
0.0
  0
VERTEX
  5
E57
  8
G
 10
384.3744804681006
 20
-9.4027617534522
 30
0.0
  0
SEQEND
  5
E58
  8
G
  0
POLYLINE
  5
21D
  8
G
 66
     1
 10
0.0
 20
0.0
 30
0.0
  0
VERTEX
  5
E59
  8
G
 10
427.19178398973
 20
-29.65828707285884
 30
0.0
  0
VERTEX
  5
E5A
  8
G
 10
420.138275172844
 20
-46.4558080697601
 30
0.0
  0
SEQEND
  5
E5B
  8
G
  0
POLYLINE
  5
21E
  8
G
 66
     1
 10
0.0
 20
0.0
 30
0.0
  0
VERTEX
  5
E5C
  8
G
 10
409.901762377203
 20
-12.91426614283269
 30
0.0
  0
VERTEX
  5
E5D
  8
G
 10
424.5752807191009
 20
-18.88302360377951
 30
0.0
  0
VERTEX
  5
E5E
  8
G
 10
405.1672564590706
 20
-64.89458111822641
 30
0.0
  0
VERTEX
  5
E5F
  8
G
 10
412.159515199394
 20
-71.76083970104963
 30
0.0
  0
SEQEND
  5
E60
  8
G
  0
POLYLINE
  5
21F
  8
G
 66
     1
 10
0.0
 20
0.0
 30
0.0
  0
VERTEX
  5
E61
  8
G
 10
440.7633009541262
 20
-54.87531859414825
 30
0.0
  0
VERTEX
  5
E62
  8
G
 10
447.8240597800747
 20
-71.71908964886207
 30
0.0
  0
SEQEND
  5
E63
  8
G
  0
POLYLINE
  5
220
  8
G
 66
     1
 10
0.0
 20
0.0
 30
0.0
  0
VERTEX
  5
E64
  8
G
 10
423.6597795747244
 20
-38.15254769068461
 30
0.0
  0
VERTEX
  5
E65
  8
G
 10
438.3332979166224
 20
-32.1842902303628
 30
0.0
  0
VERTEX
  5
E66
  8
G
 10
457.7415721769652
 20
-78.19559774449719
 30
0.0
  0
VERTEX
  5
E67
  8
G
 10
467.6303345379181
 20
-78.19559774449719
 30
0.0
  0
SEQEND
  5
E68
  8
G
  0
POLYLINE
  5
221
  8
G
 66
     1
 10
0.0
 20
0.0
 30
0.0
  0
VERTEX
  5
E69
  8
G
 10
444.3218054022568
 20
-63.41832927291159
 30
0.0
  0
VERTEX
  5
E6A
  8
G
 10
438.095797619747
 20
-78.17959772449717
 30
0.0
  0
VERTEX
  5
E6B
  8
G
 10
392.4244905306132
 20
-78.17959772449717
 30
0.0
  0
VERTEX
  5
E6C
  8
G
 10
392.4084905106131
 20
-87.05360881701102
 30
0.0
  0
VERTEX
  5
E6D
  8
G
 10
382.8869786087233
 20
-96.40362050452565
 30
0.0
  0
SEQEND
  5
E6E
  8
G
  0
POLYLINE
  5
222
  8
G
 66
     1
 10
0.0
 20
0.0
 30
0.0
  0
VERTEX
  5
E6F
  8
G
 10
460.9460761825952
 20
-84.58685573356968
 30
0.0
  0
VERTEX
  5
E70
  8
G
 10
474.0488425610532
 20
-71.7488396860496
 30
0.0
  0
SEQEND
  5
E71
  8
G
  0
POLYLINE
  5
223
  8
G
 66
     1
 10
0.0
 20
0.0
 30
0.0
  0
VERTEX
  5
E72
  8
G
 10
371.2704640880801
 20
3.48475435594294
 30
0.0
  0
VERTEX
  5
E73
  8
G
 10
371.2509640637051
 20
21.7582771978465
 30
0.0
  0
SEQEND
  5
E74
  8
G
  0
POLYLINE
  5
224
  8
G
 66
     1
 10
0.0
 20
0.0
 30
0.0
  0
VERTEX
  5
E75
  8
G
 10
410.0352625440782
 20
-36.64154580193225
 30
0.0
  0
VERTEX
  5
E76
  8
G
 10
403.0082537603172
 20
-53.39531674414594
 30
0.0
  0
SEQEND
  5
E77
  8
G
  0
POLYLINE
  5
225
  8
G
 66
     1
 10
0.0
 20
0.0
 30
0.0
  0
VERTEX
  5
E78
  8
G
 10
467.5025843782305
 20
-96.40112050140064
 30
0.0
  0
VERTEX
  5
E79
  8
G
 10
448.969811212264
 20
-96.40112050140064
 30
0.0
  0
SEQEND
  5
E7A
  8
G
  0
POLYLINE
  5
226
  8
G
 66
     1
 10
0.0
 20
0.0
 30
0.0
  0
VERTEX
  5
E7B
  8
G
 10
340.1061751327189
 20
28.38903548629436
 30
0.0
  0
VERTEX
  5
E7C
  8
G
 10
340.1061751327189
 20
44.9965562456953
 30
0.0
  0
VERTEX
  5
E7D
  8
G
 10
349.0541863177329
 20
44.9965562456953
 30
0.0
  0
VERTEX
  5
E7E
  8
G
 10
358.8336985421232
 20
54.60031825039781
 30
0.0
  0
VERTEX
  5
E7F
  8
G
 10
368.8407110508888
 20
44.9965562456953
 30
0.0
  0
VERTEX
  5
E80
  8
G
 10
377.7887222359028
 20
44.9965562456953
 30
0.0
  0
VERTEX
  5
E81
  8
G
 10
377.7887222359028
 20
0.1477501846877214
 30
0.0
  0
VERTEX
  5
E82
  8
G
 10
392.8202410253013
 20
-5.966257457821828
 30
0.0
  0
SEQEND
  5
E83
  8
G
  0
POLYLINE
  5
227
  8
G
 66
     1
 10
0.0
 20
0.0
 30
0.0
  0
VERTEX
  5
E84
  8
G
 10
333.5826669783337
 20
34.6312932891166
 30
0.0
  0
VERTEX
  5
E85
  8
G
 10
346.6439333049166
 20
21.75802719753399
 30
0.0
  0
SEQEND
  5
E86
  8
G
  0
POLYLINE
  5
228
  8
G
 66
     1
 10
0.0
 20
0.0
 30
0.0
  0
VERTEX
  5
E87
  8
G
 10
315.0243937804922
 20
52.85556606945757
 30
0.0
  0
VERTEX
  5
E88
  8
G
 10
296.4241205301506
 20
52.93756617195771
 30
0.0
  0
SEQEND
  5
E89
  8
G
  0
POLYLINE
  5
229
  8
G
 66
     1
 10
0.0
 20
0.0
 30
0.0
  0
VERTEX
  5
E8A
  8
G
 10
301.8631273289092
 20
65.80533225666531
 30
0.0
  0
VERTEX
  5
E8B
  8
G
 10
283.3003541254427
 20
65.8115822644778
 30
0.0
  0
SEQEND
  5
E8C
  8
G
  0
POLYLINE
  5
22A
  8
G
 66
     1
 10
0.0
 20
0.0
 30
0.0
  0
VERTEX
  5
E8D
  8
G
 10
406.5215081518852
 20
-45.01855627319534
 30
0.0
  0
VERTEX
  5
E8E
  8
G
 10
391.335239169049
 20
-51.25056406320509
 30
0.0
  0
VERTEX
  5
E8F
  8
G
 10
358.8436985546232
 20
-19.53802442253053
 30
0.0
  0
VERTEX
  5
E90
  8
G
 10
346.7649334561668
 20
-31.46578933223668
 30
0.0
  0
SEQEND
  5
E91
  8
G
  0
POLYLINE
  5
22B
  8
G
 66
     1
 10
0.0
 20
0.0
 30
0.0
  0
VERTEX
  5
E92
  8
G
 10
289.7306121632652
 20
77.61884702355877
 30
0.0
  0
VERTEX
  5
E93
  8
G
 10
277.1075963844955
 20
90.20536275670344
 30
0.0
  0
SEQEND
  5
E94
  8
G
  0
POLYLINE
  5
22C
  8
G
 66
     1
 10
0.0
 20
0.0
 30
0.0
  0
VERTEX
  5
E95
  8
G
 10
458.4130730163413
 20
-96.55487069358837
 30
0.0
  0
VERTEX
  5
E96
  8
G
 10
490.6003632504541
 20
-64.94758118447649
 30
0.0
  0
VERTEX
  5
E97
  8
G
 10
484.3741054676318
 20
-50.18656273320342
 30
0.0
  0
SEQEND
  5
E98
  8
G
  0
POLYLINE
  5
22D
  8
G
 66
     1
 10
0.0
 20
0.0
 30
0.0
  0
VERTEX
  5
E99
  8
G
 10
283.0613538266923
 20
84.26910533638167
 30
0.0
  0
VERTEX
  5
E9A
  8
G
 10
376.1442201802752
 20
84.26910533638167
 30
0.0
  0
VERTEX
  5
E9B
  8
G
 10
392.4087405109257
 20
68.2975853719817
 30
0.0
  0
VERTEX
  5
E9C
  8
G
 10
392.4087405109257
 20
59.35107418884273
 30
0.0
  0
VERTEX
  5
E9D
  8
G
 10
409.5615119518899
 20
59.35107418884273
 30
0.0
  0
SEQEND
  5
E9E
  8
G
  0
POLYLINE
  5
22E
  8
G
 66
     1
 10
0.0
 20
0.0
 30
0.0
  0
VERTEX
  5
E9F
  8
G
 10
384.3709804637256
 20
-35.2547940684926
 30
0.0
  0
VERTEX
  5
EA0
  8
G
 10
371.2704640880801
 20
-22.28827786034732
 30
0.0
  0
SEQEND
  5
EA1
  8
G
  0
POLYLINE
  5
22F
  8
G
 66
     1
 10
0.0
 20
0.0
 30
0.0
  0
VERTEX
  5
EA2
  8
G
 10
346.7614334517918
 20
3.460254325317905
 30
0.0
  0
VERTEX
  5
EA3
  8
G
 10
333.7181671477089
 20
16.35127043908804
 30
0.0
  0
SEQEND
  5
EA4
  8
G
  0
POLYLINE
  5
230
  8
G
 66
     1
 10
0.0
 20
0.0
 30
0.0
  0
VERTEX
  5
EA5
  8
G
 10
315.0383937979922
 20
34.64354330442913
 30
0.0
  0
VERTEX
  5
EA6
  8
G
 10
307.9953849942312
 20
17.80377225471532
 30
0.0
  0
SEQEND
  5
EA7
  8
G
  0
POLYLINE
  5
231
  8
G
 66
     1
 10
0.0
 20
0.0
 30
0.0
  0
VERTEX
  5
EA8
  8
G
 10
311.678889598612
 20
26.3695329619162
 30
0.0
  0
VERTEX
  5
EA9
  8
G
 10
326.710658388323
 20
32.48379060473826
 30
0.0
  0
VERTEX
  5
EAA
  8
G
 10
359.0406988008735
 20
0.7352509190636383
 30
0.0
  0
VERTEX
  5
EAB
  8
G
 10
371.2609640762051
 20
12.62151577689471
 30
0.0
  0
SEQEND
  5
EAC
  8
G
  0
POLYLINE
  5
232
  8
G
 66
     1
 10
0.0
 20
0.0
 30
0.0
  0
VERTEX
  5
EAD
  8
G
 10
403.0222537778172
 20
-71.60708950886189
 30
0.0
  0
VERTEX
  5
EAE
  8
G
 10
421.6177770222213
 20
-71.71533964417456
 30
0.0
  0
SEQEND
  5
EAF
  8
G
  0
POLYLINE
  5
233
  8
G
 66
     1
 10
0.0
 20
0.0
 30
0.0
  0
VERTEX
  5
EB0
  8
G
 10
416.1340201675252
 20
-84.60985576231971
 30
0.0
  0
VERTEX
  5
EB1
  8
G
 10
434.7002933753667
 20
-84.58685573356968
 30
0.0
  0
SEQEND
  5
EB2
  8
G
  0
POLYLINE
  5
234
  8
G
 66
     1
 10
0.0
 20
0.0
 30
0.0
  0
VERTEX
  5
EB3
  8
G
 10
428.164035205044
 20
-96.40237050296315
 30
0.0
  0
VERTEX
  5
EB4
  8
G
 10
441.7370521713152
 20
-109.7726372157965
 30
0.0
  0
SEQEND
  5
EB5
  8
G
  0
POLYLINE
  5
235
  8
G
 66
     1
 10
0.0
 20
0.0
 30
0.0
  0
VERTEX
  5
EB6
  8
G
 10
434.8925436156795
 20
-103.0303787879735
 30
0.0
  0
VERTEX
  5
EB7
  8
G
 10
341.3916767395959
 20
-102.9113786392233
 30
0.0
  0
VERTEX
  5
EB8
  8
G
 10
325.6669070836339
 20
-87.05360881701102
 30
0.0
  0
VERTEX
  5
EB9
  8
G
 10
325.3871567339459
 20
-78.15309769137212
 30
0.0
  0
VERTEX
  5
EBA
  8
G
 10
308.4343855429819
 20
-78.15309769137212
 30
0.0
  0
SEQEND
  5
EBB
  8
G
  0
POLYLINE
  5
236
  8
G
 66
     1
 10
0.0
 20
0.0
 30
0.0
  0
VERTEX
  5
EBC
  8
G
 10
377.7887222359028
 20
-46.87405859257325
 30
0.0
  0
VERTEX
  5
EBD
  8
G
 10
377.7887222359028
 20
-63.75257969072462
 30
0.0
  0
VERTEX
  5
EBE
  8
G
 10
368.8407110508888
 20
-63.75257969072462
 30
0.0
  0
VERTEX
  5
EBF
  8
G
 10
359.014448768061
 20
-73.35609169511463
 30
0.0
  0
VERTEX
  5
EC0
  8
G
 10
349.2349365436707
 20
-63.75257969072462
 30
0.0
  0
VERTEX
  5
EC1
  8
G
 10
340.2869253586567
 20
-63.75257969072462
 30
0.0
  0
VERTEX
  5
EC2
  8
G
 10
340.0174250217813
 20
-19.06352382940479
 30
0.0
  0
VERTEX
  5
EC3
  8
G
 10
324.9856562320703
 20
-12.94976618720774
 30
0.0
  0
SEQEND
  5
EC4
  8
G
  0
POLYLINE
  5
237
  8
G
 66
     1
 10
0.0
 20
0.0
 30
0.0
  0
VERTEX
  5
EC5
  8
G
 10
371.2464640580801
 20
-40.49480061850078
 30
0.0
  0
VERTEX
  5
EC6
  8
G
 10
384.4637305796632
 20
-53.38281672852092
 30
0.0
  0
SEQEND
  5
EC7
  8
G
  0
POLYLINE
  5
238
  8
G
 66
     1
 10
0.0
 20
0.0
 30
0.0
  0
VERTEX
  5
EC8
  8
G
 10
346.7614334517918
 20
-22.31277789097238
 30
0.0
  0
VERTEX
  5
EC9
  8
G
 10
346.7686834608543
 20
-40.31480039350049
 30
0.0
  0
SEQEND
  5
ECA
  8
G
  0
POLYLINE
  5
239
  8
G
 66
     1
 10
0.0
 20
0.0
 30
0.0
  0
VERTEX
  5
ECB
  8
G
 10
333.6579170723963
 20
-9.425511781889726
 30
0.0
  0
VERTEX
  5
ECC
  8
G
 10
316.4753955942444
 20
-16.34027042533804
 30
0.0
  0
SEQEND
  5
ECD
  8
G
  0
POLYLINE
  5
23A
  8
G
 66
     1
 10
0.0
 20
0.0
 30
0.0
  0
VERTEX
  5
ECE
  8
G
 10
297.903622379528
 20
27.67828459785574
 30
0.0
  0
VERTEX
  5
ECF
  8
G
 10
290.8156135195169
 20
10.87351359189199
 30
0.0
  0
SEQEND
  5
ED0
  8
G
  0
POLYLINE
  5
23B
  8
G
 66
     1
 10
0.0
 20
0.0
 30
0.0
  0
VERTEX
  5
ED1
  8
G
 10
250.5175631469539
 20
77.61909702387125
 30
0.0
  0
VERTEX
  5
ED2
  8
G
 10
269.0278362847953
 20
77.61909702387125
 30
0.0
  0
SEQEND
  5
ED3
  8
G
  0
POLYLINE
  5
23C
  8
G
 66
     1
 10
0.0
 20
0.0
 30
0.0
  0
VERTEX
  5
ED4
  8
G
 10
257.0543213179017
 20
65.8115822644778
 30
0.0
  0
VERTEX
  5
ED5
  8
G
 10
243.9270549088186
 20
52.94231617789521
 30
0.0
  0
SEQEND
  5
ED6
  8
G
  0
POLYLINE
  5
23D
  8
G
 66
     1
 10
0.0
 20
0.0
 30
0.0
  0
VERTEX
  5
ED7
  8
G
 10
273.7505921882402
 20
44.56855571069464
 30
0.0
  0
VERTEX
  5
ED8
  8
G
 10
279.9765999707499
 20
59.32957416196768
 30
0.0
  0
VERTEX
  5
ED9
  8
G
 10
325.4861568576961
 20
59.35107418884273
 30
0.0
  0
VERTEX
  5
EDA
  8
G
 10
325.4861568576961
 20
68.2978353722942
 30
0.0
  0
VERTEX
  5
EDB
  8
G
 10
334.9391686739608
 20
77.5808469760587
 30
0.0
  0
SEQEND
  5
EDC
  8
G
  0
POLYLINE
  5
23E
  8
G
 66
     1
 10
0.0
 20
0.0
 30
0.0
  0
VERTEX
  5
EDD
  8
G
 10
316.5696457120571
 20
-2.449503061878832
 30
0.0
  0
VERTEX
  5
EDE
  8
G
 10
299.3658742073427
 20
-9.392011740014683
 30
0.0
  0
SEQEND
  5
EDF
  8
G
  0
POLYLINE
  5
23F
  8
G
 66
     1
 10
0.0
 20
0.0
 30
0.0
  0
VERTEX
  5
EE0
  8
G
 10
293.8276172845216
 20
19.29852412315514
 30
0.0
  0
VERTEX
  5
EE1
  8
G
 10
279.1538489423112
 20
13.33001666252082
 30
0.0
  0
VERTEX
  5
EE2
  8
G
 10
259.7455746819684
 20
59.34157417696771
 30
0.0
  0
VERTEX
  5
EE3
  8
G
 10
249.8568123210154
 20
59.34157417696771
 30
0.0
  0
SEQEND
  5
EE4
  8
G
  0
POLYLINE
  5
240
  8
G
 66
     1
 10
0.0
 20
0.0
 30
0.0
  0
VERTEX
  5
EE5
  8
G
 10
277.2785965982457
 20
36.09804512255641
 30
0.0
  0
VERTEX
  5
EE6
  8
G
 10
270.1783377229222
 20
52.94356617945772
 30
0.0
  0
SEQEND
  5
EE7
  8
G
  0
POLYLINE
  5
241
  8
G
 66
     1
 10
0.0
 20
0.0
 30
0.0
  0
VERTEX
  5
EE8
  8
G
 10
307.9088848861061
 20
-6.013757517196899
 30
0.0
  0
VERTEX
  5
EE9
  8
G
 10
293.2353665442082
 20
-0.0452500565625744
 30
0.0
  0
VERTEX
  5
EEA
  8
G
 10
312.6433908042385
 20
45.96630745788433
 30
0.0
  0
VERTEX
  5
EEB
  8
G
 10
305.6511320639151
 20
52.83281604102005
 30
0.0
  0
SEQEND
  5
EEC
  8
G
  0
POLYLINE
  5
242
  8
G
 66
     1
 10
0.0
 20
0.0
 30
0.0
  0
VERTEX
  5
EED
  8
G
 10
238.4870481088101
 20
65.80533225666531
 30
0.0
  0
VERTEX
  5
EEE
  8
G
 10
225.3110316387895
 20
52.86506608133261
 30
0.0
  0
SEQEND
  5
EEF
  8
G
  0
POLYLINE
  5
243
  8
G
 66
     1
 10
0.0
 20
0.0
 30
0.0
  0
VERTEX
  5
EF0
  8
G
 10
266.7490834363543
 20
27.98203497754371
 30
0.0
  0
VERTEX
  5
EF1
  8
G
 10
260.6708258385323
 20
13.57276696595871
 30
0.0
  0
VERTEX
  5
EF2
  8
G
 10
213.8157672697091
 20
32.63129078911348
 30
0.0
  0
VERTEX
  5
EF3
  8
G
 10
206.8232585290731
 20
25.76478220597775
 30
0.0
  0
SEQEND
  5
EF4
  8
G
  0
POLYLINE
  5
244
  8
G
 66
     1
 10
0.0
 20
0.0
 30
0.0
  0
VERTEX
  5
EF5
  8
G
 10
270.1800877251097
 20
19.2677740847176
 30
0.0
  0
VERTEX
  5
EF6
  8
G
 10
263.0728288410361
 20
36.1027951284939
 30
0.0
  0
SEQEND
  5
EF7
  8
G
  0
POLYLINE
  5
245
  8
G
 66
     1
 10
0.0
 20
0.0
 30
0.0
  0
VERTEX
  5
EF8
  8
G
 10
214.7620184525231
 20
77.48884686105855
 30
0.0
  0
VERTEX
  5
EF9
  8
G
 10
201.8742523428154
 20
90.20536275670344
 30
0.0
  0
SEQEND
  5
EFA
  8
G
  0
POLYLINE
  5
246
  8
G
 66
     1
 10
0.0
 20
0.0
 30
0.0
  0
VERTEX
  5
EFB
  8
G
 10
207.9562599453249
 20
84.20435525544404
 30
0.0
  0
VERTEX
  5
EFC
  8
G
 10
273.8430923038654
 20
84.26910533638167
 30
0.0
  0
VERTEX
  5
EFD
  8
G
 10
292.6418658023322
 20
65.80883226104032
 30
0.0
  0
SEQEND
  5
EFE
  8
G
  0
POLYLINE
  5
247
  8
G
 66
     1
 10
0.0
 20
0.0
 30
0.0
  0
VERTEX
  5
EFF
  8
G
 10
333.5929169911462
 20
-53.44456680570852
 30
0.0
  0
VERTEX
  5
F00
  8
G
 10
333.6181670227087
 20
-35.22854403568006
 30
0.0
  0
SEQEND
  5
F01
  8
G
  0
POLYLINE
  5
248
  8
G
 66
     1
 10
0.0
 20
0.0
 30
0.0
  0
VERTEX
  5
F02
  8
G
 10
373.6189670237088
 20
-96.40512050640064
 30
0.0
  0
VERTEX
  5
F03
  8
G
 10
392.4084905106131
 20
-96.27237034046293
 30
0.0
  0
SEQEND
  5
F04
  8
G
  0
POLYLINE
  5
249
  8
G
 66
     1
 10
0.0
 20
0.0
 30
0.0
  0
VERTEX
  5
F05
  8
G
 10
307.9543849429812
 20
-36.61554576943222
 30
0.0
  0
VERTEX
  5
F06
  8
G
 10
290.8156135195169
 20
-29.65778707223384
 30
0.0
  0
SEQEND
  5
F07
  8
G
  0
POLYLINE
  5
24A
  8
G
 66
     1
 10
0.0
 20
0.0
 30
0.0
  0
VERTEX
  5
F08
  8
G
 10
299.5151243939055
 20
-33.21229151536441
 30
0.0
  0
VERTEX
  5
F09
  8
G
 10
293.437116796396
 20
-18.80277350346688
 30
0.0
  0
VERTEX
  5
F0A
  8
G
 10
340.2924253655317
 20
0.2560003200003962
 30
0.0
  0
VERTEX
  5
F0B
  8
G
 10
340.2924253655317
 20
9.96651245814057
 30
0.0
  0
SEQEND
  5
F0C
  8
G
  0
POLYLINE
  5
24B
  8
G
 66
     1
 10
0.0
 20
0.0
 30
0.0
  0
VERTEX
  5
F0D
  8
G
 10
315.0483938104923
 20
-53.45706682133353
 30
0.0
  0
VERTEX
  5
F0E
  8
G
 10
297.8816223520279
 20
-46.48955811194764
 30
0.0
  0
SEQEND
  5
F0F
  8
G
  0
POLYLINE
  5
24C
  8
G
 66
     1
 10
0.0
 20
0.0
 30
0.0
  0
VERTEX
  5
F10
  8
G
 10
233.8787923484904
 20
31.10503888129859
 30
0.0
  0
VERTEX
  5
F11
  8
G
 10
227.6525345656682
 20
45.86605733257164
 30
0.0
  0
VERTEX
  5
F12
  8
G
 10
259.9468249335312
 20
77.57859697324619
 30
0.0
  0
SEQEND
  5
F13
  8
G
  0
POLYLINE
  5
24D
  8
G
 66
     1
 10
0.0
 20
0.0
 30
0.0
  0
VERTEX
  5
F14
  8
G
 10
249.5580619475774
 20
10.8867636084545
 30
0.0
  0
VERTEX
  5
F15
  8
G
 10
232.3877904847381
 20
17.84527230659038
 30
0.0
  0
SEQEND
  5
F16
  8
G
  0
POLYLINE
  5
24E
  8
G
 66
     1
 10
0.0
 20
0.0
 30
0.0
  0
VERTEX
  5
F17
  8
G
 10
225.298281622852
 20
34.65454331817912
 30
0.0
  0
VERTEX
  5
F18
  8
G
 10
242.4478030597538
 20
27.68303460379326
 30
0.0
  0
SEQEND
  5
F19
  8
G
  0
POLYLINE
  5
24F
  8
G
 66
     1
 10
0.0
 20
0.0
 30
0.0
  0
VERTEX
  5
F1A
  8
G
 10
240.9190511488139
 20
14.38776798470997
 30
0.0
  0
VERTEX
  5
F1B
  8
G
 10
246.997308746636
 20
-0.0217500271875384
 30
0.0
  0
VERTEX
  5
F1C
  8
G
 10
200.1417501771877
 20
-19.08052385065482
 30
0.0
  0
VERTEX
  5
F1D
  8
G
 10
200.1417501771877
 20
-28.79103598879499
 30
0.0
  0
SEQEND
  5
F1E
  8
G
  0
POLYLINE
  5
250
  8
G
 66
     1
 10
0.0
 20
0.0
 30
0.0
  0
VERTEX
  5
F1F
  8
G
 10
315.0338937923672
 20
-71.66883958604949
 30
0.0
  0
VERTEX
  5
F20
  8
G
 10
301.8631273289092
 20
-84.60985576231971
 30
0.0
  0
SEQEND
  5
F21
  8
G
  0
POLYLINE
  5
251
  8
G
 66
     1
 10
0.0
 20
0.0
 30
0.0
  0
VERTEX
  5
F22
  8
G
 10
206.7525084406355
 20
34.6407933009916
 30
0.0
  0
VERTEX
  5
F23
  8
G
 10
206.7240084050105
 20
16.45852057315072
 30
0.0
  0
SEQEND
  5
F24
  8
G
  0
POLYLINE
  5
252
  8
G
 66
     1
 10
0.0
 20
0.0
 30
0.0
  0
VERTEX
  5
F25
  8
G
 10
166.6292082865104
 20
77.6493470616838
 30
0.0
  0
VERTEX
  5
F26
  8
G
 10
147.839184798981
 20
77.48884686105855
 30
0.0
  0
SEQEND
  5
F27
  8
G
  0
POLYLINE
  5
253
  8
G
 66
     1
 10
0.0
 20
0.0
 30
0.0
  0
VERTEX
  5
F28
  8
G
 10
270.1803377254221
 20
-38.05229756537197
 30
0.0
  0
VERTEX
  5
F29
  8
G
 10
277.2565965707457
 20
-54.9090686363358
 30
0.0
  0
SEQEND
  5
F2A
  8
G
  0
POLYLINE
  5
254
  8
G
 66
     1
 10
0.0
 20
0.0
 30
0.0
  0
VERTEX
  5
F2B
  8
G
 10
325.6669070836339
 20
-96.27237034046293
 30
0.0
  0
VERTEX
  5
F2C
  8
G
 10
339.3706742133427
 20
-109.7946372432966
 30
0.0
  0
SEQEND
  5
F2D
  8
G
  0
POLYLINE
  5
255
  8
G
 66
     1
 10
0.0
 20
0.0
 30
0.0
  0
VERTEX
  5
F2E
  8
G
 10
240.9943012428766
 20
-9.392011740014683
 30
0.0
  0
VERTEX
  5
F2F
  8
G
 10
223.8670298337873
 20
-16.36677045846309
 30
0.0
  0
SEQEND
  5
F30
  8
G
  0
POLYLINE
  5
256
  8
G
 66
     1
 10
0.0
 20
0.0
 30
0.0
  0
VERTEX
  5
F31
  8
G
 10
273.7170921463652
 20
-46.68855836069795
 30
0.0
  0
VERTEX
  5
F32
  8
G
 10
279.7950997438746
 20
-32.27929034911294
 30
0.0
  0
VERTEX
  5
F33
  8
G
 10
326.6506583133229
 20
-51.33781417226773
 30
0.0
  0
VERTEX
  5
F34
  8
G
 10
333.6429170536463
 20
-44.471305589132
 30
0.0
  0
SEQEND
  5
F35
  8
G
  0
POLYLINE
  5
257
  8
G
 66
     1
 10
0.0
 20
0.0
 30
0.0
  0
VERTEX
  5
F36
  8
G
 10
249.5450619313274
 20
-29.65828707285884
 30
0.0
  0
VERTEX
  5
F37
  8
G
 10
242.4915531144414
 20
-46.4558080697601
 30
0.0
  0
SEQEND
  5
F38
  8
G
  0
POLYLINE
  5
258
  8
G
 66
     1
 10
0.0
 20
0.0
 30
0.0
  0
VERTEX
  5
F39
  8
G
 10
223.8665298331623
 20
-2.429753037191302
 30
0.0
  0
VERTEX
  5
F3A
  8
G
 10
206.7280084100105
 20
-9.4027617534522
 30
0.0
  0
SEQEND
  5
F3B
  8
G
  0
POLYLINE
  5
259
  8
G
 66
     1
 10
0.0
 20
0.0
 30
0.0
  0
VERTEX
  5
F3C
  8
G
 10
232.2547903184879
 20
-12.91426614283269
 30
0.0
  0
VERTEX
  5
F3D
  8
G
 10
246.9285586606983
 20
-18.88302360377951
 30
0.0
  0
VERTEX
  5
F3E
  8
G
 10
227.5202844003555
 20
-64.89458111822641
 30
0.0
  0
VERTEX
  5
F3F
  8
G
 10
234.5127931409914
 20
-71.76083970104963
 30
0.0
  0
SEQEND
  5
F40
  8
G
  0
POLYLINE
  5
25A
  8
G
 66
     1
 10
0.0
 20
0.0
 30
0.0
  0
VERTEX
  5
F41
  8
G
 10
263.1165788957236
 20
-54.87531859414825
 30
0.0
  0
VERTEX
  5
F42
  8
G
 10
270.1775877219847
 20
-71.71908964886207
 30
0.0
  0
SEQEND
  5
F43
  8
G
  0
POLYLINE
  5
25B
  8
G
 66
     1
 10
0.0
 20
0.0
 30
0.0
  0
VERTEX
  5
F44
  8
G
 10
246.0128075160094
 20
-38.15254769068461
 30
0.0
  0
VERTEX
  5
F45
  8
G
 10
260.6868258585323
 20
-32.1842902303628
 30
0.0
  0
VERTEX
  5
F46
  8
G
 10
280.0948501185626
 20
-78.19559774449719
 30
0.0
  0
VERTEX
  5
F47
  8
G
 10
289.9836124795156
 20
-78.19559774449719
 30
0.0
  0
SEQEND
  5
F48
  8
G
  0
POLYLINE
  5
25C
  8
G
 66
     1
 10
0.0
 20
0.0
 30
0.0
  0
VERTEX
  5
F49
  8
G
 10
215.1737689672112
 20
-5.966257457821828
 30
0.0
  0
VERTEX
  5
F4A
  8
G
 10
200.1420001775002
 20
0.1477501846877214
 30
0.0
  0
VERTEX
  5
F4B
  8
G
 10
200.1420001775002
 20
44.9965562456953
 30
0.0
  0
VERTEX
  5
F4C
  8
G
 10
191.1939889924862
 20
44.9965562456953
 30
0.0
  0
VERTEX
  5
F4D
  8
G
 10
181.4144767680959
 20
54.60031825039781
 30
0.0
  0
VERTEX
  5
F4E
  8
G
 10
171.4072142590178
 20
44.9965562456953
 30
0.0
  0
VERTEX
  5
F4F
  8
G
 10
162.4592030740038
 20
44.9965562456953
 30
0.0
  0
VERTEX
  5
F50
  8
G
 10
162.4667030833788
 20
28.19478524348153
 30
0.0
  0
SEQEND
  5
F51
  8
G
  0
POLYLINE
  5
25D
  8
G
 66
     1
 10
0.0
 20
0.0
 30
0.0
  0
VERTEX
  5
F52
  8
G
 10
266.6750833438542
 20
-63.41832927291159
 30
0.0
  0
VERTEX
  5
F53
  8
G
 10
260.448825561032
 20
-78.17959772449717
 30
0.0
  0
VERTEX
  5
F54
  8
G
 10
214.7775184718981
 20
-78.17959772449717
 30
0.0
  0
VERTEX
  5
F55
  8
G
 10
214.7620184525231
 20
-87.05360881701102
 30
0.0
  0
VERTEX
  5
F56
  8
G
 10
205.2405065506332
 20
-96.40362050452565
 30
0.0
  0
SEQEND
  5
F57
  8
G
  0
POLYLINE
  5
25E
  8
G
 66
     1
 10
0.0
 20
0.0
 30
0.0
  0
VERTEX
  5
F58
  8
G
 10
283.2993541241926
 20
-84.58685573356968
 30
0.0
  0
VERTEX
  5
F59
  8
G
 10
296.4023705029631
 20
-71.7488396860496
 30
0.0
  0
SEQEND
  5
F5A
  8
G
  0
POLYLINE
  5
25F
  8
G
 66
     1
 10
0.0
 20
0.0
 30
0.0
  0
VERTEX
  5
F5B
  8
G
 10
289.8556123195154
 20
-96.40112050140064
 30
0.0
  0
VERTEX
  5
F5C
  8
G
 10
271.3228391535489
 20
-96.40112050140064
 30
0.0
  0
SEQEND
  5
F5D
  8
G
  0
POLYLINE
  5
260
  8
G
 66
     1
 10
0.0
 20
0.0
 30
0.0
  0
VERTEX
  5
F5E
  8
G
 10
232.3882904853631
 20
-36.64154580193225
 30
0.0
  0
VERTEX
  5
F5F
  8
G
 10
225.3615317019146
 20
-53.39531674414594
 30
0.0
  0
SEQEND
  5
F60
  8
G
  0
POLYLINE
  5
261
  8
G
 66
     1
 10
0.0
 20
0.0
 30
0.0
  0
VERTEX
  5
F61
  8
G
 10
193.62399202999
 20
3.48475435594294
 30
0.0
  0
VERTEX
  5
F62
  8
G
 10
193.6042420053025
 20
21.7582771978465
 30
0.0
  0
SEQEND
  5
F63
  8
G
  0
POLYLINE
  5
262
  8
G
 66
     1
 10
0.0
 20
0.0
 30
0.0
  0
VERTEX
  5
F64
  8
G
 10
280.7666009582512
 20
-96.55487069358837
 30
0.0
  0
VERTEX
  5
F65
  8
G
 10
312.953391191739
 20
-64.94758118447649
 30
0.0
  0
VERTEX
  5
F66
  8
G
 10
306.7271334089168
 20
-50.18656273320342
 30
0.0
  0
SEQEND
  5
F67
  8
G
  0
POLYLINE
  5
263
  8
G
 66
     1
 10
0.0
 20
0.0
 30
0.0
  0
VERTEX
  5
F68
  8
G
 10
155.9361949202437
 20
34.6312932891166
 30
0.0
  0
VERTEX
  5
F69
  8
G
 10
168.9969612462016
 20
21.75802719753399
 30
0.0
  0
SEQEND
  5
F6A
  8
G
  0
POLYLINE
  5
264
  8
G
 66
     1
 10
0.0
 20
0.0
 30
0.0
  0
VERTEX
  5
F6B
  8
G
 10
137.3776717220896
 20
52.85556606945757
 30
0.0
  0
VERTEX
  5
F6C
  8
G
 10
118.7776484720606
 20
52.93756617195771
 30
0.0
  0
SEQEND
  5
F6D
  8
G
  0
POLYLINE
  5
265
  8
G
 66
     1
 10
0.0
 20
0.0
 30
0.0
  0
VERTEX
  5
F6E
  8
G
 10
124.2164052705066
 20
65.80533225666531
 30
0.0
  0
VERTEX
  5
F6F
  8
G
 10
105.6533820667276
 20
65.8115822644778
 30
0.0
  0
SEQEND
  5
F70
  8
G
  0
POLYLINE
  5
266
  8
G
 66
     1
 10
0.0
 20
0.0
 30
0.0
  0
VERTEX
  5
F71
  8
G
 10
112.0838901048626
 20
77.61884702355877
 30
0.0
  0
VERTEX
  5
F72
  8
G
 10
99.46087432609289
 20
90.20536275670344
 30
0.0
  0
SEQEND
  5
F73
  8
G
  0
POLYLINE
  5
267
  8
G
 66
     1
 10
0.0
 20
0.0
 30
0.0
  0
VERTEX
  5
F74
  8
G
 10
105.4148817686022
 20
84.26910533638167
 30
0.0
  0
VERTEX
  5
F75
  8
G
 10
198.4977481221852
 20
84.26910533638167
 30
0.0
  0
VERTEX
  5
F76
  8
G
 10
214.7620184525231
 20
68.2975853719817
 30
0.0
  0
VERTEX
  5
F77
  8
G
 10
214.7620184525231
 20
59.35107418884273
 30
0.0
  0
VERTEX
  5
F78
  8
G
 10
231.9147898934874
 20
59.35107418884273
 30
0.0
  0
SEQEND
  5
F79
  8
G
  0
POLYLINE
  5
268
  8
G
 66
     1
 10
0.0
 20
0.0
 30
0.0
  0
VERTEX
  5
F7A
  8
G
 10
206.724258405323
 20
-35.2547940684926
 30
0.0
  0
VERTEX
  5
F7B
  8
G
 10
193.62399202999
 20
-22.28827786034732
 30
0.0
  0
SEQEND
  5
F7C
  8
G
  0
POLYLINE
  5
269
  8
G
 66
     1
 10
0.0
 20
0.0
 30
0.0
  0
VERTEX
  5
F7D
  8
G
 10
169.1147113933893
 20
3.460254325317905
 30
0.0
  0
VERTEX
  5
F7E
  8
G
 10
156.0716950896189
 20
16.35127043908804
 30
0.0
  0
SEQEND
  5
F7F
  8
G
  0
POLYLINE
  5
26A
  8
G
 66
     1
 10
0.0
 20
0.0
 30
0.0
  0
VERTEX
  5
F80
  8
G
 10
169.1147113933893
 20
3.460254325317905
 30
0.0
  0
VERTEX
  5
F81
  8
G
 10
156.0716950896189
 20
16.35127043908804
 30
0.0
  0
SEQEND
  5
F82
  8
G
  0
POLYLINE
  5
26B
  8
G
 66
     1
 10
0.0
 20
0.0
 30
0.0
  0
VERTEX
  5
F83
  8
G
 10
247.6935596169495
 20
-84.5983557479447
 30
0.0
  0
VERTEX
  5
F84
  8
G
 10
266.4990831238539
 20
-103.0646288307861
 30
0.0
  0
VERTEX
  5
F85
  8
G
 10
332.1084151355189
 20
-102.9113786392233
 30
0.0
  0
SEQEND
  5
F86
  8
G
  0
POLYLINE
  5
26C
  8
G
 66
     1
 10
0.0
 20
0.0
 30
0.0
  0
VERTEX
  5
F87
  8
G
 10
137.3914217392772
 20
34.64354330442913
 30
0.0
  0
VERTEX
  5
F88
  8
G
 10
130.3486629358287
 20
17.80377225471532
 30
0.0
  0
SEQEND
  5
F89
  8
G
  0
POLYLINE
  5
26D
  8
G
 66
     1
 10
0.0
 20
0.0
 30
0.0
  0
VERTEX
  5
F8A
  8
G
 10
257.2458215572769
 20
-103.0303787879735
 30
0.0
  0
VERTEX
  5
F8B
  8
G
 10
163.7452046815058
 20
-102.9113786392233
 30
0.0
  0
VERTEX
  5
F8C
  8
G
 10
148.0201850252313
 20
-87.05360881701102
 30
0.0
  0
VERTEX
  5
F8D
  8
G
 10
147.7406846758558
 20
-78.15309769137212
 30
0.0
  0
VERTEX
  5
F8E
  8
G
 10
130.7876634845794
 20
-78.15309769137212
 30
0.0
  0
SEQEND
  5
F8F
  8
G
  0
POLYLINE
  5
26E
  8
G
 66
     1
 10
0.0
 20
0.0
 30
0.0
  0
VERTEX
  5
F90
  8
G
 10
250.5175631469539
 20
-96.40237050296315
 30
0.0
  0
VERTEX
  5
F91
  8
G
 10
264.0903301129126
 20
-109.7726372157965
 30
0.0
  0
SEQEND
  5
F92
  8
G
  0
POLYLINE
  5
26F
  8
G
 66
     1
 10
0.0
 20
0.0
 30
0.0
  0
VERTEX
  5
F93
  8
G
 10
238.4870481088101
 20
-84.60985576231971
 30
0.0
  0
VERTEX
  5
F94
  8
G
 10
257.0535713169642
 20
-84.58685573356968
 30
0.0
  0
SEQEND
  5
F95
  8
G
  0
POLYLINE
  5
270
  8
G
 66
     1
 10
0.0
 20
0.0
 30
0.0
  0
VERTEX
  5
F96
  8
G
 10
225.3755317194147
 20
-71.60708950886189
 30
0.0
  0
VERTEX
  5
F97
  8
G
 10
243.9708049635062
 20
-71.71533964417456
 30
0.0
  0
SEQEND
  5
F98
  8
G
  0
POLYLINE
  5
271
  8
G
 66
     1
 10
0.0
 20
0.0
 30
0.0
  0
VERTEX
  5
F99
  8
G
 10
200.2082502603128
 20
-46.93880867351086
 30
0.0
  0
VERTEX
  5
F9A
  8
G
 10
200.1420001775002
 20
-63.75257969072462
 30
0.0
  0
VERTEX
  5
F9B
  8
G
 10
191.1939889924862
 20
-63.75257969072462
 30
0.0
  0
VERTEX
  5
F9C
  8
G
 10
181.4144767680959
 20
-73.35609169511463
 30
0.0
  0
VERTEX
  5
F9D
  8
G
 10
171.5882144852681
 20
-63.75257969072462
 30
0.0
  0
VERTEX
  5
F9E
  8
G
 10
162.6402033002541
 20
-63.75257969072462
 30
0.0
  0
VERTEX
  5
F9F
  8
G
 10
162.3707029633787
 20
-19.06352382940479
 30
0.0
  0
VERTEX
  5
FA0
  8
G
 10
147.3389341736677
 20
-12.94976618720774
 30
0.0
  0
SEQEND
  5
FA1
  8
G
  0
POLYLINE
  5
272
  8
G
 66
     1
 10
0.0
 20
0.0
 30
0.0
  0
VERTEX
  5
FA2
  8
G
 10
134.0321675402094
 20
26.3695329619162
 30
0.0
  0
VERTEX
  5
FA3
  8
G
 10
149.0641863302329
 20
32.48379060473826
 30
0.0
  0
VERTEX
  5
FA4
  8
G
 10
181.3942267427835
 20
0.7352509190636383
 30
0.0
  0
VERTEX
  5
FA5
  8
G
 10
193.61399201749
 20
12.54126567658209
 30
0.0
  0
SEQEND
  5
FA6
  8
G
  0
POLYLINE
  5
273
  8
G
 66
     1
 10
0.0
 20
0.0
 30
0.0
  0
VERTEX
  5
FA7
  8
G
 10
193.5997419996775
 20
-40.49480061850078
 30
0.0
  0
VERTEX
  5
FA8
  8
G
 10
206.8170085212606
 20
-53.38281672852092
 30
0.0
  0
SEQEND
  5
FA9
  8
G
  0
POLYLINE
  5
274
  8
G
 66
     1
 10
0.0
 20
0.0
 30
0.0
  0
VERTEX
  5
FAA
  8
G
 10
169.1147113933893
 20
-22.31277789097238
 30
0.0
  0
VERTEX
  5
FAB
  8
G
 10
169.1219614024517
 20
-40.31480039350049
 30
0.0
  0
SEQEND
  5
FAC
  8
G
  0
POLYLINE
  5
275
  8
G
 66
     1
 10
0.0
 20
0.0
 30
0.0
  0
VERTEX
  5
FAD
  8
G
 10
156.0109450136813
 20
-9.425511781889726
 30
0.0
  0
VERTEX
  5
FAE
  8
G
 10
138.8286735358419
 20
-16.34027042533804
 30
0.0
  0
SEQEND
  5
FAF
  8
G
  0
POLYLINE
  5
276
  8
G
 66
     1
 10
0.0
 20
0.0
 30
0.0
  0
VERTEX
  5
FB0
  8
G
 10
120.2566503208129
 20
27.67828459785574
 30
0.0
  0
VERTEX
  5
FB1
  8
G
 10
113.1688914611143
 20
10.87351359189199
 30
0.0
  0
SEQEND
  5
FB2
  8
G
  0
POLYLINE
  5
277
  8
G
 66
     1
 10
0.0
 20
0.0
 30
0.0
  0
VERTEX
  5
FB3
  8
G
 10
169.1184613980768
 20
-31.46578933223668
 30
0.0
  0
VERTEX
  5
FB4
  8
G
 10
181.1972264965331
 20
-19.53777442221804
 30
0.0
  0
VERTEX
  5
FB5
  8
G
 10
213.6887671109589
 20
-51.25056406320509
 30
0.0
  0
VERTEX
  5
FB6
  8
G
 10
228.7205359006699
 20
-45.13630642038304
 30
0.0
  0
SEQEND
  5
FB7
  8
G
  0
POLYLINE
  5
278
  8
G
 66
     1
 10
0.0
 20
0.0
 30
0.0
  0
VERTEX
  5
FB8
  8
G
 10
72.8708410885514
 20
77.61909702387125
 30
0.0
  0
VERTEX
  5
FB9
  8
G
 10
91.38136422670522
 20
77.61909702387125
 30
0.0
  0
SEQEND
  5
FBA
  8
G
  0
POLYLINE
  5
279
  8
G
 66
     1
 10
0.0
 20
0.0
 30
0.0
  0
VERTEX
  5
FBB
  8
G
 10
138.9229236536545
 20
-2.449503061878832
 30
0.0
  0
VERTEX
  5
FBC
  8
G
 10
121.7189021486277
 20
-9.392011740014683
 30
0.0
  0
SEQEND
  5
FBD
  8
G
  0
POLYLINE
  5
27A
  8
G
 66
     1
 10
0.0
 20
0.0
 30
0.0
  0
VERTEX
  5
FBE
  8
G
 10
79.40734925918656
 20
65.8115822644778
 30
0.0
  0
VERTEX
  5
FBF
  8
G
 10
66.28058285072859
 20
52.94231617789521
 30
0.0
  0
SEQEND
  5
FC0
  8
G
  0
POLYLINE
  5
27B
  8
G
 66
     1
 10
0.0
 20
0.0
 30
0.0
  0
VERTEX
  5
FC1
  8
G
 10
96.10362012952515
 20
44.56855571069464
 30
0.0
  0
VERTEX
  5
FC2
  8
G
 10
102.3296279120348
 20
59.32957416196768
 30
0.0
  0
VERTEX
  5
FC3
  8
G
 10
147.839184798981
 20
59.35107418884273
 30
0.0
  0
VERTEX
  5
FC4
  8
G
 10
147.839184798981
 20
68.2978353722942
 30
0.0
  0
VERTEX
  5
FC5
  8
G
 10
157.2926966158708
 20
77.5808469760587
 30
0.0
  0
SEQEND
  5
FC6
  8
G
  0
POLYLINE
  5
27C
  8
G
 66
     1
 10
0.0
 20
0.0
 30
0.0
  0
VERTEX
  5
FC7
  8
G
 10
116.180895226119
 20
19.29852412315514
 30
0.0
  0
VERTEX
  5
FC8
  8
G
 10
101.5068768835961
 20
13.33001666252082
 30
0.0
  0
VERTEX
  5
FC9
  8
G
 10
82.09885262356573
 20
59.34157417696771
 30
0.0
  0
VERTEX
  5
FCA
  8
G
 10
72.21034026292529
 20
59.34157417696771
 30
0.0
  0
SEQEND
  5
FCB
  8
G
  0
POLYLINE
  5
27D
  8
G
 66
     1
 10
0.0
 20
0.0
 30
0.0
  0
VERTEX
  5
FCC
  8
G
 10
99.63187453984318
 20
36.09804512255641
 30
0.0
  0
VERTEX
  5
FCD
  8
G
 10
92.53136566420704
 20
52.94356617945772
 30
0.0
  0
SEQEND
  5
FCE
  8
G
  0
POLYLINE
  5
27E
  8
G
 66
     1
 10
0.0
 20
0.0
 30
0.0
  0
VERTEX
  5
FCF
  8
G
 10
130.262412828016
 20
-6.013757517196899
 30
0.0
  0
VERTEX
  5
FD0
  8
G
 10
115.5886444858056
 20
-0.0452500565625744
 30
0.0
  0
VERTEX
  5
FD1
  8
G
 10
134.9969187461484
 20
45.96630745788433
 30
0.0
  0
VERTEX
  5
FD2
  8
G
 10
128.0041600052
 20
52.83281604102005
 30
0.0
  0
SEQEND
  5
FD3
  8
G
  0
POLYLINE
  5
27F
  8
G
 66
     1
 10
0.0
 20
0.0
 30
0.0
  0
VERTEX
  5
FD4
  8
G
 10
60.84057605072002
 20
65.80533225666531
 30
0.0
  0
VERTEX
  5
FD5
  8
G
 10
47.66430958038694
 20
52.86506608133261
 30
0.0
  0
SEQEND
  5
FD6
  8
G
  0
POLYLINE
  5
280
  8
G
 66
     1
 10
0.0
 20
0.0
 30
0.0
  0
VERTEX
  5
FD7
  8
G
 10
89.10261137826421
 20
27.98203497754371
 30
0.0
  0
VERTEX
  5
FD8
  8
G
 10
83.02410378012974
 20
13.57276696595871
 30
0.0
  0
VERTEX
  5
FD9
  8
G
 10
36.16879521099401
 20
32.63129078911348
 30
0.0
  0
VERTEX
  5
FDA
  8
G
 10
29.17653647067061
 20
25.76478220597775
 30
0.0
  0
SEQEND
  5
FDB
  8
G
  0
POLYLINE
  5
281
  8
G
 66
     1
 10
0.0
 20
0.0
 30
0.0
  0
VERTEX
  5
FDC
  8
G
 10
92.53311566639456
 20
19.2677740847176
 30
0.0
  0
VERTEX
  5
FDD
  8
G
 10
85.4261067826335
 20
36.1027951284939
 30
0.0
  0
SEQEND
  5
FDE
  8
G
  0
POLYLINE
  5
282
  8
G
 66
     1
 10
0.0
 20
0.0
 30
0.0
  0
VERTEX
  5
FDF
  8
G
 10
195.9719949649937
 20
-96.40512050640064
 30
0.0
  0
VERTEX
  5
FE0
  8
G
 10
214.7620184525231
 20
-96.27237034046293
 30
0.0
  0
SEQEND
  5
FE1
  8
G
  0
POLYLINE
  5
283
  8
G
 66
     1
 10
0.0
 20
0.0
 30
0.0
  0
VERTEX
  5
FE2
  8
G
 10
155.9459449324311
 20
-53.44456680570852
 30
0.0
  0
VERTEX
  5
FE3
  8
G
 10
155.9716949646187
 20
-35.22854403568006
 30
0.0
  0
SEQEND
  5
FE4
  8
G
  0
POLYLINE
  5
284
  8
G
 66
     1
 10
0.0
 20
0.0
 30
0.0
  0
VERTEX
  5
FE5
  8
G
 10
37.11529639412049
 20
77.48884686105855
 30
0.0
  0
VERTEX
  5
FE6
  8
G
 10
24.22753028441286
 20
90.20536275670344
 30
0.0
  0
SEQEND
  5
FE7
  8
G
  0
POLYLINE
  5
285
  8
G
 66
     1
 10
0.0
 20
0.0
 30
0.0
  0
VERTEX
  5
FE8
  8
G
 10
30.30978788723485
 20
84.20435525544404
 30
0.0
  0
VERTEX
  5
FE9
  8
G
 10
96.19637024546279
 20
84.26910533638167
 30
0.0
  0
VERTEX
  5
FEA
  8
G
 10
114.9948937436171
 20
65.80883226104032
 30
0.0
  0
SEQEND
  5
FEB
  8
G
  0
POLYLINE
  5
286
  8
G
 66
     1
 10
0.0
 20
0.0
 30
0.0
  0
VERTEX
  5
FEC
  8
G
 10
130.3074128842661
 20
-36.61554576943222
 30
0.0
  0
VERTEX
  5
FED
  8
G
 10
113.1688914611143
 20
-29.65778707223384
 30
0.0
  0
SEQEND
  5
FEE
  8
G
  0
POLYLINE
  5
287
  8
G
 66
     1
 10
0.0
 20
0.0
 30
0.0
  0
VERTEX
  5
FEF
  8
G
 10
121.8684023355029
 20
-33.21229151536441
 30
0.0
  0
VERTEX
  5
FF0
  8
G
 10
115.7903947379934
 20
-18.80277350346688
 30
0.0
  0
VERTEX
  5
FF1
  8
G
 10
162.6457033071291
 20
0.2560003200003962
 30
0.0
  0
VERTEX
  5
FF2
  8
G
 10
162.6457033071291
 20
9.96651245814057
 30
0.0
  0
SEQEND
  5
FF3
  8
G
  0
POLYLINE
  5
288
  8
G
 66
     1
 10
0.0
 20
0.0
 30
0.0
  0
VERTEX
  5
FF4
  8
G
 10
137.4019217524022
 20
-53.45706682133353
 30
0.0
  0
VERTEX
  5
FF5
  8
G
 10
120.2351502939379
 20
-46.48955811194764
 30
0.0
  0
SEQEND
  5
FF6
  8
G
  0
POLYLINE
  5
289
  8
G
 66
     1
 10
0.0
 20
0.0
 30
0.0
  0
VERTEX
  5
FF7
  8
G
 10
56.23232029040037
 20
31.10503888129859
 30
0.0
  0
VERTEX
  5
FF8
  8
G
 10
50.0058125072656
 20
45.86605733257164
 30
0.0
  0
VERTEX
  5
FF9
  8
G
 10
82.30010287512857
 20
77.57859697324619
 30
0.0
  0
SEQEND
  5
FFA
  8
G
  0
POLYLINE
  5
28A
  8
G
 66
     1
 10
0.0
 20
0.0
 30
0.0
  0
VERTEX
  5
FFB
  8
G
 10
71.91133988917488
 20
10.8867636084545
 30
0.0
  0
VERTEX
  5
FFC
  8
G
 10
54.74131842664804
 20
17.84527230659038
 30
0.0
  0
SEQEND
  5
FFD
  8
G
  0
POLYLINE
  5
28B
  8
G
 66
     1
 10
0.0
 20
0.0
 30
0.0
  0
VERTEX
  5
FFE
  8
G
 10
47.65155956444943
 20
34.65454331817912
 30
0.0
  0
VERTEX
  5
FFF
  8
G
 10
64.80108100135124
 20
27.68303460379326
 30
0.0
  0
SEQEND
  5
1000
  8
G
  0
POLYLINE
  5
28C
  8
G
 66
     1
 10
0.0
 20
0.0
 30
0.0
  0
VERTEX
  5
1001
  8
G
 10
63.27257909072387
 20
14.38776798470997
 30
0.0
  0
VERTEX
  5
1002
  8
G
 10
69.35033668792084
 20
-0.0217500271875384
 30
0.0
  0
VERTEX
  5
1003
  8
G
 10
22.49527811909763
 20
-19.08052385065482
 30
0.0
  0
VERTEX
  5
1004
  8
G
 10
22.49527811909763
 20
-28.79103598879499
 30
0.0
  0
SEQEND
  5
1005
  8
G
  0
POLYLINE
  5
28D
  8
G
 66
     1
 10
0.0
 20
0.0
 30
0.0
  0
VERTEX
  5
1006
  8
G
 10
137.3871717339647
 20
-71.66883958604949
 30
0.0
  0
VERTEX
  5
1007
  8
G
 10
124.2164052705066
 20
-84.60985576231971
 30
0.0
  0
SEQEND
  5
1008
  8
G
  0
POLYLINE
  5
28E
  8
G
 66
     1
 10
0.0
 20
0.0
 30
0.0
  0
VERTEX
  5
1009
  8
G
 10
148.0201850252313
 20
-96.27237034046293
 30
0.0
  0
VERTEX
  5
100A
  8
G
 10
161.7239521549402
 20
-109.7946372432966
 30
0.0
  0
SEQEND
  5
100B
  8
G
  0
POLYLINE
  5
28F
  8
G
 66
     1
 10
0.0
 20
0.0
 30
0.0
  0
VERTEX
  5
100C
  8
G
 10
92.53336566670703
 20
-38.05229756537197
 30
0.0
  0
VERTEX
  5
100D
  8
G
 10
99.60987451234314
 20
-54.9090686363358
 30
0.0
  0
SEQEND
  5
100E
  8
G
  0
POLYLINE
  5
290
  8
G
 66
     1
 10
0.0
 20
0.0
 30
0.0
  0
VERTEX
  5
100F
  8
G
 10
29.10578638223302
 20
34.6407933009916
 30
0.0
  0
VERTEX
  5
1010
  8
G
 10
29.07703634629542
 20
16.45852057315072
 30
0.0
  0
SEQEND
  5
1011
  8
G
  0
POLYLINE
  5
291
  8
G
 66
     1
 10
0.0
 20
0.0
 30
0.0
  0
VERTEX
  5
1012
  8
G
 10
96.07012008765008
 20
-46.68855836069795
 30
0.0
  0
VERTEX
  5
1013
  8
G
 10
102.1486276857846
 20
-32.27929034911294
 30
0.0
  0
VERTEX
  5
1014
  8
G
 10
149.0036862546078
 20
-51.33781417226773
 30
0.0
  0
VERTEX
  5
1015
  8
G
 10
155.9961949952437
 20
-44.471305589132
 30
0.0
  0
SEQEND
  5
1016
  8
G
  0
POLYLINE
  5
292
  8
G
 66
     1
 10
0.0
 20
0.0
 30
0.0
  0
VERTEX
  5
1017
  8
G
 10
63.34782918478646
 20
-9.392011740014683
 30
0.0
  0
VERTEX
  5
1018
  8
G
 10
46.22030777538475
 20
-16.36677045846309
 30
0.0
  0
SEQEND
  5
1019
  8
G
  0
POLYLINE
  5
293
  8
G
 66
     1
 10
0.0
 20
0.0
 30
0.0
  0
VERTEX
  5
101A
  8
G
 10
-11.01751377189225
 20
77.6493470616838
 30
0.0
  0
VERTEX
  5
101B
  8
G
 10
-29.80728725910905
 20
77.48884686105855
 30
0.0
  0
SEQEND
  5
101C
  8
G
  0
POLYLINE
  5
294
  8
G
 66
     1
 10
0.0
 20
0.0
 30
0.0
  0
VERTEX
  5
101D
  8
G
 10
71.89833987292485
 20
-29.65828707285884
 30
0.0
  0
VERTEX
  5
101E
  8
G
 10
64.84508105635132
 20
-46.4558080697601
 30
0.0
  0
SEQEND
  5
101F
  8
G
  0
POLYLINE
  5
295
  8
G
 66
     1
 10
0.0
 20
0.0
 30
0.0
  0
VERTEX
  5
1020
  8
G
 10
46.21980777475972
 20
-2.429753037191302
 30
0.0
  0
VERTEX
  5
1021
  8
G
 10
29.08103635129544
 20
-9.4027617534522
 30
0.0
  0
SEQEND
  5
1022
  8
G
  0
POLYLINE
  5
296
  8
G
 66
     1
 10
0.0
 20
0.0
 30
0.0
  0
VERTEX
  5
1023
  8
G
 10
54.6080682600853
 20
-12.91426614283269
 30
0.0
  0
VERTEX
  5
1024
  8
G
 10
69.28208660260822
 20
-18.88302360377951
 30
0.0
  0
VERTEX
  5
1025
  8
G
 10
49.87381234226541
 20
-64.89458111822641
 30
0.0
  0
VERTEX
  5
1026
  8
G
 10
56.86632108290132
 20
-71.76083970104963
 30
0.0
  0
SEQEND
  5
1027
  8
G
  0
POLYLINE
  5
297
  8
G
 66
     1
 10
0.0
 20
0.0
 30
0.0
  0
VERTEX
  5
1028
  8
G
 10
85.469856837321
 20
-54.87531859414825
 30
0.0
  0
VERTEX
  5
1029
  8
G
 10
92.5306156632696
 20
-71.71908964886207
 30
0.0
  0
SEQEND
  5
102A
  8
G
  0
POLYLINE
  5
298
  8
G
 66
     1
 10
0.0
 20
0.0
 30
0.0
  0
VERTEX
  5
102B
  8
G
 10
68.3660854576068
 20
-38.15254769068461
 30
0.0
  0
VERTEX
  5
102C
  8
G
 10
83.04010380012977
 20
-32.1842902303628
 30
0.0
  0
VERTEX
  5
102D
  8
G
 10
102.4481280601601
 20
-78.19559774449719
 30
0.0
  0
VERTEX
  5
102E
  8
G
 10
112.3366404208005
 20
-78.19559774449719
 30
0.0
  0
SEQEND
  5
102F
  8
G
  0
POLYLINE
  5
299
  8
G
 66
     1
 10
0.0
 20
0.0
 30
0.0
  0
VERTEX
  5
1030
  8
G
 10
89.02836128545158
 20
-63.41832927291159
 30
0.0
  0
VERTEX
  5
1031
  8
G
 10
82.80235350294191
 20
-78.17959772449717
 30
0.0
  0
VERTEX
  5
1032
  8
G
 10
37.13104641380801
 20
-78.17959772449717
 30
0.0
  0
VERTEX
  5
1033
  8
G
 10
37.11529639412049
 20
-87.05360881701102
 30
0.0
  0
VERTEX
  5
1034
  8
G
 10
27.59378449223061
 20
-96.40362050452565
 30
0.0
  0
SEQEND
  5
1035
  8
G
  0
POLYLINE
  5
29A
  8
G
 66
     1
 10
0.0
 20
0.0
 30
0.0
  0
VERTEX
  5
1036
  8
G
 10
37.52679690849612
 20
-5.966257457821828
 30
0.0
  0
VERTEX
  5
1037
  8
G
 10
22.49527811909763
 20
0.1477501846877214
 30
0.0
  0
VERTEX
  5
1038
  8
G
 10
22.49527811909763
 20
44.9965562456953
 30
0.0
  0
VERTEX
  5
1039
  8
G
 10
13.54726693408367
 20
44.9965562456953
 30
0.0
  0
VERTEX
  5
103A
  8
G
 10
3.540254425318039
 20
54.60031825039781
 30
0.0
  0
VERTEX
  5
103B
  8
G
 10
-6.239507799384739
 20
44.9965562456953
 30
0.0
  0
VERTEX
  5
103C
  8
G
 10
-15.18726898408624
 20
44.9965562456953
 30
0.0
  0
VERTEX
  5
103D
  8
G
 10
-15.18726898408624
 20
28.38903548629436
 30
0.0
  0
SEQEND
  5
103E
  8
G
  0
POLYLINE
  5
29B
  8
G
 66
     1
 10
0.0
 20
0.0
 30
0.0
  0
VERTEX
  5
103F
  8
G
 10
105.6526320657901
 20
-84.58685573356968
 30
0.0
  0
VERTEX
  5
1040
  8
G
 10
118.755398444248
 20
-71.7488396860496
 30
0.0
  0
SEQEND
  5
1041
  8
G
  0
POLYLINE
  5
29C
  8
G
 66
     1
 10
0.0
 20
0.0
 30
0.0
  0
VERTEX
  5
1042
  8
G
 10
112.2091402614253
 20
-96.40112050140064
 30
0.0
  0
VERTEX
  5
1043
  8
G
 10
93.67611709514631
 20
-96.40112050140064
 30
0.0
  0
SEQEND
  5
1044
  8
G
  0
POLYLINE
  5
29D
  8
G
 66
     1
 10
0.0
 20
0.0
 30
0.0
  0
VERTEX
  5
1045
  8
G
 10
54.74156842696055
 20
-36.64154580193225
 30
0.0
  0
VERTEX
  5
1046
  8
G
 10
47.71455964319955
 20
-53.39531674414594
 30
0.0
  0
SEQEND
  5
1047
  8
G
  0
POLYLINE
  5
29E
  8
G
 66
     1
 10
0.0
 20
0.0
 30
0.0
  0
VERTEX
  5
1048
  8
G
 10
15.9770199712749
 20
3.48475435594294
 30
0.0
  0
VERTEX
  5
1049
  8
G
 10
15.95726994658747
 20
21.7582771978465
 30
0.0
  0
SEQEND
  5
104A
  8
G
  0
POLYLINE
  5
29F
  8
G
 66
     1
 10
0.0
 20
0.0
 30
0.0
  0
VERTEX
  5
104B
  8
G
 10
103.1201289001611
 20
-96.55487069358837
 30
0.0
  0
VERTEX
  5
104C
  8
G
 10
135.3069191336489
 20
-64.94758118447649
 30
0.0
  0
VERTEX
  5
104D
  8
G
 10
129.0804113505142
 20
-50.18656273320342
 30
0.0
  0
SEQEND
  5
104E
  8
G
  0
POLYLINE
  5
2A0
  8
G
 66
     1
 10
0.0
 20
0.0
 30
0.0
  0
VERTEX
  5
104F
  8
G
 10
-21.71077713847143
 20
34.6312932891166
 30
0.0
  0
VERTEX
  5
1050
  8
G
 10
-8.64951081188849
 20
21.75802719753399
 30
0.0
  0
SEQEND
  5
1051
  8
G
  0
POLYLINE
  5
2A1
  8
G
 66
     1
 10
0.0
 20
0.0
 30
0.0
  0
VERTEX
  5
1052
  8
G
 10
-40.26930033662541
 20
52.85556606945757
 30
0.0
  0
VERTEX
  5
1053
  8
G
 10
-58.86907358634204
 20
52.93756617195771
 30
0.0
  0
SEQEND
  5
1054
  8
G
  0
POLYLINE
  5
2A2
  8
G
 66
     1
 10
0.0
 20
0.0
 30
0.0
  0
VERTEX
  5
1055
  8
G
 10
-53.430316787896
 20
65.80533225666531
 30
0.0
  0
VERTEX
  5
1056
  8
G
 10
-71.99333999167504
 20
65.8115822644778
 30
0.0
  0
SEQEND
  5
1057
  8
G
  0
POLYLINE
  5
2A3
  8
G
 66
     1
 10
0.0
 20
0.0
 30
0.0
  0
VERTEX
  5
1058
  8
G
 10
29.07753634692045
 20
-35.2547940684926
 30
0.0
  0
VERTEX
  5
1059
  8
G
 10
15.9770199712749
 20
-22.28827786034732
 30
0.0
  0
SEQEND
  5
105A
  8
G
  0
POLYLINE
  5
2A4
  8
G
 66
     1
 10
0.0
 20
0.0
 30
0.0
  0
VERTEX
  5
105B
  8
G
 10
-65.5628319535399
 20
77.61884702355877
 30
0.0
  0
VERTEX
  5
105C
  8
G
 10
-78.18609773262222
 20
90.20536275670344
 30
0.0
  0
SEQEND
  5
105D
  8
G
  0
POLYLINE
  5
2A5
  8
G
 66
     1
 10
0.0
 20
0.0
 30
0.0
  0
VERTEX
  5
105E
  8
G
 10
70.04708755885946
 20
-84.5983557479447
 30
0.0
  0
VERTEX
  5
105F
  8
G
 10
88.85261106576382
 20
-103.0646288307861
 30
0.0
  0
VERTEX
  5
1060
  8
G
 10
154.4616930771163
 20
-102.9113786392233
 30
0.0
  0
SEQEND
  5
1061
  8
G
  0
POLYLINE
  5
2A6
  8
G
 66
     1
 10
0.0
 20
0.0
 30
0.0
  0
VERTEX
  5
1062
  8
G
 10
-72.23209029011286
 20
84.26910533638167
 30
0.0
  0
VERTEX
  5
1063
  8
G
 10
20.85077606347005
 20
84.26910533638167
 30
0.0
  0
VERTEX
  5
1064
  8
G
 10
37.11529639412049
 20
68.2975853719817
 30
0.0
  0
VERTEX
  5
1065
  8
G
 10
37.11529639412049
 20
59.35107418884273
 30
0.0
  0
VERTEX
  5
1066
  8
G
 10
54.26806783508482
 20
59.35107418884273
 30
0.0
  0
SEQEND
  5
1067
  8
G
  0
POLYLINE
  5
2A7
  8
G
 66
     1
 10
0.0
 20
0.0
 30
0.0
  0
VERTEX
  5
1068
  8
G
 10
-8.53226066532585
 20
3.460254325317905
 30
0.0
  0
VERTEX
  5
1069
  8
G
 10
-21.57527696909619
 20
16.35127043908804
 30
0.0
  0
SEQEND
  5
106A
  8
G
  0
POLYLINE
  5
2A8
  8
G
 66
     1
 10
0.0
 20
0.0
 30
0.0
  0
VERTEX
  5
106B
  8
G
 10
-8.53226066532585
 20
3.460254325317905
 30
0.0
  0
VERTEX
  5
106C
  8
G
 10
-21.57527696909619
 20
16.35127043908804
 30
0.0
  0
SEQEND
  5
106D
  8
G
  0
POLYLINE
  5
2A9
  8
G
 66
     1
 10
0.0
 20
0.0
 30
0.0
  0
VERTEX
  5
106E
  8
G
 10
79.59884949856183
 20
-103.0303787879735
 30
0.0
  0
VERTEX
  5
106F
  8
G
 10
-13.90176737720924
 20
-102.9113786392233
 30
0.0
  0
VERTEX
  5
1070
  8
G
 10
-29.6265370331713
 20
-87.05360881701102
 30
0.0
  0
VERTEX
  5
1071
  8
G
 10
-29.90628738285926
 20
-78.15309769137212
 30
0.0
  0
VERTEX
  5
1072
  8
G
 10
-46.85905857382323
 20
-78.15309769137212
 30
0.0
  0
SEQEND
  5
1073
  8
G
  0
POLYLINE
  5
2AA
  8
G
 66
     1
 10
0.0
 20
0.0
 30
0.0
  0
VERTEX
  5
1074
  8
G
 10
72.87059108823888
 20
-96.40237050296315
 30
0.0
  0
VERTEX
  5
1075
  8
G
 10
86.44360805451004
 20
-109.7726372157965
 30
0.0
  0
SEQEND
  5
1076
  8
G
  0
POLYLINE
  5
2AB
  8
G
 66
     1
 10
0.0
 20
0.0
 30
0.0
  0
VERTEX
  5
1077
  8
G
 10
-40.25505031881289
 20
34.64354330442913
 30
0.0
  0
VERTEX
  5
1078
  8
G
 10
-47.29805912257393
 20
17.80377225471532
 30
0.0
  0
SEQEND
  5
1079
  8
G
  0
POLYLINE
  5
2AC
  8
G
 66
     1
 10
0.0
 20
0.0
 30
0.0
  0
VERTEX
  5
107A
  8
G
 10
60.84057605072002
 20
-84.60985576231971
 30
0.0
  0
VERTEX
  5
107B
  8
G
 10
79.40684925856158
 20
-84.58685573356968
 30
0.0
  0
SEQEND
  5
107C
  8
G
  0
POLYLINE
  5
2AD
  8
G
 66
     1
 10
0.0
 20
0.0
 30
0.0
  0
VERTEX
  5
107D
  8
G
 10
47.72905966132458
 20
-71.60708950886189
 30
0.0
  0
VERTEX
  5
107E
  8
G
 10
66.32408290510358
 20
-71.71533964417456
 30
0.0
  0
SEQEND
  5
107F
  8
G
  0
POLYLINE
  5
2AE
  8
G
 66
     1
 10
0.0
 20
0.0
 30
0.0
  0
VERTEX
  5
1080
  8
G
 10
22.49527811909763
 20
-46.87405859257325
 30
0.0
  0
VERTEX
  5
1081
  8
G
 10
22.49527811909763
 20
-63.75257969072462
 30
0.0
  0
VERTEX
  5
1082
  8
G
 10
13.54726693408367
 20
-63.75257969072462
 30
0.0
  0
VERTEX
  5
1083
  8
G
 10
3.721254651568302
 20
-73.35609169511463
 30
0.0
  0
VERTEX
  5
1084
  8
G
 10
-6.058507573134477
 20
-63.75257969072462
 30
0.0
  0
VERTEX
  5
1085
  8
G
 10
-15.00651875814845
 20
-63.75257969072462
 30
0.0
  0
VERTEX
  5
1086
  8
G
 10
-15.27576909471134
 20
-19.06352382940479
 30
0.0
  0
VERTEX
  5
1087
  8
G
 10
-30.30778788473486
 20
-12.94976618720774
 30
0.0
  0
SEQEND
  5
1088
  8
G
  0
POLYLINE
  5
2AF
  8
G
 66
     1
 10
0.0
 20
0.0
 30
0.0
  0
VERTEX
  5
1089
  8
G
 10
15.95276994096241
 20
-40.49480061850078
 30
0.0
  0
VERTEX
  5
108A
  8
G
 10
29.17053646317055
 20
-53.38281672852092
 30
0.0
  0
SEQEND
  5
108B
  8
G
  0
POLYLINE
  5
2B0
  8
G
 66
     1
 10
0.0
 20
0.0
 30
0.0
  0
VERTEX
  5
108C
  8
G
 10
-43.61480451850565
 20
26.3695329619162
 30
0.0
  0
VERTEX
  5
108D
  8
G
 10
-28.58278572848218
 20
32.48379060473826
 30
0.0
  0
VERTEX
  5
108E
  8
G
 10
3.748004685005867
 20
0.7352509190636383
 30
0.0
  0
VERTEX
  5
108F
  8
G
 10
15.96751995939997
 20
12.54126567658209
 30
0.0
  0
SEQEND
  5
1090
  8
G
  0
POLYLINE
  5
2B1
  8
G
 66
     1
 10
0.0
 20
0.0
 30
0.0
  0
VERTEX
  5
1091
  8
G
 10
-8.53226066532585
 20
-22.31277789097238
 30
0.0
  0
VERTEX
  5
1092
  8
G
 10
-8.524760655950786
 20
-40.31480039350049
 30
0.0
  0
SEQEND
  5
1093
  8
G
  0
POLYLINE
  5
2B2
  8
G
 66
     1
 10
0.0
 20
0.0
 30
0.0
  0
VERTEX
  5
1094
  8
G
 10
-21.63577704472129
 20
-9.425511781889726
 30
0.0
  0
VERTEX
  5
1095
  8
G
 10
-38.81804852256062
 20
-16.34027042533804
 30
0.0
  0
SEQEND
  5
1096
  8
G
  0
POLYLINE
  5
2B3
  8
G
 66
     1
 10
0.0
 20
0.0
 30
0.0
  0
VERTEX
  5
1097
  8
G
 10
-57.3898217372772
 20
27.67828459785574
 30
0.0
  0
VERTEX
  5
1098
  8
G
 10
-64.47808059760075
 20
10.87351359189199
 30
0.0
  0
SEQEND
  5
1099
  8
G
  0
POLYLINE
  5
2B4
  8
G
 66
     1
 10
0.0
 20
0.0
 30
0.0
  0
VERTEX
  5
109A
  8
G
 10
-8.528510660638347
 20
-31.46578933223668
 30
0.0
  0
VERTEX
  5
109B
  8
G
 10
3.550254437818012
 20
-19.53777442221804
 30
0.0
  0
VERTEX
  5
109C
  8
G
 10
36.04204505255632
 20
-51.25056406320509
 30
0.0
  0
VERTEX
  5
109D
  8
G
 10
51.07356384195475
 20
-45.13630642038304
 30
0.0
  0
SEQEND
  5
109E
  8
G
  0
POLYLINE
  5
2B5
  8
G
 66
     1
 10
0.0
 20
0.0
 30
0.0
  0
VERTEX
  5
109F
  8
G
 10
-38.72354840443558
 20
-2.449503061878832
 30
0.0
  0
VERTEX
  5
10A0
  8
G
 10
-55.92756990946242
 20
-9.392011740014683
 30
0.0
  0
SEQEND
  5
10A1
  8
G
  0
POLYLINE
  5
2B6
  8
G
 66
     1
 10
0.0
 20
0.0
 30
0.0
  0
VERTEX
  5
10A2
  8
G
 10
-104.7758809698512
 20
77.61909702387125
 30
0.0
  0
VERTEX
  5
10A3
  8
G
 10
-86.26560783200978
 20
77.61909702387125
 30
0.0
  0
SEQEND
  5
10A4
  8
G
  0
POLYLINE
  5
2B7
  8
G
 66
     1
 10
0.0
 20
0.0
 30
0.0
  0
VERTEX
  5
10A5
  8
G
 10
-98.23912279890351
 20
65.8115822644778
 30
0.0
  0
VERTEX
  5
10A6
  8
G
 10
-111.3663892079866
 20
52.94231617789521
 30
0.0
  0
SEQEND
  5
10A7
  8
G
  0
POLYLINE
  5
2B8
  8
G
 66
     1
 10
0.0
 20
0.0
 30
0.0
  0
VERTEX
  5
10A8
  8
G
 10
-81.54285192856491
 20
44.56855571069464
 30
0.0
  0
VERTEX
  5
10A9
  8
G
 10
-75.31684414605513
 20
59.32957416196768
 30
0.0
  0
VERTEX
  5
10AA
  8
G
 10
-29.80728725910905
 20
59.35107418884273
 30
0.0
  0
VERTEX
  5
10AB
  8
G
 10
-29.80728725910905
 20
68.2978353722942
 30
0.0
  0
VERTEX
  5
10AC
  8
G
 10
-20.35402544253185
 20
77.5808469760587
 30
0.0
  0
SEQEND
  5
10AD
  8
G
  0
POLYLINE
  5
2B9
  8
G
 66
     1
 10
0.0
 20
0.0
 30
0.0
  0
VERTEX
  5
10AE
  8
G
 10
-61.46582683228354
 20
19.29852412315514
 30
0.0
  0
VERTEX
  5
10AF
  8
G
 10
-76.13984517480651
 20
13.33001666252082
 30
0.0
  0
VERTEX
  5
10B0
  8
G
 10
-95.54811943514926
 20
59.34157417696771
 30
0.0
  0
VERTEX
  5
10B1
  8
G
 10
-105.4366317957897
 20
59.34157417696771
 30
0.0
  0
SEQEND
  5
10B2
  8
G
  0
POLYLINE
  5
2BA
  8
G
 66
     1
 10
0.0
 20
0.0
 30
0.0
  0
VERTEX
  5
10B3
  8
G
 10
-78.01509751887193
 20
36.09804512255641
 30
0.0
  0
VERTEX
  5
10B4
  8
G
 10
-85.11510639388302
 20
52.94356617945772
 30
0.0
  0
SEQEND
  5
10B5
  8
G
  0
POLYLINE
  5
2BB
  8
G
 66
     1
 10
0.0
 20
0.0
 30
0.0
  0
VERTEX
  5
10B6
  8
G
 10
-47.38430923038652
 20
-6.013757517196899
 30
0.0
  0
VERTEX
  5
10B7
  8
G
 10
-62.05807757259703
 20
-0.0452500565625744
 30
0.0
  0
VERTEX
  5
10B8
  8
G
 10
-42.65005331256663
 20
45.96630745788433
 30
0.0
  0
VERTEX
  5
10B9
  8
G
 10
-49.64231205289008
 20
52.83281604102005
 30
0.0
  0
SEQEND
  5
10BA
  8
G
  0
POLYLINE
  5
2BC
  8
G
 66
     1
 10
0.0
 20
0.0
 30
0.0
  0
VERTEX
  5
10BB
  8
G
 10
18.32527290659112
 20
-96.40512050640064
 30
0.0
  0
VERTEX
  5
10BC
  8
G
 10
37.11529639412049
 20
-96.27237034046293
 30
0.0
  0
SEQEND
  5
10BD
  8
G
  0
POLYLINE
  5
2BD
  8
G
 66
     1
 10
0.0
 20
0.0
 30
0.0
  0
VERTEX
  5
10BE
  8
G
 10
-116.8061460076825
 20
65.80533225666531
 30
0.0
  0
VERTEX
  5
10BF
  8
G
 10
-129.9824124780156
 20
52.86506608133261
 30
0.0
  0
SEQEND
  5
10C0
  8
G
  0
POLYLINE
  5
2BE
  8
G
 66
     1
 10
0.0
 20
0.0
 30
0.0
  0
VERTEX
  5
10C1
  8
G
 10
-88.54436068045084
 20
27.98203497754371
 30
0.0
  0
VERTEX
  5
10C2
  8
G
 10
-94.62236827796039
 20
13.57276696595871
 30
0.0
  0
VERTEX
  5
10C3
  8
G
 10
-141.4779268474086
 20
32.63129078911348
 30
0.0
  0
VERTEX
  5
10C4
  8
G
 10
-148.4704355880444
 20
25.76478220597775
 30
0.0
  0
SEQEND
  5
10C5
  8
G
  0
POLYLINE
  5
2BF
  8
G
 66
     1
 10
0.0
 20
0.0
 30
0.0
  0
VERTEX
  5
10C6
  8
G
 10
-21.70077712597146
 20
-53.44456680570852
 30
0.0
  0
VERTEX
  5
10C7
  8
G
 10
-21.67502709378391
 20
-35.22854403568006
 30
0.0
  0
SEQEND
  5
10C8
  8
G
  0
POLYLINE
  5
2C0
  8
G
 66
     1
 10
0.0
 20
0.0
 30
0.0
  0
VERTEX
  5
10C9
  8
G
 10
-85.11335639169545
 20
19.2677740847176
 30
0.0
  0
VERTEX
  5
10CA
  8
G
 10
-92.22061527576909
 20
36.1027951284939
 30
0.0
  0
SEQEND
  5
10CB
  8
G
  0
POLYLINE
  5
2C1
  8
G
 66
     1
 10
0.0
 20
0.0
 30
0.0
  0
VERTEX
  5
10CC
  8
G
 10
-47.33905917382396
 20
-36.61554576943222
 30
0.0
  0
VERTEX
  5
10CD
  8
G
 10
-64.47808059760075
 20
-29.65778707223384
 30
0.0
  0
SEQEND
  5
10CE
  8
G
  0
POLYLINE
  5
2C2
  8
G
 66
     1
 10
0.0
 20
0.0
 30
0.0
  0
VERTEX
  5
10CF
  8
G
 10
-140.5314256642821
 20
77.48884686105855
 30
0.0
  0
VERTEX
  5
10D0
  8
G
 10
-153.4191917739897
 20
90.20536275670344
 30
0.0
  0
SEQEND
  5
10D1
  8
G
  0
POLYLINE
  5
2C3
  8
G
 66
     1
 10
0.0
 20
0.0
 30
0.0
  0
VERTEX
  5
10D2
  8
G
 10
-147.3371841714803
 20
84.20435525544404
 30
0.0
  0
VERTEX
  5
10D3
  8
G
 10
-81.45060181325232
 20
84.26910533638167
 30
0.0
  0
VERTEX
  5
10D4
  8
G
 10
-62.65157831447289
 20
65.80883226104032
 30
0.0
  0
SEQEND
  5
10D5
  8
G
  0
POLYLINE
  5
2C4
  8
G
 66
     1
 10
0.0
 20
0.0
 30
0.0
  0
VERTEX
  5
10D6
  8
G
 10
-55.77831972289971
 20
-33.21229151536441
 30
0.0
  0
VERTEX
  5
10D7
  8
G
 10
-61.85632732040915
 20
-18.80277350346688
 30
0.0
  0
VERTEX
  5
10D8
  8
G
 10
-15.00101875127348
 20
0.2560003200003962
 30
0.0
  0
VERTEX
  5
10D9
  8
G
 10
-15.00101875127348
 20
9.96651245814057
 30
0.0
  0
SEQEND
  5
10DA
  8
G
  0
POLYLINE
  5
2C5
  8
G
 66
     1
 10
0.0
 20
0.0
 30
0.0
  0
VERTEX
  5
10DB
  8
G
 10
-40.24505030631292
 20
-53.45706682133353
 30
0.0
  0
VERTEX
  5
10DC
  8
G
 10
-57.41182176477719
 20
-46.48955811194764
 30
0.0
  0
SEQEND
  5
10DD
  8
G
  0
POLYLINE
  5
2C6
  8
G
 66
     1
 10
0.0
 20
0.0
 30
0.0
  0
VERTEX
  5
10DE
  8
G
 10
-121.4146517683147
 20
31.10503888129859
 30
0.0
  0
VERTEX
  5
10DF
  8
G
 10
-127.6411595514494
 20
45.86605733257164
 30
0.0
  0
VERTEX
  5
10E0
  8
G
 10
-95.34661918327402
 20
77.57859697324619
 30
0.0
  0
SEQEND
  5
10E1
  8
G
  0
POLYLINE
  5
2C7
  8
G
 66
     1
 10
0.0
 20
0.0
 30
0.0
  0
VERTEX
  5
10E2
  8
G
 10
-105.7353821692277
 20
10.8867636084545
 30
0.0
  0
VERTEX
  5
10E3
  8
G
 10
-122.9056536320671
 20
17.84527230659038
 30
0.0
  0
SEQEND
  5
10E4
  8
G
  0
POLYLINE
  5
2C8
  8
G
 66
     1
 10
0.0
 20
0.0
 30
0.0
  0
VERTEX
  5
10E5
  8
G
 10
-40.25930032412543
 20
-71.66883958604949
 30
0.0
  0
VERTEX
  5
10E6
  8
G
 10
-53.430316787896
 20
-84.60985576231971
 30
0.0
  0
SEQEND
  5
10E7
  8
G
  0
POLYLINE
  5
2C9
  8
G
 66
     1
 10
0.0
 20
0.0
 30
0.0
  0
VERTEX
  5
10E8
  8
G
 10
-129.9951624939532
 20
34.65454331817912
 30
0.0
  0
VERTEX
  5
10E9
  8
G
 10
-112.8456410570514
 20
27.68303460379326
 30
0.0
  0
SEQEND
  5
10EA
  8
G
  0
POLYLINE
  5
2CA
  8
G
 66
     1
 10
0.0
 20
0.0
 30
0.0
  0
VERTEX
  5
10EB
  8
G
 10
-114.3741429676787
 20
14.38776798470997
 30
0.0
  0
VERTEX
  5
10EC
  8
G
 10
-108.2963853704817
 20
-0.0217500271875384
 30
0.0
  0
VERTEX
  5
10ED
  8
G
 10
-155.1516939396174
 20
-19.08052385065482
 30
0.0
  0
VERTEX
  5
10EE
  8
G
 10
-155.1516939396174
 20
-28.79103598879499
 30
0.0
  0
SEQEND
  5
10EF
  8
G
  0
POLYLINE
  5
2CB
  8
G
 66
     1
 10
0.0
 20
0.0
 30
0.0
  0
VERTEX
  5
10F0
  8
G
 10
-29.6265370331713
 20
-96.27237034046293
 30
0.0
  0
VERTEX
  5
10F1
  8
G
 10
-15.9230199037749
 20
-109.7946372432966
 30
0.0
  0
SEQEND
  5
10F2
  8
G
  0
POLYLINE
  5
2CC
  8
G
 66
     1
 10
0.0
 20
0.0
 30
0.0
  0
VERTEX
  5
10F3
  8
G
 10
-85.11335639169545
 20
-38.05229756537197
 30
0.0
  0
VERTEX
  5
10F4
  8
G
 10
-78.03684754605945
 20
-54.9090686363358
 30
0.0
  0
SEQEND
  5
10F5
  8
G
  0
POLYLINE
  5
2CD
  8
G
 66
     1
 10
0.0
 20
0.0
 30
0.0
  0
VERTEX
  5
10F6
  8
G
 10
-81.57635197043999
 20
-46.68855836069795
 30
0.0
  0
VERTEX
  5
10F7
  8
G
 10
-75.49834437293043
 20
-32.27929034911294
 30
0.0
  0
VERTEX
  5
10F8
  8
G
 10
-28.64303580379476
 20
-51.33781417226773
 30
0.0
  0
VERTEX
  5
10F9
  8
G
 10
-21.65052706315885
 20
-44.471305589132
 30
0.0
  0
SEQEND
  5
10FA
  8
G
  0
POLYLINE
  5
2CE
  8
G
 66
     1
 10
0.0
 20
0.0
 30
0.0
  0
VERTEX
  5
10FB
  8
G
 10
-148.5409356761696
 20
34.6407933009916
 30
0.0
  0
VERTEX
  5
10FC
  8
G
 10
-148.5694357117947
 20
16.45852057315072
 30
0.0
  0
SEQEND
  5
10FD
  8
G
  0
POLYLINE
  5
2CF
  8
G
 66
     1
 10
0.0
 20
0.0
 30
0.0
  0
VERTEX
  5
10FE
  8
G
 10
-114.2991428739286
 20
-9.392011740014683
 30
0.0
  0
VERTEX
  5
10FF
  8
G
 10
-131.4261642827053
 20
-16.36677045846309
 30
0.0
  0
SEQEND
  5
1100
  8
G
  0
POLYLINE
  5
2D0
  8
G
 66
     1
 10
0.0
 20
0.0
 30
0.0
  0
VERTEX
  5
1101
  8
G
 10
-188.6642358302948
 20
77.6493470616838
 30
0.0
  0
VERTEX
  5
1102
  8
G
 10
-207.4540093175117
 20
77.48884686105855
 30
0.0
  0
SEQEND
  5
1103
  8
G
  0
POLYLINE
  5
2D1
  8
G
 66
     1
 10
0.0
 20
0.0
 30
0.0
  0
VERTEX
  5
1104
  8
G
 10
-105.7483821854778
 20
-29.65828707285884
 30
0.0
  0
VERTEX
  5
1105
  8
G
 10
-112.8018910023637
 20
-46.4558080697601
 30
0.0
  0
SEQEND
  5
1106
  8
G
  0
POLYLINE
  5
2D2
  8
G
 66
     1
 10
0.0
 20
0.0
 30
0.0
  0
VERTEX
  5
1107
  8
G
 10
-131.4266642833303
 20
-2.429753037191302
 30
0.0
  0
VERTEX
  5
1108
  8
G
 10
-148.5656857071071
 20
-9.4027617534522
 30
0.0
  0
SEQEND
  5
1109
  8
G
  0
POLYLINE
  5
2D3
  8
G
 66
     1
 10
0.0
 20
0.0
 30
0.0
  0
VERTEX
  5
110A
  8
G
 10
-123.0384037980048
 20
-12.91426614283269
 30
0.0
  0
VERTEX
  5
110B
  8
G
 10
-108.3648854561068
 20
-18.88302360377951
 30
0.0
  0
VERTEX
  5
110C
  8
G
 10
-127.7726597158247
 20
-64.89458111822641
 30
0.0
  0
VERTEX
  5
110D
  8
G
 10
-120.7806509758137
 20
-71.76083970104963
 30
0.0
  0
SEQEND
  5
110E
  8
G
  0
POLYLINE
  5
2D4
  8
G
 66
     1
 10
0.0
 20
0.0
 30
0.0
  0
VERTEX
  5
110F
  8
G
 10
-92.17661522076901
 20
-54.87531859414825
 30
0.0
  0
VERTEX
  5
1110
  8
G
 10
-85.11610639513299
 20
-71.71908964886207
 30
0.0
  0
SEQEND
  5
1111
  8
G
  0
POLYLINE
  5
2D5
  8
G
 66
     1
 10
0.0
 20
0.0
 30
0.0
  0
VERTEX
  5
1112
  8
G
 10
-109.2806366007958
 20
-38.15254769068461
 30
0.0
  0
VERTEX
  5
1113
  8
G
 10
-94.60686825858534
 20
-32.1842902303628
 30
0.0
  0
VERTEX
  5
1114
  8
G
 10
-75.19859399824247
 20
-78.19559774449719
 30
0.0
  0
VERTEX
  5
1115
  8
G
 10
-65.31008163760202
 20
-78.19559774449719
 30
0.0
  0
SEQEND
  5
1116
  8
G
  0
POLYLINE
  5
2D6
  8
G
 66
     1
 10
0.0
 20
0.0
 30
0.0
  0
VERTEX
  5
1117
  8
G
 10
-88.61861077326353
 20
-63.41832927291159
 30
0.0
  0
VERTEX
  5
1118
  8
G
 10
-94.84436855546073
 20
-78.17959772449717
 30
0.0
  0
VERTEX
  5
1119
  8
G
 10
-140.5156756445946
 20
-78.17959772449717
 30
0.0
  0
VERTEX
  5
111A
  8
G
 10
-140.5314256642821
 20
-87.05360881701102
 30
0.0
  0
VERTEX
  5
111B
  8
G
 10
-150.0531875664844
 20
-96.40362050452565
 30
0.0
  0
SEQEND
  5
111C
  8
G
  0
POLYLINE
  5
2D7
  8
G
 66
     1
 10
0.0
 20
0.0
 30
0.0
  0
VERTEX
  5
111D
  8
G
 10
-71.99408999261254
 20
-84.58685573356968
 30
0.0
  0
VERTEX
  5
111E
  8
G
 10
-58.89132361415454
 20
-71.7488396860496
 30
0.0
  0
SEQEND
  5
111F
  8
G
  0
POLYLINE
  5
2D8
  8
G
 66
     1
 10
0.0
 20
0.0
 30
0.0
  0
VERTEX
  5
1120
  8
G
 10
-140.1199251499064
 20
-5.966257457821828
 30
0.0
  0
VERTEX
  5
1121
  8
G
 10
-155.151443939305
 20
0.1477501846877214
 30
0.0
  0
VERTEX
  5
1122
  8
G
 10
-155.151443939305
 20
44.9965562456953
 30
0.0
  0
VERTEX
  5
1123
  8
G
 10
-164.099455124319
 20
44.9965562456953
 30
0.0
  0
VERTEX
  5
1124
  8
G
 10
-174.1064676330845
 20
54.60031825039781
 30
0.0
  0
VERTEX
  5
1125
  8
G
 10
-183.8859798574748
 20
44.9965562456953
 30
0.0
  0
VERTEX
  5
1126
  8
G
 10
-192.8339910424888
 20
44.9965562456953
 30
0.0
  0
VERTEX
  5
1127
  8
G
 10
-192.8339910424888
 20
28.38903548629436
 30
0.0
  0
SEQEND
  5
1128
  8
G
  0
POLYLINE
  5
2D9
  8
G
 66
     1
 10
0.0
 20
0.0
 30
0.0
  0
VERTEX
  5
1129
  8
G
 10
-65.43783179728973
 20
-96.40112050140064
 30
0.0
  0
VERTEX
  5
112A
  8
G
 10
-83.97060496325616
 20
-96.40112050140064
 30
0.0
  0
SEQEND
  5
112B
  8
G
  0
POLYLINE
  5
2DA
  8
G
 66
     1
 10
0.0
 20
0.0
 30
0.0
  0
VERTEX
  5
112C
  8
G
 10
-122.9054036317546
 20
-36.64154580193225
 30
0.0
  0
VERTEX
  5
112D
  8
G
 10
-129.9319124148906
 20
-53.39531674414594
 30
0.0
  0
SEQEND
  5
112E
  8
G
  0
POLYLINE
  5
2DB
  8
G
 66
     1
 10
0.0
 20
0.0
 30
0.0
  0
VERTEX
  5
112F
  8
G
 10
-74.5268431585539
 20
-96.55487069358837
 30
0.0
  0
VERTEX
  5
1130
  8
G
 10
-42.34005292506617
 20
-64.94758118447649
 30
0.0
  0
VERTEX
  5
1131
  8
G
 10
-48.56631070788842
 20
-50.18656273320342
 30
0.0
  0
SEQEND
  5
1132
  8
G
  0
POLYLINE
  5
2DC
  8
G
 66
     1
 10
0.0
 20
0.0
 30
0.0
  0
VERTEX
  5
1133
  8
G
 10
-161.6697020871277
 20
3.48475435594294
 30
0.0
  0
VERTEX
  5
1134
  8
G
 10
-161.6892021115026
 20
21.7582771978465
 30
0.0
  0
SEQEND
  5
1135
  8
G
  0
POLYLINE
  5
2DD
  8
G
 66
     1
 10
0.0
 20
0.0
 30
0.0
  0
VERTEX
  5
1136
  8
G
 10
-199.357499196874
 20
34.6312932891166
 30
0.0
  0
VERTEX
  5
1137
  8
G
 10
-186.2959828699785
 20
21.75802719753399
 30
0.0
  0
SEQEND
  5
1138
  8
G
  0
POLYLINE
  5
2DE
  8
G
 66
     1
 10
0.0
 20
0.0
 30
0.0
  0
VERTEX
  5
1139
  8
G
 10
-107.5998844998556
 20
-84.5983557479447
 30
0.0
  0
VERTEX
  5
113A
  8
G
 10
-88.79436099295128
 20
-103.0646288307861
 30
0.0
  0
VERTEX
  5
113B
  8
G
 10
-23.18527898159874
 20
-102.9113786392233
 30
0.0
  0
SEQEND
  5
113C
  8
G
  0
POLYLINE
  5
2DF
  8
G
 66
     1
 10
0.0
 20
0.0
 30
0.0
  0
VERTEX
  5
113D
  8
G
 10
-148.5691857114822
 20
-35.2547940684926
 30
0.0
  0
VERTEX
  5
113E
  8
G
 10
-161.6697020871277
 20
-22.28827786034732
 30
0.0
  0
SEQEND
  5
113F
  8
G
  0
POLYLINE
  5
2E0
  8
G
 66
     1
 10
0.0
 20
0.0
 30
0.0
  0
VERTEX
  5
1140
  8
G
 10
-217.916022395028
 20
52.85556606945757
 30
0.0
  0
VERTEX
  5
1141
  8
G
 10
-236.516045645057
 20
52.93756617195771
 30
0.0
  0
SEQEND
  5
1142
  8
G
  0
POLYLINE
  5
2E1
  8
G
 66
     1
 10
0.0
 20
0.0
 30
0.0
  0
VERTEX
  5
1143
  8
G
 10
-231.0770388462986
 20
65.80533225666531
 30
0.0
  0
VERTEX
  5
1144
  8
G
 10
-249.6400620500775
 20
65.8115822644778
 30
0.0
  0
SEQEND
  5
1145
  8
G
  0
POLYLINE
  5
2E2
  8
G
 66
     1
 10
0.0
 20
0.0
 30
0.0
  0
VERTEX
  5
1146
  8
G
 10
-98.04762255952824
 20
-103.030628788286
 30
0.0
  0
VERTEX
  5
1147
  8
G
 10
-173.8792173490216
 20
-102.9740037175046
 30
0.0
  0
VERTEX
  5
1148
  8
G
 10
-191.5484894356117
 20
-102.9115036393796
 30
0.0
  0
VERTEX
  5
1149
  8
G
 10
-207.2732590915739
 20
-87.05360881701102
 30
0.0
  0
VERTEX
  5
114A
  8
G
 10
-207.5530094412619
 20
-78.15309769137212
 30
0.0
  0
VERTEX
  5
114B
  8
G
 10
-224.5057806322258
 20
-78.15309769137212
 30
0.0
  0
SEQEND
  5
114C
  8
G
  0
POLYLINE
  5
2E3
  8
G
 66
     1
 10
0.0
 20
0.0
 30
0.0
  0
VERTEX
  5
114D
  8
G
 10
-104.7761309701638
 20
-96.40237050296315
 30
0.0
  0
VERTEX
  5
114E
  8
G
 10
-91.20336400420501
 20
-109.7726372157965
 30
0.0
  0
SEQEND
  5
114F
  8
G
  0
POLYLINE
  5
2E4
  8
G
 66
     1
 10
0.0
 20
0.0
 30
0.0
  0
VERTEX
  5
1150
  8
G
 10
-186.1787327234159
 20
3.460254325317905
 30
0.0
  0
VERTEX
  5
1151
  8
G
 10
-199.2219990274988
 20
16.35127043908804
 30
0.0
  0
SEQEND
  5
1152
  8
G
  0
POLYLINE
  5
2E5
  8
G
 66
     1
 10
0.0
 20
0.0
 30
0.0
  0
VERTEX
  5
1153
  8
G
 10
-186.1787327234159
 20
3.460254325317905
 30
0.0
  0
VERTEX
  5
1154
  8
G
 10
-199.2219990274988
 20
16.35127043908804
 30
0.0
  0
SEQEND
  5
1155
  8
G
  0
POLYLINE
  5
2E6
  8
G
 66
     1
 10
0.0
 20
0.0
 30
0.0
  0
VERTEX
  5
1156
  8
G
 10
-243.2095540119425
 20
77.61884702355877
 30
0.0
  0
VERTEX
  5
1157
  8
G
 10
-255.8325697907123
 20
90.20536275670344
 30
0.0
  0
SEQEND
  5
1158
  8
G
  0
POLYLINE
  5
2E7
  8
G
 66
     1
 10
0.0
 20
0.0
 30
0.0
  0
VERTEX
  5
1159
  8
G
 10
-249.8788123485155
 20
84.26910533638167
 30
0.0
  0
VERTEX
  5
115A
  8
G
 10
-156.7959459949326
 20
84.26910533638167
 30
0.0
  0
VERTEX
  5
115B
  8
G
 10
-140.5314256642821
 20
68.2975853719817
 30
0.0
  0
VERTEX
  5
115C
  8
G
 10
-140.5314256642821
 20
59.35107418884273
 30
0.0
  0
VERTEX
  5
115D
  8
G
 10
-123.3789042236303
 20
59.35107418884273
 30
0.0
  0
SEQEND
  5
115E
  8
G
  0
POLYLINE
  5
2E8
  8
G
 66
     1
 10
0.0
 20
0.0
 30
0.0
  0
VERTEX
  5
115F
  8
G
 10
-116.8061460076825
 20
-84.60985576231971
 30
0.0
  0
VERTEX
  5
1160
  8
G
 10
-98.23987279984101
 20
-84.58685573356968
 30
0.0
  0
SEQEND
  5
1161
  8
G
  0
POLYLINE
  5
2E9
  8
G
 66
     1
 10
0.0
 20
0.0
 30
0.0
  0
VERTEX
  5
1162
  8
G
 10
-129.9179123973905
 20
-71.60708950886189
 30
0.0
  0
VERTEX
  5
1163
  8
G
 10
-111.3223891529864
 20
-71.71533964417456
 30
0.0
  0
SEQEND
  5
1164
  8
G
  0
POLYLINE
  5
2EA
  8
G
 66
     1
 10
0.0
 20
0.0
 30
0.0
  0
VERTEX
  5
1165
  8
G
 10
-217.9017723772155
 20
34.64354330442913
 30
0.0
  0
VERTEX
  5
1166
  8
G
 10
-224.9447811809765
 20
17.80377225471532
 30
0.0
  0
SEQEND
  5
1167
  8
G
  0
POLYLINE
  5
2EB
  8
G
 66
     1
 10
0.0
 20
0.0
 30
0.0
  0
VERTEX
  5
1168
  8
G
 10
-155.151443939305
 20
-46.87405859257325
 30
0.0
  0
VERTEX
  5
1169
  8
G
 10
-155.151443939305
 20
-63.75257969072462
 30
0.0
  0
VERTEX
  5
116A
  8
G
 10
-164.099455124319
 20
-63.75257969072462
 30
0.0
  0
VERTEX
  5
116B
  8
G
 10
-173.9257174071469
 20
-73.35609169511463
 30
0.0
  0
VERTEX
  5
116C
  8
G
 10
-183.705229631537
 20
-63.75257969072462
 30
0.0
  0
VERTEX
  5
116D
  8
G
 10
-192.653240816551
 20
-63.75257969072462
 30
0.0
  0
VERTEX
  5
116E
  8
G
 10
-192.9227411534265
 20
-19.06352382940479
 30
0.0
  0
VERTEX
  5
116F
  8
G
 10
-207.954259942825
 20
-12.94976618720774
 30
0.0
  0
SEQEND
  5
1170
  8
G
  0
POLYLINE
  5
2EC
  8
G
 66
     1
 10
0.0
 20
0.0
 30
0.0
  0
VERTEX
  5
1171
  8
G
 10
-161.6937021171277
 20
-40.49480061850078
 30
0.0
  0
VERTEX
  5
1172
  8
G
 10
-148.4764355955446
 20
-53.38281672852092
 30
0.0
  0
SEQEND
  5
1173
  8
G
  0
POLYLINE
  5
2ED
  8
G
 66
     1
 10
0.0
 20
0.0
 30
0.0
  0
VERTEX
  5
1174
  8
G
 10
-221.2612765765957
 20
26.3695329619162
 30
0.0
  0
VERTEX
  5
1175
  8
G
 10
-206.2295077868847
 20
32.48379060473826
 30
0.0
  0
VERTEX
  5
1176
  8
G
 10
-173.8893423616779
 20
0.6480008100010011
 30
0.0
  0
VERTEX
  5
1177
  8
G
 10
-161.6794520993152
 20
12.54126567658209
 30
0.0
  0
SEQEND
  5
1178
  8
G
  0
POLYLINE
  5
2EE
  8
G
 66
     1
 10
0.0
 20
0.0
 30
0.0
  0
VERTEX
  5
1179
  8
G
 10
-186.1787327234159
 20
-22.31277789097238
 30
0.0
  0
VERTEX
  5
117A
  8
G
 10
-186.1714827143534
 20
-40.31480039350049
 30
0.0
  0
SEQEND
  5
117B
  8
G
  0
POLYLINE
  5
2EF
  8
G
 66
     1
 10
0.0
 20
0.0
 30
0.0
  0
VERTEX
  5
117C
  8
G
 10
-199.2822491028113
 20
-9.425511781889726
 30
0.0
  0
VERTEX
  5
117D
  8
G
 10
-216.4647705809632
 20
-16.34027042533804
 30
0.0
  0
SEQEND
  5
117E
  8
G
  0
POLYLINE
  5
2F0
  8
G
 66
     1
 10
0.0
 20
0.0
 30
0.0
  0
VERTEX
  5
117F
  8
G
 10
-186.1749827187284
 20
-31.46578933223668
 30
0.0
  0
VERTEX
  5
1180
  8
G
 10
-174.0964676205845
 20
-19.53789942237429
 30
0.0
  0
VERTEX
  5
1181
  8
G
 10
-141.6049270061587
 20
-51.25056406320509
 30
0.0
  0
VERTEX
  5
1182
  8
G
 10
-126.5731582164477
 20
-45.13630642038304
 30
0.0
  0
SEQEND
  5
1183
  8
G
  0
POLYLINE
  5
2F1
  8
G
 66
     1
 10
0.0
 20
0.0
 30
0.0
  0
VERTEX
  5
1184
  8
G
 10
-235.0365437956798
 20
27.67828459785574
 30
0.0
  0
VERTEX
  5
1185
  8
G
 10
-242.1245526556909
 20
10.87351359189199
 30
0.0
  0
SEQEND
  5
1186
  8
G
  0
POLYLINE
  5
2F2
  8
G
 66
     1
 10
0.0
 20
0.0
 30
0.0
  0
VERTEX
  5
1187
  8
G
 10
-216.3702704628381
 20
-2.449503061878832
 30
0.0
  0
VERTEX
  5
1188
  8
G
 10
-233.5745419681774
 20
-9.392011740014683
 30
0.0
  0
SEQEND
  5
1189
  8
G
  0
POLYLINE
  5
2F3
  8
G
 66
     1
 10
0.0
 20
0.0
 30
0.0
  0
VERTEX
  5
118A
  8
G
 10
-282.4226030282538
 20
77.61909702387125
 30
0.0
  0
VERTEX
  5
118B
  8
G
 10
-263.9123298904124
 20
77.61909702387125
 30
0.0
  0
SEQEND
  5
118C
  8
G
  0
POLYLINE
  5
2F4
  8
G
 66
     1
 10
0.0
 20
0.0
 30
0.0
  0
VERTEX
  5
118D
  8
G
 10
-239.1127988909986
 20
19.29852412315514
 30
0.0
  0
VERTEX
  5
118E
  8
G
 10
-253.7863172328965
 20
13.33001666252082
 30
0.0
  0
VERTEX
  5
118F
  8
G
 10
-273.1945914932394
 20
59.34157417696771
 30
0.0
  0
VERTEX
  5
1190
  8
G
 10
-283.0833538541923
 20
59.34157417696771
 30
0.0
  0
SEQEND
  5
1191
  8
G
  0
POLYLINE
  5
2F5
  8
G
 66
     1
 10
0.0
 20
0.0
 30
0.0
  0
VERTEX
  5
1192
  8
G
 10
-259.1895739869674
 20
44.56855571069464
 30
0.0
  0
VERTEX
  5
1193
  8
G
 10
-252.9638162047702
 20
59.32957416196768
 30
0.0
  0
VERTEX
  5
1194
  8
G
 10
-207.4540093175117
 20
59.35107418884273
 30
0.0
  0
VERTEX
  5
1195
  8
G
 10
-207.4540093175117
 20
68.2978353722942
 30
0.0
  0
VERTEX
  5
1196
  8
G
 10
-198.0007475009345
 20
77.5808469760587
 30
0.0
  0
SEQEND
  5
1197
  8
G
  0
POLYLINE
  5
2F6
  8
G
 66
     1
 10
0.0
 20
0.0
 30
0.0
  0
VERTEX
  5
1198
  8
G
 10
-275.8858448573061
 20
65.8115822644778
 30
0.0
  0
VERTEX
  5
1199
  8
G
 10
-289.0131112663892
 20
52.94231617789521
 30
0.0
  0
SEQEND
  5
119A
  8
G
  0
POLYLINE
  5
2F7
  8
G
 66
     1
 10
0.0
 20
0.0
 30
0.0
  0
VERTEX
  5
119B
  8
G
 10
-255.6615695769621
 20
36.09804512255641
 30
0.0
  0
VERTEX
  5
119C
  8
G
 10
-262.7618284522856
 20
52.94356617945772
 30
0.0
  0
SEQEND
  5
119D
  8
G
  0
POLYLINE
  5
2F8
  8
G
 66
     1
 10
0.0
 20
0.0
 30
0.0
  0
VERTEX
  5
119E
  8
G
 10
-225.0310312887891
 20
-6.013757517196899
 30
0.0
  0
VERTEX
  5
119F
  8
G
 10
-239.7047996309996
 20
-0.0452500565625744
 30
0.0
  0
VERTEX
  5
11A0
  8
G
 10
-220.2967753709692
 20
45.96630745788433
 30
0.0
  0
VERTEX
  5
11A1
  8
G
 10
-227.2890341112926
 20
52.83281604102005
 30
0.0
  0
SEQEND
  5
11A2
  8
G
  0
POLYLINE
  5
2F9
  8
G
 66
     1
 10
0.0
 20
0.0
 30
0.0
  0
VERTEX
  5
11A3
  8
G
 10
-159.3211991514989
 20
-96.40512050640064
 30
0.0
  0
VERTEX
  5
11A4
  8
G
 10
-140.5314256642821
 20
-96.27237034046293
 30
0.0
  0
SEQEND
  5
11A5
  8
G
  0
POLYLINE
  5
2FA
  8
G
 66
     1
 10
0.0
 20
0.0
 30
0.0
  0
VERTEX
  5
11A6
  8
G
 10
-199.3474991843741
 20
-53.44456680570852
 30
0.0
  0
VERTEX
  5
11A7
  8
G
 10
-199.3219991524991
 20
-35.22854403568006
 30
0.0
  0
SEQEND
  5
11A8
  8
G
  0
POLYLINE
  5
2FB
  8
G
 66
     1
 10
0.0
 20
0.0
 30
0.0
  0
VERTEX
  5
11A9
  8
G
 10
-294.4531180663976
 20
65.80533225666531
 30
0.0
  0
VERTEX
  5
11AA
  8
G
 10
-307.6291345364182
 20
52.86506608133261
 30
0.0
  0
SEQEND
  5
11AB
  8
G
  0
POLYLINE
  5
2FC
  8
G
 66
     1
 10
0.0
 20
0.0
 30
0.0
  0
VERTEX
  5
11AC
  8
G
 10
-266.1910827388534
 20
27.98203497754371
 30
0.0
  0
VERTEX
  5
11AD
  8
G
 10
-272.269090336363
 20
13.57276696595871
 30
0.0
  0
VERTEX
  5
11AE
  8
G
 10
-319.1246489058112
 20
32.63129078911348
 30
0.0
  0
VERTEX
  5
11AF
  8
G
 10
-326.1169076461346
 20
25.76478220597775
 30
0.0
  0
SEQEND
  5
11B0
  8
G
  0
POLYLINE
  5
2FD
  8
G
 66
     1
 10
0.0
 20
0.0
 30
0.0
  0
VERTEX
  5
11B1
  8
G
 10
-262.760078450098
 20
19.2677740847176
 30
0.0
  0
VERTEX
  5
11B2
  8
G
 10
-269.8673373341717
 20
36.1027951284939
 30
0.0
  0
SEQEND
  5
11B3
  8
G
  0
POLYLINE
  5
2FE
  8
G
 66
     1
 10
0.0
 20
0.0
 30
0.0
  0
VERTEX
  5
11B4
  8
G
 10
-224.9857812322266
 20
-36.61554576943222
 30
0.0
  0
VERTEX
  5
11B5
  8
G
 10
-242.1245526556909
 20
-29.65778707223384
 30
0.0
  0
SEQEND
  5
11B6
  8
G
  0
POLYLINE
  5
2FF
  8
G
 66
     1
 10
0.0
 20
0.0
 30
0.0
  0
VERTEX
  5
11B7
  8
G
 10
-233.4250417813022
 20
-33.21229151536441
 30
0.0
  0
VERTEX
  5
11B8
  8
G
 10
-239.5032993791243
 20
-18.80277350346688
 30
0.0
  0
VERTEX
  5
11B9
  8
G
 10
-192.6477408096761
 20
0.2560003200003962
 30
0.0
  0
VERTEX
  5
11BA
  8
G
 10
-192.6477408096761
 20
9.96651245814057
 30
0.0
  0
SEQEND
  5
11BB
  8
G
  0
POLYLINE
  5
300
  8
G
 66
     1
 10
0.0
 20
0.0
 30
0.0
  0
VERTEX
  5
11BC
  8
G
 10
-217.8917723647155
 20
-53.45706682133353
 30
0.0
  0
VERTEX
  5
11BD
  8
G
 10
-235.0585438231798
 20
-46.48955811194764
 30
0.0
  0
SEQEND
  5
11BE
  8
G
  0
POLYLINE
  5
301
  8
G
 66
     1
 10
0.0
 20
0.0
 30
0.0
  0
VERTEX
  5
11BF
  8
G
 10
-318.1781477226847
 20
77.48884686105855
 30
0.0
  0
VERTEX
  5
11C0
  8
G
 10
-331.0659138323923
 20
90.20536275670344
 30
0.0
  0
SEQEND
  5
11C1
  8
G
  0
POLYLINE
  5
302
  8
G
 66
     1
 10
0.0
 20
0.0
 30
0.0
  0
VERTEX
  5
11C2
  8
G
 10
-324.9839062298828
 20
84.20435525544404
 30
0.0
  0
VERTEX
  5
11C3
  8
G
 10
-259.0970738713423
 20
84.26910533638167
 30
0.0
  0
VERTEX
  5
11C4
  8
G
 10
-240.298050372563
 20
65.80883226104032
 30
0.0
  0
SEQEND
  5
11C5
  8
G
  0
POLYLINE
  5
303
  8
G
 66
     1
 10
0.0
 20
0.0
 30
0.0
  0
VERTEX
  5
11C6
  8
G
 10
-318.1781477226847
 20
59.35107418884273
 30
0.0
  0
VERTEX
  5
11C7
  8
G
 10
-301.0256262820329
 20
59.35107418884273
 30
0.0
  0
VERTEX
  5
11C8
  8
G
 10
-318.1781477226847
 20
59.35107418884273
 30
0.0
  0
VERTEX
  5
11C9
  8
G
 10
-318.1781477226847
 20
68.2978353722942
 30
0.0
  0
VERTEX
  5
11CA
  8
G
 10
-334.4426680533351
 20
84.26910533638167
 30
0.0
  0
VERTEX
  5
11CB
  8
G
 10
-352.0421900527376
 20
84.26910533638167
 30
0.0
  0
SEQEND
  5
11CC
  8
G
  0
POLYLINE
  5
304
  8
G
 66
     1
 10
0.0
 20
0.0
 30
0.0
  0
VERTEX
  5
11CD
  8
G
 10
-217.9062723828405
 20
-71.66883958604949
 30
0.0
  0
VERTEX
  5
11CE
  8
G
 10
-231.0770388462986
 20
-84.60985576231971
 30
0.0
  0
SEQEND
  5
11CF
  8
G
  0
POLYLINE
  5
305
  8
G
 66
     1
 10
0.0
 20
0.0
 30
0.0
  0
VERTEX
  5
11D0
  8
G
 10
-283.3821042276303
 20
10.8867636084545
 30
0.0
  0
VERTEX
  5
11D1
  8
G
 10
-300.5523756904697
 20
17.84527230659038
 30
0.0
  0
SEQEND
  5
11D2
  8
G
  0
POLYLINE
  5
306
  8
G
 66
     1
 10
0.0
 20
0.0
 30
0.0
  0
VERTEX
  5
11D3
  8
G
 10
-299.0613738267173
 20
31.10503888129859
 30
0.0
  0
VERTEX
  5
11D4
  8
G
 10
-305.2876316095395
 20
45.86605733257164
 30
0.0
  0
VERTEX
  5
11D5
  8
G
 10
-272.9935912419891
 20
77.57859697324619
 30
0.0
  0
SEQEND
  5
11D6
  8
G
  0
POLYLINE
  5
307
  8
G
 66
     1
 10
0.0
 20
0.0
 30
0.0
  0
VERTEX
  5
11D7
  8
G
 10
-292.0208650260813
 20
14.38776798470997
 30
0.0
  0
VERTEX
  5
11D8
  8
G
 10
-285.9428574285718
 20
-0.0217500271875384
 30
0.0
  0
VERTEX
  5
11D9
  8
G
 10
-332.7981659977075
 20
-19.08052385065482
 30
0.0
  0
VERTEX
  5
11DA
  8
G
 10
-332.7981659977075
 20
-28.79103598879499
 30
0.0
  0
SEQEND
  5
11DB
  8
G
  0
POLYLINE
  5
308
  8
G
 66
     1
 10
0.0
 20
0.0
 30
0.0
  0
VERTEX
  5
11DC
  8
G
 10
-307.6418845523558
 20
34.65454331817912
 30
0.0
  0
VERTEX
  5
11DD
  8
G
 10
-290.4926131157664
 20
27.68303460379326
 30
0.0
  0
SEQEND
  5
11DE
  8
G
  0
POLYLINE
  5
309
  8
G
 66
     1
 10
0.0
 20
0.0
 30
0.0
  0
VERTEX
  5
11DF
  8
G
 10
-207.2732590915739
 20
-96.27237034046293
 30
0.0
  0
VERTEX
  5
11E0
  8
G
 10
-193.569491961865
 20
-109.7946372432966
 30
0.0
  0
SEQEND
  5
11E1
  8
G
  0
POLYLINE
  5
30A
  8
G
 66
     1
 10
0.0
 20
0.0
 30
0.0
  0
VERTEX
  5
11E2
  8
G
 10
-262.760078450098
 20
-38.05229756537197
 30
0.0
  0
VERTEX
  5
11E3
  8
G
 10
-255.6835696044619
 20
-54.9090686363358
 30
0.0
  0
SEQEND
  5
11E4
  8
G
  0
POLYLINE
  5
30B
  8
G
 66
     1
 10
0.0
 20
0.0
 30
0.0
  0
VERTEX
  5
11E5
  8
G
 10
-259.223324029155
 20
-46.68855836069795
 30
0.0
  0
VERTEX
  5
11E6
  8
G
 10
-253.145066431333
 20
-32.27929034911294
 30
0.0
  0
VERTEX
  5
11E7
  8
G
 10
-206.2895078618849
 20
-51.33781417226773
 30
0.0
  0
VERTEX
  5
11E8
  8
G
 10
-199.2974991218739
 20
-44.471305589132
 30
0.0
  0
SEQEND
  5
11E9
  8
G
  0
POLYLINE
  5
30C
  8
G
 66
     1
 10
0.0
 20
0.0
 30
0.0
  0
VERTEX
  5
11EA
  8
G
 10
-291.9458649323311
 20
-9.392011740014683
 30
0.0
  0
VERTEX
  5
11EB
  8
G
 10
-309.0731363414205
 20
-16.36677045846309
 30
0.0
  0
SEQEND
  5
11EC
  8
G
  0
POLYLINE
  5
30D
  8
G
 66
     1
 10
0.0
 20
0.0
 30
0.0
  0
VERTEX
  5
11ED
  8
G
 10
-326.1876577345722
 20
34.6407933009916
 30
0.0
  0
VERTEX
  5
11EE
  8
G
 10
-326.2164077705098
 20
16.45852057315072
 30
0.0
  0
SEQEND
  5
11EF
  8
G
  0
POLYLINE
  5
30E
  8
G
 66
     1
 10
0.0
 20
0.0
 30
0.0
  0
VERTEX
  5
11F0
  8
G
 10
-283.3951042438803
 20
-29.65828707285884
 30
0.0
  0
VERTEX
  5
11F1
  8
G
 10
-290.4486130607663
 20
-46.4558080697601
 30
0.0
  0
SEQEND
  5
11F2
  8
G
  0
POLYLINE
  5
30F
  8
G
 66
     1
 10
0.0
 20
0.0
 30
0.0
  0
VERTEX
  5
11F3
  8
G
 10
-300.6853758567199
 20
-12.91426614283269
 30
0.0
  0
VERTEX
  5
11F4
  8
G
 10
-286.0116075145095
 20
-18.88302360377951
 30
0.0
  0
VERTEX
  5
11F5
  8
G
 10
-305.4196317745398
 20
-64.89458111822641
 30
0.0
  0
VERTEX
  5
11F6
  8
G
 10
-298.4273730342163
 20
-71.76083970104963
 30
0.0
  0
SEQEND
  5
11F7
  8
G
  0
POLYLINE
  5
310
  8
G
 66
     1
 10
0.0
 20
0.0
 30
0.0
  0
VERTEX
  5
11F8
  8
G
 10
-309.0736363420455
 20
-2.429753037191302
 30
0.0
  0
VERTEX
  5
11F9
  8
G
 10
-326.2121577651973
 20
-9.4027617534522
 30
0.0
  0
SEQEND
  5
11FA
  8
G
  0
POLYLINE
  5
311
  8
G
 66
     1
 10
0.0
 20
0.0
 30
0.0
  0
VERTEX
  5
11FB
  8
G
 10
-269.8233372791716
 20
-54.87531859414825
 30
0.0
  0
VERTEX
  5
11FC
  8
G
 10
-262.7628284535356
 20
-71.71908964886207
 30
0.0
  0
SEQEND
  5
11FD
  8
G
  0
POLYLINE
  5
312
  8
G
 66
     1
 10
0.0
 20
0.0
 30
0.0
  0
VERTEX
  5
11FE
  8
G
 10
-266.265332831666
 20
-63.41832927291159
 30
0.0
  0
VERTEX
  5
11FF
  8
G
 10
-272.4913406141758
 20
-78.17959772449717
 30
0.0
  0
VERTEX
  5
1200
  8
G
 10
-318.1626477033096
 20
-78.17959772449717
 30
0.0
  0
VERTEX
  5
1201
  8
G
 10
-318.1781477226847
 20
-87.05360881701102
 30
0.0
  0
VERTEX
  5
1202
  8
G
 10
-327.6996596245746
 20
-96.40362050452565
 30
0.0
  0
SEQEND
  5
1203
  8
G
  0
POLYLINE
  5
313
  8
G
 66
     1
 10
0.0
 20
0.0
 30
0.0
  0
VERTEX
  5
1204
  8
G
 10
-249.6410620513276
 20
-84.58685573356968
 30
0.0
  0
VERTEX
  5
1205
  8
G
 10
-236.5380456725571
 20
-71.7488396860496
 30
0.0
  0
SEQEND
  5
1206
  8
G
  0
POLYLINE
  5
314
  8
G
 66
     1
 10
0.0
 20
0.0
 30
0.0
  0
VERTEX
  5
1207
  8
G
 10
-286.9273586591983
 20
-38.15254769068461
 30
0.0
  0
VERTEX
  5
1208
  8
G
 10
-272.2535903169879
 20
-32.1842902303628
 30
0.0
  0
VERTEX
  5
1209
  8
G
 10
-252.8453160566451
 20
-78.19559774449719
 30
0.0
  0
VERTEX
  5
120A
  8
G
 10
-242.9565536956922
 20
-78.19559774449719
 30
0.0
  0
SEQEND
  5
120B
  8
G
  0
POLYLINE
  5
315
  8
G
 66
     1
 10
0.0
 20
0.0
 30
0.0
  0
VERTEX
  5
120C
  8
G
 10
-243.0845538556924
 20
-96.40112050140064
 30
0.0
  0
VERTEX
  5
120D
  8
G
 10
-261.6173270216589
 20
-96.40112050140064
 30
0.0
  0
SEQEND
  5
120E
  8
G
  0
POLYLINE
  5
316
  8
G
 66
     1
 10
0.0
 20
0.0
 30
0.0
  0
VERTEX
  5
120F
  8
G
 10
-317.7668972086215
 20
-5.966257457821828
 30
0.0
  0
VERTEX
  5
1210
  8
G
 10
-332.7981659977075
 20
0.1477501846877214
 30
0.0
  0
VERTEX
  5
1211
  8
G
 10
-332.7981659977075
 20
44.9965562456953
 30
0.0
  0
VERTEX
  5
1212
  8
G
 10
-341.7461771827215
 20
44.9965562456953
 30
0.0
  0
VERTEX
  5
1213
  8
G
 10
-351.7534396917996
 20
54.60031825039781
 30
0.0
  0
SEQEND
  5
1214
  8
G
  0
POLYLINE
  5
317
  8
G
 66
     1
 10
0.0
 20
0.0
 30
0.0
  0
VERTEX
  5
1215
  8
G
 10
-252.1735652169565
 20
-96.55487069358837
 30
0.0
  0
VERTEX
  5
1216
  8
G
 10
-219.9867749834688
 20
-64.94758118447649
 30
0.0
  0
VERTEX
  5
1217
  8
G
 10
-226.213032766291
 20
-50.18656273320342
 30
0.0
  0
SEQEND
  5
1218
  8
G
  0
POLYLINE
  5
318
  8
G
 66
     1
 10
0.0
 20
0.0
 30
0.0
  0
VERTEX
  5
1219
  8
G
 10
-300.5518756898447
 20
-36.64154580193225
 30
0.0
  0
VERTEX
  5
121A
  8
G
 10
-307.5788844736056
 20
-53.39531674414594
 30
0.0
  0
SEQEND
  5
121B
  8
G
  0
POLYLINE
  5
319
  8
G
 66
     1
 10
0.0
 20
0.0
 30
0.0
  0
VERTEX
  5
121C
  8
G
 10
-339.3261741577178
 20
12.54126567658209
 30
0.0
  0
VERTEX
  5
121D
  8
G
 10
-351.5459394324243
 20
0.7352509190636383
 30
0.0
  0
SEQEND
  5
121E
  8
G
  0
POLYLINE
  5
31A
  8
G
 66
     1
 10
0.0
 20
0.0
 30
0.0
  0
VERTEX
  5
121F
  8
G
 10
-339.3164241455302
 20
3.48475435594294
 30
0.0
  0
VERTEX
  5
1220
  8
G
 10
-339.3356741695927
 20
21.7582771978465
 30
0.0
  0
SEQEND
  5
1221
  8
G
  0
POLYLINE
  5
31B
  8
G
 66
     1
 10
0.0
 20
0.0
 30
0.0
  0
VERTEX
  5
1222
  8
G
 10
-304.2196302745378
 20
-45.13630642038304
 30
0.0
  0
VERTEX
  5
1223
  8
G
 10
-319.2516490645613
 20
-51.25056406320509
 30
0.0
  0
VERTEX
  5
1224
  8
G
 10
-351.7431896789872
 20
-19.53802442253053
 30
0.0
  0
SEQEND
  5
1225
  8
G
  0
POLYLINE
  5
31C
  8
G
 66
     1
 10
0.0
 20
0.0
 30
0.0
  0
VERTEX
  5
1226
  8
G
 10
-285.2463565579457
 20
-84.5983557479447
 30
0.0
  0
VERTEX
  5
1227
  8
G
 10
-266.4408330510413
 20
-103.0646288307861
 30
0.0
  0
VERTEX
  5
1228
  8
G
 10
-200.8320010400014
 20
-102.9113786392233
 30
0.0
  0
SEQEND
  5
1229
  8
G
  0
POLYLINE
  5
31D
  8
G
 66
     1
 10
0.0
 20
0.0
 30
0.0
  0
VERTEX
  5
122A
  8
G
 10
-326.2161577701972
 20
-35.2547940684926
 30
0.0
  0
VERTEX
  5
122B
  8
G
 10
-339.3164241455302
 20
-22.28827786034732
 30
0.0
  0
SEQEND
  5
122C
  8
G
  0
POLYLINE
  5
31E
  8
G
 66
     1
 10
0.0
 20
0.0
 30
0.0
  0
VERTEX
  5
122D
  8
G
 10
-275.6943446179307
 20
-103.030628788286
 30
0.0
  0
VERTEX
  5
122E
  8
G
 10
-351.5259394074243
 20
-102.9738787173484
 30
0.0
  0
SEQEND
  5
122F
  8
G
  0
POLYLINE
  5
31F
  8
G
 66
     1
 10
0.0
 20
0.0
 30
0.0
  0
VERTEX
  5
1230
  8
G
 10
-282.4228530285664
 20
-96.40237050296315
 30
0.0
  0
VERTEX
  5
1231
  8
G
 10
-268.849836062295
 20
-109.7726372157965
 30
0.0
  0
SEQEND
  5
1232
  8
G
  0
POLYLINE
  5
320
  8
G
 66
     1
 10
0.0
 20
0.0
 30
0.0
  0
VERTEX
  5
1233
  8
G
 10
-294.4531180663976
 20
-84.60985576231971
 30
0.0
  0
VERTEX
  5
1234
  8
G
 10
-275.8865948582436
 20
-84.58685573356968
 30
0.0
  0
SEQEND
  5
1235
  8
G
  0
POLYLINE
  5
321
  8
G
 66
     1
 10
0.0
 20
0.0
 30
0.0
  0
VERTEX
  5
1236
  8
G
 10
-307.5646344557931
 20
-71.60708950886189
 30
0.0
  0
VERTEX
  5
1237
  8
G
 10
-288.9693612117014
 20
-71.71533964417456
 30
0.0
  0
SEQEND
  5
1238
  8
G
  0
POLYLINE
  5
322
  8
G
 66
     1
 10
0.0
 20
0.0
 30
0.0
  0
VERTEX
  5
1239
  8
G
 10
-332.7981659977075
 20
-46.87405859257325
 30
0.0
  0
VERTEX
  5
123A
  8
G
 10
-332.7981659977075
 20
-63.75257969072462
 30
0.0
  0
VERTEX
  5
123B
  8
G
 10
-341.7461771827215
 20
-63.75257969072462
 30
0.0
  0
VERTEX
  5
123C
  8
G
 10
-351.5724394655493
 20
-73.35609169511463
 30
0.0
  0
SEQEND
  5
123D
  8
G
  0
POLYLINE
  5
323
  8
G
 66
     1
 10
0.0
 20
0.0
 30
0.0
  0
VERTEX
  5
123E
  8
G
 10
-339.3404241755303
 20
-40.49480061850078
 30
0.0
  0
VERTEX
  5
123F
  8
G
 10
-326.1231576539471
 20
-53.38281672852092
 30
0.0
  0
SEQEND
  5
1240
  8
G
  0
POLYLINE
  5
324
  8
G
 66
     1
 10
0.0
 20
0.0
 30
0.0
  0
VERTEX
  5
1241
  8
G
 10
-336.968171210214
 20
-96.40512050640064
 30
0.0
  0
VERTEX
  5
1242
  8
G
 10
-318.1781477226847
 20
-96.27237034046293
 30
0.0
  0
SEQEND
  5
1243
  8
G
  0
ENDSEC
  0
EOF
