  0
SECTION
  2
HEADER
  9
$ACADVER
  1
AC1012
  9
$DWGCODEPAGE
  3
ascii
  9
$INSBASE
 10
0.0
 20
0.0
 30
0.0
  9
$EXTMIN
 10
1.000000000000000E+20
 20
1.000000000000000E+20
 30
1.000000000000000E+20
  9
$EXTMAX
 10
-1.000000000000000E+20
 20
-1.000000000000000E+20
 30
-1.000000000000000E+20
  9
$LIMMIN
 10
0.0
 20
0.0
  9
$LIMMAX
 10
12.0
 20
9.0
  9
$ORTHOMODE
 70
     0
  9
$REGENMODE
 70
     1
  9
$FILLMODE
 70
     1
  9
$QTEXTMODE
 70
     0
  9
$MIRRTEXT
 70
     1
  9
$DRAGMODE
 70
     2
  9
$LTSCALE
 40
1.0
  9
$OSMODE
 70
    37
  9
$ATTMODE
 70
     1
  9
$TEXTSIZE
 40
0.2
  9
$TRACEWID
 40
0.05
  9
$TEXTSTYLE
  7
STANDARD
  9
$CLAYER
  8
0
  9
$CELTYPE
  6
BYLAYER
  9
$CECOLOR
 62
   256
  9
$CELTSCALE
 40
1.0
  9
$DELOBJ
 70
     1
  9
$DISPSILH
 70
     0
  9
$DIMSCALE
 40
1.0
  9
$DIMASZ
 40
0.18
  9
$DIMEXO
 40
0.0625
  9
$DIMDLI
 40
0.38
  9
$DIMRND
 40
0.0
  9
$DIMDLE
 40
0.0
  9
$DIMEXE
 40
0.18
  9
$DIMTP
 40
0.0
  9
$DIMTM
 40
0.0
  9
$DIMTXT
 40
0.18
  9
$DIMCEN
 40
0.09
  9
$DIMTSZ
 40
0.0
  9
$DIMTOL
 70
     0
  9
$DIMLIM
 70
     0
  9
$DIMTIH
 70
     1
  9
$DIMTOH
 70
     1
  9
$DIMSE1
 70
     0
  9
$DIMSE2
 70
     0
  9
$DIMTAD
 70
     0
  9
$DIMZIN
 70
     0
  9
$DIMBLK
  1

  9
$DIMASO
 70
     1
  9
$DIMSHO
 70
     1
  9
$DIMPOST
  1

  9
$DIMAPOST
  1

  9
$DIMALT
 70
     0
  9
$DIMALTD
 70
     2
  9
$DIMALTF
 40
25.4
  9
$DIMLFAC
 40
1.0
  9
$DIMTOFL
 70
     0
  9
$DIMTVP
 40
0.0
  9
$DIMTIX
 70
     0
  9
$DIMSOXD
 70
     0
  9
$DIMSAH
 70
     0
  9
$DIMBLK1
  1

  9
$DIMBLK2
  1

  9
$DIMSTYLE
  2
STANDARD
  9
$DIMCLRD
 70
     0
  9
$DIMCLRE
 70
     0
  9
$DIMCLRT
 70
     0
  9
$DIMTFAC
 40
1.0
  9
$DIMGAP
 40
0.09
  9
$DIMJUST
 70
     0
  9
$DIMSD1
 70
     0
  9
$DIMSD2
 70
     0
  9
$DIMTOLJ
 70
     1
  9
$DIMTZIN
 70
     0
  9
$DIMALTZ
 70
     0
  9
$DIMALTTZ
 70
     0
  9
$DIMFIT
 70
     3
  9
$DIMUPT
 70
     0
  9
$DIMUNIT
 70
     2
  9
$DIMDEC
 70
     4
  9
$DIMTDEC
 70
     4
  9
$DIMALTU
 70
     2
  9
$DIMALTTD
 70
     2
  9
$DIMTXSTY
  7
STANDARD
  9
$DIMAUNIT
 70
     0
  9
$LUNITS
 70
     2
  9
$LUPREC
 70
     4
  9
$SKETCHINC
 40
0.1
  9
$FILLETRAD
 40
0.5
  9
$AUNITS
 70
     0
  9
$AUPREC
 70
     0
  9
$MENU
  1
.
  9
$ELEVATION
 40
0.0
  9
$PELEVATION
 40
0.0
  9
$THICKNESS
 40
0.0
  9
$LIMCHECK
 70
     0
  9
$CHAMFERA
 40
0.5
  9
$CHAMFERB
 40
0.5
  9
$CHAMFERC
 40
1.0
  9
$CHAMFERD
 40
0.0
  9
$SKPOLY
 70
     0
  9
$TDCREATE
 40
2457741.603039606
  9
$TDUPDATE
 40
2457741.603039618
  9
$TDINDWG
 40
0.0000000116
  9
$TDUSRTIMER
 40
0.0000000116
  9
$USRTIMER
 70
     1
  9
$ANGBASE
 50
0.0
  9
$ANGDIR
 70
     0
  9
$PDMODE
 70
     0
  9
$PDSIZE
 40
0.0
  9
$PLINEWID
 40
0.0
  9
$COORDS
 70
     1
  9
$SPLFRAME
 70
     0
  9
$SPLINETYPE
 70
     6
  9
$SPLINESEGS
 70
     8
  9
$ATTDIA
 70
     0
  9
$ATTREQ
 70
     1
  9
$HANDLING
 70
     1
  9
$HANDSEED
  5
1BC
  9
$SURFTAB1
 70
     6
  9
$SURFTAB2
 70
     6
  9
$SURFTYPE
 70
     6
  9
$SURFU
 70
     6
  9
$SURFV
 70
     6
  9
$UCSNAME
  2

  9
$UCSORG
 10
0.0
 20
0.0
 30
0.0
  9
$UCSXDIR
 10
1.0
 20
0.0
 30
0.0
  9
$UCSYDIR
 10
0.0
 20
1.0
 30
0.0
  9
$PUCSNAME
  2

  9
$PUCSORG
 10
0.0
 20
0.0
 30
0.0
  9
$PUCSXDIR
 10
1.0
 20
0.0
 30
0.0
  9
$PUCSYDIR
 10
0.0
 20
1.0
 30
0.0
  9
$USERI1
 70
     0
  9
$USERI2
 70
     0
  9
$USERI3
 70
     0
  9
$USERI4
 70
     0
  9
$USERI5
 70
     0
  9
$USERR1
 40
0.0
  9
$USERR2
 40
0.0
  9
$USERR3
 40
0.0
  9
$USERR4
 40
0.0
  9
$USERR5
 40
0.0
  9
$WORLDVIEW
 70
     1
  9
$SHADEDGE
 70
     3
  9
$SHADEDIF
 70
    70
  9
$TILEMODE
 70
     1
  9
$MAXACTVP
 70
    64
  9
$PINSBASE
 10
0.0
 20
0.0
 30
0.0
  9
$PLIMCHECK
 70
     0
  9
$PEXTMIN
 10
1.000000000000000E+20
 20
1.000000000000000E+20
 30
1.000000000000000E+20
  9
$PEXTMAX
 10
-1.000000000000000E+20
 20
-1.000000000000000E+20
 30
-1.000000000000000E+20
  9
$PLIMMIN
 10
0.0
 20
0.0
  9
$PLIMMAX
 10
12.0
 20
9.0
  9
$UNITMODE
 70
     0
  9
$VISRETAIN
 70
     1
  9
$PLINEGEN
 70
     0
  9
$PSLTSCALE
 70
     1
  9
$TREEDEPTH
 70
  3020
  9
$PICKSTYLE
 70
     1
  9
$CMLSTYLE
  2
STANDARD
  9
$CMLJUST
 70
     0
  9
$CMLSCALE
 40
1.0
  9
$SAVEIMAGES
 70
     1
  0
ENDSEC
  0
SECTION
  2
CLASSES
  0
CLASS
  1
ACDBDICTIONARYWDFLT
  2
AcDbDictionaryWithDefault
  3
ObjectDBX Classes
 90
    32768
280
     0
281
     0
  0
CLASS
  1
VISUALSTYLE
  2
AcDbVisualStyle
  3
ObjectDBX Classes
 90
     4095
280
     0
281
     0
  0
CLASS
  1
XRECORD
  2
AcDbXrecord
  3
AutoCAD 2000
 90
    32768
280
     0
281
     0
  0
CLASS
  1
LWPOLYLINE
  2
AcDbPolyline
  3
AutoCAD 2000
 90
    32768
280
     0
281
     1
  0
CLASS
  1
HATCH
  2
AcDbHatch
  3
AutoCAD 2000
 90
    32768
280
     0
281
     1
  0
CLASS
  1
ACDBPLACEHOLDER
  2
AcDbPlaceHolder
  3
ObjectDBX Classes
 90
        0
280
     0
281
     0
  0
CLASS
  1
LAYOUT
  2
AcDbLayout
  3
ObjectDBX Classes
 90
        0
280
     0
281
     0
  0
ENDSEC
  0
SECTION
  2
TABLES
  0
TABLE
  2
VPORT
  5
8
330
0
100
AcDbSymbolTable
 70
     1
  0
VPORT
  5
29
330
8
100
AcDbSymbolTableRecord
100
AcDbViewportTableRecord
  2
*ACTIVE
 70
     0
 10
0.0
 20
0.0
 11
1.0
 21
1.0
 12
0.0
 22
0.0
 13
0.0
 23
0.0
 14
0.5
 24
0.5
 15
0.5
 25
0.5
 16
0.0
 26
0.0
 36
1.0
 17
588.6141357421875
 27
-642.8133544921875
 37
0.0
 40
1280.606264648437
 41
0.9140163573723588
 42
50.0
 43
0.0
 44
0.0
 50
0.0
 51
0.0
 71
     0
 72
   100
 73
     1
 74
     3
 75
     0
 76
     0
 77
     0
 78
     0
  0
ENDTAB
  0
TABLE
  2
LTYPE
  5
5
330
0
100
AcDbSymbolTable
 70
     1
  0
LTYPE
  5
14
330
5
100
AcDbSymbolTableRecord
100
AcDbLinetypeTableRecord
  2
BYBLOCK
 70
     0
  3

 72
    65
 73
     0
 40
0.0
  0
LTYPE
  5
15
330
5
100
AcDbSymbolTableRecord
100
AcDbLinetypeTableRecord
  2
BYLAYER
 70
     0
  3

 72
    65
 73
     0
 40
0.0
  0
LTYPE
  5
16
330
5
100
AcDbSymbolTableRecord
100
AcDbLinetypeTableRecord
  2
CONTINUOUS
 70
     0
  3
Solid line
 72
    65
 73
     0
 40
0.0
  0
ENDTAB
  0
TABLE
  2
LAYER
  5
2
330
0
100
AcDbSymbolTable
 70
     2
  0
LAYER
  5
10
330
2
100
AcDbSymbolTableRecord
100
AcDbLayerTableRecord
  2
0
 70
     0
 62
     7
  6
CONTINUOUS
  0
LAYER
  5
3B
330
2
100
AcDbSymbolTableRecord
100
AcDbLayerTableRecord
  2
LAYER_1
 70
     0
 62
     7
  6
CONTINUOUS
  0
ENDTAB
  0
TABLE
  2
STYLE
  5
3
330
0
100
AcDbSymbolTable
 70
     1
  0
STYLE
  5
11
330
3
100
AcDbSymbolTableRecord
100
AcDbTextStyleTableRecord
  2
STANDARD
 70
     0
 40
0.0
 41
1.0
 50
0.0
 71
     0
 42
0.2
  3
txt
  4

  0
ENDTAB
  0
TABLE
  2
VIEW
  5
6
330
0
100
AcDbSymbolTable
 70
     0
  0
ENDTAB
  0
TABLE
  2
UCS
  5
7
330
0
100
AcDbSymbolTable
 70
     0
  0
ENDTAB
  0
TABLE
  2
APPID
  5
9
330
0
100
AcDbSymbolTable
 70
     1
  0
APPID
  5
12
330
9
100
AcDbSymbolTableRecord
100
AcDbRegAppTableRecord
  2
ACAD
 70
     0
  0
ENDTAB
  0
TABLE
  2
DIMSTYLE
  5
A
330
0
100
AcDbSymbolTable
 70
     1
  0
DIMSTYLE
105
27
330
A
100
AcDbSymbolTableRecord
100
AcDbDimStyleTableRecord
  2
STANDARD
 70
     0
  3

  4

  5

  6

  7

 40
1.0
 41
0.18
 42
0.0625
 43
0.38
 44
0.18
 45
0.0
 46
0.0
 47
0.0
 48
0.0
140
0.18
141
0.09
142
0.0
143
25.4
144
1.0
145
0.0
146
1.0
147
0.09
 71
     0
 72
     0
 73
     1
 74
     1
 75
     0
 76
     0
 77
     0
 78
     0
170
     0
171
     2
172
     0
173
     0
174
     0
175
     0
176
     0
177
     0
178
     0
270
     2
271
     4
272
     4
273
     2
274
     2
340
11
275
     0
280
     0
281
     0
282
     0
283
     1
284
     0
285
     0
286
     0
287
     3
288
     0
  0
ENDTAB
  0
TABLE
  2
BLOCK_RECORD
  5
1
330
0
100
AcDbSymbolTable
 70
     1
  0
BLOCK_RECORD
  5
1F
330
1
100
AcDbSymbolTableRecord
100
AcDbBlockTableRecord
  2
*MODEL_SPACE
  0
BLOCK_RECORD
  5
1B
330
1
100
AcDbSymbolTableRecord
100
AcDbBlockTableRecord
  2
*PAPER_SPACE
  0
ENDTAB
  0
ENDSEC
  0
SECTION
  2
BLOCKS
  0
BLOCK
  5
20
330
1F
100
AcDbEntity
  8
0
100
AcDbBlockBegin
  2
*MODEL_SPACE
 70
     0
 71
     0
 10
0.0
 20
0.0
 30
0.0
  3
*MODEL_SPACE
  1

  0
ENDBLK
  5
21
330
1F
100
AcDbEntity
  8
0
100
AcDbBlockEnd
  0
BLOCK
  5
1C
330
1B
100
AcDbEntity
 67
     1
  8
0
100
AcDbBlockBegin
  2
*PAPER_SPACE
 70
     0
 71
     0
 10
0.0
 20
0.0
 30
0.0
  3
*PAPER_SPACE
  1

  0
ENDBLK
  5
1D
330
1B
100
AcDbEntity
 67
     1
  8
0
100
AcDbBlockEnd
  0
ENDSEC
  0
SECTION
  2
ENTITIES
  0
SPLINE
  5
3C
330
1F
100
AcDbEntity
  8
LAYER_1
 62
   250
100
AcDbSpline
210
0.0
220
0.0
230
1.0
 70
    11
 71
     3
 72
    14
 73
    10
 74
     0
 42
0.0000000001
 43
0.0000000001
 40
0.0
 40
0.0
 40
0.0
 40
0.0
 40
1.0
 40
1.0
 40
1.0
 40
2.0
 40
2.0
 40
2.0
 40
3.0
 40
3.0
 40
3.0
 40
3.0
 10
141.697509765625
 20
-817.2890625
 30
0.0
 10
141.697509765625
 20
-817.2890625
 30
0.0
 10
141.697509765625
 20
-525.22314453125
 30
0.0
 10
141.697509765625
 20
-525.22314453125
 30
0.0
 10
129.57177734375
 20
-571.61328125
 30
0.0
 10
123.07958984375
 20
-620.60546875
 30
0.0
 10
123.07958984375
 20
-671.25634765625
 30
0.0
 10
123.07958984375
 20
-721.9072265625
 30
0.0
 10
129.57177734375
 20
-770.89892578125
 30
0.0
 10
141.697509765625
 20
-817.2890625
 30
0.0
  0
SPLINE
  5
3D
330
1F
100
AcDbEntity
  8
LAYER_1
 62
   250
100
AcDbSpline
210
0.0
220
0.0
230
1.0
 70
    11
 71
     3
 72
    17
 73
    13
 74
     0
 42
0.0000000001
 43
0.0000000001
 40
0.0
 40
0.0
 40
0.0
 40
0.0
 40
1.0
 40
1.0
 40
1.0
 40
2.0
 40
2.0
 40
2.0
 40
3.0
 40
3.0
 40
3.0
 40
4.0
 40
4.0
 40
4.0
 40
4.0
 10
290.09619140625
 20
-1071.70947265625
 30
0.0
 10
290.09619140625
 20
-1071.70947265625
 30
0.0
 10
500.40576171875
 20
-1071.708984375
 30
0.0
 10
500.40576171875
 20
-1071.708984375
 30
0.0
 10
500.40576171875
 20
-1071.708984375
 30
0.0
 10
678.7529296875
 20
-1195.66259765625
 30
0.0
 10
678.7529296875
 20
-1195.66259765625
 30
0.0
 10
655.509765625
 20
-1199.4150390625
 30
0.0
 10
631.72900390625
 20
-1201.35546875
 30
0.0
 10
607.53369140625
 20
-1201.35546875
 30
0.0
 10
486.107421875
 20
-1201.35546875
 30
0.0
 10
375.115234375
 20
-1152.47314453125
 30
0.0
 10
290.09619140625
 20
-1071.70947265625
 30
0.0
  0
POLYLINE
  5
3E
330
1F
100
AcDbEntity
  8
LAYER_1
 62
   250
100
AcDb2dPolyline
 66
     1
 10
0.0
 20
0.0
 30
0.0
  0
VERTEX
  5
3F
330
3E
100
AcDbEntity
  8
LAYER_1
 62
   250
100
AcDbVertex
100
AcDb2dVertex
 10
168.746337890625
 20
-929.0947265625
 30
0.0
  0
VERTEX
  5
40
330
3E
100
AcDbEntity
  8
LAYER_1
 62
   250
100
AcDbVertex
100
AcDb2dVertex
 10
155.0869140625
 20
-913.13916015625
 30
0.0
  0
VERTEX
  5
41
330
3E
100
AcDbEntity
  8
LAYER_1
 62
   250
100
AcDbVertex
100
AcDb2dVertex
 10
182.405517578125
 20
-913.13818359375
 30
0.0
  0
VERTEX
  5
42
330
3E
100
AcDbEntity
  8
LAYER_1
 62
   250
100
AcDbVertex
100
AcDb2dVertex
 10
168.746337890625
 20
-929.0947265625
 30
0.0
  0
SEQEND
  5
43
330
3E
100
AcDbEntity
  8
LAYER_1
  0
POLYLINE
  5
44
330
1F
100
AcDbEntity
  8
LAYER_1
 62
   250
100
AcDb2dPolyline
 66
     1
 10
0.0
 20
0.0
 30
0.0
  0
VERTEX
  5
45
330
44
100
AcDbEntity
  8
LAYER_1
 62
   250
100
AcDbVertex
100
AcDb2dVertex
 10
171.564208984375
 20
-932.80712890625
 30
0.0
  0
VERTEX
  5
46
330
44
100
AcDbEntity
  8
LAYER_1
 62
   250
100
AcDbVertex
100
AcDb2dVertex
 10
184.45947265625
 20
-917.74365234375
 30
0.0
  0
VERTEX
  5
47
330
44
100
AcDbEntity
  8
LAYER_1
 62
   250
100
AcDbVertex
100
AcDb2dVertex
 10
184.45947265625
 20
-947.87060546875
 30
0.0
  0
VERTEX
  5
48
330
44
100
AcDbEntity
  8
LAYER_1
 62
   250
100
AcDbVertex
100
AcDb2dVertex
 10
171.564208984375
 20
-932.80712890625
 30
0.0
  0
SEQEND
  5
49
330
44
100
AcDbEntity
  8
LAYER_1
  0
POLYLINE
  5
4A
330
1F
100
AcDbEntity
  8
LAYER_1
 62
   250
100
AcDb2dPolyline
 66
     1
 10
0.0
 20
0.0
 30
0.0
  0
VERTEX
  5
4B
330
4A
100
AcDbEntity
  8
LAYER_1
 62
   250
100
AcDbVertex
100
AcDb2dVertex
 10
168.74658203125
 20
-936.51953125
 30
0.0
  0
VERTEX
  5
4C
330
4A
100
AcDbEntity
  8
LAYER_1
 62
   250
100
AcDbVertex
100
AcDb2dVertex
 10
182.405517578125
 20
-952.47607421875
 30
0.0
  0
VERTEX
  5
4D
330
4A
100
AcDbEntity
  8
LAYER_1
 62
   250
100
AcDbVertex
100
AcDb2dVertex
 10
155.0869140625
 20
-952.47607421875
 30
0.0
  0
VERTEX
  5
4E
330
4A
100
AcDbEntity
  8
LAYER_1
 62
   250
100
AcDbVertex
100
AcDb2dVertex
 10
168.74658203125
 20
-936.51953125
 30
0.0
  0
SEQEND
  5
4F
330
4A
100
AcDbEntity
  8
LAYER_1
  0
POLYLINE
  5
50
330
1F
100
AcDbEntity
  8
LAYER_1
 62
   250
100
AcDb2dPolyline
 66
     1
 10
0.0
 20
0.0
 30
0.0
  0
VERTEX
  5
51
330
50
100
AcDbEntity
  8
LAYER_1
 62
   250
100
AcDbVertex
100
AcDb2dVertex
 10
165.928955078125
 20
-932.80712890625
 30
0.0
  0
VERTEX
  5
52
330
50
100
AcDbEntity
  8
LAYER_1
 62
   250
100
AcDbVertex
100
AcDb2dVertex
 10
153.0341796875
 20
-917.74365234375
 30
0.0
  0
VERTEX
  5
53
330
50
100
AcDbEntity
  8
LAYER_1
 62
   250
100
AcDbVertex
100
AcDb2dVertex
 10
153.0341796875
 20
-947.87060546875
 30
0.0
  0
VERTEX
  5
54
330
50
100
AcDbEntity
  8
LAYER_1
 62
   250
100
AcDbVertex
100
AcDb2dVertex
 10
165.928955078125
 20
-932.80712890625
 30
0.0
  0
SEQEND
  5
55
330
50
100
AcDbEntity
  8
LAYER_1
  0
POLYLINE
  5
56
330
1F
100
AcDbEntity
  8
LAYER_1
 62
   250
100
AcDb2dPolyline
 66
     1
 10
0.0
 20
0.0
 30
0.0
  0
VERTEX
  5
57
330
56
100
AcDbEntity
  8
LAYER_1
 62
   250
100
AcDbVertex
100
AcDb2dVertex
 10
168.746337890625
 20
-871.3564453125
 30
0.0
  0
VERTEX
  5
58
330
56
100
AcDbEntity
  8
LAYER_1
 62
   250
100
AcDbVertex
100
AcDb2dVertex
 10
155.0869140625
 20
-855.40087890625
 30
0.0
  0
VERTEX
  5
59
330
56
100
AcDbEntity
  8
LAYER_1
 62
   250
100
AcDbVertex
100
AcDb2dVertex
 10
182.405517578125
 20
-855.39990234375
 30
0.0
  0
VERTEX
  5
5A
330
56
100
AcDbEntity
  8
LAYER_1
 62
   250
100
AcDbVertex
100
AcDb2dVertex
 10
168.746337890625
 20
-871.3564453125
 30
0.0
  0
SEQEND
  5
5B
330
56
100
AcDbEntity
  8
LAYER_1
  0
POLYLINE
  5
5C
330
1F
100
AcDbEntity
  8
LAYER_1
 62
   250
100
AcDb2dPolyline
 66
     1
 10
0.0
 20
0.0
 30
0.0
  0
VERTEX
  5
5D
330
5C
100
AcDbEntity
  8
LAYER_1
 62
   250
100
AcDbVertex
100
AcDb2dVertex
 10
171.564208984375
 20
-875.06884765625
 30
0.0
  0
VERTEX
  5
5E
330
5C
100
AcDbEntity
  8
LAYER_1
 62
   250
100
AcDbVertex
100
AcDb2dVertex
 10
184.45947265625
 20
-860.00537109375
 30
0.0
  0
VERTEX
  5
5F
330
5C
100
AcDbEntity
  8
LAYER_1
 62
   250
100
AcDbVertex
100
AcDb2dVertex
 10
184.45947265625
 20
-890.13232421875
 30
0.0
  0
VERTEX
  5
60
330
5C
100
AcDbEntity
  8
LAYER_1
 62
   250
100
AcDbVertex
100
AcDb2dVertex
 10
171.564208984375
 20
-875.06884765625
 30
0.0
  0
SEQEND
  5
61
330
5C
100
AcDbEntity
  8
LAYER_1
  0
POLYLINE
  5
62
330
1F
100
AcDbEntity
  8
LAYER_1
 62
   250
100
AcDb2dPolyline
 66
     1
 10
0.0
 20
0.0
 30
0.0
  0
VERTEX
  5
63
330
62
100
AcDbEntity
  8
LAYER_1
 62
   250
100
AcDbVertex
100
AcDb2dVertex
 10
168.74658203125
 20
-878.78125
 30
0.0
  0
VERTEX
  5
64
330
62
100
AcDbEntity
  8
LAYER_1
 62
   250
100
AcDbVertex
100
AcDb2dVertex
 10
182.405517578125
 20
-894.73779296875
 30
0.0
  0
VERTEX
  5
65
330
62
100
AcDbEntity
  8
LAYER_1
 62
   250
100
AcDbVertex
100
AcDb2dVertex
 10
155.0869140625
 20
-894.73779296875
 30
0.0
  0
VERTEX
  5
66
330
62
100
AcDbEntity
  8
LAYER_1
 62
   250
100
AcDbVertex
100
AcDb2dVertex
 10
168.74658203125
 20
-878.78125
 30
0.0
  0
SEQEND
  5
67
330
62
100
AcDbEntity
  8
LAYER_1
  0
POLYLINE
  5
68
330
1F
100
AcDbEntity
  8
LAYER_1
 62
   250
100
AcDb2dPolyline
 66
     1
 10
0.0
 20
0.0
 30
0.0
  0
VERTEX
  5
69
330
68
100
AcDbEntity
  8
LAYER_1
 62
   250
100
AcDbVertex
100
AcDb2dVertex
 10
165.928955078125
 20
-875.06884765625
 30
0.0
  0
VERTEX
  5
6A
330
68
100
AcDbEntity
  8
LAYER_1
 62
   250
100
AcDbVertex
100
AcDb2dVertex
 10
153.0341796875
 20
-860.00537109375
 30
0.0
  0
VERTEX
  5
6B
330
68
100
AcDbEntity
  8
LAYER_1
 62
   250
100
AcDbVertex
100
AcDb2dVertex
 10
153.0341796875
 20
-890.13232421875
 30
0.0
  0
VERTEX
  5
6C
330
68
100
AcDbEntity
  8
LAYER_1
 62
   250
100
AcDbVertex
100
AcDb2dVertex
 10
165.928955078125
 20
-875.06884765625
 30
0.0
  0
SEQEND
  5
6D
330
68
100
AcDbEntity
  8
LAYER_1
  0
POLYLINE
  5
6E
330
1F
100
AcDbEntity
  8
LAYER_1
 62
   250
100
AcDb2dPolyline
 66
     1
 10
0.0
 20
0.0
 30
0.0
  0
VERTEX
  5
6F
330
6E
100
AcDbEntity
  8
LAYER_1
 62
   250
100
AcDbVertex
100
AcDb2dVertex
 10
168.746337890625
 20
-813.6181640625
 30
0.0
  0
VERTEX
  5
70
330
6E
100
AcDbEntity
  8
LAYER_1
 62
   250
100
AcDbVertex
100
AcDb2dVertex
 10
155.0869140625
 20
-797.66259765625
 30
0.0
  0
VERTEX
  5
71
330
6E
100
AcDbEntity
  8
LAYER_1
 62
   250
100
AcDbVertex
100
AcDb2dVertex
 10
182.405517578125
 20
-797.66162109375
 30
0.0
  0
VERTEX
  5
72
330
6E
100
AcDbEntity
  8
LAYER_1
 62
   250
100
AcDbVertex
100
AcDb2dVertex
 10
168.746337890625
 20
-813.6181640625
 30
0.0
  0
SEQEND
  5
73
330
6E
100
AcDbEntity
  8
LAYER_1
  0
POLYLINE
  5
74
330
1F
100
AcDbEntity
  8
LAYER_1
 62
   250
100
AcDb2dPolyline
 66
     1
 10
0.0
 20
0.0
 30
0.0
  0
VERTEX
  5
75
330
74
100
AcDbEntity
  8
LAYER_1
 62
   250
100
AcDbVertex
100
AcDb2dVertex
 10
171.564208984375
 20
-817.33056640625
 30
0.0
  0
VERTEX
  5
76
330
74
100
AcDbEntity
  8
LAYER_1
 62
   250
100
AcDbVertex
100
AcDb2dVertex
 10
184.45947265625
 20
-802.26708984375
 30
0.0
  0
VERTEX
  5
77
330
74
100
AcDbEntity
  8
LAYER_1
 62
   250
100
AcDbVertex
100
AcDb2dVertex
 10
184.45947265625
 20
-832.39404296875
 30
0.0
  0
VERTEX
  5
78
330
74
100
AcDbEntity
  8
LAYER_1
 62
   250
100
AcDbVertex
100
AcDb2dVertex
 10
171.564208984375
 20
-817.33056640625
 30
0.0
  0
SEQEND
  5
79
330
74
100
AcDbEntity
  8
LAYER_1
  0
POLYLINE
  5
7A
330
1F
100
AcDbEntity
  8
LAYER_1
 62
   250
100
AcDb2dPolyline
 66
     1
 10
0.0
 20
0.0
 30
0.0
  0
VERTEX
  5
7B
330
7A
100
AcDbEntity
  8
LAYER_1
 62
   250
100
AcDbVertex
100
AcDb2dVertex
 10
168.74658203125
 20
-821.04296875
 30
0.0
  0
VERTEX
  5
7C
330
7A
100
AcDbEntity
  8
LAYER_1
 62
   250
100
AcDbVertex
100
AcDb2dVertex
 10
182.405517578125
 20
-836.99951171875
 30
0.0
  0
VERTEX
  5
7D
330
7A
100
AcDbEntity
  8
LAYER_1
 62
   250
100
AcDbVertex
100
AcDb2dVertex
 10
155.0869140625
 20
-836.99951171875
 30
0.0
  0
VERTEX
  5
7E
330
7A
100
AcDbEntity
  8
LAYER_1
 62
   250
100
AcDbVertex
100
AcDb2dVertex
 10
168.74658203125
 20
-821.04296875
 30
0.0
  0
SEQEND
  5
7F
330
7A
100
AcDbEntity
  8
LAYER_1
  0
POLYLINE
  5
80
330
1F
100
AcDbEntity
  8
LAYER_1
 62
   250
100
AcDb2dPolyline
 66
     1
 10
0.0
 20
0.0
 30
0.0
  0
VERTEX
  5
81
330
80
100
AcDbEntity
  8
LAYER_1
 62
   250
100
AcDbVertex
100
AcDb2dVertex
 10
165.928955078125
 20
-817.33056640625
 30
0.0
  0
VERTEX
  5
82
330
80
100
AcDbEntity
  8
LAYER_1
 62
   250
100
AcDbVertex
100
AcDb2dVertex
 10
153.0341796875
 20
-802.26708984375
 30
0.0
  0
VERTEX
  5
83
330
80
100
AcDbEntity
  8
LAYER_1
 62
   250
100
AcDbVertex
100
AcDb2dVertex
 10
153.0341796875
 20
-832.39404296875
 30
0.0
  0
VERTEX
  5
84
330
80
100
AcDbEntity
  8
LAYER_1
 62
   250
100
AcDbVertex
100
AcDb2dVertex
 10
165.928955078125
 20
-817.33056640625
 30
0.0
  0
SEQEND
  5
85
330
80
100
AcDbEntity
  8
LAYER_1
  0
POLYLINE
  5
86
330
1F
100
AcDbEntity
  8
LAYER_1
 62
   250
100
AcDb2dPolyline
 66
     1
 10
0.0
 20
0.0
 30
0.0
  0
VERTEX
  5
87
330
86
100
AcDbEntity
  8
LAYER_1
 62
   250
100
AcDbVertex
100
AcDb2dVertex
 10
168.746337890625
 20
-755.8798828125
 30
0.0
  0
VERTEX
  5
88
330
86
100
AcDbEntity
  8
LAYER_1
 62
   250
100
AcDbVertex
100
AcDb2dVertex
 10
155.0869140625
 20
-739.92431640625
 30
0.0
  0
VERTEX
  5
89
330
86
100
AcDbEntity
  8
LAYER_1
 62
   250
100
AcDbVertex
100
AcDb2dVertex
 10
182.405517578125
 20
-739.92333984375
 30
0.0
  0
VERTEX
  5
8A
330
86
100
AcDbEntity
  8
LAYER_1
 62
   250
100
AcDbVertex
100
AcDb2dVertex
 10
168.746337890625
 20
-755.8798828125
 30
0.0
  0
SEQEND
  5
8B
330
86
100
AcDbEntity
  8
LAYER_1
  0
POLYLINE
  5
8C
330
1F
100
AcDbEntity
  8
LAYER_1
 62
   250
100
AcDb2dPolyline
 66
     1
 10
0.0
 20
0.0
 30
0.0
  0
VERTEX
  5
8D
330
8C
100
AcDbEntity
  8
LAYER_1
 62
   250
100
AcDbVertex
100
AcDb2dVertex
 10
171.564208984375
 20
-759.59228515625
 30
0.0
  0
VERTEX
  5
8E
330
8C
100
AcDbEntity
  8
LAYER_1
 62
   250
100
AcDbVertex
100
AcDb2dVertex
 10
184.45947265625
 20
-744.52880859375
 30
0.0
  0
VERTEX
  5
8F
330
8C
100
AcDbEntity
  8
LAYER_1
 62
   250
100
AcDbVertex
100
AcDb2dVertex
 10
184.45947265625
 20
-774.65576171875
 30
0.0
  0
VERTEX
  5
90
330
8C
100
AcDbEntity
  8
LAYER_1
 62
   250
100
AcDbVertex
100
AcDb2dVertex
 10
171.564208984375
 20
-759.59228515625
 30
0.0
  0
SEQEND
  5
91
330
8C
100
AcDbEntity
  8
LAYER_1
  0
POLYLINE
  5
92
330
1F
100
AcDbEntity
  8
LAYER_1
 62
   250
100
AcDb2dPolyline
 66
     1
 10
0.0
 20
0.0
 30
0.0
  0
VERTEX
  5
93
330
92
100
AcDbEntity
  8
LAYER_1
 62
   250
100
AcDbVertex
100
AcDb2dVertex
 10
168.74658203125
 20
-763.3046875
 30
0.0
  0
VERTEX
  5
94
330
92
100
AcDbEntity
  8
LAYER_1
 62
   250
100
AcDbVertex
100
AcDb2dVertex
 10
182.405517578125
 20
-779.26123046875
 30
0.0
  0
VERTEX
  5
95
330
92
100
AcDbEntity
  8
LAYER_1
 62
   250
100
AcDbVertex
100
AcDb2dVertex
 10
155.0869140625
 20
-779.26123046875
 30
0.0
  0
VERTEX
  5
96
330
92
100
AcDbEntity
  8
LAYER_1
 62
   250
100
AcDbVertex
100
AcDb2dVertex
 10
168.74658203125
 20
-763.3046875
 30
0.0
  0
SEQEND
  5
97
330
92
100
AcDbEntity
  8
LAYER_1
  0
POLYLINE
  5
98
330
1F
100
AcDbEntity
  8
LAYER_1
 62
   250
100
AcDb2dPolyline
 66
     1
 10
0.0
 20
0.0
 30
0.0
  0
VERTEX
  5
99
330
98
100
AcDbEntity
  8
LAYER_1
 62
   250
100
AcDbVertex
100
AcDb2dVertex
 10
165.928955078125
 20
-759.59228515625
 30
0.0
  0
VERTEX
  5
9A
330
98
100
AcDbEntity
  8
LAYER_1
 62
   250
100
AcDbVertex
100
AcDb2dVertex
 10
153.0341796875
 20
-744.52880859375
 30
0.0
  0
VERTEX
  5
9B
330
98
100
AcDbEntity
  8
LAYER_1
 62
   250
100
AcDbVertex
100
AcDb2dVertex
 10
153.0341796875
 20
-774.65576171875
 30
0.0
  0
VERTEX
  5
9C
330
98
100
AcDbEntity
  8
LAYER_1
 62
   250
100
AcDbVertex
100
AcDb2dVertex
 10
165.928955078125
 20
-759.59228515625
 30
0.0
  0
SEQEND
  5
9D
330
98
100
AcDbEntity
  8
LAYER_1
  0
POLYLINE
  5
9E
330
1F
100
AcDbEntity
  8
LAYER_1
 62
   250
100
AcDb2dPolyline
 66
     1
 10
0.0
 20
0.0
 30
0.0
  0
VERTEX
  5
9F
330
9E
100
AcDbEntity
  8
LAYER_1
 62
   250
100
AcDbVertex
100
AcDb2dVertex
 10
168.746337890625
 20
-698.1416015625
 30
0.0
  0
VERTEX
  5
A0
330
9E
100
AcDbEntity
  8
LAYER_1
 62
   250
100
AcDbVertex
100
AcDb2dVertex
 10
155.0869140625
 20
-682.18603515625
 30
0.0
  0
VERTEX
  5
A1
330
9E
100
AcDbEntity
  8
LAYER_1
 62
   250
100
AcDbVertex
100
AcDb2dVertex
 10
182.405517578125
 20
-682.18505859375
 30
0.0
  0
VERTEX
  5
A2
330
9E
100
AcDbEntity
  8
LAYER_1
 62
   250
100
AcDbVertex
100
AcDb2dVertex
 10
168.746337890625
 20
-698.1416015625
 30
0.0
  0
SEQEND
  5
A3
330
9E
100
AcDbEntity
  8
LAYER_1
  0
POLYLINE
  5
A4
330
1F
100
AcDbEntity
  8
LAYER_1
 62
   250
100
AcDb2dPolyline
 66
     1
 10
0.0
 20
0.0
 30
0.0
  0
VERTEX
  5
A5
330
A4
100
AcDbEntity
  8
LAYER_1
 62
   250
100
AcDbVertex
100
AcDb2dVertex
 10
171.564208984375
 20
-701.85400390625
 30
0.0
  0
VERTEX
  5
A6
330
A4
100
AcDbEntity
  8
LAYER_1
 62
   250
100
AcDbVertex
100
AcDb2dVertex
 10
184.45947265625
 20
-686.79052734375
 30
0.0
  0
VERTEX
  5
A7
330
A4
100
AcDbEntity
  8
LAYER_1
 62
   250
100
AcDbVertex
100
AcDb2dVertex
 10
184.45947265625
 20
-716.91748046875
 30
0.0
  0
VERTEX
  5
A8
330
A4
100
AcDbEntity
  8
LAYER_1
 62
   250
100
AcDbVertex
100
AcDb2dVertex
 10
171.564208984375
 20
-701.85400390625
 30
0.0
  0
SEQEND
  5
A9
330
A4
100
AcDbEntity
  8
LAYER_1
  0
POLYLINE
  5
AA
330
1F
100
AcDbEntity
  8
LAYER_1
 62
   250
100
AcDb2dPolyline
 66
     1
 10
0.0
 20
0.0
 30
0.0
  0
VERTEX
  5
AB
330
AA
100
AcDbEntity
  8
LAYER_1
 62
   250
100
AcDbVertex
100
AcDb2dVertex
 10
168.74658203125
 20
-705.56640625
 30
0.0
  0
VERTEX
  5
AC
330
AA
100
AcDbEntity
  8
LAYER_1
 62
   250
100
AcDbVertex
100
AcDb2dVertex
 10
182.405517578125
 20
-721.5224609375
 30
0.0
  0
VERTEX
  5
AD
330
AA
100
AcDbEntity
  8
LAYER_1
 62
   250
100
AcDbVertex
100
AcDb2dVertex
 10
155.0869140625
 20
-721.5224609375
 30
0.0
  0
VERTEX
  5
AE
330
AA
100
AcDbEntity
  8
LAYER_1
 62
   250
100
AcDbVertex
100
AcDb2dVertex
 10
168.74658203125
 20
-705.56640625
 30
0.0
  0
SEQEND
  5
AF
330
AA
100
AcDbEntity
  8
LAYER_1
  0
POLYLINE
  5
B0
330
1F
100
AcDbEntity
  8
LAYER_1
 62
   250
100
AcDb2dPolyline
 66
     1
 10
0.0
 20
0.0
 30
0.0
  0
VERTEX
  5
B1
330
B0
100
AcDbEntity
  8
LAYER_1
 62
   250
100
AcDbVertex
100
AcDb2dVertex
 10
165.928955078125
 20
-701.85400390625
 30
0.0
  0
VERTEX
  5
B2
330
B0
100
AcDbEntity
  8
LAYER_1
 62
   250
100
AcDbVertex
100
AcDb2dVertex
 10
153.0341796875
 20
-686.79052734375
 30
0.0
  0
VERTEX
  5
B3
330
B0
100
AcDbEntity
  8
LAYER_1
 62
   250
100
AcDbVertex
100
AcDb2dVertex
 10
153.0341796875
 20
-716.91748046875
 30
0.0
  0
VERTEX
  5
B4
330
B0
100
AcDbEntity
  8
LAYER_1
 62
   250
100
AcDbVertex
100
AcDb2dVertex
 10
165.928955078125
 20
-701.85400390625
 30
0.0
  0
SEQEND
  5
B5
330
B0
100
AcDbEntity
  8
LAYER_1
  0
POLYLINE
  5
B6
330
1F
100
AcDbEntity
  8
LAYER_1
 62
   250
100
AcDb2dPolyline
 66
     1
 10
0.0
 20
0.0
 30
0.0
  0
VERTEX
  5
B7
330
B6
100
AcDbEntity
  8
LAYER_1
 62
   250
100
AcDbVertex
100
AcDb2dVertex
 10
168.746337890625
 20
-640.4033203125
 30
0.0
  0
VERTEX
  5
B8
330
B6
100
AcDbEntity
  8
LAYER_1
 62
   250
100
AcDbVertex
100
AcDb2dVertex
 10
155.0869140625
 20
-624.44775390625
 30
0.0
  0
VERTEX
  5
B9
330
B6
100
AcDbEntity
  8
LAYER_1
 62
   250
100
AcDbVertex
100
AcDb2dVertex
 10
182.405517578125
 20
-624.44677734375
 30
0.0
  0
VERTEX
  5
BA
330
B6
100
AcDbEntity
  8
LAYER_1
 62
   250
100
AcDbVertex
100
AcDb2dVertex
 10
168.746337890625
 20
-640.4033203125
 30
0.0
  0
SEQEND
  5
BB
330
B6
100
AcDbEntity
  8
LAYER_1
  0
POLYLINE
  5
BC
330
1F
100
AcDbEntity
  8
LAYER_1
 62
   250
100
AcDb2dPolyline
 66
     1
 10
0.0
 20
0.0
 30
0.0
  0
VERTEX
  5
BD
330
BC
100
AcDbEntity
  8
LAYER_1
 62
   250
100
AcDbVertex
100
AcDb2dVertex
 10
171.564208984375
 20
-644.11572265625
 30
0.0
  0
VERTEX
  5
BE
330
BC
100
AcDbEntity
  8
LAYER_1
 62
   250
100
AcDbVertex
100
AcDb2dVertex
 10
184.45947265625
 20
-629.0517578125
 30
0.0
  0
VERTEX
  5
BF
330
BC
100
AcDbEntity
  8
LAYER_1
 62
   250
100
AcDbVertex
100
AcDb2dVertex
 10
184.45947265625
 20
-659.1787109375
 30
0.0
  0
VERTEX
  5
C0
330
BC
100
AcDbEntity
  8
LAYER_1
 62
   250
100
AcDbVertex
100
AcDb2dVertex
 10
171.564208984375
 20
-644.11572265625
 30
0.0
  0
SEQEND
  5
C1
330
BC
100
AcDbEntity
  8
LAYER_1
  0
POLYLINE
  5
C2
330
1F
100
AcDbEntity
  8
LAYER_1
 62
   250
100
AcDb2dPolyline
 66
     1
 10
0.0
 20
0.0
 30
0.0
  0
VERTEX
  5
C3
330
C2
100
AcDbEntity
  8
LAYER_1
 62
   250
100
AcDbVertex
100
AcDb2dVertex
 10
168.74658203125
 20
-647.828125
 30
0.0
  0
VERTEX
  5
C4
330
C2
100
AcDbEntity
  8
LAYER_1
 62
   250
100
AcDbVertex
100
AcDb2dVertex
 10
182.405517578125
 20
-663.7841796875
 30
0.0
  0
VERTEX
  5
C5
330
C2
100
AcDbEntity
  8
LAYER_1
 62
   250
100
AcDbVertex
100
AcDb2dVertex
 10
155.0869140625
 20
-663.7841796875
 30
0.0
  0
VERTEX
  5
C6
330
C2
100
AcDbEntity
  8
LAYER_1
 62
   250
100
AcDbVertex
100
AcDb2dVertex
 10
168.74658203125
 20
-647.828125
 30
0.0
  0
SEQEND
  5
C7
330
C2
100
AcDbEntity
  8
LAYER_1
  0
POLYLINE
  5
C8
330
1F
100
AcDbEntity
  8
LAYER_1
 62
   250
100
AcDb2dPolyline
 66
     1
 10
0.0
 20
0.0
 30
0.0
  0
VERTEX
  5
C9
330
C8
100
AcDbEntity
  8
LAYER_1
 62
   250
100
AcDbVertex
100
AcDb2dVertex
 10
165.928955078125
 20
-644.115234375
 30
0.0
  0
VERTEX
  5
CA
330
C8
100
AcDbEntity
  8
LAYER_1
 62
   250
100
AcDbVertex
100
AcDb2dVertex
 10
153.0341796875
 20
-629.0517578125
 30
0.0
  0
VERTEX
  5
CB
330
C8
100
AcDbEntity
  8
LAYER_1
 62
   250
100
AcDbVertex
100
AcDb2dVertex
 10
153.0341796875
 20
-659.1787109375
 30
0.0
  0
VERTEX
  5
CC
330
C8
100
AcDbEntity
  8
LAYER_1
 62
   250
100
AcDbVertex
100
AcDb2dVertex
 10
165.928955078125
 20
-644.115234375
 30
0.0
  0
SEQEND
  5
CD
330
C8
100
AcDbEntity
  8
LAYER_1
  0
POLYLINE
  5
CE
330
1F
100
AcDbEntity
  8
LAYER_1
 62
   250
100
AcDb2dPolyline
 66
     1
 10
0.0
 20
0.0
 30
0.0
  0
VERTEX
  5
CF
330
CE
100
AcDbEntity
  8
LAYER_1
 62
   250
100
AcDbVertex
100
AcDb2dVertex
 10
168.746337890625
 20
-582.6650390625
 30
0.0
  0
VERTEX
  5
D0
330
CE
100
AcDbEntity
  8
LAYER_1
 62
   250
100
AcDbVertex
100
AcDb2dVertex
 10
155.0869140625
 20
-566.708984375
 30
0.0
  0
VERTEX
  5
D1
330
CE
100
AcDbEntity
  8
LAYER_1
 62
   250
100
AcDbVertex
100
AcDb2dVertex
 10
182.405517578125
 20
-566.7080078125
 30
0.0
  0
VERTEX
  5
D2
330
CE
100
AcDbEntity
  8
LAYER_1
 62
   250
100
AcDbVertex
100
AcDb2dVertex
 10
168.746337890625
 20
-582.6650390625
 30
0.0
  0
SEQEND
  5
D3
330
CE
100
AcDbEntity
  8
LAYER_1
  0
POLYLINE
  5
D4
330
1F
100
AcDbEntity
  8
LAYER_1
 62
   250
100
AcDb2dPolyline
 66
     1
 10
0.0
 20
0.0
 30
0.0
  0
VERTEX
  5
D5
330
D4
100
AcDbEntity
  8
LAYER_1
 62
   250
100
AcDbVertex
100
AcDb2dVertex
 10
171.564208984375
 20
-586.37744140625
 30
0.0
  0
VERTEX
  5
D6
330
D4
100
AcDbEntity
  8
LAYER_1
 62
   250
100
AcDbVertex
100
AcDb2dVertex
 10
184.45947265625
 20
-571.3134765625
 30
0.0
  0
VERTEX
  5
D7
330
D4
100
AcDbEntity
  8
LAYER_1
 62
   250
100
AcDbVertex
100
AcDb2dVertex
 10
184.45947265625
 20
-601.4404296875
 30
0.0
  0
VERTEX
  5
D8
330
D4
100
AcDbEntity
  8
LAYER_1
 62
   250
100
AcDbVertex
100
AcDb2dVertex
 10
171.564208984375
 20
-586.37744140625
 30
0.0
  0
SEQEND
  5
D9
330
D4
100
AcDbEntity
  8
LAYER_1
  0
POLYLINE
  5
DA
330
1F
100
AcDbEntity
  8
LAYER_1
 62
   250
100
AcDb2dPolyline
 66
     1
 10
0.0
 20
0.0
 30
0.0
  0
VERTEX
  5
DB
330
DA
100
AcDbEntity
  8
LAYER_1
 62
   250
100
AcDbVertex
100
AcDb2dVertex
 10
168.74658203125
 20
-590.08984375
 30
0.0
  0
VERTEX
  5
DC
330
DA
100
AcDbEntity
  8
LAYER_1
 62
   250
100
AcDbVertex
100
AcDb2dVertex
 10
182.405517578125
 20
-606.0458984375
 30
0.0
  0
VERTEX
  5
DD
330
DA
100
AcDbEntity
  8
LAYER_1
 62
   250
100
AcDbVertex
100
AcDb2dVertex
 10
155.0869140625
 20
-606.0458984375
 30
0.0
  0
VERTEX
  5
DE
330
DA
100
AcDbEntity
  8
LAYER_1
 62
   250
100
AcDbVertex
100
AcDb2dVertex
 10
168.74658203125
 20
-590.08984375
 30
0.0
  0
SEQEND
  5
DF
330
DA
100
AcDbEntity
  8
LAYER_1
  0
POLYLINE
  5
E0
330
1F
100
AcDbEntity
  8
LAYER_1
 62
   250
100
AcDb2dPolyline
 66
     1
 10
0.0
 20
0.0
 30
0.0
  0
VERTEX
  5
E1
330
E0
100
AcDbEntity
  8
LAYER_1
 62
   250
100
AcDbVertex
100
AcDb2dVertex
 10
165.928955078125
 20
-586.376953125
 30
0.0
  0
VERTEX
  5
E2
330
E0
100
AcDbEntity
  8
LAYER_1
 62
   250
100
AcDbVertex
100
AcDb2dVertex
 10
153.0341796875
 20
-571.3134765625
 30
0.0
  0
VERTEX
  5
E3
330
E0
100
AcDbEntity
  8
LAYER_1
 62
   250
100
AcDbVertex
100
AcDb2dVertex
 10
153.0341796875
 20
-601.4404296875
 30
0.0
  0
VERTEX
  5
E4
330
E0
100
AcDbEntity
  8
LAYER_1
 62
   250
100
AcDbVertex
100
AcDb2dVertex
 10
165.928955078125
 20
-586.376953125
 30
0.0
  0
SEQEND
  5
E5
330
E0
100
AcDbEntity
  8
LAYER_1
  0
POLYLINE
  5
E6
330
1F
100
AcDbEntity
  8
LAYER_1
 62
   250
100
AcDb2dPolyline
 66
     1
 10
0.0
 20
0.0
 30
0.0
  0
VERTEX
  5
E7
330
E6
100
AcDbEntity
  8
LAYER_1
 62
   250
100
AcDbVertex
100
AcDb2dVertex
 10
168.746337890625
 20
-524.9267578125
 30
0.0
  0
VERTEX
  5
E8
330
E6
100
AcDbEntity
  8
LAYER_1
 62
   250
100
AcDbVertex
100
AcDb2dVertex
 10
155.0869140625
 20
-508.970703125
 30
0.0
  0
VERTEX
  5
E9
330
E6
100
AcDbEntity
  8
LAYER_1
 62
   250
100
AcDbVertex
100
AcDb2dVertex
 10
182.405517578125
 20
-508.9697265625
 30
0.0
  0
VERTEX
  5
EA
330
E6
100
AcDbEntity
  8
LAYER_1
 62
   250
100
AcDbVertex
100
AcDb2dVertex
 10
168.746337890625
 20
-524.9267578125
 30
0.0
  0
SEQEND
  5
EB
330
E6
100
AcDbEntity
  8
LAYER_1
  0
POLYLINE
  5
EC
330
1F
100
AcDbEntity
  8
LAYER_1
 62
   250
100
AcDb2dPolyline
 66
     1
 10
0.0
 20
0.0
 30
0.0
  0
VERTEX
  5
ED
330
EC
100
AcDbEntity
  8
LAYER_1
 62
   250
100
AcDbVertex
100
AcDb2dVertex
 10
171.564208984375
 20
-528.63916015625
 30
0.0
  0
VERTEX
  5
EE
330
EC
100
AcDbEntity
  8
LAYER_1
 62
   250
100
AcDbVertex
100
AcDb2dVertex
 10
184.45947265625
 20
-513.5751953125
 30
0.0
  0
VERTEX
  5
EF
330
EC
100
AcDbEntity
  8
LAYER_1
 62
   250
100
AcDbVertex
100
AcDb2dVertex
 10
184.45947265625
 20
-543.7021484375
 30
0.0
  0
VERTEX
  5
F0
330
EC
100
AcDbEntity
  8
LAYER_1
 62
   250
100
AcDbVertex
100
AcDb2dVertex
 10
171.564208984375
 20
-528.63916015625
 30
0.0
  0
SEQEND
  5
F1
330
EC
100
AcDbEntity
  8
LAYER_1
  0
POLYLINE
  5
F2
330
1F
100
AcDbEntity
  8
LAYER_1
 62
   250
100
AcDb2dPolyline
 66
     1
 10
0.0
 20
0.0
 30
0.0
  0
VERTEX
  5
F3
330
F2
100
AcDbEntity
  8
LAYER_1
 62
   250
100
AcDbVertex
100
AcDb2dVertex
 10
168.74658203125
 20
-532.3515625
 30
0.0
  0
VERTEX
  5
F4
330
F2
100
AcDbEntity
  8
LAYER_1
 62
   250
100
AcDbVertex
100
AcDb2dVertex
 10
182.405517578125
 20
-548.3076171875
 30
0.0
  0
VERTEX
  5
F5
330
F2
100
AcDbEntity
  8
LAYER_1
 62
   250
100
AcDbVertex
100
AcDb2dVertex
 10
155.0869140625
 20
-548.3076171875
 30
0.0
  0
VERTEX
  5
F6
330
F2
100
AcDbEntity
  8
LAYER_1
 62
   250
100
AcDbVertex
100
AcDb2dVertex
 10
168.74658203125
 20
-532.3515625
 30
0.0
  0
SEQEND
  5
F7
330
F2
100
AcDbEntity
  8
LAYER_1
  0
POLYLINE
  5
F8
330
1F
100
AcDbEntity
  8
LAYER_1
 62
   250
100
AcDb2dPolyline
 66
     1
 10
0.0
 20
0.0
 30
0.0
  0
VERTEX
  5
F9
330
F8
100
AcDbEntity
  8
LAYER_1
 62
   250
100
AcDbVertex
100
AcDb2dVertex
 10
165.928955078125
 20
-528.638671875
 30
0.0
  0
VERTEX
  5
FA
330
F8
100
AcDbEntity
  8
LAYER_1
 62
   250
100
AcDbVertex
100
AcDb2dVertex
 10
153.0341796875
 20
-513.5751953125
 30
0.0
  0
VERTEX
  5
FB
330
F8
100
AcDbEntity
  8
LAYER_1
 62
   250
100
AcDbVertex
100
AcDb2dVertex
 10
153.0341796875
 20
-543.7021484375
 30
0.0
  0
VERTEX
  5
FC
330
F8
100
AcDbEntity
  8
LAYER_1
 62
   250
100
AcDbVertex
100
AcDb2dVertex
 10
165.928955078125
 20
-528.638671875
 30
0.0
  0
SEQEND
  5
FD
330
F8
100
AcDbEntity
  8
LAYER_1
  0
POLYLINE
  5
FE
330
1F
100
AcDbEntity
  8
LAYER_1
 62
   250
100
AcDb2dPolyline
 66
     1
 10
0.0
 20
0.0
 30
0.0
  0
VERTEX
  5
FF
330
FE
100
AcDbEntity
  8
LAYER_1
 62
   250
100
AcDbVertex
100
AcDb2dVertex
 10
168.746337890625
 20
-467.1884765625
 30
0.0
  0
VERTEX
  5
100
330
FE
100
AcDbEntity
  8
LAYER_1
 62
   250
100
AcDbVertex
100
AcDb2dVertex
 10
155.0869140625
 20
-451.232421875
 30
0.0
  0
VERTEX
  5
101
330
FE
100
AcDbEntity
  8
LAYER_1
 62
   250
100
AcDbVertex
100
AcDb2dVertex
 10
182.405517578125
 20
-451.2314453125
 30
0.0
  0
VERTEX
  5
102
330
FE
100
AcDbEntity
  8
LAYER_1
 62
   250
100
AcDbVertex
100
AcDb2dVertex
 10
168.746337890625
 20
-467.1884765625
 30
0.0
  0
SEQEND
  5
103
330
FE
100
AcDbEntity
  8
LAYER_1
  0
POLYLINE
  5
104
330
1F
100
AcDbEntity
  8
LAYER_1
 62
   250
100
AcDb2dPolyline
 66
     1
 10
0.0
 20
0.0
 30
0.0
  0
VERTEX
  5
105
330
104
100
AcDbEntity
  8
LAYER_1
 62
   250
100
AcDbVertex
100
AcDb2dVertex
 10
171.564208984375
 20
-470.90087890625
 30
0.0
  0
VERTEX
  5
106
330
104
100
AcDbEntity
  8
LAYER_1
 62
   250
100
AcDbVertex
100
AcDb2dVertex
 10
184.45947265625
 20
-455.8369140625
 30
0.0
  0
VERTEX
  5
107
330
104
100
AcDbEntity
  8
LAYER_1
 62
   250
100
AcDbVertex
100
AcDb2dVertex
 10
184.45947265625
 20
-485.9638671875
 30
0.0
  0
VERTEX
  5
108
330
104
100
AcDbEntity
  8
LAYER_1
 62
   250
100
AcDbVertex
100
AcDb2dVertex
 10
171.564208984375
 20
-470.90087890625
 30
0.0
  0
SEQEND
  5
109
330
104
100
AcDbEntity
  8
LAYER_1
  0
POLYLINE
  5
10A
330
1F
100
AcDbEntity
  8
LAYER_1
 62
   250
100
AcDb2dPolyline
 66
     1
 10
0.0
 20
0.0
 30
0.0
  0
VERTEX
  5
10B
330
10A
100
AcDbEntity
  8
LAYER_1
 62
   250
100
AcDbVertex
100
AcDb2dVertex
 10
168.74658203125
 20
-474.61279296875
 30
0.0
  0
VERTEX
  5
10C
330
10A
100
AcDbEntity
  8
LAYER_1
 62
   250
100
AcDbVertex
100
AcDb2dVertex
 10
182.405517578125
 20
-490.5693359375
 30
0.0
  0
VERTEX
  5
10D
330
10A
100
AcDbEntity
  8
LAYER_1
 62
   250
100
AcDbVertex
100
AcDb2dVertex
 10
155.0869140625
 20
-490.5693359375
 30
0.0
  0
VERTEX
  5
10E
330
10A
100
AcDbEntity
  8
LAYER_1
 62
   250
100
AcDbVertex
100
AcDb2dVertex
 10
168.74658203125
 20
-474.61279296875
 30
0.0
  0
SEQEND
  5
10F
330
10A
100
AcDbEntity
  8
LAYER_1
  0
POLYLINE
  5
110
330
1F
100
AcDbEntity
  8
LAYER_1
 62
   250
100
AcDb2dPolyline
 66
     1
 10
0.0
 20
0.0
 30
0.0
  0
VERTEX
  5
111
330
110
100
AcDbEntity
  8
LAYER_1
 62
   250
100
AcDbVertex
100
AcDb2dVertex
 10
165.928955078125
 20
-470.900390625
 30
0.0
  0
VERTEX
  5
112
330
110
100
AcDbEntity
  8
LAYER_1
 62
   250
100
AcDbVertex
100
AcDb2dVertex
 10
153.0341796875
 20
-455.8369140625
 30
0.0
  0
VERTEX
  5
113
330
110
100
AcDbEntity
  8
LAYER_1
 62
   250
100
AcDbVertex
100
AcDb2dVertex
 10
153.0341796875
 20
-485.9638671875
 30
0.0
  0
VERTEX
  5
114
330
110
100
AcDbEntity
  8
LAYER_1
 62
   250
100
AcDbVertex
100
AcDb2dVertex
 10
165.928955078125
 20
-470.900390625
 30
0.0
  0
SEQEND
  5
115
330
110
100
AcDbEntity
  8
LAYER_1
  0
POLYLINE
  5
116
330
1F
100
AcDbEntity
  8
LAYER_1
 62
   250
100
AcDb2dPolyline
 66
     1
 10
0.0
 20
0.0
 30
0.0
  0
VERTEX
  5
117
330
116
100
AcDbEntity
  8
LAYER_1
 62
   250
100
AcDbVertex
100
AcDb2dVertex
 10
296.523681640625
 20
-909.431640625
 30
0.0
  0
VERTEX
  5
118
330
116
100
AcDbEntity
  8
LAYER_1
 62
   250
100
AcDbVertex
100
AcDb2dVertex
 10
198.804443359375
 20
-909.431640625
 30
0.0
  0
VERTEX
  5
119
330
116
100
AcDbEntity
  8
LAYER_1
 62
   250
100
AcDbVertex
100
AcDb2dVertex
 10
198.804443359375
 20
-901.74951171875
 30
0.0
  0
VERTEX
  5
11A
330
116
100
AcDbEntity
  8
LAYER_1
 62
   250
100
AcDbVertex
100
AcDb2dVertex
 10
283.708984375
 20
-901.74951171875
 30
0.0
  0
VERTEX
  5
11B
330
116
100
AcDbEntity
  8
LAYER_1
 62
   250
100
AcDbVertex
100
AcDb2dVertex
 10
296.523681640625
 20
-909.431640625
 30
0.0
  0
SEQEND
  5
11C
330
116
100
AcDbEntity
  8
LAYER_1
  0
POLYLINE
  5
11D
330
1F
100
AcDbEntity
  8
LAYER_1
 62
   250
100
AcDb2dPolyline
 66
     1
 10
0.0
 20
0.0
 30
0.0
  0
VERTEX
  5
11E
330
11D
100
AcDbEntity
  8
LAYER_1
 62
   250
100
AcDbVertex
100
AcDb2dVertex
 10
606.17138671875
 20
-529.58251953125
 30
0.0
  0
VERTEX
  5
11F
330
11D
100
AcDbEntity
  8
LAYER_1
 62
   250
100
AcDbVertex
100
AcDb2dVertex
 10
667.3525390625
 20
-529.58251953125
 30
0.0
  0
VERTEX
  5
120
330
11D
100
AcDbEntity
  8
LAYER_1
 62
   250
100
AcDbVertex
100
AcDb2dVertex
 10
636.76171875
 20
-561.876953125
 30
0.0
  0
VERTEX
  5
121
330
11D
100
AcDbEntity
  8
LAYER_1
 62
   250
100
AcDbVertex
100
AcDb2dVertex
 10
606.17138671875
 20
-529.58251953125
 30
0.0
  0
SEQEND
  5
122
330
11D
100
AcDbEntity
  8
LAYER_1
  0
POLYLINE
  5
123
330
1F
100
AcDbEntity
  8
LAYER_1
 62
   250
100
AcDb2dPolyline
 66
     1
 10
0.0
 20
0.0
 30
0.0
  0
VERTEX
  5
124
330
123
100
AcDbEntity
  8
LAYER_1
 62
   250
100
AcDbVertex
100
AcDb2dVertex
 10
547.70263671875
 20
-576.39599609375
 30
0.0
  0
VERTEX
  5
125
330
123
100
AcDbEntity
  8
LAYER_1
 62
   250
100
AcDbVertex
100
AcDb2dVertex
 10
586.248046875
 20
-535.703125
 30
0.0
  0
VERTEX
  5
126
330
123
100
AcDbEntity
  8
LAYER_1
 62
   250
100
AcDbVertex
100
AcDb2dVertex
 10
624.7939453125
 20
-576.39599609375
 30
0.0
  0
VERTEX
  5
127
330
123
100
AcDbEntity
  8
LAYER_1
 62
   250
100
AcDbVertex
100
AcDb2dVertex
 10
547.70263671875
 20
-576.39599609375
 30
0.0
  0
SEQEND
  5
128
330
123
100
AcDbEntity
  8
LAYER_1
  0
POLYLINE
  5
129
330
1F
100
AcDbEntity
  8
LAYER_1
 62
   250
100
AcDb2dPolyline
 66
     1
 10
0.0
 20
0.0
 30
0.0
  0
VERTEX
  5
12A
330
129
100
AcDbEntity
  8
LAYER_1
 62
   250
100
AcDbVertex
100
AcDb2dVertex
 10
311.284912109375
 20
-529.58251953125
 30
0.0
  0
VERTEX
  5
12B
330
129
100
AcDbEntity
  8
LAYER_1
 62
   250
100
AcDbVertex
100
AcDb2dVertex
 10
372.4658203125
 20
-529.58251953125
 30
0.0
  0
VERTEX
  5
12C
330
129
100
AcDbEntity
  8
LAYER_1
 62
   250
100
AcDbVertex
100
AcDb2dVertex
 10
341.87548828125
 20
-561.876953125
 30
0.0
  0
VERTEX
  5
12D
330
129
100
AcDbEntity
  8
LAYER_1
 62
   250
100
AcDbVertex
100
AcDb2dVertex
 10
311.284912109375
 20
-529.58251953125
 30
0.0
  0
SEQEND
  5
12E
330
129
100
AcDbEntity
  8
LAYER_1
  0
POLYLINE
  5
12F
330
1F
100
AcDbEntity
  8
LAYER_1
 62
   250
100
AcDb2dPolyline
 66
     1
 10
0.0
 20
0.0
 30
0.0
  0
VERTEX
  5
130
330
12F
100
AcDbEntity
  8
LAYER_1
 62
   250
100
AcDbVertex
100
AcDb2dVertex
 10
212.989501953125
 20
-529.58251953125
 30
0.0
  0
VERTEX
  5
131
330
12F
100
AcDbEntity
  8
LAYER_1
 62
   250
100
AcDbVertex
100
AcDb2dVertex
 10
243.579833984375
 20
-561.876953125
 30
0.0
  0
VERTEX
  5
132
330
12F
100
AcDbEntity
  8
LAYER_1
 62
   250
100
AcDbVertex
100
AcDb2dVertex
 10
274.17041015625
 20
-529.58251953125
 30
0.0
  0
VERTEX
  5
133
330
12F
100
AcDbEntity
  8
LAYER_1
 62
   250
100
AcDbVertex
100
AcDb2dVertex
 10
212.989501953125
 20
-529.58251953125
 30
0.0
  0
SEQEND
  5
134
330
12F
100
AcDbEntity
  8
LAYER_1
  0
POLYLINE
  5
135
330
1F
100
AcDbEntity
  8
LAYER_1
 62
   250
100
AcDb2dPolyline
 66
     1
 10
0.0
 20
0.0
 30
0.0
  0
VERTEX
  5
136
330
135
100
AcDbEntity
  8
LAYER_1
 62
   250
100
AcDbVertex
100
AcDb2dVertex
 10
252.816162109375
 20
-576.39599609375
 30
0.0
  0
VERTEX
  5
137
330
135
100
AcDbEntity
  8
LAYER_1
 62
   250
100
AcDbVertex
100
AcDb2dVertex
 10
291.36181640625
 20
-535.703125
 30
0.0
  0
VERTEX
  5
138
330
135
100
AcDbEntity
  8
LAYER_1
 62
   250
100
AcDbVertex
100
AcDb2dVertex
 10
329.9072265625
 20
-576.39599609375
 30
0.0
  0
VERTEX
  5
139
330
135
100
AcDbEntity
  8
LAYER_1
 62
   250
100
AcDbVertex
100
AcDb2dVertex
 10
252.816162109375
 20
-576.39599609375
 30
0.0
  0
SEQEND
  5
13A
330
135
100
AcDbEntity
  8
LAYER_1
  0
POLYLINE
  5
13B
330
1F
100
AcDbEntity
  8
LAYER_1
 62
   250
100
AcDb2dPolyline
 66
     1
 10
0.0
 20
0.0
 30
0.0
  0
VERTEX
  5
13C
330
13B
100
AcDbEntity
  8
LAYER_1
 62
   250
100
AcDbVertex
100
AcDb2dVertex
 10
231.61181640625
 20
-576.39599609375
 30
0.0
  0
VERTEX
  5
13D
330
13B
100
AcDbEntity
  8
LAYER_1
 62
   250
100
AcDbVertex
100
AcDb2dVertex
 10
193.066162109375
 20
-576.39599609375
 30
0.0
  0
VERTEX
  5
13E
330
13B
100
AcDbEntity
  8
LAYER_1
 62
   250
100
AcDbVertex
100
AcDb2dVertex
 10
193.066162109375
 20
-535.703125
 30
0.0
  0
VERTEX
  5
13F
330
13B
100
AcDbEntity
  8
LAYER_1
 62
   250
100
AcDbVertex
100
AcDb2dVertex
 10
193.066162109375
 20
-535.703125
 30
0.0
  0
VERTEX
  5
140
330
13B
100
AcDbEntity
  8
LAYER_1
 62
   250
100
AcDbVertex
100
AcDb2dVertex
 10
231.61181640625
 20
-576.39599609375
 30
0.0
  0
SEQEND
  5
141
330
13B
100
AcDbEntity
  8
LAYER_1
  0
SPLINE
  5
142
330
1F
100
AcDbEntity
  8
LAYER_1
 62
   250
100
AcDbSpline
210
0.0
220
0.0
230
1.0
 70
    11
 71
     3
 72
   101
 73
    97
 74
     0
 42
0.0000000001
 43
0.0000000001
 40
0.0
 40
0.0
 40
0.0
 40
0.0
 40
1.0
 40
1.0
 40
1.0
 40
2.0
 40
2.0
 40
2.0
 40
3.0
 40
3.0
 40
3.0
 40
4.0
 40
4.0
 40
4.0
 40
5.0
 40
5.0
 40
5.0
 40
6.0
 40
6.0
 40
6.0
 40
7.0
 40
7.0
 40
7.0
 40
8.0
 40
8.0
 40
8.0
 40
9.0
 40
9.0
 40
9.0
 40
10.0
 40
10.0
 40
10.0
 40
11.0
 40
11.0
 40
11.0
 40
12.0
 40
12.0
 40
12.0
 40
13.0
 40
13.0
 40
13.0
 40
14.0
 40
14.0
 40
14.0
 40
15.0
 40
15.0
 40
15.0
 40
16.0
 40
16.0
 40
16.0
 40
17.0
 40
17.0
 40
17.0
 40
18.0
 40
18.0
 40
18.0
 40
19.0
 40
19.0
 40
19.0
 40
20.0
 40
20.0
 40
20.0
 40
21.0
 40
21.0
 40
21.0
 40
22.0
 40
22.0
 40
22.0
 40
23.0
 40
23.0
 40
23.0
 40
24.0
 40
24.0
 40
24.0
 40
25.0
 40
25.0
 40
25.0
 40
26.0
 40
26.0
 40
26.0
 40
27.0
 40
27.0
 40
27.0
 40
28.0
 40
28.0
 40
28.0
 40
29.0
 40
29.0
 40
29.0
 40
30.0
 40
30.0
 40
30.0
 40
31.0
 40
31.0
 40
31.0
 40
32.0
 40
32.0
 40
32.0
 40
32.0
 10
491.19287109375
 20
-511.08837890625
 30
0.0
 10
491.19287109375
 20
-511.08837890625
 30
0.0
 10
526.11083984375
 20
-511.08837890625
 30
0.0
 10
526.11083984375
 20
-511.08837890625
 30
0.0
 10
525.93896484375
 20
-510.31640625
 30
0.0
 10
525.7978515625
 20
-509.5400390625
 30
0.0
 10
525.71728515625
 20
-508.7548828125
 30
0.0
 10
525.62744140625
 20
-507.8837890625
 30
0.0
 10
525.95263671875
 20
-506.9716796875
 30
0.0
 10
525.71728515625
 20
-506.1259765625
 30
0.0
 10
525.24609375
 20
-504.43505859375
 30
0.0
 10
524.0927734375
 20
-502.9619140625
 30
0.0
 10
522.9853515625
 20
-501.5732421875
 30
0.0
 10
520.21630859375
 20
-498.10107421875
 30
0.0
 10
516.935546875
 20
-494.94384765625
 30
0.0
 10
513.32666015625
 20
-492.279296875
 30
0.0
 10
508.27490234375
 20
-488.54931640625
 30
0.0
 10
500.31396484375
 20
-488.16748046875
 30
0.0
 10
496.765625
 20
-483.0791015625
 30
0.0
 10
493.943359375
 20
-479.03173828125
 30
0.0
 10
494.1396484375
 20
-473.4169921875
 30
0.0
 10
494.7216796875
 20
-468.5751953125
 30
0.0
 10
495.43408203125
 20
-462.6552734375
 30
0.0
 10
497.84912109375
 20
-456.765625
 30
0.0
 10
501.3642578125
 20
-451.85888671875
 30
0.0
 10
505.13916015625
 20
-446.59033203125
 30
0.0
 10
510.6455078125
 20
-442.48681640625
 30
0.0
 10
516.26220703125
 20
-439.06005859375
 30
0.0
 10
524.31103515625
 20
-434.150390625
 30
0.0
 10
535.7421875
 20
-434.6640625
 30
0.0
 10
542.60888671875
 20
-428.30517578125
 30
0.0
 10
546.42919921875
 20
-424.767578125
 30
0.0
 10
550.970703125
 20
-419.30859375
 30
0.0
 10
549.38427734375
 20
-414.440673828125
 30
0.0
 10
547.7509765625
 20
-409.42919921875
 30
0.0
 10
539.916015625
 20
-409.1806640625
 30
0.0
 10
535.18896484375
 20
-406.5546875
 30
0.0
 10
528.88623046875
 20
-403.05322265625
 30
0.0
 10
518.72900390625
 20
-402.628173828125
 30
0.0
 10
516.26220703125
 20
-396.0400390625
 30
0.0
 10
514.28515625
 20
-390.760009765625
 30
0.0
 10
519.0498046875
 20
-384.861572265625
 30
0.0
 10
522.35888671875
 20
-380.23974609375
 30
0.0
 10
528.85791015625
 20
-371.163818359375
 30
0.0
 10
544.236328125
 20
-368.75390625
 30
0.0
 10
548.2265625
 20
-358.42236328125
 30
0.0
 10
550.86572265625
 20
-351.589111328125
 30
0.0
 10
547.5302734375
 20
-343.63623046875
 30
0.0
 10
545.064453125
 20
-336.7431640625
 30
0.0
 10
542.103515625
 20
-328.466552734375
 30
0.0
 10
539.283203125
 20
-318.355224609375
 30
0.0
 10
531.4052734375
 20
-313.978515625
 30
0.0
 10
528.25390625
 20
-312.227783203125
 30
0.0
 10
523.62890625
 20
-312.227783203125
 30
0.0
 10
520.4775390625
 20
-313.978515625
 30
0.0
 10
517.326171875
 20
-315.729248046875
 30
0.0
 10
514.71484375
 20
-319.594970703125
 30
0.0
 10
515.013671875
 20
-323.08447265625
 30
0.0
 10
515.52294921875
 20
-329.025634765625
 30
0.0
 10
524.27490234375
 20
-331.481689453125
 30
0.0
 10
526.830078125
 20
-336.912353515625
 30
0.0
 10
529.169921875
 20
-341.8857421875
 30
0.0
 10
531.31982421875
 20
-347.895263671875
 30
0.0
 10
529.580078125
 20
-353.091552734375
 30
0.0
 10
527.3486328125
 20
-359.757080078125
 30
0.0
 10
520.2216796875
 20
-364.13525390625
 30
0.0
 10
514.12646484375
 20
-367.96142578125
 30
0.0
 10
508.51904296875
 20
-371.4814453125
 30
0.0
 10
500.46826171875
 20
-370.77587890625
 30
0.0
 10
495.38623046875
 20
-374.97021484375
 30
0.0
 10
488.48095703125
 20
-380.6689453125
 30
0.0
 10
481.29443359375
 20
-388.991455078125
 30
0.0
 10
481.72705078125
 20
-397.73486328125
 30
0.0
 10
481.9853515625
 20
-402.961669921875
 30
0.0
 10
487.6865234375
 20
-406.54052734375
 30
0.0
 10
491.1982421875
 20
-410.535888671875
 30
0.0
 10
495.310546875
 20
-415.21435546875
 30
0.0
 10
502.6748046875
 20
-417.744384765625
 30
0.0
 10
504.72021484375
 20
-423.546875
 30
0.0
 10
505.728515625
 20
-426.40673828125
 30
0.0
 10
504.8740234375
 20
-429.82958984375
 30
0.0
 10
503.4853515625
 20
-432.53759765625
 30
0.0
 10
499.05712890625
 20
-441.17236328125
 30
0.0
 10
487.65380859375
 20
-444.88818359375
 30
0.0
 10
482.236328125
 20
-452.98388671875
 30
0.0
 10
479.9306640625
 20
-456.42919921875
 30
0.0
 10
477.58251953125
 20
-460.41162109375
 30
0.0
 10
477.74560546875
 20
-464.5068359375
 30
0.0
 10
478.04736328125
 20
-472.083984375
 30
0.0
 10
485.39453125
 20
-477.90966796875
 30
0.0
 10
487.72509765625
 20
-485.15283203125
 30
0.0
 10
490.11669921875
 20
-492.5849609375
 30
0.0
 10
492.51953125
 20
-500.45751953125
 30
0.0
 10
491.71728515625
 20
-508.19921875
 30
0.0
 10
491.61572265625
 20
-509.1787109375
 30
0.0
 10
491.4423828125
 20
-510.14208984375
 30
0.0
 10
491.19287109375
 20
-511.08837890625
 30
0.0
  0
SPLINE
  5
143
330
1F
100
AcDbEntity
  8
LAYER_1
 62
   250
100
AcDbSpline
210
0.0
220
0.0
230
1.0
 70
    11
 71
     3
 72
    29
 73
    25
 74
     0
 42
0.0000000001
 43
0.0000000001
 40
0.0
 40
0.0
 40
0.0
 40
0.0
 40
1.0
 40
1.0
 40
1.0
 40
2.0
 40
2.0
 40
2.0
 40
3.0
 40
3.0
 40
3.0
 40
4.0
 40
4.0
 40
4.0
 40
5.0
 40
5.0
 40
5.0
 40
6.0
 40
6.0
 40
6.0
 40
7.0
 40
7.0
 40
7.0
 40
8.0
 40
8.0
 40
8.0
 40
8.0
 10
531.111328125
 20
-554.1162109375
 30
0.0
 10
533.6240234375
 20
-553.89501953125
 30
0.0
 10
535.3486328125
 20
-552.865234375
 30
0.0
 10
536.2861328125
 20
-551.03125
 30
0.0
 10
537.0888671875
 20
-549.46044921875
 30
0.0
 10
535.109375
 20
-547.68896484375
 30
0.0
 10
534.87158203125
 20
-545.953125
 30
0.0
 10
534.515625
 20
-543.349609375
 30
0.0
 10
533.74267578125
 20
-540.4580078125
 30
0.0
 10
534.87158203125
 20
-538.0673828125
 30
0.0
 10
536.5322265625
 20
-534.55224609375
 30
0.0
 10
540.8349609375
 20
-532.87646484375
 30
0.0
 10
543.9501953125
 20
-530.443359375
 30
0.0
 10
544.32861328125
 20
-530.1474609375
 30
0.0
 10
544.71630859375
 20
-529.8603515625
 30
0.0
 10
545.1103515625
 20
-529.58154296875
 30
0.0
 10
545.1103515625
 20
-529.58154296875
 30
0.0
 10
569.056640625
 20
-529.58251953125
 30
0.0
 10
569.056640625
 20
-529.58251953125
 30
0.0
 10
569.056640625
 20
-529.58251953125
 30
0.0
 10
538.46630859375
 20
-561.876953125
 30
0.0
 10
538.46630859375
 20
-561.876953125
 30
0.0
 10
538.46630859375
 20
-561.876953125
 30
0.0
 10
531.111328125
 20
-554.1162109375
 30
0.0
 10
531.111328125
 20
-554.1162109375
 30
0.0
  0
SPLINE
  5
144
330
1F
100
AcDbEntity
  8
LAYER_1
 62
   250
100
AcDbSpline
210
0.0
220
0.0
230
1.0
 70
    11
 71
     3
 72
    20
 73
    16
 74
     0
 42
0.0000000001
 43
0.0000000001
 40
0.0
 40
0.0
 40
0.0
 40
0.0
 40
1.0
 40
1.0
 40
1.0
 40
2.0
 40
2.0
 40
2.0
 40
3.0
 40
3.0
 40
3.0
 40
4.0
 40
4.0
 40
4.0
 40
5.0
 40
5.0
 40
5.0
 40
5.0
 10
459.994140625
 20
-540.95068359375
 30
0.0
 10
459.994140625
 20
-540.95068359375
 30
0.0
 10
470.76123046875
 20
-529.58251953125
 30
0.0
 10
470.76123046875
 20
-529.58251953125
 30
0.0
 10
470.76123046875
 20
-529.58251953125
 30
0.0
 10
451.89404296875
 20
-529.5830078125
 30
0.0
 10
451.89404296875
 20
-529.5830078125
 30
0.0
 10
452.18994140625
 20
-531.5087890625
 30
0.0
 10
452.83349609375
 20
-533.294921875
 30
0.0
 10
453.82177734375
 20
-534.9423828125
 30
0.0
 10
455.1865234375
 20
-537.21630859375
 30
0.0
 10
457.8193359375
 20
-538.54248046875
 30
0.0
 10
459.61669921875
 20
-540.5185546875
 30
0.0
 10
459.74560546875
 20
-540.66015625
 30
0.0
 10
459.87255859375
 20
-540.80322265625
 30
0.0
 10
459.994140625
 20
-540.95068359375
 30
0.0
  0
SPLINE
  5
145
330
1F
100
AcDbEntity
  8
LAYER_1
 62
   250
100
AcDbSpline
210
0.0
220
0.0
230
1.0
 70
    11
 71
     3
 72
    29
 73
    25
 74
     0
 42
0.0000000001
 43
0.0000000001
 40
0.0
 40
0.0
 40
0.0
 40
0.0
 40
1.0
 40
1.0
 40
1.0
 40
2.0
 40
2.0
 40
2.0
 40
3.0
 40
3.0
 40
3.0
 40
4.0
 40
4.0
 40
4.0
 40
5.0
 40
5.0
 40
5.0
 40
6.0
 40
6.0
 40
6.0
 40
7.0
 40
7.0
 40
7.0
 40
8.0
 40
8.0
 40
8.0
 40
8.0
 10
451.591796875
 20
-549.82568359375
 30
0.0
 10
451.591796875
 20
-549.82568359375
 30
0.0
 10
440.1708984375
 20
-561.876953125
 30
0.0
 10
440.1708984375
 20
-561.876953125
 30
0.0
 10
440.1708984375
 20
-561.876953125
 30
0.0
 10
409.58056640625
 20
-529.58251953125
 30
0.0
 10
409.58056640625
 20
-529.58251953125
 30
0.0
 10
409.58056640625
 20
-529.58251953125
 30
0.0
 10
428.62890625
 20
-529.58251953125
 30
0.0
 10
428.62890625
 20
-529.58251953125
 30
0.0
 10
428.4931640625
 20
-530.21484375
 30
0.0
 10
428.421875
 20
-530.8544921875
 30
0.0
 10
428.45166015625
 20
-531.50390625
 30
0.0
 10
428.61669921875
 20
-535.07421875
 30
0.0
 10
430.0439453125
 20
-538.732421875
 30
0.0
 10
432.2841796875
 20
-541.5830078125
 30
0.0
 10
433.9453125
 20
-543.6982421875
 30
0.0
 10
436.36376953125
 20
-545.4365234375
 30
0.0
 10
438.98486328125
 20
-546.25390625
 30
0.0
 10
442.4462890625
 20
-547.33349609375
 30
0.0
 10
447.09814453125
 20
-544.0341796875
 30
0.0
 10
449.912109375
 20
-546.25390625
 30
0.0
 10
451.02001953125
 20
-547.1279296875
 30
0.0
 10
451.58203125
 20
-548.318359375
 30
0.0
 10
451.591796875
 20
-549.82568359375
 30
0.0
  0
SPLINE
  5
146
330
1F
100
AcDbEntity
  8
LAYER_1
 62
   250
100
AcDbSpline
210
0.0
220
0.0
230
1.0
 70
    11
 71
     3
 72
    23
 73
    19
 74
     0
 42
0.0000000001
 43
0.0000000001
 40
0.0
 40
0.0
 40
0.0
 40
0.0
 40
1.0
 40
1.0
 40
1.0
 40
2.0
 40
2.0
 40
2.0
 40
3.0
 40
3.0
 40
3.0
 40
4.0
 40
4.0
 40
4.0
 40
5.0
 40
5.0
 40
5.0
 40
6.0
 40
6.0
 40
6.0
 40
6.0
 10
493.9541015625
 20
-576.3984375
 30
0.0
 10
494.67431640625
 20
-575.43505859375
 30
0.0
 10
495.37109375
 20
-574.45556640625
 30
0.0
 10
496.04736328125
 20
-573.46337890625
 30
0.0
 10
497.04541015625
 20
-571.99951171875
 30
0.0
 10
497.5322265625
 20
-570.185546875
 30
0.0
 10
498.779296875
 20
-568.91064453125
 30
0.0
 10
500.6533203125
 20
-566.99462890625
 30
0.0
 10
503.134765625
 20
-565.63232421875
 30
0.0
 10
505.6279296875
 20
-564.55224609375
 30
0.0
 10
508.05517578125
 20
-563.50048828125
 30
0.0
 10
510.693359375
 20
-563.017578125
 30
0.0
 10
513.31494140625
 20
-562.47802734375
 30
0.0
 10
513.31494140625
 20
-562.47802734375
 30
0.0
 10
526.498046875
 20
-576.39599609375
 30
0.0
 10
526.498046875
 20
-576.39599609375
 30
0.0
 10
526.498046875
 20
-576.39599609375
 30
0.0
 10
493.9541015625
 20
-576.3984375
 30
0.0
 10
493.9541015625
 20
-576.3984375
 30
0.0
  0
SPLINE
  5
147
330
1F
100
AcDbEntity
  8
LAYER_1
 62
   250
100
AcDbSpline
210
0.0
220
0.0
230
1.0
 70
    11
 71
     3
 72
    41
 73
    37
 74
     0
 42
0.0000000001
 43
0.0000000001
 40
0.0
 40
0.0
 40
0.0
 40
0.0
 40
1.0
 40
1.0
 40
1.0
 40
2.0
 40
2.0
 40
2.0
 40
3.0
 40
3.0
 40
3.0
 40
4.0
 40
4.0
 40
4.0
 40
5.0
 40
5.0
 40
5.0
 40
6.0
 40
6.0
 40
6.0
 40
7.0
 40
7.0
 40
7.0
 40
8.0
 40
8.0
 40
8.0
 40
9.0
 40
9.0
 40
9.0
 40
10.0
 40
10.0
 40
10.0
 40
11.0
 40
11.0
 40
11.0
 40
12.0
 40
12.0
 40
12.0
 40
12.0
 10
454.63330078125
 20
-570.87939453125
 30
0.0
 10
454.63330078125
 20
-570.87939453125
 30
0.0
 10
449.4072265625
 20
-576.39599609375
 30
0.0
 10
449.4072265625
 20
-576.39599609375
 30
0.0
 10
449.4072265625
 20
-576.39599609375
 30
0.0
 10
472.61572265625
 20
-576.3955078125
 30
0.0
 10
472.61572265625
 20
-576.3955078125
 30
0.0
 10
473.23974609375
 20
-574.828125
 30
0.0
 10
474.025390625
 20
-573.3388671875
 30
0.0
 10
474.97021484375
 20
-571.9267578125
 30
0.0
 10
476.44775390625
 20
-569.71923828125
 30
0.0
 10
478.83544921875
 20
-568.20751953125
 30
0.0
 10
480.76513671875
 20
-566.3505859375
 30
0.0
 10
483.9814453125
 20
-563.255859375
 30
0.0
 10
486.63427734375
 20
-559.4775390625
 30
0.0
 10
490.423828125
 20
-557.05712890625
 30
0.0
 10
492.6826171875
 20
-555.61474609375
 30
0.0
 10
495.60107421875
 20
-555.38330078125
 30
0.0
 10
497.96337890625
 20
-554.1044921875
 30
0.0
 10
499.57421875
 20
-553.232421875
 30
0.0
 10
501.0712890625
 20
-552.19140625
 30
0.0
 10
502.5322265625
 20
-551.0947265625
 30
0.0
 10
502.5322265625
 20
-551.0947265625
 30
0.0
 10
487.95263671875
 20
-535.703125
 30
0.0
 10
487.95263671875
 20
-535.703125
 30
0.0
 10
487.95263671875
 20
-535.703125
 30
0.0
 10
469.5390625
 20
-555.146484375
 30
0.0
 10
469.5390625
 20
-555.146484375
 30
0.0
 10
470.0654296875
 20
-556.9765625
 30
0.0
 10
470.064453125
 20
-558.7724609375
 30
0.0
 10
469.541015625
 20
-560.53271484375
 30
0.0
 10
468.46484375
 20
-564.15234375
 30
0.0
 10
465.345703125
 20
-567.26806640625
 30
0.0
 10
461.97900390625
 20
-569.18603515625
 30
0.0
 10
459.80078125
 20
-570.4267578125
 30
0.0
 10
457.2197265625
 20
-570.6552734375
 30
0.0
 10
454.63330078125
 20
-570.87939453125
 30
0.0
  0
SPLINE
  5
148
330
1F
100
AcDbEntity
  8
LAYER_1
 62
   250
100
AcDbSpline
210
0.0
220
0.0
230
1.0
 70
    11
 71
     3
 72
    29
 73
    25
 74
     0
 42
0.0000000001
 43
0.0000000001
 40
0.0
 40
0.0
 40
0.0
 40
0.0
 40
1.0
 40
1.0
 40
1.0
 40
2.0
 40
2.0
 40
2.0
 40
3.0
 40
3.0
 40
3.0
 40
4.0
 40
4.0
 40
4.0
 40
5.0
 40
5.0
 40
5.0
 40
6.0
 40
6.0
 40
6.0
 40
7.0
 40
7.0
 40
7.0
 40
8.0
 40
8.0
 40
8.0
 40
8.0
 10
414.38037109375
 20
-576.39697265625
 30
0.0
 10
415.0869140625
 20
-575.02294921875
 30
0.0
 10
415.51953125
 20
-573.57275390625
 30
0.0
 10
415.68017578125
 20
-572.046875
 30
0.0
 10
415.955078125
 20
-569.4345703125
 30
0.0
 10
414.923828125
 20
-566.7041015625
 30
0.0
 10
413.55908203125
 20
-564.4296875
 30
0.0
 10
411.28466796875
 20
-560.6396484375
 30
0.0
 10
407.98095703125
 20
-557.06982421875
 30
0.0
 10
403.900390625
 20
-555.13623046875
 30
0.0
 10
400.830078125
 20
-553.68115234375
 30
0.0
 10
396.9501953125
 20
-554.91259765625
 30
0.0
 10
393.708984375
 20
-553.85546875
 30
0.0
 10
390.2626953125
 20
-552.73193359375
 30
0.0
 10
387.28466796875
 20
-550.5234375
 30
0.0
 10
384.24560546875
 20
-548.5986328125
 30
0.0
 10
382.837890625
 20
-547.70703125
 30
0.0
 10
381.50244140625
 20
-546.71630859375
 30
0.0
 10
380.16748046875
 20
-545.72119140625
 30
0.0
 10
380.16748046875
 20
-545.72119140625
 30
0.0
 10
351.11181640625
 20
-576.39599609375
 30
0.0
 10
351.11181640625
 20
-576.39599609375
 30
0.0
 10
351.11181640625
 20
-576.39599609375
 30
0.0
 10
414.38037109375
 20
-576.39697265625
 30
0.0
 10
414.38037109375
 20
-576.39697265625
 30
0.0
  0
SPLINE
  5
149
330
1F
100
AcDbEntity
  8
LAYER_1
 62
   250
100
AcDbSpline
210
0.0
220
0.0
230
1.0
 70
    11
 71
     3
 72
    68
 73
    64
 74
     0
 42
0.0000000001
 43
0.0000000001
 40
0.0
 40
0.0
 40
0.0
 40
0.0
 40
1.0
 40
1.0
 40
1.0
 40
2.0
 40
2.0
 40
2.0
 40
3.0
 40
3.0
 40
3.0
 40
4.0
 40
4.0
 40
4.0
 40
5.0
 40
5.0
 40
5.0
 40
6.0
 40
6.0
 40
6.0
 40
7.0
 40
7.0
 40
7.0
 40
8.0
 40
8.0
 40
8.0
 40
9.0
 40
9.0
 40
9.0
 40
10.0
 40
10.0
 40
10.0
 40
11.0
 40
11.0
 40
11.0
 40
12.0
 40
12.0
 40
12.0
 40
13.0
 40
13.0
 40
13.0
 40
14.0
 40
14.0
 40
14.0
 40
15.0
 40
15.0
 40
15.0
 40
16.0
 40
16.0
 40
16.0
 40
17.0
 40
17.0
 40
17.0
 40
18.0
 40
18.0
 40
18.0
 40
19.0
 40
19.0
 40
19.0
 40
20.0
 40
20.0
 40
20.0
 40
21.0
 40
21.0
 40
21.0
 40
21.0
 10
865.9423828125
 20
-882.703125
 30
0.0
 10
856.6845703125
 20
-888.1767578125
 30
0.0
 10
846.64208984375
 20
-893.06396484375
 30
0.0
 10
836.0029296875
 20
-895.18701171875
 30
0.0
 10
820.85986328125
 20
-898.2080078125
 30
0.0
 10
805.0263671875
 20
-895.18701171875
 30
0.0
 10
789.5615234375
 20
-895.18701171875
 30
0.0
 10
788.6513671875
 20
-895.18701171875
 30
0.0
 10
787.7138671875
 20
-895.3916015625
 30
0.0
 10
786.82958984375
 20
-895.18701171875
 30
0.0
 10
766.60693359375
 20
-890.5
 30
0.0
 10
746.71630859375
 20
-881.166015625
 30
0.0
 10
731.21533203125
 20
-867.8193359375
 30
0.0
 10
715.486328125
 20
-854.27587890625
 30
0.0
 10
703.2802734375
 20
-836.0869140625
 30
0.0
 10
696.2861328125
 20
-816.9248046875
 30
0.0
 10
692.083984375
 20
-805.4111328125
 30
0.0
 10
693.37548828125
 20
-792.6240234375
 30
0.0
 10
692.79345703125
 20
-780.43408203125
 30
0.0
 10
692.62646484375
 20
-776.9365234375
 30
0.0
 10
690.22021484375
 20
-772.3955078125
 30
0.0
 10
692.79345703125
 20
-769.91943359375
 30
0.0
 10
694.080078125
 20
-768.681640625
 30
0.0
 10
696.77197265625
 20
-768.908203125
 30
0.0
 10
698.2568359375
 20
-769.91943359375
 30
0.0
 10
703.52490234375
 20
-773.50732421875
 30
0.0
 10
702.9013671875
 20
-781.54345703125
 30
0.0
 10
704.701171875
 20
-787.50732421875
 30
0.0
 10
707.408203125
 20
-796.4775390625
 30
0.0
 10
707.6865234375
 20
-806.1513671875
 30
0.0
 10
711.24169921875
 20
-814.84375
 30
0.0
 10
714.90625
 20
-823.80322265625
 30
0.0
 10
719.95166015625
 20
-832.41552734375
 30
0.0
 10
726.2666015625
 20
-839.884765625
 30
0.0
 10
732.73046875
 20
-847.52978515625
 30
0.0
 10
741.15234375
 20
-853.5126953125
 30
0.0
 10
749.21630859375
 20
-859.58837890625
 30
0.0
 10
755.240234375
 20
-864.126953125
 30
0.0
 10
761.2265625
 20
-868.9970703125
 30
0.0
 10
768.177734375
 20
-872.07177734375
 30
0.0
 10
776.443359375
 20
-875.728515625
 30
0.0
 10
785.51904296875
 20
-877.9560546875
 30
0.0
 10
794.5654296875
 20
-878.87548828125
 30
0.0
 10
804.896484375
 20
-879.92529296875
 30
0.0
 10
815.51318359375
 20
-879.1884765625
 30
0.0
 10
825.72119140625
 20
-877.33447265625
 30
0.0
 10
833.982421875
 20
-875.833984375
 30
0.0
 10
841.62060546875
 20
-871.97900390625
 30
0.0
 10
849.6728515625
 20
-869.65234375
 30
0.0
 10
854.02880859375
 20
-868.39306640625
 30
0.0
 10
858.35693359375
 20
-865.67919921875
 30
0.0
 10
862.86669921875
 20
-866.25048828125
 30
0.0
 10
865.572265625
 20
-866.59326171875
 30
0.0
 10
868.599609375
 20
-867.9189453125
 30
0.0
 10
869.9638671875
 20
-870.193359375
 30
0.0
 10
871.32861328125
 20
-872.4677734375
 30
0.0
 10
870.8046875
 20
-875.5810546875
 30
0.0
 10
869.9638671875
 20
-878.0791015625
 30
0.0
 10
869.5
 20
-879.45947265625
 30
0.0
 10
868.3408203125
 20
-880.5498046875
 30
0.0
 10
867.31103515625
 20
-881.609375
 30
0.0
 10
866.90625
 20
-882.02587890625
 30
0.0
 10
866.447265625
 20
-882.40478515625
 30
0.0
 10
865.9423828125
 20
-882.703125
 30
0.0
  0
POLYLINE
  5
14A
330
1F
100
AcDbEntity
  8
LAYER_1
 62
   250
100
AcDb2dPolyline
 66
     1
 10
0.0
 20
0.0
 30
0.0
  0
VERTEX
  5
14B
330
14A
100
AcDbEntity
  8
LAYER_1
 62
   250
100
AcDbVertex
100
AcDb2dVertex
 10
919.2001953125
 20
-1095.04052734375
 30
0.0
  0
VERTEX
  5
14C
330
14A
100
AcDbEntity
  8
LAYER_1
 62
   250
100
AcDbVertex
100
AcDb2dVertex
 10
926.17724609375
 20
-1091.3291015625
 30
0.0
  0
VERTEX
  5
14D
330
14A
100
AcDbEntity
  8
LAYER_1
 62
   250
100
AcDbVertex
100
AcDb2dVertex
 10
869.498046875
 20
-992.66943359375
 30
0.0
  0
VERTEX
  5
14E
330
14A
100
AcDbEntity
  8
LAYER_1
 62
   250
100
AcDbVertex
100
AcDb2dVertex
 10
862.5205078125
 20
-996.380859375
 30
0.0
  0
VERTEX
  5
14F
330
14A
100
AcDbEntity
  8
LAYER_1
 62
   250
100
AcDbVertex
100
AcDb2dVertex
 10
919.2001953125
 20
-1095.04052734375
 30
0.0
  0
SEQEND
  5
150
330
14A
100
AcDbEntity
  8
LAYER_1
  0
SPLINE
  5
151
330
1F
100
AcDbEntity
  8
LAYER_1
 62
   250
100
AcDbSpline
210
0.0
220
0.0
230
1.0
 70
    11
 71
     3
 72
   287
 73
   283
 74
     0
 42
0.0000000001
 43
0.0000000001
 40
0.0
 40
0.0
 40
0.0
 40
0.0
 40
1.0
 40
1.0
 40
1.0
 40
2.0
 40
2.0
 40
2.0
 40
3.0
 40
3.0
 40
3.0
 40
4.0
 40
4.0
 40
4.0
 40
5.0
 40
5.0
 40
5.0
 40
6.0
 40
6.0
 40
6.0
 40
7.0
 40
7.0
 40
7.0
 40
8.0
 40
8.0
 40
8.0
 40
9.0
 40
9.0
 40
9.0
 40
10.0
 40
10.0
 40
10.0
 40
11.0
 40
11.0
 40
11.0
 40
12.0
 40
12.0
 40
12.0
 40
13.0
 40
13.0
 40
13.0
 40
14.0
 40
14.0
 40
14.0
 40
15.0
 40
15.0
 40
15.0
 40
16.0
 40
16.0
 40
16.0
 40
17.0
 40
17.0
 40
17.0
 40
18.0
 40
18.0
 40
18.0
 40
19.0
 40
19.0
 40
19.0
 40
20.0
 40
20.0
 40
20.0
 40
21.0
 40
21.0
 40
21.0
 40
22.0
 40
22.0
 40
22.0
 40
23.0
 40
23.0
 40
23.0
 40
24.0
 40
24.0
 40
24.0
 40
25.0
 40
25.0
 40
25.0
 40
26.0
 40
26.0
 40
26.0
 40
27.0
 40
27.0
 40
27.0
 40
28.0
 40
28.0
 40
28.0
 40
29.0
 40
29.0
 40
29.0
 40
30.0
 40
30.0
 40
30.0
 40
31.0
 40
31.0
 40
31.0
 40
32.0
 40
32.0
 40
32.0
 40
33.0
 40
33.0
 40
33.0
 40
34.0
 40
34.0
 40
34.0
 40
35.0
 40
35.0
 40
35.0
 40
36.0
 40
36.0
 40
36.0
 40
37.0
 40
37.0
 40
37.0
 40
38.0
 40
38.0
 40
38.0
 40
39.0
 40
39.0
 40
39.0
 40
40.0
 40
40.0
 40
40.0
 40
41.0
 40
41.0
 40
41.0
 40
42.0
 40
42.0
 40
42.0
 40
43.0
 40
43.0
 40
43.0
 40
44.0
 40
44.0
 40
44.0
 40
45.0
 40
45.0
 40
45.0
 40
46.0
 40
46.0
 40
46.0
 40
47.0
 40
47.0
 40
47.0
 40
48.0
 40
48.0
 40
48.0
 40
49.0
 40
49.0
 40
49.0
 40
50.0
 40
50.0
 40
50.0
 40
51.0
 40
51.0
 40
51.0
 40
52.0
 40
52.0
 40
52.0
 40
53.0
 40
53.0
 40
53.0
 40
54.0
 40
54.0
 40
54.0
 40
55.0
 40
55.0
 40
55.0
 40
56.0
 40
56.0
 40
56.0
 40
57.0
 40
57.0
 40
57.0
 40
58.0
 40
58.0
 40
58.0
 40
59.0
 40
59.0
 40
59.0
 40
60.0
 40
60.0
 40
60.0
 40
61.0
 40
61.0
 40
61.0
 40
62.0
 40
62.0
 40
62.0
 40
63.0
 40
63.0
 40
63.0
 40
64.0
 40
64.0
 40
64.0
 40
65.0
 40
65.0
 40
65.0
 40
66.0
 40
66.0
 40
66.0
 40
67.0
 40
67.0
 40
67.0
 40
68.0
 40
68.0
 40
68.0
 40
69.0
 40
69.0
 40
69.0
 40
70.0
 40
70.0
 40
70.0
 40
71.0
 40
71.0
 40
71.0
 40
72.0
 40
72.0
 40
72.0
 40
73.0
 40
73.0
 40
73.0
 40
74.0
 40
74.0
 40
74.0
 40
75.0
 40
75.0
 40
75.0
 40
76.0
 40
76.0
 40
76.0
 40
77.0
 40
77.0
 40
77.0
 40
78.0
 40
78.0
 40
78.0
 40
79.0
 40
79.0
 40
79.0
 40
80.0
 40
80.0
 40
80.0
 40
81.0
 40
81.0
 40
81.0
 40
82.0
 40
82.0
 40
82.0
 40
83.0
 40
83.0
 40
83.0
 40
84.0
 40
84.0
 40
84.0
 40
85.0
 40
85.0
 40
85.0
 40
86.0
 40
86.0
 40
86.0
 40
87.0
 40
87.0
 40
87.0
 40
88.0
 40
88.0
 40
88.0
 40
89.0
 40
89.0
 40
89.0
 40
90.0
 40
90.0
 40
90.0
 40
91.0
 40
91.0
 40
91.0
 40
92.0
 40
92.0
 40
92.0
 40
93.0
 40
93.0
 40
93.0
 40
94.0
 40
94.0
 40
94.0
 40
94.0
 10
789.73583984375
 20
-821.82568359375
 30
0.0
 10
790.44921875
 20
-821.15673828125
 30
0.0
 10
791.31005859375
 20
-820.2177734375
 30
0.0
 10
791.93701171875
 20
-819.80712890625
 30
0.0
 10
795.697265625
 20
-817.34521484375
 30
0.0
 10
800.15771484375
 20
-815.89990234375
 30
0.0
 10
803.76611328125
 20
-813.23583984375
 30
0.0
 10
805.93115234375
 20
-811.63720703125
 30
0.0
 10
807.0400390625
 20
-808.66455078125
 30
0.0
 10
809.5615234375
 20
-807.65966796875
 30
0.0
 10
815.4443359375
 20
-805.314453125
 30
0.0
 10
822.68212890625
 20
-809.70703125
 30
0.0
 10
828.68408203125
 20
-807.65966796875
 30
0.0
 10
836.28466796875
 20
-805.06689453125
 30
0.0
 10
843.01806640625
 20
-800.423828125
 30
0.0
 10
850.224609375
 20
-792.9833984375
 30
0.0
 10
855.806640625
 20
-787.22021484375
 30
0.0
 10
852.68310546875
 20
-776.83984375
 30
0.0
 10
850.224609375
 20
-769.3251953125
 30
0.0
 10
848.57080078125
 20
-764.271484375
 30
0.0
 10
844.8095703125
 20
-759.86474609375
 30
0.0
 10
840.7509765625
 20
-756.283203125
 30
0.0
 10
837.39892578125
 20
-753.3251953125
 30
0.0
 10
833.2138671875
 20
-751.16064453125
 30
0.0
 10
828.921875
 20
-749.7119140625
 30
0.0
 10
821.25927734375
 20
-747.125
 30
0.0
 10
810.6376953125
 20
-746.21044921875
 30
0.0
 10
804.3349609375
 20
-749.7119140625
 30
0.0
 10
801.18359375
 20
-751.46240234375
 30
0.0
 10
801.08642578125
 20
-756.0400390625
 30
0.0
 10
798.87109375
 20
-758.8173828125
 30
0.0
 10
796.65625
 20
-761.59521484375
 30
0.0
 10
794.16259765625
 20
-768.20849609375
 30
0.0
 10
791.14453125
 20
-766.25244140625
 30
0.0
 10
789.17724609375
 20
-764.9775390625
 30
0.0
 10
793.4462890625
 20
-762.1767578125
 30
0.0
 10
793.91748046875
 20
-759.93994140625
 30
0.0
 10
794.09814453125
 20
-759.08203125
 30
0.0
 10
794.0361328125
 20
-758.17919921875
 30
0.0
 10
793.91748046875
 20
-757.3115234375
 30
0.0
 10
793.5615234375
 20
-754.7080078125
 30
0.0
 10
794.31787109375
 20
-750.69921875
 30
0.0
 10
791.79638671875
 20
-749.6943359375
 30
0.0
 10
787.59423828125
 20
-748.01904296875
 30
0.0
 10
783.26953125
 20
-753.255859375
 30
0.0
 10
779.96728515625
 20
-756.265625
 30
0.0
 10
777.31689453125
 20
-758.6806640625
 30
0.0
 10
775.25927734375
 20
-761.81103515625
 30
0.0
 10
773.9794921875
 20
-765.10009765625
 30
0.0
 10
771.95556640625
 20
-770.30078125
 30
0.0
 10
770.9052734375
 20
-776.10205078125
 30
0.0
 10
771.583984375
 20
-781.61669921875
 30
0.0
 10
772.05419921875
 20
-785.43798828125
 30
0.0
 10
774.376953125
 20
-788.8447265625
 30
0.0
 10
775.97509765625
 20
-792.3720703125
 30
0.0
 10
777.06103515625
 20
-794.7685546875
 30
0.0
 10
780.31005859375
 20
-796.9501953125
 30
0.0
 10
779.50830078125
 20
-799.44775390625
 30
0.0
 10
778.97119140625
 20
-801.12060546875
 30
0.0
 10
776.5341796875
 20
-801.62353515625
 30
0.0
 10
774.7763671875
 20
-802.07666015625
 30
0.0
 10
770.3828125
 20
-803.20947265625
 30
0.0
 10
765.5107421875
 20
-803.20947265625
 30
0.0
 10
761.1171875
 20
-802.07666015625
 30
0.0
 10
758.48095703125
 20
-801.39697265625
 30
0.0
 10
756.60791015625
 20
-797.30029296875
 30
0.0
 10
754.01953125
 20
-798.1337890625
 30
0.0
 10
750.19482421875
 20
-799.36474609375
 30
0.0
 10
749.568359375
 20
-804.98974609375
 30
0.0
 10
749.287109375
 20
-808.861328125
 30
0.0
 10
748.9697265625
 20
-813.22705078125
 30
0.0
 10
756.12451171875
 20
-818.546875
 30
0.0
 10
752.822265625
 20
-821.556640625
 30
0.0
 10
750.4052734375
 20
-823.75927734375
 30
0.0
 10
746.15673828125
 20
-820.24267578125
 30
0.0
 10
743.3193359375
 20
-818.56640625
 30
0.0
 10
739.443359375
 20
-816.2763671875
 30
0.0
 10
736.11572265625
 20
-812.95751953125
 30
0.0
 10
733.6611328125
 20
-809.27294921875
 30
0.0
 10
731.595703125
 20
-806.17236328125
 30
0.0
 10
731.87841796875
 20
-801.9091796875
 30
0.0
 10
729.6689453125
 20
-798.90185546875
 30
0.0
 10
727.271484375
 20
-795.638671875
 30
0.0
 10
722.59619140625
 20
-794.40478515625
 30
0.0
 10
720.08837890625
 20
-791.2197265625
 30
0.0
 10
716.52099609375
 20
-786.68798828125
 30
0.0
 10
714.822265625
 20
-780.9921875
 30
0.0
 10
712.845703125
 20
-775.634765625
 30
0.0
 10
711.32373046875
 20
-771.51025390625
 30
0.0
 10
709.904296875
 20
-767.2783203125
 30
0.0
 10
709.310546875
 20
-762.939453125
 30
0.0
 10
708.83544921875
 20
-759.4677734375
 30
0.0
 10
708.681640625
 20
-755.873046875
 30
0.0
 10
709.310546875
 20
-752.4248046875
 30
0.0
 10
710.15185546875
 20
-747.81005859375
 30
0.0
 10
712.23388671875
 20
-743.443359375
 30
0.0
 10
714.2880859375
 20
-739.19580078125
 30
0.0
 10
716.5908203125
 20
-734.43408203125
 30
0.0
 10
718.92138671875
 20
-729.51611328125
 30
0.0
 10
722.4833984375
 20
-725.537109375
 30
0.0
 10
724.16259765625
 20
-723.66162109375
 30
0.0
 10
726.08544921875
 20
-720.1328125
 30
0.0
 10
728.52880859375
 20
-720.90771484375
 30
0.0
 10
732.8486328125
 20
-722.27783203125
 30
0.0
 10
733.63818359375
 20
-729.4970703125
 30
0.0
 10
732.064453125
 20
-733.603515625
 30
0.0
 10
731.1708984375
 20
-735.93359375
 30
0.0
 10
727.11083984375
 20
-735.76318359375
 30
0.0
 10
725.67724609375
 20
-737.82861328125
 30
0.0
 10
722.64404296875
 20
-742.1982421875
 30
0.0
 10
722.841796875
 20
-748.0380859375
 30
0.0
 10
722.27197265625
 20
-753.26416015625
 30
0.0
 10
721.89208984375
 20
-756.74658203125
 30
0.0
 10
718.7568359375
 20
-762.87255859375
 30
0.0
 10
722.27197265625
 20
-763.77880859375
 30
0.0
 10
727.5439453125
 20
-765.13818359375
 30
0.0
 10
726.2548828125
 20
-753.4599609375
 30
0.0
 10
730.46728515625
 20
-750.1201171875
 30
0.0
 10
732.16259765625
 20
-748.77587890625
 30
0.0
 10
734.53857421875
 20
-748.404296875
 30
0.0
 10
736.705078125
 20
-748.0556640625
 30
0.0
 10
737.6025390625
 20
-747.91162109375
 30
0.0
 10
738.982421875
 20
-747.2978515625
 30
0.0
 10
739.43701171875
 20
-748.0556640625
 30
0.0
 10
741.25634765625
 20
-751.087890625
 30
0.0
 10
734.9150390625
 20
-753.77978515625
 30
0.0
 10
733.97314453125
 20
-757.16162109375
 30
0.0
 10
733.73779296875
 20
-758.00732421875
 30
0.0
 10
733.97314453125
 20
-758.9150390625
 30
0.0
 10
733.97314453125
 20
-759.79052734375
 30
0.0
 10
733.97314453125
 20
-762.41650390625
 30
0.0
 10
732.04345703125
 20
-765.8193359375
 30
0.0
 10
733.97314453125
 20
-767.67626953125
 30
0.0
 10
735.9033203125
 20
-769.533203125
 30
0.0
 10
739.8056640625
 20
-768.9892578125
 30
0.0
 10
742.1689453125
 20
-767.67626953125
 30
0.0
 10
745.3203125
 20
-765.92578125
 30
0.0
 10
745.49853515625
 20
-761.40625
 30
0.0
 10
747.6328125
 20
-758.5703125
 30
0.0
 10
749.6201171875
 20
-755.92919921875
 30
0.0
 10
751.8583984375
 20
-753.4091796875
 30
0.0
 10
754.4189453125
 20
-751.2724609375
 30
0.0
 10
757.3154296875
 20
-748.85498046875
 30
0.0
 10
761.6630859375
 20
-748.05224609375
 30
0.0
 10
763.99951171875
 20
-745.12646484375
 30
0.0
 10
766.65185546875
 20
-741.8046875
 30
0.0
 10
765.9052734375
 20
-736.7724609375
 30
0.0
 10
768.205078125
 20
-733.21533203125
 30
0.0
 10
770.126953125
 20
-730.2421875
 30
0.0
 10
773.716796875
 20
-728.55810546875
 30
0.0
 10
775.931640625
 20
-725.7802734375
 30
0.0
 10
778.70068359375
 20
-722.30810546875
 30
0.0
 10
785.38623046875
 20
-717.97216796875
 30
0.0
 10
782.76123046875
 20
-714.39794921875
 30
0.0
 10
780.65478515625
 20
-711.529296875
 30
0.0
 10
775.45556640625
 20
-715.23583984375
 30
0.0
 10
771.9833984375
 20
-716.318359375
 30
0.0
 10
767.63671875
 20
-717.67333984375
 30
0.0
 10
763.8779296875
 20
-720.46435546875
 30
0.0
 10
759.59033203125
 20
-721.982421875
 30
0.0
 10
754.46826171875
 20
-723.79638671875
 30
0.0
 10
748.08837890625
 20
-729.26171875
 30
0.0
 10
743.7578125
 20
-726.06494140625
 30
0.0
 10
742.314453125
 20
-724.9990234375
 30
0.0
 10
742.84814453125
 20
-722.32373046875
 30
0.0
 10
743.7578125
 20
-720.8076171875
 30
0.0
 10
745.5771484375
 20
-717.775390625
 30
0.0
 10
750.02197265625
 20
-717.21826171875
 30
0.0
 10
753.22119140625
 20
-715.55029296875
 30
0.0
 10
762.900390625
 20
-710.5029296875
 30
0.0
 10
771.9951171875
 20
-703.6171875
 30
0.0
 10
782.7021484375
 20
-701.15234375
 30
0.0
 10
791.5498046875
 20
-699.11572265625
 30
0.0
 10
801.00146484375
 20
-700.009765625
 30
0.0
 10
810.0205078125
 20
-701.15234375
 30
0.0
 10
819.94189453125
 20
-702.4091796875
 30
0.0
 10
829.6572265625
 20
-705.30859375
 30
0.0
 10
839.04736328125
 20
-708.63623046875
 30
0.0
 10
849.03662109375
 20
-712.17626953125
 30
0.0
 10
857.53125
 20
-719.59326171875
 30
0.0
 10
867.91552734375
 20
-721.8486328125
 30
0.0
 10
872.35205078125
 20
-722.8125
 30
0.0
 10
877.8564453125
 20
-719.32763671875
 30
0.0
 10
881.57470703125
 20
-721.8486328125
 30
0.0
 10
883.18994140625
 20
-722.94384765625
 30
0.0
 10
882.404296875
 20
-725.69140625
 30
0.0
 10
883.5703125
 20
-727.22607421875
 30
0.0
 10
885.64208984375
 20
-729.9521484375
 30
0.0
 10
889.78515625
 20
-730.716796875
 30
0.0
 10
891.95361328125
 20
-733.3720703125
 30
0.0
 10
893.38818359375
 20
-735.12841796875
 30
0.0
 10
895.3466796875
 20
-737.359375
 30
0.0
 10
894.748046875
 20
-739.517578125
 30
0.0
 10
894.2568359375
 20
-741.2880859375
 30
0.0
 10
892.04931640625
 20
-742.92529296875
 30
0.0
 10
890.150390625
 20
-742.7890625
 30
0.0
 10
887.4287109375
 20
-742.59423828125
 30
0.0
 10
886.87646484375
 20
-738.2177734375
 30
0.0
 10
884.35498046875
 20
-737.212890625
 30
0.0
 10
873.42919921875
 20
-732.8583984375
 30
0.0
 10
860.43115234375
 20
-734.951171875
 30
0.0
 10
848.8408203125
 20
-737.212890625
 30
0.0
 10
845.34033203125
 20
-737.896484375
 30
0.0
 10
840.93505859375
 20
-738.36962890625
 30
0.0
 10
838.9619140625
 20
-741.234375
 30
0.0
 10
837.4541015625
 20
-743.42333984375
 30
0.0
 10
837.0322265625
 20
-747.263671875
 30
0.0
 10
838.9619140625
 20
-749.12060546875
 30
0.0
 10
844.10791015625
 20
-754.072265625
 30
0.0
 10
853.54638671875
 20
-748.80224609375
 30
0.0
 10
860.81689453125
 20
-749.12060546875
 30
0.0
 10
868.37548828125
 20
-749.451171875
 30
0.0
 10
877.658203125
 20
-746.41552734375
 30
0.0
 10
883.4453125
 20
-751.10595703125
 30
0.0
 10
885.53271484375
 20
-752.79736328125
 30
0.0
 10
885.0654296875
 20
-756.1416015625
 30
0.0
 10
885.56640625
 20
-758.72314453125
 30
0.0
 10
887.3837890625
 20
-768.08154296875
 30
0.0
 10
889.0830078125
 20
-777.6318359375
 30
0.0
 10
888.76025390625
 20
-787.1474609375
 30
0.0
 10
888.4990234375
 20
-794.82763671875
 30
0.0
 10
886.87158203125
 20
-802.50341796875
 30
0.0
 10
884.63134765625
 20
-809.87939453125
 30
0.0
 10
883.9521484375
 20
-812.11474609375
 30
0.0
 10
880.48828125
 20
-814.39453125
 30
0.0
 10
881.830078125
 20
-816.33251953125
 30
0.0
 10
884.3515625
 20
-819.97509765625
 30
0.0
 10
891.02099609375
 20
-815.51416015625
 30
0.0
 10
895.4892578125
 20
-816.33251953125
 30
0.0
 10
896.88330078125
 20
-816.587890625
 30
0.0
 10
899.1650390625
 20
-816.501953125
 30
0.0
 10
899.45361328125
 20
-817.8388671875
 30
0.0
 10
899.8232421875
 20
-819.55322265625
 30
0.0
 10
897.27099609375
 20
-820.88671875
 30
0.0
 10
895.58984375
 20
-821.556640625
 30
0.0
 10
887.185546875
 20
-824.90625
 30
0.0
 10
877.36865234375
 20
-821.556640625
 30
0.0
 10
868.271484375
 20
-821.556640625
 30
0.0
 10
863.72265625
 20
-821.556640625
 30
0.0
 10
859.10205078125
 20
-820.85546875
 30
0.0
 10
854.6123046875
 20
-821.556640625
 30
0.0
 10
851.29248046875
 20
-822.07470703125
 30
0.0
 10
847.822265625
 20
-822.82373046875
 30
0.0
 10
845.03173828125
 20
-824.62939453125
 30
0.0
 10
844.2177734375
 20
-825.15576171875
 30
0.0
 10
842.9912109375
 20
-825.8447265625
 30
0.0
 10
843.115234375
 20
-826.7802734375
 30
0.0
 10
843.52001953125
 20
-829.83251953125
 30
0.0
 10
847.9443359375
 20
-831.13916015625
 30
0.0
 10
850.9951171875
 20
-832.060546875
 30
0.0
 10
855.3349609375
 20
-833.37158203125
 30
0.0
 10
860.71533203125
 20
-829.8720703125
 30
0.0
 10
864.654296875
 20
-832.060546875
 30
0.0
 10
866.22998046875
 20
-832.93603515625
 30
0.0
 10
867.73095703125
 20
-834.89453125
 30
0.0
 10
867.38623046875
 20
-836.61376953125
 30
0.0
 10
867.02734375
 20
-838.40234375
 30
0.0
 10
864.3896484375
 20
-838.8505859375
 30
0.0
 10
862.9150390625
 20
-839.99365234375
 30
0.0
 10
858.2275390625
 20
-843.62939453125
 30
0.0
 10
854.3310546875
 20
-848.42236328125
 30
0.0
 10
848.98046875
 20
-851.07861328125
 30
0.0
 10
841.70458984375
 20
-854.69091796875
 30
0.0
 10
833.39599609375
 20
-856.61279296875
 30
0.0
 10
825.2314453125
 20
-857.20166015625
 30
0.0
 10
819.38623046875
 20
-857.62353515625
 30
0.0
 10
813.30712890625
 20
-857.0693359375
 30
0.0
 10
807.7392578125
 20
-855.30615234375
 30
0.0
 10
805.146484375
 20
-854.4853515625
 30
0.0
 10
802.2412109375
 20
-853.49072265625
 30
0.0
 10
800.6416015625
 20
-851.36328125
 30
0.0
 10
798.80859375
 20
-848.92578125
 30
0.0
 10
799.0458984375
 20
-845.51171875
 30
0.0
 10
798.7255859375
 20
-842.51904296875
 30
0.0
 10
798.35205078125
 20
-839.0361328125
 30
0.0
 10
799.41357421875
 20
-835.4423828125
 30
0.0
 10
798.7255859375
 20
-832.00439453125
 30
0.0
 10
798.400390625
 20
-830.380859375
 30
0.0
 10
797.83642578125
 20
-828.72021484375
 30
0.0
 10
796.8095703125
 20
-827.39501953125
 30
0.0
 10
794.9853515625
 20
-825.0419921875
 30
0.0
 10
792.626953125
 20
-823.1845703125
 30
0.0
 10
789.73583984375
 20
-821.82568359375
 30
0.0
  0
SPLINE
  5
152
330
1F
100
AcDbEntity
  8
LAYER_1
 62
   250
100
AcDbSpline
210
0.0
220
0.0
230
1.0
 70
    11
 71
     3
 72
    32
 73
    28
 74
     0
 42
0.0000000001
 43
0.0000000001
 40
0.0
 40
0.0
 40
0.0
 40
0.0
 40
1.0
 40
1.0
 40
1.0
 40
2.0
 40
2.0
 40
2.0
 40
3.0
 40
3.0
 40
3.0
 40
4.0
 40
4.0
 40
4.0
 40
5.0
 40
5.0
 40
5.0
 40
6.0
 40
6.0
 40
6.0
 40
7.0
 40
7.0
 40
7.0
 40
8.0
 40
8.0
 40
8.0
 40
9.0
 40
9.0
 40
9.0
 40
9.0
 10
735.5029296875
 20
-469.6259765625
 30
0.0
 10
737.259765625
 20
-469.625
 30
0.0
 10
739.015625
 20
-469.625
 30
0.0
 10
740.7705078125
 20
-469.625
 30
0.0
 10
743.49951171875
 20
-469.625
 30
0.0
 10
746.2880859375
 20
-470.13330078125
 30
0.0
 10
748.9658203125
 20
-469.625
 30
0.0
 10
750.5654296875
 20
-469.32177734375
 30
0.0
 10
752.6591796875
 20
-469.18310546875
 30
0.0
 10
753.49609375
 20
-467.83642578125
 30
0.0
 10
753.8759765625
 20
-467.2255859375
 30
0.0
 10
753.29443359375
 20
-466.4208984375
 30
0.0
 10
753.2666015625
 20
-465.708984375
 30
0.0
 10
753.26611328125
 20
-465.68701171875
 30
0.0
 10
753.26806640625
 20
-465.6650390625
 30
0.0
 10
753.2685546875
 20
-465.642578125
 30
0.0
 10
751.44482421875
 20
-463.3466796875
 30
0.0
 10
749.23046875
 20
-461.7900390625
 30
0.0
 10
746.62646484375
 20
-460.9716796875
 30
0.0
 10
743.1669921875
 20
-459.88525390625
 30
0.0
 10
738.27197265625
 20
-458.49609375
 30
0.0
 10
735.69873046875
 20
-460.9716796875
 30
0.0
 10
733.76904296875
 20
-462.82861328125
 30
0.0
 10
736.2431640625
 20
-466.28466796875
 30
0.0
 10
735.69873046875
 20
-468.85791015625
 30
0.0
 10
735.64404296875
 20
-469.1171875
 30
0.0
 10
735.578125
 20
-469.37353515625
 30
0.0
 10
735.5029296875
 20
-469.6259765625
 30
0.0
  0
SPLINE
  5
153
330
1F
100
AcDbEntity
  8
LAYER_1
 62
   250
100
AcDbSpline
210
0.0
220
0.0
230
1.0
 70
    11
 71
     3
 72
   173
 73
   169
 74
     0
 42
0.0000000001
 43
0.0000000001
 40
0.0
 40
0.0
 40
0.0
 40
0.0
 40
1.0
 40
1.0
 40
1.0
 40
2.0
 40
2.0
 40
2.0
 40
3.0
 40
3.0
 40
3.0
 40
4.0
 40
4.0
 40
4.0
 40
5.0
 40
5.0
 40
5.0
 40
6.0
 40
6.0
 40
6.0
 40
7.0
 40
7.0
 40
7.0
 40
8.0
 40
8.0
 40
8.0
 40
9.0
 40
9.0
 40
9.0
 40
10.0
 40
10.0
 40
10.0
 40
11.0
 40
11.0
 40
11.0
 40
12.0
 40
12.0
 40
12.0
 40
13.0
 40
13.0
 40
13.0
 40
14.0
 40
14.0
 40
14.0
 40
15.0
 40
15.0
 40
15.0
 40
16.0
 40
16.0
 40
16.0
 40
17.0
 40
17.0
 40
17.0
 40
18.0
 40
18.0
 40
18.0
 40
19.0
 40
19.0
 40
19.0
 40
20.0
 40
20.0
 40
20.0
 40
21.0
 40
21.0
 40
21.0
 40
22.0
 40
22.0
 40
22.0
 40
23.0
 40
23.0
 40
23.0
 40
24.0
 40
24.0
 40
24.0
 40
25.0
 40
25.0
 40
25.0
 40
26.0
 40
26.0
 40
26.0
 40
27.0
 40
27.0
 40
27.0
 40
28.0
 40
28.0
 40
28.0
 40
29.0
 40
29.0
 40
29.0
 40
30.0
 40
30.0
 40
30.0
 40
31.0
 40
31.0
 40
31.0
 40
32.0
 40
32.0
 40
32.0
 40
33.0
 40
33.0
 40
33.0
 40
34.0
 40
34.0
 40
34.0
 40
35.0
 40
35.0
 40
35.0
 40
36.0
 40
36.0
 40
36.0
 40
37.0
 40
37.0
 40
37.0
 40
38.0
 40
38.0
 40
38.0
 40
39.0
 40
39.0
 40
39.0
 40
40.0
 40
40.0
 40
40.0
 40
41.0
 40
41.0
 40
41.0
 40
42.0
 40
42.0
 40
42.0
 40
43.0
 40
43.0
 40
43.0
 40
44.0
 40
44.0
 40
44.0
 40
45.0
 40
45.0
 40
45.0
 40
46.0
 40
46.0
 40
46.0
 40
47.0
 40
47.0
 40
47.0
 40
48.0
 40
48.0
 40
48.0
 40
49.0
 40
49.0
 40
49.0
 40
50.0
 40
50.0
 40
50.0
 40
51.0
 40
51.0
 40
51.0
 40
52.0
 40
52.0
 40
52.0
 40
53.0
 40
53.0
 40
53.0
 40
54.0
 40
54.0
 40
54.0
 40
55.0
 40
55.0
 40
55.0
 40
56.0
 40
56.0
 40
56.0
 40
56.0
 10
636.71875
 20
-511.0908203125
 30
0.0
 10
636.71875
 20
-511.0908203125
 30
0.0
 10
717.61474609375
 20
-511.087890625
 30
0.0
 10
717.61474609375
 20
-511.087890625
 30
0.0
 10
717.4580078125
 20
-508.064453125
 30
0.0
 10
717.5859375
 20
-505.06103515625
 30
0.0
 10
717.994140625
 20
-502.0771484375
 30
0.0
 10
718.35009765625
 20
-499.4736328125
 30
0.0
 10
720.203125
 20
-497.0849609375
 30
0.0
 10
720.115234375
 20
-494.4599609375
 30
0.0
 10
720.04443359375
 20
-492.33984375
 30
0.0
 10
719.66650390625
 20
-489.8076171875
 30
0.0
 10
717.994140625
 20
-488.42529296875
 30
0.0
 10
715.765625
 20
-486.58349609375
 30
0.0
 10
711.8486328125
 20
-488.36767578125
 30
0.0
 10
709.3076171875
 20
-486.9501953125
 30
0.0
 10
707.00830078125
 20
-485.66748046875
 30
0.0
 10
704.42529296875
 20
-483.59814453125
 30
0.0
 10
704.19775390625
 20
-481.05029296875
 30
0.0
 10
703.96484375
 20
-478.43359375
 30
0.0
 10
705.93212890625
 20
-475.53369140625
 30
0.0
 10
708.2958984375
 20
-474.220703125
 30
0.0
 10
711.0927734375
 20
-472.6669921875
 30
0.0
 10
715.3544921875
 20
-476.01123046875
 30
0.0
 10
717.994140625
 20
-474.220703125
 30
0.0
 10
720.8896484375
 20
-472.2568359375
 30
0.0
 10
721.3486328125
 20
-467.98193359375
 30
0.0
 10
721.57080078125
 20
-464.57958984375
 30
0.0
 10
721.9169921875
 20
-459.275390625
 30
0.0
 10
720.841796875
 20
-453.54833984375
 30
0.0
 10
717.994140625
 20
-448.99462890625
 30
0.0
 10
714.396484375
 20
-443.24267578125
 30
0.0
 10
706.267578125
 20
-441.2705078125
 30
0.0
 10
702.03271484375
 20
-435.93505859375
 30
0.0
 10
699.18115234375
 20
-432.34228515625
 30
0.0
 10
696.1640625
 20
-428.16259765625
 30
0.0
 10
696.044921875
 20
-423.6435546875
 30
0.0
 10
695.8662109375
 20
-416.876220703125
 30
0.0
 10
698.18896484375
 20
-408.59765625
 30
0.0
 10
704.0283203125
 20
-404.822021484375
 30
0.0
 10
708.55908203125
 20
-401.89306640625
 30
0.0
 10
714.96142578125
 20
-404.822021484375
 30
0.0
 10
720.419921875
 20
-404.822021484375
 30
0.0
 10
730.4267578125
 20
-404.822021484375
 30
0.0
 10
741.80419921875
 20
-409.636474609375
 30
0.0
 10
750.47021484375
 20
-404.822021484375
 30
0.0
 10
755.197265625
 20
-402.196044921875
 30
0.0
 10
758.666015625
 20
-396.415283203125
 30
0.0
 10
758.666015625
 20
-391.163330078125
 30
0.0
 10
758.666015625
 20
-379.783935546875
 30
0.0
 10
743.9697265625
 20
-372.560791015625
 30
0.0
 10
740.90869140625
 20
-361.569091796875
 30
0.0
 10
739.7314453125
 20
-357.341552734375
 30
0.0
 10
738.51953125
 20
-352.150146484375
 30
0.0
 10
740.90869140625
 20
-348.42578125
 30
0.0
 10
743.3291015625
 20
-344.65283203125
 30
0.0
 10
748.79443359375
 20
-343.4794921875
 30
0.0
 10
753.2783203125
 20
-342.45849609375
 30
0.0
 10
759.4755859375
 20
-341.04736328125
 30
0.0
 10
766.052734375
 20
-342.93603515625
 30
0.0
 10
772.4013671875
 20
-342.45849609375
 30
0.0
 10
780.10009765625
 20
-341.87939453125
 30
0.0
 10
788.94287109375
 20
-343.196533203125
 30
0.0
 10
795.30908203125
 20
-338.9912109375
 30
0.0
 10
799.05908203125
 20
-336.513916015625
 30
0.0
 10
801.544921875
 20
-331.947998046875
 30
0.0
 10
802.138671875
 20
-327.608642578125
 30
0.0
 10
803.20751953125
 20
-319.798095703125
 30
0.0
 10
795.775390625
 20
-312.635009765625
 30
0.0
 10
795.775390625
 20
-304.757080078125
 30
0.0
 10
795.775390625
 20
-302.130859375
 30
0.0
 10
795.845703125
 20
-298.87255859375
 30
0.0
 10
797.896484375
 20
-297.1396484375
 30
0.0
 10
802.81298828125
 20
-292.98583984375
 30
0.0
 10
810.8447265625
 20
-295.06396484375
 30
0.0
 10
817.37353515625
 20
-294.6484375
 30
0.0
 10
823.7275390625
 20
-294.24365234375
 30
0.0
 10
830.279296875
 20
-295.975341796875
 30
0.0
 10
836.49658203125
 20
-294.6484375
 30
0.0
 10
842.1923828125
 20
-293.4326171875
 30
0.0
 10
849.51708984375
 20
-292.4140625
 30
0.0
 10
852.37451171875
 20
-287.519287109375
 30
0.0
 10
855.015625
 20
-282.9951171875
 30
0.0
 10
853.71923828125
 20
-276.25537109375
 30
0.0
 10
850.5859375
 20
-272.031982421875
 30
0.0
 10
847.5791015625
 20
-267.978515625
 30
0.0
 10
841.650390625
 20
-266.394775390625
 30
0.0
 10
836.53466796875
 20
-265.640380859375
 30
0.0
 10
828.5546875
 20
-264.463623046875
 30
0.0
 10
820.5732421875
 20
-268.302734375
 30
0.0
 10
812.51904296875
 20
-268.836181640625
 30
0.0
 10
807.9814453125
 20
-269.13671875
 30
0.0
 10
803.0625
 20
-270.510986328125
 30
0.0
 10
798.85986328125
 20
-268.836181640625
 30
0.0
 10
788.7744140625
 20
-264.81640625
 30
0.0
 10
784.9228515625
 20
-252.119140625
 30
0.0
 10
775.67919921875
 20
-246.53125
 30
0.0
 10
769.1337890625
 20
-242.574462890625
 30
0.0
 10
761.4951171875
 20
-238.99365234375
 30
0.0
 10
753.76708984375
 20
-239.157470703125
 30
0.0
 10
747.5048828125
 20
-239.290283203125
 30
0.0
 10
740.4609375
 20
-241.372314453125
 30
0.0
 10
736.302734375
 20
-245.87939453125
 30
0.0
 10
732.07470703125
 20
-250.46142578125
 30
0.0
 10
729.53515625
 20
-257.780517578125
 30
0.0
 10
731.35302734375
 20
-263.65283203125
 30
0.0
 10
734.33984375
 20
-273.30029296875
 30
0.0
 10
746.2919921875
 20
-277.906005859375
 30
0.0
 10
754.76513671875
 20
-283.81005859375
 30
0.0
 10
759.18603515625
 20
-286.890625
 30
0.0
 10
766.021484375
 20
-287.27001953125
 30
0.0
 10
768.9599609375
 20
-291.696044921875
 30
0.0
 10
773.5029296875
 20
-298.5380859375
 30
0.0
 10
775.1181640625
 20
-308.77294921875
 30
0.0
 10
771.2314453125
 20
-315.979248046875
 30
0.0
 10
767.4599609375
 20
-322.9716796875
 30
0.0
 10
757.5029296875
 20
-324.79345703125
 30
0.0
 10
749.93896484375
 20
-327.80810546875
 30
0.0
 10
738.17236328125
 20
-332.497802734375
 30
0.0
 10
722.001953125
 20
-328.66748046875
 30
0.0
 10
712.99609375
 20
-337.3330078125
 30
0.0
 10
709.13671875
 20
-341.046630859375
 30
0.0
 10
708.39794921875
 20
-347.32666015625
 30
0.0
 10
708.75390625
 20
-352.5673828125
 30
0.0
 10
709.2783203125
 20
-360.29736328125
 30
0.0
 10
718.5224609375
 20
-366.333984375
 30
0.0
 10
717.994140625
 20
-374.0634765625
 30
0.0
 10
717.57568359375
 20
-380.177734375
 30
0.0
 10
713.484375
 20
-386.268798828125
 30
0.0
 10
708.4326171875
 20
-389.998779296875
 30
0.0
 10
704.10205078125
 20
-393.196044921875
 30
0.0
 10
697.32666015625
 20
-391.454833984375
 30
0.0
 10
692.599609375
 20
-394.080810546875
 30
0.0
 10
687.873046875
 20
-396.70703125
 30
0.0
 10
682.6875
 20
-400.235595703125
 30
0.0
 10
681.009765625
 20
-405.2333984375
 30
0.0
 10
679.5771484375
 20
-409.50048828125
 30
0.0
 10
684.67822265625
 20
-414.259521484375
 30
0.0
 10
683.24560546875
 20
-418.52685546875
 30
0.0
 10
681.84765625
 20
-422.69140625
 30
0.0
 10
677.78955078125
 20
-426.1455078125
 30
0.0
 10
673.58740234375
 20
-427.8203125
 30
0.0
 10
668.54443359375
 20
-429.830078125
 30
0.0
 10
662.13671875
 20
-425.58837890625
 30
0.0
 10
657.1962890625
 20
-427.8203125
 30
0.0
 10
652.53515625
 20
-429.92626953125
 30
0.0
 10
648.1533203125
 20
-434.37939453125
 30
0.0
 10
647.31884765625
 20
-439.2685546875
 30
0.0
 10
646.11767578125
 20
-446.30078125
 30
0.0
 10
653.9501953125
 20
-452.23583984375
 30
0.0
 10
655.302734375
 20
-459.2421875
 30
0.0
 10
656.1328125
 20
-463.54541015625
 30
0.0
 10
657.57666015625
 20
-468.59521484375
 30
0.0
 10
655.302734375
 20
-472.3857421875
 30
0.0
 10
651.66357421875
 20
-478.4501953125
 30
0.0
 10
641.521484375
 20
-477.9482421875
 30
0.0
 10
636.37548828125
 20
-482.900390625
 30
0.0
 10
633.1591796875
 20
-485.9951171875
 30
0.0
 10
628.751953125
 20
-489.97314453125
 30
0.0
 10
629.5458984375
 20
-494.28271484375
 30
0.0
 10
630.05078125
 20
-497.02490234375
 30
0.0
 10
634.45458984375
 20
-497.43603515625
 30
0.0
 10
636.2138671875
 20
-499.6474609375
 30
0.0
 10
637.66015625
 20
-501.46484375
 30
0.0
 10
639.31640625
 20
-503.60205078125
 30
0.0
 10
639.2080078125
 20
-505.88916015625
 30
0.0
 10
639.11572265625
 20
-507.8291015625
 30
0.0
 10
638.0048828125
 20
-509.48583984375
 30
0.0
 10
636.71875
 20
-511.0908203125
 30
0.0
  0
SPLINE
  5
154
330
1F
100
AcDbEntity
  8
LAYER_1
 62
   250
100
AcDbSpline
210
0.0
220
0.0
230
1.0
 70
    11
 71
     3
 72
   224
 73
   220
 74
     0
 42
0.0000000001
 43
0.0000000001
 40
0.0
 40
0.0
 40
0.0
 40
0.0
 40
1.0
 40
1.0
 40
1.0
 40
2.0
 40
2.0
 40
2.0
 40
3.0
 40
3.0
 40
3.0
 40
4.0
 40
4.0
 40
4.0
 40
5.0
 40
5.0
 40
5.0
 40
6.0
 40
6.0
 40
6.0
 40
7.0
 40
7.0
 40
7.0
 40
8.0
 40
8.0
 40
8.0
 40
9.0
 40
9.0
 40
9.0
 40
10.0
 40
10.0
 40
10.0
 40
11.0
 40
11.0
 40
11.0
 40
12.0
 40
12.0
 40
12.0
 40
13.0
 40
13.0
 40
13.0
 40
14.0
 40
14.0
 40
14.0
 40
15.0
 40
15.0
 40
15.0
 40
16.0
 40
16.0
 40
16.0
 40
17.0
 40
17.0
 40
17.0
 40
18.0
 40
18.0
 40
18.0
 40
19.0
 40
19.0
 40
19.0
 40
20.0
 40
20.0
 40
20.0
 40
21.0
 40
21.0
 40
21.0
 40
22.0
 40
22.0
 40
22.0
 40
23.0
 40
23.0
 40
23.0
 40
24.0
 40
24.0
 40
24.0
 40
25.0
 40
25.0
 40
25.0
 40
26.0
 40
26.0
 40
26.0
 40
27.0
 40
27.0
 40
27.0
 40
28.0
 40
28.0
 40
28.0
 40
29.0
 40
29.0
 40
29.0
 40
30.0
 40
30.0
 40
30.0
 40
31.0
 40
31.0
 40
31.0
 40
32.0
 40
32.0
 40
32.0
 40
33.0
 40
33.0
 40
33.0
 40
34.0
 40
34.0
 40
34.0
 40
35.0
 40
35.0
 40
35.0
 40
36.0
 40
36.0
 40
36.0
 40
37.0
 40
37.0
 40
37.0
 40
38.0
 40
38.0
 40
38.0
 40
39.0
 40
39.0
 40
39.0
 40
40.0
 40
40.0
 40
40.0
 40
41.0
 40
41.0
 40
41.0
 40
42.0
 40
42.0
 40
42.0
 40
43.0
 40
43.0
 40
43.0
 40
44.0
 40
44.0
 40
44.0
 40
45.0
 40
45.0
 40
45.0
 40
46.0
 40
46.0
 40
46.0
 40
47.0
 40
47.0
 40
47.0
 40
48.0
 40
48.0
 40
48.0
 40
49.0
 40
49.0
 40
49.0
 40
50.0
 40
50.0
 40
50.0
 40
51.0
 40
51.0
 40
51.0
 40
52.0
 40
52.0
 40
52.0
 40
53.0
 40
53.0
 40
53.0
 40
54.0
 40
54.0
 40
54.0
 40
55.0
 40
55.0
 40
55.0
 40
56.0
 40
56.0
 40
56.0
 40
57.0
 40
57.0
 40
57.0
 40
58.0
 40
58.0
 40
58.0
 40
59.0
 40
59.0
 40
59.0
 40
60.0
 40
60.0
 40
60.0
 40
61.0
 40
61.0
 40
61.0
 40
62.0
 40
62.0
 40
62.0
 40
63.0
 40
63.0
 40
63.0
 40
64.0
 40
64.0
 40
64.0
 40
65.0
 40
65.0
 40
65.0
 40
66.0
 40
66.0
 40
66.0
 40
67.0
 40
67.0
 40
67.0
 40
68.0
 40
68.0
 40
68.0
 40
69.0
 40
69.0
 40
69.0
 40
70.0
 40
70.0
 40
70.0
 40
71.0
 40
71.0
 40
71.0
 40
72.0
 40
72.0
 40
72.0
 40
73.0
 40
73.0
 40
73.0
 40
73.0
 10
579.767578125
 20
-511.08740234375
 30
0.0
 10
580.22900390625
 20
-509.7490234375
 30
0.0
 10
580.79443359375
 20
-508.48876953125
 30
0.0
 10
581.88037109375
 20
-507.61279296875
 30
0.0
 10
583.9716796875
 20
-505.92578125
 30
0.0
 10
587.1376953125
 20
-506.1630859375
 30
0.0
 10
589.796875
 20
-505.57177734375
 30
0.0
 10
593.95849609375
 20
-504.646484375
 30
0.0
 10
598.4970703125
 20
-504.90966796875
 30
0.0
 10
602.38671875
 20
-503.2119140625
 30
0.0
 10
605.03759765625
 20
-502.05517578125
 30
0.0
 10
609.11279296875
 20
-500.85546875
 30
0.0
 10
609.2958984375
 20
-498.060546875
 30
0.0
 10
609.525390625
 20
-494.56591796875
 30
0.0
 10
604.63671875
 20
-492.5087890625
 30
0.0
 10
601.5693359375
 20
-490.62548828125
 30
0.0
 10
597.6416015625
 20
-488.2138671875
 30
0.0
 10
592.35546875
 20
-488.41552734375
 30
0.0
 10
588.427734375
 20
-486.00439453125
 30
0.0
 10
586.89404296875
 20
-485.0625
 30
0.0
 10
584.966796875
 20
-483.994140625
 30
0.0
 10
584.564453125
 20
-482.28662109375
 30
0.0
 10
583.69580078125
 20
-478.6025390625
 30
0.0
 10
586.11962890625
 20
-474.60107421875
 30
0.0
 10
588.48876953125
 20
-471.58837890625
 30
0.0
 10
590.53955078125
 20
-468.97998046875
 30
0.0
 10
593.62109375
 20
-467.009765625
 30
0.0
 10
596.82763671875
 20
-465.92431640625
 30
0.0
 10
603.9970703125
 20
-463.498046875
 30
0.0
 10
612.1064453125
 20
-465.74658203125
 30
0.0
 10
619.60693359375
 20
-464.568359375
 30
0.0
 10
623.1982421875
 20
-464.00439453125
 30
0.0
 10
627.275390625
 20
-463.978515625
 30
0.0
 10
630.162109375
 20
-461.84716796875
 30
0.0
 10
633.048828125
 20
-459.7158203125
 30
0.0
 10
635.6259765625
 20
-456.24267578125
 30
0.0
 10
635.6259765625
 20
-452.7412109375
 30
0.0
 10
635.6259765625
 20
-444.86328125
 30
0.0
 10
625.73828125
 20
-439.783203125
 30
0.0
 10
623.33251953125
 20
-432.2529296875
 30
0.0
 10
621.62060546875
 20
-426.89453125
 30
0.0
 10
619.548828125
 20
-420.5224609375
 30
0.0
 10
622.05810546875
 20
-415.462890625
 30
0.0
 10
625.0927734375
 20
-409.34423828125
 30
0.0
 10
633.4833984375
 20
-407.475830078125
 30
0.0
 10
639.4326171875
 20
-403.843017578125
 30
0.0
 10
644.80908203125
 20
-400.559814453125
 30
0.0
 10
650.478515625
 20
-397.70654296875
 30
0.0
 10
655.99365234375
 20
-394.642822265625
 30
0.0
 10
661.50830078125
 20
-391.5791015625
 30
0.0
 10
669.37060546875
 20
-390.7490234375
 30
0.0
 10
672.5546875
 20
-385.4423828125
 30
0.0
 10
675.28369140625
 20
-380.89404296875
 30
0.0
 10
674.6435546875
 20
-374.52294921875
 30
0.0
 10
672.5546875
 20
-369.670654296875
 30
0.0
 10
670.81396484375
 20
-365.626953125
 30
0.0
 10
664.94873046875
 20
-364.282470703125
 30
0.0
 10
662.89599609375
 20
-360.376953125
 30
0.0
 10
660.1044921875
 20
-355.06591796875
 30
0.0
 10
659.54541015625
 20
-348.63525390625
 30
0.0
 10
660.1015625
 20
-342.7080078125
 30
0.0
 10
660.50634765625
 20
-338.397216796875
 30
0.0
 10
661.74560546875
 20
-333.84375
 30
0.0
 10
664.49267578125
 20
-330.41650390625
 30
0.0
 10
666.83447265625
 20
-327.494873046875
 30
0.0
 10
670.52197265625
 20
-325.661865234375
 30
0.0
 10
674.0732421875
 20
-324.2705078125
 30
0.0
 10
682.08984375
 20
-321.1298828125
 30
0.0
 10
692.32568359375
 20
-324.142822265625
 30
0.0
 10
699.62158203125
 20
-319.661376953125
 30
0.0
 10
705.0087890625
 20
-316.352294921875
 30
0.0
 10
709.63232421875
 20
-310.680419921875
 30
0.0
 10
710.7705078125
 20
-304.62890625
 30
0.0
 10
711.904296875
 20
-298.599609375
 30
0.0
 10
709.0048828125
 20
-292.161865234375
 30
0.0
 10
705.82080078125
 20
-286.85546875
 30
0.0
 10
702.63671875
 20
-281.549072265625
 30
0.0
 10
697.6220703125
 20
-277.20703125
 30
0.0
 10
692.298828125
 20
-273.84423828125
 30
0.0
 10
682.263671875
 20
-267.5048828125
 30
0.0
 10
668.14501953125
 20
-268.3095703125
 30
0.0
 10
658.77294921875
 20
-261.0908203125
 30
0.0
 10
652.6455078125
 20
-256.37060546875
 30
0.0
 10
649.4033203125
 20
-248.898193359375
 30
0.0
 10
645.5185546875
 20
-242.33544921875
 30
0.0
 10
640.9775390625
 20
-234.66357421875
 30
0.0
 10
632.6533203125
 20
-227.08544921875
 30
0.0
 10
633.82373046875
 20
-218.32861328125
 30
0.0
 10
635.37451171875
 20
-206.723388671875
 30
0.0
 10
646.1728515625
 20
-196.287109375
 30
0.0
 10
657.18359375
 20
-191.32080078125
 30
0.0
 10
665.42041015625
 20
-187.60546875
 30
0.0
 10
675.865234375
 20
-188.57177734375
 30
0.0
 10
684.501953125
 20
-191.32080078125
 30
0.0
 10
695.24951171875
 20
-194.74169921875
 30
0.0
 10
703.837890625
 20
-203.074951171875
 30
0.0
 10
711.79052734375
 20
-210.826416015625
 30
0.0
 10
715.451171875
 20
-214.39453125
 30
0.0
 10
715.86328125
 20
-221.9794921875
 30
0.0
 10
720.95849609375
 20
-223.027587890625
 30
0.0
 10
727.18603515625
 20
-224.308349609375
 30
0.0
 10
731.904296875
 20
-216.716796875
 30
0.0
 10
737.51953125
 20
-213.8271484375
 30
0.0
 10
745.92626953125
 20
-209.501220703125
 30
0.0
 10
753.70263671875
 20
-202.53369140625
 30
0.0
 10
763.189453125
 20
-201.632568359375
 30
0.0
 10
770.43212890625
 20
-200.944580078125
 30
0.0
 10
778.2265625
 20
-203.216796875
 30
0.0
 10
784.2998046875
 20
-207.075439453125
 30
0.0
 10
788.16015625
 20
-209.52783203125
 30
0.0
 10
788.50390625
 20
-219.043701171875
 30
0.0
 10
792.8759765625
 20
-217.58984375
 30
0.0
 10
796.3154296875
 20
-216.4462890625
 30
0.0
 10
793.65234375
 20
-210.49609375
 30
0.0
 10
792.8759765625
 20
-207.075439453125
 30
0.0
 10
791.20947265625
 20
-199.728271484375
 30
0.0
 10
789.06787109375
 20
-191.399169921875
 30
0.0
 10
783.09716796875
 20
-186.546630859375
 30
0.0
 10
777.53759765625
 20
-182.02783203125
 30
0.0
 10
769.20263671875
 20
-182.017822265625
 30
0.0
 10
761.9873046875
 20
-181.103759765625
 30
0.0
 10
755.673828125
 20
-180.303955078125
 30
0.0
 10
749.177734375
 20
-180.303955078125
 30
0.0
 10
742.8642578125
 20
-181.103759765625
 30
0.0
 10
732.041015625
 20
-182.474853515625
 30
0.0
 10
722.02197265625
 20
-190.638916015625
 30
0.0
 10
711.19873046875
 20
-189.26806640625
 30
0.0
 10
704.88525390625
 20
-188.46826171875
 30
0.0
 10
699.9541015625
 20
-183.440673828125
 30
0.0
 10
694.6376953125
 20
-180.067626953125
 30
0.0
 10
685.591796875
 20
-174.328125
 30
0.0
 10
678.8642578125
 20
-164.603271484375
 30
0.0
 10
668.58251953125
 20
-161.312255859375
 30
0.0
 10
650.455078125
 20
-155.510009765625
 30
0.0
 10
629.140625
 20
-154.961181640625
 30
0.0
 10
611.21337890625
 20
-161.312255859375
 30
0.0
 10
593.93017578125
 20
-167.435302734375
 30
0.0
 10
579.9638671875
 20
-181.504150390625
 30
0.0
 10
569.111328125
 20
-195.822265625
 30
0.0
 10
561.3017578125
 20
-206.125244140625
 30
0.0
 10
556.3955078125
 20
-218.6630859375
 30
0.0
 10
553.79443359375
 20
-231.167236328125
 30
0.0
 10
552.544921875
 20
-237.175537109375
 30
0.0
 10
551.357421875
 20
-243.906982421875
 30
0.0
 10
553.79443359375
 20
-249.56787109375
 30
0.0
 10
556.927734375
 20
-256.84619140625
 30
0.0
 10
563.52587890625
 20
-263.5
 30
0.0
 10
571.18017578125
 20
-266.29638671875
 30
0.0
 10
579.52099609375
 20
-269.343994140625
 30
0.0
 10
589.02197265625
 20
-264.20849609375
 30
0.0
 10
597.92578125
 20
-264.760009765625
 30
0.0
 10
606.43359375
 20
-265.287109375
 30
0.0
 10
615.98193359375
 20
-264.818603515625
 30
0.0
 10
623.07470703125
 20
-269.369384765625
 30
0.0
 10
629.64453125
 20
-273.58447265625
 30
0.0
 10
635.89208984375
 20
-280.82470703125
 30
0.0
 10
636.1259765625
 20
-288.41943359375
 30
0.0
 10
636.28759765625
 20
-293.6689453125
 30
0.0
 10
631.7900390625
 20
-298.364501953125
 30
0.0
 10
627.9306640625
 20
-302.078125
 30
0.0
 10
622.7841796875
 20
-307.02978515625
 30
0.0
 10
613.43408203125
 20
-307.037109375
 30
0.0
 10
609.00341796875
 20
-312.5927734375
 30
0.0
 10
605.6806640625
 20
-316.759521484375
 30
0.0
 10
602.67236328125
 20
-322.97509765625
 30
0.0
 10
604.76123046875
 20
-327.8271484375
 30
0.0
 10
607.54638671875
 20
-334.296875
 30
0.0
 10
616.96435546875
 20
-335.662109375
 30
0.0
 10
623.68798828125
 20
-338.341796875
 30
0.0
 10
630.412109375
 20
-341.021728515625
 30
0.0
 10
639.65234375
 20
-338.8330078125
 30
0.0
 10
644.79833984375
 20
-343.78466796875
 30
0.0
 10
648.65771484375
 20
-347.498291015625
 30
0.0
 10
649.7529296875
 20
-353.81201171875
 30
0.0
 10
649.04052734375
 20
-359.01904296875
 30
0.0
 10
648.56591796875
 20
-362.490478515625
 30
0.0
 10
646.14990234375
 20
-365.649169921875
 30
0.0
 10
643.5771484375
 20
-368.125
 30
0.0
 10
631.35498046875
 20
-379.88525390625
 30
0.0
 10
609.14794921875
 20
-379.902587890625
 30
0.0
 10
598.62548828125
 20
-393.09716796875
 30
0.0
 10
596.41064453125
 20
-395.875
 30
0.0
 10
595.322265625
 20
-399.781982421875
 30
0.0
 10
595.79736328125
 20
-403.25341796875
 30
0.0
 10
596.7470703125
 20
-410.1962890625
 30
0.0
 10
606.0556640625
 20
-414.4921875
 30
0.0
 10
606.724609375
 20
-421.46533203125
 30
0.0
 10
607.25
 20
-426.93798828125
 30
0.0
 10
605.20703125
 20
-433.2958984375
 30
0.0
 10
601.0146484375
 20
-437.0283203125
 30
0.0
 10
595.6728515625
 20
-441.7841796875
 30
0.0
 10
587.0888671875
 20
-441.3564453125
 30
0.0
 10
579.904296875
 20
-442.47119140625
 30
0.0
 10
565.7314453125
 20
-444.669921875
 30
0.0
 10
550.35302734375
 20
-440.138671875
 30
0.0
 10
536.86669921875
 20
-444.8720703125
 30
0.0
 10
529.34912109375
 20
-447.51025390625
 30
0.0
 10
521.8876953125
 20
-452.19921875
 30
0.0
 10
517.61474609375
 20
-458.70947265625
 30
0.0
 10
514.7685546875
 20
-463.0458984375
 30
0.0
 10
512.931640625
 20
-468.90380859375
 30
0.0
 10
514.4765625
 20
-473.8125
 30
0.0
 10
516.05810546875
 20
-478.8388671875
 30
0.0
 10
521.18701171875
 20
-482.611328125
 30
0.0
 10
526.06640625
 20
-484.96484375
 30
0.0
 10
533.36767578125
 20
-488.4853515625
 30
0.0
 10
542.7509765625
 20
-485.43603515625
 30
0.0
 10
550.33740234375
 20
-488.3447265625
 30
0.0
 10
554.44873046875
 20
-489.92138671875
 30
0.0
 10
558.37744140625
 20
-492.435546875
 30
0.0
 10
561.1953125
 20
-495.7197265625
 30
0.0
 10
563.49853515625
 20
-498.40380859375
 30
0.0
 10
565.24755859375
 20
-501.78857421875
 30
0.0
 10
565.66650390625
 20
-505.24560546875
 30
0.0
 10
565.896484375
 20
-507.14453125
 30
0.0
 10
565.84814453125
 20
-509.1533203125
 30
0.0
 10
565.47021484375
 20
-511.087890625
 30
0.0
 10
565.47021484375
 20
-511.087890625
 30
0.0
 10
579.767578125
 20
-511.08740234375
 30
0.0
 10
579.767578125
 20
-511.08740234375
 30
0.0
  0
SPLINE
  5
155
330
1F
100
AcDbEntity
  8
LAYER_1
 62
   250
100
AcDbSpline
210
0.0
220
0.0
230
1.0
 70
    11
 71
     3
 72
    29
 73
    25
 74
     0
 42
0.0000000001
 43
0.0000000001
 40
0.0
 40
0.0
 40
0.0
 40
0.0
 40
1.0
 40
1.0
 40
1.0
 40
2.0
 40
2.0
 40
2.0
 40
3.0
 40
3.0
 40
3.0
 40
4.0
 40
4.0
 40
4.0
 40
5.0
 40
5.0
 40
5.0
 40
6.0
 40
6.0
 40
6.0
 40
7.0
 40
7.0
 40
7.0
 40
8.0
 40
8.0
 40
8.0
 40
8.0
 10
877.1591796875
 20
-230.778564453125
 30
0.0
 10
877.1591796875
 20
-230.778564453125
 30
0.0
 10
877.1591796875
 20
-230.778564453125
 30
0.0
 10
877.1591796875
 20
-230.778564453125
 30
0.0
 10
874.853515625
 20
-232.7197265625
 30
0.0
 10
872.47900390625
 20
-234.553466796875
 30
0.0
 10
869.7578125
 20
-235.8564453125
 30
0.0
 10
860.798828125
 20
-240.14599609375
 30
0.0
 10
850.65234375
 20
-244.59716796875
 30
0.0
 10
840.73095703125
 20
-243.34033203125
 30
0.0
 10
835.3193359375
 20
-242.65478515625
 30
0.0
 10
829.85888671875
 20
-239.62109375
 30
0.0
 10
826.5361328125
 20
-235.454345703125
 30
0.0
 10
821.5517578125
 20
-229.204345703125
 30
0.0
 10
821.9658203125
 20
-220.289306640625
 30
0.0
 10
820.17236328125
 20
-212.6025390625
 30
0.0
 10
818.63671875
 20
-206.019775390625
 30
0.0
 10
817.3125
 20
-199.390625
 30
0.0
 10
816.2060546875
 20
-192.717529296875
 30
0.0
 10
816.2060546875
 20
-192.717529296875
 30
0.0
 10
816.2060546875
 20
-192.717529296875
 30
0.0
 10
816.2060546875
 20
-192.717529296875
 30
0.0
 10
836.39404296875
 20
-205.596435546875
 30
0.0
 10
856.71240234375
 20
-218.283935546875
 30
0.0
 10
877.1591796875
 20
-230.778564453125
 30
0.0
  0
SPLINE
  5
156
330
1F
100
AcDbEntity
  8
LAYER_1
 62
   250
100
AcDbSpline
210
0.0
220
0.0
230
1.0
 70
    11
 71
     3
 72
    23
 73
    19
 74
     0
 42
0.0000000001
 43
0.0000000001
 40
0.0
 40
0.0
 40
0.0
 40
0.0
 40
1.0
 40
1.0
 40
1.0
 40
2.0
 40
2.0
 40
2.0
 40
3.0
 40
3.0
 40
3.0
 40
4.0
 40
4.0
 40
4.0
 40
5.0
 40
5.0
 40
5.0
 40
6.0
 40
6.0
 40
6.0
 40
6.0
 10
679.08642578125
 20
-146.901123046875
 30
0.0
 10
684.95458984375
 20
-151.216552734375
 30
0.0
 10
691.22705078125
 20
-154.8125
 30
0.0
 10
697.90185546875
 20
-157.69140625
 30
0.0
 10
702.052734375
 20
-159.4814453125
 30
0.0
 10
706.54736328125
 20
-161.093017578125
 30
0.0
 10
711.095703125
 20
-161.093017578125
 30
0.0
 10
715.64453125
 20
-161.093017578125
 30
0.0
 10
719.77978515625
 20
-158.2626953125
 30
0.0
 10
724.28955078125
 20
-157.69140625
 30
0.0
 10
725.19140625
 20
-157.5771484375
 30
0.0
 10
726.16259765625
 20
-157.9794921875
 30
0.0
 10
727.021484375
 20
-157.69140625
 30
0.0
 10
727.1650390625
 20
-157.64306640625
 30
0.0
 10
727.30712890625
 20
-157.59130859375
 30
0.0
 10
727.44921875
 20
-157.529052734375
 30
0.0
 10
711.626953125
 20
-153.11279296875
 30
0.0
 10
695.49169921875
 20
-149.555908203125
 30
0.0
 10
679.08642578125
 20
-146.901123046875
 30
0.0
  0
SPLINE
  5
157
330
1F
100
AcDbEntity
  8
LAYER_1
 62
   250
100
AcDbSpline
210
0.0
220
0.0
230
1.0
 70
    11
 71
     3
 72
   326
 73
   322
 74
     0
 42
0.0000000001
 43
0.0000000001
 40
0.0
 40
0.0
 40
0.0
 40
0.0
 40
1.0
 40
1.0
 40
1.0
 40
2.0
 40
2.0
 40
2.0
 40
3.0
 40
3.0
 40
3.0
 40
4.0
 40
4.0
 40
4.0
 40
5.0
 40
5.0
 40
5.0
 40
6.0
 40
6.0
 40
6.0
 40
7.0
 40
7.0
 40
7.0
 40
8.0
 40
8.0
 40
8.0
 40
9.0
 40
9.0
 40
9.0
 40
10.0
 40
10.0
 40
10.0
 40
11.0
 40
11.0
 40
11.0
 40
12.0
 40
12.0
 40
12.0
 40
13.0
 40
13.0
 40
13.0
 40
14.0
 40
14.0
 40
14.0
 40
15.0
 40
15.0
 40
15.0
 40
16.0
 40
16.0
 40
16.0
 40
17.0
 40
17.0
 40
17.0
 40
18.0
 40
18.0
 40
18.0
 40
19.0
 40
19.0
 40
19.0
 40
20.0
 40
20.0
 40
20.0
 40
21.0
 40
21.0
 40
21.0
 40
22.0
 40
22.0
 40
22.0
 40
23.0
 40
23.0
 40
23.0
 40
24.0
 40
24.0
 40
24.0
 40
25.0
 40
25.0
 40
25.0
 40
26.0
 40
26.0
 40
26.0
 40
27.0
 40
27.0
 40
27.0
 40
28.0
 40
28.0
 40
28.0
 40
29.0
 40
29.0
 40
29.0
 40
30.0
 40
30.0
 40
30.0
 40
31.0
 40
31.0
 40
31.0
 40
32.0
 40
32.0
 40
32.0
 40
33.0
 40
33.0
 40
33.0
 40
34.0
 40
34.0
 40
34.0
 40
35.0
 40
35.0
 40
35.0
 40
36.0
 40
36.0
 40
36.0
 40
37.0
 40
37.0
 40
37.0
 40
38.0
 40
38.0
 40
38.0
 40
39.0
 40
39.0
 40
39.0
 40
40.0
 40
40.0
 40
40.0
 40
41.0
 40
41.0
 40
41.0
 40
42.0
 40
42.0
 40
42.0
 40
43.0
 40
43.0
 40
43.0
 40
44.0
 40
44.0
 40
44.0
 40
45.0
 40
45.0
 40
45.0
 40
46.0
 40
46.0
 40
46.0
 40
47.0
 40
47.0
 40
47.0
 40
48.0
 40
48.0
 40
48.0
 40
49.0
 40
49.0
 40
49.0
 40
50.0
 40
50.0
 40
50.0
 40
51.0
 40
51.0
 40
51.0
 40
52.0
 40
52.0
 40
52.0
 40
53.0
 40
53.0
 40
53.0
 40
54.0
 40
54.0
 40
54.0
 40
55.0
 40
55.0
 40
55.0
 40
56.0
 40
56.0
 40
56.0
 40
57.0
 40
57.0
 40
57.0
 40
58.0
 40
58.0
 40
58.0
 40
59.0
 40
59.0
 40
59.0
 40
60.0
 40
60.0
 40
60.0
 40
61.0
 40
61.0
 40
61.0
 40
62.0
 40
62.0
 40
62.0
 40
63.0
 40
63.0
 40
63.0
 40
64.0
 40
64.0
 40
64.0
 40
65.0
 40
65.0
 40
65.0
 40
66.0
 40
66.0
 40
66.0
 40
67.0
 40
67.0
 40
67.0
 40
68.0
 40
68.0
 40
68.0
 40
69.0
 40
69.0
 40
69.0
 40
70.0
 40
70.0
 40
70.0
 40
71.0
 40
71.0
 40
71.0
 40
72.0
 40
72.0
 40
72.0
 40
73.0
 40
73.0
 40
73.0
 40
74.0
 40
74.0
 40
74.0
 40
75.0
 40
75.0
 40
75.0
 40
76.0
 40
76.0
 40
76.0
 40
77.0
 40
77.0
 40
77.0
 40
78.0
 40
78.0
 40
78.0
 40
79.0
 40
79.0
 40
79.0
 40
80.0
 40
80.0
 40
80.0
 40
81.0
 40
81.0
 40
81.0
 40
82.0
 40
82.0
 40
82.0
 40
83.0
 40
83.0
 40
83.0
 40
84.0
 40
84.0
 40
84.0
 40
85.0
 40
85.0
 40
85.0
 40
86.0
 40
86.0
 40
86.0
 40
87.0
 40
87.0
 40
87.0
 40
88.0
 40
88.0
 40
88.0
 40
89.0
 40
89.0
 40
89.0
 40
90.0
 40
90.0
 40
90.0
 40
91.0
 40
91.0
 40
91.0
 40
92.0
 40
92.0
 40
92.0
 40
93.0
 40
93.0
 40
93.0
 40
94.0
 40
94.0
 40
94.0
 40
95.0
 40
95.0
 40
95.0
 40
96.0
 40
96.0
 40
96.0
 40
97.0
 40
97.0
 40
97.0
 40
98.0
 40
98.0
 40
98.0
 40
99.0
 40
99.0
 40
99.0
 40
100.0
 40
100.0
 40
100.0
 40
101.0
 40
101.0
 40
101.0
 40
102.0
 40
102.0
 40
102.0
 40
103.0
 40
103.0
 40
103.0
 40
104.0
 40
104.0
 40
104.0
 40
105.0
 40
105.0
 40
105.0
 40
106.0
 40
106.0
 40
106.0
 40
107.0
 40
107.0
 40
107.0
 40
107.0
 10
529.5654296875
 20
-1049.1337890625
 30
0.0
 10
529.5654296875
 20
-1049.1337890625
 30
0.0
 10
537.7109375
 20
-1054.0166015625
 30
0.0
 10
537.7109375
 20
-1054.0166015625
 30
0.0
 10
540.205078125
 20
-1052.818359375
 30
0.0
 10
542.72509765625
 20
-1051.68603515625
 30
0.0
 10
545.3359375
 20
-1050.7607421875
 30
0.0
 10
547.89697265625
 20
-1049.853515625
 30
0.0
 10
550.58154296875
 20
-1048.1796875
 30
0.0
 10
553.251953125
 20
-1048.7197265625
 30
0.0
 10
559.9462890625
 20
-1050.07373046875
 30
0.0
 10
563.6279296875
 20
-1057.3740234375
 30
0.0
 10
569.27392578125
 20
-1061.08984375
 30
0.0
 10
573.0283203125
 20
-1063.56103515625
 30
0.0
 10
576.59375
 20
-1067.09033203125
 30
0.0
 10
581.103515625
 20
-1067.66162109375
 30
0.0
 10
583.80908203125
 20
-1068.00439453125
 30
0.0
 10
587.26025390625
 20
-1067.6279296875
 30
0.0
 10
589.01953125
 20
-1065.62060546875
 30
0.0
 10
593.494140625
 20
-1060.51416015625
 30
0.0
 10
588.3388671875
 20
-1051.84130859375
 30
0.0
 10
590.935546875
 20
-1045.64697265625
 30
0.0
 10
592.4638671875
 20
-1042.0009765625
 30
0.0
 10
595.06005859375
 20
-1034.46533203125
 30
0.0
 10
598.60009765625
 20
-1036.42822265625
 30
0.0
 10
601.40185546875
 20
-1037.9814453125
 30
0.0
 10
595.2578125
 20
-1042.02978515625
 30
0.0
 10
595.08154296875
 20
-1045.13671875
 30
0.0
 10
594.88330078125
 20
-1048.6328125
 30
0.0
 10
596.517578125
 20
-1052.05810546875
 30
0.0
 10
597.91015625
 20
-1055.29296875
 30
0.0
 10
599.99853515625
 20
-1060.14501953125
 30
0.0
 10
600.69384765625
 20
-1069.63720703125
 30
0.0
 10
606.10546875
 20
-1068.95166015625
 30
0.0
 10
612.4189453125
 20
-1068.15185546875
 30
0.0
 10
609.79345703125
 20
-1057.18408203125
 30
0.0
 10
611.0546875
 20
-1051.17822265625
 30
0.0
 10
611.671875
 20
-1048.24169921875
 30
0.0
 10
609.6318359375
 20
-1043.7568359375
 30
0.0
 10
612.33251953125
 20
-1042.2666015625
 30
0.0
 10
615.2275390625
 20
-1040.6689453125
 30
0.0
 10
619.28955078125
 20
-1043.630859375
 30
0.0
 10
621.59375
 20
-1045.9541015625
 30
0.0
 10
625.4951171875
 20
-1049.88818359375
 30
0.0
 10
628.42919921875
 20
-1055.982421875
 30
0.0
 10
627.341796875
 20
-1061.318359375
 30
0.0
 10
626.24072265625
 20
-1066.72216796875
 30
0.0
 10
620.09619140625
 20
-1069.9228515625
 30
0.0
 10
615.84521484375
 20
-1073.60986328125
 30
0.0
 10
613.19091796875
 20
-1075.912109375
 30
0.0
 10
609.55908203125
 20
-1077.13037109375
 30
0.0
 10
607.1689453125
 20
-1079.6865234375
 30
0.0
 10
605.34375
 20
-1081.638671875
 30
0.0
 10
602.248046875
 20
-1084.01220703125
 30
0.0
 10
603.0712890625
 20
-1086.51611328125
 30
0.0
 10
604.37744140625
 20
-1090.490234375
 30
0.0
 10
610.798828125
 20
-1090.3623046875
 30
0.0
 10
614.87060546875
 20
-1091.7841796875
 30
0.0
 10
618.291015625
 20
-1092.978515625
 30
0.0
 10
621.9775390625
 20
-1093.38720703125
 30
0.0
 10
625.42578125
 20
-1094.505859375
 30
0.0
 10
627.8212890625
 20
-1095.2822265625
 30
0.0
 10
632.16552734375
 20
-1094.8544921875
 30
0.0
 10
632.45166015625
 20
-1097.27099609375
 30
0.0
 10
632.65771484375
 20
-1099.013671875
 30
0.0
 10
628.81884765625
 20
-1098.7529296875
 30
0.0
 10
627.98046875
 20
-1100.310546875
 30
0.0
 10
627.14404296875
 20
-1101.865234375
 30
0.0
 10
627.59033203125
 20
-1103.85791015625
 30
0.0
 10
627.98046875
 20
-1105.56787109375
 30
0.0
 10
628.220703125
 20
-1106.61865234375
 30
0.0
 10
628.5166015625
 20
-1107.6513671875
 30
0.0
 10
628.8681640625
 20
-1108.6650390625
 30
0.0
 10
628.8681640625
 20
-1108.6650390625
 30
0.0
 10
643.1220703125
 20
-1117.2080078125
 30
0.0
 10
643.1220703125
 20
-1117.2080078125
 30
0.0
 10
645.7109375
 20
-1117.65576171875
 30
0.0
 10
648.2978515625
 20
-1118.1044921875
 30
0.0
 10
650.88427734375
 20
-1118.55517578125
 30
0.0
 10
652.681640625
 20
-1118.8681640625
 30
0.0
 10
654.4541015625
 20
-1119.486328125
 30
0.0
 10
656.2802734375
 20
-1119.4990234375
 30
0.0
 10
659.591796875
 20
-1119.5224609375
 30
0.0
 10
663.26416015625
 20
-1119.5869140625
 30
0.0
 10
666.0908203125
 20
-1117.92578125
 30
0.0
 10
668.34912109375
 20
-1116.5986328125
 30
0.0
 10
670.111328125
 20
-1114.23974609375
 30
0.0
 10
670.83251953125
 20
-1111.7900390625
 30
0.0
 10
671.68115234375
 20
-1108.9052734375
 30
0.0
 10
669.43212890625
 20
-1105.7666015625
 30
0.0
 10
670.0146484375
 20
-1102.82177734375
 30
0.0
 10
670.37890625
 20
-1100.98046875
 30
0.0
 10
671.05517578125
 20
-1098.88916015625
 30
0.0
 10
672.630859375
 20
-1097.787109375
 30
0.0
 10
674.66162109375
 20
-1096.3671875
 30
0.0
 10
678.447265625
 20
-1098.5361328125
 30
0.0
 10
680.08447265625
 20
-1096.70556640625
 30
0.0
 10
681.8642578125
 20
-1094.71484375
 30
0.0
 10
678.15478515625
 20
-1090.67626953125
 30
0.0
 10
680.08447265625
 20
-1088.8193359375
 30
0.0
 10
681.37109375
 20
-1087.58154296875
 30
0.0
 10
684.06982421875
 20
-1087.798828125
 30
0.0
 10
685.54833984375
 20
-1088.8193359375
 30
0.0
 10
686.98046875
 20
-1089.80810546875
 30
0.0
 10
686.31396484375
 20
-1092.203125
 30
0.0
 10
687.244140625
 20
-1093.6435546875
 30
0.0
 10
688.2041015625
 20
-1095.130859375
 30
0.0
 10
690.4111328125
 20
-1095.744140625
 30
0.0
 10
691.107421875
 20
-1097.361328125
 30
0.0
 10
691.45556640625
 20
-1098.169921875
 30
0.0
 10
691.53125
 20
-1099.21533203125
 30
0.0
 10
691.107421875
 20
-1099.990234375
 30
0.0
 10
690.57275390625
 20
-1100.966796875
 30
0.0
 10
688.92919921875
 20
-1100.96533203125
 30
0.0
 10
688.2666015625
 20
-1101.86669921875
 30
0.0
 10
687.2158203125
 20
-1103.2958984375
 30
0.0
 10
686.15625
 20
-1105.32763671875
 30
0.0
 10
686.8525390625
 20
-1106.94482421875
 30
0.0
 10
687.20068359375
 20
-1107.75341796875
 30
0.0
 10
688.49658203125
 20
-1107.7265625
 30
0.0
 10
689.21826171875
 20
-1108.25927734375
 30
0.0
 10
690.66162109375
 20
-1109.3251953125
 30
0.0
 10
693.08154296875
 20
-1110.22607421875
 30
0.0
 10
693.08154296875
 20
-1111.9765625
 30
0.0
 10
693.08154296875
 20
-1114.6025390625
 30
0.0
 10
689.64990234375
 20
-1116.23974609375
 30
0.0
 10
687.28662109375
 20
-1117.552734375
 30
0.0
 10
684.9228515625
 20
-1118.86572265625
 30
0.0
 10
681.53515625
 20
-1117.9951171875
 30
0.0
 10
679.3701171875
 20
-1119.59375
 30
0.0
 10
676.4833984375
 20
-1121.7255859375
 30
0.0
 10
674.65234375
 20
-1125.27294921875
 30
0.0
 10
673.90625
 20
-1128.69970703125
 30
0.0
 10
673.42041015625
 20
-1130.93359375
 30
0.0
 10
673.302734375
 20
-1133.185546875
 30
0.0
 10
673.5537109375
 20
-1135.45361328125
 30
0.0
 10
673.5537109375
 20
-1135.45361328125
 30
0.0
 10
692.798828125
 20
-1146.98828125
 30
0.0
 10
692.798828125
 20
-1146.98828125
 30
0.0
 10
692.47216796875
 20
-1147.27490234375
 30
0.0
 10
692.18701171875
 20
-1147.60205078125
 30
0.0
 10
691.9580078125
 20
-1147.98388671875
 30
0.0
 10
690.59326171875
 20
-1150.2578125
 30
0.0
 10
690.59326171875
 20
-1153.595703125
 30
0.0
 10
691.9580078125
 20
-1155.86962890625
 30
0.0
 10
693.322265625
 20
-1158.14404296875
 30
0.0
 10
696.37890625
 20
-1159.30029296875
 30
0.0
 10
699.0556640625
 20
-1159.8125
 30
0.0
 10
703.41748046875
 20
-1160.6474609375
 30
0.0
 10
707.8251953125
 20
-1160.26611328125
 30
0.0
 10
712.2783203125
 20
-1158.6669921875
 30
0.0
 10
712.2783203125
 20
-1158.6669921875
 30
0.0
 10
746.5439453125
 20
-1179.208984375
 30
0.0
 10
746.5439453125
 20
-1179.208984375
 30
0.0
 10
734.91845703125
 20
-1183.01318359375
 30
0.0
 10
723.10986328125
 20
-1186.35205078125
 30
0.0
 10
711.13623046875
 20
-1189.2060546875
 30
0.0
 10
711.13623046875
 20
-1189.2060546875
 30
0.0
 10
452.92333984375
 20
-1020.9921875
 30
0.0
 10
452.92333984375
 20
-1020.9921875
 30
0.0
 10
452.92333984375
 20
-1020.9921875
 30
0.0
 10
243.479248046875
 20
-1020.99560546875
 30
0.0
 10
243.479248046875
 20
-1020.99560546875
 30
0.0
 10
235.27587890625
 20
-1010.7880859375
 30
0.0
 10
227.4296875
 20
-1000.2294921875
 30
0.0
 10
219.957763671875
 20
-989.345703125
 30
0.0
 10
219.957763671875
 20
-989.345703125
 30
0.0
 10
396.95751953125
 20
-989.3427734375
 30
0.0
 10
396.95751953125
 20
-989.3427734375
 30
0.0
 10
396.95751953125
 20
-989.3427734375
 30
0.0
 10
396.95751953125
 20
-984.53369140625
 30
0.0
 10
396.95751953125
 20
-984.53369140625
 30
0.0
 10
396.95751953125
 20
-984.53369140625
 30
0.0
 10
355.756591796875
 20
-957.693359375
 30
0.0
 10
355.756591796875
 20
-957.693359375
 30
0.0
 10
355.756591796875
 20
-957.693359375
 30
0.0
 10
198.804443359375
 20
-957.693359375
 30
0.0
 10
198.804443359375
 20
-957.693359375
 30
0.0
 10
198.804443359375
 20
-957.693359375
 30
0.0
 10
198.804443359375
 20
-943.6171875
 30
0.0
 10
198.804443359375
 20
-943.6171875
 30
0.0
 10
198.804443359375
 20
-943.6171875
 30
0.0
 10
329.32421875
 20
-943.6171875
 30
0.0
 10
329.32421875
 20
-943.6171875
 30
0.0
 10
329.32421875
 20
-943.6171875
 30
0.0
 10
329.32421875
 20
-940.4736328125
 30
0.0
 10
329.32421875
 20
-940.4736328125
 30
0.0
 10
329.32421875
 20
-940.4736328125
 30
0.0
 10
309.974609375
 20
-927.86865234375
 30
0.0
 10
309.974609375
 20
-927.86865234375
 30
0.0
 10
309.974609375
 20
-927.86865234375
 30
0.0
 10
198.804443359375
 20
-927.86865234375
 30
0.0
 10
198.804443359375
 20
-927.86865234375
 30
0.0
 10
198.804443359375
 20
-927.86865234375
 30
0.0
 10
198.804443359375
 20
-918.64990234375
 30
0.0
 10
198.804443359375
 20
-918.64990234375
 30
0.0
 10
198.804443359375
 20
-918.64990234375
 30
0.0
 10
311.901611328125
 20
-918.64990234375
 30
0.0
 10
311.901611328125
 20
-918.64990234375
 30
0.0
 10
311.901611328125
 20
-918.64990234375
 30
0.0
 10
410.4150390625
 20
-977.70263671875
 30
0.0
 10
410.4150390625
 20
-977.70263671875
 30
0.0
 10
412.4931640625
 20
-977.44384765625
 30
0.0
 10
414.57421875
 20
-977.251953125
 30
0.0
 10
416.6611328125
 20
-977.12353515625
 30
0.0
 10
419.384765625
 20
-976.9560546875
 30
0.0
 10
422.79638671875
 20
-975.4013671875
 30
0.0
 10
424.85693359375
 20
-977.12353515625
 30
0.0
 10
427.72900390625
 20
-979.5244140625
 30
0.0
 10
427.2578125
 20
-983.62646484375
 30
0.0
 10
427.01806640625
 20
-987.6611328125
 30
0.0
 10
427.01806640625
 20
-987.6611328125
 30
0.0
 10
444.75390625
 20
-998.40771484375
 30
0.0
 10
444.75390625
 20
-998.40771484375
 30
0.0
 10
446.41162109375
 20
-997.5107421875
 30
0.0
 10
447.60888671875
 20
-996.23046875
 30
0.0
 10
448.25
 20
-994.6240234375
 30
0.0
 10
449.2275390625
 20
-992.171875
 30
0.0
 10
446.31982421875
 20
-988.5947265625
 30
0.0
 10
448.25
 20
-986.73779296875
 30
0.0
 10
449.5361328125
 20
-985.5
 30
0.0
 10
452.4267578125
 20
-985.5
 30
0.0
 10
453.71337890625
 20
-986.73779296875
 30
0.0
 10
456.5830078125
 20
-989.4990234375
 30
0.0
 10
452.6630859375
 20
-994.69287109375
 30
0.0
 10
453.71337890625
 20
-998.46484375
 30
0.0
 10
454.57861328125
 20
-1001.572265625
 30
0.0
 10
457.67138671875
 20
-1003.8017578125
 30
0.0
 10
458.8974609375
 20
-1006.7685546875
 30
0.0
 10
458.8974609375
 20
-1006.7685546875
 30
0.0
 10
472.0498046875
 20
-1014.66015625
 30
0.0
 10
472.0498046875
 20
-1014.66015625
 30
0.0
 10
474.09765625
 20
-1014.2216796875
 30
0.0
 10
476.0087890625
 20
-1013.4697265625
 30
0.0
 10
477.7783203125
 20
-1012.40625
 30
0.0
 10
480.16259765625
 20
-1010.97314453125
 30
0.0
 10
482.44873046875
 20
-1008.849609375
 30
0.0
 10
483.31884765625
 20
-1006.27783203125
 30
0.0
 10
485.14208984375
 20
-1000.88623046875
 30
0.0
 10
484.2744140625
 20
-994.45458984375
 30
0.0
 10
481.78564453125
 20
-989.3154296875
 30
0.0
 10
480.2490234375
 20
-986.1416015625
 30
0.0
 10
476.27392578125
 20
-984.658203125
 30
0.0
 10
474.05908203125
 20
-981.88037109375
 30
0.0
 10
472.951171875
 20
-980.49169921875
 30
0.0
 10
471.7978515625
 20
-979.0185546875
 30
0.0
 10
471.3271484375
 20
-977.32763671875
 30
0.0
 10
471.091796875
 20
-976.48193359375
 30
0.0
 10
470.60546875
 20
-975.2314453125
 30
0.0
 10
471.3271484375
 20
-974.69873046875
 30
0.0
 10
473.4921875
 20
-973.10009765625
 30
0.0
 10
476.78515625
 20
-975.59912109375
 30
0.0
 10
479.2431640625
 20
-976.73974609375
 30
0.0
 10
482.09814453125
 20
-978.064453125
 30
0.0
 10
484.24462890625
 20
-980.51416015625
 30
0.0
 10
486.8955078125
 20
-982.1865234375
 30
0.0
 10
489.9384765625
 20
-984.10595703125
 30
0.0
 10
494.53955078125
 20
-984.4111328125
 30
0.0
 10
496.35888671875
 20
-987.443359375
 30
0.0
 10
497.7236328125
 20
-989.7177734375
 30
0.0
 10
495.65234375
 20
-992.79296875
 30
0.0
 10
496.35888671875
 20
-995.32958984375
 30
0.0
 10
497.0654296875
 20
-997.8662109375
 30
0.0
 10
500.00390625
 20
-999.5693359375
 30
0.0
 10
500.45654296875
 20
-1002.1591796875
 30
0.0
 10
500.98486328125
 20
-1005.1806640625
 30
0.0
 10
500.14013671875
 20
-1008.48779296875
 30
0.0
 10
498.6474609375
 20
-1011.1943359375
 30
0.0
 10
496.94189453125
 20
-1014.287109375
 30
0.0
 10
493.57177734375
 20
-1016.23095703125
 30
0.0
 10
490.9208984375
 20
-1018.62890625
 30
0.0
 10
489.27880859375
 20
-1020.1142578125
 30
0.0
 10
486.8037109375
 20
-1021.04638671875
 30
0.0
 10
485.33740234375
 20
-1022.6201171875
 30
0.0
 10
485.33740234375
 20
-1022.6201171875
 30
0.0
 10
515.8642578125
 20
-1040.921875
 30
0.0
 10
515.8642578125
 20
-1040.921875
 30
0.0
 10
517.30712890625
 20
-1039.6025390625
 30
0.0
 10
518.52197265625
 20
-1038.1162109375
 30
0.0
 10
519.5126953125
 20
-1036.46484375
 30
0.0
 10
521.33203125
 20
-1033.4326171875
 30
0.0
 10
521.86572265625
 20
-1029.7802734375
 30
0.0
 10
522.3408203125
 20
-1026.30859375
 30
0.0
 10
522.8154296875
 20
-1022.83740234375
 30
0.0
 10
519.767578125
 20
-1018.27001953125
 30
0.0
 10
522.3408203125
 20
-1015.7939453125
 30
0.0
 10
522.98388671875
 20
-1015.1748046875
 30
0.0
 10
524.35107421875
 20
-1015.26123046875
 30
0.0
 10
525.07275390625
 20
-1015.7939453125
 30
0.0
 10
527.23779296875
 20
-1017.392578125
 30
0.0
 10
526.3779296875
 20
-1020.9052734375
 30
0.0
 10
527.19384765625
 20
-1023.4111328125
 30
0.0
 10
528.1796875
 20
-1026.43896484375
 30
0.0
 10
527.849609375
 20
-1030.5517578125
 30
0.0
 10
530.5478515625
 20
-1032.37646484375
 30
0.0
 10
531.2919921875
 20
-1032.8798828125
 30
0.0
 10
532.52392578125
 20
-1032.86376953125
 30
0.0
 10
533.279296875
 20
-1032.37646484375
 30
0.0
 10
537.10009765625
 20
-1029.9130859375
 30
0.0
 10
536.79150390625
 20
-1024.181640625
 30
0.0
 10
538.53125
 20
-1020.0849609375
 30
0.0
 10
540.2685546875
 20
-1015.99560546875
 30
0.0
 10
539.37841796875
 20
-1009.22802734375
 30
0.0
 10
543.720703125
 20
-1007.79345703125
 30
0.0
 10
545.44189453125
 20
-1007.22509765625
 30
0.0
 10
546.6953125
 20
-1009.96923828125
 30
0.0
 10
548.45263671875
 20
-1010.42236328125
 30
0.0
 10
549.3310546875
 20
-1010.64892578125
 30
0.0
 10
550.541015625
 20
-1009.80322265625
 30
0.0
 10
551.1845703125
 20
-1010.42236328125
 30
0.0
 10
553.75732421875
 20
-1012.89794921875
 30
0.0
 10
551.88427734375
 20
-1017.5009765625
 30
0.0
 10
551.1845703125
 20
-1020.93701171875
 30
0.0
 10
549.78271484375
 20
-1027.8203125
 30
0.0
 10
547.39990234375
 20
-1034.90771484375
 30
0.0
 10
542.92236328125
 20
-1040.44287109375
 30
0.0
 10
540.99560546875
 20
-1042.8251953125
 30
0.0
 10
537.96337890625
 20
-1044.16796875
 30
0.0
 10
535.337890625
 20
-1045.8203125
 30
0.0
 10
533.462890625
 20
-1047.0009765625
 30
0.0
 10
531.5234375
 20
-1048.080078125
 30
0.0
 10
529.5654296875
 20
-1049.1337890625
 30
0.0
  0
SPLINE
  5
158
330
1F
100
AcDbEntity
  8
LAYER_1
 62
   250
100
AcDbSpline
210
0.0
220
0.0
230
1.0
 70
    11
 71
     3
 72
   362
 73
   358
 74
     0
 42
0.0000000001
 43
0.0000000001
 40
0.0
 40
0.0
 40
0.0
 40
0.0
 40
1.0
 40
1.0
 40
1.0
 40
2.0
 40
2.0
 40
2.0
 40
3.0
 40
3.0
 40
3.0
 40
4.0
 40
4.0
 40
4.0
 40
5.0
 40
5.0
 40
5.0
 40
6.0
 40
6.0
 40
6.0
 40
7.0
 40
7.0
 40
7.0
 40
8.0
 40
8.0
 40
8.0
 40
9.0
 40
9.0
 40
9.0
 40
10.0
 40
10.0
 40
10.0
 40
11.0
 40
11.0
 40
11.0
 40
12.0
 40
12.0
 40
12.0
 40
13.0
 40
13.0
 40
13.0
 40
14.0
 40
14.0
 40
14.0
 40
15.0
 40
15.0
 40
15.0
 40
16.0
 40
16.0
 40
16.0
 40
17.0
 40
17.0
 40
17.0
 40
18.0
 40
18.0
 40
18.0
 40
19.0
 40
19.0
 40
19.0
 40
20.0
 40
20.0
 40
20.0
 40
21.0
 40
21.0
 40
21.0
 40
22.0
 40
22.0
 40
22.0
 40
23.0
 40
23.0
 40
23.0
 40
24.0
 40
24.0
 40
24.0
 40
25.0
 40
25.0
 40
25.0
 40
26.0
 40
26.0
 40
26.0
 40
27.0
 40
27.0
 40
27.0
 40
28.0
 40
28.0
 40
28.0
 40
29.0
 40
29.0
 40
29.0
 40
30.0
 40
30.0
 40
30.0
 40
31.0
 40
31.0
 40
31.0
 40
32.0
 40
32.0
 40
32.0
 40
33.0
 40
33.0
 40
33.0
 40
34.0
 40
34.0
 40
34.0
 40
35.0
 40
35.0
 40
35.0
 40
36.0
 40
36.0
 40
36.0
 40
37.0
 40
37.0
 40
37.0
 40
38.0
 40
38.0
 40
38.0
 40
39.0
 40
39.0
 40
39.0
 40
40.0
 40
40.0
 40
40.0
 40
41.0
 40
41.0
 40
41.0
 40
42.0
 40
42.0
 40
42.0
 40
43.0
 40
43.0
 40
43.0
 40
44.0
 40
44.0
 40
44.0
 40
45.0
 40
45.0
 40
45.0
 40
46.0
 40
46.0
 40
46.0
 40
47.0
 40
47.0
 40
47.0
 40
48.0
 40
48.0
 40
48.0
 40
49.0
 40
49.0
 40
49.0
 40
50.0
 40
50.0
 40
50.0
 40
51.0
 40
51.0
 40
51.0
 40
52.0
 40
52.0
 40
52.0
 40
53.0
 40
53.0
 40
53.0
 40
54.0
 40
54.0
 40
54.0
 40
55.0
 40
55.0
 40
55.0
 40
56.0
 40
56.0
 40
56.0
 40
57.0
 40
57.0
 40
57.0
 40
58.0
 40
58.0
 40
58.0
 40
59.0
 40
59.0
 40
59.0
 40
60.0
 40
60.0
 40
60.0
 40
61.0
 40
61.0
 40
61.0
 40
62.0
 40
62.0
 40
62.0
 40
63.0
 40
63.0
 40
63.0
 40
64.0
 40
64.0
 40
64.0
 40
65.0
 40
65.0
 40
65.0
 40
66.0
 40
66.0
 40
66.0
 40
67.0
 40
67.0
 40
67.0
 40
68.0
 40
68.0
 40
68.0
 40
69.0
 40
69.0
 40
69.0
 40
70.0
 40
70.0
 40
70.0
 40
71.0
 40
71.0
 40
71.0
 40
72.0
 40
72.0
 40
72.0
 40
73.0
 40
73.0
 40
73.0
 40
74.0
 40
74.0
 40
74.0
 40
75.0
 40
75.0
 40
75.0
 40
76.0
 40
76.0
 40
76.0
 40
77.0
 40
77.0
 40
77.0
 40
78.0
 40
78.0
 40
78.0
 40
79.0
 40
79.0
 40
79.0
 40
80.0
 40
80.0
 40
80.0
 40
81.0
 40
81.0
 40
81.0
 40
82.0
 40
82.0
 40
82.0
 40
83.0
 40
83.0
 40
83.0
 40
84.0
 40
84.0
 40
84.0
 40
85.0
 40
85.0
 40
85.0
 40
86.0
 40
86.0
 40
86.0
 40
87.0
 40
87.0
 40
87.0
 40
88.0
 40
88.0
 40
88.0
 40
89.0
 40
89.0
 40
89.0
 40
90.0
 40
90.0
 40
90.0
 40
91.0
 40
91.0
 40
91.0
 40
92.0
 40
92.0
 40
92.0
 40
93.0
 40
93.0
 40
93.0
 40
94.0
 40
94.0
 40
94.0
 40
95.0
 40
95.0
 40
95.0
 40
96.0
 40
96.0
 40
96.0
 40
97.0
 40
97.0
 40
97.0
 40
98.0
 40
98.0
 40
98.0
 40
99.0
 40
99.0
 40
99.0
 40
100.0
 40
100.0
 40
100.0
 40
101.0
 40
101.0
 40
101.0
 40
102.0
 40
102.0
 40
102.0
 40
103.0
 40
103.0
 40
103.0
 40
104.0
 40
104.0
 40
104.0
 40
105.0
 40
105.0
 40
105.0
 40
106.0
 40
106.0
 40
106.0
 40
107.0
 40
107.0
 40
107.0
 40
108.0
 40
108.0
 40
108.0
 40
109.0
 40
109.0
 40
109.0
 40
110.0
 40
110.0
 40
110.0
 40
111.0
 40
111.0
 40
111.0
 40
112.0
 40
112.0
 40
112.0
 40
113.0
 40
113.0
 40
113.0
 40
114.0
 40
114.0
 40
114.0
 40
115.0
 40
115.0
 40
115.0
 40
116.0
 40
116.0
 40
116.0
 40
117.0
 40
117.0
 40
117.0
 40
118.0
 40
118.0
 40
118.0
 40
119.0
 40
119.0
 40
119.0
 40
119.0
 10
585.6513671875
 20
-1010.736328125
 30
0.0
 10
584.931640625
 20
-1009.5556640625
 30
0.0
 10
584.30029296875
 20
-1008.33203125
 30
0.0
 10
583.755859375
 20
-1007.0673828125
 30
0.0
 10
580.970703125
 20
-1000.59765625
 30
0.0
 10
578.5517578125
 20
-993.74365234375
 30
0.0
 10
578.09912109375
 20
-986.75439453125
 30
0.0
 10
577.5625
 20
-978.4638671875
 30
0.0
 10
578.1357421875
 20
-969.6318359375
 30
0.0
 10
581.650390625
 20
-962.04443359375
 30
0.0
 10
584.83837890625
 20
-955.16357421875
 30
0.0
 10
590.6552734375
 20
-949.40380859375
 30
0.0
 10
596.81982421875
 20
-944.759765625
 30
0.0
 10
601.693359375
 20
-941.08837890625
 30
0.0
 10
607.69189453125
 20
-938.9375
 30
0.0
 10
613.48388671875
 20
-936.837890625
 30
0.0
 10
617.740234375
 20
-935.29443359375
 30
0.0
 10
622.8857421875
 20
-935.853515625
 30
0.0
 10
626.677734375
 20
-933.43603515625
 30
0.0
 10
627.087890625
 20
-933.17431640625
 30
0.0
 10
627.42626953125
 20
-932.76220703125
 30
0.0
 10
627.58642578125
 20
-932.314453125
 30
0.0
 10
627.8818359375
 20
-931.48681640625
 30
0.0
 10
627.705078125
 20
-930.5537109375
 30
0.0
 10
627.58642578125
 20
-929.68603515625
 30
0.0
 10
627.4677734375
 20
-928.81787109375
 30
0.0
 10
627.37158203125
 20
-927.8828125
 30
0.0
 10
626.87939453125
 20
-927.14697265625
 30
0.0
 10
626.67333984375
 20
-926.8388671875
 30
0.0
 10
626.44091796875
 20
-926.55419921875
 30
0.0
 10
626.189453125
 20
-926.27978515625
 30
0.0
 10
625.8125
 20
-926.24365234375
 30
0.0
 10
625.43359375
 20
-926.21826171875
 30
0.0
 10
625.0546875
 20
-926.197265625
 30
0.0
 10
620.513671875
 20
-925.94189453125
 30
0.0
 10
615.7890625
 20
-925.064453125
 30
0.0
 10
611.3955078125
 20
-926.197265625
 30
0.0
 10
607.001953125
 20
-927.32958984375
 30
0.0
 10
603.5048828125
 20
-930.580078125
 30
0.0
 10
599.56591796875
 20
-932.7685546875
 30
0.0
 10
595.626953125
 20
-934.95703125
 30
0.0
 10
591.34521484375
 20
-936.67578125
 30
0.0
 10
587.73681640625
 20
-939.34033203125
 30
0.0
 10
584.849609375
 20
-941.4716796875
 30
0.0
 10
583.04931640625
 20
-944.85009765625
 30
0.0
 10
580.009765625
 20
-946.775390625
 30
0.0
 10
579.2822265625
 20
-947.23583984375
 30
0.0
 10
578.43505859375
 20
-947.5478515625
 30
0.0
 10
577.57958984375
 20
-947.7060546875
 30
0.0
 10
575.79296875
 20
-948.03564453125
 30
0.0
 10
573.5595703125
 20
-948.771484375
 30
0.0
 10
572.1162109375
 20
-947.7060546875
 30
0.0
 10
569.951171875
 20
-946.107421875
 30
0.0
 10
570.1767578125
 20
-942.708984375
 30
0.0
 10
569.9951171875
 20
-940.0888671875
 30
0.0
 10
569.8408203125
 20
-937.8681640625
 30
0.0
 10
569.36083984375
 20
-935.1357421875
 30
0.0
 10
570.88330078125
 20
-933.46044921875
 30
0.0
 10
573.8779296875
 20
-930.166015625
 30
0.0
 10
579.56787109375
 20
-930.6298828125
 30
0.0
 10
584.0771484375
 20
-930.05859375
 30
0.0
 10
586.783203125
 20
-929.7158203125
 30
0.0
 10
589.61767578125
 20
-930.6650390625
 30
0.0
 10
592.27294921875
 20
-930.05859375
 30
0.0
 10
593.8408203125
 20
-929.701171875
 30
0.0
 10
596.54931640625
 20
-929.51708984375
 30
0.0
 10
596.595703125
 20
-927.96728515625
 30
0.0
 10
596.6484375
 20
-926.2177734375
 30
0.0
 10
593.3671875
 20
-926.3251953125
 30
0.0
 10
591.8642578125
 20
-925.3388671875
 30
0.0
 10
590.66796875
 20
-924.5537109375
 30
0.0
 10
589.8310546875
 20
-923.18994140625
 30
0.0
 10
588.46435546875
 20
-922.7294921875
 30
0.0
 10
587.60595703125
 20
-922.4404296875
 30
0.0
 10
586.3759765625
 20
-923.3486328125
 30
0.0
 10
585.732421875
 20
-922.7294921875
 30
0.0
 10
584.4462890625
 20
-921.49169921875
 30
0.0
 10
585.54833984375
 20
-919.2138671875
 30
0.0
 10
585.732421875
 20
-917.47216796875
 30
0.0
 10
585.97216796875
 20
-915.21044921875
 30
0.0
 10
588.0693359375
 20
-912.88525390625
 30
0.0
 10
587.1630859375
 20
-910.78564453125
 30
0.0
 10
586.45703125
 20
-909.1484375
 30
0.0
 10
583.80224609375
 20
-909.154296875
 30
0.0
 10
582.537109375
 20
-907.865234375
 30
0.0
 10
581.2880859375
 20
-906.5927734375
 30
0.0
 10
579.66796875
 20
-905.05810546875
 30
0.0
 10
579.8056640625
 20
-903.3125
 30
0.0
 10
579.93701171875
 20
-901.64013671875
 30
0.0
 10
582.0078125
 20
-900.705078125
 30
0.0
 10
583.07568359375
 20
-899.37939453125
 30
0.0
 10
584.5341796875
 20
-897.5673828125
 30
0.0
 10
587.6650390625
 20
-896.14697265625
 30
0.0
 10
587.36767578125
 20
-893.87255859375
 30
0.0
 10
587.357421875
 20
-893.794921875
 30
0.0
 10
587.34619140625
 20
-893.716796875
 30
0.0
 10
587.3310546875
 20
-893.638671875
 30
0.0
 10
587.3310546875
 20
-893.638671875
 30
0.0
 10
661.490234375
 20
-893.63916015625
 30
0.0
 10
661.490234375
 20
-893.63916015625
 30
0.0
 10
661.490234375
 20
-893.63916015625
 30
0.0
 10
661.490234375
 20
-883.65234375
 30
0.0
 10
661.490234375
 20
-883.65234375
 30
0.0
 10
661.490234375
 20
-883.65234375
 30
0.0
 10
629.52685546875
 20
-883.65234375
 30
0.0
 10
629.52685546875
 20
-883.65234375
 30
0.0
 10
629.52685546875
 20
-883.65234375
 30
0.0
 10
626.89306640625
 20
-856.74560546875
 30
0.0
 10
626.89306640625
 20
-856.74560546875
 30
0.0
 10
626.89306640625
 20
-856.74560546875
 30
0.0
 10
616.56005859375
 20
-857.68212890625
 30
0.0
 10
616.56005859375
 20
-857.68212890625
 30
0.0
 10
616.56005859375
 20
-857.68212890625
 30
0.0
 10
619.10205078125
 20
-883.65234375
 30
0.0
 10
619.10205078125
 20
-883.65234375
 30
0.0
 10
619.10205078125
 20
-883.65234375
 30
0.0
 10
581.10986328125
 20
-883.6533203125
 30
0.0
 10
581.10986328125
 20
-883.6533203125
 30
0.0
 10
577.76611328125
 20
-880.759765625
 30
0.0
 10
573.68115234375
 20
-879.13916015625
 30
0.0
 10
570.4169921875
 20
-880.765625
 30
0.0
 10
561.2392578125
 20
-885.33837890625
 30
0.0
 10
576.87109375
 20
-901.6376953125
 30
0.0
 10
572.3330078125
 20
-910.572265625
 30
0.0
 10
571.59765625
 20
-912.0205078125
 30
0.0
 10
568.962890625
 20
-911.87890625
 30
0.0
 10
568.18115234375
 20
-913.3046875
 30
0.0
 10
567.33251953125
 20
-914.85302734375
 30
0.0
 10
568.9736328125
 20
-916.98583984375
 30
0.0
 10
568.18115234375
 20
-918.5615234375
 30
0.0
 10
567.36083984375
 20
-920.19384765625
 30
0.0
 10
565.52490234375
 20
-921.34619140625
 30
0.0
 10
563.7451171875
 20
-921.94189453125
 30
0.0
 10
562.02685546875
 20
-922.517578125
 30
0.0
 10
559.81591796875
 20
-922.8828125
 30
0.0
 10
558.28125
 20
-921.94189453125
 30
0.0
 10
556.2705078125
 20
-920.70947265625
 30
0.0
 10
557.41650390625
 20
-916.66748046875
 30
0.0
 10
555.255859375
 20
-915.6982421875
 30
0.0
 10
553.60693359375
 20
-914.9580078125
 30
0.0
 10
551.421875
 20
-918.12451171875
 30
0.0
 10
549.97802734375
 20
-917.05859375
 30
0.0
 10
548.53466796875
 20
-915.9931640625
 30
0.0
 10
549.64599609375
 20
-913.5224609375
 30
0.0
 10
549.97802734375
 20
-911.80126953125
 30
0.0
 10
550.29052734375
 20
-910.1845703125
 30
0.0
 10
552.7890625
 20
-908.5478515625
 30
0.0
 10
551.8212890625
 20
-907.1923828125
 30
0.0
 10
551.306640625
 20
-906.470703125
 30
0.0
 10
549.99951171875
 20
-907.1923828125
 30
0.0
 10
549.08984375
 20
-907.1923828125
 30
0.0
 10
545.45068359375
 20
-907.1923828125
 30
0.0
 10
541.62744140625
 20
-906.12353515625
 30
0.0
 10
538.162109375
 20
-907.1923828125
 30
0.0
 10
535.548828125
 20
-907.998046875
 30
0.0
 10
532.7890625
 20
-909.4931640625
 30
0.0
 10
531.4560546875
 20
-911.80126953125
 30
0.0
 10
528.04443359375
 20
-917.7080078125
 30
0.0
 10
530.33349609375
 20
-925.29833984375
 30
0.0
 10
530.10888671875
 20
-932.05224609375
 30
0.0
 10
529.9345703125
 20
-937.3017578125
 30
0.0
 10
530.10888671875
 20
-942.572265625
 30
0.0
 10
530.10888671875
 20
-947.82421875
 30
0.0
 10
530.10888671875
 20
-949.57470703125
 30
0.0
 10
528.822265625
 20
-951.84375
 30
0.0
 10
530.10888671875
 20
-953.08154296875
 30
0.0
 10
532.68212890625
 20
-955.55712890625
 30
0.0
 10
538.46337890625
 20
-950.60546875
 30
0.0
 10
541.0361328125
 20
-953.08154296875
 30
0.0
 10
542.96630859375
 20
-954.9384765625
 30
0.0
 10
542.20751953125
 20
-958.595703125
 30
0.0
 10
541.0361328125
 20
-960.96728515625
 30
0.0
 10
539.44677734375
 20
-964.1865234375
 30
0.0
 10
535.380859375
 20
-965.5947265625
 30
0.0
 10
532.4140625
 20
-967.7275390625
 30
0.0
 10
530.41845703125
 20
-969.162109375
 30
0.0
 10
528.6181640625
 20
-971.08154296875
 30
0.0
 10
526.23876953125
 20
-971.7890625
 30
0.0
 10
523.63134765625
 20
-972.56494140625
 30
0.0
 10
519.97265625
 20
-973.64599609375
 30
0.0
 10
518.04296875
 20
-971.7890625
 30
0.0
 10
515.4697265625
 20
-969.3134765625
 30
0.0
 10
517.97216796875
 20
-964.775390625
 30
0.0
 10
518.04296875
 20
-961.27490234375
 30
0.0
 10
518.3740234375
 20
-944.8671875
 30
0.0
 10
518.10009765625
 20
-928.33544921875
 30
0.0
 10
520.03173828125
 20
-912.02978515625
 30
0.0
 10
520.9384765625
 20
-904.37744140625
 30
0.0
 10
523.7763671875
 20
-896.9765625
 30
0.0
 10
524.5283203125
 20
-889.30859375
 30
0.0
 10
524.8701171875
 20
-885.822265625
 30
0.0
 10
523.37744140625
 20
-882.115234375
 30
0.0
 10
524.5283203125
 20
-878.7939453125
 30
0.0
 10
525.38916015625
 20
-876.30859375
 30
0.0
 10
526.72412109375
 20
-872.7578125
 30
0.0
 10
529.43359375
 20
-872.50048828125
 30
0.0
 10
531.6552734375
 20
-872.28955078125
 30
0.0
 10
533.51611328125
 20
-874.84423828125
 30
0.0
 10
534.4267578125
 20
-876.8056640625
 30
0.0
 10
535.91064453125
 20
-880.0029296875
 30
0.0
 10
533.95166015625
 20
-883.84912109375
 30
0.0
 10
534.4267578125
 20
-887.3203125
 30
0.0
 10
534.9013671875
 20
-890.7919921875
 30
0.0
 10
534.3681640625
 20
-895.34521484375
 30
0.0
 10
537.2548828125
 20
-897.4765625
 30
0.0
 10
538.6982421875
 20
-898.54248046875
 30
0.0
 10
541.23583984375
 20
-898.4912109375
 30
0.0
 10
542.71875
 20
-897.4765625
 30
0.0
 10
544.0693359375
 20
-896.552734375
 30
0.0
 10
544.16064453125
 20
-894.53759765625
 30
0.0
 10
544.353515625
 20
-892.95361328125
 30
0.0
 10
544.90380859375
 20
-888.4423828125
 30
0.0
 10
543.51806640625
 20
-883.8896484375
 30
0.0
 10
542.9228515625
 20
-879.3837890625
 30
0.0
 10
542.3134765625
 20
-874.7705078125
 30
0.0
 10
542.91259765625
 20
-869.72802734375
 30
0.0
 10
540.72998046875
 20
-865.5791015625
 30
0.0
 10
539.0869140625
 20
-862.455078125
 30
0.0
 10
536.36474609375
 20
-859.48388671875
 30
0.0
 10
533.0029296875
 20
-858.14404296875
 30
0.0
 10
529.64111328125
 20
-856.80419921875
 30
0.0
 10
525.0537109375
 20
-856.13232421875
 30
0.0
 10
522.07568359375
 20
-858.14404296875
 30
0.0
 10
516.90869140625
 20
-861.6337890625
 30
0.0
 10
517.26904296875
 20
-869.4326171875
 30
0.0
 10
515.63427734375
 20
-875.2998046875
 30
0.0
 10
512.70458984375
 20
-885.8154296875
 30
0.0
 10
510.6474609375
 20
-896.63720703125
 30
0.0
 10
509.646484375
 20
-907.4814453125
 30
0.0
 10
509.244140625
 20
-911.8408203125
 30
0.0
 10
511.62451171875
 20
-916.68359375
 30
0.0
 10
509.646484375
 20
-920.625
 30
0.0
 10
508.15869140625
 20
-923.5888671875
 30
0.0
 10
504.83056640625
 20
-925.68701171875
 30
0.0
 10
501.60009765625
 20
-926.7705078125
 30
0.0
 10
500.7412109375
 20
-927.05859375
 30
0.0
 10
499.689453125
 20
-926.39453125
 30
0.0
 10
498.8681640625
 20
-926.7705078125
 30
0.0
 10
496.39404296875
 20
-927.90380859375
 30
0.0
 10
496.41748046875
 20
-933.0146484375
 30
0.0
 10
493.6787109375
 20
-932.916015625
 30
0.0
 10
489.95703125
 20
-932.78271484375
 30
0.0
 10
489.85986328125
 20
-926.67724609375
 30
0.0
 10
487.2919921875
 20
-924.08203125
 30
0.0
 10
486.59716796875
 20
-923.3798828125
 30
0.0
 10
485.3408203125
 20
-923.17431640625
 30
0.0
 10
484.896484375
 20
-922.3046875
 30
0.0
 10
483.291015625
 20
-919.16259765625
 30
0.0
 10
484.5341796875
 20
-915.2744140625
 30
0.0
 10
484.896484375
 20
-911.7900390625
 30
0.0
 10
485.3330078125
 20
-907.5947265625
 30
0.0
 10
487.0673828125
 20
-903.57421875
 30
0.0
 10
487.50341796875
 20
-899.37841796875
 30
0.0
 10
487.6845703125
 20
-897.63671875
 30
0.0
 10
488.7900390625
 20
-895.359375
 30
0.0
 10
487.50341796875
 20
-894.12109375
 30
0.0
 10
485.57373046875
 20
-892.2646484375
 30
0.0
 10
481.34716796875
 20
-892.3759765625
 30
0.0
 10
479.30810546875
 20
-894.12109375
 30
0.0
 10
474.20703125
 20
-898.48583984375
 30
0.0
 10
477.5859375
 20
-907.1748046875
 30
0.0
 10
476.91259765625
 20
-913.7109375
 30
0.0
 10
476.09716796875
 20
-921.6279296875
 30
0.0
 10
475.78466796875
 20
-929.61328125
 30
0.0
 10
474.9169921875
 20
-937.525390625
 30
0.0
 10
474.3779296875
 20
-942.4404296875
 30
0.0
 10
473.25390625
 20
-947.31005859375
 30
0.0
 10
472.9208984375
 20
-952.2421875
 30
0.0
 10
472.802734375
 20
-953.98876953125
 30
0.0
 10
474.4189453125
 20
-956.505859375
 30
0.0
 10
472.9208984375
 20
-957.4990234375
 30
0.0
 10
471.2587890625
 20
-958.6015625
 30
0.0
 10
468.6083984375
 20
-956.86572265625
 30
0.0
 10
467.25537109375
 20
-955.423828125
 30
0.0
 10
466.0361328125
 20
-954.12451171875
 30
0.0
 10
466.07861328125
 20
-952.08154296875
 30
0.0
 10
465.84130859375
 20
-950.345703125
 30
0.0
 10
465.72265625
 20
-949.47802734375
 30
0.0
 10
466.72021484375
 20
-947.94384765625
 30
0.0
 10
465.84130859375
 20
-947.71728515625
 30
0.0
 10
463.205078125
 20
-947.03759765625
 30
0.0
 10
462.44970703125
 20
-952.01025390625
 30
0.0
 10
461.74365234375
 20
-954.546875
 30
0.0
 10
461.2724609375
 20
-956.23779296875
 30
0.0
 10
462.26171875
 20
-958.1259765625
 30
0.0
 10
461.74365234375
 20
-959.8037109375
 30
0.0
 10
461.134765625
 20
-961.775390625
 30
0.0
 10
457.2216796875
 20
-963.169921875
 30
0.0
 10
458.23974609375
 20
-964.9775390625
 30
0.0
 10
459.1064453125
 20
-966.5166015625
 30
0.0
 10
461.8837890625
 20
-964.9775390625
 30
0.0
 10
463.70361328125
 20
-964.9775390625
 30
0.0
 10
466.4326171875
 20
-964.9775390625
 30
0.0
 10
469.2626953125
 20
-964.2978515625
 30
0.0
 10
471.89892578125
 20
-964.9775390625
 30
0.0
 10
477.17138671875
 20
-966.3369140625
 30
0.0
 10
481.14990234375
 20
-970.63818359375
 30
0.0
 10
486.09423828125
 20
-972.86376953125
 30
0.0
 10
489.94140625
 20
-974.59521484375
 30
0.0
 10
493.82568359375
 20
-977.25341796875
 30
0.0
 10
498.06982421875
 20
-977.0888671875
 30
0.0
 10
500.974609375
 20
-976.97607421875
 30
0.0
 10
503.09375
 20
-973.44384765625
 30
0.0
 10
505.99755859375
 20
-973.57177734375
 30
0.0
 10
508.7236328125
 20
-973.69189453125
 30
0.0
 10
511.73046875
 20
-975.24072265625
 30
0.0
 10
513.09521484375
 20
-977.5146484375
 30
0.0
 10
514.91455078125
 20
-980.546875
 30
0.0
 10
510.52197265625
 20
-985.5537109375
 30
0.0
 10
513.09521484375
 20
-988.029296875
 30
0.0
 10
513.73828125
 20
-988.6484375
 30
0.0
 10
514.986328125
 20
-987.6943359375
 30
0.0
 10
515.8271484375
 20
-988.029296875
 30
0.0
 10
518.3486328125
 20
-989.0341796875
 30
0.0
 10
518.9541015625
 20
-993.05419921875
 30
0.0
 10
521.6220703125
 20
-993.60546875
 30
0.0
 10
524.8759765625
 20
-994.2783203125
 30
0.0
 10
527.6943359375
 20
-990.7744140625
 30
0.0
 10
530.9677734375
 20
-990.19775390625
 30
0.0
 10
532.7578125
 20
-989.88232421875
 30
0.0
 10
535.14501953125
 20
-988.9599609375
 30
0.0
 10
536.431640625
 20
-990.19775390625
 30
0.0
 10
537.71826171875
 20
-991.435546875
 30
0.0
 10
535.14501953125
 20
-994.21728515625
 30
0.0
 10
536.431640625
 20
-995.455078125
 30
0.0
 10
537.0751953125
 20
-996.07421875
 30
0.0
 10
538.28466796875
 20
-995.228515625
 30
0.0
 10
539.16357421875
 20
-995.455078125
 30
0.0
 10
540.9208984375
 20
-995.908203125
 30
0.0
 10
542.1376953125
 20
-998.537109375
 30
0.0
 10
543.8955078125
 20
-998.083984375
 30
0.0
 10
547.41015625
 20
-997.177734375
 30
0.0
 10
548.4169921875
 20
-992.35986328125
 30
0.0
 10
549.35888671875
 20
-988.97802734375
 30
0.0
 10
550.30078125
 20
-985.595703125
 30
0.0
 10
549.35888671875
 20
-981.96484375
 30
0.0
 10
549.35888671875
 20
-978.46337890625
 30
0.0
 10
549.35888671875
 20
-973.21142578125
 30
0.0
 10
547.27001953125
 20
-967.54345703125
 30
0.0
 10
549.35888671875
 20
-962.69140625
 30
0.0
 10
550.4033203125
 20
-960.26513671875
 30
0.0
 10
552.4814453125
 20
-956.583984375
 30
0.0
 10
555.154296875
 20
-957.115234375
 30
0.0
 10
558.81298828125
 20
-957.84228515625
 30
0.0
 10
558.5927734375
 20
-963.61767578125
 30
0.0
 10
559.294921875
 20
-967.1484375
 30
0.0
 10
560.1494140625
 20
-971.447265625
 30
0.0
 10
558.701171875
 20
-975.9521484375
 30
0.0
 10
559.294921875
 20
-980.29150390625
 30
0.0
 10
560.00732421875
 20
-985.49853515625
 30
0.0
 10
561.26416015625
 20
-990.7509765625
 30
0.0
 10
563.537109375
 20
-995.52587890625
 30
0.0
 10
565.21044921875
 20
-999.0419921875
 30
0.0
 10
567.11865234375
 20
-1002.7958984375
 30
0.0
 10
570.3232421875
 20
-1005.12890625
 30
0.0
 10
574.70458984375
 20
-1008.318359375
 30
0.0
 10
579.81396484375
 20
-1010.1865234375
 30
0.0
 10
585.6513671875
 20
-1010.736328125
 30
0.0
  0
SPLINE
  5
159
330
1F
100
AcDbEntity
  8
LAYER_1
 62
   250
100
AcDbSpline
210
0.0
220
0.0
230
1.0
 70
    11
 71
     3
 72
   146
 73
   142
 74
     0
 42
0.0000000001
 43
0.0000000001
 40
0.0
 40
0.0
 40
0.0
 40
0.0
 40
1.0
 40
1.0
 40
1.0
 40
2.0
 40
2.0
 40
2.0
 40
3.0
 40
3.0
 40
3.0
 40
4.0
 40
4.0
 40
4.0
 40
5.0
 40
5.0
 40
5.0
 40
6.0
 40
6.0
 40
6.0
 40
7.0
 40
7.0
 40
7.0
 40
8.0
 40
8.0
 40
8.0
 40
9.0
 40
9.0
 40
9.0
 40
10.0
 40
10.0
 40
10.0
 40
11.0
 40
11.0
 40
11.0
 40
12.0
 40
12.0
 40
12.0
 40
13.0
 40
13.0
 40
13.0
 40
14.0
 40
14.0
 40
14.0
 40
15.0
 40
15.0
 40
15.0
 40
16.0
 40
16.0
 40
16.0
 40
17.0
 40
17.0
 40
17.0
 40
18.0
 40
18.0
 40
18.0
 40
19.0
 40
19.0
 40
19.0
 40
20.0
 40
20.0
 40
20.0
 40
21.0
 40
21.0
 40
21.0
 40
22.0
 40
22.0
 40
22.0
 40
23.0
 40
23.0
 40
23.0
 40
24.0
 40
24.0
 40
24.0
 40
25.0
 40
25.0
 40
25.0
 40
26.0
 40
26.0
 40
26.0
 40
27.0
 40
27.0
 40
27.0
 40
28.0
 40
28.0
 40
28.0
 40
29.0
 40
29.0
 40
29.0
 40
30.0
 40
30.0
 40
30.0
 40
31.0
 40
31.0
 40
31.0
 40
32.0
 40
32.0
 40
32.0
 40
33.0
 40
33.0
 40
33.0
 40
34.0
 40
34.0
 40
34.0
 40
35.0
 40
35.0
 40
35.0
 40
36.0
 40
36.0
 40
36.0
 40
37.0
 40
37.0
 40
37.0
 40
38.0
 40
38.0
 40
38.0
 40
39.0
 40
39.0
 40
39.0
 40
40.0
 40
40.0
 40
40.0
 40
41.0
 40
41.0
 40
41.0
 40
42.0
 40
42.0
 40
42.0
 40
43.0
 40
43.0
 40
43.0
 40
44.0
 40
44.0
 40
44.0
 40
45.0
 40
45.0
 40
45.0
 40
46.0
 40
46.0
 40
46.0
 40
47.0
 40
47.0
 40
47.0
 40
47.0
 10
712.19970703125
 20
-1065.0361328125
 30
0.0
 10
705.5224609375
 20
-1062.3408203125
 30
0.0
 10
700.9072265625
 20
-1057.04150390625
 30
0.0
 10
696.5009765625
 20
-1051.896484375
 30
0.0
 10
692.451171875
 20
-1047.16796875
 30
0.0
 10
691.44189453125
 20
-1040.2939453125
 30
0.0
 10
686.939453125
 20
-1035.9609375
 30
0.0
 10
685.00927734375
 20
-1034.1044921875
 30
0.0
 10
682.54736328125
 20
-1031.67529296875
 30
0.0
 10
679.841796875
 20
-1032.01806640625
 30
0.0
 10
677.1357421875
 20
-1032.36083984375
 30
0.0
 10
674.5634765625
 20
-1035.015625
 30
0.0
 10
674.04638671875
 20
-1037.59423828125
 30
0.0
 10
673.27197265625
 20
-1041.4560546875
 30
0.0
 10
676.9072265625
 20
-1045.005859375
 30
0.0
 10
678.87255859375
 20
-1048.455078125
 30
0.0
 10
681.41796875
 20
-1052.92138671875
 30
0.0
 10
684.2578125
 20
-1057.33544921875
 30
0.0
 10
687.83837890625
 20
-1061.087890625
 30
0.0
 10
692.38720703125
 20
-1065.8564453125
 30
0.0
 10
697.4990234375
 20
-1070.4296875
 30
0.0
 10
703.486328125
 20
-1073.3798828125
 30
0.0
 10
709.15478515625
 20
-1076.171875
 30
0.0
 10
715.64453125
 20
-1077.34228515625
 30
0.0
 10
721.9580078125
 20
-1078.14208984375
 30
0.0
 10
728.271484375
 20
-1078.94189453125
 30
0.0
 10
734.8046875
 20
-1079.17822265625
 30
0.0
 10
741.0810546875
 20
-1078.14208984375
 30
0.0
 10
748.78271484375
 20
-1076.8701171875
 30
0.0
 10
756.80712890625
 20
-1074.93115234375
 30
0.0
 10
763.20556640625
 20
-1070.6142578125
 30
0.0
 10
773.00732421875
 20
-1064.00048828125
 30
0.0
 10
779.19287109375
 20
-1055.2646484375
 30
0.0
 10
786.0224609375
 20
-1043.8828125
 30
0.0
 10
788.63037109375
 20
-1044.27099609375
 30
0.0
 10
786.93701171875
 20
-1049.3388671875
 30
0.0
 10
788.9658203125
 20
-1050.96240234375
 30
0.0
 10
789.8193359375
 20
-1051.6455078125
 30
0.0
 10
791.22412109375
 20
-1052.0322265625
 30
0.0
 10
792.23583984375
 20
-1051.591796875
 30
0.0
 10
795.55126953125
 20
-1050.1484375
 30
0.0
 10
796.49755859375
 20
-1045.79052734375
 30
0.0
 10
797.69970703125
 20
-1042.48583984375
 30
0.0
 10
799.939453125
 20
-1036.32861328125
 30
0.0
 10
800.23095703125
 20
-1029.6201171875
 30
0.0
 10
800.73828125
 20
-1023.11474609375
 30
0.0
 10
800.87451171875
 20
-1021.369140625
 30
0.0
 10
801.27978515625
 20
-1019.52880859375
 30
0.0
 10
800.73828125
 20
-1017.857421875
 30
0.0
 10
800.51025390625
 20
-1017.1533203125
 30
0.0
 10
800.18798828125
 20
-1016.1455078125
 30
0.0
 10
799.43017578125
 20
-1016.03515625
 30
0.0
 10
796.5546875
 20
-1015.6162109375
 30
0.0
 10
794.16455078125
 20
-1018.89111328125
 30
0.0
 10
792.56298828125
 20
-1021.22705078125
 30
0.0
 10
790.0576171875
 20
-1024.8798828125
 30
0.0
 10
793.537109375
 20
-1033.35107421875
 30
0.0
 10
789.02734375
 20
-1033.92236328125
 30
0.0
 10
786.32177734375
 20
-1034.26513671875
 30
0.0
 10
785.396484375
 20
-1029.68017578125
 30
0.0
 10
784.9296875
 20
-1027.0927734375
 30
0.0
 10
784.3212890625
 20
-1023.72021484375
 30
0.0
 10
786.98583984375
 20
-1020.39892578125
 30
0.0
 10
786.83984375
 20
-1016.97900390625
 30
0.0
 10
786.69091796875
 20
-1013.48046875
 30
0.0
 10
785.0908203125
 20
-1010.16650390625
 30
0.0
 10
784.01171875
 20
-1006.82275390625
 30
0.0
 10
782.44677734375
 20
-1001.9716796875
 30
0.0
 10
782.27001953125
 20
-996.20458984375
 30
0.0
 10
778.7216796875
 20
-992.4443359375
 30
0.0
 10
776.828125
 20
-990.43798828125
 30
0.0
 10
773.6689453125
 20
-987.98876953125
 30
0.0
 10
771.05712890625
 20
-989.0029296875
 30
0.0
 10
768.859375
 20
-989.85595703125
 30
0.0
 10
768.3173828125
 20
-993.12109375
 30
0.0
 10
768.50244140625
 20
-995.39453125
 30
0.0
 10
768.85791015625
 20
-999.7578125
 30
0.0
 10
776.8427734375
 20
-1002.6484375
 30
0.0
 10
775.33203125
 20
-1006.77685546875
 30
0.0
 10
774.33984375
 20
-1009.48779296875
 30
0.0
 10
769.3134765625
 20
-1008.11669921875
 30
0.0
 10
766.9697265625
 20
-1009.8984375
 30
0.0
 10
764.61767578125
 20
-1011.68603515625
 30
0.0
 10
762.490234375
 20
-1014.2080078125
 30
0.0
 10
761.85986328125
 20
-1017.02734375
 30
0.0
 10
761.0595703125
 20
-1020.6064453125
 30
0.0
 10
761.712890625
 20
-1024.8505859375
 30
0.0
 10
763.90380859375
 20
-1027.84375
 30
0.0
 10
764.951171875
 20
-1029.275390625
 30
0.0
 10
766.95458984375
 20
-1031.142578125
 30
0.0
 10
768.63525390625
 20
-1030.47265625
 30
0.0
 10
771.15673828125
 20
-1029.4677734375
 30
0.0
 10
769.71240234375
 20
-1025.28125
 30
0.0
 10
770.7568359375
 20
-1022.85546875
 30
0.0
 10
771.453125
 20
-1021.23779296875
 30
0.0
 10
771.78271484375
 20
-1018.91162109375
 30
0.0
 10
773.48828125
 20
-1018.30224609375
 30
0.0
 10
775.134765625
 20
-1017.71435546875
 30
0.0
 10
777.44970703125
 20
-1018.599609375
 30
0.0
 10
778.46630859375
 20
-1019.9775390625
 30
0.0
 10
781.0986328125
 20
-1023.546875
 30
0.0
 10
780.20703125
 20
-1029.0771484375
 30
0.0
 10
778.46630859375
 20
-1033.12060546875
 30
0.0
 10
777.07373046875
 20
-1036.35546875
 30
0.0
 10
774.10107421875
 20
-1039.2158203125
 30
0.0
 10
770.7392578125
 20
-1040.5556640625
 30
0.0
 10
769.89892578125
 20
-1040.890625
 30
0.0
 10
768.5615234375
 20
-1039.861328125
 30
0.0
 10
768.00732421875
 20
-1040.5556640625
 30
0.0
 10
766.89990234375
 20
-1041.9443359375
 30
0.0
 10
769.18408203125
 20
-1043.89794921875
 30
0.0
 10
769.42138671875
 20
-1045.6337890625
 30
0.0
 10
769.6591796875
 20
-1047.36962890625
 30
0.0
 10
770.1845703125
 20
-1049.3017578125
 30
0.0
 10
769.42138671875
 20
-1050.89111328125
 30
0.0
 10
766.25390625
 20
-1057.48779296875
 30
0.0
 10
759.0341796875
 20
-1062.0439453125
 30
0.0
 10
752.1513671875
 20
-1065.0361328125
 30
0.0
 10
745.2578125
 20
-1068.0322265625
 30
0.0
 10
736.9267578125
 20
-1070.21240234375
 30
0.0
 10
729.6689453125
 20
-1068.16015625
 30
0.0
 10
725.56103515625
 20
-1066.99853515625
 30
0.0
 10
722.68505859375
 20
-1063.22607421875
 30
0.0
 10
719.9609375
 20
-1060.0478515625
 30
0.0
 10
716.48779296875
 20
-1055.99609375
 30
0.0
 10
713.85400390625
 20
-1051.2412109375
 30
0.0
 10
711.76513671875
 20
-1046.388671875
 30
0.0
 10
710.720703125
 20
-1043.962890625
 30
0.0
 10
711.4931640625
 20
-1040.703125
 30
0.0
 10
709.64404296875
 20
-1038.771484375
 30
0.0
 10
708.1982421875
 20
-1037.26123046875
 30
0.0
 10
705.50048828125
 20
-1035.74072265625
 30
0.0
 10
703.60986328125
 20
-1036.69384765625
 30
0.0
 10
701.99853515625
 20
-1037.50634765625
 30
0.0
 10
702.19580078125
 20
-1040.021484375
 30
0.0
 10
702.19580078125
 20
-1041.77197265625
 30
0.0
 10
702.19580078125
 20
-1045.2734375
 30
0.0
 10
703.69677734375
 20
-1048.66796875
 30
0.0
 10
705.02392578125
 20
-1051.92822265625
 30
0.0
 10
706.89404296875
 20
-1056.52197265625
 30
0.0
 10
709.37158203125
 20
-1054.87939453125
 30
0.0
 10
712.19970703125
 20
-1065.0361328125
 30
0.0
  0
POLYLINE
  5
15A
330
1F
100
AcDbEntity
  8
LAYER_1
 62
   250
100
AcDb2dPolyline
 66
     1
 10
0.0
 20
0.0
 30
0.0
  0
VERTEX
  5
15B
330
15A
100
AcDbEntity
  8
LAYER_1
 62
   250
100
AcDbVertex
100
AcDb2dVertex
 10
835.62890625
 20
-915.1318359375
 30
0.0
  0
VERTEX
  5
15C
330
15A
100
AcDbEntity
  8
LAYER_1
 62
   250
100
AcDbVertex
100
AcDb2dVertex
 10
879.53955078125
 20
-915.1318359375
 30
0.0
  0
VERTEX
  5
15D
330
15A
100
AcDbEntity
  8
LAYER_1
 62
   250
100
AcDbVertex
100
AcDb2dVertex
 10
879.53955078125
 20
-902.533203125
 30
0.0
  0
VERTEX
  5
15E
330
15A
100
AcDbEntity
  8
LAYER_1
 62
   250
100
AcDbVertex
100
AcDb2dVertex
 10
835.62890625
 20
-902.533203125
 30
0.0
  0
VERTEX
  5
15F
330
15A
100
AcDbEntity
  8
LAYER_1
 62
   250
100
AcDbVertex
100
AcDb2dVertex
 10
835.62890625
 20
-915.1318359375
 30
0.0
  0
SEQEND
  5
160
330
15A
100
AcDbEntity
  8
LAYER_1
  0
SPLINE
  5
161
330
1F
100
AcDbEntity
  8
LAYER_1
 62
   250
100
AcDbSpline
210
0.0
220
0.0
230
1.0
 70
    11
 71
     3
 72
    32
 73
    28
 74
     0
 42
0.0000000001
 43
0.0000000001
 40
0.0
 40
0.0
 40
0.0
 40
0.0
 40
1.0
 40
1.0
 40
1.0
 40
2.0
 40
2.0
 40
2.0
 40
3.0
 40
3.0
 40
3.0
 40
4.0
 40
4.0
 40
4.0
 40
5.0
 40
5.0
 40
5.0
 40
6.0
 40
6.0
 40
6.0
 40
7.0
 40
7.0
 40
7.0
 40
8.0
 40
8.0
 40
8.0
 40
9.0
 40
9.0
 40
9.0
 40
9.0
 10
824.0888671875
 20
-693.423828125
 30
0.0
 10
828.3720703125
 20
-698.2548828125
 30
0.0
 10
836.84033203125
 20
-696.94580078125
 30
0.0
 10
842.8505859375
 20
-699.5693359375
 30
0.0
 10
848.64990234375
 20
-702.1005859375
 30
0.0
 10
854.0048828125
 20
-705.53271484375
 30
0.0
 10
859.41162109375
 20
-708.76953125
 30
0.0
 10
861.65380859375
 20
-710.1123046875
 30
0.0
 10
863.48388671875
 20
-713.7744140625
 30
0.0
 10
866.00341796875
 20
-713.01318359375
 30
0.0
 10
869.13623046875
 20
-712.0673828125
 30
0.0
 10
865.35107421875
 20
-708.09814453125
 30
0.0
 10
864.26513671875
 20
-705.1171875
 30
0.0
 10
863.0615234375
 20
-701.8125
 30
0.0
 10
857.83349609375
 20
-697.00146484375
 30
0.0
 10
854.6181640625
 20
-695.3623046875
 30
0.0
 10
847.7939453125
 20
-691.88330078125
 30
0.0
 10
846.78564453125
 20
-690.859375
 30
0.0
 10
839.2578125
 20
-689.1982421875
 30
0.0
 10
834.82421875
 20
-688.22021484375
 30
0.0
 10
829.80078125
 20
-687.5234375
 30
0.0
 10
825.5986328125
 20
-689.1982421875
 30
0.0
 10
824.75830078125
 20
-689.533203125
 30
0.0
 10
823.9423828125
 20
-690.22314453125
 30
0.0
 10
823.6669921875
 20
-691.05712890625
 30
0.0
 10
823.4150390625
 20
-691.8193359375
 30
0.0
 10
823.54931640625
 20
-692.8154296875
 30
0.0
 10
824.0888671875
 20
-693.423828125
 30
0.0
  0
POLYLINE
  5
162
330
1F
100
AcDbEntity
  8
LAYER_1
 62
   250
100
AcDb2dPolyline
 66
     1
 10
0.0
 20
0.0
 30
0.0
  0
VERTEX
  5
163
330
162
100
AcDbEntity
  8
LAYER_1
 62
   250
100
AcDbVertex
100
AcDb2dVertex
 10
749.6904296875
 20
-659.779296875
 30
0.0
  0
VERTEX
  5
164
330
162
100
AcDbEntity
  8
LAYER_1
 62
   250
100
AcDbVertex
100
AcDb2dVertex
 10
822.0439453125
 20
-659.779296875
 30
0.0
  0
VERTEX
  5
165
330
162
100
AcDbEntity
  8
LAYER_1
 62
   250
100
AcDbVertex
100
AcDb2dVertex
 10
822.0439453125
 20
-651.97705078125
 30
0.0
  0
VERTEX
  5
166
330
162
100
AcDbEntity
  8
LAYER_1
 62
   250
100
AcDbVertex
100
AcDb2dVertex
 10
749.6904296875
 20
-651.97705078125
 30
0.0
  0
VERTEX
  5
167
330
162
100
AcDbEntity
  8
LAYER_1
 62
   250
100
AcDbVertex
100
AcDb2dVertex
 10
749.6904296875
 20
-659.779296875
 30
0.0
  0
SEQEND
  5
168
330
162
100
AcDbEntity
  8
LAYER_1
  0
POLYLINE
  5
169
330
1F
100
AcDbEntity
  8
LAYER_1
 62
   250
100
AcDb2dPolyline
 66
     1
 10
0.0
 20
0.0
 30
0.0
  0
VERTEX
  5
16A
330
169
100
AcDbEntity
  8
LAYER_1
 62
   250
100
AcDbVertex
100
AcDb2dVertex
 10
950.568359375
 20
-1196.248046875
 30
0.0
  0
VERTEX
  5
16B
330
169
100
AcDbEntity
  8
LAYER_1
 62
   250
100
AcDbVertex
100
AcDb2dVertex
 10
956.224609375
 20
-1175.93505859375
 30
0.0
  0
VERTEX
  5
16C
330
169
100
AcDbEntity
  8
LAYER_1
 62
   250
100
AcDbVertex
100
AcDb2dVertex
 10
969.53515625
 20
-1177.99755859375
 30
0.0
  0
VERTEX
  5
16D
330
169
100
AcDbEntity
  8
LAYER_1
 62
   250
100
AcDbVertex
100
AcDb2dVertex
 10
964.95703125
 20
-1199.5517578125
 30
0.0
  0
VERTEX
  5
16E
330
169
100
AcDbEntity
  8
LAYER_1
 62
   250
100
AcDbVertex
100
AcDb2dVertex
 10
950.568359375
 20
-1196.248046875
 30
0.0
  0
SEQEND
  5
16F
330
169
100
AcDbEntity
  8
LAYER_1
  0
POLYLINE
  5
170
330
1F
100
AcDbEntity
  8
LAYER_1
 62
   250
100
AcDb2dPolyline
 66
     1
 10
0.0
 20
0.0
 30
0.0
  0
VERTEX
  5
171
330
170
100
AcDbEntity
  8
LAYER_1
 62
   250
100
AcDbVertex
100
AcDb2dVertex
 10
940.103515625
 20
-1193.73046875
 30
0.0
  0
VERTEX
  5
172
330
170
100
AcDbEntity
  8
LAYER_1
 62
   250
100
AcDbVertex
100
AcDb2dVertex
 10
914.5966796875
 20
-1173.27734375
 30
0.0
  0
VERTEX
  5
173
330
170
100
AcDbEntity
  8
LAYER_1
 62
   250
100
AcDbVertex
100
AcDb2dVertex
 10
944.5185546875
 20
-1175.16552734375
 30
0.0
  0
VERTEX
  5
174
330
170
100
AcDbEntity
  8
LAYER_1
 62
   250
100
AcDbVertex
100
AcDb2dVertex
 10
940.25390625
 20
-1193.73046875
 30
0.0
  0
VERTEX
  5
175
330
170
100
AcDbEntity
  8
LAYER_1
 62
   250
100
AcDbVertex
100
AcDb2dVertex
 10
940.103515625
 20
-1193.73046875
 30
0.0
  0
SEQEND
  5
176
330
170
100
AcDbEntity
  8
LAYER_1
  0
POLYLINE
  5
177
330
1F
100
AcDbEntity
  8
LAYER_1
 62
   250
100
AcDb2dPolyline
 66
     1
 10
0.0
 20
0.0
 30
0.0
  0
VERTEX
  5
178
330
177
100
AcDbEntity
  8
LAYER_1
 62
   250
100
AcDbVertex
100
AcDb2dVertex
 10
889.29296875
 20
-1189.07275390625
 30
0.0
  0
VERTEX
  5
179
330
177
100
AcDbEntity
  8
LAYER_1
 62
   250
100
AcDbVertex
100
AcDb2dVertex
 10
846.8623046875
 20
-1182.7744140625
 30
0.0
  0
VERTEX
  5
17A
330
177
100
AcDbEntity
  8
LAYER_1
 62
   250
100
AcDbVertex
100
AcDb2dVertex
 10
856.52099609375
 20
-1173.48046875
 30
0.0
  0
VERTEX
  5
17B
330
177
100
AcDbEntity
  8
LAYER_1
 62
   250
100
AcDbVertex
100
AcDb2dVertex
 10
864.716796875
 20
-1173.48046875
 30
0.0
  0
VERTEX
  5
17C
330
177
100
AcDbEntity
  8
LAYER_1
 62
   250
100
AcDbVertex
100
AcDb2dVertex
 10
875.64404296875
 20
-1173.48046875
 30
0.0
  0
VERTEX
  5
17D
330
177
100
AcDbEntity
  8
LAYER_1
 62
   250
100
AcDbVertex
100
AcDb2dVertex
 10
888.06640625
 20
-1178.369140625
 30
0.0
  0
VERTEX
  5
17E
330
177
100
AcDbEntity
  8
LAYER_1
 62
   250
100
AcDbVertex
100
AcDb2dVertex
 10
896.26220703125
 20
-1178.369140625
 30
0.0
  0
VERTEX
  5
17F
330
177
100
AcDbEntity
  8
LAYER_1
 62
   250
100
AcDbVertex
100
AcDb2dVertex
 10
890.123046875
 20
-1188.9267578125
 30
0.0
  0
VERTEX
  5
180
330
177
100
AcDbEntity
  8
LAYER_1
 62
   250
100
AcDbVertex
100
AcDb2dVertex
 10
889.29296875
 20
-1189.07275390625
 30
0.0
  0
SEQEND
  5
181
330
177
100
AcDbEntity
  8
LAYER_1
  0
POLYLINE
  5
182
330
1F
100
AcDbEntity
  8
LAYER_1
 62
   250
100
AcDb2dPolyline
 66
     1
 10
0.0
 20
0.0
 30
0.0
  0
VERTEX
  5
183
330
182
100
AcDbEntity
  8
LAYER_1
 62
   250
100
AcDbVertex
100
AcDb2dVertex
 10
897.3232421875
 20
-1192.7353515625
 30
0.0
  0
VERTEX
  5
184
330
182
100
AcDbEntity
  8
LAYER_1
 62
   250
100
AcDbVertex
100
AcDb2dVertex
 10
907.1337890625
 20
-1179.3623046875
 30
0.0
  0
VERTEX
  5
185
330
182
100
AcDbEntity
  8
LAYER_1
 62
   250
100
AcDbVertex
100
AcDb2dVertex
 10
923.07568359375
 20
-1196.275390625
 30
0.0
  0
VERTEX
  5
186
330
182
100
AcDbEntity
  8
LAYER_1
 62
   250
100
AcDbVertex
100
AcDb2dVertex
 10
897.3232421875
 20
-1192.7353515625
 30
0.0
  0
SEQEND
  5
187
330
182
100
AcDbEntity
  8
LAYER_1
  0
SPLINE
  5
188
330
1F
100
AcDbEntity
  8
LAYER_1
 62
   250
100
AcDbSpline
210
0.0
220
0.0
230
1.0
 70
    11
 71
     3
 72
    95
 73
    91
 74
     0
 42
0.0000000001
 43
0.0000000001
 40
0.0
 40
0.0
 40
0.0
 40
0.0
 40
1.0
 40
1.0
 40
1.0
 40
2.0
 40
2.0
 40
2.0
 40
3.0
 40
3.0
 40
3.0
 40
4.0
 40
4.0
 40
4.0
 40
5.0
 40
5.0
 40
5.0
 40
6.0
 40
6.0
 40
6.0
 40
7.0
 40
7.0
 40
7.0
 40
8.0
 40
8.0
 40
8.0
 40
9.0
 40
9.0
 40
9.0
 40
10.0
 40
10.0
 40
10.0
 40
11.0
 40
11.0
 40
11.0
 40
12.0
 40
12.0
 40
12.0
 40
13.0
 40
13.0
 40
13.0
 40
14.0
 40
14.0
 40
14.0
 40
15.0
 40
15.0
 40
15.0
 40
16.0
 40
16.0
 40
16.0
 40
17.0
 40
17.0
 40
17.0
 40
18.0
 40
18.0
 40
18.0
 40
19.0
 40
19.0
 40
19.0
 40
20.0
 40
20.0
 40
20.0
 40
21.0
 40
21.0
 40
21.0
 40
22.0
 40
22.0
 40
22.0
 40
23.0
 40
23.0
 40
23.0
 40
24.0
 40
24.0
 40
24.0
 40
25.0
 40
25.0
 40
25.0
 40
26.0
 40
26.0
 40
26.0
 40
27.0
 40
27.0
 40
27.0
 40
28.0
 40
28.0
 40
28.0
 40
29.0
 40
29.0
 40
29.0
 40
30.0
 40
30.0
 40
30.0
 40
30.0
 10
495.56494140625
 20
-849.443359375
 30
0.0
 10
504.083984375
 20
-850.7041015625
 30
0.0
 10
512.03466796875
 20
-850.4716796875
 30
0.0
 10
520.15185546875
 20
-849.443359375
 30
0.0
 10
522.857421875
 20
-849.1005859375
 30
0.0
 10
525.7578125
 20
-848.7998046875
 30
0.0
 10
528.068359375
 20
-847.40234375
 30
0.0
 10
529.369140625
 20
-846.615234375
 30
0.0
 10
529.77587890625
 20
-844.82177734375
 30
0.0
 10
531.0771484375
 20
-844.03466796875
 30
0.0
 10
536.46826171875
 20
-840.77392578125
 30
0.0
 10
543.740234375
 20
-836.7607421875
 30
0.0
 10
549.54833984375
 20
-839.2724609375
 30
0.0
 10
551.05615234375
 20
-839.92431640625
 30
0.0
 10
551.98095703125
 20
-841.9658203125
 30
0.0
 10
551.77099609375
 20
-843.54296875
 30
0.0
 10
551.4267578125
 20
-846.1328125
 30
0.0
 10
545.28515625
 20
-847.06591796875
 30
0.0
 10
546.40625
 20
-849.443359375
 30
0.0
 10
549.037109375
 20
-855.02294921875
 30
0.0
 10
559.17578125
 20
-849.86181640625
 30
0.0
 10
565.52880859375
 20
-849.443359375
 30
0.0
 10
572.99560546875
 20
-848.95068359375
 30
0.0
 10
581.74853515625
 20
-850.73828125
 30
0.0
 10
587.7939453125
 20
-846.4931640625
 30
0.0
 10
591.4521484375
 20
-843.9248046875
 30
0.0
 10
591.05322265625
 20
-838.24951171875
 30
0.0
 10
593.669921875
 20
-834.693359375
 30
0.0
 10
594.7216796875
 20
-833.2646484375
 30
0.0
 10
595.9580078125
 20
-831.85107421875
 30
0.0
 10
597.53369140625
 20
-830.9755859375
 30
0.0
 10
601.47265625
 20
-828.78759765625
 30
0.0
 10
607.95849609375
 20
-831.04638671875
 30
0.0
 10
610.7275390625
 20
-827.57421875
 30
0.0
 10
611.8349609375
 20
-826.18505859375
 30
0.0
 10
611.8349609375
 20
-823.70556640625
 30
0.0
 10
610.7275390625
 20
-822.31689453125
 30
0.0
 10
609.6201171875
 20
-820.927734375
 30
0.0
 10
606.736328125
 20
-822.1943359375
 30
0.0
 10
605.44970703125
 20
-820.9560546875
 30
0.0
 10
604.16357421875
 20
-819.71826171875
 30
0.0
 10
605.5302734375
 20
-816.87646484375
 30
0.0
 10
604.03564453125
 20
-815.8779296875
 30
0.0
 10
600.6962890625
 20
-813.646484375
 30
0.0
 10
594.98583984375
 20
-814.46728515625
 30
0.0
 10
591.8818359375
 20
-816.99365234375
 30
0.0
 10
590.49267578125
 20
-818.1240234375
 30
0.0
 10
591.37744140625
 20
-820.5556640625
 30
0.0
 10
590.4677734375
 20
-822.07177734375
 30
0.0
 10
589.10302734375
 20
-824.345703125
 30
0.0
 10
586.69873046875
 20
-825.888671875
 30
0.0
 10
584.67236328125
 20
-827.64794921875
 30
0.0
 10
582.00341796875
 20
-829.96484375
 30
0.0
 10
579.6318359375
 20
-832.9091796875
 30
0.0
 10
576.29736328125
 20
-834.20166015625
 30
0.0
 10
570.595703125
 20
-836.41162109375
 30
0.0
 10
562.9306640625
 20
-839.0791015625
 30
0.0
 10
557.90283203125
 20
-835.6767578125
 30
0.0
 10
556.41455078125
 20
-834.66943359375
 30
0.0
 10
558.08837890625
 20
-831.43212890625
 30
0.0
 10
556.48876953125
 20
-830.5986328125
 30
0.0
 10
554.40576171875
 20
-829.5126953125
 30
0.0
 10
552.01416015625
 20
-832.1328125
 30
0.0
 10
549.72705078125
 20
-832.7265625
 30
0.0
 10
541.4951171875
 20
-834.86474609375
 30
0.0
 10
533.16943359375
 20
-837.02490234375
 30
0.0
 10
524.68994140625
 20
-837.88916015625
 30
0.0
 10
522.880859375
 20
-838.07373046875
 30
0.0
 10
520.5126953125
 20
-839.126953125
 30
0.0
 10
519.2265625
 20
-837.88916015625
 30
0.0
 10
517.93994140625
 20
-836.6513671875
 30
0.0
 10
520.5126953125
 20
-833.86962890625
 30
0.0
 10
519.2265625
 20
-832.6318359375
 30
0.0
 10
518.5830078125
 20
-832.0126953125
 30
0.0
 10
517.40185546875
 20
-832.57177734375
 30
0.0
 10
516.49462890625
 20
-832.6318359375
 30
0.0
 10
514.04736328125
 20
-832.7939453125
 30
0.0
 10
510.8095703125
 20
-831.82275390625
 30
0.0
 10
509.1982421875
 20
-833.60205078125
 30
0.0
 10
507.4052734375
 20
-835.58203125
 30
0.0
 10
511.08642578125
 20
-839.591796875
 30
0.0
 10
509.1982421875
 20
-841.48779296875
 30
0.0
 10
505.88427734375
 20
-844.8154296875
 30
0.0
 10
500.2919921875
 20
-842.076171875
 30
0.0
 10
494.82861328125
 20
-842.076171875
 30
0.0
 10
494.05029296875
 20
-842.52978515625
 30
0.0
 10
493.52880859375
 20
-843.4794921875
 30
0.0
 10
493.46240234375
 20
-844.3525390625
 30
0.0
 10
493.32470703125
 20
-846.171875
 30
0.0
 10
493.99658203125
 20
-848.4189453125
 30
0.0
 10
495.56494140625
 20
-849.443359375
 30
0.0
  0
SPLINE
  5
189
330
1F
100
AcDbEntity
  8
LAYER_1
 62
   250
100
AcDbSpline
210
0.0
220
0.0
230
1.0
 70
    11
 71
     3
 72
    62
 73
    58
 74
     0
 42
0.0000000001
 43
0.0000000001
 40
0.0
 40
0.0
 40
0.0
 40
0.0
 40
1.0
 40
1.0
 40
1.0
 40
2.0
 40
2.0
 40
2.0
 40
3.0
 40
3.0
 40
3.0
 40
4.0
 40
4.0
 40
4.0
 40
5.0
 40
5.0
 40
5.0
 40
6.0
 40
6.0
 40
6.0
 40
7.0
 40
7.0
 40
7.0
 40
8.0
 40
8.0
 40
8.0
 40
9.0
 40
9.0
 40
9.0
 40
10.0
 40
10.0
 40
10.0
 40
11.0
 40
11.0
 40
11.0
 40
12.0
 40
12.0
 40
12.0
 40
13.0
 40
13.0
 40
13.0
 40
14.0
 40
14.0
 40
14.0
 40
15.0
 40
15.0
 40
15.0
 40
16.0
 40
16.0
 40
16.0
 40
17.0
 40
17.0
 40
17.0
 40
18.0
 40
18.0
 40
18.0
 40
19.0
 40
19.0
 40
19.0
 40
19.0
 10
560.0849609375
 20
-821.525390625
 30
0.0
 10
558.421875
 20
-811.38134765625
 30
0.0
 10
558.51318359375
 20
-801.3974609375
 30
0.0
 10
560.35693359375
 20
-791.57421875
 30
0.0
 10
562.02197265625
 20
-782.7001953125
 30
0.0
 10
566.20361328125
 20
-774.3623046875
 30
0.0
 10
570.19921875
 20
-766.20556640625
 30
0.0
 10
573.689453125
 20
-759.0791015625
 30
0.0
 10
577.12744140625
 20
-751.66845703125
 30
0.0
 10
582.4921875
 20
-745.71728515625
 30
0.0
 10
587.435546875
 20
-740.23388671875
 30
0.0
 10
593.7587890625
 20
-736.1455078125
 30
0.0
 10
600.02978515625
 20
-731.9873046875
 30
0.0
 10
593.94384765625
 20
-733.28662109375
 30
0.0
 10
587.85888671875
 20
-734.5625
 30
0.0
 10
582.12939453125
 20
-736.84619140625
 30
0.0
 10
570.36279296875
 20
-741.53564453125
 30
0.0
 10
558.8896484375
 20
-747.51611328125
 30
0.0
 10
549.00732421875
 20
-755.24658203125
 30
0.0
 10
541.41015625
 20
-761.189453125
 30
0.0
 10
535.63916015625
 20
-769.0693359375
 30
0.0
 10
529.41650390625
 20
-776.3427734375
 30
0.0
 10
524.041015625
 20
-782.6259765625
 30
0.0
 10
521.0986328125
 20
-791.28173828125
 30
0.0
 10
514.0810546875
 20
-795.82421875
 30
0.0
 10
511.81640625
 20
-797.28955078125
 30
0.0
 10
507.826171875
 20
-795.78173828125
 30
0.0
 10
506.16455078125
 20
-797.865234375
 30
0.0
 10
505.61083984375
 20
-798.5595703125
 30
0.0
 10
505.57666015625
 20
-799.82568359375
 30
0.0
 10
506.16455078125
 20
-800.49365234375
 30
0.0
 10
507.50244140625
 20
-802.01318359375
 30
0.0
 10
511.82763671875
 20
-799.537109375
 30
0.0
 10
512.29638671875
 20
-801.47705078125
 30
0.0
 10
512.63671875
 20
-802.88818359375
 30
0.0
 10
509.30859375
 20
-802.72216796875
 30
0.0
 10
508.62109375
 20
-804.0107421875
 30
0.0
 10
508.205078125
 20
-804.7890625
 30
0.0
 10
507.9775390625
 20
-806.0205078125
 30
0.0
 10
508.62109375
 20
-806.6396484375
 30
0.0
 10
509.9072265625
 20
-807.87744140625
 30
0.0
 10
512.68017578125
 20
-805.5263671875
 30
0.0
 10
514.08447265625
 20
-806.6396484375
 30
0.0
 10
516.03515625
 20
-808.185546875
 30
0.0
 10
515.2939453125
 20
-811.38671875
 30
0.0
 10
515.537109375
 20
-813.80712890625
 30
0.0
 10
515.88671875
 20
-817.29248046875
 30
0.0
 10
513.32177734375
 20
-821.5439453125
 30
0.0
 10
515.537109375
 20
-824.32177734375
 30
0.0
 10
517.75244140625
 20
-827.099609375
 30
0.0
 10
522.46240234375
 20
-826.7978515625
 30
0.0
 10
526.09228515625
 20
-827.04345703125
 30
0.0
 10
533.36181640625
 20
-827.5341796875
 30
0.0
 10
540.6611328125
 20
-825.82421875
 30
0.0
 10
547.8154296875
 20
-824.48779296875
 30
0.0
 10
551.9541015625
 20
-823.71484375
 30
0.0
 10
556.044921875
 20
-822.72705078125
 30
0.0
 10
560.0849609375
 20
-821.525390625
 30
0.0
  0
SPLINE
  5
18A
330
1F
100
AcDbEntity
  8
LAYER_1
 62
   250
100
AcDbSpline
210
0.0
220
0.0
230
1.0
 70
    11
 71
     3
 72
    47
 73
    43
 74
     0
 42
0.0000000001
 43
0.0000000001
 40
0.0
 40
0.0
 40
0.0
 40
0.0
 40
1.0
 40
1.0
 40
1.0
 40
2.0
 40
2.0
 40
2.0
 40
3.0
 40
3.0
 40
3.0
 40
4.0
 40
4.0
 40
4.0
 40
5.0
 40
5.0
 40
5.0
 40
6.0
 40
6.0
 40
6.0
 40
7.0
 40
7.0
 40
7.0
 40
8.0
 40
8.0
 40
8.0
 40
9.0
 40
9.0
 40
9.0
 40
10.0
 40
10.0
 40
10.0
 40
11.0
 40
11.0
 40
11.0
 40
12.0
 40
12.0
 40
12.0
 40
13.0
 40
13.0
 40
13.0
 40
14.0
 40
14.0
 40
14.0
 40
14.0
 10
813.27392578125
 20
-942.17333984375
 30
0.0
 10
813.97021484375
 20
-944.060546875
 30
0.0
 10
813.97021484375
 20
-945.81298828125
 30
0.0
 10
813.27392578125
 20
-947.4306640625
 30
0.0
 10
812.2294921875
 20
-949.8564453125
 30
0.0
 10
809.64404296875
 20
-951.408203125
 30
0.0
 10
807.47900390625
 20
-953.0068359375
 30
0.0
 10
806.75732421875
 20
-953.53955078125
 30
0.0
 10
805.56787109375
 20
-953.56298828125
 30
0.0
 10
805.11279296875
 20
-954.3212890625
 30
0.0
 10
803.29345703125
 20
-957.353515625
 30
0.0
 10
802.396484375
 20
-962.50634765625
 30
0.0
 10
805.11279296875
 20
-964.8359375
 30
0.0
 10
808.05712890625
 20
-967.35986328125
 30
0.0
 10
812.93994140625
 20
-963.74560546875
 30
0.0
 10
816.876953125
 20
-963.52734375
 30
0.0
 10
817.78515625
 20
-963.4765625
 30
0.0
 10
818.69921875
 20
-963.52734375
 30
0.0
 10
819.60888671875
 20
-963.52734375
 30
0.0
 10
820.5185546875
 20
-963.52734375
 30
0.0
 10
821.552734375
 20
-963.96484375
 30
0.0
 10
822.3408203125
 20
-963.52734375
 30
0.0
 10
824.7041015625
 20
-962.21435546875
 30
0.0
 10
826.08251953125
 20
-959.30126953125
 30
0.0
 10
826.4384765625
 20
-956.69775390625
 30
0.0
 10
826.794921875
 20
-954.09423828125
 30
0.0
 10
824.86962890625
 20
-951.65234375
 30
0.0
 10
824.3173828125
 20
-949.08056640625
 30
0.0
 10
823.82861328125
 20
-946.8037109375
 30
0.0
 10
822.5986328125
 20
-944.408203125
 30
0.0
 10
823.26416015625
 20
-942.17333984375
 30
0.0
 10
823.26416015625
 20
-942.17333984375
 30
0.0
 10
867.19482421875
 20
-942.17333984375
 30
0.0
 10
867.19482421875
 20
-942.17333984375
 30
0.0
 10
867.19482421875
 20
-942.17333984375
 30
0.0
 10
867.19482421875
 20
-932.33984375
 30
0.0
 10
867.19482421875
 20
-932.33984375
 30
0.0
 10
867.19482421875
 20
-932.33984375
 30
0.0
 10
813.27392578125
 20
-932.33984375
 30
0.0
 10
813.27392578125
 20
-932.33984375
 30
0.0
 10
813.27392578125
 20
-932.33984375
 30
0.0
 10
813.27392578125
 20
-942.17333984375
 30
0.0
 10
813.27392578125
 20
-942.17333984375
 30
0.0
  0
SPLINE
  5
18B
330
1F
100
AcDbEntity
  8
LAYER_1
 62
   250
100
AcDbSpline
210
0.0
220
0.0
230
1.0
 70
    11
 71
     3
 72
   173
 73
   169
 74
     0
 42
0.0000000001
 43
0.0000000001
 40
0.0
 40
0.0
 40
0.0
 40
0.0
 40
1.0
 40
1.0
 40
1.0
 40
2.0
 40
2.0
 40
2.0
 40
3.0
 40
3.0
 40
3.0
 40
4.0
 40
4.0
 40
4.0
 40
5.0
 40
5.0
 40
5.0
 40
6.0
 40
6.0
 40
6.0
 40
7.0
 40
7.0
 40
7.0
 40
8.0
 40
8.0
 40
8.0
 40
9.0
 40
9.0
 40
9.0
 40
10.0
 40
10.0
 40
10.0
 40
11.0
 40
11.0
 40
11.0
 40
12.0
 40
12.0
 40
12.0
 40
13.0
 40
13.0
 40
13.0
 40
14.0
 40
14.0
 40
14.0
 40
15.0
 40
15.0
 40
15.0
 40
16.0
 40
16.0
 40
16.0
 40
17.0
 40
17.0
 40
17.0
 40
18.0
 40
18.0
 40
18.0
 40
19.0
 40
19.0
 40
19.0
 40
20.0
 40
20.0
 40
20.0
 40
21.0
 40
21.0
 40
21.0
 40
22.0
 40
22.0
 40
22.0
 40
23.0
 40
23.0
 40
23.0
 40
24.0
 40
24.0
 40
24.0
 40
25.0
 40
25.0
 40
25.0
 40
26.0
 40
26.0
 40
26.0
 40
27.0
 40
27.0
 40
27.0
 40
28.0
 40
28.0
 40
28.0
 40
29.0
 40
29.0
 40
29.0
 40
30.0
 40
30.0
 40
30.0
 40
31.0
 40
31.0
 40
31.0
 40
32.0
 40
32.0
 40
32.0
 40
33.0
 40
33.0
 40
33.0
 40
34.0
 40
34.0
 40
34.0
 40
35.0
 40
35.0
 40
35.0
 40
36.0
 40
36.0
 40
36.0
 40
37.0
 40
37.0
 40
37.0
 40
38.0
 40
38.0
 40
38.0
 40
39.0
 40
39.0
 40
39.0
 40
40.0
 40
40.0
 40
40.0
 40
41.0
 40
41.0
 40
41.0
 40
42.0
 40
42.0
 40
42.0
 40
43.0
 40
43.0
 40
43.0
 40
44.0
 40
44.0
 40
44.0
 40
45.0
 40
45.0
 40
45.0
 40
46.0
 40
46.0
 40
46.0
 40
47.0
 40
47.0
 40
47.0
 40
48.0
 40
48.0
 40
48.0
 40
49.0
 40
49.0
 40
49.0
 40
50.0
 40
50.0
 40
50.0
 40
51.0
 40
51.0
 40
51.0
 40
52.0
 40
52.0
 40
52.0
 40
53.0
 40
53.0
 40
53.0
 40
54.0
 40
54.0
 40
54.0
 40
55.0
 40
55.0
 40
55.0
 40
56.0
 40
56.0
 40
56.0
 40
56.0
 10
907.4453125
 20
-1123.82861328125
 30
0.0
 10
907.0966796875
 20
-1125.466796875
 30
0.0
 10
906.439453125
 20
-1127.10302734375
 30
0.0
 10
905.4130859375
 20
-1128.45068359375
 30
0.0
 10
904.0927734375
 20
-1130.18408203125
 30
0.0
 10
902.53466796875
 20
-1132.54248046875
 30
0.0
 10
900.30322265625
 20
-1132.6298828125
 30
0.0
 10
898.2421875
 20
-1132.71044921875
 30
0.0
 10
896.8447265625
 20
-1130.4365234375
 30
0.0
 10
895.2724609375
 20
-1129.15087890625
 30
0.0
 10
894.5791015625
 20
-1128.583984375
 30
0.0
 10
893.98388671875
 20
-1127.9111328125
 30
0.0
 10
893.3408203125
 20
-1127.2919921875
 30
0.0
 10
891.4111328125
 20
-1125.435546875
 30
0.0
 10
890.06689453125
 20
-1122.720703125
 30
0.0
 10
887.5458984375
 20
-1121.7158203125
 30
0.0
 10
885.86474609375
 20
-1121.0458984375
 30
0.0
 10
883.8857421875
 20
-1121.4873046875
 30
0.0
 10
882.08203125
 20
-1121.7158203125
 30
0.0
 10
879.3759765625
 20
-1122.05859375
 30
0.0
 10
876.68701171875
 20
-1124.76220703125
 30
0.0
 10
874.16552734375
 20
-1123.7568359375
 30
0.0
 10
872.48486328125
 20
-1123.0869140625
 30
0.0
 10
871.90478515625
 20
-1120.89501953125
 30
0.0
 10
871.43359375
 20
-1119.2041015625
 30
0.0
 10
871.15185546875
 20
-1118.19189453125
 30
0.0
 10
871.03857421875
 20
-1117.1572265625
 30
0.0
 10
871.09716796875
 20
-1116.1044921875
 30
0.0
 10
873.81884765625
 20
-1114.1748046875
 30
0.0
 10
876.5185546875
 20
-1112.2119140625
 30
0.0
 10
879.1982421875
 20
-1110.220703125
 30
0.0
 10
879.1982421875
 20
-1110.220703125
 30
0.0
 10
881.80859375
 20
-1114.765625
 30
0.0
 10
881.80859375
 20
-1114.765625
 30
0.0
 10
881.80859375
 20
-1114.765625
 30
0.0
 10
888.78564453125
 20
-1111.0546875
 30
0.0
 10
888.78564453125
 20
-1111.0546875
 30
0.0
 10
888.78564453125
 20
-1111.0546875
 30
0.0
 10
832.10595703125
 20
-1012.39453125
 30
0.0
 10
832.10595703125
 20
-1012.39453125
 30
0.0
 10
832.10595703125
 20
-1012.39453125
 30
0.0
 10
825.12890625
 20
-1016.10595703125
 30
0.0
 10
825.12890625
 20
-1016.10595703125
 30
0.0
 10
825.12890625
 20
-1016.10595703125
 30
0.0
 10
863.7734375
 20
-1083.37353515625
 30
0.0
 10
863.7734375
 20
-1083.37353515625
 30
0.0
 10
863.2939453125
 20
-1083.2998046875
 30
0.0
 10
862.81689453125
 20
-1083.2041015625
 30
0.0
 10
862.34375
 20
-1083.08203125
 30
0.0
 10
860.58642578125
 20
-1082.62939453125
 30
0.0
 10
859.36962890625
 20
-1080.90673828125
 30
0.0
 10
857.6123046875
 20
-1080.45361328125
 30
0.0
 10
855.017578125
 20
-1079.78466796875
 30
0.0
 10
852.234375
 20
-1080.4326171875
 30
0.0
 10
849.54638671875
 20
-1080.453125
 30
0.0
 10
849.54638671875
 20
-1080.453125
 30
0.0
 10
815.2822265625
 20
-1020.8076171875
 30
0.0
 10
815.2822265625
 20
-1020.8076171875
 30
0.0
 10
815.2822265625
 20
-1020.8076171875
 30
0.0
 10
808.3046875
 20
-1024.5185546875
 30
0.0
 10
808.3046875
 20
-1024.5185546875
 30
0.0
 10
808.3046875
 20
-1024.5185546875
 30
0.0
 10
840.43896484375
 20
-1080.45361328125
 30
0.0
 10
840.43896484375
 20
-1080.45361328125
 30
0.0
 10
837.96923828125
 20
-1080.45361328125
 30
0.0
 10
835.494140625
 20
-1080.45361328125
 30
0.0
 10
833.025390625
 20
-1080.45361328125
 30
0.0
 10
831.630859375
 20
-1080.45361328125
 30
0.0
 10
830.232421875
 20
-1080.45361328125
 30
0.0
 10
828.83642578125
 20
-1080.45361328125
 30
0.0
 10
828.83642578125
 20
-1080.45361328125
 30
0.0
 10
812.3271484375
 20
-1051.716796875
 30
0.0
 10
812.3271484375
 20
-1051.716796875
 30
0.0
 10
812.3271484375
 20
-1051.716796875
 30
0.0
 10
805.349609375
 20
-1055.427734375
 30
0.0
 10
805.349609375
 20
-1055.427734375
 30
0.0
 10
805.349609375
 20
-1055.427734375
 30
0.0
 10
819.72705078125
 20
-1080.45361328125
 30
0.0
 10
819.72705078125
 20
-1080.45361328125
 30
0.0
 10
819.6064453125
 20
-1080.45361328125
 30
0.0
 10
819.486328125
 20
-1080.45361328125
 30
0.0
 10
819.3662109375
 20
-1080.45361328125
 30
0.0
 10
818.45654296875
 20
-1080.45361328125
 30
0.0
 10
817.5439453125
 20
-1080.45361328125
 30
0.0
 10
816.63427734375
 20
-1080.45361328125
 30
0.0
 10
814.6171875
 20
-1080.45361328125
 30
0.0
 10
812.57568359375
 20
-1080.68603515625
 30
0.0
 10
810.5615234375
 20
-1080.6357421875
 30
0.0
 10
810.5615234375
 20
-1080.6357421875
 30
0.0
 10
796.97900390625
 20
-1056.9912109375
 30
0.0
 10
796.97900390625
 20
-1056.9912109375
 30
0.0
 10
796.97900390625
 20
-1056.9912109375
 30
0.0
 10
790.00146484375
 20
-1060.7021484375
 30
0.0
 10
790.00146484375
 20
-1060.7021484375
 30
0.0
 10
790.00146484375
 20
-1060.7021484375
 30
0.0
 10
799.9560546875
 20
-1078.02880859375
 30
0.0
 10
799.9560546875
 20
-1078.02880859375
 30
0.0
 10
798.6025390625
 20
-1077.99169921875
 30
0.0
 10
797.2314453125
 20
-1078.14892578125
 30
0.0
 10
795.87646484375
 20
-1078.14892578125
 30
0.0
 10
793.1474609375
 20
-1078.14892578125
 30
0.0
 10
790.2646484375
 20
-1078.99462890625
 30
0.0
 10
787.6806640625
 20
-1078.14892578125
 30
0.0
 10
785.8798828125
 20
-1077.5595703125
 30
0.0
 10
784.3330078125
 20
-1076.509765625
 30
0.0
 10
783.044921875
 20
-1075.0029296875
 30
0.0
 10
783.044921875
 20
-1075.0029296875
 30
0.0
 10
778.85400390625
 20
-1067.70458984375
 30
0.0
 10
778.85400390625
 20
-1067.70458984375
 30
0.0
 10
778.85400390625
 20
-1067.70458984375
 30
0.0
 10
771.87646484375
 20
-1071.416015625
 30
0.0
 10
771.87646484375
 20
-1071.416015625
 30
0.0
 10
771.87646484375
 20
-1071.416015625
 30
0.0
 10
782.49560546875
 20
-1089.89208984375
 30
0.0
 10
782.49560546875
 20
-1089.89208984375
 30
0.0
 10
782.9501953125
 20
-1093.1494140625
 30
0.0
 10
782.68310546875
 20
-1096.30859375
 30
0.0
 10
781.69287109375
 20
-1099.3583984375
 30
0.0
 10
780.78759765625
 20
-1102.1474609375
 30
0.0
 10
777.779296875
 20
-1103.921875
 30
0.0
 10
776.50341796875
 20
-1106.5732421875
 30
0.0
 10
774.59228515625
 20
-1110.544921875
 30
0.0
 10
774.1455078125
 20
-1115.041015625
 30
0.0
 10
772.96826171875
 20
-1119.2685546875
 30
0.0
 10
772.3369140625
 20
-1121.5361328125
 30
0.0
 10
771.70556640625
 20
-1123.80322265625
 30
0.0
 10
771.0732421875
 20
-1126.07373046875
 30
0.0
 10
771.0732421875
 20
-1126.07373046875
 30
0.0
 10
930.8408203125
 20
-1148.326171875
 30
0.0
 10
930.8408203125
 20
-1148.326171875
 30
0.0
 10
933.8642578125
 20
-1146.11767578125
 30
0.0
 10
936.38134765625
 20
-1142.81640625
 30
0.0
 10
939.21337890625
 20
-1140.388671875
 30
0.0
 10
941.93017578125
 20
-1138.05908203125
 30
0.0
 10
945.5478515625
 20
-1136.1884765625
 30
0.0
 10
946.93994140625
 20
-1132.95361328125
 30
0.0
 10
947.984375
 20
-1130.52734375
 30
0.0
 10
949.359375
 20
-1126.283203125
 30
0.0
 10
946.93994140625
 20
-1125.06787109375
 30
0.0
 10
940.50732421875
 20
-1121.83544921875
 30
0.0
 10
936.109375
 20
-1135.40625
 30
0.0
 10
929.056640625
 20
-1137.0517578125
 30
0.0
 10
925.9287109375
 20
-1137.78173828125
 30
0.0
 10
922.2451171875
 20
-1137.4013671875
 30
0.0
 10
919.4755859375
 20
-1135.82275390625
 30
0.0
 10
917.16748046875
 20
-1134.5068359375
 30
0.0
 10
913.49267578125
 20
-1131.87890625
 30
0.0
 10
914.7041015625
 20
-1129.5751953125
 30
0.0
 10
915.52587890625
 20
-1128.01318359375
 30
0.0
 10
918.724609375
 20
-1130.64111328125
 30
0.0
 10
920.16796875
 20
-1129.5751953125
 30
0.0
 10
924.49853515625
 20
-1126.3779296875
 30
0.0
 10
925.123046875
 20
-1119.5478515625
 30
0.0
 10
924.41015625
 20
-1114.3408203125
 30
0.0
 10
923.69775390625
 20
-1109.1337890625
 30
0.0
 10
920.544921875
 20
-1103.87939453125
 30
0.0
 10
916.21484375
 20
-1100.68212890625
 30
0.0
 10
914.34326171875
 20
-1099.2998046875
 30
0.0
 10
912.11767578125
 20
-1098.6044921875
 30
0.0
 10
909.5380859375
 20
-1098.5966796875
 30
0.0
 10
909.5380859375
 20
-1098.5966796875
 30
0.0
 10
864.02783203125
 20
-1013.291015625
 30
0.0
 10
864.02783203125
 20
-1013.291015625
 30
0.0
 10
864.02783203125
 20
-1013.291015625
 30
0.0
 10
847.63671875
 20
-1013.291015625
 30
0.0
 10
847.63671875
 20
-1013.291015625
 30
0.0
 10
847.63671875
 20
-1013.291015625
 30
0.0
 10
907.4453125
 20
-1123.82861328125
 30
0.0
 10
907.4453125
 20
-1123.82861328125
 30
0.0
  0
SPLINE
  5
18C
330
1F
100
AcDbEntity
  8
LAYER_1
 62
   250
100
AcDbSpline
210
0.0
220
0.0
230
1.0
 70
    11
 71
     3
 72
   191
 73
   187
 74
     0
 42
0.0000000001
 43
0.0000000001
 40
0.0
 40
0.0
 40
0.0
 40
0.0
 40
1.0
 40
1.0
 40
1.0
 40
2.0
 40
2.0
 40
2.0
 40
3.0
 40
3.0
 40
3.0
 40
4.0
 40
4.0
 40
4.0
 40
5.0
 40
5.0
 40
5.0
 40
6.0
 40
6.0
 40
6.0
 40
7.0
 40
7.0
 40
7.0
 40
8.0
 40
8.0
 40
8.0
 40
9.0
 40
9.0
 40
9.0
 40
10.0
 40
10.0
 40
10.0
 40
11.0
 40
11.0
 40
11.0
 40
12.0
 40
12.0
 40
12.0
 40
13.0
 40
13.0
 40
13.0
 40
14.0
 40
14.0
 40
14.0
 40
15.0
 40
15.0
 40
15.0
 40
16.0
 40
16.0
 40
16.0
 40
17.0
 40
17.0
 40
17.0
 40
18.0
 40
18.0
 40
18.0
 40
19.0
 40
19.0
 40
19.0
 40
20.0
 40
20.0
 40
20.0
 40
21.0
 40
21.0
 40
21.0
 40
22.0
 40
22.0
 40
22.0
 40
23.0
 40
23.0
 40
23.0
 40
24.0
 40
24.0
 40
24.0
 40
25.0
 40
25.0
 40
25.0
 40
26.0
 40
26.0
 40
26.0
 40
27.0
 40
27.0
 40
27.0
 40
28.0
 40
28.0
 40
28.0
 40
29.0
 40
29.0
 40
29.0
 40
30.0
 40
30.0
 40
30.0
 40
31.0
 40
31.0
 40
31.0
 40
32.0
 40
32.0
 40
32.0
 40
33.0
 40
33.0
 40
33.0
 40
34.0
 40
34.0
 40
34.0
 40
35.0
 40
35.0
 40
35.0
 40
36.0
 40
36.0
 40
36.0
 40
37.0
 40
37.0
 40
37.0
 40
38.0
 40
38.0
 40
38.0
 40
39.0
 40
39.0
 40
39.0
 40
40.0
 40
40.0
 40
40.0
 40
41.0
 40
41.0
 40
41.0
 40
42.0
 40
42.0
 40
42.0
 40
43.0
 40
43.0
 40
43.0
 40
44.0
 40
44.0
 40
44.0
 40
45.0
 40
45.0
 40
45.0
 40
46.0
 40
46.0
 40
46.0
 40
47.0
 40
47.0
 40
47.0
 40
48.0
 40
48.0
 40
48.0
 40
49.0
 40
49.0
 40
49.0
 40
50.0
 40
50.0
 40
50.0
 40
51.0
 40
51.0
 40
51.0
 40
52.0
 40
52.0
 40
52.0
 40
53.0
 40
53.0
 40
53.0
 40
54.0
 40
54.0
 40
54.0
 40
55.0
 40
55.0
 40
55.0
 40
56.0
 40
56.0
 40
56.0
 40
57.0
 40
57.0
 40
57.0
 40
58.0
 40
58.0
 40
58.0
 40
59.0
 40
59.0
 40
59.0
 40
60.0
 40
60.0
 40
60.0
 40
61.0
 40
61.0
 40
61.0
 40
62.0
 40
62.0
 40
62.0
 40
62.0
 10
452.56640625
 20
-593.140625
 30
0.0
 10
452.56640625
 20
-593.140625
 30
0.0
 10
464.85205078125
 20
-593.14208984375
 30
0.0
 10
464.85205078125
 20
-593.14208984375
 30
0.0
 10
464.90869140625
 20
-593.3203125
 30
0.0
 10
464.96826171875
 20
-593.4951171875
 30
0.0
 10
465.03125
 20
-593.6689453125
 30
0.0
 10
466.4013671875
 20
-597.44970703125
 30
0.0
 10
467.64599609375
 20
-601.623046875
 30
0.0
 10
470.61962890625
 20
-604.423828125
 30
0.0
 10
472.61669921875
 20
-606.30517578125
 30
0.0
 10
476.22216796875
 20
-605.9853515625
 30
0.0
 10
478.20458984375
 20
-607.880859375
 30
0.0
 10
481.0302734375
 20
-610.58251953125
 30
0.0
 10
484.32861328125
 20
-614.52587890625
 30
0.0
 10
483.39404296875
 20
-618.251953125
 30
0.0
 10
482.1025390625
 20
-623.3994140625
 30
0.0
 10
474.24267578125
 20
-624.240234375
 30
0.0
 10
470.220703125
 20
-627.8544921875
 30
0.0
 10
466.22705078125
 20
-631.44384765625
 30
0.0
 10
460.28759765625
 20
-634.56689453125
 30
0.0
 10
459.4423828125
 20
-639.76171875
 30
0.0
 10
458.63916015625
 20
-644.7021484375
 30
0.0
 10
467.8740234375
 20
-649.05810546875
 30
0.0
 10
465.6064453125
 20
-653.55712890625
 30
0.0
 10
464.01904296875
 20
-656.7080078125
 30
0.0
 10
457.80029296875
 20
-653.984375
 30
0.0
 10
455.05126953125
 20
-656.27880859375
 30
0.0
 10
452.76123046875
 20
-658.18994140625
 30
0.0
 10
452.7939453125
 20
-661.7080078125
 30
0.0
 10
451.47509765625
 20
-664.3349609375
 30
0.0
 10
450.0439453125
 20
-667.18603515625
 30
0.0
 10
447.1552734375
 20
-669.5517578125
 30
0.0
 10
446.7705078125
 20
-672.6962890625
 30
0.0
 10
446.451171875
 20
-675.3046875
 30
0.0
 10
450.099609375
 20
-677.958984375
 30
0.0
 10
448.8916015625
 20
-680.31396484375
 30
0.0
 10
447.88427734375
 20
-682.27685546875
 30
0.0
 10
444.6171875
 20
-681.8564453125
 30
0.0
 10
442.576171875
 20
-682.82373046875
 30
0.0
 10
440.1279296875
 20
-683.984375
 30
0.0
 10
436.419921875
 20
-684.3017578125
 30
0.0
 10
435.478515625
 20
-686.7666015625
 30
0.0
 10
434.93359375
 20
-688.19482421875
 30
0.0
 10
437.16943359375
 20
-689.55029296875
 30
0.0
 10
437.0751953125
 20
-691.06884765625
 30
0.0
 10
436.87841796875
 20
-694.25146484375
 30
0.0
 10
435.45654296875
 20
-697.9609375
 30
0.0
 10
432.63916015625
 20
-699.6396484375
 30
0.0
 10
431.09228515625
 20
-700.56103515625
 30
0.0
 10
428.4619140625
 20
-698.4013671875
 30
0.0
 10
427.17529296875
 20
-699.6396484375
 30
0.0
 10
425.88916015625
 20
-700.87744140625
 30
0.0
 10
427.943359375
 20
-703.3095703125
 30
0.0
 10
427.17529296875
 20
-704.896484375
 30
0.0
 10
425.81103515625
 20
-707.71630859375
 30
0.0
 10
422.1279296875
 20
-708.8046875
 30
0.0
 10
419.74609375
 20
-710.9072265625
 30
0.0
 10
417.064453125
 20
-713.27392578125
 30
0.0
 10
412.63134765625
 20
-714.890625
 30
0.0
 10
412.01953125
 20
-718.34228515625
 30
0.0
 10
411.5234375
 20
-721.13916015625
 30
0.0
 10
413.130859375
 20
-724.92919921875
 30
0.0
 10
415.8515625
 20
-726.0244140625
 30
0.0
 10
418.8388671875
 20
-727.2265625
 30
0.0
 10
421.8251953125
 20
-722.68408203125
 30
0.0
 10
425.04833984375
 20
-722.9833984375
 30
0.0
 10
426.859375
 20
-723.15185546875
 30
0.0
 10
428.87060546875
 20
-724.09619140625
 30
0.0
 10
429.7802734375
 20
-725.6123046875
 30
0.0
 10
431.599609375
 20
-728.64453125
 30
0.0
 10
430.013671875
 20
-732.6328125
 30
0.0
 10
429.7802734375
 20
-736.126953125
 30
0.0
 10
429.513671875
 20
-740.11669921875
 30
0.0
 10
431.4697265625
 20
-745.58740234375
 30
0.0
 10
428.18359375
 20
-748.0341796875
 30
0.0
 10
423.20849609375
 20
-751.73828125
 30
0.0
 10
415.7177734375
 20
-745.3486328125
 30
0.0
 10
409.44189453125
 20
-745.76123046875
 30
0.0
 10
404.90380859375
 20
-746.0595703125
 30
0.0
 10
399.01708984375
 20
-745.69091796875
 30
0.0
 10
396.248046875
 20
-749.1630859375
 30
0.0
 10
395.140625
 20
-750.5517578125
 30
0.0
 10
396.248046875
 20
-752.669921875
 30
0.0
 10
396.248046875
 20
-754.42041015625
 30
0.0
 10
396.248046875
 20
-757.921875
 30
0.0
 10
398.27294921875
 20
-762.02587890625
 30
0.0
 10
396.248046875
 20
-764.93505859375
 30
0.0
 10
393.5283203125
 20
-768.8427734375
 30
0.0
 10
387.34521484375
 20
-768.9228515625
 30
0.0
 10
382.67578125
 20
-770.3125
 30
0.0
 10
378.10986328125
 20
-771.67138671875
 30
0.0
 10
373.28369140625
 20
-772.1083984375
 30
0.0
 10
368.63671875
 20
-773.18115234375
 30
0.0
 10
365.98291015625
 20
-773.7939453125
 30
0.0
 10
362.381591796875
 20
-773.13916015625
 30
0.0
 10
360.72021484375
 20
-775.22216796875
 30
0.0
 10
357.951171875
 20
-778.69482421875
 30
0.0
 10
361.533935546875
 20
-784.0595703125
 30
0.0
 10
360.72021484375
 20
-788.36572265625
 30
0.0
 10
360.068603515625
 20
-791.8134765625
 30
0.0
 10
358.843505859375
 20
-795.27001953125
 30
0.0
 10
356.87060546875
 20
-798.2158203125
 30
0.0
 10
354.899169921875
 20
-801.15869140625
 30
0.0
 10
349.829345703125
 20
-802.2119140625
 30
0.0
 10
349.1435546875
 20
-805.650390625
 30
0.0
 10
348.717041015625
 20
-807.7900390625
 30
0.0
 10
353.0751953125
 20
-809.83984375
 30
0.0
 10
351.830322265625
 20
-811.6591796875
 30
0.0
 10
349.829345703125
 20
-814.583984375
 30
0.0
 10
344.2646484375
 20
-810.3193359375
 30
0.0
 10
340.90283203125
 20
-811.6591796875
 30
0.0
 10
337.541015625
 20
-812.99951171875
 30
0.0
 10
335.529296875
 20
-816.423828125
 30
0.0
 10
333.176025390625
 20
-819.09423828125
 30
0.0
 10
331.061767578125
 20
-821.49365234375
 30
0.0
 10
330.3701171875
 20
-825.33837890625
 30
0.0
 10
327.46240234375
 20
-826.7763671875
 30
0.0
 10
325.84423828125
 20
-827.5771484375
 30
0.0
 10
323.0625
 20
-828.19677734375
 30
0.0
 10
321.998779296875
 20
-826.7763671875
 30
0.0
 10
321.015625
 20
-825.4638671875
 30
0.0
 10
322.84228515625
 20
-823.61376953125
 30
0.0
 10
323.595458984375
 20
-822.1669921875
 30
0.0
 10
326.204833984375
 20
-817.15478515625
 30
0.0
 10
330.14697265625
 20
-812.8720703125
 30
0.0
 10
333.5751953125
 20
-808.33935546875
 30
0.0
 10
345.8818359375
 20
-792.06689453125
 30
0.0
 10
356.396728515625
 20
-774.04541015625
 30
0.0
 10
371.6455078125
 20
-760.271484375
 30
0.0
 10
374.44140625
 20
-757.74658203125
 30
0.0
 10
377.84814453125
 20
-755.87109375
 30
0.0
 10
381.2265625
 20
-754.1259765625
 30
0.0
 10
385.291015625
 20
-752.02685546875
 30
0.0
 10
391.4462890625
 20
-752.6650390625
 30
0.0
 10
394.00048828125
 20
-748.96875
 30
0.0
 10
396.01513671875
 20
-746.05322265625
 30
0.0
 10
395.30419921875
 20
-741.72314453125
 30
0.0
 10
394.00048828125
 20
-738.4541015625
 30
0.0
 10
392.97509765625
 20
-735.8837890625
 30
0.0
 10
391.03662109375
 20
-732.94287109375
 30
0.0
 10
388.251953125
 20
-732.30859375
 30
0.0
 10
385.91845703125
 20
-731.77685546875
 30
0.0
 10
383.5263671875
 20
-736.134765625
 30
0.0
 10
381.5458984375
 20
-734.83349609375
 30
0.0
 10
378.5400390625
 20
-732.85986328125
 30
0.0
 10
379.8740234375
 20
-727.42919921875
 30
0.0
 10
381.5458984375
 20
-724.3193359375
 30
0.0
 10
385.67431640625
 20
-716.63623046875
 30
0.0
 10
397.13037109375
 20
-715.337890625
 30
0.0
 10
403.572265625
 20
-709.3056640625
 30
0.0
 10
407.14453125
 20
-705.96044921875
 30
0.0
 10
412.6318359375
 20
-702.578125
 30
0.0
 10
412.55419921875
 20
-697.7822265625
 30
0.0
 10
412.48779296875
 20
-693.6875
 30
0.0
 10
405.2236328125
 20
-692.22607421875
 30
0.0
 10
404.5703125
 20
-688.1796875
 30
0.0
 10
403.794921875
 20
-683.376953125
 30
0.0
 10
406.2529296875
 20
-677.8056640625
 30
0.0
 10
410.0068359375
 20
-674.5537109375
 30
0.0
 10
413.38671875
 20
-671.625
 30
0.0
 10
418.998046875
 20
-672.82666015625
 30
0.0
 10
423.20068359375
 20
-671.15185546875
 30
0.0
 10
429.08349609375
 20
-668.80712890625
 30
0.0
 10
433.6103515625
 20
-663.53759765625
 30
0.0
 10
439.76171875
 20
-661.95166015625
 30
0.0
 10
440.64013671875
 20
-661.72509765625
 30
0.0
 10
441.85009765625
 20
-662.5703125
 30
0.0
 10
442.4931640625
 20
-661.95166015625
 30
0.0
 10
445.70947265625
 20
-658.85693359375
 30
0.0
 10
443.41943359375
 20
-653.09326171875
 30
0.0
 10
442.4931640625
 20
-648.80859375
 30
0.0
 10
441.64453125
 20
-644.88232421875
 30
0.0
 10
436.91259765625
 20
-641.734375
 30
0.0
 10
437.50341796875
 20
-637.76513671875
 30
0.0
 10
438.0556640625
 20
-634.056640625
 30
0.0
 10
442.14404296875
 20
-631.68115234375
 30
0.0
 10
444.98828125
 20
-629.12255859375
 30
0.0
 10
450.98583984375
 20
-623.728515625
 30
0.0
 10
463.49609375
 20
-622.9736328125
 30
0.0
 10
464.94775390625
 20
-615.19873046875
 30
0.0
 10
465.79541015625
 20
-610.65966796875
 30
0.0
 10
459.13330078125
 20
-607.7880859375
 30
0.0
 10
456.9638671875
 20
-603.67578125
 30
0.0
 10
455.1826171875
 20
-600.298828125
 30
0.0
 10
453.71630859375
 20
-596.787109375
 30
0.0
 10
452.56640625
 20
-593.140625
 30
0.0
  0
SPLINE
  5
18D
330
1F
100
AcDbEntity
  8
LAYER_1
 62
   250
100
AcDbSpline
210
0.0
220
0.0
230
1.0
 70
    11
 71
     3
 72
   140
 73
   136
 74
     0
 42
0.0000000001
 43
0.0000000001
 40
0.0
 40
0.0
 40
0.0
 40
0.0
 40
1.0
 40
1.0
 40
1.0
 40
2.0
 40
2.0
 40
2.0
 40
3.0
 40
3.0
 40
3.0
 40
4.0
 40
4.0
 40
4.0
 40
5.0
 40
5.0
 40
5.0
 40
6.0
 40
6.0
 40
6.0
 40
7.0
 40
7.0
 40
7.0
 40
8.0
 40
8.0
 40
8.0
 40
9.0
 40
9.0
 40
9.0
 40
10.0
 40
10.0
 40
10.0
 40
11.0
 40
11.0
 40
11.0
 40
12.0
 40
12.0
 40
12.0
 40
13.0
 40
13.0
 40
13.0
 40
14.0
 40
14.0
 40
14.0
 40
15.0
 40
15.0
 40
15.0
 40
16.0
 40
16.0
 40
16.0
 40
17.0
 40
17.0
 40
17.0
 40
18.0
 40
18.0
 40
18.0
 40
19.0
 40
19.0
 40
19.0
 40
20.0
 40
20.0
 40
20.0
 40
21.0
 40
21.0
 40
21.0
 40
22.0
 40
22.0
 40
22.0
 40
23.0
 40
23.0
 40
23.0
 40
24.0
 40
24.0
 40
24.0
 40
25.0
 40
25.0
 40
25.0
 40
26.0
 40
26.0
 40
26.0
 40
27.0
 40
27.0
 40
27.0
 40
28.0
 40
28.0
 40
28.0
 40
29.0
 40
29.0
 40
29.0
 40
30.0
 40
30.0
 40
30.0
 40
31.0
 40
31.0
 40
31.0
 40
32.0
 40
32.0
 40
32.0
 40
33.0
 40
33.0
 40
33.0
 40
34.0
 40
34.0
 40
34.0
 40
35.0
 40
35.0
 40
35.0
 40
36.0
 40
36.0
 40
36.0
 40
37.0
 40
37.0
 40
37.0
 40
38.0
 40
38.0
 40
38.0
 40
39.0
 40
39.0
 40
39.0
 40
40.0
 40
40.0
 40
40.0
 40
41.0
 40
41.0
 40
41.0
 40
42.0
 40
42.0
 40
42.0
 40
43.0
 40
43.0
 40
43.0
 40
44.0
 40
44.0
 40
44.0
 40
45.0
 40
45.0
 40
45.0
 40
45.0
 10
428.07470703125
 20
-593.1416015625
 30
0.0
 10
429.767578125
 20
-595.33740234375
 30
0.0
 10
431.8916015625
 20
-597.8447265625
 30
0.0
 10
433.57470703125
 20
-599.96142578125
 30
0.0
 10
435.86474609375
 20
-602.84130859375
 30
0.0
 10
439.36181640625
 20
-605.07373046875
 30
0.0
 10
440.6005859375
 20
-608.4990234375
 30
0.0
 10
441.79638671875
 20
-611.8056640625
 30
0.0
 10
442.3212890625
 20
-615.92822265625
 30
0.0
 10
440.6005859375
 20
-619.01318359375
 30
0.0
 10
437.93896484375
 20
-623.7861328125
 30
0.0
 10
431.57421875
 20
-625.6318359375
 30
0.0
 10
426.5146484375
 20
-628.00634765625
 30
0.0
 10
423.4921875
 20
-629.4248046875
 30
0.0
 10
419.01708984375
 20
-628.53857421875
 30
0.0
 10
416.93408203125
 20
-631.0791015625
 30
0.0
 10
413.89306640625
 20
-634.78857421875
 30
0.0
 10
414.2939453125
 20
-640.67529296875
 30
0.0
 10
415.65673828125
 20
-645.21435546875
 30
0.0
 10
416.39599609375
 20
-647.6767578125
 30
0.0
 10
419.3212890625
 20
-649.04296875
 30
0.0
 10
420.4931640625
 20
-651.34423828125
 30
0.0
 10
422.09423828125
 20
-654.48876953125
 30
0.0
 10
424.81591796875
 20
-658.30859375
 30
0.0
 10
423.3212890625
 20
-661.50048828125
 30
0.0
 10
421.55810546875
 20
-665.265625
 30
0.0
 10
415.9638671875
 20
-666.0859375
 30
0.0
 10
411.78662109375
 20
-667.03173828125
 30
0.0
 10
405.587890625
 20
-668.435546875
 30
0.0
 10
398.705078125
 20
-665.09521484375
 30
0.0
 10
392.66357421875
 20
-667.03173828125
 30
0.0
 10
390.0244140625
 20
-667.8779296875
 30
0.0
 10
387.5380859375
 20
-669.634765625
 30
0.0
 10
385.9794921875
 20
-671.8515625
 30
0.0
 10
383.43115234375
 20
-675.47705078125
 30
0.0
 10
380.36328125
 20
-680.6552734375
 30
0.0
 10
382.4443359375
 20
-684.54736328125
 30
0.0
 10
383.69091796875
 20
-686.87939453125
 30
0.0
 10
388.34765625
 20
-685.310546875
 30
0.0
 10
390.1083984375
 20
-687.31298828125
 30
0.0
 10
392.978515625
 20
-690.57568359375
 30
0.0
 10
393.84375
 20
-695.79052734375
 30
0.0
 10
392.66357421875
 20
-699.91162109375
 30
0.0
 10
391.37744140625
 20
-704.400390625
 30
0.0
 10
386.72265625
 20
-707.39111328125
 30
0.0
 10
382.9658203125
 20
-710.326171875
 30
0.0
 10
380.140625
 20
-712.53271484375
 30
0.0
 10
376.2919921875
 20
-713.3349609375
 30
0.0
 10
373.50244140625
 20
-715.5830078125
 30
0.0
 10
371.4775390625
 20
-717.21533203125
 30
0.0
 10
369.830078125
 20
-719.2890625
 30
0.0
 10
368.392578125
 20
-721.421875
 30
0.0
 10
366.56982421875
 20
-724.1259765625
 30
0.0
 10
363.88818359375
 20
-726.9130859375
 30
0.0
 10
364.01025390625
 20
-730.1337890625
 30
0.0
 10
364.109619140625
 20
-732.75830078125
 30
0.0
 10
369.47265625
 20
-734.689453125
 30
0.0
 10
368.10791015625
 20
-736.96337890625
 30
0.0
 10
367.1982421875
 20
-738.4794921875
 30
0.0
 10
364.087890625
 20
-738.029296875
 30
0.0
 10
362.644287109375
 20
-736.96337890625
 30
0.0
 10
360.479248046875
 20
-735.36474609375
 30
0.0
 10
360.523193359375
 20
-731.97216796875
 30
0.0
 10
360.523193359375
 20
-729.34619140625
 30
0.0
 10
360.523193359375
 20
-726.72021484375
 30
0.0
 10
361.408203125
 20
-724.0703125
 30
0.0
 10
362.644287109375
 20
-721.72900390625
 30
0.0
 10
364.947265625
 20
-717.3671875
 30
0.0
 10
370.533203125
 20
-714.90283203125
 30
0.0
 10
372.22509765625
 20
-710.2890625
 30
0.0
 10
373.73828125
 20
-706.16162109375
 30
0.0
 10
372.6220703125
 20
-701.505859375
 30
0.0
 10
372.22509765625
 20
-697.14599609375
 30
0.0
 10
371.82421875
 20
-692.74560546875
 30
0.0
 10
371.94677734375
 20
-688.00048828125
 30
0.0
 10
369.826171875
 20
-684.0830078125
 30
0.0
 10
367.3046875
 20
-679.4248046875
 30
0.0
 10
362.095458984375
 20
-676.64404296875
 30
0.0
 10
358.23583984375
 20
-672.93017578125
 30
0.0
 10
355.662841796875
 20
-670.45458984375
 30
0.0
 10
349.7265625
 20
-668.9150390625
 30
0.0
 10
350.509033203125
 20
-665.4951171875
 30
0.0
 10
351.4375
 20
-661.43701171875
 30
0.0
 10
358.4306640625
 20
-661.9208984375
 30
0.0
 10
362.682373046875
 20
-661.193359375
 30
0.0
 10
368.9521484375
 20
-660.12060546875
 30
0.0
 10
375.4658203125
 20
-661.7724609375
 30
0.0
 10
381.8056640625
 20
-661.193359375
 30
0.0
 10
386.322265625
 20
-660.78076171875
 30
0.0
 10
395.61669921875
 20
-663.07177734375
 30
0.0
 10
395.1875
 20
-658.7255859375
 30
0.0
 10
395.126953125
 20
-658.10986328125
 30
0.0
 10
393.50439453125
 20
-659.29638671875
 30
0.0
 10
393.25830078125
 20
-658.7255859375
 30
0.0
 10
391.16943359375
 20
-653.873046875
 30
0.0
 10
403.275390625
 20
-652.60205078125
 30
0.0
 10
404.8486328125
 20
-647.57275390625
 30
0.0
 10
405.6044921875
 20
-645.15673828125
 30
0.0
 10
404.638671875
 20
-642.3046875
 30
0.0
 10
403.27880859375
 20
-640.14697265625
 30
0.0
 10
402.203125
 20
-638.43994140625
 30
0.0
 10
399.65625
 20
-637.98828125
 30
0.0
 10
398.43896484375
 20
-636.37109375
 30
0.0
 10
397.40283203125
 20
-634.99365234375
 30
0.0
 10
396.4091796875
 20
-633.2939453125
 30
0.0
 10
396.5498046875
 20
-631.59912109375
 30
0.0
 10
396.62255859375
 20
-630.7265625
 30
0.0
 10
397.2333984375
 20
-629.90087890625
 30
0.0
 10
397.916015625
 20
-629.32275390625
 30
0.0
 10
399.87939453125
 20
-627.6591796875
 30
0.0
 10
402.72998046875
 20
-627.33056640625
 30
0.0
 10
405.16162109375
 20
-626.40234375
 30
0.0
 10
408.1884765625
 20
-625.24658203125
 30
0.0
 10
412.052734375
 20
-625.34912109375
 30
0.0
 10
414.31787109375
 20
-623.09814453125
 30
0.0
 10
416.259765625
 20
-621.16845703125
 30
0.0
 10
417.6416015625
 20
-618.07421875
 30
0.0
 10
417.00634765625
 20
-615.45849609375
 30
0.0
 10
416.3857421875
 20
-612.9013671875
 30
0.0
 10
413.7109375
 20
-610.9365234375
 30
0.0
 10
411.21142578125
 20
-609.88232421875
 30
0.0
 10
406.3203125
 20
-607.8193359375
 30
0.0
 10
400.27197265625
 20
-610.82421875
 30
0.0
 10
395.1875
 20
-609.2529296875
 30
0.0
 10
393.20361328125
 20
-608.6396484375
 30
0.0
 10
391.2412109375
 20
-607.52734375
 30
0.0
 10
389.955078125
 20
-605.94921875
 30
0.0
 10
388.97021484375
 20
-604.73974609375
 30
0.0
 10
388.21142578125
 20
-603.12841796875
 30
0.0
 10
388.35791015625
 20
-601.5986328125
 30
0.0
 10
388.65576171875
 20
-598.4912109375
 30
0.0
 10
389.8984375
 20
-595.6708984375
 30
0.0
 10
392.083984375
 20
-593.1396484375
 30
0.0
 10
392.083984375
 20
-593.1396484375
 30
0.0
 10
428.07470703125
 20
-593.1416015625
 30
0.0
 10
428.07470703125
 20
-593.1416015625
 30
0.0
  0
SPLINE
  5
18E
330
1F
100
AcDbEntity
  8
LAYER_1
 62
   250
100
AcDbSpline
210
0.0
220
0.0
230
1.0
 70
    11
 71
     3
 72
   131
 73
   127
 74
     0
 42
0.0000000001
 43
0.0000000001
 40
0.0
 40
0.0
 40
0.0
 40
0.0
 40
1.0
 40
1.0
 40
1.0
 40
2.0
 40
2.0
 40
2.0
 40
3.0
 40
3.0
 40
3.0
 40
4.0
 40
4.0
 40
4.0
 40
5.0
 40
5.0
 40
5.0
 40
6.0
 40
6.0
 40
6.0
 40
7.0
 40
7.0
 40
7.0
 40
8.0
 40
8.0
 40
8.0
 40
9.0
 40
9.0
 40
9.0
 40
10.0
 40
10.0
 40
10.0
 40
11.0
 40
11.0
 40
11.0
 40
12.0
 40
12.0
 40
12.0
 40
13.0
 40
13.0
 40
13.0
 40
14.0
 40
14.0
 40
14.0
 40
15.0
 40
15.0
 40
15.0
 40
16.0
 40
16.0
 40
16.0
 40
17.0
 40
17.0
 40
17.0
 40
18.0
 40
18.0
 40
18.0
 40
19.0
 40
19.0
 40
19.0
 40
20.0
 40
20.0
 40
20.0
 40
21.0
 40
21.0
 40
21.0
 40
22.0
 40
22.0
 40
22.0
 40
23.0
 40
23.0
 40
23.0
 40
24.0
 40
24.0
 40
24.0
 40
25.0
 40
25.0
 40
25.0
 40
26.0
 40
26.0
 40
26.0
 40
27.0
 40
27.0
 40
27.0
 40
28.0
 40
28.0
 40
28.0
 40
29.0
 40
29.0
 40
29.0
 40
30.0
 40
30.0
 40
30.0
 40
31.0
 40
31.0
 40
31.0
 40
32.0
 40
32.0
 40
32.0
 40
33.0
 40
33.0
 40
33.0
 40
34.0
 40
34.0
 40
34.0
 40
35.0
 40
35.0
 40
35.0
 40
36.0
 40
36.0
 40
36.0
 40
37.0
 40
37.0
 40
37.0
 40
38.0
 40
38.0
 40
38.0
 40
39.0
 40
39.0
 40
39.0
 40
40.0
 40
40.0
 40
40.0
 40
41.0
 40
41.0
 40
41.0
 40
42.0
 40
42.0
 40
42.0
 40
42.0
 10
660.4443359375
 20
-709.662109375
 30
0.0
 10
662.0517578125
 20
-710.482421875
 30
0.0
 10
663.5205078125
 20
-711.56494140625
 30
0.0
 10
665.17578125
 20
-712.291015625
 30
0.0
 10
667.857421875
 20
-713.466796875
 30
0.0
 10
670.609375
 20
-715.33544921875
 30
0.0
 10
673.54248046875
 20
-715.06396484375
 30
0.0
 10
675.353515625
 20
-714.89599609375
 30
0.0
 10
676.5166015625
 20
-712.88818359375
 30
0.0
 10
678.2744140625
 20
-712.43505859375
 30
0.0
 10
679.15283203125
 20
-712.20849609375
 30
0.0
 10
680.0966796875
 20
-712.43505859375
 30
0.0
 10
681.00634765625
 20
-712.43505859375
 30
0.0
 10
682.82568359375
 20
-712.43505859375
 30
0.0
 10
684.96240234375
 20
-713.41552734375
 30
0.0
 10
686.4697265625
 20
-712.43505859375
 30
0.0
 10
689.36669921875
 20
-710.55126953125
 30
0.0
 10
686.1044921875
 20
-707.3125
 30
0.0
 10
689.0009765625
 20
-705.4287109375
 30
0.0
 10
689.7548828125
 20
-704.9384765625
 30
0.0
 10
692.35546875
 20
-703.54150390625
 30
0.0
 10
693.115234375
 20
-703.060546875
 30
0.0
 10
696.89404296875
 20
-700.66796875
 30
0.0
 10
694.712890625
 20
-693.44921875
 30
0.0
 10
698.4921875
 20
-691.05712890625
 30
0.0
 10
699.251953125
 20
-690.57568359375
 30
0.0
 10
700.31396484375
 20
-691.05712890625
 30
0.0
 10
701.2236328125
 20
-691.05712890625
 30
0.0
 10
705.7724609375
 20
-691.05712890625
 30
0.0
 10
710.37353515625
 20
-691.62841796875
 30
0.0
 10
714.88330078125
 20
-691.05712890625
 30
0.0
 10
718.49072265625
 20
-690.60009765625
 30
0.0
 10
721.83056640625
 20
-688.79248046875
 30
0.0
 10
725.4384765625
 20
-688.33544921875
 30
0.0
 10
728.14404296875
 20
-687.99267578125
 30
0.0
 10
732.58935546875
 20
-685.90966796875
 30
0.0
 10
733.6337890625
 20
-688.33544921875
 30
0.0
 10
734.67822265625
 20
-690.76171875
 30
0.0
 10
729.7685546875
 20
-692.0546875
 30
0.0
 10
727.8388671875
 20
-693.91162109375
 30
0.0
 10
723.3359375
 20
-698.24462890625
 30
0.0
 10
717.78662109375
 20
-701.78515625
 30
0.0
 10
714.31640625
 20
-706.9228515625
 30
0.0
 10
710.7314453125
 20
-712.23095703125
 30
0.0
 10
705.9423828125
 20
-718.9814453125
 30
0.0
 10
703.484375
 20
-724.85400390625
 30
0.0
 10
700.28515625
 20
-732.49755859375
 30
0.0
 10
699.7607421875
 20
-738.95556640625
 30
0.0
 10
695.30908203125
 20
-745.9951171875
 30
0.0
 10
693.62255859375
 20
-748.662109375
 30
0.0
 10
693.74072265625
 20
-752.9931640625
 30
0.0
 10
691.00732421875
 20
-754.6748046875
 30
0.0
 10
689.474609375
 20
-755.6181640625
 30
0.0
 10
686.91650390625
 20
-754.70849609375
 30
0.0
 10
685.7294921875
 20
-756.03564453125
 30
0.0
 10
682.59375
 20
-759.54248046875
 30
0.0
 10
685.80322265625
 20
-765.50927734375
 30
0.0
 10
684.115234375
 20
-769.8408203125
 30
0.0
 10
683.17041015625
 20
-772.2646484375
 30
0.0
 10
682.19091796875
 20
-776.5126953125
 30
0.0
 10
679.5166015625
 20
-776.232421875
 30
0.0
 10
677.50634765625
 20
-776.021484375
 30
0.0
 10
677.3447265625
 20
-772.765625
 30
0.0
 10
677.21728515625
 20
-770.82421875
 30
0.0
 10
676.9296875
 20
-766.4560546875
 30
0.0
 10
679.22998046875
 20
-762.2529296875
 30
0.0
 10
680.75244140625
 20
-758.12841796875
 30
0.0
 10
681.94873046875
 20
-754.88720703125
 30
0.0
 10
683.51123046875
 20
-751.7626953125
 30
0.0
 10
685.13720703125
 20
-748.69921875
 30
0.0
 10
686.7919921875
 20
-745.5810546875
 30
0.0
 10
689.6591796875
 20
-742.9755859375
 30
0.0
 10
690.6005859375
 20
-739.59326171875
 30
0.0
 10
691.07177734375
 20
-737.90234375
 30
0.0
 10
692.04443359375
 20
-735.40185546875
 30
0.0
 10
690.6005859375
 20
-734.3359375
 30
0.0
 10
689.1572265625
 20
-733.2705078125
 30
0.0
 10
686.7666015625
 20
-734.630859375
 30
0.0
 10
685.3232421875
 20
-735.69677734375
 30
0.0
 10
683.158203125
 20
-737.29541015625
 30
0.0
 10
683.09228515625
 20
-740.61083984375
 30
0.0
 10
681.2255859375
 20
-742.5263671875
 30
0.0
 10
678.7998046875
 20
-745.01513671875
 30
0.0
 10
677.607421875
 20
-744.17822265625
 30
0.0
 10
674.33056640625
 20
-745.48388671875
 30
0.0
 10
671.52490234375
 20
-746.6015625
 30
0.0
 10
665.76953125
 20
-751.78076171875
 30
0.0
 10
663.4208984375
 20
-749.92822265625
 30
0.0
 10
661.310546875
 20
-748.263671875
 30
0.0
 10
661.2685546875
 20
-745.67626953125
 30
0.0
 10
661.89990234375
 20
-743.12158203125
 30
0.0
 10
662.1181640625
 20
-742.23681640625
 30
0.0
 10
662.96484375
 20
-741.0478515625
 30
0.0
 10
663.83837890625
 20
-740.701171875
 30
0.0
 10
665.828125
 20
-739.91162109375
 30
0.0
 10
668.68896484375
 20
-741.77880859375
 30
0.0
 10
670.830078125
 20
-741.5703125
 30
0.0
 10
673.54541015625
 20
-741.3056640625
 30
0.0
 10
676.56298828125
 20
-739.9013671875
 30
0.0
 10
677.927734375
 20
-737.62744140625
 30
0.0
 10
679.2919921875
 20
-735.35302734375
 30
0.0
 10
679.146484375
 20
-732.0908203125
 30
0.0
 10
677.927734375
 20
-729.7412109375
 30
0.0
 10
676.9873046875
 20
-727.92822265625
 30
0.0
 10
674.8017578125
 20
-726.8984375
 30
0.0
 10
672.8740234375
 20
-726.0830078125
 30
0.0
 10
670.7353515625
 20
-725.1787109375
 30
0.0
 10
667.73828125
 20
-726.3291015625
 30
0.0
 10
665.97607421875
 20
-724.853515625
 30
0.0
 10
664.75830078125
 20
-723.833984375
 30
0.0
 10
665.65625
 20
-721.45361328125
 30
0.0
 10
664.44287109375
 20
-720.4287109375
 30
0.0
 10
662.0986328125
 20
-718.4482421875
 30
0.0
 10
658.13134765625
 20
-719.849609375
 30
0.0
 10
655.24560546875
 20
-718.7080078125
 30
0.0
 10
653.8271484375
 20
-718.14697265625
 30
0.0
 10
651.81591796875
 20
-717.673828125
 30
0.0
 10
651.41357421875
 20
-716.25
 30
0.0
 10
650.74853515625
 20
-713.89697265625
 30
0.0
 10
652.61767578125
 20
-711.001953125
 30
0.0
 10
654.73486328125
 20
-709.662109375
 30
0.0
 10
656.19091796875
 20
-708.74072265625
 30
0.0
 10
658.2568359375
 20
-709.09912109375
 30
0.0
 10
659.9638671875
 20
-709.43798828125
 30
0.0
 10
660.13818359375
 20
-709.47265625
 30
0.0
 10
660.287109375
 20
-709.58203125
 30
0.0
 10
660.4443359375
 20
-709.662109375
 30
0.0
  0
SPLINE
  5
18F
330
1F
100
AcDbEntity
  8
LAYER_1
 62
   250
100
AcDbSpline
210
0.0
220
0.0
230
1.0
 70
    11
 71
     3
 72
    41
 73
    37
 74
     0
 42
0.0000000001
 43
0.0000000001
 40
0.0
 40
0.0
 40
0.0
 40
0.0
 40
1.0
 40
1.0
 40
1.0
 40
2.0
 40
2.0
 40
2.0
 40
3.0
 40
3.0
 40
3.0
 40
4.0
 40
4.0
 40
4.0
 40
5.0
 40
5.0
 40
5.0
 40
6.0
 40
6.0
 40
6.0
 40
7.0
 40
7.0
 40
7.0
 40
8.0
 40
8.0
 40
8.0
 40
9.0
 40
9.0
 40
9.0
 40
10.0
 40
10.0
 40
10.0
 40
11.0
 40
11.0
 40
11.0
 40
12.0
 40
12.0
 40
12.0
 40
12.0
 10
680.43359375
 20
-834.01171875
 30
0.0
 10
674.130859375
 20
-830.51025390625
 30
0.0
 10
671.3896484375
 20
-822.56396484375
 30
0.0
 10
669.50634765625
 20
-815.7998046875
 30
0.0
 10
668.3291015625
 20
-811.572265625
 30
0.0
 10
669.50634765625
 20
-807.033203125
 30
0.0
 10
669.50634765625
 20
-802.65625
 30
0.0
 10
669.50634765625
 20
-800.90576171875
 30
0.0
 10
670.3408203125
 20
-798.955078125
 30
0.0
 10
669.50634765625
 20
-797.3994140625
 30
0.0
 10
668.48681640625
 20
-795.4990234375
 30
0.0
 10
665.5625
 20
-795.26123046875
 30
0.0
 10
664.06689453125
 20
-793.68017578125
 30
0.0
 10
662.84228515625
 20
-792.38525390625
 30
0.0
 10
660.91455078125
 20
-790.83056640625
 30
0.0
 10
661.3349609375
 20
-789.126953125
 30
0.0
 10
661.623046875
 20
-787.95947265625
 30
0.0
 10
663.224609375
 20
-787.26416015625
 30
0.0
 10
664.4658203125
 20
-787.150390625
 30
0.0
 10
669.33154296875
 20
-786.7041015625
 30
0.0
 10
674.49609375
 20
-789.287109375
 30
0.0
 10
678.03857421875
 20
-792.52783203125
 30
0.0
 10
681.8740234375
 20
-796.0361328125
 30
0.0
 10
682.87060546875
 20
-801.623046875
 30
0.0
 10
684.82470703125
 20
-806.35546875
 30
0.0
 10
687.19970703125
 20
-812.10693359375
 30
0.0
 10
689.32177734375
 20
-818.00439453125
 30
0.0
 10
690.8125
 20
-824.0244140625
 30
0.0
 10
691.623046875
 20
-827.2978515625
 30
0.0
 10
694.68603515625
 20
-831.4580078125
 30
0.0
 10
692.4091796875
 20
-834.01171875
 30
0.0
 10
691.224609375
 20
-835.34033203125
 30
0.0
 10
688.76513671875
 20
-834.01171875
 30
0.0
 10
686.9453125
 20
-834.01171875
 30
0.0
 10
684.77734375
 20
-834.01171875
 30
0.0
 10
682.3115234375
 20
-835.0546875
 30
0.0
 10
680.43359375
 20
-834.01171875
 30
0.0
  0
SPLINE
  5
190
330
1F
100
AcDbEntity
  8
LAYER_1
 62
   250
100
AcDbSpline
210
0.0
220
0.0
230
1.0
 70
    11
 71
     3
 72
    53
 73
    49
 74
     0
 42
0.0000000001
 43
0.0000000001
 40
0.0
 40
0.0
 40
0.0
 40
0.0
 40
1.0
 40
1.0
 40
1.0
 40
2.0
 40
2.0
 40
2.0
 40
3.0
 40
3.0
 40
3.0
 40
4.0
 40
4.0
 40
4.0
 40
5.0
 40
5.0
 40
5.0
 40
6.0
 40
6.0
 40
6.0
 40
7.0
 40
7.0
 40
7.0
 40
8.0
 40
8.0
 40
8.0
 40
9.0
 40
9.0
 40
9.0
 40
10.0
 40
10.0
 40
10.0
 40
11.0
 40
11.0
 40
11.0
 40
12.0
 40
12.0
 40
12.0
 40
13.0
 40
13.0
 40
13.0
 40
14.0
 40
14.0
 40
14.0
 40
15.0
 40
15.0
 40
15.0
 40
16.0
 40
16.0
 40
16.0
 40
16.0
 10
939.11279296875
 20
-735.6181640625
 30
0.0
 10
938.8076171875
 20
-733.060546875
 30
0.0
 10
935.4189453125
 20
-731.4248046875
 30
0.0
 10
932.82080078125
 20
-730.81005859375
 30
0.0
 10
931.20166015625
 20
-730.42724609375
 30
0.0
 10
929.26171875
 20
-730.78662109375
 30
0.0
 10
927.90234375
 20
-731.71630859375
 30
0.0
 10
926.419921875
 20
-732.73095703125
 30
0.0
 10
925.732421875
 20
-734.6044921875
 30
0.0
 10
925.1708984375
 20
-736.26953125
 30
0.0
 10
924.458984375
 20
-738.37890625
 30
0.0
 10
924.09130859375
 20
-740.7021484375
 30
0.0
 10
924.44921875
 20
-742.89306640625
 30
0.0
 10
924.75732421875
 20
-744.7763671875
 30
0.0
 10
925.19580078125
 20
-747.0888671875
 30
0.0
 10
926.85595703125
 20
-748.12939453125
 30
0.0
 10
928.380859375
 20
-749.08447265625
 30
0.0
 10
930.51611328125
 20
-748.35791015625
 30
0.0
 10
932.31982421875
 20
-748.12939453125
 30
0.0
 10
933.2216796875
 20
-748.01513671875
 30
0.0
 10
934.40478515625
 20
-748.1435546875
 30
0.0
 10
934.95849609375
 20
-747.44873046875
 30
0.0
 10
935.51220703125
 20
-746.75439453125
 30
0.0
 10
935.60205078125
 20
-745.439453125
 30
0.0
 10
934.95849609375
 20
-744.8203125
 30
0.0
 10
934.3154296875
 20
-744.201171875
 30
0.0
 10
933.03759765625
 20
-745.216796875
 30
0.0
 10
932.2265625
 20
-744.8203125
 30
0.0
 10
931.68310546875
 20
-744.55419921875
 30
0.0
 10
931.3359375
 20
-743.95458984375
 30
0.0
 10
931.146484375
 20
-743.396484375
 30
0.0
 10
930.58203125
 20
-741.732421875
 30
0.0
 10
930.326171875
 20
-739.7021484375
 30
0.0
 10
931.146484375
 20
-738.1396484375
 30
0.0
 10
931.458984375
 20
-737.544921875
 30
0.0
 10
932.1630859375
 20
-737.16064453125
 30
0.0
 10
932.82080078125
 20
-736.9521484375
 30
0.0
 10
933.68505859375
 20
-736.67919921875
 30
0.0
 10
934.64306640625
 20
-736.9521484375
 30
0.0
 10
935.552734375
 20
-736.9521484375
 30
0.0
 10
936.2802734375
 20
-736.9521484375
 30
0.0
 10
937.01025390625
 20
-736.9521484375
 30
0.0
 10
937.73828125
 20
-736.9521484375
 30
0.0
 10
937.8291015625
 20
-736.9521484375
 30
0.0
 10
937.9296875
 20
-736.990234375
 30
0.0
 10
938.01123046875
 20
-736.9521484375
 30
0.0
 10
938.54248046875
 20
-736.70556640625
 30
0.0
 10
939.1796875
 20
-736.181640625
 30
0.0
 10
939.11279296875
 20
-735.6181640625
 30
0.0
  0
POLYLINE
  5
191
330
1F
100
AcDbEntity
  8
LAYER_1
 62
   250
100
AcDb2dPolyline
 66
     1
 10
0.0
 20
0.0
 30
0.0
  0
VERTEX
  5
192
330
191
100
AcDbEntity
  8
LAYER_1
 62
   250
100
AcDbVertex
100
AcDb2dVertex
 10
909.6044921875
 20
-1046.14892578125
 30
0.0
  0
VERTEX
  5
193
330
191
100
AcDbEntity
  8
LAYER_1
 62
   250
100
AcDbVertex
100
AcDb2dVertex
 10
883.6865234375
 20
-1003.78173828125
 30
0.0
  0
VERTEX
  5
194
330
191
100
AcDbEntity
  8
LAYER_1
 62
   250
100
AcDbVertex
100
AcDb2dVertex
 10
893.587890625
 20
-1004.8828125
 30
0.0
  0
VERTEX
  5
195
330
191
100
AcDbEntity
  8
LAYER_1
 62
   250
100
AcDbVertex
100
AcDb2dVertex
 10
916.49169921875
 20
-1042.3232421875
 30
0.0
  0
VERTEX
  5
196
330
191
100
AcDbEntity
  8
LAYER_1
 62
   250
100
AcDbVertex
100
AcDb2dVertex
 10
909.6044921875
 20
-1046.14892578125
 30
0.0
  0
SEQEND
  5
197
330
191
100
AcDbEntity
  8
LAYER_1
  0
SPLINE
  5
198
330
1F
100
AcDbEntity
  8
LAYER_1
 62
   250
100
AcDbSpline
210
0.0
220
0.0
230
1.0
 70
    11
 71
     3
 72
    23
 73
    19
 74
     0
 42
0.0000000001
 43
0.0000000001
 40
0.0
 40
0.0
 40
0.0
 40
0.0
 40
1.0
 40
1.0
 40
1.0
 40
2.0
 40
2.0
 40
2.0
 40
3.0
 40
3.0
 40
3.0
 40
4.0
 40
4.0
 40
4.0
 40
5.0
 40
5.0
 40
5.0
 40
6.0
 40
6.0
 40
6.0
 40
6.0
 10
944.02734375
 20
-1115.6875
 30
0.0
 10
944.02734375
 20
-1115.6875
 30
0.0
 10
948.30078125
 20
-1110.6708984375
 30
0.0
 10
948.30078125
 20
-1110.6708984375
 30
0.0
 10
948.30078125
 20
-1110.6708984375
 30
0.0
 10
948.46435546875
 20
-1106.546875
 30
0.0
 10
948.46435546875
 20
-1106.546875
 30
0.0
 10
948.46435546875
 20
-1106.546875
 30
0.0
 10
928.41259765625
 20
-1068.02685546875
 30
0.0
 10
928.41259765625
 20
-1068.02685546875
 30
0.0
 10
928.41259765625
 20
-1068.02685546875
 30
0.0
 10
922.43701171875
 20
-1071.3486328125
 30
0.0
 10
922.43701171875
 20
-1071.3486328125
 30
0.0
 10
922.5712890625
 20
-1072.56005859375
 30
0.0
 10
922.7041015625
 20
-1073.76806640625
 30
0.0
 10
922.83544921875
 20
-1074.97509765625
 30
0.0
 10
922.83544921875
 20
-1074.97509765625
 30
0.0
 10
944.02734375
 20
-1115.6875
 30
0.0
 10
944.02734375
 20
-1115.6875
 30
0.0
  0
SPLINE
  5
199
330
1F
100
AcDbEntity
  8
LAYER_1
 62
   250
100
AcDbSpline
210
0.0
220
0.0
230
1.0
 70
    11
 71
     3
 72
    53
 73
    49
 74
     0
 42
0.0000000001
 43
0.0000000001
 40
0.0
 40
0.0
 40
0.0
 40
0.0
 40
1.0
 40
1.0
 40
1.0
 40
2.0
 40
2.0
 40
2.0
 40
3.0
 40
3.0
 40
3.0
 40
4.0
 40
4.0
 40
4.0
 40
5.0
 40
5.0
 40
5.0
 40
6.0
 40
6.0
 40
6.0
 40
7.0
 40
7.0
 40
7.0
 40
8.0
 40
8.0
 40
8.0
 40
9.0
 40
9.0
 40
9.0
 40
10.0
 40
10.0
 40
10.0
 40
11.0
 40
11.0
 40
11.0
 40
12.0
 40
12.0
 40
12.0
 40
13.0
 40
13.0
 40
13.0
 40
14.0
 40
14.0
 40
14.0
 40
15.0
 40
15.0
 40
15.0
 40
16.0
 40
16.0
 40
16.0
 40
16.0
 10
904.8466796875
 20
-914.001953125
 30
0.0
 10
907.90478515625
 20
-913.765625
 30
0.0
 10
910.9365234375
 20
-913.37255859375
 30
0.0
 10
913.94091796875
 20
-912.822265625
 30
0.0
 10
917.515625
 20
-912.16796875
 30
0.0
 10
922.28076171875
 20
-912.87890625
 30
0.0
 10
924.49609375
 20
-910.10107421875
 30
0.0
 10
925.603515625
 20
-908.7119140625
 30
0.0
 10
924.966796875
 20
-906.53466796875
 30
0.0
 10
924.49609375
 20
-904.84375
 30
0.0
 10
923.78955078125
 20
-902.30712890625
 30
0.0
 10
923.060546875
 20
-898.59130859375
 30
0.0
 10
920.3984375
 20
-898.01416015625
 30
0.0
 10
916.1552734375
 20
-897.0947265625
 30
0.0
 10
913.8935546875
 20
-904.24169921875
 30
0.0
 10
909.64892578125
 20
-905.15234375
 30
0.0
 10
907.1123046875
 20
-905.69677734375
 30
0.0
 10
904.53369140625
 20
-904.7421875
 30
0.0
 10
901.95654296875
 20
-904.0517578125
 30
0.0
 10
901.95654296875
 20
-904.0517578125
 30
0.0
 10
897.349609375
 20
-888.20458984375
 30
0.0
 10
897.349609375
 20
-888.20458984375
 30
0.0
 10
897.349609375
 20
-888.20458984375
 30
0.0
 10
888.21923828125
 20
-890.66162109375
 30
0.0
 10
888.21923828125
 20
-890.66162109375
 30
0.0
 10
888.21923828125
 20
-890.66162109375
 30
0.0
 10
908.6904296875
 20
-961.09423828125
 30
0.0
 10
908.6904296875
 20
-961.09423828125
 30
0.0
 10
893.00732421875
 20
-961.09423828125
 30
0.0
 10
871.2587890625
 20
-960.37890625
 30
0.0
 10
856.4140625
 20
-961.09423828125
 30
0.0
 10
853.6025390625
 20
-963.7998046875
 30
0.0
 10
853.6025390625
 20
-971.142578125
 30
0.0
 10
856.4140625
 20
-973.84765625
 30
0.0
 10
874.529296875
 20
-976.583984375
 30
0.0
 10
900.37939453125
 20
-973.84765625
 30
0.0
 10
919.2216796875
 20
-973.84765625
 30
0.0
 10
919.2216796875
 20
-970.02197265625
 30
0.0
 10
922.033203125
 20
-963.7998046875
 30
0.0
 10
919.2216796875
 20
-961.09423828125
 30
0.0
 10
919.07421875
 20
-960.9521484375
 30
0.0
 10
918.87890625
 20
-960.9140625
 30
0.0
 10
918.71337890625
 20
-960.7919921875
 30
0.0
 10
918.498046875
 20
-960.6328125
 30
0.0
 10
918.38525390625
 20
-960.58984375
 30
0.0
 10
918.31494140625
 20
-960.337890625
 30
0.0
 10
918.31494140625
 20
-960.337890625
 30
0.0
 10
904.8466796875
 20
-914.001953125
 30
0.0
 10
904.8466796875
 20
-914.001953125
 30
0.0
  0
POLYLINE
  5
19A
330
1F
100
AcDbEntity
  8
LAYER_1
 62
   250
100
AcDb2dPolyline
 66
     1
 10
0.0
 20
0.0
 30
0.0
  0
VERTEX
  5
19B
330
19A
100
AcDbEntity
  8
LAYER_1
 62
   250
100
AcDbVertex
100
AcDb2dVertex
 10
724.8759765625
 20
-551.12841796875
 30
0.0
  0
VERTEX
  5
19C
330
19A
100
AcDbEntity
  8
LAYER_1
 62
   250
100
AcDbVertex
100
AcDb2dVertex
 10
724.8759765625
 20
-529.58251953125
 30
0.0
  0
VERTEX
  5
19D
330
19A
100
AcDbEntity
  8
LAYER_1
 62
   250
100
AcDbVertex
100
AcDb2dVertex
 10
704.46728515625
 20
-529.58251953125
 30
0.0
  0
VERTEX
  5
19E
330
19A
100
AcDbEntity
  8
LAYER_1
 62
   250
100
AcDbVertex
100
AcDb2dVertex
 10
724.8759765625
 20
-551.12841796875
 30
0.0
  0
SEQEND
  5
19F
330
19A
100
AcDbEntity
  8
LAYER_1
  0
POLYLINE
  5
1A0
330
1F
100
AcDbEntity
  8
LAYER_1
 62
   250
100
AcDb2dPolyline
 66
     1
 10
0.0
 20
0.0
 30
0.0
  0
VERTEX
  5
1A1
330
1A0
100
AcDbEntity
  8
LAYER_1
 62
   250
100
AcDbVertex
100
AcDb2dVertex
 10
723.08935546875
 20
-576.39599609375
 30
0.0
  0
VERTEX
  5
1A2
330
1A0
100
AcDbEntity
  8
LAYER_1
 62
   250
100
AcDbVertex
100
AcDb2dVertex
 10
645.998046875
 20
-576.39599609375
 30
0.0
  0
VERTEX
  5
1A3
330
1A0
100
AcDbEntity
  8
LAYER_1
 62
   250
100
AcDbVertex
100
AcDb2dVertex
 10
684.5439453125
 20
-535.703125
 30
0.0
  0
VERTEX
  5
1A4
330
1A0
100
AcDbEntity
  8
LAYER_1
 62
   250
100
AcDbVertex
100
AcDb2dVertex
 10
723.08935546875
 20
-576.39599609375
 30
0.0
  0
SEQEND
  5
1A5
330
1A0
100
AcDbEntity
  8
LAYER_1
  0
SPLINE
  5
1A6
330
1F
100
AcDbEntity
  8
LAYER_1
 62
   250
100
AcDbSpline
210
0.0
220
0.0
230
1.0
 70
    11
 71
     3
 72
   206
 73
   202
 74
     0
 42
0.0000000001
 43
0.0000000001
 40
0.0
 40
0.0
 40
0.0
 40
0.0
 40
1.0
 40
1.0
 40
1.0
 40
2.0
 40
2.0
 40
2.0
 40
3.0
 40
3.0
 40
3.0
 40
4.0
 40
4.0
 40
4.0
 40
5.0
 40
5.0
 40
5.0
 40
6.0
 40
6.0
 40
6.0
 40
7.0
 40
7.0
 40
7.0
 40
8.0
 40
8.0
 40
8.0
 40
9.0
 40
9.0
 40
9.0
 40
10.0
 40
10.0
 40
10.0
 40
11.0
 40
11.0
 40
11.0
 40
12.0
 40
12.0
 40
12.0
 40
13.0
 40
13.0
 40
13.0
 40
14.0
 40
14.0
 40
14.0
 40
15.0
 40
15.0
 40
15.0
 40
16.0
 40
16.0
 40
16.0
 40
17.0
 40
17.0
 40
17.0
 40
18.0
 40
18.0
 40
18.0
 40
19.0
 40
19.0
 40
19.0
 40
20.0
 40
20.0
 40
20.0
 40
21.0
 40
21.0
 40
21.0
 40
22.0
 40
22.0
 40
22.0
 40
23.0
 40
23.0
 40
23.0
 40
24.0
 40
24.0
 40
24.0
 40
25.0
 40
25.0
 40
25.0
 40
26.0
 40
26.0
 40
26.0
 40
27.0
 40
27.0
 40
27.0
 40
28.0
 40
28.0
 40
28.0
 40
29.0
 40
29.0
 40
29.0
 40
30.0
 40
30.0
 40
30.0
 40
31.0
 40
31.0
 40
31.0
 40
32.0
 40
32.0
 40
32.0
 40
33.0
 40
33.0
 40
33.0
 40
34.0
 40
34.0
 40
34.0
 40
35.0
 40
35.0
 40
35.0
 40
36.0
 40
36.0
 40
36.0
 40
37.0
 40
37.0
 40
37.0
 40
38.0
 40
38.0
 40
38.0
 40
39.0
 40
39.0
 40
39.0
 40
40.0
 40
40.0
 40
40.0
 40
41.0
 40
41.0
 40
41.0
 40
42.0
 40
42.0
 40
42.0
 40
43.0
 40
43.0
 40
43.0
 40
44.0
 40
44.0
 40
44.0
 40
45.0
 40
45.0
 40
45.0
 40
46.0
 40
46.0
 40
46.0
 40
47.0
 40
47.0
 40
47.0
 40
48.0
 40
48.0
 40
48.0
 40
49.0
 40
49.0
 40
49.0
 40
50.0
 40
50.0
 40
50.0
 40
51.0
 40
51.0
 40
51.0
 40
52.0
 40
52.0
 40
52.0
 40
53.0
 40
53.0
 40
53.0
 40
54.0
 40
54.0
 40
54.0
 40
55.0
 40
55.0
 40
55.0
 40
56.0
 40
56.0
 40
56.0
 40
57.0
 40
57.0
 40
57.0
 40
58.0
 40
58.0
 40
58.0
 40
59.0
 40
59.0
 40
59.0
 40
60.0
 40
60.0
 40
60.0
 40
61.0
 40
61.0
 40
61.0
 40
62.0
 40
62.0
 40
62.0
 40
63.0
 40
63.0
 40
63.0
 40
64.0
 40
64.0
 40
64.0
 40
65.0
 40
65.0
 40
65.0
 40
66.0
 40
66.0
 40
66.0
 40
67.0
 40
67.0
 40
67.0
 40
67.0
 10
387.9716796875
 20
-933.4619140625
 30
0.0
 10
382.82568359375
 20
-928.51025390625
 30
0.0
 10
386.087890625
 20
-919.19677734375
 30
0.0
 10
387.9716796875
 20
-912.4326171875
 30
0.0
 10
388.4423828125
 20
-910.74169921875
 30
0.0
 10
389.3642578125
 20
-909.06494140625
 30
0.0
 10
390.70361328125
 20
-907.8798828125
 30
0.0
 10
392.1259765625
 20
-906.6201171875
 30
0.0
 10
394.65625
 20
-906.87646484375
 30
0.0
 10
395.95556640625
 20
-905.4990234375
 30
0.0
 10
397.017578125
 20
-904.3720703125
 30
0.0
 10
398.462890625
 20
-902.4404296875
 30
0.0
 10
397.55224609375
 20
-901.19677734375
 30
0.0
 10
395.97998046875
 20
-899.05029296875
 30
0.0
 10
391.8779296875
 20
-902.20166015625
 30
0.0
 10
389.3564453125
 20
-901.19677734375
 30
0.0
 10
385.99462890625
 20
-899.85693359375
 30
0.0
 10
380.68798828125
 20
-897.14404296875
 30
0.0
 10
381.6298828125
 20
-893.76171875
 30
0.0
 10
382.5712890625
 20
-890.3798828125
 30
0.0
 10
388.72509765625
 20
-892.1259765625
 30
0.0
 10
392.1845703125
 20
-891.04052734375
 30
0.0
 10
393.57275390625
 20
-890.60498046875
 30
0.0
 10
394.83935546875
 20
-889.77734375
 30
0.0
 10
396.27490234375
 20
-889.52001953125
 30
0.0
 10
397.1689453125
 20
-889.359375
 30
0.0
 10
398.33935546875
 20
-890.115234375
 30
0.0
 10
399.0068359375
 20
-889.52001953125
 30
0.0
 10
404.63720703125
 20
-884.49609375
 30
0.0
 10
400.767578125
 20
-874.78369140625
 30
0.0
 10
400.74560546875
 20
-867.39501953125
 30
0.0
 10
400.708984375
 20
-854.9677734375
 30
0.0
 10
400.6552734375
 20
-842.2734375
 30
0.0
 10
397.60009765625
 20
-830.19921875
 30
0.0
 10
396.662109375
 20
-826.4912109375
 30
0.0
 10
392.02099609375
 20
-823.32568359375
 30
0.0
 10
393.00146484375
 20
-819.62841796875
 30
0.0
 10
393.94384765625
 20
-816.0732421875
 30
0.0
 10
399.95166015625
 20
-815.8740234375
 30
0.0
 10
401.943359375
 20
-812.7451171875
 30
0.0
 10
403.48583984375
 20
-810.32177734375
 30
0.0
 10
403.43212890625
 20
-807.2138671875
 30
0.0
 10
403.7314453125
 20
-804.38671875
 30
0.0
 10
403.916015625
 20
-802.64501953125
 30
0.0
 10
402.90185546875
 20
-800.6875
 30
0.0
 10
403.7314453125
 20
-799.12939453125
 30
0.0
 10
405.5
 20
-795.80908203125
 30
0.0
 10
409.92724609375
 20
-794.61181640625
 30
0.0
 10
413.1845703125
 20
-792.5869140625
 30
0.0
 10
416.24072265625
 20
-790.68701171875
 30
0.0
 10
419.2861328125
 20
-788.66943359375
 30
0.0
 10
422.64794921875
 20
-787.32958984375
 30
0.0
 10
426.009765625
 20
-785.98974609375
 30
0.0
 10
430.31591796875
 20
-782.4765625
 30
0.0
 10
433.203125
 20
-784.6083984375
 30
0.0
 10
433.9248046875
 20
-785.14111328125
 30
0.0
 10
433.4384765625
 20
-786.3916015625
 30
0.0
 10
433.203125
 20
-787.23681640625
 30
0.0
 10
432.96728515625
 20
-788.08251953125
 30
0.0
 10
432.4462890625
 20
-788.86328125
 30
0.0
 10
431.8369140625
 20
-789.513671875
 30
0.0
 10
429.16357421875
 20
-792.365234375
 30
0.0
 10
424.609375
 20
-793.267578125
 30
0.0
 10
422.12646484375
 20
-796.2744140625
 30
0.0
 10
419.94384765625
 20
-798.9169921875
 30
0.0
 10
416.09814453125
 20
-802.80419921875
 30
0.0
 10
418.03857421875
 20
-805.6162109375
 30
0.0
 10
419.044921875
 20
-807.07421875
 30
0.0
 10
421.68310546875
 20
-805.6162109375
 30
0.0
 10
423.50244140625
 20
-805.6162109375
 30
0.0
 10
425.32177734375
 20
-805.6162109375
 30
0.0
 10
427.337890625
 20
-806.3974609375
 30
0.0
 10
428.9658203125
 20
-805.6162109375
 30
0.0
 10
432.54443359375
 20
-803.89794921875
 30
0.0
 10
434.91943359375
 20
-800.0322265625
 30
0.0
 10
436.18701171875
 20
-796.38232421875
 30
0.0
 10
437.9169921875
 20
-791.4013671875
 30
0.0
 10
431.85693359375
 20
-783.8076171875
 30
0.0
 10
436.18701171875
 20
-780.61083984375
 30
0.0
 10
441.2392578125
 20
-776.88037109375
 30
0.0
 10
449.44921875
 20
-781.84912109375
 30
0.0
 10
454.658203125
 20
-785.373046875
 30
0.0
 10
456.61279296875
 20
-786.6953125
 30
0.0
 10
458.037109375
 20
-788.849609375
 30
0.0
 10
458.75146484375
 20
-791.04345703125
 30
0.0
 10
459.02294921875
 20
-791.87890625
 30
0.0
 10
458.75146484375
 20
-792.796875
 30
0.0
 10
458.75146484375
 20
-793.671875
 30
0.0
 10
458.75146484375
 20
-806.80224609375
 30
0.0
 10
458.75146484375
 20
-819.9716796875
 30
0.0
 10
458.75146484375
 20
-833.1015625
 30
0.0
 10
458.75146484375
 20
-833.97705078125
 30
0.0
 10
458.60400390625
 20
-834.86669921875
 30
0.0
 10
458.75146484375
 20
-835.73046875
 30
0.0
 10
459.39794921875
 20
-839.521484375
 30
0.0
 10
463.70751953125
 20
-842.97607421875
 30
0.0
 10
462.58349609375
 20
-846.66259765625
 30
0.0
 10
462.00830078125
 20
-848.54833984375
 30
0.0
 10
459.720703125
 20
-849.69921875
 30
0.0
 10
457.79296875
 20
-850.349609375
 30
0.0
 10
454.359375
 20
-851.5087890625
 30
0.0
 10
449.43896484375
 20
-847.8740234375
 30
0.0
 10
446.86572265625
 20
-850.349609375
 30
0.0
 10
446.22265625
 20
-850.96875
 30
0.0
 10
447.5087890625
 20
-852.359375
 30
0.0
 10
446.86572265625
 20
-852.978515625
 30
0.0
 10
445.5791015625
 20
-854.21630859375
 30
0.0
 10
442.6884765625
 20
-854.21630859375
 30
0.0
 10
441.40185546875
 20
-852.978515625
 30
0.0
 10
440.7587890625
 20
-852.359375
 30
0.0
 10
441.21337890625
 20
-851.2060546875
 30
0.0
 10
441.40185546875
 20
-850.349609375
 30
0.0
 10
442.12646484375
 20
-847.06396484375
 30
0.0
 10
445.1123046875
 20
-844.44921875
 30
0.0
 10
445.65771484375
 20
-841.13134765625
 30
0.0
 10
446.77783203125
 20
-834.32275390625
 30
0.0
 10
449.7041015625
 20
-823.85693359375
 30
0.0
 10
443.42236328125
 20
-820.54296875
 30
0.0
 10
441.5458984375
 20
-819.552734375
 30
0.0
 10
438.79931640625
 20
-821.556640625
 30
0.0
 10
437.673828125
 20
-823.30859375
 30
0.0
 10
436.2392578125
 20
-825.54248046875
 30
0.0
 10
439.18212890625
 20
-829.005859375
 30
0.0
 10
437.673828125
 20
-831.1943359375
 30
0.0
 10
436.716796875
 20
-832.5830078125
 30
0.0
 10
434.3203125
 20
-832.2109375
 30
0.0
 10
432.8837890625
 20
-833.1416015625
 30
0.0
 10
430.6201171875
 20
-834.6083984375
 30
0.0
 10
428.0126953125
 20
-836.2470703125
 30
0.0
 10
427.08837890625
 20
-838.7177734375
 30
0.0
 10
421.28125
 20
-854.24560546875
 30
0.0
 10
422.68310546875
 20
-874.16748046875
 30
0.0
 10
431.9501953125
 20
-888.05322265625
 30
0.0
 10
433.4248046875
 20
-890.2626953125
 30
0.0
 10
437.310546875
 20
-889.97119140625
 30
0.0
 10
439.0478515625
 20
-891.99609375
 30
0.0
 10
440.76318359375
 20
-893.99560546875
 30
0.0
 10
440.57373046875
 20
-896.99609375
 30
0.0
 10
441.69287109375
 20
-899.3544921875
 30
0.0
 10
442.82666015625
 20
-901.7431640625
 30
0.0
 10
443.1787109375
 20
-905.42333984375
 30
0.0
 10
445.791015625
 20
-906.18359375
 30
0.0
 10
448.30859375
 20
-906.91650390625
 30
0.0
 10
450.47607421875
 20
-903.8603515625
 30
0.0
 10
452.87060546875
 20
-902.8115234375
 30
0.0
 10
454.443359375
 20
-902.12255859375
 30
0.0
 10
455.96630859375
 20
-901.216796875
 30
0.0
 10
457.66064453125
 20
-900.890625
 30
0.0
 10
458.552734375
 20
-900.71923828125
 30
0.0
 10
459.689453125
 20
-901.4462890625
 30
0.0
 10
460.392578125
 20
-900.890625
 30
0.0
 10
463.6396484375
 20
-898.32568359375
 30
0.0
 10
459.0234375
 20
-890.65234375
 30
0.0
 10
462.85009765625
 20
-888.9833984375
 30
0.0
 10
464.50732421875
 20
-888.2607421875
 30
0.0
 10
466.67236328125
 20
-890.095703125
 30
0.0
 10
467.58203125
 20
-891.6123046875
 30
0.0
 10
469.4013671875
 20
-894.64453125
 30
0.0
 10
469.19580078125
 20
-898.98828125
 30
0.0
 10
467.58203125
 20
-902.126953125
 30
0.0
 10
465.3681640625
 20
-906.43212890625
 30
0.0
 10
458.9609375
 20
-907.2705078125
 30
0.0
 10
455.66455078125
 20
-910.8779296875
 30
0.0
 10
453.86279296875
 20
-912.849609375
 30
0.0
 10
452.2734375
 20
-915.17041015625
 30
0.0
 10
451.56689453125
 20
-917.70703125
 30
0.0
 10
451.33154296875
 20
-918.552734375
 30
0.0
 10
452.2099609375
 20
-919.716796875
 30
0.0
 10
451.56689453125
 20
-920.3359375
 30
0.0
 10
450.2802734375
 20
-921.57373046875
 30
0.0
 10
447.3896484375
 20
-921.57373046875
 30
0.0
 10
446.10302734375
 20
-920.3359375
 30
0.0
 10
444.17333984375
 20
-918.47900390625
 30
0.0
 10
448.033203125
 20
-914.306640625
 30
0.0
 10
446.10302734375
 20
-912.44970703125
 30
0.0
 10
443.5302734375
 20
-909.97412109375
 30
0.0
 10
438.814453125
 20
-912.44970703125
 30
0.0
 10
435.17578125
 20
-912.44970703125
 30
0.0
 10
432.44677734375
 20
-912.44970703125
 30
0.0
 10
428.91015625
 20
-910.5927734375
 30
0.0
 10
426.97998046875
 20
-912.44970703125
 30
0.0
 10
425.05029296875
 20
-914.306640625
 30
0.0
 10
429.1455078125
 20
-918.7373046875
 30
0.0
 10
426.97998046875
 20
-920.3359375
 30
0.0
 10
423.37158203125
 20
-923.0
 30
0.0
 10
418.1796875
 20
-918.06689453125
 30
0.0
 10
413.7861328125
 20
-916.93408203125
 30
0.0
 10
411.150390625
 20
-916.25439453125
 30
0.0
 10
408.57568359375
 20
-915.23583984375
 30
0.0
 10
405.8701171875
 20
-914.89306640625
 30
0.0
 10
403.1640625
 20
-914.55029296875
 30
0.0
 10
399.60400390625
 20
-913.0361328125
 30
0.0
 10
397.67431640625
 20
-914.89306640625
 30
0.0
 10
394.4580078125
 20
-917.98779296875
 30
0.0
 10
399.07958984375
 20
-923.87353515625
 30
0.0
 10
397.67431640625
 20
-928.0361328125
 30
0.0
 10
396.95751953125
 20
-930.16015625
 30
0.0
 10
395.646484375
 20
-932.4482421875
 30
0.0
 10
393.57861328125
 20
-933.4619140625
 30
0.0
 10
391.9150390625
 20
-934.27783203125
 30
0.0
 10
389.2919921875
 20
-934.732421875
 30
0.0
 10
387.9716796875
 20
-933.4619140625
 30
0.0
  0
SPLINE
  5
1A7
330
1F
100
AcDbEntity
  8
LAYER_1
 62
   250
100
AcDbSpline
210
0.0
220
0.0
230
1.0
 70
    11
 71
     3
 72
   113
 73
   109
 74
     0
 42
0.0000000001
 43
0.0000000001
 40
0.0
 40
0.0
 40
0.0
 40
0.0
 40
1.0
 40
1.0
 40
1.0
 40
2.0
 40
2.0
 40
2.0
 40
3.0
 40
3.0
 40
3.0
 40
4.0
 40
4.0
 40
4.0
 40
5.0
 40
5.0
 40
5.0
 40
6.0
 40
6.0
 40
6.0
 40
7.0
 40
7.0
 40
7.0
 40
8.0
 40
8.0
 40
8.0
 40
9.0
 40
9.0
 40
9.0
 40
10.0
 40
10.0
 40
10.0
 40
11.0
 40
11.0
 40
11.0
 40
12.0
 40
12.0
 40
12.0
 40
13.0
 40
13.0
 40
13.0
 40
14.0
 40
14.0
 40
14.0
 40
15.0
 40
15.0
 40
15.0
 40
16.0
 40
16.0
 40
16.0
 40
17.0
 40
17.0
 40
17.0
 40
18.0
 40
18.0
 40
18.0
 40
19.0
 40
19.0
 40
19.0
 40
20.0
 40
20.0
 40
20.0
 40
21.0
 40
21.0
 40
21.0
 40
22.0
 40
22.0
 40
22.0
 40
23.0
 40
23.0
 40
23.0
 40
24.0
 40
24.0
 40
24.0
 40
25.0
 40
25.0
 40
25.0
 40
26.0
 40
26.0
 40
26.0
 40
27.0
 40
27.0
 40
27.0
 40
28.0
 40
28.0
 40
28.0
 40
29.0
 40
29.0
 40
29.0
 40
30.0
 40
30.0
 40
30.0
 40
31.0
 40
31.0
 40
31.0
 40
32.0
 40
32.0
 40
32.0
 40
33.0
 40
33.0
 40
33.0
 40
34.0
 40
34.0
 40
34.0
 40
35.0
 40
35.0
 40
35.0
 40
36.0
 40
36.0
 40
36.0
 40
36.0
 10
793.92138671875
 20
-564.0224609375
 30
0.0
 10
793.76171875
 20
-563.6708984375
 30
0.0
 10
793.67041015625
 20
-563.25244140625
 30
0.0
 10
793.3330078125
 20
-563.080078125
 30
0.0
 10
791.7626953125
 20
-562.27783203125
 30
0.0
 10
789.70751953125
 20
-562.943359375
 30
0.0
 10
788.0078125
 20
-563.4443359375
 30
0.0
 10
786.703125
 20
-563.8291015625
 30
0.0
 10
785.4765625
 20
-564.541015625
 30
0.0
 10
784.458984375
 20
-565.416015625
 30
0.0
 10
781.93115234375
 20
-567.59033203125
 30
0.0
 10
779.80322265625
 20
-570.32373046875
 30
0.0
 10
778.41455078125
 20
-573.30029296875
 30
0.0
 10
777.22900390625
 20
-575.84033203125
 30
0.0
 10
777.87646484375
 20
-578.97509765625
 30
0.0
 10
776.61572265625
 20
-581.4814453125
 30
0.0
 10
775.73779296875
 20
-583.2265625
 30
0.0
 10
774.75732421875
 20
-586.12451171875
 30
0.0
 10
772.74951171875
 20
-585.96044921875
 30
0.0
 10
771.8427734375
 20
-585.88623046875
 30
0.0
 10
771.79248046875
 20
-584.4658203125
 30
0.0
 10
771.38330078125
 20
-583.68408203125
 30
0.0
 10
770.5830078125
 20
-582.15380859375
 30
0.0
 10
769.31689453125
 20
-580.67626953125
 30
0.0
 10
769.2578125
 20
-578.9638671875
 30
0.0
 10
769.1669921875
 20
-576.32568359375
 30
0.0
 10
771.0595703125
 20
-573.9677734375
 30
0.0
 10
772.025390625
 20
-571.49658203125
 30
0.0
 10
772.7626953125
 20
-569.61083984375
 30
0.0
 10
773.1904296875
 20
-567.55517578125
 30
0.0
 10
774.34033203125
 20
-565.87109375
 30
0.0
 10
774.83984375
 20
-565.1396484375
 30
0.0
 10
775.62841796875
 20
-564.63134765625
 30
0.0
 10
776.27197265625
 20
-564.01220703125
 30
0.0
 10
777.55859375
 20
-562.7744140625
 30
0.0
 10
778.90185546875
 20
-561.58203125
 30
0.0
 10
780.13525390625
 20
-560.294921875
 30
0.0
 10
781.3447265625
 20
-559.03271484375
 30
0.0
 10
784.55810546875
 20
-557.81640625
 30
0.0
 10
783.60400390625
 20
-556.36572265625
 30
0.0
 10
782.14501953125
 20
-554.146484375
 30
0.0
 10
778.1162109375
 20
-557.208984375
 30
0.0
 10
775.68798828125
 20
-558.40673828125
 30
0.0
 10
773.484375
 20
-559.494140625
 30
0.0
 10
772.09033203125
 20
-561.76953125
 30
0.0
 10
769.9326171875
 20
-562.93798828125
 30
0.0
 10
768.92578125
 20
-563.48291015625
 30
0.0
 10
767.7001953125
 20
-564.53662109375
 30
0.0
 10
766.662109375
 20
-564.04931640625
 30
0.0
 10
765.306640625
 20
-563.41259765625
 30
0.0
 10
765.18359375
 20
-561.36767578125
 30
0.0
 10
765.22314453125
 20
-559.9169921875
 30
0.0
 10
765.27001953125
 20
-558.20556640625
 30
0.0
 10
765.9619140625
 20
-556.37744140625
 30
0.0
 10
767.185546875
 20
-555.13427734375
 30
0.0
 10
769.19580078125
 20
-553.091796875
 30
0.0
 10
772.37451171875
 20
-552.451171875
 30
0.0
 10
775.16455078125
 20
-551.6103515625
 30
0.0
 10
778.71142578125
 20
-550.541015625
 30
0.0
 10
782.4365234375
 20
-549.7978515625
 30
0.0
 10
786.15234375
 20
-549.72216796875
 30
0.0
 10
793.30810546875
 20
-549.57666015625
 30
0.0
 10
800.51416015625
 20
-550.80126953125
 30
0.0
 10
807.451171875
 20
-552.4951171875
 30
0.0
 10
812.56689453125
 20
-553.744140625
 30
0.0
 10
817.93017578125
 20
-555.01318359375
 30
0.0
 10
822.26953125
 20
-557.9033203125
 30
0.0
 10
828.1904296875
 20
-561.84716796875
 30
0.0
 10
833.166015625
 20
-567.4072265625
 30
0.0
 10
836.568359375
 20
-573.51416015625
 30
0.0
 10
838.28759765625
 20
-576.60009765625
 30
0.0
 10
839.396484375
 20
-580.1689453125
 30
0.0
 10
839.396484375
 20
-583.67041015625
 30
0.0
 10
839.396484375
 20
-585.4208984375
 30
0.0
 10
839.42578125
 20
-587.68310546875
 30
0.0
 10
837.982421875
 20
-588.74853515625
 30
0.0
 10
836.5390625
 20
-589.814453125
 30
0.0
 10
833.8056640625
 20
-589.986328125
 30
0.0
 10
832.51904296875
 20
-588.74853515625
 30
0.0
 10
831.87548828125
 20
-588.1298828125
 30
0.0
 10
832.75439453125
 20
-586.96533203125
 30
0.0
 10
832.51904296875
 20
-586.1201171875
 30
0.0
 10
831.8125
 20
-583.58349609375
 30
0.0
 10
830.78466796875
 20
-580.603515625
 30
0.0
 10
828.4208984375
 20
-579.29052734375
 30
0.0
 10
826.0576171875
 20
-577.9775390625
 30
0.0
 10
822.8388671875
 20
-578.533203125
 30
0.0
 10
820.2255859375
 20
-579.29052734375
 30
0.0
 10
819.4423828125
 20
-579.517578125
 30
0.0
 10
818.92333984375
 20
-580.2724609375
 30
0.0
 10
818.17724609375
 20
-580.59619140625
 30
0.0
 10
814.85986328125
 20
-582.03466796875
 30
0.0
 10
811.13720703125
 20
-582.4111328125
 30
0.0
 10
807.62255859375
 20
-583.3173828125
 30
0.0
 10
804.986328125
 20
-583.9970703125
 30
0.0
 10
802.34228515625
 20
-586.0380859375
 30
0.0
 10
799.7060546875
 20
-585.3583984375
 30
0.0
 10
797.06982421875
 20
-584.6787109375
 30
0.0
 10
795.4990234375
 20
-581.91796875
 30
0.0
 10
793.9111328125
 20
-579.7822265625
 30
0.0
 10
793.28955078125
 20
-578.94677734375
 30
0.0
 10
792.6005859375
 20
-578.03564453125
 30
0.0
 10
792.49658203125
 20
-577.01318359375
 30
0.0
 10
792.31982421875
 20
-575.27099609375
 30
0.0
 10
793.67333984375
 20
-573.6708984375
 30
0.0
 10
793.9111328125
 20
-571.93505859375
 30
0.0
 10
794.2626953125
 20
-569.36279296875
 30
0.0
 10
794.26806640625
 20
-566.6435546875
 30
0.0
 10
793.92138671875
 20
-564.0224609375
 30
0.0
  0
SPLINE
  5
1A8
330
1F
100
AcDbEntity
  8
LAYER_1
 62
   250
100
AcDbSpline
210
0.0
220
0.0
230
1.0
 70
    11
 71
     3
 72
    41
 73
    37
 74
     0
 42
0.0000000001
 43
0.0000000001
 40
0.0
 40
0.0
 40
0.0
 40
0.0
 40
1.0
 40
1.0
 40
1.0
 40
2.0
 40
2.0
 40
2.0
 40
3.0
 40
3.0
 40
3.0
 40
4.0
 40
4.0
 40
4.0
 40
5.0
 40
5.0
 40
5.0
 40
6.0
 40
6.0
 40
6.0
 40
7.0
 40
7.0
 40
7.0
 40
8.0
 40
8.0
 40
8.0
 40
9.0
 40
9.0
 40
9.0
 40
10.0
 40
10.0
 40
10.0
 40
11.0
 40
11.0
 40
11.0
 40
12.0
 40
12.0
 40
12.0
 40
12.0
 10
753.005859375
 20
-604.689453125
 30
0.0
 10
753.11279296875
 20
-601.8076171875
 30
0.0
 10
751.93798828125
 20
-598.96875
 30
0.0
 10
751.9833984375
 20
-596.08544921875
 30
0.0
 10
752.064453125
 20
-590.95703125
 30
0.0
 10
752.375
 20
-585.6328125
 30
0.0
 10
754.283203125
 20
-580.84375
 30
0.0
 10
755.27099609375
 20
-578.36328125
 30
0.0
 10
758.08154296875
 20
-576.7490234375
 30
0.0
 10
758.8818359375
 20
-574.20654296875
 30
0.0
 10
759.1455078125
 20
-573.36865234375
 30
0.0
 10
759.2060546875
 20
-572.3955078125
 30
0.0
 10
758.8818359375
 20
-571.57763671875
 30
0.0
 10
758.380859375
 20
-570.3154296875
 30
0.0
 10
757.44384765625
 20
-568.83837890625
 30
0.0
 10
756.0712890625
 20
-568.55224609375
 30
0.0
 10
753.80029296875
 20
-568.07861328125
 30
0.0
 10
751.24951171875
 20
-569.60400390625
 30
0.0
 10
749.6845703125
 20
-571.25634765625
 30
0.0
 10
747.1474609375
 20
-573.93505859375
 30
0.0
 10
746.908203125
 20
-578.0400390625
 30
0.0
 10
746.107421875
 20
-581.5810546875
 30
0.0
 10
744.57958984375
 20
-588.3388671875
 30
0.0
 10
743.25146484375
 20
-595.3359375
 30
0.0
 10
743.80810546875
 20
-602.23095703125
 30
0.0
 10
744.01953125
 20
-604.84912109375
 30
0.0
 10
743.91650390625
 20
-608.07470703125
 30
0.0
 10
745.92919921875
 20
-609.84814453125
 30
0.0
 10
746.8857421875
 20
-610.69091796875
 30
0.0
 10
748.48779296875
 20
-610.712890625
 30
0.0
 10
749.7646484375
 20
-610.49609375
 30
0.0
 10
750.66015625
 20
-610.34375
 30
0.0
 10
751.6044921875
 20
-609.89599609375
 30
0.0
 10
752.13037109375
 20
-609.181640625
 30
0.0
 10
753.04443359375
 20
-607.939453125
 30
0.0
 10
752.94921875
 20
-606.21044921875
 30
0.0
 10
753.005859375
 20
-604.689453125
 30
0.0
  0
SPLINE
  5
1A9
330
1F
100
AcDbEntity
  8
LAYER_1
 62
   250
100
AcDbSpline
210
0.0
220
0.0
230
1.0
 70
    11
 71
     3
 72
   131
 73
   127
 74
     0
 42
0.0000000001
 43
0.0000000001
 40
0.0
 40
0.0
 40
0.0
 40
0.0
 40
1.0
 40
1.0
 40
1.0
 40
2.0
 40
2.0
 40
2.0
 40
3.0
 40
3.0
 40
3.0
 40
4.0
 40
4.0
 40
4.0
 40
5.0
 40
5.0
 40
5.0
 40
6.0
 40
6.0
 40
6.0
 40
7.0
 40
7.0
 40
7.0
 40
8.0
 40
8.0
 40
8.0
 40
9.0
 40
9.0
 40
9.0
 40
10.0
 40
10.0
 40
10.0
 40
11.0
 40
11.0
 40
11.0
 40
12.0
 40
12.0
 40
12.0
 40
13.0
 40
13.0
 40
13.0
 40
14.0
 40
14.0
 40
14.0
 40
15.0
 40
15.0
 40
15.0
 40
16.0
 40
16.0
 40
16.0
 40
17.0
 40
17.0
 40
17.0
 40
18.0
 40
18.0
 40
18.0
 40
19.0
 40
19.0
 40
19.0
 40
20.0
 40
20.0
 40
20.0
 40
21.0
 40
21.0
 40
21.0
 40
22.0
 40
22.0
 40
22.0
 40
23.0
 40
23.0
 40
23.0
 40
24.0
 40
24.0
 40
24.0
 40
25.0
 40
25.0
 40
25.0
 40
26.0
 40
26.0
 40
26.0
 40
27.0
 40
27.0
 40
27.0
 40
28.0
 40
28.0
 40
28.0
 40
29.0
 40
29.0
 40
29.0
 40
30.0
 40
30.0
 40
30.0
 40
31.0
 40
31.0
 40
31.0
 40
32.0
 40
32.0
 40
32.0
 40
33.0
 40
33.0
 40
33.0
 40
34.0
 40
34.0
 40
34.0
 40
35.0
 40
35.0
 40
35.0
 40
36.0
 40
36.0
 40
36.0
 40
37.0
 40
37.0
 40
37.0
 40
38.0
 40
38.0
 40
38.0
 40
39.0
 40
39.0
 40
39.0
 40
40.0
 40
40.0
 40
40.0
 40
41.0
 40
41.0
 40
41.0
 40
42.0
 40
42.0
 40
42.0
 40
42.0
 10
799.32373046875
 20
-620.998046875
 30
0.0
 10
797.748046875
 20
-620.12255859375
 30
0.0
 10
796.64794921875
 20
-618.19482421875
 30
0.0
 10
796.591796875
 20
-616.4453125
 30
0.0
 10
796.52880859375
 20
-614.48193359375
 30
0.0
 10
798.033203125
 20
-612.6865234375
 30
0.0
 10
799.32373046875
 20
-611.1650390625
 30
0.0
 10
800.89453125
 20
-609.3125
 30
0.0
 10
804.111328125
 20
-608.88916015625
 30
0.0
 10
805.19970703125
 20
-606.73974609375
 30
0.0
 10
806.39501953125
 20
-604.37890625
 30
0.0
 10
806.46630859375
 20
-601.18017578125
 30
0.0
 10
805.19970703125
 20
-598.85400390625
 30
0.0
 10
804.09521484375
 20
-596.82568359375
 30
0.0
 10
801.59521484375
 20
-595.62255859375
 30
0.0
 10
799.32373046875
 20
-594.93994140625
 30
0.0
 10
795.85009765625
 20
-593.89599609375
 30
0.0
 10
792.03515625
 20
-594.93994140625
 30
0.0
 10
788.39599609375
 20
-594.93994140625
 30
0.0
 10
783.84765625
 20
-594.93994140625
 30
0.0
 10
779.1767578125
 20
-593.9892578125
 30
0.0
 10
774.73681640625
 20
-594.93994140625
 30
0.0
 10
772.19091796875
 20
-595.4853515625
 30
0.0
 10
769.5654296875
 20
-596.43896484375
 30
0.0
 10
767.6435546875
 20
-598.1357421875
 30
0.0
 10
764.962890625
 20
-600.50341796875
 30
0.0
 10
762.8271484375
 20
-603.7958984375
 30
0.0
 10
762.18017578125
 20
-607.24169921875
 30
0.0
 10
761.322265625
 20
-611.8125
 30
0.0
 10
763.2236328125
 20
-616.5400390625
 30
0.0
 10
764.578125
 20
-620.998046875
 30
0.0
 10
765.97900390625
 20
-625.60986328125
 30
0.0
 10
766.91796875
 20
-630.88037109375
 30
0.0
 10
770.4541015625
 20
-634.27294921875
 30
0.0
 10
775.09765625
 20
-638.72802734375
 30
0.0
 10
782.078125
 20
-640.93115234375
 30
0.0
 10
788.59326171875
 20
-641.6474609375
 30
0.0
 10
796.486328125
 20
-642.515625
 30
0.0
 10
804.7744140625
 20
-640.677734375
 30
0.0
 10
812.09765625
 20
-637.71435546875
 30
0.0
 10
816.92919921875
 20
-635.75927734375
 30
0.0
 10
821.21630859375
 20
-632.4794921875
 30
0.0
 10
824.87158203125
 20
-628.86474609375
 30
0.0
 10
828.6728515625
 20
-625.10546875
 30
0.0
 10
831.1728515625
 20
-620.27880859375
 30
0.0
 10
834.0693359375
 20
-615.83544921875
 30
0.0
 10
836.48583984375
 20
-612.1279296875
 30
0.0
 10
839.7216796875
 20
-608.6806640625
 30
0.0
 10
840.89892578125
 20
-604.453125
 30
0.0
 10
841.13427734375
 20
-603.607421875
 30
0.0
 10
841.4111328125
 20
-602.5478515625
 30
0.0
 10
840.89892578125
 20
-601.82470703125
 30
0.0
 10
840.2431640625
 20
-600.89892578125
 30
0.0
 10
838.806640625
 20
-600.5107421875
 30
0.0
 10
837.64599609375
 20
-600.59423828125
 30
0.0
 10
834.01708984375
 20
-600.85498046875
 30
0.0
 10
830.75537109375
 20
-603.37548828125
 30
0.0
 10
828.1826171875
 20
-605.8515625
 30
0.0
 10
823.6796875
 20
-610.18408203125
 30
0.0
 10
823.12353515625
 20
-617.4541015625
 30
0.0
 10
818.62109375
 20
-621.78662109375
 30
0.0
 10
814.1181640625
 20
-626.11962890625
 30
0.0
 10
808.2109375
 20
-629.4013671875
 30
0.0
 10
802.06005859375
 20
-630.9873046875
 30
0.0
 10
795.0302734375
 20
-632.79931640625
 30
0.0
 10
786.9287109375
 20
-633.6669921875
 30
0.0
 10
780.205078125
 20
-630.9873046875
 30
0.0
 10
776.0029296875
 20
-629.31201171875
 30
0.0
 10
772.287109375
 20
-625.73681640625
 30
0.0
 10
770.54638671875
 20
-621.693359375
 30
0.0
 10
769.15380859375
 20
-618.45849609375
 30
0.0
 10
770.54638671875
 20
-614.68017578125
 30
0.0
 10
770.54638671875
 20
-611.1787109375
 30
0.0
 10
770.54638671875
 20
-610.30322265625
 30
0.0
 10
770.091796875
 20
-609.30810546875
 30
0.0
 10
770.54638671875
 20
-608.55029296875
 30
0.0
 10
771.00146484375
 20
-607.7919921875
 30
0.0
 10
772.01025390625
 20
-607.12158203125
 30
0.0
 10
772.912109375
 20
-607.23583984375
 30
0.0
 10
774.71630859375
 20
-607.46435546875
 30
0.0
 10
775.2841796875
 20
-609.95068359375
 30
0.0
 10
776.77587890625
 20
-610.953125
 30
0.0
 10
777.95703125
 20
-611.74755859375
 30
0.0
 10
779.2626953125
 20
-612.6337890625
 30
0.0
 10
780.70166015625
 20
-612.705078125
 30
0.0
 10
781.87890625
 20
-612.763671875
 30
0.0
 10
783.14013671875
 20
-612.31884765625
 30
0.0
 10
784.05029296875
 20
-611.59765625
 30
0.0
 10
785.45458984375
 20
-610.484375
 30
0.0
 10
786.41845703125
 20
-608.759765625
 30
0.0
 10
786.7822265625
 20
-607.04443359375
 30
0.0
 10
787.01904296875
 20
-605.92626953125
 30
0.0
 10
785.65380859375
 20
-604.56494140625
 30
0.0
 10
786.3525390625
 20
-603.642578125
 30
0.0
 10
787.439453125
 20
-602.2080078125
 30
0.0
 10
789.9501953125
 20
-602.572265625
 30
0.0
 10
791.7939453125
 20
-602.6357421875
 30
0.0
 10
792.703125
 20
-602.66748046875
 30
0.0
 10
793.87890625
 20
-602.62158203125
 30
0.0
 10
794.4326171875
 20
-603.31640625
 30
0.0
 10
794.986328125
 20
-604.0107421875
 30
0.0
 10
794.31396484375
 20
-605.0771484375
 30
0.0
 10
794.4326171875
 20
-605.94482421875
 30
0.0
 10
794.5517578125
 20
-606.8125
 30
0.0
 10
795.330078125
 20
-607.6279296875
 30
0.0
 10
795.1396484375
 20
-608.48388671875
 30
0.0
 10
794.68994140625
 20
-610.50927734375
 30
0.0
 10
792.2822265625
 20
-611.603515625
 30
0.0
 10
791.0615234375
 20
-613.30908203125
 30
0.0
 10
790.029296875
 20
-614.7509765625
 30
0.0
 10
788.56689453125
 20
-616.12646484375
 30
0.0
 10
788.32958984375
 20
-617.8623046875
 30
0.0
 10
787.9736328125
 20
-620.4658203125
 30
0.0
 10
788.4384765625
 20
-623.70556640625
 30
0.0
 10
790.45068359375
 20
-625.4794921875
 30
0.0
 10
791.81201171875
 20
-626.6796875
 30
0.0
 10
794.0849609375
 20
-626.66748046875
 30
0.0
 10
795.9111328125
 20
-626.4052734375
 30
0.0
 10
797.61279296875
 20
-626.16064453125
 30
0.0
 10
799.857421875
 20
-625.67919921875
 30
0.0
 10
800.51513671875
 20
-624.1494140625
 30
0.0
 10
800.9541015625
 20
-623.1298828125
 30
0.0
 10
800.56201171875
 20
-621.89013671875
 30
0.0
 10
799.6337890625
 20
-621.24169921875
 30
0.0
 10
799.60009765625
 20
-621.21826171875
 30
0.0
 10
799.359375
 20
-621.01806640625
 30
0.0
 10
799.32373046875
 20
-620.998046875
 30
0.0
  0
SPLINE
  5
1AA
330
1F
100
AcDbEntity
  8
LAYER_1
 62
   250
100
AcDbSpline
210
0.0
220
0.0
230
1.0
 70
    11
 71
     3
 72
    83
 73
    79
 74
     0
 42
0.0000000001
 43
0.0000000001
 40
0.0
 40
0.0
 40
0.0
 40
0.0
 40
1.0
 40
1.0
 40
1.0
 40
2.0
 40
2.0
 40
2.0
 40
3.0
 40
3.0
 40
3.0
 40
4.0
 40
4.0
 40
4.0
 40
5.0
 40
5.0
 40
5.0
 40
6.0
 40
6.0
 40
6.0
 40
7.0
 40
7.0
 40
7.0
 40
8.0
 40
8.0
 40
8.0
 40
9.0
 40
9.0
 40
9.0
 40
10.0
 40
10.0
 40
10.0
 40
11.0
 40
11.0
 40
11.0
 40
12.0
 40
12.0
 40
12.0
 40
13.0
 40
13.0
 40
13.0
 40
14.0
 40
14.0
 40
14.0
 40
15.0
 40
15.0
 40
15.0
 40
16.0
 40
16.0
 40
16.0
 40
17.0
 40
17.0
 40
17.0
 40
18.0
 40
18.0
 40
18.0
 40
19.0
 40
19.0
 40
19.0
 40
20.0
 40
20.0
 40
20.0
 40
21.0
 40
21.0
 40
21.0
 40
22.0
 40
22.0
 40
22.0
 40
23.0
 40
23.0
 40
23.0
 40
24.0
 40
24.0
 40
24.0
 40
25.0
 40
25.0
 40
25.0
 40
26.0
 40
26.0
 40
26.0
 40
26.0
 10
735.2099609375
 20
-526.32958984375
 30
0.0
 10
735.2099609375
 20
-526.32958984375
 30
0.0
 10
735.2177734375
 20
-511.087890625
 30
0.0
 10
735.2177734375
 20
-511.087890625
 30
0.0
 10
735.2177734375
 20
-511.087890625
 30
0.0
 10
733.0546875
 20
-511.087890625
 30
0.0
 10
733.0546875
 20
-511.087890625
 30
0.0
 10
733.0732421875
 20
-510.61328125
 30
0.0
 10
733.0859375
 20
-510.13916015625
 30
0.0
 10
733.0859375
 20
-509.66552734375
 30
0.0
 10
733.0859375
 20
-507.03955078125
 30
0.0
 10
733.26953125
 20
-504.3994140625
 30
0.0
 10
733.0859375
 20
-501.77978515625
 30
0.0
 10
732.74462890625
 20
-496.9228515625
 30
0.0
 10
731.3828125
 20
-492.1513671875
 30
0.0
 10
731.0419921875
 20
-487.294921875
 30
0.0
 10
730.88671875
 20
-485.08349609375
 30
0.0
 10
730.60546875
 20
-482.8203125
 30
0.0
 10
730.84912109375
 20
-480.6220703125
 30
0.0
 10
732.9609375
 20
-480.0791015625
 30
0.0
 10
735.06884765625
 20
-479.53515625
 30
0.0
 10
737.17724609375
 20
-478.99169921875
 30
0.0
 10
739.81298828125
 20
-478.31201171875
 30
0.0
 10
742.36572265625
 20
-476.85986328125
 30
0.0
 10
745.09326171875
 20
-476.95068359375
 30
0.0
 10
747.97021484375
 20
-477.046875
 30
0.0
 10
751.69921875
 20
-477.3330078125
 30
0.0
 10
753.2685546875
 20
-479.65478515625
 30
0.0
 10
754.35791015625
 20
-481.2666015625
 30
0.0
 10
754.03466796875
 20
-483.93310546875
 30
0.0
 10
752.7509765625
 20
-485.40625
 30
0.0
 10
751.58251953125
 20
-486.748046875
 30
0.0
 10
747.9443359375
 20
-485.076171875
 30
0.0
 10
747.4736328125
 20
-486.76708984375
 30
0.0
 10
746.76708984375
 20
-489.3037109375
 30
0.0
 10
752.224609375
 20
-489.9169921875
 30
0.0
 10
753.2685546875
 20
-492.34326171875
 30
0.0
 10
753.96484375
 20
-493.96044921875
 30
0.0
 10
754.06298828125
 20
-496.025390625
 30
0.0
 10
753.2685546875
 20
-497.6005859375
 30
0.0
 10
751.70849609375
 20
-500.69482421875
 30
0.0
 10
744.7509765625
 20
-500.5537109375
 30
0.0
 10
744.837890625
 20
-503.9921875
 30
0.0
 10
744.931640625
 20
-507.70458984375
 30
0.0
 10
750.4248046875
 20
-510.28271484375
 30
0.0
 10
754.2802734375
 20
-510.458984375
 30
0.0
 10
757.9150390625
 20
-510.62548828125
 30
0.0
 10
760.59228515625
 20
-503.451171875
 30
0.0
 10
763.74365234375
 20
-505.20166015625
 30
0.0
 10
766.10693359375
 20
-506.5146484375
 30
0.0
 10
762.14794921875
 20
-510.95751953125
 30
0.0
 10
763.74365234375
 20
-513.087890625
 30
0.0
 10
765.58642578125
 20
-515.5478515625
 30
0.0
 10
770.041015625
 20
-514.373046875
 30
0.0
 10
772.7216796875
 20
-515.96728515625
 30
0.0
 10
775.81689453125
 20
-517.80810546875
 30
0.0
 10
779.9736328125
 20
-519.93115234375
 30
0.0
 10
780.4482421875
 20
-523.40234375
 30
0.0
 10
780.92333984375
 20
-526.8740234375
 30
0.0
 10
778.30126953125
 20
-531.0673828125
 30
0.0
 10
774.98486328125
 20
-532.50830078125
 30
0.0
 10
770.60595703125
 20
-534.41064453125
 30
0.0
 10
765.51953125
 20
-530.81982421875
 30
0.0
 10
760.841796875
 20
-529.76416015625
 30
0.0
 10
756.41357421875
 20
-528.7646484375
 30
0.0
 10
751.68701171875
 20
-524.34912109375
 30
0.0
 10
747.6484375
 20
-526.36279296875
 30
0.0
 10
746.20263671875
 20
-527.08349609375
 30
0.0
 10
746.6494140625
 20
-529.35888671875
 30
0.0
 10
745.95849609375
 20
-530.77734375
 30
0.0
 10
744.4140625
 20
-533.94775390625
 30
0.0
 10
744.123046875
 20
-540.15185546875
 30
0.0
 10
740.49462890625
 20
-539.88330078125
 30
0.0
 10
736.03662109375
 20
-539.552734375
 30
0.0
 10
736.8720703125
 20
-531.9736328125
 30
0.0
 10
735.640625
 20
-527.83740234375
 30
0.0
 10
735.48876953125
 20
-527.32763671875
 30
0.0
 10
735.3427734375
 20
-526.81591796875
 30
0.0
 10
735.2099609375
 20
-526.32958984375
 30
0.0
  0
SPLINE
  5
1AB
330
1F
100
AcDbEntity
  8
LAYER_1
 62
   250
100
AcDbSpline
210
0.0
220
0.0
230
1.0
 70
    11
 71
     3
 72
   236
 73
   232
 74
     0
 42
0.0000000001
 43
0.0000000001
 40
0.0
 40
0.0
 40
0.0
 40
0.0
 40
1.0
 40
1.0
 40
1.0
 40
2.0
 40
2.0
 40
2.0
 40
3.0
 40
3.0
 40
3.0
 40
4.0
 40
4.0
 40
4.0
 40
5.0
 40
5.0
 40
5.0
 40
6.0
 40
6.0
 40
6.0
 40
7.0
 40
7.0
 40
7.0
 40
8.0
 40
8.0
 40
8.0
 40
9.0
 40
9.0
 40
9.0
 40
10.0
 40
10.0
 40
10.0
 40
11.0
 40
11.0
 40
11.0
 40
12.0
 40
12.0
 40
12.0
 40
13.0
 40
13.0
 40
13.0
 40
14.0
 40
14.0
 40
14.0
 40
15.0
 40
15.0
 40
15.0
 40
16.0
 40
16.0
 40
16.0
 40
17.0
 40
17.0
 40
17.0
 40
18.0
 40
18.0
 40
18.0
 40
19.0
 40
19.0
 40
19.0
 40
20.0
 40
20.0
 40
20.0
 40
21.0
 40
21.0
 40
21.0
 40
22.0
 40
22.0
 40
22.0
 40
23.0
 40
23.0
 40
23.0
 40
24.0
 40
24.0
 40
24.0
 40
25.0
 40
25.0
 40
25.0
 40
26.0
 40
26.0
 40
26.0
 40
27.0
 40
27.0
 40
27.0
 40
28.0
 40
28.0
 40
28.0
 40
29.0
 40
29.0
 40
29.0
 40
30.0
 40
30.0
 40
30.0
 40
31.0
 40
31.0
 40
31.0
 40
32.0
 40
32.0
 40
32.0
 40
33.0
 40
33.0
 40
33.0
 40
34.0
 40
34.0
 40
34.0
 40
35.0
 40
35.0
 40
35.0
 40
36.0
 40
36.0
 40
36.0
 40
37.0
 40
37.0
 40
37.0
 40
38.0
 40
38.0
 40
38.0
 40
39.0
 40
39.0
 40
39.0
 40
40.0
 40
40.0
 40
40.0
 40
41.0
 40
41.0
 40
41.0
 40
42.0
 40
42.0
 40
42.0
 40
43.0
 40
43.0
 40
43.0
 40
44.0
 40
44.0
 40
44.0
 40
45.0
 40
45.0
 40
45.0
 40
46.0
 40
46.0
 40
46.0
 40
47.0
 40
47.0
 40
47.0
 40
48.0
 40
48.0
 40
48.0
 40
49.0
 40
49.0
 40
49.0
 40
50.0
 40
50.0
 40
50.0
 40
51.0
 40
51.0
 40
51.0
 40
52.0
 40
52.0
 40
52.0
 40
53.0
 40
53.0
 40
53.0
 40
54.0
 40
54.0
 40
54.0
 40
55.0
 40
55.0
 40
55.0
 40
56.0
 40
56.0
 40
56.0
 40
57.0
 40
57.0
 40
57.0
 40
58.0
 40
58.0
 40
58.0
 40
59.0
 40
59.0
 40
59.0
 40
60.0
 40
60.0
 40
60.0
 40
61.0
 40
61.0
 40
61.0
 40
62.0
 40
62.0
 40
62.0
 40
63.0
 40
63.0
 40
63.0
 40
64.0
 40
64.0
 40
64.0
 40
65.0
 40
65.0
 40
65.0
 40
66.0
 40
66.0
 40
66.0
 40
67.0
 40
67.0
 40
67.0
 40
68.0
 40
68.0
 40
68.0
 40
69.0
 40
69.0
 40
69.0
 40
70.0
 40
70.0
 40
70.0
 40
71.0
 40
71.0
 40
71.0
 40
72.0
 40
72.0
 40
72.0
 40
73.0
 40
73.0
 40
73.0
 40
74.0
 40
74.0
 40
74.0
 40
75.0
 40
75.0
 40
75.0
 40
76.0
 40
76.0
 40
76.0
 40
77.0
 40
77.0
 40
77.0
 40
77.0
 10
539.37255859375
 20
-751.232421875
 30
0.0
 10
539.00341796875
 20
-751.47998046875
 30
0.0
 10
538.55419921875
 20
-750.873046875
 30
0.0
 10
538.16796875
 20
-750.65380859375
 30
0.0
 10
536.3896484375
 20
-749.64453125
 30
0.0
 10
533.583984375
 20
-749.19482421875
 30
0.0
 10
533.05859375
 20
-747.2734375
 30
0.0
 10
532.29931640625
 20
-744.4970703125
 30
0.0
 10
536.70166015625
 20
-742.3837890625
 30
0.0
 10
536.98828125
 20
-739.5263671875
 30
0.0
 10
537.25
 20
-736.91259765625
 30
0.0
 10
537.0322265625
 20
-733.5078125
 30
0.0
 10
534.8671875
 20
-731.9091796875
 30
0.0
 10
532.70166015625
 20
-730.310546875
 30
0.0
 10
529.2626953125
 20
-732.732421875
 30
0.0
 10
526.67138671875
 20
-731.9091796875
 30
0.0
 10
522.6533203125
 20
-730.63232421875
 30
0.0
 10
518.36572265625
 20
-728.2646484375
 30
0.0
 10
516.46240234375
 20
-724.6279296875
 30
0.0
 10
514.826171875
 20
-721.5009765625
 30
0.0
 10
516.46240234375
 20
-717.61474609375
 30
0.0
 10
516.46240234375
 20
-714.11376953125
 30
0.0
 10
516.46240234375
 20
-710.6123046875
 30
0.0
 10
513.1005859375
 20
-704.93896484375
 30
0.0
 10
516.46240234375
 20
-703.59912109375
 30
0.0
 10
519.82421875
 20
-702.2587890625
 30
0.0
 10
521.0380859375
 20
-709.283203125
 30
0.0
 10
524.189453125
 20
-711.03369140625
 30
0.0
 10
527.3408203125
 20
-712.78466796875
 30
0.0
 10
531.13671875
 20
-713.29833984375
 30
0.0
 10
534.74462890625
 20
-713.75537109375
 30
0.0
 10
535.646484375
 20
-713.86962890625
 30
0.0
 10
536.6884765625
 20
-714.19287109375
 30
0.0
 10
537.4765625
 20
-713.75537109375
 30
0.0
 10
540.6279296875
 20
-712.00439453125
 30
0.0
 10
539.78857421875
 20
-706.39990234375
 30
0.0
 10
542.93994140625
 20
-704.6494140625
 30
0.0
 10
543.72802734375
 20
-704.2119140625
 30
0.0
 10
545.02880859375
 20
-705.2685546875
 30
0.0
 10
545.671875
 20
-704.6494140625
 30
0.0
 10
548.2451171875
 20
-702.17333984375
 30
0.0
 10
543.0986328125
 20
-696.6103515625
 30
0.0
 10
545.671875
 20
-694.134765625
 30
0.0
 10
547.6015625
 20
-692.27783203125
 30
0.0
 10
551.5888671875
 20
-692.689453125
 30
0.0
 10
553.86767578125
 20
-694.134765625
 30
0.0
 10
556.97509765625
 20
-696.10595703125
 30
0.0
 10
554.9248046875
 20
-702.455078125
 30
0.0
 10
558.2734375
 20
-704.01904296875
 30
0.0
 10
567.275390625
 20
-708.22412109375
 30
0.0
 10
577.78369140625
 20
-699.5146484375
 30
0.0
 10
587.2998046875
 20
-696.53564453125
 30
0.0
 10
592.32666015625
 20
-694.9619140625
 30
0.0
 10
596.91796875
 20
-691.9794921875
 30
0.0
 10
602.115234375
 20
-691.05078125
 30
0.0
 10
603.009765625
 20
-690.890625
 30
0.0
 10
604.12548828125
 20
-691.58349609375
 30
0.0
 10
604.84716796875
 20
-691.05078125
 30
0.0
 10
606.29052734375
 20
-689.98486328125
 30
0.0
 10
605.669921875
 20
-687.6279296875
 30
0.0
 10
606.26123046875
 20
-685.97265625
 30
0.0
 10
607.7861328125
 20
-681.70361328125
 30
0.0
 10
609.4755859375
 20
-677.4365234375
 30
0.0
 10
611.75
 20
-673.48876953125
 30
0.0
 10
613.1142578125
 20
-671.12109375
 30
0.0
 10
616.11474609375
 20
-669.50048828125
 30
0.0
 10
616.60498046875
 20
-666.83447265625
 30
0.0
 10
617.2392578125
 20
-663.38671875
 30
0.0
 10
614.251953125
 20
-660.1494140625
 30
0.0
 10
613.77685546875
 20
-656.67822265625
 30
0.0
 10
613.53955078125
 20
-654.9423828125
 30
0.0
 10
614.47314453125
 20
-653.03857421875
 30
0.0
 10
613.77685546875
 20
-651.4208984375
 30
0.0
 10
612.732421875
 20
-648.9951171875
 30
0.0
 10
610.14697265625
 20
-647.443359375
 30
0.0
 10
607.98193359375
 20
-645.8447265625
 30
0.0
 10
605.0947265625
 20
-643.71337890625
 30
0.0
 10
601.66943359375
 20
-642.337890625
 30
0.0
 10
598.5185546875
 20
-640.58740234375
 30
0.0
 10
596.9423828125
 20
-639.7119140625
 30
0.0
 10
595.4990234375
 20
-637.3681640625
 30
0.0
 10
593.78662109375
 20
-637.958984375
 30
0.0
 10
591.11376953125
 20
-638.880859375
 30
0.0
 10
593.3525390625
 20
-644.45947265625
 30
0.0
 10
590.79248046875
 20
-645.64111328125
 30
0.0
 10
588.26025390625
 20
-646.8095703125
 30
0.0
 10
584.95947265625
 20
-644.81103515625
 30
0.0
 10
582.77978515625
 20
-643.10693359375
 30
0.0
 10
580.66162109375
 20
-641.45068359375
 30
0.0
 10
581.203125
 20
-637.2822265625
 30
0.0
 10
578.68212890625
 20
-636.27734375
 30
0.0
 10
573.63916015625
 20
-634.267578125
 30
0.0
 10
565.36376953125
 20
-635.6982421875
 30
0.0
 10
562.84912109375
 20
-640.359375
 30
0.0
 10
560.4033203125
 20
-644.89404296875
 30
0.0
 10
565.93505859375
 20
-650.2080078125
 30
0.0
 10
568.33837890625
 20
-654.763671875
 30
0.0
 10
570.236328125
 20
-658.36181640625
 30
0.0
 10
575.0634765625
 20
-660.81884765625
 30
0.0
 10
575.32421875
 20
-664.8466796875
 30
0.0
 10
575.60107421875
 20
-669.12841796875
 30
0.0
 10
572.87939453125
 20
-673.765625
 30
0.0
 10
569.3359375
 20
-676.36962890625
 30
0.0
 10
565.29638671875
 20
-679.3388671875
 30
0.0
 10
558.93310546875
 20
-681.3994140625
 30
0.0
 10
554.36669921875
 20
-679.25048828125
 30
0.0
 10
551.02880859375
 20
-677.6796875
 30
0.0
 10
552.6943359375
 20
-671.2578125
 30
0.0
 10
549.37646484375
 20
-669.64794921875
 30
0.0
 10
545.6806640625
 20
-667.8544921875
 30
0.0
 10
541.2548828125
 20
-671.36279296875
 30
0.0
 10
537.130859375
 20
-671.70703125
 30
0.0
 10
536.224609375
 20
-671.78271484375
 30
0.0
 10
535.18701171875
 20
-672.14453125
 30
0.0
 10
534.3994140625
 20
-671.70703125
 30
0.0
 10
531.248046875
 20
-669.95654296875
 30
0.0
 10
527.99365234375
 20
-665.9833984375
 30
0.0
 10
528.935546875
 20
-662.60107421875
 30
0.0
 10
529.87744140625
 20
-659.21923828125
 30
0.0
 10
536.57958984375
 20
-660.3759765625
 30
0.0
 10
538.39892578125
 20
-657.34375
 30
0.0
 10
540.67333984375
 20
-653.5537109375
 30
0.0
 10
539.99853515625
 20
-648.2978515625
 30
0.0
 10
538.39892578125
 20
-644.20068359375
 30
0.0
 10
535.9140625
 20
-637.83642578125
 30
0.0
 10
523.08837890625
 20
-635.51171875
 30
0.0
 10
524.42724609375
 20
-628.83642578125
 30
0.0
 10
525.7216796875
 20
-622.3818359375
 30
0.0
 10
537.18408203125
 20
-623.7470703125
 30
0.0
 10
542.7119140625
 20
-619.884765625
 30
0.0
 10
546.392578125
 20
-617.3134765625
 30
0.0
 10
550.912109375
 20
-614.73681640625
 30
0.0
 10
552.37060546875
 20
-610.5908203125
 30
0.0
 10
554.78955078125
 20
-603.7158203125
 30
0.0
 10
553.79150390625
 20
-596.513671875
 30
0.0
 10
541.82958984375
 20
-591.0615234375
 30
0.0
 10
534.73828125
 20
-594.7900390625
 30
0.0
 10
535.17431640625
 20
-596.4423828125
 30
0.0
 10
535.37158203125
 20
-598.1337890625
 30
0.0
 10
535.67626953125
 20
-600.74365234375
 30
0.0
 10
536.078125
 20
-603.4833984375
 30
0.0
 10
535.37158203125
 20
-606.02001953125
 30
0.0
 10
534.4296875
 20
-609.40185546875
 30
0.0
 10
532.48095703125
 20
-612.64990234375
 30
0.0
 10
529.908203125
 20
-615.1259765625
 30
0.0
 10
524.11865234375
 20
-620.6962890625
 30
0.0
 10
514.56640625
 20
-621.5439453125
 30
0.0
 10
508.615234375
 20
-626.95458984375
 30
0.0
 10
506.21484375
 20
-629.13671875
 30
0.0
 10
503.7021484375
 20
-631.796875
 30
0.0
 10
503.1787109375
 20
-634.93408203125
 30
0.0
 10
502.6015625
 20
-638.39111328125
 30
0.0
 10
504.1875
 20
-642.05810546875
 30
0.0
 10
506.0068359375
 20
-645.0908203125
 30
0.0
 10
508.73583984375
 20
-649.63916015625
 30
0.0
 10
517.8681640625
 20
-650.99755859375
 30
0.0
 10
517.59716796875
 20
-656.2431640625
 30
0.0
 10
517.42626953125
 20
-659.541015625
 30
0.0
 10
512.67578125
 20
-661.01708984375
 30
0.0
 10
509.6220703125
 20
-662.52392578125
 30
0.0
 10
503.95556640625
 20
-665.31982421875
 30
0.0
 10
495.84228515625
 20
-663.14306640625
 30
0.0
 10
491.150390625
 20
-667.2861328125
 30
0.0
 10
488.51025390625
 20
-669.61767578125
 30
0.0
 10
489.78759765625
 20
-674.37890625
 30
0.0
 10
487.486328125
 20
-677.0224609375
 30
0.0
 10
484.5654296875
 20
-680.37744140625
 30
0.0
 10
480.05029296875
 20
-684.72705078125
 30
0.0
 10
475.65673828125
 20
-683.59423828125
 30
0.0
 10
472.14208984375
 20
-682.68798828125
 30
0.0
 10
470.4091796875
 20
-677.9833984375
 30
0.0
 10
470.193359375
 20
-674.48828125
 30
0.0
 10
470.04296875
 20
-672.05712890625
 30
0.0
 10
471.9248046875
 20
-669.876953125
 30
0.0
 10
473.18701171875
 20
-667.76611328125
 30
0.0
 10
474.93896484375
 20
-664.8369140625
 30
0.0
 10
479.7373046875
 20
-662.9931640625
 30
0.0
 10
479.4814453125
 20
-659.6220703125
 30
0.0
 10
479.2822265625
 20
-657.00341796875
 30
0.0
 10
474.73046875
 20
-656.47216796875
 30
0.0
 10
473.68603515625
 20
-654.0458984375
 30
0.0
 10
472.6416015625
 20
-651.6201171875
 30
0.0
 10
473.4365234375
 20
-648.775390625
 30
0.0
 10
473.68603515625
 20
-646.16015625
 30
0.0
 10
474.10302734375
 20
-641.7880859375
 30
0.0
 10
473.705078125
 20
-636.88427734375
 30
0.0
 10
476.18115234375
 20
-633.1962890625
 30
0.0
 10
481.88818359375
 20
-624.69482421875
 30
0.0
 10
497.2529296875
 20
-624.83154296875
 30
0.0
 10
502.12841796875
 20
-615.86328125
 30
0.0
 10
503.81494140625
 20
-612.7607421875
 30
0.0
 10
503.37744140625
 20
-608.63720703125
 30
0.0
 10
502.12841796875
 20
-605.3486328125
 30
0.0
 10
500.33154296875
 20
-600.6181640625
 30
0.0
 10
497.3447265625
 20
-596.5478515625
 30
0.0
 10
493.16748046875
 20
-593.13916015625
 30
0.0
 10
493.16748046875
 20
-593.13916015625
 30
0.0
 10
725.98046875
 20
-593.140625
 30
0.0
 10
725.98046875
 20
-593.140625
 30
0.0
 10
729.619140625
 20
-606.14794921875
 30
0.0
 10
729.3974609375
 20
-618.541015625
 30
0.0
 10
725.3134765625
 20
-630.31884765625
 30
0.0
 10
722.9052734375
 20
-637.265625
 30
0.0
 10
712.27685546875
 20
-640.61181640625
 30
0.0
 10
711.591796875
 20
-647.9052734375
 30
0.0
 10
711.42431640625
 20
-649.685546875
 30
0.0
 10
712.36328125
 20
-652.03857421875
 30
0.0
 10
714.08642578125
 20
-652.70654296875
 30
0.0
 10
720.42333984375
 20
-655.1640625
 30
0.0
 10
727.841796875
 20
-642.3125
 30
0.0
 10
733.42236328125
 20
-646.10498046875
 30
0.0
 10
735.6513671875
 20
-647.61962890625
 30
0.0
 10
733.42236328125
 20
-651.36474609375
 30
0.0
 10
733.42236328125
 20
-653.99072265625
 30
0.0
 10
733.42236328125
 20
-656.61669921875
 30
0.0
 10
735.14794921875
 20
-659.84228515625
 30
0.0
 10
733.42236328125
 20
-661.876953125
 30
0.0
 10
729.66845703125
 20
-666.30126953125
 30
0.0
 10
721.185546875
 20
-662.6044921875
 30
0.0
 10
715.95751953125
 20
-665.31005859375
 30
0.0
 10
712.7529296875
 20
-666.96875
 30
0.0
 10
711.11767578125
 20
-670.61376953125
 30
0.0
 10
708.23095703125
 20
-672.7451171875
 30
0.0
 10
703.900390625
 20
-675.9423828125
 30
0.0
 10
699.30810546875
 20
-681.990234375
 30
0.0
 10
694.03564453125
 20
-680.63134765625
 30
0.0
 10
689.318359375
 20
-679.4150390625
 30
0.0
 10
687.65478515625
 20
-674.369140625
 30
0.0
 10
685.9658203125
 20
-669.34375
 30
0.0
 10
635.0166015625
 20
-693.0283203125
 30
0.0
 10
588.31640625
 20
-718.4140625
 30
0.0
 10
539.37255859375
 20
-751.232421875
 30
0.0
  0
SPLINE
  5
1AC
330
1F
100
AcDbEntity
  8
LAYER_1
 62
   250
100
AcDbSpline
210
0.0
220
0.0
230
1.0
 70
    11
 71
     3
 72
    26
 73
    22
 74
     0
 42
0.0000000001
 43
0.0000000001
 40
0.0
 40
0.0
 40
0.0
 40
0.0
 40
1.0
 40
1.0
 40
1.0
 40
2.0
 40
2.0
 40
2.0
 40
3.0
 40
3.0
 40
3.0
 40
4.0
 40
4.0
 40
4.0
 40
5.0
 40
5.0
 40
5.0
 40
6.0
 40
6.0
 40
6.0
 40
7.0
 40
7.0
 40
7.0
 40
7.0
 10
476.7060546875
 20
-735.55859375
 30
0.0
 10
479.65478515625
 20
-735.55859375
 30
0.0
 10
483.68994140625
 20
-734.267578125
 30
0.0
 10
484.705078125
 20
-731.603515625
 30
0.0
 10
487.515625
 20
-724.228515625
 30
0.0
 10
487.21728515625
 20
-716.62060546875
 30
0.0
 10
483.68310546875
 20
-707.51171875
 30
0.0
 10
482.65185546875
 20
-704.853515625
 30
0.0
 10
479.65478515625
 20
-705.28662109375
 30
0.0
 10
476.7060546875
 20
-705.28662109375
 30
0.0
 10
475.068359375
 20
-705.28662109375
 30
0.0
 10
472.06689453125
 20
-703.92236328125
 30
0.0
 10
471.248046875
 20
-705.28662109375
 30
0.0
 10
468.51611328125
 20
-709.83984375
 30
0.0
 10
471.248046875
 20
-749.3994140625
 30
0.0
 10
471.248046875
 20
-768.3046875
 30
0.0
 10
471.248046875
 20
-768.3046875
 30
0.0
 10
476.7060546875
 20
-768.3046875
 30
0.0
 10
476.7060546875
 20
-768.3046875
 30
0.0
 10
476.7060546875
 20
-768.3046875
 30
0.0
 10
476.7060546875
 20
-735.55859375
 30
0.0
 10
476.7060546875
 20
-735.55859375
 30
0.0
  0
SPLINE
  5
1AD
330
1F
100
AcDbEntity
  8
LAYER_1
 62
   250
100
AcDbSpline
210
0.0
220
0.0
230
1.0
 70
    11
 71
     3
 72
   104
 73
   100
 74
     0
 42
0.0000000001
 43
0.0000000001
 40
0.0
 40
0.0
 40
0.0
 40
0.0
 40
1.0
 40
1.0
 40
1.0
 40
2.0
 40
2.0
 40
2.0
 40
3.0
 40
3.0
 40
3.0
 40
4.0
 40
4.0
 40
4.0
 40
5.0
 40
5.0
 40
5.0
 40
6.0
 40
6.0
 40
6.0
 40
7.0
 40
7.0
 40
7.0
 40
8.0
 40
8.0
 40
8.0
 40
9.0
 40
9.0
 40
9.0
 40
10.0
 40
10.0
 40
10.0
 40
11.0
 40
11.0
 40
11.0
 40
12.0
 40
12.0
 40
12.0
 40
13.0
 40
13.0
 40
13.0
 40
14.0
 40
14.0
 40
14.0
 40
15.0
 40
15.0
 40
15.0
 40
16.0
 40
16.0
 40
16.0
 40
17.0
 40
17.0
 40
17.0
 40
18.0
 40
18.0
 40
18.0
 40
19.0
 40
19.0
 40
19.0
 40
20.0
 40
20.0
 40
20.0
 40
21.0
 40
21.0
 40
21.0
 40
22.0
 40
22.0
 40
22.0
 40
23.0
 40
23.0
 40
23.0
 40
24.0
 40
24.0
 40
24.0
 40
25.0
 40
25.0
 40
25.0
 40
26.0
 40
26.0
 40
26.0
 40
27.0
 40
27.0
 40
27.0
 40
28.0
 40
28.0
 40
28.0
 40
29.0
 40
29.0
 40
29.0
 40
30.0
 40
30.0
 40
30.0
 40
31.0
 40
31.0
 40
31.0
 40
32.0
 40
32.0
 40
32.0
 40
33.0
 40
33.0
 40
33.0
 40
33.0
 10
594.5693359375
 20
-141.337158203125
 30
0.0
 10
414.16357421875
 20
-146.537841796875
 30
0.0
 10
258.34130859375
 20
-259.622802734375
 30
0.0
 10
179.000244140625
 20
-423.78857421875
 30
0.0
 10
179.000244140625
 20
-423.78857421875
 30
0.0
 10
198.804443359375
 20
-423.7890625
 30
0.0
 10
198.804443359375
 20
-423.7890625
 30
0.0
 10
198.804443359375
 20
-423.7890625
 30
0.0
 10
198.804443359375
 20
-511.087890625
 30
0.0
 10
198.804443359375
 20
-511.087890625
 30
0.0
 10
198.804443359375
 20
-511.087890625
 30
0.0
 10
391.5732421875
 20
-511.0859375
 30
0.0
 10
391.5732421875
 20
-511.0859375
 30
0.0
 10
392.4404296875
 20
-509.98876953125
 30
0.0
 10
393.361328125
 20
-508.94140625
 30
0.0
 10
394.451171875
 20
-508.0556640625
 30
0.0
 10
400.01025390625
 20
-503.5361328125
 30
0.0
 10
406.73046875
 20
-500.39111328125
 30
0.0
 10
413.3779296875
 20
-497.541015625
 30
0.0
 10
418.869140625
 20
-495.18701171875
 30
0.0
 10
424.9443359375
 20
-494.26904296875
 30
0.0
 10
430.54296875
 20
-492.16357421875
 30
0.0
 10
438.91357421875
 20
-489.015625
 30
0.0
 10
449.27294921875
 20
-487.9365234375
 30
0.0
 10
455.0703125
 20
-481.32861328125
 30
0.0
 10
456.83056640625
 20
-479.32177734375
 30
0.0
 10
458.23583984375
 20
-476.13720703125
 30
0.0
 10
457.19140625
 20
-473.7109375
 30
0.0
 10
455.45068359375
 20
-469.66748046875
 30
0.0
 10
447.63623046875
 20
-470.9296875
 30
0.0
 10
445.3623046875
 20
-467.1396484375
 30
0.0
 10
443.087890625
 20
-463.34912109375
 30
0.0
 10
443.4248046875
 20
-457.9560546875
 30
0.0
 10
445.3623046875
 20
-453.99609375
 30
0.0
 10
447.35888671875
 20
-449.91455078125
 30
0.0
 10
452.27685546875
 20
-447.81591796875
 30
0.0
 10
456.2119140625
 20
-445.36328125
 30
0.0
 10
462.05859375
 20
-441.7197265625
 30
0.0
 10
471.29248046875
 20
-442.14599609375
 30
0.0
 10
474.97021484375
 20
-436.453125
 30
0.0
 10
476.89111328125
 20
-433.4794921875
 30
0.0
 10
476.3623046875
 20
-429.17333984375
 30
0.0
 10
474.97021484375
 20
-425.9384765625
 30
0.0
 10
473.92578125
 20
-423.51220703125
 30
0.0
 10
471.6962890625
 20
-421.3671875
 30
0.0
 10
469.1748046875
 20
-420.3623046875
 30
0.0
 10
465.81298828125
 20
-419.0224609375
 30
0.0
 10
461.8349609375
 20
-419.77587890625
 30
0.0
 10
458.24755859375
 20
-420.3623046875
 30
0.0
 10
453.26025390625
 20
-421.177734375
 30
0.0
 10
448.96435546875
 20
-425.00830078125
 30
0.0
 10
443.90966796875
 20
-425.1904296875
 30
0.0
 10
436.63671875
 20
-425.45263671875
 30
0.0
 10
428.32421875
 20
-424.3056640625
 30
0.0
 10
422.79931640625
 20
-419.74755859375
 30
0.0
 10
417.59423828125
 20
-415.453369140625
 30
0.0
 10
414.408203125
 20
-408.21484375
 30
0.0
 10
414.49609375
 20
-401.61767578125
 30
0.0
 10
414.576171875
 20
-395.621826171875
 30
0.0
 10
418.47021484375
 20
-389.921875
 30
0.0
 10
422.47998046875
 20
-385.33154296875
 30
0.0
 10
428.5283203125
 20
-378.4072265625
 30
0.0
 10
436.8623046875
 20
-373.12451171875
 30
0.0
 10
445.55859375
 20
-369.689453125
 30
0.0
 10
457.97412109375
 20
-364.784912109375
 30
0.0
 10
472.6796875
 20
-367.664794921875
 30
0.0
 10
485.3125
 20
-363.30322265625
 30
0.0
 10
492.16259765625
 20
-360.938232421875
 30
0.0
 10
500.22509765625
 20
-358.629638671875
 30
0.0
 10
504.2392578125
 20
-352.78857421875
 30
0.0
 10
507.26806640625
 20
-348.3818359375
 30
0.0
 10
509.10693359375
 20
-341.543212890625
 30
0.0
 10
506.2353515625
 20
-337.0400390625
 30
0.0
 10
503.79443359375
 20
-333.2119140625
 30
0.0
 10
497.70703125
 20
-332.8759765625
 30
0.0
 10
493.06201171875
 20
-332.430908203125
 30
0.0
 10
484.72607421875
 20
-331.6318359375
 30
0.0
 10
476.419921875
 20
-337.548583984375
 30
0.0
 10
468.1884765625
 20
-336.05224609375
 30
0.0
 10
459.24951171875
 20
-334.42724609375
 30
0.0
 10
450.96240234375
 20
-329.0986328125
 30
0.0
 10
444.52978515625
 20
-322.908935546875
 30
0.0
 10
439.3837890625
 20
-317.957275390625
 30
0.0
 10
435.00732421875
 20
-311.568115234375
 30
0.0
 10
433.6025390625
 20
-304.697265625
 30
0.0
 10
430.93505859375
 20
-291.651611328125
 30
0.0
 10
435.0927734375
 20
-277.831298828125
 30
0.0
 10
439.19091796875
 20
-265.134033203125
 30
0.0
 10
444.18115234375
 20
-249.674072265625
 30
0.0
 10
451.7958984375
 20
-234.640869140625
 30
0.0
 10
461.94482421875
 20
-221.7294921875
 30
0.0
 10
474.80419921875
 20
-205.36962890625
 30
0.0
 10
491.91015625
 20
-192.201904296875
 30
0.0
 10
509.0947265625
 20
-180.0634765625
 30
0.0
 10
521.5615234375
 20
-171.2578125
 30
0.0
 10
535.2822265625
 20
-163.9755859375
 30
0.0
 10
549.314453125
 20
-157.719970703125
 30
0.0
 10
563.94189453125
 20
-151.19921875
 30
0.0
 10
579.0341796875
 20
-145.736328125
 30
0.0
 10
594.5693359375
 20
-141.337158203125
 30
0.0
  0
SPLINE
  5
1AE
330
1F
100
AcDbEntity
  8
LAYER_1
 62
   250
100
AcDbSpline
210
0.0
220
0.0
230
1.0
 70
    11
 71
     3
 72
    17
 73
    13
 74
     0
 42
0.0000000001
 43
0.0000000001
 40
0.0
 40
0.0
 40
0.0
 40
0.0
 40
1.0
 40
1.0
 40
1.0
 40
2.0
 40
2.0
 40
2.0
 40
3.0
 40
3.0
 40
3.0
 40
4.0
 40
4.0
 40
4.0
 40
4.0
 10
604.64990234375
 20
-77.927001953125
 30
0.0
 10
595.5390625
 20
-77.927001953125
 30
0.0
 10
588.1533203125
 20
-85.03369140625
 30
0.0
 10
588.1533203125
 20
-93.80029296875
 30
0.0
 10
588.1533203125
 20
-102.56689453125
 30
0.0
 10
595.5390625
 20
-109.673583984375
 30
0.0
 10
604.64990234375
 20
-109.673583984375
 30
0.0
 10
613.7607421875
 20
-109.673583984375
 30
0.0
 10
621.146484375
 20
-102.56689453125
 30
0.0
 10
621.146484375
 20
-93.80029296875
 30
0.0
 10
621.146484375
 20
-85.03369140625
 30
0.0
 10
613.7607421875
 20
-77.927001953125
 30
0.0
 10
604.64990234375
 20
-77.927001953125
 30
0.0
  0
SPLINE
  5
1AF
330
1F
100
AcDbEntity
  8
LAYER_1
 62
   250
100
AcDbSpline
210
0.0
220
0.0
230
1.0
 70
    11
 71
     3
 72
    26
 73
    22
 74
     0
 42
0.0000000001
 43
0.0000000001
 40
0.0
 40
0.0
 40
0.0
 40
0.0
 40
1.0
 40
1.0
 40
1.0
 40
2.0
 40
2.0
 40
2.0
 40
3.0
 40
3.0
 40
3.0
 40
4.0
 40
4.0
 40
4.0
 40
5.0
 40
5.0
 40
5.0
 40
6.0
 40
6.0
 40
6.0
 40
7.0
 40
7.0
 40
7.0
 40
7.0
 10
723.98583984375
 20
-1153.28662109375
 30
0.0
 10
723.03466796875
 20
-1152.203125
 30
0.0
 10
722.51220703125
 20
-1151.021484375
 30
0.0
 10
722.4189453125
 20
-1149.7421875
 30
0.0
 10
722.35498046875
 20
-1148.869140625
 30
0.0
 10
722.64111328125
 20
-1147.94384765625
 30
0.0
 10
723.1259765625
 20
-1147.203125
 30
0.0
 10
723.71875
 20
-1146.29736328125
 30
0.0
 10
724.6162109375
 20
-1145.474609375
 30
0.0
 10
725.6630859375
 20
-1145.1103515625
 30
0.0
 10
726.6376953125
 20
-1144.771484375
 30
0.0
 10
727.736328125
 20
-1145.14013671875
 30
0.0
 10
728.77587890625
 20
-1145.1552734375
 30
0.0
 10
728.77587890625
 20
-1145.1552734375
 30
0.0
 10
771.87646484375
 20
-1170.07568359375
 30
0.0
 10
771.87646484375
 20
-1170.07568359375
 30
0.0
 10
767.8740234375
 20
-1171.65478515625
 30
0.0
 10
763.84716796875
 20
-1173.177734375
 30
0.0
 10
759.796875
 20
-1174.6435546875
 30
0.0
 10
759.796875
 20
-1174.6435546875
 30
0.0
 10
723.98583984375
 20
-1153.28662109375
 30
0.0
 10
723.98583984375
 20
-1153.28662109375
 30
0.0
  0
SPLINE
  5
1B0
330
1F
100
AcDbEntity
  8
LAYER_1
 62
   250
100
AcDbSpline
210
0.0
220
0.0
230
1.0
 70
    11
 71
     3
 72
   182
 73
   178
 74
     0
 42
0.0000000001
 43
0.0000000001
 40
0.0
 40
0.0
 40
0.0
 40
0.0
 40
1.0
 40
1.0
 40
1.0
 40
2.0
 40
2.0
 40
2.0
 40
3.0
 40
3.0
 40
3.0
 40
4.0
 40
4.0
 40
4.0
 40
5.0
 40
5.0
 40
5.0
 40
6.0
 40
6.0
 40
6.0
 40
7.0
 40
7.0
 40
7.0
 40
8.0
 40
8.0
 40
8.0
 40
9.0
 40
9.0
 40
9.0
 40
10.0
 40
10.0
 40
10.0
 40
11.0
 40
11.0
 40
11.0
 40
12.0
 40
12.0
 40
12.0
 40
13.0
 40
13.0
 40
13.0
 40
14.0
 40
14.0
 40
14.0
 40
15.0
 40
15.0
 40
15.0
 40
16.0
 40
16.0
 40
16.0
 40
17.0
 40
17.0
 40
17.0
 40
18.0
 40
18.0
 40
18.0
 40
19.0
 40
19.0
 40
19.0
 40
20.0
 40
20.0
 40
20.0
 40
21.0
 40
21.0
 40
21.0
 40
22.0
 40
22.0
 40
22.0
 40
23.0
 40
23.0
 40
23.0
 40
24.0
 40
24.0
 40
24.0
 40
25.0
 40
25.0
 40
25.0
 40
26.0
 40
26.0
 40
26.0
 40
27.0
 40
27.0
 40
27.0
 40
28.0
 40
28.0
 40
28.0
 40
29.0
 40
29.0
 40
29.0
 40
30.0
 40
30.0
 40
30.0
 40
31.0
 40
31.0
 40
31.0
 40
32.0
 40
32.0
 40
32.0
 40
33.0
 40
33.0
 40
33.0
 40
34.0
 40
34.0
 40
34.0
 40
35.0
 40
35.0
 40
35.0
 40
36.0
 40
36.0
 40
36.0
 40
37.0
 40
37.0
 40
37.0
 40
38.0
 40
38.0
 40
38.0
 40
39.0
 40
39.0
 40
39.0
 40
40.0
 40
40.0
 40
40.0
 40
41.0
 40
41.0
 40
41.0
 40
42.0
 40
42.0
 40
42.0
 40
43.0
 40
43.0
 40
43.0
 40
44.0
 40
44.0
 40
44.0
 40
45.0
 40
45.0
 40
45.0
 40
46.0
 40
46.0
 40
46.0
 40
47.0
 40
47.0
 40
47.0
 40
48.0
 40
48.0
 40
48.0
 40
49.0
 40
49.0
 40
49.0
 40
50.0
 40
50.0
 40
50.0
 40
51.0
 40
51.0
 40
51.0
 40
52.0
 40
52.0
 40
52.0
 40
53.0
 40
53.0
 40
53.0
 40
54.0
 40
54.0
 40
54.0
 40
55.0
 40
55.0
 40
55.0
 40
56.0
 40
56.0
 40
56.0
 40
57.0
 40
57.0
 40
57.0
 40
58.0
 40
58.0
 40
58.0
 40
59.0
 40
59.0
 40
59.0
 40
59.0
 10
723.37451171875
 20
-1226.669921875
 30
0.0
 10
726.8466796875
 20
-1228.009765625
 30
0.0
 10
730.365234375
 20
-1228.60400390625
 30
0.0
 10
733.9306640625
 20
-1228.453125
 30
0.0
 10
736.6572265625
 20
-1228.33740234375
 30
0.0
 10
739.615234375
 20
-1227.92333984375
 30
0.0
 10
741.8466796875
 20
-1226.412109375
 30
0.0
 10
743.6904296875
 20
-1225.16357421875
 30
0.0
 10
744.84423828125
 20
-1223.0634765625
 30
0.0
 10
745.703125
 20
-1221.05859375
 30
0.0
 10
746.65185546875
 20
-1218.8447265625
 30
0.0
 10
746.79248046875
 20
-1216.36376953125
 30
0.0
 10
747.01123046875
 20
-1213.978515625
 30
0.0
 10
747.05126953125
 20
-1213.54248046875
 30
0.0
 10
747.125
 20
-1213.3603515625
 30
0.0
 10
746.9296875
 20
-1212.9658203125
 30
0.0
 10
746.8017578125
 20
-1212.70751953125
 30
0.0
 10
746.54931640625
 20
-1212.30419921875
 30
0.0
 10
746.31787109375
 20
-1212.12353515625
 30
0.0
 10
746.31787109375
 20
-1212.12353515625
 30
0.0
 10
741.845703125
 20
-1209.2119140625
 30
0.0
 10
741.845703125
 20
-1209.2119140625
 30
0.0
 10
753.65234375
 20
-1205.69091796875
 30
0.0
 10
765.2880859375
 20
-1201.716796875
 30
0.0
 10
776.73681640625
 20
-1197.30810546875
 30
0.0
 10
776.73681640625
 20
-1197.30810546875
 30
0.0
 10
802.716796875
 20
-1212.8828125
 30
0.0
 10
802.716796875
 20
-1212.8828125
 30
0.0
 10
804.642578125
 20
-1213.6533203125
 30
0.0
 10
806.51416015625
 20
-1213.8134765625
 30
0.0
 10
808.3310546875
 20
-1213.36181640625
 30
0.0
 10
809.95947265625
 20
-1212.95751953125
 30
0.0
 10
811.611328125
 20
-1212.0068359375
 30
0.0
 10
812.51708984375
 20
-1210.6435546875
 30
0.0
 10
813.220703125
 20
-1209.58447265625
 30
0.0
 10
813.43408203125
 20
-1208.1435546875
 30
0.0
 10
813.14501953125
 20
-1206.91796875
 30
0.0
 10
813.06884765625
 20
-1206.59521484375
 30
0.0
 10
812.7529296875
 20
-1206.3740234375
 30
0.0
 10
812.55615234375
 20
-1206.1015625
 30
0.0
 10
812.55615234375
 20
-1206.1015625
 30
0.0
 10
789.32470703125
 20
-1192.2509765625
 30
0.0
 10
789.32470703125
 20
-1192.2509765625
 30
0.0
 10
792.93798828125
 20
-1190.740234375
 30
0.0
 10
796.53173828125
 20
-1189.1865234375
 30
0.0
 10
798.24755859375
 20
-1187.3232421875
 30
0.0
 10
798.24755859375
 20
-1187.3232421875
 30
0.0
 10
979.07080078125
 20
-1212.4482421875
 30
0.0
 10
979.07080078125
 20
-1212.4482421875
 30
0.0
 10
981.5361328125
 20
-1211.619140625
 30
0.0
 10
983.65087890625
 20
-1210.27490234375
 30
0.0
 10
985.40478515625
 20
-1208.41943359375
 30
0.0
 10
986.62890625
 20
-1207.12451171875
 30
0.0
 10
985.84521484375
 20
-1204.8203125
 30
0.0
 10
986.81884765625
 20
-1203.34130859375
 30
0.0
 10
987.978515625
 20
-1201.58056640625
 30
0.0
 10
989.748046875
 20
-1200.01220703125
 30
0.0
 10
991.78173828125
 20
-1199.29443359375
 30
0.0
 10
994.34375
 20
-1198.39013671875
 30
0.0
 10
997.25048828125
 20
-1199.40673828125
 30
0.0
 10
999.97705078125
 20
-1199.29443359375
 30
0.0
 10
1003.79248046875
 20
-1199.13720703125
 30
0.0
 10
1007.845703125
 20
-1199.6865234375
 30
0.0
 10
1011.40283203125
 20
-1198.3505859375
 30
0.0
 10
1013.39111328125
 20
-1197.603515625
 30
0.0
 10
1015.0673828125
 20
-1196.12158203125
 30
0.0
 10
1016.47119140625
 20
-1194.57421875
 30
0.0
 10
1017.66796875
 20
-1193.255859375
 30
0.0
 10
1018.20068359375
 20
-1191.482421875
 30
0.0
 10
1019.203125
 20
-1190.021484375
 30
0.0
 10
1019.91796875
 20
-1188.97998046875
 30
0.0
 10
1020.41162109375
 20
-1187.6376953125
 30
0.0
 10
1021.5400390625
 20
-1187.0224609375
 30
0.0
 10
1025.20751953125
 20
-1185.0234375
 30
0.0
 10
1030.201171875
 20
-1187.232421875
 30
0.0
 10
1034.13037109375
 20
-1185.763671875
 30
0.0
 10
1035.50634765625
 20
-1185.25
 30
0.0
 10
1036.9609375
 20
-1184.45947265625
 30
0.0
 10
1037.69287109375
 20
-1183.2255859375
 30
0.0
 10
1039.51123046875
 20
-1180.1611328125
 30
0.0
 10
1036.4560546875
 20
-1175.369140625
 30
0.0
 10
1038.83740234375
 20
-1172.6845703125
 30
0.0
 10
1040.60888671875
 20
-1170.6875
 30
0.0
 10
1044.232421875
 20
-1171.6484375
 30
0.0
 10
1046.75341796875
 20
-1170.6435546875
 30
0.0
 10
1049.27490234375
 20
-1169.638671875
 30
0.0
 10
1052.0009765625
 20
-1168.630859375
 30
0.0
 10
1053.85107421875
 20
-1166.70068359375
 30
0.0
 10
1055.10107421875
 20
-1165.396484375
 30
0.0
 10
1055.79931640625
 20
-1163.73388671875
 30
0.0
 10
1056.44287109375
 20
-1162.03369140625
 30
0.0
 10
1056.44287109375
 20
-1162.03369140625
 30
0.0
 10
972.640625
 20
-1124.76171875
 30
0.0
 10
972.640625
 20
-1124.76171875
 30
0.0
 10
973.82666015625
 20
-1123.77880859375
 30
0.0
 10
975.04736328125
 20
-1122.837890625
 30
0.0
 10
976.322265625
 20
-1121.962890625
 30
0.0
 10
981.505859375
 20
-1118.404296875
 30
0.0
 10
990.4462890625
 20
-1118.423828125
 30
0.0
 10
992.8828125
 20
-1112.7626953125
 30
0.0
 10
994.275390625
 20
-1109.52783203125
 30
0.0
 10
991.5693359375
 20
-1105.7900390625
 30
0.0
 10
990.0546875
 20
-1102.6064453125
 30
0.0
 10
988.18408203125
 20
-1098.67333984375
 30
0.0
 10
983.79150390625
 20
-1095.99560546875
 30
0.0
 10
982.47021484375
 20
-1091.861328125
 30
0.0
 10
980.3310546875
 20
-1085.16796875
 30
0.0
 10
982.47021484375
 20
-1077.8349609375
 30
0.0
 10
982.47021484375
 20
-1070.83203125
 30
0.0
 10
982.47021484375
 20
-1063.484375
 30
0.0
 10
982.47021484375
 20
-1056.13134765625
 30
0.0
 10
982.47314453125
 20
-1048.7763671875
 30
0.0
 10
993.90625
 20
-1035.1943359375
 30
0.0
 10
1004.728515625
 20
-1020.986328125
 30
0.0
 10
1014.89404296875
 20
-1006.203125
 30
0.0
 10
1020.5654296875
 20
-1005.5693359375
 30
0.0
 10
1022.16748046875
 20
-1005.80859375
 30
0.0
 10
1031.1005859375
 20
-1005.09375
 30
0.0
 10
1034.62109375
 20
-1004.81201171875
 30
0.0
 10
1034.70703125
 20
-1006.302734375
 30
0.0
 10
1035.94970703125
 20
-1003.12060546875
 30
0.0
 10
1034.4609375
 20
-997.77392578125
 30
0.0
 10
1034.41796875
 20
-984.90087890625
 30
0.0
 10
1034.5283203125
 20
-975.57568359375
 30
0.0
 10
1086.72412109375
 20
-888.07373046875
 30
0.0
 10
1117.05908203125
 20
-783.541015625
 30
0.0
 10
1117.05908203125
 20
-671.25634765625
 30
0.0
 10
1117.05908203125
 20
-383.67724609375
 30
0.0
 10
918.07666015625
 20
-146.9521484375
 30
0.0
 10
662.544921875
 20
-116.943359375
 30
0.0
 10
663.87646484375
 20
-112.2724609375
 30
0.0
 10
664.587890625
 20
-107.3466796875
 30
0.0
 10
664.587890625
 20
-102.260986328125
 30
0.0
 10
664.587890625
 20
-71.631591796875
 30
0.0
 10
638.783203125
 20
-46.8017578125
 30
0.0
 10
606.951171875
 20
-46.8017578125
 30
0.0
 10
575.119140625
 20
-46.8017578125
 30
0.0
 10
549.314453125
 20
-71.631591796875
 30
0.0
 10
549.314453125
 20
-102.260986328125
 30
0.0
 10
549.314453125
 20
-107.390625
 30
0.0
 10
550.0380859375
 20
-112.357666015625
 30
0.0
 10
551.392578125
 20
-117.071044921875
 30
0.0
 10
375.3291015625
 20
-138.1845703125
 30
0.0
 10
226.24609375
 20
-257.450927734375
 30
0.0
 10
150.82568359375
 20
-423.78857421875
 30
0.0
 10
150.82568359375
 20
-423.78857421875
 30
0.0
 10
141.69970703125
 20
-423.7890625
 30
0.0
 10
141.69970703125
 20
-423.7890625
 30
0.0
 10
141.69970703125
 20
-423.7890625
 30
0.0
 10
141.6953125
 20
-445.05322265625
 30
0.0
 10
141.6953125
 20
-445.05322265625
 30
0.0
 10
113.61181640625
 20
-514.18408203125
 30
0.0
 10
98.008544921875
 20
-590.72607421875
 30
0.0
 10
98.008544921875
 20
-671.25634765625
 30
0.0
 10
98.008544921875
 20
-751.7861328125
 30
0.0
 10
113.61181640625
 20
-828.32861328125
 30
0.0
 10
141.6953125
 20
-897.4609375
 30
0.0
 10
141.6953125
 20
-897.4609375
 30
0.0
 10
141.69970703125
 20
-1071.708984375
 30
0.0
 10
141.69970703125
 20
-1071.708984375
 30
0.0
 10
141.69970703125
 20
-1071.708984375
 30
0.0
 10
198.804443359375
 20
-1071.708984375
 30
0.0
 10
198.804443359375
 20
-1071.708984375
 30
0.0
 10
198.804443359375
 20
-1071.708984375
 30
0.0
 10
198.804443359375
 20
-1071.708984375
 30
0.0
 10
198.804443359375
 20
-1071.708984375
 30
0.0
 10
198.804443359375
 20
-1071.708984375
 30
0.0
 10
253.01953125
 20
-1071.7099609375
 30
0.0
 10
253.01953125
 20
-1071.7099609375
 30
0.0
 10
344.7333984375
 20
-1168.943359375
 30
0.0
 10
469.74658203125
 20
-1228.7890625
 30
0.0
 10
607.53369140625
 20
-1228.7890625
 30
0.0
 10
642.68359375
 20
-1228.7890625
 30
0.0
 10
677.001953125
 20
-1224.89453125
 30
0.0
 10
710.1484375
 20
-1217.4775390625
 30
0.0
 10
710.1484375
 20
-1217.4775390625
 30
0.0
 10
723.37451171875
 20
-1226.669921875
 30
0.0
 10
723.37451171875
 20
-1226.669921875
 30
0.0
  0
SPLINE
  5
1B1
330
1F
100
AcDbEntity
  8
LAYER_1
 62
   250
100
AcDbSpline
210
0.0
220
0.0
230
1.0
 70
    11
 71
     3
 72
   317
 73
   313
 74
     0
 42
0.0000000001
 43
0.0000000001
 40
0.0
 40
0.0
 40
0.0
 40
0.0
 40
1.0
 40
1.0
 40
1.0
 40
2.0
 40
2.0
 40
2.0
 40
3.0
 40
3.0
 40
3.0
 40
4.0
 40
4.0
 40
4.0
 40
5.0
 40
5.0
 40
5.0
 40
6.0
 40
6.0
 40
6.0
 40
7.0
 40
7.0
 40
7.0
 40
8.0
 40
8.0
 40
8.0
 40
9.0
 40
9.0
 40
9.0
 40
10.0
 40
10.0
 40
10.0
 40
11.0
 40
11.0
 40
11.0
 40
12.0
 40
12.0
 40
12.0
 40
13.0
 40
13.0
 40
13.0
 40
14.0
 40
14.0
 40
14.0
 40
15.0
 40
15.0
 40
15.0
 40
16.0
 40
16.0
 40
16.0
 40
17.0
 40
17.0
 40
17.0
 40
18.0
 40
18.0
 40
18.0
 40
19.0
 40
19.0
 40
19.0
 40
20.0
 40
20.0
 40
20.0
 40
21.0
 40
21.0
 40
21.0
 40
22.0
 40
22.0
 40
22.0
 40
23.0
 40
23.0
 40
23.0
 40
24.0
 40
24.0
 40
24.0
 40
25.0
 40
25.0
 40
25.0
 40
26.0
 40
26.0
 40
26.0
 40
27.0
 40
27.0
 40
27.0
 40
28.0
 40
28.0
 40
28.0
 40
29.0
 40
29.0
 40
29.0
 40
30.0
 40
30.0
 40
30.0
 40
31.0
 40
31.0
 40
31.0
 40
32.0
 40
32.0
 40
32.0
 40
33.0
 40
33.0
 40
33.0
 40
34.0
 40
34.0
 40
34.0
 40
35.0
 40
35.0
 40
35.0
 40
36.0
 40
36.0
 40
36.0
 40
37.0
 40
37.0
 40
37.0
 40
38.0
 40
38.0
 40
38.0
 40
39.0
 40
39.0
 40
39.0
 40
40.0
 40
40.0
 40
40.0
 40
41.0
 40
41.0
 40
41.0
 40
42.0
 40
42.0
 40
42.0
 40
43.0
 40
43.0
 40
43.0
 40
44.0
 40
44.0
 40
44.0
 40
45.0
 40
45.0
 40
45.0
 40
46.0
 40
46.0
 40
46.0
 40
47.0
 40
47.0
 40
47.0
 40
48.0
 40
48.0
 40
48.0
 40
49.0
 40
49.0
 40
49.0
 40
50.0
 40
50.0
 40
50.0
 40
51.0
 40
51.0
 40
51.0
 40
52.0
 40
52.0
 40
52.0
 40
53.0
 40
53.0
 40
53.0
 40
54.0
 40
54.0
 40
54.0
 40
55.0
 40
55.0
 40
55.0
 40
56.0
 40
56.0
 40
56.0
 40
57.0
 40
57.0
 40
57.0
 40
58.0
 40
58.0
 40
58.0
 40
59.0
 40
59.0
 40
59.0
 40
60.0
 40
60.0
 40
60.0
 40
61.0
 40
61.0
 40
61.0
 40
62.0
 40
62.0
 40
62.0
 40
63.0
 40
63.0
 40
63.0
 40
64.0
 40
64.0
 40
64.0
 40
65.0
 40
65.0
 40
65.0
 40
66.0
 40
66.0
 40
66.0
 40
67.0
 40
67.0
 40
67.0
 40
68.0
 40
68.0
 40
68.0
 40
69.0
 40
69.0
 40
69.0
 40
70.0
 40
70.0
 40
70.0
 40
71.0
 40
71.0
 40
71.0
 40
72.0
 40
72.0
 40
72.0
 40
73.0
 40
73.0
 40
73.0
 40
74.0
 40
74.0
 40
74.0
 40
75.0
 40
75.0
 40
75.0
 40
76.0
 40
76.0
 40
76.0
 40
77.0
 40
77.0
 40
77.0
 40
78.0
 40
78.0
 40
78.0
 40
79.0
 40
79.0
 40
79.0
 40
80.0
 40
80.0
 40
80.0
 40
81.0
 40
81.0
 40
81.0
 40
82.0
 40
82.0
 40
82.0
 40
83.0
 40
83.0
 40
83.0
 40
84.0
 40
84.0
 40
84.0
 40
85.0
 40
85.0
 40
85.0
 40
86.0
 40
86.0
 40
86.0
 40
87.0
 40
87.0
 40
87.0
 40
88.0
 40
88.0
 40
88.0
 40
89.0
 40
89.0
 40
89.0
 40
90.0
 40
90.0
 40
90.0
 40
91.0
 40
91.0
 40
91.0
 40
92.0
 40
92.0
 40
92.0
 40
93.0
 40
93.0
 40
93.0
 40
94.0
 40
94.0
 40
94.0
 40
95.0
 40
95.0
 40
95.0
 40
96.0
 40
96.0
 40
96.0
 40
97.0
 40
97.0
 40
97.0
 40
98.0
 40
98.0
 40
98.0
 40
99.0
 40
99.0
 40
99.0
 40
100.0
 40
100.0
 40
100.0
 40
101.0
 40
101.0
 40
101.0
 40
102.0
 40
102.0
 40
102.0
 40
103.0
 40
103.0
 40
103.0
 40
104.0
 40
104.0
 40
104.0
 40
104.0
 10
1011.83642578125
 20
-965.68994140625
 30
0.0
 10
1062.10498046875
 20
-880.95751953125
 30
0.0
 10
1091.98828125
 20
-779.92529296875
 30
0.0
 10
1091.98828125
 20
-671.25634765625
 30
0.0
 10
1091.98828125
 20
-500.72021484375
 30
0.0
 10
1018.3935546875
 20
-348.992919921875
 30
0.0
 10
904.05859375
 20
-252.033203125
 30
0.0
 10
902.56640625
 20
-253.52880859375
 30
0.0
 10
901.4111328125
 20
-255.231201171875
 30
0.0
 10
900.5869140625
 20
-257.145751953125
 30
0.0
 10
899.1943359375
 20
-260.380615234375
 30
0.0
 10
900.11181640625
 20
-264.18896484375
 30
0.0
 10
900.5869140625
 20
-267.660400390625
 30
0.0
 10
901.53662109375
 20
-274.60302734375
 30
0.0
 10
902.86083984375
 20
-281.772705078125
 30
0.0
 10
906.2431640625
 20
-287.972900390625
 30
0.0
 10
911.96630859375
 20
-298.46337890625
 30
0.0
 10
925.53759765625
 20
-304.107421875
 30
0.0
 10
930.205078125
 20
-315.0712890625
 30
0.0
 10
933.6787109375
 20
-323.22998046875
 30
0.0
 10
934.8115234375
 20
-333.027099609375
 30
0.0
 10
932.201171875
 20
-341.478759765625
 30
0.0
 10
929.46435546875
 20
-350.337158203125
 30
0.0
 10
922.54736328125
 20
-358.187255859375
 30
0.0
 10
914.736328125
 20
-363.56494140625
 30
0.0
 10
902.77099609375
 20
-371.802734375
 30
0.0
 10
887.34423828125
 20
-374.7412109375
 30
0.0
 10
872.8212890625
 20
-377.0087890625
 30
0.0
 10
856.658203125
 20
-379.53271484375
 30
0.0
 10
839.6923828125
 20
-373.85888671875
 30
0.0
 10
823.64794921875
 20
-377.0087890625
 30
0.0
 10
808.0556640625
 20
-380.06982421875
 30
0.0
 10
790.93408203125
 20
-384.197021484375
 30
0.0
 10
779.67919921875
 20
-395.0224609375
 30
0.0
 10
767.50341796875
 20
-406.73388671875
 30
0.0
 10
761.11572265625
 20
-424.30126953125
 30
0.0
 10
759.408203125
 20
-440.78515625
 30
0.0
 10
758.662109375
 20
-447.98486328125
 30
0.0
 10
759.5830078125
 20
-456.19677734375
 30
0.0
 10
763.98681640625
 20
-462.0615234375
 30
0.0
 10
766.650390625
 20
-465.60888671875
 30
0.0
 10
771.42236328125
 20
-467.5
 30
0.0
 10
775.81591796875
 20
-468.6328125
 30
0.0
 10
777.5732421875
 20
-469.0859375
 30
0.0
 10
779.74609375
 20
-467.6904296875
 30
0.0
 10
781.27978515625
 20
-468.6328125
 30
0.0
 10
783.85888671875
 20
-470.21826171875
 30
0.0
 10
786.4404296875
 20
-473.98974609375
 30
0.0
 10
785.1435546875
 20
-476.65771484375
 30
0.0
 10
783.21630859375
 20
-480.6220703125
 30
0.0
 10
775.166015625
 20
-476.96435546875
 30
0.0
 10
771.94970703125
 20
-480.05908203125
 30
0.0
 10
770.02001953125
 20
-481.916015625
 30
0.0
 10
768.16748046875
 20
-485.59326171875
 30
0.0
 10
769.82861328125
 20
-487.67626953125
 30
0.0
 10
772.0439453125
 20
-490.4541015625
 30
0.0
 10
777.1171875
 20
-487.67626953125
 30
0.0
 10
780.755859375
 20
-487.67626953125
 30
0.0
 10
783.4853515625
 20
-487.67626953125
 30
0.0
 10
786.22265625
 20
-487.67626953125
 30
0.0
 10
788.95166015625
 20
-487.67626953125
 30
0.0
 10
793.5
 20
-487.67626953125
 30
0.0
 10
799.39453125
 20
-484.58154296875
 30
0.0
 10
802.61083984375
 20
-487.67626953125
 30
0.0
 10
803.8974609375
 20
-488.91455078125
 30
0.0
 10
803.8974609375
 20
-491.69580078125
 30
0.0
 10
802.61083984375
 20
-492.93359375
 30
0.0
 10
801.9677734375
 20
-493.552734375
 30
0.0
 10
800.08984375
 20
-492.08203125
 30
0.0
 10
799.87890625
 20
-492.93359375
 30
0.0
 10
799.28955078125
 20
-495.3154296875
 30
0.0
 10
805.36669921875
 20
-494.162109375
 30
0.0
 10
806.7001953125
 20
-496.2470703125
 30
0.0
 10
807.6533203125
 20
-497.73828125
 30
0.0
 10
807.4775390625
 20
-499.921875
 30
0.0
 10
806.7001953125
 20
-501.50439453125
 30
0.0
 10
805.59716796875
 20
-503.74853515625
 30
0.0
 10
801.81494140625
 20
-503.98974609375
 30
0.0
 10
800.7119140625
 20
-506.23388671875
 30
0.0
 10
799.15625
 20
-509.3994140625
 30
0.0
 10
798.13916015625
 20
-514.2724609375
 30
0.0
 10
800.7119140625
 20
-516.74853515625
 30
0.0
 10
801.35546875
 20
-517.36767578125
 30
0.0
 10
802.54736328125
 20
-516.599609375
 30
0.0
 10
803.44384765625
 20
-516.74853515625
 30
0.0
 10
809.16552734375
 20
-517.69775390625
 30
0.0
 10
816.52490234375
 20
-517.80224609375
 30
0.0
 10
819.873046875
 20
-522.36669921875
 30
0.0
 10
820.39794921875
 20
-523.08154296875
 30
0.0
 10
819.41845703125
 20
-524.2373046875
 30
0.0
 10
819.873046875
 20
-524.9951171875
 30
0.0
 10
822.1474609375
 20
-528.78564453125
 30
0.0
 10
828.486328125
 20
-528.47216796875
 30
0.0
 10
831.70263671875
 20
-531.56689453125
 30
0.0
 10
834.9189453125
 20
-534.66162109375
 30
0.0
 10
834.59326171875
 20
-540.7607421875
 30
0.0
 10
838.5322265625
 20
-542.94921875
 30
0.0
 10
841.68359375
 20
-544.69970703125
 30
0.0
 10
847.43505859375
 20
-540.0400390625
 30
0.0
 10
849.45947265625
 20
-542.94921875
 30
0.0
 10
851.8125
 20
-546.330078125
 30
0.0
 10
845.18994140625
 20
-550.21533203125
 30
0.0
 10
844.623046875
 20
-554.24755859375
 30
0.0
 10
843.25146484375
 20
-564.001953125
 30
0.0
 10
847.7314453125
 20
-573.7626953125
 30
0.0
 10
848.353515625
 20
-583.58740234375
 30
0.0
 10
849.681640625
 20
-604.556640625
 30
0.0
 10
850.0087890625
 20
-625.31298828125
 30
0.0
 10
848.353515625
 20
-646.6748046875
 30
0.0
 10
846.6923828125
 20
-648.75830078125
 30
0.0
 10
843.08154296875
 20
-648.0341796875
 30
0.0
 10
840.4375
 20
-648.7158203125
 30
0.0
 10
838.3837890625
 20
-650.5576171875
 30
0.0
 10
836.6572265625
 20
-652.794921875
 30
0.0
 10
834.2890625
 20
-654.22998046875
 30
0.0
 10
833.52392578125
 20
-654.693359375
 30
0.0
 10
832.060546875
 20
-654.3623046875
 30
0.0
 10
831.76171875
 20
-655.18359375
 30
0.0
 10
831.16064453125
 20
-656.8359375
 30
0.0
 10
832.89892578125
 20
-658.8935546875
 30
0.0
 10
834.49365234375
 20
-659.736328125
 30
0.0
 10
840.10595703125
 20
-662.703125
 30
0.0
 10
847.3046875
 20
-658.77978515625
 30
0.0
 10
853.70556640625
 20
-658.94970703125
 30
0.0
 10
857.1923828125
 20
-659.04248046875
 30
0.0
 10
861.1064453125
 20
-658.25927734375
 30
0.0
 10
864.12939453125
 20
-659.93310546875
 30
0.0
 10
865.94677734375
 20
-660.939453125
 30
0.0
 10
867.6201171875
 20
-662.84033203125
 30
0.0
 10
867.80859375
 20
-664.849609375
 30
0.0
 10
867.9501953125
 20
-666.3671875
 30
0.0
 10
866.79833984375
 20
-667.826171875
 30
0.0
 10
865.7646484375
 20
-668.9794921875
 30
0.0
 10
865.126953125
 20
-669.69091796875
 30
0.0
 10
864.265625
 20
-670.279296875
 30
0.0
 10
863.33203125
 20
-670.55322265625
 30
0.0
 10
860.7216796875
 20
-671.31884765625
 30
0.0
 10
855.58544921875
 20
-667.962890625
 30
0.0
 10
855.13671875
 20
-670.55322265625
 30
0.0
 10
854.58447265625
 20
-673.73779296875
 30
0.0
 10
861.35791015625
 20
-673.16845703125
 30
0.0
 10
864.66796875
 20
-673.69970703125
 30
0.0
 10
865.56494140625
 20
-673.84375
 30
0.0
 10
866.59228515625
 20
-673.2958984375
 30
0.0
 10
867.3994140625
 20
-673.69970703125
 30
0.0
 10
868.078125
 20
-674.0390625
 30
0.0
 10
869.072265625
 20
-674.8564453125
 30
0.0
 10
868.71923828125
 20
-675.50927734375
 30
0.0
 10
868.29931640625
 20
-676.2861328125
 30
0.0
 10
866.775390625
 20
-675.07177734375
 30
0.0
 10
865.9873046875
 20
-675.50927734375
 30
0.0
 10
863.6240234375
 20
-676.822265625
 30
0.0
 10
861.18310546875
 20
-679.80224609375
 30
0.0
 10
861.8896484375
 20
-682.3388671875
 30
0.0
 10
863.53759765625
 20
-688.25732421875
 30
0.0
 10
873.3984375
 20
-687.80908203125
 30
0.0
 10
878.45068359375
 20
-691.5390625
 30
0.0
 10
884.22412109375
 20
-695.80224609375
 30
0.0
 10
889.4736328125
 20
-700.853515625
 30
0.0
 10
893.904296875
 20
-706.4091796875
 30
0.0
 10
898.888671875
 20
-712.6591796875
 30
0.0
 10
902.318359375
 20
-719.95947265625
 30
0.0
 10
906.19775390625
 20
-726.8974609375
 30
0.0
 10
907.13525390625
 20
-728.57373046875
 30
0.0
 10
906.9404296875
 20
-731.529296875
 30
0.0
 10
908.8544921875
 20
-732.0107421875
 30
0.0
 10
911.62744140625
 20
-732.7080078125
 30
0.0
 10
913.548828125
 20
-728.82666015625
 30
0.0
 10
915.9775390625
 20
-727.36279296875
 30
0.0
 10
917.51904296875
 20
-726.43310546875
 30
0.0
 10
919.48583984375
 20
-726.02978515625
 30
0.0
 10
920.708984375
 20
-724.73388671875
 30
0.0
 10
921.5615234375
 20
-723.8310546875
 30
0.0
 10
922.6748046875
 20
-722.5625
 30
0.0
 10
922.2880859375
 20
-721.400390625
 30
0.0
 10
921.4560546875
 20
-718.8994140625
 30
0.0
 10
916.3193359375
 20
-719.8486328125
 30
0.0
 10
915.1904296875
 20
-717.45751953125
 30
0.0
 10
914.25244140625
 20
-715.4697265625
 30
0.0
 10
914.958984375
 20
-712.62060546875
 30
0.0
 10
916.50830078125
 20
-711.02587890625
 30
0.0
 10
919.61474609375
 20
-707.8291015625
 30
0.0
 10
925.15625
 20
-707.474609375
 30
0.0
 10
929.7021484375
 20
-707.6240234375
 30
0.0
 10
932.6943359375
 20
-707.72265625
 30
0.0
 10
935.66748046875
 20
-708.904296875
 30
0.0
 10
938.2080078125
 20
-710.42919921875
 30
0.0
 10
940.5234375
 20
-711.8193359375
 30
0.0
 10
944.56298828125
 20
-713.435546875
 30
0.0
 10
944.00341796875
 20
-716.00537109375
 30
0.0
 10
943.45947265625
 20
-718.501953125
 30
0.0
 10
938.0830078125
 20
-716.6845703125
 30
0.0
 10
936.587890625
 20
-718.791015625
 30
0.0
 10
935.5615234375
 20
-720.236328125
 30
0.0
 10
935.67822265625
 20
-722.5322265625
 30
0.0
 10
936.587890625
 20
-724.0478515625
 30
0.0
 10
937.9521484375
 20
-726.322265625
 30
0.0
 10
941.52001953125
 20
-726.392578125
 30
0.0
 10
943.685546875
 20
-727.9912109375
 30
0.0
 10
946.572265625
 20
-730.12255859375
 30
0.0
 10
949.8837890625
 20
-732.24853515625
 30
0.0
 10
951.412109375
 20
-735.42578125
 30
0.0
 10
953.27587890625
 20
-739.3017578125
 30
0.0
 10
953.7626953125
 20
-744.115234375
 30
0.0
 10
952.49560546875
 20
-748.2080078125
 30
0.0
 10
951.1630859375
 20
-752.513671875
 30
0.0
 10
945.97216796875
 20
-754.83935546875
 30
0.0
 10
943.89501953125
 20
-758.86279296875
 30
0.0
 10
943.08544921875
 20
-760.4306640625
 30
0.0
 10
941.734375
 20
-762.3447265625
 30
0.0
 10
942.48095703125
 20
-763.94091796875
 30
0.0
 10
942.98046875
 20
-765.009765625
 30
0.0
 10
944.6015625
 20
-765.12841796875
 30
0.0
 10
945.7509765625
 20
-765.5146484375
 30
0.0
 10
948.2412109375
 20
-766.3505859375
 30
0.0
 10
952.42578125
 20
-764.7685546875
 30
0.0
 10
953.50048828125
 20
-767.0859375
 30
0.0
 10
954.61279296875
 20
-769.484375
 30
0.0
 10
951.126953125
 20
-771.8798828125
 30
0.0
 10
949.40283203125
 20
-773.91552734375
 30
0.0
 10
948.1083984375
 20
-775.44384765625
 30
0.0
 10
946.8203125
 20
-777.49755859375
 30
0.0
 10
944.80419921875
 20
-777.8486328125
 30
0.0
 10
941.6201171875
 20
-778.4033203125
 30
0.0
 10
938.96533203125
 20
-774.2412109375
 30
0.0
 10
935.73974609375
 20
-774.482421875
 30
0.0
 10
933.92578125
 20
-774.6181640625
 30
0.0
 10
932.6201171875
 20
-776.30029296875
 30
0.0
 10
931.0078125
 20
-777.111328125
 30
0.0
 10
928.1748046875
 20
-778.53662109375
 30
0.0
 10
924.29833984375
 20
-778.626953125
 30
0.0
 10
922.32177734375
 20
-781.04443359375
 30
0.0
 10
911.38623046875
 20
-794.419921875
 30
0.0
 10
918.3203125
 20
-815.345703125
 30
0.0
 10
911.65625
 20
-831.10986328125
 30
0.0
 10
907.24658203125
 20
-841.5419921875
 30
0.0
 10
897.40673828125
 20
-849.2734375
 30
0.0
 10
892.67529296875
 20
-859.57470703125
 30
0.0
 10
891.93994140625
 20
-861.17626953125
 30
0.0
 10
890.64111328125
 20
-863.00732421875
 30
0.0
 10
891.26123046875
 20
-864.65283203125
 30
0.0
 10
891.8740234375
 20
-866.279296875
 30
0.0
 10
895.22119140625
 20
-865.96875
 30
0.0
 10
895.67578125
 20
-867.64208984375
 30
0.0
 10
896.02734375
 20
-868.9345703125
 30
0.0
 10
894.91796875
 20
-870.376953125
 30
0.0
 10
893.87744140625
 20
-871.2607421875
 30
0.0
 10
893.36083984375
 20
-871.69921875
 30
0.0
 10
892.3623046875
 20
-871.3857421875
 30
0.0
 10
891.9150390625
 20
-871.89013671875
 30
0.0
 10
890.4990234375
 20
-873.48779296875
 30
0.0
 10
889.66650390625
 20
-876.34765625
 30
0.0
 10
890.849609375
 20
-878.11279296875
 30
0.0
 10
892.32861328125
 20
-880.3193359375
 30
0.0
 10
896.06005859375
 20
-879.81103515625
 30
0.0
 10
898.765625
 20
-880.15380859375
 30
0.0
 10
908.68701171875
 20
-881.41064453125
 30
0.0
 10
918.8095703125
 20
-880.15380859375
 30
0.0
 10
928.81640625
 20
-880.15380859375
 30
0.0
 10
932.455078125
 20
-880.15380859375
 30
0.0
 10
936.59228515625
 20
-878.4033203125
 30
0.0
 10
939.74365234375
 20
-880.15380859375
 30
0.0
 10
941.3193359375
 20
-881.029296875
 30
0.0
 10
941.876953125
 20
-883.0537109375
 30
0.0
 10
942.4755859375
 20
-884.70654296875
 30
0.0
 10
943.9990234375
 20
-888.9130859375
 30
0.0
 10
944.779296875
 20
-893.49169921875
 30
0.0
 10
944.513671875
 20
-897.9384765625
 30
0.0
 10
944.25341796875
 20
-902.30810546875
 30
0.0
 10
942.3740234375
 20
-906.46826171875
 30
0.0
 10
940.978515625
 20
-910.63427734375
 30
0.0
 10
940.12109375
 20
-913.1943359375
 30
0.0
 10
936.4189453125
 20
-915.9755859375
 30
0.0
 10
938.00732421875
 20
-918.1884765625
 30
0.0
 10
940.07568359375
 20
-921.0693359375
 30
0.0
 10
945.2958984375
 20
-918.1884765625
 30
0.0
 10
948.93505859375
 20
-918.1884765625
 30
0.0
 10
949.8447265625
 20
-918.1884765625
 30
0.0
 10
951.0234375
 20
-917.5693359375
 30
0.0
 10
951.6669921875
 20
-918.1884765625
 30
0.0
 10
953.5966796875
 20
-920.04541015625
 30
0.0
 10
951.6669921875
 20
-923.4482421875
 30
0.0
 10
951.6669921875
 20
-926.07421875
 30
0.0
 10
951.6669921875
 20
-927.8251953125
 30
0.0
 10
950.970703125
 20
-929.71435546875
 30
0.0
 10
951.6669921875
 20
-931.33203125
 30
0.0
 10
953.4072265625
 20
-935.37548828125
 30
0.0
 10
959.5849609375
 20
-936.58203125
 30
0.0
 10
961.3251953125
 20
-940.62548828125
 30
0.0
 10
963.76220703125
 20
-946.28662109375
 30
0.0
 10
958.1416015625
 20
-953.7197265625
 30
0.0
 10
961.3251953125
 20
-959.02587890625
 30
0.0
 10
962.68994140625
 20
-961.30029296875
 30
0.0
 10
965.69580078125
 20
-963.0732421875
 30
0.0
 10
968.4228515625
 20
-962.96875
 30
0.0
 10
971.35107421875
 20
-962.857421875
 30
0.0
 10
972.87255859375
 20
-959.0048828125
 30
0.0
 10
975.6708984375
 20
-958.16748046875
 30
0.0
 10
976.53955078125
 20
-957.90771484375
 30
0.0
 10
977.544921875
 20
-957.8759765625
 30
0.0
 10
978.40283203125
 20
-958.16748046875
 30
0.0
 10
980.1494140625
 20
-958.76123046875
 30
0.0
 10
980.9853515625
 20
-960.93505859375
 30
0.0
 10
982.73193359375
 20
-961.5283203125
 30
0.0
 10
984.44775390625
 20
-962.111328125
 30
0.0
 10
986.37646484375
 20
-961.5283203125
 30
0.0
 10
988.19580078125
 20
-961.5283203125
 30
0.0
 10
992.744140625
 20
-961.5283203125
 30
0.0
 10
997.40966796875
 20
-960.60205078125
 30
0.0
 10
1001.85498046875
 20
-961.5283203125
 30
0.0
 10
1005.77978515625
 20
-962.3466796875
 30
0.0
 10
1009.43896484375
 20
-963.94677734375
 30
0.0
 10
1011.83642578125
 20
-965.68994140625
 30
0.0
  0
SPLINE
  5
1B2
330
1F
100
AcDbEntity
  8
LAYER_1
 62
   250
100
AcDbSpline
210
0.0
220
0.0
230
1.0
 70
    11
 71
     3
 72
   317
 73
   313
 74
     0
 42
0.0000000001
 43
0.0000000001
 40
0.0
 40
0.0
 40
0.0
 40
0.0
 40
1.0
 40
1.0
 40
1.0
 40
2.0
 40
2.0
 40
2.0
 40
3.0
 40
3.0
 40
3.0
 40
4.0
 40
4.0
 40
4.0
 40
5.0
 40
5.0
 40
5.0
 40
6.0
 40
6.0
 40
6.0
 40
7.0
 40
7.0
 40
7.0
 40
8.0
 40
8.0
 40
8.0
 40
9.0
 40
9.0
 40
9.0
 40
10.0
 40
10.0
 40
10.0
 40
11.0
 40
11.0
 40
11.0
 40
12.0
 40
12.0
 40
12.0
 40
13.0
 40
13.0
 40
13.0
 40
14.0
 40
14.0
 40
14.0
 40
15.0
 40
15.0
 40
15.0
 40
16.0
 40
16.0
 40
16.0
 40
17.0
 40
17.0
 40
17.0
 40
18.0
 40
18.0
 40
18.0
 40
19.0
 40
19.0
 40
19.0
 40
20.0
 40
20.0
 40
20.0
 40
21.0
 40
21.0
 40
21.0
 40
22.0
 40
22.0
 40
22.0
 40
23.0
 40
23.0
 40
23.0
 40
24.0
 40
24.0
 40
24.0
 40
25.0
 40
25.0
 40
25.0
 40
26.0
 40
26.0
 40
26.0
 40
27.0
 40
27.0
 40
27.0
 40
28.0
 40
28.0
 40
28.0
 40
29.0
 40
29.0
 40
29.0
 40
30.0
 40
30.0
 40
30.0
 40
31.0
 40
31.0
 40
31.0
 40
32.0
 40
32.0
 40
32.0
 40
33.0
 40
33.0
 40
33.0
 40
34.0
 40
34.0
 40
34.0
 40
35.0
 40
35.0
 40
35.0
 40
36.0
 40
36.0
 40
36.0
 40
37.0
 40
37.0
 40
37.0
 40
38.0
 40
38.0
 40
38.0
 40
39.0
 40
39.0
 40
39.0
 40
40.0
 40
40.0
 40
40.0
 40
41.0
 40
41.0
 40
41.0
 40
42.0
 40
42.0
 40
42.0
 40
43.0
 40
43.0
 40
43.0
 40
44.0
 40
44.0
 40
44.0
 40
45.0
 40
45.0
 40
45.0
 40
46.0
 40
46.0
 40
46.0
 40
47.0
 40
47.0
 40
47.0
 40
48.0
 40
48.0
 40
48.0
 40
49.0
 40
49.0
 40
49.0
 40
50.0
 40
50.0
 40
50.0
 40
51.0
 40
51.0
 40
51.0
 40
52.0
 40
52.0
 40
52.0
 40
53.0
 40
53.0
 40
53.0
 40
54.0
 40
54.0
 40
54.0
 40
55.0
 40
55.0
 40
55.0
 40
56.0
 40
56.0
 40
56.0
 40
57.0
 40
57.0
 40
57.0
 40
58.0
 40
58.0
 40
58.0
 40
59.0
 40
59.0
 40
59.0
 40
60.0
 40
60.0
 40
60.0
 40
61.0
 40
61.0
 40
61.0
 40
62.0
 40
62.0
 40
62.0
 40
63.0
 40
63.0
 40
63.0
 40
64.0
 40
64.0
 40
64.0
 40
65.0
 40
65.0
 40
65.0
 40
66.0
 40
66.0
 40
66.0
 40
67.0
 40
67.0
 40
67.0
 40
68.0
 40
68.0
 40
68.0
 40
69.0
 40
69.0
 40
69.0
 40
70.0
 40
70.0
 40
70.0
 40
71.0
 40
71.0
 40
71.0
 40
72.0
 40
72.0
 40
72.0
 40
73.0
 40
73.0
 40
73.0
 40
74.0
 40
74.0
 40
74.0
 40
75.0
 40
75.0
 40
75.0
 40
76.0
 40
76.0
 40
76.0
 40
77.0
 40
77.0
 40
77.0
 40
78.0
 40
78.0
 40
78.0
 40
79.0
 40
79.0
 40
79.0
 40
80.0
 40
80.0
 40
80.0
 40
81.0
 40
81.0
 40
81.0
 40
82.0
 40
82.0
 40
82.0
 40
83.0
 40
83.0
 40
83.0
 40
84.0
 40
84.0
 40
84.0
 40
85.0
 40
85.0
 40
85.0
 40
86.0
 40
86.0
 40
86.0
 40
87.0
 40
87.0
 40
87.0
 40
88.0
 40
88.0
 40
88.0
 40
89.0
 40
89.0
 40
89.0
 40
90.0
 40
90.0
 40
90.0
 40
91.0
 40
91.0
 40
91.0
 40
92.0
 40
92.0
 40
92.0
 40
93.0
 40
93.0
 40
93.0
 40
94.0
 40
94.0
 40
94.0
 40
95.0
 40
95.0
 40
95.0
 40
96.0
 40
96.0
 40
96.0
 40
97.0
 40
97.0
 40
97.0
 40
98.0
 40
98.0
 40
98.0
 40
99.0
 40
99.0
 40
99.0
 40
100.0
 40
100.0
 40
100.0
 40
101.0
 40
101.0
 40
101.0
 40
102.0
 40
102.0
 40
102.0
 40
103.0
 40
103.0
 40
103.0
 40
104.0
 40
104.0
 40
104.0
 40
104.0
 10
573.81591796875
 20
-820.25
 30
0.0
 10
571.4462890625
 20
-814.392578125
 30
0.0
 10
569.79638671875
 20
-808.46826171875
 30
0.0
 10
569.79638671875
 20
-802.3408203125
 30
0.0
 10
569.79638671875
 20
-790.96142578125
 30
0.0
 10
573.576171875
 20
-779.45068359375
 30
0.0
 10
578.98828125
 20
-769.33251953125
 30
0.0
 10
583.076171875
 20
-761.689453125
 30
0.0
 10
588.78125
 20
-754.4150390625
 30
0.0
 10
596.0400390625
 20
-749.40478515625
 30
0.0
 10
600.22802734375
 20
-746.51416015625
 30
0.0
 10
605.68994140625
 20
-745.87646484375
 30
0.0
 10
610.5107421875
 20
-744.123046875
 30
0.0
 10
612.49560546875
 20
-743.4013671875
 30
0.0
 10
615.17236328125
 20
-743.5751953125
 30
0.0
 10
616.47314453125
 20
-741.96240234375
 30
0.0
 10
618.67626953125
 20
-739.23095703125
 30
0.0
 10
617.14208984375
 20
-735.064453125
 30
0.0
 10
617.650390625
 20
-731.6416015625
 30
0.0
 10
617.9697265625
 20
-729.49267578125
 30
0.0
 10
617.099609375
 20
-726.61767578125
 30
0.0
 10
618.82763671875
 20
-725.22265625
 30
0.0
 10
619.5244140625
 20
-724.65966796875
 30
0.0
 10
620.8037109375
 20
-724.73486328125
 30
0.0
 10
621.5595703125
 20
-725.22265625
 30
0.0
 10
623.47607421875
 20
-726.458984375
 30
0.0
 10
622.45849609375
 20
-729.92333984375
 30
0.0
 10
624.19091796875
 20
-731.3896484375
 30
0.0
 10
624.8740234375
 20
-731.9677734375
 30
0.0
 10
625.927734375
 20
-732.1845703125
 30
0.0
 10
626.82958984375
 20
-732.0703125
 30
0.0
 10
628.63330078125
 20
-731.841796875
 30
0.0
 10
630.45361328125
 20
-730.83056640625
 30
0.0
 10
631.5615234375
 20
-729.44140625
 30
0.0
 10
633.22265625
 20
-727.35791015625
 30
0.0
 10
631.9443359375
 20
-723.8486328125
 30
0.0
 10
633.6826171875
 20
-721.82421875
 30
0.0
 10
635.427734375
 20
-719.7919921875
 30
0.0
 10
638.4130859375
 20
-717.7880859375
 30
0.0
 10
641.08544921875
 20
-718.369140625
 30
0.0
 10
643.07763671875
 20
-718.802734375
 30
0.0
 10
644.2412109375
 20
-721.12353515625
 30
0.0
 10
644.91748046875
 20
-722.978515625
 30
0.0
 10
645.21875
 20
-723.8046875
 30
0.0
 10
644.36376953125
 20
-724.91259765625
 30
0.0
 10
644.91748046875
 20
-725.607421875
 30
0.0
 10
646.5791015625
 20
-727.6904296875
 30
0.0
 10
651.17236328125
 20
-725.56494140625
 30
0.0
 10
652.833984375
 20
-727.6484375
 30
0.0
 10
653.3876953125
 20
-728.3427734375
 30
0.0
 10
653.28857421875
 20
-729.51904296875
 30
0.0
 10
652.833984375
 20
-730.27685546875
 30
0.0
 10
651.46923828125
 20
-732.55126953125
 30
0.0
 10
648.37255859375
 20
-733.5400390625
 30
0.0
 10
645.736328125
 20
-734.2197265625
 30
0.0
 10
643.97900390625
 20
-734.6728515625
 30
0.0
 10
641.18212890625
 20
-732.70361328125
 30
0.0
 10
640.2724609375
 20
-734.2197265625
 30
0.0
 10
638.908203125
 20
-736.494140625
 30
0.0
 10
644.4921875
 20
-738.42578125
 30
0.0
 10
644.3701171875
 20
-741.04931640625
 30
0.0
 10
644.3251953125
 20
-742.02001953125
 30
0.0
 10
643.1689453125
 20
-742.6171875
 30
0.0
 10
642.62548828125
 20
-743.4365234375
 30
0.0
 10
641.646484375
 20
-744.912109375
 30
0.0
 10
640.6796875
 20
-746.41015625
 30
0.0
 10
639.8935546875
 20
-747.9892578125
 30
0.0
 10
639.68603515625
 20
-748.40673828125
 30
0.0
 10
639.494140625
 20
-748.830078125
 30
0.0
 10
639.3125
 20
-749.25732421875
 30
0.0
 10
639.3125
 20
-749.25732421875
 30
0.0
 10
641.849609375
 20
-757.30712890625
 30
0.0
 10
641.849609375
 20
-757.30712890625
 30
0.0
 10
646.4853515625
 20
-758.4248046875
 30
0.0
 10
649.59619140625
 20
-760.82763671875
 30
0.0
 10
651.1826171875
 20
-764.5126953125
 30
0.0
 10
651.87890625
 20
-766.1298828125
 30
0.0
 10
650.6220703125
 20
-768.044921875
 30
0.0
 10
649.7685546875
 20
-769.5908203125
 30
0.0
 10
649.015625
 20
-770.95458984375
 30
0.0
 10
647.9892578125
 20
-772.13720703125
 30
0.0
 10
646.8740234375
 20
-773.2626953125
 30
0.0
 10
646.8740234375
 20
-773.2626953125
 30
0.0
 10
704.6328125
 20
-956.68310546875
 30
0.0
 10
704.6328125
 20
-956.68310546875
 30
0.0
 10
705.56982421875
 20
-956.7626953125
 30
0.0
 10
706.50830078125
 20
-956.8291015625
 30
0.0
 10
707.4482421875
 20
-956.86474609375
 30
0.0
 10
713.81103515625
 20
-957.107421875
 30
0.0
 10
720.328125
 20
-955.658203125
 30
0.0
 10
726.5712890625
 20
-956.86474609375
 30
0.0
 10
728.1142578125
 20
-957.1630859375
 30
0.0
 10
729.44140625
 20
-958.1318359375
 30
0.0
 10
730.9306640625
 20
-958.62109375
 30
0.0
 10
736.095703125
 20
-960.31884765625
 30
0.0
 10
741.3515625
 20
-962.017578125
 30
0.0
 10
746.76318359375
 20
-962.703125
 30
0.0
 10
751.27294921875
 20
-963.2744140625
 30
0.0
 10
755.88037109375
 20
-962.47412109375
 30
0.0
 10
760.42236328125
 20
-962.703125
 30
0.0
 10
768.5380859375
 20
-963.11328125
 30
0.0
 10
777.580078125
 20
-961.37939453125
 30
0.0
 10
784.693359375
 20
-965.16162109375
 30
0.0
 10
786.3505859375
 20
-966.04296875
 30
0.0
 10
788.63818359375
 20
-967.68994140625
 30
0.0
 10
788.2060546875
 20
-969.4638671875
 30
0.0
 10
787.6416015625
 20
-971.78076171875
 30
0.0
 10
783.9296875
 20
-972.0927734375
 30
0.0
 10
781.5
 20
-972.53662109375
 30
0.0
 10
773.958984375
 20
-973.91357421875
 30
0.0
 10
766.16748046875
 20
-970.55322265625
 30
0.0
 10
758.50634765625
 20
-971.0
 30
0.0
 10
753.5390625
 20
-971.28955078125
 30
0.0
 10
748.8056640625
 20
-973.892578125
 30
0.0
 10
743.83251953125
 20
-973.7216796875
 30
0.0
 10
740.1962890625
 20
-973.5966796875
 30
0.0
 10
736.90234375
 20
-971.3095703125
 30
0.0
 10
733.27734375
 20
-971.0
 30
0.0
 10
728.28076171875
 20
-970.57373046875
 30
0.0
 10
723.23095703125
 20
-971.5283203125
 30
0.0
 10
718.26806640625
 20
-972.2294921875
 30
0.0
 10
713.5771484375
 20
-972.8916015625
 30
0.0
 10
708.876953125
 20
-976.341796875
 30
0.0
 10
704.33251953125
 20
-975.0400390625
 30
0.0
 10
701.716796875
 20
-974.29052734375
 30
0.0
 10
701.05908203125
 20
-970.46875
 30
0.0
 10
698.53759765625
 20
-969.4638671875
 30
0.0
 10
695.17578125
 20
-968.12353515625
 30
0.0
 10
690.271484375
 20
-967.076171875
 30
0.0
 10
687.6103515625
 20
-969.4638671875
 30
0.0
 10
683.16552734375
 20
-973.45068359375
 30
0.0
 10
689.2578125
 20
-983.3876953125
 30
0.0
 10
687.7646484375
 20
-989.05517578125
 30
0.0
 10
687.572265625
 20
-989.78515625
 30
0.0
 10
687.2939453125
 20
-990.42041015625
 30
0.0
 10
686.9560546875
 20
-990.99169921875
 30
0.0
 10
686.962890625
 20
-994.2451171875
 30
0.0
 10
686.6796875
 20
-997.419921875
 30
0.0
 10
684.73583984375
 20
-999.88525390625
 30
0.0
 10
682.7919921875
 20
-1002.35009765625
 30
0.0
 10
678.32373046875
 20
-1005.6220703125
 30
0.0
 10
675.8857421875
 20
-1003.60400390625
 30
0.0
 10
670.36865234375
 20
-999.03759765625
 30
0.0
 10
681.97265625
 20
-990.2822265625
 30
0.0
 10
681.54248046875
 20
-983.29150390625
 30
0.0
 10
681.326171875
 20
-979.771484375
 30
0.0
 10
680.494140625
 20
-975.43603515625
 30
0.0
 10
677.46044921875
 20
-973.45849609375
 30
0.0
 10
674.44775390625
 20
-971.49462890625
 30
0.0
 10
670.1240234375
 20
-972.89208984375
 30
0.0
 10
666.53271484375
 20
-973.45849609375
 30
0.0
 10
660.8369140625
 20
-974.3564453125
 30
0.0
 10
653.14892578125
 20
-983.501953125
 30
0.0
 10
650.1064453125
 20
-978.7822265625
 30
0.0
 10
648.1884765625
 20
-975.806640625
 30
0.0
 10
656.01416015625
 20
-974.37939453125
 30
0.0
 10
657.83349609375
 20
-971.34716796875
 30
0.0
 10
660.5625
 20
-966.798828125
 30
0.0
 10
657.74560546875
 20
-959.31005859375
 30
0.0
 10
662.07568359375
 20
-956.11279296875
 30
0.0
 10
669.29296875
 20
-950.7841796875
 30
0.0
 10
680.29736328125
 20
-956.11279296875
 30
0.0
 10
689.39453125
 20
-956.11279296875
 30
0.0
 10
692.12353515625
 20
-956.11279296875
 30
0.0
 10
694.86279296875
 20
-956.0087890625
 30
0.0
 10
697.58984375
 20
-956.11279296875
 30
0.0
 10
697.58984375
 20
-956.11279296875
 30
0.0
 10
682.7119140625
 20
-912.6806640625
 30
0.0
 10
682.7119140625
 20
-912.6806640625
 30
0.0
 10
682.40185546875
 20
-912.591796875
 30
0.0
 10
682.0859375
 20
-912.51806640625
 30
0.0
 10
681.76416015625
 20
-912.4677734375
 30
0.0
 10
679.736328125
 20
-912.1513671875
 30
0.0
 10
677.64892578125
 20
-912.4677734375
 30
0.0
 10
675.5947265625
 20
-912.4677734375
 30
0.0
 10
669.2265625
 20
-912.4677734375
 30
0.0
 10
662.6640625
 20
-911.0390625
 30
0.0
 10
656.4716796875
 20
-912.4677734375
 30
0.0
 10
654.1572265625
 20
-913.001953125
 30
0.0
 10
651.6005859375
 20
-913.80712890625
 30
0.0
 10
650.1025390625
 20
-915.58642578125
 30
0.0
 10
647.8115234375
 20
-918.306640625
 30
0.0
 10
648.09326171875
 20
-922.3310546875
 30
0.0
 10
647.27392578125
 20
-925.74267578125
 30
0.0
 10
645.771484375
 20
-931.99951171875
 30
0.0
 10
644.53369140625
 20
-938.33642578125
 30
0.0
 10
643.44189453125
 20
-944.67138671875
 30
0.0
 10
643.12451171875
 20
-946.51220703125
 30
0.0
 10
643.84228515625
 20
-953.8017578125
 30
0.0
 10
644.134765625
 20
-955.41943359375
 30
0.0
 10
644.6181640625
 20
-958.04345703125
 30
0.0
 10
645.59814453125
 20
-960.62158203125
 30
0.0
 10
645.66748046875
 20
-963.2861328125
 30
0.0
 10
645.7578125
 20
-966.7548828125
 30
0.0
 10
646.5908203125
 20
-971.0068359375
 30
0.0
 10
644.20751953125
 20
-973.61083984375
 30
0.0
 10
641.201171875
 20
-976.89501953125
 30
0.0
 10
635.5625
 20
-977.0126953125
 30
0.0
 10
631.013671875
 20
-977.0126953125
 30
0.0
 10
626.46533203125
 20
-977.0126953125
 30
0.0
 10
621.13623046875
 20
-976.6064453125
 30
0.0
 10
617.81982421875
 20
-973.61083984375
 30
0.0
 10
616.2685546875
 20
-972.2099609375
 30
0.0
 10
614.7744140625
 20
-969.58935546875
 30
0.0
 10
615.77978515625
 20
-967.78515625
 30
0.0
 10
617.06884765625
 20
-965.470703125
 30
0.0
 10
621.2900390625
 20
-966.984375
 30
0.0
 10
623.69580078125
 20
-965.744140625
 30
0.0
 10
626.193359375
 20
-964.45703125
 30
0.0
 10
628.41357421875
 20
-962.53857421875
 30
0.0
 10
630.0830078125
 20
-960.3359375
 30
0.0
 10
631.66552734375
 20
-958.248046875
 30
0.0
 10
631.90576171875
 20
-954.72216796875
 30
0.0
 10
631.4755859375
 20
-951.95849609375
 30
0.0
 10
630.8017578125
 20
-947.63037109375
 30
0.0
 10
634.224609375
 20
-943.57421875
 30
0.0
 10
635.0107421875
 20
-939.26318359375
 30
0.0
 10
635.9091796875
 20
-934.33837890625
 30
0.0
 10
636.123046875
 20
-929.29833984375
 30
0.0
 10
636.345703125
 20
-924.302734375
 30
0.0
 10
636.384765625
 20
-923.42822265625
 30
0.0
 10
636.46435546875
 20
-922.5419921875
 30
0.0
 10
636.345703125
 20
-921.67431640625
 30
0.0
 10
635.9892578125
 20
-919.07080078125
 30
0.0
 10
634.58056640625
 20
-916.66064453125
 30
0.0
 10
634.224609375
 20
-914.05712890625
 30
0.0
 10
634.10546875
 20
-913.189453125
 30
0.0
 10
634.224609375
 20
-912.3037109375
 30
0.0
 10
634.224609375
 20
-911.42822265625
 30
0.0
 10
634.224609375
 20
-907.92724609375
 30
0.0
 10
631.6513671875
 20
-903.3896484375
 30
0.0
 10
634.224609375
 20
-900.9140625
 30
0.0
 10
636.154296875
 20
-899.05712890625
 30
0.0
 10
639.703125
 20
-900.6650390625
 30
0.0
 10
642.419921875
 20
-900.9140625
 30
0.0
 10
647.81298828125
 20
-901.4072265625
 30
0.0
 10
653.00341796875
 20
-903.37060546875
 30
0.0
 10
658.396484375
 20
-903.86376953125
 30
0.0
 10
662.9248046875
 20
-904.2783203125
 30
0.0
 10
667.51708984375
 20
-903.57763671875
 30
0.0
 10
672.0556640625
 20
-903.86376953125
 30
0.0
 10
674.71826171875
 20
-904.03173828125
 30
0.0
 10
677.36865234375
 20
-904.33642578125
 30
0.0
 10
680.00634765625
 20
-904.78173828125
 30
0.0
 10
680.00634765625
 20
-904.78173828125
 30
0.0
 10
666.07470703125
 20
-864.1220703125
 30
0.0
 10
666.07470703125
 20
-864.1220703125
 30
0.0
 10
661.10986328125
 20
-862.07373046875
 30
0.0
 10
651.74658203125
 20
-866.935546875
 30
0.0
 10
648.93359375
 20
-862.24462890625
 30
0.0
 10
647.759765625
 20
-860.2861328125
 30
0.0
 10
650.12548828125
 20
-857.7841796875
 30
0.0
 10
651.39501953125
 20
-855.8818359375
 30
0.0
 10
654.34423828125
 20
-851.46240234375
 30
0.0
 10
664.74267578125
 20
-849.70166015625
 30
0.0
 10
662.9853515625
 20
-844.72900390625
 30
0.0
 10
661.396484375
 20
-840.2353515625
 30
0.0
 10
653.17041015625
 20
-843.61083984375
 30
0.0
 10
648.294921875
 20
-842.88525390625
 30
0.0
 10
643.81494140625
 20
-842.21875
 30
0.0
 10
638.23291015625
 20
-843.52734375
 30
0.0
 10
634.89501953125
 20
-840.576171875
 30
0.0
 10
633.55517578125
 20
-839.3916015625
 30
0.0
 10
633.95166015625
 20
-837.18896484375
 30
0.0
 10
633.48046875
 20
-835.498046875
 30
0.0
 10
632.7744140625
 20
-832.96142578125
 30
0.0
 10
633.72314453125
 20
-829.19384765625
 30
0.0
 10
631.359375
 20
-827.880859375
 30
0.0
 10
628.2080078125
 20
-826.13037109375
 30
0.0
 10
624.3193359375
 20
-831.50830078125
 30
0.0
 10
620.8046875
 20
-830.60205078125
 30
0.0
 10
619.92578125
 20
-830.37548828125
 30
0.0
 10
618.9228515625
 20
-829.61767578125
 30
0.0
 10
618.87255859375
 20
-828.74365234375
 30
0.0
 10
618.7822265625
 20
-827.17333984375
 30
0.0
 10
620.93994140625
 20
-826.30078125
 30
0.0
 10
621.9384765625
 20
-825.05615234375
 30
0.0
 10
624.724609375
 20
-821.58251953125
 30
0.0
 10
627.82421875
 20
-818.27978515625
 30
0.0
 10
630.11376953125
 20
-814.4853515625
 30
0.0
 10
632.24462890625
 20
-810.95458984375
 30
0.0
 10
637.0595703125
 20
-806.93115234375
 30
0.0
 10
635.2197265625
 20
-803.25146484375
 30
0.0
 10
634.037109375
 20
-800.88525390625
 30
0.0
 10
630.025390625
 20
-801.40625
 30
0.0
 10
627.3037109375
 20
-801.21044921875
 30
0.0
 10
622.7783203125
 20
-800.88525390625
 30
0.0
 10
618.1689453125
 20
-801.64013671875
 30
0.0
 10
613.76318359375
 20
-802.685546875
 30
0.0
 10
610.572265625
 20
-803.44287109375
 30
0.0
 10
607.83154296875
 20
-806.4794921875
 30
0.0
 10
604.56591796875
 20
-806.126953125
 30
0.0
 10
601.30078125
 20
-805.775390625
 30
0.0
 10
597.931640625
 20
-803.60546875
 30
0.0
 10
596.39013671875
 20
-800.81396484375
 30
0.0
 10
595.53662109375
 20
-799.267578125
 30
0.0
 10
597.41259765625
 20
-797.0048828125
 30
0.0
 10
596.39013671875
 20
-795.556640625
 30
0.0
 10
594.96630859375
 20
-793.53857421875
 30
0.0
 10
591.5791015625
 20
-791.7607421875
 30
0.0
 10
589.31396484375
 20
-792.85595703125
 30
0.0
 10
586.87548828125
 20
-794.03515625
 30
0.0
 10
587.98583984375
 20
-797.96044921875
 30
0.0
 10
587.19287109375
 20
-800.47314453125
 30
0.0
 10
585.8876953125
 20
-804.60986328125
 30
0.0
 10
585.34130859375
 20
-809.1669921875
 30
0.0
 10
582.849609375
 20
-812.7646484375
 30
0.0
 10
581.7802734375
 20
-814.30908203125
 30
0.0
 10
580.01123046875
 20
-815.291015625
 30
0.0
 10
578.5068359375
 20
-816.4521484375
 30
0.0
 10
576.701171875
 20
-817.84521484375
 30
0.0
 10
574.82763671875
 20
-819.15625
 30
0.0
 10
573.81591796875
 20
-820.25
 30
0.0
  0
SPLINE
  5
1B3
330
1F
100
AcDbEntity
  8
LAYER_1
 62
   250
100
AcDbSpline
210
0.0
220
0.0
230
1.0
 70
    11
 71
     3
 72
   164
 73
   160
 74
     0
 42
0.0000000001
 43
0.0000000001
 40
0.0
 40
0.0
 40
0.0
 40
0.0
 40
1.0
 40
1.0
 40
1.0
 40
2.0
 40
2.0
 40
2.0
 40
3.0
 40
3.0
 40
3.0
 40
4.0
 40
4.0
 40
4.0
 40
5.0
 40
5.0
 40
5.0
 40
6.0
 40
6.0
 40
6.0
 40
7.0
 40
7.0
 40
7.0
 40
8.0
 40
8.0
 40
8.0
 40
9.0
 40
9.0
 40
9.0
 40
10.0
 40
10.0
 40
10.0
 40
11.0
 40
11.0
 40
11.0
 40
12.0
 40
12.0
 40
12.0
 40
13.0
 40
13.0
 40
13.0
 40
14.0
 40
14.0
 40
14.0
 40
15.0
 40
15.0
 40
15.0
 40
16.0
 40
16.0
 40
16.0
 40
17.0
 40
17.0
 40
17.0
 40
18.0
 40
18.0
 40
18.0
 40
19.0
 40
19.0
 40
19.0
 40
20.0
 40
20.0
 40
20.0
 40
21.0
 40
21.0
 40
21.0
 40
22.0
 40
22.0
 40
22.0
 40
23.0
 40
23.0
 40
23.0
 40
24.0
 40
24.0
 40
24.0
 40
25.0
 40
25.0
 40
25.0
 40
26.0
 40
26.0
 40
26.0
 40
27.0
 40
27.0
 40
27.0
 40
28.0
 40
28.0
 40
28.0
 40
29.0
 40
29.0
 40
29.0
 40
30.0
 40
30.0
 40
30.0
 40
31.0
 40
31.0
 40
31.0
 40
32.0
 40
32.0
 40
32.0
 40
33.0
 40
33.0
 40
33.0
 40
34.0
 40
34.0
 40
34.0
 40
35.0
 40
35.0
 40
35.0
 40
36.0
 40
36.0
 40
36.0
 40
37.0
 40
37.0
 40
37.0
 40
38.0
 40
38.0
 40
38.0
 40
39.0
 40
39.0
 40
39.0
 40
40.0
 40
40.0
 40
40.0
 40
41.0
 40
41.0
 40
41.0
 40
42.0
 40
42.0
 40
42.0
 40
43.0
 40
43.0
 40
43.0
 40
44.0
 40
44.0
 40
44.0
 40
45.0
 40
45.0
 40
45.0
 40
46.0
 40
46.0
 40
46.0
 40
47.0
 40
47.0
 40
47.0
 40
48.0
 40
48.0
 40
48.0
 40
49.0
 40
49.0
 40
49.0
 40
50.0
 40
50.0
 40
50.0
 40
51.0
 40
51.0
 40
51.0
 40
52.0
 40
52.0
 40
52.0
 40
53.0
 40
53.0
 40
53.0
 40
53.0
 10
198.01318359375
 20
-877.19873046875
 30
0.0
 10
198.01318359375
 20
-877.19873046875
 30
0.0
 10
206.03564453125
 20
-872.74169921875
 30
0.0
 10
206.03564453125
 20
-872.74169921875
 30
0.0
 10
206.03564453125
 20
-872.74169921875
 30
0.0
 10
209.346435546875
 20
-874.00439453125
 30
0.0
 10
209.346435546875
 20
-874.00439453125
 30
0.0
 10
209.346435546875
 20
-874.00439453125
 30
0.0
 10
209.346435546875
 20
-868.7470703125
 30
0.0
 10
209.346435546875
 20
-868.7470703125
 30
0.0
 10
209.346435546875
 20
-868.7470703125
 30
0.0
 10
210.760498046875
 20
-863.6689453125
 30
0.0
 10
210.760498046875
 20
-863.6689453125
 30
0.0
 10
210.760498046875
 20
-863.6689453125
 30
0.0
 10
217.96875
 20
-861.09814453125
 30
0.0
 10
217.96875
 20
-861.09814453125
 30
0.0
 10
217.96875
 20
-861.09814453125
 30
0.0
 10
222.70068359375
 20
-858.4697265625
 30
0.0
 10
222.70068359375
 20
-858.4697265625
 30
0.0
 10
222.70068359375
 20
-858.4697265625
 30
0.0
 10
231.062255859375
 20
-862.02001953125
 30
0.0
 10
231.062255859375
 20
-862.02001953125
 30
0.0
 10
231.062255859375
 20
-862.02001953125
 30
0.0
 10
239.046142578125
 20
-867.8583984375
 30
0.0
 10
239.046142578125
 20
-867.8583984375
 30
0.0
 10
239.046142578125
 20
-867.8583984375
 30
0.0
 10
241.778076171875
 20
-872.41162109375
 30
0.0
 10
241.778076171875
 20
-872.41162109375
 30
0.0
 10
241.778076171875
 20
-872.41162109375
 30
0.0
 10
249.9736328125
 20
-872.41162109375
 30
0.0
 10
249.9736328125
 20
-872.41162109375
 30
0.0
 10
249.9736328125
 20
-872.41162109375
 30
0.0
 10
253.4169921875
 20
-868.166015625
 30
0.0
 10
253.4169921875
 20
-868.166015625
 30
0.0
 10
253.4169921875
 20
-868.166015625
 30
0.0
 10
253.4169921875
 20
-860.27978515625
 30
0.0
 10
253.4169921875
 20
-860.27978515625
 30
0.0
 10
253.4169921875
 20
-860.27978515625
 30
0.0
 10
260.5146484375
 20
-856.3369140625
 30
0.0
 10
260.5146484375
 20
-856.3369140625
 30
0.0
 10
260.5146484375
 20
-856.3369140625
 30
0.0
 10
260.5146484375
 20
-858.96533203125
 30
0.0
 10
260.5146484375
 20
-858.96533203125
 30
0.0
 10
260.5146484375
 20
-858.96533203125
 30
0.0
 10
259.165283203125
 20
-867.8583984375
 30
0.0
 10
259.165283203125
 20
-867.8583984375
 30
0.0
 10
259.165283203125
 20
-867.8583984375
 30
0.0
 10
263.89697265625
 20
-870.4873046875
 30
0.0
 10
263.89697265625
 20
-870.4873046875
 30
0.0
 10
263.89697265625
 20
-870.4873046875
 30
0.0
 10
269.384521484375
 20
-873.08251953125
 30
0.0
 10
269.384521484375
 20
-873.08251953125
 30
0.0
 10
269.384521484375
 20
-873.08251953125
 30
0.0
 10
271.3740234375
 20
-876.39794921875
 30
0.0
 10
271.3740234375
 20
-876.39794921875
 30
0.0
 10
271.3740234375
 20
-876.39794921875
 30
0.0
 10
278.37109375
 20
-876.400390625
 30
0.0
 10
278.37109375
 20
-876.400390625
 30
0.0
 10
281.751953125
 20
-871.9658203125
 30
0.0
 10
285.114013671875
 20
-867.52099609375
 30
0.0
 10
288.4560546875
 20
-863.06689453125
 30
0.0
 10
290.12939453125
 20
-860.83642578125
 30
0.0
 10
290.67138671875
 20
-857.0078125
 30
0.0
 10
293.44580078125
 20
-856.3447265625
 30
0.0
 10
295.969970703125
 20
-855.74169921875
 30
0.0
 10
298.416259765625
 20
-858.1240234375
 30
0.0
 10
300.431640625
 20
-859.7060546875
 30
0.0
 10
302.72412109375
 20
-861.5048828125
 30
0.0
 10
303.124755859375
 20
-867.3583984375
 30
0.0
 10
305.920654296875
 20
-866.427734375
 30
0.0
 10
309.359619140625
 20
-865.283203125
 30
0.0
 10
306.71044921875
 20
-859.3310546875
 30
0.0
 10
305.920654296875
 20
-855.9130859375
 30
0.0
 10
305.23974609375
 20
-852.96630859375
 30
0.0
 10
301.246337890625
 20
-850.6484375
 30
0.0
 10
301.9287109375
 20
-847.7021484375
 30
0.0
 10
302.775390625
 20
-844.0458984375
 30
0.0
 10
308.16552734375
 20
-843.1572265625
 30
0.0
 10
310.910400390625
 20
-840.50048828125
 30
0.0
 10
313.490478515625
 20
-838.00341796875
 30
0.0
 10
317.59423828125
 20
-835.84716796875
 30
0.0
 10
317.896240234375
 20
-832.337890625
 30
0.0
 10
318.12158203125
 20
-829.72119140625
 30
0.0
 10
316.162109375
 20
-826.82177734375
 30
0.0
 10
313.798583984375
 20
-825.5087890625
 30
0.0
 10
311.43505859375
 20
-824.19580078125
 30
0.0
 10
306.6474609375
 20
-827.9345703125
 30
0.0
 10
305.60302734375
 20
-825.5087890625
 30
0.0
 10
304.21044921875
 20
-822.27392578125
 30
0.0
 10
311.035400390625
 20
-820.79150390625
 30
0.0
 10
313.329833984375
 20
-818.07373046875
 30
0.0
 10
316.996337890625
 20
-813.73046875
 30
0.0
 10
319.546875
 20
-808.5908203125
 30
0.0
 10
322.88623046875
 20
-804.009765625
 30
0.0
 10
327.038330078125
 20
-798.31396484375
 30
0.0
 10
333.638427734375
 20
-793.90478515625
 30
0.0
 10
335.927734375
 20
-787.30517578125
 30
0.0
 10
337.36767578125
 20
-783.1533203125
 30
0.0
 10
334.949951171875
 20
-778.43603515625
 30
0.0
 10
335.927734375
 20
-774.162109375
 30
0.0
 10
337.31005859375
 20
-768.11865234375
 30
0.0
 10
342.65380859375
 20
-763.33984375
 30
0.0
 10
344.0361328125
 20
-757.29638671875
 30
0.0
 10
345.6005859375
 20
-750.45751953125
 30
0.0
 10
343.500732421875
 20
-743.2509765625
 30
0.0
 10
344.0361328125
 20
-736.267578125
 30
0.0
 10
344.45263671875
 20
-730.8349609375
 30
0.0
 10
344.39453125
 20
-725.13037109375
 30
0.0
 10
346.53125
 20
-720.0859375
 30
0.0
 10
349.337890625
 20
-713.45947265625
 30
0.0
 10
359.24609375
 20
-709.8271484375
 30
0.0
 10
359.629638671875
 20
-702.68115234375
 30
0.0
 10
360.004638671875
 20
-695.6875
 30
0.0
 10
353.6796875
 20
-689.578125
 30
0.0
 10
348.7021484375
 20
-684.46923828125
 30
0.0
 10
343.15625
 20
-678.77734375
 30
0.0
 10
333.41015625
 20
-677.638671875
 30
0.0
 10
328.44287109375
 20
-671.47216796875
 30
0.0
 10
325.997314453125
 20
-668.4365234375
 30
0.0
 10
323.600830078125
 20
-664.32763671875
 30
0.0
 10
324.489990234375
 20
-660.5830078125
 30
0.0
 10
325.7060546875
 20
-655.46337890625
 30
0.0
 10
330.91455078125
 20
-651.126953125
 30
0.0
 10
336.080322265625
 20
-649.4306640625
 30
0.0
 10
342.03759765625
 20
-647.47509765625
 30
0.0
 10
348.53466796875
 20
-651.67236328125
 30
0.0
 10
354.82861328125
 20
-651.74853515625
 30
0.0
 10
363.914794921875
 20
-651.85888671875
 30
0.0
 10
374.34716796875
 20
-653.814453125
 30
0.0
 10
381.9736328125
 20
-649.06005859375
 30
0.0
 10
385.791015625
 20
-646.68017578125
 30
0.0
 10
389.39697265625
 20
-642.0166015625
 30
0.0
 10
388.80322265625
 20
-637.677734375
 30
0.0
 10
388.44677734375
 20
-635.07421875
 30
0.0
 10
385.1171875
 20
-633.767578125
 30
0.0
 10
383.0078125
 20
-632.1015625
 30
0.0
 10
379.20166015625
 20
-629.0947265625
 30
0.0
 10
373.58203125
 20
-628.04443359375
 30
0.0
 10
370.71435546875
 20
-624.1923828125
 30
0.0
 10
368.0654296875
 20
-620.63427734375
 30
0.0
 10
366.4609375
 20
-615.818359375
 30
0.0
 10
367.17919921875
 20
-611.49658203125
 30
0.0
 10
367.666015625
 20
-608.5654296875
 30
0.0
 10
371.36669921875
 20
-606.87939453125
 30
0.0
 10
372.2470703125
 20
-604.0341796875
 30
0.0
 10
373.02587890625
 20
-601.51708984375
 30
0.0
 10
373.1298828125
 20
-598.6328125
 30
0.0
 10
372.2470703125
 20
-596.14794921875
 30
0.0
 10
371.7978515625
 20
-594.88232421875
 30
0.0
 10
370.5458984375
 20
-594.03271484375
 30
0.0
 10
369.77001953125
 20
-593.05712890625
 30
0.0
 10
369.77001953125
 20
-593.05712890625
 30
0.0
 10
198.804443359375
 20
-593.14208984375
 30
0.0
 10
198.804443359375
 20
-593.14208984375
 30
0.0
 10
198.804443359375
 20
-593.14208984375
 30
0.0
 10
198.804443359375
 20
-876.39794921875
 30
0.0
 10
198.804443359375
 20
-876.39794921875
 30
0.0
 10
198.804443359375
 20
-876.39794921875
 30
0.0
 10
198.01318359375
 20
-877.19873046875
 30
0.0
 10
198.01318359375
 20
-877.19873046875
 30
0.0
  0
POLYLINE
  5
1B4
330
1F
100
AcDbEntity
  8
LAYER_1
 62
   250
100
AcDb2dPolyline
 66
     1
 10
0.0
 20
0.0
 30
0.0
  0
VERTEX
  5
1B5
330
1B4
100
AcDbEntity
  8
LAYER_1
 62
   250
100
AcDbVertex
100
AcDb2dVertex
 10
15.342041015625
 20
-1270.0615234375
 30
0.0
  0
VERTEX
  5
1B6
330
1B4
100
AcDbEntity
  8
LAYER_1
 62
   250
100
AcDbVertex
100
AcDb2dVertex
 10
1161.88623046875
 20
-1270.0615234375
 30
0.0
  0
VERTEX
  5
1B7
330
1B4
100
AcDbEntity
  8
LAYER_1
 62
   250
100
AcDbVertex
100
AcDb2dVertex
 10
1161.88623046875
 20
-15.565185546875
 30
0.0
  0
VERTEX
  5
1B8
330
1B4
100
AcDbEntity
  8
LAYER_1
 62
   250
100
AcDbVertex
100
AcDb2dVertex
 10
15.342041015625
 20
-15.565185546875
 30
0.0
  0
VERTEX
  5
1B9
330
1B4
100
AcDbEntity
  8
LAYER_1
 62
   250
100
AcDbVertex
100
AcDb2dVertex
 10
15.342041015625
 20
-1270.0615234375
 30
0.0
  0
SEQEND
  5
1BA
330
1B4
100
AcDbEntity
  8
LAYER_1
  0
ENDSEC
  0
SECTION
  2
OBJECTS
  0
DICTIONARY
  5
C
330
0
100
AcDbDictionary
  3
ACAD_GROUP
350
D
  3
ACAD_LAYOUT
350
1A
  3
ACAD_MLINESTYLE
350
17
  3
ACAD_PLOTSETTINGS
350
19
  3
ACAD_TABLESTYLE
350
1BB
  3
ACAD_VISUALSTYLE
350
2A
1001
ACAD
1000
TREAT_AS_HARD
1070
     0
  0
DICTIONARY
  5
D
102
{ACAD_REACTORS
330
C
102
}
330
C
100
AcDbDictionary
1001
ACAD
1000
TREAT_AS_HARD
1070
     0
  0
DICTIONARY
  5
1A
102
{ACAD_REACTORS
330
C
102
}
330
C
100
AcDbDictionary
1001
ACAD
1000
TREAT_AS_HARD
1070
     0
  0
DICTIONARY
  5
17
102
{ACAD_REACTORS
330
C
102
}
330
C
100
AcDbDictionary
  3
STANDARD
350
18
1001
ACAD
1000
TREAT_AS_HARD
1070
     0
  0
DICTIONARY
  5
19
102
{ACAD_REACTORS
330
C
102
}
330
C
100
AcDbDictionary
1001
ACAD
1000
TREAT_AS_HARD
1070
     0
  0
DICTIONARY
  5
1BB
102
{ACAD_REACTORS
330
C
102
}
330
C
100
AcDbDictionary
1001
ACAD
1000
TREAT_AS_HARD
1070
     0
  0
DICTIONARY
  5
2A
102
{ACAD_REACTORS
330
C
102
}
330
C
100
AcDbDictionary
  3
2DWIREFRAME
350
2F
  3
3D_HIDDEN
350
31
  3
3DWIREFRAME
350
30
  3
BASIC
350
32
  3
BRIGHTEN
350
36
  3
COLORCHANGE
350
3A
  3
CONCEPTUAL
350
34
  3
DIM
350
35
  3
FACEPATTERN
350
39
  3
FLAT
350
2B
  3
FLATWITHEDGES
350
2C
  3
GOURAUD
350
2D
  3
GOURAUDWITHEDGES
350
2E
  3
LINEPATTERN
350
38
  3
REALISTIC
350
33
  3
THICKEN
350
37
1001
ACAD
1000
TREAT_AS_HARD
1070
     0
  0
MLINESTYLE
  5
18
102
{ACAD_REACTORS
330
17
102
}
330
17
100
AcDbMlineStyle
  2
Standard
 70
     0
  3

 62
   256
 51
90.0
 52
90.0
 71
     2
 49
0.5
 62
   256
  6
BYLAYER
 49
-0.5
 62
   256
  6
BYLAYER
  0
VISUALSTYLE
  5
2F
102
{ACAD_REACTORS
330
2A
102
}
330
2A
100
AcDbVisualStyle
  2
2dWireframe
 70
     4
 71
     0
 72
     2
 73
     0
 90
        0
 40
-0.6
 41
-30.0
 62
     5
 63
     7
 74
     1
 91
        4
 64
     7
 65
   257
 75
     1
175
     1
 42
1.0
 92
        0
 66
   257
 43
1.0
 76
     1
 77
     6
 78
     2
 67
     7
 79
     5
170
     0
171
     0
290
     0
174
     0
 93
        1
 44
0.0
173
     0
291
     0
 45
0.0
1001
ACAD
1000
AcDbSavedByObjectVersion
1070
     0
  0
VISUALSTYLE
  5
31
102
{ACAD_REACTORS
330
2A
102
}
330
2A
100
AcDbVisualStyle
  2
3D Hidden
 70
     6
 71
     1
 72
     2
 73
     2
 90
        0
 40
-0.6
 41
-30.0
 62
     5
 63
     7
 74
     2
 91
        2
 64
     7
 65
   257
 75
     2
175
     1
 42
40.0
 92
        0
 66
   257
 43
1.0
 76
     1
 77
     6
 78
     2
 67
     7
 79
     3
170
     0
171
     0
290
     0
174
     0
 93
        1
 44
0.0
173
     0
291
     0
 45
0.0
1001
ACAD
1000
AcDbSavedByObjectVersion
1070
     0
  0
VISUALSTYLE
  5
30
102
{ACAD_REACTORS
330
2A
102
}
330
2A
100
AcDbVisualStyle
  2
3dWireframe
 70
     5
 71
     0
 72
     2
 73
     0
 90
        0
 40
-0.6
 41
-30.0
 62
     5
 63
     7
 74
     1
 91
        4
 64
     7
 65
   257
 75
     1
175
     1
 42
1.0
 92
        0
 66
   257
 43
1.0
 76
     1
 77
     6
 78
     2
 67
     7
 79
     5
170
     0
171
     0
290
     0
174
     0
 93
        1
 44
0.0
173
     0
291
     0
 45
0.0
1001
ACAD
1000
AcDbSavedByObjectVersion
1070
     0
  0
VISUALSTYLE
  5
32
102
{ACAD_REACTORS
330
2A
102
}
330
2A
100
AcDbVisualStyle
  2
Basic
 70
     7
 71
     1
 72
     0
 73
     1
 90
        0
 40
-0.6
 41
-30.0
 62
     5
 63
     7
 74
     0
 91
        4
 64
     7
 65
   257
 75
     1
175
     1
 42
1.0
 92
        8
 66
     7
 43
1.0
 76
     1
 77
     6
 78
     2
 67
     7
 79
     5
170
     0
171
     0
290
     0
174
     0
 93
        1
 44
0.0
173
     0
291
     1
 45
0.0
1001
ACAD
1000
AcDbSavedByObjectVersion
1070
     0
  0
VISUALSTYLE
  5
36
102
{ACAD_REACTORS
330
2A
102
}
330
2A
100
AcDbVisualStyle
  2
Brighten
 70
    12
 71
     2
 72
     2
 73
     0
 90
        0
 40
-0.6
 41
-30.0
 62
     5
 63
     7
 74
     1
 91
        4
 64
     7
 65
   257
 75
     1
175
     1
 42
1.0
 92
        8
 66
     7
 43
1.0
 76
     1
 77
     6
 78
     2
 67
     7
 79
     5
170
     0
171
     0
290
     0
174
     0
 93
        1
 44
50.0
173
     0
291
     1
 45
0.0
1001
ACAD
1000
AcDbSavedByObjectVersion
1070
     0
  0
VISUALSTYLE
  5
3A
102
{ACAD_REACTORS
330
2A
102
}
330
2A
100
AcDbVisualStyle
  2
ColorChange
 70
    16
 71
     2
 72
     2
 73
     3
 90
        0
 40
-0.6
 41
-30.0
 62
     5
 63
     8
 74
     1
 91
        4
 64
     7
 65
   257
 75
     1
175
     1
 42
1.0
 92
        8
 66
     8
 43
1.0
 76
     1
 77
     6
 78
     2
 67
     7
 79
     5
170
     0
171
     0
290
     0
174
     0
 93
        1
 44
0.0
173
     0
291
     1
 45
0.0
1001
ACAD
1000
AcDbSavedByObjectVersion
1070
     0
  0
VISUALSTYLE
  5
34
102
{ACAD_REACTORS
330
2A
102
}
330
2A
100
AcDbVisualStyle
  2
Conceptual
 70
     9
 71
     3
 72
     2
 73
     0
 90
        0
 40
-0.6
 41
-30.0
 62
     5
 63
     7
 74
     2
 91
        2
 64
     7
 65
   257
 75
     1
175
     1
 42
40.0
 92
        8
 66
     7
 43
1.0
 76
     1
 77
     6
 78
     2
 67
     7
 79
     3
170
     0
171
     0
290
     0
174
     0
 93
        1
 44
0.0
173
     0
291
     0
 45
0.0
1001
ACAD
1000
AcDbSavedByObjectVersion
1070
     0
  0
VISUALSTYLE
  5
35
102
{ACAD_REACTORS
330
2A
102
}
330
2A
100
AcDbVisualStyle
  2
Dim
 70
    11
 71
     2
 72
     2
 73
     0
 90
        0
 40
-0.6
 41
-30.0
 62
     5
 63
     7
 74
     1
 91
        4
 64
     7
 65
   257
 75
     1
175
     1
 42
1.0
 92
        8
 66
     7
 43
1.0
 76
     1
 77
     6
 78
     2
 67
     7
 79
     5
170
     0
171
     0
290
     0
174
     0
 93
        1
 44
-50.0
173
     0
291
     1
 45
0.0
1001
ACAD
1000
AcDbSavedByObjectVersion
1070
     0
  0
VISUALSTYLE
  5
39
102
{ACAD_REACTORS
330
2A
102
}
330
2A
100
AcDbVisualStyle
  2
Facepattern
 70
    15
 71
     2
 72
     2
 73
     0
 90
        0
 40
-0.6
 41
-30.0
 62
     5
 63
     7
 74
     1
 91
        4
 64
     7
 65
   257
 75
     1
175
     1
 42
1.0
 92
        8
 66
     7
 43
1.0
 76
     1
 77
     6
 78
     2
 67
     7
 79
     5
170
     0
171
     0
290
     0
174
     0
 93
        1
 44
0.0
173
     0
291
     1
 45
0.0
1001
ACAD
1000
AcDbSavedByObjectVersion
1070
     0
  0
VISUALSTYLE
  5
2B
102
{ACAD_REACTORS
330
2A
102
}
330
2A
100
AcDbVisualStyle
  2
Flat
 70
     0
 71
     2
 72
     1
 73
     1
 90
        2
 40
-0.6
 41
30.0
 62
     5
 63
     7
 74
     0
 91
        4
 64
     7
 65
   257
 75
     1
175
     1
 42
1.0
 92
        8
 66
     7
 43
1.0
 76
     1
 77
     6
 78
     2
 67
     7
 79
     5
170
     0
171
     0
290
     0
174
     0
 93
       13
 44
0.0
173
     0
291
     1
 45
0.0
1001
ACAD
1000
AcDbSavedByObjectVersion
1070
     0
  0
VISUALSTYLE
  5
2C
102
{ACAD_REACTORS
330
2A
102
}
330
2A
100
AcDbVisualStyle
  2
FlatWithEdges
 70
     1
 71
     2
 72
     1
 73
     1
 90
        2
 40
-0.6
 41
30.0
 62
     5
 63
     7
 74
     1
 91
        4
 64
     7
 65
   257
 75
     1
175
     1
 42
1.0
 92
        0
 66
   257
 43
1.0
 76
     1
 77
     6
 78
     2
 67
     7
 79
     5
170
     0
171
     0
290
     0
174
     0
 93
       13
 44
0.0
173
     0
291
     1
 45
0.0
1001
ACAD
1000
AcDbSavedByObjectVersion
1070
     0
  0
VISUALSTYLE
  5
2D
102
{ACAD_REACTORS
330
2A
102
}
330
2A
100
AcDbVisualStyle
  2
Gouraud
 70
     2
 71
     2
 72
     2
 73
     1
 90
        2
 40
-0.6
 41
30.0
 62
     5
 63
     7
 74
     0
 91
        4
 64
     7
 65
   257
 75
     1
175
     1
 42
1.0
 92
        0
 66
     7
 43
1.0
 76
     1
 77
     6
 78
     2
 67
     7
 79
     5
170
     0
171
     0
290
     0
174
     0
 93
       13
 44
0.0
173
     0
291
     1
 45
0.0
1001
ACAD
1000
AcDbSavedByObjectVersion
1070
     0
  0
VISUALSTYLE
  5
2E
102
{ACAD_REACTORS
330
2A
102
}
330
2A
100
AcDbVisualStyle
  2
GouraudWithEdges
 70
     3
 71
     2
 72
     2
 73
     1
 90
        2
 40
-0.6
 41
30.0
 62
     5
 63
     7
 74
     1
 91
        4
 64
     7
 65
   257
 75
     1
175
     1
 42
1.0
 92
        0
 66
   257
 43
1.0
 76
     1
 77
     6
 78
     2
 67
     7
 79
     5
170
     0
171
     0
290
     0
174
     0
 93
       13
 44
0.0
173
     0
291
     1
 45
0.0
1001
ACAD
1000
AcDbSavedByObjectVersion
1070
     0
  0
VISUALSTYLE
  5
38
102
{ACAD_REACTORS
330
2A
102
}
330
2A
100
AcDbVisualStyle
  2
Linepattern
 70
    14
 71
     2
 72
     2
 73
     0
 90
        0
 40
-0.6
 41
-30.0
 62
     5
 63
     7
 74
     1
 91
        4
 64
     7
 65
   257
 75
     7
175
     7
 42
1.0
 92
        8
 66
     7
 43
1.0
 76
     1
 77
     6
 78
     2
 67
     7
 79
     5
170
     0
171
     0
290
     0
174
     0
 93
        1
 44
0.0
173
     0
291
     1
 45
0.0
1001
ACAD
1000
AcDbSavedByObjectVersion
1070
     0
  0
VISUALSTYLE
  5
33
102
{ACAD_REACTORS
330
2A
102
}
330
2A
100
AcDbVisualStyle
  2
Realistic
 70
     8
 71
     2
 72
     2
 73
     0
 90
        0
 40
-0.6
 41
-30.0
 62
     5
 63
     7
 74
     1
 91
        0
 64
     7
 65
   257
 75
     1
175
     1
 42
1.0
 92
        8
 66
     8
 43
1.0
 76
     1
 77
     6
 78
     2
 67
     7
 79
     5
170
     0
171
     0
290
     0
174
     0
 93
       13
 44
0.0
173
     0
291
     0
 45
0.0
1001
ACAD
1000
AcDbSavedByObjectVersion
1070
     0
  0
VISUALSTYLE
  5
37
102
{ACAD_REACTORS
330
2A
102
}
330
2A
100
AcDbVisualStyle
  2
Thicken
 70
    13
 71
     2
 72
     2
 73
     0
 90
        0
 40
-0.6
 41
-30.0
 62
     5
 63
     7
 74
     1
 91
        4
 64
     7
 65
   257
 75
     1
175
     1
 42
1.0
 92
       12
 66
     7
 43
1.0
 76
     1
 77
     6
 78
     2
 67
     7
 79
     5
170
     0
171
     0
290
     0
174
     0
 93
        1
 44
0.0
173
     0
291
     1
 45
0.0
1001
ACAD
1000
AcDbSavedByObjectVersion
1070
     0
  0
ENDSEC
  0
EOF
