  0
SECTION
  2
HEADER
  9
$ACADVER
  1
AC1014
  9
$HANDSEED
  5
FFFF
  9
$MEASUREMENT
 70
     1
  0
ENDSEC
  0
SECTION
  2
TABLES
  0
TABLE
  2
VPORT
  5
8
330
0
100
AcDbSymbolTable
 70
     4
  0
VPORT
  5
2E
330
8
100
AcDbSymbolTableRecord
100
AcDbViewportTableRecord
  2
*ACTIVE
 70
     0
 10
0.0
 20
0.0
 11
1.0
 21
1.0
 12
210.0
 22
148.5
 13
0.0
 23
0.0
 14
10.0
 24
10.0
 15
10.0
 25
10.0
 16
0.0
 26
0.0
 36
1.0
 17
0.0
 27
0.0
 37
0.0
 40
341.0
 41
1.24
 42
50.0
 43
0.0
 44
0.0
 50
0.0
 51
0.0
 71
     0
 72
   100
 73
     1
 74
     3
 75
     0
 76
     0
 77
     0
 78
     0
  0
ENDTAB
  0
TABLE
  2
LTYPE
  5
5
330
0
100
AcDbSymbolTable
 70
     1
  0
LTYPE
  5
14
330
5
100
AcDbSymbolTableRecord
100
AcDbLinetypeTableRecord
  2
BYBLOCK
 70
     0
  3

 72
    65
 73
     0
 40
0.0
  0
LTYPE
  5
15
330
5
100
AcDbSymbolTableRecord
100
AcDbLinetypeTableRecord
  2
BYLAYER
 70
     0
  3

 72
    65
 73
     0
 40
0.0
  0
LTYPE
  5
16
330
5
100
AcDbSymbolTableRecord
100
AcDbLinetypeTableRecord
  2
CONTINUOUS
 70
     0
  3
Solid line
 72
    65
 73
     0
 40
0.0
  0
ENDTAB
  0
TABLE
  2
LAYER
  5
2
100
AcDbSymbolTable
 70
3
  0
LAYER
  5
50
100
AcDbSymbolTableRecord
100
AcDbLayerTableRecord
  2
0
 70
0
  6
CONTINUOUS
  0
LAYER
  5
51
100
AcDbSymbolTableRecord
100
AcDbLayerTableRecord
  2
pattern
 70
0
  6
CONTINUOUS
  0
LAYER
  5
52
100
AcDbSymbolTableRecord
100
AcDbLayerTableRecord
  2
dino
 70
0
  6
CONTINUOUS
  0
ENDTAB
  0
TABLE
  2
STYLE
  5
3
330
0
100
AcDbSymbolTable
 70
     1
  0
STYLE
  5
11
330
3
100
AcDbSymbolTableRecord
100
AcDbTextStyleTableRecord
  2
STANDARD
 70
     0
 40
0.0
 41
1.0
 50
0.0
 71
     0
 42
2.5
  3
txt
  4

  0
ENDTAB
  0
TABLE
  2
VIEW
  5
6
330
0
100
AcDbSymbolTable
 70
     0
  0
ENDTAB
  0
TABLE
  2
UCS
  5
7
330
0
100
AcDbSymbolTable
 70
     0
  0
ENDTAB
  0
TABLE
  2
APPID
  5
9
330
0
100
AcDbSymbolTable
 70
     2
  0
APPID
  5
12
330
9
100
AcDbSymbolTableRecord
100
AcDbRegAppTableRecord
  2
ACAD
 70
     0
  0
ENDTAB
  0
TABLE
  2
DIMSTYLE
  5
A
330
0
100
AcDbSymbolTable
 70
     1
  0
DIMSTYLE
105
27
330
A
100
AcDbSymbolTableRecord
100
AcDbDimStyleTableRecord
  2
ISO-25
 70
     0
  3

  4

  5

  6

  7

 40
1.0
 41
2.5
 42
0.625
 43
3.75
 44
1.25
 45
0.0
 46
0.0
 47
0.0
 48
0.0
140
2.5
141
2.5
142
0.0
143
0.03937007874016
144
1.0
145
0.0
146
1.0
147
0.625
 71
     0
 72
     0
 73
     0
 74
     0
 75
     0
 76
     0
 77
     1
 78
     8
170
     0
171
     3
172
     1
173
     0
174
     0
175
     0
176
     0
177
     0
178
     0
270
     2
271
     2
272
     2
273
     2
274
     3
340
11
275
     0
280
     0
281
     0
282
     0
283
     0
284
     8
285
     0
286
     0
287
     3
288
     0
  0
ENDTAB
  0
TABLE
  2
BLOCK_RECORD
  5
1
330
0
100
AcDbSymbolTable
 70
     1
  0
BLOCK_RECORD
  5
1F
330
1
100
AcDbSymbolTableRecord
100
AcDbBlockTableRecord
  2
*MODEL_SPACE
  0
BLOCK_RECORD
  5
1B
330
1
100
AcDbSymbolTableRecord
100
AcDbBlockTableRecord
  2
*PAPER_SPACE
  0
ENDTAB
  0
ENDSEC
  0
SECTION
  2
BLOCKS
  0
BLOCK
  5
20
330
1F
100
AcDbEntity
  8
0
100
AcDbBlockBegin
  2
*MODEL_SPACE
 70
     0
 10
0.0
 20
0.0
 30
0.0
  3
*MODEL_SPACE
  1

  0
ENDBLK
  5
21
330
1F
100
AcDbEntity
  8
0
100
AcDbBlockEnd
  0
BLOCK
  5
1C
330
1B
100
AcDbEntity
 67
     1
  8
0
100
AcDbBlockBegin
  2
*PAPER_SPACE
  1

  0
ENDBLK
  5
1D
330
1B
100
AcDbEntity
 67
     1
  8
0
100
AcDbBlockEnd
  0
ENDSEC
  0
SECTION
  2
ENTITIES
  0
SPLINE
  5
100
100
AcDbEntity
  8
dino
 62
1
100
AcDbSpline
 70
8
 71
3
 72
8
 73
4
 74
0
 40
0
 40
0
 40
0
 40
0
 40
1
 40
1
 40
1
 40
1
 10
217.173827
 20
662.725374
 30
0.0
 10
217.012835
 20
662.726942
 30
0.0
 10
216.864891
 20
662.718398
 30
0.0
 10
216.706643
 20
662.717558
 30
0.0
  0
SPLINE
  5
101
100
AcDbEntity
  8
dino
 62
1
100
AcDbSpline
 70
8
 71
3
 72
8
 73
4
 74
0
 40
0
 40
0
 40
0
 40
0
 40
1
 40
1
 40
1
 40
1
 10
208.201955
 20
661.575370
 30
0.0
 10
201.296595
 20
659.867271
 30
0.0
 10
194.289019
 20
656.427647
 30
0.0
 10
189.655083
 20
652.408183
 30
0.0
  0
SPLINE
  5
102
100
AcDbEntity
  8
dino
 62
1
100
AcDbSpline
 70
8
 71
3
 72
8
 73
4
 74
0
 40
0
 40
0
 40
0
 40
0
 40
1
 40
1
 40
1
 40
1
 10
189.655083
 20
652.408183
 30
0.0
 10
187.677867
 20
650.693152
 30
0.0
 10
185.849787
 20
648.830771
 30
0.0
 10
184.147267
 20
646.859746
 30
0.0
  0
LWPOLYLINE
  5
103
100
AcDbEntity
  8
dino
 62
1
100
AcDbPolyline
 90
4
 70
1
 10
216.706643
 20
662.717558
 30
0.0
 10
216.706643
 20
645.287871
 30
0.0
 10
208.201955
 20
645.287871
 30
0.0
 10
208.201955
 20
661.575370
 30
0.0
  0
SPLINE
  5
104
100
AcDbEntity
  8
dino
 62
1
100
AcDbSpline
 70
8
 71
3
 72
8
 73
4
 74
0
 40
0
 40
0
 40
0
 40
0
 40
1
 40
1
 40
1
 40
1
 10
179.051955
 20
640.051936
 30
0.0
 10
176.149363
 20
635.582667
 30
0.0
 10
173.753387
 20
630.746207
 30
0.0
 10
171.787891
 20
625.739436
 30
0.0
  0
LWPOLYLINE
  5
105
100
AcDbEntity
  8
dino
 62
1
100
AcDbPolyline
 90
4
 70
1
 10
184.147267
 20
646.859746
 30
0.0
 10
198.303515
 20
636.301936
 30
0.0
 10
193.219139
 20
629.484749
 30
0.0
 10
179.051955
 20
640.051936
 30
0.0
  0
SPLINE
  5
106
100
AcDbEntity
  8
dino
 62
1
100
AcDbSpline
 70
8
 71
3
 72
8
 73
4
 74
0
 40
0
 40
0
 40
0
 40
0
 40
1
 40
1
 40
1
 40
1
 10
169.020707
 20
617.698811
 30
0.0
 10
167.457451
 20
612.477311
 30
0.0
 10
166.296675
 20
607.198961
 30
0.0
 10
165.453515
 20
602.073811
 30
0.0
  0
LWPOLYLINE
  5
107
100
AcDbEntity
  8
dino
 62
1
100
AcDbPolyline
 90
4
 70
1
 10
171.787891
 20
625.739436
 30
0.0
 10
188.525395
 20
620.172249
 30
0.0
 10
185.841019
 20
612.103499
 30
0.0
 10
169.020707
 20
617.698811
 30
0.0
  0
SPLINE
  5
108
100
AcDbEntity
  8
dino
 62
1
100
AcDbSpline
 70
8
 71
3
 72
8
 73
4
 74
0
 40
0
 40
0
 40
0
 40
0
 40
1
 40
1
 40
1
 40
1
 10
164.317579
 20
593.645687
 30
0.0
 10
164.174331
 20
592.282370
 30
0.0
 10
164.050011
 20
590.939051
 30
0.0
 10
163.947267
 20
589.623811
 30
0.0
  0
SPLINE
  5
109
100
AcDbEntity
  8
dino
 62
1
100
AcDbSpline
 70
8
 71
3
 72
8
 73
4
 74
0
 40
0
 40
0
 40
0
 40
0
 40
1
 40
1
 40
1
 40
1
 10
163.947267
 20
589.623811
 30
0.0
 10
163.647979
 20
585.792640
 30
0.0
 10
163.411123
 20
581.789744
 30
0.0
 10
163.212891
 20
577.667560
 30
0.0
  0
LWPOLYLINE
  5
10a
100
AcDbEntity
  8
dino
 62
1
100
AcDbPolyline
 90
4
 70
1
 10
165.453515
 20
602.073811
 30
0.0
 10
182.972267
 20
599.503499
 30
0.0
 10
181.737891
 20
591.089436
 30
0.0
 10
164.317579
 20
593.645687
 30
0.0
  0
SPLINE
  5
10b
100
AcDbEntity
  8
dino
 62
1
100
AcDbSpline
 70
8
 71
3
 72
8
 73
4
 74
0
 40
0
 40
0
 40
0
 40
0
 40
1
 40
1
 40
1
 40
1
 10
162.864451
 20
569.172248
 30
0.0
 10
162.687563
 20
564.007864
 30
0.0
 10
162.568011
 20
558.625176
 30
0.0
 10
162.461331
 20
553.173808
 30
0.0
  0
LWPOLYLINE
  5
10c
100
AcDbEntity
  8
dino
 62
1
100
AcDbPolyline
 90
4
 70
1
 10
163.212891
 20
577.667560
 30
0.0
 10
180.878515
 20
577.034752
 30
0.0
 10
180.573827
 20
568.536312
 30
0.0
 10
162.864451
 20
569.172248
 30
0.0
  0
SPLINE
  5
10d
100
AcDbEntity
  8
dino
 62
1
100
AcDbSpline
 70
8
 71
3
 72
8
 73
4
 74
0
 40
0
 40
0
 40
0
 40
0
 40
1
 40
1
 40
1
 40
1
 10
162.300395
 20
544.672248
 30
0.0
 10
162.214555
 20
539.407696
 30
0.0
 10
162.125195
 20
534.073232
 30
0.0
 10
162.033203
 20
528.673808
 30
0.0
  0
LWPOLYLINE
  5
10e
100
AcDbEntity
  8
dino
 62
1
100
AcDbPolyline
 90
4
 70
1
 10
162.461331
 20
553.173808
 30
0.0
 10
180.173827
 20
552.841000
 30
0.0
 10
180.014451
 20
544.337872
 30
0.0
 10
162.300395
 20
544.672248
 30
0.0
  0
SPLINE
  5
10f
100
AcDbEntity
  8
dino
 62
1
100
AcDbSpline
 70
8
 71
3
 72
8
 73
4
 74
0
 40
0
 40
0
 40
0
 40
0
 40
1
 40
1
 40
1
 40
1
 10
161.880083
 20
520.170688
 30
0.0
 10
161.769851
 20
514.852360
 30
0.0
 10
161.636211
 20
509.516632
 30
0.0
 10
161.456643
 20
504.181624
 30
0.0
  0
LWPOLYLINE
  5
110
100
AcDbEntity
  8
dino
 62
1
100
AcDbPolyline
 90
4
 70
1
 10
162.033203
 20
528.673808
 30
0.0
 10
179.717579
 20
528.353496
 30
0.0
 10
179.562891
 20
519.850376
 30
0.0
 10
161.880083
 20
520.170688
 30
0.0
  0
SPLINE
  5
111
100
AcDbEntity
  8
dino
 62
1
100
AcDbSpline
 70
8
 71
3
 72
8
 73
4
 74
0
 40
0
 40
0
 40
0
 40
0
 40
1
 40
1
 40
1
 40
1
 10
161.131643
 20
495.683184
 30
0.0
 10
160.896187
 20
490.316448
 30
0.0
 10
160.597411
 20
484.984488
 30
0.0
 10
160.226955
 20
479.714432
 30
0.0
  0
LWPOLYLINE
  5
112
100
AcDbEntity
  8
dino
 62
1
100
AcDbPolyline
 90
4
 70
1
 10
161.456643
 20
504.181624
 30
0.0
 10
179.142579
 20
503.401936
 30
0.0
 10
178.769139
 20
494.906624
 30
0.0
 10
161.131643
 20
495.683184
 30
0.0
  0
SPLINE
  5
113
100
AcDbEntity
  8
dino
 62
1
100
AcDbSpline
 70
8
 71
3
 72
8
 73
4
 74
0
 40
0
 40
0
 40
0
 40
0
 40
1
 40
1
 40
1
 40
1
 10
159.573827
 20
471.236312
 30
0.0
 10
159.137059
 20
465.921688
 30
0.0
 10
158.741523
 20
460.602696
 30
0.0
 10
158.362891
 20
455.281624
 30
0.0
  0
LWPOLYLINE
  5
114
100
AcDbEntity
  8
dino
 62
1
100
AcDbPolyline
 90
4
 70
1
 10
160.226955
 20
479.714432
 30
0.0
 10
177.878515
 20
478.369120
 30
0.0
 10
177.231643
 20
469.889440
 30
0.0
 10
159.573827
 20
471.236312
 30
0.0
  0
SPLINE
  5
115
100
AcDbEntity
  8
dino
 62
1
100
AcDbSpline
 70
8
 71
3
 72
8
 73
4
 74
0
 40
0
 40
0
 40
0
 40
0
 40
1
 40
1
 40
1
 40
1
 10
157.756643
 20
446.798808
 30
0.0
 10
157.379859
 20
441.479064
 30
0.0
 10
156.995923
 20
436.159864
 30
0.0
 10
156.567579
 20
430.845688
 30
0.0
  0
LWPOLYLINE
  5
116
100
AcDbEntity
  8
dino
 62
1
100
AcDbPolyline
 90
4
 70
1
 10
158.362891
 20
455.281624
 30
0.0
 10
176.019139
 20
454.019120
 30
0.0
 10
175.411331
 20
445.536312
 30
0.0
 10
157.756643
 20
446.798808
 30
0.0
  0
SPLINE
  5
117
100
AcDbEntity
  8
dino
 62
1
100
AcDbSpline
 70
8
 71
3
 72
8
 73
4
 74
0
 40
0
 40
0
 40
0
 40
0
 40
1
 40
1
 40
1
 40
1
 10
155.837891
 20
422.373808
 30
0.0
 10
155.352915
 20
417.065064
 30
0.0
 10
154.813819
 20
411.761864
 30
0.0
 10
154.167579
 20
406.470688
 30
0.0
  0
LWPOLYLINE
  5
118
100
AcDbEntity
  8
dino
 62
1
100
AcDbPolyline
 90
4
 70
1
 10
156.567579
 20
430.845688
 30
0.0
 10
174.175395
 20
429.378496
 30
0.0
 10
173.469139
 20
420.905064
 30
0.0
 10
155.837891
 20
422.373808
 30
0.0
  0
SPLINE
  5
119
100
AcDbEntity
  8
dino
 62
1
100
AcDbSpline
 70
8
 71
3
 72
8
 73
4
 74
0
 40
0
 40
0
 40
0
 40
0
 40
1
 40
1
 40
1
 40
1
 10
153.069139
 20
398.037872
 30
0.0
 10
152.372419
 20
392.754456
 30
0.0
 10
151.659035
 20
387.468896
 30
0.0
 10
150.848827
 20
382.197248
 30
0.0
  0
LWPOLYLINE
  5
11a
100
AcDbEntity
  8
dino
 62
1
100
AcDbPolyline
 90
4
 70
1
 10
154.167579
 20
406.470688
 30
0.0
 10
171.755083
 20
404.125376
 30
0.0
 10
170.630083
 20
395.695688
 30
0.0
 10
153.069139
 20
398.037872
 30
0.0
  0
SPLINE
  5
11b
100
AcDbEntity
  8
dino
 62
1
100
AcDbSpline
 70
8
 71
3
 72
8
 73
4
 74
0
 40
0
 40
0
 40
0
 40
0
 40
1
 40
1
 40
1
 40
1
 10
149.456643
 20
373.806624
 30
0.0
 10
148.516371
 20
368.560432
 30
0.0
 10
147.437459
 20
363.345032
 30
0.0
 10
146.122267
 20
358.187872
 30
0.0
  0
LWPOLYLINE
  5
11c
100
AcDbEntity
  8
dino
 62
1
100
AcDbPolyline
 90
4
 70
1
 10
150.848827
 20
382.197248
 30
0.0
 10
168.347267
 20
379.575376
 30
0.0
 10
167.086331
 20
371.166000
 30
0.0
 10
149.456643
 20
373.806624
 30
0.0
  0
SPLINE
  5
11d
100
AcDbEntity
  8
dino
 62
1
100
AcDbSpline
 70
8
 71
3
 72
8
 73
4
 74
0
 40
0
 40
0
 40
0
 40
0
 40
1
 40
1
 40
1
 40
1
 10
143.817579
 20
350.001936
 30
0.0
 10
142.259235
 20
344.917248
 30
0.0
 10
140.489923
 20
339.893928
 30
0.0
 10
138.545707
 20
334.934752
 30
0.0
  0
LWPOLYLINE
  5
11e
100
AcDbEntity
  8
dino
 62
1
100
AcDbPolyline
 90
4
 70
1
 10
146.122267
 20
358.187872
 30
0.0
 10
163.269139
 20
353.683184
 30
0.0
 10
161.109771
 20
345.458184
 30
0.0
 10
143.817579
 20
350.001936
 30
0.0
  0
SPLINE
  5
11f
100
AcDbEntity
  8
dino
 62
1
100
AcDbSpline
 70
8
 71
3
 72
8
 73
4
 74
0
 40
0
 40
0
 40
0
 40
0
 40
1
 40
1
 40
1
 40
1
 10
135.297267
 20
327.075376
 30
0.0
 10
133.519115
 20
322.967728
 30
0.0
 10
131.647019
 20
318.902648
 30
0.0
 10
129.680083
 20
314.892560
 30
0.0
  0
SPLINE
  5
120
100
AcDbEntity
  8
dino
 62
1
100
AcDbSpline
 70
8
 71
3
 72
8
 73
4
 74
0
 40
0
 40
0
 40
0
 40
0
 40
1
 40
1
 40
1
 40
1
 10
129.680083
 20
314.892560
 30
0.0
 10
129.305923
 20
314.129752
 30
0.0
 10
128.918675
 20
313.373048
 30
0.0
 10
128.525395
 20
312.620688
 30
0.0
  0
LWPOLYLINE
  5
121
100
AcDbEntity
  8
dino
 62
1
100
AcDbPolyline
 90
4
 70
1
 10
138.545707
 20
334.934752
 30
0.0
 10
155.012891
 20
328.195688
 30
0.0
 10
151.792579
 20
320.325376
 30
0.0
 10
135.297267
 20
327.075376
 30
0.0
  0
SPLINE
  5
122
100
AcDbEntity
  8
dino
 62
1
100
AcDbSpline
 70
8
 71
3
 72
8
 73
4
 74
0
 40
0
 40
0
 40
0
 40
0
 40
1
 40
1
 40
1
 40
1
 10
124.326955
 20
305.225376
 30
0.0
 10
121.575443
 20
300.665768
 30
0.0
 10
118.653667
 20
296.199104
 30
0.0
 10
115.837891
 20
291.672248
 30
0.0
  0
LWPOLYLINE
  5
123
100
AcDbEntity
  8
dino
 62
1
100
AcDbPolyline
 90
4
 70
1
 10
128.525395
 20
312.620688
 30
0.0
 10
144.064451
 20
303.862872
 30
0.0
 10
139.889451
 20
296.455064
 30
0.0
 10
124.326955
 20
305.225376
 30
0.0
  0
SPLINE
  5
124
100
AcDbEntity
  8
dino
 62
1
100
AcDbSpline
 70
8
 71
3
 72
8
 73
4
 74
0
 40
0
 40
0
 40
0
 40
0
 40
1
 40
1
 40
1
 40
1
 10
111.509771
 20
284.353496
 30
0.0
 10
109.638211
 20
280.783608
 30
0.0
 10
108.132219
 20
276.978584
 30
0.0
 10
105.655083
 20
273.812872
 30
0.0
  0
SPLINE
  5
125
100
AcDbEntity
  8
dino
 62
1
100
AcDbSpline
 70
8
 71
3
 72
8
 73
4
 74
0
 40
0
 40
0
 40
0
 40
0
 40
1
 40
1
 40
1
 40
1
 10
105.655083
 20
273.812872
 30
0.0
 10
103.817995
 20
271.465128
 30
0.0
 10
101.575883
 20
269.392472
 30
0.0
 10
99.106643
 20
267.722248
 30
0.0
  0
SPLINE
  5
126
100
AcDbEntity
  8
dino
 62
1
100
AcDbSpline
 70
8
 71
3
 72
8
 73
4
 74
0
 40
0
 40
0
 40
0
 40
0
 40
1
 40
1
 40
1
 40
1
 10
99.106643
 20
267.722248
 30
0.0
 10
98.277531
 20
267.161424
 30
0.0
 10
96.964523
 20
267.261856
 30
0.0
 10
96.389451
 20
266.442560
 30
0.0
  0
SPLINE
  5
127
100
AcDbEntity
  8
dino
 62
1
100
AcDbSpline
 70
8
 71
3
 72
8
 73
4
 74
0
 40
0
 40
0
 40
0
 40
0
 40
1
 40
1
 40
1
 40
1
 10
96.389451
 20
266.442560
 30
0.0
 10
95.500611
 20
265.176240
 30
0.0
 10
96.682499
 20
263.188544
 30
0.0
 10
95.956643
 20
261.822248
 30
0.0
  0
SPLINE
  5
128
100
AcDbEntity
  8
dino
 62
1
100
AcDbSpline
 70
8
 71
3
 72
8
 73
4
 74
0
 40
0
 40
0
 40
0
 40
0
 40
1
 40
1
 40
1
 40
1
 10
95.956643
 20
261.822248
 30
0.0
 10
95.194587
 20
260.387816
 30
0.0
 10
93.759611
 20
259.150216
 30
0.0
 10
92.191019
 20
258.728496
 30
0.0
  0
SPLINE
  5
129
100
AcDbEntity
  8
dino
 62
1
100
AcDbSpline
 70
8
 71
3
 72
8
 73
4
 74
0
 40
0
 40
0
 40
0
 40
0
 40
1
 40
1
 40
1
 40
1
 10
92.191019
 20
258.728496
 30
0.0
 10
90.458091
 20
258.262592
 30
0.0
 10
88.669499
 20
259.710480
 30
0.0
 10
86.878515
 20
259.598808
 30
0.0
  0
SPLINE
  5
12a
100
AcDbEntity
  8
dino
 62
1
100
AcDbSpline
 70
8
 71
3
 72
8
 73
4
 74
0
 40
0
 40
0
 40
0
 40
0
 40
1
 40
1
 40
1
 40
1
 10
86.878515
 20
259.598808
 30
0.0
 10
84.739595
 20
259.465440
 30
0.0
 10
82.254667
 20
259.266960
 30
0.0
 10
80.711331
 20
257.780064
 30
0.0
  0
SPLINE
  5
12b
100
AcDbEntity
  8
dino
 62
1
100
AcDbSpline
 70
8
 71
3
 72
8
 73
4
 74
0
 40
0
 40
0
 40
0
 40
0
 40
1
 40
1
 40
1
 40
1
 10
80.711331
 20
257.780064
 30
0.0
 10
78.836211
 20
255.973520
 30
0.0
 10
79.474275
 20
252.659240
 30
0.0
 10
78.223829
 20
250.375376
 30
0.0
  0
SPLINE
  5
12c
100
AcDbEntity
  8
dino
 62
1
100
AcDbSpline
 70
8
 71
3
 72
8
 73
4
 74
0
 40
0
 40
0
 40
0
 40
0
 40
1
 40
1
 40
1
 40
1
 10
78.223829
 20
250.375376
 30
0.0
 10
77.433117
 20
248.931184
 30
0.0
 10
76.405138
 20
247.564792
 30
0.0
 10
75.126954
 20
246.526936
 30
0.0
  0
SPLINE
  5
12d
100
AcDbEntity
  8
dino
 62
1
100
AcDbSpline
 70
8
 71
3
 72
8
 73
4
 74
0
 40
0
 40
0
 40
0
 40
0
 40
1
 40
1
 40
1
 40
1
 10
75.126954
 20
246.526936
 30
0.0
 10
75.123754
 20
246.524536
 30
0.0
 10
75.119834
 20
246.522936
 30
0.0
 10
75.116018
 20
246.522136
 30
0.0
  0
SPLINE
  5
12e
100
AcDbEntity
  8
dino
 62
1
100
AcDbSpline
 70
8
 71
3
 72
8
 73
4
 74
0
 40
0
 40
0
 40
0
 40
0
 40
1
 40
1
 40
1
 40
1
 10
75.116018
 20
246.522136
 30
0.0
 10
72.400618
 20
245.833872
 30
0.0
 10
69.425135
 20
247.013128
 30
0.0
 10
66.714455
 20
246.306512
 30
0.0
  0
SPLINE
  5
12f
100
AcDbEntity
  8
dino
 62
1
100
AcDbSpline
 70
8
 71
3
 72
8
 73
4
 74
0
 40
0
 40
0
 40
0
 40
0
 40
1
 40
1
 40
1
 40
1
 10
66.714455
 20
246.306512
 30
0.0
 10
64.319863
 20
245.682288
 30
0.0
 10
62.001977
 20
244.485160
 30
0.0
 10
60.145705
 20
242.848696
 30
0.0
  0
SPLINE
  5
130
100
AcDbEntity
  8
dino
 62
1
100
AcDbSpline
 70
8
 71
3
 72
8
 73
4
 74
0
 40
0
 40
0
 40
0
 40
0
 40
1
 40
1
 40
1
 40
1
 10
60.145705
 20
242.848696
 30
0.0
 10
59.442617
 20
242.228864
 30
0.0
 10
58.819045
 20
241.216192
 30
0.0
 10
58.533205
 20
240.544008
 30
0.0
  0
SPLINE
  5
131
100
AcDbEntity
  8
dino
 62
1
100
AcDbSpline
 70
8
 71
3
 72
8
 73
4
 74
0
 40
0
 40
0
 40
0
 40
0
 40
1
 40
1
 40
1
 40
1
 10
58.533205
 20
240.544008
 30
0.0
 10
58.247357
 20
239.871864
 30
0.0
 10
58.252827
 20
239.211168
 30
0.0
 10
58.322267
 20
238.639328
 30
0.0
  0
SPLINE
  5
132
100
AcDbEntity
  8
dino
 62
1
100
AcDbSpline
 70
8
 71
3
 72
8
 73
4
 74
0
 40
0
 40
0
 40
0
 40
0
 40
1
 40
1
 40
1
 40
1
 10
58.322267
 20
238.639328
 30
0.0
 10
58.461155
 20
237.495616
 30
0.0
 10
58.794199
 20
236.217104
 30
0.0
 10
58.094143
 20
232.336200
 30
0.0
  0
SPLINE
  5
133
100
AcDbEntity
  8
dino
 62
1
100
AcDbSpline
 70
8
 71
3
 72
8
 73
4
 74
0
 40
0
 40
0
 40
0
 40
0
 40
1
 40
1
 40
1
 40
1
 10
58.094143
 20
232.336200
 30
0.0
 10
58.089343
 20
232.313320
 30
0.0
 10
58.087183
 20
232.290680
 30
0.0
 10
58.084767
 20
232.267480
 30
0.0
  0
SPLINE
  5
134
100
AcDbEntity
  8
dino
 62
1
100
AcDbSpline
 70
8
 71
3
 72
8
 73
4
 74
0
 40
0
 40
0
 40
0
 40
0
 40
1
 40
1
 40
1
 40
1
 10
58.084767
 20
232.267480
 30
0.0
 10
57.907583
 20
230.600120
 30
0.0
 10
54.739690
 20
226.561312
 30
0.0
 10
53.306642
 20
225.394040
 30
0.0
  0
SPLINE
  5
135
100
AcDbEntity
  8
dino
 62
1
100
AcDbSpline
 70
8
 71
3
 72
8
 73
4
 74
0
 40
0
 40
0
 40
0
 40
0
 40
1
 40
1
 40
1
 40
1
 10
53.306642
 20
225.394040
 30
0.0
 10
47.592634
 20
220.739784
 30
0.0
 10
41.493956
 20
217.235992
 30
0.0
 10
36.083204
 20
211.804984
 30
0.0
  0
SPLINE
  5
136
100
AcDbEntity
  8
dino
 62
1
100
AcDbSpline
 70
8
 71
3
 72
8
 73
4
 74
0
 40
0
 40
0
 40
0
 40
0
 40
1
 40
1
 40
1
 40
1
 10
36.083204
 20
211.804984
 30
0.0
 10
27.653188
 20
203.343416
 30
0.0
 10
20.307630
 20
196.062464
 30
0.0
 10
11.078516
 20
188.472168
 30
0.0
  0
SPLINE
  5
137
100
AcDbEntity
  8
dino
 62
1
100
AcDbSpline
 70
8
 71
3
 72
8
 73
4
 74
0
 40
0
 40
0
 40
0
 40
0
 40
1
 40
1
 40
1
 40
1
 10
11.078516
 20
188.472168
 30
0.0
 10
9.699916
 20
187.338360
 30
0.0
 10
7.795730
 20
185.622992
 30
0.0
 10
6.161329
 20
183.726856
 30
0.0
  0
SPLINE
  5
138
100
AcDbEntity
  8
dino
 62
1
100
AcDbSpline
 70
8
 71
3
 72
8
 73
4
 74
0
 40
0
 40
0
 40
0
 40
0
 40
1
 40
1
 40
1
 40
1
 10
6.161329
 20
183.726856
 30
0.0
 10
4.526921
 20
181.830712
 30
0.0
 10
3.108851
 20
179.797936
 30
0.0
 10
2.892579
 20
177.712792
 30
0.0
  0
SPLINE
  5
139
100
AcDbEntity
  8
dino
 62
1
100
AcDbSpline
 70
8
 71
3
 72
8
 73
4
 74
0
 40
0
 40
0
 40
0
 40
0
 40
1
 40
1
 40
1
 40
1
 10
2.892579
 20
177.712792
 30
0.0
 10
2.708819
 20
175.940880
 30
0.0
 10
3.113065
 20
173.780512
 30
0.0
 10
3.936329
 20
171.872168
 30
0.0
  0
SPLINE
  5
13a
100
AcDbEntity
  8
dino
 62
1
100
AcDbSpline
 70
8
 71
3
 72
8
 73
4
 74
0
 40
0
 40
0
 40
0
 40
0
 40
1
 40
1
 40
1
 40
1
 10
3.936329
 20
171.872168
 30
0.0
 10
4.741089
 20
170.006720
 30
0.0
 10
5.967893
 20
168.312672
 30
0.0
 10
7.794142
 20
167.839360
 30
0.0
  0
SPLINE
  5
13b
100
AcDbEntity
  8
dino
 62
1
100
AcDbSpline
 70
8
 71
3
 72
8
 73
4
 74
0
 40
0
 40
0
 40
0
 40
0
 40
1
 40
1
 40
1
 40
1
 10
7.794142
 20
167.839360
 30
0.0
 10
7.831662
 20
167.806480
 30
0.0
 10
7.961566
 20
167.683632
 30
0.0
 10
8.169142
 20
167.573728
 30
0.0
  0
SPLINE
  5
13c
100
AcDbEntity
  8
dino
 62
1
100
AcDbSpline
 70
8
 71
3
 72
8
 73
4
 74
0
 40
0
 40
0
 40
0
 40
0
 40
1
 40
1
 40
1
 40
1
 10
8.169142
 20
167.573728
 30
0.0
 10
8.615014
 20
167.337640
 30
0.0
 10
9.177646
 20
167.241016
 30
0.0
 10
10.264454
 20
167.234672
 30
0.0
  0
SPLINE
  5
13d
100
AcDbEntity
  8
dino
 62
1
100
AcDbSpline
 70
8
 71
3
 72
8
 73
4
 74
0
 40
0
 40
0
 40
0
 40
0
 40
1
 40
1
 40
1
 40
1
 10
10.264454
 20
167.234672
 30
0.0
 10
10.425782
 20
167.234056
 30
0.0
 10
10.584623
 20
167.276832
 30
0.0
 10
10.725391
 20
167.356544
 30
0.0
  0
SPLINE
  5
13e
100
AcDbEntity
  8
dino
 62
1
100
AcDbSpline
 70
8
 71
3
 72
8
 73
4
 74
0
 40
0
 40
0
 40
0
 40
0
 40
1
 40
1
 40
1
 40
1
 10
10.725391
 20
167.356544
 30
0.0
 10
11.188127
 20
166.972872
 30
0.0
 10
11.686751
 20
166.491640
 30
0.0
 10
12.130079
 20
166.181544
 30
0.0
  0
SPLINE
  5
13f
100
AcDbEntity
  8
dino
 62
1
100
AcDbSpline
 70
8
 71
3
 72
8
 73
4
 74
0
 40
0
 40
0
 40
0
 40
0
 40
1
 40
1
 40
1
 40
1
 10
12.130079
 20
166.181544
 30
0.0
 10
13.220879
 20
165.418400
 30
0.0
 10
14.265790
 20
164.853784
 30
0.0
 10
15.419142
 20
164.915920
 30
0.0
  0
SPLINE
  5
140
100
AcDbEntity
  8
dino
 62
1
100
AcDbSpline
 70
8
 71
3
 72
8
 73
4
 74
0
 40
0
 40
0
 40
0
 40
0
 40
1
 40
1
 40
1
 40
1
 10
15.419142
 20
164.915920
 30
0.0
 10
15.832470
 20
164.938800
 30
0.0
 10
16.182117
 20
165.233528
 30
0.0
 10
16.278516
 20
165.640920
 30
0.0
  0
SPLINE
  5
141
100
AcDbEntity
  8
dino
 62
1
100
AcDbSpline
 70
8
 71
3
 72
8
 73
4
 74
0
 40
0
 40
0
 40
0
 40
0
 40
1
 40
1
 40
1
 40
1
 10
16.278516
 20
165.640920
 30
0.0
 10
16.576044
 20
165.537960
 30
0.0
 10
16.802284
 20
165.358336
 30
0.0
 10
17.128516
 20
165.290920
 30
0.0
  0
SPLINE
  5
142
100
AcDbEntity
  8
dino
 62
1
100
AcDbSpline
 70
8
 71
3
 72
8
 73
4
 74
0
 40
0
 40
0
 40
0
 40
0
 40
1
 40
1
 40
1
 40
1
 10
17.128516
 20
165.290920
 30
0.0
 10
17.848021
 20
165.141944
 30
0.0
 10
18.449342
 20
165.850264
 30
0.0
 10
18.194142
 20
166.547168
 30
0.0
  0
SPLINE
  5
143
100
AcDbEntity
  8
dino
 62
1
100
AcDbSpline
 70
8
 71
3
 72
8
 73
4
 74
0
 40
0
 40
0
 40
0
 40
0
 40
1
 40
1
 40
1
 40
1
 10
18.194142
 20
166.547168
 30
0.0
 10
18.166142
 20
166.623648
 30
0.0
 10
18.084874
 20
166.674176
 30
0.0
 10
18.051954
 20
166.745608
 30
0.0
  0
SPLINE
  5
144
100
AcDbEntity
  8
dino
 62
1
100
AcDbSpline
 70
8
 71
3
 72
8
 73
4
 74
0
 40
0
 40
0
 40
0
 40
0
 40
1
 40
1
 40
1
 40
1
 10
18.051954
 20
166.745608
 30
0.0
 10
18.603898
 20
166.990368
 30
0.0
 10
18.785959
 20
167.691400
 30
0.0
 10
18.425391
 20
168.179984
 30
0.0
  0
SPLINE
  5
145
100
AcDbEntity
  8
dino
 62
1
100
AcDbSpline
 70
8
 71
3
 72
8
 73
4
 74
0
 40
0
 40
0
 40
0
 40
0
 40
1
 40
1
 40
1
 40
1
 10
18.425391
 20
168.179984
 30
0.0
 10
15.954343
 20
171.521448
 30
0.0
 10
14.269118
 20
173.571056
 30
0.0
 10
13.414454
 20
174.840920
 30
0.0
  0
SPLINE
  5
146
100
AcDbEntity
  8
dino
 62
1
100
AcDbSpline
 70
8
 71
3
 72
8
 73
4
 74
0
 40
0
 40
0
 40
0
 40
0
 40
1
 40
1
 40
1
 40
1
 10
13.414454
 20
174.840920
 30
0.0
 10
12.987110
 20
175.475848
 30
0.0
 10
12.793020
 20
175.913320
 30
0.0
 10
12.758204
 20
176.095608
 30
0.0
  0
SPLINE
  5
147
100
AcDbEntity
  8
dino
 62
1
100
AcDbSpline
 70
8
 71
3
 72
8
 73
4
 74
0
 40
0
 40
0
 40
0
 40
0
 40
1
 40
1
 40
1
 40
1
 10
12.758204
 20
176.095608
 30
0.0
 10
12.723404
 20
176.277888
 30
0.0
 10
12.700012
 20
176.205592
 30
0.0
 10
12.851954
 20
176.381544
 30
0.0
  0
LWPOLYLINE
  5
148
100
AcDbEntity
  8
dino
 62
1
100
AcDbPolyline
 90
4
 70
1
 10
115.837891
 20
291.672248
 30
0.0
 10
131.105083
 20
282.620688
 30
0.0
 10
126.767579
 20
275.306624
 30
0.0
 10
111.509771
 20
284.353496
 30
0.0
  0
SPLINE
  5
149
100
AcDbEntity
  8
dino
 62
1
100
AcDbSpline
 70
8
 71
3
 72
8
 73
4
 74
0
 40
0
 40
0
 40
0
 40
0
 40
1
 40
1
 40
1
 40
1
 10
12.859794
 20
176.389544
 30
0.0
 10
14.153290
 20
177.918832
 30
0.0
 10
15.951948
 20
180.088352
 30
0.0
 10
17.886356
 20
181.994224
 30
0.0
  0
SPLINE
  5
14a
100
AcDbEntity
  8
dino
 62
1
100
AcDbSpline
 70
8
 71
3
 72
8
 73
4
 74
0
 40
0
 40
0
 40
0
 40
0
 40
1
 40
1
 40
1
 40
1
 10
17.886356
 20
181.994224
 30
0.0
 10
19.820796
 20
183.900112
 30
0.0
 10
21.921816
 20
185.511544
 30
0.0
 10
23.553543
 20
185.973912
 30
0.0
  0
SPLINE
  5
14b
100
AcDbEntity
  8
dino
 62
1
100
AcDbSpline
 70
8
 71
3
 72
8
 73
4
 74
0
 40
0
 40
0
 40
0
 40
0
 40
1
 40
1
 40
1
 40
1
 10
23.553543
 20
185.973912
 30
0.0
 10
24.354057
 20
186.200720
 30
0.0
 10
25.103559
 20
185.872536
 30
0.0
 10
25.842607
 20
185.255168
 30
0.0
  0
SPLINE
  5
14c
100
AcDbEntity
  8
dino
 62
1
100
AcDbSpline
 70
8
 71
3
 72
8
 73
4
 74
0
 40
0
 40
0
 40
0
 40
0
 40
1
 40
1
 40
1
 40
1
 10
25.842607
 20
185.255168
 30
0.0
 10
26.581695
 20
184.637864
 30
0.0
 10
27.198689
 20
183.756896
 30
0.0
 10
27.464481
 20
183.298912
 30
0.0
  0
SPLINE
  5
14d
100
AcDbEntity
  8
dino
 62
1
100
AcDbSpline
 70
8
 71
3
 72
8
 73
4
 74
0
 40
0
 40
0
 40
0
 40
0
 40
1
 40
1
 40
1
 40
1
 10
27.464481
 20
183.298912
 30
0.0
 10
27.909569
 20
182.533888
 30
0.0
 10
29.055425
 20
182.752024
 30
0.0
 10
29.194169
 20
183.628600
 30
0.0
  0
SPLINE
  5
14e
100
AcDbEntity
  8
dino
 62
1
100
AcDbSpline
 70
8
 71
3
 72
8
 73
4
 74
0
 40
0
 40
0
 40
0
 40
0
 40
1
 40
1
 40
1
 40
1
 10
29.194169
 20
183.628600
 30
0.0
 10
29.819657
 20
182.418712
 30
0.0
 10
30.511887
 20
181.227296
 30
0.0
 10
31.262919
 20
180.000480
 30
0.0
  0
SPLINE
  5
14f
100
AcDbEntity
  8
dino
 62
1
100
AcDbSpline
 70
8
 71
3
 72
8
 73
4
 74
0
 40
0
 40
0
 40
0
 40
0
 40
1
 40
1
 40
1
 40
1
 10
31.262919
 20
180.000480
 30
0.0
 10
31.632519
 20
179.396800
 30
0.0
 10
32.503295
 20
179.404736
 30
0.0
 10
32.862919
 20
180.014560
 30
0.0
  0
SPLINE
  5
150
100
AcDbEntity
  8
dino
 62
1
100
AcDbSpline
 70
8
 71
3
 72
8
 73
4
 74
0
 40
0
 40
0
 40
0
 40
0
 40
1
 40
1
 40
1
 40
1
 10
32.862919
 20
180.014560
 30
0.0
 10
33.038559
 20
180.311864
 30
0.0
 10
33.012817
 20
180.448824
 30
0.0
 10
33.019169
 20
180.573936
 30
0.0
  0
SPLINE
  5
151
100
AcDbEntity
  8
dino
 62
1
100
AcDbSpline
 70
8
 71
3
 72
8
 73
4
 74
0
 40
0
 40
0
 40
0
 40
0
 40
1
 40
1
 40
1
 40
1
 10
33.019169
 20
180.573936
 30
0.0
 10
33.025569
 20
180.699072
 30
0.0
 10
33.020289
 20
180.804992
 30
0.0
 10
33.011329
 20
180.916128
 30
0.0
  0
SPLINE
  5
152
100
AcDbEntity
  8
dino
 62
1
100
AcDbSpline
 70
8
 71
3
 72
8
 73
4
 74
0
 40
0
 40
0
 40
0
 40
0
 40
1
 40
1
 40
1
 40
1
 10
33.011329
 20
180.916128
 30
0.0
 10
32.993729
 20
181.138440
 30
0.0
 10
32.956377
 20
181.379248
 30
0.0
 10
32.911329
 20
181.655192
 30
0.0
  0
SPLINE
  5
153
100
AcDbEntity
  8
dino
 62
1
100
AcDbSpline
 70
8
 71
3
 72
8
 73
4
 74
0
 40
0
 40
0
 40
0
 40
0
 40
1
 40
1
 40
1
 40
1
 10
32.911329
 20
181.655192
 30
0.0
 10
32.851969
 20
182.018568
 30
0.0
 10
32.765471
 20
182.482176
 30
0.0
 10
32.684767
 20
182.923936
 30
0.0
  0
SPLINE
  5
154
100
AcDbEntity
  8
dino
 62
1
100
AcDbSpline
 70
8
 71
3
 72
8
 73
4
 74
0
 40
0
 40
0
 40
0
 40
0
 40
1
 40
1
 40
1
 40
1
 10
32.684767
 20
182.923936
 30
0.0
 10
32.899199
 20
182.563400
 30
0.0
 10
32.980721
 20
182.380008
 30
0.0
 10
33.216017
 20
182.016128
 30
0.0
  0
SPLINE
  5
155
100
AcDbEntity
  8
dino
 62
1
100
AcDbSpline
 70
8
 71
3
 72
8
 73
4
 74
0
 40
0
 40
0
 40
0
 40
0
 40
1
 40
1
 40
1
 40
1
 10
33.216017
 20
182.016128
 30
0.0
 10
34.359336
 20
180.247992
 30
0.0
 10
35.727966
 20
178.464552
 30
0.0
 10
37.603516
 20
177.747376
 30
0.0
  0
SPLINE
  5
156
100
AcDbEntity
  8
dino
 62
1
100
AcDbSpline
 70
8
 71
3
 72
8
 73
4
 74
0
 40
0
 40
0
 40
0
 40
0
 40
1
 40
1
 40
1
 40
1
 10
37.603516
 20
177.747376
 30
0.0
 10
38.390276
 20
177.447560
 30
0.0
 10
39.138343
 20
178.266776
 30
0.0
 10
38.780079
 20
179.036440
 30
0.0
  0
SPLINE
  5
157
100
AcDbEntity
  8
dino
 62
1
100
AcDbSpline
 70
8
 71
3
 72
8
 73
4
 74
0
 40
0
 40
0
 40
0
 40
0
 40
1
 40
1
 40
1
 40
1
 10
38.780079
 20
179.036440
 30
0.0
 10
37.624975
 20
181.510256
 30
0.0
 10
36.490655
 20
183.841064
 30
0.0
 10
36.184767
 20
186.458312
 30
0.0
  0
SPLINE
  5
158
100
AcDbEntity
  8
dino
 62
1
100
AcDbSpline
 70
8
 71
3
 72
8
 73
4
 74
0
 40
0
 40
0
 40
0
 40
0
 40
1
 40
1
 40
1
 40
1
 10
36.184767
 20
186.458312
 30
0.0
 10
37.215647
 20
185.061576
 30
0.0
 10
38.459446
 20
183.720800
 30
0.0
 10
40.439454
 20
182.902064
 30
0.0
  0
SPLINE
  5
159
100
AcDbEntity
  8
dino
 62
1
100
AcDbSpline
 70
8
 71
3
 72
8
 73
4
 74
0
 40
0
 40
0
 40
0
 40
0
 40
1
 40
1
 40
1
 40
1
 10
40.439454
 20
182.902064
 30
0.0
 10
41.245022
 20
182.569488
 30
0.0
 10
42.023237
 20
183.430808
 30
0.0
 10
41.623829
 20
184.213000
 30
0.0
  0
SPLINE
  5
15a
100
AcDbEntity
  8
dino
 62
1
100
AcDbSpline
 70
8
 71
3
 72
8
 73
4
 74
0
 40
0
 40
0
 40
0
 40
0
 40
1
 40
1
 40
1
 40
1
 10
41.623829
 20
184.213000
 30
0.0
 10
41.211773
 20
185.017512
 30
0.0
 10
40.503791
 20
186.772752
 30
0.0
 10
40.009767
 20
188.281752
 30
0.0
  0
SPLINE
  5
15b
100
AcDbEntity
  8
dino
 62
1
100
AcDbSpline
 70
8
 71
3
 72
8
 73
4
 74
0
 40
0
 40
0
 40
0
 40
0
 40
1
 40
1
 40
1
 40
1
 10
40.009767
 20
188.281752
 30
0.0
 10
39.762751
 20
189.036240
 30
0.0
 10
39.564919
 20
189.741552
 30
0.0
 10
39.475391
 20
190.214560
 30
0.0
  0
SPLINE
  5
15c
100
AcDbEntity
  8
dino
 62
1
100
AcDbSpline
 70
8
 71
3
 72
8
 73
4
 74
0
 40
0
 40
0
 40
0
 40
0
 40
1
 40
1
 40
1
 40
1
 10
39.475391
 20
190.214560
 30
0.0
 10
39.455631
 20
190.318920
 30
0.0
 10
39.460911
 20
190.341600
 30
0.0
 10
39.451951
 20
190.417688
 30
0.0
  0
SPLINE
  5
15d
100
AcDbEntity
  8
dino
 62
1
100
AcDbSpline
 70
8
 71
3
 72
8
 73
4
 74
0
 40
0
 40
0
 40
0
 40
0
 40
1
 40
1
 40
1
 40
1
 10
39.451951
 20
190.417688
 30
0.0
 10
39.897775
 20
190.690040
 30
0.0
 10
40.245283
 20
191.013480
 30
0.0
 10
40.539451
 20
191.263000
 30
0.0
  0
SPLINE
  5
15e
100
AcDbEntity
  8
dino
 62
1
100
AcDbSpline
 70
8
 71
3
 72
8
 73
4
 74
0
 40
0
 40
0
 40
0
 40
0
 40
1
 40
1
 40
1
 40
1
 10
40.539451
 20
191.263000
 30
0.0
 10
40.846899
 20
191.523752
 30
0.0
 10
41.160547
 20
191.600480
 30
0.0
 10
41.498827
 20
191.680192
 30
0.0
  0
SPLINE
  5
15f
100
AcDbEntity
  8
dino
 62
1
100
AcDbSpline
 70
8
 71
3
 72
8
 73
4
 74
0
 40
0
 40
0
 40
0
 40
0
 40
1
 40
1
 40
1
 40
1
 10
41.498827
 20
191.680192
 30
0.0
 10
41.883635
 20
191.142248
 30
0.0
 10
42.288391
 20
190.567184
 30
0.0
 10
42.836327
 20
189.931752
 30
0.0
  0
SPLINE
  5
160
100
AcDbEntity
  8
dino
 62
1
100
AcDbSpline
 70
8
 71
3
 72
8
 73
4
 74
0
 40
0
 40
0
 40
0
 40
0
 40
1
 40
1
 40
1
 40
1
 10
42.836327
 20
189.931752
 30
0.0
 10
43.558047
 20
189.094808
 30
0.0
 10
44.317861
 20
188.294176
 30
0.0
 10
45.241015
 20
187.866128
 30
0.0
  0
SPLINE
  5
161
100
AcDbEntity
  8
dino
 62
1
100
AcDbSpline
 70
8
 71
3
 72
8
 73
4
 74
0
 40
0
 40
0
 40
0
 40
0
 40
1
 40
1
 40
1
 40
1
 10
45.241015
 20
187.866128
 30
0.0
 10
45.870542
 20
187.575032
 30
0.0
 10
46.584037
 20
188.051888
 30
0.0
 10
46.566015
 20
188.752064
 30
0.0
  0
SPLINE
  5
162
100
AcDbEntity
  8
dino
 62
1
100
AcDbSpline
 70
8
 71
3
 72
8
 73
4
 74
0
 40
0
 40
0
 40
0
 40
0
 40
1
 40
1
 40
1
 40
1
 10
46.566015
 20
188.752064
 30
0.0
 10
46.529775
 20
190.149136
 30
0.0
 10
45.776007
 20
191.173056
 30
0.0
 10
45.281639
 20
192.058312
 30
0.0
  0
SPLINE
  5
163
100
AcDbEntity
  8
dino
 62
1
100
AcDbSpline
 70
8
 71
3
 72
8
 73
4
 74
0
 40
0
 40
0
 40
0
 40
0
 40
1
 40
1
 40
1
 40
1
 10
45.281639
 20
192.058312
 30
0.0
 10
44.821599
 20
192.882088
 30
0.0
 10
44.588691
 20
193.500352
 30
0.0
 10
44.748827
 20
194.261440
 30
0.0
  0
SPLINE
  5
164
100
AcDbEntity
  8
dino
 62
1
100
AcDbSpline
 70
8
 71
3
 72
8
 73
4
 74
0
 40
0
 40
0
 40
0
 40
0
 40
1
 40
1
 40
1
 40
1
 10
44.748827
 20
194.261440
 30
0.0
 10
45.117835
 20
194.570080
 30
0.0
 10
45.396962
 20
194.818608
 30
0.0
 10
45.658202
 20
195.109880
 30
0.0
  0
SPLINE
  5
165
100
AcDbEntity
  8
dino
 62
1
100
AcDbSpline
 70
8
 71
3
 72
8
 73
4
 74
0
 40
0
 40
0
 40
0
 40
0
 40
1
 40
1
 40
1
 40
1
 10
45.658202
 20
195.109880
 30
0.0
 10
45.810546
 20
194.864136
 30
0.0
 10
45.930654
 20
194.700560
 30
0.0
 10
46.095702
 20
194.427064
 30
0.0
  0
SPLINE
  5
166
100
AcDbEntity
  8
dino
 62
1
100
AcDbSpline
 70
8
 71
3
 72
8
 73
4
 74
0
 40
0
 40
0
 40
0
 40
0
 40
1
 40
1
 40
1
 40
1
 10
46.095702
 20
194.427064
 30
0.0
 10
46.464334
 20
193.816224
 30
0.0
 10
46.810862
 20
193.199200
 30
0.0
 10
47.395702
 20
192.730192
 30
0.0
  0
SPLINE
  5
167
100
AcDbEntity
  8
dino
 62
1
100
AcDbSpline
 70
8
 71
3
 72
8
 73
4
 74
0
 40
0
 40
0
 40
0
 40
0
 40
1
 40
1
 40
1
 40
1
 10
47.395702
 20
192.730192
 30
0.0
 10
47.922222
 20
192.308224
 30
0.0
 10
48.703661
 20
192.568112
 30
0.0
 10
48.880077
 20
193.223936
 30
0.0
  0
SPLINE
  5
168
100
AcDbEntity
  8
dino
 62
1
100
AcDbSpline
 70
8
 71
3
 72
8
 73
4
 74
0
 40
0
 40
0
 40
0
 40
0
 40
1
 40
1
 40
1
 40
1
 10
48.880077
 20
193.223936
 30
0.0
 10
49.181829
 20
194.345304
 30
0.0
 10
48.784932
 20
195.316224
 30
0.0
 10
48.509764
 20
196.072376
 30
0.0
  0
SPLINE
  5
169
100
AcDbEntity
  8
dino
 62
1
100
AcDbSpline
 70
8
 71
3
 72
8
 73
4
 74
0
 40
0
 40
0
 40
0
 40
0
 40
1
 40
1
 40
1
 40
1
 10
48.509764
 20
196.072376
 30
0.0
 10
48.270124
 20
196.730896
 30
0.0
 10
48.193301
 20
197.168944
 30
0.0
 10
48.230077
 20
197.548936
 30
0.0
  0
SPLINE
  5
16a
100
AcDbEntity
  8
dino
 62
1
100
AcDbSpline
 70
8
 71
3
 72
8
 73
4
 74
0
 40
0
 40
0
 40
0
 40
0
 40
1
 40
1
 40
1
 40
1
 10
48.230077
 20
197.548936
 30
0.0
 10
48.275037
 20
197.580856
 30
0.0
 10
48.251117
 20
197.565656
 30
0.0
 10
48.303517
 20
197.597416
 30
0.0
  0
SPLINE
  5
16b
100
AcDbEntity
  8
dino
 62
1
100
AcDbSpline
 70
8
 71
3
 72
8
 73
4
 74
0
 40
0
 40
0
 40
0
 40
0
 40
1
 40
1
 40
1
 40
1
 10
48.303517
 20
197.597416
 30
0.0
 10
48.526638
 20
197.731488
 30
0.0
 10
48.821410
 20
197.889072
 30
0.0
 10
49.116018
 20
198.039608
 30
0.0
  0
SPLINE
  5
16c
100
AcDbEntity
  8
dino
 62
1
100
AcDbSpline
 70
8
 71
3
 72
8
 73
4
 74
0
 40
0
 40
0
 40
0
 40
0
 40
1
 40
1
 40
1
 40
1
 10
49.116018
 20
198.039608
 30
0.0
 10
49.515297
 20
198.243640
 30
0.0
 10
49.746483
 20
198.344784
 30
0.0
 10
50.001955
 20
198.461480
 30
0.0
  0
SPLINE
  5
16d
100
AcDbEntity
  8
dino
 62
1
100
AcDbSpline
 70
8
 71
3
 72
8
 73
4
 74
0
 40
0
 40
0
 40
0
 40
0
 40
1
 40
1
 40
1
 40
1
 10
50.001955
 20
198.461480
 30
0.0
 10
50.775211
 20
197.909952
 30
0.0
 10
51.777543
 20
197.314416
 30
0.0
 10
52.719143
 20
197.091168
 30
0.0
  0
SPLINE
  5
16e
100
AcDbEntity
  8
dino
 62
1
100
AcDbSpline
 70
8
 71
3
 72
8
 73
4
 74
0
 40
0
 40
0
 40
0
 40
0
 40
1
 40
1
 40
1
 40
1
 10
52.719143
 20
197.091168
 30
0.0
 10
53.420959
 20
196.925856
 30
0.0
 10
54.036395
 20
197.590312
 30
0.0
 10
53.826955
 20
198.288040
 30
0.0
  0
SPLINE
  5
16f
100
AcDbEntity
  8
dino
 62
1
100
AcDbSpline
 70
8
 71
3
 72
8
 73
4
 74
0
 40
0
 40
0
 40
0
 40
0
 40
1
 40
1
 40
1
 40
1
 10
53.826955
 20
198.288040
 30
0.0
 10
53.632219
 20
198.934536
 30
0.0
 10
53.276175
 20
199.463120
 30
0.0
 10
52.969143
 20
199.955232
 30
0.0
  0
SPLINE
  5
170
100
AcDbEntity
  8
dino
 62
1
100
AcDbSpline
 70
8
 71
3
 72
8
 73
4
 74
0
 40
0
 40
0
 40
0
 40
0
 40
1
 40
1
 40
1
 40
1
 10
52.969143
 20
199.955232
 30
0.0
 10
52.770439
 20
200.273728
 30
0.0
 10
52.697868
 20
200.439760
 30
0.0
 10
52.592580
 20
200.647416
 30
0.0
  0
SPLINE
  5
171
100
AcDbEntity
  8
dino
 62
1
100
AcDbSpline
 70
8
 71
3
 72
8
 73
4
 74
0
 40
0
 40
0
 40
0
 40
0
 40
1
 40
1
 40
1
 40
1
 10
52.592580
 20
200.647416
 30
0.0
 10
52.787892
 20
200.818880
 30
0.0
 10
53.044271
 20
201.026448
 30
0.0
 10
53.339455
 20
201.253664
 30
0.0
  0
SPLINE
  5
172
100
AcDbEntity
  8
dino
 62
1
100
AcDbSpline
 70
8
 71
3
 72
8
 73
4
 74
0
 40
0
 40
0
 40
0
 40
0
 40
1
 40
1
 40
1
 40
1
 10
53.339455
 20
201.253664
 30
0.0
 10
53.778095
 20
201.591328
 30
0.0
 10
54.182080
 20
201.923088
 30
0.0
 10
54.591018
 20
202.255232
 30
0.0
  0
SPLINE
  5
173
100
AcDbEntity
  8
dino
 62
1
100
AcDbSpline
 70
8
 71
3
 72
8
 73
4
 74
0
 40
0
 40
0
 40
0
 40
0
 40
1
 40
1
 40
1
 40
1
 10
54.591018
 20
202.255232
 30
0.0
 10
55.045169
 20
201.946560
 30
0.0
 10
55.589409
 20
201.601752
 30
0.0
 10
56.695705
 20
201.248976
 30
0.0
  0
SPLINE
  5
174
100
AcDbEntity
  8
dino
 62
1
100
AcDbSpline
 70
8
 71
3
 72
8
 73
4
 74
0
 40
0
 40
0
 40
0
 40
0
 40
1
 40
1
 40
1
 40
1
 10
56.695705
 20
201.248976
 30
0.0
 10
57.462737
 20
201.004984
 30
0.0
 10
58.156525
 20
201.789952
 30
0.0
 10
57.833205
 20
202.534920
 30
0.0
  0
SPLINE
  5
175
100
AcDbEntity
  8
dino
 62
1
100
AcDbSpline
 70
8
 71
3
 72
8
 73
4
 74
0
 40
0
 40
0
 40
0
 40
0
 40
1
 40
1
 40
1
 40
1
 10
57.833205
 20
202.534920
 30
0.0
 10
57.533485
 20
203.223528
 30
0.0
 10
57.296030
 20
203.616568
 30
0.0
 10
57.248830
 20
203.758352
 30
0.0
  0
SPLINE
  5
176
100
AcDbEntity
  8
dino
 62
1
100
AcDbSpline
 70
8
 71
3
 72
8
 73
4
 74
0
 40
0
 40
0
 40
0
 40
0
 40
1
 40
1
 40
1
 40
1
 10
57.248830
 20
203.758352
 30
0.0
 10
57.221310
 20
203.840904
 30
0.0
 10
57.284326
 20
203.999760
 30
0.0
 10
57.306646
 20
204.098976
 30
0.0
  0
SPLINE
  5
177
100
AcDbEntity
  8
dino
 62
1
100
AcDbSpline
 70
8
 71
3
 72
8
 73
4
 74
0
 40
0
 40
0
 40
0
 40
0
 40
1
 40
1
 40
1
 40
1
 10
57.306646
 20
204.098976
 30
0.0
 10
62.405238
 20
207.691288
 30
0.0
 10
67.343791
 20
210.782208
 30
0.0
 10
72.392583
 20
213.170856
 30
0.0
  0
SPLINE
  5
178
100
AcDbEntity
  8
dino
 62
1
100
AcDbSpline
 70
8
 71
3
 72
8
 73
4
 74
0
 40
0
 40
0
 40
0
 40
0
 40
1
 40
1
 40
1
 40
1
 10
72.392583
 20
213.170856
 30
0.0
 10
74.653175
 20
213.734992
 30
0.0
 10
76.045035
 20
213.543776
 30
0.0
 10
77.234771
 20
213.044288
 30
0.0
  0
SPLINE
  5
179
100
AcDbEntity
  8
dino
 62
1
100
AcDbSpline
 70
8
 71
3
 72
8
 73
4
 74
0
 40
0
 40
0
 40
0
 40
0
 40
1
 40
1
 40
1
 40
1
 10
77.234771
 20
213.044288
 30
0.0
 10
78.425427
 20
212.544440
 30
0.0
 10
79.466603
 20
211.658712
 30
0.0
 10
80.811331
 20
210.784920
 30
0.0
  0
SPLINE
  5
17a
100
AcDbEntity
  8
dino
 62
1
100
AcDbSpline
 70
8
 71
3
 72
8
 73
4
 74
0
 40
0
 40
0
 40
0
 40
0
 40
1
 40
1
 40
1
 40
1
 10
80.811331
 20
210.784920
 30
0.0
 10
81.996811
 20
209.870784
 30
0.0
 10
83.285779
 20
208.413152
 30
0.0
 10
84.153515
 20
206.827104
 30
0.0
  0
SPLINE
  5
17b
100
AcDbEntity
  8
dino
 62
1
100
AcDbSpline
 70
8
 71
3
 72
8
 73
4
 74
0
 40
0
 40
0
 40
0
 40
0
 40
1
 40
1
 40
1
 40
1
 10
84.153515
 20
206.827104
 30
0.0
 10
85.025371
 20
205.233552
 30
0.0
 10
85.451891
 20
203.542568
 30
0.0
 10
85.145707
 20
202.142728
 30
0.0
  0
SPLINE
  5
17c
100
AcDbEntity
  8
dino
 62
1
100
AcDbSpline
 70
8
 71
3
 72
8
 73
4
 74
0
 40
0
 40
0
 40
0
 40
0
 40
1
 40
1
 40
1
 40
1
 10
85.145707
 20
202.142728
 30
0.0
 10
83.202891
 20
193.260936
 30
0.0
 10
80.300179
 20
184.517096
 30
0.0
 10
77.448833
 20
175.786480
 30
0.0
  0
SPLINE
  5
17d
100
AcDbEntity
  8
dino
 62
1
100
AcDbSpline
 70
8
 71
3
 72
8
 73
4
 74
0
 40
0
 40
0
 40
0
 40
0
 40
1
 40
1
 40
1
 40
1
 10
77.448833
 20
175.786480
 30
0.0
 10
77.235953
 20
175.722320
 30
0.0
 10
77.026467
 20
175.650424
 30
0.0
 10
76.816021
 20
175.598976
 30
0.0
  0
SPLINE
  5
17e
100
AcDbEntity
  8
dino
 62
1
100
AcDbSpline
 70
8
 71
3
 72
8
 73
4
 74
0
 40
0
 40
0
 40
0
 40
0
 40
1
 40
1
 40
1
 40
1
 10
76.816021
 20
175.598976
 30
0.0
 10
76.471811
 20
175.514856
 30
0.0
 10
76.218727
 20
175.513880
 30
0.0
 10
75.792583
 20
175.263040
 30
0.0
  0
SPLINE
  5
17f
100
AcDbEntity
  8
dino
 62
1
100
AcDbSpline
 70
8
 71
3
 72
8
 73
4
 74
0
 40
0
 40
0
 40
0
 40
0
 40
1
 40
1
 40
1
 40
1
 10
75.792583
 20
175.263040
 30
0.0
 10
75.686031
 20
175.200400
 30
0.0
 10
75.549954
 20
175.114040
 30
0.0
 10
75.414458
 20
174.913040
 30
0.0
  0
SPLINE
  5
180
100
AcDbEntity
  8
dino
 62
1
100
AcDbSpline
 70
8
 71
3
 72
8
 73
4
 74
0
 40
0
 40
0
 40
0
 40
0
 40
1
 40
1
 40
1
 40
1
 10
75.414458
 20
174.913040
 30
0.0
 10
75.278954
 20
174.712056
 30
0.0
 10
75.198268
 20
174.348584
 30
0.0
 10
75.266021
 20
174.075544
 30
0.0
  0
SPLINE
  5
181
100
AcDbEntity
  8
dino
 62
1
100
AcDbSpline
 70
8
 71
3
 72
8
 73
4
 74
0
 40
0
 40
0
 40
0
 40
0
 40
1
 40
1
 40
1
 40
1
 10
75.266021
 20
174.075544
 30
0.0
 10
75.401485
 20
173.529440
 30
0.0
 10
75.677948
 20
173.434752
 30
0.0
 10
75.870708
 20
173.314600
 30
0.0
  0
SPLINE
  5
182
100
AcDbEntity
  8
dino
 62
1
100
AcDbSpline
 70
8
 71
3
 72
8
 73
4
 74
0
 40
0
 40
0
 40
0
 40
0
 40
1
 40
1
 40
1
 40
1
 10
75.870708
 20
173.314600
 30
0.0
 10
76.072436
 20
173.188856
 30
0.0
 10
76.449635
 20
173.064032
 30
0.0
 10
76.730083
 20
172.948976
 30
0.0
  0
SPLINE
  5
183
100
AcDbEntity
  8
dino
 62
1
100
AcDbSpline
 70
8
 71
3
 72
8
 73
4
 74
0
 40
0
 40
0
 40
0
 40
0
 40
1
 40
1
 40
1
 40
1
 10
76.730083
 20
172.948976
 30
0.0
 10
76.233659
 20
171.048560
 30
0.0
 10
75.803799
 20
169.099040
 30
0.0
 10
75.522271
 20
167.806792
 30
0.0
  0
SPLINE
  5
184
100
AcDbEntity
  8
dino
 62
1
100
AcDbSpline
 70
8
 71
3
 72
8
 73
4
 74
0
 40
0
 40
0
 40
0
 40
0
 40
1
 40
1
 40
1
 40
1
 10
75.522271
 20
167.806792
 30
0.0
 10
75.247127
 20
167.818392
 30
0.0
 10
74.946699
 20
167.836712
 30
0.0
 10
74.705083
 20
167.838072
 30
0.0
  0
SPLINE
  5
185
100
AcDbEntity
  8
dino
 62
1
100
AcDbSpline
 70
8
 71
3
 72
8
 73
4
 74
0
 40
0
 40
0
 40
0
 40
0
 40
1
 40
1
 40
1
 40
1
 10
74.705083
 20
167.838072
 30
0.0
 10
74.469163
 20
167.839672
 30
0.0
 10
74.255327
 20
167.834872
 30
0.0
 10
74.047271
 20
167.813112
 30
0.0
  0
SPLINE
  5
186
100
AcDbEntity
  8
dino
 62
1
100
AcDbSpline
 70
8
 71
3
 72
8
 73
4
 74
0
 40
0
 40
0
 40
0
 40
0
 40
1
 40
1
 40
1
 40
1
 10
74.047271
 20
167.813112
 30
0.0
 10
73.839239
 20
167.791512
 30
0.0
 10
73.653274
 20
167.794632
 30
0.0
 10
73.339458
 20
167.611552
 30
0.0
  0
SPLINE
  5
187
100
AcDbEntity
  8
dino
 62
1
100
AcDbSpline
 70
8
 71
3
 72
8
 73
4
 74
0
 40
0
 40
0
 40
0
 40
0
 40
1
 40
1
 40
1
 40
1
 10
73.339458
 20
167.611552
 30
0.0
 10
73.182570
 20
167.519944
 30
0.0
 10
72.955070
 20
167.334248
 30
0.0
 10
72.851958
 20
167.013112
 30
0.0
  0
SPLINE
  5
188
100
AcDbEntity
  8
dino
 62
1
100
AcDbSpline
 70
8
 71
3
 72
8
 73
4
 74
0
 40
0
 40
0
 40
0
 40
0
 40
1
 40
1
 40
1
 40
1
 10
72.851958
 20
167.013112
 30
0.0
 10
72.749158
 20
166.691728
 30
0.0
 10
72.838198
 20
166.356328
 30
0.0
 10
72.937895
 20
166.172488
 30
0.0
  0
SPLINE
  5
189
100
AcDbEntity
  8
dino
 62
1
100
AcDbSpline
 70
8
 71
3
 72
8
 73
4
 74
0
 40
0
 40
0
 40
0
 40
0
 40
1
 40
1
 40
1
 40
1
 10
72.937895
 20
166.172488
 30
0.0
 10
73.137239
 20
165.804792
 30
0.0
 10
73.325831
 20
165.713912
 30
0.0
 10
73.542583
 20
165.570928
 30
0.0
  0
SPLINE
  5
18a
100
AcDbEntity
  8
dino
 62
1
100
AcDbSpline
 70
8
 71
3
 72
8
 73
4
 74
0
 40
0
 40
0
 40
0
 40
0
 40
1
 40
1
 40
1
 40
1
 10
73.542583
 20
165.570928
 30
0.0
 10
73.829719
 20
165.381608
 30
0.0
 10
74.383467
 20
165.139080
 30
0.0
 10
74.880083
 20
164.908424
 30
0.0
  0
SPLINE
  5
18b
100
AcDbEntity
  8
dino
 62
1
100
AcDbSpline
 70
8
 71
3
 72
8
 73
4
 74
0
 40
0
 40
0
 40
0
 40
0
 40
1
 40
1
 40
1
 40
1
 10
74.880083
 20
164.908424
 30
0.0
 10
74.776523
 20
164.412056
 30
0.0
 10
74.657332
 20
163.716888
 30
0.0
 10
74.520708
 20
162.974048
 30
0.0
  0
SPLINE
  5
18c
100
AcDbEntity
  8
dino
 62
1
100
AcDbSpline
 70
8
 71
3
 72
8
 73
4
 74
0
 40
0
 40
0
 40
0
 40
0
 40
1
 40
1
 40
1
 40
1
 10
74.520708
 20
162.974048
 30
0.0
 10
74.232164
 20
162.994848
 30
0.0
 10
73.896992
 20
163.030128
 30
0.0
 10
73.658208
 20
163.033408
 30
0.0
  0
SPLINE
  5
18d
100
AcDbEntity
  8
dino
 62
1
100
AcDbSpline
 70
8
 71
3
 72
8
 73
4
 74
0
 40
0
 40
0
 40
0
 40
0
 40
1
 40
1
 40
1
 40
1
 10
73.658208
 20
163.033408
 30
0.0
 10
73.420880
 20
163.036608
 30
0.0
 10
73.211494
 20
163.031008
 30
0.0
 10
73.001958
 20
163.003728
 30
0.0
  0
SPLINE
  5
18e
100
AcDbEntity
  8
dino
 62
1
100
AcDbSpline
 70
8
 71
3
 72
8
 73
4
 74
0
 40
0
 40
0
 40
0
 40
0
 40
1
 40
1
 40
1
 40
1
 10
73.001958
 20
163.003728
 30
0.0
 10
72.792422
 20
162.976288
 30
0.0
 10
72.576862
 20
162.994768
 30
0.0
 10
72.231646
 20
162.695920
 30
0.0
  0
SPLINE
  5
18f
100
AcDbEntity
  8
dino
 62
1
100
AcDbSpline
 70
8
 71
3
 72
8
 73
4
 74
0
 40
0
 40
0
 40
0
 40
0
 40
1
 40
1
 40
1
 40
1
 10
72.231646
 20
162.695920
 30
0.0
 10
72.058998
 20
162.546520
 30
0.0
 10
71.870492
 20
162.228160
 30
0.0
 10
71.866021
 20
161.916232
 30
0.0
  0
SPLINE
  5
190
100
AcDbEntity
  8
dino
 62
1
100
AcDbSpline
 70
8
 71
3
 72
8
 73
4
 74
0
 40
0
 40
0
 40
0
 40
0
 40
1
 40
1
 40
1
 40
1
 10
71.866021
 20
161.916232
 30
0.0
 10
71.861221
 20
161.604320
 30
0.0
 10
71.983027
 20
161.390128
 30
0.0
 10
72.080083
 20
161.253728
 30
0.0
  0
SPLINE
  5
191
100
AcDbEntity
  8
dino
 62
1
100
AcDbSpline
 70
8
 71
3
 72
8
 73
4
 74
0
 40
0
 40
0
 40
0
 40
0
 40
1
 40
1
 40
1
 40
1
 10
72.080083
 20
161.253728
 30
0.0
 10
72.274131
 20
160.980920
 30
0.0
 10
72.448190
 20
160.878736
 30
0.0
 10
72.656646
 20
160.745920
 30
0.0
  0
SPLINE
  5
192
100
AcDbEntity
  8
dino
 62
1
100
AcDbSpline
 70
8
 71
3
 72
8
 73
4
 74
0
 40
0
 40
0
 40
0
 40
0
 40
1
 40
1
 40
1
 40
1
 10
72.656646
 20
160.745920
 30
0.0
 10
72.910422
 20
160.584216
 30
0.0
 10
73.385581
 20
160.380608
 30
0.0
 10
73.786333
 20
160.192792
 30
0.0
  0
SPLINE
  5
193
100
AcDbEntity
  8
dino
 62
1
100
AcDbSpline
 70
8
 71
3
 72
8
 73
4
 74
0
 40
0
 40
0
 40
0
 40
0
 40
1
 40
1
 40
1
 40
1
 10
73.786333
 20
160.192792
 30
0.0
 10
73.731933
 20
159.971192
 30
0.0
 10
73.719045
 20
159.916712
 30
0.0
 10
73.647271
 20
159.659984
 30
0.0
  0
SPLINE
  5
194
100
AcDbEntity
  8
dino
 62
1
100
AcDbSpline
 70
8
 71
3
 72
8
 73
4
 74
0
 40
0
 40
0
 40
0
 40
0
 40
1
 40
1
 40
1
 40
1
 10
73.647271
 20
159.659984
 30
0.0
 10
73.585111
 20
159.438000
 30
0.0
 10
73.554945
 20
159.265800
 30
0.0
 10
73.498833
 20
159.066232
 30
0.0
  0
SPLINE
  5
195
100
AcDbEntity
  8
dino
 62
1
100
AcDbSpline
 70
8
 71
3
 72
8
 73
4
 74
0
 40
0
 40
0
 40
0
 40
0
 40
1
 40
1
 40
1
 40
1
 10
73.498833
 20
159.066232
 30
0.0
 10
73.331465
 20
159.076952
 30
0.0
 10
73.159756
 20
159.106392
 30
0.0
 10
72.995708
 20
159.103752
 30
0.0
  0
SPLINE
  5
196
100
AcDbEntity
  8
dino
 62
1
100
AcDbSpline
 70
8
 71
3
 72
8
 73
4
 74
0
 40
0
 40
0
 40
0
 40
0
 40
1
 40
1
 40
1
 40
1
 10
72.995708
 20
159.103752
 30
0.0
 10
72.559444
 20
159.096552
 30
0.0
 10
72.115803
 20
159.094952
 30
0.0
 10
71.634771
 20
158.720944
 30
0.0
  0
SPLINE
  5
197
100
AcDbEntity
  8
dino
 62
1
100
AcDbSpline
 70
8
 71
3
 72
8
 73
4
 74
0
 40
0
 40
0
 40
0
 40
0
 40
1
 40
1
 40
1
 40
1
 10
71.634771
 20
158.720944
 30
0.0
 10
71.313923
 20
158.471488
 30
0.0
 10
71.187975
 20
158.041576
 30
0.0
 10
71.322271
 20
157.655320
 30
0.0
  0
SPLINE
  5
198
100
AcDbEntity
  8
dino
 62
1
100
AcDbSpline
 70
8
 71
3
 72
8
 73
4
 74
0
 40
0
 40
0
 40
0
 40
0
 40
1
 40
1
 40
1
 40
1
 10
71.322271
 20
157.655320
 30
0.0
 10
71.613727
 20
156.816600
 30
0.0
 10
72.232402
 20
156.566976
 30
0.0
 10
72.644146
 20
156.328752
 30
0.0
  0
SPLINE
  5
199
100
AcDbEntity
  8
dino
 62
1
100
AcDbSpline
 70
8
 71
3
 72
8
 73
4
 74
0
 40
0
 40
0
 40
0
 40
0
 40
1
 40
1
 40
1
 40
1
 10
72.644146
 20
156.328752
 30
0.0
 10
72.700946
 20
156.295872
 30
0.0
 10
72.722538
 20
156.284672
 30
0.0
 10
72.773833
 20
156.255312
 30
0.0
  0
SPLINE
  5
19a
100
AcDbEntity
  8
dino
 62
1
100
AcDbSpline
 70
8
 71
3
 72
8
 73
4
 74
0
 40
0
 40
0
 40
0
 40
0
 40
1
 40
1
 40
1
 40
1
 10
72.773833
 20
156.255312
 30
0.0
 10
72.770633
 20
156.241952
 30
0.0
 10
72.766073
 20
156.233072
 30
0.0
 10
72.762897
 20
156.219392
 30
0.0
  0
SPLINE
  5
19b
100
AcDbEntity
  8
dino
 62
1
100
AcDbSpline
 70
8
 71
3
 72
8
 73
4
 74
0
 40
0
 40
0
 40
0
 40
0
 40
1
 40
1
 40
1
 40
1
 10
72.762897
 20
156.219392
 30
0.0
 10
72.673345
 20
155.851856
 30
0.0
 10
72.569323
 20
155.371464
 30
0.0
 10
72.439459
 20
154.808456
 30
0.0
  0
SPLINE
  5
19c
100
AcDbEntity
  8
dino
 62
1
100
AcDbSpline
 70
8
 71
3
 72
8
 73
4
 74
0
 40
0
 40
0
 40
0
 40
0
 40
1
 40
1
 40
1
 40
1
 10
72.439459
 20
154.808456
 30
0.0
 10
72.179755
 20
153.682464
 30
0.0
 10
71.819107
 20
152.226000
 30
0.0
 10
71.319147
 20
150.797520
 30
0.0
  0
SPLINE
  5
19d
100
AcDbEntity
  8
dino
 62
1
100
AcDbSpline
 70
8
 71
3
 72
8
 73
4
 74
0
 40
0
 40
0
 40
0
 40
0
 40
1
 40
1
 40
1
 40
1
 10
71.319147
 20
150.797520
 30
0.0
 10
70.819171
 20
149.369032
 30
0.0
 10
70.172002
 20
147.974792
 30
0.0
 10
69.408210
 20
147.002208
 30
0.0
  0
SPLINE
  5
19e
100
AcDbEntity
  8
dino
 62
1
100
AcDbSpline
 70
8
 71
3
 72
8
 73
4
 74
0
 40
0
 40
0
 40
0
 40
0
 40
1
 40
1
 40
1
 40
1
 10
69.408210
 20
147.002208
 30
0.0
 10
68.695770
 20
146.094952
 30
0.0
 10
67.946457
 20
145.626912
 30
0.0
 10
67.062897
 20
145.556896
 30
0.0
  0
SPLINE
  5
19f
100
AcDbEntity
  8
dino
 62
1
100
AcDbSpline
 70
8
 71
3
 72
8
 73
4
 74
0
 40
0
 40
0
 40
0
 40
0
 40
1
 40
1
 40
1
 40
1
 10
67.062897
 20
145.556896
 30
0.0
 10
66.487241
 20
145.924512
 30
0.0
 10
65.775729
 20
146.370728
 30
0.0
 10
65.167585
 20
146.719392
 30
0.0
  0
SPLINE
  5
1a0
100
AcDbEntity
  8
dino
 62
1
100
AcDbSpline
 70
8
 71
3
 72
8
 73
4
 74
0
 40
0
 40
0
 40
0
 40
0
 40
1
 40
1
 40
1
 40
1
 10
65.167585
 20
146.719392
 30
0.0
 10
64.810105
 20
146.924344
 30
0.0
 10
64.542233
 20
147.076808
 30
0.0
 10
64.267585
 20
147.188144
 30
0.0
  0
SPLINE
  5
1a1
100
AcDbEntity
  8
dino
 62
1
100
AcDbSpline
 70
8
 71
3
 72
8
 73
4
 74
0
 40
0
 40
0
 40
0
 40
0
 40
1
 40
1
 40
1
 40
1
 10
64.267585
 20
147.188144
 30
0.0
 10
64.198945
 20
147.215984
 30
0.0
 10
64.139239
 20
147.245984
 30
0.0
 10
63.981647
 20
147.272520
 30
0.0
  0
SPLINE
  5
1a2
100
AcDbEntity
  8
dino
 62
1
100
AcDbSpline
 70
8
 71
3
 72
8
 73
4
 74
0
 40
0
 40
0
 40
0
 40
0
 40
1
 40
1
 40
1
 40
1
 10
63.981647
 20
147.272520
 30
0.0
 10
63.902927
 20
147.285880
 30
0.0
 10
63.800439
 20
147.318760
 30
0.0
 10
63.561335
 20
147.253800
 30
0.0
  0
SPLINE
  5
1a3
100
AcDbEntity
  8
dino
 62
1
100
AcDbSpline
 70
8
 71
3
 72
8
 73
4
 74
0
 40
0
 40
0
 40
0
 40
0
 40
1
 40
1
 40
1
 40
1
 10
63.561335
 20
147.253800
 30
0.0
 10
63.322231
 20
147.188840
 30
0.0
 10
62.901883
 20
146.786784
 30
0.0
 10
62.864459
 20
146.428800
 30
0.0
  0
SPLINE
  5
1a4
100
AcDbEntity
  8
dino
 62
1
100
AcDbSpline
 70
8
 71
3
 72
8
 73
4
 74
0
 40
0
 40
0
 40
0
 40
0
 40
1
 40
1
 40
1
 40
1
 10
62.864459
 20
146.428800
 30
0.0
 10
62.827019
 20
146.070808
 30
0.0
 10
62.936363
 20
145.931488
 30
0.0
 10
62.987897
 20
145.839744
 30
0.0
  0
SPLINE
  5
1a5
100
AcDbEntity
  8
dino
 62
1
100
AcDbSpline
 70
8
 71
3
 72
8
 73
4
 74
0
 40
0
 40
0
 40
0
 40
0
 40
1
 40
1
 40
1
 40
1
 10
62.987897
 20
145.839744
 30
0.0
 10
63.039497
 20
145.748024
 30
0.0
 10
63.078545
 20
145.703888
 30
0.0
 10
63.112897
 20
145.663176
 30
0.0
  0
SPLINE
  5
1a6
100
AcDbEntity
  8
dino
 62
1
100
AcDbSpline
 70
8
 71
3
 72
8
 73
4
 74
0
 40
0
 40
0
 40
0
 40
0
 40
1
 40
1
 40
1
 40
1
 10
63.112897
 20
145.663176
 30
0.0
 10
63.141217
 20
145.629816
 30
0.0
 10
63.164497
 20
145.609016
 30
0.0
 10
63.189457
 20
145.583496
 30
0.0
  0
SPLINE
  5
1a7
100
AcDbEntity
  8
dino
 62
1
100
AcDbSpline
 70
8
 71
3
 72
8
 73
4
 74
0
 40
0
 40
0
 40
0
 40
0
 40
1
 40
1
 40
1
 40
1
 10
63.189457
 20
145.583496
 30
0.0
 10
63.831201
 20
144.686792
 30
0.0
 10
64.108963
 20
144.104952
 30
0.0
 10
64.445707
 20
143.464744
 30
0.0
  0
SPLINE
  5
1a8
100
AcDbEntity
  8
dino
 62
1
100
AcDbSpline
 70
8
 71
3
 72
8
 73
4
 74
0
 40
0
 40
0
 40
0
 40
0
 40
1
 40
1
 40
1
 40
1
 10
64.445707
 20
143.464744
 30
0.0
 10
63.991227
 20
143.617160
 30
0.0
 10
63.640199
 20
143.726112
 30
0.0
 10
63.012895
 20
143.955376
 30
0.0
  0
SPLINE
  5
1a9
100
AcDbEntity
  8
dino
 62
1
100
AcDbSpline
 70
8
 71
3
 72
8
 73
4
 74
0
 40
0
 40
0
 40
0
 40
0
 40
1
 40
1
 40
1
 40
1
 10
63.012895
 20
143.955376
 30
0.0
 10
62.515079
 20
144.137320
 30
0.0
 10
62.016649
 20
144.310896
 30
0.0
 10
61.544145
 20
144.424120
 30
0.0
  0
SPLINE
  5
1aa
100
AcDbEntity
  8
dino
 62
1
100
AcDbSpline
 70
8
 71
3
 72
8
 73
4
 74
0
 40
0
 40
0
 40
0
 40
0
 40
1
 40
1
 40
1
 40
1
 10
61.544145
 20
144.424120
 30
0.0
 10
61.071617
 20
144.537352
 30
0.0
 10
60.651475
 20
144.692856
 30
0.0
 10
60.020707
 20
144.411640
 30
0.0
  0
SPLINE
  5
1ab
100
AcDbEntity
  8
dino
 62
1
100
AcDbSpline
 70
8
 71
3
 72
8
 73
4
 74
0
 40
0
 40
0
 40
0
 40
0
 40
1
 40
1
 40
1
 40
1
 10
60.020707
 20
144.411640
 30
0.0
 10
59.496515
 20
144.178200
 30
0.0
 10
59.301759
 20
143.527816
 30
0.0
 10
59.608207
 20
143.038200
 30
0.0
  0
SPLINE
  5
1ac
100
AcDbEntity
  8
dino
 62
1
100
AcDbSpline
 70
8
 71
3
 72
8
 73
4
 74
0
 40
0
 40
0
 40
0
 40
0
 40
1
 40
1
 40
1
 40
1
 10
59.608207
 20
143.038200
 30
0.0
 10
59.887655
 20
142.591528
 30
0.0
 10
60.248247
 20
142.241904
 30
0.0
 10
60.642583
 20
141.941328
 30
0.0
  0
SPLINE
  5
1ad
100
AcDbEntity
  8
dino
 62
1
100
AcDbSpline
 70
8
 71
3
 72
8
 73
4
 74
0
 40
0
 40
0
 40
0
 40
0
 40
1
 40
1
 40
1
 40
1
 10
60.642583
 20
141.941328
 30
0.0
 10
60.431159
 20
141.986048
 30
0.0
 10
60.198117
 20
142.048624
 30
0.0
 10
60.001957
 20
142.080392
 30
0.0
  0
SPLINE
  5
1ae
100
AcDbEntity
  8
dino
 62
1
100
AcDbSpline
 70
8
 71
3
 72
8
 73
4
 74
0
 40
0
 40
0
 40
0
 40
0
 40
1
 40
1
 40
1
 40
1
 10
60.001957
 20
142.080392
 30
0.0
 10
59.483245
 20
142.164368
 30
0.0
 10
59.117126
 20
142.330744
 30
0.0
 10
58.447270
 20
142.013192
 30
0.0
  0
SPLINE
  5
1af
100
AcDbEntity
  8
dino
 62
1
100
AcDbSpline
 70
8
 71
3
 72
8
 73
4
 74
0
 40
0
 40
0
 40
0
 40
0
 40
1
 40
1
 40
1
 40
1
 10
58.447270
 20
142.013192
 30
0.0
 10
57.832350
 20
141.721016
 30
0.0
 10
57.719050
 20
140.884104
 30
0.0
 10
58.234770
 20
140.436632
 30
0.0
  0
SPLINE
  5
1b0
100
AcDbEntity
  8
dino
 62
1
100
AcDbSpline
 70
8
 71
3
 72
8
 73
4
 74
0
 40
0
 40
0
 40
0
 40
0
 40
1
 40
1
 40
1
 40
1
 10
58.234770
 20
140.436632
 30
0.0
 10
58.748394
 20
139.990088
 30
0.0
 10
59.540729
 20
139.641784
 30
0.0
 10
60.344145
 20
139.260072
 30
0.0
  0
SPLINE
  5
1b1
100
AcDbEntity
  8
dino
 62
1
100
AcDbSpline
 70
8
 71
3
 72
8
 73
4
 74
0
 40
0
 40
0
 40
0
 40
0
 40
1
 40
1
 40
1
 40
1
 10
60.344145
 20
139.260072
 30
0.0
 10
59.753193
 20
139.323912
 30
0.0
 10
59.229524
 20
139.372608
 30
0.0
 10
58.811332
 20
139.371008
 30
0.0
  0
SPLINE
  5
1b2
100
AcDbEntity
  8
dino
 62
1
100
AcDbSpline
 70
8
 71
3
 72
8
 73
4
 74
0
 40
0
 40
0
 40
0
 40
0
 40
1
 40
1
 40
1
 40
1
 10
58.811332
 20
139.371008
 30
0.0
 10
58.597836
 20
139.370216
 30
0.0
 10
58.471614
 20
139.430528
 30
0.0
 10
58.072270
 20
139.246008
 30
0.0
  0
SPLINE
  5
1b3
100
AcDbEntity
  8
dino
 62
1
100
AcDbSpline
 70
8
 71
3
 72
8
 73
4
 74
0
 40
0
 40
0
 40
0
 40
0
 40
1
 40
1
 40
1
 40
1
 10
58.072270
 20
139.246008
 30
0.0
 10
57.972422
 20
139.199848
 30
0.0
 10
57.836286
 20
139.127424
 30
0.0
 10
57.697270
 20
138.952256
 30
0.0
  0
SPLINE
  5
1b4
100
AcDbEntity
  8
dino
 62
1
100
AcDbSpline
 70
8
 71
3
 72
8
 73
4
 74
0
 40
0
 40
0
 40
0
 40
0
 40
1
 40
1
 40
1
 40
1
 10
57.697270
 20
138.952256
 30
0.0
 10
57.558182
 20
138.777144
 30
0.0
 10
57.459361
 20
138.462272
 30
0.0
 10
57.489457
 20
138.213192
 30
0.0
  0
SPLINE
  5
1b5
100
AcDbEntity
  8
dino
 62
1
100
AcDbSpline
 70
8
 71
3
 72
8
 73
4
 74
0
 40
0
 40
0
 40
0
 40
0
 40
1
 40
1
 40
1
 40
1
 10
57.489457
 20
138.213192
 30
0.0
 10
57.539937
 20
137.795656
 30
0.0
 10
57.711348
 20
137.711424
 30
0.0
 10
57.836332
 20
137.617880
 30
0.0
  0
SPLINE
  5
1b6
100
AcDbEntity
  8
dino
 62
1
100
AcDbSpline
 70
8
 71
3
 72
8
 73
4
 74
0
 40
0
 40
0
 40
0
 40
0
 40
1
 40
1
 40
1
 40
1
 10
57.836332
 20
137.617880
 30
0.0
 10
58.168772
 20
137.212560
 30
0.0
 10
58.511515
 20
137.031264
 30
0.0
 10
58.916020
 20
136.844440
 30
0.0
  0
SPLINE
  5
1b7
100
AcDbEntity
  8
dino
 62
1
100
AcDbSpline
 70
8
 71
3
 72
8
 73
4
 74
0
 40
0
 40
0
 40
0
 40
0
 40
1
 40
1
 40
1
 40
1
 10
58.916020
 20
136.844440
 30
0.0
 10
59.365827
 20
136.636744
 30
0.0
 10
59.880510
 20
136.446760
 30
0.0
 10
60.397270
 20
136.264752
 30
0.0
  0
SPLINE
  5
1b8
100
AcDbEntity
  8
dino
 62
1
100
AcDbSpline
 70
8
 71
3
 72
8
 73
4
 74
0
 40
0
 40
0
 40
0
 40
0
 40
1
 40
1
 40
1
 40
1
 10
60.397270
 20
136.264752
 30
0.0
 10
61.020574
 20
136.045240
 30
0.0
 10
61.339099
 20
135.918328
 30
0.0
 10
61.800395
 20
135.747568
 30
0.0
  0
SPLINE
  5
1b9
100
AcDbEntity
  8
dino
 62
1
100
AcDbSpline
 70
8
 71
3
 72
8
 73
4
 74
0
 40
0
 40
0
 40
0
 40
0
 40
1
 40
1
 40
1
 40
1
 10
61.800395
 20
135.747568
 30
0.0
 10
61.620563
 20
135.763008
 30
0.0
 10
61.539771
 20
135.753168
 30
0.0
 10
61.355083
 20
135.772528
 30
0.0
  0
SPLINE
  5
1ba
100
AcDbEntity
  8
dino
 62
1
100
AcDbSpline
 70
8
 71
3
 72
8
 73
4
 74
0
 40
0
 40
0
 40
0
 40
0
 40
1
 40
1
 40
1
 40
1
 10
61.355083
 20
135.772528
 30
0.0
 10
61.056451
 20
135.803568
 30
0.0
 10
60.775818
 20
135.839488
 30
0.0
 10
60.409770
 20
135.780528
 30
0.0
  0
SPLINE
  5
1bb
100
AcDbEntity
  8
dino
 62
1
100
AcDbSpline
 70
8
 71
3
 72
8
 73
4
 74
0
 40
0
 40
0
 40
0
 40
0
 40
1
 40
1
 40
1
 40
1
 10
60.409770
 20
135.780528
 30
0.0
 10
60.226722
 20
135.750928
 30
0.0
 10
59.996427
 20
135.700336
 30
0.0
 10
59.750395
 20
135.493024
 30
0.0
  0
SPLINE
  5
1bc
100
AcDbEntity
  8
dino
 62
1
100
AcDbSpline
 70
8
 71
3
 72
8
 73
4
 74
0
 40
0
 40
0
 40
0
 40
0
 40
1
 40
1
 40
1
 40
1
 10
59.750395
 20
135.493024
 30
0.0
 10
59.504339
 20
135.285784
 30
0.0
 10
59.334033
 20
134.880112
 30
0.0
 10
59.339457
 20
134.575840
 30
0.0
  0
SPLINE
  5
1bd
100
AcDbEntity
  8
dino
 62
1
100
AcDbSpline
 70
8
 71
3
 72
8
 73
4
 74
0
 40
0
 40
0
 40
0
 40
0
 40
1
 40
1
 40
1
 40
1
 10
59.339457
 20
134.575840
 30
0.0
 10
59.345057
 20
134.230488
 30
0.0
 10
59.536111
 20
133.915288
 30
0.0
 10
59.837895
 20
133.753960
 30
0.0
  0
SPLINE
  5
1be
100
AcDbEntity
  8
dino
 62
1
100
AcDbSpline
 70
8
 71
3
 72
8
 73
4
 74
0
 40
0
 40
0
 40
0
 40
0
 40
1
 40
1
 40
1
 40
1
 10
59.837895
 20
133.753960
 30
0.0
 10
61.244223
 20
133.003624
 30
0.0
 10
61.652693
 20
132.646744
 30
0.0
 10
61.631645
 20
132.674272
 30
0.0
  0
SPLINE
  5
1bf
100
AcDbEntity
  8
dino
 62
1
100
AcDbSpline
 70
8
 71
3
 72
8
 73
4
 74
0
 40
0
 40
0
 40
0
 40
0
 40
1
 40
1
 40
1
 40
1
 10
61.631645
 20
132.674272
 30
0.0
 10
61.701085
 20
132.508544
 30
0.0
 10
61.897291
 20
132.219632
 30
0.0
 10
62.120707
 20
132.036776
 30
0.0
  0
SPLINE
  5
1c0
100
AcDbEntity
  8
dino
 62
1
100
AcDbSpline
 70
8
 71
3
 72
8
 73
4
 74
0
 40
0
 40
0
 40
0
 40
0
 40
1
 40
1
 40
1
 40
1
 10
62.120707
 20
132.036776
 30
0.0
 10
64.909179
 20
129.754536
 30
0.0
 10
69.430879
 20
128.582984
 30
0.0
 10
72.562895
 20
129.100840
 30
0.0
  0
SPLINE
  5
1c1
100
AcDbEntity
  8
dino
 62
1
100
AcDbSpline
 70
8
 71
3
 72
8
 73
4
 74
0
 40
0
 40
0
 40
0
 40
0
 40
1
 40
1
 40
1
 40
1
 10
72.562895
 20
129.100840
 30
0.0
 10
74.899063
 20
129.487120
 30
0.0
 10
77.798933
 20
130.989664
 30
0.0
 10
80.351955
 20
132.911776
 30
0.0
  0
SPLINE
  5
1c2
100
AcDbEntity
  8
dino
 62
1
100
AcDbSpline
 70
8
 71
3
 72
8
 73
4
 74
0
 40
0
 40
0
 40
0
 40
0
 40
1
 40
1
 40
1
 40
1
 10
80.351955
 20
132.911776
 30
0.0
 10
82.904995
 20
134.833896
 30
0.0
 10
85.118867
 20
137.114008
 30
0.0
 10
85.669139
 20
139.558648
 30
0.0
  0
SPLINE
  5
1c3
100
AcDbEntity
  8
dino
 62
1
100
AcDbSpline
 70
8
 71
3
 72
8
 73
4
 74
0
 40
0
 40
0
 40
0
 40
0
 40
1
 40
1
 40
1
 40
1
 10
85.669139
 20
139.558648
 30
0.0
 10
86.444355
 20
143.002624
 30
0.0
 10
86.216427
 20
145.966880
 30
0.0
 10
86.136331
 20
148.743024
 30
0.0
  0
SPLINE
  5
1c4
100
AcDbEntity
  8
dino
 62
1
100
AcDbSpline
 70
8
 71
3
 72
8
 73
4
 74
0
 40
0
 40
0
 40
0
 40
0
 40
1
 40
1
 40
1
 40
1
 10
86.136331
 20
148.743024
 30
0.0
 10
86.056259
 20
151.519160
 30
0.0
 10
86.109771
 20
154.095456
 30
0.0
 10
87.319139
 20
157.035216
 30
0.0
  0
SPLINE
  5
1c5
100
AcDbEntity
  8
dino
 62
1
100
AcDbSpline
 70
8
 71
3
 72
8
 73
4
 74
0
 40
0
 40
0
 40
0
 40
0
 40
1
 40
1
 40
1
 40
1
 10
87.319139
 20
157.035216
 30
0.0
 10
88.673363
 20
160.326952
 30
0.0
 10
89.049107
 20
162.066792
 30
0.0
 10
89.848827
 20
164.161776
 30
0.0
  0
SPLINE
  5
1c6
100
AcDbEntity
  8
dino
 62
1
100
AcDbSpline
 70
8
 71
3
 72
8
 73
4
 74
0
 40
0
 40
0
 40
0
 40
0
 40
1
 40
1
 40
1
 40
1
 10
89.848827
 20
164.161776
 30
0.0
 10
90.648555
 20
166.256744
 30
0.0
 10
91.866715
 20
168.734024
 30
0.0
 10
93.880083
 20
171.475840
 30
0.0
  0
SPLINE
  5
1c7
100
AcDbEntity
  8
dino
 62
1
100
AcDbSpline
 70
8
 71
3
 72
8
 73
4
 74
0
 40
0
 40
0
 40
0
 40
0
 40
1
 40
1
 40
1
 40
1
 10
93.880083
 20
171.475840
 30
0.0
 10
99.705243
 20
179.408560
 30
0.0
 10
109.491211
 20
193.980080
 30
0.0
 10
116.733203
 20
201.160216
 30
0.0
  0
SPLINE
  5
1c8
100
AcDbEntity
  8
dino
 62
1
100
AcDbSpline
 70
8
 71
3
 72
8
 73
4
 74
0
 40
0
 40
0
 40
0
 40
0
 40
1
 40
1
 40
1
 40
1
 10
116.733203
 20
201.160216
 30
0.0
 10
122.865691
 20
207.921408
 30
0.0
 10
123.120491
 20
210.055912
 30
0.0
 10
126.708203
 20
214.182088
 30
0.0
  0
SPLINE
  5
1c9
100
AcDbEntity
  8
dino
 62
1
100
AcDbSpline
 70
8
 71
3
 72
8
 73
4
 74
0
 40
0
 40
0
 40
0
 40
0
 40
1
 40
1
 40
1
 40
1
 10
126.708203
 20
214.182088
 30
0.0
 10
130.042211
 20
218.016488
 30
0.0
 10
134.168011
 20
221.126440
 30
0.0
 10
137.405083
 20
225.043024
 30
0.0
  0
SPLINE
  5
1ca
100
AcDbEntity
  8
dino
 62
1
100
AcDbSpline
 70
8
 71
3
 72
8
 73
4
 74
0
 40
0
 40
0
 40
0
 40
0
 40
1
 40
1
 40
1
 40
1
 10
137.405083
 20
225.043024
 30
0.0
 10
143.544435
 20
232.471104
 30
0.0
 10
148.784395
 20
240.624704
 30
0.0
 10
153.814451
 20
248.844584
 30
0.0
  0
SPLINE
  5
1cb
100
AcDbEntity
  8
dino
 62
1
100
AcDbSpline
 70
8
 71
3
 72
8
 73
4
 74
0
 40
0
 40
0
 40
0
 40
0
 40
1
 40
1
 40
1
 40
1
 10
153.814451
 20
248.844584
 30
0.0
 10
159.137283
 20
257.542904
 30
0.0
 10
164.197243
 20
266.451032
 30
0.0
 10
168.339451
 20
275.769584
 30
0.0
  0
SPLINE
  5
1cc
100
AcDbEntity
  8
dino
 62
1
100
AcDbSpline
 70
8
 71
3
 72
8
 73
4
 74
0
 40
0
 40
0
 40
0
 40
0
 40
1
 40
1
 40
1
 40
1
 10
168.339451
 20
275.769584
 30
0.0
 10
177.297411
 20
295.921952
 30
0.0
 10
184.500771
 20
316.885400
 30
0.0
 10
190.517579
 20
338.102400
 30
0.0
  0
SPLINE
  5
1cd
100
AcDbEntity
  8
dino
 62
1
100
AcDbSpline
 70
8
 71
3
 72
8
 73
4
 74
0
 40
0
 40
0
 40
0
 40
0
 40
1
 40
1
 40
1
 40
1
 10
190.517579
 20
338.102400
 30
0.0
 10
195.222475
 20
354.693208
 30
0.0
 10
198.380011
 20
371.703088
 30
0.0
 10
201.344139
 20
388.691464
 30
0.0
  0
SPLINE
  5
1ce
100
AcDbEntity
  8
dino
 62
1
100
AcDbSpline
 70
8
 71
3
 72
8
 73
4
 74
0
 40
0
 40
0
 40
0
 40
0
 40
1
 40
1
 40
1
 40
1
 10
201.344139
 20
388.691464
 30
0.0
 10
203.458571
 20
400.809968
 30
0.0
 10
205.063435
 20
413.023936
 30
0.0
 10
206.298827
 20
425.263336
 30
0.0
  0
SPLINE
  5
1cf
100
AcDbEntity
  8
dino
 62
1
100
AcDbSpline
 70
8
 71
3
 72
8
 73
4
 74
0
 40
0
 40
0
 40
0
 40
0
 40
1
 40
1
 40
1
 40
1
 10
206.298827
 20
425.263336
 30
0.0
 10
207.519003
 20
437.351952
 30
0.0
 10
208.136747
 20
449.496168
 30
0.0
 10
208.722267
 20
461.632088
 30
0.0
  0
SPLINE
  5
1d0
100
AcDbEntity
  8
dino
 62
1
100
AcDbSpline
 70
8
 71
3
 72
8
 73
4
 74
0
 40
0
 40
0
 40
0
 40
0
 40
1
 40
1
 40
1
 40
1
 10
208.722267
 20
461.632088
 30
0.0
 10
209.415699
 20
476.004672
 30
0.0
 10
209.824971
 20
490.392448
 30
0.0
 10
210.012891
 20
504.780528
 30
0.0
  0
SPLINE
  5
1d1
100
AcDbEntity
  8
dino
 62
1
100
AcDbSpline
 70
8
 71
3
 72
8
 73
4
 74
0
 40
0
 40
0
 40
0
 40
0
 40
1
 40
1
 40
1
 40
1
 10
210.012891
 20
504.780528
 30
0.0
 10
210.239499
 20
522.130632
 30
0.0
 10
209.625155
 20
541.595920
 30
0.0
 10
209.816019
 20
556.835216
 30
0.0
  0
SPLINE
  5
1d2
100
AcDbEntity
  8
dino
 62
1
100
AcDbSpline
 70
8
 71
3
 72
8
 73
4
 74
0
 40
0
 40
0
 40
0
 40
0
 40
1
 40
1
 40
1
 40
1
 10
209.816019
 20
556.835216
 30
0.0
 10
209.974131
 20
569.459816
 30
0.0
 10
208.433595
 20
591.869778
 30
0.0
 10
215.294139
 20
594.313338
 30
0.0
  0
SPLINE
  5
1d3
100
AcDbEntity
  8
dino
 62
1
100
AcDbSpline
 70
8
 71
3
 72
8
 73
4
 74
0
 40
0
 40
0
 40
0
 40
0
 40
1
 40
1
 40
1
 40
1
 10
215.294139
 20
594.313338
 30
0.0
 10
223.768411
 20
593.351530
 30
0.0
 10
224.933739
 20
574.501408
 30
0.0
 10
227.731643
 20
556.180528
 30
0.0
  0
SPLINE
  5
1d4
100
AcDbEntity
  8
dino
 62
1
100
AcDbSpline
 70
8
 71
3
 72
8
 73
4
 74
0
 40
0
 40
0
 40
0
 40
0
 40
1
 40
1
 40
1
 40
1
 10
227.731643
 20
556.180528
 30
0.0
 10
230.117603
 20
540.557088
 30
0.0
 10
231.899627
 20
527.045584
 30
0.0
 10
233.684763
 20
512.439904
 30
0.0
  0
SPLINE
  5
1d5
100
AcDbEntity
  8
dino
 62
1
100
AcDbSpline
 70
8
 71
3
 72
8
 73
4
 74
0
 40
0
 40
0
 40
0
 40
0
 40
1
 40
1
 40
1
 40
1
 10
233.684763
 20
512.439904
 30
0.0
 10
234.966915
 20
501.949696
 30
0.0
 10
235.842747
 20
491.412752
 30
0.0
 10
237.100395
 20
480.919584
 30
0.0
  0
SPLINE
  5
1d6
100
AcDbEntity
  8
dino
 62
1
100
AcDbSpline
 70
8
 71
3
 72
8
 73
4
 74
0
 40
0
 40
0
 40
0
 40
0
 40
1
 40
1
 40
1
 40
1
 10
237.100395
 20
480.919584
 30
0.0
 10
238.827867
 20
466.506472
 30
0.0
 10
239.847931
 20
451.959800
 30
0.0
 10
242.773827
 20
437.741464
 30
0.0
  0
SPLINE
  5
1d7
100
AcDbEntity
  8
dino
 62
1
100
AcDbSpline
 70
8
 71
3
 72
8
 73
4
 74
0
 40
0
 40
0
 40
0
 40
0
 40
1
 40
1
 40
1
 40
1
 10
242.773827
 20
437.741464
 30
0.0
 10
247.704787
 20
413.779552
 30
0.0
 10
253.682235
 20
389.845816
 30
0.0
 10
262.722267
 20
367.113336
 30
0.0
  0
SPLINE
  5
1d8
100
AcDbEntity
  8
dino
 62
1
100
AcDbSpline
 70
8
 71
3
 72
8
 73
4
 74
0
 40
0
 40
0
 40
0
 40
0
 40
1
 40
1
 40
1
 40
1
 10
262.722267
 20
367.113336
 30
0.0
 10
269.917307
 20
349.020352
 30
0.0
 10
279.127163
 20
331.643112
 30
0.0
 10
289.784763
 20
315.347712
 30
0.0
  0
SPLINE
  5
1d9
100
AcDbEntity
  8
dino
 62
1
100
AcDbSpline
 70
8
 71
3
 72
8
 73
4
 74
0
 40
0
 40
0
 40
0
 40
0
 40
1
 40
1
 40
1
 40
1
 10
289.784763
 20
315.347712
 30
0.0
 10
298.935707
 20
301.356008
 30
0.0
 10
308.649379
 20
287.296320
 30
0.0
 10
321.192579
 20
276.243024
 30
0.0
  0
SPLINE
  5
1da
100
AcDbEntity
  8
dino
 62
1
100
AcDbSpline
 70
8
 71
3
 72
8
 73
4
 74
0
 40
0
 40
0
 40
0
 40
0
 40
1
 40
1
 40
1
 40
1
 10
321.192579
 20
276.243024
 30
0.0
 10
330.038259
 20
268.448048
 30
0.0
 10
340.529547
 20
262.452248
 30
0.0
 10
351.336331
 20
257.738336
 30
0.0
  0
SPLINE
  5
1db
100
AcDbEntity
  8
dino
 62
1
100
AcDbSpline
 70
8
 71
3
 72
8
 73
4
 74
0
 40
0
 40
0
 40
0
 40
0
 40
1
 40
1
 40
1
 40
1
 10
351.336331
 20
257.738336
 30
0.0
 10
370.126987
 20
249.541864
 30
0.0
 10
391.360451
 20
248.357176
 30
0.0
 10
410.575395
 20
241.211776
 30
0.0
  0
SPLINE
  5
1dc
100
AcDbEntity
  8
dino
 62
1
100
AcDbSpline
 70
8
 71
3
 72
8
 73
4
 74
0
 40
0
 40
0
 40
0
 40
0
 40
1
 40
1
 40
1
 40
1
 10
410.575395
 20
241.211776
 30
0.0
 10
421.313451
 20
237.218648
 30
0.0
 10
432.042587
 20
232.779168
 30
0.0
 10
441.672267
 20
226.572712
 30
0.0
  0
SPLINE
  5
1dd
100
AcDbEntity
  8
dino
 62
1
100
AcDbSpline
 70
8
 71
3
 72
8
 73
4
 74
0
 40
0
 40
0
 40
0
 40
0
 40
1
 40
1
 40
1
 40
1
 10
441.672267
 20
226.572712
 30
0.0
 10
448.534475
 20
222.149936
 30
0.0
 10
455.418435
 20
217.225600
 30
0.0
 10
460.325395
 20
210.700840
 30
0.0
  0
SPLINE
  5
1de
100
AcDbEntity
  8
dino
 62
1
100
AcDbSpline
 70
8
 71
3
 72
8
 73
4
 74
0
 40
0
 40
0
 40
0
 40
0
 40
1
 40
1
 40
1
 40
1
 10
460.325395
 20
210.700840
 30
0.0
 10
467.396179
 20
201.298864
 30
0.0
 10
467.324075
 20
191.558736
 30
0.0
 10
474.839451
 20
178.532088
 30
0.0
  0
SPLINE
  5
1df
100
AcDbEntity
  8
dino
 62
1
100
AcDbSpline
 70
8
 71
3
 72
8
 73
4
 74
0
 40
0
 40
0
 40
0
 40
0
 40
1
 40
1
 40
1
 40
1
 10
474.839451
 20
178.532088
 30
0.0
 10
476.512451
 20
175.632224
 30
0.0
 10
477.870835
 20
172.502056
 30
0.0
 10
479.278515
 20
169.361776
 30
0.0
  0
SPLINE
  5
1e0
100
AcDbEntity
  8
dino
 62
1
100
AcDbSpline
 70
8
 71
3
 72
8
 73
4
 74
0
 40
0
 40
0
 40
0
 40
0
 40
1
 40
1
 40
1
 40
1
 10
479.278515
 20
169.361776
 30
0.0
 10
478.322851
 20
166.399776
 30
0.0
 10
477.368755
 20
163.553680
 30
0.0
 10
476.489451
 20
161.282088
 30
0.0
  0
SPLINE
  5
1e1
100
AcDbEntity
  8
dino
 62
1
100
AcDbSpline
 70
8
 71
3
 72
8
 73
4
 74
0
 40
0
 40
0
 40
0
 40
0
 40
1
 40
1
 40
1
 40
1
 10
476.489451
 20
161.282088
 30
0.0
 10
475.574531
 20
158.918592
 30
0.0
 10
474.667267
 20
157.098168
 30
0.0
 10
474.148827
 20
156.497712
 30
0.0
  0
SPLINE
  5
1e2
100
AcDbEntity
  8
dino
 62
1
100
AcDbSpline
 70
8
 71
3
 72
8
 73
4
 74
0
 40
0
 40
0
 40
0
 40
0
 40
1
 40
1
 40
1
 40
1
 10
474.148827
 20
156.497712
 30
0.0
 10
467.850307
 20
149.202808
 30
0.0
 10
461.129195
 20
141.809608
 30
0.0
 10
453.503515
 20
136.232088
 30
0.0
  0
SPLINE
  5
1e3
100
AcDbEntity
  8
dino
 62
1
100
AcDbSpline
 70
8
 71
3
 72
8
 73
4
 74
0
 40
0
 40
0
 40
0
 40
0
 40
1
 40
1
 40
1
 40
1
 10
453.503515
 20
136.232088
 30
0.0
 10
447.043851
 20
131.507440
 30
0.0
 10
440.630595
 20
129.357472
 30
0.0
 10
433.226955
 20
125.583648
 30
0.0
  0
SPLINE
  5
1e4
100
AcDbEntity
  8
dino
 62
1
100
AcDbSpline
 70
8
 71
3
 72
8
 73
4
 74
0
 40
0
 40
0
 40
0
 40
0
 40
1
 40
1
 40
1
 40
1
 10
433.226955
 20
125.583648
 30
0.0
 10
433.194715
 20
125.566768
 30
0.0
 10
433.163275
 20
125.547888
 30
0.0
 10
433.133203
 20
125.527408
 30
0.0
  0
SPLINE
  5
1e5
100
AcDbEntity
  8
dino
 62
1
100
AcDbSpline
 70
8
 71
3
 72
8
 73
4
 74
0
 40
0
 40
0
 40
0
 40
0
 40
1
 40
1
 40
1
 40
1
 10
433.133203
 20
125.527408
 30
0.0
 10
431.533299
 20
124.461064
 30
0.0
 10
428.569395
 20
122.153168
 30
0.0
 10
425.911331
 20
119.766472
 30
0.0
  0
SPLINE
  5
1e6
100
AcDbEntity
  8
dino
 62
1
100
AcDbSpline
 70
8
 71
3
 72
8
 73
4
 74
0
 40
0
 40
0
 40
0
 40
0
 40
1
 40
1
 40
1
 40
1
 10
425.911331
 20
119.766472
 30
0.0
 10
424.582307
 20
118.573128
 30
0.0
 10
423.337555
 20
117.364848
 30
0.0
 10
422.383203
 20
116.274280
 30
0.0
  0
SPLINE
  5
1e7
100
AcDbEntity
  8
dino
 62
1
100
AcDbSpline
 70
8
 71
3
 72
8
 73
4
 74
0
 40
0
 40
0
 40
0
 40
0
 40
1
 40
1
 40
1
 40
1
 10
422.383203
 20
116.274280
 30
0.0
 10
421.567507
 20
115.342192
 30
0.0
 10
420.996611
 20
114.563536
 30
0.0
 10
420.747267
 20
113.661784
 30
0.0
  0
SPLINE
  5
1e8
100
AcDbEntity
  8
dino
 62
1
100
AcDbSpline
 70
8
 71
3
 72
8
 73
4
 74
0
 40
0
 40
0
 40
0
 40
0
 40
1
 40
1
 40
1
 40
1
 10
420.747267
 20
113.661784
 30
0.0
 10
416.243939
 20
107.732088
 30
0.0
 10
415.103843
 20
101.241288
 30
0.0
 10
414.998827
 20
97.175848
 30
0.0
  0
SPLINE
  5
1e9
100
AcDbEntity
  8
dino
 62
1
100
AcDbSpline
 70
8
 71
3
 72
8
 73
4
 74
0
 40
0
 40
0
 40
0
 40
0
 40
1
 40
1
 40
1
 40
1
 10
414.998827
 20
97.175848
 30
0.0
 10
414.972747
 20
96.196792
 30
0.0
 10
416.253123
 20
95.826248
 30
0.0
 10
416.742579
 20
96.671160
 30
0.0
  0
SPLINE
  5
1ea
100
AcDbEntity
  8
dino
 62
1
100
AcDbSpline
 70
8
 71
3
 72
8
 73
4
 74
0
 40
0
 40
0
 40
0
 40
0
 40
1
 40
1
 40
1
 40
1
 10
416.742579
 20
96.671160
 30
0.0
 10
419.134955
 20
100.802208
 30
0.0
 10
420.540779
 20
105.034872
 30
0.0
 10
426.455083
 20
109.996160
 30
0.0
  0
SPLINE
  5
1eb
100
AcDbEntity
  8
dino
 62
1
100
AcDbSpline
 70
8
 71
3
 72
8
 73
4
 74
0
 40
0
 40
0
 40
0
 40
0
 40
1
 40
1
 40
1
 40
1
 10
426.455083
 20
109.996160
 30
0.0
 10
429.430963
 20
110.286648
 30
0.0
 10
432.467387
 20
112.425400
 30
0.0
 10
435.995707
 20
114.872720
 30
0.0
  0
SPLINE
  5
1ec
100
AcDbEntity
  8
dino
 62
1
100
AcDbSpline
 70
8
 71
3
 72
8
 73
4
 74
0
 40
0
 40
0
 40
0
 40
0
 40
1
 40
1
 40
1
 40
1
 10
435.995707
 20
114.872720
 30
0.0
 10
439.606715
 20
117.377424
 30
0.0
 10
443.689531
 20
120.213632
 30
0.0
 10
448.258203
 20
121.958656
 30
0.0
  0
SPLINE
  5
1ed
100
AcDbEntity
  8
dino
 62
1
100
AcDbSpline
 70
8
 71
3
 72
8
 73
4
 74
0
 40
0
 40
0
 40
0
 40
0
 40
1
 40
1
 40
1
 40
1
 10
448.258203
 20
121.958656
 30
0.0
 10
448.090747
 20
121.653712
 30
0.0
 10
447.984395
 20
121.369424
 30
0.0
 10
447.819139
 20
121.188344
 30
0.0
  0
SPLINE
  5
1ee
100
AcDbEntity
  8
dino
 62
1
100
AcDbSpline
 70
8
 71
3
 72
8
 73
4
 74
0
 40
0
 40
0
 40
0
 40
0
 40
1
 40
1
 40
1
 40
1
 10
447.819139
 20
121.188344
 30
0.0
 10
442.267923
 20
115.293696
 30
0.0
 10
435.698427
 20
109.644352
 30
0.0
 10
432.895707
 20
101.438344
 30
0.0
  0
SPLINE
  5
1ef
100
AcDbEntity
  8
dino
 62
1
100
AcDbSpline
 70
8
 71
3
 72
8
 73
4
 74
0
 40
0
 40
0
 40
0
 40
0
 40
1
 40
1
 40
1
 40
1
 10
432.895707
 20
101.438344
 30
0.0
 10
432.887707
 20
101.422904
 30
0.0
 10
432.885707
 20
101.410024
 30
0.0
 10
432.878507
 20
101.394584
 30
0.0
  0
SPLINE
  5
1f0
100
AcDbEntity
  8
dino
 62
1
100
AcDbSpline
 70
8
 71
3
 72
8
 73
4
 74
0
 40
0
 40
0
 40
0
 40
0
 40
1
 40
1
 40
1
 40
1
 10
432.878507
 20
101.394584
 30
0.0
 10
431.056515
 20
97.481640
 30
0.0
 10
430.089355
 20
94.931472
 30
0.0
 10
429.975387
 20
89.166464
 30
0.0
  0
SPLINE
  5
1f1
100
AcDbEntity
  8
dino
 62
1
100
AcDbSpline
 70
8
 71
3
 72
8
 73
4
 74
0
 40
0
 40
0
 40
0
 40
0
 40
1
 40
1
 40
1
 40
1
 10
429.975387
 20
89.166464
 30
0.0
 10
429.957387
 20
88.175704
 30
0.0
 10
431.264691
 20
87.826000
 30
0.0
 10
431.733195
 20
88.696152
 30
0.0
  0
SPLINE
  5
1f2
100
AcDbEntity
  8
dino
 62
1
100
AcDbSpline
 70
8
 71
3
 72
8
 73
4
 74
0
 40
0
 40
0
 40
0
 40
0
 40
1
 40
1
 40
1
 40
1
 10
431.733195
 20
88.696152
 30
0.0
 10
432.996315
 20
91.049528
 30
0.0
 10
433.462363
 20
92.378232
 30
0.0
 10
434.092571
 20
93.633648
 30
0.0
  0
SPLINE
  5
1f3
100
AcDbEntity
  8
dino
 62
1
100
AcDbSpline
 70
8
 71
3
 72
8
 73
4
 74
0
 40
0
 40
0
 40
0
 40
0
 40
1
 40
1
 40
1
 40
1
 10
434.092571
 20
93.633648
 30
0.0
 10
434.710811
 20
94.865208
 30
0.0
 10
435.540171
 20
96.137704
 30
0.0
 10
437.542571
 20
98.477400
 30
0.0
  0
SPLINE
  5
1f4
100
AcDbEntity
  8
dino
 62
1
100
AcDbSpline
 70
8
 71
3
 72
8
 73
4
 74
0
 40
0
 40
0
 40
0
 40
0
 40
1
 40
1
 40
1
 40
1
 10
437.542571
 20
98.477400
 30
0.0
 10
437.614811
 20
98.520120
 30
0.0
 10
437.738187
 20
98.536200
 30
0.0
 10
437.809763
 20
98.582088
 30
0.0
  0
SPLINE
  5
1f5
100
AcDbEntity
  8
dino
 62
1
100
AcDbSpline
 70
8
 71
3
 72
8
 73
4
 74
0
 40
0
 40
0
 40
0
 40
0
 40
1
 40
1
 40
1
 40
1
 10
437.809763
 20
98.582088
 30
0.0
 10
438.029755
 20
98.723032
 30
0.0
 10
438.254059
 20
98.895136
 30
0.0
 10
438.503507
 20
99.103960
 30
0.0
  0
SPLINE
  5
1f6
100
AcDbEntity
  8
dino
 62
1
100
AcDbSpline
 70
8
 71
3
 72
8
 73
4
 74
0
 40
0
 40
0
 40
0
 40
0
 40
1
 40
1
 40
1
 40
1
 10
438.503507
 20
99.103960
 30
0.0
 10
439.002387
 20
99.521600
 30
0.0
 10
439.599107
 20
100.083160
 30
0.0
 10
440.284755
 20
100.758648
 30
0.0
  0
SPLINE
  5
1f7
100
AcDbEntity
  8
dino
 62
1
100
AcDbSpline
 70
8
 71
3
 72
8
 73
4
 74
0
 40
0
 40
0
 40
0
 40
0
 40
1
 40
1
 40
1
 40
1
 10
440.284755
 20
100.758648
 30
0.0
 10
441.656059
 20
102.109632
 30
0.0
 10
443.371571
 20
103.909992
 30
0.0
 10
445.183195
 20
105.789904
 30
0.0
  0
SPLINE
  5
1f8
100
AcDbEntity
  8
dino
 62
1
100
AcDbSpline
 70
8
 71
3
 72
8
 73
4
 74
0
 40
0
 40
0
 40
0
 40
0
 40
1
 40
1
 40
1
 40
1
 10
445.183195
 20
105.789904
 30
0.0
 10
448.501139
 20
109.232912
 30
0.0
 10
452.064507
 20
112.744608
 30
0.0
 10
454.214443
 20
114.296152
 30
0.0
  0
SPLINE
  5
1f9
100
AcDbEntity
  8
dino
 62
1
100
AcDbSpline
 70
8
 71
3
 72
8
 73
4
 74
0
 40
0
 40
0
 40
0
 40
0
 40
1
 40
1
 40
1
 40
1
 10
454.214443
 20
114.296152
 30
0.0
 10
454.176043
 20
114.057888
 30
0.0
 10
454.199643
 20
113.981856
 30
0.0
 10
454.092571
 20
113.639904
 30
0.0
  0
SPLINE
  5
1fa
100
AcDbEntity
  8
dino
 62
1
100
AcDbSpline
 70
8
 71
3
 72
8
 73
4
 74
0
 40
0
 40
0
 40
0
 40
0
 40
1
 40
1
 40
1
 40
1
 10
454.092571
 20
113.639904
 30
0.0
 10
453.643587
 20
112.205784
 30
0.0
 10
452.644987
 20
110.071056
 30
0.0
 10
451.536323
 20
107.888336
 30
0.0
  0
SPLINE
  5
1fb
100
AcDbEntity
  8
dino
 62
1
100
AcDbSpline
 70
8
 71
3
 72
8
 73
4
 74
0
 40
0
 40
0
 40
0
 40
0
 40
1
 40
1
 40
1
 40
1
 10
451.536323
 20
107.888336
 30
0.0
 10
450.427659
 20
105.705640
 30
0.0
 10
449.209667
 20
103.458472
 30
0.0
 10
448.295699
 20
101.671152
 30
0.0
  0
SPLINE
  5
1fc
100
AcDbEntity
  8
dino
 62
1
100
AcDbSpline
 70
8
 71
3
 72
8
 73
4
 74
0
 40
0
 40
0
 40
0
 40
0
 40
1
 40
1
 40
1
 40
1
 10
448.295699
 20
101.671152
 30
0.0
 10
447.838707
 20
100.777496
 30
0.0
 10
447.458259
 20
99.999904
 30
0.0
 10
447.197259
 20
99.377400
 30
0.0
  0
SPLINE
  5
1fd
100
AcDbEntity
  8
dino
 62
1
100
AcDbSpline
 70
8
 71
3
 72
8
 73
4
 74
0
 40
0
 40
0
 40
0
 40
0
 40
1
 40
1
 40
1
 40
1
 10
447.197259
 20
99.377400
 30
0.0
 10
447.066763
 20
99.066168
 30
0.0
 10
446.964475
 20
98.797696
 30
0.0
 10
446.895699
 20
98.533648
 30
0.0
  0
SPLINE
  5
1fe
100
AcDbEntity
  8
dino
 62
1
100
AcDbSpline
 70
8
 71
3
 72
8
 73
4
 74
0
 40
0
 40
0
 40
0
 40
0
 40
1
 40
1
 40
1
 40
1
 10
446.895699
 20
98.533648
 30
0.0
 10
446.858099
 20
98.389304
 30
0.0
 10
446.805707
 20
98.237896
 30
0.0
 10
446.800387
 20
98.047712
 30
0.0
  0
SPLINE
  5
1ff
100
AcDbEntity
  8
dino
 62
1
100
AcDbSpline
 70
8
 71
3
 72
8
 73
4
 74
0
 40
0
 40
0
 40
0
 40
0
 40
1
 40
1
 40
1
 40
1
 10
446.800387
 20
98.047712
 30
0.0
 10
445.361803
 20
95.727064
 30
0.0
 10
444.400035
 20
93.379128
 30
0.0
 10
442.983195
 20
88.966464
 30
0.0
  0
SPLINE
  5
200
100
AcDbEntity
  8
dino
 62
1
100
AcDbSpline
 70
8
 71
3
 72
8
 73
4
 74
0
 40
0
 40
0
 40
0
 40
0
 40
1
 40
1
 40
1
 40
1
 10
442.983195
 20
88.966464
 30
0.0
 10
442.685555
 20
88.040600
 30
0.0
 10
443.795619
 20
87.316640
 30
0.0
 10
444.505075
 20
87.974272
 30
0.0
  0
SPLINE
  5
201
100
AcDbEntity
  8
dino
 62
1
100
AcDbSpline
 70
8
 71
3
 72
8
 73
4
 74
0
 40
0
 40
0
 40
0
 40
0
 40
1
 40
1
 40
1
 40
1
 10
444.505075
 20
87.974272
 30
0.0
 10
446.447667
 20
89.772056
 30
0.0
 10
447.300683
 20
90.753160
 30
0.0
 10
448.097259
 20
91.691464
 30
0.0
  0
SPLINE
  5
202
100
AcDbEntity
  8
dino
 62
1
100
AcDbSpline
 70
8
 71
3
 72
8
 73
4
 74
0
 40
0
 40
0
 40
0
 40
0
 40
1
 40
1
 40
1
 40
1
 10
448.097259
 20
91.691464
 30
0.0
 10
448.843291
 20
92.570224
 30
0.0
 10
449.662707
 20
93.505048
 30
0.0
 10
451.275387
 20
95.072712
 30
0.0
  0
SPLINE
  5
203
100
AcDbEntity
  8
dino
 62
1
100
AcDbSpline
 70
8
 71
3
 72
8
 73
4
 74
0
 40
0
 40
0
 40
0
 40
0
 40
1
 40
1
 40
1
 40
1
 10
451.275387
 20
95.072712
 30
0.0
 10
451.455659
 20
95.129112
 30
0.0
 10
451.615419
 20
95.214944
 30
0.0
 10
451.736323
 20
95.293024
 30
0.0
  0
SPLINE
  5
204
100
AcDbEntity
  8
dino
 62
1
100
AcDbSpline
 70
8
 71
3
 72
8
 73
4
 74
0
 40
0
 40
0
 40
0
 40
0
 40
1
 40
1
 40
1
 40
1
 10
451.736323
 20
95.293024
 30
0.0
 10
452.007859
 20
95.468392
 30
0.0
 10
452.238307
 20
95.683888
 30
0.0
 10
452.492571
 20
95.949272
 30
0.0
  0
SPLINE
  5
205
100
AcDbEntity
  8
dino
 62
1
100
AcDbSpline
 70
8
 71
3
 72
8
 73
4
 74
0
 40
0
 40
0
 40
0
 40
0
 40
1
 40
1
 40
1
 40
1
 10
452.492571
 20
95.949272
 30
0.0
 10
453.001131
 20
96.480032
 30
0.0
 10
453.582715
 20
97.215928
 30
0.0
 10
454.245699
 20
98.125840
 30
0.0
  0
SPLINE
  5
206
100
AcDbEntity
  8
dino
 62
1
100
AcDbSpline
 70
8
 71
3
 72
8
 73
4
 74
0
 40
0
 40
0
 40
0
 40
0
 40
1
 40
1
 40
1
 40
1
 10
454.245699
 20
98.125840
 30
0.0
 10
455.571707
 20
99.945664
 30
0.0
 10
457.204011
 20
102.447280
 30
0.0
 10
458.892571
 20
105.119584
 30
0.0
  0
SPLINE
  5
207
100
AcDbEntity
  8
dino
 62
1
100
AcDbSpline
 70
8
 71
3
 72
8
 73
4
 74
0
 40
0
 40
0
 40
0
 40
0
 40
1
 40
1
 40
1
 40
1
 10
458.892571
 20
105.119584
 30
0.0
 10
462.251155
 20
110.434896
 30
0.0
 10
465.819155
 20
116.410240
 30
0.0
 10
467.416011
 20
118.802400
 30
0.0
  0
SPLINE
  5
208
100
AcDbEntity
  8
dino
 62
1
100
AcDbSpline
 70
8
 71
3
 72
8
 73
4
 74
0
 40
0
 40
0
 40
0
 40
0
 40
1
 40
1
 40
1
 40
1
 10
467.416011
 20
118.802400
 30
0.0
 10
477.618979
 20
128.144952
 30
0.0
 10
487.118803
 20
138.007184
 30
0.0
 10
497.375387
 20
147.166464
 30
0.0
  0
SPLINE
  5
209
100
AcDbEntity
  8
dino
 62
1
100
AcDbSpline
 70
8
 71
3
 72
8
 73
4
 74
0
 40
0
 40
0
 40
0
 40
0
 40
1
 40
1
 40
1
 40
1
 10
497.375387
 20
147.166464
 30
0.0
 10
498.880395
 20
147.870664
 30
0.0
 10
501.483339
 20
149.595832
 30
0.0
 10
504.076947
 20
151.660216
 30
0.0
  0
SPLINE
  5
20a
100
AcDbEntity
  8
dino
 62
1
100
AcDbSpline
 70
8
 71
3
 72
8
 73
4
 74
0
 40
0
 40
0
 40
0
 40
0
 40
1
 40
1
 40
1
 40
1
 10
504.076947
 20
151.660216
 30
0.0
 10
505.418611
 20
152.728128
 30
0.0
 10
506.720051
 20
153.865032
 30
0.0
 10
507.778507
 20
154.964896
 30
0.0
  0
SPLINE
  5
20b
100
AcDbEntity
  8
dino
 62
1
100
AcDbSpline
 70
8
 71
3
 72
8
 73
4
 74
0
 40
0
 40
0
 40
0
 40
0
 40
1
 40
1
 40
1
 40
1
 10
507.778507
 20
154.964896
 30
0.0
 10
508.836963
 20
156.064768
 30
0.0
 10
509.666715
 20
157.087016
 30
0.0
 10
510.039443
 20
158.168024
 30
0.0
  0
LWPOLYLINE
  5
20c
100
AcDbEntity
  8
dino
 62
1
100
AcDbPolyline
 90
2
 70
1
 10
12.851954
 20
176.381544
 30
0.0
 10
12.859794
 20
176.389544
 30
0.0
  0
SPLINE
  5
20d
100
AcDbEntity
  8
dino
 62
1
100
AcDbSpline
 70
8
 71
3
 72
8
 73
4
 74
0
 40
0
 40
0
 40
0
 40
0
 40
1
 40
1
 40
1
 40
1
 10
512.428507
 20
165.102400
 30
0.0
 10
514.407843
 20
164.675176
 30
0.0
 10
516.351075
 20
164.250984
 30
0.0
 10
517.695699
 20
163.824272
 30
0.0
  0
SPLINE
  5
20e
100
AcDbEntity
  8
dino
 62
1
100
AcDbSpline
 70
8
 71
3
 72
8
 73
4
 74
0
 40
0
 40
0
 40
0
 40
0
 40
1
 40
1
 40
1
 40
1
 10
517.695699
 20
163.824272
 30
0.0
 10
518.469915
 20
163.578568
 30
0.0
 10
519.085859
 20
163.322928
 30
0.0
 10
519.426947
 20
163.118024
 30
0.0
  0
SPLINE
  5
20f
100
AcDbEntity
  8
dino
 62
1
100
AcDbSpline
 70
8
 71
3
 72
8
 73
4
 74
0
 40
0
 40
0
 40
0
 40
0
 40
1
 40
1
 40
1
 40
1
 10
519.426947
 20
163.118024
 30
0.0
 10
519.509163
 20
163.068584
 30
0.0
 10
519.515899
 20
163.053784
 30
0.0
 10
519.562883
 20
163.016464
 30
0.0
  0
SPLINE
  5
210
100
AcDbEntity
  8
dino
 62
1
100
AcDbSpline
 70
8
 71
3
 72
8
 73
4
 74
0
 40
0
 40
0
 40
0
 40
0
 40
1
 40
1
 40
1
 40
1
 10
519.562883
 20
163.016464
 30
0.0
 10
514.799667
 20
150.246552
 30
0.0
 10
508.389411
 20
138.880264
 30
0.0
 10
503.430075
 20
125.982088
 30
0.0
  0
SPLINE
  5
211
100
AcDbEntity
  8
dino
 62
1
100
AcDbSpline
 70
8
 71
3
 72
8
 73
4
 74
0
 40
0
 40
0
 40
0
 40
0
 40
1
 40
1
 40
1
 40
1
 10
503.430075
 20
125.982088
 30
0.0
 10
501.840971
 20
123.694696
 30
0.0
 10
497.519011
 20
118.738992
 30
0.0
 10
493.747259
 20
114.252400
 30
0.0
  0
SPLINE
  5
212
100
AcDbEntity
  8
dino
 62
1
100
AcDbSpline
 70
8
 71
3
 72
8
 73
4
 74
0
 40
0
 40
0
 40
0
 40
0
 40
1
 40
1
 40
1
 40
1
 10
493.747259
 20
114.252400
 30
0.0
 10
491.852435
 20
111.998448
 30
0.0
 10
490.094051
 20
109.857248
 30
0.0
 10
488.859763
 20
108.174272
 30
0.0
  0
SPLINE
  5
213
100
AcDbEntity
  8
dino
 62
1
100
AcDbSpline
 70
8
 71
3
 72
8
 73
4
 74
0
 40
0
 40
0
 40
0
 40
0
 40
1
 40
1
 40
1
 40
1
 10
488.859763
 20
108.174272
 30
0.0
 10
488.242611
 20
107.332768
 30
0.0
 10
487.758171
 20
106.613904
 30
0.0
 10
487.434755
 20
106.002400
 30
0.0
  0
SPLINE
  5
214
100
AcDbEntity
  8
dino
 62
1
100
AcDbSpline
 70
8
 71
3
 72
8
 73
4
 74
0
 40
0
 40
0
 40
0
 40
0
 40
1
 40
1
 40
1
 40
1
 10
487.434755
 20
106.002400
 30
0.0
 10
487.273059
 20
105.696664
 30
0.0
 10
487.147579
 20
105.423920
 30
0.0
 10
487.073819
 20
105.108648
 30
0.0
  0
SPLINE
  5
215
100
AcDbEntity
  8
dino
 62
1
100
AcDbSpline
 70
8
 71
3
 72
8
 73
4
 74
0
 40
0
 40
0
 40
0
 40
0
 40
1
 40
1
 40
1
 40
1
 10
487.073819
 20
105.108648
 30
0.0
 10
487.046459
 20
104.991624
 30
0.0
 10
487.043339
 20
104.830240
 30
0.0
 10
487.044139
 20
104.672712
 30
0.0
  0
SPLINE
  5
216
100
AcDbEntity
  8
dino
 62
1
100
AcDbSpline
 70
8
 71
3
 72
8
 73
4
 74
0
 40
0
 40
0
 40
0
 40
0
 40
1
 40
1
 40
1
 40
1
 10
487.044139
 20
104.672712
 30
0.0
 10
486.131827
 20
102.564536
 30
0.0
 10
485.023419
 20
101.370392
 30
0.0
 10
483.584763
 20
100.250840
 30
0.0
  0
SPLINE
  5
217
100
AcDbEntity
  8
dino
 62
1
100
AcDbSpline
 70
8
 71
3
 72
8
 73
4
 74
0
 40
0
 40
0
 40
0
 40
0
 40
1
 40
1
 40
1
 40
1
 10
483.584763
 20
100.250840
 30
0.0
 10
482.090099
 20
99.087720
 30
0.0
 10
480.229051
 20
97.995400
 30
0.0
 10
478.161331
 20
96.127400
 30
0.0
  0
SPLINE
  5
218
100
AcDbEntity
  8
dino
 62
1
100
AcDbSpline
 70
8
 71
3
 72
8
 73
4
 74
0
 40
0
 40
0
 40
0
 40
0
 40
1
 40
1
 40
1
 40
1
 10
478.161331
 20
96.127400
 30
0.0
 10
477.423675
 20
95.456824
 30
0.0
 10
478.088451
 20
94.238520
 30
0.0
 10
479.042579
 20
94.511776
 30
0.0
  0
SPLINE
  5
219
100
AcDbEntity
  8
dino
 62
1
100
AcDbSpline
 70
8
 71
3
 72
8
 73
4
 74
0
 40
0
 40
0
 40
0
 40
0
 40
1
 40
1
 40
1
 40
1
 10
479.042579
 20
94.511776
 30
0.0
 10
481.096531
 20
95.106816
 30
0.0
 10
483.842939
 20
95.863152
 30
0.0
 10
486.311331
 20
96.769584
 30
0.0
  0
SPLINE
  5
21a
100
AcDbEntity
  8
dino
 62
1
100
AcDbSpline
 70
8
 71
3
 72
8
 73
4
 74
0
 40
0
 40
0
 40
0
 40
0
 40
1
 40
1
 40
1
 40
1
 10
486.311331
 20
96.769584
 30
0.0
 10
488.564227
 20
97.596872
 30
0.0
 10
490.489891
 20
98.496360
 30
0.0
 10
491.669139
 20
99.810216
 30
0.0
  0
SPLINE
  5
21b
100
AcDbEntity
  8
dino
 62
1
100
AcDbSpline
 70
8
 71
3
 72
8
 73
4
 74
0
 40
0
 40
0
 40
0
 40
0
 40
1
 40
1
 40
1
 40
1
 10
491.669139
 20
99.810216
 30
0.0
 10
491.898571
 20
99.871336
 30
0.0
 10
492.062403
 20
99.973880
 30
0.0
 10
492.201955
 20
100.071152
 30
0.0
  0
SPLINE
  5
21c
100
AcDbEntity
  8
dino
 62
1
100
AcDbSpline
 70
8
 71
3
 72
8
 73
4
 74
0
 40
0
 40
0
 40
0
 40
0
 40
1
 40
1
 40
1
 40
1
 10
492.201955
 20
100.071152
 30
0.0
 10
492.420747
 20
100.223688
 30
0.0
 10
492.633499
 20
100.408000
 30
0.0
 10
492.872267
 20
100.632088
 30
0.0
  0
SPLINE
  5
21d
100
AcDbEntity
  8
dino
 62
1
100
AcDbSpline
 70
8
 71
3
 72
8
 73
4
 74
0
 40
0
 40
0
 40
0
 40
0
 40
1
 40
1
 40
1
 40
1
 10
492.872267
 20
100.632088
 30
0.0
 10
493.349811
 20
101.080248
 30
0.0
 10
493.921923
 20
101.685032
 30
0.0
 10
494.575395
 20
102.400840
 30
0.0
  0
SPLINE
  5
21e
100
AcDbEntity
  8
dino
 62
1
100
AcDbSpline
 70
8
 71
3
 72
8
 73
4
 74
0
 40
0
 40
0
 40
0
 40
0
 40
1
 40
1
 40
1
 40
1
 10
494.575395
 20
102.400840
 30
0.0
 10
495.882315
 20
103.832400
 30
0.0
 10
497.498731
 20
105.694512
 30
0.0
 10
499.094139
 20
107.427400
 30
0.0
  0
SPLINE
  5
21f
100
AcDbEntity
  8
dino
 62
1
100
AcDbSpline
 70
8
 71
3
 72
8
 73
4
 74
0
 40
0
 40
0
 40
0
 40
0
 40
1
 40
1
 40
1
 40
1
 10
499.094139
 20
107.427400
 30
0.0
 10
500.689539
 20
109.160288
 30
0.0
 10
502.281459
 20
110.771768
 30
0.0
 10
503.420707
 20
111.636776
 30
0.0
  0
SPLINE
  5
220
100
AcDbEntity
  8
dino
 62
1
100
AcDbSpline
 70
8
 71
3
 72
8
 73
4
 74
0
 40
0
 40
0
 40
0
 40
0
 40
1
 40
1
 40
1
 40
1
 10
503.420707
 20
111.636776
 30
0.0
 10
503.714651
 20
111.859944
 30
0.0
 10
503.800987
 20
111.865992
 30
0.0
 10
504.006643
 20
111.974272
 30
0.0
  0
SPLINE
  5
221
100
AcDbEntity
  8
dino
 62
1
100
AcDbSpline
 70
8
 71
3
 72
8
 73
4
 74
0
 40
0
 40
0
 40
0
 40
0
 40
1
 40
1
 40
1
 40
1
 10
504.006643
 20
111.974272
 30
0.0
 10
503.363283
 20
109.407728
 30
0.0
 10
501.356315
 20
104.721568
 30
0.0
 10
499.342579
 20
100.318024
 30
0.0
  0
SPLINE
  5
222
100
AcDbEntity
  8
dino
 62
1
100
AcDbSpline
 70
8
 71
3
 72
8
 73
4
 74
0
 40
0
 40
0
 40
0
 40
0
 40
1
 40
1
 40
1
 40
1
 10
499.342579
 20
100.318024
 30
0.0
 10
498.253171
 20
97.935768
 30
0.0
 10
497.205443
 20
95.670592
 30
0.0
 10
496.447267
 20
93.893024
 30
0.0
  0
SPLINE
  5
223
100
AcDbEntity
  8
dino
 62
1
100
AcDbSpline
 70
8
 71
3
 72
8
 73
4
 74
0
 40
0
 40
0
 40
0
 40
0
 40
1
 40
1
 40
1
 40
1
 10
496.447267
 20
93.893024
 30
0.0
 10
496.068179
 20
93.004240
 30
0.0
 10
495.761163
 20
92.240016
 30
0.0
 10
495.553515
 20
91.619584
 30
0.0
  0
SPLINE
  5
224
100
AcDbEntity
  8
dino
 62
1
100
AcDbSpline
 70
8
 71
3
 72
8
 73
4
 74
0
 40
0
 40
0
 40
0
 40
0
 40
1
 40
1
 40
1
 40
1
 10
495.553515
 20
91.619584
 30
0.0
 10
495.449707
 20
91.309368
 30
0.0
 10
495.370771
 20
91.037232
 30
0.0
 10
495.319139
 20
90.778960
 30
0.0
  0
SPLINE
  5
225
100
AcDbEntity
  8
dino
 62
1
100
AcDbSpline
 70
8
 71
3
 72
8
 73
4
 74
0
 40
0
 40
0
 40
0
 40
0
 40
1
 40
1
 40
1
 40
1
 10
495.319139
 20
90.778960
 30
0.0
 10
495.301139
 20
90.689016
 30
0.0
 10
495.334339
 20
90.558200
 30
0.0
 10
495.320739
 20
90.468024
 30
0.0
  0
SPLINE
  5
226
100
AcDbEntity
  8
dino
 62
1
100
AcDbSpline
 70
8
 71
3
 72
8
 73
4
 74
0
 40
0
 40
0
 40
0
 40
0
 40
1
 40
1
 40
1
 40
1
 10
495.320739
 20
90.468024
 30
0.0
 10
493.868595
 20
87.695272
 30
0.0
 10
493.153323
 20
86.058072
 30
0.0
 10
492.476987
 20
84.772712
 30
0.0
  0
SPLINE
  5
227
100
AcDbEntity
  8
dino
 62
1
100
AcDbSpline
 70
8
 71
3
 72
8
 73
4
 74
0
 40
0
 40
0
 40
0
 40
0
 40
1
 40
1
 40
1
 40
1
 10
492.476987
 20
84.772712
 30
0.0
 10
491.783827
 20
83.455368
 30
0.0
 10
491.085243
 20
82.398856
 30
0.0
 10
489.422299
 20
80.433648
 30
0.0
  0
SPLINE
  5
228
100
AcDbEntity
  8
dino
 62
1
100
AcDbSpline
 70
8
 71
3
 72
8
 73
4
 74
0
 40
0
 40
0
 40
0
 40
0
 40
1
 40
1
 40
1
 40
1
 10
489.422299
 20
80.433648
 30
0.0
 10
488.787827
 20
79.680240
 30
0.0
 10
489.577307
 20
78.570504
 30
0.0
 10
490.484795
 20
78.939904
 30
0.0
  0
SPLINE
  5
229
100
AcDbEntity
  8
dino
 62
1
100
AcDbSpline
 70
8
 71
3
 72
8
 73
4
 74
0
 40
0
 40
0
 40
0
 40
0
 40
1
 40
1
 40
1
 40
1
 10
490.484795
 20
78.939904
 30
0.0
 10
493.205595
 20
80.055816
 30
0.0
 10
494.849427
 20
81.385232
 30
0.0
 10
496.123859
 20
82.797712
 30
0.0
  0
SPLINE
  5
22a
100
AcDbEntity
  8
dino
 62
1
100
AcDbSpline
 70
8
 71
3
 72
8
 73
4
 74
0
 40
0
 40
0
 40
0
 40
0
 40
1
 40
1
 40
1
 40
1
 10
496.123859
 20
82.797712
 30
0.0
 10
497.398291
 20
84.210208
 30
0.0
 10
498.308243
 20
85.649264
 30
0.0
 10
499.723859
 20
87.141464
 30
0.0
  0
SPLINE
  5
22b
100
AcDbEntity
  8
dino
 62
1
100
AcDbSpline
 70
8
 71
3
 72
8
 73
4
 74
0
 40
0
 40
0
 40
0
 40
0
 40
1
 40
1
 40
1
 40
1
 10
499.723859
 20
87.141464
 30
0.0
 10
506.298379
 20
92.721016
 30
0.0
 10
509.155787
 20
100.959272
 30
0.0
 10
512.614483
 20
108.310216
 30
0.0
  0
SPLINE
  5
22c
100
AcDbEntity
  8
dino
 62
1
100
AcDbSpline
 70
8
 71
3
 72
8
 73
4
 74
0
 40
0
 40
0
 40
0
 40
0
 40
1
 40
1
 40
1
 40
1
 10
512.614483
 20
108.310216
 30
0.0
 10
512.614995
 20
108.310968
 30
0.0
 10
512.616883
 20
108.312616
 30
0.0
 10
512.617683
 20
108.313416
 30
0.0
  0
SPLINE
  5
22d
100
AcDbEntity
  8
dino
 62
1
100
AcDbSpline
 70
8
 71
3
 72
8
 73
4
 74
0
 40
0
 40
0
 40
0
 40
0
 40
1
 40
1
 40
1
 40
1
 10
512.617683
 20
108.313416
 30
0.0
 10
512.726043
 20
108.533336
 30
0.0
 10
512.946675
 20
108.729152
 30
0.0
 10
513.166123
 20
108.993104
 30
0.0
  0
SPLINE
  5
22e
100
AcDbEntity
  8
dino
 62
1
100
AcDbSpline
 70
8
 71
3
 72
8
 73
4
 74
0
 40
0
 40
0
 40
0
 40
0
 40
1
 40
1
 40
1
 40
1
 10
513.166123
 20
108.993104
 30
0.0
 10
513.187643
 20
104.048896
 30
0.0
 10
512.031875
 20
99.176872
 30
0.0
 10
511.012995
 20
94.868104
 30
0.0
  0
SPLINE
  5
22f
100
AcDbEntity
  8
dino
 62
1
100
AcDbSpline
 70
8
 71
3
 72
8
 73
4
 74
0
 40
0
 40
0
 40
0
 40
0
 40
1
 40
1
 40
1
 40
1
 10
511.012995
 20
94.868104
 30
0.0
 10
510.015427
 20
90.649464
 30
0.0
 10
509.127051
 20
87.006200
 30
0.0
 10
509.931747
 20
84.086856
 30
0.0
  0
SPLINE
  5
230
100
AcDbEntity
  8
dino
 62
1
100
AcDbSpline
 70
8
 71
3
 72
8
 73
4
 74
0
 40
0
 40
0
 40
0
 40
0
 40
1
 40
1
 40
1
 40
1
 10
509.931747
 20
84.086856
 30
0.0
 10
507.462139
 20
76.583792
 30
0.0
 10
506.506083
 20
73.693560
 30
0.0
 10
503.723931
 20
70.180608
 30
0.0
  0
SPLINE
  5
231
100
AcDbEntity
  8
dino
 62
1
100
AcDbSpline
 70
8
 71
3
 72
8
 73
4
 74
0
 40
0
 40
0
 40
0
 40
0
 40
1
 40
1
 40
1
 40
1
 10
503.723931
 20
70.180608
 30
0.0
 10
503.119955
 20
69.417024
 30
0.0
 10
503.915923
 20
68.340064
 30
0.0
 10
504.809875
 20
68.711856
 30
0.0
  0
SPLINE
  5
232
100
AcDbEntity
  8
dino
 62
1
100
AcDbSpline
 70
8
 71
3
 72
8
 73
4
 74
0
 40
0
 40
0
 40
0
 40
0
 40
1
 40
1
 40
1
 40
1
 10
504.809875
 20
68.711856
 30
0.0
 10
508.675467
 20
70.325320
 30
0.0
 10
511.590275
 20
73.828560
 30
0.0
 10
515.347371
 20
80.036856
 30
0.0
  0
SPLINE
  5
233
100
AcDbEntity
  8
dino
 62
1
100
AcDbSpline
 70
8
 71
3
 72
8
 73
4
 74
0
 40
0
 40
0
 40
0
 40
0
 40
1
 40
1
 40
1
 40
1
 10
515.347371
 20
80.036856
 30
0.0
 10
516.087851
 20
80.594768
 30
0.0
 10
516.600427
 20
81.412088
 30
0.0
 10
517.167683
 20
82.513416
 30
0.0
  0
SPLINE
  5
234
100
AcDbEntity
  8
dino
 62
1
100
AcDbSpline
 70
8
 71
3
 72
8
 73
4
 74
0
 40
0
 40
0
 40
0
 40
0
 40
1
 40
1
 40
1
 40
1
 10
517.167683
 20
82.513416
 30
0.0
 10
517.832803
 20
83.804784
 30
0.0
 10
518.501075
 20
85.411008
 30
0.0
 10
519.127059
 20
87.093104
 30
0.0
  0
SPLINE
  5
235
100
AcDbEntity
  8
dino
 62
1
100
AcDbSpline
 70
8
 71
3
 72
8
 73
4
 74
0
 40
0
 40
0
 40
0
 40
0
 40
1
 40
1
 40
1
 40
1
 10
519.127059
 20
87.093104
 30
0.0
 10
520.378979
 20
90.457320
 30
0.0
 10
521.450011
 20
94.083504
 30
0.0
 10
521.862995
 20
95.975920
 30
0.0
  0
SPLINE
  5
236
100
AcDbEntity
  8
dino
 62
1
100
AcDbSpline
 70
8
 71
3
 72
8
 73
4
 74
0
 40
0
 40
0
 40
0
 40
0
 40
1
 40
1
 40
1
 40
1
 10
521.862995
 20
95.975920
 30
0.0
 10
521.870995
 20
96.011520
 30
0.0
 10
521.877955
 20
96.047360
 30
0.0
 10
521.881715
 20
96.083728
 30
0.0
  0
SPLINE
  5
237
100
AcDbEntity
  8
dino
 62
1
100
AcDbSpline
 70
8
 71
3
 72
8
 73
4
 74
0
 40
0
 40
0
 40
0
 40
0
 40
1
 40
1
 40
1
 40
1
 10
521.881715
 20
96.083728
 30
0.0
 10
522.722011
 20
104.429360
 30
0.0
 10
522.418811
 20
111.252856
 30
0.0
 10
524.473899
 20
119.046232
 30
0.0
  0
SPLINE
  5
238
100
AcDbEntity
  8
dino
 62
1
100
AcDbSpline
 70
8
 71
3
 72
8
 73
4
 74
0
 40
0
 40
0
 40
0
 40
0
 40
1
 40
1
 40
1
 40
1
 10
524.473899
 20
119.046232
 30
0.0
 10
526.869971
 20
128.132824
 30
0.0
 10
533.519947
 20
140.161208
 30
0.0
 10
538.022339
 20
148.749352
 30
0.0
  0
SPLINE
  5
239
100
AcDbEntity
  8
dino
 62
1
100
AcDbSpline
 70
8
 71
3
 72
8
 73
4
 74
0
 40
0
 40
0
 40
0
 40
0
 40
1
 40
1
 40
1
 40
1
 10
538.022339
 20
148.749352
 30
0.0
 10
541.654035
 20
152.879136
 30
0.0
 10
543.441435
 20
156.133192
 30
0.0
 10
544.248899
 20
160.488416
 30
0.0
  0
SPLINE
  5
23a
100
AcDbEntity
  8
dino
 62
1
100
AcDbSpline
 70
8
 71
3
 72
8
 73
4
 74
0
 40
0
 40
0
 40
0
 40
0
 40
1
 40
1
 40
1
 40
1
 10
544.248899
 20
160.488416
 30
0.0
 10
544.841915
 20
163.686992
 30
0.0
 10
540.776051
 20
167.870104
 30
0.0
 10
543.070779
 20
170.175920
 30
0.0
  0
SPLINE
  5
23b
100
AcDbEntity
  8
dino
 62
1
100
AcDbSpline
 70
8
 71
3
 72
8
 73
4
 74
0
 40
0
 40
0
 40
0
 40
0
 40
1
 40
1
 40
1
 40
1
 10
543.070779
 20
170.175920
 30
0.0
 10
545.098827
 20
172.213760
 30
0.0
 10
548.809395
 20
169.699176
 30
0.0
 10
551.636403
 20
169.175920
 30
0.0
  0
SPLINE
  5
23c
100
AcDbEntity
  8
dino
 62
1
100
AcDbSpline
 70
8
 71
3
 72
8
 73
4
 74
0
 40
0
 40
0
 40
0
 40
0
 40
1
 40
1
 40
1
 40
1
 10
551.636403
 20
169.175920
 30
0.0
 10
557.493971
 20
168.091736
 30
0.0
 10
563.074619
 20
165.720104
 30
0.0
 10
568.953587
 20
164.758728
 30
0.0
  0
SPLINE
  5
23d
100
AcDbEntity
  8
dino
 62
1
100
AcDbSpline
 70
8
 71
3
 72
8
 73
4
 74
0
 40
0
 40
0
 40
0
 40
0
 40
1
 40
1
 40
1
 40
1
 10
568.953587
 20
164.758728
 30
0.0
 10
572.634427
 20
164.156808
 30
0.0
 10
577.012731
 20
166.001760
 30
0.0
 10
580.111403
 20
163.925920
 30
0.0
  0
SPLINE
  5
23e
100
AcDbEntity
  8
dino
 62
1
100
AcDbSpline
 70
8
 71
3
 72
8
 73
4
 74
0
 40
0
 40
0
 40
0
 40
0
 40
1
 40
1
 40
1
 40
1
 10
580.111403
 20
163.925920
 30
0.0
 10
582.807483
 20
162.119784
 30
0.0
 10
584.296755
 20
158.463016
 30
0.0
 10
584.475467
 20
155.222792
 30
0.0
  0
SPLINE
  5
23f
100
AcDbEntity
  8
dino
 62
1
100
AcDbSpline
 70
8
 71
3
 72
8
 73
4
 74
0
 40
0
 40
0
 40
0
 40
0
 40
1
 40
1
 40
1
 40
1
 10
584.475467
 20
155.222792
 30
0.0
 10
584.690147
 20
151.330392
 30
0.0
 10
580.963883
 20
148.115016
 30
0.0
 10
580.414523
 20
144.255608
 30
0.0
  0
SPLINE
  5
240
100
AcDbEntity
  8
dino
 62
1
100
AcDbSpline
 70
8
 71
3
 72
8
 73
4
 74
0
 40
0
 40
0
 40
0
 40
0
 40
1
 40
1
 40
1
 40
1
 10
580.414523
 20
144.255608
 30
0.0
 10
579.429251
 20
137.333792
 30
0.0
 10
581.424627
 20
130.309480
 30
0.0
 10
581.917651
 20
123.335296
 30
0.0
  0
SPLINE
  5
241
100
AcDbEntity
  8
dino
 62
1
100
AcDbSpline
 70
8
 71
3
 72
8
 73
4
 74
0
 40
0
 40
0
 40
0
 40
0
 40
1
 40
1
 40
1
 40
1
 10
581.917651
 20
123.335296
 30
0.0
 10
582.582051
 20
113.936936
 30
0.0
 10
584.541803
 20
104.535296
 30
0.0
 10
583.878587
 20
95.136856
 30
0.0
  0
SPLINE
  5
242
100
AcDbEntity
  8
dino
 62
1
100
AcDbSpline
 70
8
 71
3
 72
8
 73
4
 74
0
 40
0
 40
0
 40
0
 40
0
 40
1
 40
1
 40
1
 40
1
 10
583.878587
 20
95.136856
 30
0.0
 10
583.359651
 20
87.783080
 30
0.0
 10
579.743483
 20
80.865008
 30
0.0
 10
579.261403
 20
73.508728
 30
0.0
  0
SPLINE
  5
243
100
AcDbEntity
  8
dino
 62
1
100
AcDbSpline
 70
8
 71
3
 72
8
 73
4
 74
0
 40
0
 40
0
 40
0
 40
0
 40
1
 40
1
 40
1
 40
1
 10
579.261403
 20
73.508728
 30
0.0
 10
578.791915
 20
66.344632
 30
0.0
 10
581.443155
 20
59.202320
 30
0.0
 10
580.970779
 20
52.038416
 30
0.0
  0
SPLINE
  5
244
100
AcDbEntity
  8
dino
 62
1
100
AcDbSpline
 70
8
 71
3
 72
8
 73
4
 74
0
 40
0
 40
0
 40
0
 40
0
 40
1
 40
1
 40
1
 40
1
 10
580.970779
 20
52.038416
 30
0.0
 10
580.626771
 20
46.821304
 30
0.0
 10
578.733251
 20
41.822848
 30
0.0
 10
577.683275
 20
36.700920
 30
0.0
  0
SPLINE
  5
245
100
AcDbEntity
  8
dino
 62
1
100
AcDbSpline
 70
8
 71
3
 72
8
 73
4
 74
0
 40
0
 40
0
 40
0
 40
0
 40
1
 40
1
 40
1
 40
1
 10
577.683275
 20
36.700920
 30
0.0
 10
577.201667
 20
34.351552
 30
0.0
 10
578.110851
 20
31.214664
 30
0.0
 10
576.302027
 20
29.639984
 30
0.0
  0
SPLINE
  5
246
100
AcDbEntity
  8
dino
 62
1
100
AcDbSpline
 70
8
 71
3
 72
8
 73
4
 74
0
 40
0
 40
0
 40
0
 40
0
 40
1
 40
1
 40
1
 40
1
 10
576.302027
 20
29.639984
 30
0.0
 10
570.080859
 20
24.224088
 30
0.0
 10
560.670123
 20
25.791800
 30
0.0
 10
551.594211
 20
28.279040
 30
0.0
  0
SPLINE
  5
247
100
AcDbEntity
  8
dino
 62
1
100
AcDbSpline
 70
8
 71
3
 72
8
 73
4
 74
0
 40
0
 40
0
 40
0
 40
0
 40
1
 40
1
 40
1
 40
1
 10
551.594211
 20
28.279040
 30
0.0
 10
544.415883
 20
30.246248
 30
0.0
 10
532.721659
 20
31.805376
 30
0.0
 10
529.300467
 20
29.532168
 30
0.0
  0
SPLINE
  5
248
100
AcDbEntity
  8
dino
 62
1
100
AcDbSpline
 70
8
 71
3
 72
8
 73
4
 74
0
 40
0
 40
0
 40
0
 40
0
 40
1
 40
1
 40
1
 40
1
 10
529.300467
 20
29.532168
 30
0.0
 10
515.977851
 20
20.679968
 30
0.0
 10
515.358915
 20
2.103872
 30
0.0
 10
525.244211
 20
2.888416
 30
0.0
  0
SPLINE
  5
249
100
AcDbEntity
  8
dino
 62
1
100
AcDbSpline
 70
8
 71
3
 72
8
 73
4
 74
0
 40
0
 40
0
 40
0
 40
0
 40
1
 40
1
 40
1
 40
1
 10
525.244211
 20
2.888416
 30
0.0
 10
552.533691
 20
2.783392
 30
0.0
 10
577.439147
 20
3.157360
 30
0.0
 10
598.034835
 20
3.227480
 30
0.0
  0
LWPOLYLINE
  5
24a
100
AcDbEntity
  8
dino
 62
1
100
AcDbPolyline
 90
2
 70
1
 10
510.039443
 20
158.168024
 30
0.0
 10
512.428507
 20
165.102400
 30
0.0
  0
SPLINE
  5
24b
100
AcDbEntity
  8
dino
 62
1
100
AcDbSpline
 70
8
 71
3
 72
8
 73
4
 74
0
 40
0
 40
0
 40
0
 40
0
 40
1
 40
1
 40
1
 40
1
 10
606.537963
 20
3.263416
 30
0.0
 10
622.309307
 20
3.168928
 30
0.0
 10
626.792331
 20
1.976592
 30
0.0
 10
630.334835
 20
4.166544
 30
0.0
  0
SPLINE
  5
24c
100
AcDbEntity
  8
dino
 62
1
100
AcDbSpline
 70
8
 71
3
 72
8
 73
4
 74
0
 40
0
 40
0
 40
0
 40
0
 40
1
 40
1
 40
1
 40
1
 10
630.334835
 20
4.166544
 30
0.0
 10
632.553427
 20
5.538048
 30
0.0
 10
631.291035
 20
10.736360
 30
0.0
 10
630.570779
 20
13.900920
 30
0.0
  0
SPLINE
  5
24d
100
AcDbEntity
  8
dino
 62
1
100
AcDbSpline
 70
8
 71
3
 72
8
 73
4
 74
0
 40
0
 40
0
 40
0
 40
0
 40
1
 40
1
 40
1
 40
1
 10
630.570779
 20
13.900920
 30
0.0
 10
629.523203
 20
18.503640
 30
0.0
 10
624.540803
 20
23.667896
 30
0.0
 10
624.133275
 20
26.513416
 30
0.0
  0
SPLINE
  5
24e
100
AcDbEntity
  8
dino
 62
1
100
AcDbSpline
 70
8
 71
3
 72
8
 73
4
 74
0
 40
0
 40
0
 40
0
 40
0
 40
1
 40
1
 40
1
 40
1
 10
624.133275
 20
26.513416
 30
0.0
 10
623.775843
 20
30.613424
 30
0.0
 10
619.553571
 20
38.089960
 30
0.0
 10
626.394211
 20
39.293104
 30
0.0
  0
SPLINE
  5
24f
100
AcDbEntity
  8
dino
 62
1
100
AcDbSpline
 70
8
 71
3
 72
8
 73
4
 74
0
 40
0
 40
0
 40
0
 40
0
 40
1
 40
1
 40
1
 40
1
 10
626.394211
 20
39.293104
 30
0.0
 10
629.272523
 20
38.109248
 30
0.0
 10
633.380323
 20
24.769232
 30
0.0
 10
635.781715
 20
24.414976
 30
0.0
  0
SPLINE
  5
250
100
AcDbEntity
  8
dino
 62
1
100
AcDbSpline
 70
8
 71
3
 72
8
 73
4
 74
0
 40
0
 40
0
 40
0
 40
0
 40
1
 40
1
 40
1
 40
1
 10
635.781715
 20
24.414976
 30
0.0
 10
638.553219
 20
23.464952
 30
0.0
 10
640.503483
 20
24.126648
 30
0.0
 10
640.594211
 20
25.355608
 30
0.0
  0
SPLINE
  5
251
100
AcDbEntity
  8
dino
 62
1
100
AcDbSpline
 70
8
 71
3
 72
8
 73
4
 74
0
 40
0
 40
0
 40
0
 40
0
 40
1
 40
1
 40
1
 40
1
 10
640.594211
 20
25.355608
 30
0.0
 10
640.833475
 20
28.596504
 30
0.0
 10
639.804123
 20
31.633008
 30
0.0
 10
638.987963
 20
34.679040
 30
0.0
  0
SPLINE
  5
252
100
AcDbEntity
  8
dino
 62
1
100
AcDbSpline
 70
8
 71
3
 72
8
 73
4
 74
0
 40
0
 40
0
 40
0
 40
0
 40
1
 40
1
 40
1
 40
1
 10
638.987963
 20
34.679040
 30
0.0
 10
638.236707
 20
37.482840
 30
0.0
 10
636.564611
 20
40.006744
 30
0.0
 10
635.977027
 20
42.849352
 30
0.0
  0
SPLINE
  5
253
100
AcDbEntity
  8
dino
 62
1
100
AcDbSpline
 70
8
 71
3
 72
8
 73
4
 74
0
 40
0
 40
0
 40
0
 40
0
 40
1
 40
1
 40
1
 40
1
 10
635.977027
 20
42.849352
 30
0.0
 10
634.754411
 20
48.764064
 30
0.0
 10
634.419859
 20
54.928568
 30
0.0
 10
634.987963
 20
60.941544
 30
0.0
  0
SPLINE
  5
254
100
AcDbEntity
  8
dino
 62
1
100
AcDbSpline
 70
8
 71
3
 72
8
 73
4
 74
0
 40
0
 40
0
 40
0
 40
0
 40
1
 40
1
 40
1
 40
1
 10
634.987963
 20
60.941544
 30
0.0
 10
635.603531
 20
67.456864
 30
0.0
 10
639.251747
 20
73.469728
 30
0.0
 10
639.712963
 20
79.997792
 30
0.0
  0
SPLINE
  5
255
100
AcDbEntity
  8
dino
 62
1
100
AcDbSpline
 70
8
 71
3
 72
8
 73
4
 74
0
 40
0
 40
0
 40
0
 40
0
 40
1
 40
1
 40
1
 40
1
 10
639.712963
 20
79.997792
 30
0.0
 10
639.972107
 20
83.665720
 30
0.0
 10
638.883515
 20
87.307496
 30
0.0
 10
638.589523
 20
90.972792
 30
0.0
  0
SPLINE
  5
256
100
AcDbEntity
  8
dino
 62
1
100
AcDbSpline
 70
8
 71
3
 72
8
 73
4
 74
0
 40
0
 40
0
 40
0
 40
0
 40
1
 40
1
 40
1
 40
1
 10
638.589523
 20
90.972792
 30
0.0
 10
638.480539
 20
92.331560
 30
0.0
 10
638.388611
 20
93.692464
 30
0.0
 10
638.289523
 20
95.052480
 30
0.0
  0
LWPOLYLINE
  5
257
100
AcDbEntity
  8
dino
 62
1
100
AcDbPolyline
 90
4
 70
1
 10
598.034835
 20
3.227480
 30
0.0
 10
598.034835
 20
21.600920
 30
0.0
 10
606.537963
 20
21.600920
 30
0.0
 10
606.537963
 20
3.263416
 30
0.0
  0
SPLINE
  5
258
100
AcDbEntity
  8
dino
 62
1
100
AcDbSpline
 70
8
 71
3
 72
8
 73
4
 74
0
 40
0
 40
0
 40
0
 40
0
 40
1
 40
1
 40
1
 40
1
 10
637.834835
 20
103.557168
 30
0.0
 10
637.827635
 20
103.847912
 30
0.0
 10
637.811955
 20
104.138240
 30
0.0
 10
637.806675
 20
104.429040
 30
0.0
  0
SPLINE
  5
259
100
AcDbEntity
  8
dino
 62
1
100
AcDbSpline
 70
8
 71
3
 72
8
 73
4
 74
0
 40
0
 40
0
 40
0
 40
0
 40
1
 40
1
 40
1
 40
1
 10
637.806675
 20
104.429040
 30
0.0
 10
637.705667
 20
110.029968
 30
0.0
 10
637.341851
 20
115.689800
 30
0.0
 10
638.176987
 20
121.229040
 30
0.0
  0
SPLINE
  5
25a
100
AcDbEntity
  8
dino
 62
1
100
AcDbSpline
 70
8
 71
3
 72
8
 73
4
 74
0
 40
0
 40
0
 40
0
 40
0
 40
1
 40
1
 40
1
 40
1
 10
638.176987
 20
121.229040
 30
0.0
 10
639.149787
 20
127.681328
 30
0.0
 10
642.388483
 20
133.633440
 30
0.0
 10
643.534795
 20
140.057168
 30
0.0
  0
SPLINE
  5
25b
100
AcDbEntity
  8
dino
 62
1
100
AcDbSpline
 70
8
 71
3
 72
8
 73
4
 74
0
 40
0
 40
0
 40
0
 40
0
 40
1
 40
1
 40
1
 40
1
 10
643.534795
 20
140.057168
 30
0.0
 10
644.098171
 20
143.214224
 30
0.0
 10
643.630803
 20
146.507224
 30
0.0
 10
644.264483
 20
149.650920
 30
0.0
  0
SPLINE
  5
25c
100
AcDbEntity
  8
dino
 62
1
100
AcDbSpline
 70
8
 71
3
 72
8
 73
4
 74
0
 40
0
 40
0
 40
0
 40
0
 40
1
 40
1
 40
1
 40
1
 10
644.264483
 20
149.650920
 30
0.0
 10
644.734595
 20
151.983144
 30
0.0
 10
645.171523
 20
154.463824
 30
0.0
 10
646.523859
 20
156.421232
 30
0.0
  0
SPLINE
  5
25d
100
AcDbEntity
  8
dino
 62
1
100
AcDbSpline
 70
8
 71
3
 72
8
 73
4
 74
0
 40
0
 40
0
 40
0
 40
0
 40
1
 40
1
 40
1
 40
1
 10
646.523859
 20
156.421232
 30
0.0
 10
647.716051
 20
158.146832
 30
0.0
 10
649.344979
 20
159.985112
 30
0.0
 10
651.401987
 20
160.394664
 30
0.0
  0
SPLINE
  5
25e
100
AcDbEntity
  8
dino
 62
1
100
AcDbSpline
 70
8
 71
3
 72
8
 73
4
 74
0
 40
0
 40
0
 40
0
 40
0
 40
1
 40
1
 40
1
 40
1
 10
651.401987
 20
160.394664
 30
0.0
 10
653.365027
 20
160.785512
 30
0.0
 10
655.462339
 20
159.744008
 30
0.0
 10
657.155115
 20
158.675920
 30
0.0
  0
SPLINE
  5
25f
100
AcDbEntity
  8
dino
 62
1
100
AcDbSpline
 70
8
 71
3
 72
8
 73
4
 74
0
 40
0
 40
0
 40
0
 40
0
 40
1
 40
1
 40
1
 40
1
 10
657.155115
 20
158.675920
 30
0.0
 10
659.124427
 20
157.433352
 30
0.0
 10
660.431475
 20
155.348488
 30
0.0
 10
661.842611
 20
153.496232
 30
0.0
  0
SPLINE
  5
260
100
AcDbEntity
  8
dino
 62
1
100
AcDbSpline
 70
8
 71
3
 72
8
 73
4
 74
0
 40
0
 40
0
 40
0
 40
0
 40
1
 40
1
 40
1
 40
1
 10
661.842611
 20
153.496232
 30
0.0
 10
667.722291
 20
145.778584
 30
0.0
 10
670.848643
 20
136.033576
 30
0.0
 10
677.464483
 20
128.936856
 30
0.0
  0
SPLINE
  5
261
100
AcDbEntity
  8
dino
 62
1
100
AcDbSpline
 70
8
 71
3
 72
8
 73
4
 74
0
 40
0
 40
0
 40
0
 40
0
 40
1
 40
1
 40
1
 40
1
 10
677.464483
 20
128.936856
 30
0.0
 10
684.991299
 20
120.862944
 30
0.0
 10
696.346699
 20
117.114856
 30
0.0
 10
704.091051
 20
109.249352
 30
0.0
  0
SPLINE
  5
262
100
AcDbEntity
  8
dino
 62
1
100
AcDbSpline
 70
8
 71
3
 72
8
 73
4
 74
0
 40
0
 40
0
 40
0
 40
0
 40
1
 40
1
 40
1
 40
1
 10
704.091051
 20
109.249352
 30
0.0
 10
709.038787
 20
104.224208
 30
0.0
 10
713.789923
 20
98.594560
 30
0.0
 10
716.403547
 20
92.044664
 30
0.0
  0
SPLINE
  5
263
100
AcDbEntity
  8
dino
 62
1
100
AcDbSpline
 70
8
 71
3
 72
8
 73
4
 74
0
 40
0
 40
0
 40
0
 40
0
 40
1
 40
1
 40
1
 40
1
 10
716.403547
 20
92.044664
 30
0.0
 10
718.365939
 20
87.126800
 30
0.0
 10
717.112435
 20
81.395696
 30
0.0
 10
718.592611
 20
76.311856
 30
0.0
  0
SPLINE
  5
264
100
AcDbEntity
  8
dino
 62
1
100
AcDbSpline
 70
8
 71
3
 72
8
 73
4
 74
0
 40
0
 40
0
 40
0
 40
0
 40
1
 40
1
 40
1
 40
1
 10
718.592611
 20
76.311856
 30
0.0
 10
720.062267
 20
71.264168
 30
0.0
 10
724.181579
 20
67.133384
 30
0.0
 10
725.144171
 20
61.964976
 30
0.0
  0
SPLINE
  5
265
100
AcDbEntity
  8
dino
 62
1
100
AcDbSpline
 70
8
 71
3
 72
8
 73
4
 74
0
 40
0
 40
0
 40
0
 40
0
 40
1
 40
1
 40
1
 40
1
 10
725.144171
 20
61.964976
 30
0.0
 10
726.180491
 20
56.400720
 30
0.0
 10
724.301643
 20
50.673688
 30
0.0
 10
724.123859
 20
45.016544
 30
0.0
  0
SPLINE
  5
266
100
AcDbEntity
  8
dino
 62
1
100
AcDbSpline
 70
8
 71
3
 72
8
 73
4
 74
0
 40
0
 40
0
 40
0
 40
0
 40
1
 40
1
 40
1
 40
1
 10
724.123859
 20
45.016544
 30
0.0
 10
723.996947
 20
40.978272
 30
0.0
 10
726.482971
 20
36.152384
 30
0.0
 10
724.091059
 20
32.896232
 30
0.0
  0
SPLINE
  5
267
100
AcDbEntity
  8
dino
 62
1
100
AcDbSpline
 70
8
 71
3
 72
8
 73
4
 74
0
 40
0
 40
0
 40
0
 40
0
 40
1
 40
1
 40
1
 40
1
 10
724.091059
 20
32.896232
 30
0.0
 10
720.776723
 20
28.384352
 30
0.0
 10
714.423035
 20
27.127160
 30
0.0
 10
708.078555
 20
27.830608
 30
0.0
  0
SPLINE
  5
268
100
AcDbEntity
  8
dino
 62
1
100
AcDbSpline
 70
8
 71
3
 72
8
 73
4
 74
0
 40
0
 40
0
 40
0
 40
0
 40
1
 40
1
 40
1
 40
1
 10
708.078555
 20
27.830608
 30
0.0
 10
700.974963
 20
28.618224
 30
0.0
 10
689.906411
 20
32.010768
 30
0.0
 10
681.684803
 20
27.900928
 30
0.0
  0
SPLINE
  5
269
100
AcDbEntity
  8
dino
 62
1
100
AcDbSpline
 70
8
 71
3
 72
8
 73
4
 74
0
 40
0
 40
0
 40
0
 40
0
 40
1
 40
1
 40
1
 40
1
 10
681.684803
 20
27.900928
 30
0.0
 10
674.865835
 20
24.492240
 30
0.0
 10
672.768427
 20
20.138416
 30
0.0
 10
673.030123
 20
14.286864
 30
0.0
  0
SPLINE
  5
26a
100
AcDbEntity
  8
dino
 62
1
100
AcDbSpline
 70
8
 71
3
 72
8
 73
4
 74
0
 40
0
 40
0
 40
0
 40
0
 40
1
 40
1
 40
1
 40
1
 10
673.030123
 20
14.286864
 30
0.0
 10
673.363219
 20
6.838632
 30
0.0
 10
674.799299
 20
2.708360
 30
0.0
 10
680.961371
 20
2.852488
 30
0.0
  0
SPLINE
  5
26b
100
AcDbEntity
  8
dino
 62
1
100
AcDbSpline
 70
8
 71
3
 72
8
 73
4
 74
0
 40
0
 40
0
 40
0
 40
0
 40
1
 40
1
 40
1
 40
1
 10
680.961371
 20
2.852488
 30
0.0
 10
692.731995
 20
2.921608
 30
0.0
 10
720.022595
 20
3.119496
 30
0.0
 10
744.917619
 20
3.160304
 30
0.0
  0
LWPOLYLINE
  5
26c
100
AcDbEntity
  8
dino
 62
1
100
AcDbPolyline
 90
4
 70
1
 10
638.289523
 20
95.052480
 30
0.0
 10
618.903587
 20
95.052480
 30
0.0
 10
618.903587
 20
103.557168
 30
0.0
 10
637.834835
 20
103.557168
 30
0.0
  0
SPLINE
  5
26d
100
AcDbEntity
  8
dino
 62
1
100
AcDbSpline
 70
8
 71
3
 72
8
 73
4
 74
0
 40
0
 40
0
 40
0
 40
0
 40
1
 40
1
 40
1
 40
1
 10
753.422307
 20
3.158736
 30
0.0
 10
757.043651
 20
3.158408
 30
0.0
 10
760.904835
 20
3.169136
 30
0.0
 10
764.250435
 20
3.158736
 30
0.0
  0
SPLINE
  5
26e
100
AcDbEntity
  8
dino
 62
1
100
AcDbSpline
 70
8
 71
3
 72
8
 73
4
 74
0
 40
0
 40
0
 40
0
 40
0
 40
1
 40
1
 40
1
 40
1
 10
764.250435
 20
3.158736
 30
0.0
 10
772.005827
 20
3.662384
 30
0.0
 10
774.643323
 20
1.795488
 30
0.0
 10
777.297307
 20
5.314984
 30
0.0
  0
SPLINE
  5
26f
100
AcDbEntity
  8
dino
 62
1
100
AcDbSpline
 70
8
 71
3
 72
8
 73
4
 74
0
 40
0
 40
0
 40
0
 40
0
 40
1
 40
1
 40
1
 40
1
 10
777.297307
 20
5.314984
 30
0.0
 10
780.481099
 20
9.537104
 30
0.0
 10
776.094923
 20
15.822248
 30
0.0
 10
775.480123
 20
21.074360
 30
0.0
  0
SPLINE
  5
270
100
AcDbEntity
  8
dino
 62
1
100
AcDbSpline
 70
8
 71
3
 72
8
 73
4
 74
0
 40
0
 40
0
 40
0
 40
0
 40
1
 40
1
 40
1
 40
1
 10
775.480123
 20
21.074360
 30
0.0
 10
775.173323
 20
23.695296
 30
0.0
 10
774.014403
 20
26.350520
 30
0.0
 10
774.545747
 20
28.935304
 30
0.0
  0
SPLINE
  5
271
100
AcDbEntity
  8
dino
 62
1
100
AcDbSpline
 70
8
 71
3
 72
8
 73
4
 74
0
 40
0
 40
0
 40
0
 40
0
 40
1
 40
1
 40
1
 40
1
 10
774.545747
 20
28.935304
 30
0.0
 10
775.047723
 20
31.377192
 30
0.0
 10
776.075875
 20
34.259264
 30
0.0
 10
778.286371
 20
35.411864
 30
0.0
  0
SPLINE
  5
272
100
AcDbEntity
  8
dino
 62
1
100
AcDbSpline
 70
8
 71
3
 72
8
 73
4
 74
0
 40
0
 40
0
 40
0
 40
0
 40
1
 40
1
 40
1
 40
1
 10
778.286371
 20
35.411864
 30
0.0
 10
778.862923
 20
35.712496
 30
0.0
 10
779.594595
 20
35.389224
 30
0.0
 10
780.228555
 20
35.244672
 30
0.0
  0
SPLINE
  5
273
100
AcDbEntity
  8
dino
 62
1
100
AcDbSpline
 70
8
 71
3
 72
8
 73
4
 74
0
 40
0
 40
0
 40
0
 40
0
 40
1
 40
1
 40
1
 40
1
 10
780.228555
 20
35.244672
 30
0.0
 10
784.551355
 20
29.044280
 30
0.0
 10
790.595291
 20
23.739832
 30
0.0
 10
791.684803
 20
25.579048
 30
0.0
  0
SPLINE
  5
274
100
AcDbEntity
  8
dino
 62
1
100
AcDbSpline
 70
8
 71
3
 72
8
 73
4
 74
0
 40
0
 40
0
 40
0
 40
0
 40
1
 40
1
 40
1
 40
1
 10
791.684803
 20
25.579048
 30
0.0
 10
796.953187
 20
26.732600
 30
0.0
 10
795.719939
 20
28.892504
 30
0.0
 10
793.711371
 20
33.288424
 30
0.0
  0
SPLINE
  5
275
100
AcDbEntity
  8
dino
 62
1
100
AcDbSpline
 70
8
 71
3
 72
8
 73
4
 74
0
 40
0
 40
0
 40
0
 40
0
 40
1
 40
1
 40
1
 40
1
 10
793.711371
 20
33.288424
 30
0.0
 10
792.460099
 20
36.026936
 30
0.0
 10
789.943611
 20
38.719816
 30
0.0
 10
789.195747
 20
39.277488
 30
0.0
  0
SPLINE
  5
276
100
AcDbEntity
  8
dino
 62
1
100
AcDbSpline
 70
8
 71
3
 72
8
 73
4
 74
0
 40
0
 40
0
 40
0
 40
0
 40
1
 40
1
 40
1
 40
1
 10
789.195747
 20
39.277488
 30
0.0
 10
786.922027
 20
40.972960
 30
0.0
 10
785.363715
 20
42.988416
 30
0.0
 10
784.048867
 20
45.125928
 30
0.0
  0
SPLINE
  5
277
100
AcDbEntity
  8
dino
 62
1
100
AcDbSpline
 70
8
 71
3
 72
8
 73
4
 74
0
 40
0
 40
0
 40
0
 40
0
 40
1
 40
1
 40
1
 40
1
 10
784.048867
 20
45.125928
 30
0.0
 10
782.734019
 20
47.263448
 30
0.0
 10
781.663859
 20
49.523544
 30
0.0
 10
780.369179
 20
51.710304
 30
0.0
  0
SPLINE
  5
278
100
AcDbEntity
  8
dino
 62
1
100
AcDbSpline
 70
8
 71
3
 72
8
 73
4
 74
0
 40
0
 40
0
 40
0
 40
0
 40
1
 40
1
 40
1
 40
1
 10
780.369179
 20
51.710304
 30
0.0
 10
778.946515
 20
54.113240
 30
0.0
 10
777.745499
 20
56.653208
 30
0.0
 10
776.712931
 20
59.247800
 30
0.0
  0
SPLINE
  5
279
100
AcDbEntity
  8
dino
 62
1
100
AcDbSpline
 70
8
 71
3
 72
8
 73
4
 74
0
 40
0
 40
0
 40
0
 40
0
 40
1
 40
1
 40
1
 40
1
 10
776.712931
 20
59.247800
 30
0.0
 10
773.656907
 20
66.926856
 30
0.0
 10
770.981147
 20
74.810648
 30
0.0
 10
769.247307
 20
82.891552
 30
0.0
  0
SPLINE
  5
27a
100
AcDbEntity
  8
dino
 62
1
100
AcDbSpline
 70
8
 71
3
 72
8
 73
4
 74
0
 40
0
 40
0
 40
0
 40
0
 40
1
 40
1
 40
1
 40
1
 10
769.247307
 20
82.891552
 30
0.0
 10
768.600003
 20
85.908432
 30
0.0
 10
768.665259
 20
89.040160
 30
0.0
 10
768.167619
 20
92.085304
 30
0.0
  0
SPLINE
  5
27b
100
AcDbEntity
  8
dino
 62
1
100
AcDbSpline
 70
8
 71
3
 72
8
 73
4
 74
0
 40
0
 40
0
 40
0
 40
0
 40
1
 40
1
 40
1
 40
1
 10
768.167619
 20
92.085304
 30
0.0
 10
767.641931
 20
95.302096
 30
0.0
 10
767.715707
 20
98.791616
 30
0.0
 10
766.156683
 20
101.654048
 30
0.0
  0
SPLINE
  5
27c
100
AcDbEntity
  8
dino
 62
1
100
AcDbSpline
 70
8
 71
3
 72
8
 73
4
 74
0
 40
0
 40
0
 40
0
 40
0
 40
1
 40
1
 40
1
 40
1
 10
766.156683
 20
101.654048
 30
0.0
 10
762.944995
 20
107.550848
 30
0.0
 10
755.387611
 20
110.124832
 30
0.0
 10
751.842619
 20
115.827488
 30
0.0
  0
SPLINE
  5
27d
100
AcDbEntity
  8
dino
 62
1
100
AcDbSpline
 70
8
 71
3
 72
8
 73
4
 74
0
 40
0
 40
0
 40
0
 40
0
 40
1
 40
1
 40
1
 40
1
 10
751.842619
 20
115.827488
 30
0.0
 10
748.417507
 20
121.337296
 30
0.0
 10
746.287211
 20
127.830528
 30
0.0
 10
745.683243
 20
134.289992
 30
0.0
  0
SPLINE
  5
27e
100
AcDbEntity
  8
dino
 62
1
100
AcDbSpline
 70
8
 71
3
 72
8
 73
4
 74
0
 40
0
 40
0
 40
0
 40
0
 40
1
 40
1
 40
1
 40
1
 10
745.683243
 20
134.289992
 30
0.0
 10
745.624683
 20
134.916288
 30
0.0
 10
745.569003
 20
135.555832
 30
0.0
 10
745.519179
 20
136.200928
 30
0.0
  0
LWPOLYLINE
  5
27f
100
AcDbEntity
  8
dino
 62
1
100
AcDbPolyline
 90
4
 70
1
 10
744.917619
 20
3.160304
 30
0.0
 10
744.917619
 20
21.600928
 30
0.0
 10
753.422307
 20
21.600928
 30
0.0
 10
753.422307
 20
3.158736
 30
0.0
  0
SPLINE
  5
280
100
AcDbEntity
  8
dino
 62
1
100
AcDbSpline
 70
8
 71
3
 72
8
 73
4
 74
0
 40
0
 40
0
 40
0
 40
0
 40
1
 40
1
 40
1
 40
1
 10
745.687931
 20
144.705616
 30
0.0
 10
746.043323
 20
146.785096
 30
0.0
 10
746.714051
 20
148.752272
 30
0.0
 10
747.887931
 20
150.458736
 30
0.0
  0
SPLINE
  5
281
100
AcDbEntity
  8
dino
 62
1
100
AcDbSpline
 70
8
 71
3
 72
8
 73
4
 74
0
 40
0
 40
0
 40
0
 40
0
 40
1
 40
1
 40
1
 40
1
 10
747.887931
 20
150.458736
 30
0.0
 10
751.920115
 20
156.320312
 30
0.0
 10
759.991819
 20
158.095816
 30
0.0
 10
766.606683
 20
160.714984
 30
0.0
  0
SPLINE
  5
282
100
AcDbEntity
  8
dino
 62
1
100
AcDbSpline
 70
8
 71
3
 72
8
 73
4
 74
0
 40
0
 40
0
 40
0
 40
0
 40
1
 40
1
 40
1
 40
1
 10
766.606683
 20
160.714984
 30
0.0
 10
777.601459
 20
165.068408
 30
0.0
 10
789.244875
 20
167.941528
 30
0.0
 10
800.955147
 20
169.586864
 30
0.0
  0
SPLINE
  5
283
100
AcDbEntity
  8
dino
 62
1
100
AcDbSpline
 70
8
 71
3
 72
8
 73
4
 74
0
 40
0
 40
0
 40
0
 40
0
 40
1
 40
1
 40
1
 40
1
 10
800.955147
 20
169.586864
 30
0.0
 10
817.705867
 20
171.940400
 30
0.0
 10
834.774987
 20
171.412616
 30
0.0
 10
851.683307
 20
170.925928
 30
0.0
  0
SPLINE
  5
284
100
AcDbEntity
  8
dino
 62
1
100
AcDbSpline
 70
8
 71
3
 72
8
 73
4
 74
0
 40
0
 40
0
 40
0
 40
0
 40
1
 40
1
 40
1
 40
1
 10
851.683307
 20
170.925928
 30
0.0
 10
869.727867
 20
170.406528
 30
0.0
 10
887.929627
 20
169.843160
 30
0.0
 10
905.647307
 20
166.385304
 30
0.0
  0
SPLINE
  5
285
100
AcDbEntity
  8
dino
 62
1
100
AcDbSpline
 70
8
 71
3
 72
8
 73
4
 74
0
 40
0
 40
0
 40
0
 40
0
 40
1
 40
1
 40
1
 40
1
 10
905.647307
 20
166.385304
 30
0.0
 10
930.021227
 20
161.628424
 30
0.0
 10
954.293227
 20
151.006416
 30
0.0
 10
976.787947
 20
144.260304
 30
0.0
  0
SPLINE
  5
286
100
AcDbEntity
  8
dino
 62
1
100
AcDbSpline
 70
8
 71
3
 72
8
 73
4
 74
0
 40
0
 40
0
 40
0
 40
0
 40
1
 40
1
 40
1
 40
1
 10
976.787947
 20
144.260304
 30
0.0
 10
1000.928107
 20
137.020728
 30
0.0
 10
1030.273147
 20
115.043312
 30
0.0
 10
1059.684827
 20
108.974360
 30
0.0
  0
SPLINE
  5
287
100
AcDbEntity
  8
dino
 62
1
100
AcDbSpline
 70
8
 71
3
 72
8
 73
4
 74
0
 40
0
 40
0
 40
0
 40
0
 40
1
 40
1
 40
1
 40
1
 10
1059.684827
 20
108.974360
 30
0.0
 10
1103.496507
 20
99.934056
 30
0.0
 10
1150.187387
 20
98.793496
 30
0.0
 10
1193.886427
 20
108.363424
 30
0.0
  0
SPLINE
  5
288
100
AcDbEntity
  8
dino
 62
1
100
AcDbSpline
 70
8
 71
3
 72
8
 73
4
 74
0
 40
0
 40
0
 40
0
 40
0
 40
1
 40
1
 40
1
 40
1
 10
1193.886427
 20
108.363424
 30
0.0
 10
1210.037707
 20
111.900488
 30
0.0
 10
1227.141867
 20
117.628448
 30
0.0
 10
1238.853627
 20
129.299360
 30
0.0
  0
SPLINE
  5
289
100
AcDbEntity
  8
dino
 62
1
100
AcDbSpline
 70
8
 71
3
 72
8
 73
4
 74
0
 40
0
 40
0
 40
0
 40
0
 40
1
 40
1
 40
1
 40
1
 10
1238.853627
 20
129.299360
 30
0.0
 10
1257.369147
 20
147.750400
 30
0.0
 10
1293.126507
 20
184.610160
 30
0.0
 10
1272.200507
 20
200.274360
 30
0.0
  0
SPLINE
  5
28a
100
AcDbEntity
  8
dino
 62
1
100
AcDbSpline
 70
8
 71
3
 72
8
 73
4
 74
0
 40
0
 40
0
 40
0
 40
0
 40
1
 40
1
 40
1
 40
1
 10
1272.200507
 20
200.274360
 30
0.0
 10
1258.905387
 20
210.226432
 30
0.0
 10
1248.822827
 20
176.301000
 30
0.0
 10
1234.905147
 20
167.239992
 30
0.0
  0
SPLINE
  5
28b
100
AcDbEntity
  8
dino
 62
1
100
AcDbSpline
 70
8
 71
3
 72
8
 73
4
 74
0
 40
0
 40
0
 40
0
 40
0
 40
1
 40
1
 40
1
 40
1
 10
1234.905147
 20
167.239992
 30
0.0
 10
1223.277867
 20
159.670128
 30
0.0
 10
1210.549067
 20
153.159400
 30
0.0
 10
1197.059867
 20
149.913424
 30
0.0
  0
SPLINE
  5
28c
100
AcDbEntity
  8
dino
 62
1
100
AcDbSpline
 70
8
 71
3
 72
8
 73
4
 74
0
 40
0
 40
0
 40
0
 40
0
 40
1
 40
1
 40
1
 40
1
 10
1197.059867
 20
149.913424
 30
0.0
 10
1174.428267
 20
144.467488
 30
0.0
 10
1150.503627
 20
143.983880
 30
0.0
 10
1127.277067
 20
146.260304
 30
0.0
  0
LWPOLYLINE
  5
28d
100
AcDbEntity
  8
dino
 62
1
100
AcDbPolyline
 90
4
 70
1
 10
745.519179
 20
136.200928
 30
0.0
 10
727.403555
 20
136.200928
 30
0.0
 10
727.403555
 20
144.705616
 30
0.0
 10
745.687931
 20
144.705616
 30
0.0
  0
SPLINE
  5
28e
100
AcDbEntity
  8
dino
 62
1
100
AcDbSpline
 70
8
 71
3
 72
8
 73
4
 74
0
 40
0
 40
0
 40
0
 40
0
 40
1
 40
1
 40
1
 40
1
 10
1118.823947
 20
147.194672
 30
0.0
 10
1113.568587
 20
147.822864
 30
0.0
 10
1108.273707
 20
148.538472
 30
0.0
 10
1102.994187
 20
149.400928
 30
0.0
  0
LWPOLYLINE
  5
28f
100
AcDbEntity
  8
dino
 62
1
100
AcDbPolyline
 90
4
 70
1
 10
1127.277067
 20
146.260304
 30
0.0
 10
1125.136427
 20
128.546240
 30
0.0
 10
1116.694187
 20
129.566552
 30
0.0
 10
1118.823947
 20
147.194672
 30
0.0
  0
SPLINE
  5
290
100
AcDbEntity
  8
dino
 62
1
100
AcDbSpline
 70
8
 71
3
 72
8
 73
4
 74
0
 40
0
 40
0
 40
0
 40
0
 40
1
 40
1
 40
1
 40
1
 10
1094.625467
 20
150.913424
 30
0.0
 10
1089.388107
 20
151.959048
 30
0.0
 10
1084.201947
 20
153.202184
 30
0.0
 10
1079.120747
 20
154.708736
 30
0.0
  0
LWPOLYLINE
  5
291
100
AcDbEntity
  8
dino
 62
1
100
AcDbPolyline
 90
4
 70
1
 10
1102.994187
 20
149.400928
 30
0.0
 10
1099.762987
 20
131.883736
 30
0.0
 10
1091.400507
 20
133.425928
 30
0.0
 10
1094.625467
 20
150.913424
 30
0.0
  0
SPLINE
  5
292
100
AcDbEntity
  8
dino
 62
1
100
AcDbSpline
 70
8
 71
3
 72
8
 73
4
 74
0
 40
0
 40
0
 40
0
 40
0
 40
1
 40
1
 40
1
 40
1
 10
1071.042667
 20
157.364984
 30
0.0
 10
1066.034267
 20
159.201816
 30
0.0
 10
1061.168987
 20
161.354376
 30
0.0
 10
1056.506747
 20
163.897800
 30
0.0
  0
LWPOLYLINE
  5
293
100
AcDbEntity
  8
dino
 62
1
100
AcDbPolyline
 90
4
 70
1
 10
1079.120747
 20
154.708736
 30
0.0
 10
1073.625467
 20
137.804048
 30
0.0
 10
1065.537947
 20
140.433736
 30
0.0
 10
1071.042667
 20
157.364984
 30
0.0
  0
SPLINE
  5
294
100
AcDbEntity
  8
dino
 62
1
100
AcDbSpline
 70
8
 71
3
 72
8
 73
4
 74
0
 40
0
 40
0
 40
0
 40
0
 40
1
 40
1
 40
1
 40
1
 10
1049.228587
 20
168.297800
 30
0.0
 10
1044.772747
 20
171.236032
 30
0.0
 10
1040.544667
 20
174.469656
 30
0.0
 10
1036.502027
 20
177.938424
 30
0.0
  0
LWPOLYLINE
  5
295
100
AcDbEntity
  8
dino
 62
1
100
AcDbPolyline
 90
4
 70
1
 10
1056.506747
 20
163.897800
 30
0.0
 10
1047.056747
 20
148.780616
 30
0.0
 10
1039.845787
 20
153.288424
 30
0.0
 10
1049.228587
 20
168.297800
 30
0.0
  0
SPLINE
  5
296
100
AcDbEntity
  8
dino
 62
1
100
AcDbSpline
 70
8
 71
3
 72
8
 73
4
 74
0
 40
0
 40
0
 40
0
 40
0
 40
1
 40
1
 40
1
 40
1
 10
1030.202027
 20
183.650928
 30
0.0
 10
1026.371947
 20
187.320864
 30
0.0
 10
1022.699787
 20
191.188352
 30
0.0
 10
1019.139547
 20
195.188424
 30
0.0
  0
LWPOLYLINE
  5
297
100
AcDbEntity
  8
dino
 62
1
100
AcDbPolyline
 90
4
 70
1
 10
1036.502027
 20
177.938424
 30
0.0
 10
1024.653627
 20
164.835304
 30
0.0
 10
1018.345787
 20
170.538424
 30
0.0
 10
1030.202027
 20
183.650928
 30
0.0
  0
SPLINE
  5
298
100
AcDbEntity
  8
dino
 62
1
100
AcDbSpline
 70
8
 71
3
 72
8
 73
4
 74
0
 40
0
 40
0
 40
0
 40
0
 40
1
 40
1
 40
1
 40
1
 10
1013.591067
 20
201.635304
 30
0.0
 10
1010.176907
 20
205.712128
 30
0.0
 10
1006.847547
 20
209.884096
 30
0.0
 10
1003.564507
 20
214.097800
 30
0.0
  0
LWPOLYLINE
  5
299
100
AcDbEntity
  8
dino
 62
1
100
AcDbPolyline
 90
4
 70
1
 10
1019.139547
 20
195.188424
 30
0.0
 10
1005.837947
 20
183.680616
 30
0.0
 10
1000.273947
 20
190.111864
 30
0.0
 10
1013.591067
 20
201.635304
 30
0.0
  0
SPLINE
  5
29a
100
AcDbEntity
  8
dino
 62
1
100
AcDbSpline
 70
8
 71
3
 72
8
 73
4
 74
0
 40
0
 40
0
 40
0
 40
0
 40
1
 40
1
 40
1
 40
1
 10
998.362987
 20
220.825928
 30
0.0
 10
995.108107
 20
225.071792
 30
0.0
 10
991.871627
 20
229.317176
 30
0.0
 10
988.616107
 20
233.514984
 30
0.0
  0
LWPOLYLINE
  5
29b
100
AcDbEntity
  8
dino
 62
1
100
AcDbPolyline
 90
4
 70
1
 10
1003.564507
 20
214.097800
 30
0.0
 10
989.702027
 20
203.341552
 30
0.0
 10
984.489547
 20
210.060304
 30
0.0
 10
998.362987
 20
220.825928
 30
0.0
  0
SPLINE
  5
29c
100
AcDbEntity
  8
dino
 62
1
100
AcDbSpline
 70
8
 71
3
 72
8
 73
4
 74
0
 40
0
 40
0
 40
0
 40
0
 40
1
 40
1
 40
1
 40
1
 10
983.359867
 20
240.199360
 30
0.0
 10
982.948107
 20
240.715000
 30
0.0
 10
982.540267
 20
241.238120
 30
0.0
 10
982.127067
 20
241.750928
 30
0.0
  0
SPLINE
  5
29d
100
AcDbEntity
  8
dino
 62
1
100
AcDbSpline
 70
8
 71
3
 72
8
 73
4
 74
0
 40
0
 40
0
 40
0
 40
0
 40
1
 40
1
 40
1
 40
1
 10
982.127067
 20
241.750928
 30
0.0
 10
979.194267
 20
245.390512
 30
0.0
 10
976.425867
 20
249.151688
 30
0.0
 10
973.747307
 20
252.980616
 30
0.0
  0
LWPOLYLINE
  5
29e
100
AcDbEntity
  8
dino
 62
1
100
AcDbPolyline
 90
4
 70
1
 10
988.616107
 20
233.514984
 30
0.0
 10
974.795787
 20
222.654048
 30
0.0
 10
969.541067
 20
229.339992
 30
0.0
 10
983.359867
 20
240.199360
 30
0.0
  0
SPLINE
  5
29f
100
AcDbEntity
  8
dino
 62
1
100
AcDbSpline
 70
8
 71
3
 72
8
 73
4
 74
0
 40
0
 40
0
 40
0
 40
0
 40
1
 40
1
 40
1
 40
1
 10
968.964507
 20
260.011864
 30
0.0
 10
966.017387
 20
264.452944
 30
0.0
 10
963.136267
 20
268.943920
 30
0.0
 10
960.241067
 20
273.424360
 30
0.0
  0
LWPOLYLINE
  5
2a0
100
AcDbEntity
  8
dino
 62
1
100
AcDbPolyline
 90
4
 70
1
 10
973.747307
 20
252.980616
 30
0.0
 10
959.128587
 20
243.196240
 30
0.0
 10
954.398907
 20
250.263424
 30
0.0
 10
968.964507
 20
260.011864
 30
0.0
  0
SPLINE
  5
2a1
100
AcDbEntity
  8
dino
 62
1
100
AcDbSpline
 70
8
 71
3
 72
8
 73
4
 74
0
 40
0
 40
0
 40
0
 40
0
 40
1
 40
1
 40
1
 40
1
 10
955.581707
 20
280.538424
 30
0.0
 10
952.633307
 20
284.988552
 30
0.0
 10
949.626427
 20
289.395744
 30
0.0
 10
946.439547
 20
293.669672
 30
0.0
  0
LWPOLYLINE
  5
2a2
100
AcDbEntity
  8
dino
 62
1
100
AcDbPolyline
 90
4
 70
1
 10
960.241067
 20
273.424360
 30
0.0
 10
945.641067
 20
263.772800
 30
0.0
 10
940.952027
 20
270.866552
 30
0.0
 10
955.581707
 20
280.538424
 30
0.0
  0
SPLINE
  5
2a3
100
AcDbEntity
  8
dino
 62
1
100
AcDbSpline
 70
8
 71
3
 72
8
 73
4
 74
0
 40
0
 40
0
 40
0
 40
0
 40
1
 40
1
 40
1
 40
1
 10
941.237947
 20
300.396240
 30
0.0
 10
937.950507
 20
304.589456
 30
0.0
 10
934.632507
 20
308.767536
 30
0.0
 10
931.264507
 20
312.907176
 30
0.0
  0
LWPOLYLINE
  5
2a4
100
AcDbEntity
  8
dino
 62
1
100
AcDbPolyline
 90
4
 70
1
 10
946.439547
 20
293.669672
 30
0.0
 10
932.711387
 20
282.827488
 30
0.0
 10
927.441067
 20
289.502488
 30
0.0
 10
941.237947
 20
300.396240
 30
0.0
  0
SPLINE
  5
2a5
100
AcDbEntity
  8
dino
 62
1
100
AcDbSpline
 70
8
 71
3
 72
8
 73
4
 74
0
 40
0
 40
0
 40
0
 40
0
 40
1
 40
1
 40
1
 40
1
 10
925.841067
 20
319.460304
 30
0.0
 10
922.402587
 20
323.543800
 30
0.0
 10
918.903307
 20
327.572768
 30
0.0
 10
915.287947
 20
331.488424
 30
0.0
  0
LWPOLYLINE
  5
2a6
100
AcDbEntity
  8
dino
 62
1
100
AcDbPolyline
 90
4
 70
1
 10
931.264507
 20
312.907176
 30
0.0
 10
917.861387
 20
301.639992
 30
0.0
 10
912.387947
 20
308.149360
 30
0.0
 10
925.841067
 20
319.460304
 30
0.0
  0
SPLINE
  5
2a7
100
AcDbEntity
  8
dino
 62
1
100
AcDbSpline
 70
8
 71
3
 72
8
 73
4
 74
0
 40
0
 40
0
 40
0
 40
0
 40
1
 40
1
 40
1
 40
1
 10
909.420747
 20
337.644672
 30
0.0
 10
906.750587
 20
340.358392
 30
0.0
 10
904.021387
 20
343.011912
 30
0.0
 10
901.216107
 20
345.586864
 30
0.0
  0
SPLINE
  5
2a8
100
AcDbEntity
  8
dino
 62
1
100
AcDbSpline
 70
8
 71
3
 72
8
 73
4
 74
0
 40
0
 40
0
 40
0
 40
0
 40
1
 40
1
 40
1
 40
1
 10
901.216107
 20
345.586864
 30
0.0
 10
900.091467
 20
346.619184
 30
0.0
 10
898.961227
 20
347.649560
 30
0.0
 10
897.828587
 20
348.677488
 30
0.0
  0
LWPOLYLINE
  5
2a9
100
AcDbEntity
  8
dino
 62
1
100
AcDbPolyline
 90
4
 70
1
 10
915.287947
 20
331.488424
 30
0.0
 10
902.775467
 20
319.238424
 30
0.0
 10
896.825467
 20
325.314984
 30
0.0
 10
909.420747
 20
337.644672
 30
0.0
  0
SPLINE
  5
2aa
100
AcDbEntity
  8
dino
 62
1
100
AcDbSpline
 70
8
 71
3
 72
8
 73
4
 74
0
 40
0
 40
0
 40
0
 40
0
 40
1
 40
1
 40
1
 40
1
 10
891.494187
 20
354.349360
 30
0.0
 10
887.501627
 20
357.879896
 30
0.0
 10
883.453067
 20
361.360280
 30
0.0
 10
879.339547
 20
364.763424
 30
0.0
  0
LWPOLYLINE
  5
2ab
100
AcDbEntity
  8
dino
 62
1
100
AcDbPolyline
 90
4
 70
1
 10
897.828587
 20
348.677488
 30
0.0
 10
885.995787
 20
335.600928
 30
0.0
 10
879.691067
 20
341.307176
 30
0.0
 10
891.494187
 20
354.349360
 30
0.0
  0
SPLINE
  5
2ac
100
AcDbEntity
  8
dino
 62
1
100
AcDbSpline
 70
8
 71
3
 72
8
 73
4
 74
0
 40
0
 40
0
 40
0
 40
0
 40
1
 40
1
 40
1
 40
1
 10
872.731707
 20
370.114984
 30
0.0
 10
868.541627
 20
373.427848
 30
0.0
 10
864.277867
 20
376.640776
 30
0.0
 10
859.934827
 20
379.729048
 30
0.0
  0
LWPOLYLINE
  5
2ad
100
AcDbEntity
  8
dino
 62
1
100
AcDbPolyline
 90
4
 70
1
 10
879.339547
 20
364.763424
 30
0.0
 10
868.366107
 20
351.029048
 30
0.0
 10
861.722347
 20
356.336864
 30
0.0
 10
872.731707
 20
370.114984
 30
0.0
  0
SPLINE
  5
2ae
100
AcDbEntity
  8
dino
 62
1
100
AcDbSpline
 70
8
 71
3
 72
8
 73
4
 74
0
 40
0
 40
0
 40
0
 40
0
 40
1
 40
1
 40
1
 40
1
 10
852.925467
 20
384.544672
 30
0.0
 10
848.471867
 20
387.501288
 30
0.0
 10
843.931227
 20
390.311336
 30
0.0
 10
839.291067
 20
392.943112
 30
0.0
  0
LWPOLYLINE
  5
2af
100
AcDbEntity
  8
dino
 62
1
100
AcDbPolyline
 90
4
 70
1
 10
859.934827
 20
379.729048
 30
0.0
 10
849.934827
 20
365.210304
 30
0.0
 10
842.930187
 20
370.033736
 30
0.0
 10
852.925467
 20
384.544672
 30
0.0
  0
SPLINE
  5
2b0
100
AcDbEntity
  8
dino
 62
1
100
AcDbSpline
 70
8
 71
3
 72
8
 73
4
 74
0
 40
0
 40
0
 40
0
 40
0
 40
1
 40
1
 40
1
 40
1
 10
831.808267
 20
396.982176
 30
0.0
 10
831.465787
 20
397.157680
 30
0.0
 10
831.128427
 20
397.343096
 30
0.0
 10
830.784827
 20
397.516552
 30
0.0
  0
SPLINE
  5
2b1
100
AcDbEntity
  8
dino
 62
1
100
AcDbSpline
 70
8
 71
3
 72
8
 73
4
 74
0
 40
0
 40
0
 40
0
 40
0
 40
1
 40
1
 40
1
 40
1
 10
830.784827
 20
397.516552
 30
0.0
 10
826.362507
 20
399.749256
 30
0.0
 10
821.841707
 20
401.783144
 30
0.0
 10
817.247307
 20
403.654048
 30
0.0
  0
LWPOLYLINE
  5
2b2
100
AcDbEntity
  8
dino
 62
1
100
AcDbPolyline
 90
4
 70
1
 10
839.291067
 20
392.943112
 30
0.0
 10
831.150507
 20
377.366552
 30
0.0
 10
823.614507
 20
381.305616
 30
0.0
 10
831.808267
 20
396.982176
 30
0.0
  0
SPLINE
  5
2b3
100
AcDbEntity
  8
dino
 62
1
100
AcDbSpline
 70
8
 71
3
 72
8
 73
4
 74
0
 40
0
 40
0
 40
0
 40
0
 40
1
 40
1
 40
1
 40
1
 10
809.308267
 20
406.702488
 30
0.0
 10
804.292907
 20
408.510392
 30
0.0
 10
799.200907
 20
410.132312
 30
0.0
 10
794.062931
 20
411.608736
 30
0.0
  0
LWPOLYLINE
  5
2b4
100
AcDbEntity
  8
dino
 62
1
100
AcDbPolyline
 90
4
 70
1
 10
817.247307
 20
403.654048
 30
0.0
 10
811.075467
 20
387.129048
 30
0.0
 10
803.109867
 20
390.105616
 30
0.0
 10
809.308267
 20
406.702488
 30
0.0
  0
SPLINE
  5
2b5
100
AcDbEntity
  8
dino
 62
1
100
AcDbSpline
 70
8
 71
3
 72
8
 73
4
 74
0
 40
0
 40
0
 40
0
 40
0
 40
1
 40
1
 40
1
 40
1
 10
785.855123
 20
413.835304
 30
0.0
 10
780.679067
 20
415.157376
 30
0.0
 10
775.468787
 20
416.344736
 30
0.0
 10
770.247307
 20
417.422800
 30
0.0
  0
LWPOLYLINE
  5
2b6
100
AcDbEntity
  8
dino
 62
1
100
AcDbPolyline
 90
4
 70
1
 10
794.062931
 20
411.608736
 30
0.0
 10
789.467619
 20
394.513424
 30
0.0
 10
781.255123
 20
396.719672
 30
0.0
 10
785.855123
 20
413.835304
 30
0.0
  0
SPLINE
  5
2b7
100
AcDbEntity
  8
dino
 62
1
100
AcDbSpline
 70
8
 71
3
 72
8
 73
4
 74
0
 40
0
 40
0
 40
0
 40
0
 40
1
 40
1
 40
1
 40
1
 10
761.901995
 20
419.057176
 30
0.0
 10
761.217643
 20
419.184376
 30
0.0
 10
760.533059
 20
419.315896
 30
0.0
 10
759.848867
 20
419.439992
 30
0.0
  0
SPLINE
  5
2b8
100
AcDbEntity
  8
dino
 62
1
100
AcDbSpline
 70
8
 71
3
 72
8
 73
4
 74
0
 40
0
 40
0
 40
0
 40
0
 40
1
 40
1
 40
1
 40
1
 10
759.848867
 20
419.439992
 30
0.0
 10
755.286547
 20
420.267384
 30
0.0
 10
750.701275
 20
421.001624
 30
0.0
 10
746.101995
 20
421.661864
 30
0.0
  0
LWPOLYLINE
  5
2b9
100
AcDbEntity
  8
dino
 62
1
100
AcDbPolyline
 90
4
 70
1
 10
770.247307
 20
417.422800
 30
0.0
 10
766.905123
 20
400.002488
 30
0.0
 10
758.553555
 20
401.605616
 30
0.0
 10
761.901995
 20
419.057176
 30
0.0
  0
SPLINE
  5
2ba
100
AcDbEntity
  8
dino
 62
1
100
AcDbSpline
 70
8
 71
3
 72
8
 73
4
 74
0
 40
0
 40
0
 40
0
 40
0
 40
1
 40
1
 40
1
 40
1
 10
737.672307
 20
422.783736
 30
0.0
 10
732.374715
 20
423.422456
 30
0.0
 10
727.060595
 20
423.945960
 30
0.0
 10
721.736371
 20
424.357176
 30
0.0
  0
LWPOLYLINE
  5
2bb
100
AcDbEntity
  8
dino
 62
1
100
AcDbPolyline
 90
4
 70
1
 10
746.101995
 20
421.661864
 30
0.0
 10
743.845747
 20
404.075928
 30
0.0
 10
735.409811
 20
405.158736
 30
0.0
 10
737.672307
 20
422.783736
 30
0.0
  0
SPLINE
  5
2bc
100
AcDbEntity
  8
dino
 62
1
100
AcDbSpline
 70
8
 71
3
 72
8
 73
4
 74
0
 40
0
 40
0
 40
0
 40
0
 40
1
 40
1
 40
1
 40
1
 10
713.250435
 20
424.908736
 30
0.0
 10
707.916235
 20
425.197240
 30
0.0
 10
702.577339
 20
425.371272
 30
0.0
 10
697.239491
 20
425.424360
 30
0.0
  0
LWPOLYLINE
  5
2bd
100
AcDbEntity
  8
dino
 62
1
100
AcDbPolyline
 90
4
 70
1
 10
721.736371
 20
424.357176
 30
0.0
 10
720.534803
 20
406.624360
 30
0.0
 10
712.050435
 20
407.199360
 30
0.0
 10
713.250435
 20
424.908736
 30
0.0
  0
SPLINE
  5
2be
100
AcDbEntity
  8
dino
 62
1
100
AcDbSpline
 70
8
 71
3
 72
8
 73
4
 74
0
 40
0
 40
0
 40
0
 40
0
 40
1
 40
1
 40
1
 40
1
 10
688.736371
 20
425.408744
 30
0.0
 10
683.392283
 20
425.334584
 30
0.0
 10
678.054755
 20
425.136392
 30
0.0
 10
672.730123
 20
424.818120
 30
0.0
  0
LWPOLYLINE
  5
2bf
100
AcDbEntity
  8
dino
 62
1
100
AcDbPolyline
 90
4
 70
1
 10
697.239491
 20
425.424360
 30
0.0
 10
697.408243
 20
407.693112
 30
0.0
 10
688.903555
 20
407.613432
 30
0.0
 10
688.736371
 20
425.408744
 30
0.0
  0
SPLINE
  5
2c0
100
AcDbEntity
  8
dino
 62
1
100
AcDbSpline
 70
8
 71
3
 72
8
 73
4
 74
0
 40
0
 40
0
 40
0
 40
0
 40
1
 40
1
 40
1
 40
1
 10
664.248867
 20
424.199368
 30
0.0
 10
658.933819
 20
423.733128
 30
0.0
 10
653.623091
 20
423.124088
 30
0.0
 10
648.330123
 20
422.361872
 30
0.0
  0
LWPOLYLINE
  5
2c1
100
AcDbEntity
  8
dino
 62
1
100
AcDbPolyline
 90
4
 70
1
 10
672.730123
 20
424.818120
 30
0.0
 10
674.150435
 20
407.113432
 30
0.0
 10
665.673867
 20
406.433744
 30
0.0
 10
664.248867
 20
424.199368
 30
0.0
  0
SPLINE
  5
2c2
100
AcDbEntity
  8
dino
 62
1
100
AcDbSpline
 70
8
 71
3
 72
8
 73
4
 74
0
 40
0
 40
0
 40
0
 40
0
 40
1
 40
1
 40
1
 40
1
 10
639.931683
 20
421.024368
 30
0.0
 10
634.669915
 20
420.102296
 30
0.0
 10
629.435627
 20
419.024720
 30
0.0
 10
624.242619
 20
417.791560
 30
0.0
  0
LWPOLYLINE
  5
2c3
100
AcDbEntity
  8
dino
 62
1
100
AcDbPolyline
 90
4
 70
1
 10
648.330123
 20
422.361872
 30
0.0
 10
651.356683
 20
404.890000
 30
0.0
 10
642.978555
 20
403.438432
 30
0.0
 10
639.931683
 20
421.024368
 30
0.0
  0
SPLINE
  5
2c4
100
AcDbEntity
  8
dino
 62
1
100
AcDbSpline
 70
8
 71
3
 72
8
 73
4
 74
0
 40
0
 40
0
 40
0
 40
0
 40
1
 40
1
 40
1
 40
1
 10
616.001995
 20
415.688432
 30
0.0
 10
611.433043
 20
414.442560
 30
0.0
 10
606.901491
 20
413.077744
 30
0.0
 10
602.422307
 20
411.574368
 30
0.0
  0
SPLINE
  5
2c5
100
AcDbEntity
  8
dino
 62
1
100
AcDbSpline
 70
8
 71
3
 72
8
 73
4
 74
0
 40
0
 40
0
 40
0
 40
0
 40
1
 40
1
 40
1
 40
1
 10
602.422307
 20
411.574368
 30
0.0
 10
601.840499
 20
411.379096
 30
0.0
 10
601.262675
 20
411.171896
 30
0.0
 10
600.683243
 20
410.969680
 30
0.0
  0
LWPOLYLINE
  5
2c6
100
AcDbEntity
  8
dino
 62
1
100
AcDbPolyline
 90
4
 70
1
 10
624.242619
 20
417.791560
 30
0.0
 10
628.562931
 20
400.513432
 30
0.0
 10
620.312931
 20
398.450936
 30
0.0
 10
616.001995
 20
415.688432
 30
0.0
  0
SPLINE
  5
2c7
100
AcDbEntity
  8
dino
 62
1
100
AcDbSpline
 70
8
 71
3
 72
8
 73
4
 74
0
 40
0
 40
0
 40
0
 40
0
 40
1
 40
1
 40
1
 40
1
 10
592.730123
 20
407.961872
 30
0.0
 10
587.786363
 20
405.945936
 30
0.0
 10
582.926803
 20
403.706976
 30
0.0
 10
578.147307
 20
401.296248
 30
0.0
  0
LWPOLYLINE
  5
2c8
100
AcDbEntity
  8
dino
 62
1
100
AcDbPolyline
 90
4
 70
1
 10
600.683243
 20
410.969680
 30
0.0
 10
606.876995
 20
394.279056
 30
0.0
 10
598.903555
 20
391.321248
 30
0.0
 10
592.730123
 20
407.961872
 30
0.0
  0
SPLINE
  5
2c9
100
AcDbEntity
  8
dino
 62
1
100
AcDbSpline
 70
8
 71
3
 72
8
 73
4
 74
0
 40
0
 40
0
 40
0
 40
0
 40
1
 40
1
 40
1
 40
1
 10
570.628555
 20
397.322808
 30
0.0
 10
565.936643
 20
394.754784
 30
0.0
 10
561.320787
 20
392.054744
 30
0.0
 10
556.770747
 20
389.274368
 30
0.0
  0
LWPOLYLINE
  5
2ca
100
AcDbEntity
  8
dino
 62
1
100
AcDbPolyline
 90
4
 70
1
 10
578.147307
 20
401.296248
 30
0.0
 10
586.400435
 20
385.483744
 30
0.0
 10
578.861371
 20
381.549368
 30
0.0
 10
570.628555
 20
397.322808
 30
0.0
  0
SPLINE
  5
2cb
100
AcDbEntity
  8
dino
 62
1
100
AcDbSpline
 70
8
 71
3
 72
8
 73
4
 74
0
 40
0
 40
0
 40
0
 40
0
 40
1
 40
1
 40
1
 40
1
 10
549.598867
 20
384.705624
 30
0.0
 10
545.162211
 20
381.733144
 30
0.0
 10
540.850027
 20
378.571744
 30
0.0
 10
536.631683
 20
375.282184
 30
0.0
  0
LWPOLYLINE
  5
2cc
100
AcDbEntity
  8
dino
 62
1
100
AcDbPolyline
 90
4
 70
1
 10
556.770747
 20
389.274368
 30
0.0
 10
566.348867
 20
374.283744
 30
0.0
 10
559.183243
 20
369.705624
 30
0.0
 10
549.598867
 20
384.705624
 30
0.0
  0
SPLINE
  5
2cd
100
AcDbEntity
  8
dino
 62
1
100
AcDbSpline
 70
8
 71
3
 72
8
 73
4
 74
0
 40
0
 40
0
 40
0
 40
0
 40
1
 40
1
 40
1
 40
1
 10
529.994179
 20
369.964992
 30
0.0
 10
527.220099
 20
367.679584
 30
0.0
 10
524.478835
 20
365.355568
 30
0.0
 10
521.762931
 20
363.011872
 30
0.0
  0
SPLINE
  5
2ce
100
AcDbEntity
  8
dino
 62
1
100
AcDbSpline
 70
8
 71
3
 72
8
 73
4
 74
0
 40
0
 40
0
 40
0
 40
0
 40
1
 40
1
 40
1
 40
1
 10
521.762931
 20
363.011872
 30
0.0
 10
520.482851
 20
361.907216
 30
0.0
 10
519.167123
 20
360.736208
 30
0.0
 10
517.837931
 20
359.532184
 30
0.0
  0
LWPOLYLINE
  5
2cf
100
AcDbEntity
  8
dino
 62
1
100
AcDbPolyline
 90
4
 70
1
 10
536.631683
 20
375.282184
 30
0.0
 10
547.842619
 20
361.490000
 30
0.0
 10
541.244179
 20
356.125936
 30
0.0
 10
529.994179
 20
369.964992
 30
0.0
  0
SPLINE
  5
2d0
100
AcDbEntity
  8
dino
 62
1
100
AcDbSpline
 70
8
 71
3
 72
8
 73
4
 74
0
 40
0
 40
0
 40
0
 40
0
 40
1
 40
1
 40
1
 40
1
 10
511.617619
 20
353.732184
 30
0.0
 10
507.708587
 20
349.999320
 30
0.0
 10
503.835019
 20
346.150176
 30
0.0
 10
500.217619
 20
342.490000
 30
0.0
  0
LWPOLYLINE
  5
2d1
100
AcDbEntity
  8
dino
 62
1
100
AcDbPolyline
 90
4
 70
1
 10
517.837931
 20
359.532184
 30
0.0
 10
529.986371
 20
346.502496
 30
0.0
 10
523.766059
 20
340.704056
 30
0.0
 10
511.617619
 20
353.732184
 30
0.0
  0
SPLINE
  5
2d2
100
AcDbEntity
  8
dino
 62
1
100
AcDbSpline
 70
8
 71
3
 72
8
 73
4
 74
0
 40
0
 40
0
 40
0
 40
0
 40
1
 40
1
 40
1
 40
1
 10
494.262931
 20
336.418120
 30
0.0
 10
491.608915
 20
333.685240
 30
0.0
 10
489.267499
 20
331.249248
 30
0.0
 10
487.416059
 20
329.336872
 30
0.0
  0
SPLINE
  5
2d3
100
AcDbEntity
  8
dino
 62
1
100
AcDbSpline
 70
8
 71
3
 72
8
 73
4
 74
0
 40
0
 40
0
 40
0
 40
0
 40
1
 40
1
 40
1
 40
1
 10
487.416059
 20
329.336872
 30
0.0
 10
485.772531
 20
327.975592
 30
0.0
 10
484.245299
 20
326.636008
 30
0.0
 10
482.783243
 20
325.316560
 30
0.0
  0
LWPOLYLINE
  5
2d4
100
AcDbEntity
  8
dino
 62
1
100
AcDbPolyline
 90
4
 70
1
 10
500.217619
 20
342.490000
 30
0.0
 10
512.937931
 20
329.983744
 30
0.0
 10
506.975435
 20
323.919680
 30
0.0
 10
494.262931
 20
336.418120
 30
0.0
  0
SPLINE
  5
2d5
100
AcDbEntity
  8
dino
 62
1
100
AcDbSpline
 70
8
 71
3
 72
8
 73
4
 74
0
 40
0
 40
0
 40
0
 40
0
 40
1
 40
1
 40
1
 40
1
 10
476.550435
 20
319.530624
 30
0.0
 10
472.539211
 20
315.763864
 30
0.0
 10
468.745859
 20
312.311680
 30
0.0
 10
464.305123
 20
309.404056
 30
0.0
  0
LWPOLYLINE
  5
2d6
100
AcDbEntity
  8
dino
 62
1
100
AcDbPolyline
 90
4
 70
1
 10
482.783243
 20
325.316560
 30
0.0
 10
494.869179
 20
312.207184
 30
0.0
 10
488.617619
 20
306.443120
 30
0.0
 10
476.550435
 20
319.530624
 30
0.0
  0
SPLINE
  5
2d7
100
AcDbEntity
  8
dino
 62
1
100
AcDbSpline
 70
8
 71
3
 72
8
 73
4
 74
0
 40
0
 40
0
 40
0
 40
0
 40
1
 40
1
 40
1
 40
1
 10
456.820747
 20
305.369680
 30
0.0
 10
456.011659
 20
305.021960
 30
0.0
 10
455.178723
 20
304.686456
 30
0.0
 10
454.314491
 20
304.368120
 30
0.0
  0
SPLINE
  5
2d8
100
AcDbEntity
  8
dino
 62
1
100
AcDbSpline
 70
8
 71
3
 72
8
 73
4
 74
0
 40
0
 40
0
 40
0
 40
0
 40
1
 40
1
 40
1
 40
1
 10
454.314491
 20
304.368120
 30
0.0
 10
450.364859
 20
302.957960
 30
0.0
 10
446.170571
 20
301.281240
 30
0.0
 10
441.867619
 20
299.964992
 30
0.0
  0
LWPOLYLINE
  5
2d9
100
AcDbEntity
  8
dino
 62
1
100
AcDbPolyline
 90
4
 70
1
 10
464.305123
 20
309.404056
 30
0.0
 10
472.780123
 20
293.483744
 30
0.0
 10
465.273867
 20
289.488432
 30
0.0
 10
456.820747
 20
305.369680
 30
0.0
  0
SPLINE
  5
2da
100
AcDbEntity
  8
dino
 62
1
100
AcDbSpline
 70
8
 71
3
 72
8
 73
4
 74
0
 40
0
 40
0
 40
0
 40
0
 40
1
 40
1
 40
1
 40
1
 10
433.578555
 20
298.064992
 30
0.0
 10
433.109355
 20
298.002912
 30
0.0
 10
432.638899
 20
297.948936
 30
0.0
 10
432.169179
 20
297.905624
 30
0.0
  0
SPLINE
  5
2db
100
AcDbEntity
  8
dino
 62
1
100
AcDbSpline
 70
8
 71
3
 72
8
 73
4
 74
0
 40
0
 40
0
 40
0
 40
0
 40
1
 40
1
 40
1
 40
1
 10
432.169179
 20
297.905624
 30
0.0
 10
427.372387
 20
297.463288
 30
0.0
 10
422.537555
 20
297.496376
 30
0.0
 10
417.709811
 20
297.866584
 30
0.0
  0
LWPOLYLINE
  5
2dc
100
AcDbEntity
  8
dino
 62
1
100
AcDbPolyline
 90
4
 70
1
 10
441.867619
 20
299.964992
 30
0.0
 10
445.748867
 20
282.349368
 30
0.0
 10
437.445747
 20
280.519680
 30
0.0
 10
433.578555
 20
298.064992
 30
0.0
  0
SPLINE
  5
2dd
100
AcDbEntity
  8
dino
 62
1
100
AcDbSpline
 70
8
 71
3
 72
8
 73
4
 74
0
 40
0
 40
0
 40
0
 40
0
 40
1
 40
1
 40
1
 40
1
 10
409.259811
 20
298.838456
 30
0.0
 10
404.571387
 20
299.546904
 30
0.0
 10
399.916931
 20
300.506856
 30
0.0
 10
395.342619
 20
301.602520
 30
0.0
  0
SPLINE
  5
2de
100
AcDbEntity
  8
dino
 62
1
100
AcDbSpline
 70
8
 71
3
 72
8
 73
4
 74
0
 40
0
 40
0
 40
0
 40
0
 40
1
 40
1
 40
1
 40
1
 10
395.342619
 20
301.602520
 30
0.0
 10
394.769675
 20
301.739752
 30
0.0
 10
394.194795
 20
301.887200
 30
0.0
 10
393.620747
 20
302.029080
 30
0.0
  0
LWPOLYLINE
  5
2df
100
AcDbEntity
  8
dino
 62
1
100
AcDbPolyline
 90
4
 70
1
 10
417.709811
 20
297.866584
 30
0.0
 10
415.326995
 20
280.096272
 30
0.0
 10
406.898867
 20
281.227520
 30
0.0
 10
409.259811
 20
298.838456
 30
0.0
  0
SPLINE
  5
2e0
100
AcDbEntity
  8
dino
 62
1
100
AcDbSpline
 70
8
 71
3
 72
8
 73
4
 74
0
 40
0
 40
0
 40
0
 40
0
 40
1
 40
1
 40
1
 40
1
 10
385.420747
 20
304.280648
 30
0.0
 10
380.320643
 20
305.849128
 30
0.0
 10
375.331163
 20
307.765536
 30
0.0
 10
370.719179
 20
310.330648
 30
0.0
  0
LWPOLYLINE
  5
2e1
100
AcDbEntity
  8
dino
 62
1
100
AcDbPolyline
 90
4
 70
1
 10
393.620747
 20
302.029080
 30
0.0
 10
388.973867
 20
284.860336
 30
0.0
 10
380.766059
 20
287.082208
 30
0.0
 10
385.420747
 20
304.280648
 30
0.0
  0
SPLINE
  5
2e2
100
AcDbEntity
  8
dino
 62
1
100
AcDbSpline
 70
8
 71
3
 72
8
 73
4
 74
0
 40
0
 40
0
 40
0
 40
0
 40
1
 40
1
 40
1
 40
1
 10
363.612931
 20
315.007208
 30
0.0
 10
359.357259
 20
318.179528
 30
0.0
 10
355.387507
 20
321.743392
 30
0.0
 10
351.656683
 20
325.572832
 30
0.0
  0
LWPOLYLINE
  5
2e3
100
AcDbEntity
  8
dino
 62
1
100
AcDbPolyline
 90
4
 70
1
 10
370.719179
 20
310.330648
 30
0.0
 10
360.458243
 20
295.630648
 30
0.0
 10
353.486371
 20
300.497832
 30
0.0
 10
363.612931
 20
315.007208
 30
0.0
  0
SPLINE
  5
2e4
100
AcDbEntity
  8
dino
 62
1
100
AcDbSpline
 70
8
 71
3
 72
8
 73
4
 74
0
 40
0
 40
0
 40
0
 40
0
 40
1
 40
1
 40
1
 40
1
 10
345.923867
 20
331.854080
 30
0.0
 10
342.447203
 20
335.905840
 30
0.0
 10
339.189795
 20
340.149176
 30
0.0
 10
336.083243
 20
344.454080
 30
0.0
  0
LWPOLYLINE
  5
2e5
100
AcDbEntity
  8
dino
 62
1
100
AcDbPolyline
 90
4
 70
1
 10
351.656683
 20
325.572832
 30
0.0
 10
338.462931
 20
313.772832
 30
0.0
 10
332.794179
 20
320.110336
 30
0.0
 10
345.923867
 20
331.854080
 30
0.0
  0
SPLINE
  5
2e6
100
AcDbEntity
  8
dino
 62
1
100
AcDbSpline
 70
8
 71
3
 72
8
 73
4
 74
0
 40
0
 40
0
 40
0
 40
0
 40
1
 40
1
 40
1
 40
1
 10
331.245747
 20
351.447832
 30
0.0
 10
328.343755
 20
355.915336
 30
0.0
 10
325.693539
 20
360.546760
 30
0.0
 10
323.237931
 20
365.291584
 30
0.0
  0
LWPOLYLINE
  5
2e7
100
AcDbEntity
  8
dino
 62
1
100
AcDbPolyline
 90
4
 70
1
 10
336.083243
 20
344.454080
 30
0.0
 10
321.519179
 20
334.516584
 30
0.0
 10
316.725435
 20
341.540024
 30
0.0
 10
331.245747
 20
351.447832
 30
0.0
  0
SPLINE
  5
2e8
100
AcDbEntity
  8
dino
 62
1
100
AcDbSpline
 70
8
 71
3
 72
8
 73
4
 74
0
 40
0
 40
0
 40
0
 40
0
 40
1
 40
1
 40
1
 40
1
 10
319.483243
 20
372.921272
 30
0.0
 10
317.219803
 20
377.750368
 30
0.0
 10
315.115115
 20
382.660232
 30
0.0
 10
313.098867
 20
387.593144
 30
0.0
  0
LWPOLYLINE
  5
2e9
100
AcDbEntity
  8
dino
 62
1
100
AcDbPolyline
 90
4
 70
1
 10
323.237931
 20
365.291584
 30
0.0
 10
307.605123
 20
357.438456
 30
0.0
 10
303.789491
 20
365.038456
 30
0.0
 10
319.483243
 20
372.921272
 30
0.0
  0
SPLINE
  5
2ea
100
AcDbEntity
  8
dino
 62
1
100
AcDbSpline
 70
8
 71
3
 72
8
 73
4
 74
0
 40
0
 40
0
 40
0
 40
0
 40
1
 40
1
 40
1
 40
1
 10
309.942619
 20
395.488456
 30
0.0
 10
308.005179
 20
400.457720
 30
0.0
 10
306.225699
 20
405.488600
 30
0.0
 10
304.573867
 20
410.563456
 30
0.0
  0
LWPOLYLINE
  5
2eb
100
AcDbEntity
  8
dino
 62
1
100
AcDbPolyline
 90
4
 70
1
 10
313.098867
 20
387.593144
 30
0.0
 10
296.851995
 20
381.115016
 30
0.0
 10
293.701995
 20
389.013456
 30
0.0
 10
309.942619
 20
395.488456
 30
0.0
  0
SPLINE
  5
2ec
100
AcDbEntity
  8
dino
 62
1
100
AcDbSpline
 70
8
 71
3
 72
8
 73
4
 74
0
 40
0
 40
0
 40
0
 40
0
 40
1
 40
1
 40
1
 40
1
 10
302.058243
 20
418.686896
 30
0.0
 10
300.536083
 20
423.798176
 30
0.0
 10
299.123243
 20
428.943592
 30
0.0
 10
297.795747
 20
434.111896
 30
0.0
  0
LWPOLYLINE
  5
2ed
100
AcDbEntity
  8
dino
 62
1
100
AcDbPolyline
 90
4
 70
1
 10
304.573867
 20
410.563456
 30
0.0
 10
287.956683
 20
405.261896
 30
0.0
 10
285.372307
 20
413.363456
 30
0.0
 10
302.058243
 20
418.686896
 30
0.0
  0
SPLINE
  5
2ee
100
AcDbEntity
  8
dino
 62
1
100
AcDbSpline
 70
8
 71
3
 72
8
 73
4
 74
0
 40
0
 40
0
 40
0
 40
0
 40
1
 40
1
 40
1
 40
1
 10
295.741059
 20
442.363456
 30
0.0
 10
294.980467
 20
445.523856
 30
0.0
 10
294.235115
 20
448.686584
 30
0.0
 10
293.517619
 20
451.852520
 30
0.0
  0
SPLINE
  5
2ef
100
AcDbEntity
  8
dino
 62
1
100
AcDbSpline
 70
8
 71
3
 72
8
 73
4
 74
0
 40
0
 40
0
 40
0
 40
0
 40
1
 40
1
 40
1
 40
1
 10
293.517619
 20
451.852520
 30
0.0
 10
293.056435
 20
453.887480
 30
0.0
 10
292.622027
 20
455.928880
 30
0.0
 10
292.198867
 20
457.971272
 30
0.0
  0
LWPOLYLINE
  5
2f0
100
AcDbEntity
  8
dino
 62
1
100
AcDbPolyline
 90
4
 70
1
 10
297.795747
 20
434.111896
 30
0.0
 10
280.773867
 20
430.071272
 30
0.0
 10
278.809811
 20
438.344704
 30
0.0
 10
295.741059
 20
442.363456
 30
0.0
  0
SPLINE
  5
2f1
100
AcDbEntity
  8
dino
 62
1
100
AcDbSpline
 70
8
 71
3
 72
8
 73
4
 74
0
 40
0
 40
0
 40
0
 40
0
 40
1
 40
1
 40
1
 40
1
 10
290.562931
 20
466.315016
 30
0.0
 10
289.593107
 20
471.559296
 30
0.0
 10
288.724555
 20
476.823016
 30
0.0
 10
287.903555
 20
482.096272
 30
0.0
  0
LWPOLYLINE
  5
2f2
100
AcDbEntity
  8
dino
 62
1
100
AcDbPolyline
 90
4
 70
1
 10
292.198867
 20
457.971272
 30
0.0
 10
275.023867
 20
454.766584
 30
0.0
 10
273.464491
 20
463.125960
 30
0.0
 10
290.562931
 20
466.315016
 30
0.0
  0
SPLINE
  5
2f3
100
AcDbEntity
  8
dino
 62
1
100
AcDbSpline
 70
8
 71
3
 72
8
 73
4
 74
0
 40
0
 40
0
 40
0
 40
0
 40
1
 40
1
 40
1
 40
1
 10
286.628555
 20
490.504080
 30
0.0
 10
285.854427
 20
495.780176
 30
0.0
 10
285.109611
 20
501.062560
 30
0.0
 10
284.359811
 20
506.343144
 30
0.0
  0
LWPOLYLINE
  5
2f4
100
AcDbEntity
  8
dino
 62
1
100
AcDbPolyline
 90
4
 70
1
 10
287.903555
 20
482.096272
 30
0.0
 10
270.698867
 20
479.463456
 30
0.0
 10
269.412931
 20
487.869704
 30
0.0
 10
286.628555
 20
490.504080
 30
0.0
  0
SPLINE
  5
2f5
100
AcDbEntity
  8
dino
 62
1
100
AcDbSpline
 70
8
 71
3
 72
8
 73
4
 74
0
 40
0
 40
0
 40
0
 40
0
 40
1
 40
1
 40
1
 40
1
 10
283.145747
 20
514.758768
 30
0.0
 10
282.570827
 20
518.699168
 30
0.0
 10
281.984643
 20
522.637728
 30
0.0
 10
281.359811
 20
526.568144
 30
0.0
  0
SPLINE
  5
2f6
100
AcDbEntity
  8
dino
 62
1
100
AcDbSpline
 70
8
 71
3
 72
8
 73
4
 74
0
 40
0
 40
0
 40
0
 40
0
 40
1
 40
1
 40
1
 40
1
 10
281.359811
 20
526.568144
 30
0.0
 10
281.147523
 20
527.903464
 30
0.0
 10
280.945971
 20
529.240680
 30
0.0
 10
280.742619
 20
530.577520
 30
0.0
  0
LWPOLYLINE
  5
2f7
100
AcDbEntity
  8
dino
 62
1
100
AcDbPolyline
 90
4
 70
1
 10
284.359811
 20
506.343144
 30
0.0
 10
267.155123
 20
503.782208
 30
0.0
 10
265.903555
 20
512.193144
 30
0.0
 10
283.145747
 20
514.758768
 30
0.0
  0
SPLINE
  5
2f8
100
AcDbEntity
  8
dino
 62
1
100
AcDbSpline
 70
8
 71
3
 72
8
 73
4
 74
0
 40
0
 40
0
 40
0
 40
0
 40
1
 40
1
 40
1
 40
1
 10
279.498867
 20
538.990024
 30
0.0
 10
278.738531
 20
544.269168
 30
0.0
 10
277.992899
 20
549.550736
 30
0.0
 10
277.192619
 20
554.822832
 30
0.0
  0
LWPOLYLINE
  5
2f9
100
AcDbEntity
  8
dino
 62
1
100
AcDbPolyline
 90
4
 70
1
 10
280.742619
 20
530.577520
 30
0.0
 10
263.545747
 20
527.988456
 30
0.0
 10
262.278555
 20
536.396272
 30
0.0
 10
279.498867
 20
538.990024
 30
0.0
  0
SPLINE
  5
2fa
100
AcDbEntity
  8
dino
 62
1
100
AcDbSpline
 70
8
 71
3
 72
8
 73
4
 74
0
 40
0
 40
0
 40
0
 40
0
 40
1
 40
1
 40
1
 40
1
 10
275.848867
 20
563.219704
 30
0.0
 10
275.409475
 20
565.831824
 30
0.0
 10
274.954723
 20
568.441152
 30
0.0
 10
274.456683
 20
571.043144
 30
0.0
  0
SPLINE
  5
2fb
100
AcDbEntity
  8
dino
 62
1
100
AcDbSpline
 70
8
 71
3
 72
8
 73
4
 74
0
 40
0
 40
0
 40
0
 40
0
 40
1
 40
1
 40
1
 40
1
 10
274.456683
 20
571.043144
 30
0.0
 10
273.953363
 20
573.672704
 30
0.0
 10
273.483059
 20
576.316688
 30
0.0
 10
273.019179
 20
578.963456
 30
0.0
  0
LWPOLYLINE
  5
2fc
100
AcDbEntity
  8
dino
 62
1
100
AcDbPolyline
 90
4
 70
1
 10
277.192619
 20
554.822832
 30
0.0
 10
259.966059
 20
552.207208
 30
0.0
 10
258.689491
 20
560.615016
 30
0.0
 10
275.848867
 20
563.219704
 30
0.0
  0
SPLINE
  5
2fd
100
AcDbEntity
  8
dino
 62
1
100
AcDbSpline
 70
8
 71
3
 72
8
 73
4
 74
0
 40
0
 40
0
 40
0
 40
0
 40
1
 40
1
 40
1
 40
1
 10
271.544179
 20
587.338458
 30
0.0
 10
270.607667
 20
592.594510
 30
0.0
 10
269.609467
 20
597.836923
 30
0.0
 10
268.369179
 20
603.005645
 30
0.0
  0
LWPOLYLINE
  5
2fe
100
AcDbEntity
  8
dino
 62
1
100
AcDbPolyline
 90
4
 70
1
 10
273.019179
 20
578.963456
 30
0.0
 10
255.923867
 20
575.832208
 30
0.0
 10
254.391059
 20
584.196272
 30
0.0
 10
271.544179
 20
587.338458
 30
0.0
  0
SPLINE
  5
2ff
100
AcDbEntity
  8
dino
 62
1
100
AcDbSpline
 70
8
 71
3
 72
8
 73
4
 74
0
 40
0
 40
0
 40
0
 40
0
 40
1
 40
1
 40
1
 40
1
 10
266.144179
 20
611.215020
 30
0.0
 10
265.384931
 20
613.700993
 30
0.0
 10
264.553531
 20
616.165299
 30
0.0
 10
263.611371
 20
618.593145
 30
0.0
  0
SPLINE
  5
300
100
AcDbEntity
  8
dino
 62
1
100
AcDbSpline
 70
8
 71
3
 72
8
 73
4
 74
0
 40
0
 40
0
 40
0
 40
0
 40
1
 40
1
 40
1
 40
1
 10
263.611371
 20
618.593145
 30
0.0
 10
262.570323
 20
621.275815
 30
0.0
 10
261.573659
 20
623.764379
 30
0.0
 10
260.539491
 20
626.182207
 30
0.0
  0
LWPOLYLINE
  5
301
100
AcDbEntity
  8
dino
 62
1
100
AcDbPolyline
 90
4
 70
1
 10
268.369179
 20
603.005645
 30
0.0
 10
251.683243
 20
598.319707
 30
0.0
 10
249.383243
 20
606.507207
 30
0.0
 10
266.144179
 20
611.215020
 30
0.0
  0
SPLINE
  5
302
100
AcDbEntity
  8
dino
 62
1
100
AcDbSpline
 70
8
 71
3
 72
8
 73
4
 74
0
 40
0
 40
0
 40
0
 40
0
 40
1
 40
1
 40
1
 40
1
 10
256.912931
 20
633.872833
 30
0.0
 10
254.680371
 20
638.120159
 30
0.0
 10
251.991763
 20
642.421527
 30
0.0
 10
248.297307
 20
647.333770
 30
0.0
  0
LWPOLYLINE
  5
303
100
AcDbEntity
  8
dino
 62
1
100
AcDbPolyline
 90
4
 70
1
 10
260.539491
 20
626.182207
 30
0.0
 10
244.659811
 20
618.922833
 30
0.0
 10
241.123867
 20
626.655645
 30
0.0
 10
256.912931
 20
633.872833
 30
0.0
  0
SPLINE
  5
304
100
AcDbEntity
  8
dino
 62
1
100
AcDbSpline
 70
8
 71
3
 72
8
 73
4
 74
0
 40
0
 40
0
 40
0
 40
0
 40
1
 40
1
 40
1
 40
1
 10
242.844139
 20
653.861311
 30
0.0
 10
236.534155
 20
659.584048
 30
0.0
 10
225.193523
 20
662.647164
 30
0.0
 10
217.173827
 20
662.725374
 30
0.0
  0
LWPOLYLINE
  5
305
100
AcDbEntity
  8
dino
 62
1
100
AcDbPolyline
 90
4
 70
1
 10
248.297307
 20
647.333770
 30
0.0
 10
234.472267
 20
636.497249
 30
0.0
 10
229.226955
 20
643.189436
 30
0.0
 10
242.844139
 20
653.861311
 30
0.0
  0
SPLINE
  5
306
100
AcDbEntity
  8
dino
 62
1
100
AcDbSpline
 70
8
 71
3
 72
8
 73
4
 74
0
 40
0
 40
0
 40
0
 40
0
 40
1
 40
1
 40
1
 40
1
 10
1473.906224
 20
120.360143
 30
0.0
 10
1474.067216
 20
120.358575
 30
0.0
 10
1474.215160
 20
120.367119
 30
0.0
 10
1474.373408
 20
120.367959
 30
0.0
  0
LWPOLYLINE
  5
307
100
AcDbEntity
  8
dino
 62
1
100
AcDbPolyline
 90
2
 70
1
 10
217.173827
 20
662.725374
 30
0.0
 10
217.173827
 20
662.725374
 30
0.0
  0
SPLINE
  5
308
100
AcDbEntity
  8
dino
 62
1
100
AcDbSpline
 70
8
 71
3
 72
8
 73
4
 74
0
 40
0
 40
0
 40
0
 40
0
 40
1
 40
1
 40
1
 40
1
 10
1482.878096
 20
121.510147
 30
0.0
 10
1489.783456
 20
123.218247
 30
0.0
 10
1496.791032
 20
126.657871
 30
0.0
 10
1501.424968
 20
130.677335
 30
0.0
  0
SPLINE
  5
309
100
AcDbEntity
  8
dino
 62
1
100
AcDbSpline
 70
8
 71
3
 72
8
 73
4
 74
0
 40
0
 40
0
 40
0
 40
0
 40
1
 40
1
 40
1
 40
1
 10
1501.424968
 20
130.677335
 30
0.0
 10
1503.402184
 20
132.392365
 30
0.0
 10
1505.230264
 20
134.254746
 30
0.0
 10
1506.932784
 20
136.225771
 30
0.0
  0
LWPOLYLINE
  5
30a
100
AcDbEntity
  8
dino
 62
1
100
AcDbPolyline
 90
4
 70
1
 10
1474.373408
 20
120.367959
 30
0.0
 10
1474.373408
 20
137.797647
 30
0.0
 10
1482.878096
 20
137.797647
 30
0.0
 10
1482.878096
 20
121.510147
 30
0.0
  0
SPLINE
  5
30b
100
AcDbEntity
  8
dino
 62
1
100
AcDbSpline
 70
8
 71
3
 72
8
 73
4
 74
0
 40
0
 40
0
 40
0
 40
0
 40
1
 40
1
 40
1
 40
1
 10
1512.028096
 20
143.033581
 30
0.0
 10
1514.930688
 20
147.502851
 30
0.0
 10
1517.326664
 20
152.339310
 30
0.0
 10
1519.292160
 20
157.346081
 30
0.0
  0
LWPOLYLINE
  5
30c
100
AcDbEntity
  8
dino
 62
1
100
AcDbPolyline
 90
4
 70
1
 10
1506.932784
 20
136.225771
 30
0.0
 10
1492.776536
 20
146.783581
 30
0.0
 10
1497.860912
 20
153.600768
 30
0.0
 10
1512.028096
 20
143.033581
 30
0.0
  0
SPLINE
  5
30d
100
AcDbEntity
  8
dino
 62
1
100
AcDbSpline
 70
8
 71
3
 72
8
 73
4
 74
0
 40
0
 40
0
 40
0
 40
0
 40
1
 40
1
 40
1
 40
1
 10
1522.059344
 20
165.386706
 30
0.0
 10
1523.622600
 20
170.608207
 30
0.0
 10
1524.783376
 20
175.886556
 30
0.0
 10
1525.626536
 20
181.011706
 30
0.0
  0
LWPOLYLINE
  5
30e
100
AcDbEntity
  8
dino
 62
1
100
AcDbPolyline
 90
4
 70
1
 10
1519.292160
 20
157.346081
 30
0.0
 10
1502.554656
 20
162.913268
 30
0.0
 10
1505.239032
 20
170.982019
 30
0.0
 10
1522.059344
 20
165.386706
 30
0.0
  0
SPLINE
  5
30f
100
AcDbEntity
  8
dino
 62
1
100
AcDbSpline
 70
8
 71
3
 72
8
 73
4
 74
0
 40
0
 40
0
 40
0
 40
0
 40
1
 40
1
 40
1
 40
1
 10
1526.762472
 20
189.439831
 30
0.0
 10
1526.905720
 20
190.803147
 30
0.0
 10
1527.030040
 20
192.146466
 30
0.0
 10
1527.132784
 20
193.461706
 30
0.0
  0
SPLINE
  5
310
100
AcDbEntity
  8
dino
 62
1
100
AcDbSpline
 70
8
 71
3
 72
8
 73
4
 74
0
 40
0
 40
0
 40
0
 40
0
 40
1
 40
1
 40
1
 40
1
 10
1527.132784
 20
193.461706
 30
0.0
 10
1527.432072
 20
197.292877
 30
0.0
 10
1527.668928
 20
201.295773
 30
0.0
 10
1527.867160
 20
205.417957
 30
0.0
  0
LWPOLYLINE
  5
311
100
AcDbEntity
  8
dino
 62
1
100
AcDbPolyline
 90
4
 70
1
 10
1525.626536
 20
181.011706
 30
0.0
 10
1508.107784
 20
183.582019
 30
0.0
 10
1509.342160
 20
191.996081
 30
0.0
 10
1526.762472
 20
189.439831
 30
0.0
  0
SPLINE
  5
312
100
AcDbEntity
  8
dino
 62
1
100
AcDbSpline
 70
8
 71
3
 72
8
 73
4
 74
0
 40
0
 40
0
 40
0
 40
0
 40
1
 40
1
 40
1
 40
1
 10
1528.215600
 20
213.913269
 30
0.0
 10
1528.392488
 20
219.077653
 30
0.0
 10
1528.512040
 20
224.460341
 30
0.0
 10
1528.618720
 20
229.911709
 30
0.0
  0
LWPOLYLINE
  5
313
100
AcDbEntity
  8
dino
 62
1
100
AcDbPolyline
 90
4
 70
1
 10
1527.867160
 20
205.417957
 30
0.0
 10
1510.201536
 20
206.050765
 30
0.0
 10
1510.506224
 20
214.549205
 30
0.0
 10
1528.215600
 20
213.913269
 30
0.0
  0
SPLINE
  5
314
100
AcDbEntity
  8
dino
 62
1
100
AcDbSpline
 70
8
 71
3
 72
8
 73
4
 74
0
 40
0
 40
0
 40
0
 40
0
 40
1
 40
1
 40
1
 40
1
 10
1528.779656
 20
238.413269
 30
0.0
 10
1528.865496
 20
243.677821
 30
0.0
 10
1528.954856
 20
249.012285
 30
0.0
 10
1529.046848
 20
254.411709
 30
0.0
  0
LWPOLYLINE
  5
315
100
AcDbEntity
  8
dino
 62
1
100
AcDbPolyline
 90
4
 70
1
 10
1528.618720
 20
229.911709
 30
0.0
 10
1510.906224
 20
230.244517
 30
0.0
 10
1511.065600
 20
238.747645
 30
0.0
 10
1528.779656
 20
238.413269
 30
0.0
  0
SPLINE
  5
316
100
AcDbEntity
  8
dino
 62
1
100
AcDbSpline
 70
8
 71
3
 72
8
 73
4
 74
0
 40
0
 40
0
 40
0
 40
0
 40
1
 40
1
 40
1
 40
1
 10
1529.199968
 20
262.914829
 30
0.0
 10
1529.310200
 20
268.233157
 30
0.0
 10
1529.443840
 20
273.568885
 30
0.0
 10
1529.623408
 20
278.903893
 30
0.0
  0
LWPOLYLINE
  5
317
100
AcDbEntity
  8
dino
 62
1
100
AcDbPolyline
 90
4
 70
1
 10
1529.046848
 20
254.411709
 30
0.0
 10
1511.362472
 20
254.732021
 30
0.0
 10
1511.517160
 20
263.235141
 30
0.0
 10
1529.199968
 20
262.914829
 30
0.0
  0
SPLINE
  5
318
100
AcDbEntity
  8
dino
 62
1
100
AcDbSpline
 70
8
 71
3
 72
8
 73
4
 74
0
 40
0
 40
0
 40
0
 40
0
 40
1
 40
1
 40
1
 40
1
 10
1529.948408
 20
287.402333
 30
0.0
 10
1530.183864
 20
292.769069
 30
0.0
 10
1530.482640
 20
298.101029
 30
0.0
 10
1530.853096
 20
303.371085
 30
0.0
  0
LWPOLYLINE
  5
319
100
AcDbEntity
  8
dino
 62
1
100
AcDbPolyline
 90
4
 70
1
 10
1529.623408
 20
278.903893
 30
0.0
 10
1511.937472
 20
279.683581
 30
0.0
 10
1512.310912
 20
288.178893
 30
0.0
 10
1529.948408
 20
287.402333
 30
0.0
  0
SPLINE
  5
31a
100
AcDbEntity
  8
dino
 62
1
100
AcDbSpline
 70
8
 71
3
 72
8
 73
4
 74
0
 40
0
 40
0
 40
0
 40
0
 40
1
 40
1
 40
1
 40
1
 10
1531.506224
 20
311.849205
 30
0.0
 10
1531.942992
 20
317.163829
 30
0.0
 10
1532.338528
 20
322.482821
 30
0.0
 10
1532.717160
 20
327.803893
 30
0.0
  0
LWPOLYLINE
  5
31b
100
AcDbEntity
  8
dino
 62
1
100
AcDbPolyline
 90
4
 70
1
 10
1530.853096
 20
303.371085
 30
0.0
 10
1513.201536
 20
304.716397
 30
0.0
 10
1513.848408
 20
313.196077
 30
0.0
 10
1531.506224
 20
311.849205
 30
0.0
  0
SPLINE
  5
31c
100
AcDbEntity
  8
dino
 62
1
100
AcDbSpline
 70
8
 71
3
 72
8
 73
4
 74
0
 40
0
 40
0
 40
0
 40
0
 40
1
 40
1
 40
1
 40
1
 10
1533.323408
 20
336.286709
 30
0.0
 10
1533.700192
 20
341.606453
 30
0.0
 10
1534.084128
 20
346.925653
 30
0.0
 10
1534.512472
 20
352.239829
 30
0.0
  0
LWPOLYLINE
  5
31d
100
AcDbEntity
  8
dino
 62
1
100
AcDbPolyline
 90
4
 70
1
 10
1532.717160
 20
327.803893
 30
0.0
 10
1515.060912
 20
329.066397
 30
0.0
 10
1515.668720
 20
337.549205
 30
0.0
 10
1533.323408
 20
336.286709
 30
0.0
  0
SPLINE
  5
31e
100
AcDbEntity
  8
dino
 62
1
100
AcDbSpline
 70
8
 71
3
 72
8
 73
4
 74
0
 40
0
 40
0
 40
0
 40
0
 40
1
 40
1
 40
1
 40
1
 10
1535.242160
 20
360.711709
 30
0.0
 10
1535.727136
 20
366.020453
 30
0.0
 10
1536.266232
 20
371.323653
 30
0.0
 10
1536.912472
 20
376.614829
 30
0.0
  0
LWPOLYLINE
  5
31f
100
AcDbEntity
  8
dino
 62
1
100
AcDbPolyline
 90
4
 70
1
 10
1534.512472
 20
352.239829
 30
0.0
 10
1516.904656
 20
353.707021
 30
0.0
 10
1517.610912
 20
362.180453
 30
0.0
 10
1535.242160
 20
360.711709
 30
0.0
  0
SPLINE
  5
320
100
AcDbEntity
  8
dino
 62
1
100
AcDbSpline
 70
8
 71
3
 72
8
 73
4
 74
0
 40
0
 40
0
 40
0
 40
0
 40
1
 40
1
 40
1
 40
1
 10
1538.010912
 20
385.047645
 30
0.0
 10
1538.707632
 20
390.331061
 30
0.0
 10
1539.421016
 20
395.616621
 30
0.0
 10
1540.231224
 20
400.888269
 30
0.0
  0
LWPOLYLINE
  5
321
100
AcDbEntity
  8
dino
 62
1
100
AcDbPolyline
 90
4
 70
1
 10
1536.912472
 20
376.614829
 30
0.0
 10
1519.324968
 20
378.960141
 30
0.0
 10
1520.449968
 20
387.389829
 30
0.0
 10
1538.010912
 20
385.047645
 30
0.0
  0
SPLINE
  5
322
100
AcDbEntity
  8
dino
 62
1
100
AcDbSpline
 70
8
 71
3
 72
8
 73
4
 74
0
 40
0
 40
0
 40
0
 40
0
 40
1
 40
1
 40
1
 40
1
 10
1541.623408
 20
409.278893
 30
0.0
 10
1542.563680
 20
414.525085
 30
0.0
 10
1543.642592
 20
419.740485
 30
0.0
 10
1544.957784
 20
424.897645
 30
0.0
  0
LWPOLYLINE
  5
323
100
AcDbEntity
  8
dino
 62
1
100
AcDbPolyline
 90
4
 70
1
 10
1540.231224
 20
400.888269
 30
0.0
 10
1522.732784
 20
403.510141
 30
0.0
 10
1523.993720
 20
411.919517
 30
0.0
 10
1541.623408
 20
409.278893
 30
0.0
  0
SPLINE
  5
324
100
AcDbEntity
  8
dino
 62
1
100
AcDbSpline
 70
8
 71
3
 72
8
 73
4
 74
0
 40
0
 40
0
 40
0
 40
0
 40
1
 40
1
 40
1
 40
1
 10
1547.262472
 20
433.083581
 30
0.0
 10
1548.820816
 20
438.168269
 30
0.0
 10
1550.590128
 20
443.191589
 30
0.0
 10
1552.534344
 20
448.150765
 30
0.0
  0
LWPOLYLINE
  5
325
100
AcDbEntity
  8
dino
 62
1
100
AcDbPolyline
 90
4
 70
1
 10
1544.957784
 20
424.897645
 30
0.0
 10
1527.810912
 20
429.402333
 30
0.0
 10
1529.970280
 20
437.627333
 30
0.0
 10
1547.262472
 20
433.083581
 30
0.0
  0
SPLINE
  5
326
100
AcDbEntity
  8
dino
 62
1
100
AcDbSpline
 70
8
 71
3
 72
8
 73
4
 74
0
 40
0
 40
0
 40
0
 40
0
 40
1
 40
1
 40
1
 40
1
 10
1555.782784
 20
456.010141
 30
0.0
 10
1557.560936
 20
460.117789
 30
0.0
 10
1559.433032
 20
464.182869
 30
0.0
 10
1561.399968
 20
468.192957
 30
0.0
  0
SPLINE
  5
327
100
AcDbEntity
  8
dino
 62
1
100
AcDbSpline
 70
8
 71
3
 72
8
 73
4
 74
0
 40
0
 40
0
 40
0
 40
0
 40
1
 40
1
 40
1
 40
1
 10
1561.399968
 20
468.192957
 30
0.0
 10
1561.774128
 20
468.955765
 30
0.0
 10
1562.161376
 20
469.712469
 30
0.0
 10
1562.554656
 20
470.464829
 30
0.0
  0
LWPOLYLINE
  5
328
100
AcDbEntity
  8
dino
 62
1
100
AcDbPolyline
 90
4
 70
1
 10
1552.534344
 20
448.150765
 30
0.0
 10
1536.067160
 20
454.889829
 30
0.0
 10
1539.287472
 20
462.760141
 30
0.0
 10
1555.782784
 20
456.010141
 30
0.0
  0
SPLINE
  5
329
100
AcDbEntity
  8
dino
 62
1
100
AcDbSpline
 70
8
 71
3
 72
8
 73
4
 74
0
 40
0
 40
0
 40
0
 40
0
 40
1
 40
1
 40
1
 40
1
 10
1566.753096
 20
477.860141
 30
0.0
 10
1569.504608
 20
482.419749
 30
0.0
 10
1572.426384
 20
486.886413
 30
0.0
 10
1575.242160
 20
491.413269
 30
0.0
  0
LWPOLYLINE
  5
32a
100
AcDbEntity
  8
dino
 62
1
100
AcDbPolyline
 90
4
 70
1
 10
1562.554656
 20
470.464829
 30
0.0
 10
1547.015600
 20
479.222645
 30
0.0
 10
1551.190600
 20
486.630453
 30
0.0
 10
1566.753096
 20
477.860141
 30
0.0
  0
SPLINE
  5
32b
100
AcDbEntity
  8
dino
 62
1
100
AcDbSpline
 70
8
 71
3
 72
8
 73
4
 74
0
 40
0
 40
0
 40
0
 40
0
 40
1
 40
1
 40
1
 40
1
 10
1579.570280
 20
498.732021
 30
0.0
 10
1581.441840
 20
502.301909
 30
0.0
 10
1582.947832
 20
506.106933
 30
0.0
 10
1585.424968
 20
509.272645
 30
0.0
  0
SPLINE
  5
32c
100
AcDbEntity
  8
dino
 62
1
100
AcDbSpline
 70
8
 71
3
 72
8
 73
4
 74
0
 40
0
 40
0
 40
0
 40
0
 40
1
 40
1
 40
1
 40
1
 10
1585.424968
 20
509.272645
 30
0.0
 10
1587.262056
 20
511.620389
 30
0.0
 10
1589.504168
 20
513.693045
 30
0.0
 10
1591.973408
 20
515.363269
 30
0.0
  0
SPLINE
  5
32d
100
AcDbEntity
  8
dino
 62
1
100
AcDbSpline
 70
8
 71
3
 72
8
 73
4
 74
0
 40
0
 40
0
 40
0
 40
0
 40
1
 40
1
 40
1
 40
1
 10
1591.973408
 20
515.363269
 30
0.0
 10
1592.802520
 20
515.924093
 30
0.0
 10
1594.115528
 20
515.823661
 30
0.0
 10
1594.690600
 20
516.642957
 30
0.0
  0
SPLINE
  5
32e
100
AcDbEntity
  8
dino
 62
1
100
AcDbSpline
 70
8
 71
3
 72
8
 73
4
 74
0
 40
0
 40
0
 40
0
 40
0
 40
1
 40
1
 40
1
 40
1
 10
1594.690600
 20
516.642957
 30
0.0
 10
1595.579440
 20
517.909277
 30
0.0
 10
1594.397552
 20
519.896973
 30
0.0
 10
1595.123408
 20
521.263269
 30
0.0
  0
SPLINE
  5
32f
100
AcDbEntity
  8
dino
 62
1
100
AcDbSpline
 70
8
 71
3
 72
8
 73
4
 74
0
 40
0
 40
0
 40
0
 40
0
 40
1
 40
1
 40
1
 40
1
 10
1595.123408
 20
521.263269
 30
0.0
 10
1595.885464
 20
522.697701
 30
0.0
 10
1597.320440
 20
523.935301
 30
0.0
 10
1598.889032
 20
524.357021
 30
0.0
  0
SPLINE
  5
330
100
AcDbEntity
  8
dino
 62
1
100
AcDbSpline
 70
8
 71
3
 72
8
 73
4
 74
0
 40
0
 40
0
 40
0
 40
0
 40
1
 40
1
 40
1
 40
1
 10
1598.889032
 20
524.357021
 30
0.0
 10
1600.621960
 20
524.822925
 30
0.0
 10
1602.410552
 20
523.375037
 30
0.0
 10
1604.201536
 20
523.486709
 30
0.0
  0
SPLINE
  5
331
100
AcDbEntity
  8
dino
 62
1
100
AcDbSpline
 70
8
 71
3
 72
8
 73
4
 74
0
 40
0
 40
0
 40
0
 40
0
 40
1
 40
1
 40
1
 40
1
 10
1604.201536
 20
523.486709
 30
0.0
 10
1606.340456
 20
523.620077
 30
0.0
 10
1608.825384
 20
523.818557
 30
0.0
 10
1610.368720
 20
525.305453
 30
0.0
  0
SPLINE
  5
332
100
AcDbEntity
  8
dino
 62
1
100
AcDbSpline
 70
8
 71
3
 72
8
 73
4
 74
0
 40
0
 40
0
 40
0
 40
0
 40
1
 40
1
 40
1
 40
1
 10
1610.368720
 20
525.305453
 30
0.0
 10
1612.243840
 20
527.111997
 30
0.0
 10
1611.605776
 20
530.426277
 30
0.0
 10
1612.856221
 20
532.710141
 30
0.0
  0
SPLINE
  5
333
100
AcDbEntity
  8
dino
 62
1
100
AcDbSpline
 70
8
 71
3
 72
8
 73
4
 74
0
 40
0
 40
0
 40
0
 40
0
 40
1
 40
1
 40
1
 40
1
 10
1612.856221
 20
532.710141
 30
0.0
 10
1613.646933
 20
534.154333
 30
0.0
 10
1614.674912
 20
535.520725
 30
0.0
 10
1615.953096
 20
536.558581
 30
0.0
  0
SPLINE
  5
334
100
AcDbEntity
  8
dino
 62
1
100
AcDbSpline
 70
8
 71
3
 72
8
 73
4
 74
0
 40
0
 40
0
 40
0
 40
0
 40
1
 40
1
 40
1
 40
1
 10
1615.953096
 20
536.558581
 30
0.0
 10
1615.956296
 20
536.560981
 30
0.0
 10
1615.960216
 20
536.562581
 30
0.0
 10
1615.964032
 20
536.563381
 30
0.0
  0
SPLINE
  5
335
100
AcDbEntity
  8
dino
 62
1
100
AcDbSpline
 70
8
 71
3
 72
8
 73
4
 74
0
 40
0
 40
0
 40
0
 40
0
 40
1
 40
1
 40
1
 40
1
 10
1615.964032
 20
536.563381
 30
0.0
 10
1618.679432
 20
537.251645
 30
0.0
 10
1621.654916
 20
536.072389
 30
0.0
 10
1624.365596
 20
536.779005
 30
0.0
  0
SPLINE
  5
336
100
AcDbEntity
  8
dino
 62
1
100
AcDbSpline
 70
8
 71
3
 72
8
 73
4
 74
0
 40
0
 40
0
 40
0
 40
0
 40
1
 40
1
 40
1
 40
1
 10
1624.365596
 20
536.779005
 30
0.0
 10
1626.760188
 20
537.403229
 30
0.0
 10
1629.078073
 20
538.600357
 30
0.0
 10
1630.934345
 20
540.236821
 30
0.0
  0
SPLINE
  5
337
100
AcDbEntity
  8
dino
 62
1
100
AcDbSpline
 70
8
 71
3
 72
8
 73
4
 74
0
 40
0
 40
0
 40
0
 40
0
 40
1
 40
1
 40
1
 40
1
 10
1630.934345
 20
540.236821
 30
0.0
 10
1631.637433
 20
540.856653
 30
0.0
 10
1632.261005
 20
541.869325
 30
0.0
 10
1632.546845
 20
542.541509
 30
0.0
  0
SPLINE
  5
338
100
AcDbEntity
  8
dino
 62
1
100
AcDbSpline
 70
8
 71
3
 72
8
 73
4
 74
0
 40
0
 40
0
 40
0
 40
0
 40
1
 40
1
 40
1
 40
1
 10
1632.546845
 20
542.541509
 30
0.0
 10
1632.832693
 20
543.213653
 30
0.0
 10
1632.827223
 20
543.874349
 30
0.0
 10
1632.757783
 20
544.446189
 30
0.0
  0
SPLINE
  5
339
100
AcDbEntity
  8
dino
 62
1
100
AcDbSpline
 70
8
 71
3
 72
8
 73
4
 74
0
 40
0
 40
0
 40
0
 40
0
 40
1
 40
1
 40
1
 40
1
 10
1632.757783
 20
544.446189
 30
0.0
 10
1632.618895
 20
545.589901
 30
0.0
 10
1632.285852
 20
546.868413
 30
0.0
 10
1632.985908
 20
550.749317
 30
0.0
  0
SPLINE
  5
33a
100
AcDbEntity
  8
dino
 62
1
100
AcDbSpline
 70
8
 71
3
 72
8
 73
4
 74
0
 40
0
 40
0
 40
0
 40
0
 40
1
 40
1
 40
1
 40
1
 10
1632.985908
 20
550.749317
 30
0.0
 10
1632.990708
 20
550.772197
 30
0.0
 10
1632.992868
 20
550.794837
 30
0.0
 10
1632.995284
 20
550.818037
 30
0.0
  0
SPLINE
  5
33b
100
AcDbEntity
  8
dino
 62
1
100
AcDbSpline
 70
8
 71
3
 72
8
 73
4
 74
0
 40
0
 40
0
 40
0
 40
0
 40
1
 40
1
 40
1
 40
1
 10
1632.995284
 20
550.818037
 30
0.0
 10
1633.172468
 20
552.485397
 30
0.0
 10
1636.340360
 20
556.524205
 30
0.0
 10
1637.773408
 20
557.691477
 30
0.0
  0
SPLINE
  5
33c
100
AcDbEntity
  8
dino
 62
1
100
AcDbSpline
 70
8
 71
3
 72
8
 73
4
 74
0
 40
0
 40
0
 40
0
 40
0
 40
1
 40
1
 40
1
 40
1
 10
1637.773408
 20
557.691477
 30
0.0
 10
1643.487416
 20
562.345733
 30
0.0
 10
1649.586094
 20
565.849525
 30
0.0
 10
1654.996846
 20
571.280533
 30
0.0
  0
SPLINE
  5
33d
100
AcDbEntity
  8
dino
 62
1
100
AcDbSpline
 70
8
 71
3
 72
8
 73
4
 74
0
 40
0
 40
0
 40
0
 40
0
 40
1
 40
1
 40
1
 40
1
 10
1654.996846
 20
571.280533
 30
0.0
 10
1663.426862
 20
579.742101
 30
0.0
 10
1670.772420
 20
587.023053
 30
0.0
 10
1680.001534
 20
594.613349
 30
0.0
  0
SPLINE
  5
33e
100
AcDbEntity
  8
dino
 62
1
100
AcDbSpline
 70
8
 71
3
 72
8
 73
4
 74
0
 40
0
 40
0
 40
0
 40
0
 40
1
 40
1
 40
1
 40
1
 10
1680.001534
 20
594.613349
 30
0.0
 10
1681.380134
 20
595.747157
 30
0.0
 10
1683.284320
 20
597.462525
 30
0.0
 10
1684.918721
 20
599.358661
 30
0.0
  0
SPLINE
  5
33f
100
AcDbEntity
  8
dino
 62
1
100
AcDbSpline
 70
8
 71
3
 72
8
 73
4
 74
0
 40
0
 40
0
 40
0
 40
0
 40
1
 40
1
 40
1
 40
1
 10
1684.918721
 20
599.358661
 30
0.0
 10
1686.553129
 20
601.254805
 30
0.0
 10
1687.971199
 20
603.287581
 30
0.0
 10
1688.187471
 20
605.372725
 30
0.0
  0
SPLINE
  5
340
100
AcDbEntity
  8
dino
 62
1
100
AcDbSpline
 70
8
 71
3
 72
8
 73
4
 74
0
 40
0
 40
0
 40
0
 40
0
 40
1
 40
1
 40
1
 40
1
 10
1688.187471
 20
605.372725
 30
0.0
 10
1688.371231
 20
607.144637
 30
0.0
 10
1687.966985
 20
609.305005
 30
0.0
 10
1687.143721
 20
611.213349
 30
0.0
  0
SPLINE
  5
341
100
AcDbEntity
  8
dino
 62
1
100
AcDbSpline
 70
8
 71
3
 72
8
 73
4
 74
0
 40
0
 40
0
 40
0
 40
0
 40
1
 40
1
 40
1
 40
1
 10
1687.143721
 20
611.213349
 30
0.0
 10
1686.338961
 20
613.078797
 30
0.0
 10
1685.112157
 20
614.772845
 30
0.0
 10
1683.285908
 20
615.246157
 30
0.0
  0
SPLINE
  5
342
100
AcDbEntity
  8
dino
 62
1
100
AcDbSpline
 70
8
 71
3
 72
8
 73
4
 74
0
 40
0
 40
0
 40
0
 40
0
 40
1
 40
1
 40
1
 40
1
 10
1683.285908
 20
615.246157
 30
0.0
 10
1683.248388
 20
615.279037
 30
0.0
 10
1683.118484
 20
615.401885
 30
0.0
 10
1682.910908
 20
615.511789
 30
0.0
  0
SPLINE
  5
343
100
AcDbEntity
  8
dino
 62
1
100
AcDbSpline
 70
8
 71
3
 72
8
 73
4
 74
0
 40
0
 40
0
 40
0
 40
0
 40
1
 40
1
 40
1
 40
1
 10
1682.910908
 20
615.511789
 30
0.0
 10
1682.465036
 20
615.747877
 30
0.0
 10
1681.902404
 20
615.844501
 30
0.0
 10
1680.815596
 20
615.850845
 30
0.0
  0
SPLINE
  5
344
100
AcDbEntity
  8
dino
 62
1
100
AcDbSpline
 70
8
 71
3
 72
8
 73
4
 74
0
 40
0
 40
0
 40
0
 40
0
 40
1
 40
1
 40
1
 40
1
 10
1680.815596
 20
615.850845
 30
0.0
 10
1680.654268
 20
615.851461
 30
0.0
 10
1680.495427
 20
615.808685
 30
0.0
 10
1680.354659
 20
615.728973
 30
0.0
  0
SPLINE
  5
345
100
AcDbEntity
  8
dino
 62
1
100
AcDbSpline
 70
8
 71
3
 72
8
 73
4
 74
0
 40
0
 40
0
 40
0
 40
0
 40
1
 40
1
 40
1
 40
1
 10
1680.354659
 20
615.728973
 30
0.0
 10
1679.891923
 20
616.112645
 30
0.0
 10
1679.393299
 20
616.593877
 30
0.0
 10
1678.949971
 20
616.903973
 30
0.0
  0
SPLINE
  5
346
100
AcDbEntity
  8
dino
 62
1
100
AcDbSpline
 70
8
 71
3
 72
8
 73
4
 74
0
 40
0
 40
0
 40
0
 40
0
 40
1
 40
1
 40
1
 40
1
 10
1678.949971
 20
616.903973
 30
0.0
 10
1677.859171
 20
617.667117
 30
0.0
 10
1676.814260
 20
618.231733
 30
0.0
 10
1675.660908
 20
618.169597
 30
0.0
  0
SPLINE
  5
347
100
AcDbEntity
  8
dino
 62
1
100
AcDbSpline
 70
8
 71
3
 72
8
 73
4
 74
0
 40
0
 40
0
 40
0
 40
0
 40
1
 40
1
 40
1
 40
1
 10
1675.660908
 20
618.169597
 30
0.0
 10
1675.247580
 20
618.146717
 30
0.0
 10
1674.897933
 20
617.851989
 30
0.0
 10
1674.801534
 20
617.444597
 30
0.0
  0
SPLINE
  5
348
100
AcDbEntity
  8
dino
 62
1
100
AcDbSpline
 70
8
 71
3
 72
8
 73
4
 74
0
 40
0
 40
0
 40
0
 40
0
 40
1
 40
1
 40
1
 40
1
 10
1674.801534
 20
617.444597
 30
0.0
 10
1674.504006
 20
617.547557
 30
0.0
 10
1674.277766
 20
617.727181
 30
0.0
 10
1673.951534
 20
617.794597
 30
0.0
  0
SPLINE
  5
349
100
AcDbEntity
  8
dino
 62
1
100
AcDbSpline
 70
8
 71
3
 72
8
 73
4
 74
0
 40
0
 40
0
 40
0
 40
0
 40
1
 40
1
 40
1
 40
1
 10
1673.951534
 20
617.794597
 30
0.0
 10
1673.232029
 20
617.943573
 30
0.0
 10
1672.630708
 20
617.235253
 30
0.0
 10
1672.885908
 20
616.538349
 30
0.0
  0
SPLINE
  5
34a
100
AcDbEntity
  8
dino
 62
1
100
AcDbSpline
 70
8
 71
3
 72
8
 73
4
 74
0
 40
0
 40
0
 40
0
 40
0
 40
1
 40
1
 40
1
 40
1
 10
1672.885908
 20
616.538349
 30
0.0
 10
1672.913908
 20
616.461869
 30
0.0
 10
1672.995176
 20
616.411341
 30
0.0
 10
1673.028096
 20
616.339909
 30
0.0
  0
SPLINE
  5
34b
100
AcDbEntity
  8
dino
 62
1
100
AcDbSpline
 70
8
 71
3
 72
8
 73
4
 74
0
 40
0
 40
0
 40
0
 40
0
 40
1
 40
1
 40
1
 40
1
 10
1673.028096
 20
616.339909
 30
0.0
 10
1672.476152
 20
616.095149
 30
0.0
 10
1672.294091
 20
615.394117
 30
0.0
 10
1672.654659
 20
614.905533
 30
0.0
  0
SPLINE
  5
34c
100
AcDbEntity
  8
dino
 62
1
100
AcDbSpline
 70
8
 71
3
 72
8
 73
4
 74
0
 40
0
 40
0
 40
0
 40
0
 40
1
 40
1
 40
1
 40
1
 10
1672.654659
 20
614.905533
 30
0.0
 10
1675.125707
 20
611.564069
 30
0.0
 10
1676.810932
 20
609.514461
 30
0.0
 10
1677.665596
 20
608.244597
 30
0.0
  0
SPLINE
  5
34d
100
AcDbEntity
  8
dino
 62
1
100
AcDbSpline
 70
8
 71
3
 72
8
 73
4
 74
0
 40
0
 40
0
 40
0
 40
0
 40
1
 40
1
 40
1
 40
1
 10
1677.665596
 20
608.244597
 30
0.0
 10
1678.092940
 20
607.609669
 30
0.0
 10
1678.287030
 20
607.172197
 30
0.0
 10
1678.321846
 20
606.989909
 30
0.0
  0
SPLINE
  5
34e
100
AcDbEntity
  8
dino
 62
1
100
AcDbSpline
 70
8
 71
3
 72
8
 73
4
 74
0
 40
0
 40
0
 40
0
 40
0
 40
1
 40
1
 40
1
 40
1
 10
1678.321846
 20
606.989909
 30
0.0
 10
1678.356646
 20
606.807629
 30
0.0
 10
1678.380038
 20
606.879925
 30
0.0
 10
1678.228096
 20
606.703973
 30
0.0
  0
LWPOLYLINE
  5
34f
100
AcDbEntity
  8
dino
 62
1
100
AcDbPolyline
 90
4
 70
1
 10
1575.242160
 20
491.413269
 30
0.0
 10
1559.974968
 20
500.464829
 30
0.0
 10
1564.312472
 20
507.778893
 30
0.0
 10
1579.570280
 20
498.732021
 30
0.0
  0
SPLINE
  5
350
100
AcDbEntity
  8
dino
 62
1
100
AcDbSpline
 70
8
 71
3
 72
8
 73
4
 74
0
 40
0
 40
0
 40
0
 40
0
 40
1
 40
1
 40
1
 40
1
 10
1678.220256
 20
606.695973
 30
0.0
 10
1676.926760
 20
605.166685
 30
0.0
 10
1675.128102
 20
602.997165
 30
0.0
 10
1673.193694
 20
601.091293
 30
0.0
  0
SPLINE
  5
351
100
AcDbEntity
  8
dino
 62
1
100
AcDbSpline
 70
8
 71
3
 72
8
 73
4
 74
0
 40
0
 40
0
 40
0
 40
0
 40
1
 40
1
 40
1
 40
1
 10
1673.193694
 20
601.091293
 30
0.0
 10
1671.259254
 20
599.185405
 30
0.0
 10
1669.158234
 20
597.573973
 30
0.0
 10
1667.526507
 20
597.111605
 30
0.0
  0
SPLINE
  5
352
100
AcDbEntity
  8
dino
 62
1
100
AcDbSpline
 70
8
 71
3
 72
8
 73
4
 74
0
 40
0
 40
0
 40
0
 40
0
 40
1
 40
1
 40
1
 40
1
 10
1667.526507
 20
597.111605
 30
0.0
 10
1666.725993
 20
596.884797
 30
0.0
 10
1665.976492
 20
597.212981
 30
0.0
 10
1665.237444
 20
597.830349
 30
0.0
  0
SPLINE
  5
353
100
AcDbEntity
  8
dino
 62
1
100
AcDbSpline
 70
8
 71
3
 72
8
 73
4
 74
0
 40
0
 40
0
 40
0
 40
0
 40
1
 40
1
 40
1
 40
1
 10
1665.237444
 20
597.830349
 30
0.0
 10
1664.498356
 20
598.447653
 30
0.0
 10
1663.881361
 20
599.328621
 30
0.0
 10
1663.615569
 20
599.786605
 30
0.0
  0
SPLINE
  5
354
100
AcDbEntity
  8
dino
 62
1
100
AcDbSpline
 70
8
 71
3
 72
8
 73
4
 74
0
 40
0
 40
0
 40
0
 40
0
 40
1
 40
1
 40
1
 40
1
 10
1663.615569
 20
599.786605
 30
0.0
 10
1663.170481
 20
600.551629
 30
0.0
 10
1662.024625
 20
600.333493
 30
0.0
 10
1661.885881
 20
599.456917
 30
0.0
  0
SPLINE
  5
355
100
AcDbEntity
  8
dino
 62
1
100
AcDbSpline
 70
8
 71
3
 72
8
 73
4
 74
0
 40
0
 40
0
 40
0
 40
0
 40
1
 40
1
 40
1
 40
1
 10
1661.885881
 20
599.456917
 30
0.0
 10
1661.260393
 20
600.666805
 30
0.0
 10
1660.568164
 20
601.858221
 30
0.0
 10
1659.817132
 20
603.085037
 30
0.0
  0
SPLINE
  5
356
100
AcDbEntity
  8
dino
 62
1
100
AcDbSpline
 70
8
 71
3
 72
8
 73
4
 74
0
 40
0
 40
0
 40
0
 40
0
 40
1
 40
1
 40
1
 40
1
 10
1659.817132
 20
603.085037
 30
0.0
 10
1659.447532
 20
603.688717
 30
0.0
 10
1658.576756
 20
603.680781
 30
0.0
 10
1658.217132
 20
603.070957
 30
0.0
  0
SPLINE
  5
357
100
AcDbEntity
  8
dino
 62
1
100
AcDbSpline
 70
8
 71
3
 72
8
 73
4
 74
0
 40
0
 40
0
 40
0
 40
0
 40
1
 40
1
 40
1
 40
1
 10
1658.217132
 20
603.070957
 30
0.0
 10
1658.041492
 20
602.773653
 30
0.0
 10
1658.067233
 20
602.636693
 30
0.0
 10
1658.060881
 20
602.511581
 30
0.0
  0
SPLINE
  5
358
100
AcDbEntity
  8
dino
 62
1
100
AcDbSpline
 70
8
 71
3
 72
8
 73
4
 74
0
 40
0
 40
0
 40
0
 40
0
 40
1
 40
1
 40
1
 40
1
 10
1658.060881
 20
602.511581
 30
0.0
 10
1658.054481
 20
602.386445
 30
0.0
 10
1658.059761
 20
602.280525
 30
0.0
 10
1658.068721
 20
602.169389
 30
0.0
  0
SPLINE
  5
359
100
AcDbEntity
  8
dino
 62
1
100
AcDbSpline
 70
8
 71
3
 72
8
 73
4
 74
0
 40
0
 40
0
 40
0
 40
0
 40
1
 40
1
 40
1
 40
1
 10
1658.068721
 20
602.169389
 30
0.0
 10
1658.086321
 20
601.947077
 30
0.0
 10
1658.123673
 20
601.706269
 30
0.0
 10
1658.168721
 20
601.430325
 30
0.0
  0
SPLINE
  5
35a
100
AcDbEntity
  8
dino
 62
1
100
AcDbSpline
 70
8
 71
3
 72
8
 73
4
 74
0
 40
0
 40
0
 40
0
 40
0
 40
1
 40
1
 40
1
 40
1
 10
1658.168721
 20
601.430325
 30
0.0
 10
1658.228081
 20
601.066949
 30
0.0
 10
1658.314580
 20
600.603341
 30
0.0
 10
1658.395284
 20
600.161581
 30
0.0
  0
SPLINE
  5
35b
100
AcDbEntity
  8
dino
 62
1
100
AcDbSpline
 70
8
 71
3
 72
8
 73
4
 74
0
 40
0
 40
0
 40
0
 40
0
 40
1
 40
1
 40
1
 40
1
 10
1658.395284
 20
600.161581
 30
0.0
 10
1658.180852
 20
600.522117
 30
0.0
 10
1658.099329
 20
600.705509
 30
0.0
 10
1657.864033
 20
601.069389
 30
0.0
  0
SPLINE
  5
35c
100
AcDbEntity
  8
dino
 62
1
100
AcDbSpline
 70
8
 71
3
 72
8
 73
4
 74
0
 40
0
 40
0
 40
0
 40
0
 40
1
 40
1
 40
1
 40
1
 10
1657.864033
 20
601.069389
 30
0.0
 10
1656.720714
 20
602.837525
 30
0.0
 10
1655.352084
 20
604.620965
 30
0.0
 10
1653.476534
 20
605.338141
 30
0.0
  0
SPLINE
  5
35d
100
AcDbEntity
  8
dino
 62
1
100
AcDbSpline
 70
8
 71
3
 72
8
 73
4
 74
0
 40
0
 40
0
 40
0
 40
0
 40
1
 40
1
 40
1
 40
1
 10
1653.476534
 20
605.338141
 30
0.0
 10
1652.689774
 20
605.637957
 30
0.0
 10
1651.941707
 20
604.818741
 30
0.0
 10
1652.299971
 20
604.049077
 30
0.0
  0
SPLINE
  5
35e
100
AcDbEntity
  8
dino
 62
1
100
AcDbSpline
 70
8
 71
3
 72
8
 73
4
 74
0
 40
0
 40
0
 40
0
 40
0
 40
1
 40
1
 40
1
 40
1
 10
1652.299971
 20
604.049077
 30
0.0
 10
1653.455075
 20
601.575261
 30
0.0
 10
1654.589396
 20
599.244453
 30
0.0
 10
1654.895284
 20
596.627205
 30
0.0
  0
SPLINE
  5
35f
100
AcDbEntity
  8
dino
 62
1
100
AcDbSpline
 70
8
 71
3
 72
8
 73
4
 74
0
 40
0
 40
0
 40
0
 40
0
 40
1
 40
1
 40
1
 40
1
 10
1654.895284
 20
596.627205
 30
0.0
 10
1653.864404
 20
598.023941
 30
0.0
 10
1652.620604
 20
599.364717
 30
0.0
 10
1650.640596
 20
600.183453
 30
0.0
  0
SPLINE
  5
360
100
AcDbEntity
  8
dino
 62
1
100
AcDbSpline
 70
8
 71
3
 72
8
 73
4
 74
0
 40
0
 40
0
 40
0
 40
0
 40
1
 40
1
 40
1
 40
1
 10
1650.640596
 20
600.183453
 30
0.0
 10
1649.835028
 20
600.516029
 30
0.0
 10
1649.056813
 20
599.654709
 30
0.0
 10
1649.456221
 20
598.872517
 30
0.0
  0
SPLINE
  5
361
100
AcDbEntity
  8
dino
 62
1
100
AcDbSpline
 70
8
 71
3
 72
8
 73
4
 74
0
 40
0
 40
0
 40
0
 40
0
 40
1
 40
1
 40
1
 40
1
 10
1649.456221
 20
598.872517
 30
0.0
 10
1649.868277
 20
598.068005
 30
0.0
 10
1650.576260
 20
596.312765
 30
0.0
 10
1651.070284
 20
594.803765
 30
0.0
  0
SPLINE
  5
362
100
AcDbEntity
  8
dino
 62
1
100
AcDbSpline
 70
8
 71
3
 72
8
 73
4
 74
0
 40
0
 40
0
 40
0
 40
0
 40
1
 40
1
 40
1
 40
1
 10
1651.070284
 20
594.803765
 30
0.0
 10
1651.317300
 20
594.049277
 30
0.0
 10
1651.515131
 20
593.343965
 30
0.0
 10
1651.604659
 20
592.870957
 30
0.0
  0
SPLINE
  5
363
100
AcDbEntity
  8
dino
 62
1
100
AcDbSpline
 70
8
 71
3
 72
8
 73
4
 74
0
 40
0
 40
0
 40
0
 40
0
 40
1
 40
1
 40
1
 40
1
 10
1651.604659
 20
592.870957
 30
0.0
 10
1651.624419
 20
592.766597
 30
0.0
 10
1651.619139
 20
592.743917
 30
0.0
 10
1651.628099
 20
592.667829
 30
0.0
  0
SPLINE
  5
364
100
AcDbEntity
  8
dino
 62
1
100
AcDbSpline
 70
8
 71
3
 72
8
 73
4
 74
0
 40
0
 40
0
 40
0
 40
0
 40
1
 40
1
 40
1
 40
1
 10
1651.628099
 20
592.667829
 30
0.0
 10
1651.182275
 20
592.395477
 30
0.0
 10
1650.834767
 20
592.072037
 30
0.0
 10
1650.540599
 20
591.822517
 30
0.0
  0
SPLINE
  5
365
100
AcDbEntity
  8
dino
 62
1
100
AcDbSpline
 70
8
 71
3
 72
8
 73
4
 74
0
 40
0
 40
0
 40
0
 40
0
 40
1
 40
1
 40
1
 40
1
 10
1650.540599
 20
591.822517
 30
0.0
 10
1650.233151
 20
591.561765
 30
0.0
 10
1649.919504
 20
591.485037
 30
0.0
 10
1649.581224
 20
591.405325
 30
0.0
  0
SPLINE
  5
366
100
AcDbEntity
  8
dino
 62
1
100
AcDbSpline
 70
8
 71
3
 72
8
 73
4
 74
0
 40
0
 40
0
 40
0
 40
0
 40
1
 40
1
 40
1
 40
1
 10
1649.581224
 20
591.405325
 30
0.0
 10
1649.196416
 20
591.943269
 30
0.0
 10
1648.791660
 20
592.518333
 30
0.0
 10
1648.243724
 20
593.153765
 30
0.0
  0
SPLINE
  5
367
100
AcDbEntity
  8
dino
 62
1
100
AcDbSpline
 70
8
 71
3
 72
8
 73
4
 74
0
 40
0
 40
0
 40
0
 40
0
 40
1
 40
1
 40
1
 40
1
 10
1648.243724
 20
593.153765
 30
0.0
 10
1647.522004
 20
593.990709
 30
0.0
 10
1646.762189
 20
594.791341
 30
0.0
 10
1645.839036
 20
595.219389
 30
0.0
  0
SPLINE
  5
368
100
AcDbEntity
  8
dino
 62
1
100
AcDbSpline
 70
8
 71
3
 72
8
 73
4
 74
0
 40
0
 40
0
 40
0
 40
0
 40
1
 40
1
 40
1
 40
1
 10
1645.839036
 20
595.219389
 30
0.0
 10
1645.209508
 20
595.510485
 30
0.0
 10
1644.496013
 20
595.033629
 30
0.0
 10
1644.514036
 20
594.333453
 30
0.0
  0
SPLINE
  5
369
100
AcDbEntity
  8
dino
 62
1
100
AcDbSpline
 70
8
 71
3
 72
8
 73
4
 74
0
 40
0
 40
0
 40
0
 40
0
 40
1
 40
1
 40
1
 40
1
 10
1644.514036
 20
594.333453
 30
0.0
 10
1644.550276
 20
592.936381
 30
0.0
 10
1645.304043
 20
591.912461
 30
0.0
 10
1645.798411
 20
591.027205
 30
0.0
  0
SPLINE
  5
36a
100
AcDbEntity
  8
dino
 62
1
100
AcDbSpline
 70
8
 71
3
 72
8
 73
4
 74
0
 40
0
 40
0
 40
0
 40
0
 40
1
 40
1
 40
1
 40
1
 10
1645.798411
 20
591.027205
 30
0.0
 10
1646.258451
 20
590.203429
 30
0.0
 10
1646.491360
 20
589.585165
 30
0.0
 10
1646.331224
 20
588.824077
 30
0.0
  0
SPLINE
  5
36b
100
AcDbEntity
  8
dino
 62
1
100
AcDbSpline
 70
8
 71
3
 72
8
 73
4
 74
0
 40
0
 40
0
 40
0
 40
0
 40
1
 40
1
 40
1
 40
1
 10
1646.331224
 20
588.824077
 30
0.0
 10
1645.962216
 20
588.515437
 30
0.0
 10
1645.683088
 20
588.266909
 30
0.0
 10
1645.421848
 20
587.975637
 30
0.0
  0
SPLINE
  5
36c
100
AcDbEntity
  8
dino
 62
1
100
AcDbSpline
 70
8
 71
3
 72
8
 73
4
 74
0
 40
0
 40
0
 40
0
 40
0
 40
1
 40
1
 40
1
 40
1
 10
1645.421848
 20
587.975637
 30
0.0
 10
1645.269504
 20
588.221381
 30
0.0
 10
1645.149396
 20
588.384957
 30
0.0
 10
1644.984348
 20
588.658453
 30
0.0
  0
SPLINE
  5
36d
100
AcDbEntity
  8
dino
 62
1
100
AcDbSpline
 70
8
 71
3
 72
8
 73
4
 74
0
 40
0
 40
0
 40
0
 40
0
 40
1
 40
1
 40
1
 40
1
 10
1644.984348
 20
588.658453
 30
0.0
 10
1644.615716
 20
589.269293
 30
0.0
 10
1644.269188
 20
589.886317
 30
0.0
 10
1643.684348
 20
590.355325
 30
0.0
  0
SPLINE
  5
36e
100
AcDbEntity
  8
dino
 62
1
100
AcDbSpline
 70
8
 71
3
 72
8
 73
4
 74
0
 40
0
 40
0
 40
0
 40
0
 40
1
 40
1
 40
1
 40
1
 10
1643.684348
 20
590.355325
 30
0.0
 10
1643.157828
 20
590.777293
 30
0.0
 10
1642.376389
 20
590.517405
 30
0.0
 10
1642.199973
 20
589.861581
 30
0.0
  0
SPLINE
  5
36f
100
AcDbEntity
  8
dino
 62
1
100
AcDbSpline
 70
8
 71
3
 72
8
 73
4
 74
0
 40
0
 40
0
 40
0
 40
0
 40
1
 40
1
 40
1
 40
1
 10
1642.199973
 20
589.861581
 30
0.0
 10
1641.898221
 20
588.740213
 30
0.0
 10
1642.295118
 20
587.769293
 30
0.0
 10
1642.570286
 20
587.013141
 30
0.0
  0
SPLINE
  5
370
100
AcDbEntity
  8
dino
 62
1
100
AcDbSpline
 70
8
 71
3
 72
8
 73
4
 74
0
 40
0
 40
0
 40
0
 40
0
 40
1
 40
1
 40
1
 40
1
 10
1642.570286
 20
587.013141
 30
0.0
 10
1642.809926
 20
586.354621
 30
0.0
 10
1642.886749
 20
585.916573
 30
0.0
 10
1642.849973
 20
585.536581
 30
0.0
  0
SPLINE
  5
371
100
AcDbEntity
  8
dino
 62
1
100
AcDbSpline
 70
8
 71
3
 72
8
 73
4
 74
0
 40
0
 40
0
 40
0
 40
0
 40
1
 40
1
 40
1
 40
1
 10
1642.849973
 20
585.536581
 30
0.0
 10
1642.805013
 20
585.504661
 30
0.0
 10
1642.828933
 20
585.519861
 30
0.0
 10
1642.776533
 20
585.488101
 30
0.0
  0
SPLINE
  5
372
100
AcDbEntity
  8
dino
 62
1
100
AcDbSpline
 70
8
 71
3
 72
8
 73
4
 74
0
 40
0
 40
0
 40
0
 40
0
 40
1
 40
1
 40
1
 40
1
 10
1642.776533
 20
585.488101
 30
0.0
 10
1642.553412
 20
585.354029
 30
0.0
 10
1642.258640
 20
585.196445
 30
0.0
 10
1641.964032
 20
585.045909
 30
0.0
  0
SPLINE
  5
373
100
AcDbEntity
  8
dino
 62
1
100
AcDbSpline
 70
8
 71
3
 72
8
 73
4
 74
0
 40
0
 40
0
 40
0
 40
0
 40
1
 40
1
 40
1
 40
1
 10
1641.964032
 20
585.045909
 30
0.0
 10
1641.564753
 20
584.841877
 30
0.0
 10
1641.333568
 20
584.740733
 30
0.0
 10
1641.078096
 20
584.624037
 30
0.0
  0
SPLINE
  5
374
100
AcDbEntity
  8
dino
 62
1
100
AcDbSpline
 70
8
 71
3
 72
8
 73
4
 74
0
 40
0
 40
0
 40
0
 40
0
 40
1
 40
1
 40
1
 40
1
 10
1641.078096
 20
584.624037
 30
0.0
 10
1640.304840
 20
585.175565
 30
0.0
 10
1639.302508
 20
585.771101
 30
0.0
 10
1638.360908
 20
585.994349
 30
0.0
  0
SPLINE
  5
375
100
AcDbEntity
  8
dino
 62
1
100
AcDbSpline
 70
8
 71
3
 72
8
 73
4
 74
0
 40
0
 40
0
 40
0
 40
0
 40
1
 40
1
 40
1
 40
1
 10
1638.360908
 20
585.994349
 30
0.0
 10
1637.659092
 20
586.159661
 30
0.0
 10
1637.043656
 20
585.495205
 30
0.0
 10
1637.253096
 20
584.797477
 30
0.0
  0
SPLINE
  5
376
100
AcDbEntity
  8
dino
 62
1
100
AcDbSpline
 70
8
 71
3
 72
8
 73
4
 74
0
 40
0
 40
0
 40
0
 40
0
 40
1
 40
1
 40
1
 40
1
 10
1637.253096
 20
584.797477
 30
0.0
 10
1637.447832
 20
584.150981
 30
0.0
 10
1637.803876
 20
583.622397
 30
0.0
 10
1638.110908
 20
583.130285
 30
0.0
  0
SPLINE
  5
377
100
AcDbEntity
  8
dino
 62
1
100
AcDbSpline
 70
8
 71
3
 72
8
 73
4
 74
0
 40
0
 40
0
 40
0
 40
0
 40
1
 40
1
 40
1
 40
1
 10
1638.110908
 20
583.130285
 30
0.0
 10
1638.309612
 20
582.811789
 30
0.0
 10
1638.382182
 20
582.645757
 30
0.0
 10
1638.487470
 20
582.438101
 30
0.0
  0
SPLINE
  5
378
100
AcDbEntity
  8
dino
 62
1
100
AcDbSpline
 70
8
 71
3
 72
8
 73
4
 74
0
 40
0
 40
0
 40
0
 40
0
 40
1
 40
1
 40
1
 40
1
 10
1638.487470
 20
582.438101
 30
0.0
 10
1638.292158
 20
582.266637
 30
0.0
 10
1638.035780
 20
582.059069
 30
0.0
 10
1637.740596
 20
581.831853
 30
0.0
  0
SPLINE
  5
379
100
AcDbEntity
  8
dino
 62
1
100
AcDbSpline
 70
8
 71
3
 72
8
 73
4
 74
0
 40
0
 40
0
 40
0
 40
0
 40
1
 40
1
 40
1
 40
1
 10
1637.740596
 20
581.831853
 30
0.0
 10
1637.301956
 20
581.494189
 30
0.0
 10
1636.897970
 20
581.162429
 30
0.0
 10
1636.489032
 20
580.830285
 30
0.0
  0
SPLINE
  5
37a
100
AcDbEntity
  8
dino
 62
1
100
AcDbSpline
 70
8
 71
3
 72
8
 73
4
 74
0
 40
0
 40
0
 40
0
 40
0
 40
1
 40
1
 40
1
 40
1
 10
1636.489032
 20
580.830285
 30
0.0
 10
1636.034881
 20
581.138957
 30
0.0
 10
1635.490641
 20
581.483765
 30
0.0
 10
1634.384345
 20
581.836541
 30
0.0
  0
SPLINE
  5
37b
100
AcDbEntity
  8
dino
 62
1
100
AcDbSpline
 70
8
 71
3
 72
8
 73
4
 74
0
 40
0
 40
0
 40
0
 40
0
 40
1
 40
1
 40
1
 40
1
 10
1634.384345
 20
581.836541
 30
0.0
 10
1633.617313
 20
582.080533
 30
0.0
 10
1632.923525
 20
581.295565
 30
0.0
 10
1633.246845
 20
580.550597
 30
0.0
  0
SPLINE
  5
37c
100
AcDbEntity
  8
dino
 62
1
100
AcDbSpline
 70
8
 71
3
 72
8
 73
4
 74
0
 40
0
 40
0
 40
0
 40
0
 40
1
 40
1
 40
1
 40
1
 10
1633.246845
 20
580.550597
 30
0.0
 10
1633.546565
 20
579.861989
 30
0.0
 10
1633.784020
 20
579.468949
 30
0.0
 10
1633.831220
 20
579.327165
 30
0.0
  0
SPLINE
  5
37d
100
AcDbEntity
  8
dino
 62
1
100
AcDbSpline
 70
8
 71
3
 72
8
 73
4
 74
0
 40
0
 40
0
 40
0
 40
0
 40
1
 40
1
 40
1
 40
1
 10
1633.831220
 20
579.327165
 30
0.0
 10
1633.858740
 20
579.244613
 30
0.0
 10
1633.795724
 20
579.085757
 30
0.0
 10
1633.773404
 20
578.986541
 30
0.0
  0
SPLINE
  5
37e
100
AcDbEntity
  8
dino
 62
1
100
AcDbSpline
 70
8
 71
3
 72
8
 73
4
 74
0
 40
0
 40
0
 40
0
 40
0
 40
1
 40
1
 40
1
 40
1
 10
1633.773404
 20
578.986541
 30
0.0
 10
1628.674812
 20
575.394229
 30
0.0
 10
1623.736259
 20
572.303309
 30
0.0
 10
1618.687467
 20
569.914661
 30
0.0
  0
SPLINE
  5
37f
100
AcDbEntity
  8
dino
 62
1
100
AcDbSpline
 70
8
 71
3
 72
8
 73
4
 74
0
 40
0
 40
0
 40
0
 40
0
 40
1
 40
1
 40
1
 40
1
 10
1618.687467
 20
569.914661
 30
0.0
 10
1616.426875
 20
569.350525
 30
0.0
 10
1615.035016
 20
569.541741
 30
0.0
 10
1613.845280
 20
570.041229
 30
0.0
  0
SPLINE
  5
380
100
AcDbEntity
  8
dino
 62
1
100
AcDbSpline
 70
8
 71
3
 72
8
 73
4
 74
0
 40
0
 40
0
 40
0
 40
0
 40
1
 40
1
 40
1
 40
1
 10
1613.845280
 20
570.041229
 30
0.0
 10
1612.654624
 20
570.541077
 30
0.0
 10
1611.613448
 20
571.426805
 30
0.0
 10
1610.268720
 20
572.300597
 30
0.0
  0
SPLINE
  5
381
100
AcDbEntity
  8
dino
 62
1
100
AcDbSpline
 70
8
 71
3
 72
8
 73
4
 74
0
 40
0
 40
0
 40
0
 40
0
 40
1
 40
1
 40
1
 40
1
 10
1610.268720
 20
572.300597
 30
0.0
 10
1609.083240
 20
573.214733
 30
0.0
 10
1607.794272
 20
574.672365
 30
0.0
 10
1606.926536
 20
576.258413
 30
0.0
  0
SPLINE
  5
382
100
AcDbEntity
  8
dino
 62
1
100
AcDbSpline
 70
8
 71
3
 72
8
 73
4
 74
0
 40
0
 40
0
 40
0
 40
0
 40
1
 40
1
 40
1
 40
1
 10
1606.926536
 20
576.258413
 30
0.0
 10
1606.054680
 20
577.851965
 30
0.0
 10
1605.628160
 20
579.542949
 30
0.0
 10
1605.934344
 20
580.942789
 30
0.0
  0
SPLINE
  5
383
100
AcDbEntity
  8
dino
 62
1
100
AcDbSpline
 70
8
 71
3
 72
8
 73
4
 74
0
 40
0
 40
0
 40
0
 40
0
 40
1
 40
1
 40
1
 40
1
 10
1605.934344
 20
580.942789
 30
0.0
 10
1607.877160
 20
589.824581
 30
0.0
 10
1610.779872
 20
598.568421
 30
0.0
 10
1613.631217
 20
607.299037
 30
0.0
  0
SPLINE
  5
384
100
AcDbEntity
  8
dino
 62
1
100
AcDbSpline
 70
8
 71
3
 72
8
 73
4
 74
0
 40
0
 40
0
 40
0
 40
0
 40
1
 40
1
 40
1
 40
1
 10
1613.631217
 20
607.299037
 30
0.0
 10
1613.844097
 20
607.363197
 30
0.0
 10
1614.053583
 20
607.435093
 30
0.0
 10
1614.264029
 20
607.486541
 30
0.0
  0
SPLINE
  5
385
100
AcDbEntity
  8
dino
 62
1
100
AcDbSpline
 70
8
 71
3
 72
8
 73
4
 74
0
 40
0
 40
0
 40
0
 40
0
 40
1
 40
1
 40
1
 40
1
 10
1614.264029
 20
607.486541
 30
0.0
 10
1614.608239
 20
607.570661
 30
0.0
 10
1614.861323
 20
607.571637
 30
0.0
 10
1615.287467
 20
607.822477
 30
0.0
  0
SPLINE
  5
386
100
AcDbEntity
  8
dino
 62
1
100
AcDbSpline
 70
8
 71
3
 72
8
 73
4
 74
0
 40
0
 40
0
 40
0
 40
0
 40
1
 40
1
 40
1
 40
1
 10
1615.287467
 20
607.822477
 30
0.0
 10
1615.394019
 20
607.885117
 30
0.0
 10
1615.530096
 20
607.971477
 30
0.0
 10
1615.665592
 20
608.172477
 30
0.0
  0
SPLINE
  5
387
100
AcDbEntity
  8
dino
 62
1
100
AcDbSpline
 70
8
 71
3
 72
8
 73
4
 74
0
 40
0
 40
0
 40
0
 40
0
 40
1
 40
1
 40
1
 40
1
 10
1615.665592
 20
608.172477
 30
0.0
 10
1615.801096
 20
608.373461
 30
0.0
 10
1615.881782
 20
608.736933
 30
0.0
 10
1615.814029
 20
609.009973
 30
0.0
  0
SPLINE
  5
388
100
AcDbEntity
  8
dino
 62
1
100
AcDbSpline
 70
8
 71
3
 72
8
 73
4
 74
0
 40
0
 40
0
 40
0
 40
0
 40
1
 40
1
 40
1
 40
1
 10
1615.814029
 20
609.009973
 30
0.0
 10
1615.678565
 20
609.556077
 30
0.0
 10
1615.402102
 20
609.650765
 30
0.0
 10
1615.209342
 20
609.770917
 30
0.0
  0
SPLINE
  5
389
100
AcDbEntity
  8
dino
 62
1
100
AcDbSpline
 70
8
 71
3
 72
8
 73
4
 74
0
 40
0
 40
0
 40
0
 40
0
 40
1
 40
1
 40
1
 40
1
 10
1615.209342
 20
609.770917
 30
0.0
 10
1615.007614
 20
609.896661
 30
0.0
 10
1614.630415
 20
610.021485
 30
0.0
 10
1614.349967
 20
610.136541
 30
0.0
  0
SPLINE
  5
38a
100
AcDbEntity
  8
dino
 62
1
100
AcDbSpline
 70
8
 71
3
 72
8
 73
4
 74
0
 40
0
 40
0
 40
0
 40
0
 40
1
 40
1
 40
1
 40
1
 10
1614.349967
 20
610.136541
 30
0.0
 10
1614.846391
 20
612.036957
 30
0.0
 10
1615.276252
 20
613.986477
 30
0.0
 10
1615.557780
 20
615.278725
 30
0.0
  0
SPLINE
  5
38b
100
AcDbEntity
  8
dino
 62
1
100
AcDbSpline
 70
8
 71
3
 72
8
 73
4
 74
0
 40
0
 40
0
 40
0
 40
0
 40
1
 40
1
 40
1
 40
1
 10
1615.557780
 20
615.278725
 30
0.0
 10
1615.832924
 20
615.267125
 30
0.0
 10
1616.133351
 20
615.248805
 30
0.0
 10
1616.374967
 20
615.247445
 30
0.0
  0
SPLINE
  5
38c
100
AcDbEntity
  8
dino
 62
1
100
AcDbSpline
 70
8
 71
3
 72
8
 73
4
 74
0
 40
0
 40
0
 40
0
 40
0
 40
1
 40
1
 40
1
 40
1
 10
1616.374967
 20
615.247445
 30
0.0
 10
1616.610887
 20
615.245845
 30
0.0
 10
1616.824724
 20
615.250645
 30
0.0
 10
1617.032780
 20
615.272405
 30
0.0
  0
SPLINE
  5
38d
100
AcDbEntity
  8
dino
 62
1
100
AcDbSpline
 70
8
 71
3
 72
8
 73
4
 74
0
 40
0
 40
0
 40
0
 40
0
 40
1
 40
1
 40
1
 40
1
 10
1617.032780
 20
615.272405
 30
0.0
 10
1617.240812
 20
615.294005
 30
0.0
 10
1617.426776
 20
615.290885
 30
0.0
 10
1617.740592
 20
615.473965
 30
0.0
  0
SPLINE
  5
38e
100
AcDbEntity
  8
dino
 62
1
100
AcDbSpline
 70
8
 71
3
 72
8
 73
4
 74
0
 40
0
 40
0
 40
0
 40
0
 40
1
 40
1
 40
1
 40
1
 10
1617.740592
 20
615.473965
 30
0.0
 10
1617.897480
 20
615.565573
 30
0.0
 10
1618.124980
 20
615.751269
 30
0.0
 10
1618.228092
 20
616.072405
 30
0.0
  0
SPLINE
  5
38f
100
AcDbEntity
  8
dino
 62
1
100
AcDbSpline
 70
8
 71
3
 72
8
 73
4
 74
0
 40
0
 40
0
 40
0
 40
0
 40
1
 40
1
 40
1
 40
1
 10
1618.228092
 20
616.072405
 30
0.0
 10
1618.330892
 20
616.393789
 30
0.0
 10
1618.241852
 20
616.729189
 30
0.0
 10
1618.142155
 20
616.913029
 30
0.0
  0
SPLINE
  5
390
100
AcDbEntity
  8
dino
 62
1
100
AcDbSpline
 70
8
 71
3
 72
8
 73
4
 74
0
 40
0
 40
0
 40
0
 40
0
 40
1
 40
1
 40
1
 40
1
 10
1618.142155
 20
616.913029
 30
0.0
 10
1617.942811
 20
617.280725
 30
0.0
 10
1617.754219
 20
617.371605
 30
0.0
 10
1617.537467
 20
617.514589
 30
0.0
  0
SPLINE
  5
391
100
AcDbEntity
  8
dino
 62
1
100
AcDbSpline
 70
8
 71
3
 72
8
 73
4
 74
0
 40
0
 40
0
 40
0
 40
0
 40
1
 40
1
 40
1
 40
1
 10
1617.537467
 20
617.514589
 30
0.0
 10
1617.250331
 20
617.703909
 30
0.0
 10
1616.696583
 20
617.946437
 30
0.0
 10
1616.199967
 20
618.177093
 30
0.0
  0
SPLINE
  5
392
100
AcDbEntity
  8
dino
 62
1
100
AcDbSpline
 70
8
 71
3
 72
8
 73
4
 74
0
 40
0
 40
0
 40
0
 40
0
 40
1
 40
1
 40
1
 40
1
 10
1616.199967
 20
618.177093
 30
0.0
 10
1616.303527
 20
618.673461
 30
0.0
 10
1616.422718
 20
619.368629
 30
0.0
 10
1616.559342
 20
620.111469
 30
0.0
  0
SPLINE
  5
393
100
AcDbEntity
  8
dino
 62
1
100
AcDbSpline
 70
8
 71
3
 72
8
 73
4
 74
0
 40
0
 40
0
 40
0
 40
0
 40
1
 40
1
 40
1
 40
1
 10
1616.559342
 20
620.111469
 30
0.0
 10
1616.847886
 20
620.090669
 30
0.0
 10
1617.183058
 20
620.055389
 30
0.0
 10
1617.421842
 20
620.052109
 30
0.0
  0
SPLINE
  5
394
100
AcDbEntity
  8
dino
 62
1
100
AcDbSpline
 70
8
 71
3
 72
8
 73
4
 74
0
 40
0
 40
0
 40
0
 40
0
 40
1
 40
1
 40
1
 40
1
 10
1617.421842
 20
620.052109
 30
0.0
 10
1617.659170
 20
620.048909
 30
0.0
 10
1617.868556
 20
620.054509
 30
0.0
 10
1618.078092
 20
620.081789
 30
0.0
  0
SPLINE
  5
395
100
AcDbEntity
  8
dino
 62
1
100
AcDbSpline
 70
8
 71
3
 72
8
 73
4
 74
0
 40
0
 40
0
 40
0
 40
0
 40
1
 40
1
 40
1
 40
1
 10
1618.078092
 20
620.081789
 30
0.0
 10
1618.287628
 20
620.109229
 30
0.0
 10
1618.503188
 20
620.090749
 30
0.0
 10
1618.848404
 20
620.389597
 30
0.0
  0
SPLINE
  5
396
100
AcDbEntity
  8
dino
 62
1
100
AcDbSpline
 70
8
 71
3
 72
8
 73
4
 74
0
 40
0
 40
0
 40
0
 40
0
 40
1
 40
1
 40
1
 40
1
 10
1618.848404
 20
620.389597
 30
0.0
 10
1619.021052
 20
620.538997
 30
0.0
 10
1619.209558
 20
620.857357
 30
0.0
 10
1619.214029
 20
621.169285
 30
0.0
  0
SPLINE
  5
397
100
AcDbEntity
  8
dino
 62
1
100
AcDbSpline
 70
8
 71
3
 72
8
 73
4
 74
0
 40
0
 40
0
 40
0
 40
0
 40
1
 40
1
 40
1
 40
1
 10
1619.214029
 20
621.169285
 30
0.0
 10
1619.218829
 20
621.481197
 30
0.0
 10
1619.097023
 20
621.695389
 30
0.0
 10
1618.999967
 20
621.831789
 30
0.0
  0
SPLINE
  5
398
100
AcDbEntity
  8
dino
 62
1
100
AcDbSpline
 70
8
 71
3
 72
8
 73
4
 74
0
 40
0
 40
0
 40
0
 40
0
 40
1
 40
1
 40
1
 40
1
 10
1618.999967
 20
621.831789
 30
0.0
 10
1618.805919
 20
622.104597
 30
0.0
 10
1618.631860
 20
622.206781
 30
0.0
 10
1618.423404
 20
622.339597
 30
0.0
  0
SPLINE
  5
399
100
AcDbEntity
  8
dino
 62
1
100
AcDbSpline
 70
8
 71
3
 72
8
 73
4
 74
0
 40
0
 40
0
 40
0
 40
0
 40
1
 40
1
 40
1
 40
1
 10
1618.423404
 20
622.339597
 30
0.0
 10
1618.169628
 20
622.501301
 30
0.0
 10
1617.694469
 20
622.704909
 30
0.0
 10
1617.293717
 20
622.892725
 30
0.0
  0
SPLINE
  5
39a
100
AcDbEntity
  8
dino
 62
1
100
AcDbSpline
 70
8
 71
3
 72
8
 73
4
 74
0
 40
0
 40
0
 40
0
 40
0
 40
1
 40
1
 40
1
 40
1
 10
1617.293717
 20
622.892725
 30
0.0
 10
1617.348117
 20
623.114325
 30
0.0
 10
1617.361005
 20
623.168805
 30
0.0
 10
1617.432780
 20
623.425533
 30
0.0
  0
SPLINE
  5
39b
100
AcDbEntity
  8
dino
 62
1
100
AcDbSpline
 70
8
 71
3
 72
8
 73
4
 74
0
 40
0
 40
0
 40
0
 40
0
 40
1
 40
1
 40
1
 40
1
 10
1617.432780
 20
623.425533
 30
0.0
 10
1617.494940
 20
623.647517
 30
0.0
 10
1617.525105
 20
623.819717
 30
0.0
 10
1617.581217
 20
624.019285
 30
0.0
  0
SPLINE
  5
39c
100
AcDbEntity
  8
dino
 62
1
100
AcDbSpline
 70
8
 71
3
 72
8
 73
4
 74
0
 40
0
 40
0
 40
0
 40
0
 40
1
 40
1
 40
1
 40
1
 10
1617.581217
 20
624.019285
 30
0.0
 10
1617.748585
 20
624.008565
 30
0.0
 10
1617.920294
 20
623.979125
 30
0.0
 10
1618.084342
 20
623.981765
 30
0.0
  0
SPLINE
  5
39d
100
AcDbEntity
  8
dino
 62
1
100
AcDbSpline
 70
8
 71
3
 72
8
 73
4
 74
0
 40
0
 40
0
 40
0
 40
0
 40
1
 40
1
 40
1
 40
1
 10
1618.084342
 20
623.981765
 30
0.0
 10
1618.520606
 20
623.988965
 30
0.0
 10
1618.964248
 20
623.990565
 30
0.0
 10
1619.445280
 20
624.364573
 30
0.0
  0
SPLINE
  5
39e
100
AcDbEntity
  8
dino
 62
1
100
AcDbSpline
 70
8
 71
3
 72
8
 73
4
 74
0
 40
0
 40
0
 40
0
 40
0
 40
1
 40
1
 40
1
 40
1
 10
1619.445280
 20
624.364573
 30
0.0
 10
1619.766128
 20
624.614029
 30
0.0
 10
1619.892076
 20
625.043941
 30
0.0
 10
1619.757780
 20
625.430197
 30
0.0
  0
SPLINE
  5
39f
100
AcDbEntity
  8
dino
 62
1
100
AcDbSpline
 70
8
 71
3
 72
8
 73
4
 74
0
 40
0
 40
0
 40
0
 40
0
 40
1
 40
1
 40
1
 40
1
 10
1619.757780
 20
625.430197
 30
0.0
 10
1619.466324
 20
626.268917
 30
0.0
 10
1618.847648
 20
626.518541
 30
0.0
 10
1618.435904
 20
626.756765
 30
0.0
  0
SPLINE
  5
3a0
100
AcDbEntity
  8
dino
 62
1
100
AcDbSpline
 70
8
 71
3
 72
8
 73
4
 74
0
 40
0
 40
0
 40
0
 40
0
 40
1
 40
1
 40
1
 40
1
 10
1618.435904
 20
626.756765
 30
0.0
 10
1618.379104
 20
626.789645
 30
0.0
 10
1618.357512
 20
626.800845
 30
0.0
 10
1618.306217
 20
626.830205
 30
0.0
  0
SPLINE
  5
3a1
100
AcDbEntity
  8
dino
 62
1
100
AcDbSpline
 70
8
 71
3
 72
8
 73
4
 74
0
 40
0
 40
0
 40
0
 40
0
 40
1
 40
1
 40
1
 40
1
 10
1618.306217
 20
626.830205
 30
0.0
 10
1618.309417
 20
626.843565
 30
0.0
 10
1618.313977
 20
626.852445
 30
0.0
 10
1618.317153
 20
626.866125
 30
0.0
  0
SPLINE
  5
3a2
100
AcDbEntity
  8
dino
 62
1
100
AcDbSpline
 70
8
 71
3
 72
8
 73
4
 74
0
 40
0
 40
0
 40
0
 40
0
 40
1
 40
1
 40
1
 40
1
 10
1618.317153
 20
626.866125
 30
0.0
 10
1618.406705
 20
627.233661
 30
0.0
 10
1618.510727
 20
627.714053
 30
0.0
 10
1618.640591
 20
628.277061
 30
0.0
  0
SPLINE
  5
3a3
100
AcDbEntity
  8
dino
 62
1
100
AcDbSpline
 70
8
 71
3
 72
8
 73
4
 74
0
 40
0
 40
0
 40
0
 40
0
 40
1
 40
1
 40
1
 40
1
 10
1618.640591
 20
628.277061
 30
0.0
 10
1618.900295
 20
629.403053
 30
0.0
 10
1619.260943
 20
630.859517
 30
0.0
 10
1619.760903
 20
632.287997
 30
0.0
  0
SPLINE
  5
3a4
100
AcDbEntity
  8
dino
 62
1
100
AcDbSpline
 70
8
 71
3
 72
8
 73
4
 74
0
 40
0
 40
0
 40
0
 40
0
 40
1
 40
1
 40
1
 40
1
 10
1619.760903
 20
632.287997
 30
0.0
 10
1620.260879
 20
633.716485
 30
0.0
 10
1620.908048
 20
635.110725
 30
0.0
 10
1621.671840
 20
636.083309
 30
0.0
  0
SPLINE
  5
3a5
100
AcDbEntity
  8
dino
 62
1
100
AcDbSpline
 70
8
 71
3
 72
8
 73
4
 74
0
 40
0
 40
0
 40
0
 40
0
 40
1
 40
1
 40
1
 40
1
 10
1621.671840
 20
636.083309
 30
0.0
 10
1622.384280
 20
636.990565
 30
0.0
 10
1623.133593
 20
637.458605
 30
0.0
 10
1624.017153
 20
637.528621
 30
0.0
  0
SPLINE
  5
3a6
100
AcDbEntity
  8
dino
 62
1
100
AcDbSpline
 70
8
 71
3
 72
8
 73
4
 74
0
 40
0
 40
0
 40
0
 40
0
 40
1
 40
1
 40
1
 40
1
 10
1624.017153
 20
637.528621
 30
0.0
 10
1624.592809
 20
637.161005
 30
0.0
 10
1625.304321
 20
636.714789
 30
0.0
 10
1625.912465
 20
636.366125
 30
0.0
  0
SPLINE
  5
3a7
100
AcDbEntity
  8
dino
 62
1
100
AcDbSpline
 70
8
 71
3
 72
8
 73
4
 74
0
 40
0
 40
0
 40
0
 40
0
 40
1
 40
1
 40
1
 40
1
 10
1625.912465
 20
636.366125
 30
0.0
 10
1626.269945
 20
636.161173
 30
0.0
 10
1626.537817
 20
636.008709
 30
0.0
 10
1626.812465
 20
635.897373
 30
0.0
  0
SPLINE
  5
3a8
100
AcDbEntity
  8
dino
 62
1
100
AcDbSpline
 70
8
 71
3
 72
8
 73
4
 74
0
 40
0
 40
0
 40
0
 40
0
 40
1
 40
1
 40
1
 40
1
 10
1626.812465
 20
635.897373
 30
0.0
 10
1626.881105
 20
635.869533
 30
0.0
 10
1626.940811
 20
635.839533
 30
0.0
 10
1627.098403
 20
635.812997
 30
0.0
  0
SPLINE
  5
3a9
100
AcDbEntity
  8
dino
 62
1
100
AcDbSpline
 70
8
 71
3
 72
8
 73
4
 74
0
 40
0
 40
0
 40
0
 40
0
 40
1
 40
1
 40
1
 40
1
 10
1627.098403
 20
635.812997
 30
0.0
 10
1627.177123
 20
635.799637
 30
0.0
 10
1627.279612
 20
635.766757
 30
0.0
 10
1627.518716
 20
635.831717
 30
0.0
  0
SPLINE
  5
3aa
100
AcDbEntity
  8
dino
 62
1
100
AcDbSpline
 70
8
 71
3
 72
8
 73
4
 74
0
 40
0
 40
0
 40
0
 40
0
 40
1
 40
1
 40
1
 40
1
 10
1627.518716
 20
635.831717
 30
0.0
 10
1627.757820
 20
635.896677
 30
0.0
 10
1628.178167
 20
636.298733
 30
0.0
 10
1628.215591
 20
636.656717
 30
0.0
  0
SPLINE
  5
3ab
100
AcDbEntity
  8
dino
 62
1
100
AcDbSpline
 70
8
 71
3
 72
8
 73
4
 74
0
 40
0
 40
0
 40
0
 40
0
 40
1
 40
1
 40
1
 40
1
 10
1628.215591
 20
636.656717
 30
0.0
 10
1628.253031
 20
637.014709
 30
0.0
 10
1628.143687
 20
637.154029
 30
0.0
 10
1628.092153
 20
637.245773
 30
0.0
  0
SPLINE
  5
3ac
100
AcDbEntity
  8
dino
 62
1
100
AcDbSpline
 70
8
 71
3
 72
8
 73
4
 74
0
 40
0
 40
0
 40
0
 40
0
 40
1
 40
1
 40
1
 40
1
 10
1628.092153
 20
637.245773
 30
0.0
 10
1628.040553
 20
637.337493
 30
0.0
 10
1628.001505
 20
637.381629
 30
0.0
 10
1627.967153
 20
637.422341
 30
0.0
  0
SPLINE
  5
3ad
100
AcDbEntity
  8
dino
 62
1
100
AcDbSpline
 70
8
 71
3
 72
8
 73
4
 74
0
 40
0
 40
0
 40
0
 40
0
 40
1
 40
1
 40
1
 40
1
 10
1627.967153
 20
637.422341
 30
0.0
 10
1627.938833
 20
637.455701
 30
0.0
 10
1627.915553
 20
637.476501
 30
0.0
 10
1627.890593
 20
637.502021
 30
0.0
  0
SPLINE
  5
3ae
100
AcDbEntity
  8
dino
 62
1
100
AcDbSpline
 70
8
 71
3
 72
8
 73
4
 74
0
 40
0
 40
0
 40
0
 40
0
 40
1
 40
1
 40
1
 40
1
 10
1627.890593
 20
637.502021
 30
0.0
 10
1627.248849
 20
638.398725
 30
0.0
 10
1626.971087
 20
638.980565
 30
0.0
 10
1626.634343
 20
639.620773
 30
0.0
  0
SPLINE
  5
3af
100
AcDbEntity
  8
dino
 62
1
100
AcDbSpline
 70
8
 71
3
 72
8
 73
4
 74
0
 40
0
 40
0
 40
0
 40
0
 40
1
 40
1
 40
1
 40
1
 10
1626.634343
 20
639.620773
 30
0.0
 10
1627.088823
 20
639.468357
 30
0.0
 10
1627.439852
 20
639.359405
 30
0.0
 10
1628.067156
 20
639.130141
 30
0.0
  0
SPLINE
  5
3b0
100
AcDbEntity
  8
dino
 62
1
100
AcDbSpline
 70
8
 71
3
 72
8
 73
4
 74
0
 40
0
 40
0
 40
0
 40
0
 40
1
 40
1
 40
1
 40
1
 10
1628.067156
 20
639.130141
 30
0.0
 10
1628.564972
 20
638.948197
 30
0.0
 10
1629.063401
 20
638.774621
 30
0.0
 10
1629.535905
 20
638.661397
 30
0.0
  0
SPLINE
  5
3b1
100
AcDbEntity
  8
dino
 62
1
100
AcDbSpline
 70
8
 71
3
 72
8
 73
4
 74
0
 40
0
 40
0
 40
0
 40
0
 40
1
 40
1
 40
1
 40
1
 10
1629.535905
 20
638.661397
 30
0.0
 10
1630.008433
 20
638.548165
 30
0.0
 10
1630.428575
 20
638.392661
 30
0.0
 10
1631.059343
 20
638.673877
 30
0.0
  0
SPLINE
  5
3b2
100
AcDbEntity
  8
dino
 62
1
100
AcDbSpline
 70
8
 71
3
 72
8
 73
4
 74
0
 40
0
 40
0
 40
0
 40
0
 40
1
 40
1
 40
1
 40
1
 10
1631.059343
 20
638.673877
 30
0.0
 10
1631.583535
 20
638.907317
 30
0.0
 10
1631.778291
 20
639.557701
 30
0.0
 10
1631.471843
 20
640.047317
 30
0.0
  0
SPLINE
  5
3b3
100
AcDbEntity
  8
dino
 62
1
100
AcDbSpline
 70
8
 71
3
 72
8
 73
4
 74
0
 40
0
 40
0
 40
0
 40
0
 40
1
 40
1
 40
1
 40
1
 10
1631.471843
 20
640.047317
 30
0.0
 10
1631.192395
 20
640.493989
 30
0.0
 10
1630.831804
 20
640.843613
 30
0.0
 10
1630.437468
 20
641.144189
 30
0.0
  0
SPLINE
  5
3b4
100
AcDbEntity
  8
dino
 62
1
100
AcDbSpline
 70
8
 71
3
 72
8
 73
4
 74
0
 40
0
 40
0
 40
0
 40
0
 40
1
 40
1
 40
1
 40
1
 10
1630.437468
 20
641.144189
 30
0.0
 10
1630.648892
 20
641.099469
 30
0.0
 10
1630.881933
 20
641.036893
 30
0.0
 10
1631.078093
 20
641.005125
 30
0.0
  0
SPLINE
  5
3b5
100
AcDbEntity
  8
dino
 62
1
100
AcDbSpline
 70
8
 71
3
 72
8
 73
4
 74
0
 40
0
 40
0
 40
0
 40
0
 40
1
 40
1
 40
1
 40
1
 10
1631.078093
 20
641.005125
 30
0.0
 10
1631.596805
 20
640.921149
 30
0.0
 10
1631.962924
 20
640.754773
 30
0.0
 10
1632.632780
 20
641.072325
 30
0.0
  0
SPLINE
  5
3b6
100
AcDbEntity
  8
dino
 62
1
100
AcDbSpline
 70
8
 71
3
 72
8
 73
4
 74
0
 40
0
 40
0
 40
0
 40
0
 40
1
 40
1
 40
1
 40
1
 10
1632.632780
 20
641.072325
 30
0.0
 10
1633.247700
 20
641.364501
 30
0.0
 10
1633.361000
 20
642.201413
 30
0.0
 10
1632.845280
 20
642.648885
 30
0.0
  0
SPLINE
  5
3b7
100
AcDbEntity
  8
dino
 62
1
100
AcDbSpline
 70
8
 71
3
 72
8
 73
4
 74
0
 40
0
 40
0
 40
0
 40
0
 40
1
 40
1
 40
1
 40
1
 10
1632.845280
 20
642.648885
 30
0.0
 10
1632.331656
 20
643.095429
 30
0.0
 10
1631.539321
 20
643.443733
 30
0.0
 10
1630.735905
 20
643.825445
 30
0.0
  0
SPLINE
  5
3b8
100
AcDbEntity
  8
dino
 62
1
100
AcDbSpline
 70
8
 71
3
 72
8
 73
4
 74
0
 40
0
 40
0
 40
0
 40
0
 40
1
 40
1
 40
1
 40
1
 10
1630.735905
 20
643.825445
 30
0.0
 10
1631.326857
 20
643.761605
 30
0.0
 10
1631.850526
 20
643.712909
 30
0.0
 10
1632.268718
 20
643.714509
 30
0.0
  0
SPLINE
  5
3b9
100
AcDbEntity
  8
dino
 62
1
100
AcDbSpline
 70
8
 71
3
 72
8
 73
4
 74
0
 40
0
 40
0
 40
0
 40
0
 40
1
 40
1
 40
1
 40
1
 10
1632.268718
 20
643.714509
 30
0.0
 10
1632.482214
 20
643.715301
 30
0.0
 10
1632.608436
 20
643.654989
 30
0.0
 10
1633.007780
 20
643.839509
 30
0.0
  0
SPLINE
  5
3ba
100
AcDbEntity
  8
dino
 62
1
100
AcDbSpline
 70
8
 71
3
 72
8
 73
4
 74
0
 40
0
 40
0
 40
0
 40
0
 40
1
 40
1
 40
1
 40
1
 10
1633.007780
 20
643.839509
 30
0.0
 10
1633.107628
 20
643.885669
 30
0.0
 10
1633.243764
 20
643.958093
 30
0.0
 10
1633.382780
 20
644.133261
 30
0.0
  0
SPLINE
  5
3bb
100
AcDbEntity
  8
dino
 62
1
100
AcDbSpline
 70
8
 71
3
 72
8
 73
4
 74
0
 40
0
 40
0
 40
0
 40
0
 40
1
 40
1
 40
1
 40
1
 10
1633.382780
 20
644.133261
 30
0.0
 10
1633.521868
 20
644.308373
 30
0.0
 10
1633.620689
 20
644.623245
 30
0.0
 10
1633.590593
 20
644.872325
 30
0.0
  0
SPLINE
  5
3bc
100
AcDbEntity
  8
dino
 62
1
100
AcDbSpline
 70
8
 71
3
 72
8
 73
4
 74
0
 40
0
 40
0
 40
0
 40
0
 40
1
 40
1
 40
1
 40
1
 10
1633.590593
 20
644.872325
 30
0.0
 10
1633.540113
 20
645.289861
 30
0.0
 10
1633.368702
 20
645.374093
 30
0.0
 10
1633.243718
 20
645.467637
 30
0.0
  0
SPLINE
  5
3bd
100
AcDbEntity
  8
dino
 62
1
100
AcDbSpline
 70
8
 71
3
 72
8
 73
4
 74
0
 40
0
 40
0
 40
0
 40
0
 40
1
 40
1
 40
1
 40
1
 10
1633.243718
 20
645.467637
 30
0.0
 10
1632.911278
 20
645.872957
 30
0.0
 10
1632.568536
 20
646.054253
 30
0.0
 10
1632.164030
 20
646.241077
 30
0.0
  0
SPLINE
  5
3be
100
AcDbEntity
  8
dino
 62
1
100
AcDbSpline
 70
8
 71
3
 72
8
 73
4
 74
0
 40
0
 40
0
 40
0
 40
0
 40
1
 40
1
 40
1
 40
1
 10
1632.164030
 20
646.241077
 30
0.0
 10
1631.714224
 20
646.448773
 30
0.0
 10
1631.199540
 20
646.638757
 30
0.0
 10
1630.682780
 20
646.820765
 30
0.0
  0
SPLINE
  5
3bf
100
AcDbEntity
  8
dino
 62
1
100
AcDbSpline
 70
8
 71
3
 72
8
 73
4
 74
0
 40
0
 40
0
 40
0
 40
0
 40
1
 40
1
 40
1
 40
1
 10
1630.682780
 20
646.820765
 30
0.0
 10
1630.059476
 20
647.040277
 30
0.0
 10
1629.740952
 20
647.167189
 30
0.0
 10
1629.279656
 20
647.337949
 30
0.0
  0
SPLINE
  5
3c0
100
AcDbEntity
  8
dino
 62
1
100
AcDbSpline
 70
8
 71
3
 72
8
 73
4
 74
0
 40
0
 40
0
 40
0
 40
0
 40
1
 40
1
 40
1
 40
1
 10
1629.279656
 20
647.337949
 30
0.0
 10
1629.459488
 20
647.322509
 30
0.0
 10
1629.540280
 20
647.332349
 30
0.0
 10
1629.724968
 20
647.312989
 30
0.0
  0
SPLINE
  5
3c1
100
AcDbEntity
  8
dino
 62
1
100
AcDbSpline
 70
8
 71
3
 72
8
 73
4
 74
0
 40
0
 40
0
 40
0
 40
0
 40
1
 40
1
 40
1
 40
1
 10
1629.724968
 20
647.312989
 30
0.0
 10
1630.023600
 20
647.281949
 30
0.0
 10
1630.304232
 20
647.246029
 30
0.0
 10
1630.670280
 20
647.304989
 30
0.0
  0
SPLINE
  5
3c2
100
AcDbEntity
  8
dino
 62
1
100
AcDbSpline
 70
8
 71
3
 72
8
 73
4
 74
0
 40
0
 40
0
 40
0
 40
0
 40
1
 40
1
 40
1
 40
1
 10
1630.670280
 20
647.304989
 30
0.0
 10
1630.853328
 20
647.334589
 30
0.0
 10
1631.083624
 20
647.385181
 30
0.0
 10
1631.329656
 20
647.592493
 30
0.0
  0
SPLINE
  5
3c3
100
AcDbEntity
  8
dino
 62
1
100
AcDbSpline
 70
8
 71
3
 72
8
 73
4
 74
0
 40
0
 40
0
 40
0
 40
0
 40
1
 40
1
 40
1
 40
1
 10
1631.329656
 20
647.592493
 30
0.0
 10
1631.575712
 20
647.799733
 30
0.0
 10
1631.746017
 20
648.205405
 30
0.0
 10
1631.740593
 20
648.509677
 30
0.0
  0
SPLINE
  5
3c4
100
AcDbEntity
  8
dino
 62
1
100
AcDbSpline
 70
8
 71
3
 72
8
 73
4
 74
0
 40
0
 40
0
 40
0
 40
0
 40
1
 40
1
 40
1
 40
1
 10
1631.740593
 20
648.509677
 30
0.0
 10
1631.734993
 20
648.855029
 30
0.0
 10
1631.543940
 20
649.170229
 30
0.0
 10
1631.242156
 20
649.331557
 30
0.0
  0
SPLINE
  5
3c5
100
AcDbEntity
  8
dino
 62
1
100
AcDbSpline
 70
8
 71
3
 72
8
 73
4
 74
0
 40
0
 40
0
 40
0
 40
0
 40
1
 40
1
 40
1
 40
1
 10
1631.242156
 20
649.331557
 30
0.0
 10
1629.835828
 20
650.081893
 30
0.0
 10
1629.427357
 20
650.438773
 30
0.0
 10
1629.448405
 20
650.411245
 30
0.0
  0
SPLINE
  5
3c6
100
AcDbEntity
  8
dino
 62
1
100
AcDbSpline
 70
8
 71
3
 72
8
 73
4
 74
0
 40
0
 40
0
 40
0
 40
0
 40
1
 40
1
 40
1
 40
1
 10
1629.448405
 20
650.411245
 30
0.0
 10
1629.378965
 20
650.576973
 30
0.0
 10
1629.182759
 20
650.865885
 30
0.0
 10
1628.959343
 20
651.048741
 30
0.0
  0
SPLINE
  5
3c7
100
AcDbEntity
  8
dino
 62
1
100
AcDbSpline
 70
8
 71
3
 72
8
 73
4
 74
0
 40
0
 40
0
 40
0
 40
0
 40
1
 40
1
 40
1
 40
1
 10
1628.959343
 20
651.048741
 30
0.0
 10
1626.170871
 20
653.330981
 30
0.0
 10
1621.649172
 20
654.502533
 30
0.0
 10
1618.517156
 20
653.984677
 30
0.0
  0
SPLINE
  5
3c8
100
AcDbEntity
  8
dino
 62
1
100
AcDbSpline
 70
8
 71
3
 72
8
 73
4
 74
0
 40
0
 40
0
 40
0
 40
0
 40
1
 40
1
 40
1
 40
1
 10
1618.517156
 20
653.984677
 30
0.0
 10
1616.180988
 20
653.598397
 30
0.0
 10
1613.281117
 20
652.095853
 30
0.0
 10
1610.728096
 20
650.173741
 30
0.0
  0
SPLINE
  5
3c9
100
AcDbEntity
  8
dino
 62
1
100
AcDbSpline
 70
8
 71
3
 72
8
 73
4
 74
0
 40
0
 40
0
 40
0
 40
0
 40
1
 40
1
 40
1
 40
1
 10
1610.728096
 20
650.173741
 30
0.0
 10
1608.175056
 20
648.251621
 30
0.0
 10
1605.961184
 20
645.971509
 30
0.0
 10
1605.410912
 20
643.526869
 30
0.0
  0
SPLINE
  5
3ca
100
AcDbEntity
  8
dino
 62
1
100
AcDbSpline
 70
8
 71
3
 72
8
 73
4
 74
0
 40
0
 40
0
 40
0
 40
0
 40
1
 40
1
 40
1
 40
1
 10
1605.410912
 20
643.526869
 30
0.0
 10
1604.635696
 20
640.082893
 30
0.0
 10
1604.863624
 20
637.118637
 30
0.0
 10
1604.943720
 20
634.342493
 30
0.0
  0
SPLINE
  5
3cb
100
AcDbEntity
  8
dino
 62
1
100
AcDbSpline
 70
8
 71
3
 72
8
 73
4
 74
0
 40
0
 40
0
 40
0
 40
0
 40
1
 40
1
 40
1
 40
1
 10
1604.943720
 20
634.342493
 30
0.0
 10
1605.023792
 20
631.566357
 30
0.0
 10
1604.970280
 20
628.990061
 30
0.0
 10
1603.760912
 20
626.050301
 30
0.0
  0
SPLINE
  5
3cc
100
AcDbEntity
  8
dino
 62
1
100
AcDbSpline
 70
8
 71
3
 72
8
 73
4
 74
0
 40
0
 40
0
 40
0
 40
0
 40
1
 40
1
 40
1
 40
1
 10
1603.760912
 20
626.050301
 30
0.0
 10
1602.406688
 20
622.758565
 30
0.0
 10
1602.030944
 20
621.018725
 30
0.0
 10
1601.231224
 20
618.923741
 30
0.0
  0
SPLINE
  5
3cd
100
AcDbEntity
  8
dino
 62
1
100
AcDbSpline
 70
8
 71
3
 72
8
 73
4
 74
0
 40
0
 40
0
 40
0
 40
0
 40
1
 40
1
 40
1
 40
1
 10
1601.231224
 20
618.923741
 30
0.0
 10
1600.431496
 20
616.828773
 30
0.0
 10
1599.213336
 20
614.351493
 30
0.0
 10
1597.199968
 20
611.609677
 30
0.0
  0
SPLINE
  5
3ce
100
AcDbEntity
  8
dino
 62
1
100
AcDbSpline
 70
8
 71
3
 72
8
 73
4
 74
0
 40
0
 40
0
 40
0
 40
0
 40
1
 40
1
 40
1
 40
1
 10
1597.199968
 20
611.609677
 30
0.0
 10
1591.374808
 20
603.676957
 30
0.0
 10
1581.588840
 20
589.105437
 30
0.0
 10
1574.346848
 20
581.925301
 30
0.0
  0
SPLINE
  5
3cf
100
AcDbEntity
  8
dino
 62
1
100
AcDbSpline
 70
8
 71
3
 72
8
 73
4
 74
0
 40
0
 40
0
 40
0
 40
0
 40
1
 40
1
 40
1
 40
1
 10
1574.346848
 20
581.925301
 30
0.0
 10
1568.214360
 20
575.164109
 30
0.0
 10
1567.959560
 20
573.029605
 30
0.0
 10
1564.371848
 20
568.903429
 30
0.0
  0
SPLINE
  5
3d0
100
AcDbEntity
  8
dino
 62
1
100
AcDbSpline
 70
8
 71
3
 72
8
 73
4
 74
0
 40
0
 40
0
 40
0
 40
0
 40
1
 40
1
 40
1
 40
1
 10
1564.371848
 20
568.903429
 30
0.0
 10
1561.037840
 20
565.069029
 30
0.0
 10
1556.912040
 20
561.959077
 30
0.0
 10
1553.674968
 20
558.042493
 30
0.0
  0
SPLINE
  5
3d1
100
AcDbEntity
  8
dino
 62
1
100
AcDbSpline
 70
8
 71
3
 72
8
 73
4
 74
0
 40
0
 40
0
 40
0
 40
0
 40
1
 40
1
 40
1
 40
1
 10
1553.674968
 20
558.042493
 30
0.0
 10
1547.535616
 20
550.614413
 30
0.0
 10
1542.295656
 20
542.460813
 30
0.0
 10
1537.265600
 20
534.240933
 30
0.0
  0
SPLINE
  5
3d2
100
AcDbEntity
  8
dino
 62
1
100
AcDbSpline
 70
8
 71
3
 72
8
 73
4
 74
0
 40
0
 40
0
 40
0
 40
0
 40
1
 40
1
 40
1
 40
1
 10
1537.265600
 20
534.240933
 30
0.0
 10
1531.942768
 20
525.542613
 30
0.0
 10
1526.882808
 20
516.634485
 30
0.0
 10
1522.740600
 20
507.315933
 30
0.0
  0
SPLINE
  5
3d3
100
AcDbEntity
  8
dino
 62
1
100
AcDbSpline
 70
8
 71
3
 72
8
 73
4
 74
0
 40
0
 40
0
 40
0
 40
0
 40
1
 40
1
 40
1
 40
1
 10
1522.740600
 20
507.315933
 30
0.0
 10
1513.782640
 20
487.163565
 30
0.0
 10
1506.579280
 20
466.200117
 30
0.0
 10
1500.562472
 20
444.983117
 30
0.0
  0
SPLINE
  5
3d4
100
AcDbEntity
  8
dino
 62
1
100
AcDbSpline
 70
8
 71
3
 72
8
 73
4
 74
0
 40
0
 40
0
 40
0
 40
0
 40
1
 40
1
 40
1
 40
1
 10
1500.562472
 20
444.983117
 30
0.0
 10
1495.857576
 20
428.392309
 30
0.0
 10
1492.700040
 20
411.382429
 30
0.0
 10
1489.735912
 20
394.394053
 30
0.0
  0
SPLINE
  5
3d5
100
AcDbEntity
  8
dino
 62
1
100
AcDbSpline
 70
8
 71
3
 72
8
 73
4
 74
0
 40
0
 40
0
 40
0
 40
0
 40
1
 40
1
 40
1
 40
1
 10
1489.735912
 20
394.394053
 30
0.0
 10
1487.621480
 20
382.275549
 30
0.0
 10
1486.016616
 20
370.061581
 30
0.0
 10
1484.781224
 20
357.822181
 30
0.0
  0
SPLINE
  5
3d6
100
AcDbEntity
  8
dino
 62
1
100
AcDbSpline
 70
8
 71
3
 72
8
 73
4
 74
0
 40
0
 40
0
 40
0
 40
0
 40
1
 40
1
 40
1
 40
1
 10
1484.781224
 20
357.822181
 30
0.0
 10
1483.561048
 20
345.733565
 30
0.0
 10
1482.943304
 20
333.589349
 30
0.0
 10
1482.357784
 20
321.453429
 30
0.0
  0
SPLINE
  5
3d7
100
AcDbEntity
  8
dino
 62
1
100
AcDbSpline
 70
8
 71
3
 72
8
 73
4
 74
0
 40
0
 40
0
 40
0
 40
0
 40
1
 40
1
 40
1
 40
1
 10
1482.357784
 20
321.453429
 30
0.0
 10
1481.664352
 20
307.080845
 30
0.0
 10
1481.255080
 20
292.693069
 30
0.0
 10
1481.067160
 20
278.304989
 30
0.0
  0
SPLINE
  5
3d8
100
AcDbEntity
  8
dino
 62
1
100
AcDbSpline
 70
8
 71
3
 72
8
 73
4
 74
0
 40
0
 40
0
 40
0
 40
0
 40
1
 40
1
 40
1
 40
1
 10
1481.067160
 20
278.304989
 30
0.0
 10
1480.840552
 20
260.954885
 30
0.0
 10
1481.454896
 20
241.489597
 30
0.0
 10
1481.264032
 20
226.250301
 30
0.0
  0
SPLINE
  5
3d9
100
AcDbEntity
  8
dino
 62
1
100
AcDbSpline
 70
8
 71
3
 72
8
 73
4
 74
0
 40
0
 40
0
 40
0
 40
0
 40
1
 40
1
 40
1
 40
1
 10
1481.264032
 20
226.250301
 30
0.0
 10
1481.105920
 20
213.625701
 30
0.0
 10
1482.646456
 20
191.215739
 30
0.0
 10
1475.785912
 20
188.772179
 30
0.0
  0
SPLINE
  5
3da
100
AcDbEntity
  8
dino
 62
1
100
AcDbSpline
 70
8
 71
3
 72
8
 73
4
 74
0
 40
0
 40
0
 40
0
 40
0
 40
1
 40
1
 40
1
 40
1
 10
1475.785912
 20
188.772179
 30
0.0
 10
1467.311640
 20
189.733987
 30
0.0
 10
1466.146312
 20
208.584109
 30
0.0
 10
1463.348408
 20
226.904989
 30
0.0
  0
SPLINE
  5
3db
100
AcDbEntity
  8
dino
 62
1
100
AcDbSpline
 70
8
 71
3
 72
8
 73
4
 74
0
 40
0
 40
0
 40
0
 40
0
 40
1
 40
1
 40
1
 40
1
 10
1463.348408
 20
226.904989
 30
0.0
 10
1460.962448
 20
242.528429
 30
0.0
 10
1459.180424
 20
256.039933
 30
0.0
 10
1457.395288
 20
270.645613
 30
0.0
  0
SPLINE
  5
3dc
100
AcDbEntity
  8
dino
 62
1
100
AcDbSpline
 70
8
 71
3
 72
8
 73
4
 74
0
 40
0
 40
0
 40
0
 40
0
 40
1
 40
1
 40
1
 40
1
 10
1457.395288
 20
270.645613
 30
0.0
 10
1456.113136
 20
281.135821
 30
0.0
 10
1455.237304
 20
291.672765
 30
0.0
 10
1453.979656
 20
302.165933
 30
0.0
  0
SPLINE
  5
3dd
100
AcDbEntity
  8
dino
 62
1
100
AcDbSpline
 70
8
 71
3
 72
8
 73
4
 74
0
 40
0
 40
0
 40
0
 40
0
 40
1
 40
1
 40
1
 40
1
 10
1453.979656
 20
302.165933
 30
0.0
 10
1452.252184
 20
316.579045
 30
0.0
 10
1451.232120
 20
331.125717
 30
0.0
 10
1448.306224
 20
345.344053
 30
0.0
  0
SPLINE
  5
3de
100
AcDbEntity
  8
dino
 62
1
100
AcDbSpline
 70
8
 71
3
 72
8
 73
4
 74
0
 40
0
 40
0
 40
0
 40
0
 40
1
 40
1
 40
1
 40
1
 10
1448.306224
 20
345.344053
 30
0.0
 10
1443.375264
 20
369.305965
 30
0.0
 10
1437.397816
 20
393.239701
 30
0.0
 10
1428.357784
 20
415.972181
 30
0.0
  0
SPLINE
  5
3df
100
AcDbEntity
  8
dino
 62
1
100
AcDbSpline
 70
8
 71
3
 72
8
 73
4
 74
0
 40
0
 40
0
 40
0
 40
0
 40
1
 40
1
 40
1
 40
1
 10
1428.357784
 20
415.972181
 30
0.0
 10
1421.162744
 20
434.065165
 30
0.0
 10
1411.952888
 20
451.442405
 30
0.0
 10
1401.295288
 20
467.737805
 30
0.0
  0
SPLINE
  5
3e0
100
AcDbEntity
  8
dino
 62
1
100
AcDbSpline
 70
8
 71
3
 72
8
 73
4
 74
0
 40
0
 40
0
 40
0
 40
0
 40
1
 40
1
 40
1
 40
1
 10
1401.295288
 20
467.737805
 30
0.0
 10
1392.144344
 20
481.729509
 30
0.0
 10
1382.430672
 20
495.789197
 30
0.0
 10
1369.887472
 20
506.842493
 30
0.0
  0
SPLINE
  5
3e1
100
AcDbEntity
  8
dino
 62
1
100
AcDbSpline
 70
8
 71
3
 72
8
 73
4
 74
0
 40
0
 40
0
 40
0
 40
0
 40
1
 40
1
 40
1
 40
1
 10
1369.887472
 20
506.842493
 30
0.0
 10
1361.041792
 20
514.637469
 30
0.0
 10
1350.550504
 20
520.633269
 30
0.0
 10
1339.743720
 20
525.347181
 30
0.0
  0
SPLINE
  5
3e2
100
AcDbEntity
  8
dino
 62
1
100
AcDbSpline
 70
8
 71
3
 72
8
 73
4
 74
0
 40
0
 40
0
 40
0
 40
0
 40
1
 40
1
 40
1
 40
1
 10
1339.743720
 20
525.347181
 30
0.0
 10
1320.953064
 20
533.543653
 30
0.0
 10
1299.719600
 20
534.728341
 30
0.0
 10
1280.504656
 20
541.873741
 30
0.0
  0
SPLINE
  5
3e3
100
AcDbEntity
  8
dino
 62
1
100
AcDbSpline
 70
8
 71
3
 72
8
 73
4
 74
0
 40
0
 40
0
 40
0
 40
0
 40
1
 40
1
 40
1
 40
1
 10
1280.504656
 20
541.873741
 30
0.0
 10
1269.766600
 20
545.866869
 30
0.0
 10
1259.037464
 20
550.306349
 30
0.0
 10
1249.407784
 20
556.512805
 30
0.0
  0
SPLINE
  5
3e4
100
AcDbEntity
  8
dino
 62
1
100
AcDbSpline
 70
8
 71
3
 72
8
 73
4
 74
0
 40
0
 40
0
 40
0
 40
0
 40
1
 40
1
 40
1
 40
1
 10
1249.407784
 20
556.512805
 30
0.0
 10
1242.545576
 20
560.935581
 30
0.0
 10
1235.661616
 20
565.859917
 30
0.0
 10
1230.754656
 20
572.384677
 30
0.0
  0
SPLINE
  5
3e5
100
AcDbEntity
  8
dino
 62
1
100
AcDbSpline
 70
8
 71
3
 72
8
 73
4
 74
0
 40
0
 40
0
 40
0
 40
0
 40
1
 40
1
 40
1
 40
1
 10
1230.754656
 20
572.384677
 30
0.0
 10
1223.683872
 20
581.786653
 30
0.0
 10
1223.755976
 20
591.526781
 30
0.0
 10
1216.240600
 20
604.553429
 30
0.0
  0
SPLINE
  5
3e6
100
AcDbEntity
  8
dino
 62
1
100
AcDbSpline
 70
8
 71
3
 72
8
 73
4
 74
0
 40
0
 40
0
 40
0
 40
0
 40
1
 40
1
 40
1
 40
1
 10
1216.240600
 20
604.553429
 30
0.0
 10
1214.567600
 20
607.453293
 30
0.0
 10
1213.209216
 20
610.583461
 30
0.0
 10
1211.801536
 20
613.723741
 30
0.0
  0
SPLINE
  5
3e7
100
AcDbEntity
  8
dino
 62
1
100
AcDbSpline
 70
8
 71
3
 72
8
 73
4
 74
0
 40
0
 40
0
 40
0
 40
0
 40
1
 40
1
 40
1
 40
1
 10
1211.801536
 20
613.723741
 30
0.0
 10
1212.757200
 20
616.685741
 30
0.0
 10
1213.711296
 20
619.531837
 30
0.0
 10
1214.590600
 20
621.803429
 30
0.0
  0
SPLINE
  5
3e8
100
AcDbEntity
  8
dino
 62
1
100
AcDbSpline
 70
8
 71
3
 72
8
 73
4
 74
0
 40
0
 40
0
 40
0
 40
0
 40
1
 40
1
 40
1
 40
1
 10
1214.590600
 20
621.803429
 30
0.0
 10
1215.505520
 20
624.166925
 30
0.0
 10
1216.412784
 20
625.987349
 30
0.0
 10
1216.931224
 20
626.587805
 30
0.0
  0
SPLINE
  5
3e9
100
AcDbEntity
  8
dino
 62
1
100
AcDbSpline
 70
8
 71
3
 72
8
 73
4
 74
0
 40
0
 40
0
 40
0
 40
0
 40
1
 40
1
 40
1
 40
1
 10
1216.931224
 20
626.587805
 30
0.0
 10
1223.229744
 20
633.882709
 30
0.0
 10
1229.950856
 20
641.275909
 30
0.0
 10
1237.576536
 20
646.853429
 30
0.0
  0
SPLINE
  5
3ea
100
AcDbEntity
  8
dino
 62
1
100
AcDbSpline
 70
8
 71
3
 72
8
 73
4
 74
0
 40
0
 40
0
 40
0
 40
0
 40
1
 40
1
 40
1
 40
1
 10
1237.576536
 20
646.853429
 30
0.0
 10
1244.036200
 20
651.578077
 30
0.0
 10
1250.449456
 20
653.728045
 30
0.0
 10
1257.853096
 20
657.501869
 30
0.0
  0
SPLINE
  5
3eb
100
AcDbEntity
  8
dino
 62
1
100
AcDbSpline
 70
8
 71
3
 72
8
 73
4
 74
0
 40
0
 40
0
 40
0
 40
0
 40
1
 40
1
 40
1
 40
1
 10
1257.853096
 20
657.501869
 30
0.0
 10
1257.885336
 20
657.518749
 30
0.0
 10
1257.916776
 20
657.537629
 30
0.0
 10
1257.946848
 20
657.558109
 30
0.0
  0
SPLINE
  5
3ec
100
AcDbEntity
  8
dino
 62
1
100
AcDbSpline
 70
8
 71
3
 72
8
 73
4
 74
0
 40
0
 40
0
 40
0
 40
0
 40
1
 40
1
 40
1
 40
1
 10
1257.946848
 20
657.558109
 30
0.0
 10
1259.546752
 20
658.624453
 30
0.0
 10
1262.510656
 20
660.932349
 30
0.0
 10
1265.168720
 20
663.319045
 30
0.0
  0
SPLINE
  5
3ed
100
AcDbEntity
  8
dino
 62
1
100
AcDbSpline
 70
8
 71
3
 72
8
 73
4
 74
0
 40
0
 40
0
 40
0
 40
0
 40
1
 40
1
 40
1
 40
1
 10
1265.168720
 20
663.319045
 30
0.0
 10
1266.497744
 20
664.512389
 30
0.0
 10
1267.742496
 20
665.720669
 30
0.0
 10
1268.696848
 20
666.811237
 30
0.0
  0
SPLINE
  5
3ee
100
AcDbEntity
  8
dino
 62
1
100
AcDbSpline
 70
8
 71
3
 72
8
 73
4
 74
0
 40
0
 40
0
 40
0
 40
0
 40
1
 40
1
 40
1
 40
1
 10
1268.696848
 20
666.811237
 30
0.0
 10
1269.512544
 20
667.743325
 30
0.0
 10
1270.083440
 20
668.521981
 30
0.0
 10
1270.332784
 20
669.423733
 30
0.0
  0
SPLINE
  5
3ef
100
AcDbEntity
  8
dino
 62
1
100
AcDbSpline
 70
8
 71
3
 72
8
 73
4
 74
0
 40
0
 40
0
 40
0
 40
0
 40
1
 40
1
 40
1
 40
1
 10
1270.332784
 20
669.423733
 30
0.0
 10
1274.836112
 20
675.353429
 30
0.0
 10
1275.976208
 20
681.844229
 30
0.0
 10
1276.081224
 20
685.909669
 30
0.0
  0
SPLINE
  5
3f0
100
AcDbEntity
  8
dino
 62
1
100
AcDbSpline
 70
8
 71
3
 72
8
 73
4
 74
0
 40
0
 40
0
 40
0
 40
0
 40
1
 40
1
 40
1
 40
1
 10
1276.081224
 20
685.909669
 30
0.0
 10
1276.107304
 20
686.888725
 30
0.0
 10
1274.826928
 20
687.259269
 30
0.0
 10
1274.337472
 20
686.414357
 30
0.0
  0
SPLINE
  5
3f1
100
AcDbEntity
  8
dino
 62
1
100
AcDbSpline
 70
8
 71
3
 72
8
 73
4
 74
0
 40
0
 40
0
 40
0
 40
0
 40
1
 40
1
 40
1
 40
1
 10
1274.337472
 20
686.414357
 30
0.0
 10
1271.945096
 20
682.283309
 30
0.0
 10
1270.539272
 20
678.050645
 30
0.0
 10
1264.624968
 20
673.089357
 30
0.0
  0
SPLINE
  5
3f2
100
AcDbEntity
  8
dino
 62
1
100
AcDbSpline
 70
8
 71
3
 72
8
 73
4
 74
0
 40
0
 40
0
 40
0
 40
0
 40
1
 40
1
 40
1
 40
1
 10
1264.624968
 20
673.089357
 30
0.0
 10
1261.649088
 20
672.798869
 30
0.0
 10
1258.612664
 20
670.660117
 30
0.0
 10
1255.084344
 20
668.212797
 30
0.0
  0
SPLINE
  5
3f3
100
AcDbEntity
  8
dino
 62
1
100
AcDbSpline
 70
8
 71
3
 72
8
 73
4
 74
0
 40
0
 40
0
 40
0
 40
0
 40
1
 40
1
 40
1
 40
1
 10
1255.084344
 20
668.212797
 30
0.0
 10
1251.473336
 20
665.708093
 30
0.0
 10
1247.390520
 20
662.871885
 30
0.0
 10
1242.821848
 20
661.126861
 30
0.0
  0
SPLINE
  5
3f4
100
AcDbEntity
  8
dino
 62
1
100
AcDbSpline
 70
8
 71
3
 72
8
 73
4
 74
0
 40
0
 40
0
 40
0
 40
0
 40
1
 40
1
 40
1
 40
1
 10
1242.821848
 20
661.126861
 30
0.0
 10
1242.989304
 20
661.431805
 30
0.0
 10
1243.095656
 20
661.716093
 30
0.0
 10
1243.260912
 20
661.897173
 30
0.0
  0
SPLINE
  5
3f5
100
AcDbEntity
  8
dino
 62
1
100
AcDbSpline
 70
8
 71
3
 72
8
 73
4
 74
0
 40
0
 40
0
 40
0
 40
0
 40
1
 40
1
 40
1
 40
1
 10
1243.260912
 20
661.897173
 30
0.0
 10
1248.812128
 20
667.791821
 30
0.0
 10
1255.381624
 20
673.441165
 30
0.0
 10
1258.184344
 20
681.647173
 30
0.0
  0
SPLINE
  5
3f6
100
AcDbEntity
  8
dino
 62
1
100
AcDbSpline
 70
8
 71
3
 72
8
 73
4
 74
0
 40
0
 40
0
 40
0
 40
0
 40
1
 40
1
 40
1
 40
1
 10
1258.184344
 20
681.647173
 30
0.0
 10
1258.192344
 20
681.662613
 30
0.0
 10
1258.194344
 20
681.675493
 30
0.0
 10
1258.201544
 20
681.690933
 30
0.0
  0
SPLINE
  5
3f7
100
AcDbEntity
  8
dino
 62
1
100
AcDbSpline
 70
8
 71
3
 72
8
 73
4
 74
0
 40
0
 40
0
 40
0
 40
0
 40
1
 40
1
 40
1
 40
1
 10
1258.201544
 20
681.690933
 30
0.0
 10
1260.023536
 20
685.603877
 30
0.0
 10
1260.990696
 20
688.154045
 30
0.0
 10
1261.104664
 20
693.919053
 30
0.0
  0
SPLINE
  5
3f8
100
AcDbEntity
  8
dino
 62
1
100
AcDbSpline
 70
8
 71
3
 72
8
 73
4
 74
0
 40
0
 40
0
 40
0
 40
0
 40
1
 40
1
 40
1
 40
1
 10
1261.104664
 20
693.919053
 30
0.0
 10
1261.122664
 20
694.909813
 30
0.0
 10
1259.815360
 20
695.259517
 30
0.0
 10
1259.346856
 20
694.389365
 30
0.0
  0
SPLINE
  5
3f9
100
AcDbEntity
  8
dino
 62
1
100
AcDbSpline
 70
8
 71
3
 72
8
 73
4
 74
0
 40
0
 40
0
 40
0
 40
0
 40
1
 40
1
 40
1
 40
1
 10
1259.346856
 20
694.389365
 30
0.0
 10
1258.083736
 20
692.035989
 30
0.0
 10
1257.617688
 20
690.707285
 30
0.0
 10
1256.987480
 20
689.451869
 30
0.0
  0
SPLINE
  5
3fa
100
AcDbEntity
  8
dino
 62
1
100
AcDbSpline
 70
8
 71
3
 72
8
 73
4
 74
0
 40
0
 40
0
 40
0
 40
0
 40
1
 40
1
 40
1
 40
1
 10
1256.987480
 20
689.451869
 30
0.0
 10
1256.369240
 20
688.220309
 30
0.0
 10
1255.539880
 20
686.947813
 30
0.0
 10
1253.537480
 20
684.608117
 30
0.0
  0
SPLINE
  5
3fb
100
AcDbEntity
  8
dino
 62
1
100
AcDbSpline
 70
8
 71
3
 72
8
 73
4
 74
0
 40
0
 40
0
 40
0
 40
0
 40
1
 40
1
 40
1
 40
1
 10
1253.537480
 20
684.608117
 30
0.0
 10
1253.465240
 20
684.565397
 30
0.0
 10
1253.341864
 20
684.549317
 30
0.0
 10
1253.270288
 20
684.503429
 30
0.0
  0
SPLINE
  5
3fc
100
AcDbEntity
  8
dino
 62
1
100
AcDbSpline
 70
8
 71
3
 72
8
 73
4
 74
0
 40
0
 40
0
 40
0
 40
0
 40
1
 40
1
 40
1
 40
1
 10
1253.270288
 20
684.503429
 30
0.0
 10
1253.050296
 20
684.362485
 30
0.0
 10
1252.825992
 20
684.190381
 30
0.0
 10
1252.576544
 20
683.981557
 30
0.0
  0
SPLINE
  5
3fd
100
AcDbEntity
  8
dino
 62
1
100
AcDbSpline
 70
8
 71
3
 72
8
 73
4
 74
0
 40
0
 40
0
 40
0
 40
0
 40
1
 40
1
 40
1
 40
1
 10
1252.576544
 20
683.981557
 30
0.0
 10
1252.077664
 20
683.563917
 30
0.0
 10
1251.480944
 20
683.002357
 30
0.0
 10
1250.795296
 20
682.326869
 30
0.0
  0
SPLINE
  5
3fe
100
AcDbEntity
  8
dino
 62
1
100
AcDbSpline
 70
8
 71
3
 72
8
 73
4
 74
0
 40
0
 40
0
 40
0
 40
0
 40
1
 40
1
 40
1
 40
1
 10
1250.795296
 20
682.326869
 30
0.0
 10
1249.423992
 20
680.975885
 30
0.0
 10
1247.708480
 20
679.175525
 30
0.0
 10
1245.896856
 20
677.295613
 30
0.0
  0
SPLINE
  5
3ff
100
AcDbEntity
  8
dino
 62
1
100
AcDbSpline
 70
8
 71
3
 72
8
 73
4
 74
0
 40
0
 40
0
 40
0
 40
0
 40
1
 40
1
 40
1
 40
1
 10
1245.896856
 20
677.295613
 30
0.0
 10
1242.578912
 20
673.852605
 30
0.0
 10
1239.015544
 20
670.340909
 30
0.0
 10
1236.865608
 20
668.789365
 30
0.0
  0
SPLINE
  5
400
100
AcDbEntity
  8
dino
 62
1
100
AcDbSpline
 70
8
 71
3
 72
8
 73
4
 74
0
 40
0
 40
0
 40
0
 40
0
 40
1
 40
1
 40
1
 40
1
 10
1236.865608
 20
668.789365
 30
0.0
 10
1236.904008
 20
669.027629
 30
0.0
 10
1236.880408
 20
669.103661
 30
0.0
 10
1236.987480
 20
669.445613
 30
0.0
  0
SPLINE
  5
401
100
AcDbEntity
  8
dino
 62
1
100
AcDbSpline
 70
8
 71
3
 72
8
 73
4
 74
0
 40
0
 40
0
 40
0
 40
0
 40
1
 40
1
 40
1
 40
1
 10
1236.987480
 20
669.445613
 30
0.0
 10
1237.436464
 20
670.879733
 30
0.0
 10
1238.435064
 20
673.014461
 30
0.0
 10
1239.543728
 20
675.197181
 30
0.0
  0
SPLINE
  5
402
100
AcDbEntity
  8
dino
 62
1
100
AcDbSpline
 70
8
 71
3
 72
8
 73
4
 74
0
 40
0
 40
0
 40
0
 40
0
 40
1
 40
1
 40
1
 40
1
 10
1239.543728
 20
675.197181
 30
0.0
 10
1240.652392
 20
677.379877
 30
0.0
 10
1241.870384
 20
679.627045
 30
0.0
 10
1242.784352
 20
681.414365
 30
0.0
  0
SPLINE
  5
403
100
AcDbEntity
  8
dino
 62
1
100
AcDbSpline
 70
8
 71
3
 72
8
 73
4
 74
0
 40
0
 40
0
 40
0
 40
0
 40
1
 40
1
 40
1
 40
1
 10
1242.784352
 20
681.414365
 30
0.0
 10
1243.241344
 20
682.308021
 30
0.0
 10
1243.621792
 20
683.085613
 30
0.0
 10
1243.882792
 20
683.708117
 30
0.0
  0
SPLINE
  5
404
100
AcDbEntity
  8
dino
 62
1
100
AcDbSpline
 70
8
 71
3
 72
8
 73
4
 74
0
 40
0
 40
0
 40
0
 40
0
 40
1
 40
1
 40
1
 40
1
 10
1243.882792
 20
683.708117
 30
0.0
 10
1244.013288
 20
684.019349
 30
0.0
 10
1244.115576
 20
684.287821
 30
0.0
 10
1244.184352
 20
684.551869
 30
0.0
  0
SPLINE
  5
405
100
AcDbEntity
  8
dino
 62
1
100
AcDbSpline
 70
8
 71
3
 72
8
 73
4
 74
0
 40
0
 40
0
 40
0
 40
0
 40
1
 40
1
 40
1
 40
1
 10
1244.184352
 20
684.551869
 30
0.0
 10
1244.221952
 20
684.696213
 30
0.0
 10
1244.274344
 20
684.847621
 30
0.0
 10
1244.279664
 20
685.037805
 30
0.0
  0
SPLINE
  5
406
100
AcDbEntity
  8
dino
 62
1
100
AcDbSpline
 70
8
 71
3
 72
8
 73
4
 74
0
 40
0
 40
0
 40
0
 40
0
 40
1
 40
1
 40
1
 40
1
 10
1244.279664
 20
685.037805
 30
0.0
 10
1245.718248
 20
687.358453
 30
0.0
 10
1246.680016
 20
689.706389
 30
0.0
 10
1248.096856
 20
694.119053
 30
0.0
  0
SPLINE
  5
407
100
AcDbEntity
  8
dino
 62
1
100
AcDbSpline
 70
8
 71
3
 72
8
 73
4
 74
0
 40
0
 40
0
 40
0
 40
0
 40
1
 40
1
 40
1
 40
1
 10
1248.096856
 20
694.119053
 30
0.0
 10
1248.394496
 20
695.044917
 30
0.0
 10
1247.284432
 20
695.768877
 30
0.0
 10
1246.574976
 20
695.111245
 30
0.0
  0
SPLINE
  5
408
100
AcDbEntity
  8
dino
 62
1
100
AcDbSpline
 70
8
 71
3
 72
8
 73
4
 74
0
 40
0
 40
0
 40
0
 40
0
 40
1
 40
1
 40
1
 40
1
 10
1246.574976
 20
695.111245
 30
0.0
 10
1244.632384
 20
693.313461
 30
0.0
 10
1243.779368
 20
692.332357
 30
0.0
 10
1242.982792
 20
691.394053
 30
0.0
  0
SPLINE
  5
409
100
AcDbEntity
  8
dino
 62
1
100
AcDbSpline
 70
8
 71
3
 72
8
 73
4
 74
0
 40
0
 40
0
 40
0
 40
0
 40
1
 40
1
 40
1
 40
1
 10
1242.982792
 20
691.394053
 30
0.0
 10
1242.236760
 20
690.515293
 30
0.0
 10
1241.417344
 20
689.580469
 30
0.0
 10
1239.804664
 20
688.012805
 30
0.0
  0
SPLINE
  5
40a
100
AcDbEntity
  8
dino
 62
1
100
AcDbSpline
 70
8
 71
3
 72
8
 73
4
 74
0
 40
0
 40
0
 40
0
 40
0
 40
1
 40
1
 40
1
 40
1
 10
1239.804664
 20
688.012805
 30
0.0
 10
1239.624392
 20
687.956405
 30
0.0
 10
1239.464632
 20
687.870573
 30
0.0
 10
1239.343728
 20
687.792493
 30
0.0
  0
SPLINE
  5
40b
100
AcDbEntity
  8
dino
 62
1
100
AcDbSpline
 70
8
 71
3
 72
8
 73
4
 74
0
 40
0
 40
0
 40
0
 40
0
 40
1
 40
1
 40
1
 40
1
 10
1239.343728
 20
687.792493
 30
0.0
 10
1239.072192
 20
687.617125
 30
0.0
 10
1238.841744
 20
687.401629
 30
0.0
 10
1238.587480
 20
687.136245
 30
0.0
  0
SPLINE
  5
40c
100
AcDbEntity
  8
dino
 62
1
100
AcDbSpline
 70
8
 71
3
 72
8
 73
4
 74
0
 40
0
 40
0
 40
0
 40
0
 40
1
 40
1
 40
1
 40
1
 10
1238.587480
 20
687.136245
 30
0.0
 10
1238.078920
 20
686.605485
 30
0.0
 10
1237.497336
 20
685.869589
 30
0.0
 10
1236.834352
 20
684.959677
 30
0.0
  0
SPLINE
  5
40d
100
AcDbEntity
  8
dino
 62
1
100
AcDbSpline
 70
8
 71
3
 72
8
 73
4
 74
0
 40
0
 40
0
 40
0
 40
0
 40
1
 40
1
 40
1
 40
1
 10
1236.834352
 20
684.959677
 30
0.0
 10
1235.508344
 20
683.139853
 30
0.0
 10
1233.876040
 20
680.638237
 30
0.0
 10
1232.187480
 20
677.965933
 30
0.0
  0
SPLINE
  5
40e
100
AcDbEntity
  8
dino
 62
1
100
AcDbSpline
 70
8
 71
3
 72
8
 73
4
 74
0
 40
0
 40
0
 40
0
 40
0
 40
1
 40
1
 40
1
 40
1
 10
1232.187480
 20
677.965933
 30
0.0
 10
1228.828896
 20
672.650621
 30
0.0
 10
1225.260896
 20
666.675277
 30
0.0
 10
1223.664040
 20
664.283117
 30
0.0
  0
SPLINE
  5
40f
100
AcDbEntity
  8
dino
 62
1
100
AcDbSpline
 70
8
 71
3
 72
8
 73
4
 74
0
 40
0
 40
0
 40
0
 40
0
 40
1
 40
1
 40
1
 40
1
 10
1223.664040
 20
664.283117
 30
0.0
 10
1213.461072
 20
654.940565
 30
0.0
 10
1203.961248
 20
645.078333
 30
0.0
 10
1193.704664
 20
635.919053
 30
0.0
  0
SPLINE
  5
410
100
AcDbEntity
  8
dino
 62
1
100
AcDbSpline
 70
8
 71
3
 72
8
 73
4
 74
0
 40
0
 40
0
 40
0
 40
0
 40
1
 40
1
 40
1
 40
1
 10
1193.704664
 20
635.919053
 30
0.0
 10
1192.199656
 20
635.214853
 30
0.0
 10
1189.596712
 20
633.489685
 30
0.0
 10
1187.003104
 20
631.425301
 30
0.0
  0
SPLINE
  5
411
100
AcDbEntity
  8
dino
 62
1
100
AcDbSpline
 70
8
 71
3
 72
8
 73
4
 74
0
 40
0
 40
0
 40
0
 40
0
 40
1
 40
1
 40
1
 40
1
 10
1187.003104
 20
631.425301
 30
0.0
 10
1185.661440
 20
630.357389
 30
0.0
 10
1184.360000
 20
629.220485
 30
0.0
 10
1183.301544
 20
628.120621
 30
0.0
  0
SPLINE
  5
412
100
AcDbEntity
  8
dino
 62
1
100
AcDbSpline
 70
8
 71
3
 72
8
 73
4
 74
0
 40
0
 40
0
 40
0
 40
0
 40
1
 40
1
 40
1
 40
1
 10
1183.301544
 20
628.120621
 30
0.0
 10
1182.243088
 20
627.020749
 30
0.0
 10
1181.413336
 20
625.998501
 30
0.0
 10
1181.040608
 20
624.917493
 30
0.0
  0
LWPOLYLINE
  5
413
100
AcDbEntity
  8
dino
 62
1
100
AcDbPolyline
 90
2
 70
1
 10
1678.228096
 20
606.703973
 30
0.0
 10
1678.220256
 20
606.695973
 30
0.0
  0
SPLINE
  5
414
100
AcDbEntity
  8
dino
 62
1
100
AcDbSpline
 70
8
 71
3
 72
8
 73
4
 74
0
 40
0
 40
0
 40
0
 40
0
 40
1
 40
1
 40
1
 40
1
 10
1178.651544
 20
617.983117
 30
0.0
 10
1176.672208
 20
618.410341
 30
0.0
 10
1174.728976
 20
618.834533
 30
0.0
 10
1173.384352
 20
619.261245
 30
0.0
  0
SPLINE
  5
415
100
AcDbEntity
  8
dino
 62
1
100
AcDbSpline
 70
8
 71
3
 72
8
 73
4
 74
0
 40
0
 40
0
 40
0
 40
0
 40
1
 40
1
 40
1
 40
1
 10
1173.384352
 20
619.261245
 30
0.0
 10
1172.610136
 20
619.506949
 30
0.0
 10
1171.994192
 20
619.762589
 30
0.0
 10
1171.653104
 20
619.967493
 30
0.0
  0
SPLINE
  5
416
100
AcDbEntity
  8
dino
 62
1
100
AcDbSpline
 70
8
 71
3
 72
8
 73
4
 74
0
 40
0
 40
0
 40
0
 40
0
 40
1
 40
1
 40
1
 40
1
 10
1171.653104
 20
619.967493
 30
0.0
 10
1171.570888
 20
620.016933
 30
0.0
 10
1171.564152
 20
620.031733
 30
0.0
 10
1171.517168
 20
620.069053
 30
0.0
  0
SPLINE
  5
417
100
AcDbEntity
  8
dino
 62
1
100
AcDbSpline
 70
8
 71
3
 72
8
 73
4
 74
0
 40
0
 40
0
 40
0
 40
0
 40
1
 40
1
 40
1
 40
1
 10
1171.517168
 20
620.069053
 30
0.0
 10
1176.280384
 20
632.838965
 30
0.0
 10
1182.690640
 20
644.205253
 30
0.0
 10
1187.649976
 20
657.103429
 30
0.0
  0
SPLINE
  5
418
100
AcDbEntity
  8
dino
 62
1
100
AcDbSpline
 70
8
 71
3
 72
8
 73
4
 74
0
 40
0
 40
0
 40
0
 40
0
 40
1
 40
1
 40
1
 40
1
 10
1187.649976
 20
657.103429
 30
0.0
 10
1189.239080
 20
659.390821
 30
0.0
 10
1193.561040
 20
664.346525
 30
0.0
 10
1197.332792
 20
668.833117
 30
0.0
  0
SPLINE
  5
419
100
AcDbEntity
  8
dino
 62
1
100
AcDbSpline
 70
8
 71
3
 72
8
 73
4
 74
0
 40
0
 40
0
 40
0
 40
0
 40
1
 40
1
 40
1
 40
1
 10
1197.332792
 20
668.833117
 30
0.0
 10
1199.227616
 20
671.087069
 30
0.0
 10
1200.986000
 20
673.228269
 30
0.0
 10
1202.220288
 20
674.911245
 30
0.0
  0
SPLINE
  5
41a
100
AcDbEntity
  8
dino
 62
1
100
AcDbSpline
 70
8
 71
3
 72
8
 73
4
 74
0
 40
0
 40
0
 40
0
 40
0
 40
1
 40
1
 40
1
 40
1
 10
1202.220288
 20
674.911245
 30
0.0
 10
1202.837440
 20
675.752749
 30
0.0
 10
1203.321880
 20
676.471613
 30
0.0
 10
1203.645296
 20
677.083117
 30
0.0
  0
SPLINE
  5
41b
100
AcDbEntity
  8
dino
 62
1
100
AcDbSpline
 70
8
 71
3
 72
8
 73
4
 74
0
 40
0
 40
0
 40
0
 40
0
 40
1
 40
1
 40
1
 40
1
 10
1203.645296
 20
677.083117
 30
0.0
 10
1203.806992
 20
677.388853
 30
0.0
 10
1203.932472
 20
677.661597
 30
0.0
 10
1204.006232
 20
677.976869
 30
0.0
  0
SPLINE
  5
41c
100
AcDbEntity
  8
dino
 62
1
100
AcDbSpline
 70
8
 71
3
 72
8
 73
4
 74
0
 40
0
 40
0
 40
0
 40
0
 40
1
 40
1
 40
1
 40
1
 10
1204.006232
 20
677.976869
 30
0.0
 10
1204.033592
 20
678.093893
 30
0.0
 10
1204.036712
 20
678.255277
 30
0.0
 10
1204.035912
 20
678.412805
 30
0.0
  0
SPLINE
  5
41d
100
AcDbEntity
  8
dino
 62
1
100
AcDbSpline
 70
8
 71
3
 72
8
 73
4
 74
0
 40
0
 40
0
 40
0
 40
0
 40
1
 40
1
 40
1
 40
1
 10
1204.035912
 20
678.412805
 30
0.0
 10
1204.948224
 20
680.520981
 30
0.0
 10
1206.056632
 20
681.715125
 30
0.0
 10
1207.495288
 20
682.834677
 30
0.0
  0
SPLINE
  5
41e
100
AcDbEntity
  8
dino
 62
1
100
AcDbSpline
 70
8
 71
3
 72
8
 73
4
 74
0
 40
0
 40
0
 40
0
 40
0
 40
1
 40
1
 40
1
 40
1
 10
1207.495288
 20
682.834677
 30
0.0
 10
1208.989952
 20
683.997797
 30
0.0
 10
1210.851000
 20
685.090117
 30
0.0
 10
1212.918720
 20
686.958117
 30
0.0
  0
SPLINE
  5
41f
100
AcDbEntity
  8
dino
 62
1
100
AcDbSpline
 70
8
 71
3
 72
8
 73
4
 74
0
 40
0
 40
0
 40
0
 40
0
 40
1
 40
1
 40
1
 40
1
 10
1212.918720
 20
686.958117
 30
0.0
 10
1213.656376
 20
687.628693
 30
0.0
 10
1212.991600
 20
688.846997
 30
0.0
 10
1212.037472
 20
688.573741
 30
0.0
  0
SPLINE
  5
420
100
AcDbEntity
  8
dino
 62
1
100
AcDbSpline
 70
8
 71
3
 72
8
 73
4
 74
0
 40
0
 40
0
 40
0
 40
0
 40
1
 40
1
 40
1
 40
1
 10
1212.037472
 20
688.573741
 30
0.0
 10
1209.983520
 20
687.978701
 30
0.0
 10
1207.237112
 20
687.222365
 30
0.0
 10
1204.768720
 20
686.315933
 30
0.0
  0
SPLINE
  5
421
100
AcDbEntity
  8
dino
 62
1
100
AcDbSpline
 70
8
 71
3
 72
8
 73
4
 74
0
 40
0
 40
0
 40
0
 40
0
 40
1
 40
1
 40
1
 40
1
 10
1204.768720
 20
686.315933
 30
0.0
 10
1202.515824
 20
685.488645
 30
0.0
 10
1200.590160
 20
684.589157
 30
0.0
 10
1199.410912
 20
683.275301
 30
0.0
  0
SPLINE
  5
422
100
AcDbEntity
  8
dino
 62
1
100
AcDbSpline
 70
8
 71
3
 72
8
 73
4
 74
0
 40
0
 40
0
 40
0
 40
0
 40
1
 40
1
 40
1
 40
1
 10
1199.410912
 20
683.275301
 30
0.0
 10
1199.181480
 20
683.214181
 30
0.0
 10
1199.017648
 20
683.111637
 30
0.0
 10
1198.878096
 20
683.014365
 30
0.0
  0
SPLINE
  5
423
100
AcDbEntity
  8
dino
 62
1
100
AcDbSpline
 70
8
 71
3
 72
8
 73
4
 74
0
 40
0
 40
0
 40
0
 40
0
 40
1
 40
1
 40
1
 40
1
 10
1198.878096
 20
683.014365
 30
0.0
 10
1198.659304
 20
682.861829
 30
0.0
 10
1198.446552
 20
682.677517
 30
0.0
 10
1198.207784
 20
682.453429
 30
0.0
  0
SPLINE
  5
424
100
AcDbEntity
  8
dino
 62
1
100
AcDbSpline
 70
8
 71
3
 72
8
 73
4
 74
0
 40
0
 40
0
 40
0
 40
0
 40
1
 40
1
 40
1
 40
1
 10
1198.207784
 20
682.453429
 30
0.0
 10
1197.730240
 20
682.005269
 30
0.0
 10
1197.158128
 20
681.400485
 30
0.0
 10
1196.504656
 20
680.684677
 30
0.0
  0
SPLINE
  5
425
100
AcDbEntity
  8
dino
 62
1
100
AcDbSpline
 70
8
 71
3
 72
8
 73
4
 74
0
 40
0
 40
0
 40
0
 40
0
 40
1
 40
1
 40
1
 40
1
 10
1196.504656
 20
680.684677
 30
0.0
 10
1195.197736
 20
679.253117
 30
0.0
 10
1193.581320
 20
677.391005
 30
0.0
 10
1191.985912
 20
675.658117
 30
0.0
  0
SPLINE
  5
426
100
AcDbEntity
  8
dino
 62
1
100
AcDbSpline
 70
8
 71
3
 72
8
 73
4
 74
0
 40
0
 40
0
 40
0
 40
0
 40
1
 40
1
 40
1
 40
1
 10
1191.985912
 20
675.658117
 30
0.0
 10
1190.390512
 20
673.925229
 30
0.0
 10
1188.798592
 20
672.313749
 30
0.0
 10
1187.659344
 20
671.448741
 30
0.0
  0
SPLINE
  5
427
100
AcDbEntity
  8
dino
 62
1
100
AcDbSpline
 70
8
 71
3
 72
8
 73
4
 74
0
 40
0
 40
0
 40
0
 40
0
 40
1
 40
1
 40
1
 40
1
 10
1187.659344
 20
671.448741
 30
0.0
 10
1187.365400
 20
671.225573
 30
0.0
 10
1187.279064
 20
671.219525
 30
0.0
 10
1187.073408
 20
671.111245
 30
0.0
  0
SPLINE
  5
428
100
AcDbEntity
  8
dino
 62
1
100
AcDbSpline
 70
8
 71
3
 72
8
 73
4
 74
0
 40
0
 40
0
 40
0
 40
0
 40
1
 40
1
 40
1
 40
1
 10
1187.073408
 20
671.111245
 30
0.0
 10
1187.716768
 20
673.677789
 30
0.0
 10
1189.723736
 20
678.363949
 30
0.0
 10
1191.737472
 20
682.767493
 30
0.0
  0
SPLINE
  5
429
100
AcDbEntity
  8
dino
 62
1
100
AcDbSpline
 70
8
 71
3
 72
8
 73
4
 74
0
 40
0
 40
0
 40
0
 40
0
 40
1
 40
1
 40
1
 40
1
 10
1191.737472
 20
682.767493
 30
0.0
 10
1192.826880
 20
685.149749
 30
0.0
 10
1193.874608
 20
687.414925
 30
0.0
 10
1194.632784
 20
689.192493
 30
0.0
  0
SPLINE
  5
42a
100
AcDbEntity
  8
dino
 62
1
100
AcDbSpline
 70
8
 71
3
 72
8
 73
4
 74
0
 40
0
 40
0
 40
0
 40
0
 40
1
 40
1
 40
1
 40
1
 10
1194.632784
 20
689.192493
 30
0.0
 10
1195.011872
 20
690.081277
 30
0.0
 10
1195.318888
 20
690.845501
 30
0.0
 10
1195.526536
 20
691.465933
 30
0.0
  0
SPLINE
  5
42b
100
AcDbEntity
  8
dino
 62
1
100
AcDbSpline
 70
8
 71
3
 72
8
 73
4
 74
0
 40
0
 40
0
 40
0
 40
0
 40
1
 40
1
 40
1
 40
1
 10
1195.526536
 20
691.465933
 30
0.0
 10
1195.630344
 20
691.776149
 30
0.0
 10
1195.709280
 20
692.048285
 30
0.0
 10
1195.760912
 20
692.306557
 30
0.0
  0
SPLINE
  5
42c
100
AcDbEntity
  8
dino
 62
1
100
AcDbSpline
 70
8
 71
3
 72
8
 73
4
 74
0
 40
0
 40
0
 40
0
 40
0
 40
1
 40
1
 40
1
 40
1
 10
1195.760912
 20
692.306557
 30
0.0
 10
1195.778912
 20
692.396501
 30
0.0
 10
1195.745712
 20
692.527317
 30
0.0
 10
1195.759312
 20
692.617493
 30
0.0
  0
SPLINE
  5
42d
100
AcDbEntity
  8
dino
 62
1
100
AcDbSpline
 70
8
 71
3
 72
8
 73
4
 74
0
 40
0
 40
0
 40
0
 40
0
 40
1
 40
1
 40
1
 40
1
 10
1195.759312
 20
692.617493
 30
0.0
 10
1197.211456
 20
695.390245
 30
0.0
 10
1197.926728
 20
697.027445
 30
0.0
 10
1198.603064
 20
698.312805
 30
0.0
  0
SPLINE
  5
42e
100
AcDbEntity
  8
dino
 62
1
100
AcDbSpline
 70
8
 71
3
 72
8
 73
4
 74
0
 40
0
 40
0
 40
0
 40
0
 40
1
 40
1
 40
1
 40
1
 10
1198.603064
 20
698.312805
 30
0.0
 10
1199.296224
 20
699.630149
 30
0.0
 10
1199.994808
 20
700.686661
 30
0.0
 10
1201.657752
 20
702.651869
 30
0.0
  0
SPLINE
  5
42f
100
AcDbEntity
  8
dino
 62
1
100
AcDbSpline
 70
8
 71
3
 72
8
 73
4
 74
0
 40
0
 40
0
 40
0
 40
0
 40
1
 40
1
 40
1
 40
1
 10
1201.657752
 20
702.651869
 30
0.0
 10
1202.292224
 20
703.405277
 30
0.0
 10
1201.502744
 20
704.515013
 30
0.0
 10
1200.595256
 20
704.145613
 30
0.0
  0
SPLINE
  5
430
100
AcDbEntity
  8
dino
 62
1
100
AcDbSpline
 70
8
 71
3
 72
8
 73
4
 74
0
 40
0
 40
0
 40
0
 40
0
 40
1
 40
1
 40
1
 40
1
 10
1200.595256
 20
704.145613
 30
0.0
 10
1197.874456
 20
703.029701
 30
0.0
 10
1196.230624
 20
701.700285
 30
0.0
 10
1194.956192
 20
700.287805
 30
0.0
  0
SPLINE
  5
431
100
AcDbEntity
  8
dino
 62
1
100
AcDbSpline
 70
8
 71
3
 72
8
 73
4
 74
0
 40
0
 40
0
 40
0
 40
0
 40
1
 40
1
 40
1
 40
1
 10
1194.956192
 20
700.287805
 30
0.0
 10
1193.681760
 20
698.875309
 30
0.0
 10
1192.771808
 20
697.436253
 30
0.0
 10
1191.356192
 20
695.944053
 30
0.0
  0
SPLINE
  5
432
100
AcDbEntity
  8
dino
 62
1
100
AcDbSpline
 70
8
 71
3
 72
8
 73
4
 74
0
 40
0
 40
0
 40
0
 40
0
 40
1
 40
1
 40
1
 40
1
 10
1191.356192
 20
695.944053
 30
0.0
 10
1184.781672
 20
690.364501
 30
0.0
 10
1181.924264
 20
682.126245
 30
0.0
 10
1178.465568
 20
674.775301
 30
0.0
  0
SPLINE
  5
433
100
AcDbEntity
  8
dino
 62
1
100
AcDbSpline
 70
8
 71
3
 72
8
 73
4
 74
0
 40
0
 40
0
 40
0
 40
0
 40
1
 40
1
 40
1
 40
1
 10
1178.465568
 20
674.775301
 30
0.0
 10
1178.465056
 20
674.774549
 30
0.0
 10
1178.463168
 20
674.772901
 30
0.0
 10
1178.462368
 20
674.772101
 30
0.0
  0
SPLINE
  5
434
100
AcDbEntity
  8
dino
 62
1
100
AcDbSpline
 70
8
 71
3
 72
8
 73
4
 74
0
 40
0
 40
0
 40
0
 40
0
 40
1
 40
1
 40
1
 40
1
 10
1178.462368
 20
674.772101
 30
0.0
 10
1178.354008
 20
674.552181
 30
0.0
 10
1178.133376
 20
674.356365
 30
0.0
 10
1177.913928
 20
674.092413
 30
0.0
  0
SPLINE
  5
435
100
AcDbEntity
  8
dino
 62
1
100
AcDbSpline
 70
8
 71
3
 72
8
 73
4
 74
0
 40
0
 40
0
 40
0
 40
0
 40
1
 40
1
 40
1
 40
1
 10
1177.913928
 20
674.092413
 30
0.0
 10
1177.892408
 20
679.036621
 30
0.0
 10
1179.048176
 20
683.908645
 30
0.0
 10
1180.067056
 20
688.217413
 30
0.0
  0
SPLINE
  5
436
100
AcDbEntity
  8
dino
 62
1
100
AcDbSpline
 70
8
 71
3
 72
8
 73
4
 74
0
 40
0
 40
0
 40
0
 40
0
 40
1
 40
1
 40
1
 40
1
 10
1180.067056
 20
688.217413
 30
0.0
 10
1181.064624
 20
692.436053
 30
0.0
 10
1181.953000
 20
696.079317
 30
0.0
 10
1181.148304
 20
698.998661
 30
0.0
  0
SPLINE
  5
437
100
AcDbEntity
  8
dino
 62
1
100
AcDbSpline
 70
8
 71
3
 72
8
 73
4
 74
0
 40
0
 40
0
 40
0
 40
0
 40
1
 40
1
 40
1
 40
1
 10
1181.148304
 20
698.998661
 30
0.0
 10
1183.617912
 20
706.501725
 30
0.0
 10
1184.573968
 20
709.391957
 30
0.0
 10
1187.356120
 20
712.904909
 30
0.0
  0
SPLINE
  5
438
100
AcDbEntity
  8
dino
 62
1
100
AcDbSpline
 70
8
 71
3
 72
8
 73
4
 74
0
 40
0
 40
0
 40
0
 40
0
 40
1
 40
1
 40
1
 40
1
 10
1187.356120
 20
712.904909
 30
0.0
 10
1187.960096
 20
713.668493
 30
0.0
 10
1187.164128
 20
714.745453
 30
0.0
 10
1186.270176
 20
714.373661
 30
0.0
  0
SPLINE
  5
439
100
AcDbEntity
  8
dino
 62
1
100
AcDbSpline
 70
8
 71
3
 72
8
 73
4
 74
0
 40
0
 40
0
 40
0
 40
0
 40
1
 40
1
 40
1
 40
1
 10
1186.270176
 20
714.373661
 30
0.0
 10
1182.404584
 20
712.760197
 30
0.0
 10
1179.489776
 20
709.256957
 30
0.0
 10
1175.732680
 20
703.048661
 30
0.0
  0
SPLINE
  5
43a
100
AcDbEntity
  8
dino
 62
1
100
AcDbSpline
 70
8
 71
3
 72
8
 73
4
 74
0
 40
0
 40
0
 40
0
 40
0
 40
1
 40
1
 40
1
 40
1
 10
1175.732680
 20
703.048661
 30
0.0
 10
1174.992200
 20
702.490749
 30
0.0
 10
1174.479624
 20
701.673429
 30
0.0
 10
1173.912368
 20
700.572101
 30
0.0
  0
SPLINE
  5
43b
100
AcDbEntity
  8
dino
 62
1
100
AcDbSpline
 70
8
 71
3
 72
8
 73
4
 74
0
 40
0
 40
0
 40
0
 40
0
 40
1
 40
1
 40
1
 40
1
 10
1173.912368
 20
700.572101
 30
0.0
 10
1173.247248
 20
699.280733
 30
0.0
 10
1172.578976
 20
697.674509
 30
0.0
 10
1171.952992
 20
695.992413
 30
0.0
  0
SPLINE
  5
43c
100
AcDbEntity
  8
dino
 62
1
100
AcDbSpline
 70
8
 71
3
 72
8
 73
4
 74
0
 40
0
 40
0
 40
0
 40
0
 40
1
 40
1
 40
1
 40
1
 10
1171.952992
 20
695.992413
 30
0.0
 10
1170.701072
 20
692.628197
 30
0.0
 10
1169.630040
 20
689.002013
 30
0.0
 10
1169.217056
 20
687.109597
 30
0.0
  0
SPLINE
  5
43d
100
AcDbEntity
  8
dino
 62
1
100
AcDbSpline
 70
8
 71
3
 72
8
 73
4
 74
0
 40
0
 40
0
 40
0
 40
0
 40
1
 40
1
 40
1
 40
1
 10
1169.217056
 20
687.109597
 30
0.0
 10
1169.209056
 20
687.073997
 30
0.0
 10
1169.202096
 20
687.038157
 30
0.0
 10
1169.198336
 20
687.001789
 30
0.0
  0
SPLINE
  5
43e
100
AcDbEntity
  8
dino
 62
1
100
AcDbSpline
 70
8
 71
3
 72
8
 73
4
 74
0
 40
0
 40
0
 40
0
 40
0
 40
1
 40
1
 40
1
 40
1
 10
1169.198336
 20
687.001789
 30
0.0
 10
1168.358040
 20
678.656157
 30
0.0
 10
1168.661240
 20
671.832661
 30
0.0
 10
1166.606152
 20
664.039285
 30
0.0
  0
SPLINE
  5
43f
100
AcDbEntity
  8
dino
 62
1
100
AcDbSpline
 70
8
 71
3
 72
8
 73
4
 74
0
 40
0
 40
0
 40
0
 40
0
 40
1
 40
1
 40
1
 40
1
 10
1166.606152
 20
664.039285
 30
0.0
 10
1164.210080
 20
654.952693
 30
0.0
 10
1157.560104
 20
642.924309
 30
0.0
 10
1153.057712
 20
634.336165
 30
0.0
  0
SPLINE
  5
440
100
AcDbEntity
  8
dino
 62
1
100
AcDbSpline
 70
8
 71
3
 72
8
 73
4
 74
0
 40
0
 40
0
 40
0
 40
0
 40
1
 40
1
 40
1
 40
1
 10
1153.057712
 20
634.336165
 30
0.0
 10
1149.426016
 20
630.206381
 30
0.0
 10
1147.638616
 20
626.952325
 30
0.0
 10
1146.831152
 20
622.597101
 30
0.0
  0
SPLINE
  5
441
100
AcDbEntity
  8
dino
 62
1
100
AcDbSpline
 70
8
 71
3
 72
8
 73
4
 74
0
 40
0
 40
0
 40
0
 40
0
 40
1
 40
1
 40
1
 40
1
 10
1146.831152
 20
622.597101
 30
0.0
 10
1146.238136
 20
619.398525
 30
0.0
 10
1150.304000
 20
615.215413
 30
0.0
 10
1148.009272
 20
612.909597
 30
0.0
  0
SPLINE
  5
442
100
AcDbEntity
  8
dino
 62
1
100
AcDbSpline
 70
8
 71
3
 72
8
 73
4
 74
0
 40
0
 40
0
 40
0
 40
0
 40
1
 40
1
 40
1
 40
1
 10
1148.009272
 20
612.909597
 30
0.0
 10
1145.981224
 20
610.871757
 30
0.0
 10
1142.270656
 20
613.386341
 30
0.0
 10
1139.443648
 20
613.909597
 30
0.0
  0
SPLINE
  5
443
100
AcDbEntity
  8
dino
 62
1
100
AcDbSpline
 70
8
 71
3
 72
8
 73
4
 74
0
 40
0
 40
0
 40
0
 40
0
 40
1
 40
1
 40
1
 40
1
 10
1139.443648
 20
613.909597
 30
0.0
 10
1133.586080
 20
614.993781
 30
0.0
 10
1128.005432
 20
617.365413
 30
0.0
 10
1122.126464
 20
618.326789
 30
0.0
  0
SPLINE
  5
444
100
AcDbEntity
  8
dino
 62
1
100
AcDbSpline
 70
8
 71
3
 72
8
 73
4
 74
0
 40
0
 40
0
 40
0
 40
0
 40
1
 40
1
 40
1
 40
1
 10
1122.126464
 20
618.326789
 30
0.0
 10
1118.445624
 20
618.928709
 30
0.0
 10
1114.067320
 20
617.083757
 30
0.0
 10
1110.968648
 20
619.159597
 30
0.0
  0
SPLINE
  5
445
100
AcDbEntity
  8
dino
 62
1
100
AcDbSpline
 70
8
 71
3
 72
8
 73
4
 74
0
 40
0
 40
0
 40
0
 40
0
 40
1
 40
1
 40
1
 40
1
 10
1110.968648
 20
619.159597
 30
0.0
 10
1108.272568
 20
620.965733
 30
0.0
 10
1106.783296
 20
624.622501
 30
0.0
 10
1106.604584
 20
627.862725
 30
0.0
  0
SPLINE
  5
446
100
AcDbEntity
  8
dino
 62
1
100
AcDbSpline
 70
8
 71
3
 72
8
 73
4
 74
0
 40
0
 40
0
 40
0
 40
0
 40
1
 40
1
 40
1
 40
1
 10
1106.604584
 20
627.862725
 30
0.0
 10
1106.389904
 20
631.755125
 30
0.0
 10
1110.116168
 20
634.970501
 30
0.0
 10
1110.665528
 20
638.829909
 30
0.0
  0
SPLINE
  5
447
100
AcDbEntity
  8
dino
 62
1
100
AcDbSpline
 70
8
 71
3
 72
8
 73
4
 74
0
 40
0
 40
0
 40
0
 40
0
 40
1
 40
1
 40
1
 40
1
 10
1110.665528
 20
638.829909
 30
0.0
 10
1111.650800
 20
645.751725
 30
0.0
 10
1109.655424
 20
652.776037
 30
0.0
 10
1109.162400
 20
659.750221
 30
0.0
  0
SPLINE
  5
448
100
AcDbEntity
  8
dino
 62
1
100
AcDbSpline
 70
8
 71
3
 72
8
 73
4
 74
0
 40
0
 40
0
 40
0
 40
0
 40
1
 40
1
 40
1
 40
1
 10
1109.162400
 20
659.750221
 30
0.0
 10
1108.498000
 20
669.148581
 30
0.0
 10
1106.538248
 20
678.550221
 30
0.0
 10
1107.201464
 20
687.948661
 30
0.0
  0
SPLINE
  5
449
100
AcDbEntity
  8
dino
 62
1
100
AcDbSpline
 70
8
 71
3
 72
8
 73
4
 74
0
 40
0
 40
0
 40
0
 40
0
 40
1
 40
1
 40
1
 40
1
 10
1107.201464
 20
687.948661
 30
0.0
 10
1107.720400
 20
695.302437
 30
0.0
 10
1111.336568
 20
702.220509
 30
0.0
 10
1111.818648
 20
709.576789
 30
0.0
  0
SPLINE
  5
44a
100
AcDbEntity
  8
dino
 62
1
100
AcDbSpline
 70
8
 71
3
 72
8
 73
4
 74
0
 40
0
 40
0
 40
0
 40
0
 40
1
 40
1
 40
1
 40
1
 10
1111.818648
 20
709.576789
 30
0.0
 10
1112.288136
 20
716.740885
 30
0.0
 10
1109.636896
 20
723.883197
 30
0.0
 10
1110.109272
 20
731.047101
 30
0.0
  0
SPLINE
  5
44b
100
AcDbEntity
  8
dino
 62
1
100
AcDbSpline
 70
8
 71
3
 72
8
 73
4
 74
0
 40
0
 40
0
 40
0
 40
0
 40
1
 40
1
 40
1
 40
1
 10
1110.109272
 20
731.047101
 30
0.0
 10
1110.453280
 20
736.264213
 30
0.0
 10
1112.346800
 20
741.262669
 30
0.0
 10
1113.396776
 20
746.384597
 30
0.0
  0
SPLINE
  5
44c
100
AcDbEntity
  8
dino
 62
1
100
AcDbSpline
 70
8
 71
3
 72
8
 73
4
 74
0
 40
0
 40
0
 40
0
 40
0
 40
1
 40
1
 40
1
 40
1
 10
1113.396776
 20
746.384597
 30
0.0
 10
1113.878384
 20
748.733965
 30
0.0
 10
1112.969200
 20
751.870853
 30
0.0
 10
1114.778024
 20
753.445533
 30
0.0
  0
SPLINE
  5
44d
100
AcDbEntity
  8
dino
 62
1
100
AcDbSpline
 70
8
 71
3
 72
8
 73
4
 74
0
 40
0
 40
0
 40
0
 40
0
 40
1
 40
1
 40
1
 40
1
 10
1114.778024
 20
753.445533
 30
0.0
 10
1120.999192
 20
758.861429
 30
0.0
 10
1130.409928
 20
757.293717
 30
0.0
 10
1139.485840
 20
754.806477
 30
0.0
  0
SPLINE
  5
44e
100
AcDbEntity
  8
dino
 62
1
100
AcDbSpline
 70
8
 71
3
 72
8
 73
4
 74
0
 40
0
 40
0
 40
0
 40
0
 40
1
 40
1
 40
1
 40
1
 10
1139.485840
 20
754.806477
 30
0.0
 10
1146.664168
 20
752.839269
 30
0.0
 10
1158.358392
 20
751.280141
 30
0.0
 10
1161.779584
 20
753.553349
 30
0.0
  0
SPLINE
  5
44f
100
AcDbEntity
  8
dino
 62
1
100
AcDbSpline
 70
8
 71
3
 72
8
 73
4
 74
0
 40
0
 40
0
 40
0
 40
0
 40
1
 40
1
 40
1
 40
1
 10
1161.779584
 20
753.553349
 30
0.0
 10
1175.102200
 20
762.405549
 30
0.0
 10
1175.721136
 20
780.981645
 30
0.0
 10
1165.835840
 20
780.197101
 30
0.0
  0
SPLINE
  5
450
100
AcDbEntity
  8
dino
 62
1
100
AcDbSpline
 70
8
 71
3
 72
8
 73
4
 74
0
 40
0
 40
0
 40
0
 40
0
 40
1
 40
1
 40
1
 40
1
 10
1165.835840
 20
780.197101
 30
0.0
 10
1138.546360
 20
780.302125
 30
0.0
 10
1113.640904
 20
779.928157
 30
0.0
 10
1093.045216
 20
779.858037
 30
0.0
  0
LWPOLYLINE
  5
451
100
AcDbEntity
  8
dino
 62
1
100
AcDbPolyline
 90
2
 70
1
 10
1181.040608
 20
624.917493
 30
0.0
 10
1178.651544
 20
617.983117
 30
0.0
  0
SPLINE
  5
452
100
AcDbEntity
  8
dino
 62
1
100
AcDbSpline
 70
8
 71
3
 72
8
 73
4
 74
0
 40
0
 40
0
 40
0
 40
0
 40
1
 40
1
 40
1
 40
1
 10
1084.542088
 20
779.822101
 30
0.0
 10
1068.770744
 20
779.916589
 30
0.0
 10
1064.287720
 20
781.108925
 30
0.0
 10
1060.745216
 20
778.918973
 30
0.0
  0
SPLINE
  5
453
100
AcDbEntity
  8
dino
 62
1
100
AcDbSpline
 70
8
 71
3
 72
8
 73
4
 74
0
 40
0
 40
0
 40
0
 40
0
 40
1
 40
1
 40
1
 40
1
 10
1060.745216
 20
778.918973
 30
0.0
 10
1058.526624
 20
777.547469
 30
0.0
 10
1059.789016
 20
772.349157
 30
0.0
 10
1060.509272
 20
769.184597
 30
0.0
  0
SPLINE
  5
454
100
AcDbEntity
  8
dino
 62
1
100
AcDbSpline
 70
8
 71
3
 72
8
 73
4
 74
0
 40
0
 40
0
 40
0
 40
0
 40
1
 40
1
 40
1
 40
1
 10
1060.509272
 20
769.184597
 30
0.0
 10
1061.556848
 20
764.581877
 30
0.0
 10
1066.539248
 20
759.417621
 30
0.0
 10
1066.946776
 20
756.572101
 30
0.0
  0
SPLINE
  5
455
100
AcDbEntity
  8
dino
 62
1
100
AcDbSpline
 70
8
 71
3
 72
8
 73
4
 74
0
 40
0
 40
0
 40
0
 40
0
 40
1
 40
1
 40
1
 40
1
 10
1066.946776
 20
756.572101
 30
0.0
 10
1067.304208
 20
752.472093
 30
0.0
 10
1071.526480
 20
744.995557
 30
0.0
 10
1064.685840
 20
743.792413
 30
0.0
  0
SPLINE
  5
456
100
AcDbEntity
  8
dino
 62
1
100
AcDbSpline
 70
8
 71
3
 72
8
 73
4
 74
0
 40
0
 40
0
 40
0
 40
0
 40
1
 40
1
 40
1
 40
1
 10
1064.685840
 20
743.792413
 30
0.0
 10
1061.807528
 20
744.976269
 30
0.0
 10
1057.699728
 20
758.316285
 30
0.0
 10
1055.298336
 20
758.670541
 30
0.0
  0
SPLINE
  5
457
100
AcDbEntity
  8
dino
 62
1
100
AcDbSpline
 70
8
 71
3
 72
8
 73
4
 74
0
 40
0
 40
0
 40
0
 40
0
 40
1
 40
1
 40
1
 40
1
 10
1055.298336
 20
758.670541
 30
0.0
 10
1052.526832
 20
759.620565
 30
0.0
 10
1050.576568
 20
758.958869
 30
0.0
 10
1050.485840
 20
757.729909
 30
0.0
  0
SPLINE
  5
458
100
AcDbEntity
  8
dino
 62
1
100
AcDbSpline
 70
8
 71
3
 72
8
 73
4
 74
0
 40
0
 40
0
 40
0
 40
0
 40
1
 40
1
 40
1
 40
1
 10
1050.485840
 20
757.729909
 30
0.0
 10
1050.246576
 20
754.489013
 30
0.0
 10
1051.275928
 20
751.452509
 30
0.0
 10
1052.092088
 20
748.406477
 30
0.0
  0
SPLINE
  5
459
100
AcDbEntity
  8
dino
 62
1
100
AcDbSpline
 70
8
 71
3
 72
8
 73
4
 74
0
 40
0
 40
0
 40
0
 40
0
 40
1
 40
1
 40
1
 40
1
 10
1052.092088
 20
748.406477
 30
0.0
 10
1052.843344
 20
745.602677
 30
0.0
 10
1054.515440
 20
743.078773
 30
0.0
 10
1055.103024
 20
740.236165
 30
0.0
  0
SPLINE
  5
45a
100
AcDbEntity
  8
dino
 62
1
100
AcDbSpline
 70
8
 71
3
 72
8
 73
4
 74
0
 40
0
 40
0
 40
0
 40
0
 40
1
 40
1
 40
1
 40
1
 10
1055.103024
 20
740.236165
 30
0.0
 10
1056.325640
 20
734.321453
 30
0.0
 10
1056.660192
 20
728.156949
 30
0.0
 10
1056.092088
 20
722.143973
 30
0.0
  0
SPLINE
  5
45b
100
AcDbEntity
  8
dino
 62
1
100
AcDbSpline
 70
8
 71
3
 72
8
 73
4
 74
0
 40
0
 40
0
 40
0
 40
0
 40
1
 40
1
 40
1
 40
1
 10
1056.092088
 20
722.143973
 30
0.0
 10
1055.476520
 20
715.628653
 30
0.0
 10
1051.828304
 20
709.615789
 30
0.0
 10
1051.367088
 20
703.087725
 30
0.0
  0
SPLINE
  5
45c
100
AcDbEntity
  8
dino
 62
1
100
AcDbSpline
 70
8
 71
3
 72
8
 73
4
 74
0
 40
0
 40
0
 40
0
 40
0
 40
1
 40
1
 40
1
 40
1
 10
1051.367088
 20
703.087725
 30
0.0
 10
1051.107944
 20
699.419797
 30
0.0
 10
1052.196536
 20
695.778021
 30
0.0
 10
1052.490528
 20
692.112725
 30
0.0
  0
SPLINE
  5
45d
100
AcDbEntity
  8
dino
 62
1
100
AcDbSpline
 70
8
 71
3
 72
8
 73
4
 74
0
 40
0
 40
0
 40
0
 40
0
 40
1
 40
1
 40
1
 40
1
 10
1052.490528
 20
692.112725
 30
0.0
 10
1052.599512
 20
690.753957
 30
0.0
 10
1052.691440
 20
689.393053
 30
0.0
 10
1052.790528
 20
688.033037
 30
0.0
  0
LWPOLYLINE
  5
45e
100
AcDbEntity
  8
dino
 62
1
100
AcDbPolyline
 90
4
 70
1
 10
1093.045216
 20
779.858037
 30
0.0
 10
1093.045216
 20
761.484597
 30
0.0
 10
1084.542088
 20
761.484597
 30
0.0
 10
1084.542088
 20
779.822101
 30
0.0
  0
SPLINE
  5
45f
100
AcDbEntity
  8
dino
 62
1
100
AcDbSpline
 70
8
 71
3
 72
8
 73
4
 74
0
 40
0
 40
0
 40
0
 40
0
 40
1
 40
1
 40
1
 40
1
 10
1053.245216
 20
679.528349
 30
0.0
 10
1053.252416
 20
679.237605
 30
0.0
 10
1053.268096
 20
678.947277
 30
0.0
 10
1053.273376
 20
678.656477
 30
0.0
  0
SPLINE
  5
460
100
AcDbEntity
  8
dino
 62
1
100
AcDbSpline
 70
8
 71
3
 72
8
 73
4
 74
0
 40
0
 40
0
 40
0
 40
0
 40
1
 40
1
 40
1
 40
1
 10
1053.273376
 20
678.656477
 30
0.0
 10
1053.374384
 20
673.055549
 30
0.0
 10
1053.738200
 20
667.395717
 30
0.0
 10
1052.903064
 20
661.856477
 30
0.0
  0
SPLINE
  5
461
100
AcDbEntity
  8
dino
 62
1
100
AcDbSpline
 70
8
 71
3
 72
8
 73
4
 74
0
 40
0
 40
0
 40
0
 40
0
 40
1
 40
1
 40
1
 40
1
 10
1052.903064
 20
661.856477
 30
0.0
 10
1051.930264
 20
655.404189
 30
0.0
 10
1048.691568
 20
649.452077
 30
0.0
 10
1047.545256
 20
643.028349
 30
0.0
  0
SPLINE
  5
462
100
AcDbEntity
  8
dino
 62
1
100
AcDbSpline
 70
8
 71
3
 72
8
 73
4
 74
0
 40
0
 40
0
 40
0
 40
0
 40
1
 40
1
 40
1
 40
1
 10
1047.545256
 20
643.028349
 30
0.0
 10
1046.981880
 20
639.871293
 30
0.0
 10
1047.449248
 20
636.578293
 30
0.0
 10
1046.815568
 20
633.434597
 30
0.0
  0
SPLINE
  5
463
100
AcDbEntity
  8
dino
 62
1
100
AcDbSpline
 70
8
 71
3
 72
8
 73
4
 74
0
 40
0
 40
0
 40
0
 40
0
 40
1
 40
1
 40
1
 40
1
 10
1046.815568
 20
633.434597
 30
0.0
 10
1046.345456
 20
631.102373
 30
0.0
 10
1045.908528
 20
628.621693
 30
0.0
 10
1044.556192
 20
626.664285
 30
0.0
  0
SPLINE
  5
464
100
AcDbEntity
  8
dino
 62
1
100
AcDbSpline
 70
8
 71
3
 72
8
 73
4
 74
0
 40
0
 40
0
 40
0
 40
0
 40
1
 40
1
 40
1
 40
1
 10
1044.556192
 20
626.664285
 30
0.0
 10
1043.364000
 20
624.938685
 30
0.0
 10
1041.735072
 20
623.100405
 30
0.0
 10
1039.678064
 20
622.690853
 30
0.0
  0
SPLINE
  5
465
100
AcDbEntity
  8
dino
 62
1
100
AcDbSpline
 70
8
 71
3
 72
8
 73
4
 74
0
 40
0
 40
0
 40
0
 40
0
 40
1
 40
1
 40
1
 40
1
 10
1039.678064
 20
622.690853
 30
0.0
 10
1037.715024
 20
622.300005
 30
0.0
 10
1035.617712
 20
623.341509
 30
0.0
 10
1033.924936
 20
624.409597
 30
0.0
  0
SPLINE
  5
466
100
AcDbEntity
  8
dino
 62
1
100
AcDbSpline
 70
8
 71
3
 72
8
 73
4
 74
0
 40
0
 40
0
 40
0
 40
0
 40
1
 40
1
 40
1
 40
1
 10
1033.924936
 20
624.409597
 30
0.0
 10
1031.955624
 20
625.652165
 30
0.0
 10
1030.648576
 20
627.737029
 30
0.0
 10
1029.237440
 20
629.589285
 30
0.0
  0
SPLINE
  5
467
100
AcDbEntity
  8
dino
 62
1
100
AcDbSpline
 70
8
 71
3
 72
8
 73
4
 74
0
 40
0
 40
0
 40
0
 40
0
 40
1
 40
1
 40
1
 40
1
 10
1029.237440
 20
629.589285
 30
0.0
 10
1023.357760
 20
637.306933
 30
0.0
 10
1020.231408
 20
647.051941
 30
0.0
 10
1013.615568
 20
654.148661
 30
0.0
  0
SPLINE
  5
468
100
AcDbEntity
  8
dino
 62
1
100
AcDbSpline
 70
8
 71
3
 72
8
 73
4
 74
0
 40
0
 40
0
 40
0
 40
0
 40
1
 40
1
 40
1
 40
1
 10
1013.615568
 20
654.148661
 30
0.0
 10
1006.088752
 20
662.222573
 30
0.0
 10
994.733352
 20
665.970661
 30
0.0
 10
986.989000
 20
673.836165
 30
0.0
  0
SPLINE
  5
469
100
AcDbEntity
  8
dino
 62
1
100
AcDbSpline
 70
8
 71
3
 72
8
 73
4
 74
0
 40
0
 40
0
 40
0
 40
0
 40
1
 40
1
 40
1
 40
1
 10
986.989000
 20
673.836165
 30
0.0
 10
982.041264
 20
678.861309
 30
0.0
 10
977.290128
 20
684.490957
 30
0.0
 10
974.676504
 20
691.040853
 30
0.0
  0
SPLINE
  5
46a
100
AcDbEntity
  8
dino
 62
1
100
AcDbSpline
 70
8
 71
3
 72
8
 73
4
 74
0
 40
0
 40
0
 40
0
 40
0
 40
1
 40
1
 40
1
 40
1
 10
974.676504
 20
691.040853
 30
0.0
 10
972.714112
 20
695.958717
 30
0.0
 10
973.967616
 20
701.689821
 30
0.0
 10
972.487440
 20
706.773661
 30
0.0
  0
SPLINE
  5
46b
100
AcDbEntity
  8
dino
 62
1
100
AcDbSpline
 70
8
 71
3
 72
8
 73
4
 74
0
 40
0
 40
0
 40
0
 40
0
 40
1
 40
1
 40
1
 40
1
 10
972.487440
 20
706.773661
 30
0.0
 10
971.017784
 20
711.821349
 30
0.0
 10
966.898472
 20
715.952133
 30
0.0
 10
965.935880
 20
721.120541
 30
0.0
  0
SPLINE
  5
46c
100
AcDbEntity
  8
dino
 62
1
100
AcDbSpline
 70
8
 71
3
 72
8
 73
4
 74
0
 40
0
 40
0
 40
0
 40
0
 40
1
 40
1
 40
1
 40
1
 10
965.935880
 20
721.120541
 30
0.0
 10
964.899560
 20
726.684797
 30
0.0
 10
966.778408
 20
732.411829
 30
0.0
 10
966.956192
 20
738.068973
 30
0.0
  0
SPLINE
  5
46d
100
AcDbEntity
  8
dino
 62
1
100
AcDbSpline
 70
8
 71
3
 72
8
 73
4
 74
0
 40
0
 40
0
 40
0
 40
0
 40
1
 40
1
 40
1
 40
1
 10
966.956192
 20
738.068973
 30
0.0
 10
967.083104
 20
742.107245
 30
0.0
 10
964.597080
 20
746.933133
 30
0.0
 10
966.988992
 20
750.189285
 30
0.0
  0
SPLINE
  5
46e
100
AcDbEntity
  8
dino
 62
1
100
AcDbSpline
 70
8
 71
3
 72
8
 73
4
 74
0
 40
0
 40
0
 40
0
 40
0
 40
1
 40
1
 40
1
 40
1
 10
966.988992
 20
750.189285
 30
0.0
 10
970.303328
 20
754.701165
 30
0.0
 10
976.657016
 20
755.958357
 30
0.0
 10
983.001496
 20
755.254909
 30
0.0
  0
SPLINE
  5
46f
100
AcDbEntity
  8
dino
 62
1
100
AcDbSpline
 70
8
 71
3
 72
8
 73
4
 74
0
 40
0
 40
0
 40
0
 40
0
 40
1
 40
1
 40
1
 40
1
 10
983.001496
 20
755.254909
 30
0.0
 10
990.105088
 20
754.467293
 30
0.0
 10
1001.173640
 20
751.074749
 30
0.0
 10
1009.395248
 20
755.184589
 30
0.0
  0
SPLINE
  5
470
100
AcDbEntity
  8
dino
 62
1
100
AcDbSpline
 70
8
 71
3
 72
8
 73
4
 74
0
 40
0
 40
0
 40
0
 40
0
 40
1
 40
1
 40
1
 40
1
 10
1009.395248
 20
755.184589
 30
0.0
 10
1016.214216
 20
758.593277
 30
0.0
 10
1018.311624
 20
762.947101
 30
0.0
 10
1018.049928
 20
768.798653
 30
0.0
  0
SPLINE
  5
471
100
AcDbEntity
  8
dino
 62
1
100
AcDbSpline
 70
8
 71
3
 72
8
 73
4
 74
0
 40
0
 40
0
 40
0
 40
0
 40
1
 40
1
 40
1
 40
1
 10
1018.049928
 20
768.798653
 30
0.0
 10
1017.716832
 20
776.246885
 30
0.0
 10
1016.280752
 20
780.377157
 30
0.0
 10
1010.118680
 20
780.233029
 30
0.0
  0
SPLINE
  5
472
100
AcDbEntity
  8
dino
 62
1
100
AcDbSpline
 70
8
 71
3
 72
8
 73
4
 74
0
 40
0
 40
0
 40
0
 40
0
 40
1
 40
1
 40
1
 40
1
 10
1010.118680
 20
780.233029
 30
0.0
 10
998.348056
 20
780.163909
 30
0.0
 10
971.057456
 20
779.966021
 30
0.0
 10
946.162432
 20
779.925213
 30
0.0
  0
LWPOLYLINE
  5
473
100
AcDbEntity
  8
dino
 62
1
100
AcDbPolyline
 90
4
 70
1
 10
1052.790528
 20
688.033037
 30
0.0
 10
1072.176464
 20
688.033037
 30
0.0
 10
1072.176464
 20
679.528349
 30
0.0
 10
1053.245216
 20
679.528349
 30
0.0
  0
SPLINE
  5
474
100
AcDbEntity
  8
dino
 62
1
100
AcDbSpline
 70
8
 71
3
 72
8
 73
4
 74
0
 40
0
 40
0
 40
0
 40
0
 40
1
 40
1
 40
1
 40
1
 10
937.657744
 20
779.926781
 30
0.0
 10
934.036400
 20
779.927109
 30
0.0
 10
930.175216
 20
779.916381
 30
0.0
 10
926.829616
 20
779.926781
 30
0.0
  0
SPLINE
  5
475
100
AcDbEntity
  8
dino
 62
1
100
AcDbSpline
 70
8
 71
3
 72
8
 73
4
 74
0
 40
0
 40
0
 40
0
 40
0
 40
1
 40
1
 40
1
 40
1
 10
926.829616
 20
779.926781
 30
0.0
 10
919.074224
 20
779.423133
 30
0.0
 10
916.436728
 20
781.290029
 30
0.0
 10
913.782744
 20
777.770533
 30
0.0
  0
SPLINE
  5
476
100
AcDbEntity
  8
dino
 62
1
100
AcDbSpline
 70
8
 71
3
 72
8
 73
4
 74
0
 40
0
 40
0
 40
0
 40
0
 40
1
 40
1
 40
1
 40
1
 10
913.782744
 20
777.770533
 30
0.0
 10
910.598952
 20
773.548413
 30
0.0
 10
914.985128
 20
767.263269
 30
0.0
 10
915.599928
 20
762.011157
 30
0.0
  0
SPLINE
  5
477
100
AcDbEntity
  8
dino
 62
1
100
AcDbSpline
 70
8
 71
3
 72
8
 73
4
 74
0
 40
0
 40
0
 40
0
 40
0
 40
1
 40
1
 40
1
 40
1
 10
915.599928
 20
762.011157
 30
0.0
 10
915.906728
 20
759.390221
 30
0.0
 10
917.065648
 20
756.734997
 30
0.0
 10
916.534304
 20
754.150213
 30
0.0
  0
SPLINE
  5
478
100
AcDbEntity
  8
dino
 62
1
100
AcDbSpline
 70
8
 71
3
 72
8
 73
4
 74
0
 40
0
 40
0
 40
0
 40
0
 40
1
 40
1
 40
1
 40
1
 10
916.534304
 20
754.150213
 30
0.0
 10
916.032328
 20
751.708325
 30
0.0
 10
915.004176
 20
748.826253
 30
0.0
 10
912.793680
 20
747.673653
 30
0.0
  0
SPLINE
  5
479
100
AcDbEntity
  8
dino
 62
1
100
AcDbSpline
 70
8
 71
3
 72
8
 73
4
 74
0
 40
0
 40
0
 40
0
 40
0
 40
1
 40
1
 40
1
 40
1
 10
912.793680
 20
747.673653
 30
0.0
 10
912.217128
 20
747.373021
 30
0.0
 10
911.485456
 20
747.696293
 30
0.0
 10
910.851496
 20
747.840845
 30
0.0
  0
SPLINE
  5
47a
100
AcDbEntity
  8
dino
 62
1
100
AcDbSpline
 70
8
 71
3
 72
8
 73
4
 74
0
 40
0
 40
0
 40
0
 40
0
 40
1
 40
1
 40
1
 40
1
 10
910.851496
 20
747.840845
 30
0.0
 10
906.528696
 20
754.041237
 30
0.0
 10
900.484760
 20
759.345685
 30
0.0
 10
899.395248
 20
757.506469
 30
0.0
  0
SPLINE
  5
47b
100
AcDbEntity
  8
dino
 62
1
100
AcDbSpline
 70
8
 71
3
 72
8
 73
4
 74
0
 40
0
 40
0
 40
0
 40
0
 40
1
 40
1
 40
1
 40
1
 10
899.395248
 20
757.506469
 30
0.0
 10
894.126864
 20
756.352917
 30
0.0
 10
895.360112
 20
754.193013
 30
0.0
 10
897.368680
 20
749.797093
 30
0.0
  0
SPLINE
  5
47c
100
AcDbEntity
  8
dino
 62
1
100
AcDbSpline
 70
8
 71
3
 72
8
 73
4
 74
0
 40
0
 40
0
 40
0
 40
0
 40
1
 40
1
 40
1
 40
1
 10
897.368680
 20
749.797093
 30
0.0
 10
898.619952
 20
747.058581
 30
0.0
 10
901.136440
 20
744.365701
 30
0.0
 10
901.884304
 20
743.808029
 30
0.0
  0
SPLINE
  5
47d
100
AcDbEntity
  8
dino
 62
1
100
AcDbSpline
 70
8
 71
3
 72
8
 73
4
 74
0
 40
0
 40
0
 40
0
 40
0
 40
1
 40
1
 40
1
 40
1
 10
901.884304
 20
743.808029
 30
0.0
 10
904.158024
 20
742.112557
 30
0.0
 10
905.716336
 20
740.097101
 30
0.0
 10
907.031184
 20
737.959589
 30
0.0
  0
SPLINE
  5
47e
100
AcDbEntity
  8
dino
 62
1
100
AcDbSpline
 70
8
 71
3
 72
8
 73
4
 74
0
 40
0
 40
0
 40
0
 40
0
 40
1
 40
1
 40
1
 40
1
 10
907.031184
 20
737.959589
 30
0.0
 10
908.346032
 20
735.822069
 30
0.0
 10
909.416192
 20
733.561973
 30
0.0
 10
910.710872
 20
731.375213
 30
0.0
  0
SPLINE
  5
47f
100
AcDbEntity
  8
dino
 62
1
100
AcDbSpline
 70
8
 71
3
 72
8
 73
4
 74
0
 40
0
 40
0
 40
0
 40
0
 40
1
 40
1
 40
1
 40
1
 10
910.710872
 20
731.375213
 30
0.0
 10
912.133536
 20
728.972277
 30
0.0
 10
913.334552
 20
726.432309
 30
0.0
 10
914.367120
 20
723.837717
 30
0.0
  0
SPLINE
  5
480
100
AcDbEntity
  8
dino
 62
1
100
AcDbSpline
 70
8
 71
3
 72
8
 73
4
 74
0
 40
0
 40
0
 40
0
 40
0
 40
1
 40
1
 40
1
 40
1
 10
914.367120
 20
723.837717
 30
0.0
 10
917.423144
 20
716.158661
 30
0.0
 10
920.098904
 20
708.274869
 30
0.0
 10
921.832744
 20
700.193965
 30
0.0
  0
SPLINE
  5
481
100
AcDbEntity
  8
dino
 62
1
100
AcDbSpline
 70
8
 71
3
 72
8
 73
4
 74
0
 40
0
 40
0
 40
0
 40
0
 40
1
 40
1
 40
1
 40
1
 10
921.832744
 20
700.193965
 30
0.0
 10
922.480048
 20
697.177085
 30
0.0
 10
922.414792
 20
694.045357
 30
0.0
 10
922.912432
 20
691.000213
 30
0.0
  0
SPLINE
  5
482
100
AcDbEntity
  8
dino
 62
1
100
AcDbSpline
 70
8
 71
3
 72
8
 73
4
 74
0
 40
0
 40
0
 40
0
 40
0
 40
1
 40
1
 40
1
 40
1
 10
922.912432
 20
691.000213
 30
0.0
 10
923.438120
 20
687.783421
 30
0.0
 10
923.364344
 20
684.293901
 30
0.0
 10
924.923368
 20
681.431469
 30
0.0
  0
SPLINE
  5
483
100
AcDbEntity
  8
dino
 62
1
100
AcDbSpline
 70
8
 71
3
 72
8
 73
4
 74
0
 40
0
 40
0
 40
0
 40
0
 40
1
 40
1
 40
1
 40
1
 10
924.923368
 20
681.431469
 30
0.0
 10
928.135056
 20
675.534669
 30
0.0
 10
935.692440
 20
672.960685
 30
0.0
 10
939.237432
 20
667.258029
 30
0.0
  0
SPLINE
  5
484
100
AcDbEntity
  8
dino
 62
1
100
AcDbSpline
 70
8
 71
3
 72
8
 73
4
 74
0
 40
0
 40
0
 40
0
 40
0
 40
1
 40
1
 40
1
 40
1
 10
939.237432
 20
667.258029
 30
0.0
 10
942.662544
 20
661.748221
 30
0.0
 10
944.792840
 20
655.254989
 30
0.0
 10
945.396808
 20
648.795525
 30
0.0
  0
SPLINE
  5
485
100
AcDbEntity
  8
dino
 62
1
100
AcDbSpline
 70
8
 71
3
 72
8
 73
4
 74
0
 40
0
 40
0
 40
0
 40
0
 40
1
 40
1
 40
1
 40
1
 10
945.396808
 20
648.795525
 30
0.0
 10
945.455368
 20
648.169229
 30
0.0
 10
945.511048
 20
647.529685
 30
0.0
 10
945.560872
 20
646.884589
 30
0.0
  0
LWPOLYLINE
  5
486
100
AcDbEntity
  8
dino
 62
1
100
AcDbPolyline
 90
4
 70
1
 10
946.162432
 20
779.925213
 30
0.0
 10
946.162432
 20
761.484589
 30
0.0
 10
937.657744
 20
761.484589
 30
0.0
 10
937.657744
 20
779.926781
 30
0.0
  0
SPLINE
  5
487
100
AcDbEntity
  8
dino
 62
1
100
AcDbSpline
 70
8
 71
3
 72
8
 73
4
 74
0
 40
0
 40
0
 40
0
 40
0
 40
1
 40
1
 40
1
 40
1
 10
945.392120
 20
638.379901
 30
0.0
 10
945.036728
 20
636.300421
 30
0.0
 10
944.366000
 20
634.333245
 30
0.0
 10
943.192120
 20
632.626781
 30
0.0
  0
SPLINE
  5
488
100
AcDbEntity
  8
dino
 62
1
100
AcDbSpline
 70
8
 71
3
 72
8
 73
4
 74
0
 40
0
 40
0
 40
0
 40
0
 40
1
 40
1
 40
1
 40
1
 10
943.192120
 20
632.626781
 30
0.0
 10
939.159936
 20
626.765205
 30
0.0
 10
931.088232
 20
624.989701
 30
0.0
 10
924.473368
 20
622.370533
 30
0.0
  0
SPLINE
  5
489
100
AcDbEntity
  8
dino
 62
1
100
AcDbSpline
 70
8
 71
3
 72
8
 73
4
 74
0
 40
0
 40
0
 40
0
 40
0
 40
1
 40
1
 40
1
 40
1
 10
924.473368
 20
622.370533
 30
0.0
 10
913.478592
 20
618.017109
 30
0.0
 10
901.835176
 20
615.143989
 30
0.0
 10
890.124904
 20
613.498653
 30
0.0
  0
SPLINE
  5
48a
100
AcDbEntity
  8
dino
 62
1
100
AcDbSpline
 70
8
 71
3
 72
8
 73
4
 74
0
 40
0
 40
0
 40
0
 40
0
 40
1
 40
1
 40
1
 40
1
 10
890.124904
 20
613.498653
 30
0.0
 10
873.374184
 20
611.145117
 30
0.0
 10
856.305064
 20
611.672901
 30
0.0
 10
839.396744
 20
612.159589
 30
0.0
  0
SPLINE
  5
48b
100
AcDbEntity
  8
dino
 62
1
100
AcDbSpline
 70
8
 71
3
 72
8
 73
4
 74
0
 40
0
 40
0
 40
0
 40
0
 40
1
 40
1
 40
1
 40
1
 10
839.396744
 20
612.159589
 30
0.0
 10
821.352184
 20
612.678989
 30
0.0
 10
803.150424
 20
613.242357
 30
0.0
 10
785.432744
 20
616.700213
 30
0.0
  0
SPLINE
  5
48c
100
AcDbEntity
  8
dino
 62
1
100
AcDbSpline
 70
8
 71
3
 72
8
 73
4
 74
0
 40
0
 40
0
 40
0
 40
0
 40
1
 40
1
 40
1
 40
1
 10
785.432744
 20
616.700213
 30
0.0
 10
761.058824
 20
621.457093
 30
0.0
 10
736.786824
 20
632.079101
 30
0.0
 10
714.292104
 20
638.825213
 30
0.0
  0
SPLINE
  5
48d
100
AcDbEntity
  8
dino
 62
1
100
AcDbSpline
 70
8
 71
3
 72
8
 73
4
 74
0
 40
0
 40
0
 40
0
 40
0
 40
1
 40
1
 40
1
 40
1
 10
714.292104
 20
638.825213
 30
0.0
 10
690.151944
 20
646.064789
 30
0.0
 10
660.806904
 20
668.042205
 30
0.0
 10
631.395224
 20
674.111157
 30
0.0
  0
SPLINE
  5
48e
100
AcDbEntity
  8
dino
 62
1
100
AcDbSpline
 70
8
 71
3
 72
8
 73
4
 74
0
 40
0
 40
0
 40
0
 40
0
 40
1
 40
1
 40
1
 40
1
 10
631.395224
 20
674.111157
 30
0.0
 10
587.583544
 20
683.151461
 30
0.0
 10
540.892664
 20
684.292021
 30
0.0
 10
497.193624
 20
674.722093
 30
0.0
  0
SPLINE
  5
48f
100
AcDbEntity
  8
dino
 62
1
100
AcDbSpline
 70
8
 71
3
 72
8
 73
4
 74
0
 40
0
 40
0
 40
0
 40
0
 40
1
 40
1
 40
1
 40
1
 10
497.193624
 20
674.722093
 30
0.0
 10
481.042344
 20
671.185029
 30
0.0
 10
463.938184
 20
665.457069
 30
0.0
 10
452.226424
 20
653.786157
 30
0.0
  0
SPLINE
  5
490
100
AcDbEntity
  8
dino
 62
1
100
AcDbSpline
 70
8
 71
3
 72
8
 73
4
 74
0
 40
0
 40
0
 40
0
 40
0
 40
1
 40
1
 40
1
 40
1
 10
452.226424
 20
653.786157
 30
0.0
 10
433.710904
 20
635.335117
 30
0.0
 10
397.953544
 20
598.475357
 30
0.0
 10
418.879544
 20
582.811157
 30
0.0
  0
SPLINE
  5
491
100
AcDbEntity
  8
dino
 62
1
100
AcDbSpline
 70
8
 71
3
 72
8
 73
4
 74
0
 40
0
 40
0
 40
0
 40
0
 40
1
 40
1
 40
1
 40
1
 10
418.879544
 20
582.811157
 30
0.0
 10
432.174664
 20
572.859085
 30
0.0
 10
442.257224
 20
606.784517
 30
0.0
 10
456.174904
 20
615.845525
 30
0.0
  0
SPLINE
  5
492
100
AcDbEntity
  8
dino
 62
1
100
AcDbSpline
 70
8
 71
3
 72
8
 73
4
 74
0
 40
0
 40
0
 40
0
 40
0
 40
1
 40
1
 40
1
 40
1
 10
456.174904
 20
615.845525
 30
0.0
 10
467.802184
 20
623.415389
 30
0.0
 10
480.530984
 20
629.926117
 30
0.0
 10
494.020184
 20
633.172093
 30
0.0
  0
SPLINE
  5
493
100
AcDbEntity
  8
dino
 62
1
100
AcDbSpline
 70
8
 71
3
 72
8
 73
4
 74
0
 40
0
 40
0
 40
0
 40
0
 40
1
 40
1
 40
1
 40
1
 10
494.020184
 20
633.172093
 30
0.0
 10
516.651784
 20
638.618029
 30
0.0
 10
540.576424
 20
639.101637
 30
0.0
 10
563.802984
 20
636.825213
 30
0.0
  0
LWPOLYLINE
  5
494
100
AcDbEntity
  8
dino
 62
1
100
AcDbPolyline
 90
4
 70
1
 10
945.560872
 20
646.884589
 30
0.0
 10
963.676496
 20
646.884589
 30
0.0
 10
963.676496
 20
638.379901
 30
0.0
 10
945.392120
 20
638.379901
 30
0.0
  0
SPLINE
  5
495
100
AcDbEntity
  8
dino
 62
1
100
AcDbSpline
 70
8
 71
3
 72
8
 73
4
 74
0
 40
0
 40
0
 40
0
 40
0
 40
1
 40
1
 40
1
 40
1
 10
572.256104
 20
635.890845
 30
0.0
 10
577.511464
 20
635.262653
 30
0.0
 10
582.806344
 20
634.547045
 30
0.0
 10
588.085864
 20
633.684589
 30
0.0
  0
LWPOLYLINE
  5
496
100
AcDbEntity
  8
dino
 62
1
100
AcDbPolyline
 90
4
 70
1
 10
563.802984
 20
636.825213
 30
0.0
 10
565.943624
 20
654.539277
 30
0.0
 10
574.385864
 20
653.518965
 30
0.0
 10
572.256104
 20
635.890845
 30
0.0
  0
SPLINE
  5
497
100
AcDbEntity
  8
dino
 62
1
100
AcDbSpline
 70
8
 71
3
 72
8
 73
4
 74
0
 40
0
 40
0
 40
0
 40
0
 40
1
 40
1
 40
1
 40
1
 10
596.454584
 20
632.172093
 30
0.0
 10
601.691944
 20
631.126469
 30
0.0
 10
606.878104
 20
629.883333
 30
0.0
 10
611.959304
 20
628.376781
 30
0.0
  0
LWPOLYLINE
  5
498
100
AcDbEntity
  8
dino
 62
1
100
AcDbPolyline
 90
4
 70
1
 10
588.085864
 20
633.684589
 30
0.0
 10
591.317064
 20
651.201781
 30
0.0
 10
599.679544
 20
649.659589
 30
0.0
 10
596.454584
 20
632.172093
 30
0.0
  0
SPLINE
  5
499
100
AcDbEntity
  8
dino
 62
1
100
AcDbSpline
 70
8
 71
3
 72
8
 73
4
 74
0
 40
0
 40
0
 40
0
 40
0
 40
1
 40
1
 40
1
 40
1
 10
620.037384
 20
625.720533
 30
0.0
 10
625.045784
 20
623.883701
 30
0.0
 10
629.911064
 20
621.731141
 30
0.0
 10
634.573304
 20
619.187717
 30
0.0
  0
LWPOLYLINE
  5
49a
100
AcDbEntity
  8
dino
 62
1
100
AcDbPolyline
 90
4
 70
1
 10
611.959304
 20
628.376781
 30
0.0
 10
617.454584
 20
645.281469
 30
0.0
 10
625.542104
 20
642.651781
 30
0.0
 10
620.037384
 20
625.720533
 30
0.0
  0
SPLINE
  5
49b
100
AcDbEntity
  8
dino
 62
1
100
AcDbSpline
 70
8
 71
3
 72
8
 73
4
 74
0
 40
0
 40
0
 40
0
 40
0
 40
1
 40
1
 40
1
 40
1
 10
641.851464
 20
614.787717
 30
0.0
 10
646.307304
 20
611.849485
 30
0.0
 10
650.535384
 20
608.615861
 30
0.0
 10
654.578024
 20
605.147093
 30
0.0
  0
LWPOLYLINE
  5
49c
100
AcDbEntity
  8
dino
 62
1
100
AcDbPolyline
 90
4
 70
1
 10
634.573304
 20
619.187717
 30
0.0
 10
644.023304
 20
634.304901
 30
0.0
 10
651.234264
 20
629.797093
 30
0.0
 10
641.851464
 20
614.787717
 30
0.0
  0
SPLINE
  5
49d
100
AcDbEntity
  8
dino
 62
1
100
AcDbSpline
 70
8
 71
3
 72
8
 73
4
 74
0
 40
0
 40
0
 40
0
 40
0
 40
1
 40
1
 40
1
 40
1
 10
660.878024
 20
599.434589
 30
0.0
 10
664.708104
 20
595.764653
 30
0.0
 10
668.380264
 20
591.897165
 30
0.0
 10
671.940504
 20
587.897093
 30
0.0
  0
LWPOLYLINE
  5
49e
100
AcDbEntity
  8
dino
 62
1
100
AcDbPolyline
 90
4
 70
1
 10
654.578024
 20
605.147093
 30
0.0
 10
666.426424
 20
618.250213
 30
0.0
 10
672.734264
 20
612.547093
 30
0.0
 10
660.878024
 20
599.434589
 30
0.0
  0
SPLINE
  5
49f
100
AcDbEntity
  8
dino
 62
1
100
AcDbSpline
 70
8
 71
3
 72
8
 73
4
 74
0
 40
0
 40
0
 40
0
 40
0
 40
1
 40
1
 40
1
 40
1
 10
677.488984
 20
581.450213
 30
0.0
 10
680.903144
 20
577.373389
 30
0.0
 10
684.232504
 20
573.201421
 30
0.0
 10
687.515544
 20
568.987717
 30
0.0
  0
LWPOLYLINE
  5
4a0
100
AcDbEntity
  8
dino
 62
1
100
AcDbPolyline
 90
4
 70
1
 10
671.940504
 20
587.897093
 30
0.0
 10
685.242104
 20
599.404901
 30
0.0
 10
690.806104
 20
592.973653
 30
0.0
 10
677.488984
 20
581.450213
 30
0.0
  0
SPLINE
  5
4a1
100
AcDbEntity
  8
dino
 62
1
100
AcDbSpline
 70
8
 71
3
 72
8
 73
4
 74
0
 40
0
 40
0
 40
0
 40
0
 40
1
 40
1
 40
1
 40
1
 10
692.717064
 20
562.259589
 30
0.0
 10
695.971944
 20
558.013725
 30
0.0
 10
699.208424
 20
553.768341
 30
0.0
 10
702.463944
 20
549.570533
 30
0.0
  0
LWPOLYLINE
  5
4a2
100
AcDbEntity
  8
dino
 62
1
100
AcDbPolyline
 90
4
 70
1
 10
687.515544
 20
568.987717
 30
0.0
 10
701.378024
 20
579.743965
 30
0.0
 10
706.590504
 20
573.025213
 30
0.0
 10
692.717064
 20
562.259589
 30
0.0
  0
SPLINE
  5
4a3
100
AcDbEntity
  8
dino
 62
1
100
AcDbSpline
 70
8
 71
3
 72
8
 73
4
 74
0
 40
0
 40
0
 40
0
 40
0
 40
1
 40
1
 40
1
 40
1
 10
707.720184
 20
542.886157
 30
0.0
 10
708.131944
 20
542.370517
 30
0.0
 10
708.539784
 20
541.847397
 30
0.0
 10
708.952984
 20
541.334589
 30
0.0
  0
SPLINE
  5
4a4
100
AcDbEntity
  8
dino
 62
1
100
AcDbSpline
 70
8
 71
3
 72
8
 73
4
 74
0
 40
0
 40
0
 40
0
 40
0
 40
1
 40
1
 40
1
 40
1
 10
708.952984
 20
541.334589
 30
0.0
 10
711.885784
 20
537.695005
 30
0.0
 10
714.654184
 20
533.933829
 30
0.0
 10
717.332744
 20
530.104901
 30
0.0
  0
LWPOLYLINE
  5
4a5
100
AcDbEntity
  8
dino
 62
1
100
AcDbPolyline
 90
4
 70
1
 10
702.463944
 20
549.570533
 30
0.0
 10
716.284264
 20
560.431469
 30
0.0
 10
721.538984
 20
553.745525
 30
0.0
 10
707.720184
 20
542.886157
 30
0.0
  0
SPLINE
  5
4a6
100
AcDbEntity
  8
dino
 62
1
100
AcDbSpline
 70
8
 71
3
 72
8
 73
4
 74
0
 40
0
 40
0
 40
0
 40
0
 40
1
 40
1
 40
1
 40
1
 10
722.115544
 20
523.073653
 30
0.0
 10
725.062664
 20
518.632573
 30
0.0
 10
727.943784
 20
514.141597
 30
0.0
 10
730.838984
 20
509.661157
 30
0.0
  0
LWPOLYLINE
  5
4a7
100
AcDbEntity
  8
dino
 62
1
100
AcDbPolyline
 90
4
 70
1
 10
717.332744
 20
530.104901
 30
0.0
 10
731.951464
 20
539.889277
 30
0.0
 10
736.681144
 20
532.822093
 30
0.0
 10
722.115544
 20
523.073653
 30
0.0
  0
SPLINE
  5
4a8
100
AcDbEntity
  8
dino
 62
1
100
AcDbSpline
 70
8
 71
3
 72
8
 73
4
 74
0
 40
0
 40
0
 40
0
 40
0
 40
1
 40
1
 40
1
 40
1
 10
735.498344
 20
502.547093
 30
0.0
 10
738.446744
 20
498.096965
 30
0.0
 10
741.453624
 20
493.689773
 30
0.0
 10
744.640504
 20
489.415845
 30
0.0
  0
LWPOLYLINE
  5
4a9
100
AcDbEntity
  8
dino
 62
1
100
AcDbPolyline
 90
4
 70
1
 10
730.838984
 20
509.661157
 30
0.0
 10
745.438984
 20
519.312717
 30
0.0
 10
750.128024
 20
512.218965
 30
0.0
 10
735.498344
 20
502.547093
 30
0.0
  0
SPLINE
  5
4aa
100
AcDbEntity
  8
dino
 62
1
100
AcDbSpline
 70
8
 71
3
 72
8
 73
4
 74
0
 40
0
 40
0
 40
0
 40
0
 40
1
 40
1
 40
1
 40
1
 10
749.842104
 20
482.689277
 30
0.0
 10
753.129544
 20
478.496061
 30
0.0
 10
756.447544
 20
474.317981
 30
0.0
 10
759.815544
 20
470.178341
 30
0.0
  0
LWPOLYLINE
  5
4ab
100
AcDbEntity
  8
dino
 62
1
100
AcDbPolyline
 90
4
 70
1
 10
744.640504
 20
489.415845
 30
0.0
 10
758.368664
 20
500.258029
 30
0.0
 10
763.638984
 20
493.583029
 30
0.0
 10
749.842104
 20
482.689277
 30
0.0
  0
SPLINE
  5
4ac
100
AcDbEntity
  8
dino
 62
1
100
AcDbSpline
 70
8
 71
3
 72
8
 73
4
 74
0
 40
0
 40
0
 40
0
 40
0
 40
1
 40
1
 40
1
 40
1
 10
765.238984
 20
463.625213
 30
0.0
 10
768.677464
 20
459.541717
 30
0.0
 10
772.176744
 20
455.512749
 30
0.0
 10
775.792104
 20
451.597093
 30
0.0
  0
LWPOLYLINE
  5
4ad
100
AcDbEntity
  8
dino
 62
1
100
AcDbPolyline
 90
4
 70
1
 10
759.815544
 20
470.178341
 30
0.0
 10
773.218664
 20
481.445525
 30
0.0
 10
778.692104
 20
474.936157
 30
0.0
 10
765.238984
 20
463.625213
 30
0.0
  0
SPLINE
  5
4ae
100
AcDbEntity
  8
dino
 62
1
100
AcDbSpline
 70
8
 71
3
 72
8
 73
4
 74
0
 40
0
 40
0
 40
0
 40
0
 40
1
 40
1
 40
1
 40
1
 10
781.659304
 20
445.440845
 30
0.0
 10
784.329464
 20
442.727125
 30
0.0
 10
787.058664
 20
440.073605
 30
0.0
 10
789.863944
 20
437.498653
 30
0.0
  0
SPLINE
  5
4af
100
AcDbEntity
  8
dino
 62
1
100
AcDbSpline
 70
8
 71
3
 72
8
 73
4
 74
0
 40
0
 40
0
 40
0
 40
0
 40
1
 40
1
 40
1
 40
1
 10
789.863944
 20
437.498653
 30
0.0
 10
790.988584
 20
436.466333
 30
0.0
 10
792.118824
 20
435.435957
 30
0.0
 10
793.251464
 20
434.408029
 30
0.0
  0
LWPOLYLINE
  5
4b0
100
AcDbEntity
  8
dino
 62
1
100
AcDbPolyline
 90
4
 70
1
 10
775.792104
 20
451.597093
 30
0.0
 10
788.304584
 20
463.847093
 30
0.0
 10
794.254584
 20
457.770533
 30
0.0
 10
781.659304
 20
445.440845
 30
0.0
  0
SPLINE
  5
4b1
100
AcDbEntity
  8
dino
 62
1
100
AcDbSpline
 70
8
 71
3
 72
8
 73
4
 74
0
 40
0
 40
0
 40
0
 40
0
 40
1
 40
1
 40
1
 40
1
 10
799.585864
 20
428.736157
 30
0.0
 10
803.578424
 20
425.205621
 30
0.0
 10
807.626984
 20
421.725237
 30
0.0
 10
811.740504
 20
418.322093
 30
0.0
  0
LWPOLYLINE
  5
4b2
100
AcDbEntity
  8
dino
 62
1
100
AcDbPolyline
 90
4
 70
1
 10
793.251464
 20
434.408029
 30
0.0
 10
805.084264
 20
447.484589
 30
0.0
 10
811.388984
 20
441.778341
 30
0.0
 10
799.585864
 20
428.736157
 30
0.0
  0
SPLINE
  5
4b3
100
AcDbEntity
  8
dino
 62
1
100
AcDbSpline
 70
8
 71
3
 72
8
 73
4
 74
0
 40
0
 40
0
 40
0
 40
0
 40
1
 40
1
 40
1
 40
1
 10
818.348344
 20
412.970533
 30
0.0
 10
822.538424
 20
409.657669
 30
0.0
 10
826.802184
 20
406.444741
 30
0.0
 10
831.145224
 20
403.356469
 30
0.0
  0
LWPOLYLINE
  5
4b4
100
AcDbEntity
  8
dino
 62
1
100
AcDbPolyline
 90
4
 70
1
 10
811.740504
 20
418.322093
 30
0.0
 10
822.713944
 20
432.056469
 30
0.0
 10
829.357704
 20
426.748653
 30
0.0
 10
818.348344
 20
412.970533
 30
0.0
  0
SPLINE
  5
4b5
100
AcDbEntity
  8
dino
 62
1
100
AcDbSpline
 70
8
 71
3
 72
8
 73
4
 74
0
 40
0
 40
0
 40
0
 40
0
 40
1
 40
1
 40
1
 40
1
 10
838.154584
 20
398.540845
 30
0.0
 10
842.608184
 20
395.584229
 30
0.0
 10
847.148824
 20
392.774181
 30
0.0
 10
851.788984
 20
390.142405
 30
0.0
  0
LWPOLYLINE
  5
4b6
100
AcDbEntity
  8
dino
 62
1
100
AcDbPolyline
 90
4
 70
1
 10
831.145224
 20
403.356469
 30
0.0
 10
841.145224
 20
417.875213
 30
0.0
 10
848.149864
 20
413.051781
 30
0.0
 10
838.154584
 20
398.540845
 30
0.0
  0
SPLINE
  5
4b7
100
AcDbEntity
  8
dino
 62
1
100
AcDbSpline
 70
8
 71
3
 72
8
 73
4
 74
0
 40
0
 40
0
 40
0
 40
0
 40
1
 40
1
 40
1
 40
1
 10
859.271784
 20
386.103341
 30
0.0
 10
859.614264
 20
385.927837
 30
0.0
 10
859.951624
 20
385.742421
 30
0.0
 10
860.295224
 20
385.568965
 30
0.0
  0
SPLINE
  5
4b8
100
AcDbEntity
  8
dino
 62
1
100
AcDbSpline
 70
8
 71
3
 72
8
 73
4
 74
0
 40
0
 40
0
 40
0
 40
0
 40
1
 40
1
 40
1
 40
1
 10
860.295224
 20
385.568965
 30
0.0
 10
864.717544
 20
383.336261
 30
0.0
 10
869.238344
 20
381.302373
 30
0.0
 10
873.832744
 20
379.431469
 30
0.0
  0
LWPOLYLINE
  5
4b9
100
AcDbEntity
  8
dino
 62
1
100
AcDbPolyline
 90
4
 70
1
 10
851.788984
 20
390.142405
 30
0.0
 10
859.929544
 20
405.718965
 30
0.0
 10
867.465544
 20
401.779901
 30
0.0
 10
859.271784
 20
386.103341
 30
0.0
  0
SPLINE
  5
4ba
100
AcDbEntity
  8
dino
 62
1
100
AcDbSpline
 70
8
 71
3
 72
8
 73
4
 74
0
 40
0
 40
0
 40
0
 40
0
 40
1
 40
1
 40
1
 40
1
 10
881.771784
 20
376.383029
 30
0.0
 10
886.787144
 20
374.575125
 30
0.0
 10
891.879144
 20
372.953205
 30
0.0
 10
897.017120
 20
371.476781
 30
0.0
  0
LWPOLYLINE
  5
4bb
100
AcDbEntity
  8
dino
 62
1
100
AcDbPolyline
 90
4
 70
1
 10
873.832744
 20
379.431469
 30
0.0
 10
880.004584
 20
395.956469
 30
0.0
 10
887.970184
 20
392.979901
 30
0.0
 10
881.771784
 20
376.383029
 30
0.0
  0
SPLINE
  5
4bc
100
AcDbEntity
  8
dino
 62
1
100
AcDbSpline
 70
8
 71
3
 72
8
 73
4
 74
0
 40
0
 40
0
 40
0
 40
0
 40
1
 40
1
 40
1
 40
1
 10
905.224928
 20
369.250213
 30
0.0
 10
910.400984
 20
367.928141
 30
0.0
 10
915.611264
 20
366.740781
 30
0.0
 10
920.832744
 20
365.662717
 30
0.0
  0
LWPOLYLINE
  5
4bd
100
AcDbEntity
  8
dino
 62
1
100
AcDbPolyline
 90
4
 70
1
 10
897.017120
 20
371.476781
 30
0.0
 10
901.612432
 20
388.572093
 30
0.0
 10
909.824928
 20
386.365845
 30
0.0
 10
905.224928
 20
369.250213
 30
0.0
  0
SPLINE
  5
4be
100
AcDbEntity
  8
dino
 62
1
100
AcDbSpline
 70
8
 71
3
 72
8
 73
4
 74
0
 40
0
 40
0
 40
0
 40
0
 40
1
 40
1
 40
1
 40
1
 10
929.178056
 20
364.028341
 30
0.0
 10
929.862408
 20
363.901141
 30
0.0
 10
930.546992
 20
363.769621
 30
0.0
 10
931.231184
 20
363.645525
 30
0.0
  0
SPLINE
  5
4bf
100
AcDbEntity
  8
dino
 62
1
100
AcDbSpline
 70
8
 71
3
 72
8
 73
4
 74
0
 40
0
 40
0
 40
0
 40
0
 40
1
 40
1
 40
1
 40
1
 10
931.231184
 20
363.645525
 30
0.0
 10
935.793504
 20
362.818133
 30
0.0
 10
940.378776
 20
362.083893
 30
0.0
 10
944.978056
 20
361.423653
 30
0.0
  0
LWPOLYLINE
  5
4c0
100
AcDbEntity
  8
dino
 62
1
100
AcDbPolyline
 90
4
 70
1
 10
920.832744
 20
365.662717
 30
0.0
 10
924.174928
 20
383.083029
 30
0.0
 10
932.526496
 20
381.479901
 30
0.0
 10
929.178056
 20
364.028341
 30
0.0
  0
SPLINE
  5
4c1
100
AcDbEntity
  8
dino
 62
1
100
AcDbSpline
 70
8
 71
3
 72
8
 73
4
 74
0
 40
0
 40
0
 40
0
 40
0
 40
1
 40
1
 40
1
 40
1
 10
953.407744
 20
360.301781
 30
0.0
 10
958.705336
 20
359.663061
 30
0.0
 10
964.019456
 20
359.139557
 30
0.0
 10
969.343680
 20
358.728341
 30
0.0
  0
LWPOLYLINE
  5
4c2
100
AcDbEntity
  8
dino
 62
1
100
AcDbPolyline
 90
4
 70
1
 10
944.978056
 20
361.423653
 30
0.0
 10
947.234304
 20
379.009589
 30
0.0
 10
955.670240
 20
377.926781
 30
0.0
 10
953.407744
 20
360.301781
 30
0.0
  0
SPLINE
  5
4c3
100
AcDbEntity
  8
dino
 62
1
100
AcDbSpline
 70
8
 71
3
 72
8
 73
4
 74
0
 40
0
 40
0
 40
0
 40
0
 40
1
 40
1
 40
1
 40
1
 10
977.829616
 20
358.176781
 30
0.0
 10
983.163816
 20
357.888277
 30
0.0
 10
988.502712
 20
357.714245
 30
0.0
 10
993.840560
 20
357.661157
 30
0.0
  0
LWPOLYLINE
  5
4c4
100
AcDbEntity
  8
dino
 62
1
100
AcDbPolyline
 90
4
 70
1
 10
969.343680
 20
358.728341
 30
0.0
 10
970.545248
 20
376.461157
 30
0.0
 10
979.029616
 20
375.886157
 30
0.0
 10
977.829616
 20
358.176781
 30
0.0
  0
SPLINE
  5
4c5
100
AcDbEntity
  8
dino
 62
1
100
AcDbSpline
 70
8
 71
3
 72
8
 73
4
 74
0
 40
0
 40
0
 40
0
 40
0
 40
1
 40
1
 40
1
 40
1
 10
1002.343680
 20
357.676773
 30
0.0
 10
1007.687768
 20
357.750933
 30
0.0
 10
1013.025296
 20
357.949125
 30
0.0
 10
1018.349928
 20
358.267397
 30
0.0
  0
LWPOLYLINE
  5
4c6
100
AcDbEntity
  8
dino
 62
1
100
AcDbPolyline
 90
4
 70
1
 10
993.840560
 20
357.661157
 30
0.0
 10
993.671808
 20
375.392405
 30
0.0
 10
1002.176496
 20
375.472085
 30
0.0
 10
1002.343680
 20
357.676773
 30
0.0
  0
SPLINE
  5
4c7
100
AcDbEntity
  8
dino
 62
1
100
AcDbSpline
 70
8
 71
3
 72
8
 73
4
 74
0
 40
0
 40
0
 40
0
 40
0
 40
1
 40
1
 40
1
 40
1
 10
1026.831184
 20
358.886149
 30
0.0
 10
1032.146232
 20
359.352389
 30
0.0
 10
1037.456960
 20
359.961429
 30
0.0
 10
1042.749928
 20
360.723645
 30
0.0
  0
LWPOLYLINE
  5
4c8
100
AcDbEntity
  8
dino
 62
1
100
AcDbPolyline
 90
4
 70
1
 10
1018.349928
 20
358.267397
 30
0.0
 10
1016.929616
 20
375.972085
 30
0.0
 10
1025.406184
 20
376.651773
 30
0.0
 10
1026.831184
 20
358.886149
 30
0.0
  0
SPLINE
  5
4c9
100
AcDbEntity
  8
dino
 62
1
100
AcDbSpline
 70
8
 71
3
 72
8
 73
4
 74
0
 40
0
 40
0
 40
0
 40
0
 40
1
 40
1
 40
1
 40
1
 10
1051.148368
 20
362.061149
 30
0.0
 10
1056.410136
 20
362.983221
 30
0.0
 10
1061.644424
 20
364.060797
 30
0.0
 10
1066.837432
 20
365.293957
 30
0.0
  0
LWPOLYLINE
  5
4ca
100
AcDbEntity
  8
dino
 62
1
100
AcDbPolyline
 90
4
 70
1
 10
1042.749928
 20
360.723645
 30
0.0
 10
1039.723368
 20
378.195517
 30
0.0
 10
1048.101496
 20
379.647085
 30
0.0
 10
1051.148368
 20
362.061149
 30
0.0
  0
SPLINE
  5
4cb
100
AcDbEntity
  8
dino
 62
1
100
AcDbSpline
 70
8
 71
3
 72
8
 73
4
 74
0
 40
0
 40
0
 40
0
 40
0
 40
1
 40
1
 40
1
 40
1
 10
1075.078056
 20
367.397085
 30
0.0
 10
1079.647008
 20
368.642957
 30
0.0
 10
1084.178560
 20
370.007773
 30
0.0
 10
1088.657744
 20
371.511149
 30
0.0
  0
SPLINE
  5
4cc
100
AcDbEntity
  8
dino
 62
1
100
AcDbSpline
 70
8
 71
3
 72
8
 73
4
 74
0
 40
0
 40
0
 40
0
 40
0
 40
1
 40
1
 40
1
 40
1
 10
1088.657744
 20
371.511149
 30
0.0
 10
1089.239552
 20
371.706421
 30
0.0
 10
1089.817376
 20
371.913621
 30
0.0
 10
1090.396808
 20
372.115837
 30
0.0
  0
LWPOLYLINE
  5
4cd
100
AcDbEntity
  8
dino
 62
1
100
AcDbPolyline
 90
4
 70
1
 10
1066.837432
 20
365.293957
 30
0.0
 10
1062.517120
 20
382.572085
 30
0.0
 10
1070.767120
 20
384.634581
 30
0.0
 10
1075.078056
 20
367.397085
 30
0.0
  0
SPLINE
  5
4ce
100
AcDbEntity
  8
dino
 62
1
100
AcDbSpline
 70
8
 71
3
 72
8
 73
4
 74
0
 40
0
 40
0
 40
0
 40
0
 40
1
 40
1
 40
1
 40
1
 10
1098.349928
 20
375.123645
 30
0.0
 10
1103.293688
 20
377.139581
 30
0.0
 10
1108.153248
 20
379.378541
 30
0.0
 10
1112.932744
 20
381.789269
 30
0.0
  0
LWPOLYLINE
  5
4cf
100
AcDbEntity
  8
dino
 62
1
100
AcDbPolyline
 90
4
 70
1
 10
1090.396808
 20
372.115837
 30
0.0
 10
1084.203056
 20
388.806461
 30
0.0
 10
1092.176496
 20
391.764269
 30
0.0
 10
1098.349928
 20
375.123645
 30
0.0
  0
SPLINE
  5
4d0
100
AcDbEntity
  8
dino
 62
1
100
AcDbSpline
 70
8
 71
3
 72
8
 73
4
 74
0
 40
0
 40
0
 40
0
 40
0
 40
1
 40
1
 40
1
 40
1
 10
1120.451496
 20
385.762709
 30
0.0
 10
1125.143408
 20
388.330733
 30
0.0
 10
1129.759264
 20
391.030773
 30
0.0
 10
1134.309304
 20
393.811149
 30
0.0
  0
LWPOLYLINE
  5
4d1
100
AcDbEntity
  8
dino
 62
1
100
AcDbPolyline
 90
4
 70
1
 10
1112.932744
 20
381.789269
 30
0.0
 10
1104.679616
 20
397.601773
 30
0.0
 10
1112.218680
 20
401.536149
 30
0.0
 10
1120.451496
 20
385.762709
 30
0.0
  0
SPLINE
  5
4d2
100
AcDbEntity
  8
dino
 62
1
100
AcDbSpline
 70
8
 71
3
 72
8
 73
4
 74
0
 40
0
 40
0
 40
0
 40
0
 40
1
 40
1
 40
1
 40
1
 10
1141.481184
 20
398.379893
 30
0.0
 10
1145.917840
 20
401.352373
 30
0.0
 10
1150.230024
 20
404.513773
 30
0.0
 10
1154.448368
 20
407.803333
 30
0.0
  0
LWPOLYLINE
  5
4d3
100
AcDbEntity
  8
dino
 62
1
100
AcDbPolyline
 90
4
 70
1
 10
1134.309304
 20
393.811149
 30
0.0
 10
1124.731184
 20
408.801773
 30
0.0
 10
1131.896808
 20
413.379893
 30
0.0
 10
1141.481184
 20
398.379893
 30
0.0
  0
SPLINE
  5
4d4
100
AcDbEntity
  8
dino
 62
1
100
AcDbSpline
 70
8
 71
3
 72
8
 73
4
 74
0
 40
0
 40
0
 40
0
 40
0
 40
1
 40
1
 40
1
 40
1
 10
1161.085872
 20
413.120525
 30
0.0
 10
1163.859952
 20
415.405933
 30
0.0
 10
1166.601216
 20
417.729949
 30
0.0
 10
1169.317120
 20
420.073645
 30
0.0
  0
SPLINE
  5
4d5
100
AcDbEntity
  8
dino
 62
1
100
AcDbSpline
 70
8
 71
3
 72
8
 73
4
 74
0
 40
0
 40
0
 40
0
 40
0
 40
1
 40
1
 40
1
 40
1
 10
1169.317120
 20
420.073645
 30
0.0
 10
1170.597200
 20
421.178301
 30
0.0
 10
1171.912928
 20
422.349309
 30
0.0
 10
1173.242120
 20
423.553333
 30
0.0
  0
LWPOLYLINE
  5
4d6
100
AcDbEntity
  8
dino
 62
1
100
AcDbPolyline
 90
4
 70
1
 10
1154.448368
 20
407.803333
 30
0.0
 10
1143.237432
 20
421.595517
 30
0.0
 10
1149.835872
 20
426.959581
 30
0.0
 10
1161.085872
 20
413.120525
 30
0.0
  0
SPLINE
  5
4d7
100
AcDbEntity
  8
dino
 62
1
100
AcDbSpline
 70
8
 71
3
 72
8
 73
4
 74
0
 40
0
 40
0
 40
0
 40
0
 40
1
 40
1
 40
1
 40
1
 10
1179.462432
 20
429.353333
 30
0.0
 10
1183.371464
 20
433.086197
 30
0.0
 10
1187.245032
 20
436.935341
 30
0.0
 10
1190.862432
 20
440.595517
 30
0.0
  0
LWPOLYLINE
  5
4d8
100
AcDbEntity
  8
dino
 62
1
100
AcDbPolyline
 90
4
 70
1
 10
1173.242120
 20
423.553333
 30
0.0
 10
1161.093680
 20
436.583021
 30
0.0
 10
1167.313992
 20
442.381461
 30
0.0
 10
1179.462432
 20
429.353333
 30
0.0
  0
SPLINE
  5
4d9
100
AcDbEntity
  8
dino
 62
1
100
AcDbSpline
 70
8
 71
3
 72
8
 73
4
 74
0
 40
0
 40
0
 40
0
 40
0
 40
1
 40
1
 40
1
 40
1
 10
1196.817120
 20
446.667397
 30
0.0
 10
1199.471136
 20
449.400277
 30
0.0
 10
1201.812552
 20
451.836269
 30
0.0
 10
1203.663992
 20
453.748645
 30
0.0
  0
SPLINE
  5
4da
100
AcDbEntity
  8
dino
 62
1
100
AcDbSpline
 70
8
 71
3
 72
8
 73
4
 74
0
 40
0
 40
0
 40
0
 40
0
 40
1
 40
1
 40
1
 40
1
 10
1203.663992
 20
453.748645
 30
0.0
 10
1205.307520
 20
455.109925
 30
0.0
 10
1206.834752
 20
456.449509
 30
0.0
 10
1208.296808
 20
457.768957
 30
0.0
  0
LWPOLYLINE
  5
4db
100
AcDbEntity
  8
dino
 62
1
100
AcDbPolyline
 90
4
 70
1
 10
1190.862432
 20
440.595517
 30
0.0
 10
1178.142120
 20
453.101773
 30
0.0
 10
1184.104616
 20
459.165837
 30
0.0
 10
1196.817120
 20
446.667397
 30
0.0
  0
SPLINE
  5
4dc
100
AcDbEntity
  8
dino
 62
1
100
AcDbSpline
 70
8
 71
3
 72
8
 73
4
 74
0
 40
0
 40
0
 40
0
 40
0
 40
1
 40
1
 40
1
 40
1
 10
1214.529616
 20
463.554893
 30
0.0
 10
1218.540840
 20
467.321653
 30
0.0
 10
1222.334192
 20
470.773837
 30
0.0
 10
1226.774928
 20
473.681461
 30
0.0
  0
LWPOLYLINE
  5
4dd
100
AcDbEntity
  8
dino
 62
1
100
AcDbPolyline
 90
4
 70
1
 10
1208.296808
 20
457.768957
 30
0.0
 10
1196.210872
 20
470.878333
 30
0.0
 10
1202.462432
 20
476.642397
 30
0.0
 10
1214.529616
 20
463.554893
 30
0.0
  0
SPLINE
  5
4de
100
AcDbEntity
  8
dino
 62
1
100
AcDbSpline
 70
8
 71
3
 72
8
 73
4
 74
0
 40
0
 40
0
 40
0
 40
0
 40
1
 40
1
 40
1
 40
1
 10
1234.259304
 20
477.715837
 30
0.0
 10
1235.068392
 20
478.063557
 30
0.0
 10
1235.901328
 20
478.399061
 30
0.0
 10
1236.765560
 20
478.717397
 30
0.0
  0
SPLINE
  5
4df
100
AcDbEntity
  8
dino
 62
1
100
AcDbSpline
 70
8
 71
3
 72
8
 73
4
 74
0
 40
0
 40
0
 40
0
 40
0
 40
1
 40
1
 40
1
 40
1
 10
1236.765560
 20
478.717397
 30
0.0
 10
1240.715192
 20
480.127557
 30
0.0
 10
1244.909480
 20
481.804277
 30
0.0
 10
1249.212432
 20
483.120525
 30
0.0
  0
LWPOLYLINE
  5
4e0
100
AcDbEntity
  8
dino
 62
1
100
AcDbPolyline
 90
4
 70
1
 10
1226.774928
 20
473.681461
 30
0.0
 10
1218.299928
 20
489.601773
 30
0.0
 10
1225.806184
 20
493.597085
 30
0.0
 10
1234.259304
 20
477.715837
 30
0.0
  0
SPLINE
  5
4e1
100
AcDbEntity
  8
dino
 62
1
100
AcDbSpline
 70
8
 71
3
 72
8
 73
4
 74
0
 40
0
 40
0
 40
0
 40
0
 40
1
 40
1
 40
1
 40
1
 10
1257.501496
 20
485.020525
 30
0.0
 10
1257.970696
 20
485.082605
 30
0.0
 10
1258.441152
 20
485.136581
 30
0.0
 10
1258.910872
 20
485.179893
 30
0.0
  0
SPLINE
  5
4e2
100
AcDbEntity
  8
dino
 62
1
100
AcDbSpline
 70
8
 71
3
 72
8
 73
4
 74
0
 40
0
 40
0
 40
0
 40
0
 40
1
 40
1
 40
1
 40
1
 10
1258.910872
 20
485.179893
 30
0.0
 10
1263.707664
 20
485.622229
 30
0.0
 10
1268.542496
 20
485.589141
 30
0.0
 10
1273.370240
 20
485.218933
 30
0.0
  0
LWPOLYLINE
  5
4e3
100
AcDbEntity
  8
dino
 62
1
100
AcDbPolyline
 90
4
 70
1
 10
1249.212432
 20
483.120525
 30
0.0
 10
1245.331184
 20
500.736149
 30
0.0
 10
1253.634304
 20
502.565837
 30
0.0
 10
1257.501496
 20
485.020525
 30
0.0
  0
SPLINE
  5
4e4
100
AcDbEntity
  8
dino
 62
1
100
AcDbSpline
 70
8
 71
3
 72
8
 73
4
 74
0
 40
0
 40
0
 40
0
 40
0
 40
1
 40
1
 40
1
 40
1
 10
1281.820240
 20
484.247061
 30
0.0
 10
1286.508664
 20
483.538613
 30
0.0
 10
1291.163120
 20
482.578661
 30
0.0
 10
1295.737432
 20
481.482997
 30
0.0
  0
SPLINE
  5
4e5
100
AcDbEntity
  8
dino
 62
1
100
AcDbSpline
 70
8
 71
3
 72
8
 73
4
 74
0
 40
0
 40
0
 40
0
 40
0
 40
1
 40
1
 40
1
 40
1
 10
1295.737432
 20
481.482997
 30
0.0
 10
1296.310376
 20
481.345765
 30
0.0
 10
1296.885256
 20
481.198317
 30
0.0
 10
1297.459304
 20
481.056437
 30
0.0
  0
LWPOLYLINE
  5
4e6
100
AcDbEntity
  8
dino
 62
1
100
AcDbPolyline
 90
4
 70
1
 10
1273.370240
 20
485.218933
 30
0.0
 10
1275.753056
 20
502.989245
 30
0.0
 10
1284.181184
 20
501.857997
 30
0.0
 10
1281.820240
 20
484.247061
 30
0.0
  0
SPLINE
  5
4e7
100
AcDbEntity
  8
dino
 62
1
100
AcDbSpline
 70
8
 71
3
 72
8
 73
4
 74
0
 40
0
 40
0
 40
0
 40
0
 40
1
 40
1
 40
1
 40
1
 10
1305.659304
 20
478.804869
 30
0.0
 10
1310.759408
 20
477.236389
 30
0.0
 10
1315.748888
 20
475.319981
 30
0.0
 10
1320.360872
 20
472.754869
 30
0.0
  0
LWPOLYLINE
  5
4e8
100
AcDbEntity
  8
dino
 62
1
100
AcDbPolyline
 90
4
 70
1
 10
1297.459304
 20
481.056437
 30
0.0
 10
1302.106184
 20
498.225181
 30
0.0
 10
1310.313992
 20
496.003309
 30
0.0
 10
1305.659304
 20
478.804869
 30
0.0
  0
SPLINE
  5
4e9
100
AcDbEntity
  8
dino
 62
1
100
AcDbSpline
 70
8
 71
3
 72
8
 73
4
 74
0
 40
0
 40
0
 40
0
 40
0
 40
1
 40
1
 40
1
 40
1
 10
1327.467120
 20
468.078309
 30
0.0
 10
1331.722792
 20
464.905989
 30
0.0
 10
1335.692544
 20
461.342125
 30
0.0
 10
1339.423368
 20
457.512685
 30
0.0
  0
LWPOLYLINE
  5
4ea
100
AcDbEntity
  8
dino
 62
1
100
AcDbPolyline
 90
4
 70
1
 10
1320.360872
 20
472.754869
 30
0.0
 10
1330.621808
 20
487.454869
 30
0.0
 10
1337.593680
 20
482.587685
 30
0.0
 10
1327.467120
 20
468.078309
 30
0.0
  0
SPLINE
  5
4eb
100
AcDbEntity
  8
dino
 62
1
100
AcDbSpline
 70
8
 71
3
 72
8
 73
4
 74
0
 40
0
 40
0
 40
0
 40
0
 40
1
 40
1
 40
1
 40
1
 10
1345.156184
 20
451.231437
 30
0.0
 10
1348.632848
 20
447.179677
 30
0.0
 10
1351.890256
 20
442.936341
 30
0.0
 10
1354.996808
 20
438.631437
 30
0.0
  0
LWPOLYLINE
  5
4ec
100
AcDbEntity
  8
dino
 62
1
100
AcDbPolyline
 90
4
 70
1
 10
1339.423368
 20
457.512685
 30
0.0
 10
1352.617120
 20
469.312685
 30
0.0
 10
1358.285872
 20
462.975181
 30
0.0
 10
1345.156184
 20
451.231437
 30
0.0
  0
SPLINE
  5
4ed
100
AcDbEntity
  8
dino
 62
1
100
AcDbSpline
 70
8
 71
3
 72
8
 73
4
 74
0
 40
0
 40
0
 40
0
 40
0
 40
1
 40
1
 40
1
 40
1
 10
1359.834304
 20
431.637685
 30
0.0
 10
1362.736296
 20
427.170181
 30
0.0
 10
1365.386512
 20
422.538757
 30
0.0
 10
1367.842120
 20
417.793933
 30
0.0
  0
LWPOLYLINE
  5
4ee
100
AcDbEntity
  8
dino
 62
1
100
AcDbPolyline
 90
4
 70
1
 10
1354.996808
 20
438.631437
 30
0.0
 10
1369.560872
 20
448.568933
 30
0.0
 10
1374.354616
 20
441.545493
 30
0.0
 10
1359.834304
 20
431.637685
 30
0.0
  0
SPLINE
  5
4ef
100
AcDbEntity
  8
dino
 62
1
100
AcDbSpline
 70
8
 71
3
 72
8
 73
4
 74
0
 40
0
 40
0
 40
0
 40
0
 40
1
 40
1
 40
1
 40
1
 10
1371.596808
 20
410.164245
 30
0.0
 10
1373.860248
 20
405.335149
 30
0.0
 10
1375.964936
 20
400.425285
 30
0.0
 10
1377.981184
 20
395.492373
 30
0.0
  0
LWPOLYLINE
  5
4f0
100
AcDbEntity
  8
dino
 62
1
100
AcDbPolyline
 90
4
 70
1
 10
1367.842120
 20
417.793933
 30
0.0
 10
1383.474928
 20
425.647061
 30
0.0
 10
1387.290560
 20
418.047061
 30
0.0
 10
1371.596808
 20
410.164245
 30
0.0
  0
SPLINE
  5
4f1
100
AcDbEntity
  8
dino
 62
1
100
AcDbSpline
 70
8
 71
3
 72
8
 73
4
 74
0
 40
0
 40
0
 40
0
 40
0
 40
1
 40
1
 40
1
 40
1
 10
1381.137432
 20
387.597061
 30
0.0
 10
1383.074872
 20
382.627797
 30
0.0
 10
1384.854352
 20
377.596917
 30
0.0
 10
1386.506184
 20
372.522061
 30
0.0
  0
LWPOLYLINE
  5
4f2
100
AcDbEntity
  8
dino
 62
1
100
AcDbPolyline
 90
4
 70
1
 10
1377.981184
 20
395.492373
 30
0.0
 10
1394.228056
 20
401.970501
 30
0.0
 10
1397.378056
 20
394.072061
 30
0.0
 10
1381.137432
 20
387.597061
 30
0.0
  0
SPLINE
  5
4f3
100
AcDbEntity
  8
dino
 62
1
100
AcDbSpline
 70
8
 71
3
 72
8
 73
4
 74
0
 40
0
 40
0
 40
0
 40
0
 40
1
 40
1
 40
1
 40
1
 10
1389.021808
 20
364.398621
 30
0.0
 10
1390.543968
 20
359.287341
 30
0.0
 10
1391.956808
 20
354.141925
 30
0.0
 10
1393.284304
 20
348.973621
 30
0.0
  0
LWPOLYLINE
  5
4f4
100
AcDbEntity
  8
dino
 62
1
100
AcDbPolyline
 90
4
 70
1
 10
1386.506184
 20
372.522061
 30
0.0
 10
1403.123368
 20
377.823621
 30
0.0
 10
1405.707744
 20
369.722061
 30
0.0
 10
1389.021808
 20
364.398621
 30
0.0
  0
SPLINE
  5
4f5
100
AcDbEntity
  8
dino
 62
1
100
AcDbSpline
 70
8
 71
3
 72
8
 73
4
 74
0
 40
0
 40
0
 40
0
 40
0
 40
1
 40
1
 40
1
 40
1
 10
1395.338992
 20
340.722061
 30
0.0
 10
1396.099584
 20
337.561661
 30
0.0
 10
1396.844936
 20
334.398933
 30
0.0
 10
1397.562432
 20
331.232997
 30
0.0
  0
SPLINE
  5
4f6
100
AcDbEntity
  8
dino
 62
1
100
AcDbSpline
 70
8
 71
3
 72
8
 73
4
 74
0
 40
0
 40
0
 40
0
 40
0
 40
1
 40
1
 40
1
 40
1
 10
1397.562432
 20
331.232997
 30
0.0
 10
1398.023616
 20
329.198037
 30
0.0
 10
1398.458024
 20
327.156637
 30
0.0
 10
1398.881184
 20
325.114245
 30
0.0
  0
LWPOLYLINE
  5
4f7
100
AcDbEntity
  8
dino
 62
1
100
AcDbPolyline
 90
4
 70
1
 10
1393.284304
 20
348.973621
 30
0.0
 10
1410.306184
 20
353.014245
 30
0.0
 10
1412.270240
 20
344.740813
 30
0.0
 10
1395.338992
 20
340.722061
 30
0.0
  0
SPLINE
  5
4f8
100
AcDbEntity
  8
dino
 62
1
100
AcDbSpline
 70
8
 71
3
 72
8
 73
4
 74
0
 40
0
 40
0
 40
0
 40
0
 40
1
 40
1
 40
1
 40
1
 10
1400.517120
 20
316.770501
 30
0.0
 10
1401.486944
 20
311.526221
 30
0.0
 10
1402.355496
 20
306.262501
 30
0.0
 10
1403.176496
 20
300.989245
 30
0.0
  0
LWPOLYLINE
  5
4f9
100
AcDbEntity
  8
dino
 62
1
100
AcDbPolyline
 90
4
 70
1
 10
1398.881184
 20
325.114245
 30
0.0
 10
1416.056184
 20
328.318933
 30
0.0
 10
1417.615560
 20
319.959557
 30
0.0
 10
1400.517120
 20
316.770501
 30
0.0
  0
SPLINE
  5
4fa
100
AcDbEntity
  8
dino
 62
1
100
AcDbSpline
 70
8
 71
3
 72
8
 73
4
 74
0
 40
0
 40
0
 40
0
 40
0
 40
1
 40
1
 40
1
 40
1
 10
1404.451496
 20
292.581437
 30
0.0
 10
1405.225624
 20
287.305341
 30
0.0
 10
1405.970440
 20
282.022957
 30
0.0
 10
1406.720240
 20
276.742373
 30
0.0
  0
LWPOLYLINE
  5
4fb
100
AcDbEntity
  8
dino
 62
1
100
AcDbPolyline
 90
4
 70
1
 10
1403.176496
 20
300.989245
 30
0.0
 10
1420.381184
 20
303.622061
 30
0.0
 10
1421.667120
 20
295.215813
 30
0.0
 10
1404.451496
 20
292.581437
 30
0.0
  0
SPLINE
  5
4fc
100
AcDbEntity
  8
dino
 62
1
100
AcDbSpline
 70
8
 71
3
 72
8
 73
4
 74
0
 40
0
 40
0
 40
0
 40
0
 40
1
 40
1
 40
1
 40
1
 10
1407.934304
 20
268.326749
 30
0.0
 10
1408.509224
 20
264.386349
 30
0.0
 10
1409.095408
 20
260.447789
 30
0.0
 10
1409.720240
 20
256.517373
 30
0.0
  0
SPLINE
  5
4fd
100
AcDbEntity
  8
dino
 62
1
100
AcDbSpline
 70
8
 71
3
 72
8
 73
4
 74
0
 40
0
 40
0
 40
0
 40
0
 40
1
 40
1
 40
1
 40
1
 10
1409.720240
 20
256.517373
 30
0.0
 10
1409.932528
 20
255.182053
 30
0.0
 10
1410.134080
 20
253.844837
 30
0.0
 10
1410.337432
 20
252.507997
 30
0.0
  0
LWPOLYLINE
  5
4fe
100
AcDbEntity
  8
dino
 62
1
100
AcDbPolyline
 90
4
 70
1
 10
1406.720240
 20
276.742373
 30
0.0
 10
1423.924928
 20
279.303309
 30
0.0
 10
1425.176496
 20
270.892373
 30
0.0
 10
1407.934304
 20
268.326749
 30
0.0
  0
SPLINE
  5
4ff
100
AcDbEntity
  8
dino
 62
1
100
AcDbSpline
 70
8
 71
3
 72
8
 73
4
 74
0
 40
0
 40
0
 40
0
 40
0
 40
1
 40
1
 40
1
 40
1
 10
1411.581184
 20
244.095493
 30
0.0
 10
1412.341520
 20
238.816349
 30
0.0
 10
1413.087152
 20
233.534781
 30
0.0
 10
1413.887432
 20
228.262685
 30
0.0
  0
LWPOLYLINE
  5
500
100
AcDbEntity
  8
dino
 62
1
100
AcDbPolyline
 90
4
 70
1
 10
1410.337432
 20
252.507997
 30
0.0
 10
1427.534304
 20
255.097061
 30
0.0
 10
1428.801496
 20
246.689245
 30
0.0
 10
1411.581184
 20
244.095493
 30
0.0
  0
SPLINE
  5
501
100
AcDbEntity
  8
dino
 62
1
100
AcDbSpline
 70
8
 71
3
 72
8
 73
4
 74
0
 40
0
 40
0
 40
0
 40
0
 40
1
 40
1
 40
1
 40
1
 10
1415.231184
 20
219.865813
 30
0.0
 10
1415.670576
 20
217.253693
 30
0.0
 10
1416.125328
 20
214.644365
 30
0.0
 10
1416.623368
 20
212.042373
 30
0.0
  0
SPLINE
  5
502
100
AcDbEntity
  8
dino
 62
1
100
AcDbSpline
 70
8
 71
3
 72
8
 73
4
 74
0
 40
0
 40
0
 40
0
 40
0
 40
1
 40
1
 40
1
 40
1
 10
1416.623368
 20
212.042373
 30
0.0
 10
1417.126688
 20
209.412813
 30
0.0
 10
1417.596992
 20
206.768829
 30
0.0
 10
1418.060872
 20
204.122061
 30
0.0
  0
LWPOLYLINE
  5
503
100
AcDbEntity
  8
dino
 62
1
100
AcDbPolyline
 90
4
 70
1
 10
1413.887432
 20
228.262685
 30
0.0
 10
1431.113992
 20
230.878309
 30
0.0
 10
1432.390560
 20
222.470501
 30
0.0
 10
1415.231184
 20
219.865813
 30
0.0
  0
SPLINE
  5
504
100
AcDbEntity
  8
dino
 62
1
100
AcDbSpline
 70
8
 71
3
 72
8
 73
4
 74
0
 40
0
 40
0
 40
0
 40
0
 40
1
 40
1
 40
1
 40
1
 10
1419.535872
 20
195.747059
 30
0.0
 10
1420.472384
 20
190.491007
 30
0.0
 10
1421.470584
 20
185.248594
 30
0.0
 10
1422.710872
 20
180.079872
 30
0.0
  0
LWPOLYLINE
  5
505
100
AcDbEntity
  8
dino
 62
1
100
AcDbPolyline
 90
4
 70
1
 10
1418.060872
 20
204.122061
 30
0.0
 10
1435.156184
 20
207.253309
 30
0.0
 10
1436.688992
 20
198.889245
 30
0.0
 10
1419.535872
 20
195.747059
 30
0.0
  0
SPLINE
  5
506
100
AcDbEntity
  8
dino
 62
1
100
AcDbSpline
 70
8
 71
3
 72
8
 73
4
 74
0
 40
0
 40
0
 40
0
 40
0
 40
1
 40
1
 40
1
 40
1
 10
1424.935872
 20
171.870497
 30
0.0
 10
1425.695120
 20
169.384524
 30
0.0
 10
1426.526520
 20
166.920218
 30
0.0
 10
1427.468680
 20
164.492372
 30
0.0
  0
SPLINE
  5
507
100
AcDbEntity
  8
dino
 62
1
100
AcDbSpline
 70
8
 71
3
 72
8
 73
4
 74
0
 40
0
 40
0
 40
0
 40
0
 40
1
 40
1
 40
1
 40
1
 10
1427.468680
 20
164.492372
 30
0.0
 10
1428.509728
 20
161.809703
 30
0.0
 10
1429.506392
 20
159.321139
 30
0.0
 10
1430.540560
 20
156.903310
 30
0.0
  0
LWPOLYLINE
  5
508
100
AcDbEntity
  8
dino
 62
1
100
AcDbPolyline
 90
4
 70
1
 10
1422.710872
 20
180.079872
 30
0.0
 10
1439.396808
 20
184.765810
 30
0.0
 10
1441.696808
 20
176.578310
 30
0.0
 10
1424.935872
 20
171.870497
 30
0.0
  0
SPLINE
  5
509
100
AcDbEntity
  8
dino
 62
1
100
AcDbSpline
 70
8
 71
3
 72
8
 73
4
 74
0
 40
0
 40
0
 40
0
 40
0
 40
1
 40
1
 40
1
 40
1
 10
1434.167120
 20
149.212684
 30
0.0
 10
1436.399680
 20
144.965359
 30
0.0
 10
1439.088288
 20
140.663991
 30
0.0
 10
1442.782744
 20
135.751747
 30
0.0
  0
LWPOLYLINE
  5
50a
100
AcDbEntity
  8
dino
 62
1
100
AcDbPolyline
 90
4
 70
1
 10
1430.540560
 20
156.903310
 30
0.0
 10
1446.420240
 20
164.162684
 30
0.0
 10
1449.956184
 20
156.429872
 30
0.0
 10
1434.167120
 20
149.212684
 30
0.0
  0
SPLINE
  5
50b
100
AcDbEntity
  8
dino
 62
1
100
AcDbSpline
 70
8
 71
3
 72
8
 73
4
 74
0
 40
0
 40
0
 40
0
 40
0
 40
1
 40
1
 40
1
 40
1
 10
1448.235912
 20
129.224206
 30
0.0
 10
1454.545896
 20
123.501469
 30
0.0
 10
1465.886528
 20
120.438353
 30
0.0
 10
1473.906224
 20
120.360143
 30
0.0
  0
LWPOLYLINE
  5
50c
100
AcDbEntity
  8
dino
 62
1
100
AcDbPolyline
 90
4
 70
1
 10
1442.782744
 20
135.751747
 30
0.0
 10
1456.607784
 20
146.588268
 30
0.0
 10
1461.853096
 20
139.896081
 30
0.0
 10
1448.235912
 20
129.224206
 30
0.0
  0
LWPOLYLINE
  5
50d
100
AcDbEntity
  8
dino
 62
1
100
AcDbPolyline
 90
2
 70
1
 10
1473.906224
 20
120.360143
 30
0.0
 10
1473.906224
 20
120.360143
 30
0.0
  0
ENDSEC
  0
SECTION
  2
OBJECTS
  0
DICTIONARY
  5
C
330
0
100
AcDbDictionary
  3
ACAD_GROUP
350
D
  3
ACAD_MLINESTYLE
350
17
  0
DICTIONARY
  5
D
330
C
100
AcDbDictionary
  0
DICTIONARY
  5
1A
330
C
100
AcDbDictionary
  0
DICTIONARY
  5
17
330
C
100
AcDbDictionary
  3
STANDARD
350
18
  0
DICTIONARY
  5
19
330
C
100
AcDbDictionary
  0
ENDSEC
  0
EOF
