0
SECTION
2
HEADER
9
$EXTMIN
10
0.823853
20
0.240387
9
$EXTMAX
10
38.202881
20
18.589447
0
ENDSEC
0
SECTION
2
TABLES
0
TABLE
2
LTYPE
70
1
0
LTYPE
2
0
70
0
3
Solid Line
72
65
73
0
40
0.0
0
ENDTAB
0
TABLE
2
LAYER
70
1
0
LAYER
2
1
70
0
62
7
6
0
0
ENDTAB
0
ENDSEC
0
SECTION
2
BLOCKS
0
ENDSEC
0
SECTION
2
ENTITIES
0
POLYLINE
8
1
66
1
70
1
0
VERTEX
8
1
10
18.252563
20
8.325378
42
-0.045976
0
VERTEX
8
1
10
18.771729
20
8.880829
0
VERTEX
8
1
10
18.825562
20
9.449066
42
-0.052148
0
VERTEX
8
1
10
18.471313
20
9.291199
0
VERTEX
8
1
10
18.453003
20
9.288452
42
-0.266464
0
VERTEX
8
1
10
18.246704
20
9.424011
0
VERTEX
8
1
10
18.236328
20
9.440125
42
-0.169385
0
VERTEX
8
1
10
18.226074
20
9.645172
42
-0.096945
0
VERTEX
8
1
10
18.402588
20
10.032959
42
-0.044338
0
VERTEX
8
1
10
18.759888
20
10.488525
0
VERTEX
8
1
10
18.717529
20
11.153961
42
-0.026622
0
VERTEX
8
1
10
18.383179
20
10.908173
42
-0.340754
0
VERTEX
8
1
10
18.151489
20
11.005493
42
-0.124519
0
VERTEX
8
1
10
18.118408
20
11.162292
42
-0.102814
0
VERTEX
8
1
10
18.195801
20
11.544250
42
-0.052844
0
VERTEX
8
1
10
18.447021
20
12.033966
0
VERTEX
8
1
10
18.296265
20
12.771423
42
-0.014897
0
VERTEX
8
1
10
18.045532
20
12.528534
0
VERTEX
8
1
10
18.024414
20
12.514130
42
-0.557022
0
VERTEX
8
1
10
17.691284
20
12.641174
42
-0.101758
0
VERTEX
8
1
10
17.688599
20
13.013184
42
-0.045222
0
VERTEX
8
1
10
17.841553
20
13.652832
0
VERTEX
8
1
10
17.549561
20
14.264130
42
-0.017341
0
VERTEX
8
1
10
17.319824
20
13.941010
42
-0.235808
0
VERTEX
8
1
10
17.114014
20
13.897461
42
-0.157660
0
VERTEX
8
1
10
16.996704
20
14.046204
42
-0.089982
0
VERTEX
8
1
10
16.920044
20
14.366547
42
-0.057431
0
VERTEX
8
1
10
16.932373
20
15.058990
42
0.011435
0
VERTEX
8
1
10
16.578491
20
15.645172
0
VERTEX
8
1
10
16.531982
20
15.538818
42
-0.086070
0
VERTEX
8
1
10
16.353027
20
15.245026
42
-0.253623
0
VERTEX
8
1
10
16.095947
20
15.172089
42
-0.200316
0
VERTEX
8
1
10
15.965820
20
15.326172
42
-0.074301
0
VERTEX
8
1
10
15.877441
20
15.666229
42
-0.035412
0
VERTEX
8
1
10
15.830078
20
16.269653
0
VERTEX
8
1
10
15.300171
20
16.795044
42
-0.014096
0
VERTEX
8
1
10
15.212280
20
16.354126
42
-0.194096
0
VERTEX
8
1
10
15.148682
20
16.286713
42
-0.092983
0
VERTEX
8
1
10
14.992432
20
16.222626
0
VERTEX
8
1
10
14.932617
20
16.226593
42
-0.186857
0
VERTEX
8
1
10
14.749634
20
16.371094
42
-0.081535
0
VERTEX
8
1
10
14.597046
20
16.696350
42
-0.042654
0
VERTEX
8
1
10
14.467896
20
17.243744
0
VERTEX
8
1
10
13.873169
20
17.684875
42
-0.018460
0
VERTEX
8
1
10
13.873169
20
17.222809
42
-0.322206
0
VERTEX
8
1
10
13.685791
20
17.063202
42
-0.160843
0
VERTEX
8
1
10
13.461792
20
17.156311
42
-0.093055
0
VERTEX
8
1
10
13.228882
20
17.427948
42
-0.055637
0
VERTEX
8
1
10
12.953369
20
17.996124
0
VERTEX
8
1
10
12.293945
20
18.285248
42
-0.029907
0
VERTEX
8
1
10
12.370117
20
17.754730
0
VERTEX
8
1
10
12.369141
20
17.725800
42
-0.456953
0
VERTEX
8
1
10
12.193848
20
17.575043
42
-0.129173
0
VERTEX
8
1
10
11.993896
20
17.642914
42
-0.083382
0
VERTEX
8
1
10
11.721069
20
17.871368
42
-0.054078
0
VERTEX
8
1
10
11.320679
20
18.417511
0
VERTEX
8
1
10
10.614014
20
18.589447
42
-0.047325
0
VERTEX
8
1
10
10.787964
20
18.128876
42
-0.512893
0
VERTEX
8
1
10
10.594482
20
17.889374
0
VERTEX
8
1
10
10.526611
20
17.897919
42
-0.112166
0
VERTEX
8
1
10
10.112793
20
18.112213
42
-0.053071
0
VERTEX
8
1
10
9.649414
20
18.559143
0
VERTEX
8
1
10
8.884888
20
18.575134
42
-0.019445
0
VERTEX
8
1
10
9.126221
20
18.180389
0
VERTEX
8
1
10
9.136719
20
18.151215
42
-0.459700
0
VERTEX
8
1
10
8.985840
20
17.874817
0
VERTEX
8
1
10
8.927246
20
17.869965
0
VERTEX
8
1
10
8.861938
20
17.872925
42
-0.112342
0
VERTEX
8
1
10
8.370850
20
18.068878
42
-0.025766
0
VERTEX
8
1
10
7.964844
20
18.349182
0
VERTEX
8
1
10
7.945435
20
18.360657
0
VERTEX
8
1
10
7.924683
20
18.359741
42
0.011249
0
VERTEX
8
1
10
7.211426
20
18.260529
0
VERTEX
8
1
10
7.519043
20
17.969330
42
-0.292560
0
VERTEX
8
1
10
7.578491
20
17.809784
42
-0.213451
0
VERTEX
8
1
10
7.421753
20
17.565521
0
VERTEX
8
1
10
7.380371
20
17.550415
0
VERTEX
8
1
10
7.315430
20
17.539398
42
-0.106786
0
VERTEX
8
1
10
6.875488
20
17.614624
42
-0.051111
0
VERTEX
8
1
10
6.332397
20
17.874237
0
VERTEX
8
1
10
5.682983
20
17.660004
42
0.015953
0
VERTEX
8
1
10
6.053223
20
17.350433
42
-0.162298
0
VERTEX
8
1
10
6.084961
20
17.281281
42
-0.163670
0
VERTEX
8
1
10
6.052612
20
17.025238
42
-0.164341
0
VERTEX
8
1
10
5.854126
20
16.945557
42
-0.069077
0
VERTEX
8
1
10
5.520752
20
16.948425
42
-0.037668
0
VERTEX
8
1
10
4.932617
20
17.059174
0
VERTEX
8
1
10
4.285767
20
16.702881
0
VERTEX
8
1
10
4.629028
20
16.518341
42
-0.258851
0
VERTEX
8
1
10
4.713379
20
16.407562
42
-0.135292
0
VERTEX
8
1
10
4.703369
20
16.176575
0
VERTEX
8
1
10
4.680298
20
16.134613
42
-0.159362
0
VERTEX
8
1
10
4.482788
20
16.014587
42
-0.075067
0
VERTEX
8
1
10
4.130005
20
15.966095
42
-0.041710
0
VERTEX
8
1
10
3.548828
20
16.001495
0
VERTEX
8
1
10
3.030029
20
15.529480
42
0.027802
0
VERTEX
8
1
10
3.391846
20
15.417236
42
-0.354896
0
VERTEX
8
1
10
3.547485
20
15.173615
0
VERTEX
8
1
10
3.532837
20
15.110840
42
-0.164661
0
VERTEX
8
1
10
3.371704
20
14.931824
42
-0.084028
0
VERTEX
8
1
10
3.054077
20
14.800446
42
-0.048041
0
VERTEX
8
1
10
2.541138
20
14.714661
0
VERTEX
8
1
10
2.049683
20
14.185944
0
VERTEX
8
1
10
2.464966
20
14.143005
42
-0.313966
0
VERTEX
8
1
10
2.618408
20
14.044861
42
-0.194933
0
VERTEX
8
1
10
2.630249
20
13.873169
42
-0.139337
0
VERTEX
8
1
10
2.508423
20
13.669250
42
-0.090057
0
VERTEX
8
1
10
2.263184
20
13.492950
42
-0.065502
0
VERTEX
8
1
10
1.688721
20
13.284515
0
VERTEX
8
1
10
1.315308
20
12.643646
0
VERTEX
8
1
10
1.708984
20
12.654938
42
-0.202897
0
VERTEX
8
1
10
1.883667
20
12.605164
42
-0.341742
0
VERTEX
8
1
10
1.932739
20
12.309631
42
-0.114716
0
VERTEX
8
1
10
1.662598
20
12.011749
42
-0.050706
0
VERTEX
8
1
10
1.112305
20
11.669250
0
VERTEX
8
1
10
0.939209
20
11.011261
0
VERTEX
8
1
10
1.264893
20
11.111877
42
-0.231162
0
VERTEX
8
1
10
1.447388
20
11.102051
42
-0.354503
0
VERTEX
8
1
10
1.532715
20
10.741211
42
-0.101297
0
VERTEX
8
1
10
1.305908
20
10.399292
42
-0.048881
0
VERTEX
8
1
10
0.869263
20
10.011780
0
VERTEX
8
1
10
0.823853
20
9.310791
42
-0.037170
0
VERTEX
8
1
10
1.163452
20
9.495697
42
-0.298739
0
VERTEX
8
1
10
1.361084
20
9.444733
42
-0.127200
0
VERTEX
8
1
10
1.459229
20
9.299225
0
VERTEX
8
1
10
1.465576
20
9.248932
0
VERTEX
8
1
10
1.461426
20
9.193024
42
-0.096888
0
VERTEX
8
1
10
1.320068
20
8.861206
42
-0.042684
0
VERTEX
8
1
10
0.968140
20
8.380402
0
VERTEX
8
1
10
0.982422
20
7.679749
42
-0.025379
0
VERTEX
8
1
10
1.305420
20
7.934174
42
-0.113850
0
VERTEX
8
1
10
1.423950
20
7.970581
42
-0.155305
0
VERTEX
8
1
10
1.606689
20
7.887604
0
VERTEX
8
1
10
1.633667
20
7.854797
42
-0.154877
0
VERTEX
8
1
10
1.673096
20
7.624634
42
-0.080792
0
VERTEX
8
1
10
1.587158
20
7.289032
42
-0.047066
0
VERTEX
8
1
10
1.328979
20
6.779755
0
VERTEX
8
1
10
1.501465
20
6.107208
42
0.014949
0
VERTEX
8
1
10
1.770996
20
6.388702
0
VERTEX
8
1
10
1.784790
20
6.399292
0
VERTEX
8
1
10
1.799561
20
6.408600
42
-0.236069
0
VERTEX
8
1
10
2.060425
20
6.401367
42
-0.267898
0
VERTEX
8
1
10
2.156250
20
6.307251
0
VERTEX
8
1
10
2.167480
20
6.256653
42
-0.084990
0
VERTEX
8
1
10
2.135010
20
5.886810
42
-0.032299
0
VERTEX
8
1
10
1.977295
20
5.319885
0
VERTEX
8
1
10
2.265015
20
4.664581
0
VERTEX
8
1
10
2.403198
20
4.891846
42
-0.145476
0
VERTEX
8
1
10
2.536255
20
5.032562
42
-0.145985
0
VERTEX
8
1
10
2.762451
20
5.050018
0
VERTEX
8
1
10
2.802002
20
5.034760
42
-0.187380
0
VERTEX
8
1
10
2.905518
20
4.866150
42
-0.075748
0
VERTEX
8
1
10
2.942383
20
4.537811
42
-0.037859
0
VERTEX
8
1
10
2.900146
20
3.976471
0
VERTEX
8
1
10
3.289429
20
3.347137
0
VERTEX
8
1
10
3.447876
20
3.731201
42
-0.257084
0
VERTEX
8
1
10
3.531616
20
3.803131
42
-0.116912
0
VERTEX
8
1
10
3.720459
20
3.820435
0
VERTEX
8
1
10
3.754028
20
3.809509
42
-0.147792
0
VERTEX
8
1
10
3.892090
20
3.638947
42
-0.078389
0
VERTEX
8
1
10
3.979614
20
3.327026
42
-0.047014
0
VERTEX
8
1
10
4.010376
20
2.791473
0
VERTEX
8
1
10
4.514526
20
2.289642
0
VERTEX
8
1
10
4.551758
20
2.467163
42
-0.039304
0
VERTEX
8
1
10
4.590210
20
2.663055
42
-0.480441
0
VERTEX
8
1
10
4.941772
20
2.764679
0
VERTEX
8
1
10
4.986694
20
2.727448
42
-0.099831
0
VERTEX
8
1
10
5.175903
20
2.422272
42
-0.046360
0
VERTEX
8
1
10
5.351440
20
1.874481
0
VERTEX
8
1
10
5.913574
20
1.417236
42
-0.016048
0
VERTEX
8
1
10
5.924805
20
1.820313
42
-0.187646
0
VERTEX
8
1
10
5.972778
20
1.900543
42
-0.075269
0
VERTEX
8
1
10
6.107422
20
1.990723
42
-0.248703
0
VERTEX
8
1
10
6.253174
20
2.017670
0
VERTEX
8
1
10
6.302246
20
1.994110
42
-0.097785
0
VERTEX
8
1
10
6.495117
20
1.788208
42
-0.049090
0
VERTEX
8
1
10
6.807251
20
1.174347
0
VERTEX
8
1
10
7.427612
20
0.859283
42
-0.014250
0
VERTEX
8
1
10
7.422852
20
1.261993
42
-0.266593
0
VERTEX
8
1
10
7.520996
20
1.395935
42
-0.064711
0
VERTEX
8
1
10
7.688232
20
1.475250
42
-0.199270
0
VERTEX
8
1
10
7.829956
20
1.444946
42
-0.086359
0
VERTEX
8
1
10
8.004028
20
1.304291
42
-0.054043
0
VERTEX
8
1
10
8.377563
20
0.776337
0
VERTEX
8
1
10
9.055542
20
0.587982
42
-0.025670
0
VERTEX
8
1
10
8.943481
20
0.911774
42
-0.169285
0
VERTEX
8
1
10
8.970825
20
1.094940
42
-0.095989
0
VERTEX
8
1
10
9.134644
20
1.221588
42
-0.191140
0
VERTEX
8
1
10
9.330322
20
1.199219
42
-0.077725
0
VERTEX
8
1
10
9.606323
20
1.024170
42
-0.038659
0
VERTEX
8
1
10
10.008423
20
0.644806
0
VERTEX
8
1
10
10.700439
20
0.587646
0
VERTEX
8
1
10
10.569214
20
0.839386
42
-0.384752
0
VERTEX
8
1
10
10.619629
20
1.205688
0
VERTEX
8
1
10
10.670044
20
1.235016
0
VERTEX
8
1
10
10.726807
20
1.250977
0
VERTEX
8
1
10
10.788574
20
1.254852
42
-0.117161
0
VERTEX
8
1
10
11.130615
20
1.144409
42
-0.053913
0
VERTEX
8
1
10
11.608032
20
0.817261
0
VERTEX
8
1
10
12.300781
20
0.873535
0
VERTEX
8
1
10
12.055664
20
1.196075
42
-0.290346
0
VERTEX
8
1
10
12.021606
20
1.307098
42
-0.177896
0
VERTEX
8
1
10
12.113159
20
1.462006
42
-0.234321
0
VERTEX
8
1
10
12.334473
20
1.552917
42
-0.090398
0
VERTEX
8
1
10
12.650391
20
1.497589
42
-0.046484
0
VERTEX
8
1
10
13.181030
20
1.274139
0
VERTEX
8
1
10
13.841797
20
1.473541
0
VERTEX
8
1
10
13.552490
20
1.735107
42
-0.235474
0
VERTEX
8
1
10
13.474976
20
1.884247
42
-0.109084
0
VERTEX
8
1
10
13.543823
20
2.058807
42
-0.185816
0
VERTEX
8
1
10
13.728271
20
2.139954
42
-0.074325
0
VERTEX
8
1
10
14.067261
20
2.133636
42
-0.037279
0
VERTEX
8
1
10
14.636841
20
2.017578
0
VERTEX
8
1
10
15.242554
20
2.346344
0
VERTEX
8
1
10
14.916382
20
2.527283
42
-0.277102
0
VERTEX
8
1
10
14.818481
20
2.660522
42
-0.152221
0
VERTEX
8
1
10
14.844727
20
2.830688
42
-0.182962
0
VERTEX
8
1
10
15.014648
20
2.947205
42
-0.071981
0
VERTEX
8
1
10
15.338989
20
3.005890
42
-0.038126
0
VERTEX
8
1
10
15.932251
20
3.004395
0
VERTEX
8
1
10
16.434937
20
3.464691
0
VERTEX
8
1
10
16.057373
20
3.576263
42
-0.275071
0
VERTEX
8
1
10
15.986694
20
3.640564
0
VERTEX
8
1
10
15.977783
20
3.660980
42
-0.244549
0
VERTEX
8
1
10
16.019531
20
3.937988
0
VERTEX
8
1
10
16.034424
20
3.954956
42
-0.130488
0
VERTEX
8
1
10
16.347168
20
4.113007
42
-0.060347
0
VERTEX
8
1
10
16.965576
20
4.205139
0
VERTEX
8
1
10
17.462769
20
4.773590
0
VERTEX
8
1
10
17.137085
20
4.781738
42
-0.388825
0
VERTEX
8
1
10
16.901611
20
4.989868
0
VERTEX
8
1
10
16.904541
20
5.032410
42
-0.154909
0
VERTEX
8
1
10
17.025146
20
5.241333
42
-0.086587
0
VERTEX
8
1
10
17.304688
20
5.436279
42
-0.050851
0
VERTEX
8
1
10
17.860718
20
5.652222
0
VERTEX
8
1
10
18.219971
20
6.221252
0
VERTEX
8
1
10
17.798462
20
6.232056
42
-0.443677
0
VERTEX
8
1
10
17.617554
20
6.461517
42
-0.150986
0
VERTEX
8
1
10
17.696289
20
6.639313
42
-0.093442
0
VERTEX
8
1
10
17.996216
20
6.909973
42
-0.022465
0
VERTEX
8
1
10
18.425293
20
7.167542
0
VERTEX
8
1
10
18.437500
20
7.178741
0
VERTEX
8
1
10
18.673706
20
7.817657
42
-0.010874
0
VERTEX
8
1
10
18.265015
20
7.691864
42
-0.514021
0
VERTEX
8
1
10
18.050293
20
7.909698
42
-0.080639
0
VERTEX
8
1
10
18.081543
20
8.023071
42
-0.071707
0
SEQEND
0
POLYLINE
8
1
66
1
70
1
0
VERTEX
8
1
10
4.152588
20
14.905823
42
-0.147449
0
VERTEX
8
1
10
8.069946
20
17.205200
42
0.069446
0
VERTEX
8
1
10
8.075073
20
16.828400
42
-0.154019
0
VERTEX
8
1
10
8.024658
20
16.857574
0
VERTEX
8
1
10
7.873657
20
17.019989
42
0.415561
0
VERTEX
8
1
10
7.842896
20
17.027649
42
0.157194
0
VERTEX
8
1
10
7.922485
20
16.310394
0
VERTEX
8
1
10
7.924438
20
16.289398
0
VERTEX
8
1
10
7.906982
20
16.290924
0
VERTEX
8
1
10
7.692017
20
16.343140
42
0.580406
0
VERTEX
8
1
10
7.631958
20
16.281952
0
VERTEX
8
1
10
7.633789
20
16.260681
42
0.098308
0
VERTEX
8
1
10
7.865479
20
15.704346
42
0.044855
0
VERTEX
8
1
10
7.677734
20
15.703552
42
0.411889
0
VERTEX
8
1
10
7.655273
20
15.653687
42
0.046676
0
VERTEX
8
1
10
7.838867
20
15.233917
42
0.068130
0
VERTEX
8
1
10
7.869019
20
15.199371
42
-0.170171
0
VERTEX
8
1
10
7.773315
20
15.093048
42
0.249377
0
VERTEX
8
1
10
7.764404
20
15.059235
42
-0.063182
0
VERTEX
8
1
10
7.858032
20
14.879730
42
0.080425
0
VERTEX
8
1
10
7.974731
20
14.697968
0
VERTEX
8
1
10
7.980347
20
14.683533
42
-0.107412
0
VERTEX
8
1
10
7.946899
20
14.569336
42
0.161747
0
VERTEX
8
1
10
7.947266
20
14.499817
42
-0.017056
0
VERTEX
8
1
10
8.105347
20
14.237549
0
VERTEX
8
1
10
8.105347
20
14.136627
42
0.149850
0
VERTEX
8
1
10
8.138672
20
13.965759
42
-0.086589
0
VERTEX
8
1
10
8.261230
20
13.830658
42
-0.175338
0
VERTEX
8
1
10
8.263184
20
13.744324
42
0.078928
0
VERTEX
8
1
10
8.264893
20
13.648438
42
-0.060138
0
VERTEX
8
1
10
8.358643
20
13.432709
42
0.008227
0
VERTEX
8
1
10
7.519287
20
14.252594
42
0.090819
0
VERTEX
8
1
10
7.385498
20
14.340454
42
0.075148
0
VERTEX
8
1
10
6.563721
20
14.597351
42
0.078269
0
VERTEX
8
1
10
6.057617
20
14.582306
42
-0.048428
0
VERTEX
8
1
10
4.444336
20
14.788849
0
VERTEX
8
1
10
4.330200
20
14.818390
0
VERTEX
8
1
10
4.218994
20
14.850433
0
SEQEND
0
POLYLINE
8
1
66
1
70
1
0
VERTEX
8
1
10
3.792358
20
14.489502
0
VERTEX
8
1
10
3.857910
20
14.569885
0
VERTEX
8
1
10
4.067261
20
14.445862
0
VERTEX
8
1
10
4.067261
20
14.440643
42
-0.030733
0
VERTEX
8
1
10
3.795898
20
14.482544
0
SEQEND
0
POLYLINE
8
1
66
1
70
1
0
VERTEX
8
1
10
2.849487
20
13.009033
0
VERTEX
8
1
10
2.946655
20
13.201324
0
VERTEX
8
1
10
2.951782
20
13.121857
42
-0.196667
0
VERTEX
8
1
10
2.933228
20
13.034912
0
VERTEX
8
1
10
2.852539
20
13.004272
0
SEQEND
0
POLYLINE
8
1
66
1
70
1
0
VERTEX
8
1
10
3.423096
20
5.106140
42
-0.254148
0
VERTEX
8
1
10
2.662842
20
12.598572
0
VERTEX
8
1
10
2.690063
20
12.653168
42
0.012385
0
VERTEX
8
1
10
2.796631
20
11.874573
42
-0.010743
0
VERTEX
8
1
10
2.806885
20
11.283691
42
0.007039
0
VERTEX
8
1
10
2.857910
20
10.474091
42
0.078770
0
VERTEX
8
1
10
2.952759
20
10.119293
42
0.243382
0
VERTEX
8
1
10
3.107544
20
9.989502
0
VERTEX
8
1
10
3.128052
20
9.978699
0
VERTEX
8
1
10
3.267578
20
8.835327
42
0.095896
0
VERTEX
8
1
10
3.071777
20
8.893829
42
0.510462
0
VERTEX
8
1
10
3.029053
20
8.843597
0
VERTEX
8
1
10
3.031494
20
8.829773
0
VERTEX
8
1
10
3.137939
20
8.549622
42
-0.087752
0
VERTEX
8
1
10
3.242188
20
7.987610
42
0.000500
0
VERTEX
8
1
10
3.478760
20
5.057251
0
SEQEND
0
POLYLINE
8
1
66
1
70
1
0
VERTEX
8
1
10
4.647339
20
3.752228
0
VERTEX
8
1
10
4.638306
20
3.713196
0
VERTEX
8
1
10
4.595825
20
3.752136
42
-0.104857
0
SEQEND
0
POLYLINE
8
1
66
1
70
1
0
VERTEX
8
1
10
6.572754
20
2.907196
0
VERTEX
8
1
10
5.911499
20
2.772675
42
-0.041517
0
VERTEX
8
1
10
4.848145
20
3.529755
0
VERTEX
8
1
10
4.820557
20
3.557617
0
VERTEX
8
1
10
4.863770
20
3.752869
42
-0.010366
0
VERTEX
8
1
10
6.285522
20
3.725800
0
VERTEX
8
1
10
6.333252
20
3.715698
42
0.017931
0
VERTEX
8
1
10
6.586548
20
2.922150
0
SEQEND
0
POLYLINE
8
1
66
1
70
1
0
VERTEX
8
1
10
6.675781
20
3.418182
42
-0.002091
0
VERTEX
8
1
10
6.579468
20
3.711975
0
VERTEX
8
1
10
6.629150
20
3.709229
0
VERTEX
8
1
10
6.634766
20
3.692841
0
SEQEND
0
POLYLINE
8
1
66
1
70
1
0
VERTEX
8
1
10
6.897461
20
2.279663
42
-0.028091
0
VERTEX
8
1
10
6.174316
20
2.623322
42
-0.014335
0
VERTEX
8
1
10
6.717285
20
2.673096
0
VERTEX
8
1
10
6.748535
20
2.622070
42
-0.046419
0
VERTEX
8
1
10
6.893799
20
2.298157
0
SEQEND
0
POLYLINE
8
1
66
1
70
1
0
VERTEX
8
1
10
6.917847
20
3.096375
42
-0.039187
0
VERTEX
8
1
10
6.912598
20
3.690277
42
0.022171
0
VERTEX
8
1
10
7.380981
20
3.668304
0
VERTEX
8
1
10
7.443237
20
3.671600
42
0.118751
0
VERTEX
8
1
10
7.599854
20
3.709747
42
0.465608
0
VERTEX
8
1
10
7.602417
20
3.762909
42
0.104240
0
VERTEX
8
1
10
7.461182
20
3.849152
42
0.067039
0
VERTEX
8
1
10
6.886475
20
3.976685
42
0.478941
0
VERTEX
8
1
10
6.785400
20
3.987183
0
VERTEX
8
1
10
6.760986
20
3.987732
42
-0.088790
0
VERTEX
8
1
10
6.720825
20
4.100800
42
-0.017245
0
VERTEX
8
1
10
6.617310
20
4.835388
0
VERTEX
8
1
10
6.635010
20
4.863281
42
-0.012618
0
VERTEX
8
1
10
9.054077
20
5.079773
42
-0.021802
0
VERTEX
8
1
10
9.745728
20
5.094635
42
-0.024270
0
VERTEX
8
1
10
9.955444
20
5.072296
0
VERTEX
8
1
10
10.006958
20
5.055817
0
VERTEX
8
1
10
10.032837
20
5.034515
0
VERTEX
8
1
10
10.030884
20
5.008057
0
VERTEX
8
1
10
10.003418
20
4.976196
0
VERTEX
8
1
10
9.965698
20
4.944794
42
-0.059296
0
VERTEX
8
1
10
9.687622
20
4.806152
42
0.011438
0
VERTEX
8
1
10
9.233643
20
4.639862
0
VERTEX
8
1
10
9.202393
20
4.623108
0
VERTEX
8
1
10
9.180908
20
4.607117
0
VERTEX
8
1
10
9.170776
20
4.591858
0
VERTEX
8
1
10
9.172852
20
4.577301
0
VERTEX
8
1
10
9.188477
20
4.563416
0
VERTEX
8
1
10
9.218994
20
4.550140
42
0.055008
0
VERTEX
8
1
10
9.736206
20
4.488892
42
0.030234
0
VERTEX
8
1
10
10.492188
20
4.513947
42
0.011563
0
VERTEX
8
1
10
12.477295
20
4.743835
0
VERTEX
8
1
10
12.522949
20
4.732361
0
VERTEX
8
1
10
12.325562
20
3.956238
0
VERTEX
8
1
10
9.996826
20
3.767059
42
0.015361
0
VERTEX
8
1
10
8.601318
20
3.618927
42
0.041768
0
VERTEX
8
1
10
8.442627
20
3.582123
0
VERTEX
8
1
10
8.422485
20
3.569000
0
VERTEX
8
1
10
8.411255
20
3.553955
42
0.341110
0
VERTEX
8
1
10
8.438232
20
3.513489
42
0.065048
0
VERTEX
8
1
10
8.633545
20
3.460938
42
0.024523
0
VERTEX
8
1
10
9.353271
20
3.395996
42
-0.012302
0
VERTEX
8
1
10
11.904785
20
3.624146
42
-0.014237
0
VERTEX
8
1
10
12.252930
20
3.634247
0
VERTEX
8
1
10
12.222290
20
3.459473
42
-0.047259
0
VERTEX
8
1
10
12.196167
20
3.241150
42
0.084409
0
VERTEX
8
1
10
11.986816
20
3.145294
42
0.507273
0
VERTEX
8
1
10
11.998413
20
3.107086
42
0.079518
0
VERTEX
8
1
10
12.145508
20
3.067139
0
VERTEX
8
1
10
12.161499
20
3.059875
0
VERTEX
8
1
10
12.104248
20
2.813995
42
0.012439
0
VERTEX
8
1
10
10.252686
20
2.810211
42
0.022472
0
VERTEX
8
1
10
9.432251
20
2.742035
42
0.003474
0
VERTEX
8
1
10
8.300049
20
2.518677
42
-0.082445
0
VERTEX
8
1
10
8.077637
20
2.516724
42
-0.315464
0
VERTEX
8
1
10
8.000488
20
2.607391
42
-0.137020
0
VERTEX
8
1
10
8.020020
20
2.770081
42
0.032936
0
VERTEX
8
1
10
8.097656
20
2.999939
0
VERTEX
8
1
10
8.101196
20
3.028168
42
0.407390
0
VERTEX
8
1
10
8.015625
20
3.146179
0
VERTEX
8
1
10
7.976807
20
3.154755
42
0.069547
0
VERTEX
8
1
10
7.636230
20
3.133728
42
0.004395
0
VERTEX
8
1
10
6.950317
20
2.987946
0
VERTEX
8
1
10
6.937378
20
2.998962
0
SEQEND
0
POLYLINE
8
1
66
1
70
1
0
VERTEX
8
1
10
14.155029
20
4.435364
42
0.069434
0
VERTEX
8
1
10
14.497192
20
4.411163
42
0.041041
0
VERTEX
8
1
10
14.510986
20
3.349121
0
VERTEX
8
1
10
14.495972
20
3.314606
42
-0.032244
0
VERTEX
8
1
10
13.833374
20
3.264404
42
-0.061635
0
VERTEX
8
1
10
13.611328
20
3.298950
0
VERTEX
8
1
10
13.588867
20
3.309204
42
-0.442927
0
VERTEX
8
1
10
13.548096
20
3.414490
0
VERTEX
8
1
10
13.565063
20
3.464539
42
-0.074233
0
VERTEX
8
1
10
13.828613
20
3.866058
42
0.066154
0
VERTEX
8
1
10
13.937256
20
4.041840
42
0.432660
0
VERTEX
8
1
10
13.903320
20
4.098785
0
VERTEX
8
1
10
13.873657
20
4.104858
42
0.063768
0
VERTEX
8
1
10
13.672485
20
4.086700
42
-0.014111
0
VERTEX
8
1
10
12.570190
20
3.976471
0
VERTEX
8
1
10
12.550171
20
4.000305
0
VERTEX
8
1
10
12.728271
20
4.770660
0
VERTEX
8
1
10
12.796387
20
4.784607
42
-0.013145
0
VERTEX
8
1
10
13.715332
20
4.882111
0
VERTEX
8
1
10
13.785889
20
4.884277
42
-0.039635
0
VERTEX
8
1
10
14.037842
20
4.873291
42
-0.397918
0
VERTEX
8
1
10
14.106812
20
4.770538
0
VERTEX
8
1
10
14.103149
20
4.746246
42
0.011559
0
VERTEX
8
1
10
14.047852
20
4.568817
42
0.385646
0
VERTEX
8
1
10
14.118408
20
4.448700
0
SEQEND
0
POLYLINE
8
1
66
1
70
1
0
VERTEX
8
1
10
12.824097
20
3.595612
42
-0.430106
0
VERTEX
8
1
10
12.845215
20
3.555542
42
-0.138199
0
VERTEX
8
1
10
12.736328
20
3.462097
42
-0.059312
0
VERTEX
8
1
10
12.398193
20
3.311310
0
VERTEX
8
1
10
12.470093
20
3.638611
42
-0.070348
0
VERTEX
8
1
10
12.807007
20
3.603394
0
SEQEND
0
POLYLINE
8
1
66
1
70
1
0
VERTEX
8
1
10
7.050049
20
2.414215
0
VERTEX
8
1
10
7.013062
20
2.667053
42
-0.445284
0
VERTEX
8
1
10
7.095337
20
2.562042
42
-0.055320
0
SEQEND
0
POLYLINE
8
1
66
1
70
1
0
VERTEX
8
1
10
12.019775
20
2.480957
0
VERTEX
8
1
10
11.855591
20
1.911957
42
-0.154879
0
VERTEX
8
1
10
7.077637
20
2.205566
0
VERTEX
8
1
10
7.070801
20
2.259888
42
0.135606
0
VERTEX
8
1
10
7.285522
20
2.204834
42
0.043576
0
VERTEX
8
1
10
8.020264
20
2.250824
42
-0.022025
0
VERTEX
8
1
10
9.567871
20
2.412689
42
-0.017391
0
VERTEX
8
1
10
12.001099
20
2.489960
0
SEQEND
0
POLYLINE
8
1
66
1
70
1
0
VERTEX
8
1
10
13.380737
20
2.469849
42
-0.046155
0
VERTEX
8
1
10
12.031006
20
1.958252
0
VERTEX
8
1
10
12.149048
20
2.169891
0
VERTEX
8
1
10
12.219727
20
2.489655
42
-0.007018
0
SEQEND
0
POLYLINE
8
1
66
1
70
1
0
VERTEX
8
1
10
14.539551
20
3.168488
42
-0.030571
0
VERTEX
8
1
10
13.884399
20
2.739258
42
0.009545
0
VERTEX
8
1
10
12.358521
20
2.806854
0
VERTEX
8
1
10
12.289429
20
2.812134
0
VERTEX
8
1
10
12.338623
20
3.038177
0
VERTEX
8
1
10
12.342407
20
3.043579
42
0.040070
0
VERTEX
8
1
10
12.960083
20
3.034363
42
0.017688
0
VERTEX
8
1
10
14.535034
20
3.189056
0
SEQEND
0
POLYLINE
8
1
66
1
70
1
0
VERTEX
8
1
10
14.642944
20
4.308136
42
-0.076614
0
VERTEX
8
1
10
14.600708
20
4.416321
0
VERTEX
8
1
10
14.651001
20
4.419769
42
-0.092392
0
VERTEX
8
1
10
14.648315
20
4.307190
0
SEQEND
0
POLYLINE
8
1
66
1
70
1
0
VERTEX
8
1
10
15.525024
20
4.010468
42
-0.026045
0
VERTEX
8
1
10
14.912842
20
3.453247
42
0.052232
0
VERTEX
8
1
10
14.956665
20
3.796875
42
0.106893
0
VERTEX
8
1
10
14.947144
20
3.831787
0
VERTEX
8
1
10
14.881104
20
3.892944
42
-0.028041
0
VERTEX
8
1
10
14.788086
20
3.648529
0
VERTEX
8
1
10
14.777832
20
3.632935
0
VERTEX
8
1
10
14.768677
20
3.624054
0
VERTEX
8
1
10
14.760864
20
3.623169
42
-0.166151
0
VERTEX
8
1
10
14.750244
20
3.665009
42
-0.012080
0
VERTEX
8
1
10
14.802979
20
4.433044
42
0.005323
0
VERTEX
8
1
10
15.457520
20
4.517090
42
0.010644
0
VERTEX
8
1
10
15.540894
20
4.046906
0
SEQEND
0
POLYLINE
8
1
66
1
70
1
0
VERTEX
8
1
10
15.781616
20
4.282318
0
VERTEX
8
1
10
15.659912
20
4.150208
42
0.035938
0
VERTEX
8
1
10
15.625488
20
4.537781
0
VERTEX
8
1
10
15.777588
20
4.554810
0
SEQEND
0
POLYLINE
8
1
66
1
70
1
0
VERTEX
8
1
10
16.036743
20
4.580322
0
VERTEX
8
1
10
15.935669
20
4.458527
0
VERTEX
8
1
10
15.935669
20
4.570831
0
SEQEND
0
POLYLINE
8
1
66
1
70
1
0
VERTEX
8
1
10
17.802002
20
9.604248
42
-0.087157
0
VERTEX
8
1
10
17.352783
20
6.920746
42
0.030876
0
VERTEX
8
1
10
17.156860
20
7.577972
42
0.044248
0
VERTEX
8
1
10
17.039673
20
7.801117
0
VERTEX
8
1
10
17.016846
20
7.826233
0
VERTEX
8
1
10
16.999023
20
7.834686
0
VERTEX
8
1
10
16.985840
20
7.826874
0
VERTEX
8
1
10
16.977539
20
7.804077
0
VERTEX
8
1
10
16.973389
20
7.767639
42
0.038033
0
VERTEX
8
1
10
16.991699
20
7.510803
42
0.007428
0
VERTEX
8
1
10
17.165039
20
6.459106
0
VERTEX
8
1
10
17.154419
20
6.416840
42
-0.022724
0
VERTEX
8
1
10
16.838257
20
5.771179
0
VERTEX
8
1
10
16.834106
20
5.774506
42
0.203970
0
VERTEX
8
1
10
16.814453
20
5.866150
0
VERTEX
8
1
10
16.810791
20
5.866119
42
0.162645
0
VERTEX
8
1
10
16.774902
20
5.825470
42
0.058489
0
VERTEX
8
1
10
16.628906
20
5.418091
0
VERTEX
8
1
10
16.616821
20
5.392365
42
-0.017430
0
VERTEX
8
1
10
16.310059
20
4.936188
0
VERTEX
8
1
10
16.291626
20
4.923370
0
VERTEX
8
1
10
15.944336
20
4.855499
0
VERTEX
8
1
10
15.935181
20
4.932068
42
0.005289
0
VERTEX
8
1
10
15.912720
20
7.791962
42
-0.039848
0
VERTEX
8
1
10
15.906494
20
7.872040
42
-0.164456
0
VERTEX
8
1
10
15.921509
20
7.893127
42
0.048713
0
VERTEX
8
1
10
16.025269
20
7.953674
42
0.344149
0
VERTEX
8
1
10
16.042480
20
8.214386
42
-0.320993
0
VERTEX
8
1
10
16.052734
20
8.256714
42
-0.215617
0
VERTEX
8
1
10
16.212402
20
8.354553
42
-0.020238
0
VERTEX
8
1
10
16.345215
20
8.367310
42
0.355206
0
VERTEX
8
1
10
16.389526
20
8.426544
42
0.153295
0
VERTEX
8
1
10
16.306152
20
8.670929
42
-0.094899
0
VERTEX
8
1
10
16.250000
20
8.738190
42
-0.197570
0
VERTEX
8
1
10
16.280518
20
8.951080
42
0.109220
0
VERTEX
8
1
10
16.297485
20
9.059448
42
0.183861
0
VERTEX
8
1
10
16.242188
20
9.322998
0
VERTEX
8
1
10
16.231323
20
9.345123
42
-0.223922
0
VERTEX
8
1
10
16.218018
20
9.441467
42
0.715756
0
VERTEX
8
1
10
16.213013
20
9.464478
42
0.187236
0
VERTEX
8
1
10
16.017944
20
9.477386
42
-0.392692
0
VERTEX
8
1
10
15.995972
20
9.502380
42
-0.053248
0
VERTEX
8
1
10
16.005737
20
9.812531
42
0.039226
0
VERTEX
8
1
10
16.006470
20
10.279327
0
VERTEX
8
1
10
15.954468
20
10.541779
42
0.038385
0
VERTEX
8
1
10
15.748169
20
11.539429
42
0.087747
0
VERTEX
8
1
10
15.648682
20
11.720337
42
0.301092
0
VERTEX
8
1
10
15.550049
20
11.738739
42
-0.244270
0
VERTEX
8
1
10
15.509399
20
11.755371
0
VERTEX
8
1
10
15.485962
20
11.818420
0
VERTEX
8
1
10
15.481689
20
11.811737
0
VERTEX
8
1
10
15.448730
20
11.676971
0
VERTEX
8
1
10
15.441162
20
11.666748
0
VERTEX
8
1
10
15.432983
20
11.667969
0
VERTEX
8
1
10
15.423828
20
11.683685
0
VERTEX
8
1
10
15.413818
20
11.716888
42
-0.026539
0
VERTEX
8
1
10
15.346558
20
12.249847
0
VERTEX
8
1
10
15.250732
20
13.424591
0
VERTEX
8
1
10
15.232422
20
13.598663
42
0.038322
0
VERTEX
8
1
10
15.168579
20
13.990448
0
VERTEX
8
1
10
15.155029
20
14.026550
0
VERTEX
8
1
10
15.142456
20
14.043640
0
VERTEX
8
1
10
15.130859
20
14.044617
0
VERTEX
8
1
10
15.120361
20
14.032318
42
0.061119
0
VERTEX
8
1
10
15.077637
20
13.815582
42
0.017217
0
VERTEX
8
1
10
15.101685
20
12.879028
42
0.043066
0
VERTEX
8
1
10
15.150635
20
12.599182
42
-0.014720
0
VERTEX
8
1
10
15.269775
20
11.707367
42
0.123239
0
VERTEX
8
1
10
15.008789
20
11.564575
42
0.222364
0
VERTEX
8
1
10
14.983643
20
11.457855
0
VERTEX
8
1
10
15.033813
20
11.321625
42
-0.045061
0
VERTEX
8
1
10
15.095703
20
10.807404
42
0.092832
0
VERTEX
8
1
10
15.193970
20
10.336212
42
-0.124636
0
VERTEX
8
1
10
15.206909
20
10.049561
42
0.091078
0
VERTEX
8
1
10
15.249878
20
9.395691
0
VERTEX
8
1
10
15.260620
20
9.363983
42
0.001323
0
VERTEX
8
1
10
15.408936
20
9.036560
42
-0.203841
0
VERTEX
8
1
10
15.397949
20
8.792816
42
0.129053
0
VERTEX
8
1
10
15.358765
20
8.491577
42
0.045682
0
VERTEX
8
1
10
15.403809
20
8.237823
42
0.095192
0
VERTEX
8
1
10
15.598022
20
7.944122
0
VERTEX
8
1
10
15.608154
20
7.927368
42
-0.030480
0
VERTEX
8
1
10
15.654907
20
7.511719
42
-0.009372
0
VERTEX
8
1
10
15.769653
20
4.901855
0
VERTEX
8
1
10
15.765869
20
4.818176
0
VERTEX
8
1
10
15.574829
20
4.777740
0
VERTEX
8
1
10
15.568237
20
4.781891
42
0.151085
0
VERTEX
8
1
10
15.482910
20
4.938599
42
0.504239
0
VERTEX
8
1
10
15.442139
20
4.925751
42
0.085327
0
VERTEX
8
1
10
15.434570
20
4.761108
0
VERTEX
8
1
10
15.421509
20
4.747070
0
VERTEX
8
1
10
15.337769
20
4.732361
42
-0.095390
0
VERTEX
8
1
10
15.088623
20
4.725189
42
-0.367331
0
VERTEX
8
1
10
15.008789
20
4.844452
42
-0.112388
0
VERTEX
8
1
10
15.043701
20
5.013916
42
0.064274
0
VERTEX
8
1
10
15.114014
20
5.246552
42
0.338886
0
VERTEX
8
1
10
15.043091
20
5.348633
42
0.109944
0
VERTEX
8
1
10
14.813477
20
5.363892
0
VERTEX
8
1
10
14.737915
20
5.371033
0
VERTEX
8
1
10
14.739380
20
5.488495
42
-0.003965
0
VERTEX
8
1
10
14.760498
20
8.213409
42
-0.041738
0
VERTEX
8
1
10
14.774414
20
8.366058
0
VERTEX
8
1
10
14.846558
20
8.441895
42
0.203765
0
VERTEX
8
1
10
14.946411
20
8.638031
0
VERTEX
8
1
10
14.918213
20
8.806671
42
-0.128636
0
VERTEX
8
1
10
14.926392
20
9.211304
42
0.087248
0
VERTEX
8
1
10
14.939575
20
9.563873
42
-0.001215
0
VERTEX
8
1
10
14.928955
20
10.066071
42
-0.058243
0
VERTEX
8
1
10
14.933105
20
10.422363
42
0.071976
0
VERTEX
8
1
10
14.931885
20
10.678894
42
0.189384
0
VERTEX
8
1
10
14.905640
20
10.744904
42
0.088090
0
VERTEX
8
1
10
14.731323
20
10.825897
42
0.020967
0
VERTEX
8
1
10
14.728394
20
11.869202
42
0.088600
0
VERTEX
8
1
10
14.694336
20
12.049164
0
VERTEX
8
1
10
14.682007
20
12.061951
42
0.537506
0
VERTEX
8
1
10
14.629395
20
12.056976
42
0.104354
0
VERTEX
8
1
10
14.603271
20
11.928894
42
-0.015886
0
VERTEX
8
1
10
14.647827
20
10.989990
42
-0.101156
0
VERTEX
8
1
10
14.630005
20
10.848572
0
VERTEX
8
1
10
14.572876
20
10.841522
42
0.338335
0
VERTEX
8
1
10
14.413940
20
10.706482
0
VERTEX
8
1
10
14.399048
20
10.409271
42
0.038841
0
VERTEX
8
1
10
14.392578
20
9.829926
42
-0.025387
0
VERTEX
8
1
10
14.369141
20
9.296112
42
0.038832
0
VERTEX
8
1
10
14.371094
20
8.952942
0
VERTEX
8
1
10
14.370483
20
8.922546
42
0.051608
0
VERTEX
8
1
10
14.363647
20
8.538544
42
0.178734
0
VERTEX
8
1
10
14.431641
20
8.434082
0
VERTEX
8
1
10
14.519409
20
8.396973
42
-0.272774
0
VERTEX
8
1
10
14.601929
20
8.298828
42
-0.000746
0
VERTEX
8
1
10
14.647827
20
5.353821
0
VERTEX
8
1
10
14.639893
20
5.340485
0
VERTEX
8
1
10
14.427002
20
5.297882
0
VERTEX
8
1
10
14.416382
20
5.329193
42
0.089672
0
VERTEX
8
1
10
14.327148
20
5.570831
42
0.162486
0
VERTEX
8
1
10
14.292969
20
5.597626
42
0.285725
0
VERTEX
8
1
10
14.280884
20
5.588593
42
0.109318
0
VERTEX
8
1
10
14.281250
20
5.495056
0
VERTEX
8
1
10
14.325928
20
5.278168
42
-0.009853
0
VERTEX
8
1
10
12.822144
20
4.961395
0
VERTEX
8
1
10
12.784180
20
4.987061
42
0.012014
0
VERTEX
8
1
10
13.037476
20
6.068237
42
0.022377
0
VERTEX
8
1
10
13.115723
20
6.620850
42
0.004513
0
VERTEX
8
1
10
13.275146
20
7.810394
42
0.042265
0
VERTEX
8
1
10
13.288940
20
8.095337
0
VERTEX
8
1
10
13.282104
20
8.126892
0
VERTEX
8
1
10
13.270386
20
8.138489
0
VERTEX
8
1
10
13.253052
20
8.128082
0
VERTEX
8
1
10
13.230103
20
8.094299
42
0.051796
0
VERTEX
8
1
10
13.109619
20
7.776245
42
0.029004
0
VERTEX
8
1
10
12.896606
20
6.744751
0
VERTEX
8
1
10
12.804443
20
6.027588
42
-0.039572
0
VERTEX
8
1
10
12.579590
20
4.948792
0
VERTEX
8
1
10
12.559937
20
4.912170
0
VERTEX
8
1
10
11.990112
20
4.815552
42
-0.035058
0
VERTEX
8
1
10
11.070190
20
4.723236
0
VERTEX
8
1
10
10.989136
20
4.725159
42
-0.115316
0
VERTEX
8
1
10
10.768433
20
4.771698
0
VERTEX
8
1
10
10.742798
20
4.794067
0
VERTEX
8
1
10
10.730225
20
4.821136
0
VERTEX
8
1
10
10.731445
20
4.853119
42
-0.082233
0
VERTEX
8
1
10
10.840454
20
5.087616
42
-0.014813
0
VERTEX
8
1
10
11.088745
20
5.421112
42
0.105306
0
VERTEX
8
1
10
11.125977
20
5.518219
0
VERTEX
8
1
10
11.118774
20
5.538544
0
VERTEX
8
1
10
11.099731
20
5.553192
42
0.105274
0
VERTEX
8
1
10
10.958252
20
5.559296
42
-0.018858
0
VERTEX
8
1
10
10.035645
20
5.457550
0
VERTEX
8
1
10
9.823975
20
5.439484
42
0.002762
0
VERTEX
8
1
10
6.609375
20
5.172363
0
VERTEX
8
1
10
6.574219
20
5.177002
42
0.058759
0
VERTEX
8
1
10
6.548096
20
5.301727
0
VERTEX
8
1
10
6.549927
20
5.303009
0
VERTEX
8
1
10
6.553467
20
5.302795
42
0.318056
0
VERTEX
8
1
10
6.646240
20
5.309845
42
0.161055
0
VERTEX
8
1
10
6.683105
20
5.467590
0
VERTEX
8
1
10
6.665405
20
5.918671
42
-0.129342
0
VERTEX
8
1
10
6.702271
20
6.100189
0
VERTEX
8
1
10
6.715820
20
6.117310
42
-0.316048
0
VERTEX
8
1
10
6.824707
20
6.151337
42
0.065167
0
VERTEX
8
1
10
6.730469
20
6.370392
42
-0.115902
0
VERTEX
8
1
10
6.629517
20
6.765076
42
0.012474
0
VERTEX
8
1
10
6.552490
20
7.710785
0
VERTEX
8
1
10
6.544556
20
7.760742
42
0.274416
0
VERTEX
8
1
10
6.418945
20
7.941803
42
-0.051440
0
VERTEX
8
1
10
6.283691
20
8.018799
0
VERTEX
8
1
10
6.278198
20
8.026520
0
VERTEX
8
1
10
6.275024
20
8.034668
42
0.026721
0
VERTEX
8
1
10
6.153564
20
9.051971
42
0.049869
0
VERTEX
8
1
10
6.113159
20
9.187592
0
VERTEX
8
1
10
6.099365
20
9.207550
42
0.422790
0
VERTEX
8
1
10
6.034668
20
9.181274
42
0.179522
0
VERTEX
8
1
10
6.021851
20
9.112885
42
-0.006100
0
VERTEX
8
1
10
6.151123
20
8.020721
42
-0.169695
0
VERTEX
8
1
10
6.135010
20
7.984802
42
-0.048624
0
VERTEX
8
1
10
5.992798
20
7.912933
42
0.230791
0
VERTEX
8
1
10
5.904541
20
7.778870
0
VERTEX
8
1
10
5.912476
20
7.578491
0
VERTEX
8
1
10
5.941406
20
7.318451
42
-0.008589
0
VERTEX
8
1
10
6.035278
20
6.340851
42
0.050905
0
VERTEX
8
1
10
6.213257
20
5.425995
42
0.113465
0
VERTEX
8
1
10
6.285645
20
5.296143
42
-0.047239
0
VERTEX
8
1
10
6.381836
20
5.152252
0
VERTEX
8
1
10
6.336426
20
5.145142
42
0.029589
0
VERTEX
8
1
10
5.661011
20
5.050049
42
0.260791
0
VERTEX
8
1
10
5.599365
20
5.008820
42
0.345174
0
VERTEX
8
1
10
5.615601
20
4.977661
42
0.086733
0
VERTEX
8
1
10
5.759155
20
4.930176
42
0.030519
0
VERTEX
8
1
10
6.451660
20
4.858185
0
VERTEX
8
1
10
6.469727
20
4.842804
0
VERTEX
8
1
10
6.585815
20
4.024872
0
VERTEX
8
1
10
6.586548
20
4.000885
0
VERTEX
8
1
10
6.481201
20
4.008057
0
VERTEX
8
1
10
6.470825
20
4.027863
42
0.044614
0
VERTEX
8
1
10
6.221069
20
4.619537
42
0.322388
0
VERTEX
8
1
10
6.124146
20
4.674622
42
0.358392
0
VERTEX
8
1
10
6.107300
20
4.633057
42
0.029879
0
VERTEX
8
1
10
6.241577
20
4.044617
0
VERTEX
8
1
10
6.237061
20
4.022644
42
0.006948
0
VERTEX
8
1
10
4.999023
20
4.072205
0
VERTEX
8
1
10
4.936523
20
4.078674
0
VERTEX
8
1
10
5.047485
20
4.558746
42
0.007217
0
VERTEX
8
1
10
5.361084
20
5.853027
42
0.027719
0
VERTEX
8
1
10
5.467529
20
6.566345
0
VERTEX
8
1
10
5.479370
20
6.657654
42
0.008289
0
VERTEX
8
1
10
5.626465
20
7.762146
42
0.060626
0
VERTEX
8
1
10
5.631592
20
8.014008
0
VERTEX
8
1
10
5.622070
20
8.034363
0
VERTEX
8
1
10
5.607178
20
8.033569
0
VERTEX
8
1
10
5.586426
20
8.009583
42
0.058807
0
VERTEX
8
1
10
5.465698
20
7.708313
42
0.039236
0
VERTEX
8
1
10
5.210327
20
6.380463
42
-0.016138
0
VERTEX
8
1
10
5.060181
20
5.382080
42
-0.003732
0
VERTEX
8
1
10
4.733887
20
4.106384
0
VERTEX
8
1
10
4.717529
20
4.079071
0
VERTEX
8
1
10
4.435669
20
4.084137
0
VERTEX
8
1
10
4.428589
20
4.141449
42
-0.010219
0
VERTEX
8
1
10
4.427124
20
5.390778
42
0.014425
0
VERTEX
8
1
10
4.552612
20
5.949158
0
VERTEX
8
1
10
4.553345
20
5.967590
42
0.848119
0
VERTEX
8
1
10
4.516357
20
5.981232
42
-0.090019
0
VERTEX
8
1
10
4.395874
20
5.898254
0
VERTEX
8
1
10
4.382690
20
5.896820
0
VERTEX
8
1
10
4.370117
20
5.900787
0
VERTEX
8
1
10
4.359497
20
5.932648
42
-0.032761
0
VERTEX
8
1
10
4.333496
20
6.342712
42
-0.007083
0
VERTEX
8
1
10
4.345459
20
8.503510
42
-0.260139
0
VERTEX
8
1
10
4.403442
20
8.582245
42
0.184311
0
VERTEX
8
1
10
4.561401
20
8.757629
42
0.104092
0
VERTEX
8
1
10
4.548706
20
9.046692
42
-0.077835
0
VERTEX
8
1
10
4.546631
20
9.340393
42
0.062341
0
VERTEX
8
1
10
4.454590
20
10.022797
42
-0.097375
0
VERTEX
8
1
10
4.456665
20
10.389099
42
0.095329
0
VERTEX
8
1
10
4.444702
20
10.636414
42
0.117932
0
VERTEX
8
1
10
4.363159
20
10.819855
42
-0.408182
0
VERTEX
8
1
10
4.342773
20
10.923035
42
0.030195
0
VERTEX
8
1
10
4.428589
20
11.089355
0
VERTEX
8
1
10
4.432007
20
11.105225
0
VERTEX
8
1
10
4.433228
20
11.124939
42
0.067868
0
VERTEX
8
1
10
4.350342
20
11.479126
42
-0.002955
0
VERTEX
8
1
10
4.234375
20
11.873688
42
0.051985
0
VERTEX
8
1
10
4.154541
20
12.051086
42
0.217812
0
VERTEX
8
1
10
4.030640
20
12.128021
42
0.407846
0
VERTEX
8
1
10
3.999146
20
12.096100
42
0.130739
0
VERTEX
8
1
10
4.000244
20
12.024200
42
0.049881
0
VERTEX
8
1
10
4.123901
20
11.679382
42
0.024095
0
VERTEX
8
1
10
3.946655
20
11.447479
42
0.176476
0
VERTEX
8
1
10
3.924316
20
11.278534
42
0.042932
0
VERTEX
8
1
10
3.980469
20
11.049835
42
-0.131944
0
VERTEX
8
1
10
3.970825
20
10.872650
0
VERTEX
8
1
10
3.950562
20
10.876831
42
0.261673
0
VERTEX
8
1
10
3.862549
20
10.741272
42
0.078563
0
VERTEX
8
1
10
3.894531
20
10.405853
42
-0.070238
0
VERTEX
8
1
10
3.908813
20
10.058502
42
0.013767
0
VERTEX
8
1
10
3.893311
20
9.084442
0
VERTEX
8
1
10
3.895630
20
9.034363
0
VERTEX
8
1
10
3.898560
20
8.987579
0
VERTEX
8
1
10
3.902344
20
8.944641
42
0.159555
0
VERTEX
8
1
10
4.067505
20
8.535431
0
VERTEX
8
1
10
4.196045
20
4.174896
0
VERTEX
8
1
10
4.177734
20
4.166443
42
-0.020458
0
VERTEX
8
1
10
3.762573
20
4.646851
0
VERTEX
8
1
10
3.753296
20
4.717987
0
VERTEX
8
1
10
3.714478
20
5.268280
42
0.023024
0
VERTEX
8
1
10
3.643311
20
5.962860
42
-0.011573
0
VERTEX
8
1
10
3.410522
20
8.568024
42
0.008217
0
VERTEX
8
1
10
3.351685
20
9.985535
42
0.236674
0
VERTEX
8
1
10
3.490356
20
10.222076
0
VERTEX
8
1
10
3.493896
20
10.256561
0
VERTEX
8
1
10
3.492676
20
10.316559
42
-0.000393
0
VERTEX
8
1
10
3.449951
20
11.166748
0
VERTEX
8
1
10
3.432739
20
11.501953
0
VERTEX
8
1
10
3.414551
20
11.837128
42
0.027117
0
VERTEX
8
1
10
3.245850
20
12.792206
42
0.052101
0
VERTEX
8
1
10
3.200317
20
12.917419
42
0.167862
0
VERTEX
8
1
10
3.142456
20
12.957001
42
0.269745
0
VERTEX
8
1
10
3.129639
20
12.949127
42
-0.119317
0
VERTEX
8
1
10
3.051758
20
13.119659
42
0.015227
0
VERTEX
8
1
10
2.999756
20
13.296967
42
-0.041724
0
VERTEX
8
1
10
3.691895
20
14.362244
42
0.066134
0
VERTEX
8
1
10
4.248169
20
14.108826
0
VERTEX
8
1
10
4.186523
20
14.092896
0
VERTEX
8
1
10
3.955566
20
14.056305
42
0.522928
0
VERTEX
8
1
10
3.917847
20
13.984589
0
VERTEX
8
1
10
3.924316
20
13.968201
42
0.128823
0
VERTEX
8
1
10
4.023438
20
13.890625
42
0.059380
0
VERTEX
8
1
10
4.512451
20
13.745850
0
VERTEX
8
1
10
4.503784
20
13.734192
42
0.111604
0
VERTEX
8
1
10
4.323364
20
13.569763
42
0.429209
0
VERTEX
8
1
10
4.367554
20
13.463409
0
VERTEX
8
1
10
4.387207
20
13.454407
42
0.063734
0
VERTEX
8
1
10
4.724487
20
13.396851
42
0.062319
0
VERTEX
8
1
10
4.724243
20
13.179749
42
0.278590
0
VERTEX
8
1
10
4.753418
20
13.158569
42
0.087511
0
VERTEX
8
1
10
5.138428
20
13.110565
42
-0.185472
0
VERTEX
8
1
10
5.155396
20
13.096985
42
-0.101295
0
VERTEX
8
1
10
5.204590
20
12.947693
42
0.211709
0
VERTEX
8
1
10
5.258057
20
12.891449
42
0.062030
0
VERTEX
8
1
10
5.498413
20
12.843597
42
0.044138
0
VERTEX
8
1
10
5.553345
20
12.682556
42
0.184409
0
VERTEX
8
1
10
5.628052
20
12.621948
42
0.068537
0
VERTEX
8
1
10
5.861816
20
12.638031
42
0.213180
0
VERTEX
8
1
10
5.988525
20
12.511993
42
0.048813
0
VERTEX
8
1
10
6.256348
20
12.511658
42
0.054292
0
VERTEX
8
1
10
6.383667
20
12.347260
42
0.105077
0
VERTEX
8
1
10
6.557251
20
12.306274
42
0.331661
0
VERTEX
8
1
10
6.621948
20
12.149811
42
-0.169299
0
VERTEX
8
1
10
6.690308
20
12.054901
42
0.217122
0
VERTEX
8
1
10
6.768555
20
11.978241
42
-0.248608
0
VERTEX
8
1
10
6.808838
20
11.901581
42
0.202237
0
VERTEX
8
1
10
6.896362
20
11.780762
42
-0.264835
0
VERTEX
8
1
10
6.939575
20
11.677612
42
0.308364
0
VERTEX
8
1
10
7.005981
20
11.585846
42
-0.307857
0
VERTEX
8
1
10
7.076294
20
11.473450
42
0.213937
0
VERTEX
8
1
10
7.161499
20
11.351227
42
-0.201105
0
VERTEX
8
1
10
7.252319
20
11.210175
42
0.305646
0
VERTEX
8
1
10
7.350586
20
11.137146
0
VERTEX
8
1
10
7.365845
20
11.133575
42
-0.084843
0
VERTEX
8
1
10
7.378784
20
11.005798
42
0.181502
0
VERTEX
8
1
10
7.421631
20
10.925659
42
-0.279315
0
VERTEX
8
1
10
7.491455
20
10.852783
42
-0.101219
0
VERTEX
8
1
10
7.506958
20
10.713928
42
0.044128
0
VERTEX
8
1
10
7.445923
20
10.439270
42
0.175250
0
VERTEX
8
1
10
7.453491
20
10.411377
0
VERTEX
8
1
10
7.507446
20
10.408173
42
-0.560276
0
VERTEX
8
1
10
7.541504
20
10.374908
42
0.023909
0
VERTEX
8
1
10
7.417969
20
10.051697
42
0.238791
0
VERTEX
8
1
10
7.421387
20
10.030090
42
-0.191197
0
VERTEX
8
1
10
7.567749
20
10.031219
0
VERTEX
8
1
10
7.569824
20
9.873840
42
-0.084782
0
VERTEX
8
1
10
7.491089
20
9.799927
42
0.014513
0
VERTEX
8
1
10
7.044556
20
9.461700
42
0.144172
0
VERTEX
8
1
10
6.978027
20
9.379639
0
VERTEX
8
1
10
6.981934
20
9.368774
42
0.038489
0
VERTEX
8
1
10
7.156128
20
9.350586
42
0.046512
0
VERTEX
8
1
10
7.017822
20
9.143829
42
0.355934
0
VERTEX
8
1
10
7.021484
20
9.115967
0
VERTEX
8
1
10
7.188965
20
9.113556
42
0.024168
0
VERTEX
8
1
10
7.053467
20
8.949432
42
0.278333
0
VERTEX
8
1
10
7.059937
20
8.911072
0
VERTEX
8
1
10
7.173584
20
8.845490
42
0.057173
0
VERTEX
8
1
10
7.059326
20
8.620148
42
0.179288
0
VERTEX
8
1
10
7.066528
20
8.579987
0
VERTEX
8
1
10
7.173218
20
8.560638
42
-0.122610
0
VERTEX
8
1
10
7.127686
20
8.414032
42
0.068311
0
VERTEX
8
1
10
7.092285
20
8.303131
42
0.322783
0
VERTEX
8
1
10
7.112549
20
8.277283
42
0.199416
0
VERTEX
8
1
10
7.235962
20
8.262512
42
-0.402367
0
VERTEX
8
1
10
7.240234
20
8.255310
42
0.082506
0
VERTEX
8
1
10
7.206177
20
8.070374
42
0.495428
0
VERTEX
8
1
10
7.236816
20
8.076019
42
-0.252653
0
VERTEX
8
1
10
7.263184
20
7.993103
42
0.071290
0
VERTEX
8
1
10
7.263672
20
7.811310
42
0.387449
0
VERTEX
8
1
10
7.306641
20
7.784760
42
0.144328
0
VERTEX
8
1
10
7.442383
20
7.816925
42
0.128104
0
VERTEX
8
1
10
7.412109
20
7.682526
42
0.293799
0
VERTEX
8
1
10
7.433472
20
7.658051
42
0.073260
0
VERTEX
8
1
10
7.630737
20
7.674713
0
VERTEX
8
1
10
7.639038
20
7.647369
42
0.063785
0
VERTEX
8
1
10
7.774902
20
7.454407
0
VERTEX
8
1
10
7.932739
20
7.548492
0
VERTEX
8
1
10
7.950562
20
7.493347
42
0.280008
0
VERTEX
8
1
10
8.051270
20
7.371399
42
0.251817
0
VERTEX
8
1
10
8.094727
20
7.387329
0
VERTEX
8
1
10
8.153687
20
7.481659
0
VERTEX
8
1
10
8.157837
20
7.482697
42
-0.010967
0
VERTEX
8
1
10
8.201660
20
7.431183
42
0.145834
0
VERTEX
8
1
10
8.390625
20
7.374969
0
VERTEX
8
1
10
8.485962
20
7.532318
42
0.170702
0
VERTEX
8
1
10
8.543457
20
7.480896
42
0.132677
0
VERTEX
8
1
10
8.814087
20
7.409088
42
0.452837
0
VERTEX
8
1
10
8.858154
20
7.450195
42
0.098921
0
VERTEX
8
1
10
8.865967
20
7.595306
42
0.098072
0
VERTEX
8
1
10
9.173706
20
7.530640
42
0.188505
0
VERTEX
8
1
10
9.212769
20
7.547485
42
0.048911
0
VERTEX
8
1
10
9.260864
20
7.737152
42
0.062030
0
VERTEX
8
1
10
9.514648
20
7.725616
42
0.219700
0
VERTEX
8
1
10
9.588623
20
7.766052
0
VERTEX
8
1
10
9.592651
20
7.780518
0
VERTEX
8
1
10
9.577026
20
7.941864
42
0.010338
0
VERTEX
8
1
10
9.826172
20
7.896667
0
VERTEX
8
1
10
9.832397
20
7.887939
42
-0.098074
0
VERTEX
8
1
10
9.833862
20
7.342773
0
VERTEX
8
1
10
9.833008
20
7.322937
42
0.367565
0
VERTEX
8
1
10
9.878784
20
7.311432
0
VERTEX
8
1
10
9.972412
20
7.370331
0
VERTEX
8
1
10
9.978149
20
7.370178
0
VERTEX
8
1
10
9.982666
20
7.367279
42
0.017907
0
VERTEX
8
1
10
9.995850
20
7.297546
42
0.599499
0
VERTEX
8
1
10
10.068237
20
7.297668
42
-0.132851
0
VERTEX
8
1
10
10.135620
20
7.385498
42
-0.431636
0
VERTEX
8
1
10
10.189453
20
7.366241
42
0.065663
0
VERTEX
8
1
10
10.258789
20
7.305756
0
VERTEX
8
1
10
10.261963
20
7.307190
42
0.149760
0
VERTEX
8
1
10
10.272339
20
7.378723
42
0.010135
0
VERTEX
8
1
10
10.209229
20
8.402313
42
0.128697
0
VERTEX
8
1
10
10.297241
20
8.503967
42
0.175634
0
VERTEX
8
1
10
10.295532
20
8.569977
42
0.063032
0
VERTEX
8
1
10
10.126343
20
8.790588
0
VERTEX
8
1
10
10.041382
20
8.990997
42
0.193082
0
VERTEX
8
1
10
10.305908
20
9.247803
42
-0.096036
0
VERTEX
8
1
10
10.657593
20
9.674133
42
-0.100735
0
VERTEX
8
1
10
10.877930
20
9.774475
42
0.016212
0
VERTEX
8
1
10
11.648438
20
10.011932
42
0.115652
0
VERTEX
8
1
10
12.036499
20
10.259277
42
0.070310
0
VERTEX
8
1
10
12.244385
20
10.528198
42
-0.095551
0
VERTEX
8
1
10
12.437012
20
10.743225
42
-0.260048
0
VERTEX
8
1
10
12.537842
20
10.739807
42
-0.014701
0
VERTEX
8
1
10
13.417358
20
10.270782
42
0.008870
0
VERTEX
8
1
10
14.187622
20
9.586823
42
-0.046515
0
VERTEX
8
1
10
14.275269
20
9.486053
0
VERTEX
8
1
10
14.278076
20
9.485260
42
0.236280
0
VERTEX
8
1
10
14.301514
20
9.545166
42
0.166899
0
VERTEX
8
1
10
14.284302
20
9.788940
0
VERTEX
8
1
10
14.275391
20
9.802521
42
-0.086942
0
VERTEX
8
1
10
13.973999
20
10.270020
0
VERTEX
8
1
10
13.966553
20
10.295807
0
VERTEX
8
1
10
13.962036
20
10.319672
42
-0.014346
0
VERTEX
8
1
10
13.970215
20
10.684082
42
0.105654
0
VERTEX
8
1
10
13.858032
20
11.207825
42
0.103435
0
VERTEX
8
1
10
13.672119
20
11.442413
0
VERTEX
8
1
10
13.488037
20
11.553589
42
0.180268
0
VERTEX
8
1
10
12.848999
20
11.666229
42
0.065240
0
VERTEX
8
1
10
12.522827
20
11.575500
0
VERTEX
8
1
10
12.508057
20
11.566895
42
-0.135645
0
VERTEX
8
1
10
12.375977
20
11.506226
0
VERTEX
8
1
10
11.947144
20
11.451385
42
-0.235943
0
VERTEX
8
1
10
11.856934
20
11.469025
42
0.020811
0
VERTEX
8
1
10
11.373901
20
11.816589
42
-0.107525
0
VERTEX
8
1
10
11.215942
20
11.920868
42
-0.049030
0
VERTEX
8
1
10
10.748047
20
12.577972
42
-0.109557
0
VERTEX
8
1
10
10.718018
20
12.698181
0
VERTEX
8
1
10
10.713257
20
12.755920
42
-0.025585
0
VERTEX
8
1
10
10.747314
20
14.049194
0
VERTEX
8
1
10
10.756714
20
14.132751
0
VERTEX
8
1
10
10.768066
20
14.216034
42
0.248577
0
VERTEX
8
1
10
10.591797
20
14.743866
42
0.048357
0
VERTEX
8
1
10
10.048096
20
15.184692
42
-0.028297
0
VERTEX
8
1
10
8.884399
20
16.219543
42
-0.060776
0
VERTEX
8
1
10
8.622192
20
16.547699
42
-0.013255
0
VERTEX
8
1
10
8.210938
20
17.209106
0
VERTEX
8
1
10
8.202026
20
17.235840
42
-0.055060
0
VERTEX
8
1
10
9.925903
20
17.425354
0
VERTEX
8
1
10
10.566284
20
17.399750
0
VERTEX
8
1
10
11.195435
20
17.323669
0
VERTEX
8
1
10
11.808594
20
17.199097
0
VERTEX
8
1
10
12.403198
20
17.028046
0
VERTEX
8
1
10
12.977661
20
16.812500
0
VERTEX
8
1
10
13.529907
20
16.554474
0
VERTEX
8
1
10
14.057983
20
16.255981
0
VERTEX
8
1
10
14.559692
20
15.919037
0
VERTEX
8
1
10
15.033081
20
15.545624
0
VERTEX
8
1
10
15.476318
20
15.137756
0
VERTEX
8
1
10
15.887085
20
14.697418
0
VERTEX
8
1
10
16.263794
20
14.226624
0
VERTEX
8
1
10
16.604004
20
13.727386
0
VERTEX
8
1
10
16.906128
20
13.201691
0
VERTEX
8
1
10
17.167847
20
12.651550
0
VERTEX
8
1
10
17.387329
20
12.078949
0
VERTEX
8
1
10
17.562378
20
11.485931
0
VERTEX
8
1
10
17.691284
20
10.874481
0
VERTEX
8
1
10
17.771851
20
10.246582
0
SEQEND
0
POLYLINE
8
1
66
1
70
1
0
VERTEX
8
1
10
13.763672
20
11.096863
42
0.177508
0
VERTEX
8
1
10
13.724243
20
11.186859
42
0.462580
0
VERTEX
8
1
10
13.648315
20
11.166809
42
0.317836
0
VERTEX
8
1
10
13.657715
20
10.972778
42
0.495146
0
VERTEX
8
1
10
13.738037
20
10.989166
42
0.204550
0
SEQEND
0
POLYLINE
8
1
66
1
70
1
0
VERTEX
8
1
10
28.243286
20
10.140686
0
VERTEX
8
1
10
28.165527
20
10.090515
42
1.107709
0
VERTEX
8
1
10
28.140869
20
10.030579
0
VERTEX
8
1
10
28.156860
20
10.027191
0
VERTEX
8
1
10
28.178101
20
10.029327
0
VERTEX
8
1
10
28.205322
20
10.039063
42
0.083821
0
VERTEX
8
1
10
28.333252
20
10.141144
42
0.820379
0
VERTEX
8
1
10
28.287964
20
10.182281
0
VERTEX
8
1
10
28.273193
20
10.168274
0
SEQEND
0
POLYLINE
8
1
66
1
70
1
0
VERTEX
8
1
10
37.630005
20
7.977936
42
-0.045923
0
VERTEX
8
1
10
38.148926
20
8.533569
0
VERTEX
8
1
10
38.202881
20
9.101807
42
-0.052164
0
VERTEX
8
1
10
37.848999
20
8.943756
42
-0.298291
0
VERTEX
8
1
10
37.634644
20
9.061523
42
-0.169696
0
VERTEX
8
1
10
37.591064
20
9.208374
0
VERTEX
8
1
10
37.592041
20
9.232056
42
-0.117494
0
VERTEX
8
1
10
37.780029
20
9.685669
42
-0.043841
0
VERTEX
8
1
10
38.137573
20
10.141266
0
VERTEX
8
1
10
38.094849
20
10.806702
42
-0.026922
0
VERTEX
8
1
10
37.760620
20
10.560883
42
-0.341705
0
VERTEX
8
1
10
37.529053
20
10.658264
42
-0.122327
0
VERTEX
8
1
10
37.495850
20
10.815063
42
-0.103630
0
VERTEX
8
1
10
37.573608
20
11.196991
42
-0.053300
0
VERTEX
8
1
10
37.824585
20
11.686707
0
VERTEX
8
1
10
37.673706
20
12.424164
42
-0.014960
0
VERTEX
8
1
10
37.422974
20
12.181305
0
VERTEX
8
1
10
37.401733
20
12.166809
42
-0.556974
0
VERTEX
8
1
10
37.068848
20
12.293762
42
-0.102120
0
VERTEX
8
1
10
37.066040
20
12.665771
42
-0.045234
0
VERTEX
8
1
10
37.218994
20
13.305389
0
VERTEX
8
1
10
36.927002
20
13.916870
42
-0.016617
0
VERTEX
8
1
10
36.697510
20
13.593597
42
-0.235626
0
VERTEX
8
1
10
36.491577
20
13.550201
42
-0.157501
0
VERTEX
8
1
10
36.374512
20
13.698914
42
-0.090638
0
VERTEX
8
1
10
36.297485
20
14.019226
42
-0.058113
0
VERTEX
8
1
10
36.310059
20
14.711578
42
0.011209
0
VERTEX
8
1
10
35.955811
20
15.297852
0
VERTEX
8
1
10
35.909424
20
15.191559
42
-0.086122
0
VERTEX
8
1
10
35.730469
20
14.897797
42
-0.253150
0
VERTEX
8
1
10
35.473267
20
14.824799
42
-0.200801
0
VERTEX
8
1
10
35.343262
20
14.978882
42
-0.074091
0
VERTEX
8
1
10
35.254761
20
15.318848
42
-0.035586
0
VERTEX
8
1
10
35.207520
20
15.922241
0
VERTEX
8
1
10
34.677856
20
16.447754
42
-0.014513
0
VERTEX
8
1
10
34.589844
20
16.006805
42
-0.195166
0
VERTEX
8
1
10
34.526123
20
15.939392
42
-0.093367
0
VERTEX
8
1
10
34.369995
20
15.875366
0
VERTEX
8
1
10
34.310059
20
15.879303
42
-0.188009
0
VERTEX
8
1
10
34.127197
20
16.023773
42
-0.081999
0
VERTEX
8
1
10
33.974487
20
16.348938
42
-0.042458
0
VERTEX
8
1
10
33.845215
20
16.896301
0
VERTEX
8
1
10
33.250366
20
17.337433
42
-0.019697
0
VERTEX
8
1
10
33.250366
20
16.875488
42
-0.323971
0
VERTEX
8
1
10
33.063232
20
16.715942
42
-0.163625
0
VERTEX
8
1
10
32.834839
20
16.812622
42
-0.091522
0
VERTEX
8
1
10
32.606323
20
17.080597
42
-0.055430
0
VERTEX
8
1
10
32.330688
20
17.648865
0
VERTEX
8
1
10
31.671631
20
17.937988
42
-0.029909
0
VERTEX
8
1
10
31.747559
20
17.407471
0
VERTEX
8
1
10
31.746338
20
17.378510
42
-0.457318
0
VERTEX
8
1
10
31.571289
20
17.227783
42
-0.129772
0
VERTEX
8
1
10
31.371460
20
17.295685
42
-0.083334
0
VERTEX
8
1
10
31.098755
20
17.524078
42
-0.054078
0
VERTEX
8
1
10
30.698364
20
18.070221
0
VERTEX
8
1
10
29.991699
20
18.242188
42
-0.047027
0
VERTEX
8
1
10
30.165283
20
17.781464
42
-0.512565
0
VERTEX
8
1
10
29.972168
20
17.541901
0
VERTEX
8
1
10
29.904175
20
17.550476
42
-0.112032
0
VERTEX
8
1
10
29.490356
20
17.764832
42
-0.053064
0
VERTEX
8
1
10
29.026978
20
18.211884
0
VERTEX
8
1
10
28.262207
20
18.227844
42
-0.019772
0
VERTEX
8
1
10
28.503662
20
17.833130
0
VERTEX
8
1
10
28.514038
20
17.803925
42
-0.460589
0
VERTEX
8
1
10
28.363281
20
17.527374
0
VERTEX
8
1
10
28.304688
20
17.522583
0
VERTEX
8
1
10
28.239502
20
17.525543
42
-0.112236
0
VERTEX
8
1
10
27.748291
20
17.721527
42
-0.025789
0
VERTEX
8
1
10
27.342285
20
18.001770
0
VERTEX
8
1
10
27.322876
20
18.013214
0
VERTEX
8
1
10
27.302002
20
18.012299
42
0.011271
0
VERTEX
8
1
10
26.588623
20
17.913086
0
VERTEX
8
1
10
26.896484
20
17.622040
42
-0.292369
0
VERTEX
8
1
10
26.955933
20
17.462555
42
-0.212099
0
VERTEX
8
1
10
26.799072
20
17.218262
0
VERTEX
8
1
10
26.757935
20
17.203156
0
VERTEX
8
1
10
26.692993
20
17.192108
42
-0.106741
0
VERTEX
8
1
10
26.252808
20
17.267334
42
-0.050901
0
VERTEX
8
1
10
25.709839
20
17.526794
0
VERTEX
8
1
10
25.060425
20
17.312744
42
0.015711
0
VERTEX
8
1
10
25.430420
20
17.003052
42
-0.160868
0
VERTEX
8
1
10
25.462280
20
16.933929
42
-0.165120
0
VERTEX
8
1
10
25.429810
20
16.677948
42
-0.164554
0
VERTEX
8
1
10
25.231445
20
16.598297
42
-0.068975
0
VERTEX
8
1
10
24.898071
20
16.601196
42
-0.037693
0
VERTEX
8
1
10
24.310059
20
16.711914
0
VERTEX
8
1
10
23.663330
20
16.355621
0
VERTEX
8
1
10
24.006470
20
16.170959
42
-0.257353
0
VERTEX
8
1
10
24.090942
20
16.060242
42
-0.135852
0
VERTEX
8
1
10
24.080811
20
15.829315
0
VERTEX
8
1
10
24.057617
20
15.787354
42
-0.160306
0
VERTEX
8
1
10
23.860229
20
15.667358
42
-0.075245
0
VERTEX
8
1
10
23.507446
20
15.618866
42
-0.041786
0
VERTEX
8
1
10
22.926514
20
15.654236
0
VERTEX
8
1
10
22.407227
20
15.182251
42
0.022132
0
VERTEX
8
1
10
22.788696
20
15.062653
42
-0.329575
0
VERTEX
8
1
10
22.925171
20
14.826324
0
VERTEX
8
1
10
22.910522
20
14.763580
42
-0.165018
0
VERTEX
8
1
10
22.749268
20
14.584473
42
-0.084291
0
VERTEX
8
1
10
22.431519
20
14.453094
42
-0.048057
0
VERTEX
8
1
10
21.918579
20
14.367249
0
VERTEX
8
1
10
21.427124
20
13.838684
0
VERTEX
8
1
10
21.842651
20
13.795746
42
-0.314409
0
VERTEX
8
1
10
21.995850
20
13.697571
42
-0.192880
0
VERTEX
8
1
10
22.007813
20
13.525879
42
-0.139889
0
VERTEX
8
1
10
21.885864
20
13.321930
42
-0.089715
0
VERTEX
8
1
10
21.640747
20
13.145630
42
-0.065827
0
VERTEX
8
1
10
21.066284
20
12.937256
0
VERTEX
8
1
10
20.692749
20
12.296387
0
VERTEX
8
1
10
21.086548
20
12.307648
42
-0.202827
0
VERTEX
8
1
10
21.261108
20
12.257813
42
-0.341596
0
VERTEX
8
1
10
21.310425
20
11.962189
42
-0.114437
0
VERTEX
8
1
10
21.040161
20
11.664276
42
-0.051026
0
VERTEX
8
1
10
20.489868
20
11.321808
0
VERTEX
8
1
10
20.316406
20
10.664001
0
VERTEX
8
1
10
20.642334
20
10.764587
42
-0.231649
0
VERTEX
8
1
10
20.824829
20
10.754730
42
-0.354561
0
VERTEX
8
1
10
20.910156
20
10.393951
42
-0.102020
0
VERTEX
8
1
10
20.683228
20
10.052032
42
-0.048840
0
VERTEX
8
1
10
20.246582
20
9.664490
0
VERTEX
8
1
10
20.201294
20
8.963348
42
-0.036987
0
VERTEX
8
1
10
20.541016
20
9.148407
42
-0.299208
0
VERTEX
8
1
10
20.738525
20
9.097412
42
-0.125982
0
VERTEX
8
1
10
20.836670
20
8.951935
0
VERTEX
8
1
10
20.842896
20
8.901611
0
VERTEX
8
1
10
20.838623
20
8.845703
42
-0.097556
0
VERTEX
8
1
10
20.697266
20
8.513855
42
-0.042707
0
VERTEX
8
1
10
20.345337
20
8.033142
0
VERTEX
8
1
10
20.359863
20
7.332306
42
-0.025685
0
VERTEX
8
1
10
20.682861
20
7.586761
42
-0.112553
0
VERTEX
8
1
10
20.801392
20
7.623260
42
-0.155325
0
VERTEX
8
1
10
20.984131
20
7.540344
0
VERTEX
8
1
10
21.011108
20
7.507538
42
-0.155370
0
VERTEX
8
1
10
21.050415
20
7.277374
42
-0.081824
0
VERTEX
8
1
10
20.964355
20
6.941650
42
-0.047483
0
VERTEX
8
1
10
20.706177
20
6.432343
0
VERTEX
8
1
10
20.879028
20
5.759949
0
VERTEX
8
1
10
21.087402
20
5.974762
42
-0.120650
0
VERTEX
8
1
10
21.192627
20
6.069305
42
-0.213924
0
VERTEX
8
1
10
21.437866
20
6.054138
42
-0.268728
0
VERTEX
8
1
10
21.533569
20
5.959991
0
VERTEX
8
1
10
21.544678
20
5.909393
42
-0.070486
0
VERTEX
8
1
10
21.531494
20
5.635773
42
-0.038177
0
VERTEX
8
1
10
21.354980
20
4.972443
0
VERTEX
8
1
10
21.642456
20
4.317169
0
VERTEX
8
1
10
21.793335
20
4.563629
42
-0.144722
0
VERTEX
8
1
10
21.913696
20
4.685272
42
-0.146127
0
VERTEX
8
1
10
22.139893
20
4.702576
0
VERTEX
8
1
10
22.179565
20
4.687347
42
-0.187617
0
VERTEX
8
1
10
22.283081
20
4.518799
42
-0.076045
0
VERTEX
8
1
10
22.319824
20
4.190460
42
-0.038309
0
VERTEX
8
1
10
22.277588
20
3.629211
0
VERTEX
8
1
10
22.666870
20
2.999847
0
VERTEX
8
1
10
22.825317
20
3.383881
42
-0.258535
0
VERTEX
8
1
10
22.909180
20
3.455780
42
-0.117306
0
VERTEX
8
1
10
23.097900
20
3.473175
0
VERTEX
8
1
10
23.131470
20
3.462250
42
-0.149090
0
VERTEX
8
1
10
23.260986
20
3.306030
42
-0.090986
0
VERTEX
8
1
10
23.357056
20
2.979706
42
-0.047001
0
VERTEX
8
1
10
23.387817
20
2.444031
0
VERTEX
8
1
10
23.891968
20
1.942383
0
VERTEX
8
1
10
23.940674
20
2.187500
42
-0.202093
0
VERTEX
8
1
10
24.027588
20
2.400391
42
-0.348883
0
VERTEX
8
1
10
24.319458
20
2.417389
0
VERTEX
8
1
10
24.364258
20
2.380188
42
-0.099800
0
VERTEX
8
1
10
24.553223
20
2.075012
42
-0.046614
0
VERTEX
8
1
10
24.728882
20
1.527252
0
VERTEX
8
1
10
25.291016
20
1.069824
42
-0.015832
0
VERTEX
8
1
10
25.302368
20
1.472992
42
-0.188344
0
VERTEX
8
1
10
25.350098
20
1.553192
42
-0.075084
0
VERTEX
8
1
10
25.484863
20
1.643280
42
-0.248927
0
VERTEX
8
1
10
25.630493
20
1.670258
0
VERTEX
8
1
10
25.679565
20
1.646729
42
-0.098579
0
VERTEX
8
1
10
25.872681
20
1.440826
42
-0.049292
0
VERTEX
8
1
10
26.184937
20
0.827087
0
VERTEX
8
1
10
26.804932
20
0.512024
42
-0.014254
0
VERTEX
8
1
10
26.800171
20
0.914642
42
-0.265786
0
VERTEX
8
1
10
26.898438
20
1.048615
42
-0.064681
0
VERTEX
8
1
10
27.065674
20
1.127991
42
-0.199183
0
VERTEX
8
1
10
27.207275
20
1.097626
42
-0.086260
0
VERTEX
8
1
10
27.381348
20
0.957001
42
-0.053900
0
VERTEX
8
1
10
27.755005
20
0.428894
0
VERTEX
8
1
10
28.433105
20
0.240723
42
-0.025670
0
VERTEX
8
1
10
28.321045
20
0.564514
42
-0.169337
0
VERTEX
8
1
10
28.348389
20
0.747650
42
-0.096421
0
VERTEX
8
1
10
28.511963
20
0.874329
42
-0.190903
0
VERTEX
8
1
10
28.707764
20
0.851929
42
-0.077786
0
VERTEX
8
1
10
28.983765
20
0.676849
42
-0.038881
0
VERTEX
8
1
10
29.385986
20
0.297363
0
VERTEX
8
1
10
30.078125
20
0.240387
0
VERTEX
8
1
10
29.946655
20
0.492004
42
-0.384379
0
VERTEX
8
1
10
29.996948
20
0.858368
0
VERTEX
8
1
10
30.047485
20
0.887787
0
VERTEX
8
1
10
30.104126
20
0.903717
0
VERTEX
8
1
10
30.166016
20
0.907623
42
-0.116870
0
VERTEX
8
1
10
30.508057
20
0.797150
42
-0.053697
0
VERTEX
8
1
10
30.985596
20
0.470001
0
VERTEX
8
1
10
31.678223
20
0.526276
0
VERTEX
8
1
10
31.433105
20
0.848816
42
-0.286981
0
VERTEX
8
1
10
31.398926
20
0.959839
42
-0.176074
0
VERTEX
8
1
10
31.490601
20
1.114655
42
-0.235362
0
VERTEX
8
1
10
31.711914
20
1.205658
42
-0.090447
0
VERTEX
8
1
10
32.027832
20
1.150269
42
-0.046631
0
VERTEX
8
1
10
32.558350
20
0.926697
0
VERTEX
8
1
10
33.219238
20
1.126282
0
VERTEX
8
1
10
32.929932
20
1.387695
42
-0.233806
0
VERTEX
8
1
10
32.852173
20
1.536957
42
-0.107189
0
VERTEX
8
1
10
32.921143
20
1.711395
42
-0.184871
0
VERTEX
8
1
10
33.105713
20
1.792542
42
-0.074207
0
VERTEX
8
1
10
33.444702
20
1.786194
42
-0.037279
0
VERTEX
8
1
10
34.014282
20
1.670135
0
VERTEX
8
1
10
34.620117
20
1.999084
0
VERTEX
8
1
10
34.293579
20
2.179993
42
-0.277763
0
VERTEX
8
1
10
34.195801
20
2.313263
42
-0.152036
0
VERTEX
8
1
10
34.222290
20
2.483368
42
-0.180051
0
VERTEX
8
1
10
34.385620
20
2.597626
42
-0.074883
0
VERTEX
8
1
10
34.716309
20
2.658539
42
-0.038146
0
VERTEX
8
1
10
35.309692
20
2.656952
0
VERTEX
8
1
10
35.812622
20
3.117249
0
VERTEX
8
1
10
35.434937
20
3.229004
42
-0.271905
0
VERTEX
8
1
10
35.364136
20
3.293182
42
-0.147045
0
VERTEX
8
1
10
35.340576
20
3.445557
42
-0.236100
0
VERTEX
8
1
10
35.457764
20
3.646088
42
-0.101953
0
VERTEX
8
1
10
35.724609
20
3.765656
42
-0.060269
0
VERTEX
8
1
10
36.343018
20
3.857910
0
VERTEX
8
1
10
36.840332
20
4.426331
0
VERTEX
8
1
10
36.494873
20
4.435974
42
-0.556966
0
VERTEX
8
1
10
36.309448
20
4.766327
42
-0.110802
0
VERTEX
8
1
10
36.434937
20
4.924683
42
-0.073041
0
VERTEX
8
1
10
36.682007
20
5.088898
42
-0.050801
0
VERTEX
8
1
10
37.238037
20
5.304932
0
VERTEX
8
1
10
37.597290
20
5.873993
0
VERTEX
8
1
10
37.175903
20
5.884613
42
-0.442693
0
VERTEX
8
1
10
36.995117
20
6.114258
42
-0.150872
0
VERTEX
8
1
10
37.073853
20
6.292053
42
-0.094394
0
VERTEX
8
1
10
37.373657
20
6.562622
42
-0.022412
0
VERTEX
8
1
10
37.802612
20
6.820221
0
VERTEX
8
1
10
37.814941
20
6.831421
0
VERTEX
8
1
10
38.051270
20
7.470367
0
VERTEX
8
1
10
37.679688
20
7.355072
42
-0.549931
0
VERTEX
8
1
10
37.426514
20
7.539551
42
-0.105201
0
VERTEX
8
1
10
37.458862
20
7.675568
42
-0.071335
0
SEQEND
0
POLYLINE
8
1
66
1
70
1
0
VERTEX
8
1
10
27.559326
20
16.279572
42
-0.959247
0
VERTEX
8
1
10
27.597412
20
16.330933
42
0.034430
0
VERTEX
8
1
10
28.341919
20
15.417267
42
0.052622
0
VERTEX
8
1
10
28.848389
20
14.977936
42
0.018429
0
VERTEX
8
1
10
29.023193
20
14.874146
42
-0.848938
0
VERTEX
8
1
10
28.988770
20
14.823059
0
VERTEX
8
1
10
28.919067
20
14.860413
42
-0.068136
0
VERTEX
8
1
10
28.320435
20
15.350311
42
-0.040904
0
SEQEND
0
POLYLINE
8
1
66
1
70
1
0
VERTEX
8
1
10
30.763794
20
10.739258
42
0.242981
0
VERTEX
8
1
10
30.899048
20
11.096100
42
-0.691819
0
VERTEX
8
1
10
30.957642
20
11.104431
42
-0.276501
0
VERTEX
8
1
10
30.778442
20
10.671936
42
0.066289
0
VERTEX
8
1
10
30.623413
20
10.524963
42
0.052136
0
VERTEX
8
1
10
30.104370
20
9.808380
0
VERTEX
8
1
10
30.083984
20
9.764801
42
-0.045967
0
VERTEX
8
1
10
29.974487
20
9.441345
42
-0.690818
0
VERTEX
8
1
10
29.918945
20
9.461517
42
0.003863
0
VERTEX
8
1
10
29.995972
20
9.680603
42
-0.087078
0
VERTEX
8
1
10
30.064453
20
9.867126
42
-0.054276
0
VERTEX
8
1
10
30.626709
20
10.622833
42
-0.041062
0
SEQEND
0
POLYLINE
8
1
66
1
70
1
0
VERTEX
8
1
10
30.447021
20
11.237549
42
-0.528446
0
VERTEX
8
1
10
30.436890
20
11.187439
42
0.228695
0
VERTEX
8
1
10
29.497803
20
10.655334
42
-0.056496
0
VERTEX
8
1
10
28.744019
20
9.805267
42
0.037496
0
VERTEX
8
1
10
28.312744
20
9.312469
42
-0.059493
0
VERTEX
8
1
10
28.142944
20
9.146179
42
-0.836662
0
VERTEX
8
1
10
28.098267
20
9.218292
42
-0.315910
0
VERTEX
8
1
10
28.134399
20
9.217255
42
0.040752
0
VERTEX
8
1
10
28.407349
20
9.533813
0
VERTEX
8
1
10
28.667358
20
9.819122
42
0.056498
0
VERTEX
8
1
10
29.487061
20
10.746246
0
VERTEX
8
1
10
29.577271
20
10.851654
42
-0.192185
0
VERTEX
8
1
10
30.425293
20
11.248016
42
-0.157097
0
SEQEND
0
POLYLINE
8
1
66
1
70
1
0
VERTEX
8
1
10
29.314331
20
7.782288
42
0.017231
0
VERTEX
8
1
10
28.750732
20
8.235779
42
-0.746216
0
VERTEX
8
1
10
28.785522
20
8.284698
42
-0.024472
0
VERTEX
8
1
10
29.373413
20
7.812927
42
-0.332038
0
VERTEX
8
1
10
29.374390
20
7.735260
42
-0.117130
0
VERTEX
8
1
10
29.281128
20
7.634094
42
-0.683171
0
VERTEX
8
1
10
29.243896
20
7.681427
42
0.086533
0
VERTEX
8
1
10
29.323608
20
7.769745
0
SEQEND
0
POLYLINE
8
1
66
1
70
1
0
VERTEX
8
1
10
28.842407
20
7.712769
0
VERTEX
8
1
10
28.509033
20
8.108582
42
-0.833116
0
VERTEX
8
1
10
28.548096
20
8.156036
0
VERTEX
8
1
10
28.881348
20
7.761749
42
-0.910961
0
SEQEND
0
POLYLINE
8
1
66
1
70
1
0
VERTEX
8
1
10
28.601563
20
7.513336
42
-0.901543
0
VERTEX
8
1
10
28.552612
20
7.474792
0
VERTEX
8
1
10
28.274658
20
7.964417
42
-0.835053
0
VERTEX
8
1
10
28.320313
20
8.006012
42
-0.005925
0
SEQEND
0
POLYLINE
8
1
66
1
70
1
0
VERTEX
8
1
10
29.519775
20
8.040039
42
-0.360998
0
VERTEX
8
1
10
29.352539
20
7.942505
42
-0.884230
0
VERTEX
8
1
10
29.372192
20
8.002563
42
0.439928
0
VERTEX
8
1
10
29.463013
20
8.086578
0
VERTEX
8
1
10
28.868896
20
8.478241
42
-0.924030
0
VERTEX
8
1
10
28.888184
20
8.538483
0
VERTEX
8
1
10
29.517334
20
8.125824
42
-0.202074
0
SEQEND
0
POLYLINE
8
1
66
1
70
1
0
VERTEX
8
1
10
29.384766
20
8.485474
42
-0.870032
0
VERTEX
8
1
10
29.375366
20
8.424133
0
VERTEX
8
1
10
28.881104
20
8.632080
42
-1.020256
0
VERTEX
8
1
10
28.883789
20
8.697327
0
SEQEND
0
POLYLINE
8
1
66
1
70
1
0
VERTEX
8
1
10
29.171753
20
9.009125
42
0.487256
0
VERTEX
8
1
10
29.153931
20
8.986603
42
0.038757
0
VERTEX
8
1
10
29.280396
20
8.681824
42
-0.739046
0
VERTEX
8
1
10
29.226807
20
8.655212
42
-0.055206
0
VERTEX
8
1
10
29.091187
20
8.985382
0
VERTEX
8
1
10
29.091431
20
8.999207
0
VERTEX
8
1
10
29.093994
20
9.012817
42
-0.331136
0
VERTEX
8
1
10
29.216187
20
9.077332
42
-1.270336
0
VERTEX
8
1
10
29.223389
20
9.015778
42
0.028982
0
SEQEND
0
POLYLINE
8
1
66
1
70
1
0
VERTEX
8
1
10
28.095947
20
12.353607
0
VERTEX
8
1
10
28.098755
20
12.347504
42
0.324082
0
VERTEX
8
1
10
28.145630
20
12.278809
42
0.135807
0
VERTEX
8
1
10
28.294678
20
12.243439
42
-0.821411
0
VERTEX
8
1
10
28.298218
20
12.181519
42
-0.133238
0
VERTEX
8
1
10
28.091919
20
12.235809
42
-0.237928
0
VERTEX
8
1
10
28.037109
20
12.341858
42
-0.692160
0
SEQEND
0
POLYLINE
8
1
66
1
70
1
0
VERTEX
8
1
10
28.202393
20
10.944244
42
-0.311330
0
VERTEX
8
1
10
28.100830
20
11.003784
42
-0.619978
0
VERTEX
8
1
10
28.148560
20
11.037628
42
0.358595
0
VERTEX
8
1
10
28.219971
20
11.009613
42
0.093723
0
VERTEX
8
1
10
28.318848
20
11.041626
42
-0.716064
0
VERTEX
8
1
10
28.343994
20
10.988098
42
-0.122617
0
SEQEND
0
POLYLINE
8
1
66
1
70
1
0
VERTEX
8
1
10
28.324219
20
11.705505
42
-0.886029
0
VERTEX
8
1
10
28.328003
20
11.643646
42
-0.247360
0
VERTEX
8
1
10
28.124756
20
11.725952
42
-0.127629
0
VERTEX
8
1
10
28.084229
20
11.819824
42
-0.902281
0
VERTEX
8
1
10
28.147461
20
11.817535
0
VERTEX
8
1
10
28.154663
20
11.799530
42
0.241886
0
VERTEX
8
1
10
28.250244
20
11.714600
42
0.099948
0
SEQEND
0
POLYLINE
8
1
66
1
70
1
0
VERTEX
8
1
10
28.319092
20
11.499969
42
-0.762331
0
VERTEX
8
1
10
28.341064
20
11.443939
42
-0.193394
0
VERTEX
8
1
10
28.155762
20
11.456207
42
-0.253921
0
VERTEX
8
1
10
28.101074
20
11.554932
42
-0.873897
0
VERTEX
8
1
10
28.162964
20
11.547455
42
0.334460
0
VERTEX
8
1
10
28.226440
20
11.497742
42
0.120881
0
SEQEND
0
POLYLINE
8
1
66
1
70
1
0
VERTEX
8
1
10
28.330566
20
11.293884
42
-0.842264
0
VERTEX
8
1
10
28.355347
20
11.237518
42
-0.177889
0
VERTEX
8
1
10
28.182983
20
11.218292
42
-0.190028
0
VERTEX
8
1
10
28.100952
20
11.286407
42
-0.799737
0
VERTEX
8
1
10
28.155151
20
11.313660
42
0.011243
0
VERTEX
8
1
10
28.188599
20
11.284363
42
0.199026
0
SEQEND
0
POLYLINE
8
1
66
1
70
1
0
VERTEX
8
1
10
28.333496
20
12.005737
42
-0.910143
0
VERTEX
8
1
10
28.348267
20
11.945251
42
-0.174108
0
VERTEX
8
1
10
28.124634
20
11.971863
42
-0.186893
0
VERTEX
8
1
10
28.068848
20
12.051025
42
-0.922720
0
VERTEX
8
1
10
28.130371
20
12.059723
42
0.238802
0
VERTEX
8
1
10
28.187988
20
12.012817
42
0.129215
0
SEQEND
0
POLYLINE
8
1
66
1
70
1
0
VERTEX
8
1
10
28.070190
20
9.456207
42
-0.146216
0
VERTEX
8
1
10
28.095215
20
9.594879
42
-0.607280
0
VERTEX
8
1
10
28.147705
20
9.576935
0
VERTEX
8
1
10
28.130981
20
9.477722
42
0.147834
0
VERTEX
8
1
10
28.296509
20
9.669098
42
-0.779919
0
VERTEX
8
1
10
28.353394
20
9.647827
42
-0.167520
0
VERTEX
8
1
10
28.143433
20
9.413971
42
-0.476771
0
SEQEND
0
POLYLINE
8
1
66
1
70
1
0
VERTEX
8
1
10
28.369019
20
9.900146
42
-0.212936
0
VERTEX
8
1
10
28.225708
20
9.789398
42
-0.198449
0
VERTEX
8
1
10
28.109619
20
9.818268
42
-0.934939
0
VERTEX
8
1
10
28.150757
20
9.864105
42
0.303123
0
VERTEX
8
1
10
28.261597
20
9.872894
42
0.092795
0
VERTEX
8
1
10
28.320557
20
9.930176
42
-0.644218
0
SEQEND
0
POLYLINE
8
1
66
1
70
1
0
VERTEX
8
1
10
28.319458
20
10.466553
42
-1.003218
0
VERTEX
8
1
10
28.356812
20
10.416656
0
VERTEX
8
1
10
28.322021
20
10.398010
42
-0.189341
0
VERTEX
8
1
10
28.160278
20
10.416626
42
-0.788965
0
VERTEX
8
1
10
28.187134
20
10.472015
42
0.161489
0
VERTEX
8
1
10
28.297729
20
10.455688
0
SEQEND
0
POLYLINE
8
1
66
1
70
1
0
VERTEX
8
1
10
28.384644
20
10.751587
42
-0.457776
0
VERTEX
8
1
10
28.171631
20
10.709442
42
-1.389307
0
VERTEX
8
1
10
28.206177
20
10.759979
42
0.421347
0
VERTEX
8
1
10
28.332764
20
10.780792
42
-0.716493
0
SEQEND
0
POLYLINE
8
1
66
1
70
1
0
VERTEX
8
1
10
28.371948
20
13.000061
42
-0.033949
0
VERTEX
8
1
10
27.933716
20
13.049194
42
-0.842760
0
VERTEX
8
1
10
27.943726
20
13.112305
42
0.033963
0
VERTEX
8
1
10
28.367676
20
13.062347
0
VERTEX
8
1
10
28.413574
20
13.064697
42
-1.007539
0
VERTEX
8
1
10
28.420532
20
13.002716
0
SEQEND
0
POLYLINE
8
1
66
1
70
1
0
VERTEX
8
1
10
28.316284
20
13.272644
42
-0.030766
0
VERTEX
8
1
10
27.817627
20
13.369476
42
-0.781804
0
VERTEX
8
1
10
27.832153
20
13.428467
42
0.031397
0
VERTEX
8
1
10
28.343750
20
13.333008
0
VERTEX
8
1
10
28.382324
20
13.332275
0
VERTEX
8
1
10
28.399780
20
13.333588
42
-0.883882
0
VERTEX
8
1
10
28.410522
20
13.272552
42
-0.061854
0
SEQEND
0
POLYLINE
8
1
66
1
70
1
0
VERTEX
8
1
10
28.444214
20
14.501129
42
-0.930957
0
VERTEX
8
1
10
28.426025
20
14.441467
42
-0.080890
0
VERTEX
8
1
10
28.015137
20
14.687866
42
-0.035321
0
VERTEX
8
1
10
27.442383
20
15.198151
42
-0.829265
0
VERTEX
8
1
10
27.487427
20
15.240021
42
0.046082
0
VERTEX
8
1
10
28.234619
20
14.606842
42
0.047478
0
SEQEND
0
POLYLINE
8
1
66
1
70
1
0
VERTEX
8
1
10
27.438354
20
14.696075
42
-0.995273
0
VERTEX
8
1
10
27.467773
20
14.752411
42
0.045068
0
VERTEX
8
1
10
28.087158
20
14.314301
42
0.046471
0
VERTEX
8
1
10
28.333740
20
14.205475
42
-1.091691
0
VERTEX
8
1
10
28.334595
20
14.140594
42
-0.071122
0
VERTEX
8
1
10
27.955933
20
14.318573
42
-0.039608
0
SEQEND
0
POLYLINE
8
1
66
1
70
1
0
VERTEX
8
1
10
27.579834
20
14.106842
42
-1.152349
0
VERTEX
8
1
10
27.588867
20
14.169769
42
0.022307
0
VERTEX
8
1
10
28.338135
20
13.945740
42
-0.805385
0
VERTEX
8
1
10
28.318970
20
13.887695
42
-0.024441
0
SEQEND
0
POLYLINE
8
1
66
1
70
1
0
VERTEX
8
1
10
27.709595
20
13.731659
42
-0.859712
0
VERTEX
8
1
10
27.724731
20
13.791870
42
0.060559
0
VERTEX
8
1
10
28.191772
20
13.643982
42
0.032749
0
VERTEX
8
1
10
28.378540
20
13.632751
42
-0.799923
0
VERTEX
8
1
10
28.374390
20
13.571777
0
VERTEX
8
1
10
28.345215
20
13.570557
0
VERTEX
8
1
10
28.265869
20
13.572784
42
-0.085662
0
SEQEND
0
POLYLINE
8
1
66
1
70
1
0
VERTEX
8
1
10
27.735229
20
7.661743
42
-0.952020
0
VERTEX
8
1
10
27.790649
20
7.691620
0
VERTEX
8
1
10
27.876587
20
7.394684
42
-0.956131
0
VERTEX
8
1
10
27.821289
20
7.364594
0
SEQEND
0
POLYLINE
8
1
66
1
70
1
0
VERTEX
8
1
10
28.155273
20
12.738037
42
-0.174135
0
VERTEX
8
1
10
27.867065
20
12.892700
42
-0.729602
0
VERTEX
8
1
10
27.910889
20
12.934418
42
0.190692
0
VERTEX
8
1
10
28.210938
20
12.794006
42
0.034609
0
VERTEX
8
1
10
28.328735
20
12.795624
42
-0.803678
0
VERTEX
8
1
10
28.329712
20
12.734741
42
-0.072959
0
SEQEND
0
POLYLINE
8
1
66
1
70
1
0
VERTEX
8
1
10
27.995728
20
12.584076
0
VERTEX
8
1
10
27.993042
20
12.593109
42
-1.186652
0
VERTEX
8
1
10
28.052734
20
12.609100
42
0.285721
0
VERTEX
8
1
10
28.139893
20
12.545624
42
0.088239
0
VERTEX
8
1
10
28.278687
20
12.543152
42
-0.715952
0
VERTEX
8
1
10
28.290649
20
12.485168
42
-0.163970
0
VERTEX
8
1
10
28.064087
20
12.505585
42
-0.162838
0
SEQEND
0
POLYLINE
8
1
66
1
70
1
0
VERTEX
8
1
10
28.030273
20
7.800201
42
-0.896422
0
VERTEX
8
1
10
28.083984
20
7.831146
0
VERTEX
8
1
10
28.245361
20
7.403656
42
-0.895118
0
VERTEX
8
1
10
28.191650
20
7.372528
0
SEQEND
0
POLYLINE
8
1
66
1
70
1
0
VERTEX
8
1
10
27.435181
20
15.756134
42
-0.992199
0
VERTEX
8
1
10
27.470581
20
15.809814
42
0.034178
0
VERTEX
8
1
10
28.192993
20
15.074127
0
VERTEX
8
1
10
28.284546
20
14.998810
0
VERTEX
8
1
10
28.375854
20
14.929504
0
VERTEX
8
1
10
28.652222
20
14.768707
42
-0.939233
0
VERTEX
8
1
10
28.628174
20
14.711121
42
-0.081680
0
VERTEX
8
1
10
28.138794
20
15.039612
42
-0.038032
0
SEQEND
0
POLYLINE
8
1
66
1
70
1
0
VERTEX
8
1
10
23.529907
20
14.558380
42
-0.147502
0
VERTEX
8
1
10
27.447510
20
16.857941
42
0.069825
0
VERTEX
8
1
10
27.452515
20
16.481140
42
-0.155503
0
VERTEX
8
1
10
27.402100
20
16.510223
42
0.014508
0
VERTEX
8
1
10
27.240845
20
16.681824
42
0.244385
0
VERTEX
8
1
10
27.220581
20
16.680359
42
0.157405
0
VERTEX
8
1
10
27.299805
20
15.963104
0
VERTEX
8
1
10
27.301758
20
15.942108
0
VERTEX
8
1
10
27.284546
20
15.943665
0
VERTEX
8
1
10
27.069580
20
15.995819
42
0.583343
0
VERTEX
8
1
10
27.009521
20
15.934631
0
VERTEX
8
1
10
27.011353
20
15.913391
42
0.098731
0
VERTEX
8
1
10
27.243042
20
15.357117
42
0.044724
0
VERTEX
8
1
10
27.055176
20
15.356293
42
0.409389
0
VERTEX
8
1
10
27.032593
20
15.306305
42
0.046370
0
VERTEX
8
1
10
27.216309
20
14.886658
42
0.068131
0
VERTEX
8
1
10
27.246460
20
14.852112
42
-0.171101
0
VERTEX
8
1
10
27.150635
20
14.745605
42
0.249377
0
VERTEX
8
1
10
27.141724
20
14.711792
42
-0.063384
0
VERTEX
8
1
10
27.235596
20
14.532349
42
0.079963
0
VERTEX
8
1
10
27.352417
20
14.350708
0
VERTEX
8
1
10
27.358154
20
14.336273
42
-0.109279
0
VERTEX
8
1
10
27.324341
20
14.222046
42
0.160323
0
VERTEX
8
1
10
27.324585
20
14.152557
42
-0.018040
0
VERTEX
8
1
10
27.482910
20
13.890289
0
VERTEX
8
1
10
27.482910
20
13.789307
42
0.149850
0
VERTEX
8
1
10
27.516235
20
13.618439
42
-0.087247
0
VERTEX
8
1
10
27.638672
20
13.483368
42
-0.177169
0
VERTEX
8
1
10
27.640747
20
13.396942
42
0.077628
0
VERTEX
8
1
10
27.642334
20
13.301025
42
-0.060788
0
VERTEX
8
1
10
27.736206
20
13.085419
42
0.008349
0
VERTEX
8
1
10
26.896729
20
13.905212
42
0.090693
0
VERTEX
8
1
10
26.762939
20
13.993011
42
0.075107
0
VERTEX
8
1
10
25.941284
20
14.249969
42
0.078207
0
VERTEX
8
1
10
25.435181
20
14.234894
42
-0.048399
0
VERTEX
8
1
10
23.821777
20
14.441406
0
VERTEX
8
1
10
23.707520
20
14.470947
0
VERTEX
8
1
10
23.596313
20
14.502991
0
SEQEND
0
POLYLINE
8
1
66
1
70
1
0
VERTEX
8
1
10
27.540649
20
7.309204
42
-0.999369
0
VERTEX
8
1
10
27.481812
20
7.284821
0
VERTEX
8
1
10
27.438110
20
7.574799
42
-0.867063
0
VERTEX
8
1
10
27.496460
20
7.595184
0
SEQEND
0
POLYLINE
8
1
66
1
70
1
0
VERTEX
8
1
10
27.351685
20
11.240784
0
VERTEX
8
1
10
26.981689
20
10.660065
42
-0.865291
0
VERTEX
8
1
10
26.925293
20
10.685730
0
VERTEX
8
1
10
27.292725
20
11.261383
42
-0.886241
0
SEQEND
0
POLYLINE
8
1
66
1
70
1
0
VERTEX
8
1
10
27.204102
20
7.598328
42
-0.934736
0
VERTEX
8
1
10
27.267700
20
7.607849
42
-0.029522
0
VERTEX
8
1
10
27.209473
20
7.362274
42
-0.694892
0
VERTEX
8
1
10
27.153076
20
7.377869
0
SEQEND
0
POLYLINE
8
1
66
1
70
1
0
VERTEX
8
1
10
26.907471
20
8.919434
0
VERTEX
8
1
10
26.719360
20
8.807892
42
-0.925401
0
VERTEX
8
1
10
26.668701
20
8.847504
42
-0.030071
0
VERTEX
8
1
10
26.879761
20
8.971222
42
-0.690133
0
SEQEND
0
POLYLINE
8
1
66
1
70
1
0
VERTEX
8
1
10
26.816528
20
8.679840
42
-0.842214
0
VERTEX
8
1
10
26.863281
20
8.639740
42
-0.051062
0
VERTEX
8
1
10
26.715942
20
8.545685
42
-0.643970
0
VERTEX
8
1
10
26.683228
20
8.592407
42
-0.035730
0
SEQEND
0
POLYLINE
8
1
66
1
70
1
0
VERTEX
8
1
10
27.035522
20
9.300812
0
VERTEX
8
1
10
26.722046
20
9.094727
42
-0.985572
0
VERTEX
8
1
10
26.669189
20
9.132568
0
VERTEX
8
1
10
26.982544
20
9.338501
42
-0.985736
0
SEQEND
0
POLYLINE
8
1
66
1
70
1
0
VERTEX
8
1
10
26.656006
20
8.340149
0
VERTEX
8
1
10
26.800903
20
8.434296
42
-0.903788
0
VERTEX
8
1
10
26.852783
20
8.397034
42
-0.024286
0
VERTEX
8
1
10
26.690918
20
8.288605
42
-0.791697
0
SEQEND
0
POLYLINE
8
1
66
1
70
1
0
VERTEX
8
1
10
26.732300
20
8.032745
42
-0.839658
0
VERTEX
8
1
10
26.681885
20
8.068604
42
-0.047356
0
VERTEX
8
1
10
26.827881
20
8.179993
42
-0.642800
0
VERTEX
8
1
10
26.864624
20
8.136200
42
-0.037512
0
SEQEND
0
POLYLINE
8
1
66
1
70
1
0
VERTEX
8
1
10
26.815918
20
7.737213
42
-0.914490
0
VERTEX
8
1
10
26.769287
20
7.778503
0
VERTEX
8
1
10
26.931030
20
7.919678
42
-0.918621
0
VERTEX
8
1
10
26.977539
20
7.878387
0
SEQEND
0
POLYLINE
8
1
66
1
70
1
0
VERTEX
8
1
10
26.987793
20
7.561768
42
-0.806536
0
VERTEX
8
1
10
26.932617
20
7.587891
42
-0.037423
0
VERTEX
8
1
10
27.050659
20
7.733490
42
-0.717435
0
VERTEX
8
1
10
27.097778
20
7.696777
0
SEQEND
0
POLYLINE
8
1
66
1
70
1
0
VERTEX
8
1
10
23.890137
20
13.634644
42
-1.005387
0
VERTEX
8
1
10
23.873535
20
13.696350
42
0.032984
0
VERTEX
8
1
10
24.661011
20
13.752899
42
0.047641
0
VERTEX
8
1
10
24.839966
20
13.807465
42
-0.753014
0
VERTEX
8
1
10
24.865356
20
13.752625
42
-0.084243
0
VERTEX
8
1
10
24.651489
20
13.689331
42
-0.035766
0
SEQEND
0
POLYLINE
8
1
66
1
70
1
0
VERTEX
8
1
10
24.250610
20
13.932495
42
-0.030277
0
VERTEX
8
1
10
23.695801
20
13.968658
42
-0.834396
0
VERTEX
8
1
10
23.707397
20
14.029053
42
0.033544
0
VERTEX
8
1
10
24.299194
20
13.996613
42
-0.837159
0
VERTEX
8
1
10
24.295410
20
13.935211
0
SEQEND
0
POLYLINE
8
1
66
1
70
1
0
VERTEX
8
1
10
24.185913
20
13.370026
42
-1.022274
0
VERTEX
8
1
10
24.149414
20
13.424072
42
0.029718
0
VERTEX
8
1
10
24.642090
20
13.572754
0
VERTEX
8
1
10
24.670410
20
13.586914
0
VERTEX
8
1
10
24.684570
20
13.596375
42
-0.903979
0
VERTEX
8
1
10
24.725830
20
13.549927
42
-0.075241
0
VERTEX
8
1
10
24.645264
20
13.506714
42
-0.028669
0
SEQEND
0
POLYLINE
8
1
66
1
70
1
0
VERTEX
8
1
10
24.404419
20
13.117401
42
-1.045041
0
VERTEX
8
1
10
24.372681
20
13.172272
42
0.034219
0
VERTEX
8
1
10
24.930298
20
13.409271
42
0.060872
0
VERTEX
8
1
10
25.051880
20
13.489319
42
-0.736663
0
VERTEX
8
1
10
25.093018
20
13.443970
42
-0.074882
0
VERTEX
8
1
10
24.944336
20
13.345734
42
-0.033303
0
SEQEND
0
POLYLINE
8
1
66
1
70
1
0
VERTEX
8
1
10
24.763550
20
12.863129
42
-0.868603
0
VERTEX
8
1
10
24.729858
20
12.915161
42
0.028972
0
VERTEX
8
1
10
25.250122
20
13.199921
42
0.082754
0
VERTEX
8
1
10
25.363159
20
13.295380
42
-0.875579
0
VERTEX
8
1
10
25.407471
20
13.251953
42
-0.065675
0
VERTEX
8
1
10
25.268555
20
13.137390
42
-0.028569
0
SEQEND
0
POLYLINE
8
1
66
1
70
1
0
VERTEX
8
1
10
25.098877
20
12.659637
42
-0.868955
0
VERTEX
8
1
10
25.058838
20
12.706787
42
0.031524
0
VERTEX
8
1
10
25.525146
20
13.046265
42
0.035282
0
VERTEX
8
1
10
25.586426
20
13.122772
42
-0.724412
0
VERTEX
8
1
10
25.633301
20
13.086639
42
-0.090304
0
VERTEX
8
1
10
25.553467
20
12.990112
42
-0.034193
0
SEQEND
0
POLYLINE
8
1
66
1
70
1
0
VERTEX
8
1
10
25.322021
20
12.470978
42
-0.905151
0
VERTEX
8
1
10
25.280518
20
12.517639
42
0.034996
0
VERTEX
8
1
10
25.716187
20
12.820343
42
0.078896
0
VERTEX
8
1
10
25.779785
20
12.890686
42
-0.945360
0
VERTEX
8
1
10
25.837769
20
12.863007
42
-0.071535
0
VERTEX
8
1
10
25.765015
20
12.780548
42
-0.038285
0
SEQEND
0
POLYLINE
8
1
66
1
70
1
0
VERTEX
8
1
10
25.717041
20
12.297211
42
-0.922233
0
VERTEX
8
1
10
25.676392
20
12.344482
42
0.035343
0
VERTEX
8
1
10
26.008545
20
12.622528
0
VERTEX
8
1
10
26.036743
20
12.656616
42
-1.006413
0
VERTEX
8
1
10
26.087524
20
12.620300
0
VERTEX
8
1
10
26.057739
20
12.583954
42
-0.038151
0
SEQEND
0
POLYLINE
8
1
66
1
70
1
0
VERTEX
8
1
10
26.059448
20
12.080841
42
-0.850852
0
VERTEX
8
1
10
26.006714
20
12.112915
0
VERTEX
8
1
10
26.314087
20
12.474854
42
-1.008459
0
VERTEX
8
1
10
26.375610
20
12.452942
0
SEQEND
0
POLYLINE
8
1
66
1
70
1
0
VERTEX
8
1
10
26.188965
20
11.889557
42
-0.860455
0
VERTEX
8
1
10
26.136230
20
11.921570
0
VERTEX
8
1
10
26.494263
20
12.350342
42
-0.871681
0
VERTEX
8
1
10
26.550171
20
12.323181
0
SEQEND
0
POLYLINE
8
1
66
1
70
1
0
VERTEX
8
1
10
26.300415
20
11.716644
42
-0.866518
0
VERTEX
8
1
10
26.246460
20
11.746979
0
VERTEX
8
1
10
26.622192
20
12.236145
42
-0.863123
0
VERTEX
8
1
10
26.676147
20
12.205933
0
SEQEND
0
POLYLINE
8
1
66
1
70
1
0
VERTEX
8
1
10
26.459717
20
11.544434
42
-0.883626
0
VERTEX
8
1
10
26.404419
20
11.572601
0
VERTEX
8
1
10
26.752930
20
12.038330
42
-0.946263
0
VERTEX
8
1
10
26.813843
20
12.018921
0
SEQEND
0
POLYLINE
8
1
66
1
70
1
0
VERTEX
8
1
10
26.570435
20
11.355042
42
-0.885677
0
VERTEX
8
1
10
26.514893
20
11.382751
0
VERTEX
8
1
10
26.858276
20
11.848541
42
-0.947777
0
VERTEX
8
1
10
26.919312
20
11.829437
0
SEQEND
0
POLYLINE
8
1
66
1
70
1
0
VERTEX
8
1
10
26.696411
20
11.148895
42
-0.862075
0
VERTEX
8
1
10
26.640991
20
11.176575
0
VERTEX
8
1
10
26.989990
20
11.676544
42
-0.863277
0
VERTEX
8
1
10
27.045410
20
11.648834
0
SEQEND
0
POLYLINE
8
1
66
1
70
1
0
VERTEX
8
1
10
26.821289
20
10.945618
42
-0.861117
0
VERTEX
8
1
10
26.766846
20
10.974976
0
VERTEX
8
1
10
27.138062
20
11.477020
42
-0.863280
0
VERTEX
8
1
10
27.192627
20
11.447754
0
SEQEND
0
POLYLINE
8
1
66
1
70
1
0
VERTEX
8
1
10
23.532227
20
14.296143
42
-1.003840
0
VERTEX
8
1
10
23.536133
20
14.360840
42
0.039940
0
VERTEX
8
1
10
24.317749
20
14.113129
0
VERTEX
8
1
10
24.426880
20
14.092499
0
VERTEX
8
1
10
24.535522
20
14.076935
42
0.065925
0
VERTEX
8
1
10
24.881836
20
14.076111
42
-0.817707
0
VERTEX
8
1
10
24.883667
20
14.014771
42
-0.089101
0
VERTEX
8
1
10
24.335083
20
14.046539
42
-0.048197
0
SEQEND
0
POLYLINE
8
1
66
1
70
1
0
VERTEX
8
1
10
23.169556
20
14.142090
0
VERTEX
8
1
10
23.235474
20
14.222626
0
VERTEX
8
1
10
23.444702
20
14.098572
0
VERTEX
8
1
10
23.444580
20
14.093353
42
-0.029747
0
VERTEX
8
1
10
23.173218
20
14.135101
0
SEQEND
0
POLYLINE
8
1
66
1
70
1
0
VERTEX
8
1
10
22.226685
20
12.661774
0
VERTEX
8
1
10
22.324219
20
12.853882
0
VERTEX
8
1
10
22.329346
20
12.774475
42
-0.199626
0
VERTEX
8
1
10
22.310791
20
12.687622
0
VERTEX
8
1
10
22.229980
20
12.656982
0
SEQEND
0
POLYLINE
8
1
66
1
70
1
0
VERTEX
8
1
10
22.800537
20
4.758759
42
-0.254109
0
VERTEX
8
1
10
22.040283
20
12.251312
0
VERTEX
8
1
10
22.067383
20
12.305908
42
0.010603
0
VERTEX
8
1
10
22.175903
20
11.507660
42
-0.008762
0
VERTEX
8
1
10
22.184326
20
10.936401
42
0.007374
0
VERTEX
8
1
10
22.235352
20
10.126831
42
0.078758
0
VERTEX
8
1
10
22.330200
20
9.771973
42
0.242556
0
VERTEX
8
1
10
22.485107
20
9.642059
0
VERTEX
8
1
10
22.505615
20
9.631256
0
VERTEX
8
1
10
22.645020
20
8.488037
42
0.097368
0
VERTEX
8
1
10
22.442505
20
8.548004
42
0.501119
0
VERTEX
8
1
10
22.408813
20
8.482513
0
VERTEX
8
1
10
22.498291
20
8.251312
42
-0.090654
0
VERTEX
8
1
10
22.619751
20
7.640350
42
0.000542
0
VERTEX
8
1
10
22.856201
20
4.709839
0
SEQEND
0
POLYLINE
8
1
66
1
70
1
0
VERTEX
8
1
10
24.024780
20
3.404907
0
VERTEX
8
1
10
24.015747
20
3.365906
0
VERTEX
8
1
10
23.973145
20
3.404816
42
-0.103429
0
SEQEND
0
POLYLINE
8
1
66
1
70
1
0
VERTEX
8
1
10
25.950073
20
2.559753
0
VERTEX
8
1
10
25.288940
20
2.425415
42
-0.041406
0
VERTEX
8
1
10
24.225586
20
3.182312
0
VERTEX
8
1
10
24.197876
20
3.210175
0
VERTEX
8
1
10
24.241211
20
3.405609
42
-0.010266
0
VERTEX
8
1
10
25.663086
20
3.378479
0
VERTEX
8
1
10
25.711182
20
3.368378
42
0.017928
0
VERTEX
8
1
10
25.963867
20
2.574738
0
SEQEND
0
POLYLINE
8
1
66
1
70
1
0
VERTEX
8
1
10
26.053101
20
3.070923
42
-0.001593
0
VERTEX
8
1
10
25.956909
20
3.364716
0
VERTEX
8
1
10
26.006592
20
3.361969
0
VERTEX
8
1
10
26.012207
20
3.345551
0
SEQEND
0
POLYLINE
8
1
66
1
70
1
0
VERTEX
8
1
10
26.274780
20
1.932404
42
-0.028222
0
VERTEX
8
1
10
25.551758
20
2.276062
42
-0.014207
0
VERTEX
8
1
10
26.094604
20
2.325836
0
VERTEX
8
1
10
26.121582
20
2.282196
42
-0.051946
0
VERTEX
8
1
10
26.270996
20
1.950867
0
SEQEND
0
POLYLINE
8
1
66
1
70
1
0
VERTEX
8
1
10
26.289185
20
2.801880
42
-0.027981
0
VERTEX
8
1
10
26.289917
20
3.342834
42
0.020607
0
VERTEX
8
1
10
26.758423
20
3.320892
0
VERTEX
8
1
10
26.820679
20
3.324219
42
0.119353
0
VERTEX
8
1
10
26.977417
20
3.362457
42
0.461531
0
VERTEX
8
1
10
26.979980
20
3.415558
42
0.103778
0
VERTEX
8
1
10
26.838745
20
3.501770
42
0.066548
0
VERTEX
8
1
10
26.264038
20
3.629425
42
0.468494
0
VERTEX
8
1
10
26.162842
20
3.639893
0
VERTEX
8
1
10
26.138428
20
3.640289
42
-0.075909
0
VERTEX
8
1
10
26.103027
20
3.733704
42
-0.020229
0
VERTEX
8
1
10
25.994995
20
4.488098
0
VERTEX
8
1
10
26.012573
20
4.515961
42
-0.014423
0
VERTEX
8
1
10
28.603394
20
4.740753
42
-0.018089
0
VERTEX
8
1
10
29.123291
20
4.747345
42
-0.024486
0
VERTEX
8
1
10
29.333008
20
4.725037
0
VERTEX
8
1
10
29.384521
20
4.708527
0
VERTEX
8
1
10
29.410278
20
4.687225
0
VERTEX
8
1
10
29.408325
20
4.660797
0
VERTEX
8
1
10
29.380859
20
4.628937
0
VERTEX
8
1
10
29.343262
20
4.597504
42
-0.058839
0
VERTEX
8
1
10
29.065063
20
4.458893
42
0.011225
0
VERTEX
8
1
10
28.610962
20
4.292572
42
0.141923
0
VERTEX
8
1
10
28.547974
20
4.244568
0
VERTEX
8
1
10
28.550171
20
4.230042
0
VERTEX
8
1
10
28.565796
20
4.216156
0
VERTEX
8
1
10
28.596313
20
4.202881
42
0.054978
0
VERTEX
8
1
10
29.113647
20
4.141571
42
0.030222
0
VERTEX
8
1
10
29.869629
20
4.166687
42
0.011625
0
VERTEX
8
1
10
31.854736
20
4.396576
0
VERTEX
8
1
10
31.900269
20
4.385101
0
VERTEX
8
1
10
31.703125
20
3.608978
0
VERTEX
8
1
10
29.374390
20
3.419800
42
0.015326
0
VERTEX
8
1
10
27.978760
20
3.271667
42
0.041769
0
VERTEX
8
1
10
27.820068
20
3.234863
0
VERTEX
8
1
10
27.799805
20
3.221771
0
VERTEX
8
1
10
27.788574
20
3.206696
42
0.341110
0
VERTEX
8
1
10
27.815552
20
3.166229
42
0.065331
0
VERTEX
8
1
10
28.010986
20
3.113647
42
0.024481
0
VERTEX
8
1
10
28.730713
20
3.048737
42
-0.012335
0
VERTEX
8
1
10
31.282104
20
3.276855
42
-0.014352
0
VERTEX
8
1
10
31.630249
20
3.286987
0
VERTEX
8
1
10
31.599731
20
3.112213
42
-0.047727
0
VERTEX
8
1
10
31.573486
20
2.893860
42
0.083850
0
VERTEX
8
1
10
31.364258
20
2.798035
42
0.507273
0
VERTEX
8
1
10
31.375854
20
2.759827
42
0.079618
0
VERTEX
8
1
10
31.522827
20
2.719849
0
VERTEX
8
1
10
31.538940
20
2.712555
0
VERTEX
8
1
10
31.481689
20
2.466736
42
0.012405
0
VERTEX
8
1
10
29.630005
20
2.462952
42
0.022479
0
VERTEX
8
1
10
28.809814
20
2.394775
42
0.003459
0
VERTEX
8
1
10
27.677612
20
2.171295
42
-0.082445
0
VERTEX
8
1
10
27.455200
20
2.169342
42
-0.315424
0
VERTEX
8
1
10
27.378052
20
2.260101
42
-0.136379
0
VERTEX
8
1
10
27.397461
20
2.422791
42
0.032972
0
VERTEX
8
1
10
27.475098
20
2.652679
0
VERTEX
8
1
10
27.478760
20
2.680878
42
0.406025
0
VERTEX
8
1
10
27.393066
20
2.798920
0
VERTEX
8
1
10
27.354248
20
2.807495
42
0.069547
0
VERTEX
8
1
10
27.013672
20
2.786469
42
0.004565
0
VERTEX
8
1
10
26.327759
20
2.640503
0
VERTEX
8
1
10
26.314819
20
2.651520
42
-0.042201
0
SEQEND
0
POLYLINE
8
1
66
1
70
1
0
VERTEX
8
1
10
33.532471
20
4.088104
42
0.069615
0
VERTEX
8
1
10
33.874634
20
4.063904
42
0.040576
0
VERTEX
8
1
10
33.888428
20
3.001862
0
VERTEX
8
1
10
33.873657
20
2.967316
42
-0.032095
0
VERTEX
8
1
10
33.210571
20
2.917053
42
-0.061838
0
VERTEX
8
1
10
32.988647
20
2.951630
0
VERTEX
8
1
10
32.966187
20
2.961884
42
-0.442650
0
VERTEX
8
1
10
32.925659
20
3.067230
0
VERTEX
8
1
10
32.942627
20
3.117249
42
-0.074904
0
VERTEX
8
1
10
33.206177
20
3.518799
42
0.066154
0
VERTEX
8
1
10
33.314819
20
3.694580
42
0.430679
0
VERTEX
8
1
10
33.280762
20
3.751526
0
VERTEX
8
1
10
33.251221
20
3.757599
42
0.063643
0
VERTEX
8
1
10
33.050049
20
3.739471
42
-0.014056
0
VERTEX
8
1
10
31.947754
20
3.629059
0
VERTEX
8
1
10
31.927856
20
3.652863
0
VERTEX
8
1
10
32.105835
20
4.423401
0
VERTEX
8
1
10
32.174072
20
4.437286
42
-0.013143
0
VERTEX
8
1
10
33.092773
20
4.534760
42
-0.046144
0
VERTEX
8
1
10
33.415161
20
4.526001
42
-0.397645
0
VERTEX
8
1
10
33.484131
20
4.423248
42
-0.080527
0
VERTEX
8
1
10
33.459961
20
4.336517
42
0.041405
0
VERTEX
8
1
10
33.423218
20
4.207825
42
0.348717
0
VERTEX
8
1
10
33.495728
20
4.101440
0
SEQEND
0
POLYLINE
8
1
66
1
70
1
0
VERTEX
8
1
10
32.201538
20
3.248260
42
-0.434335
0
VERTEX
8
1
10
32.222656
20
3.208130
42
-0.137943
0
VERTEX
8
1
10
32.113770
20
3.114624
42
-0.059636
0
VERTEX
8
1
10
31.775513
20
2.963867
0
VERTEX
8
1
10
31.847534
20
3.291321
42
-0.070401
0
VERTEX
8
1
10
32.184326
20
3.256104
0
SEQEND
0
POLYLINE
8
1
66
1
70
1
0
VERTEX
8
1
10
26.427734
20
2.066956
0
VERTEX
8
1
10
26.390503
20
2.319855
42
-0.444746
0
VERTEX
8
1
10
26.472778
20
2.214783
42
-0.055346
0
SEQEND
0
POLYLINE
8
1
66
1
70
1
0
VERTEX
8
1
10
31.397217
20
2.133575
0
VERTEX
8
1
10
31.233154
20
1.564636
42
-0.154949
0
VERTEX
8
1
10
26.455200
20
1.858337
0
VERTEX
8
1
10
26.447998
20
1.912506
42
0.135275
0
VERTEX
8
1
10
26.662842
20
1.857544
42
0.043642
0
VERTEX
8
1
10
27.397705
20
1.903473
42
-0.022022
0
VERTEX
8
1
10
28.945190
20
2.065369
42
-0.017422
0
VERTEX
8
1
10
31.378540
20
2.142548
0
SEQEND
0
POLYLINE
8
1
66
1
70
1
0
VERTEX
8
1
10
32.758057
20
2.122589
42
-0.046380
0
VERTEX
8
1
10
31.408569
20
1.610992
0
VERTEX
8
1
10
31.526489
20
1.822601
0
VERTEX
8
1
10
31.597412
20
2.142395
42
-0.007022
0
SEQEND
0
POLYLINE
8
1
66
1
70
1
0
VERTEX
8
1
10
33.916992
20
2.821136
42
-0.030520
0
VERTEX
8
1
10
33.261963
20
2.391998
42
0.009479
0
VERTEX
8
1
10
31.736084
20
2.459564
0
VERTEX
8
1
10
31.666992
20
2.464813
42
-0.011602
0
VERTEX
8
1
10
31.719727
20
2.696259
42
0.041627
0
VERTEX
8
1
10
32.337524
20
2.686981
42
0.017639
0
VERTEX
8
1
10
33.912354
20
2.841583
0
SEQEND
0
POLYLINE
8
1
66
1
70
1
0
VERTEX
8
1
10
34.020142
20
3.960724
42
-0.075587
0
VERTEX
8
1
10
33.978027
20
4.068878
0
VERTEX
8
1
10
34.028564
20
4.072327
42
-0.089114
0
VERTEX
8
1
10
34.025757
20
3.959778
0
SEQEND
0
POLYLINE
8
1
66
1
70
1
0
VERTEX
8
1
10
34.902466
20
3.663086
42
-0.026052
0
VERTEX
8
1
10
34.290283
20
3.105804
42
0.059993
0
VERTEX
8
1
10
34.332275
20
3.464294
0
VERTEX
8
1
10
34.329102
20
3.475983
0
VERTEX
8
1
10
34.324829
20
3.484497
0
VERTEX
8
1
10
34.258545
20
3.545685
42
-0.029498
0
VERTEX
8
1
10
34.165405
20
3.301147
0
VERTEX
8
1
10
34.155273
20
3.285553
0
VERTEX
8
1
10
34.146118
20
3.276642
0
VERTEX
8
1
10
34.138306
20
3.275726
42
-0.172037
0
VERTEX
8
1
10
34.127686
20
3.317596
42
-0.012238
0
VERTEX
8
1
10
34.180542
20
4.085785
42
0.005578
0
VERTEX
8
1
10
34.834717
20
4.169830
0
VERTEX
8
1
10
34.918457
20
3.699524
0
SEQEND
0
POLYLINE
8
1
66
1
70
1
0
VERTEX
8
1
10
35.158936
20
3.935059
0
VERTEX
8
1
10
35.037354
20
3.802765
42
0.038408
0
VERTEX
8
1
10
35.002930
20
4.190491
0
VERTEX
8
1
10
35.155029
20
4.207397
0
SEQEND
0
POLYLINE
8
1
66
1
70
1
0
VERTEX
8
1
10
35.414185
20
4.233063
0
VERTEX
8
1
10
35.313354
20
4.111267
0
VERTEX
8
1
10
35.312988
20
4.223572
0
SEQEND
0
POLYLINE
8
1
66
1
70
1
0
VERTEX
8
1
10
37.179443
20
9.256958
42
-0.087068
0
VERTEX
8
1
10
36.730225
20
6.573486
42
0.030962
0
VERTEX
8
1
10
36.534058
20
7.230621
42
0.044525
0
VERTEX
8
1
10
36.417114
20
7.453857
0
VERTEX
8
1
10
36.394287
20
7.478943
0
VERTEX
8
1
10
36.376343
20
7.487457
0
VERTEX
8
1
10
36.363159
20
7.479645
0
VERTEX
8
1
10
36.354980
20
7.456818
0
VERTEX
8
1
10
36.350708
20
7.420349
42
0.037542
0
VERTEX
8
1
10
36.369141
20
7.163513
42
0.007196
0
VERTEX
8
1
10
36.542480
20
6.111664
0
VERTEX
8
1
10
36.531982
20
6.069427
42
-0.023086
0
VERTEX
8
1
10
36.215576
20
5.423920
0
VERTEX
8
1
10
36.211426
20
5.427246
42
0.205244
0
VERTEX
8
1
10
36.191895
20
5.518890
0
VERTEX
8
1
10
36.188477
20
5.518860
42
0.161903
0
VERTEX
8
1
10
36.152588
20
5.478210
42
0.058190
0
VERTEX
8
1
10
36.006470
20
5.070679
0
VERTEX
8
1
10
35.994263
20
5.044952
42
-0.016882
0
VERTEX
8
1
10
35.687744
20
4.588898
0
VERTEX
8
1
10
35.669189
20
4.576050
0
VERTEX
8
1
10
35.321655
20
4.508240
0
VERTEX
8
1
10
35.312378
20
4.584778
42
0.005273
0
VERTEX
8
1
10
35.290161
20
7.444702
0
VERTEX
8
1
10
35.287476
20
7.482391
0
VERTEX
8
1
10
35.284424
20
7.498932
42
-0.379672
0
VERTEX
8
1
10
35.307373
20
7.551758
42
0.104526
0
VERTEX
8
1
10
35.414185
20
7.618408
42
0.225494
0
VERTEX
8
1
10
35.447510
20
7.809418
42
-0.060282
0
VERTEX
8
1
10
35.417236
20
7.882568
0
VERTEX
8
1
10
35.418457
20
7.890900
42
-0.234772
0
VERTEX
8
1
10
35.589966
20
8.007202
42
-0.019922
0
VERTEX
8
1
10
35.722656
20
8.020050
42
0.353594
0
VERTEX
8
1
10
35.766846
20
8.079285
42
0.153326
0
VERTEX
8
1
10
35.683472
20
8.323608
42
-0.094701
0
VERTEX
8
1
10
35.627319
20
8.390839
42
-0.196279
0
VERTEX
8
1
10
35.658081
20
8.603729
42
0.109970
0
VERTEX
8
1
10
35.674927
20
8.712189
42
0.183861
0
VERTEX
8
1
10
35.619629
20
8.975739
0
VERTEX
8
1
10
35.608643
20
8.997864
42
-0.253203
0
VERTEX
8
1
10
35.600708
20
9.109467
42
0.200601
0
VERTEX
8
1
10
35.396362
20
9.129974
42
-0.293976
0
VERTEX
8
1
10
35.375977
20
9.145691
42
-0.066616
0
VERTEX
8
1
10
35.376221
20
9.387573
42
0.044874
0
VERTEX
8
1
10
35.383911
20
9.931885
0
VERTEX
8
1
10
35.378418
20
9.968231
42
-0.032256
0
VERTEX
8
1
10
35.316040
20
10.311646
42
0.033593
0
VERTEX
8
1
10
35.125732
20
11.192108
42
0.088376
0
VERTEX
8
1
10
35.026367
20
11.373077
42
0.299654
0
VERTEX
8
1
10
34.927368
20
11.391479
42
-0.244270
0
VERTEX
8
1
10
34.886719
20
11.408112
0
VERTEX
8
1
10
34.863281
20
11.471161
0
VERTEX
8
1
10
34.859009
20
11.464447
0
VERTEX
8
1
10
34.826050
20
11.329651
0
VERTEX
8
1
10
34.818604
20
11.319397
0
VERTEX
8
1
10
34.810425
20
11.320648
0
VERTEX
8
1
10
34.801270
20
11.336365
0
VERTEX
8
1
10
34.791260
20
11.369537
42
-0.026543
0
VERTEX
8
1
10
34.723999
20
11.902527
0
VERTEX
8
1
10
34.628174
20
13.077301
0
VERTEX
8
1
10
34.609863
20
13.251434
42
0.038012
0
VERTEX
8
1
10
34.545898
20
13.643127
0
VERTEX
8
1
10
34.532471
20
13.679199
0
VERTEX
8
1
10
34.519775
20
13.696320
0
VERTEX
8
1
10
34.508179
20
13.697266
0
VERTEX
8
1
10
34.497559
20
13.684967
42
0.061090
0
VERTEX
8
1
10
34.454834
20
13.468170
42
0.017355
0
VERTEX
8
1
10
34.479004
20
12.531647
42
0.043029
0
VERTEX
8
1
10
34.527954
20
12.251740
42
-0.014778
0
VERTEX
8
1
10
34.647339
20
11.360077
42
0.123086
0
VERTEX
8
1
10
34.386230
20
11.217316
42
0.222362
0
VERTEX
8
1
10
34.361084
20
11.110596
0
VERTEX
8
1
10
34.411133
20
10.974274
42
-0.044570
0
VERTEX
8
1
10
34.473267
20
10.460144
42
0.091385
0
VERTEX
8
1
10
34.571289
20
9.988373
42
-0.117024
0
VERTEX
8
1
10
34.588257
20
9.726532
42
0.095250
0
VERTEX
8
1
10
34.627319
20
9.048431
0
VERTEX
8
1
10
34.638062
20
9.016693
42
0.000593
0
VERTEX
8
1
10
34.786377
20
8.689301
42
-0.202829
0
VERTEX
8
1
10
34.775635
20
8.445496
42
0.129099
0
VERTEX
8
1
10
34.736206
20
8.144226
42
0.046458
0
VERTEX
8
1
10
34.781494
20
7.890533
42
0.096324
0
VERTEX
8
1
10
34.975586
20
7.596863
0
VERTEX
8
1
10
34.985718
20
7.580078
42
-0.031097
0
VERTEX
8
1
10
35.032471
20
7.164459
42
-0.009495
0
VERTEX
8
1
10
35.146851
20
4.554596
0
VERTEX
8
1
10
35.143066
20
4.470886
0
VERTEX
8
1
10
34.952393
20
4.430450
0
VERTEX
8
1
10
34.945679
20
4.434662
42
0.154682
0
VERTEX
8
1
10
34.860229
20
4.591278
42
0.502219
0
VERTEX
8
1
10
34.819458
20
4.578461
42
0.087156
0
VERTEX
8
1
10
34.812256
20
4.413818
0
VERTEX
8
1
10
34.799194
20
4.399811
0
VERTEX
8
1
10
34.715454
20
4.385101
42
-0.094933
0
VERTEX
8
1
10
34.466064
20
4.377899
42
-0.367125
0
VERTEX
8
1
10
34.386230
20
4.497192
42
-0.111642
0
VERTEX
8
1
10
34.421021
20
4.666656
42
0.065333
0
VERTEX
8
1
10
34.491333
20
4.899231
42
0.338626
0
VERTEX
8
1
10
34.420410
20
5.001312
42
0.109994
0
VERTEX
8
1
10
34.190918
20
5.016632
0
VERTEX
8
1
10
34.115356
20
5.023773
0
VERTEX
8
1
10
34.116577
20
5.141266
42
-0.003872
0
VERTEX
8
1
10
34.137939
20
7.866089
42
-0.042460
0
VERTEX
8
1
10
34.151733
20
8.018829
0
VERTEX
8
1
10
34.236572
20
8.107635
42
0.203134
0
VERTEX
8
1
10
34.324097
20
8.290771
0
VERTEX
8
1
10
34.291870
20
8.481171
42
-0.124213
0
VERTEX
8
1
10
34.303955
20
8.863922
42
0.086565
0
VERTEX
8
1
10
34.317383
20
9.216461
42
0.001300
0
VERTEX
8
1
10
34.304321
20
9.745361
42
-0.051137
0
VERTEX
8
1
10
34.317261
20
10.150269
42
0.074264
0
VERTEX
8
1
10
34.302612
20
10.367279
42
0.221219
0
VERTEX
8
1
10
34.256470
20
10.415222
42
0.072902
0
VERTEX
8
1
10
34.109741
20
10.478394
42
0.015434
0
VERTEX
8
1
10
34.110596
20
11.451233
42
0.049868
0
VERTEX
8
1
10
34.082520
20
11.675476
42
0.257238
0
VERTEX
8
1
10
34.039429
20
11.725983
42
0.319274
0
VERTEX
8
1
10
34.006836
20
11.709686
42
0.104897
0
VERTEX
8
1
10
33.980591
20
11.575867
42
-0.016613
0
VERTEX
8
1
10
34.025146
20
10.642609
42
-0.041815
0
VERTEX
8
1
10
34.014404
20
10.518005
0
VERTEX
8
1
10
34.007202
20
10.501160
0
VERTEX
8
1
10
33.950073
20
10.494110
42
0.339072
0
VERTEX
8
1
10
33.791504
20
10.359192
0
VERTEX
8
1
10
33.783569
20
10.187012
42
0.030561
0
VERTEX
8
1
10
33.767700
20
9.515045
0
VERTEX
8
1
10
33.770020
20
9.482666
42
-0.020300
0
VERTEX
8
1
10
33.741943
20
8.846893
42
0.029856
0
VERTEX
8
1
10
33.748657
20
8.605652
42
0.032722
0
VERTEX
8
1
10
33.736450
20
8.217072
42
0.137534
0
VERTEX
8
1
10
33.789185
20
8.101654
0
VERTEX
8
1
10
33.809082
20
8.086670
0
VERTEX
8
1
10
33.896606
20
8.049591
42
-0.272544
0
VERTEX
8
1
10
33.979248
20
7.951477
42
-0.000870
0
VERTEX
8
1
10
34.025269
20
5.006561
0
VERTEX
8
1
10
34.017334
20
4.993225
0
VERTEX
8
1
10
33.801880
20
4.950043
42
0.086111
0
VERTEX
8
1
10
33.704712
20
5.223572
42
0.166159
0
VERTEX
8
1
10
33.670410
20
5.250305
42
0.274606
0
VERTEX
8
1
10
33.658325
20
5.241241
42
0.106013
0
VERTEX
8
1
10
33.658936
20
5.147675
0
VERTEX
8
1
10
33.703491
20
4.930664
42
-0.009684
0
VERTEX
8
1
10
32.199463
20
4.614105
0
VERTEX
8
1
10
32.161377
20
4.639801
42
0.022820
0
VERTEX
8
1
10
32.464844
20
6.018585
0
VERTEX
8
1
10
32.516602
20
6.454010
42
0.010403
0
VERTEX
8
1
10
32.661255
20
7.553986
42
0.037019
0
VERTEX
8
1
10
32.666504
20
7.747986
0
VERTEX
8
1
10
32.659790
20
7.779510
0
VERTEX
8
1
10
32.647949
20
7.791107
0
VERTEX
8
1
10
32.630737
20
7.780670
42
0.070513
0
VERTEX
8
1
10
32.526123
20
7.556091
42
0.041248
0
VERTEX
8
1
10
32.260864
20
6.286346
42
-0.006103
0
VERTEX
8
1
10
32.144531
20
5.417999
42
-0.028774
0
VERTEX
8
1
10
31.957031
20
4.601501
0
VERTEX
8
1
10
31.937378
20
4.564911
0
VERTEX
8
1
10
31.367554
20
4.468292
42
-0.035124
0
VERTEX
8
1
10
30.447632
20
4.375916
0
VERTEX
8
1
10
30.366455
20
4.377838
42
-0.114916
0
VERTEX
8
1
10
30.145874
20
4.424377
0
VERTEX
8
1
10
30.120117
20
4.446777
0
VERTEX
8
1
10
30.107544
20
4.473877
0
VERTEX
8
1
10
30.108765
20
4.505859
42
-0.106642
0
VERTEX
8
1
10
30.336060
20
4.901337
42
0.024652
0
VERTEX
8
1
10
30.487549
20
5.114807
0
VERTEX
8
1
10
30.500000
20
5.145294
42
0.409246
0
VERTEX
8
1
10
30.477173
20
5.205841
42
0.105594
0
VERTEX
8
1
10
30.335815
20
5.212036
42
-0.018809
0
VERTEX
8
1
10
29.413086
20
5.110260
0
VERTEX
8
1
10
29.201538
20
5.092163
42
0.002725
0
VERTEX
8
1
10
25.986694
20
4.825104
0
VERTEX
8
1
10
25.951416
20
4.829742
0
VERTEX
8
1
10
25.927490
20
4.955688
0
VERTEX
8
1
10
25.930908
20
4.955505
42
0.319217
0
VERTEX
8
1
10
26.023560
20
4.962555
42
0.159647
0
VERTEX
8
1
10
26.060425
20
5.120239
0
VERTEX
8
1
10
26.042847
20
5.571289
42
-0.129273
0
VERTEX
8
1
10
26.079712
20
5.752930
0
VERTEX
8
1
10
26.093262
20
5.770020
42
-0.315738
0
VERTEX
8
1
10
26.202148
20
5.804077
42
0.066809
0
VERTEX
8
1
10
26.108032
20
6.023071
42
-0.116870
0
VERTEX
8
1
10
26.006958
20
6.417694
42
0.012100
0
VERTEX
8
1
10
25.930054
20
7.363342
0
VERTEX
8
1
10
25.921997
20
7.413300
42
0.274859
0
VERTEX
8
1
10
25.796265
20
7.594513
42
-0.051958
0
VERTEX
8
1
10
25.660889
20
7.671539
0
VERTEX
8
1
10
25.655396
20
7.679291
0
VERTEX
8
1
10
25.652222
20
7.687408
42
0.026823
0
VERTEX
8
1
10
25.531128
20
8.704529
42
0.048957
0
VERTEX
8
1
10
25.490601
20
8.840149
0
VERTEX
8
1
10
25.476807
20
8.860138
42
0.423137
0
VERTEX
8
1
10
25.412354
20
8.833862
42
0.178778
0
VERTEX
8
1
10
25.399170
20
8.765564
42
-0.006246
0
VERTEX
8
1
10
25.528687
20
7.673462
42
-0.173378
0
VERTEX
8
1
10
25.512451
20
7.637573
42
-0.048914
0
VERTEX
8
1
10
25.370239
20
7.565643
42
0.230498
0
VERTEX
8
1
10
25.281982
20
7.431610
0
VERTEX
8
1
10
25.289917
20
7.231232
0
VERTEX
8
1
10
25.318848
20
6.971161
42
-0.008472
0
VERTEX
8
1
10
25.412598
20
5.993439
42
0.050896
0
VERTEX
8
1
10
25.590576
20
5.078552
42
0.113464
0
VERTEX
8
1
10
25.662964
20
4.948700
42
-0.045875
0
VERTEX
8
1
10
25.759399
20
4.804993
0
VERTEX
8
1
10
25.713989
20
4.797852
42
0.029311
0
VERTEX
8
1
10
25.038330
20
4.702698
42
0.263346
0
VERTEX
8
1
10
24.976807
20
4.661560
42
0.352694
0
VERTEX
8
1
10
24.993042
20
4.630371
42
0.086340
0
VERTEX
8
1
10
25.136597
20
4.582886
42
0.030417
0
VERTEX
8
1
10
25.829102
20
4.510742
0
VERTEX
8
1
10
25.847168
20
4.495361
0
VERTEX
8
1
10
25.963257
20
3.677612
0
VERTEX
8
1
10
25.963989
20
3.653595
0
VERTEX
8
1
10
25.858765
20
3.660767
0
VERTEX
8
1
10
25.848389
20
3.680542
42
0.044621
0
VERTEX
8
1
10
25.598633
20
4.272156
42
0.300217
0
VERTEX
8
1
10
25.507324
20
4.327850
42
0.445555
0
VERTEX
8
1
10
25.484741
20
4.285675
0
VERTEX
8
1
10
25.485718
20
4.271454
42
0.025725
0
VERTEX
8
1
10
25.618896
20
3.697357
0
VERTEX
8
1
10
25.614502
20
3.675385
42
0.006900
0
VERTEX
8
1
10
24.376709
20
3.724945
0
VERTEX
8
1
10
24.314331
20
3.731415
0
VERTEX
8
1
10
24.424927
20
4.211395
42
0.007397
0
VERTEX
8
1
10
24.738525
20
5.505737
42
0.027885
0
VERTEX
8
1
10
24.845093
20
6.219055
0
VERTEX
8
1
10
24.856812
20
6.310394
42
0.008181
0
VERTEX
8
1
10
25.004028
20
7.414825
42
0.059353
0
VERTEX
8
1
10
25.009399
20
7.666687
0
VERTEX
8
1
10
24.999756
20
7.687073
0
VERTEX
8
1
10
24.984863
20
7.686279
0
VERTEX
8
1
10
24.964111
20
7.662323
42
0.057953
0
VERTEX
8
1
10
24.843140
20
7.361053
42
0.039227
0
VERTEX
8
1
10
24.587769
20
6.033051
42
-0.016020
0
VERTEX
8
1
10
24.437744
20
5.034790
42
-0.003445
0
VERTEX
8
1
10
24.111328
20
3.758942
0
VERTEX
8
1
10
24.094971
20
3.731659
0
VERTEX
8
1
10
23.813110
20
3.736877
0
VERTEX
8
1
10
23.806030
20
3.794189
42
-0.009812
0
VERTEX
8
1
10
23.804565
20
5.043488
42
0.014657
0
VERTEX
8
1
10
23.929932
20
5.601868
0
VERTEX
8
1
10
23.930786
20
5.620270
0
VERTEX
8
1
10
23.929077
20
5.633118
42
0.641684
0
VERTEX
8
1
10
23.904053
20
5.640289
42
-0.039597
0
VERTEX
8
1
10
23.787231
20
5.555542
42
-0.211054
0
VERTEX
8
1
10
23.747559
20
5.553528
0
VERTEX
8
1
10
23.736938
20
5.585358
42
-0.032766
0
VERTEX
8
1
10
23.710938
20
5.995331
42
-0.007248
0
VERTEX
8
1
10
23.723145
20
8.156250
42
-0.258712
0
VERTEX
8
1
10
23.781006
20
8.234985
42
0.215393
0
VERTEX
8
1
10
23.944092
20
8.434204
42
0.086699
0
VERTEX
8
1
10
23.926147
20
8.699402
42
-0.077471
0
VERTEX
8
1
10
23.923950
20
8.993103
42
0.063089
0
VERTEX
8
1
10
23.832153
20
9.675507
42
-0.097307
0
VERTEX
8
1
10
23.833740
20
10.039764
0
VERTEX
8
1
10
23.838013
20
10.074127
42
0.110515
0
VERTEX
8
1
10
23.791992
20
10.387146
42
0.085370
0
VERTEX
8
1
10
23.717896
20
10.498138
42
-0.263940
0
VERTEX
8
1
10
23.715332
20
10.563354
0
VERTEX
8
1
10
23.806030
20
10.741913
0
VERTEX
8
1
10
23.809570
20
10.757782
0
VERTEX
8
1
10
23.810791
20
10.777496
42
0.066872
0
VERTEX
8
1
10
23.728027
20
11.131744
42
-0.002323
0
VERTEX
8
1
10
23.611694
20
11.526306
42
0.052504
0
VERTEX
8
1
10
23.531982
20
11.703827
42
0.218857
0
VERTEX
8
1
10
23.407959
20
11.780701
42
0.407842
0
VERTEX
8
1
10
23.376343
20
11.748718
42
0.130733
0
VERTEX
8
1
10
23.377686
20
11.676819
42
0.050588
0
VERTEX
8
1
10
23.501343
20
11.331970
42
0.023202
0
VERTEX
8
1
10
23.324097
20
11.100098
42
0.176390
0
VERTEX
8
1
10
23.301758
20
10.931152
42
0.042978
0
VERTEX
8
1
10
23.357910
20
10.702484
42
-0.133954
0
VERTEX
8
1
10
23.348145
20
10.525299
0
VERTEX
8
1
10
23.327881
20
10.529449
42
0.287330
0
VERTEX
8
1
10
23.239746
20
10.379425
42
0.087626
0
VERTEX
8
1
10
23.264771
20
10.102051
42
-0.036171
0
VERTEX
8
1
10
23.291992
20
9.855804
42
0.007888
0
VERTEX
8
1
10
23.268433
20
9.079285
42
0.016710
0
VERTEX
8
1
10
23.279785
20
8.597382
42
0.160413
0
VERTEX
8
1
10
23.445068
20
8.188171
0
VERTEX
8
1
10
23.573608
20
3.827454
0
VERTEX
8
1
10
23.555298
20
3.819031
42
-0.020076
0
VERTEX
8
1
10
23.139893
20
4.299591
0
VERTEX
8
1
10
23.130493
20
4.370697
0
VERTEX
8
1
10
23.091797
20
4.921021
42
0.023377
0
VERTEX
8
1
10
23.020874
20
5.615479
42
-0.011481
0
VERTEX
8
1
10
22.787842
20
8.220581
42
0.008324
0
VERTEX
8
1
10
22.729126
20
9.638092
42
0.237466
0
VERTEX
8
1
10
22.867798
20
9.874786
0
VERTEX
8
1
10
22.871216
20
9.909302
0
VERTEX
8
1
10
22.869995
20
9.969299
42
-0.000567
0
VERTEX
8
1
10
22.827515
20
10.819489
0
VERTEX
8
1
10
22.810181
20
11.154694
0
VERTEX
8
1
10
22.791992
20
11.489868
42
0.027373
0
VERTEX
8
1
10
22.623291
20
12.444916
42
0.052237
0
VERTEX
8
1
10
22.577759
20
12.570099
42
0.169002
0
VERTEX
8
1
10
22.519897
20
12.609619
42
0.267442
0
VERTEX
8
1
10
22.506958
20
12.601807
42
-0.120045
0
VERTEX
8
1
10
22.428955
20
12.772949
42
0.015509
0
VERTEX
8
1
10
22.376953
20
12.949524
42
-0.041510
0
VERTEX
8
1
10
23.069092
20
14.014801
42
0.066069
0
VERTEX
8
1
10
23.625610
20
13.761566
0
VERTEX
8
1
10
23.563965
20
13.745605
0
VERTEX
8
1
10
23.332886
20
13.709015
42
0.524981
0
VERTEX
8
1
10
23.295288
20
13.637329
0
VERTEX
8
1
10
23.301758
20
13.620941
42
0.129903
0
VERTEX
8
1
10
23.401123
20
13.543274
42
0.059175
0
VERTEX
8
1
10
23.889893
20
13.398438
0
VERTEX
8
1
10
23.881104
20
13.386780
42
0.086844
0
VERTEX
8
1
10
23.707642
20
13.235840
42
0.254151
0
VERTEX
8
1
10
23.704834
20
13.148315
42
0.143197
0
VERTEX
8
1
10
23.787109
20
13.098907
42
0.053851
0
VERTEX
8
1
10
24.101929
20
13.049591
42
0.062319
0
VERTEX
8
1
10
24.101685
20
12.832489
42
0.264856
0
VERTEX
8
1
10
24.130737
20
12.811310
42
0.088107
0
VERTEX
8
1
10
24.515869
20
12.763306
42
-0.184712
0
VERTEX
8
1
10
24.532837
20
12.749756
42
-0.100299
0
VERTEX
8
1
10
24.581909
20
12.600403
42
0.207857
0
VERTEX
8
1
10
24.635498
20
12.544189
42
0.062274
0
VERTEX
8
1
10
24.875854
20
12.496338
42
0.043657
0
VERTEX
8
1
10
24.930908
20
12.335236
42
0.183865
0
VERTEX
8
1
10
25.005493
20
12.274689
42
0.068470
0
VERTEX
8
1
10
25.239380
20
12.290588
42
0.213614
0
VERTEX
8
1
10
25.365967
20
12.164551
42
0.048814
0
VERTEX
8
1
10
25.633789
20
12.164215
42
0.054324
0
VERTEX
8
1
10
25.761108
20
11.999969
42
0.105254
0
VERTEX
8
1
10
25.934937
20
11.958862
42
0.333335
0
VERTEX
8
1
10
25.999390
20
11.802521
42
-0.168209
0
VERTEX
8
1
10
26.067871
20
11.707642
42
0.219339
0
VERTEX
8
1
10
26.146118
20
11.631012
42
-0.216766
0
VERTEX
8
1
10
26.182739
20
11.573792
42
0.236812
0
VERTEX
8
1
10
26.273926
20
11.435364
42
-0.251236
0
VERTEX
8
1
10
26.316772
20
11.330292
42
0.327227
0
VERTEX
8
1
10
26.394409
20
11.233398
42
-0.271379
0
VERTEX
8
1
10
26.450562
20
11.136810
42
0.228764
0
VERTEX
8
1
10
26.554810
20
10.992035
42
-0.175003
0
VERTEX
8
1
10
26.629761
20
10.862793
42
0.305915
0
VERTEX
8
1
10
26.728027
20
10.789856
0
VERTEX
8
1
10
26.743042
20
10.786285
42
-0.085310
0
VERTEX
8
1
10
26.756348
20
10.658417
42
0.183124
0
VERTEX
8
1
10
26.799072
20
10.578369
42
-0.279961
0
VERTEX
8
1
10
26.868896
20
10.505463
42
-0.177191
0
VERTEX
8
1
10
26.865845
20
10.302673
42
0.039798
0
VERTEX
8
1
10
26.823364
20
10.092010
42
0.178313
0
VERTEX
8
1
10
26.831055
20
10.064087
0
VERTEX
8
1
10
26.884888
20
10.061005
42
-0.560890
0
VERTEX
8
1
10
26.918823
20
10.027527
42
0.023136
0
VERTEX
8
1
10
26.795288
20
9.704437
42
0.232184
0
VERTEX
8
1
10
26.798828
20
9.682800
42
-0.190359
0
VERTEX
8
1
10
26.945190
20
9.683990
0
VERTEX
8
1
10
26.947266
20
9.526581
42
-0.082673
0
VERTEX
8
1
10
26.868408
20
9.452606
42
0.014470
0
VERTEX
8
1
10
26.421875
20
9.114410
42
0.143519
0
VERTEX
8
1
10
26.355469
20
9.032349
0
VERTEX
8
1
10
26.359375
20
9.021484
42
0.037969
0
VERTEX
8
1
10
26.533569
20
9.003326
42
0.045543
0
VERTEX
8
1
10
26.395264
20
8.796509
42
0.356078
0
VERTEX
8
1
10
26.398926
20
8.768677
0
VERTEX
8
1
10
26.566528
20
8.766266
42
0.036464
0
VERTEX
8
1
10
26.431274
20
8.599670
42
0.308741
0
VERTEX
8
1
10
26.437622
20
8.563812
0
VERTEX
8
1
10
26.551147
20
8.498199
42
0.056623
0
VERTEX
8
1
10
26.436768
20
8.272827
42
0.176508
0
VERTEX
8
1
10
26.444092
20
8.232727
0
VERTEX
8
1
10
26.550781
20
8.213196
42
-0.108653
0
VERTEX
8
1
10
26.481812
20
8.012909
42
0.104138
0
VERTEX
8
1
10
26.471558
20
7.947266
0
VERTEX
8
1
10
26.475220
20
7.939819
42
0.233742
0
VERTEX
8
1
10
26.613281
20
7.915131
42
-0.395188
0
VERTEX
8
1
10
26.617676
20
7.908020
42
0.081861
0
VERTEX
8
1
10
26.583740
20
7.723114
42
0.499665
0
VERTEX
8
1
10
26.614258
20
7.728668
42
-0.198417
0
VERTEX
8
1
10
26.639404
20
7.674530
42
0.007195
0
VERTEX
8
1
10
26.635132
20
7.487915
42
0.223333
0
VERTEX
8
1
10
26.660522
20
7.439728
42
0.169077
0
VERTEX
8
1
10
26.819824
20
7.469666
42
0.128104
0
VERTEX
8
1
10
26.789551
20
7.335266
42
0.288116
0
VERTEX
8
1
10
26.810913
20
7.310791
42
0.074149
0
VERTEX
8
1
10
27.008301
20
7.327454
0
VERTEX
8
1
10
27.016602
20
7.300140
42
0.063999
0
VERTEX
8
1
10
27.152222
20
7.106964
0
VERTEX
8
1
10
27.310181
20
7.201233
0
VERTEX
8
1
10
27.328003
20
7.146027
42
0.283219
0
VERTEX
8
1
10
27.429199
20
7.024200
42
0.299303
0
VERTEX
8
1
10
27.479370
20
7.048462
0
VERTEX
8
1
10
27.531128
20
7.134399
0
VERTEX
8
1
10
27.535278
20
7.135406
42
-0.013528
0
VERTEX
8
1
10
27.578979
20
7.083893
42
0.145430
0
VERTEX
8
1
10
27.768066
20
7.027710
42
-0.021153
0
VERTEX
8
1
10
27.863647
20
7.185059
42
0.169328
0
VERTEX
8
1
10
27.921021
20
7.133545
42
0.148477
0
VERTEX
8
1
10
28.206299
20
7.064453
42
0.383102
0
VERTEX
8
1
10
28.234619
20
7.098877
42
0.103113
0
VERTEX
8
1
10
28.243408
20
7.248047
42
0.097986
0
VERTEX
8
1
10
28.550903
20
7.183380
42
0.191085
0
VERTEX
8
1
10
28.589966
20
7.200226
42
0.051064
0
VERTEX
8
1
10
28.638184
20
7.389893
42
0.062030
0
VERTEX
8
1
10
28.891968
20
7.378296
42
0.219821
0
VERTEX
8
1
10
28.965942
20
7.418671
0
VERTEX
8
1
10
28.969971
20
7.433075
0
VERTEX
8
1
10
28.954468
20
7.594574
42
0.010218
0
VERTEX
8
1
10
29.203613
20
7.549225
0
VERTEX
8
1
10
29.209595
20
7.540497
42
-0.098080
0
VERTEX
8
1
10
29.211304
20
6.995361
0
VERTEX
8
1
10
29.210449
20
6.975525
42
0.369639
0
VERTEX
8
1
10
29.256226
20
6.964111
0
VERTEX
8
1
10
29.349731
20
7.023041
0
VERTEX
8
1
10
29.355469
20
7.022888
0
VERTEX
8
1
10
29.359985
20
7.020020
42
0.016307
0
VERTEX
8
1
10
29.373291
20
6.950256
42
0.600170
0
VERTEX
8
1
10
29.445801
20
6.950256
42
-0.135515
0
VERTEX
8
1
10
29.513062
20
7.038300
42
-0.370452
0
VERTEX
8
1
10
29.562134
20
7.026337
42
0.079677
0
VERTEX
8
1
10
29.636230
20
6.958466
0
VERTEX
8
1
10
29.639404
20
6.959869
42
0.143133
0
VERTEX
8
1
10
29.650024
20
7.031464
42
0.009840
0
VERTEX
8
1
10
29.586670
20
8.055023
42
0.128492
0
VERTEX
8
1
10
29.674927
20
8.156616
42
0.173499
0
VERTEX
8
1
10
29.673096
20
8.222565
42
0.062938
0
VERTEX
8
1
10
29.503906
20
8.443329
0
VERTEX
8
1
10
29.418579
20
8.643768
42
0.182375
0
VERTEX
8
1
10
29.677002
20
8.884186
42
-0.133733
0
VERTEX
8
1
10
30.117310
20
9.379089
42
-0.029415
0
VERTEX
8
1
10
30.528076
20
9.504028
42
0.028047
0
VERTEX
8
1
10
31.133301
20
9.709015
0
VERTEX
8
1
10
31.178223
20
9.730957
42
0.131962
0
VERTEX
8
1
10
31.633423
20
10.199249
42
-0.095555
0
VERTEX
8
1
10
31.814331
20
10.395905
42
-0.260048
0
VERTEX
8
1
10
31.915161
20
10.392487
42
-0.014437
0
VERTEX
8
1
10
32.794800
20
9.923523
42
0.006107
0
VERTEX
8
1
10
33.591309
20
9.213806
42
-0.058482
0
VERTEX
8
1
10
33.648315
20
9.139923
42
0.439279
0
VERTEX
8
1
10
33.663940
20
9.143585
0
VERTEX
8
1
10
33.671997
20
9.166870
0
VERTEX
8
1
10
33.678345
20
9.190704
42
0.090143
0
VERTEX
8
1
10
33.687134
20
9.362640
42
0.162306
0
VERTEX
8
1
10
33.613770
20
9.499359
42
-0.078583
0
VERTEX
8
1
10
33.351440
20
9.922760
0
VERTEX
8
1
10
33.343994
20
9.948547
0
VERTEX
8
1
10
33.339478
20
9.972412
42
-0.014349
0
VERTEX
8
1
10
33.347656
20
10.336670
42
0.105646
0
VERTEX
8
1
10
33.235474
20
10.860504
42
0.103419
0
VERTEX
8
1
10
33.049561
20
11.095154
0
VERTEX
8
1
10
32.865479
20
11.206238
42
0.167237
0
VERTEX
8
1
10
32.279297
20
11.325592
42
0.074444
0
VERTEX
8
1
10
31.900146
20
11.228180
0
VERTEX
8
1
10
31.885498
20
11.219513
42
-0.134452
0
VERTEX
8
1
10
31.753296
20
11.158905
0
VERTEX
8
1
10
31.324707
20
11.104034
42
-0.235043
0
VERTEX
8
1
10
31.234497
20
11.121613
42
0.021132
0
VERTEX
8
1
10
30.751343
20
11.469208
42
-0.108108
0
VERTEX
8
1
10
30.593384
20
11.573486
42
-0.048788
0
VERTEX
8
1
10
30.125610
20
12.230743
42
-0.106674
0
VERTEX
8
1
10
30.095459
20
12.350861
0
VERTEX
8
1
10
30.090698
20
12.408661
42
-0.020893
0
VERTEX
8
1
10
30.107544
20
13.458557
42
-0.022931
0
VERTEX
8
1
10
30.151489
20
13.930023
42
0.223824
0
VERTEX
8
1
10
29.969238
20
14.396606
42
0.048246
0
VERTEX
8
1
10
29.425659
20
14.837463
42
-0.028219
0
VERTEX
8
1
10
28.261841
20
15.872101
42
-0.061231
0
VERTEX
8
1
10
27.999634
20
16.200256
42
-0.013589
0
VERTEX
8
1
10
27.588379
20
16.861847
0
VERTEX
8
1
10
27.579468
20
16.888580
42
-0.055048
0
VERTEX
8
1
10
29.303467
20
17.078094
0
VERTEX
8
1
10
29.943604
20
17.052521
0
VERTEX
8
1
10
30.572998
20
16.976379
0
VERTEX
8
1
10
31.185913
20
16.851837
0
VERTEX
8
1
10
31.780640
20
16.680725
0
VERTEX
8
1
10
32.355347
20
16.465210
0
VERTEX
8
1
10
32.907471
20
16.207184
0
VERTEX
8
1
10
33.435303
20
15.908691
0
VERTEX
8
1
10
33.937134
20
15.571716
0
VERTEX
8
1
10
34.410522
20
15.198303
0
VERTEX
8
1
10
34.853760
20
14.790405
0
VERTEX
8
1
10
35.264648
20
14.350098
0
VERTEX
8
1
10
35.641235
20
13.879272
0
VERTEX
8
1
10
35.981445
20
13.380035
0
VERTEX
8
1
10
36.283569
20
12.854340
0
VERTEX
8
1
10
36.545288
20
12.304199
0
VERTEX
8
1
10
36.764771
20
11.731598
0
VERTEX
8
1
10
36.939941
20
11.138580
0
VERTEX
8
1
10
37.068726
20
10.527130
0
VERTEX
8
1
10
37.149292
20
9.899261
0
SEQEND
0
POLYLINE
8
1
66
1
70
1
0
VERTEX
8
1
10
31.661987
20
10.662689
42
0.085026
0
VERTEX
8
1
10
31.425415
20
10.978058
42
-0.720468
0
VERTEX
8
1
10
31.462891
20
11.024017
42
-0.090688
0
VERTEX
8
1
10
31.707520
20
10.715271
42
-0.115507
0
VERTEX
8
1
10
31.751343
20
10.531403
42
-0.817321
0
VERTEX
8
1
10
31.690063
20
10.529053
42
0.127945
0
SEQEND
0
POLYLINE
8
1
66
1
70
1
0
VERTEX
8
1
10
32.953125
20
10.065887
42
0.111803
0
VERTEX
8
1
10
33.223877
20
10.201782
42
-0.725410
0
VERTEX
8
1
10
33.264648
20
10.156952
42
-0.129519
0
VERTEX
8
1
10
32.958740
20
10.003510
42
-0.094343
0
VERTEX
8
1
10
32.861450
20
10.002319
42
-0.807905
0
VERTEX
8
1
10
32.874390
20
10.061920
0
VERTEX
8
1
10
32.902100
20
10.060822
0
SEQEND
0
POLYLINE
8
1
66
1
70
1
0
VERTEX
8
1
10
33.140991
20
10.749542
42
0.177694
0
VERTEX
8
1
10
33.101563
20
10.839508
42
0.462479
0
VERTEX
8
1
10
33.025757
20
10.819580
42
0.318521
0
VERTEX
8
1
10
33.035034
20
10.625580
42
0.495854
0
VERTEX
8
1
10
33.115234
20
10.641876
42
0.203711
0
SEQEND
0
POLYLINE
8
1
66
1
0
VERTEX
8
1
10
12.074463
20
11.342163
42
-0.070475
0
VERTEX
8
1
10
12.302490
20
11.049652
42
-0.112577
0
VERTEX
8
1
10
12.342895
20
10.883820
0
SEQEND
0
POLYLINE
8
1
66
1
0
VERTEX
8
1
10
13.860352
20
10.520172
42
-0.120119
0
VERTEX
8
1
10
13.566650
20
10.380188
0
VERTEX
8
1
10
13.531738
20
10.377106
0
VERTEX
8
1
10
13.496826
20
10.378052
0
SEQEND
0
POLYLINE
8
1
66
1
0
VERTEX
8
1
10
11.552856
20
11.436920
42
-0.225444
0
VERTEX
8
1
10
11.420044
20
11.074432
42
0.062867
0
VERTEX
8
1
10
11.210083
20
10.879242
42
0.050075
0
VERTEX
8
1
10
10.707275
20
10.185486
42
0.081951
0
VERTEX
8
1
10
10.656982
20
10.049286
42
-0.035993
0
VERTEX
8
1
10
10.572632
20
9.808929
0
SEQEND
0
POLYLINE
8
1
66
1
0
VERTEX
8
1
10
11.046875
20
11.563354
42
0.229661
0
VERTEX
8
1
10
10.098633
20
11.026093
42
-0.057535
0
VERTEX
8
1
10
9.333984
20
10.164978
0
VERTEX
8
1
10
9.268188
20
10.096130
42
0.024163
0
VERTEX
8
1
10
8.938843
20
9.718353
42
-0.019205
0
VERTEX
8
1
10
8.778564
20
9.541321
0
VERTEX
8
1
10
8.763794
20
9.529999
0
VERTEX
8
1
10
8.752075
20
9.523590
42
-0.704521
0
VERTEX
8
1
10
8.739380
20
9.540222
0
SEQEND
0
POLYLINE
8
1
66
1
0
VERTEX
8
1
10
8.201904
20
16.652802
42
0.045114
0
VERTEX
8
1
10
9.070313
20
15.611969
42
0.054040
0
VERTEX
8
1
10
9.563843
20
15.230896
0
VERTEX
8
1
10
9.624390
20
15.198608
0
SEQEND
0
POLYLINE
8
1
66
1
0
VERTEX
8
1
10
8.075562
20
16.131195
42
0.044986
0
VERTEX
8
1
10
8.921753
20
15.292633
42
0.056601
0
VERTEX
8
1
10
9.260986
20
15.088043
0
SEQEND
0
POLYLINE
8
1
66
1
0
VERTEX
8
1
10
8.091309
20
15.562073
42
0.045274
0
VERTEX
8
1
10
8.815674
20
14.945099
42
0.056738
0
VERTEX
8
1
10
9.055420
20
14.819305
0
SEQEND
0
POLYLINE
8
1
66
1
0
VERTEX
8
1
10
8.075562
20
15.072174
0
VERTEX
8
1
10
8.232544
20
14.944153
42
0.063247
0
VERTEX
8
1
10
8.859253
20
14.554932
0
VERTEX
8
1
10
8.910522
20
14.535309
0
VERTEX
8
1
10
8.960693
20
14.519073
0
SEQEND
0
ARC
8
1
10
10.901316
20
22.196800
40
8.168366
50
-109.297387
51
-103.858241
0
POLYLINE
8
1
66
1
0
VERTEX
8
1
10
8.344238
20
14.108063
42
0.086070
0
VERTEX
8
1
10
8.896362
20
13.950867
0
VERTEX
8
1
10
8.944580
20
13.949005
0
VERTEX
8
1
10
8.992310
20
13.949951
0
SEQEND
0
POLYLINE
8
1
66
1
0
VERTEX
8
1
10
8.454834
20
13.744598
42
0.033689
0
VERTEX
8
1
10
8.967285
20
13.648956
0
VERTEX
8
1
10
8.998413
20
13.648163
0
VERTEX
8
1
10
9.023804
20
13.649689
0
SEQEND
0
POLYLINE
8
1
66
1
0
VERTEX
8
1
10
8.565552
20
13.428345
42
0.042242
0
VERTEX
8
1
10
9.010864
20
13.378906
0
VERTEX
8
1
10
9.039673
20
13.380981
0
SEQEND
0
ARC
8
1
10
8.869658
20
13.597988
40
0.491496
50
-135.671828
51
-81.202969
0
POLYLINE
8
1
66
1
0
VERTEX
8
1
10
8.644409
20
12.954315
0
VERTEX
8
1
10
8.659790
20
12.918915
42
0.234286
0
VERTEX
8
1
10
8.808716
20
12.854736
0
VERTEX
8
1
10
8.849854
20
12.854980
0
VERTEX
8
1
10
8.897339
20
12.859406
0
SEQEND
0
POLYLINE
8
1
66
1
0
VERTEX
8
1
10
8.692017
20
12.685577
42
0.331613
0
VERTEX
8
1
10
8.760010
20
12.595428
42
0.109827
0
VERTEX
8
1
10
8.913208
20
12.559143
0
SEQEND
0
POLYLINE
8
1
66
1
0
VERTEX
8
1
10
8.723511
20
12.401031
42
0.300033
0
VERTEX
8
1
10
8.809937
20
12.326904
42
0.112562
0
VERTEX
8
1
10
8.960693
20
12.321960
0
SEQEND
0
POLYLINE
8
1
66
1
0
VERTEX
8
1
10
8.739380
20
12.164001
42
0.349433
0
VERTEX
8
1
10
8.904053
20
12.024109
0
VERTEX
8
1
10
8.944824
20
12.021729
0
SEQEND
0
POLYLINE
8
1
66
1
0
VERTEX
8
1
10
8.755005
20
11.895294
42
0.313616
0
VERTEX
8
1
10
8.813232
20
11.823700
42
0.152401
0
VERTEX
8
1
10
8.944824
20
11.816223
0
SEQEND
0
POLYLINE
8
1
66
1
0
VERTEX
8
1
10
8.755005
20
11.642426
42
0.314745
0
VERTEX
8
1
10
8.890625
20
11.591125
0
VERTEX
8
1
10
8.923462
20
11.598053
0
VERTEX
8
1
10
8.960693
20
11.610718
0
SEQEND
0
POLYLINE
8
1
66
1
0
VERTEX
8
1
10
8.755005
20
11.357849
42
0.314456
0
VERTEX
8
1
10
8.826782
20
11.324036
42
0.124744
0
VERTEX
8
1
10
8.944824
20
11.357849
0
SEQEND
0
ARC
8
1
10
8.882174
20
11.178960
40
0.119829
50
-131.602749
51
-38.124622
0
ARC
8
1
10
8.881653
20
10.931510
40
0.163067
50
-118.993576
51
-61.006419
0
POLYLINE
8
1
66
1
0
VERTEX
8
1
10
8.770874
20
10.409576
0
VERTEX
8
1
10
8.786499
20
10.406189
42
0.152593
0
VERTEX
8
1
10
8.896851
20
10.473785
0
VERTEX
8
1
10
8.929077
20
10.504486
0
SEQEND
0
POLYLINE
8
1
66
1
0
VERTEX
8
1
10
8.755005
20
10.188202
42
0.351462
0
VERTEX
8
1
10
8.906982
20
10.197449
0
VERTEX
8
1
10
8.933350
20
10.220367
0
VERTEX
8
1
10
8.960693
20
10.251465
0
SEQEND
0
POLYLINE
8
1
66
1
0
VERTEX
8
1
10
8.739380
20
9.919708
42
0.086590
0
VERTEX
8
1
10
8.721558
20
9.808228
42
0.436390
0
VERTEX
8
1
10
8.754028
20
9.791351
0
VERTEX
8
1
10
8.774292
20
9.800720
42
0.132698
0
VERTEX
8
1
10
8.944824
20
9.998596
0
SEQEND
0
POLYLINE
8
1
66
1
0
VERTEX
8
1
10
4.155884
20
14.677032
0
VERTEX
8
1
10
4.226440
20
14.648041
42
0.044718
0
VERTEX
8
1
10
4.924805
20
14.432373
42
0.036960
0
VERTEX
8
1
10
5.319946
20
14.381561
42
0.041421
0
VERTEX
8
1
10
5.499268
20
14.392639
0
SEQEND
0
ARC
8
1
10
4.855150
20
18.652477
40
4.339314
50
-96.954888
51
-89.217267
0
POLYLINE
8
1
66
1
0
VERTEX
8
1
10
4.503418
20
14.013153
42
0.039066
0
VERTEX
8
1
10
5.302856
20
14.073822
42
0.062420
0
VERTEX
8
1
10
5.467773
20
14.123932
0
SEQEND
0
POLYLINE
8
1
66
1
0
VERTEX
8
1
10
4.788086
20
13.744598
42
0.032907
0
VERTEX
8
1
10
5.283081
20
13.894409
0
VERTEX
8
1
10
5.307739
20
13.906799
0
VERTEX
8
1
10
5.325439
20
13.918427
0
SEQEND
0
POLYLINE
8
1
66
1
0
VERTEX
8
1
10
5.009155
20
13.491577
42
0.044664
0
VERTEX
8
1
10
5.627563
20
13.764404
0
VERTEX
8
1
10
5.660522
20
13.786285
0
VERTEX
8
1
10
5.688965
20
13.807831
0
SEQEND
0
POLYLINE
8
1
66
1
0
VERTEX
8
1
10
5.372803
20
13.238708
42
0.037525
0
VERTEX
8
1
10
5.935669
20
13.553955
42
0.059373
0
VERTEX
8
1
10
6.005005
20
13.618164
0
SEQEND
0
POLYLINE
8
1
66
1
0
VERTEX
8
1
10
5.704712
20
13.033386
42
0.038284
0
VERTEX
8
1
10
6.175415
20
13.379578
42
0.078249
0
VERTEX
8
1
10
6.226318
20
13.444214
0
SEQEND
0
POLYLINE
8
1
66
1
0
VERTEX
8
1
10
5.925903
20
12.843536
42
0.039053
0
VERTEX
8
1
10
6.366821
20
13.151001
42
0.058614
0
VERTEX
8
1
10
6.431641
20
13.223022
0
SEQEND
0
POLYLINE
8
1
66
1
0
VERTEX
8
1
10
6.321045
20
12.669739
42
0.042906
0
VERTEX
8
1
10
6.667480
20
12.964050
0
VERTEX
8
1
10
6.684570
20
12.985840
0
SEQEND
0
LINE
8
1
10
6.658325
20
12.448578
11
6.969116
21
12.812012
0
LINE
8
1
10
7.577881
20
11.024200
11
7.943726
21
11.595032
0
LINE
8
1
10
7.418701
20
11.311676
11
7.785767
21
11.805725
0
LINE
8
1
10
7.293335
20
11.514099
11
7.638184
21
12.005859
0
LINE
8
1
10
6.787598
20
12.257019
11
7.143066
21
12.680237
0
LINE
8
1
10
6.898193
20
12.083038
11
7.269531
21
12.564331
0
LINE
8
1
10
7.056274
20
11.909241
11
7.406250
21
12.374664
0
LINE
8
1
10
7.166870
20
11.719574
11
7.511719
21
12.185028
0
LINE
8
1
10
7.316772
20
9.461334
11
7.632935
21
9.666656
0
LINE
8
1
10
7.316772
20
9.176758
11
7.506592
21
9.287354
0
LINE
8
1
10
7.332520
20
8.923889
11
7.458984
21
9.002960
0
LINE
8
1
10
7.301025
20
8.665680
11
7.448730
21
8.760590
0
LINE
8
1
10
7.332520
20
8.402313
11
7.458984
21
8.497223
0
LINE
8
1
10
7.416992
20
8.107239
11
7.575073
21
8.244171
0
LINE
8
1
10
7.585449
20
7.928101
11
7.690918
21
8.054535
0
LINE
8
1
10
7.859497
20
7.949280
11
7.806763
21
7.727936
0
LINE
8
1
10
8.091309
20
7.928101
11
8.133545
21
7.643707
0
LINE
8
1
10
8.386475
20
8.023010
11
8.470703
21
7.727936
0
LINE
8
1
10
8.681274
20
8.159943
11
8.839478
21
7.738434
0
LINE
8
1
10
8.923828
20
8.328583
11
9.197754
21
7.843842
0
LINE
8
1
10
9.155518
20
8.476044
11
9.482300
21
8.086212
0
POLYLINE
8
1
66
1
0
VERTEX
8
1
10
9.397949
20
8.602478
42
-0.019037
0
VERTEX
8
1
10
9.959717
20
8.150696
0
VERTEX
8
1
10
9.974731
20
8.133514
42
-0.225157
0
VERTEX
8
1
10
9.975098
20
8.105865
42
-0.100453
0
VERTEX
8
1
10
9.893188
20
8.012482
0
SEQEND
0
POLYLINE
8
1
66
1
0
VERTEX
8
1
10
9.503296
20
8.855347
0
VERTEX
8
1
10
10.114502
20
8.455017
42
-0.462847
0
VERTEX
8
1
10
10.015503
20
8.321350
0
VERTEX
8
1
10
9.988037
20
8.318085
0
SEQEND
0
LINE
8
1
10
9.503296
20
9.013458
11
9.998413
21
8.802612
0
POLYLINE
8
1
66
1
0
VERTEX
8
1
10
9.850952
20
9.392761
0
VERTEX
8
1
10
9.790771
20
9.387909
42
0.485571
0
VERTEX
8
1
10
9.747437
20
9.319061
42
0.035242
0
VERTEX
8
1
10
9.871948
20
9.023956
0
SEQEND
0
ENDSEC
0
EOF
