999
\"DXF R12 Output\" (www.mydxf.blogspot.com)
 0 
SECTION
 2 
HEADER
 9 
$ACADVER
 1 
AC1009
 9 
$EXTMIN
 10 
 0 
 20 
 0 
 9 
$EXTMAX
 10 
 8.5 
 20 
 11 
 0 
ENDSEC
 0 
SECTION
 2 
ENTITIES
0
LINE
8
Layer 1
10
66.195699
20
7.110301
11
65.752572
21
7.947849
0
LINE
8
Layer 1
10
65.752572
20
7.947849
11
65.651081
21
8.944476
0
LINE
8
Layer 1
10
65.651081
20
8.944476
11
65.895241
21
10.162577
0
LINE
8
Layer 1
10
65.895241
20
10.162577
11
66.489069
21
11.664549
0
LINE
8
Layer 1
10
66.489069
20
11.664549
11
68.866782
21
18.040848
0
LINE
8
Layer 1
10
68.866782
20
18.040848
11
72.780243
21
29.754415
0
LINE
8
Layer 1
10
72.780243
20
29.754415
11
77.480450
21
44.504138
0
LINE
8
Layer 1
10
77.480450
20
44.504138
11
82.218397
21
59.988907
0
LINE
8
Layer 1
10
82.218397
20
59.988907
11
89.202308
21
84.118887
0
LINE
8
Layer 1
10
89.202308
20
84.118887
11
91.966568
21
94.076417
0
LINE
8
Layer 1
10
91.966568
20
94.076417
11
93.177916
21
98.843397
0
LINE
8
Layer 1
10
93.177916
20
98.843397
11
93.345282
21
100.064463
0
LINE
8
Layer 1
10
93.345282
20
100.064463
11
92.248586
21
100.057763
0
LINE
8
Layer 1
10
92.248586
20
100.057763
11
91.018082
21
99.857635
0
LINE
8
Layer 1
10
91.018082
20
99.857635
11
89.599671
21
99.385879
0
LINE
8
Layer 1
10
89.599671
20
99.385879
11
77.647910
21
94.086777
0
LINE
8
Layer 1
10
77.647910
20
94.086777
11
65.532037
21
88.387042
0
LINE
8
Layer 1
10
65.532037
20
88.387042
11
53.914150
21
82.606928
0
LINE
8
Layer 1
10
53.914150
20
82.606928
11
43.456349
21
77.066688
0
LINE
8
Layer 1
10
43.456349
20
77.066688
11
33.919919
21
71.878393
0
LINE
8
Layer 1
10
33.919919
20
71.878393
11
30.959863
21
70.117270
0
LINE
8
Layer 1
10
30.959863
20
70.117270
11
26.612311
21
66.676228
0
LINE
8
Layer 1
10
26.612311
20
66.676228
11
24.189190
21
64.937753
0
LINE
8
Layer 1
10
24.189190
20
64.937753
11
21.659283
21
63.454825
0
LINE
8
Layer 1
10
21.659283
20
63.454825
11
19.123675
21
62.357817
0
LINE
8
Layer 1
10
19.123675
20
62.357817
11
18.092293
21
62.137251
0
LINE
8
Layer 1
10
18.092293
20
62.137251
11
16.852163
21
62.026450
0
LINE
8
Layer 1
10
16.852163
20
62.026450
11
14.822813
21
62.035021
0
LINE
8
Layer 1
10
14.822813
20
62.035021
11
13.034741
21
62.234561
0
LINE
8
Layer 1
10
13.034741
20
62.234561
11
11.587276
21
62.706001
0
LINE
8
Layer 1
10
11.587276
20
62.706001
11
10.437284
21
63.432498
0
LINE
8
Layer 1
10
10.437284
20
63.432498
11
9.596711
21
64.373945
0
LINE
8
Layer 1
10
9.596711
20
64.373945
11
9.077502
21
65.490235
0
LINE
8
Layer 1
10
9.077502
20
65.490235
11
8.891604
21
66.741260
0
LINE
8
Layer 1
10
8.891604
20
66.741260
11
9.050961
21
68.086914
0
LINE
8
Layer 1
10
9.050961
20
68.086914
11
9.567520
21
69.487089
0
LINE
8
Layer 1
10
9.567520
20
69.487089
11
10.453226
21
70.901679
0
LINE
8
Layer 1
10
10.453226
20
70.901679
11
11.461986
21
72.050941
0
LINE
8
Layer 1
10
11.461986
20
72.050941
11
13.078030
21
73.137447
0
LINE
8
Layer 1
10
13.078030
20
73.137447
11
16.310653
21
74.715940
0
LINE
8
Layer 1
10
16.310653
20
74.715940
11
22.169145
21
77.341168
0
LINE
8
Layer 1
10
22.169145
20
77.341168
11
27.839583
21
80.254345
0
LINE
8
Layer 1
10
27.839583
20
80.254345
11
36.567897
21
85.135266
0
LINE
8
Layer 1
10
36.567897
20
85.135266
11
47.125238
21
90.950308
0
LINE
8
Layer 1
10
47.125238
20
90.950308
11
58.172430
21
96.735400
0
LINE
8
Layer 1
10
58.172430
20
96.735400
11
73.230782
21
104.091373
0
LINE
8
Layer 1
10
73.230782
20
104.091373
11
87.569877
21
110.705237
0
LINE
8
Layer 1
10
87.569877
20
110.705237
11
93.237761
21
113.182725
0
LINE
8
Layer 1
10
93.237761
20
113.182725
11
96.140566
21
114.319708
0
LINE
8
Layer 1
10
96.140566
20
114.319708
11
96.931971
21
114.668088
0
LINE
8
Layer 1
10
96.931971
20
114.668088
11
97.536751
21
115.391147
0
LINE
8
Layer 1
10
97.536751
20
115.391147
11
98.072869
21
116.698856
0
LINE
8
Layer 1
10
98.072869
20
116.698856
11
98.658288
21
118.801182
0
LINE
8
Layer 1
10
98.658288
20
118.801182
11
99.480593
21
122.055032
0
LINE
8
Layer 1
10
99.480593
20
122.055032
11
98.914577
21
123.062774
0
LINE
8
Layer 1
10
98.914577
20
123.062774
11
98.520865
21
124.003827
0
LINE
8
Layer 1
10
98.520865
20
124.003827
11
98.377807
21
124.936032
0
LINE
8
Layer 1
10
98.377807
20
124.936032
11
98.486671
21
125.793017
0
LINE
8
Layer 1
10
98.486671
20
125.793017
11
98.848726
21
126.508408
0
LINE
8
Layer 1
10
98.848726
20
126.508408
11
99.835758
21
127.447457
0
LINE
8
Layer 1
10
99.835758
20
127.447457
11
101.196135
21
128.287880
0
LINE
8
Layer 1
10
101.196135
20
128.287880
11
102.840193
21
129.006462
0
LINE
8
Layer 1
10
102.840193
20
129.006462
11
104.678268
21
129.579989
0
LINE
8
Layer 1
10
104.678268
20
129.579989
11
106.620695
21
129.985246
0
LINE
8
Layer 1
10
106.620695
20
129.985246
11
108.577810
21
130.199020
0
LINE
8
Layer 1
10
108.577810
20
130.199020
11
110.459949
21
130.198095
0
LINE
8
Layer 1
10
110.459949
20
130.198095
11
112.177449
21
129.959258
0
LINE
8
Layer 1
10
112.177449
20
129.959258
11
113.607036
21
129.494990
0
LINE
8
Layer 1
10
113.607036
20
129.494990
11
114.738518
21
128.789553
0
LINE
8
Layer 1
10
114.738518
20
128.789553
11
115.649103
21
127.778029
0
LINE
8
Layer 1
10
115.649103
20
127.778029
11
116.416001
21
126.395503
0
LINE
8
Layer 1
10
116.416001
20
126.395503
11
117.378768
21
124.402404
0
LINE
8
Layer 1
10
117.378768
20
124.402404
11
129.154908
21
129.093378
0
LINE
8
Layer 1
10
129.154908
20
129.093378
11
152.352150
21
138.412183
0
LINE
8
Layer 1
10
152.352150
20
138.412183
11
160.253923
21
141.419838
0
LINE
8
Layer 1
10
160.253923
20
141.419838
11
164.247449
21
142.763931
0
LINE
8
Layer 1
10
164.247449
20
142.763931
11
167.548753
21
143.314110
0
LINE
8
Layer 1
10
167.548753
20
143.314110
11
170.485512
21
143.410577
0
LINE
8
Layer 1
10
170.485512
20
143.410577
11
173.119881
21
143.050388
0
LINE
8
Layer 1
10
173.119881
20
143.050388
11
175.514014
21
142.230602
0
LINE
8
Layer 1
10
175.514014
20
142.230602
11
176.814388
21
141.516746
0
LINE
8
Layer 1
10
176.814388
20
141.516746
11
177.904303
21
140.674639
0
LINE
8
Layer 1
10
177.904303
20
140.674639
11
178.772124
21
139.728279
0
LINE
8
Layer 1
10
178.772124
20
139.728279
11
179.406213
21
138.701667
0
LINE
8
Layer 1
10
179.406213
20
138.701667
11
179.794935
21
137.618800
0
LINE
8
Layer 1
10
179.794935
20
137.618800
11
179.926653
21
136.503678
0
LINE
8
Layer 1
10
179.926653
20
136.503678
11
179.789730
21
135.380299
0
LINE
8
Layer 1
10
179.789730
20
135.380299
11
179.372531
21
134.272663
0
LINE
8
Layer 1
10
179.372531
20
134.272663
11
178.688420
21
133.191023
0
LINE
8
Layer 1
10
178.688420
20
133.191023
11
177.709990
21
131.988595
0
LINE
8
Layer 1
10
177.709990
20
131.988595
11
175.132225
21
129.451351
0
LINE
8
Layer 1
10
175.132225
20
129.451351
11
172.163343
21
127.120885
0
LINE
8
Layer 1
10
172.163343
20
127.120885
11
169.327449
21
125.457148
0
LINE
8
Layer 1
10
169.327449
20
125.457148
11
166.410507
21
124.435238
0
LINE
8
Layer 1
10
166.410507
20
124.435238
11
163.273845
21
123.869849
0
LINE
8
Layer 1
10
163.273845
20
123.869849
11
160.116707
21
123.781670
0
LINE
8
Layer 1
10
160.116707
20
123.781670
11
157.138336
21
124.191392
0
LINE
8
Layer 1
10
157.138336
20
124.191392
11
155.391445
21
124.603312
0
LINE
8
Layer 1
10
155.391445
20
124.603312
11
146.413892
21
121.196207
0
LINE
8
Layer 1
10
146.413892
20
121.196207
11
127.226083
21
114.031911
0
LINE
8
Layer 1
10
127.226083
20
114.031911
11
116.231148
21
109.896814
0
LINE
8
Layer 1
10
116.231148
20
109.896814
11
115.784539
21
109.590505
0
LINE
8
Layer 1
10
115.784539
20
109.590505
11
115.429168
21
109.013454
0
LINE
8
Layer 1
10
115.429168
20
109.013454
11
114.555770
21
106.043496
0
LINE
8
Layer 1
10
114.555770
20
106.043496
11
113.415149
21
102.349283
0
LINE
8
Layer 1
10
113.415149
20
102.349283
11
112.177449
21
101.763079
0
LINE
8
Layer 1
10
112.177449
20
101.763079
11
109.637051
21
100.723011
0
LINE
8
Layer 1
10
109.637051
20
100.723011
11
108.084434
21
100.050352
0
LINE
8
Layer 1
10
108.084434
20
100.050352
11
105.894787
21
94.765741
0
LINE
8
Layer 1
10
105.894787
20
94.765741
11
102.806145
21
87.019477
0
LINE
8
Layer 1
10
102.806145
20
87.019477
11
99.606025
21
78.558136
0
LINE
8
Layer 1
10
99.606025
20
78.558136
11
96.995323
21
71.280180
0
LINE
8
Layer 1
10
96.995323
20
71.280180
11
95.674934
21
67.084070
0
LINE
8
Layer 1
10
95.674934
20
67.084070
11
95.421202
21
66.420521
0
LINE
8
Layer 1
10
95.421202
20
66.420521
11
94.501769
21
65.740254
0
LINE
8
Layer 1
10
94.501769
20
65.740254
11
87.635769
21
62.663364
0
LINE
8
Layer 1
10
87.635769
20
62.663364
11
84.725529
21
61.336852
0
LINE
8
Layer 1
10
84.725529
20
61.336852
11
83.458730
21
60.616084
0
LINE
8
Layer 1
10
83.458730
20
60.616084
11
83.671159
21
59.961338
0
LINE
8
Layer 1
10
83.671159
20
59.961338
11
84.494411
21
58.564065
0
LINE
8
Layer 1
10
84.494411
20
58.564065
11
87.961453
21
53.560619
0
LINE
8
Layer 1
10
87.961453
20
53.560619
11
90.466266
21
50.095661
0
LINE
8
Layer 1
10
90.466266
20
50.095661
11
89.716664
21
46.646174
0
LINE
8
Layer 1
10
89.716664
20
46.646174
11
88.294292
21
40.133580
0
LINE
8
Layer 1
10
88.294292
20
40.133580
11
87.411857
21
36.647879
0
LINE
8
Layer 1
10
87.411857
20
36.647879
11
86.551895
21
34.522743
0
LINE
8
Layer 1
10
86.551895
20
34.522743
11
85.196940
21
32.091844
0
LINE
8
Layer 1
10
85.196940
20
32.091844
11
80.974040
21
24.990295
0
LINE
8
Layer 1
10
80.974040
20
24.990295
11
76.251208
21
17.594507
0
LINE
8
Layer 1
10
76.251208
20
17.594507
11
71.889212
21
11.210125
0
LINE
8
Layer 1
10
71.889212
20
11.210125
11
68.748823
21
7.142796
0
LINE
8
Layer 1
10
68.748823
20
7.142796
11
68.081863
21
6.590853
0
LINE
8
Layer 1
10
68.081863
20
6.590853
11
67.422117
21
6.401304
0
LINE
8
Layer 1
10
67.422117
20
6.401304
11
66.787442
21
6.574378
0
LINE
8
Layer 1
10
66.787442
20
6.574378
11
66.195699
21
7.110301
0
LINE
8
Layer 1
10
66.195699
20
7.110301
11
66.195699
21
7.110301
0
LINE
8
Layer 1
10
110.615157
20
17.438934
11
110.918348
21
19.163086
0
LINE
8
Layer 1
10
110.918348
20
19.163086
11
111.860005
21
22.754068
0
LINE
8
Layer 1
10
111.860005
20
22.754068
11
114.409869
21
32.096877
0
LINE
8
Layer 1
10
114.409869
20
32.096877
11
117.268320
21
42.222132
0
LINE
8
Layer 1
10
117.268320
20
42.222132
11
118.856616
21
48.041591
0
LINE
8
Layer 1
10
118.856616
20
48.041591
11
109.961307
21
37.878712
0
LINE
8
Layer 1
10
109.961307
20
37.878712
11
101.182616
21
27.599217
0
LINE
8
Layer 1
10
101.182616
20
27.599217
11
99.836145
21
27.405471
0
LINE
8
Layer 1
10
99.836145
20
27.405471
11
94.731439
21
26.525872
0
LINE
8
Layer 1
10
94.731439
20
26.525872
11
91.731578
21
25.990193
0
LINE
8
Layer 1
10
91.731578
20
25.990193
11
90.295106
21
25.902233
0
LINE
8
Layer 1
10
90.295106
20
25.902233
11
89.996266
21
26.060783
0
LINE
8
Layer 1
10
89.996266
20
26.060783
11
89.888023
21
26.372826
0
LINE
8
Layer 1
10
89.888023
20
26.372826
11
89.976325
21
27.512806
0
LINE
8
Layer 1
10
89.976325
20
27.512806
11
90.904414
21
32.850345
0
LINE
8
Layer 1
10
90.904414
20
32.850345
11
92.420595
21
39.951129
0
LINE
8
Layer 1
10
92.420595
20
39.951129
11
93.685600
21
45.566039
0
LINE
8
Layer 1
10
93.685600
20
45.566039
11
94.385003
21
48.782060
0
LINE
8
Layer 1
10
94.385003
20
48.782060
11
92.189746
21
51.774928
0
LINE
8
Layer 1
10
92.189746
20
51.774928
11
88.612473
21
56.932139
0
LINE
8
Layer 1
10
88.612473
20
56.932139
11
87.675242
21
58.537614
0
LINE
8
Layer 1
10
87.675242
20
58.537614
11
87.397807
21
59.348624
0
LINE
8
Layer 1
10
87.397807
20
59.348624
11
87.872492
21
59.809439
0
LINE
8
Layer 1
10
87.872492
20
59.809439
11
88.894116
21
60.319502
0
LINE
8
Layer 1
10
88.894116
20
60.319502
11
94.670476
21
62.788832
0
LINE
8
Layer 1
10
94.670476
20
62.788832
11
99.106530
21
64.849561
0
LINE
8
Layer 1
10
99.106530
20
64.849561
11
99.399748
21
65.295725
0
LINE
8
Layer 1
10
99.399748
20
65.295725
11
99.634799
21
66.005631
0
LINE
8
Layer 1
10
99.634799
20
66.005631
11
101.077720
21
70.501812
0
LINE
8
Layer 1
10
101.077720
20
70.501812
11
103.971964
21
78.475912
0
LINE
8
Layer 1
10
103.971964
20
78.475912
11
107.444790
21
87.586158
0
LINE
8
Layer 1
10
107.444790
20
87.586158
11
110.623454
21
95.490778
0
LINE
8
Layer 1
10
110.623454
20
95.490778
11
111.602455
21
97.678244
0
LINE
8
Layer 1
10
111.602455
20
97.678244
11
112.111842
21
98.411072
0
LINE
8
Layer 1
10
112.111842
20
98.411072
11
112.794442
21
99.015700
0
LINE
8
Layer 1
10
112.794442
20
99.015700
11
113.770224
21
99.576429
0
LINE
8
Layer 1
10
113.770224
20
99.576429
11
115.159156
21
100.177562
0
LINE
8
Layer 1
10
115.159156
20
100.177562
11
119.656338
21
101.838246
0
LINE
8
Layer 1
10
119.656338
20
101.838246
11
130.459553
21
105.824161
0
LINE
8
Layer 1
10
130.459553
20
105.824161
11
135.897258
21
107.758037
0
LINE
8
Layer 1
10
135.897258
20
107.758037
11
136.799395
21
107.914926
0
LINE
8
Layer 1
10
136.799395
20
107.914926
11
136.967768
21
107.839414
0
LINE
8
Layer 1
10
136.967768
20
107.839414
11
137.013005
21
107.679761
0
LINE
8
Layer 1
10
137.013005
20
107.679761
11
135.477261
21
104.330652
0
LINE
8
Layer 1
10
135.477261
20
104.330652
11
131.408638
21
95.657021
0
LINE
8
Layer 1
10
131.408638
20
95.657021
11
127.131786
21
86.376685
0
LINE
8
Layer 1
10
127.131786
20
86.376685
11
124.027249
21
79.462625
0
LINE
8
Layer 1
10
124.027249
20
79.462625
11
122.337449
21
75.204249
0
LINE
8
Layer 1
10
122.337449
20
75.204249
11
122.984734
21
75.343345
0
LINE
8
Layer 1
10
122.984734
20
75.343345
11
124.540975
21
76.048297
0
LINE
8
Layer 1
10
124.540975
20
76.048297
11
126.744499
21
77.156206
0
LINE
8
Layer 1
10
126.744499
20
77.156206
11
130.366045
21
86.987558
0
LINE
8
Layer 1
10
130.366045
20
86.987558
11
136.145425
21
102.176182
0
LINE
8
Layer 1
10
136.145425
20
102.176182
11
138.023166
21
106.684326
0
LINE
8
Layer 1
10
138.023166
20
106.684326
11
139.075885
21
108.759103
0
LINE
8
Layer 1
10
139.075885
20
108.759103
11
140.377204
21
109.560298
0
LINE
8
Layer 1
10
140.377204
20
109.560298
11
158.592901
21
116.145358
0
LINE
8
Layer 1
10
158.592901
20
116.145358
11
175.593098
21
122.077796
0
LINE
8
Layer 1
10
175.593098
20
122.077796
11
175.854735
21
121.973803
0
LINE
8
Layer 1
10
175.854735
20
121.973803
11
175.884211
21
121.723777
0
LINE
8
Layer 1
10
175.884211
20
121.723777
11
172.153639
21
116.290999
0
LINE
8
Layer 1
10
172.153639
20
116.290999
11
166.430144
21
108.016319
0
LINE
8
Layer 1
10
166.430144
20
108.016319
11
160.751681
21
99.531800
0
LINE
8
Layer 1
10
160.751681
20
99.531800
11
156.580390
21
93.057929
0
LINE
8
Layer 1
10
156.580390
20
93.057929
11
155.516854
21
91.268889
0
LINE
8
Layer 1
10
155.516854
20
91.268889
11
155.320573
21
90.857776
0
LINE
8
Layer 1
10
155.320573
20
90.857776
11
155.378412
21
90.815194
0
LINE
8
Layer 1
10
155.378412
20
90.815194
11
157.712568
21
92.525608
0
LINE
8
Layer 1
10
157.712568
20
92.525608
11
160.603055
21
94.428166
0
LINE
8
Layer 1
10
160.603055
20
94.428166
11
163.645121
21
96.267570
0
LINE
8
Layer 1
10
163.645121
20
96.267570
11
166.434014
21
97.788521
0
LINE
8
Layer 1
10
166.434014
20
97.788521
11
169.338895
21
99.162867
0
LINE
8
Layer 1
10
169.338895
20
99.162867
11
172.321397
21
100.394668
0
LINE
8
Layer 1
10
172.321397
20
100.394668
11
175.354344
21
101.476433
0
LINE
8
Layer 1
10
175.354344
20
101.476433
11
178.410557
21
102.400673
0
LINE
8
Layer 1
10
178.410557
20
102.400673
11
181.462861
21
103.159897
0
LINE
8
Layer 1
10
181.462861
20
103.159897
11
184.484077
21
103.746617
0
LINE
8
Layer 1
10
184.484077
20
103.746617
11
187.447028
21
104.153341
0
LINE
8
Layer 1
10
187.447028
20
104.153341
11
190.324537
21
104.372579
0
LINE
8
Layer 1
10
190.324537
20
104.372579
11
191.848288
21
104.438907
0
LINE
8
Layer 1
10
191.848288
20
104.438907
11
192.723426
21
106.102836
0
LINE
8
Layer 1
10
192.723426
20
106.102836
11
193.598560
21
107.766762
0
LINE
8
Layer 1
10
193.598560
20
107.766762
11
217.869671
21
116.196477
0
LINE
8
Layer 1
10
217.869671
20
116.196477
11
243.081071
21
124.895450
0
LINE
8
Layer 1
10
243.081071
20
124.895450
11
245.844397
21
125.691164
0
LINE
8
Layer 1
10
245.844397
20
125.691164
11
246.135061
21
125.649314
0
LINE
8
Layer 1
10
246.135061
20
125.649314
11
246.220144
21
125.485274
0
LINE
8
Layer 1
10
246.220144
20
125.485274
11
246.567571
21
125.284763
0
LINE
8
Layer 1
10
246.567571
20
125.284763
11
247.262156
21
125.656605
0
LINE
8
Layer 1
10
247.262156
20
125.656605
11
249.781027
21
127.135139
0
LINE
8
Layer 1
10
249.781027
20
127.135139
11
253.174742
21
128.791991
0
LINE
8
Layer 1
10
253.174742
20
128.791991
11
256.882654
21
130.371649
0
LINE
8
Layer 1
10
256.882654
20
130.371649
11
260.344116
21
131.618603
0
LINE
8
Layer 1
10
260.344116
20
131.618603
11
263.966087
21
132.634129
0
LINE
8
Layer 1
10
263.966087
20
132.634129
11
267.654759
21
133.384717
0
LINE
8
Layer 1
10
267.654759
20
133.384717
11
271.699348
21
133.918399
0
LINE
8
Layer 1
10
271.699348
20
133.918399
11
276.389073
21
134.283204
0
LINE
8
Layer 1
10
276.389073
20
134.283204
11
277.617363
21
134.354463
0
LINE
8
Layer 1
10
277.617363
20
134.354463
11
279.146198
21
138.164463
0
LINE
8
Layer 1
10
279.146198
20
138.164463
11
282.394632
21
146.547640
0
LINE
8
Layer 1
10
282.394632
20
146.547640
11
284.114212
21
151.120814
0
LINE
8
Layer 1
10
284.114212
20
151.120814
11
298.123074
21
155.790417
0
LINE
8
Layer 1
10
298.123074
20
155.790417
11
312.484685
21
160.460018
0
LINE
8
Layer 1
10
312.484685
20
160.460018
11
312.722648
21
160.405359
0
LINE
8
Layer 1
10
312.722648
20
160.405359
11
312.809691
21
160.228712
0
LINE
8
Layer 1
10
312.809691
20
160.228712
11
312.485211
21
159.433443
0
LINE
8
Layer 1
10
312.485211
20
159.433443
11
309.521324
21
155.542909
0
LINE
8
Layer 1
10
309.521324
20
155.542909
11
304.418294
21
149.035522
0
LINE
8
Layer 1
10
304.418294
20
149.035522
11
302.631376
21
146.577753
0
LINE
8
Layer 1
10
302.631376
20
146.577753
11
304.418294
21
147.570777
0
LINE
8
Layer 1
10
304.418294
20
147.570777
11
306.371511
21
148.544674
0
LINE
8
Layer 1
10
306.371511
20
148.544674
11
308.228272
21
149.242066
0
LINE
8
Layer 1
10
308.228272
20
149.242066
11
309.988070
21
149.662952
0
LINE
8
Layer 1
10
309.988070
20
149.662952
11
311.650401
21
149.807330
0
LINE
8
Layer 1
10
311.650401
20
149.807330
11
313.214760
21
149.675196
0
LINE
8
Layer 1
10
313.214760
20
149.675196
11
314.680641
21
149.266551
0
LINE
8
Layer 1
10
314.680641
20
149.266551
11
316.047538
21
148.581391
0
LINE
8
Layer 1
10
316.047538
20
148.581391
11
317.314947
21
147.619714
0
LINE
8
Layer 1
10
317.314947
20
147.619714
11
318.477787
21
146.569148
0
LINE
8
Layer 1
10
318.477787
20
146.569148
11
319.786028
21
149.408165
0
LINE
8
Layer 1
10
319.786028
20
149.408165
11
321.073180
21
151.893132
0
LINE
8
Layer 1
10
321.073180
20
151.893132
11
321.581332
21
152.361407
0
LINE
8
Layer 1
10
321.581332
20
152.361407
11
322.257505
21
152.652637
0
LINE
8
Layer 1
10
322.257505
20
152.652637
11
346.986324
21
161.450805
0
LINE
8
Layer 1
10
346.986324
20
161.450805
11
370.958703
21
169.878990
0
LINE
8
Layer 1
10
370.958703
20
169.878990
11
371.338500
21
169.723365
0
LINE
8
Layer 1
10
371.338500
20
169.723365
11
371.680345
21
169.299390
0
LINE
8
Layer 1
10
371.680345
20
169.299390
11
371.882188
21
168.961676
0
LINE
8
Layer 1
10
371.882188
20
168.961676
11
372.114477
21
168.890056
0
LINE
8
Layer 1
10
372.114477
20
168.890056
11
373.249077
21
169.688710
0
LINE
8
Layer 1
10
373.249077
20
169.688710
11
376.071407
21
171.685317
0
LINE
8
Layer 1
10
376.071407
20
171.685317
11
379.545438
21
173.677166
0
LINE
8
Layer 1
10
379.545438
20
173.677166
11
383.665968
21
175.662240
0
LINE
8
Layer 1
10
383.665968
20
175.662240
11
388.427796
21
177.638521
0
LINE
8
Layer 1
10
388.427796
20
177.638521
11
393.825721
21
179.603990
0
LINE
8
Layer 1
10
393.825721
20
179.603990
11
399.854541
21
181.556631
0
LINE
8
Layer 1
10
399.854541
20
181.556631
11
406.509055
21
183.494425
0
LINE
8
Layer 1
10
406.509055
20
183.494425
11
413.784062
21
185.415355
0
LINE
8
Layer 1
10
413.784062
20
185.415355
11
417.871480
21
186.644621
0
LINE
8
Layer 1
10
417.871480
20
186.644621
11
422.223607
21
188.219817
0
LINE
8
Layer 1
10
422.223607
20
188.219817
11
425.873696
21
189.603262
0
LINE
8
Layer 1
10
425.873696
20
189.603262
11
429.505876
21
190.820829
0
LINE
8
Layer 1
10
429.505876
20
190.820829
11
433.094803
21
191.866847
0
LINE
8
Layer 1
10
433.094803
20
191.866847
11
436.615131
21
192.735642
0
LINE
8
Layer 1
10
436.615131
20
192.735642
11
440.041515
21
193.421543
0
LINE
8
Layer 1
10
440.041515
20
193.421543
11
443.348609
21
193.918877
0
LINE
8
Layer 1
10
443.348609
20
193.918877
11
446.511068
21
194.221972
0
LINE
8
Layer 1
10
446.511068
20
194.221972
11
449.503546
21
194.325155
0
LINE
8
Layer 1
10
449.503546
20
194.325155
11
452.275374
21
194.245625
0
LINE
8
Layer 1
10
452.275374
20
194.245625
11
452.714951
21
194.096822
0
LINE
8
Layer 1
10
452.714951
20
194.096822
11
452.809187
21
193.832796
0
LINE
8
Layer 1
10
452.809187
20
193.832796
11
452.011863
21
192.572057
0
LINE
8
Layer 1
10
452.011863
20
192.572057
11
450.109618
21
190.234463
0
LINE
8
Layer 1
10
450.109618
20
190.234463
11
447.746889
21
187.340277
0
LINE
8
Layer 1
10
447.746889
20
187.340277
11
445.573475
21
184.359537
0
LINE
8
Layer 1
10
445.573475
20
184.359537
11
443.728821
21
181.495104
0
LINE
8
Layer 1
10
443.728821
20
181.495104
11
442.352374
21
178.949838
0
LINE
8
Layer 1
10
442.352374
20
178.949838
11
441.375320
21
176.608057
0
LINE
8
Layer 1
10
441.375320
20
176.608057
11
455.993444
21
183.875381
0
LINE
8
Layer 1
10
455.993444
20
183.875381
11
467.910958
21
189.802565
0
LINE
8
Layer 1
10
467.910958
20
189.802565
11
470.138763
21
190.755244
0
LINE
8
Layer 1
10
470.138763
20
190.755244
11
470.641622
21
190.879253
0
LINE
8
Layer 1
10
470.641622
20
190.879253
11
470.859668
21
190.825670
0
LINE
8
Layer 1
10
470.859668
20
190.825670
11
470.858434
21
190.615039
0
LINE
8
Layer 1
10
470.858434
20
190.615039
11
470.609923
21
190.193018
0
LINE
8
Layer 1
10
470.609923
20
190.193018
11
469.149254
21
188.471534
0
LINE
8
Layer 1
10
469.149254
20
188.471534
11
460.820572
21
179.815919
0
LINE
8
Layer 1
10
460.820572
20
179.815919
11
450.445124
21
169.211473
0
LINE
8
Layer 1
10
450.445124
20
169.211473
11
445.635154
21
166.187924
0
LINE
8
Layer 1
10
445.635154
20
166.187924
11
428.313670
21
155.220004
0
LINE
8
Layer 1
10
428.313670
20
155.220004
11
415.829552
21
147.159859
0
LINE
8
Layer 1
10
415.829552
20
147.159859
11
411.191953
21
144.195291
0
LINE
8
Layer 1
10
411.191953
20
144.195291
11
408.985664
21
142.962241
0
LINE
8
Layer 1
10
408.985664
20
142.962241
11
408.653717
21
143.053782
0
LINE
8
Layer 1
10
408.653717
20
143.053782
11
408.536038
21
143.371692
0
LINE
8
Layer 1
10
408.536038
20
143.371692
11
408.937121
21
144.946336
0
LINE
8
Layer 1
10
408.937121
20
144.946336
11
409.264414
21
146.253790
0
LINE
8
Layer 1
10
409.264414
20
146.253790
11
407.936192
21
145.462453
0
LINE
8
Layer 1
10
407.936192
20
145.462453
11
405.681483
21
144.094649
0
LINE
8
Layer 1
10
405.681483
20
144.094649
11
403.102008
21
142.936118
0
LINE
8
Layer 1
10
403.102008
20
142.936118
11
400.579217
21
142.133480
0
LINE
8
Layer 1
10
400.579217
20
142.133480
11
398.494560
21
141.833352
0
LINE
8
Layer 1
10
398.494560
20
141.833352
11
397.489358
21
141.922520
0
LINE
8
Layer 1
10
397.489358
20
141.922520
11
396.429152
21
142.171921
0
LINE
8
Layer 1
10
396.429152
20
142.171921
11
394.343911
21
143.042781
0
LINE
8
Layer 1
10
394.343911
20
143.042781
11
392.639194
21
144.228662
0
LINE
8
Layer 1
10
392.639194
20
144.228662
11
392.054643
21
144.871838
0
LINE
8
Layer 1
10
392.054643
20
144.871838
11
391.715357
21
145.512293
0
LINE
8
Layer 1
10
391.715357
20
145.512293
11
391.329390
21
146.066685
0
LINE
8
Layer 1
10
391.329390
20
146.066685
11
389.584523
21
144.204131
0
LINE
8
Layer 1
10
389.584523
20
144.204131
11
386.642549
21
141.108086
0
LINE
8
Layer 1
10
386.642549
20
141.108086
11
383.145990
21
138.238354
0
LINE
8
Layer 1
10
383.145990
20
138.238354
11
379.193455
21
135.641462
0
LINE
8
Layer 1
10
379.193455
20
135.641462
11
374.883553
21
133.363936
0
LINE
8
Layer 1
10
374.883553
20
133.363936
11
370.314894
21
131.452303
0
LINE
8
Layer 1
10
370.314894
20
131.452303
11
365.586087
21
129.953090
0
LINE
8
Layer 1
10
365.586087
20
129.953090
11
360.795742
21
128.912824
0
LINE
8
Layer 1
10
360.795742
20
128.912824
11
356.042468
21
128.378032
0
LINE
8
Layer 1
10
356.042468
20
128.378032
11
352.821946
21
128.195462
0
LINE
8
Layer 1
10
352.821946
20
128.195462
11
350.539135
21
126.558571
0
LINE
8
Layer 1
10
350.539135
20
126.558571
11
348.118035
21
124.969567
0
LINE
8
Layer 1
10
348.118035
20
124.969567
11
345.537003
21
123.521308
0
LINE
8
Layer 1
10
345.537003
20
123.521308
11
343.087168
21
122.364544
0
LINE
8
Layer 1
10
343.087168
20
122.364544
11
341.059657
21
121.650026
0
LINE
8
Layer 1
10
341.059657
20
121.650026
11
339.216240
21
121.325999
0
LINE
8
Layer 1
10
339.216240
20
121.325999
11
337.397259
21
121.284510
0
LINE
8
Layer 1
10
337.397259
20
121.284510
11
335.727229
21
121.518684
0
LINE
8
Layer 1
10
335.727229
20
121.518684
11
334.330661
21
122.021642
0
LINE
8
Layer 1
10
334.330661
20
122.021642
11
333.104970
21
122.660526
0
LINE
8
Layer 1
10
333.104970
20
122.660526
11
332.010145
21
121.671413
0
LINE
8
Layer 1
10
332.010145
20
121.671413
11
328.532621
21
118.939000
0
LINE
8
Layer 1
10
328.532621
20
118.939000
11
324.549657
21
116.346580
0
LINE
8
Layer 1
10
324.549657
20
116.346580
11
322.445227
21
115.292876
0
LINE
8
Layer 1
10
322.445227
20
115.292876
11
320.045849
21
114.320240
0
LINE
8
Layer 1
10
320.045849
20
114.320240
11
317.837024
21
113.606355
0
LINE
8
Layer 1
10
317.837024
20
113.606355
11
316.304253
21
113.328907
0
LINE
8
Layer 1
10
316.304253
20
113.328907
11
315.030376
21
113.472058
0
LINE
8
Layer 1
10
315.030376
20
113.472058
11
313.751443
21
113.872517
0
LINE
8
Layer 1
10
313.751443
20
113.872517
11
312.572782
21
114.486791
0
LINE
8
Layer 1
10
312.572782
20
114.486791
11
311.599721
21
115.271389
0
LINE
8
Layer 1
10
311.599721
20
115.271389
11
310.512968
21
116.384321
0
LINE
8
Layer 1
10
310.512968
20
116.384321
11
308.217993
21
114.048478
0
LINE
8
Layer 1
10
308.217993
20
114.048478
11
306.160938
21
112.087421
0
LINE
8
Layer 1
10
306.160938
20
112.087421
11
304.007259
21
110.320382
0
LINE
8
Layer 1
10
304.007259
20
110.320382
11
301.672551
21
108.702185
0
LINE
8
Layer 1
10
301.672551
20
108.702185
11
299.072409
21
107.187655
0
LINE
8
Layer 1
10
299.072409
20
107.187655
11
296.122429
21
105.731617
0
LINE
8
Layer 1
10
296.122429
20
105.731617
11
292.738205
21
104.288894
0
LINE
8
Layer 1
10
292.738205
20
104.288894
11
284.329406
21
101.262694
0
LINE
8
Layer 1
10
284.329406
20
101.262694
11
270.221893
21
96.833100
0
LINE
8
Layer 1
10
270.221893
20
96.833100
11
264.040626
21
94.967462
0
LINE
8
Layer 1
10
264.040626
20
94.967462
11
263.282389
21
94.833575
0
LINE
8
Layer 1
10
263.282389
20
94.833575
11
263.113801
21
95.034328
0
LINE
8
Layer 1
10
263.113801
20
95.034328
11
263.088234
21
95.443326
0
LINE
8
Layer 1
10
263.088234
20
95.443326
11
263.474159
21
96.975402
0
LINE
8
Layer 1
10
263.474159
20
96.975402
11
264.456164
21
99.608488
0
LINE
8
Layer 1
10
264.456164
20
99.608488
11
264.308179
21
99.639914
0
LINE
8
Layer 1
10
264.308179
20
99.639914
11
263.678884
21
99.316205
0
LINE
8
Layer 1
10
263.678884
20
99.316205
11
260.816377
21
97.497609
0
LINE
8
Layer 1
10
260.816377
20
97.497609
11
247.555803
21
88.435327
0
LINE
8
Layer 1
10
247.555803
20
88.435327
11
240.853025
21
83.977796
0
LINE
8
Layer 1
10
240.853025
20
83.977796
11
240.658446
21
84.073246
0
LINE
8
Layer 1
10
240.658446
20
84.073246
11
240.612711
21
84.414064
0
LINE
8
Layer 1
10
240.612711
20
84.414064
11
240.988006
21
86.158606
0
LINE
8
Layer 1
10
240.988006
20
86.158606
11
241.380755
21
87.633864
0
LINE
8
Layer 1
10
241.380755
20
87.633864
11
240.490770
21
86.961619
0
LINE
8
Layer 1
10
240.490770
20
86.961619
11
238.725274
21
85.761004
0
LINE
8
Layer 1
10
238.725274
20
85.761004
11
236.911972
21
84.777027
0
LINE
8
Layer 1
10
236.911972
20
84.777027
11
235.088282
21
84.018252
0
LINE
8
Layer 1
10
235.088282
20
84.018252
11
233.291622
21
83.493242
0
LINE
8
Layer 1
10
233.291622
20
83.493242
11
231.559409
21
83.210562
0
LINE
8
Layer 1
10
231.559409
20
83.210562
11
229.929061
21
83.178775
0
LINE
8
Layer 1
10
229.929061
20
83.178775
11
228.437996
21
83.406447
0
LINE
8
Layer 1
10
228.437996
20
83.406447
11
227.123631
21
83.902141
0
LINE
8
Layer 1
10
227.123631
20
83.902141
11
225.935371
21
84.521523
0
LINE
8
Layer 1
10
225.935371
20
84.521523
11
223.015514
21
81.215772
0
LINE
8
Layer 1
10
223.015514
20
81.215772
11
216.138849
21
73.258844
0
LINE
8
Layer 1
10
216.138849
20
73.258844
11
210.198578
21
66.056166
0
LINE
8
Layer 1
10
210.198578
20
66.056166
11
207.216860
21
62.585611
0
LINE
8
Layer 1
10
207.216860
20
62.585611
11
204.545636
21
59.972535
0
LINE
8
Layer 1
10
204.545636
20
59.972535
11
194.525700
21
51.294202
0
LINE
8
Layer 1
10
194.525700
20
51.294202
11
187.783695
21
45.631881
0
LINE
8
Layer 1
10
187.783695
20
45.631881
11
186.480992
21
44.813501
0
LINE
8
Layer 1
10
186.480992
20
44.813501
11
186.203166
21
44.800190
0
LINE
8
Layer 1
10
186.203166
20
44.800190
11
186.119671
21
45.009915
0
LINE
8
Layer 1
10
186.119671
20
45.009915
11
187.878881
21
50.255303
0
LINE
8
Layer 1
10
187.878881
20
50.255303
11
192.061866
21
61.262322
0
LINE
8
Layer 1
10
192.061866
20
61.262322
11
196.223343
21
71.966796
0
LINE
8
Layer 1
10
196.223343
20
71.966796
11
196.695848
21
73.327174
0
LINE
8
Layer 1
10
196.695848
20
73.327174
11
196.708411
21
73.485303
0
LINE
8
Layer 1
10
196.708411
20
73.485303
11
196.639798
21
73.476691
0
LINE
8
Layer 1
10
196.639798
20
73.476691
11
192.235603
21
71.420048
0
LINE
8
Layer 1
10
192.235603
20
71.420048
11
190.834733
21
70.972865
0
LINE
8
Layer 1
10
190.834733
20
70.972865
11
189.625712
21
70.781579
0
LINE
8
Layer 1
10
189.625712
20
70.781579
11
187.991903
21
70.730154
0
LINE
8
Layer 1
10
187.991903
20
70.730154
11
186.715859
21
70.894617
0
LINE
8
Layer 1
10
186.715859
20
70.894617
11
185.670985
21
71.306401
0
LINE
8
Layer 1
10
185.670985
20
71.306401
11
184.730686
21
71.996935
0
LINE
8
Layer 1
10
184.730686
20
71.996935
11
183.657604
21
72.966402
0
LINE
8
Layer 1
10
183.657604
20
72.966402
11
170.446435
21
63.796545
0
LINE
8
Layer 1
10
170.446435
20
63.796545
11
161.006047
21
57.320331
0
LINE
8
Layer 1
10
161.006047
20
57.320331
11
156.860802
21
54.626685
0
LINE
8
Layer 1
10
156.860802
20
54.626685
11
156.608459
21
54.698625
0
LINE
8
Layer 1
10
156.608459
20
54.698625
11
156.514318
21
54.980380
0
LINE
8
Layer 1
10
156.514318
20
54.980380
11
156.785251
21
56.568933
0
LINE
8
Layer 1
10
156.785251
20
56.568933
11
156.948703
21
57.927285
0
LINE
8
Layer 1
10
156.948703
20
57.927285
11
155.353938
21
56.933998
0
LINE
8
Layer 1
10
155.353938
20
56.933998
11
153.722137
21
55.909261
0
LINE
8
Layer 1
10
153.722137
20
55.909261
11
151.867478
21
55.011201
0
LINE
8
Layer 1
10
151.867478
20
55.011201
11
149.692159
21
54.341079
0
LINE
8
Layer 1
10
149.692159
20
54.341079
11
146.890782
21
54.203352
0
LINE
8
Layer 1
10
146.890782
20
54.203352
11
144.702667
21
54.298376
0
LINE
8
Layer 1
10
144.702667
20
54.298376
11
143.112203
21
54.663099
0
LINE
8
Layer 1
10
143.112203
20
54.663099
11
141.810488
21
55.416996
0
LINE
8
Layer 1
10
141.810488
20
55.416996
11
140.488619
21
56.679544
0
LINE
8
Layer 1
10
140.488619
20
56.679544
11
139.332936
21
57.933311
0
LINE
8
Layer 1
10
139.332936
20
57.933311
11
136.133284
21
49.294999
0
LINE
8
Layer 1
10
136.133284
20
49.294999
11
132.933632
21
40.656685
0
LINE
8
Layer 1
10
132.933632
20
40.656685
11
122.104283
21
28.944463
0
LINE
8
Layer 1
10
122.104283
20
28.944463
11
111.020784
21
17.138215
0
LINE
8
Layer 1
10
111.020784
20
17.138215
11
110.796794
21
17.187768
0
LINE
8
Layer 1
10
110.796794
20
17.187768
11
110.615157
21
17.438934
0
LINE
8
Layer 1
10
110.615157
20
17.438934
11
110.615157
21
17.438934
0
LINE
8
Layer 1
10
123.064691
20
36.280807
11
128.671173
21
42.911595
0
LINE
8
Layer 1
10
128.671173
20
42.911595
11
131.580193
21
50.533029
0
LINE
8
Layer 1
10
131.580193
20
50.533029
11
138.456017
21
67.896070
0
LINE
8
Layer 1
10
138.456017
20
67.896070
11
141.586698
21
75.190366
0
LINE
8
Layer 1
10
141.586698
20
75.190366
11
144.670782
21
81.890871
0
LINE
8
Layer 1
10
144.670782
20
81.890871
11
147.826938
21
88.245856
0
LINE
8
Layer 1
10
147.826938
20
88.245856
11
151.173831
21
94.503591
0
LINE
8
Layer 1
10
151.173831
20
94.503591
11
154.830131
21
100.912345
0
LINE
8
Layer 1
10
154.830131
20
100.912345
11
158.914505
21
107.720390
0
LINE
8
Layer 1
10
158.914505
20
107.720390
11
162.130782
21
113.118457
0
LINE
8
Layer 1
10
162.130782
20
113.118457
11
159.152089
21
112.163374
0
LINE
8
Layer 1
10
159.152089
20
112.163374
11
148.882633
21
108.342678
0
LINE
8
Layer 1
10
148.882633
20
108.342678
11
142.266707
21
105.850018
0
LINE
8
Layer 1
10
142.266707
20
105.850018
11
140.615769
21
101.757796
0
LINE
8
Layer 1
10
140.615769
20
101.757796
11
136.085651
21
89.941783
0
LINE
8
Layer 1
10
136.085651
20
89.941783
11
131.643865
21
77.822549
0
LINE
8
Layer 1
10
131.643865
20
77.822549
11
130.462849
21
74.796039
0
LINE
8
Layer 1
10
130.462849
20
74.796039
11
130.005994
21
74.203425
0
LINE
8
Layer 1
10
130.005994
20
74.203425
11
129.418839
21
73.830976
0
LINE
8
Layer 1
10
129.418839
20
73.830976
11
120.014828
21
69.590824
0
LINE
8
Layer 1
10
120.014828
20
69.590824
11
112.246771
21
66.316620
0
LINE
8
Layer 1
10
112.246771
20
66.316620
11
113.502383
21
69.641065
0
LINE
8
Layer 1
10
113.502383
20
69.641065
11
116.900690
21
77.559243
0
LINE
8
Layer 1
10
116.900690
20
77.559243
11
125.699147
21
97.060964
0
LINE
8
Layer 1
10
125.699147
20
97.060964
11
126.714847
21
99.413779
0
LINE
8
Layer 1
10
126.714847
20
99.413779
11
126.803182
21
99.866669
0
LINE
8
Layer 1
10
126.803182
20
99.866669
11
126.641846
21
99.928485
0
LINE
8
Layer 1
10
126.641846
20
99.928485
11
116.830235
21
96.295540
0
LINE
8
Layer 1
10
116.830235
20
96.295540
11
115.415241
21
95.830057
0
LINE
8
Layer 1
10
115.415241
20
95.830057
11
113.892330
21
92.091149
0
LINE
8
Layer 1
10
113.892330
20
92.091149
11
108.072901
21
77.111468
0
LINE
8
Layer 1
10
108.072901
20
77.111468
11
103.385860
21
63.991013
0
LINE
8
Layer 1
10
103.385860
20
63.991013
11
102.709966
21
61.925344
0
LINE
8
Layer 1
10
102.709966
20
61.925344
11
98.291467
21
59.937752
0
LINE
8
Layer 1
10
98.291467
20
59.937752
11
93.872970
21
57.950159
0
LINE
8
Layer 1
10
93.872970
20
57.950159
11
96.528515
21
53.960087
0
LINE
8
Layer 1
10
96.528515
20
53.960087
11
99.184059
21
49.970018
0
LINE
8
Layer 1
10
99.184059
20
49.970018
11
98.199157
21
46.301129
0
LINE
8
Layer 1
10
98.199157
20
46.301129
11
96.065365
21
37.475037
0
LINE
8
Layer 1
10
96.065365
20
37.475037
11
94.679671
21
30.962005
0
LINE
8
Layer 1
10
94.679671
20
30.962005
11
94.759154
21
30.812805
0
LINE
8
Layer 1
10
94.759154
20
30.812805
11
95.015098
21
30.739523
0
LINE
8
Layer 1
10
95.015098
20
30.739523
11
96.161338
21
30.809935
0
LINE
8
Layer 1
10
96.161338
20
30.809935
11
98.097018
21
31.172432
0
LINE
8
Layer 1
10
98.097018
20
31.172432
11
100.227264
21
33.407165
0
LINE
8
Layer 1
10
100.227264
20
33.407165
11
104.711370
21
38.540018
0
LINE
8
Layer 1
10
104.711370
20
38.540018
11
112.441801
21
47.545902
0
LINE
8
Layer 1
10
112.441801
20
47.545902
11
113.384874
21
48.732869
0
LINE
8
Layer 1
10
113.384874
20
48.732869
11
113.542722
21
49.023292
0
LINE
8
Layer 1
10
113.542722
20
49.023292
11
113.447449
21
49.046043
0
LINE
8
Layer 1
10
113.447449
20
49.046043
11
107.803005
21
45.641754
0
LINE
8
Layer 1
10
107.803005
20
45.641754
11
102.656397
21
42.608960
0
LINE
8
Layer 1
10
102.656397
20
42.608960
11
104.762766
21
48.249318
0
LINE
8
Layer 1
10
104.762766
20
48.249318
11
106.935744
21
53.827254
0
LINE
8
Layer 1
10
106.935744
20
53.827254
11
117.499838
21
61.006321
0
LINE
8
Layer 1
10
117.499838
20
61.006321
11
128.192445
21
68.056873
0
LINE
8
Layer 1
10
128.192445
20
68.056873
11
127.043510
21
63.888078
0
LINE
8
Layer 1
10
127.043510
20
63.888078
11
120.986392
21
43.651846
0
LINE
8
Layer 1
10
120.986392
20
43.651846
11
116.975227
21
29.336139
0
LINE
8
Layer 1
10
116.975227
20
29.336139
11
116.999685
21
29.207328
0
LINE
8
Layer 1
10
116.999685
20
29.207328
11
117.547905
21
29.780304
0
LINE
8
Layer 1
10
117.547905
20
29.780304
11
123.064691
21
36.280807
0
LINE
8
Layer 1
10
123.064691
20
36.280807
11
123.064691
21
36.280807
0
LINE
8
Layer 1
10
201.310353
20
62.105574
11
203.835845
21
64.694963
0
LINE
8
Layer 1
10
203.835845
20
64.694963
11
206.545615
21
67.750018
0
LINE
8
Layer 1
10
206.545615
20
67.750018
11
217.111130
21
80.152907
0
LINE
8
Layer 1
10
217.111130
20
80.152907
11
224.997131
21
89.146312
0
LINE
8
Layer 1
10
224.997131
20
89.146312
11
226.251445
21
90.504828
0
LINE
8
Layer 1
10
226.251445
20
90.504828
11
227.264539
21
89.321256
0
LINE
8
Layer 1
10
227.264539
20
89.321256
11
228.189902
21
88.406601
0
LINE
8
Layer 1
10
228.189902
20
88.406601
11
229.171181
21
87.801610
0
LINE
8
Layer 1
10
229.171181
20
87.801610
11
230.295898
21
87.467243
0
LINE
8
Layer 1
10
230.295898
20
87.467243
11
231.651576
21
87.364463
0
LINE
8
Layer 1
10
231.651576
20
87.364463
11
233.052118
21
87.558345
0
LINE
8
Layer 1
10
233.052118
20
87.558345
11
234.615374
21
88.120153
0
LINE
8
Layer 1
10
234.615374
20
88.120153
11
236.301779
21
89.020131
0
LINE
8
Layer 1
10
236.301779
20
89.020131
11
238.071768
21
90.228523
0
LINE
8
Layer 1
10
238.071768
20
90.228523
11
239.885775
21
91.715572
0
LINE
8
Layer 1
10
239.885775
20
91.715572
11
241.704235
21
93.451522
0
LINE
8
Layer 1
10
241.704235
20
93.451522
11
243.487582
21
95.406618
0
LINE
8
Layer 1
10
243.487582
20
95.406618
11
245.196250
21
97.551102
0
LINE
8
Layer 1
10
245.196250
20
97.551102
11
245.950782
21
98.717289
0
LINE
8
Layer 1
10
245.950782
20
98.717289
11
244.892449
21
98.491370
0
LINE
8
Layer 1
10
244.892449
20
98.491370
11
243.222444
21
98.135721
0
LINE
8
Layer 1
10
243.222444
20
98.135721
11
241.803309
21
98.292953
0
LINE
8
Layer 1
10
241.803309
20
98.292953
11
241.227513
21
98.551207
0
LINE
8
Layer 1
10
241.227513
20
98.551207
11
240.762068
21
98.922450
0
LINE
8
Layer 1
10
240.762068
20
98.922450
11
240.422853
21
99.401605
0
LINE
8
Layer 1
10
240.422853
20
99.401605
11
240.225747
21
99.983595
0
LINE
8
Layer 1
10
240.225747
20
99.983595
11
240.189255
21
101.217796
0
LINE
8
Layer 1
10
240.189255
20
101.217796
11
240.433895
21
102.791714
0
LINE
8
Layer 1
10
240.433895
20
102.791714
11
240.917202
21
104.513116
0
LINE
8
Layer 1
10
240.917202
20
104.513116
11
241.596712
21
106.189769
0
LINE
8
Layer 1
10
241.596712
20
106.189769
11
242.661974
21
108.069713
0
LINE
8
Layer 1
10
242.661974
20
108.069713
11
244.071235
21
110.076419
0
LINE
8
Layer 1
10
244.071235
20
110.076419
11
245.653860
21
111.986502
0
LINE
8
Layer 1
10
245.653860
20
111.986502
11
247.239214
21
113.576577
0
LINE
8
Layer 1
10
247.239214
20
113.576577
11
249.726381
21
115.548626
0
LINE
8
Layer 1
10
249.726381
20
115.548626
11
252.516079
21
117.449887
0
LINE
8
Layer 1
10
252.516079
20
117.449887
11
254.864185
21
118.808257
0
LINE
8
Layer 1
10
254.864185
20
118.808257
11
255.640101
21
119.136327
0
LINE
8
Layer 1
10
255.640101
20
119.136327
11
256.026573
21
119.151634
0
LINE
8
Layer 1
10
256.026573
20
119.151634
11
254.414000
21
114.547043
0
LINE
8
Layer 1
10
254.414000
20
114.547043
11
246.759415
21
94.948227
0
LINE
8
Layer 1
10
246.759415
20
94.948227
11
245.927010
21
92.562435
0
LINE
8
Layer 1
10
245.927010
20
92.562435
11
245.918930
21
92.319305
0
LINE
8
Layer 1
10
245.918930
20
92.319305
11
246.053178
21
92.365108
0
LINE
8
Layer 1
10
246.053178
20
92.365108
11
251.617734
21
96.206299
0
LINE
8
Layer 1
10
251.617734
20
96.206299
11
272.386800
21
110.422679
0
LINE
8
Layer 1
10
272.386800
20
110.422679
11
272.055509
21
109.076135
0
LINE
8
Layer 1
10
272.055509
20
109.076135
11
270.794948
21
105.659984
0
LINE
8
Layer 1
10
270.794948
20
105.659984
11
268.920587
21
100.714660
0
LINE
8
Layer 1
10
268.920587
20
100.714660
11
276.160024
21
102.879251
0
LINE
8
Layer 1
10
276.160024
20
102.879251
11
287.309103
21
106.541718
0
LINE
8
Layer 1
10
287.309103
20
106.541718
11
291.596414
21
108.174316
0
LINE
8
Layer 1
10
291.596414
20
108.174316
11
295.199349
21
109.757550
0
LINE
8
Layer 1
10
295.199349
20
109.757550
11
298.248241
21
111.353717
0
LINE
8
Layer 1
10
298.248241
20
111.353717
11
300.873423
21
113.025111
0
LINE
8
Layer 1
10
300.873423
20
113.025111
11
303.205226
21
114.834029
0
LINE
8
Layer 1
10
303.205226
20
114.834029
11
305.373984
21
116.842766
0
LINE
8
Layer 1
10
305.373984
20
116.842766
11
308.178487
21
120.033663
0
LINE
8
Layer 1
10
308.178487
20
120.033663
11
310.650611
21
123.597479
0
LINE
8
Layer 1
10
310.650611
20
123.597479
11
312.729131
21
127.366481
0
LINE
8
Layer 1
10
312.729131
20
127.366481
11
314.352820
21
131.172938
0
LINE
8
Layer 1
10
314.352820
20
131.172938
11
315.460453
21
134.849118
0
LINE
8
Layer 1
10
315.460453
20
134.849118
11
315.990803
21
138.227290
0
LINE
8
Layer 1
10
315.990803
20
138.227290
11
316.020364
21
139.752206
0
LINE
8
Layer 1
10
316.020364
20
139.752206
11
315.882644
21
141.139720
0
LINE
8
Layer 1
10
315.882644
20
141.139720
11
315.569991
21
142.368867
0
LINE
8
Layer 1
10
315.569991
20
142.368867
11
315.074752
21
143.418679
0
LINE
8
Layer 1
10
315.074752
20
143.418679
11
314.268633
21
144.339501
0
LINE
8
Layer 1
10
314.268633
20
144.339501
11
313.199410
21
145.005960
0
LINE
8
Layer 1
10
313.199410
20
145.005960
11
311.978607
21
145.367966
0
LINE
8
Layer 1
10
311.978607
20
145.367966
11
310.717748
21
145.375430
0
LINE
8
Layer 1
10
310.717748
20
145.375430
11
309.105610
21
144.909231
0
LINE
8
Layer 1
10
309.105610
20
144.909231
11
307.080461
21
143.993985
0
LINE
8
Layer 1
10
307.080461
20
143.993985
11
304.899156
21
142.760873
0
LINE
8
Layer 1
10
304.899156
20
142.760873
11
302.818546
21
141.341077
0
LINE
8
Layer 1
10
302.818546
20
141.341077
11
300.493721
21
139.368476
0
LINE
8
Layer 1
10
300.493721
20
139.368476
11
297.680574
21
136.701694
0
LINE
8
Layer 1
10
297.680574
20
136.701694
11
295.074114
21
134.025867
0
LINE
8
Layer 1
10
295.074114
20
134.025867
11
293.369351
21
132.026129
0
LINE
8
Layer 1
10
293.369351
20
132.026129
11
292.663682
21
130.826685
0
LINE
8
Layer 1
10
292.663682
20
130.826685
11
294.570460
21
131.934139
0
LINE
8
Layer 1
10
294.570460
20
131.934139
11
296.455766
21
132.955930
0
LINE
8
Layer 1
10
296.455766
20
132.955930
11
297.890251
21
133.344374
0
LINE
8
Layer 1
10
297.890251
20
133.344374
11
298.451634
21
133.301874
0
LINE
8
Layer 1
10
298.451634
20
133.301874
11
298.916150
21
133.101978
0
LINE
8
Layer 1
10
298.916150
20
133.101978
11
299.289079
21
132.745000
0
LINE
8
Layer 1
10
299.289079
20
132.745000
11
299.575700
21
132.231251
0
LINE
8
Layer 1
10
299.575700
20
132.231251
11
299.795260
21
131.463633
0
LINE
8
Layer 1
10
299.795260
20
131.463633
11
299.867458
21
130.598333
0
LINE
8
Layer 1
10
299.867458
20
130.598333
11
299.601421
21
128.628303
0
LINE
8
Layer 1
10
299.601421
20
128.628303
11
298.840889
21
126.428385
0
LINE
8
Layer 1
10
298.840889
20
126.428385
11
297.649163
21
124.105808
0
LINE
8
Layer 1
10
297.649163
20
124.105808
11
296.089542
21
121.767795
0
LINE
8
Layer 1
10
296.089542
20
121.767795
11
294.225329
21
119.521575
0
LINE
8
Layer 1
10
294.225329
20
119.521575
11
292.119822
21
117.474372
0
LINE
8
Layer 1
10
292.119822
20
117.474372
11
289.836324
21
115.733412
0
LINE
8
Layer 1
10
289.836324
20
115.733412
11
286.513076
21
113.805484
0
LINE
8
Layer 1
10
286.513076
20
113.805484
11
285.277631
21
113.256871
0
LINE
8
Layer 1
10
285.277631
20
113.256871
11
284.685655
21
113.164394
0
LINE
8
Layer 1
10
284.685655
20
113.164394
11
285.406080
21
115.679951
0
LINE
8
Layer 1
10
285.406080
20
115.679951
11
287.377540
21
121.429970
0
LINE
8
Layer 1
10
287.377540
20
121.429970
11
291.967186
21
133.821035
0
LINE
8
Layer 1
10
291.967186
20
133.821035
11
294.286433
21
139.050091
0
LINE
8
Layer 1
10
294.286433
20
139.050091
11
296.937709
21
144.187830
0
LINE
8
Layer 1
10
296.937709
20
144.187830
11
299.685075
21
148.807804
0
LINE
8
Layer 1
10
299.685075
20
148.807804
11
302.292597
21
152.483569
0
LINE
8
Layer 1
10
302.292597
20
152.483569
11
303.026346
21
153.397119
0
LINE
8
Layer 1
10
303.026346
20
153.397119
11
297.701321
21
151.592243
0
LINE
8
Layer 1
10
297.701321
20
151.592243
11
289.926663
21
148.895271
0
LINE
8
Layer 1
10
289.926663
20
148.895271
11
287.477002
21
148.003175
0
LINE
8
Layer 1
10
287.477002
20
148.003175
11
280.890370
21
131.442759
0
LINE
8
Layer 1
10
280.890370
20
131.442759
11
274.303721
21
114.882343
0
LINE
8
Layer 1
10
274.303721
20
114.882343
11
272.897809
21
113.957910
0
LINE
8
Layer 1
10
272.897809
20
113.957910
11
267.388619
21
110.961053
0
LINE
8
Layer 1
10
267.388619
20
110.961053
11
264.375983
21
109.465839
0
LINE
8
Layer 1
10
264.375983
20
109.465839
11
262.992145
21
108.893472
0
LINE
8
Layer 1
10
262.992145
20
108.893472
11
263.227621
21
110.108257
0
LINE
8
Layer 1
10
263.227621
20
110.108257
11
264.106765
21
112.788942
0
LINE
8
Layer 1
10
264.106765
20
112.788942
11
266.560943
21
119.037357
0
LINE
8
Layer 1
10
266.560943
20
119.037357
11
267.994616
21
122.061301
0
LINE
8
Layer 1
10
267.994616
20
122.061301
11
269.291433
21
124.467619
0
LINE
8
Layer 1
10
269.291433
20
124.467619
11
270.528760
21
126.388418
0
LINE
8
Layer 1
10
270.528760
20
126.388418
11
271.783968
21
127.955808
0
LINE
8
Layer 1
10
271.783968
20
127.955808
11
273.096423
21
129.415574
0
LINE
8
Layer 1
10
273.096423
20
129.415574
11
272.011936
21
129.414674
0
LINE
8
Layer 1
10
272.011936
20
129.414674
11
269.988807
21
129.266876
0
LINE
8
Layer 1
10
269.988807
20
129.266876
11
267.565661
21
128.847867
0
LINE
8
Layer 1
10
267.565661
20
128.847867
11
261.920096
21
127.324651
0
LINE
8
Layer 1
10
261.920096
20
127.324651
11
255.876797
21
125.101903
0
LINE
8
Layer 1
10
255.876797
20
125.101903
11
252.956483
21
123.808479
0
LINE
8
Layer 1
10
252.956483
20
123.808479
11
250.237320
21
122.436501
0
LINE
8
Layer 1
10
250.237320
20
122.436501
11
247.572663
21
120.890804
0
LINE
8
Layer 1
10
247.572663
20
120.890804
11
244.939762
21
119.164425
0
LINE
8
Layer 1
10
244.939762
20
119.164425
11
242.368966
21
117.283248
0
LINE
8
Layer 1
10
242.368966
20
117.283248
11
239.890620
21
115.273158
0
LINE
8
Layer 1
10
239.890620
20
115.273158
11
237.535072
21
113.160041
0
LINE
8
Layer 1
10
237.535072
20
113.160041
11
235.332668
21
110.969782
0
LINE
8
Layer 1
10
235.332668
20
110.969782
11
233.313754
21
108.728265
0
LINE
8
Layer 1
10
233.313754
20
108.728265
11
231.508678
21
106.461377
0
LINE
8
Layer 1
10
231.508678
20
106.461377
11
229.648815
21
103.763303
0
LINE
8
Layer 1
10
229.648815
20
103.763303
11
228.190203
21
101.185905
0
LINE
8
Layer 1
10
228.190203
20
101.185905
11
227.070629
21
98.604699
0
LINE
8
Layer 1
10
227.070629
20
98.604699
11
226.227877
21
95.895202
0
LINE
8
Layer 1
10
226.227877
20
95.895202
11
225.771893
21
94.124831
0
LINE
8
Layer 1
10
225.771893
20
94.124831
11
221.128457
21
90.331600
0
LINE
8
Layer 1
10
221.128457
20
90.331600
11
216.378561
21
86.644833
0
LINE
8
Layer 1
10
216.378561
20
86.644833
11
216.760237
21
87.870526
0
LINE
8
Layer 1
10
216.760237
20
87.870526
11
217.948314
21
90.704910
0
LINE
8
Layer 1
10
217.948314
20
90.704910
11
221.283877
21
97.861673
0
LINE
8
Layer 1
10
221.283877
20
97.861673
11
225.501888
21
105.595074
0
LINE
8
Layer 1
10
225.501888
20
105.595074
11
230.471421
21
113.526178
0
LINE
8
Layer 1
10
230.471421
20
113.526178
11
232.959267
21
117.251226
0
LINE
8
Layer 1
10
232.959267
20
117.251226
11
231.200026
21
116.583071
0
LINE
8
Layer 1
10
231.200026
20
116.583071
11
222.526338
21
113.234950
0
LINE
8
Layer 1
10
222.526338
20
113.234950
11
215.611893
21
110.554984
0
LINE
8
Layer 1
10
215.611893
20
110.554984
11
212.859363
21
103.122501
0
LINE
8
Layer 1
10
212.859363
20
103.122501
11
208.342189
21
91.325708
0
LINE
8
Layer 1
10
208.342189
20
91.325708
11
207.093281
21
88.504289
0
LINE
8
Layer 1
10
207.093281
20
88.504289
11
206.354796
21
87.339407
0
LINE
8
Layer 1
10
206.354796
20
87.339407
11
204.059654
21
85.937012
0
LINE
8
Layer 1
10
204.059654
20
85.937012
11
201.553510
21
84.869706
0
LINE
8
Layer 1
10
201.553510
20
84.869706
11
200.603427
21
84.776025
0
LINE
8
Layer 1
10
200.603427
20
84.776025
11
199.926714
21
85.053616
0
LINE
8
Layer 1
10
199.926714
20
85.053616
11
199.564213
21
85.667444
0
LINE
8
Layer 1
10
199.564213
20
85.667444
11
199.556771
21
86.582473
0
LINE
8
Layer 1
10
199.556771
20
86.582473
11
200.629331
21
90.497784
0
LINE
8
Layer 1
10
200.629331
20
90.497784
11
202.546662
21
95.528907
0
LINE
8
Layer 1
10
202.546662
20
95.528907
11
204.974724
21
100.877901
0
LINE
8
Layer 1
10
204.974724
20
100.877901
11
207.579479
21
105.746827
0
LINE
8
Layer 1
10
207.579479
20
105.746827
11
209.463787
21
109.269976
0
LINE
8
Layer 1
10
209.463787
20
109.269976
11
202.983882
21
107.024622
0
LINE
8
Layer 1
10
202.983882
20
107.024622
11
196.410766
21
104.522964
0
LINE
8
Layer 1
10
196.410766
20
104.522964
11
191.135968
21
93.008907
0
LINE
8
Layer 1
10
191.135968
20
93.008907
11
188.942887
21
87.223352
0
LINE
8
Layer 1
10
188.942887
20
87.223352
11
187.606026
21
83.554463
0
LINE
8
Layer 1
10
187.606026
20
83.554463
11
185.575996
21
82.383994
0
LINE
8
Layer 1
10
185.575996
20
82.383994
11
181.235334
21
80.192235
0
LINE
8
Layer 1
10
181.235334
20
80.192235
11
179.442184
21
79.445174
0
LINE
8
Layer 1
10
179.442184
20
79.445174
11
178.615490
21
79.252349
0
LINE
8
Layer 1
10
178.615490
20
79.252349
11
178.803432
21
80.299939
0
LINE
8
Layer 1
10
178.803432
20
80.299939
11
179.570995
21
82.660376
0
LINE
8
Layer 1
10
179.570995
20
82.660376
11
181.944021
21
88.749197
0
LINE
8
Layer 1
10
181.944021
20
88.749197
11
183.250418
21
91.595594
0
LINE
8
Layer 1
10
183.250418
20
91.595594
11
184.511948
21
93.980749
0
LINE
8
Layer 1
10
184.511948
20
93.980749
11
185.813460
21
96.052192
0
LINE
8
Layer 1
10
185.813460
20
96.052192
11
187.239800
21
97.957454
0
LINE
8
Layer 1
10
187.239800
20
97.957454
11
188.849144
21
99.942667
0
LINE
8
Layer 1
10
188.849144
20
99.942667
11
186.684045
21
99.733365
0
LINE
8
Layer 1
10
186.684045
20
99.733365
11
182.988770
21
99.189625
0
LINE
8
Layer 1
10
182.988770
20
99.189625
11
179.147860
21
98.272280
0
LINE
8
Layer 1
10
179.147860
20
98.272280
11
175.220258
21
97.007284
0
LINE
8
Layer 1
10
175.220258
20
97.007284
11
171.264912
21
95.420589
0
LINE
8
Layer 1
10
171.264912
20
95.420589
11
167.340767
21
93.538146
0
LINE
8
Layer 1
10
167.340767
20
93.538146
11
163.506768
21
91.385908
0
LINE
8
Layer 1
10
163.506768
20
91.385908
11
159.821861
21
88.989827
0
LINE
8
Layer 1
10
159.821861
20
88.989827
11
156.344993
21
86.375855
0
LINE
8
Layer 1
10
156.344993
20
86.375855
11
153.937627
21
84.275988
0
LINE
8
Layer 1
10
153.937627
20
84.275988
11
151.430455
21
81.832756
0
LINE
8
Layer 1
10
151.430455
20
81.832756
11
149.103920
21
79.332948
0
LINE
8
Layer 1
10
149.103920
20
79.332948
11
147.238469
21
77.063352
0
LINE
8
Layer 1
10
147.238469
20
77.063352
11
145.317284
21
74.148224
0
LINE
8
Layer 1
10
145.317284
20
74.148224
11
143.728015
21
71.039201
0
LINE
8
Layer 1
10
143.728015
20
71.039201
11
142.570060
21
67.960178
0
LINE
8
Layer 1
10
142.570060
20
67.960178
11
141.942820
21
65.135049
0
LINE
8
Layer 1
10
141.942820
20
65.135049
11
141.886230
21
63.635051
0
LINE
8
Layer 1
10
141.886230
20
63.635051
11
142.095038
21
62.266520
0
LINE
8
Layer 1
10
142.095038
20
62.266520
11
142.551209
21
61.050953
0
LINE
8
Layer 1
10
142.551209
20
61.050953
11
143.236709
21
60.009850
0
LINE
8
Layer 1
10
143.236709
20
60.009850
11
144.133503
21
59.164709
0
LINE
8
Layer 1
10
144.133503
20
59.164709
11
145.223556
21
58.537030
0
LINE
8
Layer 1
10
145.223556
20
58.537030
11
146.488835
21
58.148311
0
LINE
8
Layer 1
10
146.488835
20
58.148311
11
147.911304
21
58.020052
0
LINE
8
Layer 1
10
147.911304
20
58.020052
11
148.890906
21
58.128683
0
LINE
8
Layer 1
10
148.890906
20
58.128683
11
149.977795
21
58.436796
0
LINE
8
Layer 1
10
149.977795
20
58.436796
11
152.407620
21
59.612280
0
LINE
8
Layer 1
10
152.407620
20
59.612280
11
155.069148
21
61.468133
0
LINE
8
Layer 1
10
155.069148
20
61.468133
11
157.830749
21
63.925983
0
LINE
8
Layer 1
10
157.830749
20
63.925983
11
160.677884
21
67.046921
0
LINE
8
Layer 1
10
160.677884
20
67.046921
11
161.720322
21
68.372802
0
LINE
8
Layer 1
10
161.720322
20
68.372802
11
162.130782
21
69.088598
0
LINE
8
Layer 1
10
162.130782
20
69.088598
11
160.815929
21
68.851286
0
LINE
8
Layer 1
10
160.815929
20
68.851286
11
159.746516
21
68.568919
0
LINE
8
Layer 1
10
159.746516
20
68.568919
11
158.944305
21
68.481510
0
LINE
8
Layer 1
10
158.944305
20
68.481510
11
158.240389
21
68.591602
0
LINE
8
Layer 1
10
158.240389
20
68.591602
11
157.465861
21
68.901739
0
LINE
8
Layer 1
10
157.465861
20
68.901739
11
156.688855
21
69.441565
0
LINE
8
Layer 1
10
156.688855
20
69.441565
11
156.240623
21
70.211896
0
LINE
8
Layer 1
10
156.240623
20
70.211896
11
156.096047
21
71.291088
0
LINE
8
Layer 1
10
156.096047
20
71.291088
11
156.230012
21
72.757498
0
LINE
8
Layer 1
10
156.230012
20
72.757498
11
156.790364
21
74.937896
0
LINE
8
Layer 1
10
156.790364
20
74.937896
11
157.771784
21
77.165950
0
LINE
8
Layer 1
10
157.771784
20
77.165950
11
159.133764
21
79.394915
0
LINE
8
Layer 1
10
159.133764
20
79.394915
11
160.835795
21
81.578046
0
LINE
8
Layer 1
10
160.835795
20
81.578046
11
162.837367
21
83.668600
0
LINE
8
Layer 1
10
162.837367
20
83.668600
11
165.097972
21
85.619831
0
LINE
8
Layer 1
10
165.097972
20
85.619831
11
167.577099
21
87.384995
0
LINE
8
Layer 1
10
167.577099
20
87.384995
11
170.234240
21
88.917348
0
LINE
8
Layer 1
10
170.234240
20
88.917348
11
171.608185
21
89.547887
0
LINE
8
Layer 1
10
171.608185
20
89.547887
11
172.221742
21
89.685478
0
LINE
8
Layer 1
10
172.221742
20
89.685478
11
166.968509
21
76.071024
0
LINE
8
Layer 1
10
166.968509
20
76.071024
11
161.713133
21
62.585174
0
LINE
8
Layer 1
10
161.713133
20
62.585174
11
173.963248
21
70.840174
0
LINE
8
Layer 1
10
173.963248
20
70.840174
11
186.272661
21
79.180018
0
LINE
8
Layer 1
10
186.272661
20
79.180018
11
186.401893
21
78.183176
0
LINE
8
Layer 1
10
186.401893
20
78.183176
11
186.642697
21
76.588998
0
LINE
8
Layer 1
10
186.642697
20
76.588998
11
186.931903
21
75.959581
0
LINE
8
Layer 1
10
186.931903
20
75.959581
11
187.323155
21
75.452520
0
LINE
8
Layer 1
10
187.323155
20
75.452520
11
187.808589
21
75.075744
0
LINE
8
Layer 1
10
187.808589
20
75.075744
11
188.380337
21
74.837185
0
LINE
8
Layer 1
10
188.380337
20
74.837185
11
189.030534
21
74.744773
0
LINE
8
Layer 1
10
189.030534
20
74.744773
11
189.751312
21
74.806437
0
LINE
8
Layer 1
10
189.751312
20
74.806437
11
192.026171
21
75.613502
0
LINE
8
Layer 1
10
192.026171
20
75.613502
11
195.038458
21
77.278044
0
LINE
8
Layer 1
10
195.038458
20
77.278044
11
198.644051
21
79.710834
0
LINE
8
Layer 1
10
198.644051
20
79.710834
11
202.698833
21
82.822641
0
LINE
8
Layer 1
10
202.698833
20
82.822641
11
205.993506
21
85.388907
0
LINE
8
Layer 1
10
205.993506
20
85.388907
11
203.431171
21
78.827241
0
LINE
8
Layer 1
10
203.431171
20
78.827241
11
195.424989
21
58.556057
0
LINE
8
Layer 1
10
195.424989
20
58.556057
11
194.586025
21
56.280662
0
LINE
8
Layer 1
10
194.586025
20
56.280662
11
196.751059
21
58.064231
0
LINE
8
Layer 1
10
196.751059
20
58.064231
11
201.310353
21
62.105574
0
LINE
8
Layer 1
10
201.310353
20
62.105574
11
201.310353
21
62.105574
0
LINE
8
Layer 1
10
318.352029
20
117.998141
11
319.584782
21
118.419990
0
LINE
8
Layer 1
10
319.584782
20
118.419990
11
321.030639
21
119.096849
0
LINE
8
Layer 1
10
321.030639
20
119.096849
11
324.487805
21
121.166530
0
LINE
8
Layer 1
10
324.487805
20
121.166530
11
328.575795
21
124.109049
0
LINE
8
Layer 1
10
328.575795
20
124.109049
11
333.146880
21
127.826268
0
LINE
8
Layer 1
10
333.146880
20
127.826268
11
334.688519
21
129.144113
0
LINE
8
Layer 1
10
334.688519
20
129.144113
11
335.046151
21
127.917654
0
LINE
8
Layer 1
10
335.046151
20
127.917654
11
335.664810
21
126.599921
0
LINE
8
Layer 1
10
335.664810
20
126.599921
11
336.623364
21
125.767247
0
LINE
8
Layer 1
10
336.623364
20
125.767247
11
337.943910
21
125.408077
0
LINE
8
Layer 1
10
337.943910
20
125.408077
11
339.648546
21
125.510854
0
LINE
8
Layer 1
10
339.648546
20
125.510854
11
341.519860
21
126.137171
0
LINE
8
Layer 1
10
341.519860
20
126.137171
11
344.149751
21
127.373898
0
LINE
8
Layer 1
10
344.149751
20
127.373898
11
346.984471
21
128.937289
0
LINE
8
Layer 1
10
346.984471
20
128.937289
11
349.470274
21
130.543596
0
LINE
8
Layer 1
10
349.470274
20
130.543596
11
351.813114
21
132.232552
0
LINE
8
Layer 1
10
351.813114
20
132.232552
11
355.114719
21
132.530548
0
LINE
8
Layer 1
10
355.114719
20
132.530548
11
359.891315
21
133.096032
0
LINE
8
Layer 1
10
359.891315
20
133.096032
11
364.282453
21
133.903152
0
LINE
8
Layer 1
10
364.282453
20
133.903152
11
368.324085
21
134.966711
0
LINE
8
Layer 1
10
368.324085
20
134.966711
11
372.052166
21
136.301514
0
LINE
8
Layer 1
10
372.052166
20
136.301514
11
375.502648
21
137.922362
0
LINE
8
Layer 1
10
375.502648
20
137.922362
11
378.711486
21
139.844060
0
LINE
8
Layer 1
10
378.711486
20
139.844060
11
381.714632
21
142.081411
0
LINE
8
Layer 1
10
381.714632
20
142.081411
11
384.548041
21
144.649218
0
LINE
8
Layer 1
10
384.548041
20
144.649218
11
386.407125
21
146.623811
0
LINE
8
Layer 1
10
386.407125
20
146.623811
11
387.943489
21
148.561134
0
LINE
8
Layer 1
10
387.943489
20
148.561134
11
389.236695
21
150.572212
0
LINE
8
Layer 1
10
389.236695
20
150.572212
11
390.366306
21
152.768074
0
LINE
8
Layer 1
10
390.366306
20
152.768074
11
391.126621
21
154.719356
0
LINE
8
Layer 1
10
391.126621
20
154.719356
11
391.499842
21
156.427557
0
LINE
8
Layer 1
10
391.499842
20
156.427557
11
391.492170
21
157.881195
0
LINE
8
Layer 1
10
391.492170
20
157.881195
11
391.109807
21
159.068791
0
LINE
8
Layer 1
10
391.109807
20
159.068791
11
390.358953
21
159.978864
0
LINE
8
Layer 1
10
390.358953
20
159.978864
11
389.245809
21
160.599934
0
LINE
8
Layer 1
10
389.245809
20
160.599934
11
387.776578
21
160.920522
0
LINE
8
Layer 1
10
387.776578
20
160.920522
11
385.957459
21
160.929145
0
LINE
8
Layer 1
10
385.957459
20
160.929145
11
382.492560
21
160.578521
0
LINE
8
Layer 1
10
382.492560
20
160.578521
11
381.217800
21
160.474112
0
LINE
8
Layer 1
10
381.217800
20
160.474112
11
380.359719
21
160.596702
0
LINE
8
Layer 1
10
380.359719
20
160.596702
11
379.875944
21
160.961688
0
LINE
8
Layer 1
10
379.875944
20
160.961688
11
379.724102
21
161.584465
0
LINE
8
Layer 1
10
379.724102
20
161.584465
11
380.007499
21
162.633474
0
LINE
8
Layer 1
10
380.007499
20
162.633474
11
380.816364
21
163.656426
0
LINE
8
Layer 1
10
380.816364
20
163.656426
11
382.088708
21
164.625348
0
LINE
8
Layer 1
10
382.088708
20
164.625348
11
383.762543
21
165.512267
0
LINE
8
Layer 1
10
383.762543
20
165.512267
11
385.775879
21
166.289211
0
LINE
8
Layer 1
10
385.775879
20
166.289211
11
388.066728
21
166.928206
0
LINE
8
Layer 1
10
388.066728
20
166.928206
11
390.573100
21
167.401280
0
LINE
8
Layer 1
10
390.573100
20
167.401280
11
393.233007
21
167.680459
0
LINE
8
Layer 1
10
393.233007
20
167.680459
11
396.234102
21
167.871515
0
LINE
8
Layer 1
10
396.234102
20
167.871515
11
397.221879
21
169.572201
0
LINE
8
Layer 1
10
397.221879
20
169.572201
11
398.453916
21
171.345577
0
LINE
8
Layer 1
10
398.453916
20
171.345577
11
400.144548
21
173.327810
0
LINE
8
Layer 1
10
400.144548
20
173.327810
11
402.022023
21
175.223555
0
LINE
8
Layer 1
10
402.022023
20
175.223555
11
403.814590
21
176.737467
0
LINE
8
Layer 1
10
403.814590
20
176.737467
11
404.898998
21
177.599324
0
LINE
8
Layer 1
10
404.898998
20
177.599324
11
405.183792
21
177.957796
0
LINE
8
Layer 1
10
405.183792
20
177.957796
11
400.046670
21
176.718128
0
LINE
8
Layer 1
10
400.046670
20
176.718128
11
392.922760
21
174.587109
0
LINE
8
Layer 1
10
392.922760
20
174.587109
11
385.502551
21
171.777491
0
LINE
8
Layer 1
10
385.502551
20
171.777491
11
382.266618
21
170.315314
0
LINE
8
Layer 1
10
382.266618
20
170.315314
11
379.308289
21
168.793703
0
LINE
8
Layer 1
10
379.308289
20
168.793703
11
376.598685
21
167.196768
0
LINE
8
Layer 1
10
376.598685
20
167.196768
11
374.108924
21
165.508617
0
LINE
8
Layer 1
10
374.108924
20
165.508617
11
371.810125
21
163.713361
0
LINE
8
Layer 1
10
371.810125
20
163.713361
11
369.673406
21
161.795107
0
LINE
8
Layer 1
10
369.673406
20
161.795107
11
367.745644
21
159.831017
0
LINE
8
Layer 1
10
367.745644
20
159.831017
11
366.137904
21
157.958097
0
LINE
8
Layer 1
10
366.137904
20
157.958097
11
364.858632
21
156.193548
0
LINE
8
Layer 1
10
364.858632
20
156.193548
11
363.916270
21
154.554567
0
LINE
8
Layer 1
10
363.916270
20
154.554567
11
363.319264
21
153.058355
0
LINE
8
Layer 1
10
363.319264
20
153.058355
11
363.076058
21
151.722111
0
LINE
8
Layer 1
10
363.076058
20
151.722111
11
363.195095
21
150.563034
0
LINE
8
Layer 1
10
363.195095
20
150.563034
11
363.684820
21
149.598324
0
LINE
8
Layer 1
10
363.684820
20
149.598324
11
364.541926
21
148.787753
0
LINE
8
Layer 1
10
364.541926
20
148.787753
11
365.767123
21
148.275096
0
LINE
8
Layer 1
10
365.767123
20
148.275096
11
367.667933
21
147.980986
0
LINE
8
Layer 1
10
367.667933
20
147.980986
11
370.551879
21
147.826055
0
LINE
8
Layer 1
10
370.551879
20
147.826055
11
373.686751
21
147.654421
0
LINE
8
Layer 1
10
373.686751
20
147.654421
11
375.279102
21
147.432849
0
LINE
8
Layer 1
10
375.279102
20
147.432849
11
375.678693
21
147.055850
0
LINE
8
Layer 1
10
375.678693
20
147.055850
11
375.764573
21
146.535488
0
LINE
8
Layer 1
10
375.764573
20
146.535488
11
375.563072
21
145.904894
0
LINE
8
Layer 1
10
375.563072
20
145.904894
11
375.100522
21
145.197201
0
LINE
8
Layer 1
10
375.100522
20
145.197201
11
373.497597
21
143.683047
0
LINE
8
Layer 1
10
373.497597
20
143.683047
11
371.166446
21
142.258079
0
LINE
8
Layer 1
10
371.166446
20
142.258079
11
369.046039
21
141.373557
0
LINE
8
Layer 1
10
369.046039
20
141.373557
11
366.865831
21
140.796409
0
LINE
8
Layer 1
10
366.865831
20
140.796409
11
364.533308
21
140.508908
0
LINE
8
Layer 1
10
364.533308
20
140.508908
11
361.955955
21
140.493329
0
LINE
8
Layer 1
10
361.955955
20
140.493329
11
359.403865
21
140.506148
0
LINE
8
Layer 1
10
359.403865
20
140.506148
11
358.827623
21
140.360978
0
LINE
8
Layer 1
10
358.827623
20
140.360978
11
358.429052
21
140.080980
0
LINE
8
Layer 1
10
358.429052
20
140.080980
11
355.909852
21
138.572460
0
LINE
8
Layer 1
10
355.909852
20
138.572460
11
353.778960
21
137.753602
0
LINE
8
Layer 1
10
353.778960
20
137.753602
11
352.882820
21
137.600755
0
LINE
8
Layer 1
10
352.882820
20
137.600755
11
352.118217
21
137.616298
0
LINE
8
Layer 1
10
352.118217
20
137.616298
11
351.499154
21
137.798234
0
LINE
8
Layer 1
10
351.499154
20
137.798234
11
351.039632
21
138.144564
0
LINE
8
Layer 1
10
351.039632
20
138.144564
11
350.753651
21
138.653289
0
LINE
8
Layer 1
10
350.753651
20
138.653289
11
350.655213
21
139.322412
0
LINE
8
Layer 1
10
350.655213
20
139.322412
11
350.834336
21
140.410557
0
LINE
8
Layer 1
10
350.834336
20
140.410557
11
351.330998
21
142.145981
0
LINE
8
Layer 1
10
351.330998
20
142.145981
11
353.032691
21
146.923949
0
LINE
8
Layer 1
10
353.032691
20
146.923949
11
355.271802
21
152.386873
0
LINE
8
Layer 1
10
355.271802
20
152.386873
11
357.559836
21
157.265314
0
LINE
8
Layer 1
10
357.559836
20
157.265314
11
359.917774
21
161.831720
0
LINE
8
Layer 1
10
359.917774
20
161.831720
11
357.473702
21
160.942215
0
LINE
8
Layer 1
10
357.473702
20
160.942215
11
349.973674
21
158.210253
0
LINE
8
Layer 1
10
349.973674
20
158.210253
11
344.917691
21
156.367796
0
LINE
8
Layer 1
10
344.917691
20
156.367796
11
342.294464
21
150.641327
0
LINE
8
Layer 1
10
342.294464
20
150.641327
11
338.731391
21
142.519114
0
LINE
8
Layer 1
10
338.731391
20
142.519114
11
336.258972
21
135.694434
0
LINE
8
Layer 1
10
336.258972
20
135.694434
11
335.380509
21
133.175133
0
LINE
8
Layer 1
10
335.380509
20
133.175133
11
334.656299
21
131.697117
0
LINE
8
Layer 1
10
334.656299
20
131.697117
11
333.778373
21
130.804745
0
LINE
8
Layer 1
10
333.778373
20
130.804745
11
332.438756
21
130.042372
0
LINE
8
Layer 1
10
332.438756
20
130.042372
11
330.790401
21
129.390247
0
LINE
8
Layer 1
10
330.790401
20
129.390247
11
329.432931
21
129.234782
0
LINE
8
Layer 1
10
329.432931
20
129.234782
11
328.417996
21
129.572020
0
LINE
8
Layer 1
10
328.417996
20
129.572020
11
328.055119
21
129.924166
0
LINE
8
Layer 1
10
328.055119
20
129.924166
11
327.797245
21
130.398004
0
LINE
8
Layer 1
10
327.797245
20
130.398004
11
327.731525
21
131.176044
0
LINE
8
Layer 1
10
327.731525
20
131.176044
11
327.903288
21
132.428671
0
LINE
8
Layer 1
10
327.903288
20
132.428671
11
328.844621
21
135.992392
0
LINE
8
Layer 1
10
328.844621
20
135.992392
11
330.391966
21
140.358590
0
LINE
8
Layer 1
10
330.391966
20
140.358590
11
332.316046
21
144.796685
0
LINE
8
Layer 1
10
332.316046
20
144.796685
11
334.504870
21
148.929801
0
LINE
8
Layer 1
10
334.504870
20
148.929801
11
336.928855
21
152.895740
0
LINE
8
Layer 1
10
336.928855
20
152.895740
11
337.436234
21
153.657018
0
LINE
8
Layer 1
10
337.436234
20
153.657018
11
335.257450
21
152.984790
0
LINE
8
Layer 1
10
335.257450
20
152.984790
11
328.531954
21
150.712458
0
LINE
8
Layer 1
10
328.531954
20
150.712458
11
323.985213
21
149.112354
0
LINE
8
Layer 1
10
323.985213
20
149.112354
11
322.028086
21
144.555631
0
LINE
8
Layer 1
10
322.028086
20
144.555631
11
318.610051
21
136.385540
0
LINE
8
Layer 1
10
318.610051
20
136.385540
11
316.129917
21
129.967071
0
LINE
8
Layer 1
10
316.129917
20
129.967071
11
314.559812
21
125.223424
0
LINE
8
Layer 1
10
314.559812
20
125.223424
11
313.871864
21
122.077796
0
LINE
8
Layer 1
10
313.871864
20
122.077796
11
313.833583
21
120.643336
0
LINE
8
Layer 1
10
313.833583
20
120.643336
11
314.066971
21
119.507741
0
LINE
8
Layer 1
10
314.066971
20
119.507741
11
314.579198
21
118.651867
0
LINE
8
Layer 1
10
314.579198
20
118.651867
11
315.377435
21
118.056567
0
LINE
8
Layer 1
10
315.377435
20
118.056567
11
316.056079
21
117.722134
0
LINE
8
Layer 1
10
316.056079
20
117.722134
11
316.542924
21
117.605537
0
LINE
8
Layer 1
10
316.542924
20
117.605537
11
318.352029
21
117.998141
0
LINE
8
Layer 1
10
318.352029
20
117.998141
11
318.352029
21
117.998141
0
LINE
8
Layer 1
10
402.145387
20
146.649609
11
403.459272
21
147.240466
0
LINE
8
Layer 1
10
403.459272
20
147.240466
11
404.891177
21
148.071561
0
LINE
8
Layer 1
10
404.891177
20
148.071561
11
408.053314
21
150.418921
0
LINE
8
Layer 1
10
408.053314
20
150.418921
11
409.543199
21
151.889332
0
LINE
8
Layer 1
10
409.543199
20
151.889332
11
411.479206
21
154.035053
0
LINE
8
Layer 1
10
411.479206
20
154.035053
11
413.157186
21
156.046165
0
LINE
8
Layer 1
10
413.157186
20
156.046165
11
413.872990
21
157.112747
0
LINE
8
Layer 1
10
413.872990
20
157.112747
11
413.660336
21
157.193526
0
LINE
8
Layer 1
10
413.660336
20
157.193526
11
413.149062
21
157.066367
0
LINE
8
Layer 1
10
413.149062
20
157.066367
11
412.193243
21
156.871980
0
LINE
8
Layer 1
10
412.193243
20
156.871980
11
410.911774
21
156.791129
0
LINE
8
Layer 1
10
410.911774
20
156.791129
11
409.563838
21
156.923624
0
LINE
8
Layer 1
10
409.563838
20
156.923624
11
409.170477
21
157.149328
0
LINE
8
Layer 1
10
409.170477
20
157.149328
11
408.813480
21
157.534745
0
LINE
8
Layer 1
10
408.813480
20
157.534745
11
408.492800
21
158.083651
0
LINE
8
Layer 1
10
408.492800
20
158.083651
11
408.299426
21
158.740378
0
LINE
8
Layer 1
10
408.299426
20
158.740378
11
408.272096
21
160.329131
0
LINE
8
Layer 1
10
408.272096
20
160.329131
11
408.686492
21
162.204672
0
LINE
8
Layer 1
10
408.686492
20
162.204672
11
409.497618
21
164.270668
0
LINE
8
Layer 1
10
409.497618
20
164.270668
11
410.660477
21
166.430786
0
LINE
8
Layer 1
10
410.660477
20
166.430786
11
412.130073
21
168.588694
0
LINE
8
Layer 1
10
412.130073
20
168.588694
11
413.861408
21
170.648057
0
LINE
8
Layer 1
10
413.861408
20
170.648057
11
415.809486
21
172.512544
0
LINE
8
Layer 1
10
415.809486
20
172.512544
11
418.262450
21
174.393910
0
LINE
8
Layer 1
10
418.262450
20
174.393910
11
420.907358
21
176.135406
0
LINE
8
Layer 1
10
420.907358
20
176.135406
11
423.096770
21
177.342181
0
LINE
8
Layer 1
10
423.096770
20
177.342181
11
423.818340
21
177.621658
0
LINE
8
Layer 1
10
423.818340
20
177.621658
11
424.183246
21
177.619386
0
LINE
8
Layer 1
10
424.183246
20
177.619386
11
419.069322
21
164.294795
0
LINE
8
Layer 1
10
419.069322
20
164.294795
11
413.944139
21
150.981458
0
LINE
8
Layer 1
10
413.944139
20
150.981458
11
420.043540
21
155.025598
0
LINE
8
Layer 1
10
420.043540
20
155.025598
11
433.302297
21
164.103398
0
LINE
8
Layer 1
10
433.302297
20
164.103398
11
446.530299
21
173.263884
0
LINE
8
Layer 1
10
446.530299
20
173.263884
11
452.537435
21
177.556078
0
LINE
8
Layer 1
10
452.537435
20
177.556078
11
436.924535
21
170.101119
0
LINE
8
Layer 1
10
436.924535
20
170.101119
11
430.483828
21
166.972022
0
LINE
8
Layer 1
10
430.483828
20
166.972022
11
430.670406
21
167.878797
0
LINE
8
Layer 1
10
430.670406
20
167.878797
11
431.182039
21
169.851926
0
LINE
8
Layer 1
10
431.182039
20
169.851926
11
431.946329
21
172.122436
0
LINE
8
Layer 1
10
431.946329
20
172.122436
11
434.018394
21
177.092511
0
LINE
8
Layer 1
10
434.018394
20
177.092511
11
436.457637
21
181.862839
0
LINE
8
Layer 1
10
436.457637
20
181.862839
11
437.680899
21
183.883667
0
LINE
8
Layer 1
10
437.680899
20
183.883667
11
438.835094
21
185.507241
0
LINE
8
Layer 1
10
438.835094
20
185.507241
11
439.990535
21
186.999001
0
LINE
8
Layer 1
10
439.990535
20
186.999001
11
440.239395
21
187.432604
0
LINE
8
Layer 1
10
440.239395
20
187.432604
11
440.245599
21
187.693532
0
LINE
8
Layer 1
10
440.245599
20
187.693532
11
439.991585
21
187.808419
0
LINE
8
Layer 1
10
439.991585
20
187.808419
11
439.459792
21
187.803899
0
LINE
8
Layer 1
10
439.459792
20
187.803899
11
437.492620
21
187.543169
0
LINE
8
Layer 1
10
437.492620
20
187.543169
11
433.409428
21
186.788076
0
LINE
8
Layer 1
10
433.409428
20
186.788076
11
429.353013
21
185.707355
0
LINE
8
Layer 1
10
429.353013
20
185.707355
11
425.342345
21
184.310018
0
LINE
8
Layer 1
10
425.342345
20
184.310018
11
421.396393
21
182.605072
0
LINE
8
Layer 1
10
421.396393
20
182.605072
11
417.534125
21
180.601527
0
LINE
8
Layer 1
10
417.534125
20
180.601527
11
413.774513
21
178.308393
0
LINE
8
Layer 1
10
413.774513
20
178.308393
11
410.136523
21
175.734680
0
LINE
8
Layer 1
10
410.136523
20
175.734680
11
406.639127
21
172.889395
0
LINE
8
Layer 1
10
406.639127
20
172.889395
11
402.785026
21
169.168092
0
LINE
8
Layer 1
10
402.785026
20
169.168092
11
399.548233
21
165.312559
0
LINE
8
Layer 1
10
399.548233
20
165.312559
11
396.985199
21
161.462506
0
LINE
8
Layer 1
10
396.985199
20
161.462506
11
395.152379
21
157.757645
0
LINE
8
Layer 1
10
395.152379
20
157.757645
11
394.527441
21
156.003321
0
LINE
8
Layer 1
10
394.527441
20
156.003321
11
394.106226
21
154.337686
0
LINE
8
Layer 1
10
394.106226
20
154.337686
11
393.895792
21
152.778205
0
LINE
8
Layer 1
10
393.895792
20
152.778205
11
393.903194
21
151.342341
0
LINE
8
Layer 1
10
393.903194
20
151.342341
11
394.135490
21
150.047558
0
LINE
8
Layer 1
10
394.135490
20
150.047558
11
394.599736
21
148.911319
0
LINE
8
Layer 1
10
394.599736
20
148.911319
11
395.302988
21
147.951090
0
LINE
8
Layer 1
10
395.302988
20
147.951090
11
396.252305
21
147.184333
0
LINE
8
Layer 1
10
396.252305
20
147.184333
11
397.700709
21
146.456449
0
LINE
8
Layer 1
10
397.700709
20
146.456449
11
399.097595
21
146.130879
0
LINE
8
Layer 1
10
399.097595
20
146.130879
11
400.545107
21
146.198355
0
LINE
8
Layer 1
10
400.545107
20
146.198355
11
402.145387
21
146.649609
0
LINE
8
Layer 1
10
402.145387
20
146.649609
11
402.145387
21
146.649609
0
LINE
8
Layer 1
10
64.481905
20
113.005568
11
63.174248
21
113.373254
0
LINE
8
Layer 1
10
63.174248
20
113.373254
11
61.756224
21
114.021397
0
LINE
8
Layer 1
10
61.756224
20
114.021397
11
60.462331
21
114.824503
0
LINE
8
Layer 1
10
60.462331
20
114.824503
11
59.527070
21
115.657077
0
LINE
8
Layer 1
10
59.527070
20
115.657077
11
58.907073
21
116.616776
0
LINE
8
Layer 1
10
58.907073
20
116.616776
11
58.519121
21
117.700161
0
LINE
8
Layer 1
10
58.519121
20
117.700161
11
58.386174
21
118.810519
0
LINE
8
Layer 1
10
58.386174
20
118.810519
11
58.531193
21
119.851136
0
LINE
8
Layer 1
10
58.531193
20
119.851136
11
59.345164
21
121.361643
0
LINE
8
Layer 1
10
59.345164
20
121.361643
11
60.864070
21
123.531176
0
LINE
8
Layer 1
10
60.864070
20
123.531176
11
63.204387
21
126.718997
0
LINE
8
Layer 1
10
63.204387
20
126.718997
11
65.187076
21
129.765024
0
LINE
8
Layer 1
10
65.187076
20
129.765024
11
67.080033
21
133.111106
0
LINE
8
Layer 1
10
67.080033
20
133.111106
11
69.151159
21
137.199093
0
LINE
8
Layer 1
10
69.151159
20
137.199093
11
73.300490
21
145.914650
0
LINE
8
Layer 1
10
73.300490
20
145.914650
11
76.960214
21
154.251129
0
LINE
8
Layer 1
10
76.960214
20
154.251129
11
81.003532
21
163.211685
0
LINE
8
Layer 1
10
81.003532
20
163.211685
11
82.930565
21
167.515574
0
LINE
8
Layer 1
10
82.930565
20
167.515574
11
79.635212
21
164.895383
0
LINE
8
Layer 1
10
79.635212
20
164.895383
11
71.347985
21
158.216669
0
LINE
8
Layer 1
10
71.347985
20
158.216669
11
62.761161
21
151.657361
0
LINE
8
Layer 1
10
62.761161
20
151.657361
11
54.272203
21
145.513146
0
LINE
8
Layer 1
10
54.272203
20
145.513146
11
46.278571
21
140.079713
0
LINE
8
Layer 1
10
46.278571
20
140.079713
11
40.203980
21
136.218429
0
LINE
8
Layer 1
10
40.203980
20
136.218429
11
34.646373
21
132.941120
0
LINE
8
Layer 1
10
34.646373
20
132.941120
11
29.234203
21
130.038465
0
LINE
8
Layer 1
10
29.234203
20
130.038465
11
23.595920
21
127.301145
0
LINE
8
Layer 1
10
23.595920
20
127.301145
11
18.292086
21
124.925491
0
LINE
8
Layer 1
10
18.292086
20
124.925491
11
14.806257
21
123.600717
0
LINE
8
Layer 1
10
14.806257
20
123.600717
11
13.622357
21
123.294337
0
LINE
8
Layer 1
10
13.622357
20
123.294337
11
12.745675
21
123.204990
0
LINE
8
Layer 1
10
12.745675
20
123.204990
11
12.127115
21
123.317445
0
LINE
8
Layer 1
10
12.127115
20
123.317445
11
11.717582
21
123.616474
0
LINE
8
Layer 1
10
11.717582
20
123.616474
11
11.499053
21
124.027220
0
LINE
8
Layer 1
10
11.499053
20
124.027220
11
11.579088
21
124.532128
0
LINE
8
Layer 1
10
11.579088
20
124.532128
11
12.071247
21
125.232923
0
LINE
8
Layer 1
10
12.071247
20
125.232923
11
13.089093
21
126.231333
0
LINE
8
Layer 1
10
13.089093
20
126.231333
11
17.156091
21
129.527901
0
LINE
8
Layer 1
10
17.156091
20
129.527901
11
24.688571
21
135.235642
0
LINE
8
Layer 1
10
24.688571
20
135.235642
11
35.764377
21
143.720169
0
LINE
8
Layer 1
10
35.764377
20
143.720169
11
47.785578
21
153.181489
0
LINE
8
Layer 1
10
47.785578
20
153.181489
11
58.488832
21
161.817151
0
LINE
8
Layer 1
10
58.488832
20
161.817151
11
65.610794
21
167.824703
0
LINE
8
Layer 1
10
65.610794
20
167.824703
11
77.782705
21
178.915034
0
LINE
8
Layer 1
10
77.782705
20
178.915034
11
87.171820
21
187.965623
0
LINE
8
Layer 1
10
87.171820
20
187.965623
11
94.277185
21
195.477575
0
LINE
8
Layer 1
10
94.277185
20
195.477575
11
97.129414
21
198.813159
0
LINE
8
Layer 1
10
97.129414
20
198.813159
11
99.597848
21
201.952000
0
LINE
8
Layer 1
10
99.597848
20
201.952000
11
101.466933
21
204.577360
0
LINE
8
Layer 1
10
101.466933
20
204.577360
11
102.855230
21
206.841560
0
LINE
8
Layer 1
10
102.855230
20
206.841560
11
103.794355
21
208.801994
0
LINE
8
Layer 1
10
103.794355
20
208.801994
11
104.315926
21
210.516053
0
LINE
8
Layer 1
10
104.315926
20
210.516053
11
104.476927
21
212.014877
0
LINE
8
Layer 1
10
104.476927
20
212.014877
11
104.027924
21
213.304552
0
LINE
8
Layer 1
10
104.027924
20
213.304552
11
103.428560
21
214.871165
0
LINE
8
Layer 1
10
103.428560
20
214.871165
11
103.743252
21
215.283207
0
LINE
8
Layer 1
10
103.743252
20
215.283207
11
104.667553
21
215.805924
0
LINE
8
Layer 1
10
104.667553
20
215.805924
11
108.226338
21
217.127585
0
LINE
8
Layer 1
10
108.226338
20
217.127585
11
111.628673
21
218.046380
0
LINE
8
Layer 1
10
111.628673
20
218.046380
11
112.945386
21
218.225017
0
LINE
8
Layer 1
10
112.945386
20
218.225017
11
114.077525
21
218.208624
0
LINE
8
Layer 1
10
114.077525
20
218.208624
11
115.078887
21
217.991307
0
LINE
8
Layer 1
10
115.078887
20
217.991307
11
116.003269
21
217.567173
0
LINE
8
Layer 1
10
116.003269
20
217.567173
11
116.904468
21
216.930329
0
LINE
8
Layer 1
10
116.904468
20
216.930329
11
117.836281
21
216.074882
0
LINE
8
Layer 1
10
117.836281
20
216.074882
11
118.672678
21
215.180667
0
LINE
8
Layer 1
10
118.672678
20
215.180667
11
119.258023
21
214.370734
0
LINE
8
Layer 1
10
119.258023
20
214.370734
11
120.164614
21
212.187090
0
LINE
8
Layer 1
10
120.164614
20
212.187090
11
120.663487
21
210.386042
0
LINE
8
Layer 1
10
120.663487
20
210.386042
11
120.880496
21
208.742500
0
LINE
8
Layer 1
10
120.880496
20
208.742500
11
120.779478
21
207.163779
0
LINE
8
Layer 1
10
120.779478
20
207.163779
11
120.324268
21
205.557192
0
LINE
8
Layer 1
10
120.324268
20
205.557192
11
119.478700
21
203.830052
0
LINE
8
Layer 1
10
119.478700
20
203.830052
11
118.206609
21
201.889674
0
LINE
8
Layer 1
10
118.206609
20
201.889674
11
114.238199
21
196.998457
0
LINE
8
Layer 1
10
114.238199
20
196.998457
11
106.409526
21
187.821224
0
LINE
8
Layer 1
10
106.409526
20
187.821224
11
104.464038
21
185.390554
0
LINE
8
Layer 1
10
104.464038
20
185.390554
11
103.929166
21
184.517225
0
LINE
8
Layer 1
10
103.929166
20
184.517225
11
105.387029
21
184.861505
0
LINE
8
Layer 1
10
105.387029
20
184.861505
11
108.732655
21
186.100502
0
LINE
8
Layer 1
10
108.732655
20
186.100502
11
120.015625
21
190.800829
0
LINE
8
Layer 1
10
120.015625
20
190.800829
11
135.634942
21
197.694580
0
LINE
8
Layer 1
10
135.634942
20
197.694580
11
153.447471
21
205.858127
0
LINE
8
Layer 1
10
153.447471
20
205.858127
11
161.639156
21
209.597803
0
LINE
8
Layer 1
10
161.639156
20
209.597803
11
165.983957
21
211.425821
0
LINE
8
Layer 1
10
165.983957
20
211.425821
11
167.665636
21
211.729627
0
LINE
8
Layer 1
10
167.665636
20
211.729627
11
169.518385
21
211.763418
0
LINE
8
Layer 1
10
169.518385
20
211.763418
11
171.321737
21
211.538708
0
LINE
8
Layer 1
10
171.321737
20
211.538708
11
172.855227
21
211.067010
0
LINE
8
Layer 1
10
172.855227
20
211.067010
11
174.288350
21
210.228623
0
LINE
8
Layer 1
10
174.288350
20
210.228623
11
175.542746
21
209.108084
0
LINE
8
Layer 1
10
175.542746
20
209.108084
11
176.588900
21
207.772126
0
LINE
8
Layer 1
10
176.588900
20
207.772126
11
177.397297
21
206.287479
0
LINE
8
Layer 1
10
177.397297
20
206.287479
11
177.938423
21
204.720874
0
LINE
8
Layer 1
10
177.938423
20
204.720874
11
178.182765
21
203.139043
0
LINE
8
Layer 1
10
178.182765
20
203.139043
11
178.100808
21
201.608717
0
LINE
8
Layer 1
10
178.100808
20
201.608717
11
177.663038
21
200.196628
0
LINE
8
Layer 1
10
177.663038
20
200.196628
11
176.924691
21
199.013625
0
LINE
8
Layer 1
10
176.924691
20
199.013625
11
175.840645
21
197.782811
0
LINE
8
Layer 1
10
175.840645
20
197.782811
11
174.527654
21
196.620740
0
LINE
8
Layer 1
10
174.527654
20
196.620740
11
173.102476
21
195.643966
0
LINE
8
Layer 1
10
173.102476
20
195.643966
11
171.491056
21
194.930749
0
LINE
8
Layer 1
10
171.491056
20
194.930749
11
169.437713
21
194.283132
0
LINE
8
Layer 1
10
169.437713
20
194.283132
11
168.014194
21
193.964597
0
LINE
8
Layer 1
10
168.014194
20
193.964597
11
166.623272
21
193.805814
0
LINE
8
Layer 1
10
166.623272
20
193.805814
11
161.919505
21
193.851561
0
LINE
8
Layer 1
10
161.919505
20
193.851561
11
156.769342
21
194.020894
0
LINE
8
Layer 1
10
156.769342
20
194.020894
11
154.017283
21
192.940167
0
LINE
8
Layer 1
10
154.017283
20
192.940167
11
142.335278
21
188.411177
0
LINE
8
Layer 1
10
142.335278
20
188.411177
11
141.335069
21
187.970929
0
LINE
8
Layer 1
10
141.335069
20
187.970929
11
140.750620
21
187.479545
0
LINE
8
Layer 1
10
140.750620
20
187.479545
11
140.475561
21
186.790999
0
LINE
8
Layer 1
10
140.475561
20
186.790999
11
140.403524
21
185.759268
0
LINE
8
Layer 1
10
140.403524
20
185.759268
11
140.497175
21
185.148671
0
LINE
8
Layer 1
10
140.497175
20
185.148671
11
140.893560
21
185.145725
0
LINE
8
Layer 1
10
140.893560
20
185.145725
11
145.551711
21
186.217407
0
LINE
8
Layer 1
10
145.551711
20
186.217407
11
150.872941
21
187.150079
0
LINE
8
Layer 1
10
150.872941
20
187.150079
11
152.464845
21
187.207058
0
LINE
8
Layer 1
10
152.464845
20
187.207058
11
153.708853
21
187.005000
0
LINE
8
Layer 1
10
153.708853
20
187.005000
11
154.647127
21
186.530839
0
LINE
8
Layer 1
10
154.647127
20
186.530839
11
155.321830
21
185.771511
0
LINE
8
Layer 1
10
155.321830
20
185.771511
11
155.881743
21
184.647928
0
LINE
8
Layer 1
10
155.881743
20
184.647928
11
156.099411
21
183.616683
0
LINE
8
Layer 1
10
156.099411
20
183.616683
11
155.954278
21
182.651987
0
LINE
8
Layer 1
10
155.954278
20
182.651987
11
155.425792
21
181.728054
0
LINE
8
Layer 1
10
155.425792
20
181.728054
11
154.493399
21
180.819095
0
LINE
8
Layer 1
10
154.493399
20
180.819095
11
153.136545
21
179.899323
0
LINE
8
Layer 1
10
153.136545
20
179.899323
11
151.334677
21
178.942950
0
LINE
8
Layer 1
10
151.334677
20
178.942950
11
149.067241
21
177.924189
0
LINE
8
Layer 1
10
149.067241
20
177.924189
11
147.255415
21
177.091769
0
LINE
8
Layer 1
10
147.255415
20
177.091769
11
145.655051
21
176.058669
0
LINE
8
Layer 1
10
145.655051
20
176.058669
11
143.573868
21
174.299907
0
LINE
8
Layer 1
10
143.573868
20
174.299907
11
140.319588
21
171.290502
0
LINE
8
Layer 1
10
140.319588
20
171.290502
11
138.122835
21
169.235038
0
LINE
8
Layer 1
10
138.122835
20
169.235038
11
140.481248
21
169.401473
0
LINE
8
Layer 1
10
140.481248
20
169.401473
11
142.926952
21
169.380205
0
LINE
8
Layer 1
10
142.926952
20
169.380205
11
143.874397
21
169.183374
0
LINE
8
Layer 1
10
143.874397
20
169.183374
11
144.667886
21
168.845513
0
LINE
8
Layer 1
10
144.667886
20
168.845513
11
145.329654
21
168.353950
0
LINE
8
Layer 1
10
145.329654
20
168.353950
11
145.881937
21
167.696010
0
LINE
8
Layer 1
10
145.881937
20
167.696010
11
146.746993
21
165.830306
0
LINE
8
Layer 1
10
146.746993
20
165.830306
11
147.076107
21
164.462134
0
LINE
8
Layer 1
10
147.076107
20
164.462134
11
146.702026
21
163.352102
0
LINE
8
Layer 1
10
146.702026
20
163.352102
11
146.271280
21
162.705542
0
LINE
8
Layer 1
10
146.271280
20
162.705542
11
145.424973
21
162.032252
0
LINE
8
Layer 1
10
145.424973
20
162.032252
11
140.964116
21
159.614311
0
LINE
8
Layer 1
10
140.964116
20
159.614311
11
136.219552
21
157.012248
0
LINE
8
Layer 1
10
136.219552
20
157.012248
11
134.863877
21
156.001740
0
LINE
8
Layer 1
10
134.863877
20
156.001740
11
133.510920
21
154.743802
0
LINE
8
Layer 1
10
133.510920
20
154.743802
11
131.975070
21
153.156305
0
LINE
8
Layer 1
10
131.975070
20
153.156305
11
131.416910
21
152.415373
0
LINE
8
Layer 1
10
131.416910
20
152.415373
11
133.538744
21
152.792723
0
LINE
8
Layer 1
10
133.538744
20
152.792723
11
138.324928
21
154.017893
0
LINE
8
Layer 1
10
138.324928
20
154.017893
11
144.019461
21
155.617587
0
LINE
8
Layer 1
10
144.019461
20
155.617587
11
148.866338
21
157.118510
0
LINE
8
Layer 1
10
148.866338
20
157.118510
11
153.725338
21
158.625184
0
LINE
8
Layer 1
10
153.725338
20
158.625184
11
155.178909
21
158.844292
0
LINE
8
Layer 1
10
155.178909
20
158.844292
11
156.814805
21
158.893225
0
LINE
8
Layer 1
10
156.814805
20
158.893225
11
159.326287
21
158.782661
0
LINE
8
Layer 1
10
159.326287
20
158.782661
11
160.021250
21
158.527615
0
LINE
8
Layer 1
10
160.021250
20
158.527615
11
160.763520
21
158.049392
0
LINE
8
Layer 1
10
160.763520
20
158.049392
11
161.620803
21
157.326332
0
LINE
8
Layer 1
10
161.620803
20
157.326332
11
162.305917
21
156.492743
0
LINE
8
Layer 1
10
162.305917
20
156.492743
11
162.814945
21
155.565693
0
LINE
8
Layer 1
10
162.814945
20
155.565693
11
163.143972
21
154.562248
0
LINE
8
Layer 1
10
163.143972
20
154.562248
11
163.289080
21
153.499477
0
LINE
8
Layer 1
10
163.289080
20
153.499477
11
163.246353
21
152.394447
0
LINE
8
Layer 1
10
163.246353
20
152.394447
11
163.011875
21
151.264225
0
LINE
8
Layer 1
10
163.011875
20
151.264225
11
162.581728
21
150.125879
0
LINE
8
Layer 1
10
162.581728
20
150.125879
11
161.944874
21
149.007018
0
LINE
8
Layer 1
10
161.944874
20
149.007018
11
161.126476
21
148.075956
0
LINE
8
Layer 1
10
161.126476
20
148.075956
11
160.059360
21
147.308323
0
LINE
8
Layer 1
10
160.059360
20
147.308323
11
158.676353
21
146.679749
0
LINE
8
Layer 1
10
158.676353
20
146.679749
11
156.910279
21
146.165862
0
LINE
8
Layer 1
10
156.910279
20
146.165862
11
154.693964
21
145.742294
0
LINE
8
Layer 1
10
154.693964
20
145.742294
11
148.641915
21
145.068629
0
LINE
8
Layer 1
10
148.641915
20
145.068629
11
144.947546
21
144.690655
0
LINE
8
Layer 1
10
144.947546
20
144.690655
11
141.651292
21
144.080541
0
LINE
8
Layer 1
10
141.651292
20
144.080541
11
137.496733
21
142.943698
0
LINE
8
Layer 1
10
137.496733
20
142.943698
11
131.227449
21
140.985542
0
LINE
8
Layer 1
10
131.227449
20
140.985542
11
122.599694
21
138.107525
0
LINE
8
Layer 1
10
122.599694
20
138.107525
11
112.030825
21
134.413166
0
LINE
8
Layer 1
10
112.030825
20
134.413166
11
102.029157
21
130.794227
0
LINE
8
Layer 1
10
102.029157
20
130.794227
11
95.103005
21
128.142472
0
LINE
8
Layer 1
10
95.103005
20
128.142472
11
85.468446
21
124.042288
0
LINE
8
Layer 1
10
85.468446
20
124.042288
11
83.802974
21
123.117382
0
LINE
8
Layer 1
10
83.802974
20
123.117382
11
83.479060
21
122.802629
0
LINE
8
Layer 1
10
83.479060
20
122.802629
11
83.388025
21
122.535448
0
LINE
8
Layer 1
10
83.388025
20
122.535448
11
83.149260
21
121.494599
0
LINE
8
Layer 1
10
83.149260
20
121.494599
11
82.519897
21
120.155965
0
LINE
8
Layer 1
10
82.519897
20
120.155965
11
81.619003
21
118.734321
0
LINE
8
Layer 1
10
81.619003
20
118.734321
11
80.565648
21
117.444441
0
LINE
8
Layer 1
10
80.565648
20
117.444441
11
79.067714
21
116.142346
0
LINE
8
Layer 1
10
79.067714
20
116.142346
11
77.239000
21
115.021604
0
LINE
8
Layer 1
10
77.239000
20
115.021604
11
75.169338
21
114.128620
0
LINE
8
Layer 1
10
75.169338
20
114.128620
11
72.948560
21
113.509798
0
LINE
8
Layer 1
10
72.948560
20
113.509798
11
70.783545
21
113.169381
0
LINE
8
Layer 1
10
70.783545
20
113.169381
11
68.398583
21
112.956852
0
LINE
8
Layer 1
10
68.398583
20
112.956852
11
66.171946
21
112.894738
0
LINE
8
Layer 1
10
66.171946
20
112.894738
11
64.481905
21
113.005568
0
LINE
8
Layer 1
10
64.481905
20
113.005568
11
64.481905
21
113.005568
0
LINE
8
Layer 1
10
89.430377
20
133.293344
11
97.643005
21
137.978831
0
LINE
8
Layer 1
10
97.643005
20
137.978831
11
110.407346
21
145.939710
0
LINE
8
Layer 1
10
110.407346
20
145.939710
11
114.168243
21
148.458397
0
LINE
8
Layer 1
10
114.168243
20
148.458397
11
115.197867
21
149.255726
0
LINE
8
Layer 1
10
115.197867
20
149.255726
11
115.489911
21
149.621629
0
LINE
8
Layer 1
10
115.489911
20
149.621629
11
109.254509
21
148.642893
0
LINE
8
Layer 1
10
109.254509
20
148.642893
11
102.531091
21
147.332381
0
LINE
8
Layer 1
10
102.531091
20
147.332381
11
101.867566
21
147.330848
0
LINE
8
Layer 1
10
101.867566
20
147.330848
11
101.048418
21
147.645986
0
LINE
8
Layer 1
10
101.048418
20
147.645986
11
100.287528
21
148.164895
0
LINE
8
Layer 1
10
100.287528
20
148.164895
11
99.798776
21
148.774675
0
LINE
8
Layer 1
10
99.798776
20
148.774675
11
99.531666
21
149.482784
0
LINE
8
Layer 1
10
99.531666
20
149.482784
11
99.437308
21
150.111792
0
LINE
8
Layer 1
10
99.437308
20
150.111792
11
99.540029
21
150.692781
0
LINE
8
Layer 1
10
99.540029
20
150.692781
11
99.864156
21
151.256832
0
LINE
8
Layer 1
10
99.864156
20
151.256832
11
101.273933
21
152.458453
0
LINE
8
Layer 1
10
101.273933
20
152.458453
11
103.861252
21
153.965312
0
LINE
8
Layer 1
10
103.861252
20
153.965312
11
107.933011
21
156.370456
0
LINE
8
Layer 1
10
107.933011
20
156.370456
11
113.024116
21
159.925478
0
LINE
8
Layer 1
10
113.024116
20
159.925478
11
116.013133
21
162.230691
0
LINE
8
Layer 1
10
116.013133
20
162.230691
11
118.695094
21
164.511597
0
LINE
8
Layer 1
10
118.695094
20
164.511597
11
120.499017
21
166.255856
0
LINE
8
Layer 1
10
120.499017
20
166.255856
11
120.893282
21
166.766637
0
LINE
8
Layer 1
10
120.893282
20
166.766637
11
120.853920
21
166.951129
0
LINE
8
Layer 1
10
120.853920
20
166.951129
11
119.795586
21
166.658013
0
LINE
8
Layer 1
10
119.795586
20
166.658013
11
113.346478
21
164.985987
0
LINE
8
Layer 1
10
113.346478
20
164.985987
11
110.796256
21
164.500385
0
LINE
8
Layer 1
10
110.796256
20
164.500385
11
109.073005
21
164.330321
0
LINE
8
Layer 1
10
109.073005
20
164.330321
11
107.369156
21
164.518519
0
LINE
8
Layer 1
10
107.369156
20
164.518519
11
105.610873
21
165.008993
0
LINE
8
Layer 1
10
105.610873
20
165.008993
11
104.017379
21
165.722965
0
LINE
8
Layer 1
10
104.017379
20
165.722965
11
102.807897
21
166.581658
0
LINE
8
Layer 1
10
102.807897
20
166.581658
11
102.212156
21
167.285825
0
LINE
8
Layer 1
10
102.212156
20
167.285825
11
102.012286
21
167.949418
0
LINE
8
Layer 1
10
102.012286
20
167.949418
11
102.272851
21
168.618391
0
LINE
8
Layer 1
10
102.272851
20
168.618391
11
103.058413
21
169.338697
0
LINE
8
Layer 1
10
103.058413
20
169.338697
11
104.433535
21
170.156291
0
LINE
8
Layer 1
10
104.433535
20
170.156291
11
106.462780
21
171.117126
0
LINE
8
Layer 1
10
106.462780
20
171.117126
11
112.741893
21
173.652335
0
LINE
8
Layer 1
10
112.741893
20
173.652335
11
121.595738
21
176.960663
0
LINE
8
Layer 1
10
121.595738
20
176.960663
11
124.024871
21
177.917985
0
LINE
8
Layer 1
10
124.024871
20
177.917985
11
125.160151
21
178.548236
0
LINE
8
Layer 1
10
125.160151
20
178.548236
11
125.576815
21
180.899754
0
LINE
8
Layer 1
10
125.576815
20
180.899754
11
125.940560
21
183.273452
0
LINE
8
Layer 1
10
125.940560
20
183.273452
11
125.943686
21
183.563410
0
LINE
8
Layer 1
10
125.943686
20
183.563410
11
125.560051
21
183.535941
0
LINE
8
Layer 1
10
125.560051
20
183.535941
11
112.036338
21
179.520946
0
LINE
8
Layer 1
10
112.036338
20
179.520946
11
102.158560
21
176.786540
0
LINE
8
Layer 1
10
102.158560
20
176.786540
11
98.351683
21
175.713980
0
LINE
8
Layer 1
10
98.351683
20
175.713980
11
97.489835
21
175.270807
0
LINE
8
Layer 1
10
97.489835
20
175.270807
11
97.219671
21
174.849420
0
LINE
8
Layer 1
10
97.219671
20
174.849420
11
96.497614
21
172.556098
0
LINE
8
Layer 1
10
96.497614
20
172.556098
11
94.693476
21
167.655510
0
LINE
8
Layer 1
10
94.693476
20
167.655510
11
90.011177
21
155.779179
0
LINE
8
Layer 1
10
90.011177
20
155.779179
11
86.521698
21
147.173043
0
LINE
8
Layer 1
10
86.521698
20
147.173043
11
84.523490
21
141.503308
0
LINE
8
Layer 1
10
84.523490
20
141.503308
11
83.958300
21
139.349256
0
LINE
8
Layer 1
10
83.958300
20
139.349256
11
83.615553
21
137.424903
0
LINE
8
Layer 1
10
83.615553
20
137.424903
11
83.396890
21
133.592753
0
LINE
8
Layer 1
10
83.396890
20
133.592753
11
83.390782
21
130.291041
0
LINE
8
Layer 1
10
83.390782
20
130.291041
11
84.420933
21
130.721467
0
LINE
8
Layer 1
10
84.420933
20
130.721467
11
89.430377
21
133.293344
0
LINE
8
Layer 1
10
89.430377
20
133.293344
11
89.430377
21
133.293344
0
LINE
8
Layer 1
10
131.101648
20
198.826930
11
130.760459
21
199.407629
0
LINE
8
Layer 1
10
130.760459
20
199.407629
11
130.777201
21
200.155447
0
LINE
8
Layer 1
10
130.777201
20
200.155447
11
131.165031
21
201.126267
0
LINE
8
Layer 1
10
131.165031
20
201.126267
11
131.937102
21
202.375973
0
LINE
8
Layer 1
10
131.937102
20
202.375973
11
132.925782
21
204.020087
0
LINE
8
Layer 1
10
132.925782
20
204.020087
11
133.849318
21
205.908912
0
LINE
8
Layer 1
10
133.849318
20
205.908912
11
134.568056
21
207.727204
0
LINE
8
Layer 1
10
134.568056
20
207.727204
11
134.942340
21
209.159718
0
LINE
8
Layer 1
10
134.942340
20
209.159718
11
135.019110
21
209.917306
0
LINE
8
Layer 1
10
135.019110
20
209.917306
11
134.934873
21
210.432924
0
LINE
8
Layer 1
10
134.934873
20
210.432924
11
134.606408
21
210.905931
0
LINE
8
Layer 1
10
134.606408
20
210.905931
11
133.950493
21
211.535688
0
LINE
8
Layer 1
10
133.950493
20
211.535688
11
133.123600
21
212.422709
0
LINE
8
Layer 1
10
133.123600
20
212.422709
11
132.779671
21
213.052451
0
LINE
8
Layer 1
10
132.779671
20
213.052451
11
133.120276
21
213.788313
0
LINE
8
Layer 1
10
133.120276
20
213.788313
11
134.046824
21
214.702716
0
LINE
8
Layer 1
10
134.046824
20
214.702716
11
135.416417
21
215.678055
0
LINE
8
Layer 1
10
135.416417
20
215.678055
11
137.086159
21
216.596725
0
LINE
8
Layer 1
10
137.086159
20
216.596725
11
140.275124
21
217.951170
0
LINE
8
Layer 1
10
140.275124
20
217.951170
11
143.269540
21
218.856082
0
LINE
8
Layer 1
10
143.269540
20
218.856082
11
146.080673
21
219.314104
0
LINE
8
Layer 1
10
146.080673
20
219.314104
11
148.719788
21
219.327880
0
LINE
8
Layer 1
10
148.719788
20
219.327880
11
150.466081
21
219.127648
0
LINE
8
Layer 1
10
150.466081
20
219.127648
11
151.846324
21
218.817059
0
LINE
8
Layer 1
10
151.846324
20
218.817059
11
153.014182
21
218.349164
0
LINE
8
Layer 1
10
153.014182
20
218.349164
11
154.123319
21
217.677018
0
LINE
8
Layer 1
10
154.123319
20
217.677018
11
154.997151
21
216.964446
0
LINE
8
Layer 1
10
154.997151
20
216.964446
11
155.688644
21
216.181111
0
LINE
8
Layer 1
10
155.688644
20
216.181111
11
156.194950
21
215.338624
0
LINE
8
Layer 1
10
156.194950
20
215.338624
11
156.513220
21
214.448596
0
LINE
8
Layer 1
10
156.513220
20
214.448596
11
156.640602
21
213.522639
0
LINE
8
Layer 1
10
156.640602
20
213.522639
11
156.574250
21
212.572364
0
LINE
8
Layer 1
10
156.574250
20
212.572364
11
156.311312
21
211.609382
0
LINE
8
Layer 1
10
156.311312
20
211.609382
11
155.848939
21
210.645305
0
LINE
8
Layer 1
10
155.848939
20
210.645305
11
155.194576
21
209.669900
0
LINE
8
Layer 1
10
155.194576
20
209.669900
11
154.414430
21
208.969504
0
LINE
8
Layer 1
10
154.414430
20
208.969504
11
153.209162
21
208.344250
0
LINE
8
Layer 1
10
153.209162
20
208.344250
11
151.279437
21
207.594274
0
LINE
8
Layer 1
10
151.279437
20
207.594274
11
148.828200
21
206.578480
0
LINE
8
Layer 1
10
148.828200
20
206.578480
11
146.481659
21
205.439716
0
LINE
8
Layer 1
10
146.481659
20
205.439716
11
137.936876
21
201.088188
0
LINE
8
Layer 1
10
137.936876
20
201.088188
11
131.982515
21
198.277796
0
LINE
8
Layer 1
10
131.982515
20
198.277796
11
131.101648
21
198.826930
0
LINE
8
Layer 1
10
131.101648
20
198.826930
11
131.101648
21
198.826930
 0 
ENDSEC
 0 
EOF
