  0
SECTION
  2
HEADER
  9
$ACADVER
  1
AC1015
  9
$ACADMAINTVER
 70
     6
  9
$DWGCODEPAGE
  3
ANSI_1256
  9
$INSBASE
 10
0.0
 20
0.0
 30
0.0
  9
$EXTMIN
 10
1.000000000000000E+20
 20
1.000000000000000E+20
 30
1.000000000000000E+20
  9
$EXTMAX
 10
-1.000000000000000E+20
 20
-1.000000000000000E+20
 30
-1.000000000000000E+20
  9
$LIMMIN
 10
0.0
 20
0.0
  9
$LIMMAX
 10
12.0
 20
9.0
  9
$ORTHOMODE
 70
     0
  9
$REGENMODE
 70
     1
  9
$FILLMODE
 70
     1
  9
$QTEXTMODE
 70
     0
  9
$MIRRTEXT
 70
     1
  9
$LTSCALE
 40
1.0
  9
$ATTMODE
 70
     1
  9
$TEXTSIZE
 40
0.2
  9
$TRACEWID
 40
0.05
  9
$TEXTSTYLE
  7
Standard
  9
$CLAYER
  8
0
  9
$CELTYPE
  6
ByLayer
  9
$CECOLOR
 62
   256
  9
$CELTSCALE
 40
1.0
  9
$DISPSILH
 70
     0
  9
$DIMSCALE
 40
1.0
  9
$DIMASZ
 40
0.18
  9
$DIMEXO
 40
0.0625
  9
$DIMDLI
 40
0.38
  9
$DIMRND
 40
0.0
  9
$DIMDLE
 40
0.0
  9
$DIMEXE
 40
0.18
  9
$DIMTP
 40
0.0
  9
$DIMTM
 40
0.0
  9
$DIMTXT
 40
0.18
  9
$DIMCEN
 40
0.09
  9
$DIMTSZ
 40
0.0
  9
$DIMTOL
 70
     0
  9
$DIMLIM
 70
     0
  9
$DIMTIH
 70
     1
  9
$DIMTOH
 70
     1
  9
$DIMSE1
 70
     0
  9
$DIMSE2
 70
     0
  9
$DIMTAD
 70
     0
  9
$DIMZIN
 70
     0
  9
$DIMBLK
  1

  9
$DIMASO
 70
     1
  9
$DIMSHO
 70
     1
  9
$DIMPOST
  1

  9
$DIMAPOST
  1

  9
$DIMALT
 70
     0
  9
$DIMALTD
 70
     2
  9
$DIMALTF
 40
25.4
  9
$DIMLFAC
 40
1.0
  9
$DIMTOFL
 70
     0
  9
$DIMTVP
 40
0.0
  9
$DIMTIX
 70
     0
  9
$DIMSOXD
 70
     0
  9
$DIMSAH
 70
     0
  9
$DIMBLK1
  1

  9
$DIMBLK2
  1

  9
$DIMSTYLE
  2
Standard
  9
$DIMCLRD
 70
     0
  9
$DIMCLRE
 70
     0
  9
$DIMCLRT
 70
     0
  9
$DIMTFAC
 40
1.0
  9
$DIMGAP
 40
0.09
  9
$DIMJUST
 70
     0
  9
$DIMSD1
 70
     0
  9
$DIMSD2
 70
     0
  9
$DIMTOLJ
 70
     1
  9
$DIMTZIN
 70
     0
  9
$DIMALTZ
 70
     0
  9
$DIMALTTZ
 70
     0
  9
$DIMUPT
 70
     0
  9
$DIMDEC
 70
     4
  9
$DIMTDEC
 70
     4
  9
$DIMALTU
 70
     2
  9
$DIMALTTD
 70
     2
  9
$DIMTXSTY
  7
Standard
  9
$DIMAUNIT
 70
     0
  9
$DIMADEC
 70
     0
  9
$DIMALTRND
 40
0.0
  9
$DIMAZIN
 70
     0
  9
$DIMDSEP
 70
    46
  9
$DIMATFIT
 70
     3
  9
$DIMFRAC
 70
     0
  9
$DIMLDRBLK
  1

  9
$DIMLUNIT
 70
     2
  9
$DIMLWD
 70
    -2
  9
$DIMLWE
 70
    -2
  9
$DIMTMOVE
 70
     0
  9
$LUNITS
 70
     2
  9
$LUPREC
 70
     4
  9
$SKETCHINC
 40
0.1
  9
$FILLETRAD
 40
0.5
  9
$AUNITS
 70
     0
  9
$AUPREC
 70
     0
  9
$MENU
  1
.
  9
$ELEVATION
 40
0.0
  9
$PELEVATION
 40
0.0
  9
$THICKNESS
 40
0.0
  9
$LIMCHECK
 70
     0
  9
$CHAMFERA
 40
0.5
  9
$CHAMFERB
 40
0.5
  9
$CHAMFERC
 40
1.0
  9
$CHAMFERD
 40
0.0
  9
$SKPOLY
 70
     0
  9
$TDCREATE
 40
2455533.476634109
  9
$TDUCREATE
 40
2455533.393300775
  9
$TDUPDATE
 40
2455533.476634121
  9
$TDUUPDATE
 40
2455533.393300787
  9
$TDINDWG
 40
0.0000000116
  9
$TDUSRTIMER
 40
0.0000000116
  9
$USRTIMER
 70
     1
  9
$ANGBASE
 50
0.0
  9
$ANGDIR
 70
     0
  9
$PDMODE
 70
     0
  9
$PDSIZE
 40
0.0
  9
$PLINEWID
 40
0.0
  9
$SPLFRAME
 70
     0
  9
$SPLINETYPE
 70
     6
  9
$SPLINESEGS
 70
     8
  9
$HANDSEED
  5
4C
  9
$SURFTAB1
 70
     6
  9
$SURFTAB2
 70
     6
  9
$SURFTYPE
 70
     6
  9
$SURFU
 70
     6
  9
$SURFV
 70
     6
  9
$UCSBASE
  2

  9
$UCSNAME
  2

  9
$UCSORG
 10
0.0
 20
0.0
 30
0.0
  9
$UCSXDIR
 10
1.0
 20
0.0
 30
0.0
  9
$UCSYDIR
 10
0.0
 20
1.0
 30
0.0
  9
$UCSORTHOREF
  2

  9
$UCSORTHOVIEW
 70
     0
  9
$UCSORGTOP
 10
0.0
 20
0.0
 30
0.0
  9
$UCSORGBOTTOM
 10
0.0
 20
0.0
 30
0.0
  9
$UCSORGLEFT
 10
0.0
 20
0.0
 30
0.0
  9
$UCSORGRIGHT
 10
0.0
 20
0.0
 30
0.0
  9
$UCSORGFRONT
 10
0.0
 20
0.0
 30
0.0
  9
$UCSORGBACK
 10
0.0
 20
0.0
 30
0.0
  9
$PUCSBASE
  2

  9
$PUCSNAME
  2

  9
$PUCSORG
 10
0.0
 20
0.0
 30
0.0
  9
$PUCSXDIR
 10
1.0
 20
0.0
 30
0.0
  9
$PUCSYDIR
 10
0.0
 20
1.0
 30
0.0
  9
$PUCSORTHOREF
  2

  9
$PUCSORTHOVIEW
 70
     0
  9
$PUCSORGTOP
 10
0.0
 20
0.0
 30
0.0
  9
$PUCSORGBOTTOM
 10
0.0
 20
0.0
 30
0.0
  9
$PUCSORGLEFT
 10
0.0
 20
0.0
 30
0.0
  9
$PUCSORGRIGHT
 10
0.0
 20
0.0
 30
0.0
  9
$PUCSORGFRONT
 10
0.0
 20
0.0
 30
0.0
  9
$PUCSORGBACK
 10
0.0
 20
0.0
 30
0.0
  9
$USERI1
 70
     0
  9
$USERI2
 70
     0
  9
$USERI3
 70
     0
  9
$USERI4
 70
     0
  9
$USERI5
 70
     0
  9
$USERR1
 40
0.0
  9
$USERR2
 40
0.0
  9
$USERR3
 40
0.0
  9
$USERR4
 40
0.0
  9
$USERR5
 40
0.0
  9
$WORLDVIEW
 70
     1
  9
$SHADEDGE
 70
     3
  9
$SHADEDIF
 70
    70
  9
$TILEMODE
 70
     1
  9
$MAXACTVP
 70
    64
  9
$PINSBASE
 10
0.0
 20
0.0
 30
0.0
  9
$PLIMCHECK
 70
     0
  9
$PEXTMIN
 10
1.000000000000000E+20
 20
1.000000000000000E+20
 30
1.000000000000000E+20
  9
$PEXTMAX
 10
-1.000000000000000E+20
 20
-1.000000000000000E+20
 30
-1.000000000000000E+20
  9
$PLIMMIN
 10
0.0
 20
0.0
  9
$PLIMMAX
 10
12.0
 20
9.0
  9
$UNITMODE
 70
     0
  9
$VISRETAIN
 70
     1
  9
$PLINEGEN
 70
     0
  9
$PSLTSCALE
 70
     1
  9
$TREEDEPTH
 70
  3020
  9
$CMLSTYLE
  2
Standard
  9
$CMLJUST
 70
     0
  9
$CMLSCALE
 40
1.0
  9
$PROXYGRAPHICS
 70
     1
  9
$MEASUREMENT
 70
     0
  9
$CELWEIGHT
370
    -1
  9
$ENDCAPS
280
     0
  9
$JOINSTYLE
280
     0
  9
$LWDISPLAY
290
     1
  9
$INSUNITS
 70
     1
  9
$HYPERLINKBASE
  1

  9
$STYLESHEET
  1

  9
$XEDIT
290
     1
  9
$CEPSNTYPE
380
     0
  9
$PSTYLEMODE
290
     1
  9
$FINGERPRINTGUID
  2
{CA6A96C3-38AC-4FCE-AC4A-47A1B8B582AB}
  9
$VERSIONGUID
  2
{FAEB1C32-E019-11D5-929B-00C0DF256EC4}
  9
$EXTNAMES
290
     1
  9
$PSVPSCALE
 40
0.0
  9
$OLESTARTUP
290
     0
  0
ENDSEC
  0
SECTION
  2
CLASSES
  0
CLASS
  1
ACDBDICTIONARYWDFLT
  2
AcDbDictionaryWithDefault
  3
ObjectDBX Classes
 90
        0
280
     0
281
     0
  0
CLASS
  1
VISUALSTYLE
  2
AcDbVisualStyle
  3
ObjectDBX Classes
 90
     4095
280
     0
281
     0
  0
CLASS
  1
ACDBPLACEHOLDER
  2
AcDbPlaceHolder
  3
ObjectDBX Classes
 90
        0
280
     0
281
     0
  0
CLASS
  1
LAYOUT
  2
AcDbLayout
  3
ObjectDBX Classes
 90
        0
280
     0
281
     0
  0
ENDSEC
  0
SECTION
  2
TABLES
  0
TABLE
  2
VPORT
  5
8
330
0
100
AcDbSymbolTable
 70
     1
  0
VPORT
  5
29
330
8
100
AcDbSymbolTableRecord
100
AcDbViewportTableRecord
  2
*Active
 70
     0
 10
0.0
 20
0.0
 11
1.0
 21
1.0
 12
0.0
 22
0.0
 13
0.0
 23
0.0
 14
0.5
 24
0.5
 15
0.5
 25
0.5
 16
0.0
 26
0.0
 36
1.0
 17
250.0
 27
396.0
 37
0.0
 40
792.0
 41
0.6313131313131313
 42
50.0
 43
0.0
 44
0.0
 50
0.0
 51
0.0
 71
     0
 72
   100
 73
     1
 74
     3
 75
     0
 76
     0
 77
     0
 78
     0
281
     0
 65
     1
110
0.0
120
0.0
130
0.0
111
1.0
121
0.0
131
0.0
112
0.0
122
1.0
132
0.0
 79
     0
146
0.0
  0
ENDTAB
  0
TABLE
  2
LTYPE
  5
5
330
0
100
AcDbSymbolTable
 70
     1
  0
LTYPE
  5
14
330
5
100
AcDbSymbolTableRecord
100
AcDbLinetypeTableRecord
  2
ByBlock
 70
     0
  3

 72
    65
 73
     0
 40
0.0
  0
LTYPE
  5
15
330
5
100
AcDbSymbolTableRecord
100
AcDbLinetypeTableRecord
  2
ByLayer
 70
     0
  3

 72
    65
 73
     0
 40
0.0
  0
LTYPE
  5
16
330
5
100
AcDbSymbolTableRecord
100
AcDbLinetypeTableRecord
  2
Continuous
 70
     0
  3
Solid line
 72
    65
 73
     0
 40
0.0
  0
ENDTAB
  0
TABLE
  2
LAYER
  5
2
330
0
100
AcDbSymbolTable
 70
     2
  0
LAYER
  5
10
330
2
100
AcDbSymbolTableRecord
100
AcDbLayerTableRecord
  2
0
 70
     0
 62
     7
  6
Continuous
370
    -3
390
F
  0
LAYER
  5
3B
330
2
100
AcDbSymbolTableRecord
100
AcDbLayerTableRecord
  2
Layer 1
 70
     0
 62
     7
  6
Continuous
370
    -3
390
F
  0
ENDTAB
  0
TABLE
  2
STYLE
  5
3
330
0
100
AcDbSymbolTable
 70
     1
  0
STYLE
  5
11
330
3
100
AcDbSymbolTableRecord
100
AcDbTextStyleTableRecord
  2
Standard
 70
     0
 40
0.0
 41
1.0
 50
0.0
 71
     0
 42
0.2
  3
txt
  4

  0
ENDTAB
  0
TABLE
  2
VIEW
  5
6
330
0
100
AcDbSymbolTable
 70
     0
  0
ENDTAB
  0
TABLE
  2
UCS
  5
7
330
0
100
AcDbSymbolTable
 70
     0
  0
ENDTAB
  0
TABLE
  2
APPID
  5
9
330
0
100
AcDbSymbolTable
 70
     1
  0
APPID
  5
12
330
9
100
AcDbSymbolTableRecord
100
AcDbRegAppTableRecord
  2
ACAD
 70
     0
  0
ENDTAB
  0
TABLE
  2
DIMSTYLE
  5
A
330
0
100
AcDbSymbolTable
 70
     1
100
AcDbDimStyleTable
  0
DIMSTYLE
105
27
330
A
100
AcDbSymbolTableRecord
100
AcDbDimStyleTableRecord
  2
Standard
 70
     0
340
11
  0
ENDTAB
  0
TABLE
  2
BLOCK_RECORD
  5
1
330
0
100
AcDbSymbolTable
 70
     2
  0
BLOCK_RECORD
  5
1F
330
1
100
AcDbSymbolTableRecord
100
AcDbBlockTableRecord
  2
*Model_Space
340
22
  0
BLOCK_RECORD
  5
1B
330
1
100
AcDbSymbolTableRecord
100
AcDbBlockTableRecord
  2
*Paper_Space
340
1E
  0
BLOCK_RECORD
  5
23
330
1
100
AcDbSymbolTableRecord
100
AcDbBlockTableRecord
  2
*Paper_Space0
340
26
  0
BLOCK_RECORD
  5
3E
330
1
100
AcDbSymbolTableRecord
100
AcDbBlockTableRecord
  2
block 2
340
0
102
{BLKREFS
331
3F
102
}
  0
ENDTAB
  0
ENDSEC
  0
SECTION
  2
BLOCKS
  0
BLOCK
  5
20
330
1F
100
AcDbEntity
  8
0
100
AcDbBlockBegin
  2
*Model_Space
 70
     0
 71
     0
 10
0.0
 20
0.0
 30
0.0
  3
*Model_Space
  1

  0
ENDBLK
  5
21
330
1F
100
AcDbEntity
  8
0
100
AcDbBlockEnd
  0
BLOCK
  5
1C
330
1B
100
AcDbEntity
 67
     1
  8
0
100
AcDbBlockBegin
  2
*Paper_Space
 70
     0
 71
     0
 10
0.0
 20
0.0
 30
0.0
  3
*Paper_Space
  1

  0
ENDBLK
  5
1D
330
1B
100
AcDbEntity
 67
     1
  8
0
100
AcDbBlockEnd
  0
BLOCK
  5
24
330
23
100
AcDbEntity
  8
0
100
AcDbBlockBegin
  2
*Paper_Space0
 70
     0
 71
     0
 10
0.0
 20
0.0
 30
0.0
  3
*Paper_Space0
  1

  0
ENDBLK
  5
25
330
23
100
AcDbEntity
  8
0
100
AcDbBlockEnd
  0
BLOCK
  5
40
330
3E
100
AcDbEntity
  8
0
100
AcDbBlockBegin
  2
block 2
 70
     0
 71
     0
 10
0.0
 20
0.0
 30
0.0
  3
block 2
  1

  0
SPLINE
  5
42
330
3E
100
AcDbEntity
  8
Layer 1
370
     0
100
AcDbSpline
210
0.0
220
0.0
230
1.0
 70
    11
 71
     3
 72
   518
 73
   514
 74
     0
 42
0.0000000001
 43
0.0000000001
 40
0.0
 40
0.0
 40
0.0
 40
0.0
 40
1.0
 40
1.0
 40
1.0
 40
2.0
 40
2.0
 40
2.0
 40
3.0
 40
3.0
 40
3.0
 40
4.0
 40
4.0
 40
4.0
 40
5.0
 40
5.0
 40
5.0
 40
6.0
 40
6.0
 40
6.0
 40
7.0
 40
7.0
 40
7.0
 40
8.0
 40
8.0
 40
8.0
 40
9.0
 40
9.0
 40
9.0
 40
10.0
 40
10.0
 40
10.0
 40
11.0
 40
11.0
 40
11.0
 40
12.0
 40
12.0
 40
12.0
 40
13.0
 40
13.0
 40
13.0
 40
14.0
 40
14.0
 40
14.0
 40
15.0
 40
15.0
 40
15.0
 40
16.0
 40
16.0
 40
16.0
 40
17.0
 40
17.0
 40
17.0
 40
18.0
 40
18.0
 40
18.0
 40
19.0
 40
19.0
 40
19.0
 40
20.0
 40
20.0
 40
20.0
 40
21.0
 40
21.0
 40
21.0
 40
22.0
 40
22.0
 40
22.0
 40
23.0
 40
23.0
 40
23.0
 40
24.0
 40
24.0
 40
24.0
 40
25.0
 40
25.0
 40
25.0
 40
26.0
 40
26.0
 40
26.0
 40
27.0
 40
27.0
 40
27.0
 40
28.0
 40
28.0
 40
28.0
 40
29.0
 40
29.0
 40
29.0
 40
30.0
 40
30.0
 40
30.0
 40
31.0
 40
31.0
 40
31.0
 40
32.0
 40
32.0
 40
32.0
 40
33.0
 40
33.0
 40
33.0
 40
34.0
 40
34.0
 40
34.0
 40
35.0
 40
35.0
 40
35.0
 40
36.0
 40
36.0
 40
36.0
 40
37.0
 40
37.0
 40
37.0
 40
38.0
 40
38.0
 40
38.0
 40
39.0
 40
39.0
 40
39.0
 40
40.0
 40
40.0
 40
40.0
 40
41.0
 40
41.0
 40
41.0
 40
42.0
 40
42.0
 40
42.0
 40
43.0
 40
43.0
 40
43.0
 40
44.0
 40
44.0
 40
44.0
 40
45.0
 40
45.0
 40
45.0
 40
46.0
 40
46.0
 40
46.0
 40
47.0
 40
47.0
 40
47.0
 40
48.0
 40
48.0
 40
48.0
 40
49.0
 40
49.0
 40
49.0
 40
50.0
 40
50.0
 40
50.0
 40
51.0
 40
51.0
 40
51.0
 40
52.0
 40
52.0
 40
52.0
 40
53.0
 40
53.0
 40
53.0
 40
54.0
 40
54.0
 40
54.0
 40
55.0
 40
55.0
 40
55.0
 40
56.0
 40
56.0
 40
56.0
 40
57.0
 40
57.0
 40
57.0
 40
58.0
 40
58.0
 40
58.0
 40
59.0
 40
59.0
 40
59.0
 40
60.0
 40
60.0
 40
60.0
 40
61.0
 40
61.0
 40
61.0
 40
62.0
 40
62.0
 40
62.0
 40
63.0
 40
63.0
 40
63.0
 40
64.0
 40
64.0
 40
64.0
 40
65.0
 40
65.0
 40
65.0
 40
66.0
 40
66.0
 40
66.0
 40
67.0
 40
67.0
 40
67.0
 40
68.0
 40
68.0
 40
68.0
 40
69.0
 40
69.0
 40
69.0
 40
70.0
 40
70.0
 40
70.0
 40
71.0
 40
71.0
 40
71.0
 40
72.0
 40
72.0
 40
72.0
 40
73.0
 40
73.0
 40
73.0
 40
74.0
 40
74.0
 40
74.0
 40
75.0
 40
75.0
 40
75.0
 40
76.0
 40
76.0
 40
76.0
 40
77.0
 40
77.0
 40
77.0
 40
78.0
 40
78.0
 40
78.0
 40
79.0
 40
79.0
 40
79.0
 40
80.0
 40
80.0
 40
80.0
 40
81.0
 40
81.0
 40
81.0
 40
82.0
 40
82.0
 40
82.0
 40
83.0
 40
83.0
 40
83.0
 40
84.0
 40
84.0
 40
84.0
 40
85.0
 40
85.0
 40
85.0
 40
86.0
 40
86.0
 40
86.0
 40
87.0
 40
87.0
 40
87.0
 40
88.0
 40
88.0
 40
88.0
 40
89.0
 40
89.0
 40
89.0
 40
90.0
 40
90.0
 40
90.0
 40
91.0
 40
91.0
 40
91.0
 40
92.0
 40
92.0
 40
92.0
 40
93.0
 40
93.0
 40
93.0
 40
94.0
 40
94.0
 40
94.0
 40
95.0
 40
95.0
 40
95.0
 40
96.0
 40
96.0
 40
96.0
 40
97.0
 40
97.0
 40
97.0
 40
98.0
 40
98.0
 40
98.0
 40
99.0
 40
99.0
 40
99.0
 40
100.0
 40
100.0
 40
100.0
 40
101.0
 40
101.0
 40
101.0
 40
102.0
 40
102.0
 40
102.0
 40
103.0
 40
103.0
 40
103.0
 40
104.0
 40
104.0
 40
104.0
 40
105.0
 40
105.0
 40
105.0
 40
106.0
 40
106.0
 40
106.0
 40
107.0
 40
107.0
 40
107.0
 40
108.0
 40
108.0
 40
108.0
 40
109.0
 40
109.0
 40
109.0
 40
110.0
 40
110.0
 40
110.0
 40
111.0
 40
111.0
 40
111.0
 40
112.0
 40
112.0
 40
112.0
 40
113.0
 40
113.0
 40
113.0
 40
114.0
 40
114.0
 40
114.0
 40
115.0
 40
115.0
 40
115.0
 40
116.0
 40
116.0
 40
116.0
 40
117.0
 40
117.0
 40
117.0
 40
118.0
 40
118.0
 40
118.0
 40
119.0
 40
119.0
 40
119.0
 40
120.0
 40
120.0
 40
120.0
 40
121.0
 40
121.0
 40
121.0
 40
122.0
 40
122.0
 40
122.0
 40
123.0
 40
123.0
 40
123.0
 40
124.0
 40
124.0
 40
124.0
 40
125.0
 40
125.0
 40
125.0
 40
126.0
 40
126.0
 40
126.0
 40
127.0
 40
127.0
 40
127.0
 40
128.0
 40
128.0
 40
128.0
 40
129.0
 40
129.0
 40
129.0
 40
130.0
 40
130.0
 40
130.0
 40
131.0
 40
131.0
 40
131.0
 40
132.0
 40
132.0
 40
132.0
 40
133.0
 40
133.0
 40
133.0
 40
134.0
 40
134.0
 40
134.0
 40
135.0
 40
135.0
 40
135.0
 40
136.0
 40
136.0
 40
136.0
 40
137.0
 40
137.0
 40
137.0
 40
138.0
 40
138.0
 40
138.0
 40
139.0
 40
139.0
 40
139.0
 40
140.0
 40
140.0
 40
140.0
 40
141.0
 40
141.0
 40
141.0
 40
142.0
 40
142.0
 40
142.0
 40
143.0
 40
143.0
 40
143.0
 40
144.0
 40
144.0
 40
144.0
 40
145.0
 40
145.0
 40
145.0
 40
146.0
 40
146.0
 40
146.0
 40
147.0
 40
147.0
 40
147.0
 40
148.0
 40
148.0
 40
148.0
 40
149.0
 40
149.0
 40
149.0
 40
150.0
 40
150.0
 40
150.0
 40
151.0
 40
151.0
 40
151.0
 40
152.0
 40
152.0
 40
152.0
 40
153.0
 40
153.0
 40
153.0
 40
154.0
 40
154.0
 40
154.0
 40
155.0
 40
155.0
 40
155.0
 40
156.0
 40
156.0
 40
156.0
 40
157.0
 40
157.0
 40
157.0
 40
158.0
 40
158.0
 40
158.0
 40
159.0
 40
159.0
 40
159.0
 40
160.0
 40
160.0
 40
160.0
 40
161.0
 40
161.0
 40
161.0
 40
162.0
 40
162.0
 40
162.0
 40
163.0
 40
163.0
 40
163.0
 40
164.0
 40
164.0
 40
164.0
 40
165.0
 40
165.0
 40
165.0
 40
166.0
 40
166.0
 40
166.0
 40
167.0
 40
167.0
 40
167.0
 40
168.0
 40
168.0
 40
168.0
 40
169.0
 40
169.0
 40
169.0
 40
170.0
 40
170.0
 40
170.0
 40
171.0
 40
171.0
 40
171.0
 40
171.0
 10
492.580078125
 20
293.130859375
 30
0.0
 10
497.345703125
 20
312.7197265625
 30
0.0
 10
474.58203125
 20
322.4853515625
 30
0.0
 10
474.58203125
 20
330.3671875
 30
0.0
 10
474.58203125
 20
338.25
 30
0.0
 10
489.373046875
 20
334.0595703125
 30
0.0
 10
492.111328125
 20
322.7197265625
 30
0.0
 10
493.638671875
 20
337.7783203125
 30
0.0
 10
471.0498046875
 20
353.1923828125
 30
0.0
 10
469.404296875
 20
359.7802734375
 30
0.0
 10
467.75390625
 20
366.3671875
 30
0.0
 10
474.81640625
 20
366.2509765625
 30
0.0
 10
488.228515625
 20
351.1923828125
 30
0.0
 10
486.111328125
 20
369.7802734375
 30
0.0
 10
458.3427734375
 20
381.4287109375
 30
0.0
 10
454.9326171875
 20
390.72265625
 30
0.0
 10
451.5185546875
 20
400.01708984375
 30
0.0
 10
461.9912109375
 20
392.251953125
 30
0.0
 10
470.3447265625
 20
388.0166015625
 30
0.0
 10
468.578125
 20
399.78125
 30
0.0
 10
449.2841796875
 20
410.0166015625
 30
0.0
 10
447.51953125
 20
416.25244140625
 30
0.0
 10
445.7548828125
 20
422.48876953125
 30
0.0
 10
458.05078125
 20
416.4296875
 30
0.0
 10
465.6396484375
 20
408.84033203125
 30
0.0
 10
465.6396484375
 20
419.3125
 30
0.0
 10
446.166015625
 20
431.3125
 30
0.0
 10
443.8720703125
 20
436.60693359375
 30
0.0
 10
441.5771484375
 20
441.9013671875
 30
0.0
 10
443.3427734375
 20
443.13671875
 30
0.0
 10
455.5205078125
 20
444.01904296875
 30
0.0
 10
450.7548828125
 20
446.48974609375
 30
0.0
 10
441.75390625
 20
456.90234375
 30
0.0
 10
431.6943359375
 20
453.7255859375
 30
0.0
 10
433.63671875
 20
459.1962890625
 30
0.0
 10
438.4892578125
 20
460.52001953125
 30
0.0
 10
449.51953125
 20
459.01953125
 30
0.0
 10
448.107421875
 20
465.1962890625
 30
0.0
 10
431.341796875
 20
467.6669921875
 30
0.0
 10
422.6943359375
 20
466.6083984375
 30
0.0
 10
422.6943359375
 20
473.66748046875
 30
0.0
 10
434.87109375
 20
481.0791015625
 30
0.0
 10
442.107421875
 20
477.197265625
 30
0.0
 10
437.8720703125
 20
481.4326171875
 30
0.0
 10
424.931640625
 20
480.84326171875
 30
0.0
 10
417.0478515625
 20
484.490234375
 30
0.0
 10
427.9892578125
 20
484.490234375
 30
0.0
 10
431.6943359375
 20
506.4921875
 30
0.0
 10
439.4599609375
 20
518.49267578125
 30
0.0
 10
434.6953125
 20
513.7275390625
 30
0.0
 10
418.8125
 20
523.2578125
 30
0.0
 10
417.5771484375
 20
536.140625
 30
0.0
 10
420.4013671875
 20
533.31689453125
 30
0.0
 10
420.9296875
 20
536.140625
 30
0.0
 10
433.1064453125
 20
531.728515625
 30
0.0
 10
418.2822265625
 20
540.55224609375
 30
0.0
 10
420.9296875
 20
569.9052734375
 30
0.0
 10
416.931640625
 20
577.6708984375
 30
0.0
 10
412.9306640625
 20
585.435546875
 30
0.0
 10
422.6943359375
 20
596.61328125
 30
0.0
 10
428.6953125
 20
602.61328125
 30
0.0
 10
423.51953125
 20
600.2607421875
 30
0.0
 10
423.51953125
 20
601.201171875
 30
0.0
 10
417.6376953125
 20
596.9658203125
 30
0.0
 10
424.6962890625
 20
630.849609375
 30
0.0
 10
404.4599609375
 20
672.2626953125
 30
0.0
 10
383.0458984375
 20
683.79150390625
 30
0.0
 10
361.630859375
 20
695.32080078125
 30
0.0
 10
354.10546875
 20
654.8505859375
 30
0.0
 10
339.515625
 20
644.49658203125
 30
0.0
 10
324.9287109375
 20
634.14208984375
 30
0.0
 10
309.75
 20
619.0849609375
 30
0.0
 10
304.1015625
 20
605.31982421875
 30
0.0
 10
298.455078125
 20
591.55419921875
 30
0.0
 10
282.9853515625
 20
586.90673828125
 30
0.0
 10
278.865234375
 20
585.61376953125
 30
0.0
 10
279.39453125
 20
586.67236328125
 30
0.0
 10
281.703125
 20
601.89208984375
 30
0.0
 10
279.572265625
 20
606.6142578125
 30
0.0
 10
280.513671875
 20
601.26220703125
 30
0.0
 10
270.2177734375
 20
590.4072265625
 30
0.0
 10
265.01171875
 20
588.642578125
 30
0.0
 10
262.89453125
 20
592.26025390625
 30
0.0
 10
266.1591796875
 20
605.1435546875
 30
0.0
 10
263.1591796875
 20
606.81982421875
 30
0.0
 10
264.5712890625
 20
600.908203125
 30
0.0
 10
256.5712890625
 20
586.96484375
 30
0.0
 10
251.8642578125
 20
587.7890625
 30
0.0
 10
252.8076171875
 20
591.7900390625
 30
0.0
 10
247.1591796875
 20
600.376953125
 30
0.0
 10
241.041015625
 20
600.376953125
 30
0.0
 10
241.865234375
 20
596.72900390625
 30
0.0
 10
242.2177734375
 20
589.31787109375
 30
0.0
 10
237.1591796875
 20
588.7294921875
 30
0.0
 10
233.51220703125
 20
587.67041015625
 30
0.0
 10
221.09912109375
 20
601.49658203125
 30
0.0
 10
220.27587890625
 20
609.0849609375
 30
0.0
 10
219.45166015625
 20
606.43798828125
 30
0.0
 10
218.4521484375
 20
598.08251953125
 30
0.0
 10
221.09912109375
 20
591.259765625
 30
0.0
 10
218.27587890625
 20
590.259765625
 30
0.0
 10
213.833984375
 20
597.64306640625
 30
0.0
 10
207.392578125
 20
604.083984375
 30
0.0
 10
208.6279296875
 20
598.96630859375
 30
0.0
 10
208.8046875
 20
600.37841796875
 30
0.0
 10
208.8046875
 20
590.3193359375
 30
0.0
 10
205.98095703125
 20
598.083984375
 30
0.0
 10
202.92236328125
 20
605.20263671875
 30
0.0
 10
197.03955078125
 20
608.84912109375
 30
0.0
 10
200.21630859375
 20
603.671875
 30
0.0
 10
197.03955078125
 20
599.908203125
 30
0.0
 10
195.98095703125
 20
594.4951171875
 30
0.0
 10
192.2158203125
 20
600.49609375
 30
0.0
 10
188.509765625
 20
601.08447265625
 30
0.0
 10
182.68603515625
 20
604.4375
 30
0.0
 10
184.45068359375
 20
610.79052734375
 30
0.0
 10
182.24462890625
 20
621.82080078125
 30
0.0
 10
173.33251953125
 20
639.9091796875
 30
0.0
 10
177.21484375
 20
629.85009765625
 30
0.0
 10
179.50927734375
 20
624.5556640625
 30
0.0
 10
173.50927734375
 20
616.43798828125
 30
0.0
 10
171.03857421875
 20
622.61474609375
 30
0.0
 10
162.74365234375
 20
636.02734375
 30
0.0
 10
147.56689453125
 20
643.43896484375
 30
0.0
 10
132.3896484375
 20
650.85107421875
 30
0.0
 10
133.9775390625
 20
699.2060546875
 30
0.0
 10
100.80029296875
 20
682.26416015625
 30
0.0
 10
67.6220703125
 20
665.32177734375
 30
0.0
 10
70.26904296875
 20
618.20263671875
 30
0.0
 10
70.26904296875
 20
592.4365234375
 30
0.0
 10
67.9755859375
 20
597.90771484375
 30
0.0
 10
54.56298828125
 20
602.37890625
 30
0.0
 10
56.916015625
 20
597.90771484375
 30
0.0
 10
66.56298828125
 20
595.55419921875
 30
0.0
 10
67.50439453125
 20
589.43701171875
 30
0.0
 10
71.5048828125
 20
580.49560546875
 30
0.0
 10
66.4453125
 20
585.55419921875
 30
0.0
 10
62.0927734375
 20
581.43603515625
 30
0.0
 10
53.62158203125
 20
581.43603515625
 30
0.0
 10
61.38720703125
 20
581.43603515625
 30
0.0
 10
68.798828125
 20
574.72998046875
 30
0.0
 10
64.91650390625
 20
570.84716796875
 30
0.0
 10
58.32861328125
 20
569.435546875
 30
0.0
 10
41.50390625
 20
576.26025390625
 30
0.0
 10
41.50390625
 20
569.7900390625
 30
0.0
 10
48.9169921875
 20
572.9677734375
 30
0.0
 10
54.44580078125
 20
563.4365234375
 30
0.0
 10
69.85791015625
 20
548.02392578125
 30
0.0
 10
57.857421875
 20
553.43701171875
 30
0.0
 10
53.85693359375
 20
538.611328125
 30
0.0
 10
50.79833984375
 20
532.9638671875
 30
0.0
 10
65.38720703125
 20
529.669921875
 30
0.0
 10
61.6220703125
 20
526.140625
 30
0.0
 10
63.5048828125
 20
517.904296875
 30
0.0
 10
65.38720703125
 20
509.66748046875
 30
0.0
 10
48.91552734375
 20
512.49267578125
 30
0.0
 10
37.8564453125
 20
526.8466796875
 30
0.0
 10
39.0322265625
 20
510.6103515625
 30
0.0
 10
56.2099609375
 20
491.55078125
 30
0.0
 10
68.21044921875
 20
485.90380859375
 30
0.0
 10
53.85595703125
 20
485.90380859375
 30
0.0
 10
45.15087890625
 20
478.13818359375
 30
0.0
 10
31.73876953125
 20
487.54931640625
 30
0.0
 10
40.91552734375
 20
475.07763671875
 30
0.0
 10
74.79931640625
 20
483.07958984375
 30
0.0
 10
79.74072265625
 20
475.78515625
 30
0.0
 10
73.62353515625
 20
479.314453125
 30
0.0
 10
42.5625
 20
463.07861328125
 30
0.0
 10
38.91455078125
 20
450.9609375
 30
0.0
 10
45.14892578125
 20
454.84375
 30
0.0
 10
55.50390625
 20
467.5498046875
 30
0.0
 10
66.328125
 20
451.78369140625
 30
0.0
 10
59.6220703125
 20
458.490234375
 30
0.0
 10
27.03271484375
 20
431.0771484375
 30
0.0
 10
23.73779296875
 20
418.6064453125
 30
0.0
 10
28.20849609375
 20
427.31298828125
 30
0.0
 10
47.26904296875
 20
434.6064453125
 30
0.0
 10
55.73974609375
 20
423.5478515625
 30
0.0
 10
46.32763671875
 20
428.958984375
 30
0.0
 10
22.6796875
 20
404.72412109375
 30
0.0
 10
22.6796875
 20
393.3115234375
 30
0.0
 10
29.26904296875
 20
399.90087890625
 30
0.0
 10
37.150390625
 20
407.78173828125
 30
0.0
 10
56.44580078125
 20
398.8408203125
 30
0.0
 10
43.26953125
 20
401.19384765625
 30
0.0
 10
12.6787109375
 20
368.015625
 30
0.0
 10
9.85546875
 20
348.95703125
 30
0.0
 10
14.0908203125
 20
357.427734375
 30
0.0
 10
51.7392578125
 20
379.78125
 30
0.0
 10
61.38720703125
 20
368.015625
 30
0.0
 10
48.21044921875
 20
376.017578125
 30
0.0
 10
10.09033203125
 20
337.1904296875
 30
0.0
 10
12.32568359375
 20
327.4267578125
 30
0.0
 10
18.7958984375
 20
339.5458984375
 30
0.0
 10
31.26806640625
 20
352.720703125
 30
0.0
 10
39.03271484375
 20
341.19140625
 30
0.0
 10
29.85595703125
 20
344.95703125
 30
0.0
 10
5.26708984375
 20
305.5419921875
 30
0.0
 10
12.9140625
 20
297.8955078125
 30
0.0
 10
17.6201171875
 20
308.955078125
 30
0.0
 10
22.326171875
 20
311.072265625
 30
0.0
 10
36.20947265625
 20
309.896484375
 30
0.0
 10
19.50244140625
 20
308.248046875
 30
0.0
 10
15.97314453125
 20
251.775390625
 30
0.0
 10
21.38525390625
 20
236.716796875
 30
0.0
 10
22.56201171875
 20
248.248046875
 30
0.0
 10
37.26806640625
 20
254.658203125
 30
0.0
 10
46.09228515625
 20
252.3642578125
 30
0.0
 10
37.97412109375
 20
248.4814453125
 30
0.0
 10
31.4443359375
 20
222.1875
 30
0.0
 10
36.56201171875
 20
222.1875
 30
0.0
 10
39.73876953125
 20
231.5400390625
 30
0.0
 10
53.6806640625
 20
237.5400390625
 30
0.0
 10
59.857421875
 20
235.775390625
 30
0.0
 10
51.2099609375
 20
233.6572265625
 30
0.0
 10
52.79833984375
 20
210.185546875
 30
0.0
 10
54.56298828125
 20
199.244140625
 30
0.0
 10
53.6806640625
 20
207.3623046875
 30
0.0
 10
66.03369140625
 20
220.068359375
 30
0.0
 10
76.53466796875
 20
217.421875
 30
0.0
 10
72.2548828125
 20
214.9755859375
 30
0.0
 10
76.4501953125
 20
189.9775390625
 30
0.0
 10
85.17822265625
 20
180.826171875
 30
0.0
 10
82.49951171875
 20
183.9140625
 30
0.0
 10
82.1953125
 20
191.1689453125
 30
0.0
 10
96.21142578125
 20
205.185546875
 30
0.0
 10
92.09326171875
 20
201.06640625
 30
0.0
 10
96.21142578125
 20
199.068359375
 30
0.0
 10
107.27099609375
 20
166.3603515625
 30
0.0
 10
111.62451171875
 20
170.712890625
 30
0.0
 10
107.27099609375
 20
181.890625
 30
0.0
 10
119.7421875
 20
196.48046875
 30
0.0
 10
121.388671875
 20
184.7158203125
 30
0.0
 10
126.0947265625
 20
165.18359375
 30
0.0
 10
151.2724609375
 20
152.7138671875
 30
0.0
 10
147.390625
 20
156.595703125
 30
0.0
 10
144.2138671875
 20
159.537109375
 30
0.0
 10
154.80224609375
 20
170.125
 30
0.0
 10
154.80224609375
 20
156.0078125
 30
0.0
 10
184.818359375
 20
148.1181640625
 30
0.0
 10
194.33349609375
 20
127.7705078125
 30
0.0
 10
182.33251953125
 20
159.537109375
 30
0.0
 10
143.5078125
 20
174.361328125
 30
0.0
 10
149.86083984375
 20
203.302734375
 30
0.0
 10
130.80126953125
 20
193.419921875
 30
0.0
 10
134.3310546875
 20
189.185546875
 30
0.0
 10
134.3310546875
 20
183.537109375
 30
0.0
 10
125.154296875
 20
200.8330078125
 30
0.0
 10
125.85986328125
 20
220.951171875
 30
0.0
 10
139.2724609375
 20
225.5400390625
 30
0.0
 10
112.0947265625
 20
222.7158203125
 30
0.0
 10
113.50634765625
 20
224.833984375
 30
0.0
 10
108.91845703125
 20
214.59765625
 30
0.0
 10
108.91845703125
 20
225.892578125
 30
0.0
 10
107.50634765625
 20
243.8935546875
 30
0.0
 10
127.271484375
 20
250.599609375
 30
0.0
 10
108.91845703125
 20
247.4228515625
 30
0.0
 10
99.38818359375
 20
240.0107421875
 30
0.0
 10
95.15283203125
 20
233.6572265625
 30
0.0
 10
95.15283203125
 20
247.4228515625
 30
0.0
 10
111.2119140625
 20
269.8359375
 30
0.0
 10
117.74169921875
 20
276.365234375
 30
0.0
 10
107.85888671875
 20
279.89453125
 30
0.0
 10
105.03564453125
 20
285.1884765625
 30
0.0
 10
93.38818359375
 20
279.89453125
 30
0.0
 10
100.09228515625
 20
290.111328125
 30
0.0
 10
122.24267578125
 20
296.1376953125
 30
0.0
 10
130.9833984375
 20
292.6259765625
 30
0.0
 10
113.7783203125
 20
302.955078125
 30
0.0
 10
92.5244140625
 20
304.1259765625
 30
0.0
 10
84.41552734375
 20
296.0166015625
 30
0.0
 10
102.29833984375
 20
313.8984375
 30
0.0
 10
109.130859375
 20
319.0703125
 30
0.0
 10
136.3046875
 20
314.837890625
 30
0.0
 10
115.62451171875
 20
323.0947265625
 30
0.0
 10
92.43310546875
 20
323.8515625
 30
0.0
 10
81.740234375
 20
319.779296875
 30
0.0
 10
101.50634765625
 20
335.6611328125
 30
0.0
 10
101.85888671875
 20
337.0732421875
 30
0.0
 10
113.15380859375
 20
339.544921875
 30
0.0
 10
106.80029296875
 20
340.9560546875
 30
0.0
 10
85.27001953125
 20
336.720703125
 30
0.0
 10
78.56396484375
 20
333.19140625
 30
0.0
 10
86.3291015625
 20
340.9560546875
 30
0.0
 10
95.85888671875
 20
347.662109375
 30
0.0
 10
104.32958984375
 20
345.8974609375
 30
0.0
 10
101.15283203125
 20
349.07421875
 30
0.0
 10
79.9755859375
 20
350.1328125
 30
0.0
 10
73.26953125
 20
343.4267578125
 30
0.0
 10
85.09375
 20
355.2509765625
 30
0.0
 10
93.74072265625
 20
363.544921875
 30
0.0
 10
102.56494140625
 20
361.0751953125
 30
0.0
 10
95.6826171875
 20
367.9580078125
 30
0.0
 10
89.8583984375
 20
365.6630859375
 30
0.0
 10
82.4462890625
 20
365.6630859375
 30
0.0
 10
75.0341796875
 20
365.6630859375
 30
0.0
 10
94.7998046875
 20
384.0166015625
 30
0.0
 10
106.80029296875
 20
376.9580078125
 30
0.0
 10
118.80078125
 20
369.8984375
 30
0.0
 10
118.44775390625
 20
344.1318359375
 30
0.0
 10
135.74267578125
 20
336.3681640625
 30
0.0
 10
120.91845703125
 20
351.1923828125
 30
0.0
 10
120.5654296875
 20
376.251953125
 30
0.0
 10
122.68310546875
 20
385.076171875
 30
0.0
 10
139.978515625
 20
381.8994140625
 30
0.0
 10
151.2724609375
 20
362.486328125
 30
0.0
 10
159.390625
 20
362.486328125
 30
0.0
 10
167.5087890625
 20
362.486328125
 30
0.0
 10
170.68505859375
 20
348.3681640625
 30
0.0
 10
185.8623046875
 20
352.95703125
 30
0.0
 10
194.68603515625
 20
344.1318359375
 30
0.0
 10
185.15673828125
 20
330.0146484375
 30
0.0
 10
177.03857421875
 20
330.0146484375
 30
0.0
 10
202.80419921875
 20
327.8974609375
 30
0.0
 10
208.8046875
 20
345.19140625
 30
0.0
 10
216.216796875
 20
345.19140625
 30
0.0
 10
223.62890625
 20
345.19140625
 30
0.0
 10
212.333984375
 20
323.30859375
 30
0.0
 10
215.15771484375
 20
316.955078125
 30
0.0
 10
217.9814453125
 20
310.6015625
 30
0.0
 10
220.41748046875
 20
306.4931640625
 30
0.0
 10
226.5703125
 20
308.955078125
 30
0.0
 10
231.27978515625
 20
310.837890625
 30
0.0
 10
238.142578125
 20
312.0322265625
 30
0.0
 10
245.55322265625
 20
312.6376953125
 30
0.0
 10
248.775390625
 20
307.7197265625
 30
0.0
 10
249.8505859375
 20
302.1103515625
 30
0.0
 10
238.8056640625
 20
302.8349609375
 30
0.0
 10
210.0986328125
 20
304.71875
 30
0.0
 10
206.92236328125
 20
259.185546875
 30
0.0
 10
223.9814453125
 20
242.126953125
 30
0.0
 10
231.35986328125
 20
234.75
 30
0.0
 10
238.169921875
 20
234.6435546875
 30
0.0
 10
243.84765625
 20
235.5546875
 30
0.0
 10
246.7392578125
 20
233.9169921875
 30
0.0
 10
249.25
 20
231.619140625
 30
0.0
 10
248.806640625
 20
229.3037109375
 30
0.0
 10
246.5146484375
 20
217.3134765625
 30
0.0
 10
212.61328125
 20
218.1201171875
 30
0.0
 10
202.32666015625
 20
224.6796875
 30
0.0
 10
194.10546875
 20
232.634765625
 30
0.0
 10
194.876953125
 20
242.1904296875
 30
0.0
 10
193.86181640625
 20
244.896484375
 30
0.0
 10
192.71923828125
 20
247.9443359375
 30
0.0
 10
187.86181640625
 20
248.3671875
 30
0.0
 10
189.0087890625
 20
243.779296875
 30
0.0
 10
189.91162109375
 20
240.16796875
 30
0.0
 10
194.94091796875
 20
230.2880859375
 30
0.0
 10
201.68408203125
 20
224.4140625
 30
0.0
 10
209.5615234375
 20
215.642578125
 30
0.0
 10
234.400390625
 20
209.4208984375
 30
0.0
 10
249.16015625
 20
209.4208984375
 30
0.0
 10
265.2763671875
 20
209.4208984375
 30
0.0
 10
292.482421875
 20
219.0126953125
 30
0.0
 10
303.71875
 20
230.25
 30
0.0
 10
303.69921875
 20
230.23828125
 30
0.0
 10
303.6806640625
 20
230.2275390625
 30
0.0
 10
303.66015625
 20
230.21484375
 30
0.0
 10
309.916015625
 20
236.1513671875
 30
0.0
 10
314.505859375
 20
245.2822265625
 30
0.0
 10
315.3662109375
 20
248.720703125
 30
0.0
 10
316.5126953125
 20
253.30859375
 30
0.0
 10
311.654296875
 20
252.8857421875
 30
0.0
 10
310.5126953125
 20
249.837890625
 30
0.0
 10
309.462890625
 20
247.0390625
 30
0.0
 10
310.3251953125
 20
236.9169921875
 30
0.0
 10
301.177734375
 20
228.8125
 30
0.0
 10
286.177734375
 20
221.080078125
 30
0.0
 10
254.9638671875
 20
216.7958984375
 30
0.0
 10
253.6591796875
 20
229.787109375
 30
0.0
 10
253.416015625
 20
232.2236328125
 30
0.0
 10
253.298828125
 20
234.5869140625
 30
0.0
 10
255.1923828125
 20
236.78515625
 30
0.0
 10
263.3994140625
 20
236.0380859375
 30
0.0
 10
279.66796875
 20
233.5458984375
 30
0.0
 10
286.3388671875
 20
247.3046875
 30
0.0
 10
293.8662109375
 20
262.833984375
 30
0.0
 10
291.27734375
 20
289.4248046875
 30
0.0
 10
282.5712890625
 20
298.1298828125
 30
0.0
 10
273.8662109375
 20
306.8349609375
 30
0.0
 10
261.15625
 20
299.7783203125
 30
0.0
 10
257.6298828125
 20
303.306640625
 30
0.0
 10
255.1484375
 20
305.7890625
 30
0.0
 10
254.7646484375
 20
309.896484375
 30
0.0
 10
255.7353515625
 20
313.0986328125
 30
0.0
 10
265.5830078125
 20
313.2119140625
 30
0.0
 10
275.142578125
 20
312.392578125
 30
0.0
 10
280.92578125
 20
310.8359375
 30
0.0
 10
293.16015625
 20
307.54296875
 30
0.0
 10
292.806640625
 20
317.3076171875
 30
0.0
 10
288.9248046875
 20
324.3671875
 30
0.0
 10
285.0419921875
 20
331.4267578125
 30
0.0
 10
286.9833984375
 20
340.4267578125
 30
0.0
 10
289.27734375
 20
342.7216796875
 30
0.0
 10
291.572265625
 20
345.015625
 30
0.0
 10
309.3955078125
 20
337.7802734375
 30
0.0
 10
309.3955078125
 20
332.8388671875
 30
0.0
 10
309.3955078125
 20
327.8974609375
 30
0.0
 10
326.337890625
 20
320.484375
 30
0.0
 10
322.1025390625
 20
330.0146484375
 30
0.0
 10
317.8662109375
 20
339.544921875
 30
0.0
 10
313.8076171875
 20
348.544921875
 30
0.0
 10
317.8662109375
 20
352.603515625
 30
0.0
 10
321.92578125
 20
356.6630859375
 30
0.0
 10
328.927734375
 20
337.1923828125
 30
0.0
 10
333.044921875
 20
341.3095703125
 30
0.0
 10
338.6357421875
 20
346.8994140625
 30
0.0
 10
333.6337890625
 20
360.25
 30
0.0
 10
361.3994140625
 20
369.6630859375
 30
0.0
 10
355.986328125
 20
364.2509765625
 30
0.0
 10
356.9296875
 20
346.1318359375
 30
0.0
 10
360.693359375
 20
342.3671875
 30
0.0
 10
358.1591796875
 20
362.1240234375
 30
0.0
 10
384.22265625
 20
366.7216796875
 30
0.0
 10
384.22265625
 20
379.0751953125
 30
0.0
 10
398.3408203125
 20
379.0751953125
 30
0.0
 10
406.10546875
 20
374.4873046875
 30
0.0
 10
406.10546875
 20
364.95703125
 30
0.0
 10
398.3408203125
 20
370.95703125
 30
0.0
 10
398.3408203125
 20
365.3095703125
 30
0.0
 10
392.693359375
 20
365.3095703125
 30
0.0
 10
398.3408203125
 20
359.6630859375
 30
0.0
 10
403.6357421875
 20
351.1923828125
 30
0.0
 10
403.6357421875
 20
345.19140625
 30
0.0
 10
396.9296875
 20
351.8974609375
 30
0.0
 10
391.28125
 20
349.07421875
 30
0.0
 10
387.046875
 20
349.07421875
 30
0.0
 10
394.810546875
 20
344.486328125
 30
0.0
 10
403.6357421875
 20
324.720703125
 30
0.0
 10
401.517578125
 20
318.0146484375
 30
0.0
 10
395.14453125
 20
321.6796875
 30
0.0
 10
377.1337890625
 20
328.6357421875
 30
0.0
 10
369.720703125
 20
327.3125
 30
0.0
 10
377.3095703125
 20
327.0478515625
 30
0.0
 10
411.0166015625
 20
292.9580078125
 30
0.0
 10
401.83984375
 20
276.0166015625
 30
0.0
 10
393.369140625
 20
295.7822265625
 30
0.0
 10
380.251953125
 20
299.5458984375
 30
0.0
 10
359.662109375
 20
295.72265625
 30
0.0
 10
379.427734375
 20
289.369140625
 30
0.0
 10
385.0751953125
 20
278.78125
 30
0.0
 10
385.9873046875
 20
267.5419921875
 30
0.0
 10
376.1044921875
 20
274.248046875
 30
0.0
 10
359.046875
 20
265.8935546875
 30
0.0
 10
354.8115234375
 20
258.12890625
 30
0.0
 10
369.634765625
 20
263.7763671875
 30
0.0
 10
377.1640625
 20
250.833984375
 30
0.0
 10
377.1640625
 20
240.4814453125
 30
0.0
 10
368.4580078125
 20
251.3056640625
 30
0.0
 10
346.578125
 20
231.5400390625
 30
0.0
 10
343.044921875
 20
225.892578125
 30
0.0
 10
363.283203125
 20
234.8330078125
 30
0.0
 10
368.9296875
 20
214.3623046875
 30
0.0
 10
366.8125
 20
208.951171875
 30
0.0
 10
361.986328125
 20
213.7744140625
 30
0.0
 10
340.5751953125
 20
207.1865234375
 30
0.0
 10
335.751953125
 20
202.3623046875
 30
0.0
 10
351.98828125
 20
208.0087890625
 30
0.0
 10
359.9873046875
 20
196.2451171875
 30
0.0
 10
355.986328125
 20
189.4208984375
 30
0.0
 10
351.98828125
 20
182.595703125
 30
0.0
 10
332.1201171875
 20
179.8681640625
 30
0.0
 10
332.9287109375
 20
172.712890625
 30
0.0
 10
336.66796875
 20
139.61328125
 30
0.0
 10
334.6318359375
 20
140.4775390625
 30
0.0
 10
322.57421875
 20
130.1240234375
 30
0.0
 10
340.927734375
 20
132.478515625
 30
0.0
 10
340.486328125
 20
155.5087890625
 30
0.0
 10
345.57421875
 20
160.595703125
 30
0.0
 10
350.3359375
 20
165.3583984375
 30
0.0
 10
357.5693359375
 20
154.10546875
 30
0.0
 10
358.2197265625
 20
146.0322265625
 30
0.0
 10
359.1904296875
 20
157.435546875
 30
0.0
 10
356.2021484375
 20
154.25
 30
0.0
 10
354.927734375
 20
163.94921875
 30
0.0
 10
353.515625
 20
174.7138671875
 30
0.0
 10
376.1044921875
 20
164.8310546875
 30
0.0
 10
383.3408203125
 20
154.06640625
 30
0.0
 10
388.634765625
 20
163.7724609375
 30
0.0
 10
372.22265625
 20
168.7138671875
 30
0.0
 10
373.1044921875
 20
179.6552734375
 30
0.0
 10
373.9873046875
 20
190.59765625
 30
0.0
 10
408.046875
 20
178.2431640625
 30
0.0
 10
411.9296875
 20
161.125
 30
0.0
 10
418.1064453125
 20
170.125
 30
0.0
 10
403.10546875
 20
185.83203125
 30
0.0
 10
400.2822265625
 20
192.0087890625
 30
0.0
 10
397.458984375
 20
198.185546875
 30
0.0
 10
430.1064453125
 20
197.65625
 30
0.0
 10
441.404296875
 20
186.3603515625
 30
0.0
 10
439.9921875
 20
201.654296875
 30
0.0
 10
425.16796875
 20
210.126953125
 30
0.0
 10
418.814453125
 20
219.3037109375
 30
0.0
 10
412.4619140625
 20
228.4794921875
 30
0.0
 10
435.7578125
 20
233.65625
 30
0.0
 10
453.404296875
 20
213.890625
 30
0.0
 10
459.2861328125
 20
225.890625
 30
0.0
 10
441.1669921875
 20
240.4814453125
 30
0.0
 10
439.755859375
 20
254.5986328125
 30
0.0
 10
438.34375
 20
268.7177734375
 30
0.0
 10
463.5224609375
 20
246.36328125
 30
0.0
 10
467.5234375
 20
225.6572265625
 30
0.0
 10
477.876953125
 20
239.7744140625
 30
0.0
 10
465.755859375
 20
257.8349609375
 30
0.0
 10
469.1083984375
 20
270.01171875
 30
0.0
 10
472.4619140625
 20
282.1884765625
 30
0.0
 10
485.521484375
 20
275.8359375
 30
0.0
 10
483.5791015625
 20
251.8349609375
 30
0.0
 10
495.2265625
 20
270.541015625
 30
0.0
 10
478.28515625
 20
293.8359375
 30
0.0
 10
476.34375
 20
302.4833984375
 30
0.0
 10
474.4033203125
 20
311.1318359375
 30
0.0
 10
488.697265625
 20
312.7197265625
 30
0.0
 10
492.580078125
 20
293.130859375
 30
0.0
  0
SPLINE
  5
43
330
3E
100
AcDbEntity
  8
Layer 1
370
     0
100
AcDbSpline
210
0.0
220
0.0
230
1.0
 70
    11
 71
     3
 72
    35
 73
    31
 74
     0
 42
0.0000000001
 43
0.0000000001
 40
0.0
 40
0.0
 40
0.0
 40
0.0
 40
1.0
 40
1.0
 40
1.0
 40
2.0
 40
2.0
 40
2.0
 40
3.0
 40
3.0
 40
3.0
 40
4.0
 40
4.0
 40
4.0
 40
5.0
 40
5.0
 40
5.0
 40
6.0
 40
6.0
 40
6.0
 40
7.0
 40
7.0
 40
7.0
 40
8.0
 40
8.0
 40
8.0
 40
9.0
 40
9.0
 40
9.0
 40
10.0
 40
10.0
 40
10.0
 40
10.0
 10
130.88232421875
 20
524.40625
 30
0.0
 10
127.16455078125
 20
535.8671875
 30
0.0
 10
120.30078125
 20
534.6044921875
 30
0.0
 10
110.3349609375
 20
540.94677734375
 30
0.0
 10
114.337890625
 20
530.9150390625
 30
0.0
 10
111.32373046875
 20
525.09130859375
 30
0.0
 10
111.78466796875
 20
517.69287109375
 30
0.0
 10
83.07568359375
 20
541.73779296875
 30
0.0
 10
91.728515625
 20
604.62109375
 30
0.0
 10
97.759765625
 20
628.28955078125
 30
0.0
 10
98.7919921875
 20
611.72802734375
 30
0.0
 10
107.85498046875
 20
595.78955078125
 30
0.0
 10
123.05615234375
 20
589.736328125
 30
0.0
 10
116.9189453125
 20
594.87548828125
 30
0.0
 10
121.76025390625
 20
610.5244140625
 30
0.0
 10
117.47216796875
 20
625.13623046875
 30
0.0
 10
131.880859375
 20
604.72021484375
 30
0.0
 10
189.103515625
 20
583.84326171875
 30
0.0
 10
189.14306640625
 20
553.0849609375
 30
0.0
 10
188.41845703125
 20
564.71337890625
 30
0.0
 10
175.283203125
 20
564.69384765625
 30
0.0
 10
159.11376953125
 20
571.2236328125
 30
0.0
 10
164.45947265625
 20
566.7470703125
 30
0.0
 10
163.095703125
 20
561.54345703125
 30
0.0
 10
160.47509765625
 20
543.36767578125
 30
0.0
 10
155.173828125
 20
556.1552734375
 30
0.0
 10
148.74951171875
 20
556.861328125
 30
0.0
 10
129.12548828125
 20
558.60400390625
 30
0.0
 10
137.24267578125
 20
551.8056640625
 30
0.0
 10
136.07568359375
 20
543.4326171875
 30
0.0
 10
130.88232421875
 20
524.40625
 30
0.0
  0
SPLINE
  5
44
330
3E
100
AcDbEntity
  8
Layer 1
370
     0
100
AcDbSpline
210
0.0
220
0.0
230
1.0
 70
    11
 71
     3
 72
    53
 73
    49
 74
     0
 42
0.0000000001
 43
0.0000000001
 40
0.0
 40
0.0
 40
0.0
 40
0.0
 40
1.0
 40
1.0
 40
1.0
 40
2.0
 40
2.0
 40
2.0
 40
3.0
 40
3.0
 40
3.0
 40
4.0
 40
4.0
 40
4.0
 40
5.0
 40
5.0
 40
5.0
 40
6.0
 40
6.0
 40
6.0
 40
7.0
 40
7.0
 40
7.0
 40
8.0
 40
8.0
 40
8.0
 40
9.0
 40
9.0
 40
9.0
 40
10.0
 40
10.0
 40
10.0
 40
11.0
 40
11.0
 40
11.0
 40
12.0
 40
12.0
 40
12.0
 40
13.0
 40
13.0
 40
13.0
 40
14.0
 40
14.0
 40
14.0
 40
15.0
 40
15.0
 40
15.0
 40
16.0
 40
16.0
 40
16.0
 40
16.0
 10
213.8642578125
 20
394.958984375
 30
0.0
 10
208.5703125
 20
385.78125
 30
0.0
 10
186.1572265625
 20
388.076171875
 30
0.0
 10
183.51025390625
 20
390.72265625
 30
0.0
 10
180.86328125
 20
393.3701171875
 30
0.0
 10
182.45166015625
 20
397.4287109375
 30
0.0
 10
176.80419921875
 20
397.4287109375
 30
0.0
 10
171.15673828125
 20
397.4287109375
 30
0.0
 10
162.15625
 20
392.6640625
 30
0.0
 10
157.3916015625
 20
397.4287109375
 30
0.0
 10
152.62646484375
 20
402.19384765625
 30
0.0
 10
152.27392578125
 20
415.95947265625
 30
0.0
 10
147.15576171875
 20
421.0771484375
 30
0.0
 10
142.0380859375
 20
426.19482421875
 30
0.0
 10
155.4501953125
 20
425.48876953125
 30
0.0
 10
158.45068359375
 20
428.4892578125
 30
0.0
 10
158.833984375
 20
428.8720703125
 30
0.0
 10
159.11083984375
 20
429.38525390625
 30
0.0
 10
159.28662109375
 20
429.98486328125
 30
0.0
 10
165.8837890625
 20
423.494140625
 30
0.0
 10
169.54443359375
 20
404.17236328125
 30
0.0
 10
185.6279296875
 20
406.13427734375
 30
0.0
 10
192.00341796875
 20
406.912109375
 30
0.0
 10
198.8046875
 20
406.13427734375
 30
0.0
 10
200.21630859375
 20
400.2509765625
 30
0.0
 10
205.86376953125
 20
408.95654296875
 30
0.0
 10
196.216796875
 20
419.3125
 30
0.0
 10
193.62841796875
 20
421.89990234375
 30
0.0
 10
191.041015625
 20
424.48828125
 30
0.0
 10
192.216796875
 20
433.19482421875
 30
0.0
 10
183.74609375
 20
437.43017578125
 30
0.0
 10
176.5703125
 20
441.017578125
 30
0.0
 10
164.83740234375
 20
434.13916015625
 30
0.0
 10
159.12841796875
 20
434.240234375
 30
0.0
 10
158.01611328125
 20
438.1044921875
 30
0.0
 10
154.48486328125
 20
442.25439453125
 30
0.0
 10
148.5673828125
 20
442.25439453125
 30
0.0
 10
157.3916015625
 20
451.078125
 30
0.0
 10
173.451171875
 20
458.6669921875
 30
0.0
 10
181.03955078125
 20
451.078125
 30
0.0
 10
188.6279296875
 20
443.4892578125
 30
0.0
 10
190.92236328125
 20
437.84228515625
 30
0.0
 10
194.275390625
 20
437.84228515625
 30
0.0
 10
197.62841796875
 20
437.84228515625
 30
0.0
 10
216.50341796875
 20
441.59814453125
 30
0.0
 10
213.8642578125
 20
430.25390625
 30
0.0
 10
210.3349609375
 20
415.0771484375
 30
0.0
 10
219.15869140625
 20
404.134765625
 30
0.0
 10
213.8642578125
 20
394.958984375
 30
0.0
  0
SPLINE
  5
45
330
3E
100
AcDbEntity
  8
Layer 1
370
     0
100
AcDbSpline
210
0.0
220
0.0
230
1.0
 70
    11
 71
     3
 72
    23
 73
    19
 74
     0
 42
0.0000000001
 43
0.0000000001
 40
0.0
 40
0.0
 40
0.0
 40
0.0
 40
1.0
 40
1.0
 40
1.0
 40
2.0
 40
2.0
 40
2.0
 40
3.0
 40
3.0
 40
3.0
 40
4.0
 40
4.0
 40
4.0
 40
5.0
 40
5.0
 40
5.0
 40
6.0
 40
6.0
 40
6.0
 40
6.0
 10
179.0390625
 20
428.3720703125
 30
0.0
 10
180.80224609375
 20
426.6083984375
 30
0.0
 10
184.38330078125
 20
429.67041015625
 30
0.0
 10
185.95751953125
 20
431.86572265625
 30
0.0
 10
189.71435546875
 20
427.83984375
 30
0.0
 10
192.5849609375
 20
421.08251953125
 30
0.0
 10
184.56884765625
 20
418.2529296875
 30
0.0
 10
174.5693359375
 20
414.7236328125
 30
0.0
 10
169.8623046875
 20
420.60693359375
 30
0.0
 10
167.97998046875
 20
424.25341796875
 30
0.0
 10
166.0986328125
 20
427.900390625
 30
0.0
 10
165.626953125
 20
431.4296875
 30
0.0
 10
165.626953125
 20
431.4296875
 30
0.0
 10
167.8134765625
 20
432.47216796875
 30
0.0
 10
176.35302734375
 20
436.08349609375
 30
0.0
 10
181.38818359375
 20
434.9443359375
 30
0.0
 10
179.59765625
 20
433.08447265625
 30
0.0
 10
177.21630859375
 20
430.1943359375
 30
0.0
 10
179.0390625
 20
428.3720703125
 30
0.0
  0
SPLINE
  5
46
330
3E
100
AcDbEntity
  8
Layer 1
370
     0
100
AcDbSpline
210
0.0
220
0.0
230
1.0
 70
    11
 71
     3
 72
    29
 73
    25
 74
     0
 42
0.0000000001
 43
0.0000000001
 40
0.0
 40
0.0
 40
0.0
 40
0.0
 40
1.0
 40
1.0
 40
1.0
 40
2.0
 40
2.0
 40
2.0
 40
3.0
 40
3.0
 40
3.0
 40
4.0
 40
4.0
 40
4.0
 40
5.0
 40
5.0
 40
5.0
 40
6.0
 40
6.0
 40
6.0
 40
7.0
 40
7.0
 40
7.0
 40
8.0
 40
8.0
 40
8.0
 40
8.0
 10
248.2177734375
 20
456.7255859375
 30
0.0
 10
246.6591796875
 20
446.048828125
 30
0.0
 10
234.52587890625
 20
425.62158203125
 30
0.0
 10
226.5703125
 20
417.66455078125
 30
0.0
 10
235.408203125
 20
437.53369140625
 30
0.0
 10
230.3349609375
 20
468.02001953125
 30
0.0
 10
220.4521484375
 20
489.66748046875
 30
0.0
 10
230.57080078125
 20
479.548828125
 30
0.0
 10
236.68798828125
 20
469.66650390625
 30
0.0
 10
236.68798828125
 20
458.84326171875
 30
0.0
 10
236.68798828125
 20
464.49072265625
 30
0.0
 10
242.33544921875
 20
477.4326171875
 30
0.0
 10
248.9248046875
 20
481.66845703125
 30
0.0
 10
245.86474609375
 20
476.2265625
 30
0.0
 10
252.669921875
 20
463.5224609375
 30
0.0
 10
252.8076171875
 20
462.96142578125
 30
0.0
 10
255.5126953125
 20
467.78564453125
 30
0.0
 10
258.8076171875
 20
473.244140625
 30
0.0
 10
266.8076171875
 20
476.84375
 30
0.0
 10
259.0419921875
 20
466.01953125
 30
0.0
 10
264.689453125
 20
443.548828125
 30
0.0
 10
270.923828125
 20
427.666015625
 30
0.0
 10
263.51171875
 20
431.314453125
 30
0.0
 10
252.923828125
 20
445.6669921875
 30
0.0
 10
248.2177734375
 20
456.7255859375
 30
0.0
  0
SPLINE
  5
47
330
3E
100
AcDbEntity
  8
Layer 1
370
     0
100
AcDbSpline
210
0.0
220
0.0
230
1.0
 70
    11
 71
     3
 72
    53
 73
    49
 74
     0
 42
0.0000000001
 43
0.0000000001
 40
0.0
 40
0.0
 40
0.0
 40
0.0
 40
1.0
 40
1.0
 40
1.0
 40
2.0
 40
2.0
 40
2.0
 40
3.0
 40
3.0
 40
3.0
 40
4.0
 40
4.0
 40
4.0
 40
5.0
 40
5.0
 40
5.0
 40
6.0
 40
6.0
 40
6.0
 40
7.0
 40
7.0
 40
7.0
 40
8.0
 40
8.0
 40
8.0
 40
9.0
 40
9.0
 40
9.0
 40
10.0
 40
10.0
 40
10.0
 40
11.0
 40
11.0
 40
11.0
 40
12.0
 40
12.0
 40
12.0
 40
13.0
 40
13.0
 40
13.0
 40
14.0
 40
14.0
 40
14.0
 40
15.0
 40
15.0
 40
15.0
 40
16.0
 40
16.0
 40
16.0
 40
16.0
 10
349.2802734375
 20
421.0771484375
 30
0.0
 10
344.162109375
 20
415.95947265625
 30
0.0
 10
343.8095703125
 20
402.19384765625
 30
0.0
 10
339.0439453125
 20
397.4287109375
 30
0.0
 10
334.279296875
 20
392.6640625
 30
0.0
 10
325.279296875
 20
397.4287109375
 30
0.0
 10
319.630859375
 20
397.4287109375
 30
0.0
 10
313.984375
 20
397.4287109375
 30
0.0
 10
315.5732421875
 20
393.3701171875
 30
0.0
 10
312.9248046875
 20
390.72265625
 30
0.0
 10
310.2783203125
 20
388.076171875
 30
0.0
 10
287.865234375
 20
385.78125
 30
0.0
 10
282.5712890625
 20
394.958984375
 30
0.0
 10
277.27734375
 20
404.134765625
 30
0.0
 10
286.1005859375
 20
415.0771484375
 30
0.0
 10
282.5712890625
 20
430.25390625
 30
0.0
 10
279.9326171875
 20
441.59814453125
 30
0.0
 10
298.8076171875
 20
437.84228515625
 30
0.0
 10
302.16015625
 20
437.84228515625
 30
0.0
 10
305.513671875
 20
437.84228515625
 30
0.0
 10
307.8076171875
 20
443.4892578125
 30
0.0
 10
315.396484375
 20
451.078125
 30
0.0
 10
322.984375
 20
458.6669921875
 30
0.0
 10
339.0439453125
 20
451.078125
 30
0.0
 10
347.8681640625
 20
442.25439453125
 30
0.0
 10
341.951171875
 20
442.25439453125
 30
0.0
 10
338.421875
 20
438.1044921875
 30
0.0
 10
337.306640625
 20
434.240234375
 30
0.0
 10
331.599609375
 20
434.13916015625
 30
0.0
 10
319.8662109375
 20
441.017578125
 30
0.0
 10
312.69140625
 20
437.43017578125
 30
0.0
 10
304.220703125
 20
433.19482421875
 30
0.0
 10
305.39453125
 20
424.48828125
 30
0.0
 10
302.80859375
 20
421.89990234375
 30
0.0
 10
300.2197265625
 20
419.3125
 30
0.0
 10
290.5732421875
 20
408.95654296875
 30
0.0
 10
296.2216796875
 20
400.2509765625
 30
0.0
 10
297.6328125
 20
406.13427734375
 30
0.0
 10
304.43359375
 20
406.912109375
 30
0.0
 10
310.8076171875
 20
406.13427734375
 30
0.0
 10
326.8916015625
 20
404.17236328125
 30
0.0
 10
330.5546875
 20
423.494140625
 30
0.0
 10
337.1494140625
 20
429.98486328125
 30
0.0
 10
337.3271484375
 20
429.38525390625
 30
0.0
 10
337.6025390625
 20
428.8720703125
 30
0.0
 10
337.9853515625
 20
428.4892578125
 30
0.0
 10
340.9853515625
 20
425.48876953125
 30
0.0
 10
354.3974609375
 20
426.19482421875
 30
0.0
 10
349.2802734375
 20
421.0771484375
 30
0.0
  0
SPLINE
  5
48
330
3E
100
AcDbEntity
  8
Layer 1
370
     0
100
AcDbSpline
210
0.0
220
0.0
230
1.0
 70
    11
 71
     3
 72
    23
 73
    19
 74
     0
 42
0.0000000001
 43
0.0000000001
 40
0.0
 40
0.0
 40
0.0
 40
0.0
 40
1.0
 40
1.0
 40
1.0
 40
2.0
 40
2.0
 40
2.0
 40
3.0
 40
3.0
 40
3.0
 40
4.0
 40
4.0
 40
4.0
 40
5.0
 40
5.0
 40
5.0
 40
6.0
 40
6.0
 40
6.0
 40
6.0
 10
315.048828125
 20
434.9443359375
 30
0.0
 10
320.083984375
 20
436.08349609375
 30
0.0
 10
328.6240234375
 20
432.47216796875
 30
0.0
 10
330.810546875
 20
431.4296875
 30
0.0
 10
330.810546875
 20
431.4296875
 30
0.0
 10
330.3388671875
 20
427.900390625
 30
0.0
 10
328.4560546875
 20
424.25341796875
 30
0.0
 10
326.5751953125
 20
420.60693359375
 30
0.0
 10
321.8681640625
 20
414.7236328125
 30
0.0
 10
311.8671875
 20
418.2529296875
 30
0.0
 10
303.8505859375
 20
421.08251953125
 30
0.0
 10
306.720703125
 20
427.83984375
 30
0.0
 10
310.48046875
 20
431.86572265625
 30
0.0
 10
312.0546875
 20
429.67041015625
 30
0.0
 10
315.6328125
 20
426.6083984375
 30
0.0
 10
317.3984375
 20
428.3720703125
 30
0.0
 10
319.220703125
 20
430.1943359375
 30
0.0
 10
316.8388671875
 20
433.08447265625
 30
0.0
 10
315.048828125
 20
434.9443359375
 30
0.0
  0
SPLINE
  5
49
330
3E
100
AcDbEntity
  8
Layer 1
370
     0
100
AcDbSpline
210
0.0
220
0.0
230
1.0
 70
    11
 71
     3
 72
    35
 73
    31
 74
     0
 42
0.0000000001
 43
0.0000000001
 40
0.0
 40
0.0
 40
0.0
 40
0.0
 40
1.0
 40
1.0
 40
1.0
 40
2.0
 40
2.0
 40
2.0
 40
3.0
 40
3.0
 40
3.0
 40
4.0
 40
4.0
 40
4.0
 40
5.0
 40
5.0
 40
5.0
 40
6.0
 40
6.0
 40
6.0
 40
7.0
 40
7.0
 40
7.0
 40
8.0
 40
8.0
 40
8.0
 40
9.0
 40
9.0
 40
9.0
 40
10.0
 40
10.0
 40
10.0
 40
10.0
 10
372.5751953125
 20
523.43408203125
 30
0.0
 10
372.5751953125
 20
530.84619140625
 30
0.0
 10
369.3984375
 20
536.49365234375
 30
0.0
 10
372.5751953125
 20
546.7294921875
 30
0.0
 10
363.5751953125
 20
539.8466796875
 30
0.0
 10
357.044921875
 20
540.72900390625
 30
0.0
 10
354.2216796875
 20
529.08154296875
 30
0.0
 10
348.2216796875
 20
547.7880859375
 30
0.0
 10
346.6328125
 20
556.08251953125
 30
0.0
 10
353.8681640625
 20
563.318359375
 30
0.0
 10
335.5146484375
 20
560.494140625
 30
0.0
 10
329.5146484375
 20
559.435546875
 30
0.0
 10
325.279296875
 20
546.3759765625
 30
0.0
 10
321.75
 20
564.376953125
 30
0.0
 10
320.1611328125
 20
569.49462890625
 30
0.0
 10
324.9267578125
 20
574.259765625
 30
0.0
 10
310.1025390625
 20
566.84765625
 30
0.0
 10
297.748046875
 20
566.1416015625
 30
0.0
 10
297.748046875
 20
554.494140625
 30
0.0
 10
295.9833984375
 20
585.201171875
 30
0.0
 10
348.57421875
 20
609.2021484375
 30
0.0
 10
360.927734375
 20
630.3798828125
 30
0.0
 10
357.7509765625
 20
615.5556640625
 30
0.0
 10
363.2216796875
 20
600.2021484375
 30
0.0
 10
357.7509765625
 20
594.73095703125
 30
0.0
 10
371.693359375
 20
601.61328125
 30
0.0
 10
379.28125
 20
618.0263671875
 30
0.0
 10
379.28125
 20
634.615234375
 30
0.0
 10
386.33984375
 20
611.31982421875
 30
0.0
 10
398.1640625
 20
549.0234375
 30
0.0
 10
372.5751953125
 20
523.43408203125
 30
0.0
  0
ENDBLK
  5
41
330
3E
100
AcDbEntity
  8
0
100
AcDbBlockEnd
  0
ENDSEC
  0
SECTION
  2
ENTITIES
  0
SPLINE
  5
3C
330
1F
100
AcDbEntity
  8
Layer 1
370
     0
100
AcDbSpline
210
0.0
220
0.0
230
1.0
 70
    11
 71
     3
 72
    11
 73
     7
 74
     0
 42
0.0000000001
 43
0.0000000001
 40
0.0
 40
0.0
 40
0.0
 40
0.0
 40
1.0
 40
1.0
 40
1.0
 40
2.0
 40
2.0
 40
2.0
 40
2.0
 10
358.2197265625
 20
146.0322265625
 30
0.0
 10
358.1142578125
 20
144.7783203125
 30
0.0
 10
357.9599609375
 20
143.3564453125
 30
0.0
 10
357.7509765625
 20
141.7119140625
 30
0.0
 10
358.22265625
 20
142.9208984375
 30
0.0
 10
358.3525390625
 20
144.4130859375
 30
0.0
 10
358.2197265625
 20
146.0322265625
 30
0.0
  0
SPLINE
  5
3D
330
1F
100
AcDbEntity
  8
Layer 1
370
     0
100
AcDbSpline
210
0.0
220
0.0
230
1.0
 70
    11
 71
     3
 72
    11
 73
     7
 74
     0
 42
0.0000000001
 43
0.0000000001
 40
0.0
 40
0.0
 40
0.0
 40
0.0
 40
1.0
 40
1.0
 40
1.0
 40
2.0
 40
2.0
 40
2.0
 40
2.0
 10
130.9833984375
 20
292.6259765625
 30
0.0
 10
131.75390625
 20
292.1630859375
 30
0.0
 10
132.51953125
 20
291.6884765625
 30
0.0
 10
133.27197265625
 20
291.189453125
 30
0.0
 10
132.68212890625
 20
291.779296875
 30
0.0
 10
131.90673828125
 20
292.2548828125
 30
0.0
 10
130.9833984375
 20
292.6259765625
 30
0.0
  0
INSERT
  5
3F
330
1F
100
AcDbEntity
  8
Layer 1
100
AcDbBlockReference
  2
block 2
 10
0.0
 20
0.0
 30
0.0
  0
HATCH
  5
4A
330
1F
100
AcDbEntity
  8
Layer 1
 62
   250
100
AcDbHatch
 10
0.0
 20
0.0
 30
0.0
210
0.0
220
0.0
230
1.0
  2
SOLID
 70
     1
 71
     0
 91
       10
 92
        1
 93
        1
 72
     4
 94
        3
 73
     0
 74
     1
 95
       11
 96
        7
 40
0.0
 40
0.0
 40
0.0
 40
0.0
 40
1.0
 40
1.0
 40
1.0
 40
2.0
 40
2.0
 40
2.0
 40
2.0
 10
358.2197265625
 20
146.0322265625
 10
358.1142578125
 20
144.7783203125
 10
357.9599609375
 20
143.3564453125
 10
357.7509765625
 20
141.7119140625
 10
358.22265625
 20
142.9208984375
 10
358.3525390625
 20
144.4130859375
 10
358.2197265625
 20
146.0322265625
 97
        0
 92
        1
 93
        1
 72
     4
 94
        3
 73
     0
 74
     1
 95
       11
 96
        7
 40
0.0
 40
0.0
 40
0.0
 40
0.0
 40
1.0
 40
1.0
 40
1.0
 40
2.0
 40
2.0
 40
2.0
 40
2.0
 10
130.9833984375
 20
292.6259765625
 10
131.75390625
 20
292.1630859375
 10
132.51953125
 20
291.6884765625
 10
133.27197265625
 20
291.189453125
 10
132.68212890625
 20
291.779296875
 10
131.90673828125
 20
292.2548828125
 10
130.9833984375
 20
292.6259765625
 97
        0
 92
        1
 93
        1
 72
     4
 94
        3
 73
     0
 74
     1
 95
      518
 96
      514
 40
0.0
 40
0.0
 40
0.0
 40
0.0
 40
1.0
 40
1.0
 40
1.0
 40
2.0
 40
2.0
 40
2.0
 40
3.0
 40
3.0
 40
3.0
 40
4.0
 40
4.0
 40
4.0
 40
5.0
 40
5.0
 40
5.0
 40
6.0
 40
6.0
 40
6.0
 40
7.0
 40
7.0
 40
7.0
 40
8.0
 40
8.0
 40
8.0
 40
9.0
 40
9.0
 40
9.0
 40
10.0
 40
10.0
 40
10.0
 40
11.0
 40
11.0
 40
11.0
 40
12.0
 40
12.0
 40
12.0
 40
13.0
 40
13.0
 40
13.0
 40
14.0
 40
14.0
 40
14.0
 40
15.0
 40
15.0
 40
15.0
 40
16.0
 40
16.0
 40
16.0
 40
17.0
 40
17.0
 40
17.0
 40
18.0
 40
18.0
 40
18.0
 40
19.0
 40
19.0
 40
19.0
 40
20.0
 40
20.0
 40
20.0
 40
21.0
 40
21.0
 40
21.0
 40
22.0
 40
22.0
 40
22.0
 40
23.0
 40
23.0
 40
23.0
 40
24.0
 40
24.0
 40
24.0
 40
25.0
 40
25.0
 40
25.0
 40
26.0
 40
26.0
 40
26.0
 40
27.0
 40
27.0
 40
27.0
 40
28.0
 40
28.0
 40
28.0
 40
29.0
 40
29.0
 40
29.0
 40
30.0
 40
30.0
 40
30.0
 40
31.0
 40
31.0
 40
31.0
 40
32.0
 40
32.0
 40
32.0
 40
33.0
 40
33.0
 40
33.0
 40
34.0
 40
34.0
 40
34.0
 40
35.0
 40
35.0
 40
35.0
 40
36.0
 40
36.0
 40
36.0
 40
37.0
 40
37.0
 40
37.0
 40
38.0
 40
38.0
 40
38.0
 40
39.0
 40
39.0
 40
39.0
 40
40.0
 40
40.0
 40
40.0
 40
41.0
 40
41.0
 40
41.0
 40
42.0
 40
42.0
 40
42.0
 40
43.0
 40
43.0
 40
43.0
 40
44.0
 40
44.0
 40
44.0
 40
45.0
 40
45.0
 40
45.0
 40
46.0
 40
46.0
 40
46.0
 40
47.0
 40
47.0
 40
47.0
 40
48.0
 40
48.0
 40
48.0
 40
49.0
 40
49.0
 40
49.0
 40
50.0
 40
50.0
 40
50.0
 40
51.0
 40
51.0
 40
51.0
 40
52.0
 40
52.0
 40
52.0
 40
53.0
 40
53.0
 40
53.0
 40
54.0
 40
54.0
 40
54.0
 40
55.0
 40
55.0
 40
55.0
 40
56.0
 40
56.0
 40
56.0
 40
57.0
 40
57.0
 40
57.0
 40
58.0
 40
58.0
 40
58.0
 40
59.0
 40
59.0
 40
59.0
 40
60.0
 40
60.0
 40
60.0
 40
61.0
 40
61.0
 40
61.0
 40
62.0
 40
62.0
 40
62.0
 40
63.0
 40
63.0
 40
63.0
 40
64.0
 40
64.0
 40
64.0
 40
65.0
 40
65.0
 40
65.0
 40
66.0
 40
66.0
 40
66.0
 40
67.0
 40
67.0
 40
67.0
 40
68.0
 40
68.0
 40
68.0
 40
69.0
 40
69.0
 40
69.0
 40
70.0
 40
70.0
 40
70.0
 40
71.0
 40
71.0
 40
71.0
 40
72.0
 40
72.0
 40
72.0
 40
73.0
 40
73.0
 40
73.0
 40
74.0
 40
74.0
 40
74.0
 40
75.0
 40
75.0
 40
75.0
 40
76.0
 40
76.0
 40
76.0
 40
77.0
 40
77.0
 40
77.0
 40
78.0
 40
78.0
 40
78.0
 40
79.0
 40
79.0
 40
79.0
 40
80.0
 40
80.0
 40
80.0
 40
81.0
 40
81.0
 40
81.0
 40
82.0
 40
82.0
 40
82.0
 40
83.0
 40
83.0
 40
83.0
 40
84.0
 40
84.0
 40
84.0
 40
85.0
 40
85.0
 40
85.0
 40
86.0
 40
86.0
 40
86.0
 40
87.0
 40
87.0
 40
87.0
 40
88.0
 40
88.0
 40
88.0
 40
89.0
 40
89.0
 40
89.0
 40
90.0
 40
90.0
 40
90.0
 40
91.0
 40
91.0
 40
91.0
 40
92.0
 40
92.0
 40
92.0
 40
93.0
 40
93.0
 40
93.0
 40
94.0
 40
94.0
 40
94.0
 40
95.0
 40
95.0
 40
95.0
 40
96.0
 40
96.0
 40
96.0
 40
97.0
 40
97.0
 40
97.0
 40
98.0
 40
98.0
 40
98.0
 40
99.0
 40
99.0
 40
99.0
 40
100.0
 40
100.0
 40
100.0
 40
101.0
 40
101.0
 40
101.0
 40
102.0
 40
102.0
 40
102.0
 40
103.0
 40
103.0
 40
103.0
 40
104.0
 40
104.0
 40
104.0
 40
105.0
 40
105.0
 40
105.0
 40
106.0
 40
106.0
 40
106.0
 40
107.0
 40
107.0
 40
107.0
 40
108.0
 40
108.0
 40
108.0
 40
109.0
 40
109.0
 40
109.0
 40
110.0
 40
110.0
 40
110.0
 40
111.0
 40
111.0
 40
111.0
 40
112.0
 40
112.0
 40
112.0
 40
113.0
 40
113.0
 40
113.0
 40
114.0
 40
114.0
 40
114.0
 40
115.0
 40
115.0
 40
115.0
 40
116.0
 40
116.0
 40
116.0
 40
117.0
 40
117.0
 40
117.0
 40
118.0
 40
118.0
 40
118.0
 40
119.0
 40
119.0
 40
119.0
 40
120.0
 40
120.0
 40
120.0
 40
121.0
 40
121.0
 40
121.0
 40
122.0
 40
122.0
 40
122.0
 40
123.0
 40
123.0
 40
123.0
 40
124.0
 40
124.0
 40
124.0
 40
125.0
 40
125.0
 40
125.0
 40
126.0
 40
126.0
 40
126.0
 40
127.0
 40
127.0
 40
127.0
 40
128.0
 40
128.0
 40
128.0
 40
129.0
 40
129.0
 40
129.0
 40
130.0
 40
130.0
 40
130.0
 40
131.0
 40
131.0
 40
131.0
 40
132.0
 40
132.0
 40
132.0
 40
133.0
 40
133.0
 40
133.0
 40
134.0
 40
134.0
 40
134.0
 40
135.0
 40
135.0
 40
135.0
 40
136.0
 40
136.0
 40
136.0
 40
137.0
 40
137.0
 40
137.0
 40
138.0
 40
138.0
 40
138.0
 40
139.0
 40
139.0
 40
139.0
 40
140.0
 40
140.0
 40
140.0
 40
141.0
 40
141.0
 40
141.0
 40
142.0
 40
142.0
 40
142.0
 40
143.0
 40
143.0
 40
143.0
 40
144.0
 40
144.0
 40
144.0
 40
145.0
 40
145.0
 40
145.0
 40
146.0
 40
146.0
 40
146.0
 40
147.0
 40
147.0
 40
147.0
 40
148.0
 40
148.0
 40
148.0
 40
149.0
 40
149.0
 40
149.0
 40
150.0
 40
150.0
 40
150.0
 40
151.0
 40
151.0
 40
151.0
 40
152.0
 40
152.0
 40
152.0
 40
153.0
 40
153.0
 40
153.0
 40
154.0
 40
154.0
 40
154.0
 40
155.0
 40
155.0
 40
155.0
 40
156.0
 40
156.0
 40
156.0
 40
157.0
 40
157.0
 40
157.0
 40
158.0
 40
158.0
 40
158.0
 40
159.0
 40
159.0
 40
159.0
 40
160.0
 40
160.0
 40
160.0
 40
161.0
 40
161.0
 40
161.0
 40
162.0
 40
162.0
 40
162.0
 40
163.0
 40
163.0
 40
163.0
 40
164.0
 40
164.0
 40
164.0
 40
165.0
 40
165.0
 40
165.0
 40
166.0
 40
166.0
 40
166.0
 40
167.0
 40
167.0
 40
167.0
 40
168.0
 40
168.0
 40
168.0
 40
169.0
 40
169.0
 40
169.0
 40
170.0
 40
170.0
 40
170.0
 40
171.0
 40
171.0
 40
171.0
 40
171.0
 10
492.580078125
 20
293.130859375
 10
497.345703125
 20
312.7197265625
 10
474.58203125
 20
322.4853515625
 10
474.58203125
 20
330.3671875
 10
474.58203125
 20
338.25
 10
489.373046875
 20
334.0595703125
 10
492.111328125
 20
322.7197265625
 10
493.638671875
 20
337.7783203125
 10
471.0498046875
 20
353.1923828125
 10
469.404296875
 20
359.7802734375
 10
467.75390625
 20
366.3671875
 10
474.81640625
 20
366.2509765625
 10
488.228515625
 20
351.1923828125
 10
486.111328125
 20
369.7802734375
 10
458.3427734375
 20
381.4287109375
 10
454.9326171875
 20
390.72265625
 10
451.5185546875
 20
400.01708984375
 10
461.9912109375
 20
392.251953125
 10
470.3447265625
 20
388.0166015625
 10
468.578125
 20
399.78125
 10
449.2841796875
 20
410.0166015625
 10
447.51953125
 20
416.25244140625
 10
445.7548828125
 20
422.48876953125
 10
458.05078125
 20
416.4296875
 10
465.6396484375
 20
408.84033203125
 10
465.6396484375
 20
419.3125
 10
446.166015625
 20
431.3125
 10
443.8720703125
 20
436.60693359375
 10
441.5771484375
 20
441.9013671875
 10
443.3427734375
 20
443.13671875
 10
455.5205078125
 20
444.01904296875
 10
450.7548828125
 20
446.48974609375
 10
441.75390625
 20
456.90234375
 10
431.6943359375
 20
453.7255859375
 10
433.63671875
 20
459.1962890625
 10
438.4892578125
 20
460.52001953125
 10
449.51953125
 20
459.01953125
 10
448.107421875
 20
465.1962890625
 10
431.341796875
 20
467.6669921875
 10
422.6943359375
 20
466.6083984375
 10
422.6943359375
 20
473.66748046875
 10
434.87109375
 20
481.0791015625
 10
442.107421875
 20
477.197265625
 10
437.8720703125
 20
481.4326171875
 10
424.931640625
 20
480.84326171875
 10
417.0478515625
 20
484.490234375
 10
427.9892578125
 20
484.490234375
 10
431.6943359375
 20
506.4921875
 10
439.4599609375
 20
518.49267578125
 10
434.6953125
 20
513.7275390625
 10
418.8125
 20
523.2578125
 10
417.5771484375
 20
536.140625
 10
420.4013671875
 20
533.31689453125
 10
420.9296875
 20
536.140625
 10
433.1064453125
 20
531.728515625
 10
418.2822265625
 20
540.55224609375
 10
420.9296875
 20
569.9052734375
 10
416.931640625
 20
577.6708984375
 10
412.9306640625
 20
585.435546875
 10
422.6943359375
 20
596.61328125
 10
428.6953125
 20
602.61328125
 10
423.51953125
 20
600.2607421875
 10
423.51953125
 20
601.201171875
 10
417.6376953125
 20
596.9658203125
 10
424.6962890625
 20
630.849609375
 10
404.4599609375
 20
672.2626953125
 10
383.0458984375
 20
683.79150390625
 10
361.630859375
 20
695.32080078125
 10
354.10546875
 20
654.8505859375
 10
339.515625
 20
644.49658203125
 10
324.9287109375
 20
634.14208984375
 10
309.75
 20
619.0849609375
 10
304.1015625
 20
605.31982421875
 10
298.455078125
 20
591.55419921875
 10
282.9853515625
 20
586.90673828125
 10
278.865234375
 20
585.61376953125
 10
279.39453125
 20
586.67236328125
 10
281.703125
 20
601.89208984375
 10
279.572265625
 20
606.6142578125
 10
280.513671875
 20
601.26220703125
 10
270.2177734375
 20
590.4072265625
 10
265.01171875
 20
588.642578125
 10
262.89453125
 20
592.26025390625
 10
266.1591796875
 20
605.1435546875
 10
263.1591796875
 20
606.81982421875
 10
264.5712890625
 20
600.908203125
 10
256.5712890625
 20
586.96484375
 10
251.8642578125
 20
587.7890625
 10
252.8076171875
 20
591.7900390625
 10
247.1591796875
 20
600.376953125
 10
241.041015625
 20
600.376953125
 10
241.865234375
 20
596.72900390625
 10
242.2177734375
 20
589.31787109375
 10
237.1591796875
 20
588.7294921875
 10
233.51220703125
 20
587.67041015625
 10
221.09912109375
 20
601.49658203125
 10
220.27587890625
 20
609.0849609375
 10
219.45166015625
 20
606.43798828125
 10
218.4521484375
 20
598.08251953125
 10
221.09912109375
 20
591.259765625
 10
218.27587890625
 20
590.259765625
 10
213.833984375
 20
597.64306640625
 10
207.392578125
 20
604.083984375
 10
208.6279296875
 20
598.96630859375
 10
208.8046875
 20
600.37841796875
 10
208.8046875
 20
590.3193359375
 10
205.98095703125
 20
598.083984375
 10
202.92236328125
 20
605.20263671875
 10
197.03955078125
 20
608.84912109375
 10
200.21630859375
 20
603.671875
 10
197.03955078125
 20
599.908203125
 10
195.98095703125
 20
594.4951171875
 10
192.2158203125
 20
600.49609375
 10
188.509765625
 20
601.08447265625
 10
182.68603515625
 20
604.4375
 10
184.45068359375
 20
610.79052734375
 10
182.24462890625
 20
621.82080078125
 10
173.33251953125
 20
639.9091796875
 10
177.21484375
 20
629.85009765625
 10
179.50927734375
 20
624.5556640625
 10
173.50927734375
 20
616.43798828125
 10
171.03857421875
 20
622.61474609375
 10
162.74365234375
 20
636.02734375
 10
147.56689453125
 20
643.43896484375
 10
132.3896484375
 20
650.85107421875
 10
133.9775390625
 20
699.2060546875
 10
100.80029296875
 20
682.26416015625
 10
67.6220703125
 20
665.32177734375
 10
70.26904296875
 20
618.20263671875
 10
70.26904296875
 20
592.4365234375
 10
67.9755859375
 20
597.90771484375
 10
54.56298828125
 20
602.37890625
 10
56.916015625
 20
597.90771484375
 10
66.56298828125
 20
595.55419921875
 10
67.50439453125
 20
589.43701171875
 10
71.5048828125
 20
580.49560546875
 10
66.4453125
 20
585.55419921875
 10
62.0927734375
 20
581.43603515625
 10
53.62158203125
 20
581.43603515625
 10
61.38720703125
 20
581.43603515625
 10
68.798828125
 20
574.72998046875
 10
64.91650390625
 20
570.84716796875
 10
58.32861328125
 20
569.435546875
 10
41.50390625
 20
576.26025390625
 10
41.50390625
 20
569.7900390625
 10
48.9169921875
 20
572.9677734375
 10
54.44580078125
 20
563.4365234375
 10
69.85791015625
 20
548.02392578125
 10
57.857421875
 20
553.43701171875
 10
53.85693359375
 20
538.611328125
 10
50.79833984375
 20
532.9638671875
 10
65.38720703125
 20
529.669921875
 10
61.6220703125
 20
526.140625
 10
63.5048828125
 20
517.904296875
 10
65.38720703125
 20
509.66748046875
 10
48.91552734375
 20
512.49267578125
 10
37.8564453125
 20
526.8466796875
 10
39.0322265625
 20
510.6103515625
 10
56.2099609375
 20
491.55078125
 10
68.21044921875
 20
485.90380859375
 10
53.85595703125
 20
485.90380859375
 10
45.15087890625
 20
478.13818359375
 10
31.73876953125
 20
487.54931640625
 10
40.91552734375
 20
475.07763671875
 10
74.79931640625
 20
483.07958984375
 10
79.74072265625
 20
475.78515625
 10
73.62353515625
 20
479.314453125
 10
42.5625
 20
463.07861328125
 10
38.91455078125
 20
450.9609375
 10
45.14892578125
 20
454.84375
 10
55.50390625
 20
467.5498046875
 10
66.328125
 20
451.78369140625
 10
59.6220703125
 20
458.490234375
 10
27.03271484375
 20
431.0771484375
 10
23.73779296875
 20
418.6064453125
 10
28.20849609375
 20
427.31298828125
 10
47.26904296875
 20
434.6064453125
 10
55.73974609375
 20
423.5478515625
 10
46.32763671875
 20
428.958984375
 10
22.6796875
 20
404.72412109375
 10
22.6796875
 20
393.3115234375
 10
29.26904296875
 20
399.90087890625
 10
37.150390625
 20
407.78173828125
 10
56.44580078125
 20
398.8408203125
 10
43.26953125
 20
401.19384765625
 10
12.6787109375
 20
368.015625
 10
9.85546875
 20
348.95703125
 10
14.0908203125
 20
357.427734375
 10
51.7392578125
 20
379.78125
 10
61.38720703125
 20
368.015625
 10
48.21044921875
 20
376.017578125
 10
10.09033203125
 20
337.1904296875
 10
12.32568359375
 20
327.4267578125
 10
18.7958984375
 20
339.5458984375
 10
31.26806640625
 20
352.720703125
 10
39.03271484375
 20
341.19140625
 10
29.85595703125
 20
344.95703125
 10
5.26708984375
 20
305.5419921875
 10
12.9140625
 20
297.8955078125
 10
17.6201171875
 20
308.955078125
 10
22.326171875
 20
311.072265625
 10
36.20947265625
 20
309.896484375
 10
19.50244140625
 20
308.248046875
 10
15.97314453125
 20
251.775390625
 10
21.38525390625
 20
236.716796875
 10
22.56201171875
 20
248.248046875
 10
37.26806640625
 20
254.658203125
 10
46.09228515625
 20
252.3642578125
 10
37.97412109375
 20
248.4814453125
 10
31.4443359375
 20
222.1875
 10
36.56201171875
 20
222.1875
 10
39.73876953125
 20
231.5400390625
 10
53.6806640625
 20
237.5400390625
 10
59.857421875
 20
235.775390625
 10
51.2099609375
 20
233.6572265625
 10
52.79833984375
 20
210.185546875
 10
54.56298828125
 20
199.244140625
 10
53.6806640625
 20
207.3623046875
 10
66.03369140625
 20
220.068359375
 10
76.53466796875
 20
217.421875
 10
72.2548828125
 20
214.9755859375
 10
76.4501953125
 20
189.9775390625
 10
85.17822265625
 20
180.826171875
 10
82.49951171875
 20
183.9140625
 10
82.1953125
 20
191.1689453125
 10
96.21142578125
 20
205.185546875
 10
92.09326171875
 20
201.06640625
 10
96.21142578125
 20
199.068359375
 10
107.27099609375
 20
166.3603515625
 10
111.62451171875
 20
170.712890625
 10
107.27099609375
 20
181.890625
 10
119.7421875
 20
196.48046875
 10
121.388671875
 20
184.7158203125
 10
126.0947265625
 20
165.18359375
 10
151.2724609375
 20
152.7138671875
 10
147.390625
 20
156.595703125
 10
144.2138671875
 20
159.537109375
 10
154.80224609375
 20
170.125
 10
154.80224609375
 20
156.0078125
 10
184.818359375
 20
148.1181640625
 10
194.33349609375
 20
127.7705078125
 10
182.33251953125
 20
159.537109375
 10
143.5078125
 20
174.361328125
 10
149.86083984375
 20
203.302734375
 10
130.80126953125
 20
193.419921875
 10
134.3310546875
 20
189.185546875
 10
134.3310546875
 20
183.537109375
 10
125.154296875
 20
200.8330078125
 10
125.85986328125
 20
220.951171875
 10
139.2724609375
 20
225.5400390625
 10
112.0947265625
 20
222.7158203125
 10
113.50634765625
 20
224.833984375
 10
108.91845703125
 20
214.59765625
 10
108.91845703125
 20
225.892578125
 10
107.50634765625
 20
243.8935546875
 10
127.271484375
 20
250.599609375
 10
108.91845703125
 20
247.4228515625
 10
99.38818359375
 20
240.0107421875
 10
95.15283203125
 20
233.6572265625
 10
95.15283203125
 20
247.4228515625
 10
111.2119140625
 20
269.8359375
 10
117.74169921875
 20
276.365234375
 10
107.85888671875
 20
279.89453125
 10
105.03564453125
 20
285.1884765625
 10
93.38818359375
 20
279.89453125
 10
100.09228515625
 20
290.111328125
 10
122.24267578125
 20
296.1376953125
 10
130.9833984375
 20
292.6259765625
 10
113.7783203125
 20
302.955078125
 10
92.5244140625
 20
304.1259765625
 10
84.41552734375
 20
296.0166015625
 10
102.29833984375
 20
313.8984375
 10
109.130859375
 20
319.0703125
 10
136.3046875
 20
314.837890625
 10
115.62451171875
 20
323.0947265625
 10
92.43310546875
 20
323.8515625
 10
81.740234375
 20
319.779296875
 10
101.50634765625
 20
335.6611328125
 10
101.85888671875
 20
337.0732421875
 10
113.15380859375
 20
339.544921875
 10
106.80029296875
 20
340.9560546875
 10
85.27001953125
 20
336.720703125
 10
78.56396484375
 20
333.19140625
 10
86.3291015625
 20
340.9560546875
 10
95.85888671875
 20
347.662109375
 10
104.32958984375
 20
345.8974609375
 10
101.15283203125
 20
349.07421875
 10
79.9755859375
 20
350.1328125
 10
73.26953125
 20
343.4267578125
 10
85.09375
 20
355.2509765625
 10
93.74072265625
 20
363.544921875
 10
102.56494140625
 20
361.0751953125
 10
95.6826171875
 20
367.9580078125
 10
89.8583984375
 20
365.6630859375
 10
82.4462890625
 20
365.6630859375
 10
75.0341796875
 20
365.6630859375
 10
94.7998046875
 20
384.0166015625
 10
106.80029296875
 20
376.9580078125
 10
118.80078125
 20
369.8984375
 10
118.44775390625
 20
344.1318359375
 10
135.74267578125
 20
336.3681640625
 10
120.91845703125
 20
351.1923828125
 10
120.5654296875
 20
376.251953125
 10
122.68310546875
 20
385.076171875
 10
139.978515625
 20
381.8994140625
 10
151.2724609375
 20
362.486328125
 10
159.390625
 20
362.486328125
 10
167.5087890625
 20
362.486328125
 10
170.68505859375
 20
348.3681640625
 10
185.8623046875
 20
352.95703125
 10
194.68603515625
 20
344.1318359375
 10
185.15673828125
 20
330.0146484375
 10
177.03857421875
 20
330.0146484375
 10
202.80419921875
 20
327.8974609375
 10
208.8046875
 20
345.19140625
 10
216.216796875
 20
345.19140625
 10
223.62890625
 20
345.19140625
 10
212.333984375
 20
323.30859375
 10
215.15771484375
 20
316.955078125
 10
217.9814453125
 20
310.6015625
 10
220.41748046875
 20
306.4931640625
 10
226.5703125
 20
308.955078125
 10
231.27978515625
 20
310.837890625
 10
238.142578125
 20
312.0322265625
 10
245.55322265625
 20
312.6376953125
 10
248.775390625
 20
307.7197265625
 10
249.8505859375
 20
302.1103515625
 10
238.8056640625
 20
302.8349609375
 10
210.0986328125
 20
304.71875
 10
206.92236328125
 20
259.185546875
 10
223.9814453125
 20
242.126953125
 10
231.35986328125
 20
234.75
 10
238.169921875
 20
234.6435546875
 10
243.84765625
 20
235.5546875
 10
246.7392578125
 20
233.9169921875
 10
249.25
 20
231.619140625
 10
248.806640625
 20
229.3037109375
 10
246.5146484375
 20
217.3134765625
 10
212.61328125
 20
218.1201171875
 10
202.32666015625
 20
224.6796875
 10
194.10546875
 20
232.634765625
 10
194.876953125
 20
242.1904296875
 10
193.86181640625
 20
244.896484375
 10
192.71923828125
 20
247.9443359375
 10
187.86181640625
 20
248.3671875
 10
189.0087890625
 20
243.779296875
 10
189.91162109375
 20
240.16796875
 10
194.94091796875
 20
230.2880859375
 10
201.68408203125
 20
224.4140625
 10
209.5615234375
 20
215.642578125
 10
234.400390625
 20
209.4208984375
 10
249.16015625
 20
209.4208984375
 10
265.2763671875
 20
209.4208984375
 10
292.482421875
 20
219.0126953125
 10
303.71875
 20
230.25
 10
303.69921875
 20
230.23828125
 10
303.6806640625
 20
230.2275390625
 10
303.66015625
 20
230.21484375
 10
309.916015625
 20
236.1513671875
 10
314.505859375
 20
245.2822265625
 10
315.3662109375
 20
248.720703125
 10
316.5126953125
 20
253.30859375
 10
311.654296875
 20
252.8857421875
 10
310.5126953125
 20
249.837890625
 10
309.462890625
 20
247.0390625
 10
310.3251953125
 20
236.9169921875
 10
301.177734375
 20
228.8125
 10
286.177734375
 20
221.080078125
 10
254.9638671875
 20
216.7958984375
 10
253.6591796875
 20
229.787109375
 10
253.416015625
 20
232.2236328125
 10
253.298828125
 20
234.5869140625
 10
255.1923828125
 20
236.78515625
 10
263.3994140625
 20
236.0380859375
 10
279.66796875
 20
233.5458984375
 10
286.3388671875
 20
247.3046875
 10
293.8662109375
 20
262.833984375
 10
291.27734375
 20
289.4248046875
 10
282.5712890625
 20
298.1298828125
 10
273.8662109375
 20
306.8349609375
 10
261.15625
 20
299.7783203125
 10
257.6298828125
 20
303.306640625
 10
255.1484375
 20
305.7890625
 10
254.7646484375
 20
309.896484375
 10
255.7353515625
 20
313.0986328125
 10
265.5830078125
 20
313.2119140625
 10
275.142578125
 20
312.392578125
 10
280.92578125
 20
310.8359375
 10
293.16015625
 20
307.54296875
 10
292.806640625
 20
317.3076171875
 10
288.9248046875
 20
324.3671875
 10
285.0419921875
 20
331.4267578125
 10
286.9833984375
 20
340.4267578125
 10
289.27734375
 20
342.7216796875
 10
291.572265625
 20
345.015625
 10
309.3955078125
 20
337.7802734375
 10
309.3955078125
 20
332.8388671875
 10
309.3955078125
 20
327.8974609375
 10
326.337890625
 20
320.484375
 10
322.1025390625
 20
330.0146484375
 10
317.8662109375
 20
339.544921875
 10
313.8076171875
 20
348.544921875
 10
317.8662109375
 20
352.603515625
 10
321.92578125
 20
356.6630859375
 10
328.927734375
 20
337.1923828125
 10
333.044921875
 20
341.3095703125
 10
338.6357421875
 20
346.8994140625
 10
333.6337890625
 20
360.25
 10
361.3994140625
 20
369.6630859375
 10
355.986328125
 20
364.2509765625
 10
356.9296875
 20
346.1318359375
 10
360.693359375
 20
342.3671875
 10
358.1591796875
 20
362.1240234375
 10
384.22265625
 20
366.7216796875
 10
384.22265625
 20
379.0751953125
 10
398.3408203125
 20
379.0751953125
 10
406.10546875
 20
374.4873046875
 10
406.10546875
 20
364.95703125
 10
398.3408203125
 20
370.95703125
 10
398.3408203125
 20
365.3095703125
 10
392.693359375
 20
365.3095703125
 10
398.3408203125
 20
359.6630859375
 10
403.6357421875
 20
351.1923828125
 10
403.6357421875
 20
345.19140625
 10
396.9296875
 20
351.8974609375
 10
391.28125
 20
349.07421875
 10
387.046875
 20
349.07421875
 10
394.810546875
 20
344.486328125
 10
403.6357421875
 20
324.720703125
 10
401.517578125
 20
318.0146484375
 10
395.14453125
 20
321.6796875
 10
377.1337890625
 20
328.6357421875
 10
369.720703125
 20
327.3125
 10
377.3095703125
 20
327.0478515625
 10
411.0166015625
 20
292.9580078125
 10
401.83984375
 20
276.0166015625
 10
393.369140625
 20
295.7822265625
 10
380.251953125
 20
299.5458984375
 10
359.662109375
 20
295.72265625
 10
379.427734375
 20
289.369140625
 10
385.0751953125
 20
278.78125
 10
385.9873046875
 20
267.5419921875
 10
376.1044921875
 20
274.248046875
 10
359.046875
 20
265.8935546875
 10
354.8115234375
 20
258.12890625
 10
369.634765625
 20
263.7763671875
 10
377.1640625
 20
250.833984375
 10
377.1640625
 20
240.4814453125
 10
368.4580078125
 20
251.3056640625
 10
346.578125
 20
231.5400390625
 10
343.044921875
 20
225.892578125
 10
363.283203125
 20
234.8330078125
 10
368.9296875
 20
214.3623046875
 10
366.8125
 20
208.951171875
 10
361.986328125
 20
213.7744140625
 10
340.5751953125
 20
207.1865234375
 10
335.751953125
 20
202.3623046875
 10
351.98828125
 20
208.0087890625
 10
359.9873046875
 20
196.2451171875
 10
355.986328125
 20
189.4208984375
 10
351.98828125
 20
182.595703125
 10
332.1201171875
 20
179.8681640625
 10
332.9287109375
 20
172.712890625
 10
336.66796875
 20
139.61328125
 10
334.6318359375
 20
140.4775390625
 10
322.57421875
 20
130.1240234375
 10
340.927734375
 20
132.478515625
 10
340.486328125
 20
155.5087890625
 10
345.57421875
 20
160.595703125
 10
350.3359375
 20
165.3583984375
 10
357.5693359375
 20
154.10546875
 10
358.2197265625
 20
146.0322265625
 10
359.1904296875
 20
157.435546875
 10
356.2021484375
 20
154.25
 10
354.927734375
 20
163.94921875
 10
353.515625
 20
174.7138671875
 10
376.1044921875
 20
164.8310546875
 10
383.3408203125
 20
154.06640625
 10
388.634765625
 20
163.7724609375
 10
372.22265625
 20
168.7138671875
 10
373.1044921875
 20
179.6552734375
 10
373.9873046875
 20
190.59765625
 10
408.046875
 20
178.2431640625
 10
411.9296875
 20
161.125
 10
418.1064453125
 20
170.125
 10
403.10546875
 20
185.83203125
 10
400.2822265625
 20
192.0087890625
 10
397.458984375
 20
198.185546875
 10
430.1064453125
 20
197.65625
 10
441.404296875
 20
186.3603515625
 10
439.9921875
 20
201.654296875
 10
425.16796875
 20
210.126953125
 10
418.814453125
 20
219.3037109375
 10
412.4619140625
 20
228.4794921875
 10
435.7578125
 20
233.65625
 10
453.404296875
 20
213.890625
 10
459.2861328125
 20
225.890625
 10
441.1669921875
 20
240.4814453125
 10
439.755859375
 20
254.5986328125
 10
438.34375
 20
268.7177734375
 10
463.5224609375
 20
246.36328125
 10
467.5234375
 20
225.6572265625
 10
477.876953125
 20
239.7744140625
 10
465.755859375
 20
257.8349609375
 10
469.1083984375
 20
270.01171875
 10
472.4619140625
 20
282.1884765625
 10
485.521484375
 20
275.8359375
 10
483.5791015625
 20
251.8349609375
 10
495.2265625
 20
270.541015625
 10
478.28515625
 20
293.8359375
 10
476.34375
 20
302.4833984375
 10
474.4033203125
 20
311.1318359375
 10
488.697265625
 20
312.7197265625
 10
492.580078125
 20
293.130859375
 97
        0
 92
        1
 93
        1
 72
     4
 94
        3
 73
     0
 74
     1
 95
       35
 96
       31
 40
0.0
 40
0.0
 40
0.0
 40
0.0
 40
1.0
 40
1.0
 40
1.0
 40
2.0
 40
2.0
 40
2.0
 40
3.0
 40
3.0
 40
3.0
 40
4.0
 40
4.0
 40
4.0
 40
5.0
 40
5.0
 40
5.0
 40
6.0
 40
6.0
 40
6.0
 40
7.0
 40
7.0
 40
7.0
 40
8.0
 40
8.0
 40
8.0
 40
9.0
 40
9.0
 40
9.0
 40
10.0
 40
10.0
 40
10.0
 40
10.0
 10
130.88232421875
 20
524.40625
 10
127.16455078125
 20
535.8671875
 10
120.30078125
 20
534.6044921875
 10
110.3349609375
 20
540.94677734375
 10
114.337890625
 20
530.9150390625
 10
111.32373046875
 20
525.09130859375
 10
111.78466796875
 20
517.69287109375
 10
83.07568359375
 20
541.73779296875
 10
91.728515625
 20
604.62109375
 10
97.759765625
 20
628.28955078125
 10
98.7919921875
 20
611.72802734375
 10
107.85498046875
 20
595.78955078125
 10
123.05615234375
 20
589.736328125
 10
116.9189453125
 20
594.87548828125
 10
121.76025390625
 20
610.5244140625
 10
117.47216796875
 20
625.13623046875
 10
131.880859375
 20
604.72021484375
 10
189.103515625
 20
583.84326171875
 10
189.14306640625
 20
553.0849609375
 10
188.41845703125
 20
564.71337890625
 10
175.283203125
 20
564.69384765625
 10
159.11376953125
 20
571.2236328125
 10
164.45947265625
 20
566.7470703125
 10
163.095703125
 20
561.54345703125
 10
160.47509765625
 20
543.36767578125
 10
155.173828125
 20
556.1552734375
 10
148.74951171875
 20
556.861328125
 10
129.12548828125
 20
558.60400390625
 10
137.24267578125
 20
551.8056640625
 10
136.07568359375
 20
543.4326171875
 10
130.88232421875
 20
524.40625
 97
        0
 92
        1
 93
        1
 72
     4
 94
        3
 73
     0
 74
     1
 95
       53
 96
       49
 40
0.0
 40
0.0
 40
0.0
 40
0.0
 40
1.0
 40
1.0
 40
1.0
 40
2.0
 40
2.0
 40
2.0
 40
3.0
 40
3.0
 40
3.0
 40
4.0
 40
4.0
 40
4.0
 40
5.0
 40
5.0
 40
5.0
 40
6.0
 40
6.0
 40
6.0
 40
7.0
 40
7.0
 40
7.0
 40
8.0
 40
8.0
 40
8.0
 40
9.0
 40
9.0
 40
9.0
 40
10.0
 40
10.0
 40
10.0
 40
11.0
 40
11.0
 40
11.0
 40
12.0
 40
12.0
 40
12.0
 40
13.0
 40
13.0
 40
13.0
 40
14.0
 40
14.0
 40
14.0
 40
15.0
 40
15.0
 40
15.0
 40
16.0
 40
16.0
 40
16.0
 40
16.0
 10
213.8642578125
 20
394.958984375
 10
208.5703125
 20
385.78125
 10
186.1572265625
 20
388.076171875
 10
183.51025390625
 20
390.72265625
 10
180.86328125
 20
393.3701171875
 10
182.45166015625
 20
397.4287109375
 10
176.80419921875
 20
397.4287109375
 10
171.15673828125
 20
397.4287109375
 10
162.15625
 20
392.6640625
 10
157.3916015625
 20
397.4287109375
 10
152.62646484375
 20
402.19384765625
 10
152.27392578125
 20
415.95947265625
 10
147.15576171875
 20
421.0771484375
 10
142.0380859375
 20
426.19482421875
 10
155.4501953125
 20
425.48876953125
 10
158.45068359375
 20
428.4892578125
 10
158.833984375
 20
428.8720703125
 10
159.11083984375
 20
429.38525390625
 10
159.28662109375
 20
429.98486328125
 10
165.8837890625
 20
423.494140625
 10
169.54443359375
 20
404.17236328125
 10
185.6279296875
 20
406.13427734375
 10
192.00341796875
 20
406.912109375
 10
198.8046875
 20
406.13427734375
 10
200.21630859375
 20
400.2509765625
 10
205.86376953125
 20
408.95654296875
 10
196.216796875
 20
419.3125
 10
193.62841796875
 20
421.89990234375
 10
191.041015625
 20
424.48828125
 10
192.216796875
 20
433.19482421875
 10
183.74609375
 20
437.43017578125
 10
176.5703125
 20
441.017578125
 10
164.83740234375
 20
434.13916015625
 10
159.12841796875
 20
434.240234375
 10
158.01611328125
 20
438.1044921875
 10
154.48486328125
 20
442.25439453125
 10
148.5673828125
 20
442.25439453125
 10
157.3916015625
 20
451.078125
 10
173.451171875
 20
458.6669921875
 10
181.03955078125
 20
451.078125
 10
188.6279296875
 20
443.4892578125
 10
190.92236328125
 20
437.84228515625
 10
194.275390625
 20
437.84228515625
 10
197.62841796875
 20
437.84228515625
 10
216.50341796875
 20
441.59814453125
 10
213.8642578125
 20
430.25390625
 10
210.3349609375
 20
415.0771484375
 10
219.15869140625
 20
404.134765625
 10
213.8642578125
 20
394.958984375
 97
        0
 92
        1
 93
        1
 72
     4
 94
        3
 73
     0
 74
     1
 95
       23
 96
       19
 40
0.0
 40
0.0
 40
0.0
 40
0.0
 40
1.0
 40
1.0
 40
1.0
 40
2.0
 40
2.0
 40
2.0
 40
3.0
 40
3.0
 40
3.0
 40
4.0
 40
4.0
 40
4.0
 40
5.0
 40
5.0
 40
5.0
 40
6.0
 40
6.0
 40
6.0
 40
6.0
 10
179.0390625
 20
428.3720703125
 10
180.80224609375
 20
426.6083984375
 10
184.38330078125
 20
429.67041015625
 10
185.95751953125
 20
431.86572265625
 10
189.71435546875
 20
427.83984375
 10
192.5849609375
 20
421.08251953125
 10
184.56884765625
 20
418.2529296875
 10
174.5693359375
 20
414.7236328125
 10
169.8623046875
 20
420.60693359375
 10
167.97998046875
 20
424.25341796875
 10
166.0986328125
 20
427.900390625
 10
165.626953125
 20
431.4296875
 10
165.626953125
 20
431.4296875
 10
167.8134765625
 20
432.47216796875
 10
176.35302734375
 20
436.08349609375
 10
181.38818359375
 20
434.9443359375
 10
179.59765625
 20
433.08447265625
 10
177.21630859375
 20
430.1943359375
 10
179.0390625
 20
428.3720703125
 97
        0
 92
        1
 93
        1
 72
     4
 94
        3
 73
     0
 74
     1
 95
       29
 96
       25
 40
0.0
 40
0.0
 40
0.0
 40
0.0
 40
1.0
 40
1.0
 40
1.0
 40
2.0
 40
2.0
 40
2.0
 40
3.0
 40
3.0
 40
3.0
 40
4.0
 40
4.0
 40
4.0
 40
5.0
 40
5.0
 40
5.0
 40
6.0
 40
6.0
 40
6.0
 40
7.0
 40
7.0
 40
7.0
 40
8.0
 40
8.0
 40
8.0
 40
8.0
 10
248.2177734375
 20
456.7255859375
 10
246.6591796875
 20
446.048828125
 10
234.52587890625
 20
425.62158203125
 10
226.5703125
 20
417.66455078125
 10
235.408203125
 20
437.53369140625
 10
230.3349609375
 20
468.02001953125
 10
220.4521484375
 20
489.66748046875
 10
230.57080078125
 20
479.548828125
 10
236.68798828125
 20
469.66650390625
 10
236.68798828125
 20
458.84326171875
 10
236.68798828125
 20
464.49072265625
 10
242.33544921875
 20
477.4326171875
 10
248.9248046875
 20
481.66845703125
 10
245.86474609375
 20
476.2265625
 10
252.669921875
 20
463.5224609375
 10
252.8076171875
 20
462.96142578125
 10
255.5126953125
 20
467.78564453125
 10
258.8076171875
 20
473.244140625
 10
266.8076171875
 20
476.84375
 10
259.0419921875
 20
466.01953125
 10
264.689453125
 20
443.548828125
 10
270.923828125
 20
427.666015625
 10
263.51171875
 20
431.314453125
 10
252.923828125
 20
445.6669921875
 10
248.2177734375
 20
456.7255859375
 97
        0
 92
        1
 93
        1
 72
     4
 94
        3
 73
     0
 74
     1
 95
       53
 96
       49
 40
0.0
 40
0.0
 40
0.0
 40
0.0
 40
1.0
 40
1.0
 40
1.0
 40
2.0
 40
2.0
 40
2.0
 40
3.0
 40
3.0
 40
3.0
 40
4.0
 40
4.0
 40
4.0
 40
5.0
 40
5.0
 40
5.0
 40
6.0
 40
6.0
 40
6.0
 40
7.0
 40
7.0
 40
7.0
 40
8.0
 40
8.0
 40
8.0
 40
9.0
 40
9.0
 40
9.0
 40
10.0
 40
10.0
 40
10.0
 40
11.0
 40
11.0
 40
11.0
 40
12.0
 40
12.0
 40
12.0
 40
13.0
 40
13.0
 40
13.0
 40
14.0
 40
14.0
 40
14.0
 40
15.0
 40
15.0
 40
15.0
 40
16.0
 40
16.0
 40
16.0
 40
16.0
 10
349.2802734375
 20
421.0771484375
 10
344.162109375
 20
415.95947265625
 10
343.8095703125
 20
402.19384765625
 10
339.0439453125
 20
397.4287109375
 10
334.279296875
 20
392.6640625
 10
325.279296875
 20
397.4287109375
 10
319.630859375
 20
397.4287109375
 10
313.984375
 20
397.4287109375
 10
315.5732421875
 20
393.3701171875
 10
312.9248046875
 20
390.72265625
 10
310.2783203125
 20
388.076171875
 10
287.865234375
 20
385.78125
 10
282.5712890625
 20
394.958984375
 10
277.27734375
 20
404.134765625
 10
286.1005859375
 20
415.0771484375
 10
282.5712890625
 20
430.25390625
 10
279.9326171875
 20
441.59814453125
 10
298.8076171875
 20
437.84228515625
 10
302.16015625
 20
437.84228515625
 10
305.513671875
 20
437.84228515625
 10
307.8076171875
 20
443.4892578125
 10
315.396484375
 20
451.078125
 10
322.984375
 20
458.6669921875
 10
339.0439453125
 20
451.078125
 10
347.8681640625
 20
442.25439453125
 10
341.951171875
 20
442.25439453125
 10
338.421875
 20
438.1044921875
 10
337.306640625
 20
434.240234375
 10
331.599609375
 20
434.13916015625
 10
319.8662109375
 20
441.017578125
 10
312.69140625
 20
437.43017578125
 10
304.220703125
 20
433.19482421875
 10
305.39453125
 20
424.48828125
 10
302.80859375
 20
421.89990234375
 10
300.2197265625
 20
419.3125
 10
290.5732421875
 20
408.95654296875
 10
296.2216796875
 20
400.2509765625
 10
297.6328125
 20
406.13427734375
 10
304.43359375
 20
406.912109375
 10
310.8076171875
 20
406.13427734375
 10
326.8916015625
 20
404.17236328125
 10
330.5546875
 20
423.494140625
 10
337.1494140625
 20
429.98486328125
 10
337.3271484375
 20
429.38525390625
 10
337.6025390625
 20
428.8720703125
 10
337.9853515625
 20
428.4892578125
 10
340.9853515625
 20
425.48876953125
 10
354.3974609375
 20
426.19482421875
 10
349.2802734375
 20
421.0771484375
 97
        0
 92
        1
 93
        1
 72
     4
 94
        3
 73
     0
 74
     1
 95
       23
 96
       19
 40
0.0
 40
0.0
 40
0.0
 40
0.0
 40
1.0
 40
1.0
 40
1.0
 40
2.0
 40
2.0
 40
2.0
 40
3.0
 40
3.0
 40
3.0
 40
4.0
 40
4.0
 40
4.0
 40
5.0
 40
5.0
 40
5.0
 40
6.0
 40
6.0
 40
6.0
 40
6.0
 10
315.048828125
 20
434.9443359375
 10
320.083984375
 20
436.08349609375
 10
328.6240234375
 20
432.47216796875
 10
330.810546875
 20
431.4296875
 10
330.810546875
 20
431.4296875
 10
330.3388671875
 20
427.900390625
 10
328.4560546875
 20
424.25341796875
 10
326.5751953125
 20
420.60693359375
 10
321.8681640625
 20
414.7236328125
 10
311.8671875
 20
418.2529296875
 10
303.8505859375
 20
421.08251953125
 10
306.720703125
 20
427.83984375
 10
310.48046875
 20
431.86572265625
 10
312.0546875
 20
429.67041015625
 10
315.6328125
 20
426.6083984375
 10
317.3984375
 20
428.3720703125
 10
319.220703125
 20
430.1943359375
 10
316.8388671875
 20
433.08447265625
 10
315.048828125
 20
434.9443359375
 97
        0
 92
        1
 93
        1
 72
     4
 94
        3
 73
     0
 74
     1
 95
       35
 96
       31
 40
0.0
 40
0.0
 40
0.0
 40
0.0
 40
1.0
 40
1.0
 40
1.0
 40
2.0
 40
2.0
 40
2.0
 40
3.0
 40
3.0
 40
3.0
 40
4.0
 40
4.0
 40
4.0
 40
5.0
 40
5.0
 40
5.0
 40
6.0
 40
6.0
 40
6.0
 40
7.0
 40
7.0
 40
7.0
 40
8.0
 40
8.0
 40
8.0
 40
9.0
 40
9.0
 40
9.0
 40
10.0
 40
10.0
 40
10.0
 40
10.0
 10
372.5751953125
 20
523.43408203125
 10
372.5751953125
 20
530.84619140625
 10
369.3984375
 20
536.49365234375
 10
372.5751953125
 20
546.7294921875
 10
363.5751953125
 20
539.8466796875
 10
357.044921875
 20
540.72900390625
 10
354.2216796875
 20
529.08154296875
 10
348.2216796875
 20
547.7880859375
 10
346.6328125
 20
556.08251953125
 10
353.8681640625
 20
563.318359375
 10
335.5146484375
 20
560.494140625
 10
329.5146484375
 20
559.435546875
 10
325.279296875
 20
546.3759765625
 10
321.75
 20
564.376953125
 10
320.1611328125
 20
569.49462890625
 10
324.9267578125
 20
574.259765625
 10
310.1025390625
 20
566.84765625
 10
297.748046875
 20
566.1416015625
 10
297.748046875
 20
554.494140625
 10
295.9833984375
 20
585.201171875
 10
348.57421875
 20
609.2021484375
 10
360.927734375
 20
630.3798828125
 10
357.7509765625
 20
615.5556640625
 10
363.2216796875
 20
600.2021484375
 10
357.7509765625
 20
594.73095703125
 10
371.693359375
 20
601.61328125
 10
379.28125
 20
618.0263671875
 10
379.28125
 20
634.615234375
 10
386.33984375
 20
611.31982421875
 10
398.1640625
 20
549.0234375
 10
372.5751953125
 20
523.43408203125
 97
        0
 75
     2
 76
     1
 98
        0
  0
ENDSEC
  0
SECTION
  2
OBJECTS
  0
DICTIONARY
  5
C
330
0
100
AcDbDictionary
281
     1
  3
ACAD_GROUP
350
D
  3
ACAD_LAYOUT
350
1A
  3
ACAD_MLINESTYLE
350
17
  3
ACAD_PLOTSETTINGS
350
19
  3
ACAD_PLOTSTYLENAME
350
E
  3
ACAD_TABLESTYLE
350
4B
  3
ACAD_VISUALSTYLE
350
2A
  0
DICTIONARY
  5
D
102
{ACAD_REACTORS
330
C
102
}
330
C
100
AcDbDictionary
281
     1
  0
DICTIONARY
  5
1A
102
{ACAD_REACTORS
330
C
102
}
330
C
100
AcDbDictionary
281
     1
  3
Layout1
350
1E
  3
Layout2
350
26
  3
Model
350
22
  0
DICTIONARY
  5
17
102
{ACAD_REACTORS
330
C
102
}
330
C
100
AcDbDictionary
281
     1
  3
Standard
350
18
  0
DICTIONARY
  5
19
102
{ACAD_REACTORS
330
C
102
}
330
C
100
AcDbDictionary
281
     1
  0
ACDBDICTIONARYWDFLT
  5
E
102
{ACAD_REACTORS
330
C
102
}
330
C
100
AcDbDictionary
281
     1
  3
Normal
350
F
100
AcDbDictionaryWithDefault
340
F
  0
DICTIONARY
  5
4B
102
{ACAD_REACTORS
330
C
102
}
330
C
100
AcDbDictionary
281
     1
  0
DICTIONARY
  5
2A
102
{ACAD_REACTORS
330
C
102
}
330
C
100
AcDbDictionary
281
     1
  3
2dWireframe
350
2F
  3
3D Hidden
350
31
  3
3dWireframe
350
30
  3
Basic
350
32
  3
Brighten
350
36
  3
ColorChange
350
3A
  3
Conceptual
350
34
  3
Dim
350
35
  3
Facepattern
350
39
  3
Flat
350
2B
  3
FlatWithEdges
350
2C
  3
Gouraud
350
2D
  3
GouraudWithEdges
350
2E
  3
Linepattern
350
38
  3
Realistic
350
33
  3
Thicken
350
37
  0
LAYOUT
  5
1E
102
{ACAD_REACTORS
330
1A
102
}
330
1A
100
AcDbPlotSettings
  1

  2
none_device
  4

  6

 40
0.0
 41
0.0
 42
0.0
 43
0.0
 44
0.0
 45
0.0
 46
0.0
 47
0.0
 48
0.0
 49
0.0
140
0.0
141
0.0
142
1.0
143
1.0
 70
   688
 72
     0
 73
     0
 74
     5
  7

 75
    16
147
1.0
148
0.0
149
0.0
100
AcDbLayout
  1
Layout1
 70
     1
 71
     1
 10
0.0
 20
0.0
 11
12.0
 21
9.0
 12
0.0
 22
0.0
 32
0.0
 14
1.000000000000000E+20
 24
1.000000000000000E+20
 34
1.000000000000000E+20
 15
-1.000000000000000E+20
 25
-1.000000000000000E+20
 35
-1.000000000000000E+20
146
0.0
 13
0.0
 23
0.0
 33
0.0
 16
1.0
 26
0.0
 36
0.0
 17
0.0
 27
1.0
 37
0.0
 76
     0
330
1B
  0
LAYOUT
  5
26
102
{ACAD_REACTORS
330
1A
102
}
330
1A
100
AcDbPlotSettings
  1

  2
none_device
  4

  6

 40
0.0
 41
0.0
 42
0.0
 43
0.0
 44
0.0
 45
0.0
 46
0.0
 47
0.0
 48
0.0
 49
0.0
140
0.0
141
0.0
142
1.0
143
1.0
 70
   688
 72
     0
 73
     0
 74
     5
  7

 75
    16
147
1.0
148
0.0
149
0.0
100
AcDbLayout
  1
Layout2
 70
     1
 71
     2
 10
0.0
 20
0.0
 11
0.0
 21
0.0
 12
0.0
 22
0.0
 32
0.0
 14
0.0
 24
0.0
 34
0.0
 15
0.0
 25
0.0
 35
0.0
146
0.0
 13
0.0
 23
0.0
 33
0.0
 16
1.0
 26
0.0
 36
0.0
 17
0.0
 27
1.0
 37
0.0
 76
     0
330
23
  0
LAYOUT
  5
22
102
{ACAD_REACTORS
330
1A
102
}
330
1A
100
AcDbPlotSettings
  1

  2
none_device
  4

  6

 40
0.0
 41
0.0
 42
0.0
 43
0.0
 44
0.0
 45
0.0
 46
0.0
 47
0.0
 48
0.0
 49
0.0
140
0.0
141
0.0
142
1.0
143
1.0
 70
  1712
 72
     0
 73
     0
 74
     0
  7

 75
     0
147
1.0
148
0.0
149
0.0
100
AcDbLayout
  1
Model
 70
     1
 71
     0
 10
0.0
 20
0.0
 11
12.0
 21
9.0
 12
0.0
 22
0.0
 32
0.0
 14
1.000000000000000E+20
 24
1.000000000000000E+20
 34
1.000000000000000E+20
 15
-1.000000000000000E+20
 25
-1.000000000000000E+20
 35
-1.000000000000000E+20
146
0.0
 13
0.0
 23
0.0
 33
0.0
 16
1.0
 26
0.0
 36
0.0
 17
0.0
 27
1.0
 37
0.0
 76
     0
330
1F
331
29
  0
MLINESTYLE
  5
18
102
{ACAD_REACTORS
330
17
102
}
330
17
100
AcDbMlineStyle
  2
Standard
 70
     0
  3

 62
   256
 51
90.0
 52
90.0
 71
     2
 49
0.5
 62
   256
  6
BYLAYER
 49
-0.5
 62
   256
  6
BYLAYER
  0
ACDBPLACEHOLDER
  5
F
102
{ACAD_REACTORS
330
E
102
}
330
E
  0
VISUALSTYLE
  5
2F
102
{ACAD_REACTORS
330
2A
102
}
330
2A
100
AcDbVisualStyle
  2
2dWireframe
 70
     4
 71
     0
 72
     2
 73
     0
 90
        0
 40
-0.6
 41
-30.0
 62
     5
 63
     7
 74
     1
 91
        4
 64
     7
 65
   257
 75
     1
175
     1
 42
1.0
 92
        0
 66
   257
 43
1.0
 76
     1
 77
     6
 78
     2
 67
     7
 79
     5
170
     0
171
     0
290
     0
174
     0
 93
        1
 44
0.0
173
     0
291
     0
 45
0.0
1001
ACAD
1000
AcDbSavedByObjectVersion
1070
     0
  0
VISUALSTYLE
  5
31
102
{ACAD_REACTORS
330
2A
102
}
330
2A
100
AcDbVisualStyle
  2
3D Hidden
 70
     6
 71
     1
 72
     2
 73
     2
 90
        0
 40
-0.6
 41
-30.0
 62
     5
 63
     7
 74
     2
 91
        2
 64
     7
 65
   257
 75
     2
175
     1
 42
40.0
 92
        0
 66
   257
 43
1.0
 76
     1
 77
     6
 78
     2
 67
     7
 79
     3
170
     0
171
     0
290
     0
174
     0
 93
        1
 44
0.0
173
     0
291
     0
 45
0.0
1001
ACAD
1000
AcDbSavedByObjectVersion
1070
     0
  0
VISUALSTYLE
  5
30
102
{ACAD_REACTORS
330
2A
102
}
330
2A
100
AcDbVisualStyle
  2
3dWireframe
 70
     5
 71
     0
 72
     2
 73
     0
 90
        0
 40
-0.6
 41
-30.0
 62
     5
 63
     7
 74
     1
 91
        4
 64
     7
 65
   257
 75
     1
175
     1
 42
1.0
 92
        0
 66
   257
 43
1.0
 76
     1
 77
     6
 78
     2
 67
     7
 79
     5
170
     0
171
     0
290
     0
174
     0
 93
        1
 44
0.0
173
     0
291
     0
 45
0.0
1001
ACAD
1000
AcDbSavedByObjectVersion
1070
     0
  0
VISUALSTYLE
  5
32
102
{ACAD_REACTORS
330
2A
102
}
330
2A
100
AcDbVisualStyle
  2
Basic
 70
     7
 71
     1
 72
     0
 73
     1
 90
        0
 40
-0.6
 41
-30.0
 62
     5
 63
     7
 74
     0
 91
        4
 64
     7
 65
   257
 75
     1
175
     1
 42
1.0
 92
        8
 66
     7
 43
1.0
 76
     1
 77
     6
 78
     2
 67
     7
 79
     5
170
     0
171
     0
290
     0
174
     0
 93
        1
 44
0.0
173
     0
291
     1
 45
0.0
1001
ACAD
1000
AcDbSavedByObjectVersion
1070
     0
  0
VISUALSTYLE
  5
36
102
{ACAD_REACTORS
330
2A
102
}
330
2A
100
AcDbVisualStyle
  2
Brighten
 70
    12
 71
     2
 72
     2
 73
     0
 90
        0
 40
-0.6
 41
-30.0
 62
     5
 63
     7
 74
     1
 91
        4
 64
     7
 65
   257
 75
     1
175
     1
 42
1.0
 92
        8
 66
     7
 43
1.0
 76
     1
 77
     6
 78
     2
 67
     7
 79
     5
170
     0
171
     0
290
     0
174
     0
 93
        1
 44
50.0
173
     0
291
     1
 45
0.0
1001
ACAD
1000
AcDbSavedByObjectVersion
1070
     0
  0
VISUALSTYLE
  5
3A
102
{ACAD_REACTORS
330
2A
102
}
330
2A
100
AcDbVisualStyle
  2
ColorChange
 70
    16
 71
     2
 72
     2
 73
     3
 90
        0
 40
-0.6
 41
-30.0
 62
     5
 63
     8
 74
     1
 91
        4
 64
     7
 65
   257
 75
     1
175
     1
 42
1.0
 92
        8
 66
     8
 43
1.0
 76
     1
 77
     6
 78
     2
 67
     7
 79
     5
170
     0
171
     0
290
     0
174
     0
 93
        1
 44
0.0
173
     0
291
     1
 45
0.0
1001
ACAD
1000
AcDbSavedByObjectVersion
1070
     0
  0
VISUALSTYLE
  5
34
102
{ACAD_REACTORS
330
2A
102
}
330
2A
100
AcDbVisualStyle
  2
Conceptual
 70
     9
 71
     3
 72
     2
 73
     0
 90
        0
 40
-0.6
 41
-30.0
 62
     5
 63
     7
 74
     2
 91
        2
 64
     7
 65
   257
 75
     1
175
     1
 42
40.0
 92
        8
 66
     7
 43
1.0
 76
     1
 77
     6
 78
     2
 67
     7
 79
     3
170
     0
171
     0
290
     0
174
     0
 93
        1
 44
0.0
173
     0
291
     0
 45
0.0
1001
ACAD
1000
AcDbSavedByObjectVersion
1070
     0
  0
VISUALSTYLE
  5
35
102
{ACAD_REACTORS
330
2A
102
}
330
2A
100
AcDbVisualStyle
  2
Dim
 70
    11
 71
     2
 72
     2
 73
     0
 90
        0
 40
-0.6
 41
-30.0
 62
     5
 63
     7
 74
     1
 91
        4
 64
     7
 65
   257
 75
     1
175
     1
 42
1.0
 92
        8
 66
     7
 43
1.0
 76
     1
 77
     6
 78
     2
 67
     7
 79
     5
170
     0
171
     0
290
     0
174
     0
 93
        1
 44
-50.0
173
     0
291
     1
 45
0.0
1001
ACAD
1000
AcDbSavedByObjectVersion
1070
     0
  0
VISUALSTYLE
  5
39
102
{ACAD_REACTORS
330
2A
102
}
330
2A
100
AcDbVisualStyle
  2
Facepattern
 70
    15
 71
     2
 72
     2
 73
     0
 90
        0
 40
-0.6
 41
-30.0
 62
     5
 63
     7
 74
     1
 91
        4
 64
     7
 65
   257
 75
     1
175
     1
 42
1.0
 92
        8
 66
     7
 43
1.0
 76
     1
 77
     6
 78
     2
 67
     7
 79
     5
170
     0
171
     0
290
     0
174
     0
 93
        1
 44
0.0
173
     0
291
     1
 45
0.0
1001
ACAD
1000
AcDbSavedByObjectVersion
1070
     0
  0
VISUALSTYLE
  5
2B
102
{ACAD_REACTORS
330
2A
102
}
330
2A
100
AcDbVisualStyle
  2
Flat
 70
     0
 71
     2
 72
     1
 73
     1
 90
        2
 40
-0.6
 41
30.0
 62
     5
 63
     7
 74
     0
 91
        4
 64
     7
 65
   257
 75
     1
175
     1
 42
1.0
 92
        8
 66
     7
 43
1.0
 76
     1
 77
     6
 78
     2
 67
     7
 79
     5
170
     0
171
     0
290
     0
174
     0
 93
       13
 44
0.0
173
     0
291
     1
 45
0.0
1001
ACAD
1000
AcDbSavedByObjectVersion
1070
     0
  0
VISUALSTYLE
  5
2C
102
{ACAD_REACTORS
330
2A
102
}
330
2A
100
AcDbVisualStyle
  2
FlatWithEdges
 70
     1
 71
     2
 72
     1
 73
     1
 90
        2
 40
-0.6
 41
30.0
 62
     5
 63
     7
 74
     1
 91
        4
 64
     7
 65
   257
 75
     1
175
     1
 42
1.0
 92
        0
 66
   257
 43
1.0
 76
     1
 77
     6
 78
     2
 67
     7
 79
     5
170
     0
171
     0
290
     0
174
     0
 93
       13
 44
0.0
173
     0
291
     1
 45
0.0
1001
ACAD
1000
AcDbSavedByObjectVersion
1070
     0
  0
VISUALSTYLE
  5
2D
102
{ACAD_REACTORS
330
2A
102
}
330
2A
100
AcDbVisualStyle
  2
Gouraud
 70
     2
 71
     2
 72
     2
 73
     1
 90
        2
 40
-0.6
 41
30.0
 62
     5
 63
     7
 74
     0
 91
        4
 64
     7
 65
   257
 75
     1
175
     1
 42
1.0
 92
        0
 66
     7
 43
1.0
 76
     1
 77
     6
 78
     2
 67
     7
 79
     5
170
     0
171
     0
290
     0
174
     0
 93
       13
 44
0.0
173
     0
291
     1
 45
0.0
1001
ACAD
1000
AcDbSavedByObjectVersion
1070
     0
  0
VISUALSTYLE
  5
2E
102
{ACAD_REACTORS
330
2A
102
}
330
2A
100
AcDbVisualStyle
  2
GouraudWithEdges
 70
     3
 71
     2
 72
     2
 73
     1
 90
        2
 40
-0.6
 41
30.0
 62
     5
 63
     7
 74
     1
 91
        4
 64
     7
 65
   257
 75
     1
175
     1
 42
1.0
 92
        0
 66
   257
 43
1.0
 76
     1
 77
     6
 78
     2
 67
     7
 79
     5
170
     0
171
     0
290
     0
174
     0
 93
       13
 44
0.0
173
     0
291
     1
 45
0.0
1001
ACAD
1000
AcDbSavedByObjectVersion
1070
     0
  0
VISUALSTYLE
  5
38
102
{ACAD_REACTORS
330
2A
102
}
330
2A
100
AcDbVisualStyle
  2
Linepattern
 70
    14
 71
     2
 72
     2
 73
     0
 90
        0
 40
-0.6
 41
-30.0
 62
     5
 63
     7
 74
     1
 91
        4
 64
     7
 65
   257
 75
     7
175
     7
 42
1.0
 92
        8
 66
     7
 43
1.0
 76
     1
 77
     6
 78
     2
 67
     7
 79
     5
170
     0
171
     0
290
     0
174
     0
 93
        1
 44
0.0
173
     0
291
     1
 45
0.0
1001
ACAD
1000
AcDbSavedByObjectVersion
1070
     0
  0
VISUALSTYLE
  5
33
102
{ACAD_REACTORS
330
2A
102
}
330
2A
100
AcDbVisualStyle
  2
Realistic
 70
     8
 71
     2
 72
     2
 73
     0
 90
        0
 40
-0.6
 41
-30.0
 62
     5
 63
     7
 74
     1
 91
        0
 64
     7
 65
   257
 75
     1
175
     1
 42
1.0
 92
        8
 66
     8
 43
1.0
 76
     1
 77
     6
 78
     2
 67
     7
 79
     5
170
     0
171
     0
290
     0
174
     0
 93
       13
 44
0.0
173
     0
291
     0
 45
0.0
1001
ACAD
1000
AcDbSavedByObjectVersion
1070
     0
  0
VISUALSTYLE
  5
37
102
{ACAD_REACTORS
330
2A
102
}
330
2A
100
AcDbVisualStyle
  2
Thicken
 70
    13
 71
     2
 72
     2
 73
     0
 90
        0
 40
-0.6
 41
-30.0
 62
     5
 63
     7
 74
     1
 91
        4
 64
     7
 65
   257
 75
     1
175
     1
 42
1.0
 92
       12
 66
     7
 43
1.0
 76
     1
 77
     6
 78
     2
 67
     7
 79
     5
170
     0
171
     0
290
     0
174
     0
 93
        1
 44
0.0
173
     0
291
     1
 45
0.0
1001
ACAD
1000
AcDbSavedByObjectVersion
1070
     0
  0
ENDSEC
  0
EOF
