  0
SECTION
  2
HEADER
  9
$ACADVER
  1
AC1018
  9
$ACADMAINTVER
 70
     0
  9
$DWGCODEPAGE
  3
ANSI_1251
  9
$INSBASE
 10
0.0
 20
0.0
 30
0.0
  9
$EXTMIN
 10
-48.0
 20
-81.06925800729266
 30
0.0
  9
$EXTMAX
 10
151.445751264072
 20
73.22385771335362
 30
8.436838723077761
  9
$LIMMIN
 10
0.0
 20
0.0
  9
$LIMMAX
 10
12.0
 20
9.0
  9
$ORTHOMODE
 70
     0
  9
$REGENMODE
 70
     1
  9
$FILLMODE
 70
     1
  9
$QTEXTMODE
 70
     0
  9
$MIRRTEXT
 70
     1
  9
$LTSCALE
 40
1.0
  9
$ATTMODE
 70
     1
  9
$TEXTSIZE
 40
0.2
  9
$TRACEWID
 40
0.05
  9
$TEXTSTYLE
  7
Standard
  9
$CLAYER
  8
Default
  9
$CELTYPE
  6
ByLayer
  9
$CECOLOR
 62
   256
  9
$CELTSCALE
 40
1.0
  9
$DISPSILH
 70
     0
  9
$DIMSCALE
 40
1.0
  9
$DIMASZ
 40
0.18
  9
$DIMEXO
 40
0.0625
  9
$DIMDLI
 40
0.38
  9
$DIMRND
 40
0.0
  9
$DIMDLE
 40
0.0
  9
$DIMEXE
 40
0.18
  9
$DIMTP
 40
0.0
  9
$DIMTM
 40
0.0
  9
$DIMTXT
 40
0.18
  9
$DIMCEN
 40
0.09
  9
$DIMTSZ
 40
0.0
  9
$DIMTOL
 70
     0
  9
$DIMLIM
 70
     0
  9
$DIMTIH
 70
     1
  9
$DIMTOH
 70
     1
  9
$DIMSE1
 70
     0
  9
$DIMSE2
 70
     0
  9
$DIMTAD
 70
     0
  9
$DIMZIN
 70
     0
  9
$DIMBLK
  1

  9
$DIMASO
 70
     1
  9
$DIMSHO
 70
     1
  9
$DIMPOST
  1

  9
$DIMAPOST
  1

  9
$DIMALT
 70
     0
  9
$DIMALTD
 70
     2
  9
$DIMALTF
 40
25.4
  9
$DIMLFAC
 40
1.0
  9
$DIMTOFL
 70
     0
  9
$DIMTVP
 40
0.0
  9
$DIMTIX
 70
     0
  9
$DIMSOXD
 70
     0
  9
$DIMSAH
 70
     0
  9
$DIMBLK1
  1

  9
$DIMBLK2
  1

  9
$DIMSTYLE
  2
Standard
  9
$DIMCLRD
 70
     0
  9
$DIMCLRE
 70
     0
  9
$DIMCLRT
 70
     0
  9
$DIMTFAC
 40
1.0
  9
$DIMGAP
 40
0.09
  9
$DIMJUST
 70
     0
  9
$DIMSD1
 70
     0
  9
$DIMSD2
 70
     0
  9
$DIMTOLJ
 70
     1
  9
$DIMTZIN
 70
     0
  9
$DIMALTZ
 70
     0
  9
$DIMALTTZ
 70
     0
  9
$DIMUPT
 70
     0
  9
$DIMDEC
 70
     4
  9
$DIMTDEC
 70
     4
  9
$DIMALTU
 70
     2
  9
$DIMALTTD
 70
     2
  9
$DIMTXSTY
  7
Standard
  9
$DIMAUNIT
 70
     0
  9
$DIMADEC
 70
     0
  9
$DIMALTRND
 40
0.0
  9
$DIMAZIN
 70
     0
  9
$DIMDSEP
 70
    46
  9
$DIMATFIT
 70
     3
  9
$DIMFRAC
 70
     0
  9
$DIMLDRBLK
  1

  9
$DIMLUNIT
 70
     2
  9
$DIMLWD
 70
    -2
  9
$DIMLWE
 70
    -2
  9
$DIMTMOVE
 70
     2
  9
$LUNITS
 70
     2
  9
$LUPREC
 70
     3
  9
$SKETCHINC
 40
0.1
  9
$FILLETRAD
 40
0.5
  9
$AUNITS
 70
     0
  9
$AUPREC
 70
     0
  9
$MENU
  1
.
  9
$ELEVATION
 40
0.0
  9
$PELEVATION
 40
0.0
  9
$THICKNESS
 40
0.0
  9
$LIMCHECK
 70
     0
  9
$CHAMFERA
 40
0.5
  9
$CHAMFERB
 40
0.5
  9
$CHAMFERC
 40
1.0
  9
$CHAMFERD
 40
0.0
  9
$SKPOLY
 70
     0
  9
$TDCREATE
 40
2456272.98957213
  9
$TDUCREATE
 40
2456272.906238796
  9
$TDUPDATE
 40
2456272.989572141
  9
$TDUUPDATE
 40
2456272.906238808
  9
$TDINDWG
 40
0.0000000116
  9
$TDUSRTIMER
 40
0.0000000116
  9
$USRTIMER
 70
     1
  9
$ANGBASE
 50
0.0
  9
$ANGDIR
 70
     0
  9
$PDMODE
 70
     0
  9
$PDSIZE
 40
0.0
  9
$PLINEWID
 40
0.0
  9
$SPLFRAME
 70
     0
  9
$SPLINETYPE
 70
     6
  9
$SPLINESEGS
 70
     8
  9
$HANDSEED
  5
207
  9
$SURFTAB1
 70
     6
  9
$SURFTAB2
 70
     6
  9
$SURFTYPE
 70
     6
  9
$SURFU
 70
     6
  9
$SURFV
 70
     6
  9
$UCSBASE
  2

  9
$UCSNAME
  2

  9
$UCSORG
 10
0.0
 20
0.0
 30
0.0
  9
$UCSXDIR
 10
1.0
 20
0.0
 30
0.0
  9
$UCSYDIR
 10
0.0
 20
1.0
 30
0.0
  9
$UCSORTHOREF
  2

  9
$UCSORTHOVIEW
 70
     0
  9
$UCSORGTOP
 10
0.0
 20
0.0
 30
0.0
  9
$UCSORGBOTTOM
 10
0.0
 20
0.0
 30
0.0
  9
$UCSORGLEFT
 10
0.0
 20
0.0
 30
0.0
  9
$UCSORGRIGHT
 10
0.0
 20
0.0
 30
0.0
  9
$UCSORGFRONT
 10
0.0
 20
0.0
 30
0.0
  9
$UCSORGBACK
 10
0.0
 20
0.0
 30
0.0
  9
$PUCSBASE
  2

  9
$PUCSNAME
  2

  9
$PUCSORG
 10
0.0
 20
0.0
 30
0.0
  9
$PUCSXDIR
 10
1.0
 20
0.0
 30
0.0
  9
$PUCSYDIR
 10
0.0
 20
1.0
 30
0.0
  9
$PUCSORTHOREF
  2

  9
$PUCSORTHOVIEW
 70
     0
  9
$PUCSORGTOP
 10
0.0
 20
0.0
 30
0.0
  9
$PUCSORGBOTTOM
 10
0.0
 20
0.0
 30
0.0
  9
$PUCSORGLEFT
 10
0.0
 20
0.0
 30
0.0
  9
$PUCSORGRIGHT
 10
0.0
 20
0.0
 30
0.0
  9
$PUCSORGFRONT
 10
0.0
 20
0.0
 30
0.0
  9
$PUCSORGBACK
 10
0.0
 20
0.0
 30
0.0
  9
$USERI1
 70
     0
  9
$USERI2
 70
     0
  9
$USERI3
 70
     0
  9
$USERI4
 70
     0
  9
$USERI5
 70
     0
  9
$USERR1
 40
0.0
  9
$USERR2
 40
0.0
  9
$USERR3
 40
0.0
  9
$USERR4
 40
0.0
  9
$USERR5
 40
0.0
  9
$WORLDVIEW
 70
     1
  9
$SHADEDGE
 70
     3
  9
$SHADEDIF
 70
    70
  9
$TILEMODE
 70
     1
  9
$MAXACTVP
 70
    64
  9
$PINSBASE
 10
0.0
 20
0.0
 30
0.0
  9
$PLIMCHECK
 70
     0
  9
$PEXTMIN
 10
1.000000000000000E+20
 20
1.000000000000000E+20
 30
1.000000000000000E+20
  9
$PEXTMAX
 10
-1.000000000000000E+20
 20
-1.000000000000000E+20
 30
-1.000000000000000E+20
  9
$PLIMMIN
 10
0.0
 20
0.0
  9
$PLIMMAX
 10
12.0
 20
9.0
  9
$UNITMODE
 70
     0
  9
$VISRETAIN
 70
     1
  9
$PLINEGEN
 70
     0
  9
$PSLTSCALE
 70
     1
  9
$TREEDEPTH
 70
  3020
  9
$CMLSTYLE
  2
Standard
  9
$CMLJUST
 70
     0
  9
$CMLSCALE
 40
1.0
  9
$PROXYGRAPHICS
 70
     1
  9
$MEASUREMENT
 70
     0
  9
$CELWEIGHT
370
    -1
  9
$ENDCAPS
280
     0
  9
$JOINSTYLE
280
     0
  9
$LWDISPLAY
290
     0
  9
$INSUNITS
 70
     4
  9
$HYPERLINKBASE
  1

  9
$STYLESHEET
  1

  9
$XEDIT
290
     1
  9
$CEPSNTYPE
380
     0
  9
$PSTYLEMODE
290
     1
  9
$FINGERPRINTGUID
  2
{B8D74FDB-7925-4303-8A00-5381B5191AC1}
  9
$VERSIONGUID
  2
{FAEB1C32-E019-11D5-929B-00C0DF256EC4}
  9
$EXTNAMES
290
     1
  9
$PSVPSCALE
 40
0.0
  9
$OLESTARTUP
290
     0
  9
$SORTENTS
280
   127
  9
$INDEXCTL
280
     0
  9
$HIDETEXT
280
     1
  9
$XCLIPFRAME
290
     0
  9
$HALOGAP
280
     0
  9
$OBSCOLOR
 70
   257
  9
$OBSLTYPE
280
     0
  9
$INTERSECTIONDISPLAY
280
     0
  9
$INTERSECTIONCOLOR
 70
   257
  9
$DIMASSOC
280
     2
  9
$PROJECTNAME
  1

  0
ENDSEC
  0
SECTION
  2
CLASSES
  0
CLASS
  1
ACDBDICTIONARYWDFLT
  2
AcDbDictionaryWithDefault
  3
ObjectDBX Classes
 90
        0
 91
        4
280
     0
281
     0
  0
CLASS
  1
VISUALSTYLE
  2
AcDbVisualStyle
  3
ObjectDBX Classes
 90
     4095
 91
        4
280
     0
281
     0
  0
ENDSEC
  0
SECTION
  2
TABLES
  0
TABLE
  2
VPORT
  5
8
330
0
100
AcDbSymbolTable
 70
     1
  0
VPORT
  5
29
330
8
100
AcDbSymbolTableRecord
100
AcDbViewportTableRecord
  2
*Active
 70
     0
 10
0.0
 20
0.0
 11
1.0
 21
1.0
 12
51.72287563203598
 22
-3.922700146969518
 13
0.0
 23
0.0
 14
0.5
 24
0.5
 15
0.5
 25
0.5
 16
0.0
 26
0.0
 36
1.0
 17
0.0
 27
0.0
 37
0.0
 40
157.3789780350592
 41
1.292641932418918
 42
50.0
 43
0.0
 44
0.0
 50
0.0
 51
0.0
 71
     0
 72
   100
 73
     1
 74
     3
 75
     0
 76
     0
 77
     0
 78
     0
281
     0
 65
     1
110
0.0
120
0.0
130
0.0
111
1.0
121
0.0
131
0.0
112
0.0
122
1.0
132
0.0
 79
     0
146
0.0
  0
ENDTAB
  0
TABLE
  2
LTYPE
  5
5
330
0
100
AcDbSymbolTable
 70
     1
  0
LTYPE
  5
14
330
5
100
AcDbSymbolTableRecord
100
AcDbLinetypeTableRecord
  2
ByBlock
 70
     0
  3

 72
    65
 73
     0
 40
0.0
  0
LTYPE
  5
15
330
5
100
AcDbSymbolTableRecord
100
AcDbLinetypeTableRecord
  2
ByLayer
 70
     0
  3

 72
    65
 73
     0
 40
0.0
  0
LTYPE
  5
16
330
5
100
AcDbSymbolTableRecord
100
AcDbLinetypeTableRecord
  2
Continuous
 70
     0
  3
Solid line
 72
    65
 73
     0
 40
0.0
  0
ENDTAB
  0
TABLE
  2
LAYER
  5
2
330
0
100
AcDbSymbolTable
 70
     2
  0
LAYER
  5
10
330
2
100
AcDbSymbolTableRecord
100
AcDbLayerTableRecord
  2
0
 70
     0
 62
     7
  6
Continuous
370
    -3
390
F
  0
LAYER
  5
3B
330
2
100
AcDbSymbolTableRecord
100
AcDbLayerTableRecord
  2
Default
 70
     0
 62
     7
  6
Continuous
370
    -3
390
F
  0
ENDTAB
  0
TABLE
  2
STYLE
  5
3
330
0
100
AcDbSymbolTable
 70
     1
  0
STYLE
  5
11
330
3
100
AcDbSymbolTableRecord
100
AcDbTextStyleTableRecord
  2
Standard
 70
     0
 40
0.0
 41
1.0
 50
0.0
 71
     0
 42
0.2
  3
txt
  4

  0
ENDTAB
  0
TABLE
  2
VIEW
  5
6
330
0
100
AcDbSymbolTable
 70
     0
  0
ENDTAB
  0
TABLE
  2
UCS
  5
7
330
0
100
AcDbSymbolTable
 70
     0
  0
ENDTAB
  0
TABLE
  2
APPID
  5
9
330
0
100
AcDbSymbolTable
 70
     1
  0
APPID
  5
12
330
9
100
AcDbSymbolTableRecord
100
AcDbRegAppTableRecord
  2
ACAD
 70
     0
  0
ENDTAB
  0
TABLE
  2
DIMSTYLE
  5
A
330
0
100
AcDbSymbolTable
 70
     1
100
AcDbDimStyleTable
  0
DIMSTYLE
105
27
330
A
100
AcDbSymbolTableRecord
100
AcDbDimStyleTableRecord
  2
Standard
 70
     0
340
11
  0
ENDTAB
  0
TABLE
  2
BLOCK_RECORD
  5
1
330
0
100
AcDbSymbolTable
 70
     1
  0
BLOCK_RECORD
  5
1F
330
1
100
AcDbSymbolTableRecord
100
AcDbBlockTableRecord
  2
*Model_Space
340
22
  0
BLOCK_RECORD
  5
1B
330
1
100
AcDbSymbolTableRecord
100
AcDbBlockTableRecord
  2
*Paper_Space
340
1E
  0
BLOCK_RECORD
  5
23
330
1
100
AcDbSymbolTableRecord
100
AcDbBlockTableRecord
  2
*Paper_Space0
340
26
  0
ENDTAB
  0
ENDSEC
  0
SECTION
  2
BLOCKS
  0
BLOCK
  5
20
330
1F
100
AcDbEntity
  8
0
100
AcDbBlockBegin
  2
*Model_Space
 70
     0
 10
0.0
 20
0.0
 30
0.0
  3
*Model_Space
  1

  0
ENDBLK
  5
21
330
1F
100
AcDbEntity
  8
0
100
AcDbBlockEnd
  0
BLOCK
  5
1C
330
1B
100
AcDbEntity
 67
     1
  8
0
100
AcDbBlockBegin
  2
*Paper_Space
 70
     0
 10
0.0
 20
0.0
 30
0.0
  3
*Paper_Space
  1

  0
ENDBLK
  5
1D
330
1B
100
AcDbEntity
 67
     1
  8
0
100
AcDbBlockEnd
  0
BLOCK
  5
24
330
23
100
AcDbEntity
  8
0
100
AcDbBlockBegin
  2
*Paper_Space0
 70
     0
 10
0.0
 20
0.0
 30
0.0
  3
*Paper_Space0
  1

  0
ENDBLK
  5
25
330
23
100
AcDbEntity
  8
0
100
AcDbBlockEnd
  0
ENDSEC
  0
SECTION
  2
ENTITIES
  0
SPLINE
  5
3C
330
1F
100
AcDbEntity
  8
Default
100
AcDbSpline
210
0.0
220
0.0
230
1.0
 70
    12
 71
     3
 72
    20
 73
    16
 74
     0
 42
0.0000000001
 43
0.0000000001
 40
-215.017598590532
 40
-215.017598590532
 40
-215.017598590532
 40
-215.017598590532
 40
-214.4661754825901
 40
-213.4661754825901
 40
-212.4661754825901
 40
-211.4661754825901
 40
-210.4661754825901
 40
-209.4661754825901
 40
-208.4661754825901
 40
-207.4661754825901
 40
-206.4661754825901
 40
-205.4661754825901
 40
-204.4661754825901
 40
-203.4661754825901
 40
-202.4661754825901
 40
-202.4661754825901
 40
-202.4661754825901
 40
-202.4661754825901
 10
57.78641669353065
 20
-77.73048765526758
 30
1.799999999999997
 41
1.0
 10
56.1329105449089
 20
-77.7634764576226
 30
1.799999999999997
 41
1.0
 10
46.36334642902131
 20
-77.7634764576226
 30
1.799999999999997
 41
1.0
 10
-12.53367216251846
 20
-77.7634764576226
 30
1.799999999999997
 41
1.0
 10
-13.62053179308506
 20
-77.7634764576226
 30
1.799999999999997
 41
1.0
 10
-18.82193145365385
 20
-75.97792135026316
 30
1.799999999999997
 41
1.0
 10
-24.56676092950593
 20
-72.25154547403478
 30
1.799999999999997
 41
1.0
 10
-29.6128949285652
 20
-66.5067159981827
 30
1.799999999999997
 41
1.0
 10
-32.40767683573648
 20
-59.51976123025449
 30
1.799999999999997
 41
1.0
 10
-32.48530966649125
 20
-51.98937664704297
 30
1.799999999999997
 41
1.0
 10
-30.77738738988657
 20
-45.93401584817185
 30
1.799999999999997
 41
1.0
 10
-27.5944413289415
 20
-39.64575655703646
 30
1.799999999999997
 41
1.0
 10
-22.2377760068632
 20
-33.1245987736368
 30
1.799999999999997
 41
1.0
 10
-16.72584502327538
 20
-26.52580815948237
 30
1.799999999999997
 41
1.0
 10
-14.78502425440644
 20
-21.09151000664932
 30
1.799999999999997
 41
1.0
 10
-14.94028991591595
 20
-17.13223563815666
 30
1.799999999999997
 41
1.0
  0
SPLINE
  5
3D
330
1F
100
AcDbEntity
  8
Default
100
AcDbSpline
210
0.0
220
0.0
230
1.0
 70
    12
 71
     3
 72
    45
 73
    41
 74
     0
 42
0.0000000001
 43
0.0000000001
 40
-202.4661754825901
 40
-202.4661754825901
 40
-202.4661754825901
 40
-202.4661754825901
 40
-201.4661754825901
 40
-200.4661754825901
 40
-199.4661754825901
 40
-198.4661754825901
 40
-197.4661754825901
 40
-196.4661754825901
 40
-195.4661754825901
 40
-194.4661754825901
 40
-193.4661754825901
 40
-192.4661754825901
 40
-191.4661754825901
 40
-190.4661754825901
 40
-189.4661754825901
 40
-188.4661754825901
 40
-187.4661754825901
 40
-186.4661754825901
 40
-185.4661754825901
 40
-184.4661754825901
 40
-183.4661754825901
 40
-182.4661754825901
 40
-181.4661754825901
 40
-180.4661754825901
 40
-179.4661754825901
 40
-178.4661754825901
 40
-177.4661754825901
 40
-176.4661754825901
 40
-175.4661754825901
 40
-174.4661754825901
 40
-173.4661754825901
 40
-172.4661754825901
 40
-171.4661754825901
 40
-170.4661754825901
 40
-169.4661754825901
 40
-168.4661754825901
 40
-167.4661754825901
 40
-166.4661754825901
 40
-165.4661754825901
 40
-164.4661754825901
 40
-164.4661754825901
 40
-164.4661754825901
 40
-164.4661754825901
 10
-14.94028991591595
 20
-17.13223563815666
 30
1.799999999999997
 41
1.0
 10
-16.38108210920061
 20
-19.30018548087951
 30
1.799999999999997
 41
1.0
 10
-18.73607591574672
 20
-21.14087029519143
 30
1.799999999999997
 41
1.0
 10
-21.17227640527719
 20
-22.79207284920652
 30
1.799999999999997
 41
1.0
 10
-23.12123679690157
 20
-23.63120857337812
 30
1.799999999999997
 41
1.0
 10
-23.52727021182331
 20
-24.84930881814336
 30
1.799999999999997
 41
1.0
 10
-24.14985478136998
 20
-26.7441314211115
 30
1.799999999999997
 41
1.0
 10
-25.31381723747899
 20
-29.15326301631385
 30
1.799999999999997
 41
1.0
 10
-26.5048485879161
 20
-31.67067018882867
 30
1.799999999999997
 41
1.0
 10
-27.88536219865004
 20
-32.80756375060955
 30
1.799999999999997
 41
1.0
 10
-29.29294470371208
 20
-32.91583932792201
 30
1.799999999999997
 41
1.0
 10
-30.07794263922746
 20
-32.40153033568781
 30
1.799999999999997
 41
1.0
 10
-30.40276937116485
 20
-32.07670360375041
 30
1.799999999999997
 41
1.0
 10
-30.32156268818051
 20
-31.75187687181302
 30
1.799999999999997
 41
1.0
 10
-29.86139148460252
 20
-31.10222340793823
 30
1.799999999999997
 41
1.0
 10
-29.23880691505585
 20
-30.15481210645415
 30
1.799999999999997
 41
1.0
 10
-28.56208455685294
 20
-29.20740080497009
 30
1.799999999999997
 41
1.0
 10
-28.18312003625931
 20
-28.66602291840776
 30
1.799999999999997
 41
1.0
 10
-28.34553340222801
 20
-28.17878282050167
 30
1.799999999999997
 41
1.0
 10
-28.83277350013411
 20
-27.9080938772205
 30
1.799999999999997
 41
1.0
 10
-29.40122028102455
 20
-28.12464503184543
 30
1.799999999999997
 41
1.0
 10
-29.8072536959463
 20
-28.77429849572022
 30
1.799999999999997
 41
1.0
 10
-30.32156268818051
 20
-30.07360542346981
 30
1.799999999999997
 41
1.0
 10
-31.21483620100834
 20
-30.99394783062576
 30
1.799999999999997
 41
1.0
 10
-32.297591974133
 20
-31.3999812455475
 30
1.799999999999997
 41
1.0
 10
-33.1367276983046
 20
-30.8856722533133
 30
1.799999999999997
 41
1.0
 10
-33.2991410642733
 20
-30.04653652914169
 30
1.799999999999997
 41
1.0
 10
-33.48862332457011
 20
-29.64050311421995
 30
1.799999999999997
 41
1.0
 10
-34.1382767884449
 20
-29.85705426884488
 30
1.799999999999997
 41
1.0
 10
-34.35482794306984
 20
-29.18033191064197
 30
1.799999999999997
 41
1.0
 10
-34.57137909769476
 20
-28.01636945453296
 30
1.799999999999997
 41
1.0
 10
-34.62551688635099
 20
-26.17568464022106
 30
1.799999999999997
 41
1.0
 10
-33.84051895083563
 20
-24.74103324083089
 30
1.799999999999997
 41
1.0
 10
-33.20187900839021
 20
-23.7792355295736
 30
1.799999999999997
 41
1.0
 10
-31.09775827872411
 20
-21.63385753069835
 30
1.799999999999997
 41
1.0
 10
-30.10758381770476
 20
-19.94230949312364
 30
1.799999999999997
 41
1.0
 10
-29.81878293324078
 20
-17.01304337927475
 30
1.799999999999997
 41
1.0
 10
-29.48872477956768
 20
-14.33132088068069
 30
1.799999999999997
 41
1.0
 10
-28.99363754905801
 20
-11.6083411128775
 30
1.799999999999997
 41
1.0
 10
-28.08597762645694
 20
-9.38044857558397
 30
1.799999999999997
 41
1.0
 10
-26.76030416813026
 20
-7.540356421944253
 30
1.799999999999997
 41
1.0
  0
SPLINE
  5
3E
330
1F
100
AcDbEntity
  8
Default
100
AcDbSpline
210
0.0
220
0.0
230
1.0
 70
    12
 71
     3
 72
    16
 73
    12
 74
     0
 42
0.0000000001
 43
0.0000000001
 40
-164.4661754825901
 40
-164.4661754825901
 40
-164.4661754825901
 40
-164.4661754825901
 40
-163.4661754825901
 40
-162.4661754825901
 40
-161.4661754825901
 40
-160.4661754825901
 40
-159.4661754825901
 40
-158.4661754825901
 40
-157.4661754825901
 40
-156.4661754825901
 40
-155.4661754825901
 40
-155.4661754825901
 40
-155.4661754825901
 40
-155.4661754825901
 10
-26.76030416813026
 20
-7.540356421944253
 30
1.799999999999997
 41
1.0
 10
-27.61541053995546
 20
-7.759614466001992
 30
1.799999999999997
 41
1.0
 10
-27.98814921485362
 20
-7.255320964669181
 30
1.799999999999997
 41
1.0
 10
-27.81274277960742
 20
-6.729101658930603
 30
1.799999999999997
 41
1.0
 10
-28.50746929380826
 20
-6.420282953795592
 30
1.799999999999997
 41
1.0
 10
-28.85936492007376
 20
-5.418733863655291
 30
1.799999999999997
 41
1.0
 10
-28.80522713141752
 20
-4.498391456499334
 30
1.799999999999997
 41
1.0
 10
-28.37212482216768
 20
-3.713393520983971
 30
1.799999999999997
 41
1.0
 10
-26.53144000785576
 20
-1.439606397422196
 30
1.799999999999997
 41
1.0
 10
-23.20196600549745
 20
1.375558612701894
 30
1.799999999999997
 41
1.0
 10
-20.65748993865452
 20
2.756072223435837
 30
1.799999999999997
 41
1.0
 10
-18.43784060374898
 20
2.593658857467133
 30
1.799999999999997
 41
1.0
  0
SPLINE
  5
3F
330
1F
100
AcDbEntity
  8
Default
100
AcDbSpline
210
0.0
220
0.0
230
1.0
 70
    12
 71
     3
 72
    10
 73
     6
 74
     0
 42
0.0000000001
 43
0.0000000001
 40
-155.4661754825901
 40
-155.4661754825901
 40
-155.4661754825901
 40
-155.4661754825901
 40
-154.4661754825901
 40
-153.4661754825901
 40
-152.4661754825901
 40
-152.4661754825901
 40
-152.4661754825901
 40
-152.4661754825901
 10
-18.43784060374898
 20
2.593658857467133
 30
1.799999999999997
 41
1.0
 10
-18.97921849031131
 20
2.94555448373265
 30
1.799999999999997
 41
1.0
 10
-20.03490536910785
 20
3.865896890888607
 30
1.799999999999997
 41
1.0
 10
-20.30559431238902
 20
5.490030550575582
 30
1.799999999999997
 41
1.0
 10
-20.19731873507655
 20
6.978819738621979
 30
1.799999999999997
 41
1.0
 10
-19.76421642582669
 20
7.709679885481123
 30
1.799999999999997
 41
1.0
  0
SPLINE
  5
40
330
1F
100
AcDbEntity
  8
Default
100
AcDbSpline
210
0.0
220
0.0
230
1.0
 70
    12
 71
     3
 72
    14
 73
    10
 74
     0
 42
0.0000000001
 43
0.0000000001
 40
-152.4661754825901
 40
-152.4661754825901
 40
-152.4661754825901
 40
-152.4661754825901
 40
-151.4661754825901
 40
-150.4661754825901
 40
-149.4661754825901
 40
-148.4661754825901
 40
-147.4661754825901
 40
-146.4661754825901
 40
-145.4661754825901
 40
-145.4661754825901
 40
-145.4661754825901
 40
-145.4661754825901
 10
-19.76421642582669
 20
7.709679885481123
 30
1.799999999999997
 41
1.0
 10
-17.95060050584289
 20
5.787788388184865
 30
1.799999999999997
 41
1.0
 10
-15.86629564257794
 20
4.921583769685142
 30
1.799999999999997
 41
1.0
 10
-14.62112650348459
 20
4.326068094466578
 30
1.799999999999997
 41
1.0
 10
-13.18647510409443
 20
4.217792517154109
 30
1.799999999999997
 41
1.0
 10
-11.8059614933605
 20
4.10951693984164
 30
1.799999999999997
 41
1.0
 10
-10.23596562232974
 20
4.542619249091501
 30
1.799999999999997
 41
1.0
 10
-8.395280808017844
 20
4.867445981028908
 30
1.799999999999997
 41
1.0
 10
-6.202700367440428
 20
4.759170403716439
 30
1.799999999999997
 41
1.0
 10
-4.957531228347065
 20
4.08244804551353
 30
1.799999999999997
 41
1.0
  0
SPLINE
  5
41
330
1F
100
AcDbEntity
  8
Default
100
AcDbSpline
210
0.0
220
0.0
230
1.0
 70
    12
 71
     3
 72
     8
 73
     4
 74
     0
 42
0.0000000001
 43
0.0000000001
 40
-145.4661754825901
 40
-145.4661754825901
 40
-145.4661754825901
 40
-145.4661754825901
 40
-144.4661754825901
 40
-144.4661754825901
 40
-144.4661754825901
 40
-144.4661754825901
 10
-4.957531228347065
 20
4.08244804551353
 30
1.799999999999997
 41
1.0
 10
-5.75155212863848
 20
3.68543759536783
 30
1.799999999999997
 41
1.0
 10
-6.42320121797097
 20
3.232281502797719
 30
1.799999999999997
 41
1.0
 10
-6.972478496344536
 20
2.722979767803196
 30
1.799999999999997
 41
1.0
  0
SPLINE
  5
42
330
1F
100
AcDbEntity
  8
Default
100
AcDbSpline
210
0.0
220
0.0
230
1.0
 70
    12
 71
     3
 72
     9
 73
     5
 74
     0
 42
0.0000000001
 43
0.0000000001
 40
-144.4661754825901
 40
-144.4661754825901
 40
-144.4661754825901
 40
-144.4661754825901
 40
-143.4661754825901
 40
-142.4661754825901
 40
-142.4661754825901
 40
-142.4661754825901
 40
-142.4661754825901
 10
-6.972478496344536
 20
2.722979767803196
 30
1.799999999999997
 41
1.0
 10
-5.322187727978957
 20
2.764237037012336
 30
1.799999999999997
 41
1.0
 10
-3.053037921476303
 20
2.392921614130074
 30
1.799999999999997
 41
1.0
 10
-1.609033499156425
 20
1.567776229947299
 30
1.799999999999997
 41
1.0
 10
0.0
 20
0.0
 30
1.799999999999997
 41
1.0
  0
SPLINE
  5
43
330
1F
100
AcDbEntity
  8
Default
100
AcDbSpline
210
0.0
220
0.0
230
1.0
 70
    12
 71
     3
 72
     8
 73
     4
 74
     0
 42
0.0000000001
 43
0.0000000001
 40
-142.4661754825901
 40
-142.4661754825901
 40
-142.4661754825901
 40
-142.4661754825901
 40
-141.4661754825901
 40
-141.4661754825901
 40
-141.4661754825901
 40
-141.4661754825901
 10
0.0
 20
0.0
 30
1.799999999999997
 41
1.0
 10
-1.677795614505001
 20
-0.4400775382308098
 30
1.799999999999997
 41
1.0
 10
-3.176809729103724
 20
-0.6188590381370886
 30
1.799999999999997
 41
1.0
 10
-4.497042343796181
 20
-0.5363444997188083
 30
1.799999999999997
 41
1.0
  0
SPLINE
  5
44
330
1F
100
AcDbEntity
  8
Default
100
AcDbSpline
210
0.0
220
0.0
230
1.0
 70
    12
 71
     3
 72
    10
 73
     6
 74
     0
 42
0.0000000001
 43
0.0000000001
 40
-141.4661754825901
 40
-141.4661754825901
 40
-141.4661754825901
 40
-141.4661754825901
 40
-140.4661754825901
 40
-139.4661754825901
 40
-138.4661754825901
 40
-138.4661754825901
 40
-138.4661754825901
 40
-138.4661754825901
 10
-4.497042343796181
 20
-0.5363444997188083
 30
1.799999999999997
 41
1.0
 10
-2.681722498594056
 20
-1.155203537855897
 30
1.799999999999997
 41
1.0
 10
-0.5776017689279485
 20
-2.227892537293528
 30
1.799999999999997
 41
1.0
 10
1.402747153110738
 20
-4.414527805377915
 30
1.799999999999997
 41
1.0
 10
2.557950690966642
 20
-6.683677611880569
 30
1.799999999999997
 41
1.0
 10
3.218066998312871
 20
-8.994084687592377
 30
1.799999999999997
 41
1.0
  0
SPLINE
  5
45
330
1F
100
AcDbEntity
  8
Default
100
AcDbSpline
210
0.0
220
0.0
230
1.0
 70
    12
 71
     3
 72
     8
 73
     4
 74
     0
 42
0.0000000001
 43
0.0000000001
 40
-138.4661754825901
 40
-138.4661754825901
 40
-138.4661754825901
 40
-138.4661754825901
 40
-137.4661754825901
 40
-137.4661754825901
 40
-137.4661754825901
 40
-137.4661754825901
 10
3.218066998312871
 20
-8.994084687592377
 30
1.799999999999997
 41
1.0
 10
2.117873152735825
 20
-8.664026533919255
 30
1.799999999999997
 41
1.0
 10
1.14576066848705
 20
-8.212391175111335
 30
1.799999999999997
 41
1.0
 10
0.301729545566559
 20
-7.639178611168603
 30
1.799999999999997
 41
1.0
  0
SPLINE
  5
46
330
1F
100
AcDbEntity
  8
Default
100
AcDbSpline
210
0.0
220
0.0
230
1.0
 70
    12
 71
     3
 72
     9
 73
     5
 74
     0
 42
0.0000000001
 43
0.0000000001
 40
-137.4661754825901
 40
-137.4661754825901
 40
-137.4661754825901
 40
-137.4661754825901
 40
-136.4661754825901
 40
-135.4661754825901
 40
-135.4661754825901
 40
-135.4661754825901
 40
-135.4661754825901
 10
0.301729545566559
 20
-7.639178611168603
 30
1.799999999999997
 41
1.0
 10
1.62196216025901
 20
-9.53701299478901
 30
1.799999999999997
 41
1.0
 10
2.818422967324054
 20
-12.54879364705618
 30
1.799999999999997
 41
1.0
 10
3.519796543879423
 20
-16.01440426062388
 30
1.799999999999997
 41
1.0
 10
3.602311082297696
 20
-17.95349591345343
 30
1.799999999999997
 41
1.0
  0
SPLINE
  5
47
330
1F
100
AcDbEntity
  8
Default
100
AcDbSpline
210
0.0
220
0.0
230
1.0
 70
    12
 71
     3
 72
     8
 73
     4
 74
     0
 42
0.0000000001
 43
0.0000000001
 40
-135.4661754825901
 40
-135.4661754825901
 40
-135.4661754825901
 40
-135.4661754825901
 40
-134.4661754825901
 40
-134.4661754825901
 40
-134.4661754825901
 40
-134.4661754825901
 10
3.602311082297696
 20
-17.95349591345343
 30
1.799999999999997
 41
1.0
 10
2.392097852162948
 20
-17.1833602215495
 30
1.799999999999997
 41
1.0
 10
1.360666121934457
 20
-16.09691879904216
 30
1.799999999999997
 41
1.0
 10
0.5080158916122457
 20
-14.69417164593143
 30
1.799999999999997
 41
1.0
  0
SPLINE
  5
48
330
1F
100
AcDbEntity
  8
Default
100
AcDbSpline
210
0.0
220
0.0
230
1.0
 70
    12
 71
     3
 72
     9
 73
     5
 74
     0
 42
0.0000000001
 43
0.0000000001
 40
-134.4661754825901
 40
-134.4661754825901
 40
-134.4661754825901
 40
-134.4661754825901
 40
-133.4661754825901
 40
-132.4661754825901
 40
-132.4661754825901
 40
-132.4661754825901
 40
-132.4661754825901
 10
0.5080158916122457
 20
-14.69417164593143
 30
1.799999999999997
 41
1.0
 10
0.8793313144945074
 20
-16.63326329876097
 30
1.799999999999997
 41
1.0
 10
0.8793313144945074
 20
-18.57235495159052
 30
1.799999999999997
 41
1.0
 10
0.6730449684488065
 20
-21.95545102673994
 30
1.799999999999997
 41
1.0
 10
-0.1360100807424089
 20
-24.36074982163277
 30
1.799999999999997
 41
1.0
  0
SPLINE
  5
49
330
1F
100
AcDbEntity
  8
Default
100
AcDbSpline
210
0.0
220
0.0
230
1.0
 70
    28
 71
     3
 72
     8
 73
     4
 74
     0
 42
0.0000000001
 43
0.0000000001
 40
-132.4661754825901
 40
-132.4661754825901
 40
-132.4661754825901
 40
-132.4661754825901
 40
-131.4661754825901
 40
-131.4661754825901
 40
-131.4661754825901
 40
-131.4661754825901
 10
-0.1360100807424089
 20
-24.36074982163277
 30
1.799999999999997
 41
1.0
 10
-0.6929832150657944
 20
-23.50301119477475
 30
1.799999999999997
 41
1.0
 10
-1.24995634938918
 20
-22.64527256791676
 30
1.799999999999997
 41
1.0
 10
-1.806929483712551
 20
-21.78753394105875
 30
1.799999999999997
 41
1.0
  0
SPLINE
  5
4A
330
1F
100
AcDbEntity
  8
Default
100
AcDbSpline
210
0.0
220
0.0
230
1.0
 70
    12
 71
     3
 72
    14
 73
    10
 74
     0
 42
0.0000000001
 43
0.0000000001
 40
-131.4661754825901
 40
-131.4661754825901
 40
-131.4661754825901
 40
-131.4661754825901
 40
-130.4661754825901
 40
-129.4661754825901
 40
-128.4661754825901
 40
-127.4661754825901
 40
-126.4661754825901
 40
-125.4661754825901
 40
-124.4661754825901
 40
-124.4661754825901
 40
-124.4661754825901
 40
-124.4661754825901
 10
-1.806929483712551
 20
-21.78753394105875
 30
1.799999999999997
 41
1.0
 10
-2.542134021019422
 20
-25.86457728430589
 30
1.799999999999997
 41
1.0
 10
-4.178806867801484
 20
-29.19644038612242
 30
1.799999999999997
 41
1.0
 10
-7.724997902278091
 20
-35.23454944482582
 30
1.799999999999997
 41
1.0
 10
-12.13377594514088
 20
-44.3396345333468
 30
1.799999999999997
 41
1.0
 10
-12.80467695166348
 20
-50.6652725948456
 30
1.799999999999997
 41
1.0
 10
-11.75040394141368
 20
-56.60753865261719
 30
1.799999999999997
 41
1.0
 10
-7.820840903209884
 20
-62.83733371318418
 30
1.799999999999997
 41
1.0
 10
-3.316219859415298
 20
-66.67105375045617
 30
1.799999999999997
 41
1.0
 10
1.04706429035221
 20
-67.8364437496574
 30
1.799999999999997
 41
1.0
  0
SPLINE
  5
4B
330
1F
100
AcDbEntity
  8
Default
100
AcDbSpline
210
0.0
220
0.0
230
1.0
 70
    28
 71
     3
 72
     8
 73
     4
 74
     0
 42
0.0000000001
 43
0.0000000001
 40
-124.4661754825901
 40
-124.4661754825901
 40
-124.4661754825901
 40
-124.4661754825901
 40
-62.17401558267936
 40
-62.17401558267936
 40
-62.17401558267936
 40
-62.17401558267936
 10
1.04706429035221
 20
-67.8364437496574
 30
1.799999999999997
 41
1.0
 10
10.65152536511125
 20
-67.8364437496574
 30
1.799999999999997
 41
1.0
 10
31.41557866508151
 20
-67.8364437496574
 30
1.799999999999997
 41
1.0
 10
52.17963196505177
 20
-67.8364437496574
 30
1.799999999999997
 41
1.0
  0
SPLINE
  5
4C
330
1F
100
AcDbEntity
  8
Default
100
AcDbSpline
210
0.0
220
0.0
230
1.0
 70
    12
 71
     3
 72
    17
 73
    13
 74
     0
 42
0.0000000001
 43
0.0000000001
 40
-62.17401558267936
 40
-62.17401558267936
 40
-62.17401558267936
 40
-62.17401558267936
 40
-54.630370452582
 40
-54.630370452582
 40
-54.630370452582
 40
-47.08672532248465
 40
-47.08672532248465
 40
-47.08672532248465
 40
-39.54308019238729
 40
-39.54308019238729
 40
-39.54308019238729
 40
-31.99943506228993
 40
-31.99943506228993
 40
-31.99943506228993
 40
-31.99943506228993
 10
52.17963196505177
 20
-67.8364437496574
 30
1.799999999999997
 41
1.0
 10
53.32546629008589
 20
-65.44984855565298
 30
1.8
 41
0.9035546691969065
 10
55.54198293519216
 20
-64.00215145942107
 30
1.8
 41
0.9035546691969065
 10
58.18786385716707
 20
-63.91222333700797
 30
1.799999999999997
 41
1.0
 10
60.83374477914195
 20
-63.82229521459487
 30
1.8
 41
0.9035546691969065
 10
63.14344139562905
 20
-65.11615550854448
 30
1.8
 41
0.9035546691969065
 10
64.44867534393278
 20
-67.41944386666793
 30
1.799999999999997
 41
1.0
 10
65.75390929223647
 20
-69.72273222479137
 30
1.8
 41
0.9035546691969065
 10
65.677029412598
 20
-72.36902442418625
 30
1.8
 41
0.9035546691969065
 10
64.2402798212889
 20
-74.59265288513572
 30
1.799999999999997
 41
1.0
 10
62.80353022997977
 20
-76.8162813460852
 30
1.8
 41
0.9035546691969065
 10
60.42261429584505
 20
-77.97387032109091
 30
1.8
 41
0.9035546691969065
 10
57.78641669353065
 20
-77.73048765526758
 30
1.799999999999997
 41
1.0
  0
SPLINE
  5
4D
330
1F
100
AcDbEntity
  8
Default
100
AcDbSpline
210
0.0
220
0.0
230
1.0
 70
    24
 71
     3
 72
     8
 73
     4
 74
     0
 42
0.0000000001
 43
0.0000000001
 40
0.0
 40
0.0
 40
0.0
 40
0.0
 40
1.800000000000018
 40
1.800000000000018
 40
1.800000000000018
 40
1.800000000000018
 10
-11.8686168505491
 20
-30.50753724927868
 30
1.799999999999997
 10
-12.41074164323702
 20
-30.25043666749577
 30
1.799999999999997
 10
-12.95286643592492
 20
-29.9933360857129
 30
1.799999999999997
 10
-13.49499122861283
 20
-29.73623550393008
 30
1.799999999999997
  0
SPLINE
  5
4E
330
1F
100
AcDbEntity
  8
Default
100
AcDbSpline
210
0.0
220
0.0
230
1.0
 70
    24
 71
     3
 72
     8
 73
     4
 74
     0
 42
0.0000000001
 43
0.0000000001
 40
33.27979946864398
 40
33.27979946864398
 40
33.27979946864398
 40
33.27979946864398
 40
38.78002321216641
 40
38.78002321216641
 40
38.78002321216641
 40
38.78002321216641
 10
-13.49499122861283
 20
-29.73623550393008
 30
1.799999999999997
 10
-14.2806082977215
 20
-31.3927953132046
 30
1.799999999999997
 10
-15.06622536683014
 20
-33.04935512247918
 30
1.799999999999997
 10
-15.85184243593875
 20
-34.7059149317538
 30
1.799999999999997
  0
SPLINE
  5
4F
330
1F
100
AcDbEntity
  8
Default
100
AcDbSpline
210
0.0
220
0.0
230
1.0
 70
    24
 71
     3
 72
     8
 73
     4
 74
     0
 42
0.0000000001
 43
0.0000000001
 40
-1.799999999999958
 40
-1.799999999999958
 40
-1.799999999999958
 40
-1.799999999999958
 40
0.0
 40
0.0
 40
0.0
 40
0.0
 10
-15.85184243593875
 20
-34.7059149317538
 30
1.799999999999997
 10
-15.30971764325086
 20
-34.9630155135367
 30
1.799999999999997
 10
-14.76759285056293
 20
-35.22011609531959
 30
1.799999999999997
 10
-14.22546805787502
 20
-35.4772166771024
 30
1.799999999999997
  0
SPLINE
  5
50
330
1F
100
AcDbEntity
  8
Default
100
AcDbSpline
210
0.0
220
0.0
230
1.0
 70
    24
 71
     3
 72
     8
 73
     4
 74
     0
 42
0.0000000001
 43
0.0000000001
 40
-38.78002321216645
 40
-38.78002321216645
 40
-38.78002321216645
 40
-38.78002321216645
 40
-33.27979946864401
 40
-33.27979946864401
 40
-33.27979946864401
 40
-33.27979946864401
 10
-14.22546805787502
 20
-35.4772166771024
 30
1.799999999999997
 10
-13.43985098876641
 20
-33.82065686782779
 30
1.799999999999997
 10
-12.65423391965777
 20
-32.16409705855322
 30
1.799999999999997
 10
-11.8686168505491
 20
-30.50753724927868
 30
1.799999999999997
  0
SPLINE
  5
51
330
1F
100
AcDbEntity
  8
Default
100
AcDbSpline
210
0.0
220
0.0
230
1.0
 70
    24
 71
     3
 72
     8
 73
     4
 74
     0
 42
0.0000000001
 43
0.0000000001
 40
0.0
 40
0.0
 40
0.0
 40
0.0
 40
1.817277545131487
 40
1.817277545131487
 40
1.817277545131487
 40
1.817277545131487
 10
69.69715367265604
 20
-36.96508803642905
 30
8.43683872307776
 10
69.09139449094556
 20
-36.96508803642906
 30
8.43683872307776
 10
68.48563530923505
 20
-36.96508803642906
 30
8.43683872307776
 10
67.87987612752457
 20
-36.96508803642905
 30
8.43683872307776
  0
SPLINE
  5
52
330
1F
100
AcDbEntity
  8
Default
100
AcDbSpline
210
0.0
220
0.0
230
1.0
 70
    24
 71
     3
 72
     8
 73
     4
 74
     0
 42
0.0000000001
 43
0.0000000001
 40
0.0
 40
0.0
 40
0.0
 40
0.0
 40
9.000000000000002
 40
9.000000000000002
 40
9.000000000000002
 40
9.000000000000002
 10
67.87987612752457
 20
-36.96508803642905
 30
8.43683872307776
 10
67.87987612752457
 20
-39.96508803642906
 30
8.43683872307776
 10
67.87987612752457
 20
-42.96508803642906
 30
8.43683872307776
 10
67.87987612752454
 20
-45.96508803642906
 30
8.43683872307776
  0
SPLINE
  5
53
330
1F
100
AcDbEntity
  8
Default
100
AcDbSpline
210
0.0
220
0.0
230
1.0
 70
    24
 71
     3
 72
     8
 73
     4
 74
     0
 42
0.0000000001
 43
0.0000000001
 40
0.0
 40
0.0
 40
0.0
 40
0.0
 40
1.817277545131495
 40
1.817277545131495
 40
1.817277545131495
 40
1.817277545131495
 10
67.87987612752454
 20
-45.96508803642906
 30
8.43683872307776
 10
68.48563530923505
 20
-45.96508803642906
 30
8.43683872307776
 10
69.09139449094555
 20
-45.96508803642906
 30
8.43683872307776
 10
69.69715367265601
 20
-45.96508803642906
 30
8.43683872307776
  0
SPLINE
  5
54
330
1F
100
AcDbEntity
  8
Default
100
AcDbSpline
210
0.0
220
0.0
230
1.0
 70
    24
 71
     3
 72
     8
 73
     4
 74
     0
 42
0.0000000001
 43
0.0000000001
 40
0.0
 40
0.0
 40
0.0
 40
0.0
 40
9.000000000000004
 40
9.000000000000004
 40
9.000000000000004
 40
9.000000000000004
 10
69.69715367265601
 20
-45.96508803642906
 30
8.43683872307776
 10
69.69715367265604
 20
-42.96508803642906
 30
8.43683872307776
 10
69.69715367265604
 20
-39.96508803642906
 30
8.43683872307776
 10
69.69715367265604
 20
-36.96508803642905
 30
8.43683872307776
  0
SPLINE
  5
55
330
1F
100
AcDbEntity
  8
Default
100
AcDbSpline
210
0.0
220
0.0
230
1.0
 70
    24
 71
     3
 72
     8
 73
     4
 74
     0
 42
0.0000000001
 43
0.0000000001
 40
0.0
 40
0.0
 40
0.0
 40
0.0
 40
9.999999999999991
 40
9.999999999999991
 40
9.999999999999991
 40
9.999999999999991
 10
20.31739911061608
 20
-55.63082637941112
 30
8.43683872307776
 10
23.65073244394942
 20
-55.63082637941112
 30
8.43683872307776
 10
26.98406577728276
 20
-55.63082637941113
 30
8.43683872307776
 10
30.31739911061609
 20
-55.63082637941112
 30
8.43683872307776
  0
SPLINE
  5
56
330
1F
100
AcDbEntity
  8
Default
100
AcDbSpline
210
0.0
220
0.0
230
1.0
 70
    24
 71
     3
 72
     8
 73
     4
 74
     0
 42
0.0000000001
 43
0.0000000001
 40
0.0
 40
0.0
 40
0.0
 40
0.0
 40
1.812824909718109
 40
1.812824909718109
 40
1.812824909718109
 40
1.812824909718109
 10
30.31739911061609
 20
-55.63082637941112
 30
8.43683872307776
 10
30.31582052436929
 20
-56.23509928739261
 30
8.43683872307776
 10
30.31424193812248
 20
-56.8393721953741
 30
8.43683872307776
 10
30.31266335187568
 20
-57.44364510335559
 30
8.43683872307776
  0
SPLINE
  5
57
330
1F
100
AcDbEntity
  8
Default
100
AcDbSpline
210
0.0
220
0.0
230
1.0
 70
    24
 71
     3
 72
     8
 73
     4
 74
     0
 42
0.0000000001
 43
0.0000000001
 40
0.0
 40
0.0
 40
0.0
 40
0.0
 40
9.99526424125958
 40
9.99526424125958
 40
9.99526424125958
 40
9.99526424125958
 10
30.31266335187568
 20
-57.44364510335559
 30
8.43683872307776
 10
26.98090860478915
 20
-57.44364510335559
 30
8.43683872307776
 10
23.64915385770261
 20
-57.4436451033556
 30
8.43683872307776
 10
20.31739911061609
 20
-57.44364510335559
 30
8.43683872307776
  0
SPLINE
  5
58
330
1F
100
AcDbEntity
  8
Default
100
AcDbSpline
210
0.0
220
0.0
230
1.0
 70
    24
 71
     3
 72
     8
 73
     4
 74
     0
 42
0.0000000001
 43
0.0000000001
 40
0.0
 40
0.0
 40
0.0
 40
0.0
 40
1.812818723944484
 40
1.812818723944484
 40
1.812818723944484
 40
1.812818723944484
 10
20.31739911061609
 20
-57.44364510335559
 30
8.43683872307776
 10
20.31739911061609
 20
-56.83937219537411
 30
8.43683872307776
 10
20.31739911061609
 20
-56.23509928739261
 30
8.43683872307776
 10
20.31739911061608
 20
-55.63082637941112
 30
8.43683872307776
  0
SPLINE
  5
59
330
1F
100
AcDbEntity
  8
Default
100
AcDbSpline
210
0.0
220
0.0
230
1.0
 70
    24
 71
     3
 72
     8
 73
     4
 74
     0
 42
0.0000000001
 43
0.0000000001
 40
0.0
 40
0.0
 40
0.0
 40
0.0
 40
1.812824909718112
 40
1.812824909718112
 40
1.812824909718112
 40
1.812824909718112
 10
58.71565590210256
 20
-55.63082637941112
 30
8.43683872307776
 10
58.71407731585576
 20
-56.23509928739261
 30
8.43683872307776
 10
58.71249872960894
 20
-56.8393721953741
 30
8.43683872307776
 10
58.71092014336214
 20
-57.44364510335558
 30
8.43683872307776
  0
SPLINE
  5
5A
330
1F
100
AcDbEntity
  8
Default
100
AcDbSpline
210
0.0
220
0.0
230
1.0
 70
    24
 71
     3
 72
     8
 73
     4
 74
     0
 42
0.0000000001
 43
0.0000000001
 40
0.0
 40
0.0
 40
0.0
 40
0.0
 40
9.99526424125958
 40
9.99526424125958
 40
9.99526424125958
 40
9.99526424125958
 10
58.71092014336214
 20
-57.44364510335558
 30
8.43683872307776
 10
55.3791653962756
 20
-57.44364510335559
 30
8.43683872307776
 10
52.04741064918908
 20
-57.44364510335559
 30
8.43683872307776
 10
48.71565590210257
 20
-57.44364510335559
 30
8.43683872307776
  0
SPLINE
  5
5B
330
1F
100
AcDbEntity
  8
Default
100
AcDbSpline
210
0.0
220
0.0
230
1.0
 70
    24
 71
     3
 72
     8
 73
     4
 74
     0
 42
0.0000000001
 43
0.0000000001
 40
0.0
 40
0.0
 40
0.0
 40
0.0
 40
1.812818723944478
 40
1.812818723944478
 40
1.812818723944478
 40
1.812818723944478
 10
48.71565590210257
 20
-57.44364510335559
 30
8.43683872307776
 10
48.71565590210255
 20
-56.8393721953741
 30
8.43683872307776
 10
48.71565590210255
 20
-56.23509928739261
 30
8.43683872307776
 10
48.71565590210257
 20
-55.63082637941112
 30
8.43683872307776
  0
SPLINE
  5
5C
330
1F
100
AcDbEntity
  8
Default
100
AcDbSpline
210
0.0
220
0.0
230
1.0
 70
    24
 71
     3
 72
     8
 73
     4
 74
     0
 42
0.0000000001
 43
0.0000000001
 40
0.0
 40
0.0
 40
0.0
 40
0.0
 40
10.00000000000002
 40
10.00000000000002
 40
10.00000000000002
 40
10.00000000000002
 10
48.71565590210257
 20
-55.63082637941112
 30
8.43683872307776
 10
52.04898923543588
 20
-55.63082637941111
 30
8.43683872307776
 10
55.38232256876921
 20
-55.63082637941112
 30
8.43683872307776
 10
58.71565590210256
 20
-55.63082637941112
 30
8.43683872307776
  0
SPLINE
  5
5D
330
1F
100
AcDbEntity
  8
Default
100
AcDbSpline
210
0.0
220
0.0
230
1.0
 70
    24
 71
     3
 72
     8
 73
     4
 74
     0
 42
0.0000000001
 43
0.0000000001
 40
0.0
 40
0.0
 40
0.0
 40
0.0
 40
9.995264241259594
 40
9.995264241259594
 40
9.995264241259594
 40
9.995264241259594
 10
30.31266335187567
 20
-25.278001611893
 30
8.43683872307776
 10
26.98090860478914
 20
-25.278001611893
 30
8.43683872307776
 10
23.64915385770261
 20
-25.27800161189299
 30
8.43683872307776
 10
20.31739911061608
 20
-25.27800161189299
 30
8.43683872307776
  0
SPLINE
  5
5E
330
1F
100
AcDbEntity
  8
Default
100
AcDbSpline
210
0.0
220
0.0
230
1.0
 70
    24
 71
     3
 72
     8
 73
     4
 74
     0
 42
0.0000000001
 43
0.0000000001
 40
0.0
 40
0.0
 40
0.0
 40
0.0
 40
1.812818723944482
 40
1.812818723944482
 40
1.812818723944482
 40
1.812818723944482
 10
20.31739911061608
 20
-25.27800161189299
 30
8.43683872307776
 10
20.31739911061608
 20
-25.88227451987448
 30
8.43683872307776
 10
20.31739911061608
 20
-26.48654742785597
 30
8.43683872307776
 10
20.31739911061608
 20
-27.09082033583747
 30
8.43683872307776
  0
SPLINE
  5
5F
330
1F
100
AcDbEntity
  8
Default
100
AcDbSpline
210
0.0
220
0.0
230
1.0
 70
    24
 71
     3
 72
     8
 73
     4
 74
     0
 42
0.0000000001
 43
0.0000000001
 40
0.0
 40
0.0
 40
0.0
 40
0.0
 40
9.999999999999984
 40
9.999999999999984
 40
9.999999999999984
 40
9.999999999999984
 10
20.31739911061608
 20
-27.09082033583747
 30
8.43683872307776
 10
23.65073244394941
 20
-27.09082033583747
 30
8.43683872307776
 10
26.98406577728275
 20
-27.09082033583746
 30
8.43683872307776
 10
30.31739911061608
 20
-27.09082033583747
 30
8.43683872307776
  0
SPLINE
  5
60
330
1F
100
AcDbEntity
  8
Default
100
AcDbSpline
210
0.0
220
0.0
230
1.0
 70
    24
 71
     3
 72
     8
 73
     4
 74
     0
 42
0.0000000001
 43
0.0000000001
 40
0.0
 40
0.0
 40
0.0
 40
0.0
 40
1.812824909718113
 40
1.812824909718113
 40
1.812824909718113
 40
1.812824909718113
 10
30.31739911061608
 20
-27.09082033583747
 30
8.43683872307776
 10
30.31582052436928
 20
-26.48654742785597
 30
8.43683872307776
 10
30.31424193812247
 20
-25.88227451987449
 30
8.43683872307776
 10
30.31266335187567
 20
-25.278001611893
 30
8.43683872307776
  0
SPLINE
  5
61
330
1F
100
AcDbEntity
  8
Default
100
AcDbSpline
210
0.0
220
0.0
230
1.0
 70
    24
 71
     3
 72
     8
 73
     4
 74
     0
 42
0.0000000001
 43
0.0000000001
 40
0.0
 40
0.0
 40
0.0
 40
0.0
 40
1.812818723944482
 40
1.812818723944482
 40
1.812818723944482
 40
1.812818723944482
 10
48.71565590210257
 20
-25.27800161189299
 30
8.43683872307776
 10
48.71565590210255
 20
-25.88227451987448
 30
8.43683872307776
 10
48.71565590210255
 20
-26.48654742785597
 30
8.43683872307776
 10
48.71565590210257
 20
-27.09082033583747
 30
8.43683872307776
  0
SPLINE
  5
62
330
1F
100
AcDbEntity
  8
Default
100
AcDbSpline
210
0.0
220
0.0
230
1.0
 70
    24
 71
     3
 72
     8
 73
     4
 74
     0
 42
0.0000000001
 43
0.0000000001
 40
0.0
 40
0.0
 40
0.0
 40
0.0
 40
10.00000000000001
 40
10.00000000000001
 40
10.00000000000001
 40
10.00000000000001
 10
48.71565590210257
 20
-27.09082033583747
 30
8.43683872307776
 10
52.04898923543589
 20
-27.09082033583746
 30
8.43683872307776
 10
55.38232256876923
 20
-27.09082033583746
 30
8.43683872307776
 10
58.71565590210256
 20
-27.09082033583746
 30
8.43683872307776
  0
SPLINE
  5
63
330
1F
100
AcDbEntity
  8
Default
100
AcDbSpline
210
0.0
220
0.0
230
1.0
 70
    24
 71
     3
 72
     8
 73
     4
 74
     0
 42
0.0000000001
 43
0.0000000001
 40
0.0
 40
0.0
 40
0.0
 40
0.0
 40
1.812824909718113
 40
1.812824909718113
 40
1.812824909718113
 40
1.812824909718113
 10
58.71565590210256
 20
-27.09082033583746
 30
8.43683872307776
 10
58.71407731585576
 20
-26.48654742785597
 30
8.43683872307776
 10
58.71249872960894
 20
-25.88227451987449
 30
8.43683872307776
 10
58.71092014336214
 20
-25.278001611893
 30
8.43683872307776
  0
SPLINE
  5
64
330
1F
100
AcDbEntity
  8
Default
100
AcDbSpline
210
0.0
220
0.0
230
1.0
 70
    24
 71
     3
 72
     8
 73
     4
 74
     0
 42
0.0000000001
 43
0.0000000001
 40
0.0
 40
0.0
 40
0.0
 40
0.0
 40
9.9952642412596
 40
9.9952642412596
 40
9.9952642412596
 40
9.9952642412596
 10
58.71092014336214
 20
-25.278001611893
 30
8.43683872307776
 10
55.3791653962756
 20
-25.278001611893
 30
8.43683872307776
 10
52.04741064918909
 20
-25.27800161189299
 30
8.43683872307776
 10
48.71565590210257
 20
-25.27800161189299
 30
8.43683872307776
  0
SPLINE
  5
65
330
1F
100
AcDbEntity
  8
Default
100
AcDbSpline
210
0.0
220
0.0
230
1.0
 70
    24
 71
     5
 72
    12
 73
     6
 74
     0
 42
0.0000000001
 43
0.0000000001
 40
-2.116526597620364
 40
-2.116526597620364
 40
-2.116526597620364
 40
-2.116526597620364
 40
-2.116526597620364
 40
-2.116526597620364
 40
0.0
 40
0.0
 40
0.0
 40
0.0
 40
0.0
 40
0.0
 10
72.0893719456616
 20
-23.35934481305056
 30
8.43683872307776
 10
71.75072769004234
 20
-23.35934481305056
 30
8.43683872307776
 10
71.41208343442308
 20
-23.35934481305056
 30
8.43683872307776
 10
70.65013385927975
 20
-23.35934481305056
 30
8.43683872307776
 10
70.31148960366049
 20
-23.35934481305056
 30
8.43683872307776
 10
69.97284534804123
 20
-23.35934481305056
 30
8.43683872307776
  0
SPLINE
  5
66
330
1F
100
AcDbEntity
  8
Default
100
AcDbSpline
210
0.0
220
0.0
230
1.0
 70
    12
 71
     2
 72
    12
 73
     9
 74
     0
 42
0.0000000001
 43
0.0000000001
 40
-230.3235583238762
 40
-230.3235583238762
 40
-230.3235583238762
 40
-167.1340093328576
 40
-167.1340093328576
 40
-138.8573529581641
 40
-138.8573529581641
 40
-110.5806965834705
 40
-110.5806965834705
 40
-47.39114759245188
 40
-47.39114759245188
 40
-47.39114759245188
 10
69.97284534804123
 20
-23.35934481305056
 30
8.43683872307776
 41
1.0
 10
38.37807085253192
 20
-23.35934481305056
 30
8.43683872307776
 41
1.0
 10
6.7832963570226
 20
-23.35934481305056
 30
8.43683872307776
 41
1.0
 10
-3.206204752958164
 20
-23.35934481305056
 30
8.43683872307776
 41
0.7071067811865476
 10
-3.206204752958165
 20
-41.36082335762429
 30
8.43683872307776
 41
1.0
 10
-3.206204752958161
 20
-59.36230190219801
 30
8.43683872307776
 41
0.7071067811865476
 10
6.7832963570226
 20
-59.36230190219802
 30
8.43683872307776
 41
1.0
 10
38.37807085253191
 20
-59.36230190219802
 30
8.43683872307776
 41
1.0
 10
69.97284534804123
 20
-59.36230190219802
 30
8.43683872307776
 41
1.0
  0
SPLINE
  5
67
330
1F
100
AcDbEntity
  8
Default
100
AcDbSpline
210
0.0
220
0.0
230
1.0
 70
    24
 71
     5
 72
    12
 73
     6
 74
     0
 42
0.0000000001
 43
0.0000000001
 40
0.0
 40
0.0
 40
0.0
 40
0.0
 40
0.0
 40
0.0
 40
2.116526597620371
 40
2.116526597620371
 40
2.116526597620371
 40
2.116526597620371
 40
2.116526597620371
 40
2.116526597620371
 10
69.97284534804123
 20
-59.36230190219802
 30
8.43683872307776
 10
70.31148960366048
 20
-59.36230190219802
 30
8.43683872307776
 10
70.65013385927975
 20
-59.36230190219802
 30
8.43683872307776
 10
71.41208343442307
 20
-59.36230190219802
 30
8.43683872307776
 10
71.75072769004234
 20
-59.36230190219802
 30
8.43683872307776
 10
72.08937194566158
 20
-59.36230190219802
 30
8.43683872307776
  0
SPLINE
  5
68
330
1F
100
AcDbEntity
  8
Default
100
AcDbSpline
210
0.0
220
0.0
230
1.0
 70
    12
 71
     2
 72
    10
 73
     7
 74
     0
 42
0.0000000001
 43
0.0000000001
 40
-47.39114759245188
 40
-47.39114759245188
 40
-47.39114759245188
 40
-47.12776062448926
 40
-47.12776062448926
 40
-42.41498456204033
 40
-42.41498456204033
 40
-37.70220849959141
 40
-37.70220849959141
 40
-37.70220849959141
 10
72.08937194566158
 20
-59.36230190219802
 30
8.43683872307776
 41
1.0
 10
72.22106542964289
 20
-59.36230190219802
 30
8.43683872307776
 41
1.0
 10
72.35275891362421
 20
-59.36230190219802
 30
8.43683872307776
 41
1.0
 10
75.35300533771984
 20
-59.36230190219801
 30
8.43683872307776
 41
0.7071067811865476
 10
75.35300533771984
 20
-56.3620554781024
 30
8.43683872307776
 41
1.0
 10
75.35300533771984
 20
-53.36180905400678
 30
8.43683872307776
 41
0.7071067811865476
 10
72.35275891362421
 20
-53.36180905400677
 30
8.43683872307776
 41
1.0
  0
SPLINE
  5
69
330
1F
100
AcDbEntity
  8
Default
100
AcDbSpline
210
0.0
220
0.0
230
1.0
 70
    12
 71
     2
 72
     8
 73
     5
 74
     0
 42
0.0000000001
 43
0.0000000001
 40
-37.70220849959141
 40
-37.70220849959141
 40
-37.70220849959141
 40
-32.98943243714248
 40
-32.98943243714248
 40
-28.27665637469355
 40
-28.27665637469355
 40
-28.27665637469355
 10
72.35275891362421
 20
-53.36180905400677
 30
8.43683872307776
 41
1.0
 10
75.35300533771984
 20
-53.36180905400678
 30
8.43683872307776
 41
0.7071067811865476
 10
75.35300533771984
 20
-50.36156262991115
 30
8.43683872307776
 41
1.0
 10
75.35300533771984
 20
-47.36131620581553
 30
8.43683872307776
 41
0.7071067811865476
 10
72.35275891362421
 20
-47.36131620581553
 30
8.43683872307776
 41
1.0
  0
SPLINE
  5
6A
330
1F
100
AcDbEntity
  8
Default
100
AcDbSpline
210
0.0
220
0.0
230
1.0
 70
    12
 71
     2
 72
     8
 73
     5
 74
     0
 42
0.0000000001
 43
0.0000000001
 40
-28.27665637469355
 40
-28.27665637469355
 40
-28.27665637469355
 40
-23.56388031224463
 40
-23.56388031224463
 40
-18.8511042497957
 40
-18.8511042497957
 40
-18.8511042497957
 10
72.35275891362421
 20
-47.36131620581553
 30
8.43683872307776
 41
1.0
 10
75.35300533771984
 20
-47.36131620581553
 30
8.43683872307776
 41
0.7071067811865476
 10
75.35300533771984
 20
-44.36106978171991
 30
8.43683872307776
 41
1.0
 10
75.35300533771984
 20
-41.36082335762429
 30
8.43683872307776
 41
0.7071067811865476
 10
72.35275891362421
 20
-41.36082335762428
 30
8.43683872307776
 41
1.0
  0
SPLINE
  5
6B
330
1F
100
AcDbEntity
  8
Default
100
AcDbSpline
210
0.0
220
0.0
230
1.0
 70
    12
 71
     2
 72
     8
 73
     5
 74
     0
 42
0.0000000001
 43
0.0000000001
 40
-18.8511042497957
 40
-18.8511042497957
 40
-18.8511042497957
 40
-14.13832818734678
 40
-14.13832818734678
 40
-9.425552124897852
 40
-9.425552124897852
 40
-9.425552124897852
 10
72.35275891362421
 20
-41.36082335762428
 30
8.43683872307776
 41
1.0
 10
75.35300533771984
 20
-41.36082335762429
 30
8.43683872307776
 41
0.7071067811865476
 10
75.35300533771984
 20
-38.36057693352866
 30
8.43683872307776
 41
1.0
 10
75.35300533771984
 20
-35.36033050943304
 30
8.43683872307776
 41
0.7071067811865476
 10
72.35275891362421
 20
-35.36033050943304
 30
8.43683872307776
 41
1.0
  0
SPLINE
  5
6C
330
1F
100
AcDbEntity
  8
Default
100
AcDbSpline
210
0.0
220
0.0
230
1.0
 70
    12
 71
     2
 72
     8
 73
     5
 74
     0
 42
0.0000000001
 43
0.0000000001
 40
-9.425552124897852
 40
-9.425552124897852
 40
-9.425552124897852
 40
-4.712776062448927
 40
-4.712776062448927
 40
-0.0000000000000022
 40
-0.0000000000000022
 40
-0.0000000000000022
 10
72.35275891362421
 20
-35.36033050943304
 30
8.43683872307776
 41
1.0
 10
75.35300533771984
 20
-35.36033050943304
 30
8.43683872307776
 41
0.7071067811865476
 10
75.35300533771984
 20
-32.36008408533742
 30
8.43683872307776
 41
1.0
 10
75.35300533771984
 20
-29.3598376612418
 30
8.43683872307776
 41
0.7071067811865476
 10
72.35275891362421
 20
-29.3598376612418
 30
8.43683872307776
 41
1.0
  0
SPLINE
  5
6D
330
1F
100
AcDbEntity
  8
Default
100
AcDbSpline
210
0.0
220
0.0
230
1.0
 70
    12
 71
     2
 72
     8
 73
     5
 74
     0
 42
0.0000000001
 43
0.0000000001
 40
-0.0000000000000022
 40
-0.0000000000000022
 40
-0.0000000000000022
 40
4.712776062448923
 40
4.712776062448923
 40
9.425552124897848
 40
9.425552124897848
 40
9.425552124897848
 10
72.35275891362421
 20
-29.3598376612418
 30
8.43683872307776
 41
1.0
 10
75.35300533771984
 20
-29.3598376612418
 30
8.43683872307776
 41
0.7071067811865476
 10
75.35300533771984
 20
-26.35959123714618
 30
8.43683872307776
 41
1.0
 10
75.35300533771984
 20
-23.35934481305056
 30
8.43683872307776
 41
0.7071067811865476
 10
72.35275891362421
 20
-23.35934481305056
 30
8.43683872307776
 41
1.0
  0
SPLINE
  5
6E
330
1F
100
AcDbEntity
  8
Default
100
AcDbSpline
210
0.0
220
0.0
230
1.0
 70
    28
 71
     2
 72
     6
 73
     3
 74
     0
 42
0.0000000001
 43
0.0000000001
 40
-230.5869452918388
 40
-230.5869452918388
 40
-230.5869452918388
 40
-230.3235583238762
 40
-230.3235583238762
 40
-230.3235583238762
 10
72.35275891362421
 20
-23.35934481305056
 30
8.43683872307776
 41
1.0
 10
72.22106542964289
 20
-23.35934481305056
 30
8.43683872307776
 41
1.0
 10
72.0893719456616
 20
-23.35934481305056
 30
8.43683872307776
 41
1.0
  0
LINE
  5
6F
330
1F
100
AcDbEntity
  8
Default
100
AcDbLine
 10
11.41540348806156
 20
-47.66194961909203
 30
8.436838723077745
 11
13.21540348806156
 21
-47.66194961909203
 31
8.436838723077745
  0
LINE
  5
70
330
1F
100
AcDbEntity
  8
Default
100
AcDbLine
 10
13.21540348806156
 20
-47.66194961909203
 30
8.436838723077745
 11
13.21540348806156
 21
-51.66371643983466
 31
8.436838723077745
  0
LINE
  5
71
330
1F
100
AcDbEntity
  8
Default
100
AcDbLine
 10
13.21540348806156
 20
-51.66371643983466
 30
8.436838723077745
 11
11.41540348806156
 21
-51.64671100863329
 31
8.436838723077745
  0
LINE
  5
72
330
1F
100
AcDbEntity
  8
Default
100
AcDbLine
 10
11.41540348806156
 20
-51.64671100863329
 30
8.436838723077745
 11
11.41540348806156
 21
-47.66194961909203
 31
8.436838723077745
  0
LINE
  5
73
330
1F
100
AcDbEntity
  8
Default
100
AcDbLine
 10
11.41540348806156
 20
-31.07793203631348
 30
8.436838723077745
 11
13.21540348806156
 21
-31.06092660511211
 31
8.436838723077745
  0
LINE
  5
74
330
1F
100
AcDbEntity
  8
Default
100
AcDbLine
 10
13.21540348806156
 20
-31.06092660511211
 30
8.436838723077745
 11
13.21540348806156
 21
-35.06269342585474
 31
8.436838723077745
  0
LINE
  5
75
330
1F
100
AcDbEntity
  8
Default
100
AcDbLine
 10
13.21540348806156
 20
-35.06269342585474
 30
8.436838723077745
 11
11.41540348806156
 21
-35.06269342585474
 31
8.436838723077745
  0
LINE
  5
76
330
1F
100
AcDbEntity
  8
Default
100
AcDbLine
 10
11.41540348806156
 20
-35.06269342585474
 30
8.436838723077745
 11
11.41540348806156
 21
-31.07793203631348
 31
8.436838723077745
  0
LINE
  5
77
330
1F
100
AcDbEntity
  8
Default
100
AcDbLine
 10
40.54648191390408
 20
-35.06269342585474
 30
8.436838723077743
 11
38.74648191390408
 21
-35.06269342585474
 31
8.436838723077743
  0
LINE
  5
78
330
1F
100
AcDbEntity
  8
Default
100
AcDbLine
 10
38.74648191390408
 20
-35.06269342585474
 30
8.436838723077743
 11
38.74648191390408
 21
-31.07793203631348
 31
8.436838723077743
  0
LINE
  5
79
330
1F
100
AcDbEntity
  8
Default
100
AcDbLine
 10
38.74648191390408
 20
-31.07793203631348
 30
8.436838723077743
 11
40.54648191390408
 21
-31.06092660511211
 31
8.436838723077743
  0
LINE
  5
7A
330
1F
100
AcDbEntity
  8
Default
100
AcDbLine
 10
40.54648191390408
 20
-31.06092660511211
 30
8.436838723077743
 11
40.54648191390408
 21
-35.06269342585474
 31
8.436838723077743
  0
LINE
  5
7B
330
1F
100
AcDbEntity
  8
Default
100
AcDbLine
 10
67.50858741185561
 20
-47.66194961909203
 30
8.436838723077745
 11
67.50858741185561
 21
-51.66371643983466
 31
8.436838723077745
  0
LINE
  5
7C
330
1F
100
AcDbEntity
  8
Default
100
AcDbLine
 10
67.50858741185561
 20
-51.66371643983466
 30
8.436838723077745
 11
65.7085874118556
 21
-51.64671100863329
 31
8.436838723077745
  0
LINE
  5
7D
330
1F
100
AcDbEntity
  8
Default
100
AcDbLine
 10
65.7085874118556
 20
-51.64671100863329
 30
8.436838723077745
 11
65.7085874118556
 21
-47.66194961909203
 31
8.436838723077745
  0
LINE
  5
7E
330
1F
100
AcDbEntity
  8
Default
100
AcDbLine
 10
65.7085874118556
 20
-47.66194961909203
 30
8.436838723077745
 11
67.50858741185561
 21
-47.66194961909203
 31
8.436838723077745
  0
LINE
  5
7F
330
1F
100
AcDbEntity
  8
Default
100
AcDbLine
 10
67.50858741185561
 20
-35.06269342585474
 30
8.436838723077745
 11
65.7085874118556
 21
-35.06269342585474
 31
8.436838723077745
  0
LINE
  5
80
330
1F
100
AcDbEntity
  8
Default
100
AcDbLine
 10
65.7085874118556
 20
-35.06269342585474
 30
8.436838723077745
 11
65.7085874118556
 21
-31.07793203631348
 31
8.436838723077745
  0
LINE
  5
81
330
1F
100
AcDbEntity
  8
Default
100
AcDbLine
 10
65.7085874118556
 20
-31.07793203631348
 30
8.436838723077745
 11
67.50858741185561
 21
-31.06092660511211
 31
8.436838723077745
  0
LINE
  5
82
330
1F
100
AcDbEntity
  8
Default
100
AcDbLine
 10
67.50858741185561
 20
-31.06092660511211
 30
8.436838723077745
 11
67.50858741185561
 21
-35.06269342585474
 31
8.436838723077745
  0
POLYLINE
  5
83
330
1F
100
AcDbEntity
  8
Default
100
AcDb2dPolyline
 66
     1
 10
0.0
 20
0.0
 30
8.436838723077743
  0
VERTEX
  5
84
330
83
100
AcDbEntity
  8
Default
100
AcDbVertex
100
AcDb2dVertex
 10
40.54648191390408
 20
-51.66371643983466
 30
8.436838723077743
  0
VERTEX
  5
85
330
83
100
AcDbEntity
  8
Default
100
AcDbVertex
100
AcDb2dVertex
 10
38.74648191390408
 20
-51.64671100863329
 30
8.436838723077743
  0
SEQEND
  5
86
330
83
100
AcDbEntity
  8
Default
  0
LINE
  5
87
330
1F
100
AcDbEntity
  8
Default
100
AcDbLine
 10
38.74648191390408
 20
-51.64671100863329
 30
8.436838723077743
 11
38.74648191390408
 21
-47.66194961909203
 31
8.436838723077743
  0
LINE
  5
88
330
1F
100
AcDbEntity
  8
Default
100
AcDbLine
 10
38.74648191390408
 20
-47.66194961909203
 30
8.436838723077743
 11
40.54648191390408
 21
-47.66194961909203
 31
8.436838723077743
  0
LINE
  5
89
330
1F
100
AcDbEntity
  8
Default
100
AcDbLine
 10
40.54648191390408
 20
-47.66194961909203
 30
8.436838723077743
 11
40.54648191390408
 21
-51.66371643983466
 31
8.436838723077743
  0
SPLINE
  5
8A
330
1F
100
AcDbEntity
  8
Default
100
AcDbSpline
210
0.0
220
0.0
230
1.0
 70
     8
 71
     3
 72
     9
 73
     5
 74
     0
 42
0.0000000001
 43
0.0000000001
 40
0.0
 40
0.0
 40
0.0
 40
0.0
 40
1.211073250528544
 40
2.121545894942603
 40
2.121545894942603
 40
2.121545894942603
 40
2.121545894942603
 10
131.9996128401183
 20
-42.67610597561801
 30
6.359330548760979
 10
131.692735670972
 20
-42.94574249109368
 30
6.359330548760981
 10
131.2432165900615
 20
-43.50491984679719
 30
6.359330548760973
 10
131.0419745669872
 20
-44.19088027872372
 30
6.359330548760967
 10
130.9982658468689
 20
-44.49394947372332
 30
6.359330548760985
  0
SPLINE
  5
8B
330
1F
100
AcDbEntity
  8
Default
100
AcDbSpline
210
0.0
220
0.0
230
1.0
 70
    12
 71
     3
 72
     9
 73
     5
 74
     0
 42
0.0000000001
 43
0.0000000001
 40
0.0
 40
0.0
 40
0.0
 40
0.0
 40
1.603288539851879
 40
2.625956760884559
 40
2.625956760884559
 40
2.625956760884559
 40
2.625956760884559
 10
130.9982658468689
 20
-44.49394947372332
 30
6.359330548760985
 41
1.0
 10
130.8332546719002
 20
-43.982503471928
 30
6.359330548760986
 41
1.0
 10
130.5072247247238
 20
-43.1628325387189
 30
6.359330548760974
 41
1.0
 10
130.0942450241023
 20
-42.3846301393484
 30
6.359330548760986
 41
1.0
 10
129.9298037881851
 20
-42.10020399581008
 30
6.359330548760973
 41
1.0
  0
SPLINE
  5
8C
330
1F
100
AcDbEntity
  8
Default
100
AcDbSpline
210
0.0
220
0.0
230
1.0
 70
     8
 71
     3
 72
     9
 73
     5
 74
     0
 42
0.0000000001
 43
0.0000000001
 40
0.0
 40
0.0
 40
0.0
 40
0.0
 40
0.2122993613030079
 40
2.188179971733355
 40
2.188179971733355
 40
2.188179971733355
 40
2.188179971733355
 10
129.9298037881851
 20
-42.10020399581008
 30
6.359330548760973
 10
129.9812553317222
 20
-42.1402940314011
 30
6.359330548760974
 10
130.5328771363384
 20
-42.53328008582248
 30
6.359330548760971
 10
131.3108094649536
 20
-42.68596621990564
 30
6.359330548760971
 10
131.9996128401183
 20
-42.67610597561801
 30
6.359330548760979
  0
SPLINE
  5
8D
330
1F
100
AcDbEntity
  8
Default
100
AcDbSpline
210
0.0
220
0.0
230
1.0
 70
     8
 71
     3
 72
    18
 73
    14
 74
     0
 42
0.0000000001
 43
0.0000000001
 40
0.0
 40
0.0
 40
0.0
 40
0.0
 40
0.7671213846396711
 40
1.66073013843159
 40
2.975942467932948
 40
4.161358887645066
 40
5.493472166823467
 40
6.760521888658445
 40
7.685816855555049
 40
9.465380291532293
 40
11.89638369576676
 40
14.04946498464872
 40
15.15406451817483
 40
15.15406451817483
 40
15.15406451817483
 40
15.15406451817483
 10
137.8896294971285
 20
-70.94119766298188
 30
6.359330548760955
 10
137.9212327528783
 20
-70.69184166151943
 30
6.359330548760968
 10
138.1153791047266
 20
-70.155891214147
 30
6.359330548760964
 10
138.9648828804425
 20
-69.53726960271565
 30
6.359330548760955
 10
140.3717342985798
 20
-70.00769494081914
 30
6.359330548760961
 10
140.2080620967546
 20
-71.4120287033699
 30
6.359330548760964
 10
139.7012605868206
 20
-72.72381160666433
 30
6.359330548760965
 10
138.3063520310446
 20
-72.59167677316748
 30
6.359330548760966
 10
137.2632014771702
 20
-71.7820765444176
 30
6.359330548760954
 10
136.7284576219186
 20
-70.07767928808343
 30
6.359330548760964
 10
136.8425522201886
 20
-67.9461695442277
 30
6.359330548760951
 10
137.9595619867529
 20
-66.28961930333621
 30
6.35933054876095
 10
137.8438935506624
 20
-65.22457449444583
 30
6.359330548760956
 10
137.799392157567
 20
-64.85955147583203
 30
6.359330548760963
  0
SPLINE
  5
8E
330
1F
100
AcDbEntity
  8
Default
100
AcDbSpline
210
0.0
220
0.0
230
1.0
 70
    12
 71
     2
 72
     8
 73
     5
 74
     0
 42
0.0000000001
 43
0.0000000001
 40
0.0
 40
0.0
 40
0.0
 40
2.624013620152775
 40
2.624013620152775
 40
5.248027240305578
 40
5.248027240305578
 40
5.248027240305578
 10
137.799392157567
 20
-64.85955147583203
 30
6.359330548760963
 41
1.0
 10
139.1141914407973
 20
-65.3235138078727
 30
6.359330548760957
 41
0.9140152020846402
 10
140.3402936221156
 20
-64.65971290270461
 30
6.359330548760965
 41
1.0
 10
141.566395803434
 20
-63.99591199753659
 30
6.359330548760956
 41
0.9140152020846402
 10
141.8966518807873
 20
-62.64133120477938
 30
6.359330548760967
 41
1.0
  0
SPLINE
  5
8F
330
1F
100
AcDbEntity
  8
Default
100
AcDbSpline
210
0.0
220
0.0
230
1.0
 70
     8
 71
     3
 72
     8
 73
     4
 74
     0
 42
0.0000000001
 43
0.0000000001
 40
0.0
 40
0.0
 40
0.0
 40
0.0
 40
5.627198959266441
 40
5.627198959266441
 40
5.627198959266441
 40
5.627198959266441
 10
141.8966518807873
 20
-62.64133120477938
 30
6.359330548760967
 10
142.1469876297464
 20
-64.50028420287946
 30
6.359330548760968
 10
142.3962148574265
 20
-66.35938666309113
 30
6.359330548760962
 10
142.644608729998
 20
-68.21860013131396
 30
6.359330548760961
  0
SPLINE
  5
90
330
1F
100
AcDbEntity
  8
Default
100
AcDbSpline
210
0.0
220
0.0
230
1.0
 70
     8
 71
     3
 72
    12
 73
     8
 74
     0
 42
0.0000000001
 43
0.0000000001
 40
0.0
 40
0.0
 40
0.0
 40
0.0
 40
0.9768390906029338
 40
3.645493475880555
 40
5.767549247663599
 40
7.511880294446874
 40
8.53291079595433
 40
8.53291079595433
 40
8.53291079595433
 40
8.53291079595433
 10
142.644608729998
 20
-68.21860013131396
 30
6.359330548760961
 10
142.4623979053825
 20
-67.94970479180981
 30
6.359330548760962
 10
141.6316228480159
 20
-67.04312786623302
 30
6.359330548760957
 10
139.4327945992009
 20
-66.48122331450087
 30
6.359330548760956
 10
137.8563970893794
 20
-68.19247825206976
 30
6.35933054876095
 10
137.3128407247266
 20
-69.80071223090556
 30
6.359330548760948
 10
137.7046595652221
 20
-70.66577488233506
 30
6.359330548760954
 10
137.8896294971285
 20
-70.94119766298188
 30
6.359330548760955
  0
SPLINE
  5
91
330
1F
100
AcDbEntity
  8
Default
100
AcDbSpline
210
0.0
220
0.0
230
1.0
 70
     8
 71
     3
 72
    14
 73
    10
 74
     0
 42
0.0000000001
 43
0.0000000001
 40
0.0
 40
0.0
 40
0.0
 40
0.0
 40
4.112331072899942
 40
4.112331072899942
 40
6.170996040615845
 40
6.170996040615845
 40
7.19983274424414
 40
7.19983274424414
 40
7.993234913095218
 40
7.993234913095218
 40
7.993234913095218
 40
7.993234913095218
 10
129.9763990435571
 20
-65.35285028269845
 30
6.359330548760954
 10
129.2640565682875
 20
-64.22352882534496
 30
6.359330548760962
 10
128.6784579775094
 20
-63.02424093630856
 30
6.359330548760952
 10
127.9227471294182
 20
-61.17377773312253
 30
6.35933054876096
 10
127.6915484998755
 20
-60.54954111532196
 30
6.359330548760967
 10
127.3669069698617
 20
-59.60381732656556
 30
6.359330548760966
 10
127.2625711592831
 20
-59.28749430289949
 30
6.359330548760957
 10
127.0851232084227
 20
-58.72466360081754
 30
6.359330548760955
 10
126.9416000373038
 20
-58.26126571485945
 30
6.359330548760973
 10
126.879802771139
 20
-58.01143454495836
 30
6.35933054876097
  0
SPLINE
  5
92
330
1F
100
AcDbEntity
  8
Default
100
AcDbSpline
210
0.0
220
0.0
230
1.0
 70
     8
 71
     3
 72
     8
 73
     4
 74
     0
 42
0.0000000001
 43
0.0000000001
 40
0.0
 40
0.0
 40
0.0
 40
0.0
 40
0.1251689992321472
 40
0.1251689992321472
 40
0.1251689992321472
 40
0.1251689992321472
 10
126.879802771139
 20
-58.01143454495836
 30
6.35933054876097
 10
126.908172032024
 20
-57.98082250058853
 30
6.359330548760971
 10
126.9369709252924
 20
-57.95066488462805
 30
6.359330548760967
 10
126.9666765884744
 20
-57.92133522490064
 30
6.359330548760974
  0
SPLINE
  5
93
330
1F
100
AcDbEntity
  8
Default
100
AcDbSpline
210
0.0
220
0.0
230
1.0
 70
     8
 71
     3
 72
     8
 73
     4
 74
     0
 42
0.0000000001
 43
0.0000000001
 40
0.0
 40
0.0
 40
0.0
 40
0.0
 40
1.536010426688829
 40
1.536010426688829
 40
1.536010426688829
 40
1.536010426688829
 10
126.9666765884744
 20
-57.92133522490064
 30
6.359330548760974
 10
127.3489790868442
 20
-57.57915996005308
 30
6.359330548760967
 10
127.7128616296739
 20
-57.2209369830299
 30
6.359330548760965
 10
128.0597102658834
 20
-56.84279042874283
 30
6.359330548760968
  0
SPLINE
  5
94
330
1F
100
AcDbEntity
  8
Default
100
AcDbSpline
210
0.0
220
0.0
230
1.0
 70
     8
 71
     3
 72
    10
 73
     6
 74
     0
 42
0.0000000001
 43
0.0000000001
 40
0.0
 40
0.0
 40
0.0
 40
0.0
 40
2.037207528347744
 40
4.163620649154347
 40
5.986605624605585
 40
5.986605624605585
 40
5.986605624605585
 40
5.986605624605585
 10
128.0597102658834
 20
-56.84279042874283
 30
6.359330548760968
 10
128.0479378574274
 20
-57.51700943101164
 30
6.359330548760962
 10
128.2846380658799
 20
-58.92388021708892
 30
6.359330548760969
 10
129.5060562984864
 20
-60.57754914172131
 30
6.359330548760968
 10
130.6687760728109
 20
-61.24157923311485
 30
6.359330548760962
 10
131.2352576856861
 20
-61.44944071473705
 30
6.359330548760966
  0
SPLINE
  5
95
330
1F
100
AcDbEntity
  8
Default
100
AcDbSpline
210
0.0
220
0.0
230
1.0
 70
     8
 71
     3
 72
    10
 73
     6
 74
     0
 42
0.0000000001
 43
0.0000000001
 40
0.0
 40
0.0
 40
0.0
 40
0.0
 40
1.559204178618047
 40
3.399364148411566
 40
4.28853732889441
 40
4.28853732889441
 40
4.28853732889441
 40
4.28853732889441
 10
131.2352576856861
 20
-61.44944071473705
 30
6.359330548760966
 10
130.8444036769189
 20
-61.78077514071771
 30
6.359330548760957
 10
130.0838684846582
 20
-62.68540029355462
 30
6.359330548760957
 10
129.9459930447188
 20
-64.10308379906716
 30
6.35933054876096
 10
129.9417901149754
 20
-65.05620028588883
 30
6.359330548760959
 10
129.9763990435571
 20
-65.35285028269845
 30
6.359330548760954
  0
POLYLINE
  5
96
330
1F
100
AcDbEntity
  8
Default
100
AcDb2dPolyline
 66
     1
 10
0.0
 20
0.0
 30
144.4455628469659
210
1.0
220
0.0
230
0.0
  0
VERTEX
  5
97
330
96
100
AcDbEntity
  8
Default
100
AcDbVertex
100
AcDb2dVertex
 10
-56.6607779648412
 20
6.35318800503595
 30
144.4455628469659
  0
VERTEX
  5
98
330
96
100
AcDbEntity
  8
Default
100
AcDbVertex
100
AcDb2dVertex
 10
-56.71200333419964
 20
6.359330548760969
 30
144.4455628469659
  0
SEQEND
  5
99
330
96
100
AcDbEntity
  8
Default
  0
SPLINE
  5
9A
330
1F
100
AcDbEntity
  8
Default
100
AcDbSpline
210
0.0
220
0.0
230
1.0
 70
    24
 71
     3
 72
     8
 73
     4
 74
     0
 42
0.0000000001
 43
0.0000000001
 40
0.0
 40
0.0
 40
0.0
 40
0.0
 40
1.760932906486075
 40
1.760932906486075
 40
1.760932906486075
 40
1.760932906486075
 10
144.4455628469659
 20
-56.71200333419964
 30
6.359330548760969
 10
144.4455628469659
 20
-57.29898096969501
 30
6.359330548760965
 10
144.4455628469659
 20
-57.88595860519037
 30
6.359330548760973
 10
144.4455628469659
 20
-58.47293624068573
 30
6.359330548760967
  0
SPLINE
  5
9B
330
1F
100
AcDbEntity
  8
Default
100
AcDbSpline
210
0.0
220
0.0
230
1.0
 70
    24
 71
     3
 72
     8
 73
     4
 74
     0
 42
0.0000000001
 43
0.0000000001
 40
0.0
 40
0.0
 40
0.0
 40
0.0
 40
2.000473743097638
 40
2.000473743097638
 40
2.000473743097638
 40
2.000473743097638
 10
144.4455628469659
 20
-58.47293624068573
 30
6.359330548760967
 10
143.7787382659334
 20
-58.47293624068573
 30
6.359330548760967
 10
143.1119136849008
 20
-58.47293624068571
 30
6.359330548760966
 10
142.4450891038683
 20
-58.47293624068571
 30
6.359330548760966
  0
SPLINE
  5
9C
330
1F
100
AcDbEntity
  8
Default
100
AcDbSpline
210
0.0
220
0.0
230
1.0
 70
    24
 71
     3
 72
     8
 73
     4
 74
     0
 42
0.0000000001
 43
0.0000000001
 40
0.0
 40
0.0
 40
0.0
 40
0.0
 40
1.76093290648607
 40
1.76093290648607
 40
1.76093290648607
 40
1.76093290648607
 10
142.4450891038683
 20
-58.47293624068571
 30
6.359330548760966
 10
142.4450891038683
 20
-57.88595860519037
 30
6.359330548760973
 10
142.4450891038683
 20
-57.29898096969501
 30
6.359330548760979
 10
142.4450891038683
 20
-56.71200333419964
 30
6.359330548760969
  0
LINE
  5
9D
330
1F
100
AcDbEntity
  8
Default
100
AcDbLine
 10
142.4450891038683
 20
-56.71200333419964
 30
6.359330548760969
 11
142.4450891038683
 21
-56.6607779648412
 31
6.35318800503595
  0
LINE
  5
9E
330
1F
100
AcDbEntity
  8
Default
100
AcDbLine
 10
142.4450891038683
 20
-56.6607779648412
 30
6.35318800503595
 11
144.4455628469659
 21
-56.6607779648412
 31
6.35318800503595
  0
SPLINE
  5
9F
330
1F
100
AcDbEntity
  8
Default
100
AcDbSpline
210
-2.240478320304233E-11
220
-0.1190592246717798
230
-0.992887154222752
 70
     8
 71
     3
 72
     8
 73
     4
 74
     0
 42
0.0000000001
 43
0.0000000001
 40
-0.0568536701526158
 40
-0.0568536701526158
 40
-0.0568536701526158
 40
-0.0568536701526158
 40
0.0
 40
0.0
 40
0.0
 40
0.0
 10
134.5499469049691
 20
-56.71200333419966
 30
6.359330548760958
 10
134.5422547889543
 20
-56.69480659120343
 30
6.357268450486113
 10
134.5343478364001
 20
-56.67776250910063
 30
6.355224658105882
 10
134.5261914788595
 20
-56.66077796484119
 30
6.353188005035949
  0
SPLINE
  5
A0
330
1F
100
AcDbEntity
  8
Default
100
AcDbSpline
210
-1.965819666591675E-7
220
0.9928871528855857
230
-0.1190592358228319
 70
     8
 71
     3
 72
     8
 73
     4
 74
     0
 42
0.0000000001
 43
0.0000000001
 40
-0.0061966606305738
 40
-0.0061966606305738
 40
-0.0061966606305738
 40
-0.0061966606305738
 40
0.0
 40
0.0
 40
0.0
 40
0.0
 10
134.5261914788595
 20
-56.66077796484119
 30
6.353188005035949
 10
134.526073573601
 20
-56.66053244261266
 30
6.35523552271024
 10
134.5259556101867
 20
-56.66028692070735
 30
6.357283037689113
 10
134.5258375886807
 20
-56.66004139927055
 30
6.359330548760963
  0
SPLINE
  5
A1
330
1F
100
AcDbEntity
  8
Default
100
AcDbSpline
210
0.0
220
0.0
230
1.0
 70
     8
 71
     3
 72
     8
 73
     4
 74
     0
 42
0.0000000001
 43
0.0000000001
 40
4.646170140524585
 40
4.646170140524585
 40
4.646170140524585
 40
4.646170140524585
 40
5.760749073562204
 40
5.760749073562204
 40
5.760749073562204
 40
5.760749073562204
 10
134.5258375886807
 20
-56.66004139927055
 30
6.359330548760963
 10
134.3657081399335
 20
-56.32692234602695
 30
6.359330548760957
 10
134.1152741737953
 20
-56.0292693436235
 30
6.359330548760961
 10
133.8373830451467
 20
-55.78688573271344
 30
6.359330548760971
  0
SPLINE
  5
A2
330
1F
100
AcDbEntity
  8
Default
100
AcDbSpline
210
0.0
220
0.0
230
1.0
 70
    12
 71
     2
 72
     6
 73
     3
 74
     0
 42
0.0000000001
 43
0.0000000001
 40
0.0
 40
0.0
 40
0.0
 40
4.319289048903785
 40
4.319289048903785
 40
4.319289048903785
 10
133.8373830451467
 20
-55.78688573271344
 30
6.359330548760971
 41
1.0
 10
136.2034466966526
 20
-56.17439264390144
 30
6.359330548760961
 41
0.8578319561456014
 10
137.6613174748489
 20
-54.27096636393235
 30
6.359330548760962
 41
1.0
  0
SPLINE
  5
A3
330
1F
100
AcDbEntity
  8
Default
100
AcDbSpline
210
0.0
220
0.0
230
1.0
 70
     8
 71
     3
 72
     8
 73
     4
 74
     0
 42
0.0000000001
 43
0.0000000001
 40
0.0
 40
0.0
 40
0.0
 40
0.0
 40
2.400568825976873
 40
2.400568825976873
 40
2.400568825976873
 40
2.400568825976873
 10
137.6613174748489
 20
-54.27096636393235
 30
6.359330548760962
 10
137.5790591984898
 20
-55.06875269815953
 30
6.359330548760973
 10
137.554652224184
 20
-55.86950677611354
 30
6.359330548760969
 10
137.6556739765194
 20
-56.66004139927054
 30
6.359330548760962
  0
SPLINE
  5
A4
330
1F
100
AcDbEntity
  8
Default
100
AcDbSpline
210
7.446787521409375E-7
220
-0.992887152874436
230
0.1190592359136484
 70
     8
 71
     3
 72
     8
 73
     4
 74
     0
 42
0.0000000001
 43
0.0000000001
 40
0.0
 40
0.0
 40
0.0
 40
0.0
 40
0.0061872641242838
 40
0.0061872641242838
 40
0.0061872641242838
 40
0.0061872641242838
 10
137.6556739765194
 20
-56.66004139927054
 30
6.359330548760962
 10
137.6557053515526
 20
-56.66028692114524
 30
6.357283034037334
 10
137.6557367388091
 20
-56.66053244301079
 30
6.355235519390126
 10
137.6557681382882
 20
-56.66077796484119
 30
6.353188005035949
  0
SPLINE
  5
A5
330
1F
100
AcDbEntity
  8
Default
100
AcDbSpline
210
-9.888266010383288E-11
220
0.1190592246487298
230
0.9928871542255158
 70
     8
 71
     3
 72
     8
 73
     4
 74
     0
 42
0.0000000001
 43
0.0000000001
 40
0.0
 40
0.0
 40
0.0
 40
0.0
 40
0.0520211116878501
 40
0.0520211116878501
 40
0.0520211116878501
 40
0.0520211116878501
 10
137.6557681382882
 20
-56.66077796484119
 30
6.353188005035949
 10
137.6579524635425
 20
-56.67785785123414
 30
6.355236090785261
 10
137.6601961100462
 20
-56.69493860890026
 30
6.35728428101082
 10
137.662497498758
 20
-56.71200333419965
 30
6.359330548760957
  0
SPLINE
  5
A6
330
1F
100
AcDbEntity
  8
Default
100
AcDbSpline
210
0.0
220
0.0
230
1.0
 70
     8
 71
     3
 72
     9
 73
     5
 74
     0
 42
0.0000000001
 43
0.0000000001
 40
2.453180430585491
 40
2.453180430585491
 40
2.453180430585491
 40
2.453180430585491
 40
2.856212515909716
 40
4.624795727228287
 40
4.624795727228287
 40
4.624795727228287
 40
4.624795727228287
 10
137.662497498758
 20
-56.71200333419965
 30
6.359330548760957
 10
137.6803865535283
 20
-56.8446501156652
 30
6.359330548760965
 10
137.7960510339605
 20
-57.55778078142919
 30
6.359330548760962
 10
138.0248563682316
 20
-58.26050005165889
 30
6.359330548760962
 10
138.160078135842
 20
-58.83143628470772
 30
6.359330548760958
  0
SPLINE
  5
A7
330
1F
100
AcDbEntity
  8
Default
100
AcDbSpline
210
0.0
220
0.0
230
1.0
 70
    12
 71
     2
 72
     6
 73
     3
 74
     0
 42
0.0000000001
 43
0.0000000001
 40
0.0
 40
0.0
 40
0.0
 40
4.38236324967388
 40
4.38236324967388
 40
4.38236324967388
 10
138.160078135842
 20
-58.83143628470772
 30
6.359330548760958
 41
1.0
 10
135.5901208286111
 20
-59.40534633904176
 30
6.359330548760962
 41
0.7663601048323576
 10
135.7064590272141
 20
-62.03603422151684
 30
6.359330548760958
 41
1.0
  0
SPLINE
  5
A8
330
1F
100
AcDbEntity
  8
Default
100
AcDbSpline
210
0.0
220
0.0
230
1.0
 70
     8
 71
     3
 72
     9
 73
     5
 74
     0
 42
0.0000000001
 43
0.0000000001
 40
0.0
 40
0.0
 40
0.0
 40
0.0
 40
1.38589875728373
 40
2.626842798411414
 40
2.626842798411414
 40
2.626842798411414
 40
2.626842798411414
 10
135.7064590272141
 20
-62.03603422151684
 30
6.359330548760958
 10
135.4730651238819
 20
-61.64516344966373
 30
6.359330548760963
 10
134.8187610607151
 20
-60.96346120121579
 30
6.359330548760966
 10
133.8899730007151
 20
-60.929184432692
 30
6.359330548760973
 10
133.4881516831607
 20
-60.99778024222479
 30
6.359330548760962
  0
SPLINE
  5
A9
330
1F
100
AcDbEntity
  8
Default
100
AcDbSpline
210
0.0
220
0.0
230
1.0
 70
     8
 71
     3
 72
    11
 73
     7
 74
     0
 42
0.0000000001
 43
0.0000000001
 40
0.0
 40
0.0
 40
0.0
 40
0.0
 40
1.35654164237234
 40
2.633431852608535
 40
4.460724408983112
 40
4.588531497379744
 40
4.588531497379744
 40
4.588531497379744
 40
4.588531497379744
 10
133.4881516831607
 20
-60.99778024222479
 30
6.359330548760962
 10
133.7477416968719
 20
-60.63167780174068
 30
6.359330548760961
 10
134.1868081409132
 20
-59.86900935455871
 30
6.359330548760967
 10
134.7057440126831
 20
-58.49974641761619
 30
6.359330548760963
 10
134.8126081053363
 20
-57.34821442966282
 30
6.359330548760973
 10
134.5672184426745
 20
-56.75061614171588
 30
6.359330548760969
 10
134.5499469049691
 20
-56.71200333419966
 30
6.359330548760958
  0
SPLINE
  5
AA
330
1F
100
AcDbEntity
  8
Default
100
AcDbSpline
210
0.0
220
0.0
230
1.0
 70
     8
 71
     3
 72
     9
 73
     5
 74
     0
 42
0.0000000001
 43
0.0000000001
 40
0.0
 40
0.0
 40
0.0
 40
0.0
 40
3.271755881069135
 40
3.562078702402814
 40
3.562078702402814
 40
3.562078702402814
 40
3.562078702402814
 10
98.21420721997922
 20
-49.17213257638706
 30
6.359330548760971
 10
98.32450082362776
 20
-50.32019783185812
 30
6.359330548760965
 10
98.81468849461021
 20
-51.55430614473897
 30
6.359330548760958
 10
99.79654645758168
 20
-52.11195262112587
 30
6.359330548760965
 10
99.87933801719502
 20
-52.15313958291789
 30
6.359330548760957
  0
SPLINE
  5
AB
330
1F
100
AcDbEntity
  8
Default
100
AcDbSpline
210
0.0
220
0.0
230
1.0
 70
     8
 71
     3
 72
     9
 73
     5
 74
     0
 42
0.0000000001
 43
0.0000000001
 40
0.0
 40
0.0
 40
0.0
 40
0.0
 40
0.6775311616940886
 40
2.910833580829092
 40
2.910833580829092
 40
2.910833580829092
 40
2.910833580829092
 10
99.87933801719502
 20
-52.15313958291789
 30
6.359330548760957
 10
99.70017382638555
 20
-52.22129701559575
 30
6.359330548760956
 10
98.94524453841409
 20
-52.5578207154232
 30
6.359330548760972
 10
97.87205617839523
 20
-53.16422423148603
 30
6.359330548760976
 10
97.42288236296555
 20
-53.67543152576557
 30
6.359330548760957
  0
SPLINE
  5
AC
330
1F
100
AcDbEntity
  8
Default
100
AcDbSpline
210
0.0
220
0.0
230
1.0
 70
    24
 71
     3
 72
     8
 73
     4
 74
     0
 42
0.0000000001
 43
0.0000000001
 40
0.0
 40
0.0
 40
0.0
 40
0.0
 40
4.572296628260382
 40
4.572296628260382
 40
4.572296628260382
 40
4.572296628260382
 10
97.42288236296555
 20
-53.67543152576557
 30
6.359330548760957
 10
97.68665731530344
 20
-52.17433187597274
 30
6.359330548760953
 10
97.95043226764132
 20
-50.67323222617989
 30
6.359330548760974
 10
98.21420721997922
 20
-49.17213257638706
 30
6.359330548760971
  0
SPLINE
  5
AD
330
1F
100
AcDbEntity
  8
Default
100
AcDbSpline
210
-5.656379127855991E-11
220
0.1190592246573204
230
0.9928871542244858
 70
     8
 71
     3
 72
     8
 73
     4
 74
     0
 42
0.0000000001
 43
0.0000000001
 40
-0.0517245938890645
 40
-0.0517245938890645
 40
-0.0517245938890645
 40
-0.0517245938890645
 40
0.0
 40
0.0
 40
0.0
 40
0.0
 10
138.8924436058355
 20
-56.71200333419969
 30
6.359330548760962
 10
138.8910476275012
 20
-56.69494064295881
 30
6.357284524919137
 10
138.8897509798126
 20
-56.67785558429813
 30
6.35523581895211
 10
138.8885544125173
 20
-56.66077796484122
 30
6.353188005035951
  0
SPLINE
  5
AE
330
1F
100
AcDbEntity
  8
Default
100
AcDbSpline
210
-9.814977261199977E-7
220
-0.992887155197069
230
0.1190592165424747
 70
     8
 71
     3
 72
     8
 73
     4
 74
     0
 42
0.0000000001
 43
0.0000000001
 40
-0.0061867621484699
 40
-0.0061867621484699
 40
-0.0061867621484699
 40
-0.0061867621484699
 40
0.0
 40
0.0
 40
0.0
 40
0.0
 10
138.8885544125173
 20
-56.66077796484122
 30
6.353188005035951
 10
138.8885372096872
 20
-56.66053244301577
 30
6.355235519348601
 10
138.8885200274075
 20
-56.66028692113673
 30
6.357283034108264
 10
138.8885028656775
 20
-56.66004139927055
 30
6.359330548760963
  0
SPLINE
  5
AF
330
1F
100
AcDbEntity
  8
Default
100
AcDbSpline
210
0.0
220
0.0
230
1.0
 70
     8
 71
     3
 72
     9
 73
     5
 74
     0
 42
0.0000000001
 43
0.0000000001
 40
2.291416606587304
 40
2.291416606587304
 40
2.291416606587304
 40
2.291416606587304
 40
5.145765804499015
 40
8.32745487232098
 40
8.32745487232098
 40
8.32745487232098
 40
8.32745487232098
 10
138.8885028656775
 20
-56.66004139927055
 30
6.359330548760963
 10
138.8230316789923
 20
-55.7233871105002
 30
6.35933054876097
 10
139.3159096463626
 20
-53.72692081405272
 30
6.359330548760977
 10
139.9071391740066
 20
-51.80248842635447
 30
6.359330548760978
 10
140.2863905631687
 20
-50.82114996484586
 30
6.359330548760976
  0
SPLINE
  5
B0
330
1F
100
AcDbEntity
  8
Default
100
AcDbSpline
210
0.0
220
0.0
230
1.0
 70
     8
 71
     3
 72
     8
 73
     4
 74
     0
 42
0.0000000001
 43
0.0000000001
 40
0.0
 40
0.0
 40
0.0
 40
0.0
 40
5.893535367205499
 40
5.893535367205499
 40
5.893535367205499
 40
5.893535367205499
 10
140.2863905631687
 20
-50.82114996484586
 30
6.359330548760976
 10
140.5555425886219
 20
-52.76714217432104
 30
6.35933054876097
 10
140.822144847727
 20
-54.71347779792791
 30
6.359330548760965
 10
141.087081799561
 20
-56.66004139927054
 30
6.359330548760962
  0
SPLINE
  5
B1
330
1F
100
AcDbEntity
  8
Default
100
AcDbSpline
210
-2.309137187868896E-11
220
-0.9928871542241476
230
0.1190592246601398
 70
     8
 71
     3
 72
     8
 73
     4
 74
     0
 42
0.0000000001
 43
0.0000000001
 40
0.0
 40
0.0
 40
0.0
 40
0.0
 40
0.0061873603169863
 40
0.0061873603169863
 40
0.0061873603169863
 40
0.0061873603169863
 10
141.087081799561
 20
-56.66004139927054
 30
6.359330548760962
 10
141.086973903252
 20
-56.66028710292821
 30
6.357281518069355
 10
141.0870073164861
 20
-56.66053253388469
 30
6.355234761552694
 10
141.0870407296952
 20
-56.66077796484119
 30
6.353188005035949
  0
SPLINE
  5
B2
330
1F
100
AcDbEntity
  8
Default
100
AcDbSpline
210
-6.627980262918886E-11
220
0.1190592246524697
230
0.9928871542250675
 70
     8
 71
     3
 72
     8
 73
     4
 74
     0
 42
0.0000000001
 43
0.0000000001
 40
0.0
 40
0.0
 40
0.0
 40
0.0
 40
0.0520614940894304
 40
0.0520614940894304
 40
0.0520614940894304
 40
0.0520614940894304
 10
141.0870407296952
 20
-56.66077796484119
 30
6.353188005035949
 10
141.0893653514117
 20
-56.67785307212336
 30
6.355235517711855
 10
141.0916898546079
 20
-56.69492819514045
 30
6.357283032274583
 10
141.0941536740988
 20
-56.71200333419972
 30
6.359330548760965
  0
SPLINE
  5
B3
330
1F
100
AcDbEntity
  8
Default
100
AcDbSpline
210
0.0
220
0.0
230
1.0
 70
     8
 71
     3
 72
     8
 73
     4
 74
     0
 42
0.0000000001
 43
0.0000000001
 40
5.94597635986607
 40
5.94597635986607
 40
5.94597635986607
 40
5.94597635986607
 40
9.638421866706764
 40
9.638421866706764
 40
9.638421866706764
 40
9.638421866706764
 10
141.0941536740988
 20
-56.71200333419972
 30
6.359330548760965
 10
141.2601246958639
 20
-57.93157605628517
 30
6.359330548760976
 10
141.4254451184493
 20
-59.15123786400801
 30
6.359330548760973
 10
141.5903324584246
 20
-60.37096036789326
 30
6.359330548760964
  0
SPLINE
  5
B4
330
1F
100
AcDbEntity
  8
Default
100
AcDbSpline
210
0.0
220
0.0
230
1.0
 70
    12
 71
     2
 72
     6
 73
     3
 74
     0
 42
0.0000000001
 43
0.0000000001
 40
0.0
 40
0.0
 40
0.0
 40
2.630698755509296
 40
2.630698755509296
 40
2.630698755509296
 10
141.5903324584246
 20
-60.37096036789326
 30
6.359330548760964
 41
1.0
 10
140.9109537532241
 20
-59.14883893990746
 30
6.359330548760973
 41
0.9135830268168084
 10
139.5482052823687
 20
-58.83570507875029
 30
6.359330548760966
 41
1.0
  0
SPLINE
  5
B5
330
1F
100
AcDbEntity
  8
Default
100
AcDbSpline
210
0.0
220
0.0
230
1.0
 70
     8
 71
     3
 72
     9
 73
     5
 74
     0
 42
0.0000000001
 43
0.0000000001
 40
0.0
 40
0.0
 40
0.0
 40
0.0
 40
2.168945225039705
 40
2.238625967404465
 40
2.238625967404465
 40
2.238625967404465
 40
2.238625967404465
 10
139.5482052823687
 20
-58.83570507875029
 30
6.359330548760966
 10
139.217043662566
 20
-58.19812520624239
 30
6.359330548760959
 10
138.9602109590817
 20
-57.46909381480877
 30
6.359330548760972
 10
138.8943137914667
 20
-56.73486214167801
 30
6.359330548760973
 10
138.8924436058355
 20
-56.71200333419969
 30
6.359330548760962
  0
SPLINE
  5
B6
330
1F
100
AcDbEntity
  8
Default
100
AcDbSpline
210
0.0
220
0.0
230
1.0
 70
    12
 71
     3
 72
    13
 73
     9
 74
     0
 42
0.0000000001
 43
0.0000000001
 40
0.0
 40
0.0
 40
0.0
 40
0.0
 40
0.4295517189115443
 40
2.217148952463378
 40
2.841020270786486
 40
3.336746733782065
 40
3.771606795385292
 40
4.631370498259577
 40
4.631370498259577
 40
4.631370498259577
 40
4.631370498259577
 10
107.9379080457482
 20
-51.8374839176943
 30
6.359330548760974
 41
1.0
 10
107.9780292706598
 20
-51.97495001480351
 30
6.359330548760965
 41
1.0
 10
108.1962805803582
 20
-52.68123199250999
 30
6.359330548760963
 41
1.0
 10
108.5482450513487
 20
-53.56254302220965
 30
6.359330548760962
 41
1.0
 10
108.9810436553099
 20
-54.42984485697326
 30
6.359330548760964
 41
1.0
 10
109.2110077516607
 20
-54.89419270554846
 30
6.359330548760967
 41
1.0
 10
109.4824234265806
 20
-55.42576905698762
 30
6.359330548760967
 41
1.0
 10
109.6840491479269
 20
-55.80739450537392
 30
6.359330548760973
 41
1.0
 10
109.8225092974142
 20
-56.05834630807689
 30
6.359330548760968
 41
1.0
  0
SPLINE
  5
B7
330
1F
100
AcDbEntity
  8
Default
100
AcDbSpline
210
0.0
220
0.0
230
1.0
 70
     8
 71
     3
 72
    10
 73
     6
 74
     0
 42
0.0000000001
 43
0.0000000001
 40
0.0
 40
0.0
 40
0.0
 40
0.0
 40
0.2923799546787357
 40
0.2923799546787357
 40
0.5848294169409348
 40
0.5848294169409348
 40
0.5848294169409348
 40
0.5848294169409348
 10
109.8225092974142
 20
-56.05834630807689
 30
6.359330548760968
 10
109.7513002744989
 20
-56.12494617924666
 30
6.359330548760966
 10
109.6788273170618
 20
-56.1900545264036
 30
6.359330548760965
 10
109.5312537034018
 20
-56.31755149324709
 30
6.359330548760957
 10
109.4558949339195
 20
-56.37937567263194
 30
6.359330548760971
 10
109.3803639501653
 20
-56.4410329266089
 30
6.359330548760967
  0
SPLINE
  5
B8
330
1F
100
AcDbEntity
  8
Default
100
AcDbSpline
210
0.0
220
0.0
230
1.0
 70
    12
 71
     3
 72
    11
 73
     7
 74
     0
 42
0.0000000001
 43
0.0000000001
 40
0.0
 40
0.0
 40
0.0
 40
0.0
 40
0.079889937390299
 40
0.079889937390299
 40
0.079889937390299
 40
5.907482392421896
 40
5.907482392421896
 40
5.907482392421896
 40
5.907482392421896
 10
109.3803639501653
 20
-56.4410329266089
 30
6.359330548760967
 41
1.0
 10
109.3602831796291
 20
-56.45852345099047
 30
6.359330548760961
 41
1.0
 10
109.340202409093
 20
-56.47601397537207
 30
6.359330548760959
 41
1.0
 10
109.3201216385568
 20
-56.49350449975361
 30
6.359330548760965
 41
1.0
 10
107.8605015841962
 20
-57.7648461598067
 30
6.359330548760966
 41
0.9632038046169104
 10
106.1482884350607
 20
-58.71520863971674
 30
6.359330548760965
 41
0.9415707591202281
 10
104.24924468001
 20
-59.27608303278682
 30
6.359330548760962
 41
0.9351008635099534
  0
SPLINE
  5
B9
330
1F
100
AcDbEntity
  8
Default
100
AcDbSpline
210
0.0
220
0.0
230
1.0
 70
     8
 71
     3
 72
    10
 73
     6
 74
     0
 42
0.0000000001
 43
0.0000000001
 40
0.0
 40
0.0
 40
0.0
 40
0.0
 40
1.49991506815335
 40
4.844834080444193
 40
8.481491663454005
 40
8.481491663454005
 40
8.481491663454005
 40
8.481491663454005
 10
104.24924468001
 20
-59.27608303278681
 30
6.359330548760962
 10
104.6492987352559
 20
-58.97967965192926
 30
6.359330548760954
 10
105.8119863826632
 20
-57.77534756079731
 30
6.359330548760963
 10
107.0043843895274
 20
-55.34776336064529
 30
6.359330548760966
 10
107.8643775199061
 20
-53.00565021031279
 30
6.359330548760964
 10
107.9379080457482
 20
-51.8374839176943
 30
6.359330548760974
  0
SPLINE
  5
BA
330
1F
100
AcDbEntity
  8
Default
100
AcDbSpline
210
0.0
220
0.0
230
1.0
 70
    12
 71
     2
 72
     6
 73
     3
 74
     0
 42
0.0000000001
 43
0.0000000001
 40
0.0
 40
0.0
 40
0.0
 40
1.915732704739914
 40
1.915732704739914
 40
1.915732704739914
 10
130.621850206154
 20
-52.8853747703827
 30
6.359330548760973
 41
1.0
 10
130.8776023477817
 20
-53.82808913653557
 30
6.359330548760964
 41
0.9714809940713661
 10
131.5389134156187
 20
-54.5469682679997
 30
6.359330548760961
 41
1.0
  0
SPLINE
  5
BB
330
1F
100
AcDbEntity
  8
Default
100
AcDbSpline
210
0.0
220
0.0
230
1.0
 70
     8
 71
     3
 72
     9
 73
     5
 74
     0
 42
0.0000000001
 43
0.0000000001
 40
0.0
 40
0.0
 40
0.0
 40
0.0
 40
0.941501967116856
 40
1.958845647668254
 40
1.958845647668254
 40
1.958845647668254
 40
1.958845647668254
 10
131.5389134156187
 20
-54.5469682679997
 30
6.359330548760961
 10
131.2503787200961
 20
-54.43103544959538
 30
6.359330548760965
 10
130.5866548974424
 20
-54.30103601216199
 30
6.359330548760962
 10
129.9510513087935
 20
-54.54720428322838
 30
6.359330548760967
 10
129.6685242170163
 20
-54.72907380450435
 30
6.359330548760965
  0
SPLINE
  5
BC
330
1F
100
AcDbEntity
  8
Default
100
AcDbSpline
210
0.0
220
0.0
230
1.0
 70
    12
 71
     3
 72
     9
 73
     5
 74
     0
 42
0.0000000001
 43
0.0000000001
 40
0.0
 40
0.0
 40
0.0
 40
0.0
 40
1.29626283803664
 40
2.077333061786214
 40
2.077333061786214
 40
2.077333061786214
 40
2.077333061786214
 10
129.6685242170163
 20
-54.72907380450435
 30
6.359330548760965
 41
1.0
 10
129.8964882218076
 20
-54.36189728199622
 30
6.359330548760969
 41
1.0
 10
130.2336841733973
 20
-53.75603542630407
 30
6.35933054876097
 41
1.0
 10
130.5211361998744
 20
-53.1255267544266
 30
6.359330548760971
 41
1.0
 10
130.621850206154
 20
-52.8853747703827
 30
6.359330548760973
 41
1.0
  0
SPLINE
  5
BD
330
1F
100
AcDbEntity
  8
Default
100
AcDbSpline
210
0.0
220
0.0
230
1.0
 70
    24
 71
     3
 72
     8
 73
     4
 74
     0
 42
0.0000000001
 43
0.0000000001
 40
-1.821170765630174
 40
-1.821170765630174
 40
-1.821170765630174
 40
-1.821170765630174
 40
-0.0182527858502107
 40
-0.0182527858502107
 40
-0.0182527858502107
 40
-0.0182527858502107
 10
148.2628276065044
 20
-79.28235247817841
 30
6.359330548760958
 10
148.3427455309538
 20
-79.87798765454983
 30
6.359330548760958
 10
148.4226634554033
 20
-80.47362283092124
 30
6.359330548760958
 10
148.5025813798528
 20
-81.06925800729266
 30
6.359330548760958
  0
SPLINE
  5
BE
330
1F
100
AcDbEntity
  8
Default
100
AcDbSpline
210
0.0
220
0.0
230
1.0
 70
     8
 71
     3
 72
    25
 73
    21
 74
     0
 42
0.0000000001
 43
0.0000000001
 40
134.8168407069415
 40
134.8168407069415
 40
134.8168407069415
 40
134.8168407069415
 40
135.7546014625059
 40
136.7546014625059
 40
137.7546014625059
 40
138.7546014625059
 40
139.7546014625059
 40
140.7546014625059
 40
141.2546014625059
 40
141.7546014625059
 40
142.2546014625059
 40
142.7546014625059
 40
143.2546014625059
 40
143.7546014625059
 40
143.7655245001252
 40
143.7764475377445
 40
145.7787862717202
 40
147.7811250056959
 40
149.7834637396717
 40
151.7858024736474
 40
151.7858024736474
 40
151.7858024736474
 40
151.7858024736474
 10
148.5025813798528
 20
-81.06925800729266
 30
6.359330548760958
 10
144.0416511867124
 20
-80.66186166578586
 30
6.359330548760953
 10
136.9068216888591
 20
-78.80279700257555
 30
6.359330548760964
 10
131.5877022275319
 20
-74.28717950204845
 30
6.359330548760965
 10
127.0006860076766
 20
-70.35231596380409
 30
6.359330548760958
 10
123.8424386246201
 20
-64.87860974510293
 30
6.359330548760959
 10
122.0597672240981
 20
-59.53263632965034
 30
6.359330548760951
 10
121.8878619357269
 20
-58.63872883011938
 30
6.359330548760956
 10
121.8328522434479
 20
-57.61417331142553
 30
6.359330548760962
 10
121.8896034491513
 20
-56.81994530201355
 30
6.359330548760967
 10
122.1009655153517
 20
-56.12897879320747
 30
6.359330548760965
 10
122.4931052697996
 20
-55.45832517308189
 30
6.359330548760958
 10
123.0907461299685
 20
-54.72668566151238
 30
6.359330548760971
 10
123.469991568733
 20
-54.34095167763013
 30
6.359330548760967
 10
123.6197447416039
 20
-54.20670723031276
 30
6.359330548760977
 10
124.1957664860587
 20
-53.69232151055512
 30
6.359330548760962
 10
125.2346775927186
 20
-52.5491382643465
 30
6.359330548760979
 10
126.2738411891586
 20
-50.5638697625201
 30
6.359330548760974
 10
126.6750050019832
 20
-48.4786607265774
 30
6.359330548760964
 10
126.5331867959112
 20
-47.15946399059509
 30
6.359330548760973
 10
126.3849199010183
 20
-46.54484970889639
 30
6.359330548760976
  0
SPLINE
  5
BF
330
1F
100
AcDbEntity
  8
Default
100
AcDbSpline
210
0.0
220
0.0
230
1.0
 70
     8
 71
     3
 72
    11
 73
     7
 74
     0
 42
0.0000000001
 43
0.0000000001
 40
151.7858024736474
 40
151.7858024736474
 40
151.7858024736474
 40
151.7858024736474
 40
153.7881412076231
 40
155.7904799415988
 40
157.7928186755746
 40
159.7951574095503
 40
159.7951574095503
 40
159.7951574095503
 40
159.7951574095503
 10
126.3849199010183
 20
-46.54484970889639
 30
6.359330548760976
 10
126.236946790308
 20
-45.93014070945989
 30
6.359330548760973
 10
125.7612089849292
 20
-44.69015831223804
 30
6.359330548760982
 10
124.4968323307527
 20
-43.03966725936695
 30
6.359330548760975
 10
122.8081639682935
 20
-41.82686952510933
 30
6.359330548760977
 10
121.5540174450692
 20
-41.38959083512914
 30
6.359330548760973
 10
120.9351341977673
 20
-41.26068839894189
 30
6.359330548760975
  0
SPLINE
  5
C0
330
1F
100
AcDbEntity
  8
Default
100
AcDbSpline
210
0.0
220
0.0
230
1.0
 70
     8
 71
     3
 72
    11
 73
     7
 74
     0
 42
0.0000000001
 43
0.0000000001
 40
159.7951574095503
 40
159.7951574095503
 40
159.7951574095503
 40
159.7951574095503
 40
161.797496143526
 40
163.7998348775017
 40
165.8021736114774
 40
167.8045123454531
 40
167.8045123454531
 40
167.8045123454531
 40
167.8045123454531
 10
120.9351341977673
 20
-41.26068839894189
 30
6.359330548760975
 10
120.3162109176946
 20
-41.13141872164238
 30
6.359330548760977
 10
118.9919153144024
 20
-41.03087893747316
 30
6.359330548760976
 10
116.9591486039146
 20
-41.46750184343047
 30
6.359330548760974
 10
115.1404573451513
 20
-42.47489276847408
 30
6.359330548760983
 10
114.2086264510958
 20
-43.4213543620684
 30
6.359330548760968
 10
113.8273245706105
 20
-43.92557606520944
 30
6.35933054876097
  0
SPLINE
  5
C1
330
1F
100
AcDbEntity
  8
Default
100
AcDbSpline
210
0.0
220
0.0
230
1.0
 70
     8
 71
     3
 72
    23
 73
    19
 74
     0
 42
0.0000000001
 43
0.0000000001
 40
167.8045123454531
 40
167.8045123454531
 40
167.8045123454531
 40
167.8045123454531
 40
169.8068510794288
 40
171.8091898134046
 40
173.8115285473803
 40
175.813867281356
 40
175.813867281356
 40
175.8953238200685
 40
175.9767803587809
 40
176.1396934362057
 40
176.6396934362057
 40
177.1396934362057
 40
177.6396934362057
 40
178.1396934362057
 40
178.6396934362057
 40
179.1396934362057
 40
180.1396934362057
 40
180.9296530991778
 40
180.9296530991778
 40
180.9296530991778
 40
180.9296530991778
 10
113.8273245706105
 20
-43.92557606520944
 30
6.35933054876097
 10
113.4456767950402
 20
-44.42972845283501
 30
6.359330548760967
 10
112.7881683315595
 20
-45.58330042119687
 30
6.359330548760981
 10
112.3230670277534
 20
-47.64469270166296
 30
6.359330548760978
 10
112.4850336030609
 20
-49.83458547647351
 30
6.359330548760969
 10
112.9794769445921
 20
-51.22620538227078
 30
6.359330548760975
 10
113.3089598259606
 20
-51.90214673089227
 30
6.359330548760968
 10
113.3576456527585
 20
-52.00152515626743
 30
6.359330548760973
 10
113.5191047099834
 20
-52.32853423374748
 30
6.359330548760968
 10
114.0166472067963
 20
-53.32408456259095
 30
6.359330548760971
 10
114.5530185595265
 20
-54.28356919074896
 30
6.359330548760969
 10
114.950897391912
 20
-54.83297107871746
 30
6.359330548760959
 10
115.2301717505603
 20
-55.16648069438102
 30
6.359330548760968
 10
115.3883466521605
 20
-55.54197485858546
 30
6.359330548760963
 10
115.4230332834277
 20
-56.21755661408886
 30
6.359330548760958
 10
115.1974564575252
 20
-57.34090996081872
 30
6.359330548760957
 10
114.2883207087303
 20
-58.70462145562378
 30
6.359330548760958
 10
113.1729581458889
 20
-59.79947674621667
 30
6.359330548760953
 10
112.6041130183704
 20
-60.26383613202547
 30
6.359330548760963
  0
SPLINE
  5
C2
330
1F
100
AcDbEntity
  8
Default
100
AcDbSpline
210
0.0
220
0.0
230
1.0
 70
     8
 71
     3
 72
    17
 73
    13
 74
     0
 42
0.0000000001
 43
0.0000000001
 40
180.9296530991778
 40
180.9296530991778
 40
180.9296530991778
 40
180.9296530991778
 40
185.791891537047
 40
190.6541299749162
 40
195.5163684127854
 40
200.3786068506545
 40
200.3786068506545
 40
200.3786068506545
 40
204.950821081526
 40
209.5230353123974
 40
214.0952495432688
 40
218.6674637741402
 40
218.6674637741402
 40
218.6674637741402
 40
218.6674637741402
 10
112.6041130183704
 20
-60.26383613202547
 30
6.359330548760963
 10
111.437814549243
 20
-61.2802984700071
 30
6.359330548760959
 10
108.763742686818
 20
-63.08857107280625
 30
6.359330548760958
 10
104.0111035914763
 20
-64.70973500246176
 30
6.359330548760947
 10
98.99782367941478
 20
-64.99753504591179
 30
6.359330548760957
 10
95.83966783442096
 20
-64.32925810119103
 30
6.359330548760957
 10
94.37646204271822
 20
-63.8268605145087
 30
6.359330548760948
 10
92.99318737856014
 20
-63.35263156622811
 30
6.359330548760957
 10
90.25200130375781
 20
-62.04186077148897
 30
6.359330548760944
 10
86.63505243409391
 20
-59.02082148333457
 30
6.359330548760952
 10
83.89241521746614
 20
-55.18045664436987
 30
6.359330548760957
 10
82.79019626994985
 20
-52.33581870184689
 30
6.359330548760965
 10
82.42221541327358
 20
-50.91294850557381
 30
6.359330548760964
  0
SPLINE
  5
C3
330
1F
100
AcDbEntity
  8
Default
100
AcDbSpline
210
0.0
220
0.0
230
1.0
 70
     8
 71
     3
 72
    24
 73
    20
 74
     0
 42
0.0000000001
 43
0.0000000001
 40
55.66109137524162
 40
55.66109137524162
 40
55.66109137524162
 40
55.66109137524162
 40
56.38509197369976
 40
57.38509197369976
 40
58.38509197369976
 40
59.38509197369976
 40
60.38509197369976
 40
61.38509197369976
 40
62.38509197369976
 40
63.38509197369976
 40
64.38509197369976
 40
65.38509197369976
 40
66.38509197369976
 40
67.38509197369976
 40
68.38509197369976
 40
69.38509197369976
 40
70.38509197369976
 40
71.38509197369976
 40
72.38509197369976
 40
72.38509197369976
 40
72.38509197369976
 40
72.38509197369976
 10
82.42221541327358
 20
-50.91294850557381
 30
6.359330548760964
 10
82.31582160615612
 20
-50.68771442601211
 30
6.359330548760958
 10
82.17331521061668
 20
-49.85988235395526
 30
6.359330548760954
 10
82.03395476719633
 20
-48.82463334568985
 30
6.359330548760959
 10
82.14358378922519
 20
-47.77219473421268
 30
6.359330548760965
 10
82.75750631258695
 20
-46.71975612273545
 30
6.359330548760965
 10
83.96342555490445
 20
-46.14968520818545
 30
6.359330548760971
 10
85.64323090725959
 20
-45.06351407580111
 30
6.359330548760964
 10
87.14705836993271
 20
-43.55968661312791
 30
6.359330548760972
 10
88.04935484753655
 20
-42.45687980716762
 30
6.359330548760967
 10
88.21644678783373
 20
-40.98647073255398
 30
6.359330548760974
 10
87.8822629072394
 20
-39.54948004599957
 30
6.35933054876097
 10
86.67920093710104
 20
-38.64718356839563
 30
6.359330548760967
 10
84.90802636995276
 20
-38.24616291168299
 30
6.359330548760968
 10
83.07001502668557
 20
-37.24361126990081
 30
6.359330548760964
 10
81.43251401177484
 20
-35.57269186693074
 30
6.359330548760973
 10
80.66389108640855
 20
-34.16911956843569
 30
6.359330548760973
 10
80.06236010133934
 20
-32.36452661322809
 30
6.359330548760973
 10
80.12919687745811
 20
-31.42881174756467
 30
6.359330548760979
 10
80.5841656066956
 20
-30.61869341860783
 30
6.359330548760981
  0
SPLINE
  5
C4
330
1F
100
AcDbEntity
  8
Default
100
AcDbSpline
210
0.0
220
0.0
230
1.0
 70
    24
 71
     3
 72
     8
 73
     4
 74
     0
 42
0.0000000001
 43
0.0000000001
 40
72.38509197369976
 40
72.38509197369976
 40
72.38509197369976
 40
72.38509197369976
 40
85.93812501915617
 40
85.93812501915617
 40
85.93812501915617
 40
85.93812501915617
 10
80.5841656066956
 20
-30.61869341860783
 30
6.359330548760981
 10
85.10184328851442
 20
-30.61869341860782
 30
6.35933054876098
 10
89.61952097033323
 20
-30.61869341860782
 30
6.35933054876098
 10
94.13719865215201
 20
-30.61869341860782
 30
6.35933054876098
  0
LINE
  5
C5
330
1F
100
AcDbEntity
  8
Default
100
AcDbLine
 10
94.13719865215201
 20
-30.61869341860782
 30
6.35933054876098
 11
94.13719865215204
 21
-28.61869341860782
 31
6.359330548760964
  0
LINE
  5
C6
330
1F
100
AcDbEntity
  8
Default
100
AcDbLine
 10
94.13719865215204
 20
-28.61869341860782
 30
6.359330548760964
 11
94.13719865215204
 21
-28.289345490336
 31
6.359330548760964
  0
SPLINE
  5
C7
330
1F
100
AcDbEntity
  8
Default
100
AcDbSpline
210
0.0
220
0.0
230
1.0
 70
    24
 71
     3
 72
     8
 73
     4
 74
     0
 42
0.0000000001
 43
0.0000000001
 40
72.38509197369976
 40
72.38509197369976
 40
72.38509197369976
 40
72.38509197369976
 40
133.5344239701168
 40
133.5344239701168
 40
133.5344239701168
 40
133.5344239701168
 10
94.13719865215204
 20
-28.289345490336
 30
6.359330548760964
 10
97.47053198548535
 20
-28.28934549033599
 30
6.359330548760962
 10
100.8038653188187
 20
-28.28934549033602
 30
6.359330548760951
 10
104.137198652152
 20
-28.289345490336
 30
6.359330548760964
  0
LINE
  5
C8
330
1F
100
AcDbEntity
  8
Default
100
AcDbLine
 10
104.137198652152
 20
-28.289345490336
 30
6.359330548760964
 11
104.137198652152
 21
-28.61869341860782
 31
6.359330548760963
  0
LINE
  5
C9
330
1F
100
AcDbEntity
  8
Default
100
AcDbLine
 10
104.137198652152
 20
-28.61869341860782
 30
6.359330548760963
 11
104.137198652152
 21
-30.61869341860782
 31
6.35933054876098
  0
SPLINE
  5
CA
330
1F
100
AcDbEntity
  8
Default
100
AcDbSpline
210
0.0
220
0.0
230
1.0
 70
    24
 71
     3
 72
     8
 73
     4
 74
     0
 42
0.0000000001
 43
0.0000000001
 40
95.93812501915616
 40
95.93812501915616
 40
95.93812501915616
 40
95.93812501915616
 40
114.3363818106426
 40
114.3363818106426
 40
114.3363818106426
 40
114.3363818106426
 10
104.137198652152
 20
-30.61869341860782
 30
6.35933054876098
 10
110.2699509159808
 20
-30.61869341860782
 30
6.35933054876098
 10
116.4027031798097
 20
-30.61869341860782
 30
6.35933054876098
 10
122.5354554436385
 20
-30.61869341860782
 30
6.35933054876098
  0
LINE
  5
CB
330
1F
100
AcDbEntity
  8
Default
100
AcDbLine
 10
122.5354554436385
 20
-30.61869341860782
 30
6.35933054876098
 11
122.5354554436385
 21
-28.61869341860782
 31
6.359330548760964
  0
LINE
  5
CC
330
1F
100
AcDbEntity
  8
Default
100
AcDbLine
 10
122.5354554436385
 20
-28.61869341860782
 30
6.359330548760964
 11
122.5354554436385
 21
-28.289345490336
 31
6.359330548760964
  0
SPLINE
  5
CD
330
1F
100
AcDbEntity
  8
Default
100
AcDbSpline
210
0.0
220
0.0
230
1.0
 70
    24
 71
     3
 72
     8
 73
     4
 74
     0
 42
0.0000000001
 43
0.0000000001
 40
72.38509197369976
 40
72.38509197369976
 40
72.38509197369976
 40
72.38509197369976
 40
133.5344239701168
 40
133.5344239701168
 40
133.5344239701168
 40
133.5344239701168
 10
122.5354554436385
 20
-28.289345490336
 30
6.359330548760964
 10
125.8687887769718
 20
-28.28934549033599
 30
6.359330548760962
 10
129.2021221103051
 20
-28.28934549033602
 30
6.359330548760965
 10
132.5354554436385
 20
-28.289345490336
 30
6.359330548760964
  0
LINE
  5
CE
330
1F
100
AcDbEntity
  8
Default
100
AcDbLine
 10
132.5354554436385
 20
-28.289345490336
 30
6.359330548760964
 11
132.5354554436385
 21
-28.61869341860782
 31
6.359330548760963
  0
LINE
  5
CF
330
1F
100
AcDbEntity
  8
Default
100
AcDbLine
 10
132.5354554436385
 20
-28.61869341860782
 30
6.359330548760963
 11
132.5354554436385
 21
-30.61869341860782
 31
6.35933054876098
  0
SPLINE
  5
D0
330
1F
100
AcDbEntity
  8
Default
100
AcDbSpline
210
0.0
220
0.0
230
1.0
 70
    24
 71
     3
 72
     8
 73
     4
 74
     0
 42
0.0000000001
 43
0.0000000001
 40
124.3363818106426
 40
124.3363818106426
 40
124.3363818106426
 40
124.3363818106426
 40
133.5344239701168
 40
133.5344239701168
 40
133.5344239701168
 40
133.5344239701168
 10
132.5354554436385
 20
-30.61869341860782
 30
6.35933054876098
 10
135.6014694967965
 20
-30.61869341860782
 30
6.35933054876098
 10
138.6674835499546
 20
-30.61869341860782
 30
6.35933054876098
 10
141.7334976031127
 20
-30.61869341860782
 30
6.35933054876098
  0
POLYLINE
  5
D1
330
1F
100
AcDbEntity
  8
Default
100
AcDb2dPolyline
 66
     1
 10
0.0
 20
0.0
 30
6.319846364410371
210
-0.0001067331082808225
220
0.0007954121142928546
230
0.9999996779637541
  0
VERTEX
  5
D2
330
D1
100
AcDbEntity
  8
Default
100
AcDbVertex
100
AcDb2dVertex
 10
141.734175547132
 20
-30.62372998848542
 30
6.319846364410371
  0
VERTEX
  5
D3
330
D1
100
AcDbEntity
  8
Default
100
AcDbVertex
100
AcDb2dVertex
 10
142.4746641026051
 20
-36.14210556405294
 30
6.319846364410371
  0
SEQEND
  5
D4
330
D1
100
AcDbEntity
  8
Default
  0
LINE
  5
D5
330
1F
100
AcDbEntity
  8
Default
100
AcDbLine
 10
142.4739856858754
 20
-36.13706724849094
 30
6.363798966190176
 11
144.4576341668279
 21
-35.88365975760301
 31
6.33341233135434
  0
SPLINE
  5
D6
330
1F
100
AcDbEntity
  8
Default
100
AcDbSpline
210
-0.01519331741797226
220
-0.0009664759487515417
230
-0.9998841077995375
 70
     8
 71
     3
 72
    10
 73
     6
 74
     0
 42
0.0000000001
 43
0.0000000001
 40
0.0
 40
0.0
 40
0.0
 40
0.0
 40
2.356439201396562
 40
2.356439201396562
 40
4.712877384041408
 40
4.712877384041408
 40
4.712877384041408
 40
4.712877384041408
 10
144.4576341668279
 20
-35.88365975760301
 30
6.33341233135434
 10
145.2793787090901
 20
-35.77868338471984
 30
6.320824389703475
 10
146.0744423679296
 20
-36.7028568046623
 30
6.309636629975951
 10
146.3925028193509
 20
-39.19289311161189
 30
6.307210515613894
 10
145.8552741694201
 20
-40.28726500142822
 30
6.316431553775288
 10
145.03352998242
 20
-40.39224132892726
 30
6.32901948998403
  0
LINE
  5
D7
330
1F
100
AcDbEntity
  8
Default
100
AcDbLine
 10
145.03352998242
 20
-40.39224132892726
 30
6.32901948998403
 11
143.0783496316832
 21
-40.64201205044313
 31
6.359150312225333
  0
SPLINE
  5
D8
330
1F
100
AcDbEntity
  8
Default
100
AcDbSpline
210
0.9910041871897824
220
0.1329656153678094
230
-0.01519362044340928
 70
     8
 71
     3
 72
     8
 73
     4
 74
     0
 42
0.0000000001
 43
0.0000000001
 40
-40.80776743990624
 40
-40.80776743990624
 40
-40.80776743990624
 40
-40.80776743990624
 40
-26.41830566681973
 40
-26.41830566681973
 40
-26.41830566681973
 40
-26.41830566681973
 10
143.0783496316832
 20
-40.64201205044313
 30
6.359150312225333
 10
143.7161938518062
 20
-45.3958993823115
 30
6.359330548760975
 10
144.3540353574915
 20
-50.14978707838306
 30
6.35933054876097
 10
144.9918768631769
 20
-54.9036747744546
 30
6.359330548760965
  0
SPLINE
  5
D9
330
1F
100
AcDbEntity
  8
Default
100
AcDbSpline
210
0.0
220
0.0
230
1.0
 70
    24
 71
     2
 72
     6
 73
     3
 74
     0
 42
0.0000000001
 43
0.0000000001
 40
0.0
 40
0.0
 40
0.0
 40
2.0
 40
2.0
 40
2.0
 10
144.9918768631769
 20
-54.9036747744546
 30
6.359330548760965
 10
145.9973062396944
 20
-54.77531423398817
 30
6.346267137077223
 10
147.002735616212
 20
-54.64695369352174
 30
6.333203725393481
  0
SPLINE
  5
DA
330
1F
100
AcDbEntity
  8
Default
100
AcDbSpline
210
-0.01519331741797202
220
-0.0009664759487514614
230
-0.9998841077995375
 70
     8
 71
     3
 72
    10
 73
     6
 74
     0
 42
0.0000000001
 43
0.0000000001
 40
0.0
 40
0.0
 40
0.0
 40
0.0
 40
2.356439201396562
 40
2.356439201396562
 40
4.712877384041408
 40
4.712877384041408
 40
4.712877384041408
 40
4.712877384041408
 10
147.002735616212
 20
-54.64695369352174
 30
6.333203725393481
 10
147.8244801584742
 20
-54.54197732063858
 30
6.320615783742618
 10
148.6195438173138
 20
-55.46615074058104
 30
6.309428024015093
 10
148.937604268735
 20
-57.95618704753063
 30
6.307001909653037
 10
148.4003756188042
 20
-59.05055893734696
 30
6.316222947814431
 10
147.5786314318041
 20
-59.15553526484599
 30
6.328810884023173
  0
LINE
  5
DB
330
1F
100
AcDbEntity
  8
Default
100
AcDbLine
 10
147.5786314318041
 20
-59.15553526484599
 30
6.328810884023173
 11
145.5949829508516
 21
-59.40894275573393
 31
6.35919751885901
  0
POLYLINE
  5
DC
330
1F
100
AcDbEntity
  8
Default
100
AcDb2dPolyline
 66
     1
 10
0.0
 20
0.0
 30
6.33635673999526
210
-3.884019965105913E-5
220
0.0002892758058562596
230
0.9999999574054725
  0
VERTEX
  5
DD
330
DC
100
AcDbEntity
  8
Default
100
AcDbVertex
100
AcDb2dVertex
 10
145.5952298335437
 20
-59.41077819619771
 30
6.33635673999526
  0
VERTEX
  5
DE
330
DC
100
AcDbEntity
  8
Default
100
AcDbVertex
100
AcDb2dVertex
 10
147.6587080041448
 20
-74.77924413110101
 30
6.33635673999526
  0
SEQEND
  5
DF
330
DC
100
AcDbEntity
  8
Default
  0
LINE
  5
E0
330
1F
100
AcDbEntity
  8
Default
100
AcDbLine
 10
147.6584609472234
 20
-74.77740804761683
 30
6.363723390131225
 11
149.6421094281759
 21
-74.52400055672891
 31
6.333336755295376
  0
SPLINE
  5
E1
330
1F
100
AcDbEntity
  8
Default
100
AcDbSpline
210
-0.01519331741796019
220
-0.0009664759487522848
230
-0.9998841077995377
 70
     8
 71
     3
 72
    10
 73
     6
 74
     0
 42
0.0000000001
 43
0.0000000001
 40
0.0
 40
0.0
 40
0.0
 40
0.0
 40
2.356439201396562
 40
2.356439201396562
 40
4.712877384041408
 40
4.712877384041408
 40
4.712877384041408
 40
4.712877384041408
 10
149.6421094281759
 20
-74.52400055672891
 30
6.333336755295376
 10
150.4638539704381
 20
-74.41902418384574
 30
6.32074881364451
 10
151.2589176292777
 20
-75.34319760378821
 30
6.309561053917
 10
151.5769780806989
 20
-77.83323391073779
 30
6.307134939554945
 10
151.0397494307681
 20
-78.92760580055412
 30
6.316355977716325
 10
150.218005243768
 20
-79.03258212805315
 30
6.328943913925066
  0
LINE
  5
E2
330
1F
100
AcDbEntity
  8
Default
100
AcDbLine
 10
150.218005243768
 20
-79.03258212805315
 30
6.328943913925066
 11
148.2343567628155
 21
-79.28598961894107
 31
6.359330548760916
  0
SPLINE
  5
E3
330
1F
100
AcDbEntity
  8
Default
100
AcDbSpline
210
0.0
220
0.0
230
1.0
 70
     8
 71
     3
 72
    10
 73
     6
 74
     0
 42
0.0000000001
 43
0.0000000001
 40
0.0
 40
0.0
 40
0.0
 40
0.0
 40
2.59919686117781
 40
5.100394727599205
 40
6.632360363641491
 40
6.632360363641491
 40
6.632360363641491
 40
6.632360363641491
 10
131.778773262271
 20
-35.61869341860782
 30
6.359330548760992
 10
130.8655679646695
 20
-35.81879646983951
 30
6.359330548760988
 10
129.1169916283439
 20
-36.77511024769248
 30
6.359330548760986
 10
128.6900172023781
 20
-39.16867788011805
 30
6.359330548760983
 10
128.8398250631435
 20
-40.30750782656689
 30
6.359330548760981
 10
128.987639065574
 20
-40.7271390303622
 30
6.359330548760982
  0
SPLINE
  5
E4
330
1F
100
AcDbEntity
  8
Default
100
AcDbSpline
210
0.0
220
0.0
230
1.0
 70
    12
 71
     3
 72
    10
 73
     6
 74
     0
 42
0.0000000001
 43
0.0000000001
 40
0.0
 40
0.0
 40
0.0
 40
0.0
 40
1.145327869950576
 40
7.007869113540369
 40
7.506958242657991
 40
7.506958242657991
 40
7.506958242657991
 40
7.506958242657991
 10
128.987639065574
 20
-40.7271390303622
 30
6.359330548760982
 41
1.0
 10
128.8391393285095
 20
-40.54847337302351
 30
6.359330548760981
 41
1.0
 10
127.7960997578875
 20
-39.37169699439879
 30
6.359330548760982
 41
1.0
 10
125.1463501706678
 20
-36.79033340587087
 30
6.359330548760981
 41
1.0
 10
123.6212943368978
 20
-35.69819444577536
 30
6.359330548760982
 41
1.0
 10
123.5057250843571
 20
-35.61869341860783
 30
6.359330548760979
 41
1.0
  0
SPLINE
  5
E5
330
1F
100
AcDbEntity
  8
Default
100
AcDbSpline
210
0.0
220
0.0
230
1.0
 70
    24
 71
     3
 72
     8
 73
     4
 74
     0
 42
0.0000000001
 43
0.0000000001
 40
0.0
 40
0.0
 40
0.0
 40
0.0
 40
8.27304817791384
 40
8.27304817791384
 40
8.27304817791384
 40
8.27304817791384
 10
123.5057250843571
 20
-35.61869341860783
 30
6.359330548760979
 10
126.2634078103283
 20
-35.61869341860782
 30
6.359330548760978
 10
129.0210905362997
 20
-35.61869341860782
 30
6.359330548760992
 10
131.778773262271
 20
-35.61869341860782
 30
6.359330548760992
  0
SPLINE
  5
E6
330
1F
100
AcDbEntity
  8
Default
100
AcDbSpline
210
0.0
220
0.0
230
1.0
 70
     8
 71
     3
 72
     9
 73
     5
 74
     0
 42
0.0000000001
 43
0.0000000001
 40
0.0
 40
0.0
 40
0.0
 40
0.0
 40
0.4443843408994102
 40
1.331293436787088
 40
1.331293436787088
 40
1.331293436787088
 40
1.331293436787088
 10
135.4792075207257
 20
-47.96126053647941
 30
6.359330548760971
 10
135.6017853340116
 20
-47.87493807635292
 30
6.359330548760971
 10
135.9416338014285
 20
-47.58190985954731
 30
6.359330548760972
 10
136.1719851565898
 20
-47.1945417490677
 30
6.359330548760974
 10
136.2825579505226
 20
-46.92305617342187
 30
6.35933054876098
  0
SPLINE
  5
E7
330
1F
100
AcDbEntity
  8
Default
100
AcDbSpline
210
0.0
220
0.0
230
1.0
 70
     8
 71
     3
 72
    12
 73
     8
 74
     0
 42
0.0000000001
 43
0.0000000001
 40
0.0
 40
0.0
 40
0.0
 40
0.0
 40
0.9401519277766345
 40
2.13984859780807
 40
3.676470164671479
 40
5.61999522679718
 40
10.10381171866964
 40
10.10381171866964
 40
10.10381171866964
 40
10.10381171866964
 10
136.2825579505226
 20
-46.92305617342187
 30
6.35933054876098
 10
135.9917144862723
 20
-46.99658362345602
 30
6.359330548760966
 10
135.2615735355498
 20
-47.01524671029405
 30
6.359330548760969
 10
134.2971335484546
 20
-46.105625379421
 30
6.359330548760982
 10
134.7166419614895
 20
-44.11256236704996
 30
6.359330548760976
 10
137.9578496854964
 20
-45.117996287
 30
6.359330548760979
 10
138.5194609760437
 20
-47.39344574039865
 30
6.359330548760973
 10
138.5442521627275
 20
-48.82397480092158
 30
6.35933054876097
  0
SPLINE
  5
E8
330
1F
100
AcDbEntity
  8
Default
100
AcDbSpline
210
0.0
220
0.0
230
1.0
 70
     8
 71
     3
 72
     8
 73
     4
 74
     0
 42
0.0000000001
 43
0.0000000001
 40
0.0
 40
0.0
 40
0.0
 40
0.0
 40
1.711417383255934
 40
1.711417383255934
 40
1.711417383255934
 40
1.711417383255934
 10
138.5442521627275
 20
-48.82397480092158
 30
6.35933054876097
 10
138.4560789178636
 20
-49.38759196509146
 30
6.359330548760972
 10
138.3591040426801
 20
-49.94982198792626
 30
6.359330548760977
 10
138.2601205797036
 20
-50.51164144550485
 30
6.359330548760972
  0
SPLINE
  5
E9
330
1F
100
AcDbEntity
  8
Default
100
AcDbSpline
210
0.0
220
0.0
230
1.0
 70
    12
 71
     2
 72
     6
 73
     3
 74
     0
 42
0.0000000001
 43
0.0000000001
 40
0.0
 40
0.0
 40
0.0
 40
3.928437881978415
 40
3.928437881978415
 40
3.928437881978415
 10
138.2601205797036
 20
-50.51164144550485
 30
6.359330548760972
 41
1.0
 10
137.5513371631023
 20
-48.49316058489048
 30
6.35933054876098
 41
0.8819012483064984
 10
135.4792075207257
 20
-47.96126053647941
 30
6.359330548760971
 41
1.0
  0
SPLINE
  5
EA
330
1F
100
AcDbEntity
  8
Default
100
AcDbSpline
210
0.0
220
0.0
230
1.0
 70
     8
 71
     3
 72
    14
 73
    10
 74
     0
 42
0.0000000001
 43
0.0000000001
 40
0.0
 40
0.0
 40
0.0
 40
0.0
 40
1.019201333726045
 40
2.154766951746599
 40
3.665301631543581
 40
5.119658329352649
 40
9.055648817778206
 40
12.23613366309882
 40
14.4429883741164
 40
14.4429883741164
 40
14.4429883741164
 40
14.4429883741164
 10
135.0029285079227
 20
-39.18994984068961
 30
6.359330548760989
 10
134.873825471432
 20
-39.49495362318441
 30
6.359330548760987
 10
134.4014074209953
 20
-40.23632034971718
 30
6.359330548760979
 10
132.9583396052926
 20
-39.49243887464245
 30
6.359330548760989
 10
133.4194737822106
 20
-37.55758895838295
 30
6.35933054876098
 10
136.1292705919278
 20
-38.44778633121385
 30
6.359330548760991
 10
137.0788006896566
 20
-41.12853518624476
 30
6.359330548760972
 10
138.7576947258423
 20
-43.74155979174465
 30
6.359330548760982
 10
138.8686257331765
 20
-45.49570599907076
 30
6.359330548760976
 10
138.8408466170713
 20
-46.22359193815539
 30
6.359330548760984
  0
SPLINE
  5
EB
330
1F
100
AcDbEntity
  8
Default
100
AcDbSpline
210
0.0
220
0.0
230
1.0
 70
     8
 71
     3
 72
     9
 73
     5
 74
     0
 42
0.0000000001
 43
0.0000000001
 40
0.0
 40
0.0
 40
0.0
 40
0.0
 40
5.226379849262771
 40
6.547126590956798
 40
6.547126590956798
 40
6.547126590956798
 40
6.547126590956798
 10
138.8408466170713
 20
-46.22359193815539
 30
6.359330548760984
 10
138.2906901574053
 20
-44.61128809488505
 30
6.359330548760981
 10
136.8500500489782
 20
-42.72642742919906
 30
6.359330548760977
 10
134.7703585773896
 20
-41.91404569660298
 30
6.359330548760986
 10
134.3461101724385
 20
-41.85361026195967
 30
6.359330548760973
  0
SPLINE
  5
EC
330
1F
100
AcDbEntity
  8
Default
100
AcDbSpline
210
0.0
220
0.0
230
1.0
 70
     8
 71
     3
 72
     9
 73
     5
 74
     0
 42
0.0000000001
 43
0.0000000001
 40
0.0
 40
0.0
 40
0.0
 40
0.0
 40
0.6801591891638195
 40
2.878505142140581
 40
2.878505142140581
 40
2.878505142140581
 40
2.878505142140581
 10
134.3461101724385
 20
-41.85361026195967
 30
6.359330548760973
 10
134.4826873361913
 20
-41.71250902727267
 30
6.359330548760973
 10
135.0012380892953
 20
-41.01776297772486
 30
6.359330548760985
 10
135.2886064175971
 20
-39.8331764846548
 30
6.359330548760973
 10
135.0029285079227
 20
-39.18994984068961
 30
6.359330548760989
  0
LINE
  5
ED
330
1F
100
AcDbEntity
  8
Default
100
AcDbLine
 10
132.7135104157014
 20
-56.6607779648412
 30
6.35318800503595
 11
132.7135104157014
 21
-56.71200333419962
 31
6.359330548760967
  0
SPLINE
  5
EE
330
1F
100
AcDbEntity
  8
Default
100
AcDbSpline
210
0.0
220
0.0
230
1.0
 70
    24
 71
     3
 72
     8
 73
     4
 74
     0
 42
0.0000000001
 43
0.0000000001
 40
0.0
 40
0.0
 40
0.0
 40
0.0
 40
1.760932906486075
 40
1.760932906486075
 40
1.760932906486075
 40
1.760932906486075
 10
132.7135104157014
 20
-56.71200333419962
 30
6.359330548760967
 10
132.7135104157014
 20
-57.29898096969501
 30
6.359330548760964
 10
132.7135104157014
 20
-57.88595860519037
 30
6.359330548760973
 10
132.7135104157014
 20
-58.47293624068571
 30
6.359330548760966
  0
SPLINE
  5
EF
330
1F
100
AcDbEntity
  8
Default
100
AcDbSpline
210
0.0
220
0.0
230
1.0
 70
    24
 71
     3
 72
     8
 73
     4
 74
     0
 42
0.0000000001
 43
0.0000000001
 40
0.0
 40
0.0
 40
0.0
 40
0.0
 40
3.000310927424754
 40
3.000310927424754
 40
3.000310927424754
 40
3.000310927424754
 10
132.7135104157014
 20
-58.47293624068571
 30
6.359330548760966
 10
131.7134067732264
 20
-58.47293624068573
 30
6.359330548760967
 10
130.7133031307515
 20
-58.47293624068573
 30
6.359330548760967
 10
129.7131994882766
 20
-58.47293624068571
 30
6.359330548760966
  0
SPLINE
  5
F0
330
1F
100
AcDbEntity
  8
Default
100
AcDbSpline
210
0.0
220
0.0
230
1.0
 70
    24
 71
     3
 72
     8
 73
     4
 74
     0
 42
0.0000000001
 43
0.0000000001
 40
0.0
 40
0.0
 40
0.0
 40
0.0
 40
1.760932906486087
 40
1.760932906486087
 40
1.760932906486087
 40
1.760932906486087
 10
129.7131994882766
 20
-58.47293624068571
 30
6.359330548760966
 10
129.7131994882766
 20
-57.88595860519037
 30
6.359330548760973
 10
129.7131994882766
 20
-57.29898096969498
 30
6.359330548760961
 10
129.7131994882766
 20
-56.71200333419962
 30
6.359330548760967
  0
LINE
  5
F1
330
1F
100
AcDbEntity
  8
Default
100
AcDbLine
 10
129.7131994882766
 20
-56.71200333419962
 30
6.359330548760967
 11
129.7131994882766
 21
-56.6607779648412
 31
6.35318800503595
  0
LINE
  5
F2
330
1F
100
AcDbEntity
  8
Default
100
AcDbLine
 10
129.7131994882766
 20
-56.6607779648412
 30
6.35318800503595
 11
132.7135104157014
 21
-56.6607779648412
 31
6.35318800503595
  0
SPLINE
  5
F3
330
1F
100
AcDbEntity
  8
Default
100
AcDbSpline
210
0.0
220
0.0
230
1.0
 70
    24
 71
     3
 72
     8
 73
     4
 74
     0
 42
0.0000000001
 43
0.0000000001
 40
0.0
 40
0.0
 40
0.0
 40
0.0
 40
6.899133888408755
 40
6.899133888408755
 40
6.899133888408755
 40
6.899133888408755
 10
98.5235065981722
 20
-47.41196094457906
 30
6.359330548760976
 10
98.92151636449834
 20
-45.14695315839252
 30
6.359330548760971
 10
99.31952613082449
 20
-42.88194537220598
 30
6.359330548760966
 10
99.71753589715063
 20
-40.61693758601943
 30
6.359330548760975
  0
SPLINE
  5
F4
330
1F
100
AcDbEntity
  8
Default
100
AcDbSpline
210
0.0
220
0.0
230
1.0
 70
     8
 71
     3
 72
    14
 73
    10
 74
     0
 42
0.0000000001
 43
0.0000000001
 40
0.0
 40
0.0
 40
0.0
 40
0.0
 40
3.445050902261849
 40
5.497637264109452
 40
7.412467982716516
 40
8.926999182165138
 40
10.32290882553028
 40
11.32962984079632
 40
12.41143784040248
 40
12.41143784040248
 40
12.41143784040248
 40
12.41143784040248
 10
99.71753589715063
 20
-40.61693758601943
 30
6.359330548760975
 10
99.70743388209976
 20
-41.73867727794634
 30
6.359330548760976
 10
99.9992040957464
 20
-43.64961946764225
 30
6.359330548760966
 10
101.7733008986693
 20
-45.40984123239127
 30
6.359330548760965
 10
102.4246442704691
 20
-47.00803866213484
 30
6.35933054876098
 10
102.1296840391403
 20
-49.07553379676935
 30
6.359330548760961
 10
100.3471102981774
 20
-48.50918683514769
 30
6.359330548760961
 10
100.2163778021801
 20
-47.23540754902095
 30
6.359330548760965
 10
100.6646162245564
 20
-46.65143249423021
 30
6.359330548760973
 10
100.9430794514715
 20
-46.43568759811615
 30
6.359330548760966
  0
SPLINE
  5
F5
330
1F
100
AcDbEntity
  8
Default
100
AcDbSpline
210
0.0
220
0.0
230
1.0
 70
     8
 71
     3
 72
     8
 73
     4
 74
     0
 42
0.0000000001
 43
0.0000000001
 40
0.0
 40
0.0
 40
0.0
 40
0.0
 40
2.69851413484292
 40
2.69851413484292
 40
2.69851413484292
 40
2.69851413484292
 10
100.9430794514715
 20
-46.43568759811615
 30
6.359330548760966
 10
100.0734085079908
 20
-46.44309997534566
 30
6.359330548760978
 10
98.99937094727963
 20
-46.73185601300186
 30
6.359330548760957
 10
98.5235065981722
 20
-47.41196094457906
 30
6.359330548760976
  0
SPLINE
  5
F6
330
1F
100
AcDbEntity
  8
Default
100
AcDbSpline
210
0.0
220
0.0
230
1.0
 70
    12
 71
     3
 72
     9
 73
     5
 74
     0
 42
0.0000000001
 43
0.0000000001
 40
0.0
 40
0.0
 40
0.0
 40
0.0
 40
0.9023149643679523
 40
2.161853619883393
 40
2.161853619883393
 40
2.161853619883393
 40
2.161853619883393
 10
109.8896147169757
 20
-40.84119429423119
 30
6.359330548760977
 41
1.0
 10
109.7127568554103
 20
-41.07362889767445
 30
6.359330548760981
 41
1.0
 10
109.2928950087442
 20
-41.66428952666624
 30
6.359330548760973
 41
1.0
 10
108.927802263124
 20
-42.29086613547511
 30
6.359330548760969
 41
1.0
 10
108.7349831770886
 20
-42.6661354499021
 30
6.359330548760981
 41
1.0
  0
SPLINE
  5
F7
330
1F
100
AcDbEntity
  8
Default
100
AcDbSpline
210
0.0
220
0.0
230
1.0
 70
     8
 71
     3
 72
     8
 73
     4
 74
     0
 42
0.0000000001
 43
0.0000000001
 40
0.0
 40
0.0
 40
0.0
 40
0.0
 40
1.895531088384652
 40
1.895531088384652
 40
1.895531088384652
 40
1.895531088384652
 10
108.7349831770886
 20
-42.6661354499021
 30
6.359330548760981
 10
108.5474995116459
 20
-42.07478910946331
 30
6.359330548760974
 10
108.219397811482
 20
-41.48374542729653
 30
6.359330548760976
 10
107.7731500188037
 20
-41.05411938498607
 30
6.359330548760976
  0
SPLINE
  5
F8
330
1F
100
AcDbEntity
  8
Default
100
AcDbSpline
210
0.0
220
0.0
230
1.0
 70
    12
 71
     2
 72
     6
 73
     3
 74
     0
 42
0.0000000001
 43
0.0000000001
 40
0.0
 40
0.0
 40
0.0
 40
2.169719649593938
 40
2.169719649593938
 40
2.169719649593938
 10
107.7731500188037
 20
-41.05411938498607
 30
6.359330548760976
 41
1.0
 10
108.8696903742169
 20
-41.32843649672414
 30
6.359330548760973
 41
0.9409395381155118
 10
109.8896147169757
 20
-40.84119429423119
 30
6.359330548760977
 41
1.0
  0
SPLINE
  5
F9
330
1F
100
AcDbEntity
  8
Default
100
AcDbSpline
210
0.0
220
0.0
230
1.0
 70
    12
 71
     2
 72
     8
 73
     5
 74
     0
 42
0.0000000001
 43
0.0000000001
 40
0.0
 40
0.0
 40
0.0
 40
2.684217279788967
 40
2.684217279788967
 40
5.368434559577934
 40
5.368434559577934
 40
5.368434559577934
 10
106.4945891321842
 20
-35.61869341860782
 30
6.359330548760977
 41
1.0
 10
105.4071724345765
 20
-36.5480583600357
 30
6.359330548760978
 41
0.9100851383515094
 10
105.3943087260607
 20
-37.97845298865903
 30
6.359330548760985
 41
1.0
 10
105.381445017545
 20
-39.40884761728234
 30
6.359330548760981
 41
0.9100851383515094
 10
106.4519714107044
 20
-40.35761919682101
 30
6.359330548760983
 41
1.0
  0
SPLINE
  5
FA
330
1F
100
AcDbEntity
  8
Default
100
AcDbSpline
210
0.0
220
0.0
230
1.0
 70
     8
 71
     3
 72
    10
 73
     6
 74
     0
 42
0.0000000001
 43
0.0000000001
 40
0.0
 40
0.0
 40
0.0
 40
0.0
 40
1.495064605254399
 40
4.236555972619099
 40
5.705475084666664
 40
5.705475084666664
 40
5.705475084666664
 40
5.705475084666664
 10
106.4519714107044
 20
-40.35761919682101
 30
6.359330548760983
 10
105.9840975156601
 20
-40.2540599016254
 30
6.359330548760974
 10
104.531306010117
 20
-40.24635263348296
 30
6.359330548760971
 10
102.3724359647516
 20
-41.20595353487212
 30
6.359330548760981
 10
102.7911469061495
 20
-42.71676666458646
 30
6.359330548760965
 10
102.987485299191
 20
-43.1407988536731
 30
6.359330548760983
  0
SPLINE
  5
FB
330
1F
100
AcDbEntity
  8
Default
100
AcDbSpline
210
0.0
220
0.0
230
1.0
 70
     8
 71
     3
 72
    18
 73
    14
 74
     0
 42
0.0000000001
 43
0.0000000001
 40
0.0
 40
0.0
 40
0.0
 40
0.0
 40
1.318899854342402
 40
2.193616245740751
 40
3.438516290610008
 40
4.193461888547362
 40
5.50939858512628
 40
7.573689934957733
 40
11.13196473881679
 40
12.5457199204689
 40
13.53361138600537
 40
14.88236365268563
 40
15.59474231940262
 40
15.59474231940262
 40
15.59474231940262
 40
15.59474231940262
 10
102.987485299191
 20
-43.1407988536731
 30
6.359330548760983
 10
103.2109842475618
 20
-42.77825454678066
 30
6.359330548760968
 10
103.8596554702673
 20
-42.14373608100543
 30
6.359330548760961
 10
104.9852880682345
 20
-42.74317745095425
 30
6.359330548760979
 10
105.209028571099
 20
-43.90678496832025
 30
6.359330548760972
 10
104.2534558321583
 20
-44.59756043443731
 30
6.359330548760973
 10
102.7603452604959
 20
-44.44255232086655
 30
6.359330548760957
 10
101.5047358839495
 20
-42.30292260674752
 30
6.359330548760973
 10
100.9323790531976
 20
-40.36783134008451
 30
6.359330548760963
 10
101.1676286869718
 20
-37.91968739007683
 30
6.359330548760977
 10
102.7318628024323
 20
-38.12900027040941
 30
6.359330548760981
 10
103.0162419052145
 20
-39.46382443839485
 30
6.359330548760981
 10
102.4337837333675
 20
-39.89492902613675
 30
6.359330548760973
 10
102.2295562580037
 20
-40.00080711161162
 30
6.35933054876097
  0
SPLINE
  5
FC
330
1F
100
AcDbEntity
  8
Default
100
AcDbSpline
210
0.0
220
0.0
230
1.0
 70
     8
 71
     3
 72
    11
 73
     7
 74
     0
 42
0.0000000001
 43
0.0000000001
 40
0.0
 40
0.0
 40
0.0
 40
0.0
 40
1.325088353919356
 40
3.093863514802139
 40
5.436620062178657
 40
7.06575818574643
 40
7.06575818574643
 40
7.06575818574643
 40
7.06575818574643
 10
102.2295562580037
 20
-40.00080711161162
 30
6.35933054876097
 10
102.6157181796988
 20
-40.19036646858592
 30
6.359330548760959
 10
103.720137963408
 20
-40.47756682145864
 30
6.35933054876098
 10
105.0864673749188
 20
-38.88413766932197
 30
6.359330548760976
 10
104.8519536425066
 20
-36.80092247593164
 30
6.359330548760975
 10
103.849265071393
 20
-35.88705070117051
 30
6.359330548760989
 10
103.3935187141127
 20
-35.61869341860782
 30
6.359330548760978
  0
SPLINE
  5
FD
330
1F
100
AcDbEntity
  8
Default
100
AcDbSpline
210
0.0
220
0.0
230
1.0
 70
    24
 71
     3
 72
     8
 73
     4
 74
     0
 42
0.0000000001
 43
0.0000000001
 40
0.0
 40
0.0
 40
0.0
 40
0.0
 40
3.101070418071432
 40
3.101070418071432
 40
3.101070418071432
 40
3.101070418071432
 10
103.3935187141127
 20
-35.61869341860782
 30
6.359330548760978
 10
104.4272088534699
 20
-35.61869341860782
 30
6.359330548760978
 10
105.460898992827
 20
-35.61869341860782
 30
6.359330548760978
 10
106.4945891321842
 20
-35.61869341860782
 30
6.359330548760977
  0
SPLINE
  5
FE
330
1F
100
AcDbEntity
  8
Default
100
AcDbSpline
210
0.0
220
0.0
230
1.0
 70
     8
 71
     3
 72
     9
 73
     5
 74
     0
 42
0.0000000001
 43
0.0000000001
 40
0.0
 40
0.0
 40
0.0
 40
0.0
 40
0.9516185062482702
 40
1.952300781788384
 40
1.952300781788384
 40
1.952300781788384
 40
1.952300781788384
 10
131.5069027360047
 20
-46.86178629068026
 30
6.359330548760982
 10
131.6735771193861
 20
-47.12842721784018
 30
6.359330548760975
 10
132.0891359706108
 20
-47.63073544092089
 30
6.359330548760972
 10
132.640862247481
 20
-48.003089264506
 30
6.35933054876097
 10
132.9442917612875
 20
-48.14372122751807
 30
6.35933054876097
  0
SPLINE
  5
FF
330
1F
100
AcDbEntity
  8
Default
100
AcDbSpline
210
0.0
220
0.0
230
1.0
 70
    12
 71
     2
 72
     6
 73
     3
 74
     0
 42
0.0000000001
 43
0.0000000001
 40
0.0
 40
0.0
 40
0.0
 40
1.724161017431652
 40
1.724161017431652
 40
1.724161017431652
 10
132.9442917612875
 20
-48.14372122751807
 30
6.35933054876097
 41
1.0
 10
132.1358668945045
 20
-48.48074187086188
 30
6.359330548760971
 41
0.9768778963356577
 10
131.5421241120353
 20
-49.12463874734019
 30
6.359330548760969
 41
1.0
  0
SPLINE
  5
100
330
1F
100
AcDbEntity
  8
Default
100
AcDbSpline
210
0.0
220
0.0
230
1.0
 70
     8
 71
     3
 72
     8
 73
     4
 74
     0
 42
0.0000000001
 43
0.0000000001
 40
0.0
 40
0.0
 40
0.0
 40
0.0
 40
2.26601302765176
 40
2.26601302765176
 40
2.26601302765176
 40
2.26601302765176
 10
131.5421241120353
 20
-49.12463874734019
 30
6.359330548760969
 10
131.6022838494862
 20
-48.36988292979751
 30
6.359330548760967
 10
131.5904786076673
 20
-47.61430083108816
 30
6.359330548760965
 10
131.5069027360047
 20
-46.86178629068026
 30
6.359330548760982
  0
SPLINE
  5
101
330
1F
100
AcDbEntity
  8
Default
100
AcDbSpline
210
0.0
220
0.0
230
1.0
 70
     8
 71
     3
 72
     9
 73
     5
 74
     0
 42
0.0000000001
 43
0.0000000001
 40
0.0
 40
0.0
 40
0.0
 40
0.0
 40
4.496330371080215
 40
7.779418394494102
 40
7.779418394494102
 40
7.779418394494102
 40
7.779418394494102
 10
138.8952876607163
 20
-41.00945389299235
 30
6.359330548760979
 10
138.388564913135
 20
-39.61470251712306
 30
6.359330548760991
 10
136.9337004205223
 20
-37.42001831582084
 30
6.359330548760981
 10
134.7089729361308
 20
-35.85938709255322
 30
6.35933054876099
 10
133.6613228285507
 20
-35.61869341860782
 30
6.359330548760992
  0
SPLINE
  5
102
330
1F
100
AcDbEntity
  8
Default
100
AcDbSpline
210
0.0
220
0.0
230
1.0
 70
    24
 71
     3
 72
     8
 73
     4
 74
     0
 42
0.0000000001
 43
0.0000000001
 40
0.0
 40
0.0
 40
0.0
 40
0.0
 40
4.405019470155302
 40
4.405019470155302
 40
4.405019470155302
 40
4.405019470155302
 10
133.6613228285507
 20
-35.61869341860782
 30
6.359330548760992
 10
135.1296626519359
 20
-35.61869341860782
 30
6.359330548760992
 10
136.5980024753209
 20
-35.61869341860782
 30
6.359330548760992
 10
138.066342298706
 20
-35.61869341860782
 30
6.359330548760992
  0
SPLINE
  5
103
330
1F
100
AcDbEntity
  8
Default
100
AcDbSpline
210
0.0
220
0.0
230
1.0
 70
    12
 71
     3
 72
     9
 73
     5
 74
     0
 42
0.0000000001
 43
0.0000000001
 40
0.0
 40
0.0
 40
0.0
 40
0.0
 40
3.721421851667166
 40
5.454163160119041
 40
5.454163160119041
 40
5.454163160119041
 40
5.454163160119041
 10
138.066342298706
 20
-35.61869341860782
 30
6.359330548760992
 41
1.0
 10
138.268269628802
 20
-36.84262676729008
 30
6.35933054876099
 41
1.0
 10
138.5443055075702
 20
-38.63965642889048
 30
6.359330548760982
 41
1.0
 10
138.8112519631885
 20
-40.43801747353631
 30
6.359330548760986
 41
1.0
 10
138.8952876607163
 20
-41.00945389299235
 30
6.359330548760979
 41
1.0
  0
SPLINE
  5
104
330
1F
100
AcDbEntity
  8
Default
100
AcDbSpline
210
0.0
220
0.0
230
1.0
 70
     8
 71
     3
 72
    17
 73
    13
 74
     0
 42
0.0000000001
 43
0.0000000001
 40
0.0
 40
0.0
 40
0.0
 40
0.0
 40
1.070149932728371
 40
1.945534878113017
 40
3.176043347981103
 40
4.830199457476624
 40
6.330869816421019
 40
7.533580874060857
 40
8.913375654077068
 40
10.72816786849486
 40
12.55793334780631
 40
13.36835794302653
 40
13.36835794302653
 40
13.36835794302653
 40
13.36835794302653
 10
135.2083629629779
 20
-65.65967929392481
 30
6.359330548760966
 10
135.0114289646766
 20
-65.94694868213735
 30
6.359330548760961
 10
134.4720858469449
 20
-66.4132612790187
 30
6.359330548760949
 10
133.3279625286865
 20
-66.21582750661898
 30
6.359330548760953
 10
132.7401870222052
 20
-64.76223617059618
 30
6.359330548760959
 10
134.2561878386355
 20
-63.76881212267234
 30
6.359330548760957
 10
135.7919298968021
 20
-64.0244886483698
 30
6.359330548760967
 10
136.5094679599948
 20
-65.42669114747413
 30
6.359330548760965
 10
135.5998232127815
 20
-66.69319002250428
 30
6.359330548760951
 10
135.0657354636979
 20
-68.24246001790162
 30
6.359330548760962
 10
135.1540158855888
 20
-69.71698051636555
 30
6.359330548760962
 10
135.2210722287693
 20
-70.57100753723223
 30
6.359330548760965
 10
135.2516930174806
 20
-70.8329849565985
 30
6.359330548760949
  0
SPLINE
  5
105
330
1F
100
AcDbEntity
  8
Default
100
AcDbSpline
210
0.0
220
0.0
230
1.0
 70
    12
 71
     3
 72
    12
 73
     8
 74
     0
 42
0.0000000001
 43
0.0000000001
 40
0.0
 40
0.0
 40
0.0
 40
0.0
 40
0.3025212710145809
 40
1.026621201547302
 40
2.656292356525431
 40
4.029953158203361
 40
5.388752298176431
 40
5.388752298176431
 40
5.388752298176431
 40
5.388752298176431
 10
135.2516930174806
 20
-70.8329849565985
 30
6.359330548760949
 41
1.0
 10
135.1748407374351
 20
-70.7676789758579
 30
6.35933054876096
 41
1.0
 10
134.9142939848487
 20
-70.54576338699259
 30
6.359330548760961
 41
1.0
 10
134.241296901018
 20
-69.97039557578108
 30
6.359330548760948
 41
1.0
 10
133.3006633130134
 20
-69.15809407372498
 30
6.359330548760952
 41
1.0
 10
132.2347177295118
 20
-68.1687675916759
 30
6.359330548760961
 41
1.0
 10
131.6048531622676
 20
-67.5095453008569
 30
6.359330548760959
 41
1.0
 10
131.3089577691767
 20
-67.16665831027561
 30
6.359330548760953
 41
1.0
  0
SPLINE
  5
106
330
1F
100
AcDbEntity
  8
Default
100
AcDbSpline
210
0.0
220
0.0
230
1.0
 70
     8
 71
     3
 72
    11
 73
     7
 74
     0
 42
0.0000000001
 43
0.0000000001
 40
0.0
 40
0.0
 40
0.0
 40
0.0
 40
1.676715284180653
 40
3.408245536854841
 40
4.674927568681474
 40
5.265374106494534
 40
5.265374106494534
 40
5.265374106494534
 40
5.265374106494534
 10
131.3089577691767
 20
-67.16665831027561
 30
6.359330548760953
 10
131.8087702052833
 20
-67.43709869334982
 30
6.359330548760964
 10
132.89329437158
 20
-67.78886146646227
 30
6.35933054876096
 10
134.4538095801884
 20
-67.4607544064759
 30
6.359330548760959
 10
135.4057204085105
 20
-66.47952281008631
 30
6.359330548760954
 10
135.2758233704717
 20
-65.84113064770644
 30
6.359330548760966
 10
135.2083629629779
 20
-65.65967929392481
 30
6.359330548760966
  0
SPLINE
  5
107
330
1F
100
AcDbEntity
  8
Default
100
AcDbSpline
210
0.0
220
0.0
230
1.0
 70
     8
 71
     3
 72
     8
 73
     4
 74
     0
 42
0.0000000001
 43
0.0000000001
 40
0.0
 40
0.0
 40
0.0
 40
0.0
 40
4.304100621530385
 40
4.304100621530385
 40
4.304100621530385
 40
4.304100621530385
 10
107.4848977751276
 20
-49.57275632300198
 30
6.35933054876097
 10
106.8618668168513
 20
-48.33406646582388
 30
6.35933054876097
 10
105.6905116206551
 20
-47.26618419466206
 30
6.359330548760973
 10
104.574913538169
 20
-46.45350638288458
 30
6.359330548760972
  0
SPLINE
  5
108
330
1F
100
AcDbEntity
  8
Default
100
AcDbSpline
210
0.0
220
0.0
230
1.0
 70
     8
 71
     3
 72
     9
 73
     5
 74
     0
 42
0.0000000001
 43
0.0000000001
 40
0.0
 40
0.0
 40
0.0
 40
0.0
 40
1.545493662084391
 40
3.311857431557256
 40
3.311857431557256
 40
3.311857431557256
 40
3.311857431557256
 10
104.574913538169
 20
-46.45350638288458
 30
6.359330548760972
 10
105.0662084457377
 20
-46.58554192542853
 30
6.359330548760961
 10
106.2018155899279
 20
-46.68221124209694
 30
6.359330548760973
 10
107.2135258834285
 20
-46.11663086007077
 30
6.359330548760966
 10
107.6578312406451
 20
-45.729023389734
 30
6.359330548760973
  0
SPLINE
  5
109
330
1F
100
AcDbEntity
  8
Default
100
AcDbSpline
210
0.0
220
0.0
230
1.0
 70
     8
 71
     3
 72
     8
 73
     4
 74
     0
 42
0.0000000001
 43
0.0000000001
 40
0.0
 40
0.0
 40
0.0
 40
0.0
 40
3.862268020952695
 40
3.862268020952695
 40
3.862268020952695
 40
3.862268020952695
 10
107.6578312406451
 20
-45.729023389734
 30
6.359330548760973
 10
107.3981589494227
 20
-46.99488414595592
 30
6.359330548760973
 10
107.3443291088716
 20
-48.28948821572043
 30
6.359330548760971
 10
107.4848977751276
 20
-49.57275632300198
 30
6.35933054876097
  0
SPLINE
  5
10A
330
1F
100
AcDbEntity
  8
Default
100
AcDbSpline
210
0.0
220
0.0
230
1.0
 70
    12
 71
     2
 72
     6
 73
     3
 74
     0
 42
0.0000000001
 43
0.0000000001
 40
0.0
 40
0.0
 40
0.0
 40
3.761501055964469
 40
3.761501055964469
 40
3.761501055964469
 10
111.5032476711035
 20
-39.03649769952027
 30
6.359330548760989
 41
1.0
 10
112.2059586839928
 20
-37.0113754405385
 30
6.359330548760985
 41
0.8260116015332071
 10
110.5764312318613
 20
-35.61869341860783
 30
6.35933054876098
 41
1.0
  0
SPLINE
  5
10B
330
1F
100
AcDbEntity
  8
Default
100
AcDbSpline
210
0.0
220
0.0
230
1.0
 70
    24
 71
     3
 72
     8
 73
     4
 74
     0
 42
0.0000000001
 43
0.0000000001
 40
0.0
 40
0.0
 40
0.0
 40
0.0
 40
4.276080598159279
 40
4.276080598159279
 40
4.276080598159279
 40
4.276080598159279
 10
110.5764312318613
 20
-35.61869341860783
 30
6.35933054876098
 10
112.0017914312477
 20
-35.61869341860783
 30
6.359330548760979
 10
113.4271516306339
 20
-35.61869341860782
 30
6.359330548760978
 10
114.8525118300203
 20
-35.61869341860782
 30
6.359330548760978
  0
SPLINE
  5
10C
330
1F
100
AcDbEntity
  8
Default
100
AcDbSpline
210
0.0
220
0.0
230
1.0
 70
    12
 71
     3
 72
     8
 73
     4
 74
     0
 42
0.0000000001
 43
0.0000000001
 40
0.0
 40
0.0
 40
0.0
 40
0.0
 40
4.789044604300553
 40
4.789044604300553
 40
4.789044604300553
 40
4.789044604300553
 10
114.8525118300203
 20
-35.61869341860782
 30
6.359330548760978
 41
1.0
 10
113.7711735665266
 20
-36.49280069807335
 30
6.359330548760977
 41
1.0
 10
112.3779125838545
 20
-38.0986624466213
 30
6.359330548760979
 41
1.0
 10
111.5032476711035
 20
-39.03649769952027
 30
6.359330548760989
 41
1.0
  0
LINE
  5
10D
330
1F
100
AcDbEntity
  8
Default
100
AcDbLine
 10
126.0856885362983
 20
-56.6607779648412
 30
6.35318800503595
 11
126.0856885362983
 21
-56.71200333419961
 31
6.359330548760965
  0
SPLINE
  5
10E
330
1F
100
AcDbEntity
  8
Default
100
AcDbSpline
210
0.0
220
0.0
230
1.0
 70
    24
 71
     3
 72
     8
 73
     4
 74
     0
 42
0.0000000001
 43
0.0000000001
 40
0.0
 40
0.0
 40
0.0
 40
0.0
 40
1.760932906486103
 40
1.760932906486103
 40
1.760932906486103
 40
1.760932906486103
 10
126.0856885362983
 20
-56.71200333419961
 30
6.359330548760965
 10
126.0856885362983
 20
-57.29898096969498
 30
6.359330548760961
 10
126.0856885362983
 20
-57.88595860519035
 30
6.359330548760972
 10
126.0856885362983
 20
-58.47293624068571
 30
6.359330548760966
  0
SPLINE
  5
10F
330
1F
100
AcDbEntity
  8
Default
100
AcDbSpline
210
0.0
220
0.0
230
1.0
 70
    24
 71
     3
 72
     8
 73
     4
 74
     0
 42
0.0000000001
 43
0.0000000001
 40
0.0
 40
0.0
 40
0.0
 40
0.0
 40
3.00031092742476
 40
3.00031092742476
 40
3.00031092742476
 40
3.00031092742476
 10
126.0856885362983
 20
-58.47293624068571
 30
6.359330548760966
 10
125.0855848938234
 20
-58.47293624068573
 30
6.359330548760967
 10
124.0854812513485
 20
-58.47293624068573
 30
6.359330548760968
 10
123.0853776088736
 20
-58.47293624068571
 30
6.359330548760966
  0
SPLINE
  5
110
330
1F
100
AcDbEntity
  8
Default
100
AcDbSpline
210
0.0
220
0.0
230
1.0
 70
    24
 71
     3
 72
     8
 73
     4
 74
     0
 42
0.0000000001
 43
0.0000000001
 40
0.0
 40
0.0
 40
0.0
 40
0.0
 40
1.760932906486096
 40
1.760932906486096
 40
1.760932906486096
 40
1.760932906486096
 10
123.0853776088736
 20
-58.47293624068571
 30
6.359330548760966
 10
123.0853776088736
 20
-57.88595860519037
 30
6.359330548760973
 10
123.0853776088736
 20
-57.29898096969499
 30
6.359330548760962
 10
123.0853776088736
 20
-56.71200333419961
 30
6.359330548760965
  0
LINE
  5
111
330
1F
100
AcDbEntity
  8
Default
100
AcDbLine
 10
123.0853776088736
 20
-56.71200333419961
 30
6.359330548760965
 11
123.0853776088736
 21
-56.6607779648412
 31
6.35318800503595
  0
LINE
  5
112
330
1F
100
AcDbEntity
  8
Default
100
AcDbLine
 10
123.0853776088736
 20
-56.6607779648412
 30
6.35318800503595
 11
126.0856885362983
 21
-56.6607779648412
 31
6.35318800503595
  0
SPLINE
  5
113
330
1F
100
AcDbEntity
  8
Default
100
AcDbSpline
210
0.0
220
0.0
230
1.0
 70
    24
 71
     3
 72
     8
 73
     4
 74
     0
 42
0.0000000001
 43
0.0000000001
 40
0.0
 40
0.0
 40
0.0
 40
0.0
 40
3.489821796537609
 40
3.489821796537609
 40
3.489821796537609
 40
3.489821796537609
 10
96.44475784770347
 20
-59.24177645086233
 30
6.359330548760959
 10
96.64608502590096
 20
-58.096056760621
 30
6.359330548760957
 10
96.84741220409843
 20
-56.95033707037962
 30
6.359330548760951
 10
97.04873938229588
 20
-55.80461738013827
 30
6.359330548760962
  0
SPLINE
  5
114
330
1F
100
AcDbEntity
  8
Default
100
AcDbSpline
210
0.0
220
0.0
230
1.0
 70
     8
 71
     3
 72
    10
 73
     6
 74
     0
 42
0.0000000001
 43
0.0000000001
 40
0.0
 40
0.0
 40
0.0
 40
0.0
 40
2.124751701623695
 40
5.228953913189957
 40
6.132868241009981
 40
6.132868241009981
 40
6.132868241009981
 40
6.132868241009981
 10
97.04873938229588
 20
-55.80461738013827
 30
6.359330548760962
 10
97.18596345718052
 20
-56.46626529934366
 30
6.359330548760961
 10
97.87879889650729
 20
-58.10963972050253
 30
6.359330548760952
 10
99.60527752878549
 20
-59.30126898607433
 30
6.359330548760945
 10
100.9390097737847
 20
-59.73446588628437
 30
6.359330548760961
 10
101.242970176965
 20
-59.80608758608273
 30
6.359330548760956
  0
SPLINE
  5
115
330
1F
100
AcDbEntity
  8
Default
100
AcDbSpline
210
0.0
220
0.0
230
1.0
 70
    12
 71
     3
 72
     8
 73
     4
 74
     0
 42
0.0000000001
 43
0.0000000001
 40
0.0
 40
0.0
 40
0.0
 40
0.0
 40
4.85611215685696
 40
4.85611215685696
 40
4.85611215685696
 40
4.85611215685696
 10
101.242970176965
 20
-59.80608758608272
 30
6.359330548760956
 41
0.9370574786647349
 10
99.6030560017803
 20
-59.90761473139883
 30
6.359330548760961
 41
0.9445684416361587
 10
97.98695267065668
 20
-59.7120365894864
 30
6.359330548760949
 41
0.9625860241989374
 10
96.44475784770347
 20
-59.24177645086234
 30
6.359330548760959
 41
0.9911102263530707
  0
SPLINE
  5
116
330
1F
100
AcDbEntity
  8
Default
100
AcDbSpline
210
0.0
220
0.0
230
1.0
 70
     8
 71
     3
 72
    10
 73
     6
 74
     0
 42
0.0000000001
 43
0.0000000001
 40
0.0
 40
0.0
 40
0.0
 40
0.0
 40
0.699913746822383
 40
3.24428339432718
 40
5.173782162067397
 40
5.173782162067397
 40
5.173782162067397
 40
5.173782162067397
 10
102.7385428442289
 20
-52.2893274578277
 30
6.35933054876097
 10
102.9555350526976
 20
-52.21328847731525
 30
6.359330548760961
 10
103.9082828375502
 20
-51.74659463484923
 30
6.359330548760963
 10
104.8308351778737
 20
-50.01616479679952
 30
6.359330548760966
 10
104.5316550553348
 20
-48.52116001680707
 30
6.359330548760967
 10
104.2849182574117
 20
-47.93951506078928
 30
6.359330548760963
  0
SPLINE
  5
117
330
1F
100
AcDbEntity
  8
Default
100
AcDbSpline
210
0.0
220
0.0
230
1.0
 70
     8
 71
     3
 72
    15
 73
    11
 74
     0
 42
0.0000000001
 43
0.0000000001
 40
0.0
 40
0.0
 40
0.0
 40
0.0
 40
2.112387715713471
 40
4.875828338745526
 40
7.79769857330998
 40
10.86636968816728
 40
13.20682112022861
 40
14.90413923031073
 40
16.43112880234128
 40
17.331555252314
 40
17.331555252314
 40
17.331555252314
 40
17.331555252314
 10
104.2849182574117
 20
-47.93951506078928
 30
6.359330548760963
 10
104.7650818830985
 20
-48.42660155586303
 30
6.359330548760965
 10
105.7084015027591
 20
-49.69755794665369
 30
6.359330548760968
 10
106.6968777074471
 20
-52.1490525970809
 30
6.359330548760969
 10
105.9392907207378
 20
-55.01569169583858
 30
6.35933054876096
 10
104.2639930129816
 20
-57.29322762837015
 30
6.359330548760962
 10
101.4719008491859
 20
-57.61886685539983
 30
6.359330548760967
 10
100.4831942132812
 20
-55.3346799583599
 30
6.359330548760961
 10
102.321620322975
 20
-54.5366541272449
 30
6.359330548760959
 10
102.8455267505084
 20
-55.26764464102203
 30
6.359330548760965
 10
102.981601123095
 20
-55.52548915027373
 30
6.359330548760969
  0
SPLINE
  5
118
330
1F
100
AcDbEntity
  8
Default
100
AcDbSpline
210
0.0
220
0.0
230
1.0
 70
     8
 71
     3
 72
    10
 73
     6
 74
     0
 42
0.0000000001
 43
0.0000000001
 40
0.0
 40
0.0
 40
0.0
 40
0.0
 40
1.073614743865904
 40
2.872480852455971
 40
3.873964478764337
 40
3.873964478764337
 40
3.873964478764337
 40
3.873964478764337
 10
102.981601123095
 20
-55.52548915027373
 30
6.359330548760969
 10
103.2611192769593
 20
-55.31817507089441
 30
6.359330548760952
 10
103.9392226410063
 20
-54.59055466473988
 30
6.359330548760965
 10
103.7141213621115
 20
-53.11864158547121
 30
6.35933054876096
 10
103.0223007704838
 20
-52.46666599124941
 30
6.359330548760965
 10
102.7385428442289
 20
-52.2893274578277
 30
6.35933054876097
  0
SPLINE
  5
119
330
1F
100
AcDbEntity
  8
Default
100
AcDbSpline
210
0.0
220
0.0
230
1.0
 70
     8
 71
     3
 72
     9
 73
     5
 74
     0
 42
0.0000000001
 43
0.0000000001
 40
0.0
 40
0.0
 40
0.0
 40
0.0
 40
1.909721802479188
 40
4.044902140258515
 40
4.044902140258515
 40
4.044902140258515
 40
4.044902140258515
 10
140.2936972233586
 20
-74.1521146970824
 30
6.359330548760957
 10
140.9017750884507
 20
-73.98767466231737
 30
6.359330548760951
 10
142.1549107456669
 20
-73.36846764800235
 30
6.359330548760952
 10
142.8721221361017
 20
-72.15826877380894
 30
6.359330548760967
 10
143.078924135892
 20
-71.47550114638813
 30
6.359330548760955
  0
SPLINE
  5
11A
330
1F
100
AcDbEntity
  8
Default
100
AcDbSpline
210
0.0
220
0.0
230
1.0
 70
     8
 71
     3
 72
     8
 73
     4
 74
     0
 42
0.0000000001
 43
0.0000000001
 40
0.0
 40
0.0
 40
0.0
 40
0.0
 40
3.779661868617728
 40
3.779661868617728
 40
3.779661868617728
 40
3.779661868617728
 10
143.078924135892
 20
-71.47550114638813
 30
6.359330548760955
 10
143.2451740713013
 20
-72.72437141239612
 30
6.359330548760951
 10
143.4111205858775
 20
-73.97328208863385
 30
6.359330548760965
 10
143.5768471150706
 20
-75.22222191899564
 30
6.359330548760955
  0
SPLINE
  5
11B
330
1F
100
AcDbEntity
  8
Default
100
AcDbSpline
210
0.0
220
0.0
230
1.0
 70
    12
 71
     3
 72
     9
 73
     5
 74
     0
 42
0.0000000001
 43
0.0000000001
 40
0.0
 40
0.0
 40
0.0
 40
0.0
 40
2.280100498214725
 40
3.456260044155328
 40
3.456260044155328
 40
3.456260044155328
 40
3.456260044155328
 10
143.5768471150706
 20
-75.22222191899564
 30
6.359330548760955
 41
1.0
 10
142.8388567385814
 20
-75.04008775934591
 30
6.359330548760954
 41
1.0
 10
141.7310872636674
 20
-74.71854735949788
 30
6.359330548760954
 41
1.0
 10
140.6546036981928
 20
-74.30531152694887
 30
6.359330548760951
 41
1.0
 10
140.2936972233586
 20
-74.1521146970824
 30
6.359330548760957
 41
1.0
  0
POLYLINE
  5
11C
330
1F
100
AcDbEntity
  8
Default
100
AcDb3dPolyline
 66
     1
 10
0.0
 20
0.0
 30
0.0
 70
     8
  0
VERTEX
  5
11D
330
11C
100
AcDbEntity
  8
Default
100
AcDbVertex
100
AcDb3dPolylineVertex
 10
118.1678896335567
 20
27.0581026904544
 30
6.77661099668341
 70
    32
  0
VERTEX
  5
11E
330
11C
100
AcDbEntity
  8
Default
100
AcDbVertex
100
AcDb3dPolylineVertex
 10
122.680546927682
 20
27.59925251242789
 30
6.77661099668341
 70
    32
  0
VERTEX
  5
11F
330
11C
100
AcDbEntity
  8
Default
100
AcDbVertex
100
AcDb3dPolylineVertex
 10
122.4662511834502
 20
29.386449390031
 30
6.77661099668341
 70
    32
  0
VERTEX
  5
120
330
11C
100
AcDbEntity
  8
Default
100
AcDbVertex
100
AcDb3dPolylineVertex
 10
117.9535938893249
 20
28.84529956805751
 30
6.774453523666925
 70
    32
  0
VERTEX
  5
121
330
11C
100
AcDbEntity
  8
Default
100
AcDbVertex
100
AcDb3dPolylineVertex
 10
118.1678896335567
 20
27.0581026904544
 30
6.77661099668341
 70
    32
  0
SEQEND
  5
122
330
11C
100
AcDbEntity
  8
Default
  0
POLYLINE
  5
123
330
1F
100
AcDbEntity
  8
Default
100
AcDb3dPolyline
 66
     1
 10
0.0
 20
0.0
 30
0.0
 70
     8
  0
VERTEX
  5
124
330
123
100
AcDbEntity
  8
Default
100
AcDbVertex
100
AcDb3dPolylineVertex
 10
98.25675859324954
 20
24.69168898603531
 30
6.77661099668341
 70
    32
  0
VERTEX
  5
125
330
123
100
AcDbEntity
  8
Default
100
AcDbVertex
100
AcDb3dPolylineVertex
 10
102.7694158873749
 20
25.2328388080088
 30
6.77661099668341
 70
    32
  0
VERTEX
  5
126
330
123
100
AcDbEntity
  8
Default
100
AcDbVertex
100
AcDb3dPolylineVertex
 10
102.555120143143
 20
27.02003568561191
 30
6.77661099668341
 70
    32
  0
VERTEX
  5
127
330
123
100
AcDbEntity
  8
Default
100
AcDbVertex
100
AcDb3dPolylineVertex
 10
98.04246284901768
 20
26.47888586363842
 30
6.774453523666925
 70
    32
  0
VERTEX
  5
128
330
123
100
AcDbEntity
  8
Default
100
AcDbVertex
100
AcDb3dPolylineVertex
 10
98.25675859324954
 20
24.69168898603531
 30
6.77661099668341
 70
    32
  0
SEQEND
  5
129
330
123
100
AcDbEntity
  8
Default
  0
POLYLINE
  5
12A
330
1F
100
AcDbEntity
  8
Default
100
AcDb3dPolyline
 66
     1
 10
0.0
 20
0.0
 30
0.0
 70
     8
  0
VERTEX
  5
12B
330
12A
100
AcDbEntity
  8
Default
100
AcDbVertex
100
AcDb3dPolylineVertex
 10
79.45395249611124
 20
22.45753863574446
 30
6.77661099668341
 70
    32
  0
VERTEX
  5
12C
330
12A
100
AcDbEntity
  8
Default
100
AcDbVertex
100
AcDb3dPolylineVertex
 10
83.96660979023656
 20
22.99868845771795
 30
6.77661099668341
 70
    32
  0
VERTEX
  5
12D
330
12A
100
AcDbEntity
  8
Default
100
AcDbVertex
100
AcDb3dPolylineVertex
 10
83.7523140460047
 20
24.78588533532106
 30
6.77661099668341
 70
    32
  0
VERTEX
  5
12E
330
12A
100
AcDbEntity
  8
Default
100
AcDbVertex
100
AcDb3dPolylineVertex
 10
79.23965675187938
 20
24.24473551334757
 30
6.774453523666925
 70
    32
  0
VERTEX
  5
12F
330
12A
100
AcDbEntity
  8
Default
100
AcDbVertex
100
AcDb3dPolylineVertex
 10
79.45395249611124
 20
22.45753863574446
 30
6.77661099668341
 70
    32
  0
SEQEND
  5
130
330
12A
100
AcDbEntity
  8
Default
  0
POLYLINE
  5
131
330
1F
100
AcDbEntity
  8
Default
100
AcDb3dPolyline
 66
     1
 10
0.0
 20
0.0
 30
0.0
 70
     8
  0
VERTEX
  5
132
330
131
100
AcDbEntity
  8
Default
100
AcDbVertex
100
AcDb3dPolylineVertex
 10
79.45395249611124
 20
-7.441090482567311
 30
6.77661099668341
 70
    32
  0
VERTEX
  5
133
330
131
100
AcDbEntity
  8
Default
100
AcDbVertex
100
AcDb3dPolylineVertex
 10
83.96660979023656
 20
-7.982240304540802
 30
6.77661099668341
 70
    32
  0
VERTEX
  5
134
330
131
100
AcDbEntity
  8
Default
100
AcDbVertex
100
AcDb3dPolylineVertex
 10
83.7523140460047
 20
-9.76943718214391
 30
6.77661099668341
 70
    32
  0
VERTEX
  5
135
330
131
100
AcDbEntity
  8
Default
100
AcDbVertex
100
AcDb3dPolylineVertex
 10
79.23965675187938
 20
-9.22828736017042
 30
6.774453523666925
 70
    32
  0
VERTEX
  5
136
330
131
100
AcDbEntity
  8
Default
100
AcDbVertex
100
AcDb3dPolylineVertex
 10
79.45395249611124
 20
-7.441090482567311
 30
6.77661099668341
 70
    32
  0
SEQEND
  5
137
330
131
100
AcDbEntity
  8
Default
  0
POLYLINE
  5
138
330
1F
100
AcDbEntity
  8
Default
100
AcDb3dPolyline
 66
     1
 10
0.0
 20
0.0
 30
0.0
 70
     8
  0
VERTEX
  5
139
330
138
100
AcDbEntity
  8
Default
100
AcDbVertex
100
AcDb3dPolylineVertex
 10
98.25675859324954
 20
-9.675240832858158
 30
6.77661099668341
 70
    32
  0
VERTEX
  5
13A
330
138
100
AcDbEntity
  8
Default
100
AcDbVertex
100
AcDb3dPolylineVertex
 10
102.7694158873749
 20
-10.21639065483165
 30
6.77661099668341
 70
    32
  0
VERTEX
  5
13B
330
138
100
AcDbEntity
  8
Default
100
AcDbVertex
100
AcDb3dPolylineVertex
 10
102.555120143143
 20
-12.00358753243476
 30
6.77661099668341
 70
    32
  0
VERTEX
  5
13C
330
138
100
AcDbEntity
  8
Default
100
AcDbVertex
100
AcDb3dPolylineVertex
 10
98.04246284901768
 20
-11.46243771046127
 30
6.774453523666925
 70
    32
  0
VERTEX
  5
13D
330
138
100
AcDbEntity
  8
Default
100
AcDbVertex
100
AcDb3dPolylineVertex
 10
98.25675859324954
 20
-9.675240832858158
 30
6.77661099668341
 70
    32
  0
SEQEND
  5
13E
330
138
100
AcDbEntity
  8
Default
  0
POLYLINE
  5
13F
330
1F
100
AcDbEntity
  8
Default
100
AcDb3dPolyline
 66
     1
 10
0.0
 20
0.0
 30
0.0
 70
     8
  0
VERTEX
  5
140
330
13F
100
AcDbEntity
  8
Default
100
AcDbVertex
100
AcDb3dPolylineVertex
 10
118.1678896335567
 20
-12.04165453727725
 30
6.77661099668341
 70
    32
  0
VERTEX
  5
141
330
13F
100
AcDbEntity
  8
Default
100
AcDbVertex
100
AcDb3dPolylineVertex
 10
122.680546927682
 20
-12.58280435925074
 30
6.77661099668341
 70
    32
  0
VERTEX
  5
142
330
13F
100
AcDbEntity
  8
Default
100
AcDbVertex
100
AcDb3dPolylineVertex
 10
122.4662511834502
 20
-14.37000123685385
 30
6.77661099668341
 70
    32
  0
VERTEX
  5
143
330
13F
100
AcDbEntity
  8
Default
100
AcDbVertex
100
AcDb3dPolylineVertex
 10
117.9535938893249
 20
-13.82885141488035
 30
6.774453523666925
 70
    32
  0
VERTEX
  5
144
330
13F
100
AcDbEntity
  8
Default
100
AcDbVertex
100
AcDb3dPolylineVertex
 10
118.1678896335567
 20
-12.04165453727725
 30
6.77661099668341
 70
    32
  0
SEQEND
  5
145
330
13F
100
AcDbEntity
  8
Default
  0
SPLINE
  5
146
330
1F
100
AcDbEntity
  8
Default
100
AcDbSpline
 70
     0
 71
     3
 72
    22
 73
    18
 74
     0
 42
0.0000000001
 43
0.0000000001
 40
-73.39342909597617
 40
-73.39342909597617
 40
-73.39342909597617
 40
-73.39342909597617
 40
-70.13517988278412
 40
-70.13517988278412
 40
-66.81633571752332
 40
-66.81633571752332
 40
-63.8443867082792
 40
-63.8443867082792
 40
-61.02540020833208
 40
-61.02540020833208
 40
-58.20575889518773
 40
-58.20575889518773
 40
-55.23191649617132
 40
-55.23191649617132
 40
-51.91522492071219
 40
-51.91522492071219
 40
-48.65063336903422
 40
-48.65063336903422
 40
-48.65063336903422
 40
-48.65063336903422
 10
81.33770485182177
 20
4.172096976025223
 30
6.774500356248969
 10
81.9688518219661
 20
3.283120518708238
 30
6.774695922525324
 10
82.87193457094679
 20
2.598434774956196
 30
6.774727805487291
 10
85.0244171040232
 20
2.010570486031007
 30
6.774803797990543
 10
86.15230378248285
 20
2.150623468000369
 30
6.774843617562008
 10
88.02425378630278
 20
3.159682812060829
 30
6.774909705980642
 10
88.72678332953994
 20
3.914533498383612
 30
6.774934508494836
 10
89.62514927845992
 20
5.632545447914858
 30
6.774966224932127
 10
89.84531390940312
 20
6.564674603882587
 30
6.774973997753128
 10
89.84623848373386
 20
8.447524085109457
 30
6.774974030394831
 10
89.62595657339347
 20
9.381438449279493
 30
6.774966253433332
 10
88.72806157766922
 20
11.10042006099906
 30
6.774934553622852
 10
88.02628889291088
 20
11.85459175765452
 30
6.77490977782923
 10
86.15582723021691
 20
12.86486677524928
 30
6.774843741955865
 10
85.02807473212971
 20
13.00565156123863
 30
6.774803927121579
 10
82.87449092020157
 20
12.41982857700959
 30
6.774727895738146
 10
81.96982142801875
 20
11.73464306668487
 30
6.774695956756857
 10
81.33770485182178
 20
10.84430893275026
 30
6.774500356248979
  0
SPLINE
  5
147
330
1F
100
AcDbEntity
  8
Default
100
AcDbSpline
 70
     0
 71
     3
 72
    15
 73
    11
 74
     0
 42
0.0000000001
 43
0.0000000001
 40
-48.65063336903422
 40
-48.65063336903422
 40
-48.65063336903422
 40
-48.65063336903422
 40
-48.4997933216976
 40
-44.91940950469709
 40
-40.96790441351136
 40
-37.75620716486925
 40
-34.22980853351353
 40
-30.12574645303805
 40
-26.28664875990363
 40
-25.70973282120094
 40
-25.70973282120094
 40
-25.70973282120094
 40
-25.70973282120094
 10
81.33770485182178
 20
10.84430893275026
 30
6.774500356248979
 10
81.33851796163381
 20
10.90075204859716
 30
6.774327101061201
 10
81.39530692757627
 20
12.28040316770725
 30
6.774329105972091
 10
83.83414278626026
 20
14.03792625557012
 30
6.774415208060747
 10
86.92188847707226
 20
15.52547471584014
 30
6.774524219641947
 10
90.53605067325839
 20
14.23614763956225
 30
6.774651816139561
 10
92.07077955875658
 20
10.61893348794565
 30
6.774705999106449
 10
95.29878943374061
 20
8.198439503005964
 30
6.774819962656486
 10
98.06627458139081
 20
8.219523801442925
 30
6.774917667572003
 10
99.48157421276147
 20
8.766113033490093
 30
6.774967634138592
 10
99.66228612487184
 20
8.847362553794774
 30
6.774974014097717
  0
SPLINE
  5
148
330
1F
100
AcDbEntity
  8
Default
100
AcDbSpline
210
-3.530458535328446E-5
220
2.985871786377231E-15
230
0.9999999993767932
 70
     8
 71
     3
 72
     8
 73
     4
 74
     0
 42
0.0000000001
 43
0.0000000001
 40
-25.70973282120094
 40
-25.70973282120094
 40
-25.70973282120094
 40
-25.70973282120094
 40
-23.00268526935924
 40
-23.00268526935924
 40
-23.00268526935924
 40
-23.00268526935924
 10
99.66228612487184
 20
8.847362553794774
 30
6.774974014097717
 10
99.43308529940458
 20
7.975950102375144
 30
6.774965922257609
 10
99.43308529940465
 20
7.040455806400097
 30
6.774965922257604
 10
99.66228612487174
 20
6.169043354980467
 30
6.774974014097725
  0
SPLINE
  5
149
330
1F
100
AcDbEntity
  8
Default
100
AcDbSpline
 70
     0
 71
     3
 72
    15
 73
    11
 74
     0
 42
0.0000000001
 43
0.0000000001
 40
-96.39611436533542
 40
-96.39611436533542
 40
-96.39611436533542
 40
-96.39611436533542
 40
-95.81764466937972
 40
-91.9682074701136
 40
-87.85309227809012
 40
-84.31719630564385
 40
-81.09684927362822
 40
-77.13470193929436
 40
-73.54467538762319
 40
-73.39342909597617
 40
-73.39342909597617
 40
-73.39342909597617
 40
-73.39342909597617
 10
99.66228612487174
 20
6.169043354980467
 30
6.774974014097725
 10
99.48157421276153
 20
6.25029287528519
 30
6.774967634138583
 10
98.0662745813909
 20
6.796882107332472
 30
6.774917667572012
 10
95.29878943374061
 20
6.817966405769432
 30
6.774819962656482
 10
92.07077955875677
 20
4.397472420829779
 30
6.774705999106428
 10
90.53605067325844
 20
0.7802582692130571
 30
6.774651816139536
 10
86.92188847707229
 20
-0.5090688070647573
 30
6.774524219641921
 10
83.83414278626029
 20
0.978479653205234
 30
6.774415208060732
 10
81.39530692757624
 20
2.73600274106812
 30
6.774329105972071
 10
81.3385179616339
 20
4.115653860178234
 30
6.774327101061179
 10
81.33770485182177
 20
4.172096976025223
 30
6.774500356248969
  0
SPLINE
  5
14A
330
1F
100
AcDbEntity
  8
Default
100
AcDbSpline
210
3.530458559242339E-5
220
2.351092010004934E-13
230
-0.9999999993767932
 70
     8
 71
     3
 72
     8
 73
     4
 74
     0
 42
0.0000000001
 43
0.0000000001
 40
-15.65314637549707
 40
-15.65314637549707
 40
-15.65314637549707
 40
-15.65314637549707
 40
-11.92695709122728
 40
-11.92695709122728
 40
-11.92695709122728
 40
-11.92695709122728
 10
122.2539804961813
 20
0.7981358871272661
 30
6.774974014097676
 10
121.8630346039764
 20
1.942310095161268
 30
6.774960211915223
 10
121.0937665060677
 20
3.069619070194626
 30
6.774933053224013
 10
120.25994636044
 20
3.922773372418241
 30
6.774903615549547
  0
SPLINE
  5
14B
330
1F
100
AcDbEntity
  8
Default
100
AcDbSpline
210
3.530458528384330E-5
220
1.306950581626548E-14
230
-0.9999999993767932
 70
     8
 71
     3
 72
     8
 73
     4
 74
     0
 42
0.0000000001
 43
0.0000000001
 40
-11.92695709122728
 40
-11.92695709122728
 40
-11.92695709122728
 40
-11.92695709122728
 40
-8.942488734316473
 40
-8.942488734316473
 40
-8.942488734316473
 40
-8.942488734316473
 10
120.25994636044
 20
3.922773372418241
 30
6.77490361554945
 10
121.2012109992772
 20
4.289082935830756
 30
6.774936846507192
 10
121.905510577686
 20
5.092160493730354
 30
6.774961711511748
 10
122.2539804961785
 20
6.014435337167832
 30
6.774974014097725
  0
SPLINE
  5
14C
330
1F
100
AcDbEntity
  8
Default
100
AcDbSpline
210
0.0
220
0.0
230
1.0
 70
    24
 71
     3
 72
     8
 73
     4
 74
     0
 42
0.0000000001
 43
0.0000000001
 40
-8.942488734316473
 40
-8.942488734316473
 40
-8.942488734316473
 40
-8.942488734316473
 40
-3.726189284269791
 40
-3.726189284269791
 40
-3.726189284269791
 40
-3.726189284269791
 10
122.2539804961785
 20
6.014435337167832
 30
6.774974014097725
 10
122.2539804961813
 20
4.275668853818935
 30
6.774974014097727
 10
122.2539804961813
 20
2.536902370476163
 30
6.774974014097713
 10
122.2539804961813
 20
0.7981358871272661
 30
6.774974014097676
  0
SPLINE
  5
14D
330
1F
100
AcDbEntity
  8
Default
100
AcDbSpline
210
0.0
220
0.0
230
1.0
 70
    24
 71
     3
 72
     8
 73
     4
 74
     0
 42
0.0000000001
 43
0.0000000001
 40
-16.64206410643388
 40
-16.64206410643388
 40
-16.64206410643388
 40
-16.64206410643388
 40
-11.27330236754034
 40
-11.27330236754034
 40
-11.27330236754034
 40
-11.27330236754034
 10
122.2539804961813
 20
-3.194705182971866
 30
6.774974014097725
 10
122.2539804961813
 20
-4.984292429269722
 30
6.774974014097725
 10
122.2539804961813
 20
-6.773879675567535
 30
6.774974014097725
 10
122.2539804961813
 20
-8.563466921865377
 30
6.774974014097719
  0
SPLINE
  5
14E
330
1F
100
AcDbEntity
  8
Default
100
AcDbSpline
210
0.0
220
0.0
230
1.0
 70
    24
 71
     3
 72
     8
 73
     4
 74
     0
 42
0.0000000001
 43
0.0000000001
 40
-11.27330236754034
 40
-11.27330236754034
 40
-11.27330236754034
 40
-11.27330236754034
 40
-6.81235642312079
 40
-6.81235642312079
 40
-6.81235642312079
 40
-6.81235642312079
 10
122.2539804961813
 20
-8.563466921865377
 30
6.774974014097719
 10
120.7778765723153
 20
-8.383932478213374
 30
6.774921900860805
 10
119.3017726484492
 20
-8.204398034561443
 30
6.774869787623898
 10
117.8256687245832
 20
-8.024863590909455
 30
6.774817674386903
  0
SPLINE
  5
14F
330
1F
100
AcDbEntity
  8
Default
100
AcDbSpline
210
3.530458534850606E-5
220
-3.158249743570915E-14
230
-0.9999999993767932
 70
     8
 71
     3
 72
    10
 73
     6
 74
     0
 42
0.0000000001
 43
0.0000000001
 40
-23.45442052955467
 40
-23.45442052955467
 40
-23.45442052955467
 40
-23.45442052955467
 40
-21.39360407011483
 40
-18.65314187263493
 40
-16.64206410643388
 40
-16.64206410643388
 40
-16.64206410643388
 40
-16.64206410643388
 10
117.8256687245832
 20
-8.024863590909455
 30
6.77481767438689
 10
118.4679633931806
 20
-7.820267154285837
 30
6.774840350333887
 10
119.8837162831202
 20
-7.117109032910669
 30
6.774890332902588
 10
121.2965924541141
 20
-5.348395588989128
 30
6.774940213909904
 10
122.0353356786652
 20
-3.864128215041013
 30
6.774966294933093
 10
122.2539804961813
 20
-3.194705182971866
 30
6.774974014097725
  0
SPLINE
  5
150
330
1F
100
AcDbEntity
  8
Default
100
AcDbSpline
210
0.0001061415210613098
220
2.326498218379618E-15
230
-0.9999999943669886
 70
     8
 71
     3
 72
     8
 73
     4
 74
     0
 42
0.0000000001
 43
0.0000000001
 40
-30.39160229426036
 40
-30.39160229426036
 40
-30.39160229426036
 40
-30.39160229426036
 40
-23.78443198599329
 40
-23.78443198599329
 40
-23.78443198599329
 40
-23.78443198599329
 10
110.4160538014847
 20
4.454073249304635
 30
6.774833515272094
 10
111.8598012581467
 20
6.220195868153873
 30
6.774986756824041
 10
111.8598012581469
 20
8.796210040621581
 30
6.774986756824046
 10
110.4160538014847
 20
10.56233265947079
 30
6.774833515272109
  0
SPLINE
  5
151
330
1F
100
AcDbEntity
  8
Default
100
AcDbSpline
 70
     0
 71
     3
 72
     8
 73
     4
 74
     0
 42
0.0000000001
 43
0.0000000001
 40
-23.78443198599329
 40
-23.78443198599329
 40
-23.78443198599329
 40
-23.78443198599329
 40
-16.61398928771413
 40
-16.61398928771413
 40
-16.61398928771413
 40
-16.61398928771413
 10
110.4160538014847
 20
10.56233265947079
 30
6.774833515272109
 10
112.4250316724142
 20
9.46875010809378
 30
6.774802170756099
 10
114.9031656169424
 20
8.605194540356827
 30
6.774889660247375
 10
117.2924827430806
 20
8.875457193021056
 30
6.774974014097725
  0
SPLINE
  5
152
330
1F
100
AcDbEntity
  8
Default
100
AcDbSpline
210
-3.530458529573558E-5
220
0.0
230
0.9999999993767932
 70
     8
 71
     3
 72
     8
 73
     4
 74
     0
 42
0.0000000001
 43
0.0000000001
 40
-16.61398928771413
 40
-16.61398928771413
 40
-16.61398928771413
 40
-16.61398928771413
 40
-13.82063797746055
 40
-13.82063797746055
 40
-13.82063797746055
 40
-13.82063797746055
 10
117.2924827430806
 20
8.875457193021056
 30
6.774974014097725
 10
116.9620169539964
 20
8.000783627635919
 30
6.774962347140074
 10
116.9620169539964
 20
7.015622281139436
 30
6.77496234714008
 10
117.2924827430806
 20
6.140948715754298
 30
6.774974014097725
  0
SPLINE
  5
153
330
1F
100
AcDbEntity
  8
Default
100
AcDbSpline
 70
     0
 71
     3
 72
     8
 73
     4
 74
     0
 42
0.0000000001
 43
0.0000000001
 40
-13.82063797746055
 40
-13.82063797746055
 40
-13.82063797746055
 40
-13.82063797746055
 40
-6.607170308267065
 40
-6.607170308267065
 40
-6.607170308267065
 40
-6.607170308267065
 10
117.2924827430806
 20
6.140948715754298
 30
6.774974014097725
 10
114.9031586852785
 20
6.411212152480068
 30
6.77488966000266
 10
112.4250375006731
 20
5.547658973280868
 30
6.774802170961863
 10
110.4160538014847
 20
4.454073249304635
 30
6.774833515272094
  0
SPLINE
  5
154
330
1F
100
AcDbEntity
  8
Default
100
AcDbSpline
 70
     0
 71
     3
 72
    14
 73
    10
 74
     0
 42
0.0000000001
 43
0.0000000001
 40
-55.4171226445431
 40
-55.4171226445431
 40
-55.4171226445431
 40
-55.4171226445431
 40
-53.30374763510913
 40
-53.30374763510913
 40
-51.14457435936444
 40
-51.14457435936444
 40
-49.07634657951314
 40
-49.07634657951314
 40
-47.12583900063878
 40
-47.12583900063878
 40
-47.12583900063878
 40
-47.12583900063878
 10
112.1037361293542
 20
-0.2570820506040619
 30
6.774825248780505
 10
111.8871333990724
 20
-0.9382268399658145
 30
6.774864118090307
 10
111.7618865366571
 20
-1.679765401671283
 30
6.774859696301784
 10
111.8041317893901
 20
-3.132873241344448
 30
6.774861187752888
 10
111.9775980507878
 20
-3.777941083759806
 30
6.774867311907346
 10
112.6303481661089
 20
-5.054956206767251
 30
6.774890356979477
 10
113.038827945871
 20
-5.590599678883187
 30
6.774904778188712
 10
113.960117062871
 20
-6.582660472444708
 30
6.774937303918946
 10
114.4407148147261
 20
-6.999789110232122
 30
6.77495427122328
 10
114.9999304026604
 20
-7.349759635105833
 30
6.774974014097725
  0
SPLINE
  5
155
330
1F
100
AcDbEntity
  8
Default
100
AcDbSpline
210
-0.1107603686091479
220
-0.9938471415391633
230
3.383760922538768E-11
 70
     8
 71
     3
 72
     8
 73
     4
 74
     0
 42
0.0000000001
 43
0.0000000001
 40
-47.12583900063878
 40
-47.12583900063878
 40
-47.12583900063878
 40
-47.12583900063878
 40
-34.72462921298135
 40
-34.72462921298135
 40
-34.72462921298135
 40
-34.72462921298135
 10
114.9999304026604
 20
-7.349759635105833
 30
6.774974014097725
 10
110.8916281054924
 20
-6.891905446294253
 30
6.774828972188746
 10
106.7833258083243
 20
-6.434051257482643
 30
6.774683930279769
 10
102.6750235111563
 20
-5.976197068671048
 30
6.774492371991432
  0
SPLINE
  5
156
330
1F
100
AcDbEntity
  8
Default
100
AcDbSpline
 70
     0
 71
     3
 72
    30
 73
    26
 74
     0
 42
0.0000000001
 43
0.0000000001
 40
-34.72462921298135
 40
-34.72462921298135
 40
-34.72462921298135
 40
-34.72462921298135
 40
-31.30412671503265
 40
-31.30412671503265
 40
-27.86032908954605
 40
-27.86032908954605
 40
-24.09292249288407
 40
-24.09292249288407
 40
-21.52527356005944
 40
-21.52527356005944
 40
-19.88386596058938
 40
-19.88386596058938
 40
-18.26317196535455
 40
-18.26317196535455
 40
-16.5773542159815
 40
-16.5773542159815
 40
-14.95263431262954
 40
-14.95263431262954
 40
-13.17206704070372
 40
-13.17206704070372
 40
-11.58989400312936
 40
-11.58989400312936
 40
-9.939932074700682
 40
-9.939932074700682
 40
-8.291283643904311
 40
-8.291283643904311
 40
-8.291283643904311
 40
-8.291283643904311
 10
102.6750235111563
 20
-5.976197068671048
 30
6.774492371991432
 10
103.5946688198844
 20
-5.389778998511254
 30
6.774478323308336
 10
104.4889972082359
 20
-4.778143890783568
 30
6.77450989720124
 10
106.1759780418773
 20
-3.374678897714368
 30
6.774569455360015
 10
106.9332042400702
 20
-2.585298402396141
 30
6.774596188916938
 10
108.5516143354453
 20
-0.956664617219694
 30
6.774653326214239
 10
109.1600466862676
 20
-0.3826819674594404
 30
6.774674806666062
 10
110.765627271031
 20
0.8463423465806059
 30
6.774731491022821
 10
112.1642148900053
 20
1.829059416745018
 30
6.774780867578755
 10
113.3582685849889
 20
2.464460310681453
 30
6.774823023149284
 10
113.8862232547171
 20
2.676205551247314
 30
6.774841662369971
 10
114.9727151642729
 20
2.697331151499149
 30
6.77488002051629
 10
115.5045276375592
 20
2.496609097703576
 30
6.774898795935123
 10
116.4556563246206
 20
2.036162040855707
 30
6.774932375139024
 10
117.0167991695926
 20
1.73411403348242
 30
6.774952186054468
 10
117.6244923459435
 20
0.7635033060104277
 30
6.774973640410068
 10
117.6938914150803
 20
0.1143237721634236
 30
6.774976090515429
 10
117.4747602337687
 20
-1.006149249004785
 30
6.774968354179934
 10
117.1803186709117
 20
-1.450637882453442
 30
6.774957959042653
 10
116.0923468364414
 20
-1.886331886630479
 30
6.774919548648184
 10
115.4776932124485
 20
-1.885945449397191
 30
6.774897848556896
 10
114.4077579153082
 20
-1.668081919262328
 30
6.774860074934893
 10
113.9219864938488
 20
-1.453329610166328
 30
6.774842924976292
 10
112.9534861390339
 20
-0.9302244712862517
 30
6.774808732472888
 10
112.511073069782
 20
-0.6295165398980131
 30
6.774793113262952
 10
112.1037361293542
 20
-0.2570820506040619
 30
6.774825248780505
  0
SPLINE
  5
157
330
1F
100
AcDbEntity
  8
Default
100
AcDbSpline
 70
     0
 71
     3
 72
     8
 73
     4
 74
     0
 42
0.0000000001
 43
0.0000000001
 40
-12.36975081479469
 40
-12.36975081479469
 40
-12.36975081479469
 40
-12.36975081479469
 40
-8.938102946997976
 40
-8.938102946997976
 40
-8.938102946997976
 40
-8.938102946997976
 10
104.6914778247821
 20
3.323048120482916
 30
6.774914545717682
 10
105.7005130965787
 20
2.76377022773358
 30
6.774892265541816
 10
106.8993239638357
 20
2.610736156743343
 30
6.774934589062347
 10
108.0160354335691
 20
2.905436440432119
 30
6.774974014097725
  0
SPLINE
  5
158
330
1F
100
AcDbEntity
  8
Default
100
AcDbSpline
 70
     0
 71
     3
 72
     8
 73
     4
 74
     0
 42
0.0000000001
 43
0.0000000001
 40
-8.938102946997976
 40
-8.938102946997976
 40
-8.938102946997976
 40
-8.938102946997976
 40
-3.973352084858847
 40
-3.973352084858847
 40
-3.973352084858847
 40
-3.973352084858847
 10
108.0160354335691
 20
2.905436440432119
 30
6.774974014097725
 10
106.6732775928279
 20
1.888814390938606
 30
6.774926608588979
 10
105.5349611362004
 20
0.7425416027808822
 30
6.774886420798481
 10
104.5428001499493
 20
-0.6206232637293922
 30
6.774909296714015
  0
SPLINE
  5
159
330
1F
100
AcDbEntity
  8
Default
100
AcDbSpline
 70
     0
 71
     3
 72
    10
 73
     6
 74
     0
 42
0.0000000001
 43
0.0000000001
 40
-16.34310289965354
 40
-16.34310289965354
 40
-16.34310289965354
 40
-16.34310289965354
 40
-14.20021022625623
 40
-14.20021022625623
 40
-12.36975081479469
 40
-12.36975081479469
 40
-12.36975081479469
 40
-12.36975081479469
 10
104.5428001499493
 20
-0.6206232637293922
 30
6.774909296714015
 10
104.6629653485136
 20
0.0194325162317952
 30
6.774971442844246
 10
104.7084018327045
 20
0.6597208897029603
 30
6.774973046960482
 10
104.7396728416241
 20
1.862472241126078
 30
6.774974150970485
 10
104.7477256477315
 20
2.768702960011971
 30
6.774974435271458
 10
104.6914778247821
 20
3.323048120482916
 30
6.774914545717682
  0
SPLINE
  5
15A
330
1F
100
AcDbEntity
  8
Default
100
AcDbSpline
210
0.1207374709304372
220
0.992684473089673
230
-1.615888681435096E-10
 70
     8
 71
     3
 72
     8
 73
     4
 74
     0
 42
0.0000000001
 43
0.0000000001
 40
-26.4441095848083
 40
-26.4441095848083
 40
-26.4441095848083
 40
-26.4441095848083
 40
-20.60019961913225
 40
-20.60019961913225
 40
-20.60019961913225
 40
-20.60019961913225
 10
85.61232990418299
 20
-4.436217933563064
 30
6.774974014097725
 10
83.67861034487125
 20
-4.201024963984999
 30
6.774905744930443
 10
81.74489078555945
 20
-3.965831994406905
 30
6.774837475763267
 10
79.81117122268503
 20
-3.730639024395494
 30
6.774871610346863
  0
SPLINE
  5
15B
330
1F
100
AcDbEntity
  8
Default
100
AcDbSpline
210
1.0
220
2.416729569581597E-15
230
-9.251519657958180E-11
 70
     8
 71
     3
 72
     8
 73
     4
 74
     0
 42
0.0000000001
 43
0.0000000001
 40
-20.60019961913225
 40
-20.60019961913225
 40
-20.60019961913225
 40
-20.60019961913225
 40
-14.71999899962134
 40
-14.71999899962134
 40
-14.71999899962134
 40
-14.71999899962134
 10
79.81117122268503
 20
-3.730639024395494
 30
6.774871610346863
 10
79.81117122268503
 20
-1.770572151225188
 30
6.774974014097725
 10
79.81117122268503
 20
0.1894947219450458
 30
6.774974014097725
 10
79.81117122268502
 20
2.149561595115351
 30
6.774871610346831
  0
SPLINE
  5
15C
330
1F
100
AcDbEntity
  8
Default
100
AcDbSpline
 70
     0
 71
     3
 72
     9
 73
     5
 74
     0
 42
0.0000000001
 43
0.0000000001
 40
-14.71999899962134
 40
-14.71999899962134
 40
-14.71999899962134
 40
-14.71999899962134
 40
-13.39709434172095
 40
-5.843909965676049
 40
-5.843909965676049
 40
-5.843909965676049
 40
-5.843909965676049
 10
79.81117122268502
 20
2.149561595115351
 30
6.774871610346831
 10
79.98935852397169
 20
1.729989585752342
 30
6.774775497424762
 10
81.43707252728576
 20
-1.016554436343888
 30
6.774826608367319
 10
83.53214145084073
 20
-3.213498371101075
 30
6.774900573906883
 10
85.61232990418299
 20
-4.436217933563064
 30
6.774974014097725
  0
SPLINE
  5
15D
330
1F
100
AcDbEntity
  8
Default
100
AcDbSpline
210
0.9999881285104728
220
-0.004872662323847406
230
1.291041097679275E-11
 70
     8
 71
     3
 72
     8
 73
     4
 74
     0
 42
0.0000000001
 43
0.0000000001
 40
-35.90401219511129
 40
-35.90401219511129
 40
-35.90401219511129
 40
-35.90401219511129
 40
-30.05339051916949
 40
-30.05339051916949
 40
-30.05339051916949
 40
-30.05339051916949
 10
124.5674832523223
 20
-16.57728962149576
 30
6.774973510864343
 10
124.5769859535928
 20
-14.62710554805033
 30
6.774973343119887
 10
124.5864886548632
 20
-12.67692147460492
 30
6.774973678608797
 10
124.5959913561338
 20
-10.72673740114801
 30
6.774907272923733
  0
SPLINE
  5
15E
330
1F
100
AcDbEntity
  8
Default
100
AcDbSpline
 70
     0
 71
     3
 72
    10
 73
     6
 74
     0
 42
0.0000000001
 43
0.0000000001
 40
-30.05339051916949
 40
-30.05339051916949
 40
-30.05339051916949
 40
-30.05339051916949
 40
-27.55489521626671
 40
-27.55489521626671
 40
-25.12736650645927
 40
-25.12736650645927
 40
-25.12736650645927
 40
-25.12736650645927
 10
124.5959913561338
 20
-10.72673740114801
 30
6.774907272923733
 10
125.4435593594037
 20
-10.73163049171958
 30
6.774870454786631
 10
126.251945183968
 20
-11.02485677475705
 30
6.774898994512928
 10
127.5737773792797
 20
-12.02818157532149
 30
6.774945661250467
 10
128.0664074792365
 20
-12.69910720891503
 30
6.774963053351883
 10
128.3768698704725
 20
-13.44940213885193
 30
6.774967131333806
  0
SPLINE
  5
15F
330
1F
100
AcDbEntity
  8
Default
100
AcDbSpline
 70
     0
 71
     3
 72
    14
 73
    10
 74
     0
 42
0.0000000001
 43
0.0000000001
 40
-55.18075702562875
 40
-55.18075702562875
 40
-55.18075702562875
 40
-55.18075702562875
 40
-51.45273250369518
 40
-51.45273250369518
 40
-47.44138923162611
 40
-47.44138923162611
 40
-43.80179456484778
 40
-43.80179456484778
 40
-40.03124249719555
 40
-40.03124249719555
 40
-40.03124249719555
 40
-40.03124249719555
 10
128.3768698704725
 20
-13.44940213885193
 30
6.774967131333806
 10
128.8530380369729
 20
-14.59988828399248
 30
6.774977059489674
 10
128.8928169685188
 20
-15.90819692403155
 30
6.774978463868347
 10
128.0723633946477
 20
-18.35533862220297
 30
6.774949498095138
 10
127.1337427252121
 20
-19.45479180606842
 30
6.774916360481668
 10
124.658329982636
 20
-20.33118505344721
 30
6.774828967061252
 10
123.3952828031724
 20
-20.13967924115548
 30
6.774784375704371
 10
121.3182248737754
 20
-18.70454814629935
 30
6.774711046035451
 10
120.6560737568916
 20
-17.53238735888083
 30
6.77468766906487
 10
120.4502673504982
 20
-16.28995155739479
 30
6.774754530326341
  0
SPLINE
  5
160
330
1F
100
AcDbEntity
  8
Default
100
AcDbSpline
210
-0.06962007042206531
220
-0.997573579138114
230
1.347798356916215E-10
 70
     8
 71
     3
 72
     8
 73
     4
 74
     0
 42
0.0000000001
 43
0.0000000001
 40
-40.03124249719555
 40
-40.03124249719555
 40
-40.03124249719555
 40
-40.03124249719555
 40
-35.90401219511129
 40
-35.90401219511129
 40
-35.90401219511129
 40
-35.90401219511129
 10
120.4502673504982
 20
-16.28995155739479
 30
6.774754530326341
 10
121.8226726511003
 20
-16.38573091209469
 30
6.774877109697647
 10
123.1950779517025
 20
-16.48151026679464
 30
6.774925561897681
 10
124.5674832523223
 20
-16.57728962149576
 30
6.774973510864343
  0
SPLINE
  5
161
330
1F
100
AcDbEntity
  8
Default
100
AcDbSpline
 70
     0
 71
     3
 72
     9
 73
     5
 74
     0
 42
0.0000000001
 43
0.0000000001
 40
-27.0053150297478
 40
-27.0053150297478
 40
-27.0053150297478
 40
-27.0053150297478
 40
-23.68873843602369
 40
-20.37216184017415
 40
-20.37216184017415
 40
-20.37216184017415
 40
-20.37216184017415
 10
89.17461439746158
 20
-4.869488758394802
 30
6.774913941179211
 10
88.18923944489798
 20
-4.528835993180614
 30
6.774939225843633
 10
86.26363947810425
 20
-3.420533844830786
 30
6.774871243335311
 10
84.81272701012611
 20
-1.619407125080578
 30
6.774820019472302
 10
84.26541086623442
 20
-0.6393907660672724
 30
6.774672210844333
  0
SPLINE
  5
162
330
1F
100
AcDbEntity
  8
Default
100
AcDbSpline
 70
     0
 71
     3
 72
    17
 73
    13
 74
     0
 42
0.0000000001
 43
0.0000000001
 40
-60.88415701894417
 40
-60.88415701894417
 40
-60.88415701894417
 40
-60.88415701894417
 40
-56.90669348011407
 40
-55.23650341338032
 40
-52.87962832335418
 40
-50.66822066709065
 40
-48.14588199954697
 40
-46.43914092726851
 40
-45.08123877439979
 40
-43.62896798376585
 40
-41.65717001491844
 40
-40.51199517877001
 40
-40.51199517877001
 40
-40.51199517877001
 40
-40.51199517877001
 10
84.26541086623442
 20
-0.6393907660672724
 30
6.774672210844333
 10
85.34480749775264
 20
-1.359628095252738
 30
6.774581832636091
 10
87.25538620271854
 20
-1.954040158315649
 30
6.774649284824979
 10
89.68132591912757
 20
-1.056963509895702
 30
6.77473493162069
 10
91.37476237367727
 20
0.1927194749554459
 30
6.774794717692478
 10
92.63868073961855
 20
2.242470952385169
 30
6.774839339806275
 10
94.57782968072048
 20
3.578182847814013
 30
6.774907800655501
 10
96.52392608498641
 20
2.535998135943323
 30
6.774976506782062
 10
96.47329128733674
 20
0.7183805134449628
 30
6.774974719141513
 10
95.43272159419931
 20
-0.7154156425425882
 30
6.774937982259998
 10
93.78849170286227
 20
-0.6165045447235542
 30
6.774879933405531
 10
92.91646946472451
 20
-0.1049290447571352
 30
6.774849147022019
 10
92.62813927074224
 20
0.1398420308026616
 30
6.77484113180911
  0
SPLINE
  5
163
330
1F
100
AcDbEntity
  8
Default
100
AcDbSpline
 70
     0
 71
     3
 72
    10
 73
     6
 74
     0
 42
0.0000000001
 43
0.0000000001
 40
-40.51199517877001
 40
-40.51199517877001
 40
-40.51199517877001
 40
-40.51199517877001
 40
-38.24226041620308
 40
-36.4162705844464
 40
-34.45278904715514
 40
-34.45278904715514
 40
-34.45278904715514
 40
-34.45278904715514
 10
92.62813927074224
 20
0.1398420308026616
 30
6.77484113180911
 10
92.70024396576343
 20
-0.6494123437806181
 30
6.774845841600476
 10
93.12131455850655
 20
-2.065092640971024
 30
6.774860707323159
 10
94.49992653090806
 20
-3.631263586910173
 30
6.774909378647172
 10
95.7187639842122
 20
-3.938662560646428
 30
6.774952409198028
 10
96.33072131243283
 20
-3.94768831178849
 30
6.774974014097725
  0
SPLINE
  5
164
330
1F
100
AcDbEntity
  8
Default
100
AcDbSpline
 70
     0
 71
     3
 72
     8
 73
     4
 74
     0
 42
0.0000000001
 43
0.0000000001
 40
-34.45278904715514
 40
-34.45278904715514
 40
-34.45278904715514
 40
-34.45278904715514
 40
-30.43351687182754
 40
-30.43351687182754
 40
-30.43351687182754
 40
-30.43351687182754
 10
96.33072131243283
 20
-3.94768831178849
 30
6.774974014097725
 10
95.19929756362995
 20
-4.694611075065552
 30
6.774934069651463
 10
93.8861707133591
 20
-5.161961947611964
 30
6.774887710252522
 10
92.57773713462132
 20
-5.283401178392303
 30
6.774907765322671
  0
SPLINE
  5
165
330
1F
100
AcDbEntity
  8
Default
100
AcDbSpline
210
-0.12073747093043
220
-0.9926844730896739
230
-2.784049950911716E-9
 70
     8
 71
     3
 72
     8
 73
     4
 74
     0
 42
0.0000000001
 43
0.0000000001
 40
-30.43351687182754
 40
-30.43351687182754
 40
-30.43351687182754
 40
-30.43351687182754
 40
-27.0053150297478
 40
-27.0053150297478
 40
-27.0053150297478
 40
-27.0053150297478
 10
92.57773713462132
 20
-5.283401178392303
 30
6.774907765322671
 10
91.44336288806142
 20
-5.145430371624371
 30
6.774933965485319
 10
90.30898864380661
 20
-5.007459565136699
 30
6.77489391687305
 10
89.17461439746158
 20
-4.869488758394802
 30
6.774913941179211
  0
SPLINE
  5
166
330
1F
100
AcDbEntity
  8
Default
100
AcDbSpline
210
3.530458529926791E-5
220
4.094223709449536E-15
230
-0.9999999993767932
 70
     8
 71
     3
 72
    10
 73
     6
 74
     0
 42
0.0000000001
 43
0.0000000001
 40
-23.45442053079078
 40
-23.45442053079078
 40
-23.45442053079078
 40
-23.45442053079078
 40
-21.44334276440728
 40
-18.70288056667881
 40
-16.64206410705192
 40
-16.64206410705192
 40
-16.64206410705192
 40
-16.64206410705192
 10
122.2539804961813
 20
18.21111109174722
 30
6.774974014097725
 10
122.0353356786652
 20
18.8805341238164
 30
6.774966294933105
 10
121.2965924541141
 20
20.36480149776454
 30
6.774940213909914
 10
119.88371628312
 20
22.13351494168608
 30
6.774890332902597
 10
118.4679633931805
 20
22.83667306306128
 30
6.77484035033389
 10
117.8256687245831
 20
23.04126949968488
 30
6.774817674386975
  0
SPLINE
  5
167
330
1F
100
AcDbEntity
  8
Default
100
AcDbSpline
210
0.0
220
0.0
230
1.0
 70
    24
 71
     3
 72
     8
 73
     4
 74
     0
 42
0.0000000001
 43
0.0000000001
 40
-16.64206410705192
 40
-16.64206410705192
 40
-16.64206410705192
 40
-16.64206410705192
 40
-12.18111816263229
 40
-12.18111816263229
 40
-12.18111816263229
 40
-12.18111816263229
 10
117.8256687245831
 20
23.04126949968488
 30
6.774817674387061
 10
119.3017726484491
 20
23.22080394333687
 30
6.774869787623973
 10
120.7778765723152
 20
23.4003383869888
 30
6.774921900860901
 10
122.2539804961813
 20
23.57987283064079
 30
6.774974014097682
  0
SPLINE
  5
168
330
1F
100
AcDbEntity
  8
Default
100
AcDbSpline
210
0.0
220
0.0
230
1.0
 70
    24
 71
     3
 72
     8
 73
     4
 74
     0
 42
0.0000000001
 43
0.0000000001
 40
-28.82318226968422
 40
-28.82318226968422
 40
-28.82318226968422
 40
-28.82318226968422
 40
-23.45442053079078
 40
-23.45442053079078
 40
-23.45442053079078
 40
-23.45442053079078
 10
122.2539804961813
 20
23.57987283064079
 30
6.774974014097682
 10
122.2539804961813
 20
21.79028558434296
 30
6.774974014097725
 10
122.2539804961813
 20
20.00069833804502
 30
6.774974014097725
 10
122.2539804961813
 20
18.21111109174722
 30
6.774974014097725
  0
SPLINE
  5
169
330
1F
100
AcDbEntity
  8
Default
100
AcDbSpline
 70
     0
 71
     3
 72
    10
 73
     6
 74
     0
 42
0.0000000001
 43
0.0000000001
 40
-12.34494342394016
 40
-12.34494342394016
 40
-12.34494342394016
 40
-12.34494342394016
 40
-10.53243050404509
 40
-10.53243050404509
 40
-8.410445457132123
 40
-8.410445457132123
 40
-8.410445457132123
 40
-8.410445457132123
 10
104.691477824782
 20
11.69335778829251
 30
6.774914545706496
 10
104.7477257610685
 20
12.24770406574543
 30
6.77497443525308
 10
104.7396729735447
 20
13.15383506419189
 30
6.774974150952763
 10
104.7084063603473
 20
14.35662035712362
 30
6.774973047097941
 10
104.6629714475777
 20
14.99694090608951
 30
6.7749714430372
 10
104.5428001499493
 20
15.6370291725048
 30
6.774909296702853
  0
SPLINE
  5
16A
330
1F
100
AcDbEntity
  8
Default
100
AcDbSpline
 70
     0
 71
     3
 72
     8
 73
     4
 74
     0
 42
0.0000000001
 43
0.0000000001
 40
-8.410445457132123
 40
-8.410445457132123
 40
-8.410445457132123
 40
-8.410445457132123
 40
-3.432818870648881
 40
-3.432818870648881
 40
-3.432818870648881
 40
-3.432818870648881
 10
104.5428001499493
 20
15.6370291725048
 30
6.774909296702853
 10
105.5349611362005
 20
14.27386430599442
 30
6.77488642079854
 10
106.6732775928281
 20
13.12759151783656
 30
6.774926608589004
 10
108.0160354335695
 20
12.11096946834306
 30
6.774974014097725
  0
SPLINE
  5
16B
330
1F
100
AcDbEntity
  8
Default
100
AcDbSpline
 70
     0
 71
     3
 72
     8
 73
     4
 74
     0
 42
0.0000000001
 43
0.0000000001
 40
-15.77776229458904
 40
-15.77776229458904
 40
-15.77776229458904
 40
-15.77776229458904
 40
-12.34494342394016
 40
-12.34494342394016
 40
-12.34494342394016
 40
-12.34494342394016
 10
108.0160354335695
 20
12.11096946834306
 30
6.774974014097725
 10
106.8993238688097
 20
12.40566977710952
 30
6.774934589059034
 10
105.7005131824423
 20
12.2526357286334
 30
6.774892265544879
 10
104.691477824782
 20
11.69335778829251
 30
6.774914545706496
  0
SPLINE
  5
16C
330
1F
100
AcDbEntity
  8
Default
100
AcDbSpline
210
0.0
220
0.0
230
1.0
 70
    24
 71
     3
 72
     8
 73
     4
 74
     0
 42
0.0000000001
 43
0.0000000001
 40
-15.41225068857765
 40
-15.41225068857765
 40
-15.41225068857765
 40
-15.41225068857765
 40
-8.614764116854573
 40
-8.614764116854573
 40
-8.614764116854573
 40
-8.614764116854573
 10
101.8065544329687
 20
18.11408230402261
 30
6.774974014097725
 10
101.8065544329687
 20
15.84825344678159
 30
6.774974014097695
 10
101.8065544329687
 20
13.58242458954056
 30
6.774974014097668
 10
101.8065544329687
 20
11.31659573229954
 30
6.774974014097683
  0
SPLINE
  5
16D
330
1F
100
AcDbEntity
  8
Default
100
AcDbSpline
210
0.0
220
1.0
230
0.0
 70
     8
 71
     3
 72
     8
 73
     4
 74
     0
 42
0.0000000001
 43
0.0000000001
 40
-8.614764116854573
 40
-8.614764116854573
 40
-8.614764116854573
 40
-8.614764116854573
 40
-6.797486571723081
 40
-6.797486571723081
 40
-6.797486571723081
 40
-6.797486571723081
 10
101.8065544329687
 20
11.31659573229954
 30
6.774974014097683
 10
101.2007952520132
 20
11.31659573229954
 30
6.774952628021048
 10
100.5950360710577
 20
11.31659573229954
 30
6.774931241944344
 10
99.98927688896973
 20
11.31659573229954
 30
6.774941934982643
  0
SPLINE
  5
16E
330
1F
100
AcDbEntity
  8
Default
100
AcDbSpline
210
1.0
220
2.090604309861682E-15
230
-2.953293172980553E-10
 70
     8
 71
     3
 72
     8
 73
     4
 74
     0
 42
0.0000000001
 43
0.0000000001
 40
-24.02701480543222
 40
-24.02701480543222
 40
-24.02701480543222
 40
-24.02701480543222
 40
-17.22952823370914
 40
-17.22952823370914
 40
-17.22952823370914
 40
-17.22952823370914
 10
99.98927688896973
 20
11.31659573229954
 30
6.774941934982643
 10
99.98927688896971
 20
13.58242458954056
 30
6.774974014097668
 10
99.98927688896973
 20
15.84825344678159
 30
6.774974014097698
 10
99.98927688896971
 20
18.11408230402261
 30
6.774941934982669
  0
SPLINE
  5
16F
330
1F
100
AcDbEntity
  8
Default
100
AcDbSpline
210
-2.345957793487674E-14
220
1.0
230
1.328981927914526E-9
 70
     8
 71
     3
 72
     8
 73
     4
 74
     0
 42
0.0000000001
 43
0.0000000001
 40
-17.22952823370914
 40
-17.22952823370914
 40
-17.22952823370914
 40
-17.22952823370914
 40
-15.41225068857765
 40
-15.41225068857765
 40
-15.41225068857765
 40
-15.41225068857765
 10
99.98927688896971
 20
18.11408230402261
 30
6.774941934982669
 10
100.5950360710577
 20
18.11408230402264
 30
6.774931241944344
 10
101.2007952520132
 20
18.11408230402264
 30
6.774952628021033
 10
101.8065544329687
 20
18.11408230402261
 30
6.774974014097725
  0
SPLINE
  5
170
330
1F
100
AcDbEntity
  8
Default
100
AcDbSpline
 70
     0
 71
     3
 72
     9
 73
     5
 74
     0
 42
0.0000000001
 43
0.0000000001
 40
-14.83333745537192
 40
-14.83333745537192
 40
-14.83333745537192
 40
-14.83333745537192
 40
-7.214588588996413
 40
-5.880200619510722
 40
-5.880200619510722
 40
-5.880200619510722
 40
-5.880200619510722
 10
85.6123299041831
 20
19.45262384233856
 30
6.774974014097725
 10
83.53214145084075
 20
18.22990427987644
 30
6.774900573907002
 10
81.43707252728574
 20
16.03296034511926
 30
6.77482660836743
 10
79.98935852397167
 20
13.28641632302291
 30
6.774775497424872
 10
79.811171222685
 20
12.86684431366006
 30
6.774871610347004
  0
SPLINE
  5
171
330
1F
100
AcDbEntity
  8
Default
100
AcDbSpline
210
1.0
220
-4.833459138827864E-15
230
4.625759840212887E-11
 70
     8
 71
     3
 72
     8
 73
     4
 74
     0
 42
0.0000000001
 43
0.0000000001
 40
-26.55744804055885
 40
-26.55744804055885
 40
-26.55744804055885
 40
-26.55744804055885
 40
-20.67724742104812
 40
-20.67724742104812
 40
-20.67724742104812
 40
-20.67724742104812
 10
79.811171222685
 20
12.86684431366006
 30
6.774871610347004
 10
79.81117122268502
 20
14.82691118683029
 30
6.774974014097525
 10
79.81117122268502
 20
16.78697806000059
 30
6.774974014097525
 10
79.81117122268503
 20
18.74704493317085
 30
6.774871610346834
  0
SPLINE
  5
172
330
1F
100
AcDbEntity
  8
Default
100
AcDbSpline
210
-0.1207374709304544
220
0.992684473089671
230
-9.717110785250926E-11
 70
     8
 71
     3
 72
     8
 73
     4
 74
     0
 42
0.0000000001
 43
0.0000000001
 40
-20.67724742104812
 40
-20.67724742104812
 40
-20.67724742104812
 40
-20.67724742104812
 40
-14.83333745537192
 40
-14.83333745537192
 40
-14.83333745537192
 40
-14.83333745537192
 10
79.81117122268503
 20
18.74704493317085
 30
6.774871610346834
 10
81.74489078555948
 20
18.98223790318229
 30
6.774837475763387
 10
83.67861034487126
 20
19.21743087276044
 30
6.774905744930559
 10
85.6123299041831
 20
19.45262384233856
 30
6.774974014097725
  0
SPLINE
  5
173
330
1F
100
AcDbEntity
  8
Default
100
AcDbSpline
 70
     0
 71
     3
 72
    14
 73
    10
 74
     0
 42
0.0000000001
 43
0.0000000001
 40
-47.14327340367444
 40
-47.14327340367444
 40
-47.14327340367444
 40
-47.14327340367444
 40
-45.18697655945738
 40
-45.18697655945738
 40
-43.11043594692723
 40
-43.11043594692723
 40
-40.94490266112882
 40
-40.94490266112882
 40
-38.82459554121898
 40
-38.82459554121898
 40
-38.82459554121898
 40
-38.82459554121898
 10
114.9999304026604
 20
22.36616554388117
 30
6.774974014097725
 10
114.4409075118177
 20
22.01631561346843
 30
6.774954278026366
 10
113.9604431442201
 20
21.59934829863663
 30
6.77493731543111
 10
113.0388999940461
 20
20.60715656667937
 30
6.77490478073234
 10
112.6301412758553
 20
20.07116784385874
 30
6.774890349675294
 10
111.977452152872
 20
18.79384182601211
 30
6.774867306756459
 10
111.8041133934701
 20
18.14895095224767
 30
6.774861187103455
 10
111.7618939145879
 20
16.69612685765828
 30
6.77485969656225
 10
111.8871391153354
 20
15.95461477296251
 30
6.774864118292119
 10
112.1037361293542
 20
15.27348795937947
 30
6.774825248818363
  0
SPLINE
  5
174
330
1F
100
AcDbEntity
  8
Default
100
AcDbSpline
 70
     0
 71
     3
 72
    30
 73
    26
 74
     0
 42
0.0000000001
 43
0.0000000001
 40
-38.82459554121898
 40
-38.82459554121898
 40
-38.82459554121898
 40
-38.82459554121898
 40
-37.17330178451071
 40
-37.17330178451071
 40
-35.51887339713885
 40
-35.51887339713885
 40
-33.9306282273731
 40
-33.9306282273731
 40
-32.14898359541336
 40
-32.14898359541336
 40
-30.51487628977404
 40
-30.51487628977404
 40
-28.835494205856
 40
-28.835494205856
 40
-27.19593778371628
 40
-27.19593778371628
 40
-25.57600892386004
 40
-25.57600892386004
 40
-23.01667035452456
 40
-23.01667035452456
 40
-19.25231410402023
 40
-19.25231410402023
 40
-15.81798351997004
 40
-15.81798351997004
 40
-12.40120978765747
 40
-12.40120978765747
 40
-12.40120978765747
 40
-12.40120978765747
 10
112.1037361293542
 20
15.27348795937947
 30
6.774825248818363
 10
112.5108017450666
 20
15.64567437227343
 30
6.774793103759622
 10
112.952907228105
 20
15.94623396720248
 30
6.774808712110373
 10
113.9212308502211
 20
16.46941111130561
 30
6.774842898374294
 10
114.4071835196844
 20
16.6843184740492
 30
6.774860054731777
 10
115.4781646574163
 20
16.90249762094395
 30
6.77489786527674
 10
116.0942656160275
 20
16.90281289594491
 30
6.774919616465601
 10
117.1817449948823
 20
16.46552190299831
 30
6.774958009474108
 10
117.4754609136808
 20
16.02047934037201
 30
6.774968378992831
 10
117.6942112664132
 20
14.89906172282979
 30
6.77497610188333
 10
117.6237836769654
 20
14.2469204747164
 30
6.774973615466472
 10
117.0120903107607
 20
13.27982365786365
 30
6.774952019885842
 10
116.4529935160028
 20
12.97890404909139
 30
6.774932281205343
 10
115.4987451461125
 20
12.51704706707519
 30
6.774898591862366
 10
114.9622414246901
 20
12.31519546514382
 30
6.774879650820951
 10
113.8760729365997
 20
12.3445604279696
 30
6.77484130409289
 10
113.3547312908233
 20
12.55398421431612
 30
6.774822898342279
 10
112.1665738473749
 20
13.18584496409189
 30
6.774780950936426
 10
110.7682784312057
 20
14.16822367747226
 30
6.774731584696617
 10
109.1621769945803
 20
15.39717968108513
 30
6.774674881951413
 10
108.552810206748
 20
15.97187290448874
 30
6.774653368509664
 10
106.9340031361412
 20
17.60089507432294
 30
6.77459621719731
 10
106.1773737454736
 20
18.38969135971541
 30
6.774569504710425
 10
104.4905453915553
 20
19.7934923300398
 30
6.774509951934887
 10
103.5954696039421
 20
20.40567428189942
 30
6.774478351655385
 10
102.6750235111562
 20
20.99260297744646
 30
6.774492372029326
  0
SPLINE
  5
175
330
1F
100
AcDbEntity
  8
Default
100
AcDbSpline
210
0.1107603686091302
220
-0.9938471415391653
230
2.697854053519130E-10
 70
     8
 71
     3
 72
     8
 73
     4
 74
     0
 42
0.0000000001
 43
0.0000000001
 40
-59.54448319133192
 40
-59.54448319133192
 40
-59.54448319133192
 40
-59.54448319133192
 40
-47.14327340367444
 40
-47.14327340367444
 40
-47.14327340367444
 40
-47.14327340367444
 10
102.6750235111562
 20
20.99260297744646
 30
6.774492372029326
 10
106.7833258083243
 20
21.45045716625804
 30
6.774683930279778
 10
110.8916281054923
 20
21.90831135506959
 30
6.77482897218873
 10
114.9999304026604
 20
22.36616554388117
 30
6.774974014097725
  0
SPLINE
  5
176
330
1F
100
AcDbEntity
  8
Default
100
AcDbSpline
210
3.530458554129449E-5
220
-1.692488015907179E-13
230
-0.9999999993767932
 70
     8
 71
     3
 72
     8
 73
     4
 74
     0
 42
0.0000000001
 43
0.0000000001
 40
-8.960690881563991
 40
-8.960690881563991
 40
-8.960690881563991
 40
-8.960690881563991
 40
-5.21629945004801
 40
-5.21629945004801
 40
-5.21629945004801
 40
-5.21629945004801
 10
120.2599463604377
 20
11.09363253635799
 30
6.774903615549492
 10
121.0937684420992
 20
11.94678881949648
 30
6.774933053292379
 10
121.8630336962486
 20
13.07409315698354
 30
6.77496021188317
 10
122.2539804961813
 20
14.21827002164815
 30
6.774974014097725
  0
SPLINE
  5
177
330
1F
100
AcDbEntity
  8
Default
100
AcDbSpline
210
0.0
220
0.0
230
1.0
 70
    24
 71
     3
 72
     8
 73
     4
 74
     0
 42
0.0000000001
 43
0.0000000001
 40
-17.14025385440696
 40
-17.14025385440696
 40
-17.14025385440696
 40
-17.14025385440696
 40
-11.92395440435895
 40
-11.92395440435895
 40
-11.92395440435895
 40
-11.92395440435895
 10
122.2539804961813
 20
14.21827002164815
 30
6.77497401409763
 10
122.2539804961813
 20
12.47950353829882
 30
6.774974014097733
 10
122.2539804961813
 20
10.74073705494948
 30
6.774974014097733
 10
122.2539804961813
 20
9.001970571600161
 30
6.774974014097721
  0
SPLINE
  5
178
330
1F
100
AcDbEntity
  8
Default
100
AcDbSpline
210
3.530458527586531E-5
220
1.915790282939401E-15
230
-0.9999999993767932
 70
     8
 71
     3
 72
     8
 73
     4
 74
     0
 42
0.0000000001
 43
0.0000000001
 40
-11.92395440435895
 40
-11.92395440435895
 40
-11.92395440435895
 40
-11.92395440435895
 40
-8.960690881563991
 40
-8.960690881563991
 40
-8.960690881563991
 40
-8.960690881563991
 10
122.2539804961813
 20
9.001970571600161
 30
6.774974014097721
 10
121.9055105828356
 20
9.924245401422077
 30
6.77496171151194
 10
121.2012109853788
 20
10.72732297835449
 30
6.774936846506731
 10
120.2599463604377
 20
11.09363253635799
 30
6.774903615549492
  0
SPLINE
  5
179
330
1F
100
AcDbEntity
  8
Default
100
AcDbSpline
210
0.06962007042203071
220
-0.9975735791381163
230
2.463533033202020E-10
 70
     8
 71
     3
 72
     8
 73
     4
 74
     0
 42
0.0000000001
 43
0.0000000001
 40
-30.05474453039646
 40
-30.05474453039646
 40
-30.05474453039646
 40
-30.05474453039646
 40
-25.92751422831218
 40
-25.92751422831218
 40
-25.92751422831218
 40
-25.92751422831218
 10
124.5674832523223
 20
31.5936955302711
 30
6.774973510864399
 10
123.1950779517025
 20
31.49791617556996
 30
6.774925561897679
 10
121.8226726511002
 20
31.40213682087009
 30
6.774877109697659
 10
120.4502673504981
 20
31.30635746617019
 30
6.774754511977322
  0
SPLINE
  5
17A
330
1F
100
AcDbEntity
  8
Default
100
AcDbSpline
 70
     0
 71
     3
 72
    20
 73
    16
 74
     0
 42
0.0000000001
 43
0.0000000001
 40
-25.92751422831218
 40
-25.92751422831218
 40
-25.92751422831218
 40
-25.92751422831218
 40
-23.37080247963794
 40
-23.37080247963794
 40
-20.94580960895888
 40
-20.94580960895888
 40
-18.51049620624578
 40
-18.51049620624578
 40
-15.83093026001954
 40
-15.83093026001954
 40
-10.71686168174243
 40
-10.71686168174243
 40
-8.31756654187841
 40
-8.31756654187841
 40
-5.85062167594173
 40
-5.85062167594173
 40
-5.85062167594173
 40
-5.85062167594173
 10
120.4502673504981
 20
31.30635746617019
 30
6.774754511977322
 10
120.590150672284
 20
32.15082120305743
 30
6.774685304979688
 10
120.9387976228408
 20
32.96071919258974
 30
6.77469761381571
 10
122.0010974038952
 20
34.2585385830186
 30
6.774735117868953
 10
122.6822969271013
 20
34.74206941216695
 30
6.774759167335643
 10
124.2602299008487
 20
35.22516658314847
 30
6.774814875604952
 10
125.0958492220812
 20
35.20135438377621
 30
6.774844376798573
 10
126.725971358181
 20
34.6056008299476
 30
6.774901927584621
 10
127.4345915236141
 20
34.00865070079245
 30
6.774926945125706
 10
128.8838733825468
 20
31.83207303826367
 30
6.774978111420748
 10
129.0233416442674
 20
29.95957372417893
 30
6.774983035289895
 10
128.0295015157258
 20
27.66079662494644
 30
6.774947948176258
 10
127.536388259991
 20
27.00645780841938
 30
6.774930539017287
 10
126.2253766955559
 20
26.03163158978657
 30
6.774884254297629
 10
125.4297777082159
 20
25.74795683776791
 30
6.774856166005297
 10
124.5959913561338
 20
25.74314330992336
 30
6.774900371810747
  0
SPLINE
  5
17B
330
1F
100
AcDbEntity
  8
Default
100
AcDbSpline
210
0.9999881285104728
220
0.004872662323855667
230
-2.595378331611781E-10
 70
     8
 71
     3
 72
     8
 73
     4
 74
     0
 42
0.0000000001
 43
0.0000000001
 40
-35.90536620633819
 40
-35.90536620633819
 40
-35.90536620633819
 40
-35.90536620633819
 40
-30.05474453039646
 40
-30.05474453039646
 40
-30.05474453039646
 40
-30.05474453039646
 10
124.5959913561338
 20
25.74314330992336
 30
6.774900371810747
 10
124.5864886548633
 20
27.69332738338105
 30
6.774973678608929
 10
124.5769859535927
 20
29.64351145682609
 30
6.774973343119979
 10
124.5674832523223
 20
31.5936955302711
 30
6.774973510864399
  0
SPLINE
  5
17C
330
1F
100
AcDbEntity
  8
Default
100
AcDbSpline
210
1.0
220
2.090604294387665E-15
230
5.906586345579516E-10
 70
     8
 71
     3
 72
     8
 73
     4
 74
     0
 42
0.0000000001
 43
0.0000000001
 40
-24.02701490819104
 40
-24.02701490819104
 40
-24.02701490819104
 40
-24.02701490819104
 40
-17.22952830221502
 40
-17.22952830221502
 40
-17.22952830221502
 40
-17.22952830221502
 10
99.98927688896974
 20
3.699810157288901
 30
6.77494193498267
 10
99.98927688896973
 20
1.433981288630228
 30
6.774974014097695
 10
99.98927688896974
 20
-0.8318475800284446
 30
6.774974014097653
 10
99.98927688896975
 20
-3.097676448687118
 30
6.774941934982627
  0
SPLINE
  5
17D
330
1F
100
AcDbEntity
  8
Default
100
AcDbSpline
210
3.909929642984562E-15
220
1.0
230
2.214969884243432E-10
 70
     8
 71
     3
 72
     8
 73
     4
 74
     0
 42
0.0000000001
 43
0.0000000001
 40
-17.22952830221502
 40
-17.22952830221502
 40
-17.22952830221502
 40
-17.22952830221502
 40
-15.41225075708352
 40
-15.41225075708352
 40
-15.41225075708352
 40
-15.41225075708352
 10
99.98927688896975
 20
-3.097676448687118
 30
6.774941934982627
 10
100.5950360710578
 20
-3.097676448687118
 30
6.774931241944318
 10
101.2007952520132
 20
-3.097676448687118
 30
6.774952628021033
 10
101.8065544329687
 20
-3.097676448687132
 30
6.774974014097683
  0
SPLINE
  5
17E
330
1F
100
AcDbEntity
  8
Default
100
AcDbSpline
210
0.0
220
0.0
230
1.0
 70
    24
 71
     3
 72
     8
 73
     4
 74
     0
 42
0.0000000001
 43
0.0000000001
 40
-32.64177905929854
 40
-32.64177905929854
 40
-32.64177905929854
 40
-32.64177905929854
 40
-25.84429245332252
 40
-25.84429245332252
 40
-25.84429245332252
 40
-25.84429245332252
 10
101.8065544329687
 20
-3.097676448687132
 30
6.774974014097683
 10
101.8065544329687
 20
-0.8318475800284446
 30
6.774974014097667
 10
101.8065544329687
 20
1.433981288630228
 30
6.774974014097697
 10
101.8065544329687
 20
3.699810157288901
 30
6.774974014097725
  0
SPLINE
  5
17F
330
1F
100
AcDbEntity
  8
Default
100
AcDbSpline
210
0.0
220
1.0
230
0.0
 70
     8
 71
     3
 72
     8
 73
     4
 74
     0
 42
0.0000000001
 43
0.0000000001
 40
-25.84429245332252
 40
-25.84429245332252
 40
-25.84429245332252
 40
-25.84429245332252
 40
-24.02701490819104
 40
-24.02701490819104
 40
-24.02701490819104
 40
-24.02701490819104
 10
101.8065544329687
 20
3.699810157288901
 30
6.774974014097725
 10
101.2007952520132
 20
3.699810157288901
 30
6.774952628021034
 10
100.5950360710577
 20
3.699810157288901
 30
6.774931241944345
 10
99.98927688896974
 20
3.699810157288901
 30
6.77494193498267
  0
SPLINE
  5
180
330
1F
100
AcDbEntity
  8
Default
100
AcDbSpline
 70
     0
 71
     3
 72
     9
 73
     5
 74
     0
 42
0.0000000001
 43
0.0000000001
 40
-14.07013248819333
 40
-14.07013248819333
 40
-14.07013248819333
 40
-14.07013248819333
 40
-10.76270655020299
 40
-7.455280614332212
 40
-7.455280614332212
 40
-7.455280614332212
 40
-7.455280614332212
 10
84.26541086623442
 20
15.65579667484271
 30
6.774672210844189
 10
84.81272701012614
 20
16.63581303385603
 30
6.774820019472291
 10
86.26363947810434
 20
18.43693975360631
 30
6.774871243335305
 10
88.18923944489772
 20
19.54524190195604
 30
6.774939225843625
 10
89.17461439746108
 20
19.88589466717018
 30
6.774913941179168
  0
SPLINE
  5
181
330
1F
100
AcDbEntity
  8
Default
100
AcDbSpline
210
0.1207374709304282
220
-0.9926844730896741
230
8.440896063877637E-10
 70
     8
 71
     3
 72
     8
 73
     4
 74
     0
 42
0.0000000001
 43
0.0000000001
 40
-7.455280614332212
 40
-7.455280614332212
 40
-7.455280614332212
 40
-7.455280614332212
 40
-4.027078772253029
 40
-4.027078772253029
 40
-4.027078772253029
 40
-4.027078772253029
 10
89.17461439746108
 20
19.88589466717018
 30
6.774913941179168
 10
90.30898864380595
 20
20.02386547391201
 30
6.774893916873013
 10
91.44336288806127
 20
20.16183628039975
 30
6.774933965485257
 10
92.577737134621
 20
20.29980708716771
 30
6.774907765322716
  0
SPLINE
  5
182
330
1F
100
AcDbEntity
  8
Default
100
AcDbSpline
 70
     0
 71
     3
 72
     8
 73
     4
 74
     0
 42
0.0000000001
 43
0.0000000001
 40
-44.52501535141589
 40
-44.52501535141589
 40
-44.52501535141589
 40
-44.52501535141589
 40
-40.49793657916286
 40
-40.49793657916286
 40
-40.49793657916286
 40
-40.49793657916286
 10
92.577737134621
 20
20.29980708716771
 30
6.774907765322716
 10
93.8861707133589
 20
20.17836785638745
 30
6.774887710252528
 10
95.19929756362983
 20
19.71101698384102
 30
6.77493406965145
 10
96.33072131243289
 20
18.96409422056376
 30
6.774974014097725
  0
SPLINE
  5
183
330
1F
100
AcDbEntity
  8
Default
100
AcDbSpline
 70
     0
 71
     3
 72
    10
 73
     6
 74
     0
 42
0.0000000001
 43
0.0000000001
 40
-40.49793657916286
 40
-40.49793657916286
 40
-40.49793657916286
 40
-40.49793657916286
 40
-38.52531100096338
 40
-36.69081743469099
 40
-34.41051239319577
 40
-34.41051239319577
 40
-34.41051239319577
 40
-34.41051239319577
 10
96.33072131243289
 20
18.96409422056376
 30
6.774974014097725
 10
95.71876398421225
 20
18.95506846942185
 30
6.77495240919801
 10
94.49992653090808
 20
18.64766949568556
 30
6.774909378647155
 10
93.12131455850653
 20
17.08149854974643
 30
6.774860707323161
 10
92.70024396576338
 20
15.66581825255599
 30
6.774845841600501
 10
92.62813927074227
 20
14.87656387797281
 30
6.774841131809117
  0
SPLINE
  5
184
330
1F
100
AcDbEntity
  8
Default
100
AcDbSpline
 70
     0
 71
     3
 72
    17
 73
    13
 74
     0
 42
0.0000000001
 43
0.0000000001
 40
-34.41051239319577
 40
-34.41051239319577
 40
-34.41051239319577
 40
-34.41051239319577
 40
-33.26712410639288
 40
-31.29840227427112
 40
-29.84839712321347
 40
-28.49261338853378
 40
-26.78853494649259
 40
-24.27013129599039
 40
-22.06217358359246
 40
-19.70897537635897
 40
-18.04139091784892
 40
-14.07013248819333
 40
-14.07013248819333
 40
-14.07013248819333
 40
-14.07013248819333
 10
92.62813927074227
 20
14.87656387797281
 30
6.774841131809117
 10
92.91646946472454
 20
15.12133495353259
 30
6.774849147022008
 10
93.78849170286222
 20
15.63291045349901
 30
6.774879933405523
 10
95.43272159419921
 20
15.73182155131811
 30
6.774937982260012
 10
96.47329128733674
 20
14.29802539533042
 30
6.774974719141513
 10
96.52392608498641
 20
12.4804077728321
 30
6.774976506782062
 10
94.57782968072055
 20
11.43822306096126
 30
6.774907800655496
 10
92.6386807396186
 20
12.7739349563902
 30
6.774839339806266
 10
91.37476237367724
 20
14.82368643381997
 30
6.774794717692474
 10
89.68132591912763
 20
16.07336941867123
 30
6.774734931620683
 10
87.25538620271854
 20
16.97044606709105
 30
6.774649284824979
 10
85.34480749775267
 20
16.37603400402812
 30
6.774581832636079
 10
84.26541086623442
 20
15.65579667484271
 30
6.774672210844189
  0
SPLINE
  5
185
330
1F
100
AcDbEntity
  8
Default
100
AcDbSpline
 70
     0
 71
     3
 72
    29
 73
    25
 74
     0
 42
0.0000000001
 43
0.0000000001
 40
33.77247113618911
 40
33.77247113618911
 40
33.77247113618911
 40
33.77247113618911
 40
34.24594020904064
 40
34.71940928241251
 40
35.19287835578437
 40
35.66634742915624
 40
35.66634742915624
 40
35.66634742915624
 40
36.13981650252811
 40
36.61328557589997
 40
37.08675464927184
 40
37.5602237226437
 40
37.5602237226437
 40
37.5602237226437
 40
38.03369279601556
 40
38.50716186938742
 40
38.9806309427593
 40
39.45410001613116
 40
39.45410001613116
 40
39.45410001613116
 40
39.92756908950303
 40
40.40103816287489
 40
40.87450723624676
 40
41.34797630839829
 40
41.34797630839829
 40
41.34797630839829
 40
41.34797630839829
 10
124.6179122549852
 20
-6.228038915449794
 30
6.774747164920047
 10
125.2737460447455
 20
-6.231853733625876
 30
6.774709070732837
 10
126.6269910480528
 20
-6.41915238136734
 30
6.77475684648659
 10
128.5928843672708
 20
-7.29091494368803
 30
6.774826251534929
 10
130.2946885243708
 20
-8.697404185092417
 30
6.774886333024991
 10
131.1540646448351
 20
-9.884541837753822
 30
6.774916672942453
 10
131.5048888390019
 20
-10.5059798183891
 30
6.774929058645404
 10
131.8558498905947
 20
-11.12726036244326
 30
6.774941449179608
 10
132.4457307638514
 20
-12.50584397091809
 30
6.77496227467922
 10
132.852088564179
 20
-14.83252288340461
 30
6.774976620972842
 10
132.7148641607444
 20
-17.19798564056418
 30
6.774971776322221
 10
132.2872925296034
 20
-18.65026890230688
 30
6.774956681083069
 10
132.0101826733988
 20
-19.31675762638202
 30
6.774946897834448
 10
131.7331814453929
 20
-19.98341580348745
 30
6.774937118420969
 10
131.0166272421212
 20
-21.28431699430769
 30
6.774911820772179
 10
129.4892859371252
 20
-22.92363722559698
 30
6.774857898620476
 10
127.6394781013533
 20
-24.0706646624646
 30
6.774792591922223
 10
126.3184847729251
 20
-24.45078344762317
 30
6.774745954800565
 10
125.6686148072712
 20
-24.54881764692274
 30
6.774723011410876
 10
125.0186286007369
 20
-24.64718908186556
 30
6.774700063917327
 10
123.6553314670723
 20
-24.672558130696
 30
6.774651933277271
 10
121.6004841159135
 20
-24.11553231109688
 30
6.774579387743388
 10
119.740965239768
 20
-22.98782147133756
 30
6.774513738201006
 10
118.7428220039608
 20
-21.94610059771104
 30
6.774478499167751
 10
118.3184661431232
 20
-21.38532044717324
 30
6.774718765778937
  0
SPLINE
  5
186
330
1F
100
AcDbEntity
  8
Default
100
AcDbSpline
 70
     0
 71
     3
 72
    17
 73
    13
 74
     0
 42
0.0000000001
 43
0.0000000001
 40
41.34797630839829
 40
41.34797630839829
 40
41.34797630839829
 40
41.34797630839829
 40
41.93319231822947
 40
42.2234479650483
 40
42.85729450075426
 40
43.49343583896992
 40
44.00662891978792
 40
44.59374143655905
 40
45.05303088854335
 40
45.69469407794905
 40
46.74164699352807
 40
47.13368723574099
 40
47.13368723574099
 40
47.13368723574099
 40
47.13368723574099
 10
118.3184661431232
 20
-21.38532044717324
 30
6.774718765778937
 10
117.6203373114287
 20
-20.80399776227663
 30
6.774949366948818
 10
116.7357163980686
 20
-19.77343833055391
 30
6.774918135774384
 10
115.9672537669606
 20
-17.52569749770854
 30
6.774891005519748
 10
111.6392413791024
 20
-16.78498670116162
 30
6.774738206837169
 10
115.8924805271112
 20
-19.1004238622951
 30
6.774888365681383
 10
115.8881779743329
 20
-22.0179766849787
 30
6.774888213781556
 10
114.4434780473377
 20
-24.44058800379546
 30
6.77483720924988
 10
111.7776997011189
 20
-24.41071710339398
 30
6.774743095050868
 10
109.0304124395614
 20
-22.78328176365103
 30
6.774646103213229
 10
106.3430447803724
 20
-21.27110737248464
 30
6.774551226812453
 10
104.5246572760837
 20
-20.13884878503782
 30
6.77448702939557
 10
104.0313688507464
 20
-19.82615629524961
 30
6.774721814075091
  0
SPLINE
  5
187
330
1F
100
AcDbEntity
  8
Default
100
AcDbSpline
 70
     0
 71
     3
 72
    29
 73
    25
 74
     0
 42
0.0000000001
 43
0.0000000001
 40
47.13368723574099
 40
47.13368723574099
 40
47.13368723574099
 40
47.13368723574099
 40
47.35885193535196
 40
47.58401663537314
 40
47.80918133539431
 40
48.03434603541549
 40
48.03434603541549
 40
48.03434603541549
 40
48.25951073543666
 40
48.48467543545785
 40
48.70984013547902
 40
48.93500483550019
 40
48.93500483550019
 40
48.93500483550019
 40
49.16016953552137
 40
49.38533423554254
 40
49.61049893556373
 40
49.8356636355849
 40
49.8356636355849
 40
49.8356636355849
 40
50.06082833560608
 40
50.28599303562725
 40
50.51115773564843
 40
50.73632243566961
 40
50.73632243566961
 40
50.73632243566961
 40
50.73632243566961
 10
104.0313688507464
 20
-19.82615629524961
 30
6.774721814075091
 10
103.9581917405255
 20
-20.16358377947557
 30
6.774971430610157
 10
103.7274284720264
 20
-20.84251985586815
 30
6.774963283608631
 10
103.1249222196603
 20
-21.75214384386131
 30
6.774942012375227
 10
102.3212181384667
 20
-22.43889938036065
 30
6.774913637935967
 10
101.7186738564096
 20
-22.70593468962547
 30
6.774892365359884
 10
101.4187044020148
 20
-22.79216475976435
 30
6.774881775062787
 10
101.1187780875241
 20
-22.87845241468987
 30
6.774871186288687
 10
100.4760267911667
 20
-22.96976593384189
 30
6.774848494220742
 10
99.47672714935672
 20
-22.8015069901093
 30
6.774813214361151
 10
98.55828161127786
 20
-22.32962606369976
 30
6.774780789022333
 10
98.06450979841225
 20
-21.85890500051176
 30
6.774763356613218
 10
97.85554154670615
 20
-21.60273610389132
 30
6.774755979075922
 10
97.64649609068186
 20
-21.3465543623718
 30
6.774748598812604
 10
97.27217179473621
 20
-20.7535292072432
 30
6.774735383448752
 10
96.93427709444973
 20
-19.68553469303351
 30
6.77472345421639
 10
96.8733300766446
 20
-18.55467237506675
 30
6.774721302507182
 10
97.0113086476344
 20
-17.8445486117223
 30
6.774726173783302
 10
97.11453394876568
 20
-17.51724095714702
 30
6.774729818109826
 10
97.21766882353185
 20
-17.1897762512931
 30
6.774733459243794
 10
97.50820232551806
 20
-16.54036327200253
 30
6.774743716408652
 10
98.1893322343144
 20
-15.70338636394766
 30
6.77476776341736
 10
99.05060896235875
 20
-15.11089675740188
 30
6.774798170435194
 10
99.67407276790946
 20
-14.91322970230031
 30
6.774820181566289
 10
99.98025693395486
 20
-14.86136163025296
 30
6.774902502684576
  0
SPLINE
  5
188
330
1F
100
AcDbEntity
  8
Default
100
AcDbSpline
 70
     0
 71
     3
 72
     8
 73
     4
 74
     0
 42
0.0000000001
 43
0.0000000001
 40
50.73632243566961
 40
50.73632243566961
 40
50.73632243566961
 40
50.73632243566961
 40
55.01410210804615
 40
55.01410210804615
 40
55.01410210804615
 40
55.01410210804615
 10
99.98025693395486
 20
-14.86136163025296
 30
6.774902502684576
 10
98.05854929226739
 20
-14.43073208483759
 30
6.774906169006317
 10
91.88813530647596
 20
-14.00010253996098
 30
6.774688325099377
 10
85.71772130980895
 20
-13.56947299446701
 30
6.774722247644873
  0
SPLINE
  5
189
330
1F
100
AcDbEntity
  8
Default
100
AcDbSpline
 70
     0
 71
     3
 72
    12
 73
     8
 74
     0
 42
0.0000000001
 43
0.0000000001
 40
55.01410210804615
 40
55.01410210804615
 40
55.01410210804615
 40
55.01410210804615
 40
56.01410210780351
 40
57.01410210790059
 40
57.01410210790059
 40
57.01410210790059
 40
58.51344552441394
 40
58.51344552441394
 40
58.51344552441394
 40
58.51344552441394
 10
85.71772130980895
 20
-13.56947299446701
 30
6.774722247644873
 10
77.1976253129526
 20
-12.26022250398145
 30
6.774673215641762
 10
75.67288827877962
 20
-11.25658167533444
 30
6.774619385432988
 10
74.0210999101962
 20
-8.250325496623283
 30
6.774561069729534
 10
73.931510058725
 20
-4.382231805153488
 30
6.77455790679713
 10
73.87524624440454
 20
-1.953009056624346
 30
6.774555920426459
 10
73.81898243008408
 20
0.4762136919047819
 30
6.774553934055829
 10
73.76271861576359
 20
2.90543644043391
 30
6.77445709625905
  0
POLYLINE
  5
18A
330
1F
100
AcDbEntity
  8
Default
100
AcDb2dPolyline
 66
     1
 10
0.0
 20
0.0
 30
2.90543644043391
210
0.0
220
1.0
230
0.0
  0
VERTEX
  5
18B
330
18A
100
AcDbEntity
  8
Default
100
AcDbVertex
100
AcDb2dVertex
 10
-73.76271861576359
 20
6.77445709625905
 30
2.90543644043391
  0
VERTEX
  5
18C
330
18A
100
AcDbEntity
  8
Default
100
AcDbVertex
100
AcDb2dVertex
 10
-71.79864184292566
 20
6.774974014097725
 30
2.905436440433924
  0
SEQEND
  5
18D
330
18A
100
AcDbEntity
  8
Default
  0
LINE
  5
18E
330
1F
100
AcDbEntity
  8
Default
100
AcDbLine
 10
71.79864184292566
 20
2.905436440433924
 30
6.774974014097725
 11
71.79864184292566
 21
11.90543644043392
 31
6.774970609569578
  0
LINE
  5
18F
330
1F
100
AcDbEntity
  8
Default
100
AcDbLine
 10
71.79864184292566
 20
11.90543644043392
 30
6.774970609569578
 11
72.07947023728707
 21
11.90543644043392
 31
6.774974014097725
  0
POLYLINE
  5
190
330
1F
100
AcDbEntity
  8
Default
100
AcDb2dPolyline
 66
     1
 10
0.0
 20
0.0
 30
11.90543644043392
210
0.0
220
1.0
230
0.0
  0
VERTEX
  5
191
330
190
100
AcDbEntity
  8
Default
100
AcDbVertex
100
AcDb2dVertex
 10
-72.07947023728707
 20
6.774974014097725
 30
11.90543644043392
  0
VERTEX
  5
192
330
190
100
AcDbEntity
  8
Default
100
AcDbVertex
100
AcDb2dVertex
 10
-73.75795821570318
 20
6.774453523666925
 30
11.90543644043392
  0
SEQEND
  5
193
330
190
100
AcDbEntity
  8
Default
  0
SPLINE
  5
194
330
1F
100
AcDbEntity
  8
Default
100
AcDbSpline
 70
     0
 71
     3
 72
    12
 73
     8
 74
     0
 42
0.0000000001
 43
0.0000000001
 40
0.0328231608154841
 40
0.0328231608154841
 40
0.0328231608154841
 40
0.0328231608154841
 40
1.574452337584555
 40
1.574452337584555
 40
1.574452337584555
 40
2.574452337680478
 40
3.574452337436677
 40
3.574452337436677
 40
3.574452337436677
 40
3.574452337436677
 10
73.75795821570318
 20
11.90543644043392
 30
6.774453523666925
 10
73.8158088300438
 20
14.40317019826556
 30
6.774553822013175
 10
73.8736594443844
 20
16.9009039560972
 30
6.774555864405137
 10
73.931510058725
 20
19.39863771392887
 30
6.77455790679717
 10
74.02109991019614
 20
23.26673140539861
 30
6.774561069729715
 10
75.67288827877965
 20
26.27298758410981
 30
6.774619385432922
 10
77.19762531295257
 20
27.27662841275686
 30
6.774673215641658
 10
85.71772130980892
 20
28.58587890324244
 30
6.774722247644871
  0
SPLINE
  5
195
330
1F
100
AcDbEntity
  8
Default
100
AcDbSpline
 70
     0
 71
     3
 72
     8
 73
     4
 74
     0
 42
0.0000000001
 43
0.0000000001
 40
3.574452337436677
 40
3.574452337436677
 40
3.574452337436677
 40
3.574452337436677
 40
7.852232009813223
 40
7.852232009813223
 40
7.852232009813223
 40
7.852232009813223
 10
85.71772130980892
 20
28.58587890324244
 30
6.774722247644871
 10
91.88813530648392
 20
29.01650844873694
 30
6.774688325099462
 10
98.05854929228315
 20
29.44713799361412
 30
6.774906169006472
 10
99.98025693397864
 20
29.87776753903
 30
6.774902502684572
  0
SPLINE
  5
196
330
1F
100
AcDbEntity
  8
Default
100
AcDbSpline
 70
     0
 71
     3
 72
    29
 73
    25
 74
     0
 42
0.0000000001
 43
0.0000000001
 40
7.852232009813223
 40
7.852232009813223
 40
7.852232009813223
 40
7.852232009813223
 40
8.0773967098344
 40
8.302561409855576
 40
8.527726109876753
 40
8.752890809897929
 40
8.752890809897929
 40
8.752890809897929
 40
8.978055509919106
 40
9.203220209940282
 40
9.428384909961459
 40
9.653549609982633
 40
9.653549609982633
 40
9.653549609982633
 40
9.878714310003803
 40
10.10387901002499
 40
10.32904371004616
 40
10.55420841006733
 40
10.55420841006733
 40
10.55420841006733
 40
10.77937311008851
 40
11.00453781010969
 40
11.22970251013086
 40
11.45486720974183
 40
11.45486720974183
 40
11.45486720974183
 40
11.45486720974183
 10
99.98025693397864
 20
29.87776753903
 30
6.774902502684572
 10
99.67407321371442
 20
29.92963639014044
 30
6.774820181582198
 10
99.05060805544574
 20
30.12730108122582
 30
6.774798170403259
 10
98.1893335017831
 20
30.71979448776676
 30
6.774767763462241
 10
97.50819981458122
 20
31.55676479262569
 30
6.774743716319903
 10
97.21767327270393
 20
32.20618993551042
 30
6.774733459400714
 10
97.1145264656638
 20
32.53363378833748
 30
6.774729817845384
 10
97.01133233068225
 20
32.86102435410032
 30
6.774726174619534
 10
96.87332342563903
 20
33.57091923636431
 30
6.774721302272309
 10
96.93430273036563
 20
34.70207323538056
 30
6.774723455121573
 10
97.27211914835743
 20
35.76979002571621
 30
6.774735381589761
 10
97.6465023150659
 20
36.36302653751854
 30
6.774748599032362
 10
97.85553292336122
 20
36.61913144442337
 30
6.774755978771338
 10
98.06456810557412
 20
36.87532372882659
 30
6.774763358671807
 10
98.55815740199847
 20
37.345960319314
 30
6.774780784637141
 10
99.47684268576121
 20
37.81795327746348
 30
6.774813218440332
 10
100.4758861130015
 20
37.98615033248623
 30
6.774848489253987
 10
101.1188380174844
 20
37.8948909608448
 30
6.774871188404383
 10
101.4186934489094
 20
37.80856115183811
 30
6.774881774676093
 10
101.7186803687157
 20
37.72234625667513
 30
6.774892365589725
 10
102.3212144631785
 20
37.45530209582974
 30
6.774913637806281
 10
103.1249240748656
 20
36.76855136454824
 30
6.774942012440935
 10
103.7274271445528
 20
35.85892461125665
 30
6.774963283561934
 10
103.9581923930287
 20
35.17999025518407
 30
6.774971430633132
 10
104.0313688507463
 20
34.84256220402511
 30
6.774721814075097
  0
SPLINE
  5
197
330
1F
100
AcDbEntity
  8
Default
100
AcDbSpline
 70
     0
 71
     3
 72
    17
 73
    13
 74
     0
 42
0.0000000001
 43
0.0000000001
 40
11.45486720974183
 40
11.45486720974183
 40
11.45486720974183
 40
11.45486720974183
 40
11.84690745195475
 40
12.89386036753377
 40
13.53552355693948
 40
13.99481300892377
 40
14.5819255256949
 40
15.0951186065129
 40
15.73125994472857
 40
16.36510648043452
 40
16.65536212725336
 40
17.24057813708453
 40
17.24057813708453
 40
17.24057813708453
 40
17.24057813708453
 10
104.0313688507463
 20
34.84256220402511
 30
6.774721814075097
 10
104.5246572760836
 20
35.15525469381313
 30
6.774487029395705
 10
106.3430447803724
 20
36.28751328126
 30
6.774551226812616
 10
109.0304124395614
 20
37.79968767242647
 30
6.774646103213282
 10
111.777699701119
 20
39.42712301216945
 30
6.774743095050693
 10
114.4434780473378
 20
39.4569939125709
 30
6.774837209249855
 10
115.8881779743328
 20
37.03438259375405
 30
6.774888213781768
 10
115.8924805271111
 20
34.11682977107039
 30
6.774888365681559
 10
111.6392413791023
 20
31.80139260993695
 30
6.774738206837402
 10
115.9672537669607
 20
32.54210340648395
 30
6.774891005519745
 10
116.7357163980686
 20
34.78984423932935
 30
6.774918135774276
 10
117.6203373114287
 20
35.82040367105201
 30
6.774949366948823
 10
118.3184661431233
 20
36.40172635594868
 30
6.774718765991218
  0
SPLINE
  5
198
330
1F
100
AcDbEntity
  8
Default
100
AcDbSpline
 70
     0
 71
     3
 72
    29
 73
    25
 74
     0
 42
0.0000000001
 43
0.0000000001
 40
17.24057813708453
 40
17.24057813708453
 40
17.24057813708453
 40
17.24057813708453
 40
17.71404720923606
 40
18.18751628260792
 40
18.66098535597979
 40
19.13445442935165
 40
19.13445442935165
 40
19.13445442935165
 40
19.60792350272352
 40
20.08139257609539
 40
20.55486164946726
 40
21.02833072283913
 40
21.02833072283913
 40
21.02833072283913
 40
21.50179979621099
 40
21.97526886958286
 40
22.44873794295472
 40
22.92220701632659
 40
22.92220701632659
 40
22.92220701632659
 40
23.39567608969845
 40
23.86914516307032
 40
24.34261423644218
 40
24.81608330929372
 40
24.81608330929372
 40
24.81608330929372
 40
24.81608330929372
 10
118.3184661431233
 20
36.40172635594868
 30
6.774718765991218
 10
118.7428226435228
 20
36.96250545523923
 30
6.774478499615
 10
119.7409639386222
 20
38.00422951880446
 30
6.774513738579442
 10
121.6004859343246
 20
39.13193523095239
 30
6.774579388232564
 10
123.6553278646757
 20
39.68896996072498
 30
6.77465193357471
 10
125.018634983885
 20
39.66358449867061
 30
6.77470006456721
 10
125.6686040713981
 20
39.56524120223661
 30
6.774723011456189
 10
126.3185536598083
 20
39.46711668323817
 30
6.774745957657029
 10
127.6392876094376
 20
39.0871733291525
 30
6.774792585621343
 10
129.4894292690372
 20
37.93992167102331
 30
6.7748579041055
 10
131.0164902229694
 20
36.30089875392098
 30
6.77491181635914
 10
131.7332514950119
 20
34.99976914863341
 30
6.774937121318692
 10
132.0101746503193
 20
34.33318283972365
 30
6.77494689797574
 10
132.2872833765185
 20
33.66658084977953
 30
6.774956681184645
 10
132.7148321910752
 20
32.21462230744657
 30
6.774971775618109
 10
132.8520793345999
 20
29.84872758798297
 30
6.774976621071807
 10
132.4457830943397
 20
27.52247955603274
 30
6.774962276951285
 10
131.8558552174613
 20
26.1435603765054
 30
6.774941449792093
 10
131.5048836926767
 20
25.52240629524814
 30
6.774929058888067
 10
131.154067704647
 20
24.90093551751738
 30
6.774916673475236
 10
130.2946867975337
 20
23.71381699543883
 30
6.77488633338857
 10
128.5928852389404
 20
22.30731736870083
 30
6.774826251990201
 10
126.6269904243384
 20
21.43556078291399
 30
6.774756846888819
 10
125.2737463513245
 20
21.24825841711053
 30
6.774709071168225
 10
124.6179122549851
 20
21.24444482422512
 30
6.774747165132305
  0
SPLINE
  5
199
330
1F
100
AcDbEntity
  8
Default
100
AcDbSpline
 70
     0
 71
     3
 72
    11
 73
     7
 74
     0
 42
0.0000000001
 43
0.0000000001
 40
24.81608330929372
 40
24.81608330929372
 40
24.81608330929372
 40
24.81608330929372
 40
25.48627606925282
 40
26.15646882921192
 40
26.82666158917103
 40
27.4968543490639
 40
27.4968543490639
 40
27.4968543490639
 40
27.4968543490639
 10
124.6179122549851
 20
21.24444482422512
 30
6.774747165132305
 10
125.2631284288341
 20
20.45956095260421
 30
6.774831192136801
 10
126.4589698449056
 20
18.75396301797738
 30
6.774873410821998
 10
127.8806687960751
 20
15.86713391107204
 30
6.774923603314011
 10
128.8659075834896
 20
12.75988923868274
 30
6.77495838676073
 10
129.2121329844251
 20
10.6252290206566
 30
6.774970610105012
 10
129.3085508502675
 20
9.563198001126246
 30
6.774874973814326
  0
SPLINE
  5
19A
330
1F
100
AcDbEntity
  8
Default
100
AcDbSpline
 70
     0
 71
     3
 72
    29
 73
    25
 74
     0
 42
0.0000000001
 43
0.0000000001
 40
27.4968543490639
 40
27.4968543490639
 40
27.4968543490639
 40
27.4968543490639
 40
27.72153220789227
 40
27.94621006715643
 40
28.17088792642058
 40
28.39556578568475
 40
28.39556578568475
 40
28.39556578568475
 40
28.62024364494891
 40
28.84492150421307
 40
29.06959936347722
 40
29.29427722274138
 40
29.29427722274138
 40
29.29427722274138
 40
29.51895508200555
 40
29.7436329412697
 40
29.96831080053387
 40
30.19298865979803
 40
30.19298865979803
 40
30.19298865979803
 40
30.41766651906218
 40
30.64234437832635
 40
30.8670222375905
 40
31.09170009641888
 40
31.09170009641888
 40
31.09170009641888
 40
31.09170009641888
 10
129.3085508502675
 20
9.563198001126246
 30
6.774874973814326
 10
129.4876485491795
 20
9.83804827899062
 30
6.774782256500926
 10
129.9379337947327
 20
10.3559812739411
 30
6.774798153634843
 10
130.8447507200471
 20
10.88175689101968
 30
6.774830168430276
 10
131.8546838962351
 20
11.04897826833824
 30
6.774865823702276
 10
132.4898927058076
 20
10.92345237283595
 30
6.774888249485909
 10
132.7784669137785
 20
10.81777475271459
 30
6.774898437478593
 10
133.0669548906214
 20
10.71198829009104
 30
6.774908622427142
 10
133.6458623182983
 20
10.3930576127438
 30
6.774929060513785
 10
134.373043405163
 20
9.58927229901898
 30
6.774954733340504
 10
134.8283299870756
 20
8.565008033834452
 30
6.774970807044356
 10
134.9191595189478
 20
7.848494940504146
 30
6.774974013743247
 10
134.9191695575956
 20
7.508216923041623
 30
6.774974014097725
 10
134.9190672095164
 20
7.167809081289853
 30
6.774974010484309
 10
134.8284621286405
 20
6.451670632718439
 30
6.774970811709719
 10
134.3729045053798
 20
5.426913090902168
 30
6.774954728436845
 10
133.6460497256028
 20
4.623584688939907
 30
6.774929067130027
 10
133.0668973490614
 20
4.304268730861615
 30
6.774908620395572
 10
132.778474050524
 20
4.198665675109062
 30
6.774898437730667
 10
132.489888462566
 20
4.092933012206835
 30
6.774888249336001
 10
131.854686290953
 20
3.967439223220914
 30
6.774865823786793
 10
130.8447495112457
 20
4.134643171019
 30
6.774830168387502
 10
129.9379346596785
 20
4.660428818407894
 30
6.77479815366522
 10
129.4876481240261
 20
5.178355573401298
 30
6.774782256486141
 10
129.3085508502674
 20
5.453207907649237
 30
6.774874973814314
  0
SPLINE
  5
19B
330
1F
100
AcDbEntity
  8
Default
100
AcDbSpline
 70
     0
 71
     3
 72
    11
 73
     7
 74
     0
 42
0.0000000001
 43
0.0000000001
 40
31.09170009641888
 40
31.09170009641888
 40
31.09170009641888
 40
31.09170009641888
 40
31.76189285631176
 40
32.43208561627088
 40
33.10227837623
 40
33.77247113618911
 40
33.77247113618911
 40
33.77247113618911
 40
33.77247113618911
 10
129.3085508502674
 20
5.453207907649237
 30
6.774874973814314
 10
129.2121329844252
 20
4.391176888118913
 30
6.774970610105014
 10
128.8659075834896
 20
2.256516670092672
 30
6.774958386760807
 10
127.8806687960752
 20
-0.8507280022967407
 30
6.774923603313847
 10
126.4589698449056
 20
-3.737557109202065
 30
6.774873410822116
 10
125.2631284288341
 20
-5.443155043828874
 30
6.774831192136825
 10
124.6179122549852
 20
-6.228038915449794
 30
6.774747164920047
  0
SPLINE
  5
19C
330
1F
100
AcDbEntity
  8
Default
100
AcDbSpline
 70
     0
 71
     3
 72
    15
 73
    11
 74
     0
 42
0.0000000001
 43
0.0000000001
 40
-37.36144472224237
 40
-37.36144472224237
 40
-37.36144472224237
 40
-37.36144472224237
 40
-34.41798857911687
 40
-31.56834273550187
 40
-29.85958164446271
 40
-28.68709825247122
 40
-27.62509794945076
 40
-25.57006714433299
 40
-21.00113387795564
 40
-19.24156678946224
 40
-19.24156678946224
 40
-19.24156678946224
 40
-19.24156678946224
 10
103.7258100176774
 20
32.01313856840897
 30
6.7748421848846
 10
104.7688169289927
 20
32.44278448944414
 30
6.774747178597958
 10
106.0615332369807
 20
33.41421596909834
 30
6.774792817411162
 10
108.227355100334
 20
34.61468048848621
 30
6.774869280853919
 10
109.9150966963425
 20
35.40121344232912
 30
6.774928865871092
 10
111.2783637393337
 20
34.73906934219865
 30
6.774976995448745
 10
111.155127691114
 20
32.97499390538149
 30
6.774972644651156
 10
108.8638770875436
 20
31.34934322017633
 30
6.774891752998726
 10
106.990547612297
 20
31.21845282471695
 30
6.774825615878451
 10
103.8276765105682
 20
31.07438315005103
 30
6.774713952025762
 10
103.1196638940637
 20
31.06896374506709
 30
6.774820785147063
  0
SPLINE
  5
19D
330
1F
100
AcDbEntity
  8
Default
100
AcDbSpline
210
0.002180630073561042
220
-0.001377266971767909
230
-0.9999966739885543
 70
     8
 71
     3
 72
     8
 73
     4
 74
     0
 42
0.0000000001
 43
0.0000000001
 40
-19.24156678946224
 40
-19.24156678946224
 40
-19.24156678946224
 40
-19.24156678946224
 40
-18.11987793278013
 40
-18.11987793278013
 40
-18.11987793278013
 40
-18.11987793278013
 10
103.1196638940637
 20
31.06896374506709
 30
6.774820785147063
 10
103.3600838149558
 20
31.34774066038357
 30
6.774961102285567
 10
103.5663334839229
 20
31.66900930679589
 30
6.774968383844845
 10
103.7258100176774
 20
32.01313856840897
 30
6.7748421848846
  0
SPLINE
  5
19E
330
1F
100
AcDbEntity
  8
Default
100
AcDbSpline
210
0.002180630073815946
220
0.001377266971929746
230
-0.9999966739885534
 70
     8
 71
     3
 72
     8
 73
     4
 74
     0
 42
0.0000000001
 43
0.0000000001
 40
-19.2415657383089
 40
-19.2415657383089
 40
-19.2415657383089
 40
-19.2415657383089
 40
-18.11987687982044
 40
-18.11987687982044
 40
-18.11987687982044
 40
-18.11987687982044
 10
103.7258100176774
 20
-16.99673265963359
 30
6.774842184884597
 10
103.5663334839229
 20
-16.65260339802044
 30
6.774968383844858
 10
103.3600838149559
 20
-16.3313347516082
 30
6.774961102285588
 10
103.1196638940636
 20
-16.05255783629173
 30
6.774820785147059
  0
SPLINE
  5
19F
330
1F
100
AcDbEntity
  8
Default
100
AcDbSpline
 70
     0
 71
     3
 72
    15
 73
    11
 74
     0
 42
0.0000000001
 43
0.0000000001
 40
-37.36144261812935
 40
-37.36144261812935
 40
-37.36144261812935
 40
-37.36144261812935
 40
-35.6018756318857
 40
-31.03294263101249
 40
-28.9779119453141
 40
-27.91591170400728
 40
-26.74342838014968
 40
-25.03466738840791
 40
-22.18502171038796
 40
-19.2415657383089
 40
-19.2415657383089
 40
-19.2415657383089
 40
-19.2415657383089
 10
103.1196638940636
 20
-16.05255783629173
 30
6.774820785147059
 10
103.8276765105682
 20
-16.05797724127559
 30
6.77471395202577
 10
106.990547612297
 20
-16.20204691594143
 30
6.774825615878459
 10
108.8638770875436
 20
-16.33293731140096
 30
6.774891752998734
 10
111.155127691114
 20
-17.95858799660609
 30
6.774972644651164
 10
111.2783637393337
 20
-19.7226634334233
 30
6.77497699544874
 10
109.9150966963425
 20
-20.38480753355383
 30
6.7749288658711
 10
108.2273551003341
 20
-19.59827457971078
 30
6.77486928085393
 10
106.0615332369807
 20
-18.39781006032293
 30
6.774792817411171
 10
104.7688169289926
 20
-17.42637858066875
 30
6.774747178597964
 10
103.7258100176774
 20
-16.99673265963359
 30
6.774842184884597
  0
POLYLINE
  5
1A0
330
1F
100
AcDbEntity
  8
Default
100
AcDb2dPolyline
 66
     1
 10
0.0
 20
0.0
 30
0.0
  0
VERTEX
  5
1A1
330
1A0
100
AcDbEntity
  8
Default
100
AcDbVertex
100
AcDb2dVertex
 10
-48.0
 20
45.0
 30
0.0
  0
VERTEX
  5
1A2
330
1A0
100
AcDbEntity
  8
Default
100
AcDbVertex
100
AcDb2dVertex
 10
-47.0
 20
45.0
 30
0.0
  0
VERTEX
  5
1A3
330
1A0
100
AcDbEntity
  8
Default
100
AcDbVertex
100
AcDb2dVertex
 10
-47.0
 20
46.0
 30
0.0
  0
VERTEX
  5
1A4
330
1A0
100
AcDbEntity
  8
Default
100
AcDbVertex
100
AcDb2dVertex
 10
-48.0
 20
46.0
 30
0.0
  0
VERTEX
  5
1A5
330
1A0
100
AcDbEntity
  8
Default
100
AcDbVertex
100
AcDb2dVertex
 10
-48.0
 20
45.0
 30
0.0
  0
SEQEND
  5
1A6
330
1A0
100
AcDbEntity
  8
Default
  0
SPLINE
  5
1A7
330
1F
100
AcDbEntity
  8
Default
100
AcDbSpline
210
0.0
220
0.0
230
1.0
 70
     8
 71
     3
 72
    20
 73
    16
 74
     0
 42
0.0000000001
 43
0.0000000001
 40
-3.0
 40
-2.0
 40
-1.0
 40
0.0
 40
1.0
 40
2.0
 40
3.0
 40
4.0
 40
5.0
 40
6.0
 40
7.0
 40
8.0
 40
9.0
 40
10.0
 40
11.0
 40
12.0
 40
13.0
 40
14.0
 40
15.0
 40
16.0
 10
-18.54856174824055
 20
-3.107826502020473
 30
1.799999999999997
 10
-17.62821934108459
 20
-2.485241932473798
 30
1.799999999999997
 10
-19.79373088733389
 20
-2.160415200536391
 30
1.799999999999997
 10
-22.33820695417683
 20
-3.324377656645396
 30
1.799999999999997
 10
-23.74578945923888
 20
-5.00264910498862
 30
1.799999999999997
 10
-23.77285835356699
 20
-6.599713870347472
 30
1.799999999999997
 10
-23.09613599536408
 20
-7.601262960487773
 30
1.799999999999997
 10
-21.58027791298957
 20
-8.413329790331275
 30
1.799999999999997
 10
-19.73959309867766
 20
-8.900569888237357
 30
1.799999999999997
 10
-19.60424862703708
 20
-8.602812050628089
 30
1.799999999999997
 10
-20.60579771717738
 20
-7.844883009440821
 30
1.799999999999997
 10
-20.82234887180232
 20
-5.841784829160218
 30
1.799999999999997
 10
-19.73959309867766
 20
-4.136444486488898
 30
1.799999999999997
 10
-18.54856174824055
 20
-3.107826502020473
 30
1.799999999999997
 10
-17.62821934108459
 20
-2.485241932473798
 30
1.799999999999997
 10
-19.79373088733389
 20
-2.160415200536391
 30
1.799999999999997
  0
SPLINE
  5
1A8
330
1F
100
AcDbEntity
  8
Default
100
AcDbSpline
210
0.0
220
0.0
230
1.0
 70
     8
 71
     3
 72
    10
 73
     6
 74
     0
 42
0.0000000001
 43
0.0000000001
 40
0.0
 40
0.0
 40
0.0
 40
0.0
 40
9.159044635637052
 40
25.48530274871508
 40
41.02301666519668
 40
41.02301666519668
 40
41.02301666519668
 40
41.02301666519668
 10
-10.72458362467606
 20
19.84396332021831
 30
1.799999372982771
 10
-7.679477727746217
 20
19.62435019423434
 30
1.799999372982771
 10
0.8524728821519503
 20
20.31380282823297
 30
1.799999372982764
 10
13.93666942905998
 20
27.74347043025292
 30
1.799999372982764
 10
16.53521861326822
 20
39.08496227039781
 30
1.799999372982771
 10
16.55549702021998
 20
44.26416054411557
 30
1.799999372982771
  0
SPLINE
  5
1A9
330
1F
100
AcDbEntity
  8
Default
100
AcDbSpline
210
0.0
220
0.0
230
1.0
 70
     8
 71
     3
 72
    10
 73
     6
 74
     0
 42
0.0000000001
 43
0.0000000001
 40
-41.02301666519668
 40
-41.02301666519668
 40
-41.02301666519668
 40
-41.02301666519668
 40
-25.48530274871508
 40
-9.159044635637052
 40
0.0
 40
0.0
 40
0.0
 40
0.0
 10
16.55549702021998
 20
44.26416054411557
 30
1.799999372982771
 10
16.53521861326822
 20
49.44335881783333
 30
1.799999372982771
 10
13.93666942905998
 20
60.7848506579782
 30
1.799999372982764
 10
0.8524728821519503
 20
68.21451825999814
 30
1.799999372982764
 10
-7.679477727746217
 20
68.90397089399677
 30
1.799999372982771
 10
-10.72458362467606
 20
68.68435776801282
 30
1.799999372982771
  0
LINE
  5
1AA
330
1F
100
AcDbEntity
  8
Default
100
AcDbLine
 10
-10.72458362467606
 20
68.68435776801282
 30
1.799999372982771
 11
-16.72430244842404
 21
68.68435776801282
 31
1.799999372982779
  0
LINE
  5
1AB
330
1F
100
AcDbEntity
  8
Default
100
AcDbLine
 10
-16.72430244842404
 20
68.68435776801282
 30
1.799999372982779
 11
-16.72430244842401
 21
71.18389947027104
 31
1.799999372982779
  0
ARC
  5
1AC
330
1F
100
AcDbEntity
  8
Default
100
AcDbCircle
 10
-19.47441432018524
 20
70.35013591525308
 30
1.79999937298278
 40
2.87372179810055
100
AcDbArc
 50
16.86596096800509
 51
163.1340390319937
  0
LINE
  5
1AD
330
1F
100
AcDbEntity
  8
Default
100
AcDbLine
 10
-22.22452619194645
 20
71.1838994702711
 30
1.799999372982779
 11
-22.22452619194645
 21
68.68435776801282
 31
1.799999372982779
  0
SPLINE
  5
1AE
330
1F
100
AcDbEntity
  8
Default
100
AcDbSpline
210
0.0
220
0.0
230
1.0
 70
     8
 71
     3
 72
    12
 73
     8
 74
     0
 42
0.0000000001
 43
0.0000000001
 40
0.0
 40
0.0
 40
0.0
 40
0.0
 40
5.367247891967795
 40
13.55944206242912
 40
26.71230082493529
 40
35.95158599917942
 40
48.47636740474969
 40
48.47636740474969
 40
48.47636740474969
 40
48.47636740474969
 10
-22.22452619194645
 20
68.68435776801282
 30
1.799999372982779
 10
-22.2787538634316
 20
66.89609715530558
 30
1.799999372982779
 10
-20.64837071911072
 20
63.27798606240258
 30
1.799999372982779
 10
-10.35116046090087
 20
63.14933123476938
 30
1.799999372982771
 10
-0.6394410063954439
 20
63.54053208000498
 30
1.799999372982764
 10
8.286161740079699
 20
55.60050944232795
 30
1.799999372982764
 10
10.49322984652839
 20
48.40952299786278
 30
1.799999372982764
 10
10.35909499314225
 20
44.26416054411557
 30
1.799999372982771
  0
SPLINE
  5
1AF
330
1F
100
AcDbEntity
  8
Default
100
AcDbSpline
210
0.0
220
0.0
230
1.0
 70
     8
 71
     3
 72
    12
 73
     8
 74
     0
 42
0.0000000001
 43
0.0000000001
 40
-48.47636740474969
 40
-48.47636740474969
 40
-48.47636740474969
 40
-48.47636740474969
 40
-35.95158599917942
 40
-26.71230082493529
 40
-13.55944206242912
 40
-5.367247891967795
 40
0.0
 40
0.0
 40
0.0
 40
0.0
 10
10.35909499314225
 20
44.26416054411557
 30
1.799999372982771
 10
10.49322984652839
 20
40.11879809036834
 30
1.799999372982764
 10
8.286161740079699
 20
32.92781164590318
 30
1.799999372982764
 10
-0.6394410063954439
 20
24.98778900822614
 30
1.799999372982764
 10
-10.35116046090087
 20
25.37898985346173
 30
1.799999372982771
 10
-20.64837071911072
 20
25.25033502582854
 30
1.799999372982779
 10
-22.2787538634316
 20
21.63222393292554
 30
1.799999372982779
 10
-22.22452619194645
 20
19.84396332021831
 30
1.799999372982779
  0
LINE
  5
1B0
330
1F
100
AcDbEntity
  8
Default
100
AcDbLine
 10
-22.22452619194645
 20
19.84396332021831
 30
1.799999372982779
 11
-22.22452619194645
 21
17.34442161796004
 31
1.799999372982779
  0
ARC
  5
1B1
330
1F
100
AcDbEntity
  8
Default
100
AcDbCircle
 10
-19.47441432018523
 20
18.17818517297805
 30
1.799999372982775
 40
2.873721798100549
100
AcDbArc
 50
196.865960968006
 51
343.1340390319941
  0
LINE
  5
1B2
330
1F
100
AcDbEntity
  8
Default
100
AcDbLine
 10
-16.72430244842402
 20
17.34442161796004
 30
1.799999372982771
 11
-16.72430244842404
 21
19.84396332021831
 31
1.799999372982779
  0
LINE
  5
1B3
330
1F
100
AcDbEntity
  8
Default
100
AcDbLine
 10
-16.72430244842404
 20
19.84396332021831
 30
1.799999372982779
 11
-10.72458362467606
 21
19.84396332021831
 31
1.799999372982771
  0
LINE
  5
1B4
330
1F
100
AcDbEntity
  8
Default
100
AcDbLine
 10
20.10835492629614
 20
-11.7228976410465
 30
1.800000686353098
 11
19.05703973454361
 21
-11.7228976410465
 31
1.800000686353098
  0
SPLINE
  5
1B5
330
1F
100
AcDbEntity
  8
Default
100
AcDbSpline
210
0.0
220
0.0
230
1.0
 70
    12
 71
     2
 72
     6
 73
     3
 74
     0
 42
0.0000000001
 43
0.0000000001
 40
0.0
 40
0.0
 40
0.0
 40
38.66055895407283
 40
38.66055895407283
 40
38.66055895407283
 10
19.05703973454361
 20
-11.7228976410465
 30
1.800000686353098
 41
1.0
 10
8.601292688687343
 20
5.680468368006236
 30
1.800000686353098
 41
0.7071067811865483
 10
19.05703973454361
 20
23.08383437705897
 30
1.800000686353098
 41
1.0
  0
LINE
  5
1B6
330
1F
100
AcDbEntity
  8
Default
100
AcDbLine
 10
19.05703973454361
 20
23.08383437705897
 30
1.800000686353098
 11
20.10835492629617
 21
23.08383437705897
 31
1.800000686353098
  0
LINE
  5
1B7
330
1F
100
AcDbEntity
  8
Default
100
AcDbLine
 10
20.10835492629617
 20
23.08383437705897
 30
1.800000686353098
 11
20.10835492629617
 21
25.08383437705897
 31
1.800000686353098
  0
SPLINE
  5
1B8
330
1F
100
AcDbEntity
  8
Default
100
AcDbSpline
210
0.0
220
0.0
230
1.0
 70
     8
 71
     3
 72
    10
 73
     6
 74
     0
 42
0.0000000001
 43
0.0000000001
 40
0.0
 40
0.0
 40
0.0
 40
0.0
 40
2.356439201396562
 40
2.356439201396562
 40
4.712877384041408
 40
4.712877384041408
 40
4.712877384041408
 40
4.712877384041408
 10
20.10835492629617
 20
25.08383437705897
 30
1.800000686353098
 10
20.10835492629614
 20
25.91235268577426
 30
1.800000686353119
 10
20.77999208129323
 20
26.58398984077136
 30
1.800000686353055
 10
22.43702834053319
 20
26.58398984077136
 30
1.800000686353062
 10
23.10866585372092
 20
25.91235232758363
 30
1.800000686353133
 10
23.10866585372092
 20
25.08383437705897
 30
1.800000686353098
  0
LINE
  5
1B9
330
1F
100
AcDbEntity
  8
Default
100
AcDbLine
 10
23.10866585372092
 20
25.08383437705897
 30
1.800000686353098
 11
23.10866585372092
 21
23.08383437705897
 31
1.800000686353098
  0
LINE
  5
1BA
330
1F
100
AcDbEntity
  8
Default
100
AcDbLine
 10
23.10866585372092
 20
23.08383437705897
 30
1.800000686353098
 11
26.7361768056992
 21
23.08383437705897
 31
1.800000686353098
  0
LINE
  5
1BB
330
1F
100
AcDbEntity
  8
Default
100
AcDbLine
 10
26.7361768056992
 20
23.08383437705897
 30
1.800000686353098
 11
26.7361768056992
 21
25.08383437705897
 31
1.800000686353098
  0
SPLINE
  5
1BC
330
1F
100
AcDbEntity
  8
Default
100
AcDbSpline
210
0.0
220
0.0
230
1.0
 70
     8
 71
     3
 72
    10
 73
     6
 74
     0
 42
0.0000000001
 43
0.0000000001
 40
0.0
 40
0.0
 40
0.0
 40
0.0
 40
2.356439201396562
 40
2.356439201396562
 40
4.712877384041408
 40
4.712877384041408
 40
4.712877384041408
 40
4.712877384041408
 10
26.7361768056992
 20
25.08383437705897
 30
1.800000686353098
 10
26.73617680569917
 20
25.91235268577426
 30
1.800000686353119
 10
27.40781396069626
 20
26.58398984077136
 30
1.800000686353055
 10
29.06485021993619
 20
26.58398984077136
 30
1.800000686353055
 10
29.73648773312395
 20
25.91235232758363
 30
1.800000686353133
 10
29.73648773312395
 20
25.08383437705897
 30
1.800000686353098
  0
LINE
  5
1BD
330
1F
100
AcDbEntity
  8
Default
100
AcDbLine
 10
29.73648773312395
 20
25.08383437705897
 30
1.800000686353098
 11
29.73648773312395
 21
23.08383437705897
 31
1.800000686353098
  0
LINE
  5
1BE
330
1F
100
AcDbEntity
  8
Default
100
AcDbLine
 10
29.73648773312395
 20
23.08383437705897
 30
1.800000686353098
 11
39.46806642129086
 21
23.08383437705897
 31
1.800000686353098
  0
LINE
  5
1BF
330
1F
100
AcDbEntity
  8
Default
100
AcDbLine
 10
39.46806642129086
 20
23.08383437705897
 30
1.800000686353098
 11
39.46806642129086
 21
25.08383437705897
 31
1.800000686353098
  0
SPLINE
  5
1C0
330
1F
100
AcDbEntity
  8
Default
100
AcDbSpline
210
0.0
220
0.0
230
1.0
 70
     8
 71
     3
 72
    10
 73
     6
 74
     0
 42
0.0000000001
 43
0.0000000001
 40
8.600605895967036
 40
8.600605895967036
 40
8.600605895967036
 40
8.600605895967036
 40
10.1717766888455
 40
10.1717766888455
 40
11.74294270347443
 40
11.74294270347443
 40
11.74294270347443
 40
11.74294270347443
 10
39.46806642129086
 20
25.08383437705897
 30
1.800000686353098
 10
39.46806642129069
 20
25.63625286755784
 30
1.800000686353119
 10
39.91588480233354
 20
26.08407124859518
 30
1.800000686353119
 10
41.02072010332837
 20
26.08407124859519
 30
1.800000686353176
 10
41.46854016438827
 20
25.63625118754097
 30
1.800000686353147
 10
41.4685401643885
 20
25.08383437705897
 30
1.800000686353098
  0
LINE
  5
1C1
330
1F
100
AcDbEntity
  8
Default
100
AcDbLine
 10
41.4685401643885
 20
25.08383437705897
 30
1.800000686353098
 11
41.4685401643885
 21
23.08383437705897
 31
1.800000686353098
  0
LINE
  5
1C2
330
1F
100
AcDbEntity
  8
Default
100
AcDbLine
 10
41.4685401643885
 20
23.08383437705897
 30
1.800000686353098
 11
42.25051046954245
 21
23.08383437705897
 31
1.800000686353098
  0
LINE
  5
1C3
330
1F
100
AcDbEntity
  8
Default
100
AcDbLine
 10
42.25051046954245
 20
23.08383437705897
 30
1.800000686353098
 11
42.25084129161966
 21
16.28634771763927
 31
1.800000686353098
  0
LINE
  5
1C4
330
1F
100
AcDbEntity
  8
Default
100
AcDbLine
 10
42.25084129161966
 20
16.28634771763927
 30
1.800000686353098
 11
44.44471369576586
 21
16.28634771763927
 31
1.800000686353098
  0
SPLINE
  5
1C5
330
1F
100
AcDbEntity
  8
Default
100
AcDbSpline
210
0.0
220
0.0
230
1.0
 70
     8
 71
     3
 72
     8
 73
     4
 74
     0
 42
0.0000000001
 43
0.0000000001
 40
36.60673201810548
 40
36.60673201810548
 40
36.60673201810548
 40
36.60673201810548
 40
44.157048454467
 40
44.157048454467
 40
44.157048454467
 40
44.157048454467
 10
44.44471369576586
 20
16.28634771763927
 30
1.800000686353098
 10
46.32186585182434
 20
14.40919556158077
 30
1.800000686352934
 10
46.32156030938079
 20
11.36563637010404
 30
1.800000686353133
 10
44.44403129712423
 20
9.488861145916186
 30
1.800000686353098
  0
LINE
  5
1C6
330
1F
100
AcDbEntity
  8
Default
100
AcDbLine
 10
44.44403129712423
 20
9.488861145916186
 30
1.800000686353098
 11
42.25050009229885
 21
9.488861145916186
 31
1.800000686353098
  0
LINE
  5
1C7
330
1F
100
AcDbEntity
  8
Default
100
AcDbLine
 10
42.25050009229885
 20
9.488861145916186
 30
1.800000686353098
 11
42.25050528092065
 21
5.680468368006227
 31
1.800000686353098
  0
LINE
  5
1C8
330
1F
100
AcDbEntity
  8
Default
100
AcDbLine
 10
42.25050528092065
 20
5.680468368006227
 30
1.800000686353098
 11
42.25051046954245
 21
1.872075570905561
 31
1.800000686353098
  0
LINE
  5
1C9
330
1F
100
AcDbEntity
  8
Default
100
AcDbLine
 10
42.25051046954245
 20
1.872075570905561
 30
1.800000686353098
 11
44.44405205161148
 21
1.872075570905561
 31
1.800000686353098
  0
SPLINE
  5
1CA
330
1F
100
AcDbEntity
  8
Default
100
AcDbSpline
210
0.0
220
0.0
230
1.0
 70
     8
 71
     3
 72
     8
 73
     4
 74
     0
 42
0.0000000001
 43
0.0000000001
 40
36.60673201810548
 40
36.60673201810548
 40
36.60673201810548
 40
36.60673201810548
 40
44.157048454467
 40
44.157048454467
 40
44.157048454467
 40
44.157048454467
 10
44.44405205161148
 20
1.872075570905561
 30
1.800000686353098
 10
46.32139263576896
 20
-0.0050765946110731
 30
1.800000686352934
 10
46.32139263576904
 20
-3.048635801424486
 30
1.800000686353133
 10
44.44405205161148
 20
-4.925411035070472
 30
1.800000686353098
  0
LINE
  5
1CB
330
1F
100
AcDbEntity
  8
Default
100
AcDbLine
 10
44.44405205161148
 20
-4.925411035070472
 30
1.800000686353098
 11
42.25051046954245
 21
-4.925411035070472
 31
1.800000686353098
  0
LINE
  5
1CC
330
1F
100
AcDbEntity
  8
Default
100
AcDbLine
 10
42.25051046954245
 20
-4.925411035070472
 30
1.800000686353098
 11
42.25051046954245
 21
-11.7228976410465
 31
1.800000686353098
  0
LINE
  5
1CD
330
1F
100
AcDbEntity
  8
Default
100
AcDbLine
 10
42.25051046954245
 20
-11.7228976410465
 30
1.800000686353098
 11
41.46854016438847
 21
-11.7228976410465
 31
1.800000686353098
  0
LINE
  5
1CE
330
1F
100
AcDbEntity
  8
Default
100
AcDbLine
 10
41.46854016438847
 20
-11.7228976410465
 30
1.800000686353098
 11
41.46854016438847
 21
-13.7228976410465
 31
1.800000686353098
  0
SPLINE
  5
1CF
330
1F
100
AcDbEntity
  8
Default
100
AcDbSpline
210
0.0
220
0.0
230
1.0
 70
     8
 71
     3
 72
    10
 73
     6
 74
     0
 42
0.0000000001
 43
0.0000000001
 40
-11.74294270347443
 40
-11.74294270347443
 40
-11.74294270347443
 40
-11.74294270347443
 40
-10.1717766888455
 40
-10.1717766888455
 40
-8.600605895967036
 40
-8.600605895967036
 40
-8.600605895967036
 40
-8.600605895967036
 10
41.46854016438847
 20
-13.7228976410465
 30
1.800000686353098
 10
41.46854016438827
 20
-14.27531445152851
 30
1.800000686353147
 10
41.02072010332834
 20
-14.72313451258272
 30
1.800000686353176
 10
39.91588480233354
 20
-14.72313451258271
 30
1.800000686353126
 10
39.46806642129069
 20
-14.27531613154538
 30
1.800000686353119
 10
39.46806642129086
 20
-13.7228976410465
 30
1.800000686353098
  0
LINE
  5
1D0
330
1F
100
AcDbEntity
  8
Default
100
AcDbLine
 10
39.46806642129086
 20
-13.7228976410465
 30
1.800000686353098
 11
39.46806642129086
 21
-11.7228976410465
 31
1.800000686353098
  0
LINE
  5
1D1
330
1F
100
AcDbEntity
  8
Default
100
AcDbLine
 10
39.46806642129086
 20
-11.7228976410465
 30
1.800000686353098
 11
29.73648773312395
 21
-11.7228976410465
 31
1.800000686353098
  0
LINE
  5
1D2
330
1F
100
AcDbEntity
  8
Default
100
AcDbLine
 10
29.73648773312395
 20
-11.7228976410465
 30
1.800000686353098
 11
29.73648773312395
 21
-13.7228976410465
 31
1.800000686353098
  0
SPLINE
  5
1D3
330
1F
100
AcDbEntity
  8
Default
100
AcDbSpline
210
0.0
220
0.0
230
1.0
 70
     8
 71
     3
 72
    10
 73
     6
 74
     0
 42
0.0000000001
 43
0.0000000001
 40
-4.712877384041408
 40
-4.712877384041408
 40
-4.712877384041408
 40
-4.712877384041408
 40
-2.356439201396562
 40
-2.356439201396562
 40
0.0
 40
0.0
 40
0.0
 40
0.0
 10
29.73648773312395
 20
-13.7228976410465
 30
1.800000686353098
 10
29.73648773312395
 20
-14.55141559157116
 30
1.800000686353133
 10
29.06485021993622
 20
-15.22305310475889
 30
1.800000686353055
 10
27.40781396069626
 20
-15.22305310475889
 30
1.800000686353055
 10
26.73617680569917
 20
-14.55141594976179
 30
1.800000686353119
 10
26.73617680569917
 20
-13.7228976410465
 30
1.800000686353098
  0
LINE
  5
1D4
330
1F
100
AcDbEntity
  8
Default
100
AcDbLine
 10
26.73617680569917
 20
-13.7228976410465
 30
1.800000686353098
 11
26.73617680569917
 21
-11.7228976410465
 31
1.800000686353098
  0
LINE
  5
1D5
330
1F
100
AcDbEntity
  8
Default
100
AcDbLine
 10
26.73617680569917
 20
-11.7228976410465
 30
1.800000686353098
 11
23.10866585372092
 21
-11.7228976410465
 31
1.800000686353098
  0
LINE
  5
1D6
330
1F
100
AcDbEntity
  8
Default
100
AcDbLine
 10
23.10866585372092
 20
-11.7228976410465
 30
1.800000686353098
 11
23.10866585372092
 21
-13.7228976410465
 31
1.800000686353098
  0
SPLINE
  5
1D7
330
1F
100
AcDbEntity
  8
Default
100
AcDbSpline
210
0.0
220
0.0
230
1.0
 70
     8
 71
     3
 72
    10
 73
     6
 74
     0
 42
0.0000000001
 43
0.0000000001
 40
-4.712877384041408
 40
-4.712877384041408
 40
-4.712877384041408
 40
-4.712877384041408
 40
-2.356439201396562
 40
-2.356439201396562
 40
0.0
 40
0.0
 40
0.0
 40
0.0
 10
23.10866585372092
 20
-13.7228976410465
 30
1.800000686353098
 10
23.10866585372092
 20
-14.55141559157116
 30
1.800000686353133
 10
22.43702834053316
 20
-15.22305310475889
 30
1.800000686353055
 10
20.77999208129323
 20
-15.22305310475889
 30
1.800000686353055
 10
20.10835492629614
 20
-14.55141594976179
 30
1.800000686353119
 10
20.10835492629614
 20
-13.7228976410465
 30
1.800000686353098
  0
LINE
  5
1D8
330
1F
100
AcDbEntity
  8
Default
100
AcDbLine
 10
20.10835492629614
 20
-13.7228976410465
 30
1.800000686353098
 11
20.10835492629614
 21
-11.7228976410465
 31
1.800000686353098
  0
SPLINE
  5
1D9
330
1F
100
AcDbEntity
  8
Default
100
AcDbSpline
210
0.0
220
0.0
230
1.0
 70
     8
 71
     3
 72
    16
 73
    12
 74
     0
 42
0.0000000001
 43
0.0000000001
 40
-9.0
 40
-9.0
 40
-9.0
 40
-9.0
 40
-8.0
 40
-7.0
 40
-6.0
 40
-5.0
 40
-4.0
 40
-3.0
 40
-2.0
 40
-1.0
 40
0.0
 40
0.0
 40
0.0
 40
0.0
 10
-13.56788519186715
 20
-3.053688713364238
 30
1.799999999999997
 10
-13.73029855783584
 20
-4.136444486488898
 30
1.799999999999997
 10
-12.91823172799236
 20
-5.408682519910357
 30
1.799999999999997
 10
-12.45806052441438
 20
-6.978678390941099
 30
1.799999999999997
 10
-12.3227160527738
 20
-9.46901666912781
 30
1.799999999999997
 10
-12.80995615067989
 20
-11.66159710970523
 30
1.799999999999997
 10
-13.3242651429141
 20
-13.47521302968902
 30
1.799999999999997
 10
-13.78443634649208
 20
-13.96245312759511
 30
1.799999999999997
 10
-13.97391860678889
 20
-14.23314207087627
 30
1.799999999999997
 10
-13.40547182589845
 20
-15.09934668937599
 30
1.799999999999997
 10
-12.75581836202366
 20
-16.64227366607862
 30
1.799999999999997
 10
-12.53926720739873
 20
-19.40330088754649
 30
1.799999999999997
  0
SPLINE
  5
1DA
330
1F
100
AcDbEntity
  8
Default
100
AcDbSpline
210
0.0
220
0.0
230
1.0
 70
     8
 71
     3
 72
    10
 73
     6
 74
     0
 42
0.0000000001
 43
0.0000000001
 40
-12.0
 40
-12.0
 40
-12.0
 40
-12.0
 40
-11.0
 40
-10.0
 40
-9.0
 40
-9.0
 40
-9.0
 40
-9.0
 10
-12.53926720739873
 20
-19.40330088754649
 30
1.799999999999997
 10
-11.75426927188335
 20
-17.50847828457835
 30
1.799999999999997
 10
-10.26548008383696
 20
-13.33986855804844
 30
1.799999999999997
 10
-10.34668676682131
 20
-8.711087627940543
 30
1.799999999999997
 10
-11.64599369457089
 20
-5.516958097222826
 30
1.799999999999997
 10
-13.56788519186715
 20
-3.053688713364238
 30
1.799999999999997
  0
SPLINE
  5
1DB
330
1F
100
AcDbEntity
  8
Default
100
AcDbSpline
210
0.0
220
0.0
230
1.0
 70
    24
 71
     3
 72
     8
 73
     4
 74
     0
 42
0.0000000001
 43
0.0000000001
 40
-1.799999999999864
 40
-1.799999999999864
 40
-1.799999999999864
 40
-1.799999999999864
 40
0.0
 40
0.0
 40
0.0
 40
0.0
 10
-5.037433204748801
 20
-75.88970409411043
 30
1.800000000000001
 10
-4.437433204748842
 20
-75.88970409411043
 30
1.800000000000001
 10
-3.83743320474877
 20
-75.88970409411043
 30
1.800000000000001
 10
-3.237433204748804
 20
-75.88970409411043
 30
1.800000000000001
  0
SPLINE
  5
1DC
330
1F
100
AcDbEntity
  8
Default
100
AcDbSpline
210
0.0
220
0.0
230
1.0
 70
    24
 71
     3
 72
     8
 73
     4
 74
     0
 42
0.0000000001
 43
0.0000000001
 40
-15.42786243942223
 40
-15.42786243942223
 40
-15.42786243942223
 40
-15.42786243942223
 40
-9.927638695899796
 40
-9.927638695899796
 40
-9.927638695899796
 40
-9.927638695899796
 10
-3.237433204748804
 20
-75.88970409411043
 30
1.800000000000001
 10
-3.237433204748804
 20
-74.05629617960297
 30
1.800000000000001
 10
-3.237433204748804
 20
-72.22288826509549
 30
1.800000000000001
 10
-3.237433204748804
 20
-70.38948035058802
 30
1.799999999999994
  0
SPLINE
  5
1DD
330
1F
100
AcDbEntity
  8
Default
100
AcDbSpline
210
0.0
220
0.0
230
1.0
 70
    24
 71
     3
 72
     8
 73
     4
 74
     0
 42
0.0000000001
 43
0.0000000001
 40
0.0
 40
0.0
 40
0.0
 40
0.0
 40
1.800000000000067
 40
1.800000000000067
 40
1.800000000000067
 40
1.800000000000067
 10
-3.237433204748804
 20
-70.38948035058802
 30
1.799999999999994
 10
-3.83743320474882
 20
-70.38948035058802
 30
1.800000000000001
 10
-4.437433204748785
 20
-70.38948035058802
 30
1.800000000000001
 10
-5.037433204748801
 20
-70.38948035058802
 30
1.799999999999994
  0
SPLINE
  5
1DE
330
1F
100
AcDbEntity
  8
Default
100
AcDbSpline
210
0.0
220
0.0
230
1.0
 70
    24
 71
     3
 72
     8
 73
     4
 74
     0
 42
0.0000000001
 43
0.0000000001
 40
9.927638695899805
 40
9.927638695899805
 40
9.927638695899805
 40
9.927638695899805
 40
15.42786243942224
 40
15.42786243942224
 40
15.42786243942224
 40
15.42786243942224
 10
-5.037433204748801
 20
-70.38948035058802
 30
1.799999999999994
 10
-5.037433204748801
 20
-72.22288826509549
 30
1.800000000000001
 10
-5.037433204748801
 20
-74.05629617960297
 30
1.800000000000001
 10
-5.037433204748801
 20
-75.88970409411043
 30
1.800000000000001
  0
SPLINE
  5
1DF
330
1F
100
AcDbEntity
  8
Default
100
AcDbSpline
210
0.0
220
0.0
230
1.0
 70
    24
 71
     3
 72
     8
 73
     4
 74
     0
 42
0.0000000001
 43
0.0000000001
 40
-1.799999999999866
 40
-1.799999999999866
 40
-1.799999999999866
 40
-1.799999999999866
 40
0.0
 40
0.0
 40
0.0
 40
0.0
 10
49.25575071904524
 20
-75.88970409411043
 30
1.800000000000001
 10
49.85575071904521
 20
-75.88970409411043
 30
1.800000000000001
 10
50.45575071904528
 20
-75.88970409411043
 30
1.800000000000001
 10
51.05575071904524
 20
-75.88970409411043
 30
1.800000000000001
  0
SPLINE
  5
1E0
330
1F
100
AcDbEntity
  8
Default
100
AcDbSpline
210
0.0
220
0.0
230
1.0
 70
    24
 71
     3
 72
     8
 73
     4
 74
     0
 42
0.0000000001
 43
0.0000000001
 40
-15.42786243942221
 40
-15.42786243942221
 40
-15.42786243942221
 40
-15.42786243942221
 40
-9.927638695899784
 40
-9.927638695899784
 40
-9.927638695899784
 40
-9.927638695899784
 10
51.05575071904524
 20
-75.88970409411043
 30
1.800000000000001
 10
51.05575071904524
 20
-74.05629617960297
 30
1.800000000000001
 10
51.05575071904524
 20
-72.22288826509549
 30
1.800000000000001
 10
51.05575071904524
 20
-70.38948035058802
 30
1.799999999999994
  0
SPLINE
  5
1E1
330
1F
100
AcDbEntity
  8
Default
100
AcDbSpline
210
0.0
220
0.0
230
1.0
 70
    24
 71
     3
 72
     8
 73
     4
 74
     0
 42
0.0000000001
 43
0.0000000001
 40
0.0
 40
0.0
 40
0.0
 40
0.0
 40
1.80000000000007
 40
1.80000000000007
 40
1.80000000000007
 40
1.80000000000007
 10
51.05575071904524
 20
-70.38948035058802
 30
1.799999999999994
 10
50.45575071904523
 20
-70.38948035058802
 30
1.800000000000001
 10
49.85575071904526
 20
-70.38948035058802
 30
1.800000000000001
 10
49.25575071904524
 20
-70.38948035058802
 30
1.799999999999994
  0
SPLINE
  5
1E2
330
1F
100
AcDbEntity
  8
Default
100
AcDbSpline
210
0.0
220
0.0
230
1.0
 70
    24
 71
     3
 72
     8
 73
     4
 74
     0
 42
0.0000000001
 43
0.0000000001
 40
9.927638695899791
 40
9.927638695899791
 40
9.927638695899791
 40
9.927638695899791
 40
15.42786243942222
 40
15.42786243942222
 40
15.42786243942222
 40
15.42786243942222
 10
49.25575071904524
 20
-70.38948035058802
 30
1.799999999999994
 10
49.25575071904525
 20
-72.22288826509549
 30
1.800000000000001
 10
49.25575071904525
 20
-74.05629617960297
 30
1.800000000000001
 10
49.25575071904524
 20
-75.88970409411043
 30
1.800000000000001
  0
SPLINE
  5
1E3
330
1F
100
AcDbEntity
  8
Default
100
AcDbSpline
210
0.0
220
0.0
230
1.0
 70
    24
 71
     3
 72
     8
 73
     4
 74
     0
 42
0.0000000001
 43
0.0000000001
 40
-1.799999999999866
 40
-1.799999999999866
 40
-1.799999999999866
 40
-1.799999999999866
 40
0.0
 40
0.0
 40
0.0
 40
0.0
 10
22.29364522109372
 20
-75.88970409411043
 30
1.800000000000001
 10
22.89364522109368
 20
-75.88970409411044
 30
1.800000000000001
 10
23.49364522109375
 20
-75.88970409411044
 30
1.800000000000001
 10
24.09364522109371
 20
-75.88970409411043
 30
1.800000000000001
  0
SPLINE
  5
1E4
330
1F
100
AcDbEntity
  8
Default
100
AcDbSpline
210
0.0
220
0.0
230
1.0
 70
    24
 71
     3
 72
     8
 73
     4
 74
     0
 42
0.0000000001
 43
0.0000000001
 40
-15.42786243942222
 40
-15.42786243942222
 40
-15.42786243942222
 40
-15.42786243942222
 40
-9.927638695899788
 40
-9.927638695899788
 40
-9.927638695899788
 40
-9.927638695899788
 10
24.09364522109371
 20
-75.88970409411043
 30
1.800000000000001
 10
24.09364522109372
 20
-74.05629617960297
 30
1.800000000000001
 10
24.09364522109372
 20
-72.22288826509549
 30
1.800000000000001
 10
24.09364522109371
 20
-70.38948035058802
 30
1.799999999999994
  0
SPLINE
  5
1E5
330
1F
100
AcDbEntity
  8
Default
100
AcDbSpline
210
0.0
220
0.0
230
1.0
 70
    24
 71
     3
 72
     8
 73
     4
 74
     0
 42
0.0000000001
 43
0.0000000001
 40
0.0
 40
0.0
 40
0.0
 40
0.0
 40
1.80000000000007
 40
1.80000000000007
 40
1.80000000000007
 40
1.80000000000007
 10
24.09364522109371
 20
-70.38948035058802
 30
1.799999999999994
 10
23.4936452210937
 20
-70.38948035058802
 30
1.800000000000001
 10
22.89364522109374
 20
-70.38948035058802
 30
1.800000000000001
 10
22.29364522109372
 20
-70.38948035058802
 30
1.799999999999994
  0
SPLINE
  5
1E6
330
1F
100
AcDbEntity
  8
Default
100
AcDbSpline
210
0.0
220
0.0
230
1.0
 70
    24
 71
     3
 72
     8
 73
     4
 74
     0
 42
0.0000000001
 43
0.0000000001
 40
9.927638695899795
 40
9.927638695899795
 40
9.927638695899795
 40
9.927638695899795
 40
15.42786243942222
 40
15.42786243942222
 40
15.42786243942222
 40
15.42786243942222
 10
22.29364522109372
 20
-70.38948035058802
 30
1.799999999999994
 10
22.29364522109371
 20
-72.22288826509549
 30
1.800000000000001
 10
22.29364522109371
 20
-74.05629617960297
 30
1.800000000000001
 10
22.29364522109372
 20
-75.88970409411043
 30
1.800000000000001
  0
SPLINE
  5
1E7
330
1F
100
AcDbEntity
  8
Default
100
AcDbSpline
210
0.0
220
0.0
230
1.0
 70
     8
 71
     3
 72
    10
 73
     6
 74
     0
 42
0.0000000001
 43
0.0000000001
 40
-8.585840350801686
 40
-8.585840350801686
 40
-8.585840350801686
 40
-8.585840350801686
 40
-6.563258734668882
 40
-3.578714153655067
 40
-1.142926533463084
 40
-1.142926533463084
 40
-1.142926533463084
 40
-1.142926533463084
 10
60.29985963162492
 20
31.98279691756736
 30
1.800318683455389
 10
59.55678559272108
 20
32.01007165035528
 30
1.800318683455389
 10
57.96617016910393
 20
31.30168594986947
 30
1.800318683455389
 10
56.64562637061461
 20
30.08352420509436
 30
1.800318683455389
 10
56.41219648918123
 20
28.15190937158026
 30
1.800318683455389
 10
56.38229519446436
 20
27.01116910950282
 30
1.800318683455389
  0
SPLINE
  5
1E8
330
1F
100
AcDbEntity
  8
Default
100
AcDbSpline
210
0.0
220
0.0
230
1.0
 70
     8
 71
     3
 72
     8
 73
     4
 74
     0
 42
0.0000000001
 43
0.0000000001
 40
-1.142926533463084
 40
-1.142926533463084
 40
-1.142926533463084
 40
-1.142926533463084
 40
0.0
 40
0.0
 40
0.0
 40
0.0
 10
56.38229519446436
 20
27.01116910950282
 30
1.800318683455389
 10
56.36826483203311
 20
26.47590802905806
 30
1.800318683455389
 10
56.37074662746248
 20
25.88060407547202
 30
1.800318683455389
 10
56.38229519446428
 20
25.21887418434993
 30
1.800318683455389
  0
LINE
  5
1E9
330
1F
100
AcDbEntity
  8
Default
100
AcDbLine
 10
56.38229519446428
 20
25.21887418434993
 30
1.800318683455389
 11
56.38229519446436
 21
21.86231278501047
 31
1.800318683455389
  0
SPLINE
  5
1EA
330
1F
100
AcDbEntity
  8
Default
100
AcDbSpline
210
0.0
220
0.0
230
1.0
 70
    24
 71
     3
 72
     8
 73
     4
 74
     0
 42
0.0000000001
 43
0.0000000001
 40
-43.26441026057848
 40
-43.26441026057848
 40
-43.26441026057848
 40
-43.26441026057848
 40
-39.26609208659937
 40
-39.26609208659937
 40
-39.26609208659937
 40
-39.26609208659937
 10
56.38229519446436
 20
21.86231278501047
 30
1.800318683455389
 10
56.38229519446435
 20
20.52954006035077
 30
1.800318683455389
 10
56.38229519446436
 20
19.19676733569107
 30
1.800318683455389
 10
56.38229519446436
 20
17.86399461103137
 30
1.800318683455389
  0
SPLINE
  5
1EB
330
1F
100
AcDbEntity
  8
Default
100
AcDbSpline
210
0.0
220
0.0
230
1.0
 70
    24
 71
     3
 72
     8
 73
     4
 74
     0
 42
0.0000000001
 43
0.0000000001
 40
-39.26609208659937
 40
-39.26609208659937
 40
-39.26609208659937
 40
-39.26609208659937
 40
-35.26432526585674
 40
-35.26432526585674
 40
-35.26432526585674
 40
-35.26432526585674
 10
56.38229519446436
 20
17.86399461103137
 30
1.800318683455389
 10
56.38229519446438
 20
16.5300723374505
 30
1.800318683455389
 10
56.38229519446439
 20
15.19615006386962
 30
1.800318683455389
 10
56.38229519446436
 20
13.86222779028875
 30
1.800318683455389
  0
LINE
  5
1EC
330
1F
100
AcDbEntity
  8
Default
100
AcDbLine
 10
56.38229519446436
 20
13.86222779028875
 30
1.800318683455389
 11
56.38229519446436
 21
7.5625996936701
 31
1.800318683455389
  0
LINE
  5
1ED
330
1F
100
AcDbEntity
  8
Default
100
AcDbLine
 10
56.38229519446436
 20
7.5625996936701
 30
1.800318683455389
 11
56.38229519446435
 21
1.262971597051452
 31
1.800318683455389
  0
LINE
  5
1EE
330
1F
100
AcDbEntity
  8
Default
100
AcDbLine
 10
56.38229519446435
 20
1.262971597051452
 30
1.800318683455389
 11
56.38229519446435
 21
-2.738795223691179
 31
1.800318683455389
  0
SPLINE
  5
1EF
330
1F
100
AcDbEntity
  8
Default
100
AcDbSpline
210
0.0
220
0.0
230
1.0
 70
    24
 71
     3
 72
     8
 73
     4
 74
     0
 42
0.0000000001
 43
0.0000000001
 40
-18.6633022518768
 40
-18.6633022518768
 40
-18.6633022518768
 40
-18.6633022518768
 40
-14.66498407789771
 40
-14.66498407789771
 40
-14.66498407789771
 40
-14.66498407789771
 10
56.38229519446435
 20
-2.738795223691179
 30
1.800318683455389
 10
56.38229519446438
 20
-4.071567948350877
 30
1.800318683455389
 10
56.38229519446439
 20
-5.404340673010575
 30
1.800318683455389
 10
56.38229519446436
 20
-6.737113397670273
 30
1.800318683455389
  0
LINE
  5
1F0
330
1F
100
AcDbEntity
  8
Default
100
AcDbLine
 10
56.38229519446436
 20
-6.737113397670273
 30
1.800318683455389
 11
56.38229519446428
 21
-10.09367479700972
 31
1.800318683455389
  0
SPLINE
  5
1F1
330
1F
100
AcDbEntity
  8
Default
100
AcDbSpline
210
0.0
220
0.0
230
1.0
 70
     8
 71
     3
 72
     8
 73
     4
 74
     0
 42
0.0000000001
 43
0.0000000001
 40
0.0
 40
0.0
 40
0.0
 40
0.0
 40
1.142926533462341
 40
1.142926533462341
 40
1.142926533462341
 40
1.142926533462341
 10
56.38229519446428
 20
-10.09367479700972
 30
1.800318683455389
 10
56.37074662746248
 20
-10.75540468813138
 30
1.800318683455389
 10
56.36826483203311
 20
-11.35070864171709
 30
1.800318683455389
 10
56.38229519446433
 20
-11.88596972216158
 30
1.800318683455389
  0
SPLINE
  5
1F2
330
1F
100
AcDbEntity
  8
Default
100
AcDbSpline
210
0.0
220
0.0
230
1.0
 70
     8
 71
     3
 72
    10
 73
     6
 74
     0
 42
0.0000000001
 43
0.0000000001
 40
1.142926533462341
 40
1.142926533462341
 40
1.142926533462341
 40
1.142926533462341
 40
3.578714153655067
 40
6.563258734668882
 40
8.585840350801686
 40
8.585840350801686
 40
8.585840350801686
 40
8.585840350801686
 10
56.38229519446433
 20
-11.88596972216158
 30
1.800318683455389
 10
56.41219648918116
 20
-13.02670998423954
 30
1.800318683455389
 10
56.64562637061447
 20
-14.95832481775404
 30
1.800318683455389
 10
57.96617016910393
 20
-16.17648656252926
 30
1.800318683455389
 10
59.55678559272108
 20
-16.88487226301508
 30
1.800318683455389
 10
60.29985963162492
 20
-16.85759753022715
 30
1.800318683455389
  0
LINE
  5
1F3
330
1F
100
AcDbEntity
  8
Default
100
AcDbLine
 10
60.29985963162492
 20
-16.85759753022715
 30
1.800318683455389
 11
66.30031932233209
 21
-16.85759753022715
 31
1.800318683455389
  0
LINE
  5
1F4
330
1F
100
AcDbEntity
  8
Default
100
AcDbLine
 10
66.30031932233209
 20
-16.85759753022715
 30
1.800318683455389
 11
66.30031932233204
 21
-19.35713923248542
 31
1.800318683455389
  0
ARC
  5
1F5
330
1F
100
AcDbEntity
  8
Default
100
AcDbCircle
 10
69.05043119409328
 20
-18.52337567746741
 30
1.800318683455389
 40
2.873721798100564
100
AcDbArc
 50
196.8659609680058
 51
343.1340390319941
  0
LINE
  5
1F6
330
1F
100
AcDbEntity
  8
Default
100
AcDbLine
 10
71.80054306585451
 20
-19.35713923248543
 30
1.800318683455389
 11
71.80054306585451
 21
-16.85759753022715
 31
1.800318683455389
  0
SPLINE
  5
1F7
330
1F
100
AcDbEntity
  8
Default
100
AcDbSpline
210
0.0
220
0.0
230
1.0
 70
     8
 71
     3
 72
    18
 73
    14
 74
     0
 42
0.0000000001
 43
0.0000000001
 40
0.0
 40
0.0
 40
0.0
 40
0.0
 40
1.0
 40
2.0
 40
3.0
 40
4.0
 40
5.0
 40
6.0
 40
7.0
 40
8.0
 40
9.0
 40
10.0
 40
11.0
 40
11.0
 40
11.0
 40
11.0
 10
71.80054306585451
 20
-16.85759753022715
 30
1.800318683455389
 10
71.6026483609031
 20
-14.52495745883959
 30
1.800318683455389
 10
70.98378932276601
 20
-13.41101119019283
 30
1.800318683455389
 10
69.37475582360958
 20
-12.50335126759177
 30
1.800318683455389
 10
66.81680513264294
 20
-12.29706492154607
 30
1.800318683455389
 10
64.5889125953494
 20
-11.88449222945468
 30
1.800318683455389
 10
62.64982094251986
 20
-10.35797326871652
 30
1.800318683455389
 10
61.04078744336343
 20
-8.62516796193267
 30
1.800318683455389
 10
60.1743847899715
 20
-6.47978996305743
 30
1.800318683455389
 10
59.80306936708926
 20
-3.839324733672514
 30
1.800318683455389
 10
59.6380402902527
 20
0.2864021872414195
 30
1.800318683455389
 10
60.09187025155322
 20
3.050639224253745
 30
1.800318683455389
 10
61.16455925099084
 20
5.814876261266081
 30
1.800318683455389
 10
63.0191339175421
 20
7.562599693670096
 30
1.800318683455389
  0
SPLINE
  5
1F8
330
1F
100
AcDbEntity
  8
Default
100
AcDbSpline
210
0.0
220
0.0
230
1.0
 70
     8
 71
     3
 72
    18
 73
    14
 74
     0
 42
0.0000000001
 43
0.0000000001
 40
-11.0
 40
-11.0
 40
-11.0
 40
-11.0
 40
-10.0
 40
-9.0
 40
-8.0
 40
-7.0
 40
-6.0
 40
-5.0
 40
-4.0
 40
-3.0
 40
-2.0
 40
-1.0
 40
0.0
 40
0.0
 40
0.0
 40
0.0
 10
63.0191339175421
 20
7.562599693670096
 30
1.800318683455389
 10
61.16455925099084
 20
9.310323126074111
 30
1.800318683455389
 10
60.09187025155322
 20
12.07456016308645
 30
1.800318683455389
 10
59.6380402902527
 20
14.83879720009877
 30
1.800318683455389
 10
59.80306936708926
 20
18.96452412101272
 30
1.800318683455389
 10
60.1743847899715
 20
21.60498935039764
 30
1.800318683455389
 10
61.04078744336343
 20
23.75036734927287
 30
1.800318683455389
 10
62.64982094251986
 20
25.48317265605673
 30
1.800318683455389
 10
64.5889125953494
 20
27.00969161679487
 30
1.800318683455389
 10
66.81680513264294
 20
27.42226430888628
 30
1.800318683455389
 10
69.37475582360958
 20
27.62855065493196
 30
1.800318683455389
 10
70.98378932276601
 20
28.53621057753303
 30
1.800318683455389
 10
71.6026483609031
 20
29.65015684617979
 30
1.800318683455389
 10
71.80054306585451
 20
31.98279691756736
 30
1.800318683455389
  0
LINE
  5
1F9
330
1F
100
AcDbEntity
  8
Default
100
AcDbLine
 10
71.80054306585451
 20
31.98279691756736
 30
1.800318683455389
 11
71.8005430658545
 21
34.48233861982565
 31
1.800318683455389
  0
ARC
  5
1FA
330
1F
100
AcDbEntity
  8
Default
100
AcDbCircle
 10
69.05043119409328
 20
33.64857506480759
 30
1.800318683455389
 40
2.873721798100553
100
AcDbArc
 50
16.865960968007
 51
163.1340390319936
  0
LINE
  5
1FB
330
1F
100
AcDbEntity
  8
Default
100
AcDbLine
 10
66.30031932233207
 20
34.48233861982562
 30
1.800318683455389
 11
66.30031932233209
 21
31.98279691756736
 31
1.800318683455389
  0
LINE
  5
1FC
330
1F
100
AcDbEntity
  8
Default
100
AcDbLine
 10
66.30031932233209
 20
31.98279691756736
 30
1.800318683455389
 11
60.29985963162492
 21
31.98279691756736
 31
1.800318683455389
  0
LINE
  5
1FD
330
1F
100
AcDbEntity
  8
Default
100
AcDbLine
 10
56.38229519446435
 20
-2.738795223691179
 30
1.800318683455389
 11
56.38229519446435
 21
1.262971597051452
 31
1.800318683455389
  0
LINE
  5
1FE
330
1F
100
AcDbEntity
  8
Default
100
AcDbLine
 10
56.38229519446435
 20
1.262971597051452
 30
1.800318683455389
 11
54.58229519446435
 21
1.262971597051452
 31
1.800318683455389
  0
LINE
  5
1FF
330
1F
100
AcDbEntity
  8
Default
100
AcDbLine
 10
54.58229519446435
 20
1.262971597051452
 30
1.800318683455389
 11
54.58229519446435
 21
-2.738795223691179
 31
1.800318683455389
  0
LINE
  5
200
330
1F
100
AcDbEntity
  8
Default
100
AcDbLine
 10
54.58229519446435
 20
-2.738795223691179
 30
1.800318683455389
 11
56.38229519446435
 21
-2.738795223691179
 31
1.800318683455389
  0
LINE
  5
201
330
1F
100
AcDbEntity
  8
Default
100
AcDbLine
 10
54.58229519446435
 20
17.86399461103137
 30
1.800318683455389
 11
54.58229519446435
 21
13.86222779028874
 31
1.800318683455389
  0
LINE
  5
202
330
1F
100
AcDbEntity
  8
Default
100
AcDbLine
 10
54.58229519446435
 20
13.86222779028874
 30
1.800318683455389
 11
56.38229519446436
 21
13.86222779028875
 31
1.800318683455389
  0
SPLINE
  5
203
330
1F
100
AcDbEntity
  8
Default
100
AcDbSpline
210
0.0
220
0.0
230
1.0
 70
    24
 71
     3
 72
     8
 73
     4
 74
     0
 42
0.0000000001
 43
0.0000000001
 40
35.26432526585674
 40
35.26432526585674
 40
35.26432526585674
 40
35.26432526585674
 40
39.26609208659937
 40
39.26609208659937
 40
39.26609208659937
 40
39.26609208659937
 10
56.38229519446436
 20
13.86222779028875
 30
1.800318683455389
 10
56.38229519446439
 20
15.19615006386962
 30
1.800318683455389
 10
56.38229519446438
 20
16.5300723374505
 30
1.800318683455389
 10
56.38229519446436
 20
17.86399461103137
 30
1.800318683455389
  0
LINE
  5
204
330
1F
100
AcDbEntity
  8
Default
100
AcDbLine
 10
56.38229519446436
 20
17.86399461103137
 30
1.800318683455389
 11
54.58229519446435
 21
17.86399461103137
 31
1.800318683455389
  0
ENDSEC
  0
SECTION
  2
OBJECTS
  0
DICTIONARY
  5
C
330
0
100
AcDbDictionary
281
     1
  3
ACAD_GROUP
350
D
  3
ACAD_LAYOUT
350
1A
  3
ACAD_MLEADERSTYLE
350
206
  3
ACAD_MLINESTYLE
350
17
  3
ACAD_PLOTSETTINGS
350
19
  3
ACAD_PLOTSTYLENAME
350
E
  3
ACAD_TABLESTYLE
350
205
  3
ACAD_VISUALSTYLE
350
2A
  0
DICTIONARY
  5
D
102
{ACAD_REACTORS
330
C
102
}
330
C
100
AcDbDictionary
281
     1
  0
DICTIONARY
  5
1A
102
{ACAD_REACTORS
330
C
102
}
330
C
100
AcDbDictionary
281
     1
  3
Layout1
350
1E
  3
Layout2
350
26
  3
Model
350
22
  0
DICTIONARY
  5
206
102
{ACAD_REACTORS
330
C
102
}
330
C
100
AcDbDictionary
281
     1
  0
DICTIONARY
  5
17
102
{ACAD_REACTORS
330
C
102
}
330
C
100
AcDbDictionary
281
     1
  3
Standard
350
18
  0
DICTIONARY
  5
19
102
{ACAD_REACTORS
330
C
102
}
330
C
100
AcDbDictionary
281
     1
  0
ACDBDICTIONARYWDFLT
  5
E
102
{ACAD_REACTORS
330
C
102
}
330
C
100
AcDbDictionary
281
     1
  3
Normal
350
F
100
AcDbDictionaryWithDefault
340
F
  0
DICTIONARY
  5
205
102
{ACAD_REACTORS
330
C
102
}
330
C
100
AcDbDictionary
281
     1
  0
DICTIONARY
  5
2A
102
{ACAD_REACTORS
330
C
102
}
330
C
100
AcDbDictionary
281
     1
  3
2dWireframe
350
2F
  3
3D Hidden
350
31
  3
3dWireframe
350
30
  3
Basic
350
32
  3
Brighten
350
36
  3
ColorChange
350
3A
  3
Conceptual
350
34
  3
Dim
350
35
  3
Facepattern
350
39
  3
Flat
350
2B
  3
FlatWithEdges
350
2C
  3
Gouraud
350
2D
  3
GouraudWithEdges
350
2E
  3
Linepattern
350
38
  3
Realistic
350
33
  3
Thicken
350
37
  0
LAYOUT
  5
1E
102
{ACAD_REACTORS
330
1A
102
}
330
1A
100
AcDbPlotSettings
  1

  2
none_device
  4

  6

 40
0.0
 41
0.0
 42
0.0
 43
0.0
 44
0.0
 45
0.0
 46
0.0
 47
0.0
 48
0.0
 49
0.0
140
0.0
141
0.0
142
1.0
143
1.0
 70
   688
 72
     0
 73
     0
 74
     5
  7

 75
    16
 76
     0
 77
     2
 78
   300
147
1.0
148
0.0
149
0.0
100
AcDbLayout
  1
Layout1
 70
     1
 71
     1
 10
0.0
 20
0.0
 11
12.0
 21
9.0
 12
0.0
 22
0.0
 32
0.0
 14
1.000000000000000E+20
 24
1.000000000000000E+20
 34
1.000000000000000E+20
 15
-1.000000000000000E+20
 25
-1.000000000000000E+20
 35
-1.000000000000000E+20
146
0.0
 13
0.0
 23
0.0
 33
0.0
 16
1.0
 26
0.0
 36
0.0
 17
0.0
 27
1.0
 37
0.0
 76
     0
330
1B
  0
LAYOUT
  5
26
102
{ACAD_REACTORS
330
1A
102
}
330
1A
100
AcDbPlotSettings
  1

  2
none_device
  4

  6

 40
0.0
 41
0.0
 42
0.0
 43
0.0
 44
0.0
 45
0.0
 46
0.0
 47
0.0
 48
0.0
 49
0.0
140
0.0
141
0.0
142
1.0
143
1.0
 70
   688
 72
     0
 73
     0
 74
     5
  7

 75
    16
 76
     0
 77
     2
 78
   300
147
1.0
148
0.0
149
0.0
100
AcDbLayout
  1
Layout2
 70
     1
 71
     2
 10
0.0
 20
0.0
 11
0.0
 21
0.0
 12
0.0
 22
0.0
 32
0.0
 14
0.0
 24
0.0
 34
0.0
 15
0.0
 25
0.0
 35
0.0
146
0.0
 13
0.0
 23
0.0
 33
0.0
 16
1.0
 26
0.0
 36
0.0
 17
0.0
 27
1.0
 37
0.0
 76
     0
330
23
  0
LAYOUT
  5
22
102
{ACAD_REACTORS
330
1A
102
}
330
1A
100
AcDbPlotSettings
  1

  2
none_device
  4

  6

 40
0.0
 41
0.0
 42
0.0
 43
0.0
 44
0.0
 45
0.0
 46
0.0
 47
0.0
 48
0.0
 49
0.0
140
0.0
141
0.0
142
1.0
143
1.0
 70
  1712
 72
     0
 73
     0
 74
     0
  7

 75
     0
 76
     0
 77
     2
 78
   300
147
1.0
148
0.0
149
0.0
100
AcDbLayout
  1
Model
 70
     1
 71
     0
 10
0.0
 20
0.0
 11
12.0
 21
9.0
 12
0.0
 22
0.0
 32
0.0
 14
-48.0
 24
-81.06925800729266
 34
0.0
 15
151.445751264072
 25
73.22385771335362
 35
8.436838723077761
146
0.0
 13
0.0
 23
0.0
 33
0.0
 16
1.0
 26
0.0
 36
0.0
 17
0.0
 27
1.0
 37
0.0
 76
     0
330
1F
331
29
  0
MLINESTYLE
  5
18
102
{ACAD_REACTORS
330
17
102
}
330
17
100
AcDbMlineStyle
  2
Standard
 70
     0
  3

 62
   256
 51
90.0
 52
90.0
 71
     2
 49
0.5
 62
   256
  6
BYLAYER
 49
-0.5
 62
   256
  6
BYLAYER
  0
ACDBPLACEHOLDER
  5
F
102
{ACAD_REACTORS
330
E
102
}
330
E
  0
VISUALSTYLE
  5
2F
102
{ACAD_REACTORS
330
2A
102
}
330
2A
100
AcDbVisualStyle
  2
2dWireframe
 70
     4
 71
     0
 72
     2
 73
     0
 90
        0
 40
-0.6
 41
-30.0
 62
     5
 63
     7
421
 16777215
 74
     1
 91
        4
 64
     7
 65
   257
 75
     1
175
     1
 42
1.0
 92
        0
 66
   257
 43
1.0
 76
     1
 77
     6
 78
     2
 67
     7
 79
     5
170
     0
171
     0
290
     0
174
     0
 93
        1
 44
0.0
173
     0
291
     0
 45
0.0
1001
ACAD
1000
AcDbSavedByObjectVersion
1070
     0
  0
VISUALSTYLE
  5
31
102
{ACAD_REACTORS
330
2A
102
}
330
2A
100
AcDbVisualStyle
  2
3D Hidden
 70
     6
 71
     1
 72
     2
 73
     2
 90
        0
 40
-0.6
 41
-30.0
 62
     5
 63
     7
421
 16777215
 74
     2
 91
        2
 64
     7
 65
   257
 75
     2
175
     1
 42
40.0
 92
        0
 66
   257
 43
1.0
 76
     1
 77
     6
 78
     2
 67
     7
 79
     3
170
     0
171
     0
290
     0
174
     0
 93
        1
 44
0.0
173
     0
291
     0
 45
0.0
1001
ACAD
1000
AcDbSavedByObjectVersion
1070
     0
  0
VISUALSTYLE
  5
30
102
{ACAD_REACTORS
330
2A
102
}
330
2A
100
AcDbVisualStyle
  2
3dWireframe
 70
     5
 71
     0
 72
     2
 73
     0
 90
        0
 40
-0.6
 41
-30.0
 62
     5
 63
     7
421
 16777215
 74
     1
 91
        4
 64
     7
 65
   257
 75
     1
175
     1
 42
1.0
 92
        0
 66
   257
 43
1.0
 76
     1
 77
     6
 78
     2
 67
     7
 79
     5
170
     0
171
     0
290
     0
174
     0
 93
        1
 44
0.0
173
     0
291
     0
 45
0.0
1001
ACAD
1000
AcDbSavedByObjectVersion
1070
     0
  0
VISUALSTYLE
  5
32
102
{ACAD_REACTORS
330
2A
102
}
330
2A
100
AcDbVisualStyle
  2
Basic
 70
     7
 71
     1
 72
     0
 73
     1
 90
        0
 40
-0.6
 41
-30.0
 62
     5
 63
     7
421
 16777215
 74
     0
 91
        4
 64
     7
 65
   257
 75
     1
175
     1
 42
1.0
 92
        8
 66
     7
 43
1.0
 76
     1
 77
     6
 78
     2
 67
     7
 79
     5
170
     0
171
     0
290
     0
174
     0
 93
        1
 44
0.0
173
     0
291
     1
 45
0.0
1001
ACAD
1000
AcDbSavedByObjectVersion
1070
     0
  0
VISUALSTYLE
  5
36
102
{ACAD_REACTORS
330
2A
102
}
330
2A
100
AcDbVisualStyle
  2
Brighten
 70
    12
 71
     2
 72
     2
 73
     0
 90
        0
 40
-0.6
 41
-30.0
 62
     5
 63
     7
421
 16777215
 74
     1
 91
        4
 64
     7
 65
   257
 75
     1
175
     1
 42
1.0
 92
        8
 66
     7
 43
1.0
 76
     1
 77
     6
 78
     2
 67
     7
 79
     5
170
     0
171
     0
290
     0
174
     0
 93
        1
 44
50.0
173
     0
291
     1
 45
0.0
1001
ACAD
1000
AcDbSavedByObjectVersion
1070
     0
  0
VISUALSTYLE
  5
3A
102
{ACAD_REACTORS
330
2A
102
}
330
2A
100
AcDbVisualStyle
  2
ColorChange
 70
    16
 71
     2
 72
     2
 73
     3
 90
        0
 40
-0.6
 41
-30.0
 62
     5
 63
     8
421
  8421504
 74
     1
 91
        4
 64
     7
 65
   257
 75
     1
175
     1
 42
1.0
 92
        8
 66
     8
424
  8421504
 43
1.0
 76
     1
 77
     6
 78
     2
 67
     7
 79
     5
170
     0
171
     0
290
     0
174
     0
 93
        1
 44
0.0
173
     0
291
     1
 45
0.0
1001
ACAD
1000
AcDbSavedByObjectVersion
1070
     0
  0
VISUALSTYLE
  5
34
102
{ACAD_REACTORS
330
2A
102
}
330
2A
100
AcDbVisualStyle
  2
Conceptual
 70
     9
 71
     3
 72
     2
 73
     0
 90
        0
 40
-0.6
 41
-30.0
 62
     5
 63
     7
421
 16777215
 74
     2
 91
        2
 64
     7
 65
   257
 75
     1
175
     1
 42
40.0
 92
        8
 66
     7
 43
1.0
 76
     1
 77
     6
 78
     2
 67
     7
 79
     3
170
     0
171
     0
290
     0
174
     0
 93
        1
 44
0.0
173
     0
291
     0
 45
0.0
1001
ACAD
1000
AcDbSavedByObjectVersion
1070
     0
  0
VISUALSTYLE
  5
35
102
{ACAD_REACTORS
330
2A
102
}
330
2A
100
AcDbVisualStyle
  2
Dim
 70
    11
 71
     2
 72
     2
 73
     0
 90
        0
 40
-0.6
 41
-30.0
 62
     5
 63
     7
421
 16777215
 74
     1
 91
        4
 64
     7
 65
   257
 75
     1
175
     1
 42
1.0
 92
        8
 66
     7
 43
1.0
 76
     1
 77
     6
 78
     2
 67
     7
 79
     5
170
     0
171
     0
290
     0
174
     0
 93
        1
 44
-50.0
173
     0
291
     1
 45
0.0
1001
ACAD
1000
AcDbSavedByObjectVersion
1070
     0
  0
VISUALSTYLE
  5
39
102
{ACAD_REACTORS
330
2A
102
}
330
2A
100
AcDbVisualStyle
  2
Facepattern
 70
    15
 71
     2
 72
     2
 73
     0
 90
        0
 40
-0.6
 41
-30.0
 62
     5
 63
     7
421
 16777215
 74
     1
 91
        4
 64
     7
 65
   257
 75
     1
175
     1
 42
1.0
 92
        8
 66
     7
 43
1.0
 76
     1
 77
     6
 78
     2
 67
     7
 79
     5
170
     0
171
     0
290
     0
174
     0
 93
        1
 44
0.0
173
     0
291
     1
 45
0.0
1001
ACAD
1000
AcDbSavedByObjectVersion
1070
     0
  0
VISUALSTYLE
  5
2B
102
{ACAD_REACTORS
330
2A
102
}
330
2A
100
AcDbVisualStyle
  2
Flat
 70
     0
 71
     2
 72
     1
 73
     1
 90
        2
 40
-0.6
 41
30.0
 62
     5
 63
     7
421
 16777215
 74
     0
 91
        4
 64
     7
 65
   257
 75
     1
175
     1
 42
1.0
 92
        8
 66
     7
 43
1.0
 76
     1
 77
     6
 78
     2
 67
     7
 79
     5
170
     0
171
     0
290
     0
174
     0
 93
       13
 44
0.0
173
     0
291
     1
 45
0.0
1001
ACAD
1000
AcDbSavedByObjectVersion
1070
     0
  0
VISUALSTYLE
  5
2C
102
{ACAD_REACTORS
330
2A
102
}
330
2A
100
AcDbVisualStyle
  2
FlatWithEdges
 70
     1
 71
     2
 72
     1
 73
     1
 90
        2
 40
-0.6
 41
30.0
 62
     5
 63
     7
421
 16777215
 74
     1
 91
        4
 64
     7
 65
   257
 75
     1
175
     1
 42
1.0
 92
        0
 66
   257
 43
1.0
 76
     1
 77
     6
 78
     2
 67
     7
 79
     5
170
     0
171
     0
290
     0
174
     0
 93
       13
 44
0.0
173
     0
291
     1
 45
0.0
1001
ACAD
1000
AcDbSavedByObjectVersion
1070
     0
  0
VISUALSTYLE
  5
2D
102
{ACAD_REACTORS
330
2A
102
}
330
2A
100
AcDbVisualStyle
  2
Gouraud
 70
     2
 71
     2
 72
     2
 73
     1
 90
        2
 40
-0.6
 41
30.0
 62
     5
 63
     7
421
 16777215
 74
     0
 91
        4
 64
     7
 65
   257
 75
     1
175
     1
 42
1.0
 92
        0
 66
     7
 43
1.0
 76
     1
 77
     6
 78
     2
 67
     7
 79
     5
170
     0
171
     0
290
     0
174
     0
 93
       13
 44
0.0
173
     0
291
     1
 45
0.0
1001
ACAD
1000
AcDbSavedByObjectVersion
1070
     0
  0
VISUALSTYLE
  5
2E
102
{ACAD_REACTORS
330
2A
102
}
330
2A
100
AcDbVisualStyle
  2
GouraudWithEdges
 70
     3
 71
     2
 72
     2
 73
     1
 90
        2
 40
-0.6
 41
30.0
 62
     5
 63
     7
421
 16777215
 74
     1
 91
        4
 64
     7
 65
   257
 75
     1
175
     1
 42
1.0
 92
        0
 66
   257
 43
1.0
 76
     1
 77
     6
 78
     2
 67
     7
 79
     5
170
     0
171
     0
290
     0
174
     0
 93
       13
 44
0.0
173
     0
291
     1
 45
0.0
1001
ACAD
1000
AcDbSavedByObjectVersion
1070
     0
  0
VISUALSTYLE
  5
38
102
{ACAD_REACTORS
330
2A
102
}
330
2A
100
AcDbVisualStyle
  2
Linepattern
 70
    14
 71
     2
 72
     2
 73
     0
 90
        0
 40
-0.6
 41
-30.0
 62
     5
 63
     7
421
 16777215
 74
     1
 91
        4
 64
     7
 65
   257
 75
     7
175
     7
 42
1.0
 92
        8
 66
     7
 43
1.0
 76
     1
 77
     6
 78
     2
 67
     7
 79
     5
170
     0
171
     0
290
     0
174
     0
 93
        1
 44
0.0
173
     0
291
     1
 45
0.0
1001
ACAD
1000
AcDbSavedByObjectVersion
1070
     0
  0
VISUALSTYLE
  5
33
102
{ACAD_REACTORS
330
2A
102
}
330
2A
100
AcDbVisualStyle
  2
Realistic
 70
     8
 71
     2
 72
     2
 73
     0
 90
        0
 40
-0.6
 41
-30.0
 62
     5
 63
     7
421
 16777215
 74
     1
 91
        0
 64
     7
 65
   257
 75
     1
175
     1
 42
1.0
 92
        8
 66
     8
424
  7895160
 43
1.0
 76
     1
 77
     6
 78
     2
 67
     7
 79
     5
170
     0
171
     0
290
     0
174
     0
 93
       13
 44
0.0
173
     0
291
     0
 45
0.0
1001
ACAD
1000
AcDbSavedByObjectVersion
1070
     0
  0
VISUALSTYLE
  5
37
102
{ACAD_REACTORS
330
2A
102
}
330
2A
100
AcDbVisualStyle
  2
Thicken
 70
    13
 71
     2
 72
     2
 73
     0
 90
        0
 40
-0.6
 41
-30.0
 62
     5
 63
     7
421
 16777215
 74
     1
 91
        4
 64
     7
 65
   257
 75
     1
175
     1
 42
1.0
 92
       12
 66
     7
 43
1.0
 76
     1
 77
     6
 78
     2
 67
     7
 79
     5
170
     0
171
     0
290
     0
174
     0
 93
        1
 44
0.0
173
     0
291
     1
 45
0.0
1001
ACAD
1000
AcDbSavedByObjectVersion
1070
     0
  0
ENDSEC
  0
EOF
