   0
SECTION
   2
ENTITIES
  0
LINE
  8
0
  6
CONTINUOUS
 62
6
 10
83.95521564
 20
46.36471863
 30
0.00000000
 11
81.36958678
 21
45.37024599
 31
0.00000000
  0
LINE
  8
0
  6
CONTINUOUS
 62
6
 10
81.36958678
 20
45.37024599
 30
0.00000000
 11
78.58506639
 21
44.57467405
 31
0.00000000
  0
ARC
  8
0
  6
CONTINUOUS
 62
6
 10
82.26482777
 20
52.03349299
 30
0.00000000
 40
8.31712833
 50
221.12195303
 51
243.74086244
  0
LINE
  8
0
  6
CONTINUOUS
 62
6
 10
75.99943967
 20
46.56361770
 30
0.00000000
 11
75.20385641
 21
50.93929278
 31
0.00000000
  0
LINE
  8
0
  6
CONTINUOUS
 62
6
 10
75.20385641
 20
50.93929278
 30
0.00000000
 11
73.81159471
 21
51.13818730
 31
0.00000000
  0
LINE
  8
0
  6
CONTINUOUS
 62
6
 10
73.81159471
 20
51.13818730
 30
0.00000000
 11
72.22049074
 21
51.73490843
 31
0.00000000
  0
ARC
  8
0
  6
CONTINUOUS
 62
6
 10
67.97885018
 20
51.19184869
 30
0.00000000
 40
4.27626339
 50
7.29592074
 51
36.30689775
  0
LINE
  8
0
  6
CONTINUOUS
 62
6
 10
71.42490698
 20
53.72386786
 30
0.00000000
 11
71.02707132
 21
54.91718334
 31
0.00000000
  0
LINE
  8
0
  6
CONTINUOUS
 62
6
 10
71.02707132
 20
54.91718334
 30
0.00000000
 11
70.53819259
 21
57.19699853
 31
0.00000000
  0
ARC
  8
0
  6
CONTINUOUS
 62
6
 10
69.28936052
 20
57.24851738
 30
0.00000000
 40
1.24989428
 50
357.63768077
 51
452.39766905
  0
ARC
  8
0
  6
CONTINUOUS
 62
6
 10
49.34605102
 20
7.70287413
 30
0.00000000
 40
54.55023512
 50
68.61477092
 51
72.85295171
  0
ARC
  8
0
  6
CONTINUOUS
 62
6
 10
63.27064531
 20
23.68540453
 30
0.00000000
 40
36.20739224
 50
86.58279441
 51
100.44481035
  0
LINE
  8
0
  6
CONTINUOUS
 62
6
 10
56.70666765
 20
59.29283985
 30
0.00000000
 11
55.11550908
 21
61.67959729
 31
0.00000000
  0
LINE
  8
0
  6
CONTINUOUS
 62
6
 10
55.11550908
 20
61.67959729
 30
0.00000000
 11
52.92766927
 21
62.67406993
 31
0.00000000
  0
LINE
  8
0
  6
CONTINUOUS
 62
6
 10
52.92766927
 20
62.67406993
 30
0.00000000
 11
51.13761852
 21
62.27628087
 31
0.00000000
  0
LINE
  8
0
  6
CONTINUOUS
 62
6
 10
51.13761852
 20
62.27628087
 30
0.00000000
 11
50.14314588
 21
61.48070276
 31
0.00000000
  0
LINE
  8
0
  6
CONTINUOUS
 62
6
 10
50.14314588
 20
61.48070276
 30
0.00000000
 11
46.76193890
 21
62.87296446
 31
0.00000000
  0
LINE
  8
0
  6
CONTINUOUS
 62
6
 10
46.76193890
 20
62.87296446
 30
0.00000000
 11
43.21536606
 21
64.33149457
 31
0.00000000
  0
ARC
  8
0
  6
CONTINUOUS
 62
6
 10
-20.26470823
 20
-61.23537388
 30
0.00000000
 40
140.70095339
 50
63.18121378
 51
79.96662386
  0
ARC
  8
0
  6
CONTINUOUS
 62
6
 10
-9.15901185
 20
9.41207615
 30
0.00000000
 40
69.21270963
 50
78.83038337
 51
94.75410867
  0
ARC
  8
0
  6
CONTINUOUS
 62
6
 10
-13.69985369
 20
52.45598670
 30
0.00000000
 40
25.95822018
 50
92.63964429
 51
117.87002375
  0
ARC
  8
0
  6
CONTINUOUS
 62
6
 10
-16.38271848
 20
55.69848990
 30
0.00000000
 40
21.85442925
 50
115.62549462
 51
223.15763932
  0
ARC
  8
0
  6
CONTINUOUS
 62
6
 10
26.27416539
 20
100.33119427
 30
0.00000000
 40
83.56907758
 50
225.47616308
 51
247.91257800
  0
LINE
  8
0
  6
CONTINUOUS
 62
6
 10
-5.14955066
 20
22.89515101
 30
0.00000000
 11
101.06014505
 21
-11.91137807
 31
0.00000000
  0
LINE
  8
0
  6
CONTINUOUS
 62
6
 10
115.77834012
 20
-15.29258505
 30
0.00000000
 11
102.25351222
 21
-10.91690543
 31
0.00000000
  0
LINE
  8
0
  6
CONTINUOUS
 62
6
 10
117.76728540
 20
-15.69037410
 30
0.00000000
 11
115.77834012
 21
-15.29258505
 31
0.00000000
  0
LINE
  8
0
  6
CONTINUOUS
 62
6
 10
120.94959785
 20
-15.29258505
 30
0.00000000
 11
117.76728540
 21
-15.69037410
 31
0.00000000
  0
LINE
  8
0
  6
CONTINUOUS
 62
6
 10
125.72306652
 20
-15.69037410
 30
0.00000000
 11
123.53522671
 21
-15.49147958
 31
0.00000000
  0
LINE
  8
0
  6
CONTINUOUS
 62
6
 10
123.53522671
 20
-15.49147958
 30
0.00000000
 11
120.94959785
 21
-15.29258505
 31
0.00000000
  0
LINE
  8
0
  6
CONTINUOUS
 62
6
 10
135.78040371
 20
-8.98502097
 30
0.00000000
 11
135.46893175
 21
-12.30912959
 31
0.00000000
  0
ARC
  8
0
  6
CONTINUOUS
 62
6
 10
123.41400785
 20
1.07851641
 30
0.00000000
 40
18.01527839
 50
284.00868132
 51
312.00149679
  0
LINE
  8
0
  6
CONTINUOUS
 62
6
 10
127.77494665
 20
-16.40097067
 30
0.00000000
 11
125.72306652
 21
-15.69037410
 31
0.00000000
  0
LINE
  8
0
  6
CONTINUOUS
 62
6
 10
128.90537897
 20
-12.50806166
 30
0.00000000
 11
132.48548047
 21
-9.52464374
 31
0.00000000
  0
LINE
  8
0
  6
CONTINUOUS
 62
6
 10
129.89985161
 20
-10.12132732
 30
0.00000000
 11
131.68990236
 21
-12.90585071
 31
0.00000000
  0
ARC
  8
0
  6
CONTINUOUS
 62
6
 10
105.91208692
 20
3.33627884
 30
0.00000000
 40
1.88586281
 50
264.43507384
 51
323.33365626
  0
LINE
  8
0
  6
CONTINUOUS
 62
6
 10
107.42478756
 20
2.21012819
 30
0.00000000
 11
120.11610430
 21
-1.18348581
 31
0.00000000
  0
ARC
  8
0
  6
CONTINUOUS
 62
6
 10
172.46321615
 20
15.93386310
 30
0.00000000
 40
55.07471065
 50
198.10758984
 51
215.29718729
  0
ARC
  8
0
  6
CONTINUOUS
 62
6
 10
103.76399798
 20
11.93346263
 30
0.00000000
 40
10.65692474
 50
260.76971774
 51
280.62655253
  0
LINE
  8
0
  6
CONTINUOUS
 62
6
 10
100.66235599
 20
3.00571153
 30
0.00000000
 11
99.71611528
 21
4.04456251
 31
0.00000000
  0
LINE
  8
0
  6
CONTINUOUS
 62
6
 10
99.71611528
 20
4.04456251
 30
0.00000000
 11
97.67893807
 21
4.79576228
 31
0.00000000
  0
LINE
  8
0
  6
CONTINUOUS
 62
6
 10
97.67893807
 20
4.79576228
 30
0.00000000
 11
96.28668751
 21
5.19356239
 31
0.00000000
  0
ARC
  8
0
  6
CONTINUOUS
 62
6
 10
112.74620117
 20
44.07801476
 30
0.00000000
 40
42.22459267
 50
239.81080708
 51
247.05740319
  0
ARC
  8
0
  6
CONTINUOUS
 62
6
 10
108.20007820
 20
33.22402601
 30
0.00000000
 40
30.59488854
 50
228.16187562
 51
236.94720795
  0
LINE
  8
0
  6
CONTINUOUS
 62
6
 10
87.79241989
 20
10.42984501
 30
0.00000000
 11
84.94968224
 21
12.15487799
 31
0.00000000
  0
ARC
  8
0
  6
CONTINUOUS
 62
6
 10
81.76710951
 20
21.70338138
 30
0.00000000
 40
10.06492356
 50
272.24719764
 51
288.43353531
  0
LINE
  8
0
  6
CONTINUOUS
 62
6
 10
82.16176466
 20
11.64619820
 30
0.00000000
 11
80.17621961
 21
12.55264887
 31
0.00000000
  0
LINE
  8
0
  6
CONTINUOUS
 62
6
 10
80.17621961
 20
12.55264887
 30
0.00000000
 11
79.18173920
 21
14.14379922
 31
0.00000000
  0
ARC
  8
0
  6
CONTINUOUS
 62
6
 10
75.40303888
 20
10.76283924
 30
0.00000000
 40
5.07045033
 50
41.82031797
 51
64.44183742
  0
ARC
  8
0
  6
CONTINUOUS
 62
6
 10
92.70229711
 20
46.15855678
 30
0.00000000
 40
34.32672994
 50
233.98008380
 51
243.88130891
  0
ARC
  8
0
  6
CONTINUOUS
 62
6
 10
-4.37562083
 20
-41.92911582
 30
0.00000000
 40
97.73057000
 50
38.11528301
 51
41.10494124
  0
ARC
  8
0
  6
CONTINUOUS
 62
6
 10
55.93500283
 20
25.28963810
 30
0.00000000
 40
13.65616661
 50
347.45268083
 51
409.18211385
  0
LINE
  8
0
  6
CONTINUOUS
 62
6
 10
66.45249718
 20
34.62994148
 30
0.00000000
 11
68.04365340
 21
34.03325790
 31
0.00000000
  0
LINE
  8
0
  6
CONTINUOUS
 62
6
 10
68.04365340
 20
34.03325790
 30
0.00000000
 11
73.41380566
 21
32.64099620
 31
0.00000000
  0
LINE
  8
0
  6
CONTINUOUS
 62
6
 10
98.54350772
 20
31.26831318
 30
0.00000000
 11
93.72292591
 21
31.16159384
 31
0.00000000
  0
LINE
  8
0
  6
CONTINUOUS
 62
6
 10
93.72292591
 20
31.16159384
 30
0.00000000
 11
90.00968938
 21
29.44836610
 31
0.00000000
  0
LINE
  8
0
  6
CONTINUOUS
 62
6
 10
90.00968938
 20
29.44836610
 30
0.00000000
 11
86.09370474
 21
29.37838009
 31
0.00000000
  0
LINE
  8
0
  6
CONTINUOUS
 62
6
 10
86.09370474
 20
29.37838009
 30
0.00000000
 11
82.45729123
 21
28.46930778
 31
0.00000000
  0
LINE
  8
0
  6
CONTINUOUS
 62
6
 10
82.45729123
 20
28.46930778
 30
0.00000000
 11
78.39872488
 21
28.88411335
 31
0.00000000
  0
ARC
  8
0
  6
CONTINUOUS
 62
6
 10
84.94917046
 20
40.39749889
 30
0.00000000
 40
13.24637248
 50
221.34802620
 51
240.36264561
  0
LINE
  8
0
  6
CONTINUOUS
 62
6
 10
75.00497761
 20
31.64653251
 30
0.00000000
 11
76.59611810
 21
35.22662506
 31
0.00000000
  0
CIRCLE
  8
0
  6
CONTINUOUS
 62
6
 10
98.39781748
 20
31.59866456
 30
0.00000000
 40
0.23457123
  0
ARC
  8
0
  6
CONTINUOUS
 62
6
 10
116.09669567
 20
-117.61437221
 30
0.00000000
 40
145.82760329
 50
96.66581100
 51
108.22652200
  0
LINE
  8
0
  6
CONTINUOUS
 62
6
 10
98.32049723
 20
22.06589846
 30
0.00000000
 11
99.07125225
 21
24.28744686
 31
0.00000000
  0
ARC
  8
0
  6
CONTINUOUS
 62
6
 10
96.35743134
 20
-41.58733013
 30
0.00000000
 40
65.93065347
 50
87.64093911
 51
112.04088863
  0
ARC
  8
0
  6
CONTINUOUS
 62
6
 10
65.65819038
 20
26.87308503
 30
0.00000000
 40
33.51295400
 50
355.57503413
 51
370.24442342
  0
LINE
  8
0
  6
CONTINUOUS
 62
6
 10
98.63688127
 20
32.83328910
 30
0.00000000
 11
97.87783260
 21
37.61335940
 31
0.00000000
  0
LINE
  8
0
  6
CONTINUOUS
 62
6
 10
97.87783260
 20
37.61335940
 30
0.00000000
 11
96.28667763
 21
40.39790846
 31
0.00000000
  0
ARC
  8
0
  6
CONTINUOUS
 62
6
 10
82.76530947
 20
77.87014739
 30
0.00000000
 40
39.83711947
 50
244.24962490
 51
289.84131663
  0
ARC
  8
0
  6
CONTINUOUS
 62
6
 10
68.58119453
 20
43.78205642
 30
0.00000000
 40
3.60126274
 50
150.01848172
 51
209.86025174
  0
ARC
  8
0
  6
CONTINUOUS
 62
6
 10
55.51896798
 20
48.55136939
 30
0.00000000
 40
10.37687465
 50
343.37040993
 51
354.51125254
  0
LINE
  8
0
  6
CONTINUOUS
 62
6
 10
65.84826469
 20
47.55881862
 30
0.00000000
 11
65.85581359
 21
52.72934353
 31
0.00000000
  0
LINE
  8
0
  6
CONTINUOUS
 62
6
 10
65.85581359
 20
52.72934353
 30
0.00000000
 11
63.46907926
 21
53.32602711
 31
0.00000000
  0
LINE
  8
0
  6
CONTINUOUS
 62
6
 10
63.46907926
 20
53.32602711
 30
0.00000000
 11
61.48017191
 21
53.52495181
 31
0.00000000
  0
ARC
  8
0
  6
CONTINUOUS
 62
6
 10
55.54963496
 20
55.36308304
 30
0.00000000
 40
6.20886423
 50
311.87298666
 51
342.77951848
  0
ARC
  8
0
  6
CONTINUOUS
 62
6
 10
59.49144627
 20
55.91075629
 30
0.00000000
 40
5.17492020
 50
206.66538254
 51
272.24251695
  0
ARC
  8
0
  6
CONTINUOUS
 62
6
 10
99.86441387
 20
37.23181193
 30
0.00000000
 40
47.87808919
 50
157.74812956
 51
160.02384181
  0
LINE
  8
0
  6
CONTINUOUS
 62
6
 10
55.55189493
 20
55.36223080
 30
0.00000000
 11
54.31993904
 21
55.91162774
 31
0.00000000
  0
ARC
  8
0
  6
CONTINUOUS
 62
6
 10
53.12657398
 20
60.08760517
 30
0.00000000
 40
4.34314490
 50
254.05135944
 51
285.94829622
  0
ARC
  8
0
  6
CONTINUOUS
 62
6
 10
47.95494803
 20
52.72914871
 30
0.00000000
 40
5.09456362
 50
38.65890867
 51
62.74933050
  0
LINE
  8
0
  6
CONTINUOUS
 62
6
 10
50.28766875
 20
57.25827584
 30
0.00000000
 11
48.94443342
 21
57.90607086
 31
0.00000000
  0
LINE
  8
0
  6
CONTINUOUS
 62
6
 10
48.94443342
 20
57.90607086
 30
0.00000000
 11
47.75640103
 21
58.29841629
 31
0.00000000
  0
LINE
  8
0
  6
CONTINUOUS
 62
6
 10
47.75640103
 20
58.29841629
 30
0.00000000
 11
45.76744977
 21
61.48069024
 31
0.00000000
  0
ARC
  8
0
  6
CONTINUOUS
 62
6
 10
-77.76015171
 20
-214.61935649
 30
0.00000000
 40
302.47364204
 50
65.89618173
 51
68.83518763
  0
LINE
  8
0
  6
CONTINUOUS
 62
6
 10
31.44853887
 20
67.45114185
 30
0.00000000
 11
30.65148214
 21
66.05527690
 31
0.00000000
  0
LINE
  8
0
  6
CONTINUOUS
 62
6
 10
30.65148214
 20
66.05527690
 30
0.00000000
 11
29.45811497
 21
66.65196049
 31
0.00000000
  0
LINE
  8
0
  6
CONTINUOUS
 62
6
 10
29.45811497
 20
66.65196049
 30
0.00000000
 11
29.85590501
 21
68.04421016
 31
0.00000000
  0
ARC
  8
0
  6
CONTINUOUS
 62
6
 10
-19.66907810
 20
-56.66376410
 30
0.00000000
 40
134.18197642
 50
68.34060527
 51
77.07534594
  0
LINE
  8
0
  6
CONTINUOUS
 62
6
 10
10.34334145
 20
74.11871741
 30
0.00000000
 11
9.96645122
 21
72.61879633
 31
0.00000000
  0
LINE
  8
0
  6
CONTINUOUS
 62
6
 10
9.96645122
 20
72.61879633
 30
0.00000000
 11
8.37529500
 21
73.01658538
 31
0.00000000
  0
LINE
  8
0
  6
CONTINUOUS
 62
6
 10
8.37529500
 20
73.01658538
 30
0.00000000
 11
8.77310194
 21
74.40883630
 31
0.00000000
  0
ARC
  8
0
  6
CONTINUOUS
 62
6
 10
-9.19860421
 20
6.55703792
 30
0.00000000
 40
70.19151492
 50
75.16489044
 51
92.21536632
  0
ARC
  8
0
  6
CONTINUOUS
 62
6
 10
-12.53325726
 20
50.10295228
 30
0.00000000
 40
26.60039617
 50
88.66153839
 51
136.41520328
  0
LINE
  8
0
  6
CONTINUOUS
 62
6
 10
-31.80138257
 20
68.44199325
 30
0.00000000
 11
-30.60803249
 21
67.24864407
 31
0.00000000
  0
LINE
  8
0
  6
CONTINUOUS
 62
6
 10
-30.60803249
 20
67.24864407
 30
0.00000000
 11
-31.60250513
 21
66.05527690
 31
0.00000000
  0
LINE
  8
0
  6
CONTINUOUS
 62
6
 10
-31.60250513
 20
66.05527690
 30
0.00000000
 11
-32.59700353
 21
67.04978510
 31
0.00000000
  0
ARC
  8
0
  6
CONTINUOUS
 62
6
 10
-18.50063742
 20
55.76819966
 30
0.00000000
 40
18.05496351
 50
141.32905914
 51
212.12992543
  0
LINE
  8
0
  6
CONTINUOUS
 62
6
 10
-33.79037959
 20
46.16583060
 30
0.00000000
 11
-32.59697777
 21
47.16029674
 31
0.00000000
  0
LINE
  8
0
  6
CONTINUOUS
 62
6
 10
-32.59697777
 20
47.16029674
 30
0.00000000
 11
-31.60250513
 21
45.96692958
 31
0.00000000
  0
LINE
  8
0
  6
CONTINUOUS
 62
6
 10
-31.60250513
 20
45.96692958
 30
0.00000000
 11
-32.99476617
 21
44.97244001
 31
0.00000000
  0
ARC
  8
0
  6
CONTINUOUS
 62
6
 10
0.21954871
 20
69.63435185
 30
0.00000000
 40
41.36907793
 50
216.59420112
 51
237.14956325
  0
LINE
  8
0
  6
CONTINUOUS
 62
6
 10
-22.22102241
 20
34.88062721
 30
0.00000000
 11
-21.25998967
 21
36.22109770
 31
0.00000000
  0
LINE
  8
0
  6
CONTINUOUS
 62
6
 10
-21.25998967
 20
36.22109770
 30
0.00000000
 11
-20.06662250
 21
35.42551959
 31
0.00000000
  0
LINE
  8
0
  6
CONTINUOUS
 62
6
 10
-20.06662250
 20
35.42551959
 30
0.00000000
 11
-20.86221181
 21
34.03324208
 31
0.00000000
  0
ARC
  8
0
  6
CONTINUOUS
 62
6
 10
42.58381398
 20
127.31218749
 30
0.00000000
 40
112.81116898
 50
235.77743403
 51
245.10510252
  0
LINE
  8
0
  6
CONTINUOUS
 62
6
 10
-3.55837668
 20
25.67968772
 30
0.00000000
 11
100.86125052
 21
-9.12685468
 31
0.00000000
  0
LINE
  8
0
  6
CONTINUOUS
 62
6
 10
100.86125052
 20
-9.12685468
 30
0.00000000
 11
100.06567241
 21
-2.16554620
 31
0.00000000
  0
LINE
  8
0
  6
CONTINUOUS
 62
6
 10
100.06567241
 20
-2.16554620
 30
0.00000000
 11
100.66235599
 21
3.00571153
 31
0.00000000
  0
LINE
  8
0
  6
CONTINUOUS
 62
6
 10
106.23140278
 20
6.78470756
 30
0.00000000
 11
103.64577391
 21
7.18249662
 31
0.00000000
  0
LINE
  8
0
  6
CONTINUOUS
 62
6
 10
103.64577391
 20
7.18249662
 30
0.00000000
 11
101.65744140
 21
7.28524729
 31
0.00000000
  0
LINE
  8
0
  6
CONTINUOUS
 62
6
 10
121.14850135
 20
1.01675987
 30
0.00000000
 11
107.62366447
 21
4.39797322
 31
0.00000000
  0
LINE
  8
0
  6
CONTINUOUS
 62
6
 10
107.62366447
 20
4.39797322
 30
0.00000000
 11
107.22587542
 21
5.59134039
 31
0.00000000
  0
LINE
  8
0
  6
CONTINUOUS
 62
6
 10
107.22587542
 20
5.59134039
 30
0.00000000
 11
106.23140278
 21
6.78470756
 31
0.00000000
  0
LINE
  8
0
  6
CONTINUOUS
 62
6
 10
130.09874614
 20
-20.06605372
 30
0.00000000
 11
131.68990236
 21
-19.27047561
 31
0.00000000
  0
LINE
  8
0
  6
CONTINUOUS
 62
6
 10
131.68990236
 20
-19.27047561
 30
0.00000000
 11
133.57727229
 21
-18.70739540
 31
0.00000000
  0
ARC
  8
0
  6
CONTINUOUS
 62
6
 10
135.21422432
 20
-10.62216529
 30
0.00000000
 40
8.24927620
 50
258.55449401
 51
305.45428961
  0
ARC
  8
0
  6
CONTINUOUS
 62
6
 10
123.73595234
 20
6.78597903
 30
0.00000000
 40
29.09719444
 50
303.98182464
 51
345.09098977
  0
ARC
  8
0
  6
CONTINUOUS
 62
6
 10
147.40268225
 20
0.02230878
 30
0.00000000
 40
4.50919989
 50
350.77865474
 51
401.42438436
  0
ARC
  8
0
  6
CONTINUOUS
 62
6
 10
144.34424334
 20
-6.11012623
 30
0.00000000
 40
11.16095868
 50
54.76208969
 51
97.36203076
  0
ARC
  8
0
  6
CONTINUOUS
 62
6
 10
141.16079707
 20
19.08875578
 30
0.00000000
 40
14.23829366
 50
257.35236629
 51
277.07333714
  0
ARC
  8
0
  6
CONTINUOUS
 62
6
 10
136.26274615
 20
-23.84503637
 30
0.00000000
 40
29.09552041
 50
86.49156913
 51
121.29669489
  0
ARC
  8
0
  6
CONTINUOUS
 62
6
 10
126.87920242
 20
-17.88626801
 30
0.00000000
 40
1.73441758
 50
308.61496799
 51
58.90616671
  0
LINE
  8
0
  6
CONTINUOUS
 62
6
 10
127.77494012
 20
-16.40099608
 30
0.00000000
 11
127.17338056
 21
-18.05050630
 31
0.00000000
  0
ARC
  8
0
  6
CONTINUOUS
 62
6
 10
123.14812824
 20
-17.80947099
 30
0.00000000
 40
2.26018769
 50
316.20698800
 51
13.80285100
  0
CIRCLE
  8
0
  6
CONTINUOUS
 62
6
 10
121.05364455
 20
-18.11651442
 30
0.00000000
 40
0.27347998
  0
LINE
  8
0
  6
CONTINUOUS
 62
6
 10
117.76728540
 20
-15.69037410
 30
0.00000000
 11
119.15954710
 21
-17.08263580
 31
0.00000000
  0
LINE
  8
0
  6
CONTINUOUS
 62
6
 10
119.15954710
 20
-17.08263580
 30
0.00000000
 11
119.95512521
 21
-18.07710844
 31
0.00000000
  0
LINE
  8
0
  6
CONTINUOUS
 62
6
 10
119.95512521
 20
-18.07710844
 30
0.00000000
 11
120.94959785
 21
-18.87268655
 31
0.00000000
  0
LINE
  8
0
  6
CONTINUOUS
 62
6
 10
120.94959785
 20
-18.87268655
 30
0.00000000
 11
122.14296502
 21
-19.66826466
 31
0.00000000
  0
LINE
  8
0
  6
CONTINUOUS
 62
6
 10
122.14296502
 20
-19.66826466
 30
0.00000000
 11
124.52969935
 21
-20.86163183
 31
0.00000000
  0
LINE
  8
0
  6
CONTINUOUS
 62
6
 10
124.52969935
 20
-20.86163183
 30
0.00000000
 11
126.51864463
 21
-21.65720994
 31
0.00000000
  0
LINE
  8
0
  6
CONTINUOUS
 62
6
 10
126.51864463
 20
-21.65720994
 30
0.00000000
 11
132.28658594
 21
-20.66273730
 31
0.00000000
  0
LINE
  8
0
  6
CONTINUOUS
 62
6
 10
132.28658594
 20
-20.66273730
 30
0.00000000
 11
134.07241185
 21
-18.93984176
 31
0.00000000
  0
ARC
  8
0
  6
CONTINUOUS
 62
6
 10
123.33185444
 20
-8.15142686
 30
0.00000000
 40
15.22331993
 50
314.87263545
 51
340.21793686
  0
ARC
  8
0
  6
CONTINUOUS
 62
6
 10
132.42808789
 20
-10.35583278
 30
0.00000000
 40
6.00242242
 50
330.58669969
 51
369.08908232
  0
ARC
  8
0
  6
CONTINUOUS
 62
6
 10
122.25404276
 20
-3.59602231
 30
0.00000000
 40
17.11783381
 50
328.65434941
 51
340.15321653
  0
ARC
  8
0
  6
CONTINUOUS
 62
6
 10
132.90516994
 20
-10.72399409
 30
0.00000000
 40
4.34785914
 50
335.88039999
 51
377.66316023
  0
ARC
  8
0
  6
CONTINUOUS
 62
6
 10
141.10155756
 20
-12.15051970
 30
0.00000000
 40
4.89592052
 50
145.88712306
 51
181.98802644
  0
ARC
  8
0
  6
CONTINUOUS
 62
6
 10
124.88493544
 20
-12.07889266
 30
0.00000000
 40
11.32622276
 50
358.77838871
 51
375.85239832
  0
LINE
  8
0
  6
CONTINUOUS
 62
6
 10
135.78040592
 20
-8.98502048
 30
0.00000000
 11
137.25653565
 21
-9.43577018
 31
0.00000000
  0
LINE
  8
0
  6
CONTINUOUS
 62
6
 10
137.25653565
 20
-9.43577018
 30
0.00000000
 11
140.04347254
 21
-10.32022185
 31
0.00000000
  0
LINE
  8
0
  6
CONTINUOUS
 62
6
 10
140.04347254
 20
-10.32022185
 30
0.00000000
 11
139.24789442
 21
-11.51358902
 31
0.00000000
  0
LINE
  8
0
  6
CONTINUOUS
 62
6
 10
139.24789442
 20
-11.51358902
 30
0.00000000
 11
137.95513133
 21
-12.90583085
 31
0.00000000
  0
ARC
  8
0
  6
CONTINUOUS
 62
6
 10
121.43890666
 20
-0.24622488
 30
0.00000000
 40
20.80988469
 50
322.53001051
 51
335.94374897
  0
LINE
  8
0
  6
CONTINUOUS
 62
6
 10
134.87221481
 20
-1.56886262
 30
0.00000000
 11
137.65673820
 21
-4.35338601
 31
0.00000000
  0
LINE
  8
0
  6
CONTINUOUS
 62
6
 10
135.07110934
 20
-4.95006959
 30
0.00000000
 11
137.06005462
 21
-1.36996809
 31
0.00000000
  0
LINE
  8
0
  6
CONTINUOUS
 62
6
 10
129.80376069
 20
-5.79238792
 30
0.00000000
 11
132.60096361
 21
-4.11409103
 31
0.00000000
  0
LINE
  8
0
  6
CONTINUOUS
 62
6
 10
124.33080482
 20
-6.93901487
 30
0.00000000
 11
125.72306652
 21
-5.74564770
 31
0.00000000
  0
LINE
  8
0
  6
CONTINUOUS
 62
6
 10
125.72306652
 20
-5.74564770
 30
0.00000000
 11
126.31975010
 21
-8.33127657
 31
0.00000000
  0
LINE
  8
0
  6
CONTINUOUS
 62
6
 10
129.50206255
 20
1.21566078
 30
0.00000000
 11
126.31975010
 21
-1.96665167
 31
0.00000000
  0
LINE
  8
0
  6
CONTINUOUS
 62
6
 10
128.30869538
 20
-1.36996809
 30
0.00000000
 11
126.12085558
 21
1.01676625
 31
0.00000000
  0
LINE
  8
0
  6
CONTINUOUS
 62
6
 10
128.70648444
 20
5.79023492
 30
0.00000000
 11
128.90537897
 21
8.57475831
 31
0.00000000
  0
LINE
  8
0
  6
CONTINUOUS
 62
6
 10
128.90537897
 20
8.57475831
 30
0.00000000
 11
128.30869538
 21
10.16591454
 31
0.00000000
  0
LINE
  8
0
  6
CONTINUOUS
 62
6
 10
139.04899990
 20
-15.49147958
 30
0.00000000
 11
141.43574461
 21
-13.90033080
 31
0.00000000
  0
ARC
  8
0
  6
CONTINUOUS
 62
6
 10
135.66665741
 20
-10.12063689
 30
0.00000000
 40
6.89698870
 50
326.76865643
 51
346.98684842
  0
ARC
  8
0
  6
CONTINUOUS
 62
6
 10
125.92209216
 20
-10.32121754
 30
0.00000000
 40
16.51988228
 50
355.30406383
 51
419.15524653
  0
LINE
  8
0
  6
CONTINUOUS
 62
6
 10
145.61251932
 20
-5.14896412
 30
0.00000000
 11
146.01030838
 21
-1.96665167
 31
0.00000000
  0
LINE
  8
0
  6
CONTINUOUS
 62
6
 10
144.02136310
 20
-3.75670242
 30
0.00000000
 11
147.60146460
 21
-3.95559695
 31
0.00000000
  0
LINE
  8
0
  6
CONTINUOUS
 62
6
 10
143.82246857
 20
-0.17660092
 30
0.00000000
 11
142.43020687
 21
2.50847521
 31
0.00000000
  0
LINE
  8
0
  6
CONTINUOUS
 62
6
 10
142.43020687
 20
2.50847521
 30
0.00000000
 11
145.21473026
 21
1.81234436
 31
0.00000000
  0
LINE
  8
0
  6
CONTINUOUS
 62
6
 10
149.19262082
 20
5.59134039
 30
0.00000000
 11
151.57935516
 21
5.79023492
 31
0.00000000
  0
LINE
  8
0
  6
CONTINUOUS
 62
6
 10
151.57935516
 20
5.79023492
 30
0.00000000
 11
153.17051138
 21
6.58581303
 31
0.00000000
  0
LINE
  8
0
  6
CONTINUOUS
 62
6
 10
153.46885318
 20
12.65209614
 30
0.00000000
 11
152.97161686
 21
9.17144190
 31
0.00000000
  0
LINE
  8
0
  6
CONTINUOUS
 62
6
 10
155.15945666
 20
16.72943396
 30
0.00000000
 11
153.46885318
 21
12.65209614
 31
0.00000000
  0
LINE
  8
0
  6
CONTINUOUS
 62
6
 10
155.75614025
 20
15.33717226
 30
0.00000000
 11
156.35282383
 21
13.34822698
 31
0.00000000
  0
LINE
  8
0
  6
CONTINUOUS
 62
6
 10
156.35282383
 20
13.34822698
 30
0.00000000
 11
155.75614025
 21
11.55817623
 31
0.00000000
  0
LINE
  8
0
  6
CONTINUOUS
 62
6
 10
155.75614025
 20
11.55817623
 30
0.00000000
 11
153.76719497
 21
14.54159415
 31
0.00000000
  0
LINE
  8
0
  6
CONTINUOUS
 62
6
 10
155.75614025
 20
11.55817623
 30
0.00000000
 11
156.15392930
 21
9.56923095
 31
0.00000000
  0
LINE
  8
0
  6
CONTINUOUS
 62
6
 10
156.15392930
 20
9.56923095
 30
0.00000000
 11
156.75061289
 21
7.18249662
 31
0.00000000
  0
LINE
  8
0
  6
CONTINUOUS
 62
6
 10
156.75061289
 20
7.18249662
 30
0.00000000
 11
157.14840194
 21
4.79576228
 31
0.00000000
  0
LINE
  8
0
  6
CONTINUOUS
 62
6
 10
157.14840194
 20
4.79576228
 30
0.00000000
 11
157.54619100
 21
2.21013342
 31
0.00000000
  0
LINE
  8
0
  6
CONTINUOUS
 62
6
 10
157.54619100
 20
-4.85062233
 30
0.00000000
 11
158.14287458
 21
-8.62961836
 31
0.00000000
  0
LINE
  8
0
  6
CONTINUOUS
 62
6
 10
158.14287458
 20
-8.62961836
 30
0.00000000
 11
158.34176911
 21
-13.00529798
 31
0.00000000
  0
LINE
  8
0
  6
CONTINUOUS
 62
6
 10
155.55724572
 20
-11.31469449
 30
0.00000000
 11
154.76172078
 21
-13.90033520
 31
0.00000000
  0
ARC
  8
0
  6
CONTINUOUS
 62
6
 10
154.83932203
 20
-11.39799180
 30
0.00000000
 40
2.61643812
 50
210.01898323
 51
263.93327604
  0
LINE
  8
0
  6
CONTINUOUS
 62
6
 10
154.56279967
 20
-13.99977654
 30
0.00000000
 11
154.76167299
 21
-15.49149844
 31
0.00000000
  0
ARC
  8
0
  6
CONTINUOUS
 62
6
 10
152.54147733
 20
-15.12726999
 30
0.00000000
 40
2.24987359
 50
316.18718458
 51
350.68347674
  0
LINE
  8
0
  6
CONTINUOUS
 62
6
 10
154.16499825
 20
-16.68486781
 30
0.00000000
 11
152.97161686
 21
-15.88926863
 31
0.00000000
  0
LINE
  8
0
  6
CONTINUOUS
 62
6
 10
152.97161686
 20
-15.88926863
 30
0.00000000
 11
152.37494623
 21
-12.60751159
 31
0.00000000
  0
LINE
  8
0
  6
CONTINUOUS
 62
6
 10
152.37494623
 20
-12.60751159
 30
0.00000000
 11
152.57382780
 21
-8.13238204
 31
0.00000000
  0
LINE
  8
0
  6
CONTINUOUS
 62
6
 10
140.24236706
 20
18.51948471
 30
0.00000000
 11
140.04347254
 21
15.73496132
 31
0.00000000
  0
LINE
  8
0
  6
CONTINUOUS
 62
6
 10
140.04347254
 20
15.73496132
 30
0.00000000
 11
139.24789442
 21
10.96149265
 31
0.00000000
  0
LINE
  8
0
  6
CONTINUOUS
 62
6
 10
139.24789442
 20
10.96149265
 30
0.00000000
 11
138.85010537
 21
7.97807473
 31
0.00000000
  0
LINE
  8
0
  6
CONTINUOUS
 62
6
 10
138.85010537
 20
7.97807473
 30
0.00000000
 11
140.44126159
 21
7.97807473
 31
0.00000000
  0
LINE
  8
0
  6
CONTINUOUS
 62
6
 10
140.44126159
 20
7.97807473
 30
0.00000000
 11
140.64015612
 21
10.76259812
 31
0.00000000
  0
LINE
  8
0
  6
CONTINUOUS
 62
6
 10
140.64015612
 20
10.76259812
 30
0.00000000
 11
141.43573423
 21
16.33164490
 31
0.00000000
  0
LINE
  8
0
  6
CONTINUOUS
 62
6
 10
141.43573423
 20
16.33164490
 30
0.00000000
 11
142.03241782
 21
25.28189866
 31
0.00000000
  0
LINE
  8
0
  6
CONTINUOUS
 62
6
 10
142.03241782
 20
25.28189866
 30
0.00000000
 11
140.83905065
 21
26.47526583
 31
0.00000000
  0
LINE
  8
0
  6
CONTINUOUS
 62
6
 10
140.83905065
 20
26.47526583
 30
0.00000000
 11
140.64015612
 21
23.88963697
 31
0.00000000
  0
LINE
  8
0
  6
CONTINUOUS
 62
6
 10
140.64015612
 20
23.88963697
 30
0.00000000
 11
140.44126159
 21
21.10511358
 31
0.00000000
  0
LINE
  8
0
  6
CONTINUOUS
 62
6
 10
140.44126159
 20
21.10511358
 30
0.00000000
 11
140.24236706
 21
18.51948471
 31
0.00000000
  0
LINE
  8
0
  6
CONTINUOUS
 62
6
 10
140.83905065
 20
26.47526583
 30
0.00000000
 11
141.03794518
 21
29.25978922
 31
0.00000000
  0
LINE
  8
0
  6
CONTINUOUS
 62
6
 10
141.03794518
 20
29.25978922
 30
0.00000000
 11
142.23131234
 21
31.04983998
 31
0.00000000
  0
LINE
  8
0
  6
CONTINUOUS
 62
6
 10
142.23131234
 20
31.04983998
 30
0.00000000
 11
141.23683970
 21
34.03325790
 31
0.00000000
  0
LINE
  8
0
  6
CONTINUOUS
 62
6
 10
138.25342178
 20
32.44210167
 30
0.00000000
 11
138.85010537
 21
29.25978922
 31
0.00000000
  0
LINE
  8
0
  6
CONTINUOUS
 62
6
 10
138.85010537
 20
29.25978922
 30
0.00000000
 11
139.64568348
 21
35.62441412
 31
0.00000000
  0
LINE
  8
0
  6
CONTINUOUS
 62
6
 10
139.64568348
 20
35.62441412
 30
0.00000000
 11
139.64568348
 21
41.59124996
 31
0.00000000
  0
LINE
  8
0
  6
CONTINUOUS
 62
6
 10
139.64568348
 20
41.59124996
 30
0.00000000
 11
139.44678895
 21
44.37577335
 31
0.00000000
  0
LINE
  8
0
  6
CONTINUOUS
 62
6
 10
139.44678895
 20
44.37577335
 30
0.00000000
 11
139.24789442
 21
46.96140222
 31
0.00000000
  0
LINE
  8
0
  6
CONTINUOUS
 62
6
 10
139.24789442
 20
46.96140222
 30
0.00000000
 11
138.45231631
 21
49.24868929
 31
0.00000000
  0
LINE
  8
0
  6
CONTINUOUS
 62
6
 10
138.45231631
 20
49.24868929
 30
0.00000000
 11
138.45231631
 21
51.33708183
 31
0.00000000
  0
LINE
  8
0
  6
CONTINUOUS
 62
6
 10
138.45231631
 20
51.33708183
 30
0.00000000
 11
138.05452726
 21
52.92823806
 31
0.00000000
  0
LINE
  8
0
  6
CONTINUOUS
 62
6
 10
138.05452726
 20
52.92823806
 30
0.00000000
 11
137.45784367
 21
54.51939428
 31
0.00000000
  0
LINE
  8
0
  6
CONTINUOUS
 62
6
 10
137.45784367
 20
54.51939428
 30
0.00000000
 11
135.27000386
 21
55.31497239
 31
0.00000000
  0
LINE
  8
0
  6
CONTINUOUS
 62
6
 10
135.27000386
 20
55.31497239
 30
0.00000000
 11
134.67332028
 21
54.12160522
 31
0.00000000
  0
LINE
  8
0
  6
CONTINUOUS
 62
6
 10
134.67332028
 20
54.12160522
 30
0.00000000
 11
134.67332028
 21
51.73487089
 31
0.00000000
  0
LINE
  8
0
  6
CONTINUOUS
 62
6
 10
134.67332028
 20
51.73487089
 30
0.00000000
 11
137.45784367
 21
52.13265994
 31
0.00000000
  0
LINE
  8
0
  6
CONTINUOUS
 62
6
 10
138.05452726
 20
57.90060126
 30
0.00000000
 11
139.49653021
 21
60.88402125
 31
0.00000000
  0
ARC
  8
0
  6
CONTINUOUS
 62
6
 10
140.81998587
 20
58.77262936
 30
0.00000000
 40
2.49188896
 50
43.44618133
 51
122.08017212
  0
LINE
  8
0
  6
CONTINUOUS
 62
6
 10
142.62914866
 20
60.48623391
 30
0.00000000
 11
143.42467951
 21
58.49728484
 31
0.00000000
  0
LINE
  8
0
  6
CONTINUOUS
 62
6
 10
143.42467951
 20
58.49728484
 30
0.00000000
 11
143.82246857
 21
57.10502314
 31
0.00000000
  0
LINE
  8
0
  6
CONTINUOUS
 62
6
 10
143.82246857
 20
57.10502314
 30
0.00000000
 11
144.02136310
 21
55.71276145
 31
0.00000000
  0
LINE
  8
0
  6
CONTINUOUS
 62
6
 10
144.02136310
 20
55.71276145
 30
0.00000000
 11
144.22025762
 21
54.12160522
 31
0.00000000
  0
LINE
  8
0
  6
CONTINUOUS
 62
6
 10
144.22025762
 20
54.12160522
 30
0.00000000
 11
145.36390116
 21
52.67961990
 31
0.00000000
  0
LINE
  8
0
  6
CONTINUOUS
 62
6
 10
145.36390116
 20
52.67961990
 30
0.00000000
 11
145.41362479
 21
55.11607786
 31
0.00000000
  0
LINE
  8
0
  6
CONTINUOUS
 62
6
 10
145.41362479
 20
55.11607786
 30
0.00000000
 11
145.01583574
 21
57.30391767
 31
0.00000000
  0
LINE
  8
0
  6
CONTINUOUS
 62
6
 10
145.01583574
 20
57.30391767
 30
0.00000000
 11
144.61804668
 21
59.09396842
 31
0.00000000
  0
LINE
  8
0
  6
CONTINUOUS
 62
6
 10
144.61804668
 20
59.09396842
 30
0.00000000
 11
144.22025762
 21
60.68512465
 31
0.00000000
  0
LINE
  8
0
  6
CONTINUOUS
 62
6
 10
144.22025762
 20
60.68512465
 30
0.00000000
 11
143.02689046
 21
62.67406993
 31
0.00000000
  0
LINE
  8
0
  6
CONTINUOUS
 62
6
 10
143.02689046
 20
62.67406993
 30
0.00000000
 11
141.83352329
 21
63.46964804
 31
0.00000000
  0
LINE
  8
0
  6
CONTINUOUS
 62
6
 10
141.83352329
 20
63.46964804
 30
0.00000000
 11
140.34181433
 21
62.47517540
 31
0.00000000
  0
LINE
  8
0
  6
CONTINUOUS
 62
6
 10
140.34181433
 20
62.47517540
 30
0.00000000
 11
139.74516600
 21
60.88402332
 31
0.00000000
  0
LINE
  8
0
  6
CONTINUOUS
 62
6
 10
137.06005462
 20
64.66301521
 30
0.00000000
 11
138.05452726
 21
70.62985105
 31
0.00000000
  0
LINE
  8
0
  6
CONTINUOUS
 62
6
 10
138.25342178
 20
75.00553066
 30
0.00000000
 11
138.05452726
 21
78.58563217
 31
0.00000000
  0
LINE
  8
0
  6
CONTINUOUS
 62
6
 10
138.05452726
 20
78.58563217
 30
0.00000000
 11
137.85563273
 21
81.37015556
 31
0.00000000
  0
LINE
  8
0
  6
CONTINUOUS
 62
6
 10
137.85563273
 20
81.37015556
 30
0.00000000
 11
137.45784367
 21
83.16020631
 31
0.00000000
  0
LINE
  8
0
  6
CONTINUOUS
 62
6
 10
137.45784367
 20
83.16020631
 30
0.00000000
 11
135.07110934
 21
84.75136254
 31
0.00000000
  0
LINE
  8
0
  6
CONTINUOUS
 62
6
 10
135.07110934
 20
84.75136254
 30
0.00000000
 11
134.07663670
 21
83.95578442
 31
0.00000000
  0
LINE
  8
0
  6
CONTINUOUS
 62
6
 10
134.07663670
 20
83.95578442
 30
0.00000000
 11
132.88326953
 21
81.96683914
 31
0.00000000
  0
LINE
  8
0
  6
CONTINUOUS
 62
6
 10
132.88326953
 20
81.96683914
 30
0.00000000
 11
132.08769142
 21
79.18231575
 31
0.00000000
  0
LINE
  8
0
  6
CONTINUOUS
 62
6
 10
132.08769142
 20
79.18231575
 30
0.00000000
 11
131.49100783
 21
77.59115953
 31
0.00000000
  0
LINE
  8
0
  6
CONTINUOUS
 62
6
 10
131.49100783
 20
77.59115953
 30
0.00000000
 11
131.09321878
 21
75.80110878
 31
0.00000000
  0
LINE
  8
0
  6
CONTINUOUS
 62
6
 10
131.09321878
 20
75.80110878
 30
0.00000000
 11
130.69542972
 21
73.81216350
 31
0.00000000
  0
LINE
  8
0
  6
CONTINUOUS
 62
6
 10
130.69542972
 20
73.81216350
 30
0.00000000
 11
130.49653519
 21
71.82321822
 31
0.00000000
  0
LINE
  8
0
  6
CONTINUOUS
 62
6
 10
130.49653519
 20
71.82321822
 30
0.00000000
 11
130.09874614
 21
69.63537841
 31
0.00000000
  0
LINE
  8
0
  6
CONTINUOUS
 62
6
 10
130.09874614
 20
69.63537841
 30
0.00000000
 11
129.89985161
 21
67.24864407
 31
0.00000000
  0
LINE
  8
0
  6
CONTINUOUS
 62
6
 10
131.49100783
 20
69.23758935
 30
0.00000000
 11
132.28658594
 21
72.22100727
 31
0.00000000
  0
LINE
  8
0
  6
CONTINUOUS
 62
6
 10
132.28658594
 20
72.22100727
 30
0.00000000
 11
133.28105858
 21
75.00553066
 31
0.00000000
  0
LINE
  8
0
  6
CONTINUOUS
 62
6
 10
133.28105858
 20
75.00553066
 30
0.00000000
 11
134.07663670
 21
76.79558142
 31
0.00000000
  0
LINE
  8
0
  6
CONTINUOUS
 62
6
 10
134.07663670
 20
76.79558142
 30
0.00000000
 11
136.06558198
 21
76.39779236
 31
0.00000000
  0
LINE
  8
0
  6
CONTINUOUS
 62
6
 10
136.06558198
 20
76.39779236
 30
0.00000000
 11
136.46337103
 21
75.00553066
 31
0.00000000
  0
LINE
  8
0
  6
CONTINUOUS
 62
6
 10
136.46337103
 20
75.00553066
 30
0.00000000
 11
136.66226556
 21
73.21547991
 31
0.00000000
  0
LINE
  8
0
  6
CONTINUOUS
 62
6
 10
136.66226556
 20
73.21547991
 30
0.00000000
 11
137.55729094
 21
70.82874558
 31
0.00000000
  0
LINE
  8
0
  6
CONTINUOUS
 62
6
 10
137.55729094
 20
70.82874558
 30
0.00000000
 11
138.25342178
 21
75.00553066
 31
0.00000000
  0
LINE
  8
0
  6
CONTINUOUS
 62
6
 10
129.50206255
 20
59.88954654
 30
0.00000000
 11
130.29764066
 21
62.47517540
 31
0.00000000
  0
LINE
  8
0
  6
CONTINUOUS
 62
6
 10
130.29764066
 20
62.47517540
 30
0.00000000
 11
131.49100783
 21
69.23758935
 31
0.00000000
  0
LINE
  8
0
  6
CONTINUOUS
 62
6
 10
129.89985161
 20
57.10502314
 30
0.00000000
 11
129.50206255
 21
59.88954654
 31
0.00000000
  0
LINE
  8
0
  6
CONTINUOUS
 62
6
 10
117.56839087
 20
46.56361316
 30
0.00000000
 11
120.75070332
 21
46.96140222
 31
0.00000000
  0
LINE
  8
0
  6
CONTINUOUS
 62
6
 10
120.75070332
 20
46.96140222
 30
0.00000000
 11
125.32527746
 21
47.35919127
 31
0.00000000
  0
LINE
  8
0
  6
CONTINUOUS
 62
6
 10
125.32527746
 20
47.35919127
 30
0.00000000
 11
126.71753916
 21
47.55808580
 31
0.00000000
  0
LINE
  8
0
  6
CONTINUOUS
 62
6
 10
126.71753916
 20
47.55808580
 30
0.00000000
 11
128.70648444
 21
47.95587486
 31
0.00000000
  0
LINE
  8
0
  6
CONTINUOUS
 62
6
 10
128.70648444
 20
47.95587486
 30
0.00000000
 11
130.69542972
 21
48.15476938
 31
0.00000000
  0
LINE
  8
0
  6
CONTINUOUS
 62
6
 10
130.69542972
 20
48.15476938
 30
0.00000000
 11
133.12812294
 21
48.27876906
 31
0.00000000
  0
ARC
  8
0
  6
CONTINUOUS
 62
6
 10
132.38562961
 20
45.61837549
 30
0.00000000
 40
2.76206268
 50
-13.52344000
 51
74.40603202
  0
LINE
  8
0
  6
CONTINUOUS
 62
6
 10
135.07111227
 20
44.97248607
 30
0.00000000
 11
135.82916458
 21
42.97071315
 31
0.00000000
  0
ARC
  8
0
  6
CONTINUOUS
 62
6
 10
130.13081207
 20
40.59711679
 30
0.00000000
 40
6.17293942
 50
314.73082557
 51
22.61372025
  0
ARC
  8
0
  6
CONTINUOUS
 62
6
 10
133.52078956
 20
46.15486313
 30
0.00000000
 40
9.98883075
 50
257.71873146
 51
275.48276108
  0
ARC
  8
0
  6
CONTINUOUS
 62
6
 10
130.69543057
 20
39.20509162
 30
0.00000000
 40
2.89648026
 50
254.05771804
 51
283.99802828
  0
ARC
  8
0
  6
CONTINUOUS
 62
6
 10
121.70842628
 20
14.89329949
 30
0.00000000
 40
19.28367434
 50
96.99964801
 51
116.41049642
  0
LINE
  8
0
  6
CONTINUOUS
 62
6
 10
119.35845514
 20
34.03325069
 30
0.00000000
 11
125.32527746
 21
35.22662506
 31
0.00000000
  0
LINE
  8
0
  6
CONTINUOUS
 62
6
 10
125.32527746
 20
35.22662506
 30
0.00000000
 11
129.99930187
 21
35.92276642
 31
0.00000000
  0
LINE
  8
0
  6
CONTINUOUS
 62
6
 10
129.99930187
 20
35.92276642
 30
0.00000000
 11
130.29764066
 21
30.25426186
 31
0.00000000
  0
LINE
  8
0
  6
CONTINUOUS
 62
6
 10
130.29764066
 20
30.25426186
 30
0.00000000
 11
131.68990236
 21
26.87305489
 31
0.00000000
  0
ARC
  8
0
  6
CONTINUOUS
 62
6
 10
121.97620680
 20
20.09761214
 30
0.00000000
 40
7.28198878
 50
39.81955327
 51
93.95642788
  0
ARC
  8
0
  6
CONTINUOUS
 62
6
 10
114.18717399
 20
21.50273694
 30
0.00000000
 40
9.35030839
 50
38.80448770
 51
87.52851233
  0
ARC
  8
0
  6
CONTINUOUS
 62
6
 10
104.63303038
 20
21.30268633
 30
0.00000000
 40
13.79101572
 50
43.77872892
 51
51.96079221
  0
LINE
  8
0
  6
CONTINUOUS
 62
6
 10
103.14720845
 20
19.46708447
 30
0.00000000
 11
107.02698089
 21
18.91727377
 31
0.00000000
  0
LINE
  8
0
  6
CONTINUOUS
 62
6
 10
107.02698089
 20
18.91727377
 30
0.00000000
 11
109.41371979
 21
17.52498974
 31
0.00000000
  0
ARC
  8
0
  6
CONTINUOUS
 62
6
 10
108.41737607
 20
-9.92241163
 30
0.00000000
 40
27.46547912
 50
57.79446656
 51
87.92106964
  0
ARC
  8
0
  6
CONTINUOUS
 62
6
 10
131.74312629
 20
46.79740395
 30
0.00000000
 40
34.58897121
 50
255.45308567
 51
274.86230998
  0
ARC
  8
0
  6
CONTINUOUS
 62
6
 10
127.65644782
 20
18.52113012
 30
0.00000000
 40
9.35699201
 50
318.59729678
 51
397.03017833
  0
LINE
  8
0
  6
CONTINUOUS
 62
6
 10
135.12630687
 20
24.15624372
 30
0.00000000
 11
132.28661084
 21
24.08855284
 31
0.00000000
  0
ARC
  8
0
  6
CONTINUOUS
 62
6
 10
130.89430410
 20
22.09971411
 30
0.00000000
 40
2.42775566
 50
55.00566681
 51
112.62037293
  0
ARC
  8
0
  6
CONTINUOUS
 62
6
 10
128.47541515
 20
22.90293828
 30
0.00000000
 40
2.06706622
 50
44.07202061
 51
116.00077810
  0
ARC
  8
0
  6
CONTINUOUS
 62
6
 10
83.90398145
 20
9.02947602
 30
0.00000000
 40
8.53931143
 50
31.87345553
 51
58.77377488
  0
ARC
  8
0
  6
CONTINUOUS
 62
6
 10
89.32461224
 20
4.99581900
 30
0.00000000
 40
8.73683509
 50
29.99591659
 51
77.90208020
  0
ARC
  8
0
  6
CONTINUOUS
 62
6
 10
102.66041195
 20
16.14234318
 30
0.00000000
 40
8.90131063
 50
229.59957150
 51
261.59560447
  0
LINE
  8
0
  6
CONTINUOUS
 62
6
 10
101.35940599
 20
7.33662263
 30
0.00000000
 11
101.65682863
 21
13.54712151
 31
0.00000000
  0
LINE
  8
0
  6
CONTINUOUS
 62
6
 10
101.65682863
 20
13.54712151
 30
0.00000000
 11
103.14720208
 21
19.46708586
 31
0.00000000
  0
ARC
  8
0
  6
CONTINUOUS
 62
6
 10
99.46657184
 20
17.14175087
 30
0.00000000
 40
4.35364465
 50
32.28372726
 51
84.77805924
  0
LINE
  8
0
  6
CONTINUOUS
 62
6
 10
99.86281418
 20
21.47732623
 30
0.00000000
 11
97.28114728
 21
22.69628322
 31
0.00000000
  0
ARC
  8
0
  6
CONTINUOUS
 62
6
 10
93.49695073
 20
47.62788700
 30
0.00000000
 40
25.21715706
 50
264.30168927
 51
278.63065638
  0
ARC
  8
0
  6
CONTINUOUS
 62
6
 10
84.94984615
 20
34.62915161
 30
0.00000000
 40
13.51967199
 50
262.45950640
 51
296.55131858
  0
ARC
  8
0
  6
CONTINUOUS
 62
6
 10
91.59937371
 20
28.28377691
 30
0.00000000
 40
10.98930910
 50
219.95640293
 51
250.14579354
  0
LINE
  8
0
  6
CONTINUOUS
 62
6
 10
87.86709754
 20
17.94767372
 30
0.00000000
 11
88.33091820
 21
16.33167232
 31
0.00000000
  0
ARC
  8
0
  6
CONTINUOUS
 62
6
 10
82.36405942
 20
18.32059018
 30
0.00000000
 40
5.87335541
 50
298.30079700
 51
331.69929500
  0
LINE
  8
0
  6
CONTINUOUS
 62
6
 10
78.39872570
 20
28.88409951
 30
0.00000000
 11
74.80606735
 21
27.86752753
 31
0.00000000
  0
LINE
  8
0
  6
CONTINUOUS
 62
6
 10
74.80606735
 20
27.86752753
 30
0.00000000
 11
76.79501263
 21
26.07747678
 31
0.00000000
  0
CIRCLE
  8
0
  6
CONTINUOUS
 62
6
 10
82.45729123
 20
28.46930778
 30
0.00000000
 40
0.23457123
  0
CIRCLE
  8
0
  6
CONTINUOUS
 62
6
 10
86.09370474
 20
29.37838009
 30
0.00000000
 40
0.23457123
  0
CIRCLE
  8
0
  6
CONTINUOUS
 62
6
 10
89.82086389
 20
30.17557422
 30
0.00000000
 40
0.23457123
  0
CIRCLE
  8
0
  6
CONTINUOUS
 62
6
 10
93.72292591
 20
31.16159384
 30
0.00000000
 40
0.23457123
  0
ARC
  8
0
  6
CONTINUOUS
 62
6
 10
83.35306246
 20
77.58059326
 30
0.00000000
 40
41.45421907
 50
245.03361800
 51
289.92473000
  0
LINE
  8
0
  6
CONTINUOUS
 62
6
 10
65.45802735
 20
41.98903583
 30
0.00000000
 11
65.71834208
 21
38.95041274
 31
0.00000000
  0
ARC
  8
0
  6
CONTINUOUS
 62
6
 10
67.64614509
 20
37.21554136
 30
0.00000000
 40
2.59349247
 50
138.01527248
 51
179.99935966
  0
LINE
  8
0
  6
CONTINUOUS
 62
6
 10
65.05265263
 20
37.21557034
 30
0.00000000
 11
63.07129020
 21
36.41999223
 31
0.00000000
  0
LINE
  8
0
  6
CONTINUOUS
 62
6
 10
63.07129020
 20
36.41999223
 30
0.00000000
 11
61.48013398
 21
36.61888676
 31
0.00000000
  0
LINE
  8
0
  6
CONTINUOUS
 62
6
 10
61.48013398
 20
36.61888676
 30
0.00000000
 11
60.08787228
 21
36.22109770
 31
0.00000000
  0
LINE
  8
0
  6
CONTINUOUS
 62
6
 10
60.08787228
 20
36.22109770
 30
0.00000000
 11
57.53447041
 21
32.78271525
 31
0.00000000
  0
ARC
  8
0
  6
CONTINUOUS
 62
6
 10
59.29629853
 20
29.65765036
 30
0.00000000
 40
3.58748782
 50
119.41314274
 51
142.47766376
  0
ARC
  8
0
  6
CONTINUOUS
 62
6
 10
61.47982375
 20
29.25971319
 30
0.00000000
 40
5.65338476
 50
152.81344155
 51
219.29080140
  0
LINE
  8
0
  6
CONTINUOUS
 62
6
 10
57.10443249
 20
25.67966982
 30
0.00000000
 11
57.90003247
 21
24.48632055
 31
0.00000000
  0
LINE
  8
0
  6
CONTINUOUS
 62
6
 10
57.90003247
 20
24.48632055
 30
0.00000000
 11
59.69008322
 21
23.49184791
 31
0.00000000
  0
LINE
  8
0
  6
CONTINUOUS
 62
6
 10
59.69008322
 20
23.49184791
 30
0.00000000
 11
61.89026344
 21
23.10054292
 31
0.00000000
  0
ARC
  8
0
  6
CONTINUOUS
 62
6
 10
65.65690588
 20
25.08306364
 30
0.00000000
 40
4.25652248
 50
207.75946168
 51
307.40522343
  0
LINE
  8
0
  6
CONTINUOUS
 62
6
 10
69.14652356
 20
24.44194221
 30
0.00000000
 11
71.82264943
 21
25.67968772
 31
0.00000000
  0
LINE
  8
0
  6
CONTINUOUS
 62
6
 10
71.82264943
 20
25.67968772
 30
0.00000000
 11
73.01601660
 21
26.27637130
 31
0.00000000
  0
LINE
  8
0
  6
CONTINUOUS
 62
6
 10
73.01601660
 20
26.27637130
 30
0.00000000
 11
73.81159471
 21
27.46973847
 31
0.00000000
  0
ARC
  8
0
  6
CONTINUOUS
 62
6
 10
59.88903393
 20
27.27050614
 30
0.00000000
 40
2.19658305
 50
264.80345295
 51
323.35858874
  0
ARC
  8
0
  6
CONTINUOUS
 62
6
 10
57.07122566
 20
27.04113487
 30
0.00000000
 40
4.70628007
 50
346.71398680
 51
424.76700736
  0
ARC
  8
0
  6
CONTINUOUS
 62
6
 10
58.33197353
 20
29.75462413
 30
0.00000000
 40
1.71432775
 50
64.22183554
 51
183.24517382
  0
ARC
  8
0
  6
CONTINUOUS
 62
6
 10
69.23702057
 20
59.69065201
 30
0.00000000
 40
10.61437941
 50
257.00540200
 51
282.99459800
  0
LINE
  8
0
  6
CONTINUOUS
 62
6
 10
80.37511414
 20
43.58019524
 30
0.00000000
 11
81.96627036
 21
43.97798430
 31
0.00000000
  0
LINE
  8
0
  6
CONTINUOUS
 62
6
 10
81.96627036
 20
43.97798430
 30
0.00000000
 11
83.55742658
 21
44.57466788
 31
0.00000000
  0
LINE
  8
0
  6
CONTINUOUS
 62
6
 10
83.55742658
 20
44.57466788
 30
0.00000000
 11
85.54637186
 21
45.37024599
 31
0.00000000
  0
LINE
  8
0
  6
CONTINUOUS
 62
6
 10
85.54637186
 20
45.37024599
 30
0.00000000
 11
87.13752809
 21
46.16582410
 31
0.00000000
  0
LINE
  8
0
  6
CONTINUOUS
 62
6
 10
87.13752809
 20
46.16582410
 30
0.00000000
 11
88.92757884
 21
46.96140222
 31
0.00000000
  0
LINE
  8
0
  6
CONTINUOUS
 62
6
 10
88.92757884
 20
46.96140222
 30
0.00000000
 11
90.51873506
 21
47.55808580
 31
0.00000000
  0
LINE
  8
0
  6
CONTINUOUS
 62
6
 10
90.51873506
 20
47.55808580
 30
0.00000000
 11
91.51320770
 21
48.35366391
 31
0.00000000
  0
LINE
  8
0
  6
CONTINUOUS
 62
6
 10
91.51320770
 20
48.35366391
 30
0.00000000
 11
93.10440598
 21
48.75145877
 31
0.00000000
  0
ARC
  8
0
  6
CONTINUOUS
 62
6
 10
96.58617488
 20
50.64201493
 30
0.00000000
 40
3.96193353
 50
208.50139661
 51
231.11266192
  0
ARC
  8
0
  6
CONTINUOUS
 62
6
 10
90.10956067
 20
42.98435462
 30
0.00000000
 40
6.06911881
 50
23.14875411
 51
48.90426804
  0
LINE
  8
0
  6
CONTINUOUS
 62
6
 10
95.69003844
 20
45.37024459
 30
0.00000000
 11
96.58572707
 21
43.80322670
 31
0.00000000
  0
LINE
  8
0
  6
CONTINUOUS
 62
6
 10
96.58572707
 20
43.80322670
 30
0.00000000
 11
95.33695089
 21
42.73911941
 31
0.00000000
  0
LINE
  8
0
  6
CONTINUOUS
 62
6
 10
95.33695089
 20
42.73911941
 30
0.00000000
 11
91.71210223
 21
43.77908977
 31
0.00000000
  0
LINE
  8
0
  6
CONTINUOUS
 62
6
 10
91.71210223
 20
43.77908977
 30
0.00000000
 11
89.32536790
 21
42.98351166
 31
0.00000000
  0
LINE
  8
0
  6
CONTINUOUS
 62
6
 10
89.32536790
 20
42.98351166
 30
0.00000000
 11
86.73973903
 21
42.58572260
 31
0.00000000
  0
LINE
  8
0
  6
CONTINUOUS
 62
6
 10
86.73973903
 20
42.58572260
 30
0.00000000
 11
84.35300470
 21
42.78461713
 31
0.00000000
  0
LINE
  8
0
  6
CONTINUOUS
 62
6
 10
84.35300470
 20
42.78461713
 30
0.00000000
 11
82.06571762
 21
43.48074798
 31
0.00000000
  0
LINE
  8
0
  6
CONTINUOUS
 62
6
 10
91.71210223
 20
50.74039825
 30
0.00000000
 11
90.31984054
 21
49.94482014
 31
0.00000000
  0
LINE
  8
0
  6
CONTINUOUS
 62
6
 10
90.31984054
 20
49.94482014
 30
0.00000000
 11
86.14305545
 21
47.16029674
 31
0.00000000
  0
LINE
  8
0
  6
CONTINUOUS
 62
6
 10
86.14305545
 20
47.16029674
 30
0.00000000
 11
83.95521564
 21
46.36471863
 31
0.00000000
  0
ARC
  8
0
  6
CONTINUOUS
 62
6
 10
101.28269926
 20
46.58821669
 30
0.00000000
 40
2.79303542
 50
351.30178976
 51
39.20553075
  0
ARC
  8
0
  6
CONTINUOUS
 62
6
 10
98.47417181
 20
47.35907985
 30
0.00000000
 40
5.07129815
 50
11.31065375
 51
41.81832214
  0
ARC
  8
0
  6
CONTINUOUS
 62
6
 10
96.45368535
 20
48.58642090
 30
0.00000000
 40
6.18701906
 50
20.37461662
 51
44.56960675
  0
ARC
  8
0
  6
CONTINUOUS
 62
6
 10
90.97191443
 20
47.26709515
 30
0.00000000
 40
11.39515444
 50
29.78915121
 51
45.64172387
  0
LINE
  8
0
  6
CONTINUOUS
 62
6
 10
98.93875532
 20
55.41442544
 30
0.00000000
 11
97.48002154
 21
56.70724144
 31
0.00000000
  0
ARC
  8
0
  6
CONTINUOUS
 62
6
 10
96.38612536
 20
55.71285053
 30
0.00000000
 40
1.47831734
 50
42.27196354
 51
109.65277376
  0
ARC
  8
0
  6
CONTINUOUS
 62
6
 10
97.29537995
 20
54.39836568
 30
0.00000000
 40
3.05028404
 50
117.45715926
 51
155.97799170
  0
ARC
  8
0
  6
CONTINUOUS
 62
6
 10
104.23330246
 20
49.93656553
 30
0.00000000
 40
11.27327941
 50
149.60664242
 51
170.82088532
  0
LINE
  8
0
  6
CONTINUOUS
 62
6
 10
93.10438326
 20
51.73489426
 30
0.00000000
 11
91.71210223
 21
50.74039825
 31
0.00000000
  0
ARC
  8
0
  6
CONTINUOUS
 62
6
 10
35.02580352
 20
7.13623484
 30
0.00000000
 40
71.64948425
 50
26.54199547
 51
30.61828473
  0
ARC
  8
0
  6
CONTINUOUS
 62
6
 10
85.60415224
 20
60.91485593
 30
0.00000000
 40
25.61952487
 50
301.85114180
 51
311.71292299
  0
ARC
  8
0
  6
CONTINUOUS
 62
6
 10
89.75758638
 20
48.30209283
 30
0.00000000
 40
14.44486524
 50
333.20425459
 51
351.49526871
  0
ARC
  8
0
  6
CONTINUOUS
 62
6
 10
111.63207513
 20
47.98608726
 30
0.00000000
 40
17.11905038
 50
197.84835818
 51
206.31204885
  0
ARC
  8
0
  6
CONTINUOUS
 62
6
 10
99.18960465
 20
43.30377982
 30
0.00000000
 40
4.15123423
 50
269.09362147
 51
333.35431108
  0
LINE
  8
0
  6
CONTINUOUS
 62
6
 10
102.89996493
 20
41.44206765
 30
0.00000000
 11
107.22587542
 21
43.77908977
 31
0.00000000
  0
LINE
  8
0
  6
CONTINUOUS
 62
6
 10
107.22587542
 20
43.77908977
 30
0.00000000
 11
110.01039881
 21
45.17135146
 31
0.00000000
  0
LINE
  8
0
  6
CONTINUOUS
 62
6
 10
110.60708239
 20
48.15476938
 30
0.00000000
 11
111.20376598
 21
46.16582410
 31
0.00000000
  0
LINE
  8
0
  6
CONTINUOUS
 62
6
 10
111.20376598
 20
46.16582410
 30
0.00000000
 11
114.38607842
 21
46.56361316
 31
0.00000000
  0
LINE
  8
0
  6
CONTINUOUS
 62
6
 10
114.38607842
 20
46.56361316
 30
0.00000000
 11
117.56839087
 21
46.56361316
 31
0.00000000
  0
LINE
  8
0
  6
CONTINUOUS
 62
6
 10
109.21482070
 20
51.33708183
 30
0.00000000
 11
110.01039881
 21
49.94482014
 31
0.00000000
  0
LINE
  8
0
  6
CONTINUOUS
 62
6
 10
110.01039881
 20
49.94482014
 30
0.00000000
 11
110.60708239
 21
48.15476938
 31
0.00000000
  0
LINE
  8
0
  6
CONTINUOUS
 62
6
 10
108.22034806
 20
52.72934353
 30
0.00000000
 11
109.21482070
 21
51.33708183
 31
0.00000000
  0
LINE
  8
0
  6
CONTINUOUS
 62
6
 10
99.27009430
 20
54.91718334
 30
0.00000000
 11
100.26456694
 21
56.30944503
 31
0.00000000
  0
LINE
  8
0
  6
CONTINUOUS
 62
6
 10
100.26456694
 20
56.30944503
 30
0.00000000
 11
104.64024655
 21
56.30944503
 31
0.00000000
  0
LINE
  8
0
  6
CONTINUOUS
 62
6
 10
104.64024655
 20
56.30944503
 30
0.00000000
 11
107.22587542
 21
54.12160522
 31
0.00000000
  0
LINE
  8
0
  6
CONTINUOUS
 62
6
 10
107.22587542
 20
54.12160522
 30
0.00000000
 11
107.62366447
 21
61.87849182
 31
0.00000000
  0
LINE
  8
0
  6
CONTINUOUS
 62
6
 10
107.62366447
 20
61.87849182
 30
0.00000000
 11
108.81703164
 21
75.60221425
 31
0.00000000
  0
LINE
  8
0
  6
CONTINUOUS
 62
6
 10
108.81703164
 20
75.60221425
 30
0.00000000
 11
110.60708239
 21
87.53588593
 31
0.00000000
  0
LINE
  8
0
  6
CONTINUOUS
 62
6
 10
145.61251932
 20
52.72934353
 30
0.00000000
 11
145.81141385
 21
49.94482014
 31
0.00000000
  0
LINE
  8
0
  6
CONTINUOUS
 62
6
 10
145.81141385
 20
49.94482014
 30
0.00000000
 11
145.81141385
 21
46.96140222
 31
0.00000000
  0
LINE
  8
0
  6
CONTINUOUS
 62
6
 10
150.98267158
 20
46.56361316
 30
0.00000000
 11
150.18709346
 21
45.37024599
 31
0.00000000
  0
LINE
  8
0
  6
CONTINUOUS
 62
6
 10
150.18709346
 20
45.37024599
 30
0.00000000
 11
148.99372630
 21
41.98903902
 31
0.00000000
  0
LINE
  8
0
  6
CONTINUOUS
 62
6
 10
148.99372630
 20
41.98903902
 30
0.00000000
 11
149.78930497
 21
40.19897745
 31
0.00000000
  0
ARC
  8
0
  6
CONTINUOUS
 62
6
 10
152.77280834
 20
39.70170670
 30
0.00000000
 40
3.02466040
 50
117.40766934
 51
170.53730049
  0
ARC
  8
0
  6
CONTINUOUS
 62
6
 10
148.08900309
 20
38.21564447
 30
0.00000000
 40
5.31347342
 50
6.38719182
 51
51.72310284
  0
ARC
  8
0
  6
CONTINUOUS
 62
6
 10
95.90806283
 20
25.07490209
 30
0.00000000
 40
59.07943672
 50
-1.72840401
 51
13.44019400
  0
LINE
  8
0
  6
CONTINUOUS
 62
6
 10
154.96062021
 20
23.29296196
 30
0.00000000
 11
155.55724572
 21
28.86200017
 31
0.00000000
  0
LINE
  8
0
  6
CONTINUOUS
 62
6
 10
155.55724572
 20
28.86200017
 30
0.00000000
 11
155.35835119
 21
31.64652356
 31
0.00000000
  0
LINE
  8
0
  6
CONTINUOUS
 62
6
 10
155.35835119
 20
31.64652356
 30
0.00000000
 11
155.35835119
 21
34.43104695
 31
0.00000000
  0
LINE
  8
0
  6
CONTINUOUS
 62
6
 10
155.35835119
 20
34.43104695
 30
0.00000000
 11
154.96056214
 21
38.80672657
 31
0.00000000
  0
LINE
  8
0
  6
CONTINUOUS
 62
6
 10
154.96056214
 20
38.80672657
 30
0.00000000
 11
154.76166761
 21
40.59677732
 31
0.00000000
  0
LINE
  8
0
  6
CONTINUOUS
 62
6
 10
154.76166761
 20
40.59677732
 30
0.00000000
 11
154.36387855
 21
42.18793354
 31
0.00000000
  0
LINE
  8
0
  6
CONTINUOUS
 62
6
 10
154.36387855
 20
42.18793354
 30
0.00000000
 11
153.36940591
 21
45.56914052
 31
0.00000000
  0
LINE
  8
0
  6
CONTINUOUS
 62
6
 10
153.36940591
 20
45.56914052
 30
0.00000000
 11
150.98267158
 21
46.56361316
 31
0.00000000
  0
LINE
  8
0
  6
CONTINUOUS
 62
6
 10
149.78930479
 20
40.19898105
 30
0.00000000
 11
149.19262082
 21
38.01114846
 31
0.00000000
  0
LINE
  8
0
  6
CONTINUOUS
 62
6
 10
149.19262082
 20
38.01114846
 30
0.00000000
 11
148.19814818
 21
35.62441412
 31
0.00000000
  0
LINE
  8
0
  6
CONTINUOUS
 62
6
 10
148.19814818
 20
35.62441412
 30
0.00000000
 11
148.19814818
 21
32.64099620
 31
0.00000000
  0
LINE
  8
0
  6
CONTINUOUS
 62
6
 10
148.19814818
 20
32.64099620
 30
0.00000000
 11
147.60146460
 21
30.05536734
 31
0.00000000
  0
LINE
  8
0
  6
CONTINUOUS
 62
6
 10
114.04759435
 20
-11.06631054
 30
0.00000000
 11
115.81554571
 21
-27.64085454
 31
0.00000000
  0
LINE
  8
0
  6
CONTINUOUS
 62
6
 10
102.25351222
 20
-10.91690543
 30
0.00000000
 11
100.47004985
 21
-10.31661688
 31
0.00000000
  0
LINE
  8
0
  6
CONTINUOUS
 62
6
 10
100.47004985
 20
-10.31661688
 30
0.00000000
 11
-4.52649579
 21
24.53772236
 31
0.00000000
  0
LINE
  8
0
  6
CONTINUOUS
 62
6
 10
-4.52649579
 20
24.53772236
 30
0.00000000
 11
-3.55837668
 21
25.67968772
 31
0.00000000
  0
ARC
  8
0
  6
CONTINUOUS
 62
6
 10
47.55856477
 20
51.69543407
 30
0.00000000
 40
7.48255398
 50
53.28153609
 51
81.42448398
  0
ARC
  8
0
  6
CONTINUOUS
 62
6
 10
48.90729900
 20
57.89838704
 30
0.00000000
 40
1.21843118
 50
101.02404713
 51
160.83389553
  0
ARC
  8
0
  6
CONTINUOUS
 62
6
 10
56.97030535
 20
59.47013423
 30
0.00000000
 40
5.50744676
 50
145.88228407
 51
177.69994983
  0
ARC
  8
0
  6
CONTINUOUS
 62
6
 10
70.90360766
 20
69.34548900
 30
0.00000000
 40
19.69869539
 50
200.15144681
 51
208.07346211
  0
ARC
  8
0
  6
CONTINUOUS
 62
6
 10
53.60790398
 20
59.65082893
 30
0.00000000
 40
0.43288544
 50
6.56178104
 51
101.36994184
  0
ARC
  8
0
  6
CONTINUOUS
 62
6
 10
54.00486987
 20
61.32822166
 30
0.00000000
 40
3.01980876
 50
161.70159837
 51
212.82717409
  0
LINE
  8
0
  6
CONTINUOUS
 62
11
 10
165.67517232
 20
32.72512403
 30
0.00000000
 11
165.47517232
 21
32.72512403
 31
0.00000000
  0
LINE
  8
0
  6
CONTINUOUS
 62
10
 10
165.47517232
 20
32.72512403
 30
0.00000000
 11
165.47517232
 21
-30.78110280
 31
0.00000000
  0
LINE
  8
0
  6
CONTINUOUS
 62
10
 10
165.47517232
 20
-30.78110280
 30
0.00000000
 11
-41.58290323
 21
-30.78110280
 31
0.00000000
  0
LINE
  8
0
  6
CONTINUOUS
 62
10
 10
-41.58290323
 20
-30.78110280
 30
0.00000000
 11
-41.58290323
 21
96.23135086
 31
0.00000000
  0
LINE
  8
0
  6
CONTINUOUS
 62
10
 10
-41.58290323
 20
96.23135086
 30
0.00000000
 11
165.47517232
 21
96.23135086
 31
0.00000000
  0
LINE
  8
0
  6
CONTINUOUS
 62
10
 10
165.47517232
 20
96.23135086
 30
0.00000000
 11
165.47517232
 21
32.72512403
 31
0.00000000
   0
ENDSEC
   0
EOF
