  0
SECTION
  2
HEADER
  9
$ACADVER
  1
AC1018
  9
$ACADMAINTVER
 70
     0
  9
$DWGCODEPAGE
  3
ANSI_1252
  9
$INSBASE
 10
0.0
 20
0.0
 30
0.0
  9
$EXTMIN
 10
-98.61369999999999
 20
-140.596
 30
0.0
  9
$EXTMAX
 10
310.2176
 20
141.3174
 30
0.0
  9
$LIMMIN
 10
0.0
 20
0.0
  9
$LIMMAX
 10
12.0
 20
9.0
  9
$ORTHOMODE
 70
     0
  9
$REGENMODE
 70
     1
  9
$FILLMODE
 70
     1
  9
$QTEXTMODE
 70
     0
  9
$MIRRTEXT
 70
     1
  9
$LTSCALE
 40
1.0
  9
$ATTMODE
 70
     1
  9
$TEXTSIZE
 40
0.2
  9
$TRACEWID
 40
0.05
  9
$TEXTSTYLE
  7
Standard
  9
$CLAYER
  8
0
  9
$CELTYPE
  6
ByLayer
  9
$CECOLOR
 62
   256
  9
$CELTSCALE
 40
1.0
  9
$DISPSILH
 70
     0
  9
$DIMSCALE
 40
1.0
  9
$DIMASZ
 40
0.18
  9
$DIMEXO
 40
0.0625
  9
$DIMDLI
 40
0.38
  9
$DIMRND
 40
0.0
  9
$DIMDLE
 40
0.0
  9
$DIMEXE
 40
0.18
  9
$DIMTP
 40
0.0
  9
$DIMTM
 40
0.0
  9
$DIMTXT
 40
0.18
  9
$DIMCEN
 40
0.09
  9
$DIMTSZ
 40
0.0
  9
$DIMTOL
 70
     0
  9
$DIMLIM
 70
     0
  9
$DIMTIH
 70
     1
  9
$DIMTOH
 70
     1
  9
$DIMSE1
 70
     0
  9
$DIMSE2
 70
     0
  9
$DIMTAD
 70
     0
  9
$DIMZIN
 70
     0
  9
$DIMBLK
  1

  9
$DIMASO
 70
     1
  9
$DIMSHO
 70
     1
  9
$DIMPOST
  1

  9
$DIMAPOST
  1

  9
$DIMALT
 70
     0
  9
$DIMALTD
 70
     2
  9
$DIMALTF
 40
25.4
  9
$DIMLFAC
 40
1.0
  9
$DIMTOFL
 70
     0
  9
$DIMTVP
 40
0.0
  9
$DIMTIX
 70
     0
  9
$DIMSOXD
 70
     0
  9
$DIMSAH
 70
     0
  9
$DIMBLK1
  1

  9
$DIMBLK2
  1

  9
$DIMSTYLE
  2
Standard
  9
$DIMCLRD
 70
     0
  9
$DIMCLRE
 70
     0
  9
$DIMCLRT
 70
     0
  9
$DIMTFAC
 40
1.0
  9
$DIMGAP
 40
0.09
  9
$DIMJUST
 70
     0
  9
$DIMSD1
 70
     0
  9
$DIMSD2
 70
     0
  9
$DIMTOLJ
 70
     1
  9
$DIMTZIN
 70
     0
  9
$DIMALTZ
 70
     0
  9
$DIMALTTZ
 70
     0
  9
$DIMUPT
 70
     0
  9
$DIMDEC
 70
     4
  9
$DIMTDEC
 70
     4
  9
$DIMALTU
 70
     2
  9
$DIMALTTD
 70
     2
  9
$DIMTXSTY
  7
Standard
  9
$DIMAUNIT
 70
     0
  9
$DIMADEC
 70
     0
  9
$DIMALTRND
 40
0.0
  9
$DIMAZIN
 70
     0
  9
$DIMDSEP
 70
    46
  9
$DIMATFIT
 70
     3
  9
$DIMFRAC
 70
     0
  9
$DIMLDRBLK
  1

  9
$DIMLUNIT
 70
     2
  9
$DIMLWD
 70
    -2
  9
$DIMLWE
 70
    -2
  9
$DIMTMOVE
 70
     0
  9
$LUNITS
 70
     2
  9
$LUPREC
 70
     4
  9
$SKETCHINC
 40
0.1
  9
$FILLETRAD
 40
0.5
  9
$AUNITS
 70
     0
  9
$AUPREC
 70
     0
  9
$MENU
  1
.
  9
$ELEVATION
 40
0.0
  9
$PELEVATION
 40
0.0
  9
$THICKNESS
 40
0.0
  9
$LIMCHECK
 70
     0
  9
$CHAMFERA
 40
0.5
  9
$CHAMFERB
 40
0.5
  9
$CHAMFERC
 40
1.0
  9
$CHAMFERD
 40
0.0
  9
$SKPOLY
 70
     0
  9
$TDCREATE
 40
2455269.595760996
  9
$TDUCREATE
 40
2455269.720760996
  9
$TDUPDATE
 40
2455269.595761007
  9
$TDUUPDATE
 40
2455269.720761007
  9
$TDINDWG
 40
0.0000000116
  9
$TDUSRTIMER
 40
0.0000000116
  9
$USRTIMER
 70
     1
  9
$ANGBASE
 50
0.0
  9
$ANGDIR
 70
     0
  9
$PDMODE
 70
     0
  9
$PDSIZE
 40
0.0
  9
$PLINEWID
 40
0.0
  9
$SPLFRAME
 70
     0
  9
$SPLINETYPE
 70
     6
  9
$SPLINESEGS
 70
     8
  9
$HANDSEED
  5
74
  9
$SURFTAB1
 70
     6
  9
$SURFTAB2
 70
     6
  9
$SURFTYPE
 70
     6
  9
$SURFU
 70
     6
  9
$SURFV
 70
     6
  9
$UCSBASE
  2

  9
$UCSNAME
  2

  9
$UCSORG
 10
0.0
 20
0.0
 30
0.0
  9
$UCSXDIR
 10
1.0
 20
0.0
 30
0.0
  9
$UCSYDIR
 10
0.0
 20
1.0
 30
0.0
  9
$UCSORTHOREF
  2

  9
$UCSORTHOVIEW
 70
     0
  9
$UCSORGTOP
 10
0.0
 20
0.0
 30
0.0
  9
$UCSORGBOTTOM
 10
0.0
 20
0.0
 30
0.0
  9
$UCSORGLEFT
 10
0.0
 20
0.0
 30
0.0
  9
$UCSORGRIGHT
 10
0.0
 20
0.0
 30
0.0
  9
$UCSORGFRONT
 10
0.0
 20
0.0
 30
0.0
  9
$UCSORGBACK
 10
0.0
 20
0.0
 30
0.0
  9
$PUCSBASE
  2

  9
$PUCSNAME
  2

  9
$PUCSORG
 10
0.0
 20
0.0
 30
0.0
  9
$PUCSXDIR
 10
1.0
 20
0.0
 30
0.0
  9
$PUCSYDIR
 10
0.0
 20
1.0
 30
0.0
  9
$PUCSORTHOREF
  2

  9
$PUCSORTHOVIEW
 70
     0
  9
$PUCSORGTOP
 10
0.0
 20
0.0
 30
0.0
  9
$PUCSORGBOTTOM
 10
0.0
 20
0.0
 30
0.0
  9
$PUCSORGLEFT
 10
0.0
 20
0.0
 30
0.0
  9
$PUCSORGRIGHT
 10
0.0
 20
0.0
 30
0.0
  9
$PUCSORGFRONT
 10
0.0
 20
0.0
 30
0.0
  9
$PUCSORGBACK
 10
0.0
 20
0.0
 30
0.0
  9
$USERI1
 70
     0
  9
$USERI2
 70
     0
  9
$USERI3
 70
     0
  9
$USERI4
 70
     0
  9
$USERI5
 70
     0
  9
$USERR1
 40
0.0
  9
$USERR2
 40
0.0
  9
$USERR3
 40
0.0
  9
$USERR4
 40
0.0
  9
$USERR5
 40
0.0
  9
$WORLDVIEW
 70
     1
  9
$SHADEDGE
 70
     3
  9
$SHADEDIF
 70
    70
  9
$TILEMODE
 70
     1
  9
$MAXACTVP
 70
    64
  9
$PINSBASE
 10
0.0
 20
0.0
 30
0.0
  9
$PLIMCHECK
 70
     0
  9
$PEXTMIN
 10
1.000000000000000E+20
 20
1.000000000000000E+20
 30
1.000000000000000E+20
  9
$PEXTMAX
 10
-1.000000000000000E+20
 20
-1.000000000000000E+20
 30
-1.000000000000000E+20
  9
$PLIMMIN
 10
0.0
 20
0.0
  9
$PLIMMAX
 10
12.0
 20
9.0
  9
$UNITMODE
 70
     0
  9
$VISRETAIN
 70
     1
  9
$PLINEGEN
 70
     0
  9
$PSLTSCALE
 70
     1
  9
$TREEDEPTH
 70
  3020
  9
$CMLSTYLE
  2
Standard
  9
$CMLJUST
 70
     0
  9
$CMLSCALE
 40
1.0
  9
$PROXYGRAPHICS
 70
     1
  9
$MEASUREMENT
 70
     0
  9
$CELWEIGHT
370
    -1
  9
$ENDCAPS
280
     0
  9
$JOINSTYLE
280
     0
  9
$LWDISPLAY
290
     0
  9
$INSUNITS
 70
     4
  9
$HYPERLINKBASE
  1

  9
$STYLESHEET
  1

  9
$XEDIT
290
     1
  9
$CEPSNTYPE
380
     0
  9
$PSTYLEMODE
290
     0
  9
$FINGERPRINTGUID
  2
{FAEB1C30-E019-11D5-929B-00C0DF256EC4}
  9
$VERSIONGUID
  2
{FAEB1C32-E019-11D5-929B-00C0DF256EC4}
  9
$EXTNAMES
290
     1
  9
$PSVPSCALE
 40
0.0
  9
$OLESTARTUP
290
     0
  9
$SORTENTS
280
   127
  9
$INDEXCTL
280
     0
  9
$HIDETEXT
280
     1
  9
$XCLIPFRAME
290
     0
  9
$HALOGAP
280
     0
  9
$OBSCOLOR
 70
   257
  9
$OBSLTYPE
280
     0
  9
$INTERSECTIONDISPLAY
280
     0
  9
$INTERSECTIONCOLOR
 70
   257
  9
$DIMASSOC
280
     2
  9
$PROJECTNAME
  1

  0
ENDSEC
  0
SECTION
  2
CLASSES
  0
CLASS
  1
ACDBDICTIONARYWDFLT
  2
AcDbDictionaryWithDefault
  3
ObjectDBX Classes
 90
        0
 91
        1
280
     0
281
     0
  0
CLASS
  1
IMAGEDEF
  2
AcDbRasterImageDef
  3
ISM
 90
        0
 91
        1
280
     0
281
     0
  0
CLASS
  1
IMAGE
  2
AcDbRasterImage
  3
ISM
 90
      127
 91
        1
280
     0
281
     1
  0
CLASS
  1
IMAGEDEF_REACTOR
  2
AcDbRasterImageDefReactor
  3
ISM
 90
        1
 91
        1
280
     0
281
     0
  0
ENDSEC
  0
SECTION
  2
TABLES
  0
TABLE
  2
VPORT
  5
8
330
0
100
AcDbSymbolTable
 70
     2
  0
VPORT
  5
29
330
8
100
AcDbSymbolTableRecord
100
AcDbViewportTableRecord
  2
*Active
 70
     0
 10
0.0
 20
0.0
 11
1.0
 21
1.0
 12
10.42990654205607
 22
4.5
 13
0.0
 23
0.0
 14
0.5
 24
0.5
 15
0.5
 25
0.5
 16
0.0
 26
0.0
 36
1.0
 17
0.0
 27
0.0
 37
0.0
 40
9.0
 41
1.972972972850329
 42
50.0
 43
0.0
 44
0.0
 50
0.0
 51
0.0
 71
     0
 72
   100
 73
     1
 74
     3
 75
     0
 76
     0
 77
     0
 78
     0
281
     0
 65
     1
110
0.0
120
0.0
130
0.0
111
1.0
121
0.0
131
0.0
112
0.0
122
1.0
132
0.0
 79
     0
146
0.0
  0
ENDTAB
  0
TABLE
  2
LTYPE
  5
5
330
0
100
AcDbSymbolTable
 70
     1
  0
LTYPE
  5
14
330
5
100
AcDbSymbolTableRecord
100
AcDbLinetypeTableRecord
  2
ByBlock
 70
     0
  3

 72
    65
 73
     0
 40
0.0
  0
LTYPE
  5
15
330
5
100
AcDbSymbolTableRecord
100
AcDbLinetypeTableRecord
  2
ByLayer
 70
     0
  3

 72
    65
 73
     0
 40
0.0
  0
LTYPE
  5
16
330
5
100
AcDbSymbolTableRecord
100
AcDbLinetypeTableRecord
  2
Continuous
 70
     0
  3
Solid line
 72
    65
 73
     0
 40
0.0
  0
ENDTAB
  0
TABLE
  2
LAYER
  5
2
330
0
100
AcDbSymbolTable
 70
     2
  0
LAYER
  5
10
330
2
100
AcDbSymbolTableRecord
100
AcDbLayerTableRecord
  2
0
 70
     0
 62
     7
  6
Continuous
370
    -3
390
F
  0
LAYER
  5
2B
330
2
100
AcDbSymbolTableRecord
100
AcDbLayerTableRecord
  2
Camada 1
 70
     0
 62
     7
  6
Continuous
370
    -3
390
F
  0
ENDTAB
  0
TABLE
  2
STYLE
  5
3
330
0
100
AcDbSymbolTable
 70
     1
  0
STYLE
  5
11
330
3
100
AcDbSymbolTableRecord
100
AcDbTextStyleTableRecord
  2
Standard
 70
     0
 40
0.0
 41
1.0
 50
0.0
 71
     0
 42
0.2
  3
txt
  4

  0
ENDTAB
  0
TABLE
  2
VIEW
  5
6
330
0
100
AcDbSymbolTable
 70
     0
  0
ENDTAB
  0
TABLE
  2
UCS
  5
7
330
0
100
AcDbSymbolTable
 70
     0
  0
ENDTAB
  0
TABLE
  2
APPID
  5
9
330
0
100
AcDbSymbolTable
 70
     2
  0
APPID
  5
12
330
9
100
AcDbSymbolTableRecord
100
AcDbRegAppTableRecord
  2
ACAD
 70
     0
  0
APPID
  5
2A
330
9
100
AcDbSymbolTableRecord
100
AcDbRegAppTableRecord
  2
ODA
 70
     0
  0
ENDTAB
  0
TABLE
  2
DIMSTYLE
  5
A
330
0
100
AcDbSymbolTable
 70
     1
100
AcDbDimStyleTable
  0
DIMSTYLE
105
27
330
A
100
AcDbSymbolTableRecord
100
AcDbDimStyleTableRecord
  2
Standard
 70
     0
340
11
  0
ENDTAB
  0
TABLE
  2
BLOCK_RECORD
  5
1
330
0
100
AcDbSymbolTable
 70
     1
  0
BLOCK_RECORD
  5
1F
330
1
100
AcDbSymbolTableRecord
100
AcDbBlockTableRecord
  2
*Model_Space
340
22
  0
BLOCK_RECORD
  5
1B
330
1
100
AcDbSymbolTableRecord
100
AcDbBlockTableRecord
  2
*Paper_Space
340
1E
  0
BLOCK_RECORD
  5
23
330
1
100
AcDbSymbolTableRecord
100
AcDbBlockTableRecord
  2
*Paper_Space0
340
26
  0
ENDTAB
  0
ENDSEC
  0
SECTION
  2
BLOCKS
  0
BLOCK
  5
20
330
1F
100
AcDbEntity
  8
0
100
AcDbBlockBegin
  2
*Model_Space
 70
     0
 71
     0
 10
0.0
 20
0.0
 30
0.0
  3
*Model_Space
  1

  0
ENDBLK
  5
21
330
1F
100
AcDbEntity
  8
0
100
AcDbBlockEnd
  0
BLOCK
  5
1C
330
1B
100
AcDbEntity
 67
     1
  8
0
100
AcDbBlockBegin
  2
*Paper_Space
 70
     0
 71
     0
 10
0.0
 20
0.0
 30
0.0
  3
*Paper_Space
  1

  0
ENDBLK
  5
1D
330
1B
100
AcDbEntity
 67
     1
  8
0
100
AcDbBlockEnd
  0
BLOCK
  5
24
330
23
100
AcDbEntity
  8
0
100
AcDbBlockBegin
  2
*Paper_Space0
 70
     0
 71
     0
 10
0.0
 20
0.0
 30
0.0
  3
*Paper_Space0
  1

  0
ENDBLK
  5
25
330
23
100
AcDbEntity
  8
0
100
AcDbBlockEnd
  0
ENDSEC
  0
SECTION
  2
ENTITIES
  0
IMAGE
  5
2E
330
1F
100
AcDbEntity
  8
Camada 1
 62
     0
 92
        8
310
0000000000000000
100
AcDbRasterImage
 90
        0
 10
-98.61370000000001
 20
-136.2874
 30
0.0
 11
0.01388888888888889
 21
0.0
 31
0.0
 12
0.0
 22
0.01388888888888889
 32
0.0
 13
13054.0
 23
19987.0
340
2D
 70
     3
280
     1
281
    50
282
    50
283
     0
360
2F
 71
     1
 91
        2
 14
-98.61370000000001
 24
-136.2874
 14
82.69330000000001
 24
141.3174
  0
SPLINE
  5
30
330
1F
100
AcDbEntity
  8
Camada 1
 62
   142
370
     5
100
AcDbSpline
210
0.0
220
0.0
230
1.0
 70
    11
 71
     3
 72
    28
 73
    24
 74
     0
 42
0.0000000001
 43
0.0000000001
 40
0.0
 40
0.0
 40
0.0
 40
0.0
 40
0.1666666666666667
 40
0.1666666666666667
 40
0.1666666666666667
 40
0.1666666666666667
 40
0.3333333333333333
 40
0.3333333333333333
 40
0.3333333333333333
 40
0.3333333333333333
 40
0.5
 40
0.5
 40
0.5
 40
0.5
 40
0.6666666666666666
 40
0.6666666666666666
 40
0.6666666666666666
 40
0.6666666666666666
 40
0.8333333333333333
 40
0.8333333333333333
 40
0.8333333333333333
 40
0.8333333333333333
 40
1.0
 40
1.0
 40
1.0
 40
1.0
 10
150.7014
 20
130.6044
 30
0.0
 10
151.2237
 20
123.8622
 30
0.0
 10
151.8153
 20
118.3346
 30
0.0
 10
146.1987
 20
118.759
 30
0.0
 10
146.1987
 20
118.759
 30
0.0
 10
146.1987
 20
118.759
 30
0.0
 10
146.226
 20
128.0646
 30
0.0
 10
146.226
 20
128.0646
 30
0.0
 10
146.226
 20
128.0646
 30
0.0
 10
146.226
 20
128.0646
 30
0.0
 10
144.0508
 20
128.0986
 30
0.0
 10
144.0508
 20
128.0986
 30
0.0
 10
144.0508
 20
128.0986
 30
0.0
 10
144.0508
 20
128.0986
 30
0.0
 10
143.9384
 20
119.1342
 30
0.0
 10
143.9384
 20
119.1342
 30
0.0
 10
143.9384
 20
119.1342
 30
0.0
 10
141.919
 20
119.6516
 30
0.0
 10
138.2943
 20
121.7485
 30
0.0
 10
138.3252
 20
126.1103
 30
0.0
 10
138.3252
 20
126.1103
 30
0.0
 10
138.3739
 20
132.9781
 30
0.0
 10
150.3802
 20
134.7453
 30
0.0
 10
150.7014
 20
130.6044
 30
0.0
  0
SPLINE
  5
31
330
1F
100
AcDbEntity
  8
Camada 1
 62
   142
370
     5
100
AcDbSpline
210
0.0
220
0.0
230
1.0
 70
    11
 71
     3
 72
    28
 73
    24
 74
     0
 42
0.0000000001
 43
0.0000000001
 40
0.0
 40
0.0
 40
0.0
 40
0.0
 40
0.1666666666666667
 40
0.1666666666666667
 40
0.1666666666666667
 40
0.1666666666666667
 40
0.3333333333333333
 40
0.3333333333333333
 40
0.3333333333333333
 40
0.3333333333333333
 40
0.5
 40
0.5
 40
0.5
 40
0.5
 40
0.6666666666666666
 40
0.6666666666666666
 40
0.6666666666666666
 40
0.6666666666666666
 40
0.8333333333333333
 40
0.8333333333333333
 40
0.8333333333333333
 40
0.8333333333333333
 40
1.0
 40
1.0
 40
1.0
 40
1.0
 10
168.0456
 20
119.5666
 30
0.0
 10
161.2995
 20
119.0977
 30
0.0
 10
155.7672
 20
118.5492
 30
0.0
 10
156.2357
 20
124.1626
 30
0.0
 10
156.2357
 20
124.1626
 30
0.0
 10
156.2357
 20
124.1626
 30
0.0
 10
165.5414
 20
124.0622
 30
0.0
 10
165.5414
 20
124.0622
 30
0.0
 10
165.5414
 20
124.0622
 30
0.0
 10
165.5414
 20
124.0622
 30
0.0
 10
165.5918
 20
126.2367
 30
0.0
 10
165.5918
 20
126.2367
 30
0.0
 10
165.5918
 20
126.2367
 30
0.0
 10
165.5918
 20
126.2367
 30
0.0
 10
156.6292
 20
126.4196
 30
0.0
 10
156.6292
 20
126.4196
 30
0.0
 10
156.6292
 20
126.4196
 30
0.0
 10
157.1623
 20
128.4349
 30
0.0
 10
159.2877
 20
132.0428
 30
0.0
 10
163.6491
 20
131.9778
 30
0.0
 10
163.6491
 20
131.9778
 30
0.0
 10
170.5162
 20
131.875
 30
0.0
 10
172.1887
 20
119.8552
 30
0.0
 10
168.0456
 20
119.5666
 30
0.0
  0
SPLINE
  5
32
330
1F
100
AcDbEntity
  8
Camada 1
 62
   142
370
     5
100
AcDbSpline
210
0.0
220
0.0
230
1.0
 70
    11
 71
     3
 72
    28
 73
    24
 74
     0
 42
0.0000000001
 43
0.0000000001
 40
0.0
 40
0.0
 40
0.0
 40
0.0
 40
0.1666666666666667
 40
0.1666666666666667
 40
0.1666666666666667
 40
0.1666666666666667
 40
0.3333333333333333
 40
0.3333333333333333
 40
0.3333333333333333
 40
0.3333333333333333
 40
0.5
 40
0.5
 40
0.5
 40
0.5
 40
0.6666666666666666
 40
0.6666666666666666
 40
0.6666666666666666
 40
0.6666666666666666
 40
0.8333333333333333
 40
0.8333333333333333
 40
0.8333333333333333
 40
0.8333333333333333
 40
1.0
 40
1.0
 40
1.0
 40
1.0
 10
186.0003
 20
119.4469
 30
0.0
 10
179.2542
 20
118.9778
 30
0.0
 10
173.7221
 20
118.4298
 30
0.0
 10
174.1908
 20
124.0429
 30
0.0
 10
174.1908
 20
124.0429
 30
0.0
 10
174.1908
 20
124.0429
 30
0.0
 10
183.4959
 20
123.9422
 30
0.0
 10
183.4959
 20
123.9422
 30
0.0
 10
183.4959
 20
123.9422
 30
0.0
 10
183.4959
 20
123.9422
 30
0.0
 10
183.547
 20
126.117
 30
0.0
 10
183.547
 20
126.117
 30
0.0
 10
183.547
 20
126.117
 30
0.0
 10
183.547
 20
126.117
 30
0.0
 10
174.5838
 20
126.3002
 30
0.0
 10
174.5838
 20
126.3002
 30
0.0
 10
174.5838
 20
126.3002
 30
0.0
 10
175.1171
 20
128.3154
 30
0.0
 10
177.2426
 20
131.9235
 30
0.0
 10
181.604
 20
131.8582
 30
0.0
 10
181.604
 20
131.8582
 30
0.0
 10
188.4712
 20
131.7553
 30
0.0
 10
190.1436
 20
119.7354
 30
0.0
 10
186.0003
 20
119.4469
 30
0.0
  0
SPLINE
  5
33
330
1F
100
AcDbEntity
  8
Camada 1
 62
   142
370
     5
100
AcDbSpline
210
0.0
220
0.0
230
1.0
 70
    11
 71
     3
 72
    28
 73
    24
 74
     0
 42
0.0000000001
 43
0.0000000001
 40
0.0
 40
0.0
 40
0.0
 40
0.0
 40
0.1666666666666667
 40
0.1666666666666667
 40
0.1666666666666667
 40
0.1666666666666667
 40
0.3333333333333333
 40
0.3333333333333333
 40
0.3333333333333333
 40
0.3333333333333333
 40
0.5
 40
0.5
 40
0.5
 40
0.5
 40
0.6666666666666666
 40
0.6666666666666666
 40
0.6666666666666666
 40
0.6666666666666666
 40
0.8333333333333333
 40
0.8333333333333333
 40
0.8333333333333333
 40
0.8333333333333333
 40
1.0
 40
1.0
 40
1.0
 40
1.0
 10
205.9183
 20
119.293
 30
0.0
 10
198.9783
 20
118.8104
 30
0.0
 10
193.2872
 20
118.2467
 30
0.0
 10
193.7694
 20
124.0211
 30
0.0
 10
193.7694
 20
124.0211
 30
0.0
 10
193.7694
 20
124.0211
 30
0.0
 10
203.3419
 20
123.9175
 30
0.0
 10
203.3419
 20
123.9175
 30
0.0
 10
203.3419
 20
123.9175
 30
0.0
 10
203.3419
 20
123.9175
 30
0.0
 10
203.3945
 20
126.1548
 30
0.0
 10
203.3945
 20
126.1548
 30
0.0
 10
203.3945
 20
126.1548
 30
0.0
 10
203.3945
 20
126.1548
 30
0.0
 10
194.1737
 20
126.3433
 30
0.0
 10
194.1737
 20
126.3433
 30
0.0
 10
194.1737
 20
126.3433
 30
0.0
 10
194.7223
 20
128.4164
 30
0.0
 10
196.9089
 20
132.1282
 30
0.0
 10
201.3956
 20
132.0611
 30
0.0
 10
201.3956
 20
132.0611
 30
0.0
 10
208.4602
 20
131.9552
 30
0.0
 10
210.1807
 20
119.5898
 30
0.0
 10
205.9183
 20
119.293
 30
0.0
  0
SPLINE
  5
34
330
1F
100
AcDbEntity
  8
Camada 1
 62
   142
370
     5
100
AcDbSpline
210
0.0
220
0.0
230
1.0
 70
    11
 71
     3
 72
    28
 73
    24
 74
     0
 42
0.0000000001
 43
0.0000000001
 40
0.0
 40
0.0
 40
0.0
 40
0.0
 40
0.1666666666666667
 40
0.1666666666666667
 40
0.1666666666666667
 40
0.1666666666666667
 40
0.3333333333333333
 40
0.3333333333333333
 40
0.3333333333333333
 40
0.3333333333333333
 40
0.5
 40
0.5
 40
0.5
 40
0.5
 40
0.6666666666666666
 40
0.6666666666666666
 40
0.6666666666666666
 40
0.6666666666666666
 40
0.8333333333333333
 40
0.8333333333333333
 40
0.8333333333333333
 40
0.8333333333333333
 40
1.0
 40
1.0
 40
1.0
 40
1.0
 10
224.9703
 20
118.9489
 30
0.0
 10
218.0303
 20
118.4663
 30
0.0
 10
212.3392
 20
117.9026
 30
0.0
 10
212.8213
 20
123.677
 30
0.0
 10
212.8213
 20
123.677
 30
0.0
 10
212.8213
 20
123.677
 30
0.0
 10
222.3939
 20
123.5734
 30
0.0
 10
222.3939
 20
123.5734
 30
0.0
 10
222.3939
 20
123.5734
 30
0.0
 10
222.3939
 20
123.5734
 30
0.0
 10
222.4465
 20
125.8108
 30
0.0
 10
222.4465
 20
125.8108
 30
0.0
 10
222.4465
 20
125.8108
 30
0.0
 10
222.4465
 20
125.8108
 30
0.0
 10
213.2257
 20
125.9992
 30
0.0
 10
213.2257
 20
125.9992
 30
0.0
 10
213.2257
 20
125.9992
 30
0.0
 10
213.7743
 20
128.0724
 30
0.0
 10
215.9608
 20
131.7841
 30
0.0
 10
220.4476
 20
131.7169
 30
0.0
 10
220.4476
 20
131.7169
 30
0.0
 10
227.5122
 20
131.6111
 30
0.0
 10
229.2327
 20
119.2457
 30
0.0
 10
224.9703
 20
118.9489
 30
0.0
  0
SPLINE
  5
35
330
1F
100
AcDbEntity
  8
Camada 1
 62
   142
370
     5
100
AcDbSpline
210
0.0
220
0.0
230
1.0
 70
    11
 71
     3
 72
    28
 73
    24
 74
     0
 42
0.0000000001
 43
0.0000000001
 40
0.0
 40
0.0
 40
0.0
 40
0.0
 40
0.1666666666666667
 40
0.1666666666666667
 40
0.1666666666666667
 40
0.1666666666666667
 40
0.3333333333333333
 40
0.3333333333333333
 40
0.3333333333333333
 40
0.3333333333333333
 40
0.5
 40
0.5
 40
0.5
 40
0.5
 40
0.6666666666666666
 40
0.6666666666666666
 40
0.6666666666666666
 40
0.6666666666666666
 40
0.8333333333333333
 40
0.8333333333333333
 40
0.8333333333333333
 40
0.8333333333333333
 40
1.0
 40
1.0
 40
1.0
 40
1.0
 10
243.7616
 20
118.2898
 30
0.0
 10
236.4487
 20
117.7813
 30
0.0
 10
230.4517
 20
117.1873
 30
0.0
 10
230.9598
 20
123.272
 30
0.0
 10
230.9598
 20
123.272
 30
0.0
 10
230.9598
 20
123.272
 30
0.0
 10
241.0468
 20
123.1629
 30
0.0
 10
241.0468
 20
123.1629
 30
0.0
 10
241.0468
 20
123.1629
 30
0.0
 10
241.0468
 20
123.1629
 30
0.0
 10
241.1022
 20
125.5205
 30
0.0
 10
241.1022
 20
125.5205
 30
0.0
 10
241.1022
 20
125.5205
 30
0.0
 10
241.1022
 20
125.5205
 30
0.0
 10
231.3859
 20
125.719
 30
0.0
 10
231.3859
 20
125.719
 30
0.0
 10
231.3859
 20
125.719
 30
0.0
 10
231.964
 20
127.9036
 30
0.0
 10
234.268
 20
131.8148
 30
0.0
 10
238.9959
 20
131.744
 30
0.0
 10
238.9959
 20
131.744
 30
0.0
 10
246.4401
 20
131.6325
 30
0.0
 10
248.2531
 20
118.6026
 30
0.0
 10
243.7616
 20
118.2898
 30
0.0
  0
SPLINE
  5
36
330
1F
100
AcDbEntity
  8
Camada 1
 62
   142
370
     5
100
AcDbSpline
210
0.0
220
0.0
230
1.0
 70
    11
 71
     3
 72
    28
 73
    24
 74
     0
 42
0.0000000001
 43
0.0000000001
 40
0.0
 40
0.0
 40
0.0
 40
0.0
 40
0.1666666666666667
 40
0.1666666666666667
 40
0.1666666666666667
 40
0.1666666666666667
 40
0.3333333333333333
 40
0.3333333333333333
 40
0.3333333333333333
 40
0.3333333333333333
 40
0.5
 40
0.5
 40
0.5
 40
0.5
 40
0.6666666666666666
 40
0.6666666666666666
 40
0.6666666666666666
 40
0.6666666666666666
 40
0.8333333333333333
 40
0.8333333333333333
 40
0.8333333333333333
 40
0.8333333333333333
 40
1.0
 40
1.0
 40
1.0
 40
1.0
 10
262.854
 20
118.2089
 30
0.0
 10
255.5411
 20
117.7004
 30
0.0
 10
249.5441
 20
117.1064
 30
0.0
 10
250.0522
 20
123.1912
 30
0.0
 10
250.0522
 20
123.1912
 30
0.0
 10
250.0522
 20
123.1912
 30
0.0
 10
260.1392
 20
123.082
 30
0.0
 10
260.1392
 20
123.082
 30
0.0
 10
260.1392
 20
123.082
 30
0.0
 10
260.1392
 20
123.082
 30
0.0
 10
260.1946
 20
125.4396
 30
0.0
 10
260.1946
 20
125.4396
 30
0.0
 10
260.1946
 20
125.4396
 30
0.0
 10
260.1946
 20
125.4396
 30
0.0
 10
250.4782
 20
125.6381
 30
0.0
 10
250.4782
 20
125.6381
 30
0.0
 10
250.4782
 20
125.6381
 30
0.0
 10
251.0564
 20
127.8227
 30
0.0
 10
253.3604
 20
131.7339
 30
0.0
 10
258.0883
 20
131.6631
 30
0.0
 10
258.0883
 20
131.6631
 30
0.0
 10
265.5325
 20
131.5516
 30
0.0
 10
267.3455
 20
118.5217
 30
0.0
 10
262.854
 20
118.2089
 30
0.0
  0
SPLINE
  5
37
330
1F
100
AcDbEntity
  8
Camada 1
 62
   142
370
     5
100
AcDbSpline
210
0.0
220
0.0
230
1.0
 70
    11
 71
     3
 72
    28
 73
    24
 74
     0
 42
0.0000000001
 43
0.0000000001
 40
0.0
 40
0.0
 40
0.0
 40
0.0
 40
0.1666666666666667
 40
0.1666666666666667
 40
0.1666666666666667
 40
0.1666666666666667
 40
0.3333333333333333
 40
0.3333333333333333
 40
0.3333333333333333
 40
0.3333333333333333
 40
0.5
 40
0.5
 40
0.5
 40
0.5
 40
0.6666666666666666
 40
0.6666666666666666
 40
0.6666666666666666
 40
0.6666666666666666
 40
0.8333333333333333
 40
0.8333333333333333
 40
0.8333333333333333
 40
0.8333333333333333
 40
1.0
 40
1.0
 40
1.0
 40
1.0
 10
283.2394
 20
117.1756
 30
0.0
 10
275.5872
 20
116.6435
 30
0.0
 10
269.312
 20
116.022
 30
0.0
 10
269.8436
 20
122.3891
 30
0.0
 10
269.8436
 20
122.3891
 30
0.0
 10
269.8436
 20
122.3891
 30
0.0
 10
280.3987
 20
122.2748
 30
0.0
 10
280.3987
 20
122.2748
 30
0.0
 10
280.3987
 20
122.2748
 30
0.0
 10
280.3987
 20
122.2748
 30
0.0
 10
280.4566
 20
124.7418
 30
0.0
 10
280.4566
 20
124.7418
 30
0.0
 10
280.4566
 20
124.7418
 30
0.0
 10
280.4566
 20
124.7418
 30
0.0
 10
270.2894
 20
124.9495
 30
0.0
 10
270.2894
 20
124.9495
 30
0.0
 10
270.2894
 20
124.9495
 30
0.0
 10
270.8944
 20
127.2355
 30
0.0
 10
273.3053
 20
131.3281
 30
0.0
 10
278.2526
 20
131.2541
 30
0.0
 10
278.2526
 20
131.2541
 30
0.0
 10
286.0422
 20
131.1374
 30
0.0
 10
287.9393
 20
117.5029
 30
0.0
 10
283.2394
 20
117.1756
 30
0.0
  0
SPLINE
  5
38
330
1F
100
AcDbEntity
  8
Camada 1
 62
   142
370
     5
100
AcDbSpline
210
0.0
220
0.0
230
1.0
 70
    11
 71
     3
 72
    28
 73
    24
 74
     0
 42
0.0000000001
 43
0.0000000001
 40
0.0
 40
0.0
 40
0.0
 40
0.0
 40
0.1666666666666667
 40
0.1666666666666667
 40
0.1666666666666667
 40
0.1666666666666667
 40
0.3333333333333333
 40
0.3333333333333333
 40
0.3333333333333333
 40
0.3333333333333333
 40
0.5
 40
0.5
 40
0.5
 40
0.5
 40
0.6666666666666666
 40
0.6666666666666666
 40
0.6666666666666666
 40
0.6666666666666666
 40
0.8333333333333333
 40
0.8333333333333333
 40
0.8333333333333333
 40
0.8333333333333333
 40
1.0
 40
1.0
 40
1.0
 40
1.0
 10
305.1634
 20
116.933
 30
0.0
 10
297.5112
 20
116.4009
 30
0.0
 10
291.236
 20
115.7793
 30
0.0
 10
291.7676
 20
122.1463
 30
0.0
 10
291.7676
 20
122.1463
 30
0.0
 10
291.7676
 20
122.1463
 30
0.0
 10
302.3226
 20
122.0321
 30
0.0
 10
302.3226
 20
122.0321
 30
0.0
 10
302.3226
 20
122.0321
 30
0.0
 10
302.3226
 20
122.0321
 30
0.0
 10
302.3807
 20
124.4991
 30
0.0
 10
302.3807
 20
124.4991
 30
0.0
 10
302.3807
 20
124.4991
 30
0.0
 10
302.3807
 20
124.4991
 30
0.0
 10
292.2134
 20
124.7068
 30
0.0
 10
292.2134
 20
124.7068
 30
0.0
 10
292.2134
 20
124.7068
 30
0.0
 10
292.8184
 20
126.9928
 30
0.0
 10
295.2293
 20
131.0855
 30
0.0
 10
300.1766
 20
131.0114
 30
0.0
 10
300.1766
 20
131.0114
 30
0.0
 10
307.9662
 20
130.8947
 30
0.0
 10
309.8633
 20
117.2602
 30
0.0
 10
305.1634
 20
116.933
 30
0.0
  0
SPLINE
  5
39
330
1F
100
AcDbEntity
  8
Camada 1
 62
   142
370
     5
100
AcDbSpline
210
0.0
220
0.0
230
1.0
 70
    11
 71
     3
 72
    28
 73
    24
 74
     0
 42
0.0000000001
 43
0.0000000001
 40
0.0
 40
0.0
 40
0.0
 40
0.0
 40
0.1666666666666667
 40
0.1666666666666667
 40
0.1666666666666667
 40
0.1666666666666667
 40
0.3333333333333333
 40
0.3333333333333333
 40
0.3333333333333333
 40
0.3333333333333333
 40
0.5
 40
0.5
 40
0.5
 40
0.5
 40
0.6666666666666666
 40
0.6666666666666666
 40
0.6666666666666666
 40
0.6666666666666666
 40
0.8333333333333333
 40
0.8333333333333333
 40
0.8333333333333333
 40
0.8333333333333333
 40
1.0
 40
1.0
 40
1.0
 40
1.0
 10
294.987
 20
100.5665
 30
0.0
 10
286.7004
 20
99.99030000000001
 30
0.0
 10
279.905
 20
99.31710000000001
 30
0.0
 10
280.4806
 20
106.2119
 30
0.0
 10
280.4806
 20
106.2119
 30
0.0
 10
280.4806
 20
106.2119
 30
0.0
 10
291.9107
 20
106.0883
 30
0.0
 10
291.9107
 20
106.0883
 30
0.0
 10
291.9107
 20
106.0883
 30
0.0
 10
291.9107
 20
106.0883
 30
0.0
 10
291.9736
 20
108.7598
 30
0.0
 10
291.9736
 20
108.7598
 30
0.0
 10
291.9736
 20
108.7598
 30
0.0
 10
291.9736
 20
108.7598
 30
0.0
 10
280.9634
 20
108.9847
 30
0.0
 10
280.9634
 20
108.9847
 30
0.0
 10
280.9634
 20
108.9847
 30
0.0
 10
281.6185
 20
111.4603
 30
0.0
 10
284.2293
 20
115.8923
 30
0.0
 10
289.5868
 20
115.812
 30
0.0
 10
289.5868
 20
115.812
 30
0.0
 10
298.0222
 20
115.6857
 30
0.0
 10
300.0766
 20
100.9208
 30
0.0
 10
294.987
 20
100.5665
 30
0.0
  0
SPLINE
  5
3A
330
1F
100
AcDbEntity
  8
Camada 1
 62
   142
370
     5
100
AcDbSpline
210
0.0
220
0.0
230
1.0
 70
    11
 71
     3
 72
    28
 73
    24
 74
     0
 42
0.0000000001
 43
0.0000000001
 40
0.0
 40
0.0
 40
0.0
 40
0.0
 40
0.1666666666666667
 40
0.1666666666666667
 40
0.1666666666666667
 40
0.1666666666666667
 40
0.3333333333333333
 40
0.3333333333333333
 40
0.3333333333333333
 40
0.3333333333333333
 40
0.5
 40
0.5
 40
0.5
 40
0.5
 40
0.6666666666666666
 40
0.6666666666666666
 40
0.6666666666666666
 40
0.6666666666666666
 40
0.8333333333333333
 40
0.8333333333333333
 40
0.8333333333333333
 40
0.8333333333333333
 40
1.0
 40
1.0
 40
1.0
 40
1.0
 10
272.2371
 20
99.7013
 30
0.0
 10
264.5849
 20
99.1692
 30
0.0
 10
258.3097
 20
98.5476
 30
0.0
 10
258.8413
 20
104.9146
 30
0.0
 10
258.8413
 20
104.9146
 30
0.0
 10
258.8413
 20
104.9146
 30
0.0
 10
269.3963
 20
104.8004
 30
0.0
 10
269.3963
 20
104.8004
 30
0.0
 10
269.3963
 20
104.8004
 30
0.0
 10
269.3963
 20
104.8004
 30
0.0
 10
269.4544
 20
107.2674
 30
0.0
 10
269.4544
 20
107.2674
 30
0.0
 10
269.4544
 20
107.2674
 30
0.0
 10
269.4544
 20
107.2674
 30
0.0
 10
259.2871
 20
107.4751
 30
0.0
 10
259.2871
 20
107.4751
 30
0.0
 10
259.2871
 20
107.4751
 30
0.0
 10
259.8921
 20
109.7611
 30
0.0
 10
262.303
 20
113.8538
 30
0.0
 10
267.2503
 20
113.7797
 30
0.0
 10
267.2503
 20
113.7797
 30
0.0
 10
275.0399
 20
113.663
 30
0.0
 10
276.937
 20
100.0285
 30
0.0
 10
272.2371
 20
99.7013
 30
0.0
  0
SPLINE
  5
3B
330
1F
100
AcDbEntity
  8
Camada 1
 62
   142
370
     5
100
AcDbSpline
210
0.0
220
0.0
230
1.0
 70
    11
 71
     3
 72
    28
 73
    24
 74
     0
 42
0.0000000001
 43
0.0000000001
 40
0.0
 40
0.0
 40
0.0
 40
0.0
 40
0.1666666666666667
 40
0.1666666666666667
 40
0.1666666666666667
 40
0.1666666666666667
 40
0.3333333333333333
 40
0.3333333333333333
 40
0.3333333333333333
 40
0.3333333333333333
 40
0.5
 40
0.5
 40
0.5
 40
0.5
 40
0.6666666666666666
 40
0.6666666666666666
 40
0.6666666666666666
 40
0.6666666666666666
 40
0.8333333333333333
 40
0.8333333333333333
 40
0.8333333333333333
 40
0.8333333333333333
 40
1.0
 40
1.0
 40
1.0
 40
1.0
 10
252.9829
 20
100.0249
 30
0.0
 10
245.3307
 20
99.4928
 30
0.0
 10
239.0555
 20
98.8712
 30
0.0
 10
239.5871
 20
105.2382
 30
0.0
 10
239.5871
 20
105.2382
 30
0.0
 10
239.5871
 20
105.2382
 30
0.0
 10
250.1421
 20
105.124
 30
0.0
 10
250.1421
 20
105.124
 30
0.0
 10
250.1421
 20
105.124
 30
0.0
 10
250.1421
 20
105.124
 30
0.0
 10
250.2002
 20
107.591
 30
0.0
 10
250.2002
 20
107.591
 30
0.0
 10
250.2002
 20
107.591
 30
0.0
 10
250.2002
 20
107.591
 30
0.0
 10
240.0329
 20
107.7987
 30
0.0
 10
240.0329
 20
107.7987
 30
0.0
 10
240.0329
 20
107.7987
 30
0.0
 10
240.6379
 20
110.0847
 30
0.0
 10
243.0488
 20
114.1774
 30
0.0
 10
247.9961
 20
114.1033
 30
0.0
 10
247.9961
 20
114.1033
 30
0.0
 10
255.7857
 20
113.9866
 30
0.0
 10
257.6828
 20
100.3521
 30
0.0
 10
252.9829
 20
100.0249
 30
0.0
  0
SPLINE
  5
3C
330
1F
100
AcDbEntity
  8
Camada 1
 62
   142
370
     5
100
AcDbSpline
210
0.0
220
0.0
230
1.0
 70
    11
 71
     3
 72
    28
 73
    24
 74
     0
 42
0.0000000001
 43
0.0000000001
 40
0.0
 40
0.0
 40
0.0
 40
0.0
 40
0.1666666666666667
 40
0.1666666666666667
 40
0.1666666666666667
 40
0.1666666666666667
 40
0.3333333333333333
 40
0.3333333333333333
 40
0.3333333333333333
 40
0.3333333333333333
 40
0.5
 40
0.5
 40
0.5
 40
0.5
 40
0.6666666666666666
 40
0.6666666666666666
 40
0.6666666666666666
 40
0.6666666666666666
 40
0.8333333333333333
 40
0.8333333333333333
 40
0.8333333333333333
 40
0.8333333333333333
 40
1.0
 40
1.0
 40
1.0
 40
1.0
 10
233.9714
 20
100.5912
 30
0.0
 10
226.3192
 20
100.0591
 30
0.0
 10
220.044
 20
99.4375
 30
0.0
 10
220.5756
 20
105.8045
 30
0.0
 10
220.5756
 20
105.8045
 30
0.0
 10
220.5756
 20
105.8045
 30
0.0
 10
231.1306
 20
105.6903
 30
0.0
 10
231.1306
 20
105.6903
 30
0.0
 10
231.1306
 20
105.6903
 30
0.0
 10
231.1306
 20
105.6903
 30
0.0
 10
231.1887
 20
108.1573
 30
0.0
 10
231.1887
 20
108.1573
 30
0.0
 10
231.1887
 20
108.1573
 30
0.0
 10
231.1887
 20
108.1573
 30
0.0
 10
221.0214
 20
108.365
 30
0.0
 10
221.0214
 20
108.365
 30
0.0
 10
221.0214
 20
108.365
 30
0.0
 10
221.6264
 20
110.651
 30
0.0
 10
224.0373
 20
114.7437
 30
0.0
 10
228.9846
 20
114.6696
 30
0.0
 10
228.9846
 20
114.6696
 30
0.0
 10
236.7742
 20
114.5529
 30
0.0
 10
238.6713
 20
100.9184
 30
0.0
 10
233.9714
 20
100.5912
 30
0.0
  0
SPLINE
  5
3D
330
1F
100
AcDbEntity
  8
Camada 1
 62
   142
370
     5
100
AcDbSpline
210
0.0
220
0.0
230
1.0
 70
    11
 71
     3
 72
    28
 73
    24
 74
     0
 42
0.0000000001
 43
0.0000000001
 40
0.0
 40
0.0
 40
0.0
 40
0.0
 40
0.1666666666666667
 40
0.1666666666666667
 40
0.1666666666666667
 40
0.1666666666666667
 40
0.3333333333333333
 40
0.3333333333333333
 40
0.3333333333333333
 40
0.3333333333333333
 40
0.5
 40
0.5
 40
0.5
 40
0.5
 40
0.6666666666666666
 40
0.6666666666666666
 40
0.6666666666666666
 40
0.6666666666666666
 40
0.8333333333333333
 40
0.8333333333333333
 40
0.8333333333333333
 40
0.8333333333333333
 40
1.0
 40
1.0
 40
1.0
 40
1.0
 10
215.2694
 20
101.3902
 30
0.0
 10
207.6172
 20
100.8581
 30
0.0
 10
201.342
 20
100.2365
 30
0.0
 10
201.8736
 20
106.6035
 30
0.0
 10
201.8736
 20
106.6035
 30
0.0
 10
201.8736
 20
106.6035
 30
0.0
 10
212.4286
 20
106.4893
 30
0.0
 10
212.4286
 20
106.4893
 30
0.0
 10
212.4286
 20
106.4893
 30
0.0
 10
212.4286
 20
106.4893
 30
0.0
 10
212.4867
 20
108.9563
 30
0.0
 10
212.4867
 20
108.9563
 30
0.0
 10
212.4867
 20
108.9563
 30
0.0
 10
212.4867
 20
108.9563
 30
0.0
 10
202.3194
 20
109.164
 30
0.0
 10
202.3194
 20
109.164
 30
0.0
 10
202.3194
 20
109.164
 30
0.0
 10
202.9244
 20
111.45
 30
0.0
 10
205.3353
 20
115.5427
 30
0.0
 10
210.2826
 20
115.4686
 30
0.0
 10
210.2826
 20
115.4686
 30
0.0
 10
218.0722
 20
115.3519
 30
0.0
 10
219.9693
 20
101.7174
 30
0.0
 10
215.2694
 20
101.3902
 30
0.0
  0
SPLINE
  5
3E
330
1F
100
AcDbEntity
  8
Camada 1
 62
   142
370
     5
100
AcDbSpline
210
0.0
220
0.0
230
1.0
 70
    11
 71
     3
 72
    28
 73
    24
 74
     0
 42
0.0000000001
 43
0.0000000001
 40
0.0
 40
0.0
 40
0.0
 40
0.0
 40
0.1666666666666667
 40
0.1666666666666667
 40
0.1666666666666667
 40
0.1666666666666667
 40
0.3333333333333333
 40
0.3333333333333333
 40
0.3333333333333333
 40
0.3333333333333333
 40
0.5
 40
0.5
 40
0.5
 40
0.5
 40
0.6666666666666666
 40
0.6666666666666666
 40
0.6666666666666666
 40
0.6666666666666666
 40
0.8333333333333333
 40
0.8333333333333333
 40
0.8333333333333333
 40
0.8333333333333333
 40
1.0
 40
1.0
 40
1.0
 40
1.0
 10
195.572
 20
104.3642
 30
0.0
 10
188.5262
 20
103.8743
 30
0.0
 10
182.7483
 20
103.3018
 30
0.0
 10
183.2379
 20
109.1643
 30
0.0
 10
183.2379
 20
109.1643
 30
0.0
 10
183.2379
 20
109.1643
 30
0.0
 10
192.9564
 20
109.0591
 30
0.0
 10
192.9564
 20
109.0591
 30
0.0
 10
192.9564
 20
109.0591
 30
0.0
 10
192.9564
 20
109.0591
 30
0.0
 10
193.0099
 20
111.3307
 30
0.0
 10
193.0099
 20
111.3307
 30
0.0
 10
193.0099
 20
111.3307
 30
0.0
 10
193.0099
 20
111.3307
 30
0.0
 10
183.6482
 20
111.5219
 30
0.0
 10
183.6482
 20
111.5219
 30
0.0
 10
183.6482
 20
111.5219
 30
0.0
 10
184.2053
 20
113.6267
 30
0.0
 10
186.4251
 20
117.3951
 30
0.0
 10
190.9805
 20
117.3269
 30
0.0
 10
190.9805
 20
117.3269
 30
0.0
 10
198.1527
 20
117.2194
 30
0.0
 10
199.8995
 20
104.6654
 30
0.0
 10
195.572
 20
104.3642
 30
0.0
  0
SPLINE
  5
3F
330
1F
100
AcDbEntity
  8
Camada 1
 62
   142
370
     5
100
AcDbSpline
210
0.0
220
0.0
230
1.0
 70
    11
 71
     3
 72
    28
 73
    24
 74
     0
 42
0.0000000001
 43
0.0000000001
 40
0.0
 40
0.0
 40
0.0
 40
0.0
 40
0.1666666666666667
 40
0.1666666666666667
 40
0.1666666666666667
 40
0.1666666666666667
 40
0.3333333333333333
 40
0.3333333333333333
 40
0.3333333333333333
 40
0.3333333333333333
 40
0.5
 40
0.5
 40
0.5
 40
0.5
 40
0.6666666666666666
 40
0.6666666666666666
 40
0.6666666666666666
 40
0.6666666666666666
 40
0.8333333333333333
 40
0.8333333333333333
 40
0.8333333333333333
 40
0.8333333333333333
 40
1.0
 40
1.0
 40
1.0
 40
1.0
 10
177.4764
 20
102.9164
 30
0.0
 10
170.4305
 20
102.4264
 30
0.0
 10
164.6526
 20
101.8541
 30
0.0
 10
165.1421
 20
107.7166
 30
0.0
 10
165.1421
 20
107.7166
 30
0.0
 10
165.1421
 20
107.7166
 30
0.0
 10
174.8607
 20
107.6114
 30
0.0
 10
174.8607
 20
107.6114
 30
0.0
 10
174.8607
 20
107.6114
 30
0.0
 10
174.8607
 20
107.6114
 30
0.0
 10
174.9141
 20
109.8829
 30
0.0
 10
174.9141
 20
109.8829
 30
0.0
 10
174.9141
 20
109.8829
 30
0.0
 10
174.9141
 20
109.8829
 30
0.0
 10
165.5526
 20
110.0742
 30
0.0
 10
165.5526
 20
110.0742
 30
0.0
 10
165.5526
 20
110.0742
 30
0.0
 10
166.1096
 20
112.179
 30
0.0
 10
168.3295
 20
115.9474
 30
0.0
 10
172.8847
 20
115.8792
 30
0.0
 10
172.8847
 20
115.8792
 30
0.0
 10
180.0571
 20
115.7717
 30
0.0
 10
181.8038
 20
103.2177
 30
0.0
 10
177.4764
 20
102.9164
 30
0.0
  0
SPLINE
  5
40
330
1F
100
AcDbEntity
  8
Camada 1
 62
   142
370
     5
100
AcDbSpline
210
0.0
220
0.0
230
1.0
 70
    11
 71
     3
 72
    28
 73
    24
 74
     0
 42
0.0000000001
 43
0.0000000001
 40
0.0
 40
0.0
 40
0.0
 40
0.0
 40
0.1666666666666667
 40
0.1666666666666667
 40
0.1666666666666667
 40
0.1666666666666667
 40
0.3333333333333333
 40
0.3333333333333333
 40
0.3333333333333333
 40
0.3333333333333333
 40
0.5
 40
0.5
 40
0.5
 40
0.5
 40
0.6666666666666666
 40
0.6666666666666666
 40
0.6666666666666666
 40
0.6666666666666666
 40
0.8333333333333333
 40
0.8333333333333333
 40
0.8333333333333333
 40
0.8333333333333333
 40
1.0
 40
1.0
 40
1.0
 40
1.0
 10
159.4357
 20
104.2108
 30
0.0
 10
152.3898
 20
103.7208
 30
0.0
 10
146.6119
 20
103.1485
 30
0.0
 10
147.1014
 20
109.011
 30
0.0
 10
147.1014
 20
109.011
 30
0.0
 10
147.1014
 20
109.011
 30
0.0
 10
156.82
 20
108.9058
 30
0.0
 10
156.82
 20
108.9058
 30
0.0
 10
156.82
 20
108.9058
 30
0.0
 10
156.82
 20
108.9058
 30
0.0
 10
156.8734
 20
111.1773
 30
0.0
 10
156.8734
 20
111.1773
 30
0.0
 10
156.8734
 20
111.1773
 30
0.0
 10
156.8734
 20
111.1773
 30
0.0
 10
147.5119
 20
111.3686
 30
0.0
 10
147.5119
 20
111.3686
 30
0.0
 10
147.5119
 20
111.3686
 30
0.0
 10
148.0689
 20
113.4734
 30
0.0
 10
150.2888
 20
117.2418
 30
0.0
 10
154.844
 20
117.1736
 30
0.0
 10
154.844
 20
117.1736
 30
0.0
 10
162.0164
 20
117.0661
 30
0.0
 10
163.7631
 20
104.5121
 30
0.0
 10
159.4357
 20
104.2108
 30
0.0
  0
SPLINE
  5
41
330
1F
100
AcDbEntity
  8
Camada 1
 62
   142
370
     5
100
AcDbSpline
210
0.0
220
0.0
230
1.0
 70
    11
 71
     3
 72
    28
 73
    24
 74
     0
 42
0.0000000001
 43
0.0000000001
 40
0.0
 40
0.0
 40
0.0
 40
0.0
 40
0.1666666666666667
 40
0.1666666666666667
 40
0.1666666666666667
 40
0.1666666666666667
 40
0.3333333333333333
 40
0.3333333333333333
 40
0.3333333333333333
 40
0.3333333333333333
 40
0.5
 40
0.5
 40
0.5
 40
0.5
 40
0.6666666666666666
 40
0.6666666666666666
 40
0.6666666666666666
 40
0.6666666666666666
 40
0.8333333333333333
 40
0.8333333333333333
 40
0.8333333333333333
 40
0.8333333333333333
 40
1.0
 40
1.0
 40
1.0
 40
1.0
 10
149.0019
 20
91.71590000000001
 30
0.0
 10
142.6354
 20
91.27330000000001
 30
0.0
 10
137.4145
 20
90.75620000000001
 30
0.0
 10
137.8568
 20
96.05340000000001
 30
0.0
 10
137.8568
 20
96.05340000000001
 30
0.0
 10
137.8568
 20
96.05340000000001
 30
0.0
 10
146.6383
 20
95.95840000000001
 30
0.0
 10
146.6383
 20
95.95840000000001
 30
0.0
 10
146.6383
 20
95.95840000000001
 30
0.0
 10
146.6383
 20
95.95840000000001
 30
0.0
 10
146.6866
 20
98.0108
 30
0.0
 10
146.6866
 20
98.0108
 30
0.0
 10
146.6866
 20
98.0108
 30
0.0
 10
146.6866
 20
98.0108
 30
0.0
 10
138.2277
 20
98.18380000000001
 30
0.0
 10
138.2277
 20
98.18380000000001
 30
0.0
 10
138.2277
 20
98.18380000000001
 30
0.0
 10
138.731
 20
100.0856
 30
0.0
 10
140.7369
 20
103.4906
 30
0.0
 10
144.853
 20
103.429
 30
0.0
 10
144.853
 20
103.429
 30
0.0
 10
151.3337
 20
103.332
 30
0.0
 10
152.9119
 20
91.98830000000001
 30
0.0
 10
149.0019
 20
91.71590000000001
 30
0.0
  0
SPLINE
  5
42
330
1F
100
AcDbEntity
  8
Camada 1
 62
   142
370
     5
100
AcDbSpline
210
0.0
220
0.0
230
1.0
 70
    11
 71
     3
 72
    28
 73
    24
 74
     0
 42
0.0000000001
 43
0.0000000001
 40
0.0
 40
0.0
 40
0.0
 40
0.0
 40
0.1666666666666667
 40
0.1666666666666667
 40
0.1666666666666667
 40
0.1666666666666667
 40
0.3333333333333333
 40
0.3333333333333333
 40
0.3333333333333333
 40
0.3333333333333333
 40
0.5
 40
0.5
 40
0.5
 40
0.5
 40
0.6666666666666666
 40
0.6666666666666666
 40
0.6666666666666666
 40
0.6666666666666666
 40
0.8333333333333333
 40
0.8333333333333333
 40
0.8333333333333333
 40
0.8333333333333333
 40
1.0
 40
1.0
 40
1.0
 40
1.0
 10
262.9336
 20
81.4179
 30
0.0
 10
255.2814
 20
80.8858
 30
0.0
 10
249.0062
 20
80.2642
 30
0.0
 10
249.5378
 20
86.63120000000001
 30
0.0
 10
249.5378
 20
86.63120000000001
 30
0.0
 10
249.5378
 20
86.63120000000001
 30
0.0
 10
260.0928
 20
86.51700000000001
 30
0.0
 10
260.0928
 20
86.51700000000001
 30
0.0
 10
260.0928
 20
86.51700000000001
 30
0.0
 10
260.0928
 20
86.51700000000001
 30
0.0
 10
260.1509
 20
88.98400000000001
 30
0.0
 10
260.1509
 20
88.98400000000001
 30
0.0
 10
260.1509
 20
88.98400000000001
 30
0.0
 10
260.1509
 20
88.98400000000001
 30
0.0
 10
249.9836
 20
89.1917
 30
0.0
 10
249.9836
 20
89.1917
 30
0.0
 10
249.9836
 20
89.1917
 30
0.0
 10
250.5886
 20
91.4777
 30
0.0
 10
252.9995
 20
95.57040000000001
 30
0.0
 10
257.9468
 20
95.49630000000001
 30
0.0
 10
257.9468
 20
95.49630000000001
 30
0.0
 10
265.7364
 20
95.37960000000001
 30
0.0
 10
267.6335
 20
81.74510000000001
 30
0.0
 10
262.9336
 20
81.4179
 30
0.0
  0
SPLINE
  5
43
330
1F
100
AcDbEntity
  8
Camada 1
 62
   142
370
     5
100
AcDbSpline
210
0.0
220
0.0
230
1.0
 70
    11
 71
     3
 72
    28
 73
    24
 74
     0
 42
0.0000000001
 43
0.0000000001
 40
0.0
 40
0.0
 40
0.0
 40
0.0
 40
0.1666666666666667
 40
0.1666666666666667
 40
0.1666666666666667
 40
0.1666666666666667
 40
0.3333333333333333
 40
0.3333333333333333
 40
0.3333333333333333
 40
0.3333333333333333
 40
0.5
 40
0.5
 40
0.5
 40
0.5
 40
0.6666666666666666
 40
0.6666666666666666
 40
0.6666666666666666
 40
0.6666666666666666
 40
0.8333333333333333
 40
0.8333333333333333
 40
0.8333333333333333
 40
0.8333333333333333
 40
1.0
 40
1.0
 40
1.0
 40
1.0
 10
242.0614
 20
81.9842
 30
0.0
 10
234.4092
 20
81.4521
 30
0.0
 10
228.134
 20
80.8305
 30
0.0
 10
228.6656
 20
87.19750000000001
 30
0.0
 10
228.6656
 20
87.19750000000001
 30
0.0
 10
228.6656
 20
87.19750000000001
 30
0.0
 10
239.2206
 20
87.08330000000001
 30
0.0
 10
239.2206
 20
87.08330000000001
 30
0.0
 10
239.2206
 20
87.08330000000001
 30
0.0
 10
239.2206
 20
87.08330000000001
 30
0.0
 10
239.2787
 20
89.55030000000001
 30
0.0
 10
239.2787
 20
89.55030000000001
 30
0.0
 10
239.2787
 20
89.55030000000001
 30
0.0
 10
239.2787
 20
89.55030000000001
 30
0.0
 10
229.1114
 20
89.75800000000001
 30
0.0
 10
229.1114
 20
89.75800000000001
 30
0.0
 10
229.1114
 20
89.75800000000001
 30
0.0
 10
229.7164
 20
92.04400000000001
 30
0.0
 10
232.1273
 20
96.13670000000001
 30
0.0
 10
237.0746
 20
96.0626
 30
0.0
 10
237.0746
 20
96.0626
 30
0.0
 10
244.8642
 20
95.94590000000001
 30
0.0
 10
246.7613
 20
82.31140000000001
 30
0.0
 10
242.0614
 20
81.9842
 30
0.0
  0
SPLINE
  5
44
330
1F
100
AcDbEntity
  8
Camada 1
 62
   142
370
     5
100
AcDbSpline
210
0.0
220
0.0
230
1.0
 70
    11
 71
     3
 72
    28
 73
    24
 74
     0
 42
0.0000000001
 43
0.0000000001
 40
0.0
 40
0.0
 40
0.0
 40
0.0
 40
0.1666666666666667
 40
0.1666666666666667
 40
0.1666666666666667
 40
0.1666666666666667
 40
0.3333333333333333
 40
0.3333333333333333
 40
0.3333333333333333
 40
0.3333333333333333
 40
0.5
 40
0.5
 40
0.5
 40
0.5
 40
0.6666666666666666
 40
0.6666666666666666
 40
0.6666666666666666
 40
0.6666666666666666
 40
0.8333333333333333
 40
0.8333333333333333
 40
0.8333333333333333
 40
0.8333333333333333
 40
1.0
 40
1.0
 40
1.0
 40
1.0
 10
284.9079
 20
81.12820000000001
 30
0.0
 10
276.8436
 20
80.56740000000001
 30
0.0
 10
270.2305
 20
79.91240000000001
 30
0.0
 10
270.7907
 20
86.62220000000001
 30
0.0
 10
270.7907
 20
86.62220000000001
 30
0.0
 10
270.7907
 20
86.62220000000001
 30
0.0
 10
281.9141
 20
86.50190000000001
 30
0.0
 10
281.9141
 20
86.50190000000001
 30
0.0
 10
281.9141
 20
86.50190000000001
 30
0.0
 10
281.9141
 20
86.50190000000001
 30
0.0
 10
281.9753
 20
89.10170000000001
 30
0.0
 10
281.9753
 20
89.10170000000001
 30
0.0
 10
281.9753
 20
89.10170000000001
 30
0.0
 10
281.9753
 20
89.10170000000001
 30
0.0
 10
271.2605
 20
89.3206
 30
0.0
 10
271.2605
 20
89.3206
 30
0.0
 10
271.2605
 20
89.3206
 30
0.0
 10
271.8981
 20
91.72970000000001
 30
0.0
 10
274.4388
 20
96.0428
 30
0.0
 10
279.6525
 20
95.96470000000001
 30
0.0
 10
279.6525
 20
95.96470000000001
 30
0.0
 10
287.8616
 20
95.8417
 30
0.0
 10
289.8608
 20
81.473
 30
0.0
 10
284.9079
 20
81.12820000000001
 30
0.0
  0
SPLINE
  5
45
330
1F
100
AcDbEntity
  8
Camada 1
 62
   142
370
     5
100
AcDbSpline
210
0.0
220
0.0
230
1.0
 70
    11
 71
     3
 72
    28
 73
    24
 74
     0
 42
0.0000000001
 43
0.0000000001
 40
0.0
 40
0.0
 40
0.0
 40
0.0
 40
0.1666666666666667
 40
0.1666666666666667
 40
0.1666666666666667
 40
0.1666666666666667
 40
0.3333333333333333
 40
0.3333333333333333
 40
0.3333333333333333
 40
0.3333333333333333
 40
0.5
 40
0.5
 40
0.5
 40
0.5
 40
0.6666666666666666
 40
0.6666666666666666
 40
0.6666666666666666
 40
0.6666666666666666
 40
0.8333333333333333
 40
0.8333333333333333
 40
0.8333333333333333
 40
0.8333333333333333
 40
1.0
 40
1.0
 40
1.0
 40
1.0
 10
306.0227
 20
83.55510000000001
 30
0.0
 10
297.9584
 20
82.9944
 30
0.0
 10
291.3453
 20
82.33930000000001
 30
0.0
 10
291.9056
 20
89.0492
 30
0.0
 10
291.9056
 20
89.0492
 30
0.0
 10
291.9056
 20
89.0492
 30
0.0
 10
303.0289
 20
88.92880000000001
 30
0.0
 10
303.0289
 20
88.92880000000001
 30
0.0
 10
303.0289
 20
88.92880000000001
 30
0.0
 10
303.0289
 20
88.92880000000001
 30
0.0
 10
303.0901
 20
91.5287
 30
0.0
 10
303.0901
 20
91.5287
 30
0.0
 10
303.0901
 20
91.5287
 30
0.0
 10
303.0901
 20
91.5287
 30
0.0
 10
292.3754
 20
91.74760000000001
 30
0.0
 10
292.3754
 20
91.74760000000001
 30
0.0
 10
292.3754
 20
91.74760000000001
 30
0.0
 10
293.0129
 20
94.1566
 30
0.0
 10
295.5537
 20
98.4697
 30
0.0
 10
300.7673
 20
98.39160000000001
 30
0.0
 10
300.7673
 20
98.39160000000001
 30
0.0
 10
308.9764
 20
98.26860000000001
 30
0.0
 10
310.9756
 20
83.90000000000001
 30
0.0
 10
306.0227
 20
83.55510000000001
 30
0.0
  0
SPLINE
  5
46
330
1F
100
AcDbEntity
  8
Camada 1
 62
   142
370
     5
100
AcDbSpline
210
0.0
220
0.0
230
1.0
 70
    11
 71
     3
 72
    28
 73
    24
 74
     0
 42
0.0000000001
 43
0.0000000001
 40
0.0
 40
0.0
 40
0.0
 40
0.0
 40
0.1666666666666667
 40
0.1666666666666667
 40
0.1666666666666667
 40
0.1666666666666667
 40
0.3333333333333333
 40
0.3333333333333333
 40
0.3333333333333333
 40
0.3333333333333333
 40
0.5
 40
0.5
 40
0.5
 40
0.5
 40
0.6666666666666666
 40
0.6666666666666666
 40
0.6666666666666666
 40
0.6666666666666666
 40
0.8333333333333333
 40
0.8333333333333333
 40
0.8333333333333333
 40
0.8333333333333333
 40
1.0
 40
1.0
 40
1.0
 40
1.0
 10
300.4406
 20
65.029
 30
0.0
 10
292.3763
 20
64.4683
 30
0.0
 10
285.7632
 20
63.8132
 30
0.0
 10
286.3235
 20
70.5231
 30
0.0
 10
286.3235
 20
70.5231
 30
0.0
 10
286.3235
 20
70.5231
 30
0.0
 10
297.4468
 20
70.40270000000001
 30
0.0
 10
297.4468
 20
70.40270000000001
 30
0.0
 10
297.4468
 20
70.40270000000001
 30
0.0
 10
297.4468
 20
70.40270000000001
 30
0.0
 10
297.508
 20
73.0026
 30
0.0
 10
297.508
 20
73.0026
 30
0.0
 10
297.508
 20
73.0026
 30
0.0
 10
297.508
 20
73.0026
 30
0.0
 10
286.7933
 20
73.22150000000001
 30
0.0
 10
286.7933
 20
73.22150000000001
 30
0.0
 10
286.7933
 20
73.22150000000001
 30
0.0
 10
287.4308
 20
75.6305
 30
0.0
 10
289.9716
 20
79.9436
 30
0.0
 10
295.1852
 20
79.8655
 30
0.0
 10
295.1852
 20
79.8655
 30
0.0
 10
303.3943
 20
79.74250000000001
 30
0.0
 10
305.3935
 20
65.37390000000001
 30
0.0
 10
300.4406
 20
65.029
 30
0.0
  0
SPLINE
  5
47
330
1F
100
AcDbEntity
  8
Camada 1
 62
   142
370
     5
100
AcDbSpline
210
0.0
220
0.0
230
1.0
 70
    11
 71
     3
 72
    28
 73
    24
 74
     0
 42
0.0000000001
 43
0.0000000001
 40
0.0
 40
0.0
 40
0.0
 40
0.0
 40
0.1666666666666667
 40
0.1666666666666667
 40
0.1666666666666667
 40
0.1666666666666667
 40
0.3333333333333333
 40
0.3333333333333333
 40
0.3333333333333333
 40
0.3333333333333333
 40
0.5
 40
0.5
 40
0.5
 40
0.5
 40
0.6666666666666666
 40
0.6666666666666666
 40
0.6666666666666666
 40
0.6666666666666666
 40
0.8333333333333333
 40
0.8333333333333333
 40
0.8333333333333333
 40
0.8333333333333333
 40
1.0
 40
1.0
 40
1.0
 40
1.0
 10
304.2429
 20
46.5029
 30
0.0
 10
296.1786
 20
45.9422
 30
0.0
 10
289.5655
 20
45.2871
 30
0.0
 10
290.1258
 20
51.997
 30
0.0
 10
290.1258
 20
51.997
 30
0.0
 10
290.1258
 20
51.997
 30
0.0
 10
301.2491
 20
51.8766
 30
0.0
 10
301.2491
 20
51.8766
 30
0.0
 10
301.2491
 20
51.8766
 30
0.0
 10
301.2491
 20
51.8766
 30
0.0
 10
301.3103
 20
54.4765
 30
0.0
 10
301.3103
 20
54.4765
 30
0.0
 10
301.3103
 20
54.4765
 30
0.0
 10
301.3103
 20
54.4765
 30
0.0
 10
290.5956
 20
54.6954
 30
0.0
 10
290.5956
 20
54.6954
 30
0.0
 10
290.5956
 20
54.6954
 30
0.0
 10
291.2331
 20
57.10440000000001
 30
0.0
 10
293.7739
 20
61.4175
 30
0.0
 10
298.9875
 20
61.33940000000001
 30
0.0
 10
298.9875
 20
61.33940000000001
 30
0.0
 10
307.1966
 20
61.2164
 30
0.0
 10
309.1958
 20
46.8478
 30
0.0
 10
304.2429
 20
46.5029
 30
0.0
  0
SPLINE
  5
48
330
1F
100
AcDbEntity
  8
Camada 1
 62
   142
370
     5
100
AcDbSpline
210
0.0
220
0.0
230
1.0
 70
    11
 71
     3
 72
    28
 73
    24
 74
     0
 42
0.0000000001
 43
0.0000000001
 40
0.0
 40
0.0
 40
0.0
 40
0.0
 40
0.1666666666666667
 40
0.1666666666666667
 40
0.1666666666666667
 40
0.1666666666666667
 40
0.3333333333333333
 40
0.3333333333333333
 40
0.3333333333333333
 40
0.3333333333333333
 40
0.5
 40
0.5
 40
0.5
 40
0.5
 40
0.6666666666666666
 40
0.6666666666666666
 40
0.6666666666666666
 40
0.6666666666666666
 40
0.8333333333333333
 40
0.8333333333333333
 40
0.8333333333333333
 40
0.8333333333333333
 40
1.0
 40
1.0
 40
1.0
 40
1.0
 10
305.5063
 20
18.09
 30
0.0
 10
296.8611
 20
17.4889
 30
0.0
 10
289.7717
 20
16.7866
 30
0.0
 10
290.3724
 20
23.9798
 30
0.0
 10
290.3724
 20
23.9798
 30
0.0
 10
290.3724
 20
23.9798
 30
0.0
 10
302.2969
 20
23.8507
 30
0.0
 10
302.2969
 20
23.8507
 30
0.0
 10
302.2969
 20
23.8507
 30
0.0
 10
302.2969
 20
23.8507
 30
0.0
 10
302.3625
 20
26.6379
 30
0.0
 10
302.3625
 20
26.6379
 30
0.0
 10
302.3625
 20
26.6379
 30
0.0
 10
302.3625
 20
26.6379
 30
0.0
 10
290.876
 20
26.8725
 30
0.0
 10
290.876
 20
26.8725
 30
0.0
 10
290.876
 20
26.8725
 30
0.0
 10
291.5594
 20
29.455
 30
0.0
 10
294.2832
 20
34.0788
 30
0.0
 10
299.8724
 20
33.9951
 30
0.0
 10
299.8724
 20
33.9951
 30
0.0
 10
308.6727
 20
33.8632
 30
0.0
 10
310.8159
 20
18.4597
 30
0.0
 10
305.5063
 20
18.09
 30
0.0
  0
SPLINE
  5
49
330
1F
100
AcDbEntity
  8
Camada 1
 62
   142
370
     5
100
AcDbSpline
210
0.0
220
0.0
230
1.0
 70
    11
 71
     3
 72
    28
 73
    24
 74
     0
 42
0.0000000001
 43
0.0000000001
 40
0.0
 40
0.0
 40
0.0
 40
0.0
 40
0.1666666666666667
 40
0.1666666666666667
 40
0.1666666666666667
 40
0.1666666666666667
 40
0.3333333333333333
 40
0.3333333333333333
 40
0.3333333333333333
 40
0.3333333333333333
 40
0.5
 40
0.5
 40
0.5
 40
0.5
 40
0.6666666666666666
 40
0.6666666666666666
 40
0.6666666666666666
 40
0.6666666666666666
 40
0.8333333333333333
 40
0.8333333333333333
 40
0.8333333333333333
 40
0.8333333333333333
 40
1.0
 40
1.0
 40
1.0
 40
1.0
 10
279.7388
 20
17.1801
 30
0.0
 10
271.0936
 20
16.5789
 30
0.0
 10
264.0042
 20
15.8767
 30
0.0
 10
264.6048
 20
23.0699
 30
0.0
 10
264.6048
 20
23.0699
 30
0.0
 10
264.6048
 20
23.0699
 30
0.0
 10
276.5294
 20
22.9408
 30
0.0
 10
276.5294
 20
22.9408
 30
0.0
 10
276.5294
 20
22.9408
 30
0.0
 10
276.5294
 20
22.9408
 30
0.0
 10
276.5949
 20
25.7279
 30
0.0
 10
276.5949
 20
25.7279
 30
0.0
 10
276.5949
 20
25.7279
 30
0.0
 10
276.5949
 20
25.7279
 30
0.0
 10
265.1085
 20
25.9626
 30
0.0
 10
265.1085
 20
25.9626
 30
0.0
 10
265.1085
 20
25.9626
 30
0.0
 10
265.7919
 20
28.5452
 30
0.0
 10
268.5157
 20
33.1689
 30
0.0
 10
274.1049
 20
33.0852
 30
0.0
 10
274.1049
 20
33.0852
 30
0.0
 10
282.9053
 20
32.9534
 30
0.0
 10
285.0485
 20
17.5498
 30
0.0
 10
279.7388
 20
17.1801
 30
0.0
  0
SPLINE
  5
4A
330
1F
100
AcDbEntity
  8
Camada 1
 62
   142
370
     5
100
AcDbSpline
210
0.0
220
0.0
230
1.0
 70
    11
 71
     3
 72
    28
 73
    24
 74
     0
 42
0.0000000001
 43
0.0000000001
 40
0.0
 40
0.0
 40
0.0
 40
0.0
 40
0.1666666666666667
 40
0.1666666666666667
 40
0.1666666666666667
 40
0.1666666666666667
 40
0.3333333333333333
 40
0.3333333333333333
 40
0.3333333333333333
 40
0.3333333333333333
 40
0.5
 40
0.5
 40
0.5
 40
0.5
 40
0.6666666666666666
 40
0.6666666666666666
 40
0.6666666666666666
 40
0.6666666666666666
 40
0.8333333333333333
 40
0.8333333333333333
 40
0.8333333333333333
 40
0.8333333333333333
 40
1.0
 40
1.0
 40
1.0
 40
1.0
 10
282.1658
 20
-1.9932
 30
0.0
 10
273.5206
 20
-2.5944
 30
0.0
 10
266.4312
 20
-3.2966
 30
0.0
 10
267.0318
 20
3.8966
 30
0.0
 10
267.0318
 20
3.8966
 30
0.0
 10
267.0318
 20
3.8966
 30
0.0
 10
278.9564
 20
3.7675
 30
0.0
 10
278.9564
 20
3.7675
 30
0.0
 10
278.9564
 20
3.7675
 30
0.0
 10
278.9564
 20
3.7675
 30
0.0
 10
279.0219
 20
6.554600000000001
 30
0.0
 10
279.0219
 20
6.554600000000001
 30
0.0
 10
279.0219
 20
6.554600000000001
 30
0.0
 10
279.0219
 20
6.554600000000001
 30
0.0
 10
267.5355
 20
6.7893
 30
0.0
 10
267.5355
 20
6.7893
 30
0.0
 10
267.5355
 20
6.7893
 30
0.0
 10
268.2189
 20
9.3719
 30
0.0
 10
270.9427
 20
13.9956
 30
0.0
 10
276.5319
 20
13.9119
 30
0.0
 10
276.5319
 20
13.9119
 30
0.0
 10
285.3323
 20
13.7801
 30
0.0
 10
287.4755
 20
-1.6235
 30
0.0
 10
282.1658
 20
-1.9932
 30
0.0
  0
SPLINE
  5
4B
330
1F
100
AcDbEntity
  8
Camada 1
 62
   142
370
     5
100
AcDbSpline
210
0.0
220
0.0
230
1.0
 70
    11
 71
     3
 72
    28
 73
    24
 74
     0
 42
0.0000000001
 43
0.0000000001
 40
0.0
 40
0.0
 40
0.0
 40
0.0
 40
0.1666666666666667
 40
0.1666666666666667
 40
0.1666666666666667
 40
0.1666666666666667
 40
0.3333333333333333
 40
0.3333333333333333
 40
0.3333333333333333
 40
0.3333333333333333
 40
0.5
 40
0.5
 40
0.5
 40
0.5
 40
0.6666666666666666
 40
0.6666666666666666
 40
0.6666666666666666
 40
0.6666666666666666
 40
0.8333333333333333
 40
0.8333333333333333
 40
0.8333333333333333
 40
0.8333333333333333
 40
1.0
 40
1.0
 40
1.0
 40
1.0
 10
305.7077
 20
-2.3977
 30
0.0
 10
297.0625
 20
-2.9989
 30
0.0
 10
289.9731
 20
-3.7011
 30
0.0
 10
290.5737
 20
3.4921
 30
0.0
 10
290.5737
 20
3.4921
 30
0.0
 10
290.5737
 20
3.4921
 30
0.0
 10
302.4983
 20
3.363
 30
0.0
 10
302.4983
 20
3.363
 30
0.0
 10
302.4983
 20
3.363
 30
0.0
 10
302.4983
 20
3.363
 30
0.0
 10
302.5638
 20
6.1501
 30
0.0
 10
302.5638
 20
6.1501
 30
0.0
 10
302.5638
 20
6.1501
 30
0.0
 10
302.5638
 20
6.1501
 30
0.0
 10
291.0774
 20
6.3848
 30
0.0
 10
291.0774
 20
6.3848
 30
0.0
 10
291.0774
 20
6.3848
 30
0.0
 10
291.7608
 20
8.9674
 30
0.0
 10
294.4846
 20
13.5911
 30
0.0
 10
300.0738
 20
13.5074
 30
0.0
 10
300.0738
 20
13.5074
 30
0.0
 10
308.8742
 20
13.3756
 30
0.0
 10
311.0174
 20
-2.028
 30
0.0
 10
305.7077
 20
-2.3977
 30
0.0
  0
SPLINE
  5
4C
330
1F
100
AcDbEntity
  8
Camada 1
 62
   142
370
     5
100
AcDbSpline
210
0.0
220
0.0
230
1.0
 70
    11
 71
     3
 72
    28
 73
    24
 74
     0
 42
0.0000000001
 43
0.0000000001
 40
0.0
 40
0.0
 40
0.0
 40
0.0
 40
0.1666666666666667
 40
0.1666666666666667
 40
0.1666666666666667
 40
0.1666666666666667
 40
0.3333333333333333
 40
0.3333333333333333
 40
0.3333333333333333
 40
0.3333333333333333
 40
0.5
 40
0.5
 40
0.5
 40
0.5
 40
0.6666666666666666
 40
0.6666666666666666
 40
0.6666666666666666
 40
0.6666666666666666
 40
0.8333333333333333
 40
0.8333333333333333
 40
0.8333333333333333
 40
0.8333333333333333
 40
1.0
 40
1.0
 40
1.0
 40
1.0
 10
212.9641
 20
2.1048
 30
0.0
 10
204.3189
 20
1.5036
 30
0.0
 10
197.2295
 20
0.8014
 30
0.0
 10
197.8301
 20
7.9946
 30
0.0
 10
197.8301
 20
7.9946
 30
0.0
 10
197.8301
 20
7.9946
 30
0.0
 10
209.7547
 20
7.8655
 30
0.0
 10
209.7547
 20
7.8655
 30
0.0
 10
209.7547
 20
7.8655
 30
0.0
 10
209.7547
 20
7.8655
 30
0.0
 10
209.8202
 20
10.6526
 30
0.0
 10
209.8202
 20
10.6526
 30
0.0
 10
209.8202
 20
10.6526
 30
0.0
 10
209.8202
 20
10.6526
 30
0.0
 10
198.3338
 20
10.8873
 30
0.0
 10
198.3338
 20
10.8873
 30
0.0
 10
198.3338
 20
10.8873
 30
0.0
 10
199.0172
 20
13.4699
 30
0.0
 10
201.741
 20
18.0936
 30
0.0
 10
207.3302
 20
18.0099
 30
0.0
 10
207.3302
 20
18.0099
 30
0.0
 10
216.1306
 20
17.8781
 30
0.0
 10
218.2738
 20
2.4745
 30
0.0
 10
212.9641
 20
2.1048
 30
0.0
  0
SPLINE
  5
4D
330
1F
100
AcDbEntity
  8
Camada 1
 62
   142
370
     5
100
AcDbSpline
210
0.0
220
0.0
230
1.0
 70
    11
 71
     3
 72
    28
 73
    24
 74
     0
 42
0.0000000001
 43
0.0000000001
 40
0.0
 40
0.0
 40
0.0
 40
0.0
 40
0.1666666666666667
 40
0.1666666666666667
 40
0.1666666666666667
 40
0.1666666666666667
 40
0.3333333333333333
 40
0.3333333333333333
 40
0.3333333333333333
 40
0.3333333333333333
 40
0.5
 40
0.5
 40
0.5
 40
0.5
 40
0.6666666666666666
 40
0.6666666666666666
 40
0.6666666666666666
 40
0.6666666666666666
 40
0.8333333333333333
 40
0.8333333333333333
 40
0.8333333333333333
 40
0.8333333333333333
 40
1.0
 40
1.0
 40
1.0
 40
1.0
 10
173.1571
 20
-1.0362
 30
0.0
 10
164.5119
 20
-1.6374
 30
0.0
 10
157.4225
 20
-2.3396
 30
0.0
 10
158.0231
 20
4.8536
 30
0.0
 10
158.0231
 20
4.8536
 30
0.0
 10
158.0231
 20
4.8536
 30
0.0
 10
169.9477
 20
4.7245
 30
0.0
 10
169.9477
 20
4.7245
 30
0.0
 10
169.9477
 20
4.7245
 30
0.0
 10
169.9477
 20
4.7245
 30
0.0
 10
170.0132
 20
7.511600000000001
 30
0.0
 10
170.0132
 20
7.511600000000001
 30
0.0
 10
170.0132
 20
7.511600000000001
 30
0.0
 10
170.0132
 20
7.511600000000001
 30
0.0
 10
158.5268
 20
7.746300000000001
 30
0.0
 10
158.5268
 20
7.746300000000001
 30
0.0
 10
158.5268
 20
7.746300000000001
 30
0.0
 10
159.2102
 20
10.3289
 30
0.0
 10
161.934
 20
14.9526
 30
0.0
 10
167.5232
 20
14.8689
 30
0.0
 10
167.5232
 20
14.8689
 30
0.0
 10
176.3236
 20
14.7371
 30
0.0
 10
178.4668
 20
-0.6665
 30
0.0
 10
173.1571
 20
-1.0362
 30
0.0
  0
SPLINE
  5
4E
330
1F
100
AcDbEntity
  8
Camada 1
 62
   142
370
     5
100
AcDbSpline
210
0.0
220
0.0
230
1.0
 70
    11
 71
     3
 72
    28
 73
    24
 74
     0
 42
0.0000000001
 43
0.0000000001
 40
0.0
 40
0.0
 40
0.0
 40
0.0
 40
0.1666666666666667
 40
0.1666666666666667
 40
0.1666666666666667
 40
0.1666666666666667
 40
0.3333333333333333
 40
0.3333333333333333
 40
0.3333333333333333
 40
0.3333333333333333
 40
0.5
 40
0.5
 40
0.5
 40
0.5
 40
0.6666666666666666
 40
0.6666666666666666
 40
0.6666666666666666
 40
0.6666666666666666
 40
0.8333333333333333
 40
0.8333333333333333
 40
0.8333333333333333
 40
0.8333333333333333
 40
1.0
 40
1.0
 40
1.0
 40
1.0
 10
151.5125
 20
6.4396
 30
0.0
 10
142.8673
 20
5.8384
 30
0.0
 10
135.7779
 20
5.136200000000001
 30
0.0
 10
136.3785
 20
12.3294
 30
0.0
 10
136.3785
 20
12.3294
 30
0.0
 10
136.3785
 20
12.3294
 30
0.0
 10
148.3031
 20
12.2003
 30
0.0
 10
148.3031
 20
12.2003
 30
0.0
 10
148.3031
 20
12.2003
 30
0.0
 10
148.3031
 20
12.2003
 30
0.0
 10
148.3686
 20
14.9874
 30
0.0
 10
148.3686
 20
14.9874
 30
0.0
 10
148.3686
 20
14.9874
 30
0.0
 10
148.3686
 20
14.9874
 30
0.0
 10
136.8822
 20
15.2221
 30
0.0
 10
136.8822
 20
15.2221
 30
0.0
 10
136.8822
 20
15.2221
 30
0.0
 10
137.5656
 20
17.8047
 30
0.0
 10
140.2894
 20
22.4284
 30
0.0
 10
145.8786
 20
22.3447
 30
0.0
 10
145.8786
 20
22.3447
 30
0.0
 10
154.679
 20
22.2129
 30
0.0
 10
156.8222
 20
6.8093
 30
0.0
 10
151.5125
 20
6.4396
 30
0.0
  0
SPLINE
  5
4F
330
1F
100
AcDbEntity
  8
Camada 1
 62
   142
370
     5
100
AcDbSpline
210
0.0
220
0.0
230
1.0
 70
    11
 71
     3
 72
    28
 73
    24
 74
     0
 42
0.0000000001
 43
0.0000000001
 40
0.0
 40
0.0
 40
0.0
 40
0.0
 40
0.1666666666666667
 40
0.1666666666666667
 40
0.1666666666666667
 40
0.1666666666666667
 40
0.3333333333333333
 40
0.3333333333333333
 40
0.3333333333333333
 40
0.3333333333333333
 40
0.5
 40
0.5
 40
0.5
 40
0.5
 40
0.6666666666666666
 40
0.6666666666666666
 40
0.6666666666666666
 40
0.6666666666666666
 40
0.8333333333333333
 40
0.8333333333333333
 40
0.8333333333333333
 40
0.8333333333333333
 40
1.0
 40
1.0
 40
1.0
 40
1.0
 10
179.3679
 20
-73.5637
 30
0.0
 10
170.7227
 20
-74.1649
 30
0.0
 10
163.6333
 20
-74.86710000000001
 30
0.0
 10
164.2339
 20
-67.6739
 30
0.0
 10
164.2339
 20
-67.6739
 30
0.0
 10
164.2339
 20
-67.6739
 30
0.0
 10
176.1585
 20
-67.803
 30
0.0
 10
176.1585
 20
-67.803
 30
0.0
 10
176.1585
 20
-67.803
 30
0.0
 10
176.1585
 20
-67.803
 30
0.0
 10
176.224
 20
-65.0159
 30
0.0
 10
176.224
 20
-65.0159
 30
0.0
 10
176.224
 20
-65.0159
 30
0.0
 10
176.224
 20
-65.0159
 30
0.0
 10
164.7376
 20
-64.7812
 30
0.0
 10
164.7376
 20
-64.7812
 30
0.0
 10
164.7376
 20
-64.7812
 30
0.0
 10
165.421
 20
-62.19860000000001
 30
0.0
 10
168.1448
 20
-57.5749
 30
0.0
 10
173.734
 20
-57.6586
 30
0.0
 10
173.734
 20
-57.6586
 30
0.0
 10
182.5344
 20
-57.79040000000001
 30
0.0
 10
184.6776
 20
-73.194
 30
0.0
 10
179.3679
 20
-73.5637
 30
0.0
  0
SPLINE
  5
50
330
1F
100
AcDbEntity
  8
Camada 1
 62
   142
370
     5
100
AcDbSpline
210
0.0
220
0.0
230
1.0
 70
    11
 71
     3
 72
    28
 73
    24
 74
     0
 42
0.0000000001
 43
0.0000000001
 40
0.0
 40
0.0
 40
0.0
 40
0.0
 40
0.1666666666666667
 40
0.1666666666666667
 40
0.1666666666666667
 40
0.1666666666666667
 40
0.3333333333333333
 40
0.3333333333333333
 40
0.3333333333333333
 40
0.3333333333333333
 40
0.5
 40
0.5
 40
0.5
 40
0.5
 40
0.6666666666666666
 40
0.6666666666666666
 40
0.6666666666666666
 40
0.6666666666666666
 40
0.8333333333333333
 40
0.8333333333333333
 40
0.8333333333333333
 40
0.8333333333333333
 40
1.0
 40
1.0
 40
1.0
 40
1.0
 10
176.9242
 20
-140.2047
 30
0.0
 10
168.279
 20
-140.8059
 30
0.0
 10
161.1896
 20
-141.5081
 30
0.0
 10
161.7902
 20
-134.3149
 30
0.0
 10
161.7902
 20
-134.3149
 30
0.0
 10
161.7902
 20
-134.3149
 30
0.0
 10
173.7148
 20
-134.444
 30
0.0
 10
173.7148
 20
-134.444
 30
0.0
 10
173.7148
 20
-134.444
 30
0.0
 10
173.7148
 20
-134.444
 30
0.0
 10
173.7803
 20
-131.6569
 30
0.0
 10
173.7803
 20
-131.6569
 30
0.0
 10
173.7803
 20
-131.6569
 30
0.0
 10
173.7803
 20
-131.6569
 30
0.0
 10
162.2939
 20
-131.4222
 30
0.0
 10
162.2939
 20
-131.4222
 30
0.0
 10
162.2939
 20
-131.4222
 30
0.0
 10
162.9773
 20
-128.8396
 30
0.0
 10
165.7011
 20
-124.2159
 30
0.0
 10
171.2903
 20
-124.2996
 30
0.0
 10
171.2903
 20
-124.2996
 30
0.0
 10
180.0907
 20
-124.4314
 30
0.0
 10
182.2339
 20
-139.835
 30
0.0
 10
176.9242
 20
-140.2047
 30
0.0
  0
SPLINE
  5
51
330
1F
100
AcDbEntity
  8
Camada 1
 62
   142
370
     5
100
AcDbSpline
210
0.0
220
0.0
230
1.0
 70
    11
 71
     3
 72
    28
 73
    24
 74
     0
 42
0.0000000001
 43
0.0000000001
 40
0.0
 40
0.0
 40
0.0
 40
0.0
 40
0.1666666666666667
 40
0.1666666666666667
 40
0.1666666666666667
 40
0.1666666666666667
 40
0.3333333333333333
 40
0.3333333333333333
 40
0.3333333333333333
 40
0.3333333333333333
 40
0.5
 40
0.5
 40
0.5
 40
0.5
 40
0.6666666666666666
 40
0.6666666666666666
 40
0.6666666666666666
 40
0.6666666666666666
 40
0.8333333333333333
 40
0.8333333333333333
 40
0.8333333333333333
 40
0.8333333333333333
 40
1.0
 40
1.0
 40
1.0
 40
1.0
 10
152.4842
 20
-136.7242
 30
0.0
 10
143.839
 20
-137.3254
 30
0.0
 10
136.7496
 20
-138.0276
 30
0.0
 10
137.3502
 20
-130.8344
 30
0.0
 10
137.3502
 20
-130.8344
 30
0.0
 10
137.3502
 20
-130.8344
 30
0.0
 10
149.2748
 20
-130.9635
 30
0.0
 10
149.2748
 20
-130.9635
 30
0.0
 10
149.2748
 20
-130.9635
 30
0.0
 10
149.2748
 20
-130.9635
 30
0.0
 10
149.3403
 20
-128.1764
 30
0.0
 10
149.3403
 20
-128.1764
 30
0.0
 10
149.3403
 20
-128.1764
 30
0.0
 10
149.3403
 20
-128.1764
 30
0.0
 10
137.8539
 20
-127.9417
 30
0.0
 10
137.8539
 20
-127.9417
 30
0.0
 10
137.8539
 20
-127.9417
 30
0.0
 10
138.5373
 20
-125.3591
 30
0.0
 10
141.2611
 20
-120.7354
 30
0.0
 10
146.8503
 20
-120.8191
 30
0.0
 10
146.8503
 20
-120.8191
 30
0.0
 10
155.6507
 20
-120.9509
 30
0.0
 10
157.7939
 20
-136.3545
 30
0.0
 10
152.4842
 20
-136.7242
 30
0.0
  0
SPLINE
  5
52
330
1F
100
AcDbEntity
  8
Camada 1
 62
   142
370
     5
100
AcDbSpline
210
0.0
220
0.0
230
1.0
 70
    11
 71
     3
 72
    28
 73
    24
 74
     0
 42
0.0000000001
 43
0.0000000001
 40
0.0
 40
0.0
 40
0.0
 40
0.0
 40
0.1666666666666667
 40
0.1666666666666667
 40
0.1666666666666667
 40
0.1666666666666667
 40
0.3333333333333333
 40
0.3333333333333333
 40
0.3333333333333333
 40
0.3333333333333333
 40
0.5
 40
0.5
 40
0.5
 40
0.5
 40
0.6666666666666666
 40
0.6666666666666666
 40
0.6666666666666666
 40
0.6666666666666666
 40
0.8333333333333333
 40
0.8333333333333333
 40
0.8333333333333333
 40
0.8333333333333333
 40
1.0
 40
1.0
 40
1.0
 40
1.0
 10
202.3648
 20
-139.9632
 30
0.0
 10
193.7196
 20
-140.5644
 30
0.0
 10
186.6302
 20
-141.2666
 30
0.0
 10
187.2308
 20
-134.0734
 30
0.0
 10
187.2308
 20
-134.0734
 30
0.0
 10
187.2308
 20
-134.0734
 30
0.0
 10
199.1554
 20
-134.2025
 30
0.0
 10
199.1554
 20
-134.2025
 30
0.0
 10
199.1554
 20
-134.2025
 30
0.0
 10
199.1554
 20
-134.2025
 30
0.0
 10
199.2209
 20
-131.4154
 30
0.0
 10
199.2209
 20
-131.4154
 30
0.0
 10
199.2209
 20
-131.4154
 30
0.0
 10
199.2209
 20
-131.4154
 30
0.0
 10
187.7345
 20
-131.1807
 30
0.0
 10
187.7345
 20
-131.1807
 30
0.0
 10
187.7345
 20
-131.1807
 30
0.0
 10
188.4179
 20
-128.5981
 30
0.0
 10
191.1417
 20
-123.9744
 30
0.0
 10
196.7309
 20
-124.0581
 30
0.0
 10
196.7309
 20
-124.0581
 30
0.0
 10
205.5313
 20
-124.1899
 30
0.0
 10
207.6745
 20
-139.5935
 30
0.0
 10
202.3648
 20
-139.9632
 30
0.0
  0
SPLINE
  5
53
330
1F
100
AcDbEntity
  8
Camada 1
 62
   142
370
     5
100
AcDbSpline
210
0.0
220
0.0
230
1.0
 70
    11
 71
     3
 72
    28
 73
    24
 74
     0
 42
0.0000000001
 43
0.0000000001
 40
0.0
 40
0.0
 40
0.0
 40
0.0
 40
0.1666666666666667
 40
0.1666666666666667
 40
0.1666666666666667
 40
0.1666666666666667
 40
0.3333333333333333
 40
0.3333333333333333
 40
0.3333333333333333
 40
0.3333333333333333
 40
0.5
 40
0.5
 40
0.5
 40
0.5
 40
0.6666666666666666
 40
0.6666666666666666
 40
0.6666666666666666
 40
0.6666666666666666
 40
0.8333333333333333
 40
0.8333333333333333
 40
0.8333333333333333
 40
0.8333333333333333
 40
1.0
 40
1.0
 40
1.0
 40
1.0
 10
224.39
 20
-137.372
 30
0.0
 10
215.7448
 20
-137.9732
 30
0.0
 10
208.6554
 20
-138.6754
 30
0.0
 10
209.256
 20
-131.4822
 30
0.0
 10
209.256
 20
-131.4822
 30
0.0
 10
209.256
 20
-131.4822
 30
0.0
 10
221.1806
 20
-131.6113
 30
0.0
 10
221.1806
 20
-131.6113
 30
0.0
 10
221.1806
 20
-131.6113
 30
0.0
 10
221.1806
 20
-131.6113
 30
0.0
 10
221.2461
 20
-128.8242
 30
0.0
 10
221.2461
 20
-128.8242
 30
0.0
 10
221.2461
 20
-128.8242
 30
0.0
 10
221.2461
 20
-128.8242
 30
0.0
 10
209.7597
 20
-128.5895
 30
0.0
 10
209.7597
 20
-128.5895
 30
0.0
 10
209.7597
 20
-128.5895
 30
0.0
 10
210.4431
 20
-126.0069
 30
0.0
 10
213.1669
 20
-121.3832
 30
0.0
 10
218.7561
 20
-121.4669
 30
0.0
 10
218.7561
 20
-121.4669
 30
0.0
 10
227.5565
 20
-121.5987
 30
0.0
 10
229.6997
 20
-137.0023
 30
0.0
 10
224.39
 20
-137.372
 30
0.0
  0
SPLINE
  5
54
330
1F
100
AcDbEntity
  8
Camada 1
 62
   142
370
     5
100
AcDbSpline
210
0.0
220
0.0
230
1.0
 70
    11
 71
     3
 72
    28
 73
    24
 74
     0
 42
0.0000000001
 43
0.0000000001
 40
0.0
 40
0.0
 40
0.0
 40
0.0
 40
0.1666666666666667
 40
0.1666666666666667
 40
0.1666666666666667
 40
0.1666666666666667
 40
0.3333333333333333
 40
0.3333333333333333
 40
0.3333333333333333
 40
0.3333333333333333
 40
0.5
 40
0.5
 40
0.5
 40
0.5
 40
0.6666666666666666
 40
0.6666666666666666
 40
0.6666666666666666
 40
0.6666666666666666
 40
0.8333333333333333
 40
0.8333333333333333
 40
0.8333333333333333
 40
0.8333333333333333
 40
1.0
 40
1.0
 40
1.0
 40
1.0
 10
245.1196
 20
-138.3437
 30
0.0
 10
236.4744
 20
-138.9449
 30
0.0
 10
229.385
 20
-139.6471
 30
0.0
 10
229.9856
 20
-132.4539
 30
0.0
 10
229.9856
 20
-132.4539
 30
0.0
 10
229.9856
 20
-132.4539
 30
0.0
 10
241.9102
 20
-132.583
 30
0.0
 10
241.9102
 20
-132.583
 30
0.0
 10
241.9102
 20
-132.583
 30
0.0
 10
241.9102
 20
-132.583
 30
0.0
 10
241.9757
 20
-129.7959
 30
0.0
 10
241.9757
 20
-129.7959
 30
0.0
 10
241.9757
 20
-129.7959
 30
0.0
 10
241.9757
 20
-129.7959
 30
0.0
 10
230.4893
 20
-129.5612
 30
0.0
 10
230.4893
 20
-129.5612
 30
0.0
 10
230.4893
 20
-129.5612
 30
0.0
 10
231.1727
 20
-126.9786
 30
0.0
 10
233.8965
 20
-122.3549
 30
0.0
 10
239.4857
 20
-122.4386
 30
0.0
 10
239.4857
 20
-122.4386
 30
0.0
 10
248.2861
 20
-122.5704
 30
0.0
 10
250.4293
 20
-137.974
 30
0.0
 10
245.1196
 20
-138.3437
 30
0.0
  0
SPLINE
  5
55
330
1F
100
AcDbEntity
  8
Camada 1
 62
   142
370
     5
100
AcDbSpline
210
0.0
220
0.0
230
1.0
 70
    11
 71
     3
 72
    28
 73
    24
 74
     0
 42
0.0000000001
 43
0.0000000001
 40
0.0
 40
0.0
 40
0.0
 40
0.0
 40
0.1666666666666667
 40
0.1666666666666667
 40
0.1666666666666667
 40
0.1666666666666667
 40
0.3333333333333333
 40
0.3333333333333333
 40
0.3333333333333333
 40
0.3333333333333333
 40
0.5
 40
0.5
 40
0.5
 40
0.5
 40
0.6666666666666666
 40
0.6666666666666666
 40
0.6666666666666666
 40
0.6666666666666666
 40
0.8333333333333333
 40
0.8333333333333333
 40
0.8333333333333333
 40
0.8333333333333333
 40
1.0
 40
1.0
 40
1.0
 40
1.0
 10
265.8492
 20
-137.6959
 30
0.0
 10
257.204
 20
-138.2971
 30
0.0
 10
250.1146
 20
-138.9993
 30
0.0
 10
250.7152
 20
-131.8061
 30
0.0
 10
250.7152
 20
-131.8061
 30
0.0
 10
250.7152
 20
-131.8061
 30
0.0
 10
262.6398
 20
-131.9352
 30
0.0
 10
262.6398
 20
-131.9352
 30
0.0
 10
262.6398
 20
-131.9352
 30
0.0
 10
262.6398
 20
-131.9352
 30
0.0
 10
262.7053
 20
-129.1481
 30
0.0
 10
262.7053
 20
-129.1481
 30
0.0
 10
262.7053
 20
-129.1481
 30
0.0
 10
262.7053
 20
-129.1481
 30
0.0
 10
251.2189
 20
-128.9134
 30
0.0
 10
251.2189
 20
-128.9134
 30
0.0
 10
251.2189
 20
-128.9134
 30
0.0
 10
251.9023
 20
-126.3308
 30
0.0
 10
254.6261
 20
-121.7071
 30
0.0
 10
260.2153
 20
-121.7908
 30
0.0
 10
260.2153
 20
-121.7908
 30
0.0
 10
269.0157
 20
-121.9226
 30
0.0
 10
271.1589
 20
-137.3262
 30
0.0
 10
265.8492
 20
-137.6959
 30
0.0
  0
SPLINE
  5
56
330
1F
100
AcDbEntity
  8
Camada 1
 62
   142
370
     5
100
AcDbSpline
210
0.0
220
0.0
230
1.0
 70
    11
 71
     3
 72
    28
 73
    24
 74
     0
 42
0.0000000001
 43
0.0000000001
 40
0.0
 40
0.0
 40
0.0
 40
0.0
 40
0.1666666666666667
 40
0.1666666666666667
 40
0.1666666666666667
 40
0.1666666666666667
 40
0.3333333333333333
 40
0.3333333333333333
 40
0.3333333333333333
 40
0.3333333333333333
 40
0.5
 40
0.5
 40
0.5
 40
0.5
 40
0.6666666666666666
 40
0.6666666666666666
 40
0.6666666666666666
 40
0.6666666666666666
 40
0.8333333333333333
 40
0.8333333333333333
 40
0.8333333333333333
 40
0.8333333333333333
 40
1.0
 40
1.0
 40
1.0
 40
1.0
 10
286.5788
 20
-138.6676
 30
0.0
 10
277.9336
 20
-139.2688
 30
0.0
 10
270.8442
 20
-139.971
 30
0.0
 10
271.4448
 20
-132.7778
 30
0.0
 10
271.4448
 20
-132.7778
 30
0.0
 10
271.4448
 20
-132.7778
 30
0.0
 10
283.3694
 20
-132.9069
 30
0.0
 10
283.3694
 20
-132.9069
 30
0.0
 10
283.3694
 20
-132.9069
 30
0.0
 10
283.3694
 20
-132.9069
 30
0.0
 10
283.4349
 20
-130.1198
 30
0.0
 10
283.4349
 20
-130.1198
 30
0.0
 10
283.4349
 20
-130.1198
 30
0.0
 10
283.4349
 20
-130.1198
 30
0.0
 10
271.9485
 20
-129.8851
 30
0.0
 10
271.9485
 20
-129.8851
 30
0.0
 10
271.9485
 20
-129.8851
 30
0.0
 10
272.6319
 20
-127.3025
 30
0.0
 10
275.3557
 20
-122.6788
 30
0.0
 10
280.9449
 20
-122.7625
 30
0.0
 10
280.9449
 20
-122.7625
 30
0.0
 10
289.7453
 20
-122.8943
 30
0.0
 10
291.8885
 20
-138.2979
 30
0.0
 10
286.5788
 20
-138.6676
 30
0.0
  0
SPLINE
  5
57
330
1F
100
AcDbEntity
  8
Camada 1
 62
   142
370
     5
100
AcDbSpline
210
0.0
220
0.0
230
1.0
 70
    11
 71
     3
 72
    28
 73
    24
 74
     0
 42
0.0000000001
 43
0.0000000001
 40
0.0
 40
0.0
 40
0.0
 40
0.0
 40
0.1666666666666667
 40
0.1666666666666667
 40
0.1666666666666667
 40
0.1666666666666667
 40
0.3333333333333333
 40
0.3333333333333333
 40
0.3333333333333333
 40
0.3333333333333333
 40
0.5
 40
0.5
 40
0.5
 40
0.5
 40
0.6666666666666666
 40
0.6666666666666666
 40
0.6666666666666666
 40
0.6666666666666666
 40
0.8333333333333333
 40
0.8333333333333333
 40
0.8333333333333333
 40
0.8333333333333333
 40
1.0
 40
1.0
 40
1.0
 40
1.0
 10
307.3084
 20
-138.6676
 30
0.0
 10
298.6632
 20
-139.2688
 30
0.0
 10
291.5738
 20
-139.971
 30
0.0
 10
292.1744
 20
-132.7778
 30
0.0
 10
292.1744
 20
-132.7778
 30
0.0
 10
292.1744
 20
-132.7778
 30
0.0
 10
304.099
 20
-132.9069
 30
0.0
 10
304.099
 20
-132.9069
 30
0.0
 10
304.099
 20
-132.9069
 30
0.0
 10
304.099
 20
-132.9069
 30
0.0
 10
304.1645
 20
-130.1198
 30
0.0
 10
304.1645
 20
-130.1198
 30
0.0
 10
304.1645
 20
-130.1198
 30
0.0
 10
304.1645
 20
-130.1198
 30
0.0
 10
292.6781
 20
-129.8851
 30
0.0
 10
292.6781
 20
-129.8851
 30
0.0
 10
292.6781
 20
-129.8851
 30
0.0
 10
293.3615
 20
-127.3025
 30
0.0
 10
296.0853
 20
-122.6788
 30
0.0
 10
301.6745
 20
-122.7625
 30
0.0
 10
301.6745
 20
-122.7625
 30
0.0
 10
310.4749
 20
-122.8943
 30
0.0
 10
312.6181
 20
-138.2979
 30
0.0
 10
307.3084
 20
-138.6676
 30
0.0
  0
SPLINE
  5
58
330
1F
100
AcDbEntity
  8
Camada 1
 62
   142
370
     5
100
AcDbSpline
210
0.0
220
0.0
230
1.0
 70
    11
 71
     3
 72
    28
 73
    24
 74
     0
 42
0.0000000001
 43
0.0000000001
 40
0.0
 40
0.0
 40
0.0
 40
0.0
 40
0.1666666666666667
 40
0.1666666666666667
 40
0.1666666666666667
 40
0.1666666666666667
 40
0.3333333333333333
 40
0.3333333333333333
 40
0.3333333333333333
 40
0.3333333333333333
 40
0.5
 40
0.5
 40
0.5
 40
0.5
 40
0.6666666666666666
 40
0.6666666666666666
 40
0.6666666666666666
 40
0.6666666666666666
 40
0.8333333333333333
 40
0.8333333333333333
 40
0.8333333333333333
 40
0.8333333333333333
 40
1.0
 40
1.0
 40
1.0
 40
1.0
 10
230.872
 20
-117.2468
 30
0.0
 10
222.2268
 20
-117.848
 30
0.0
 10
215.1374
 20
-118.5502
 30
0.0
 10
215.738
 20
-111.357
 30
0.0
 10
215.738
 20
-111.357
 30
0.0
 10
215.738
 20
-111.357
 30
0.0
 10
227.6626
 20
-111.4861
 30
0.0
 10
227.6626
 20
-111.4861
 30
0.0
 10
227.6626
 20
-111.4861
 30
0.0
 10
227.6626
 20
-111.4861
 30
0.0
 10
227.7281
 20
-108.699
 30
0.0
 10
227.7281
 20
-108.699
 30
0.0
 10
227.7281
 20
-108.699
 30
0.0
 10
227.7281
 20
-108.699
 30
0.0
 10
216.2417
 20
-108.4643
 30
0.0
 10
216.2417
 20
-108.4643
 30
0.0
 10
216.2417
 20
-108.4643
 30
0.0
 10
216.9251
 20
-105.8817
 30
0.0
 10
219.6489
 20
-101.258
 30
0.0
 10
225.2381
 20
-101.3417
 30
0.0
 10
225.2381
 20
-101.3417
 30
0.0
 10
234.0385
 20
-101.4735
 30
0.0
 10
236.1817
 20
-116.8771
 30
0.0
 10
230.872
 20
-117.2468
 30
0.0
  0
SPLINE
  5
59
330
1F
100
AcDbEntity
  8
Camada 1
 62
   142
370
     5
100
AcDbSpline
210
0.0
220
0.0
230
1.0
 70
    11
 71
     3
 72
    28
 73
    24
 74
     0
 42
0.0000000001
 43
0.0000000001
 40
0.0
 40
0.0
 40
0.0
 40
0.0
 40
0.1666666666666667
 40
0.1666666666666667
 40
0.1666666666666667
 40
0.1666666666666667
 40
0.3333333333333333
 40
0.3333333333333333
 40
0.3333333333333333
 40
0.3333333333333333
 40
0.5
 40
0.5
 40
0.5
 40
0.5
 40
0.6666666666666666
 40
0.6666666666666666
 40
0.6666666666666666
 40
0.6666666666666666
 40
0.8333333333333333
 40
0.8333333333333333
 40
0.8333333333333333
 40
0.8333333333333333
 40
1.0
 40
1.0
 40
1.0
 40
1.0
 10
289.0591
 20
34.5392
 30
0.0
 10
282.6885
 20
34.0963
 30
0.0
 10
277.4644
 20
33.57870000000001
 30
0.0
 10
277.907
 20
38.8794
 30
0.0
 10
277.907
 20
38.8794
 30
0.0
 10
277.907
 20
38.8794
 30
0.0
 10
286.694
 20
38.78440000000001
 30
0.0
 10
286.694
 20
38.78440000000001
 30
0.0
 10
286.694
 20
38.78440000000001
 30
0.0
 10
286.694
 20
38.78440000000001
 30
0.0
 10
286.7425
 20
40.8382
 30
0.0
 10
286.7425
 20
40.8382
 30
0.0
 10
286.7425
 20
40.8382
 30
0.0
 10
286.7425
 20
40.8382
 30
0.0
 10
278.2781
 20
41.011
 30
0.0
 10
278.2781
 20
41.011
 30
0.0
 10
278.2781
 20
41.011
 30
0.0
 10
278.7817
 20
42.91390000000001
 30
0.0
 10
280.7893
 20
46.3211
 30
0.0
 10
284.9075
 20
46.2594
 30
0.0
 10
284.9075
 20
46.2594
 30
0.0
 10
291.3924
 20
46.1625
 30
0.0
 10
292.9717
 20
34.81180000000001
 30
0.0
 10
289.0591
 20
34.5392
 30
0.0
  0
SPLINE
  5
5A
330
1F
100
AcDbEntity
  8
Camada 1
 62
   142
370
     5
100
AcDbSpline
210
0.0
220
0.0
230
1.0
 70
    11
 71
     3
 72
    28
 73
    24
 74
     0
 42
0.0000000001
 43
0.0000000001
 40
0.0
 40
0.0
 40
0.0
 40
0.0
 40
0.1666666666666667
 40
0.1666666666666667
 40
0.1666666666666667
 40
0.1666666666666667
 40
0.3333333333333333
 40
0.3333333333333333
 40
0.3333333333333333
 40
0.3333333333333333
 40
0.5
 40
0.5
 40
0.5
 40
0.5
 40
0.6666666666666666
 40
0.6666666666666666
 40
0.6666666666666666
 40
0.6666666666666666
 40
0.8333333333333333
 40
0.8333333333333333
 40
0.8333333333333333
 40
0.8333333333333333
 40
1.0
 40
1.0
 40
1.0
 40
1.0
 10
245.7665
 20
24.3453
 30
0.0
 10
239.3959
 20
23.9024
 30
0.0
 10
234.1718
 20
23.3849
 30
0.0
 10
234.6145
 20
28.6855
 30
0.0
 10
234.6145
 20
28.6855
 30
0.0
 10
234.6145
 20
28.6855
 30
0.0
 10
243.4015
 20
28.5904
 30
0.0
 10
243.4015
 20
28.5904
 30
0.0
 10
243.4015
 20
28.5904
 30
0.0
 10
243.4015
 20
28.5904
 30
0.0
 10
243.4498
 20
30.6441
 30
0.0
 10
243.4498
 20
30.6441
 30
0.0
 10
243.4498
 20
30.6441
 30
0.0
 10
243.4498
 20
30.6441
 30
0.0
 10
234.9856
 20
30.8171
 30
0.0
 10
234.9856
 20
30.8171
 30
0.0
 10
234.9856
 20
30.8171
 30
0.0
 10
235.4892
 20
32.7201
 30
0.0
 10
237.4963
 20
36.1273
 30
0.0
 10
241.6149
 20
36.0656
 30
0.0
 10
241.6149
 20
36.0656
 30
0.0
 10
248.0998
 20
35.9685
 30
0.0
 10
249.6791
 20
24.6178
 30
0.0
 10
245.7665
 20
24.3453
 30
0.0
  0
SPLINE
  5
5B
330
1F
100
AcDbEntity
  8
Camada 1
 62
   142
370
     5
100
AcDbSpline
210
0.0
220
0.0
230
1.0
 70
    11
 71
     3
 72
    28
 73
    24
 74
     0
 42
0.0000000001
 43
0.0000000001
 40
0.0
 40
0.0
 40
0.0
 40
0.0
 40
0.1666666666666667
 40
0.1666666666666667
 40
0.1666666666666667
 40
0.1666666666666667
 40
0.3333333333333333
 40
0.3333333333333333
 40
0.3333333333333333
 40
0.3333333333333333
 40
0.5
 40
0.5
 40
0.5
 40
0.5
 40
0.6666666666666666
 40
0.6666666666666666
 40
0.6666666666666666
 40
0.6666666666666666
 40
0.8333333333333333
 40
0.8333333333333333
 40
0.8333333333333333
 40
0.8333333333333333
 40
1.0
 40
1.0
 40
1.0
 40
1.0
 10
247.3855
 20
67.41070000000001
 30
0.0
 10
241.0149
 20
66.9678
 30
0.0
 10
235.7908
 20
66.4503
 30
0.0
 10
236.2335
 20
71.7509
 30
0.0
 10
236.2335
 20
71.7509
 30
0.0
 10
236.2335
 20
71.7509
 30
0.0
 10
245.0205
 20
71.6558
 30
0.0
 10
245.0205
 20
71.6558
 30
0.0
 10
245.0205
 20
71.6558
 30
0.0
 10
245.0205
 20
71.6558
 30
0.0
 10
245.0688
 20
73.70950000000001
 30
0.0
 10
245.0688
 20
73.70950000000001
 30
0.0
 10
245.0688
 20
73.70950000000001
 30
0.0
 10
245.0688
 20
73.70950000000001
 30
0.0
 10
236.6046
 20
73.88250000000001
 30
0.0
 10
236.6046
 20
73.88250000000001
 30
0.0
 10
236.6046
 20
73.88250000000001
 30
0.0
 10
237.1082
 20
75.7855
 30
0.0
 10
239.1153
 20
79.1927
 30
0.0
 10
243.2339
 20
79.131
 30
0.0
 10
243.2339
 20
79.131
 30
0.0
 10
249.7188
 20
79.0339
 30
0.0
 10
251.2981
 20
67.6832
 30
0.0
 10
247.3855
 20
67.41070000000001
 30
0.0
  0
SPLINE
  5
5C
330
1F
100
AcDbEntity
  8
Camada 1
 62
   142
370
     5
100
AcDbSpline
210
0.0
220
0.0
230
1.0
 70
    11
 71
     3
 72
    28
 73
    24
 74
     0
 42
0.0000000001
 43
0.0000000001
 40
0.0
 40
0.0
 40
0.0
 40
0.0
 40
0.1666666666666667
 40
0.1666666666666667
 40
0.1666666666666667
 40
0.1666666666666667
 40
0.3333333333333333
 40
0.3333333333333333
 40
0.3333333333333333
 40
0.3333333333333333
 40
0.5
 40
0.5
 40
0.5
 40
0.5
 40
0.6666666666666666
 40
0.6666666666666666
 40
0.6666666666666666
 40
0.6666666666666666
 40
0.8333333333333333
 40
0.8333333333333333
 40
0.8333333333333333
 40
0.8333333333333333
 40
1.0
 40
1.0
 40
1.0
 40
1.0
 10
265.6585
 20
48.0536
 30
0.0
 10
262.3119
 20
56.3304
 30
0.0
 10
259.3628
 20
63.05070000000001
 30
0.0
 10
266.6004
 20
64.7565
 30
0.0
 10
266.6004
 20
64.7565
 30
0.0
 10
266.6004
 20
64.7565
 30
0.0
 10
270.277
 20
53.035
 30
0.0
 10
270.277
 20
53.035
 30
0.0
 10
270.277
 20
53.035
 30
0.0
 10
270.277
 20
53.035
 30
0.0
 10
273.0282
 20
53.8596
 30
0.0
 10
273.0282
 20
53.8596
 30
0.0
 10
273.0282
 20
53.8596
 30
0.0
 10
273.0282
 20
53.8596
 30
0.0
 10
269.5947
 20
65.1858
 30
0.0
 10
269.5947
 20
65.1858
 30
0.0
 10
269.5947
 20
65.1858
 30
0.0
 10
272.3427
 20
65.3403
 30
0.0
 10
277.7403
 20
64.14660000000001
 30
0.0
 10
279.4412
 20
58.64530000000001
 30
0.0
 10
279.4412
 20
58.64530000000001
 30
0.0
 10
282.1184
 20
49.98280000000001
 30
0.0
 10
267.7134
 20
42.97040000000001
 30
0.0
 10
265.6585
 20
48.0536
 30
0.0
  0
SPLINE
  5
5D
330
1F
100
AcDbEntity
  8
Camada 1
 62
   142
370
     5
100
AcDbSpline
210
0.0
220
0.0
230
1.0
 70
    11
 71
     3
 72
    28
 73
    24
 74
     0
 42
0.0000000001
 43
0.0000000001
 40
0.0
 40
0.0
 40
0.0
 40
0.0
 40
0.1666666666666667
 40
0.1666666666666667
 40
0.1666666666666667
 40
0.1666666666666667
 40
0.3333333333333333
 40
0.3333333333333333
 40
0.3333333333333333
 40
0.3333333333333333
 40
0.5
 40
0.5
 40
0.5
 40
0.5
 40
0.6666666666666666
 40
0.6666666666666666
 40
0.6666666666666666
 40
0.6666666666666666
 40
0.8333333333333333
 40
0.8333333333333333
 40
0.8333333333333333
 40
0.8333333333333333
 40
1.0
 40
1.0
 40
1.0
 40
1.0
 10
176.6323
 20
65.9572
 30
0.0
 10
170.2658
 20
65.5145
 30
0.0
 10
165.045
 20
64.9974
 30
0.0
 10
165.4873
 20
70.2946
 30
0.0
 10
165.4873
 20
70.2946
 30
0.0
 10
165.4873
 20
70.2946
 30
0.0
 10
174.2688
 20
70.1996
 30
0.0
 10
174.2688
 20
70.1996
 30
0.0
 10
174.2688
 20
70.1996
 30
0.0
 10
174.2688
 20
70.1996
 30
0.0
 10
174.3171
 20
72.2521
 30
0.0
 10
174.3171
 20
72.2521
 30
0.0
 10
174.3171
 20
72.2521
 30
0.0
 10
174.3171
 20
72.2521
 30
0.0
 10
165.8582
 20
72.42490000000001
 30
0.0
 10
165.8582
 20
72.42490000000001
 30
0.0
 10
165.8582
 20
72.42490000000001
 30
0.0
 10
166.3615
 20
74.32680000000001
 30
0.0
 10
168.3674
 20
77.73180000000001
 30
0.0
 10
172.4834
 20
77.67020000000001
 30
0.0
 10
172.4834
 20
77.67020000000001
 30
0.0
 10
178.9642
 20
77.5731
 30
0.0
 10
180.5425
 20
66.2295
 30
0.0
 10
176.6323
 20
65.9572
 30
0.0
  0
SPLINE
  5
5E
330
1F
100
AcDbEntity
  8
Camada 1
 62
   142
370
     5
100
AcDbSpline
210
0.0
220
0.0
230
1.0
 70
    11
 71
     3
 72
    28
 73
    24
 74
     0
 42
0.0000000001
 43
0.0000000001
 40
0.0
 40
0.0
 40
0.0
 40
0.0
 40
0.1666666666666667
 40
0.1666666666666667
 40
0.1666666666666667
 40
0.1666666666666667
 40
0.3333333333333333
 40
0.3333333333333333
 40
0.3333333333333333
 40
0.3333333333333333
 40
0.5
 40
0.5
 40
0.5
 40
0.5
 40
0.6666666666666666
 40
0.6666666666666666
 40
0.6666666666666666
 40
0.6666666666666666
 40
0.8333333333333333
 40
0.8333333333333333
 40
0.8333333333333333
 40
0.8333333333333333
 40
1.0
 40
1.0
 40
1.0
 40
1.0
 10
168.8611
 20
52.0338
 30
0.0
 10
162.4946
 20
51.5911
 30
0.0
 10
157.2738
 20
51.07400000000001
 30
0.0
 10
157.7161
 20
56.3712
 30
0.0
 10
157.7161
 20
56.3712
 30
0.0
 10
157.7161
 20
56.3712
 30
0.0
 10
166.4976
 20
56.2762
 30
0.0
 10
166.4976
 20
56.2762
 30
0.0
 10
166.4976
 20
56.2762
 30
0.0
 10
166.4976
 20
56.2762
 30
0.0
 10
166.5459
 20
58.32870000000001
 30
0.0
 10
166.5459
 20
58.32870000000001
 30
0.0
 10
166.5459
 20
58.32870000000001
 30
0.0
 10
166.5459
 20
58.32870000000001
 30
0.0
 10
158.087
 20
58.5015
 30
0.0
 10
158.087
 20
58.5015
 30
0.0
 10
158.087
 20
58.5015
 30
0.0
 10
158.5903
 20
60.40340000000001
 30
0.0
 10
160.5962
 20
63.80840000000001
 30
0.0
 10
164.7122
 20
63.7468
 30
0.0
 10
164.7122
 20
63.7468
 30
0.0
 10
171.193
 20
63.6497
 30
0.0
 10
172.7713
 20
52.3061
 30
0.0
 10
168.8611
 20
52.0338
 30
0.0
  0
SPLINE
  5
5F
330
1F
100
AcDbEntity
  8
Camada 1
 62
   142
370
     5
100
AcDbSpline
210
0.0
220
0.0
230
1.0
 70
    11
 71
     3
 72
    28
 73
    24
 74
     0
 42
0.0000000001
 43
0.0000000001
 40
0.0
 40
0.0
 40
0.0
 40
0.0
 40
0.1666666666666667
 40
0.1666666666666667
 40
0.1666666666666667
 40
0.1666666666666667
 40
0.3333333333333333
 40
0.3333333333333333
 40
0.3333333333333333
 40
0.3333333333333333
 40
0.5
 40
0.5
 40
0.5
 40
0.5
 40
0.6666666666666666
 40
0.6666666666666666
 40
0.6666666666666666
 40
0.6666666666666666
 40
0.8333333333333333
 40
0.8333333333333333
 40
0.8333333333333333
 40
0.8333333333333333
 40
1.0
 40
1.0
 40
1.0
 40
1.0
 10
175.6609
 20
37.7866
 30
0.0
 10
169.2944
 20
37.34390000000001
 30
0.0
 10
164.0736
 20
36.8268
 30
0.0
 10
164.5159
 20
42.124
 30
0.0
 10
164.5159
 20
42.124
 30
0.0
 10
164.5159
 20
42.124
 30
0.0
 10
173.2974
 20
42.029
 30
0.0
 10
173.2974
 20
42.029
 30
0.0
 10
173.2974
 20
42.029
 30
0.0
 10
173.2974
 20
42.029
 30
0.0
 10
173.3457
 20
44.08150000000001
 30
0.0
 10
173.3457
 20
44.08150000000001
 30
0.0
 10
173.3457
 20
44.08150000000001
 30
0.0
 10
173.3457
 20
44.08150000000001
 30
0.0
 10
164.8868
 20
44.2543
 30
0.0
 10
164.8868
 20
44.2543
 30
0.0
 10
164.8868
 20
44.2543
 30
0.0
 10
165.3901
 20
46.15620000000001
 30
0.0
 10
167.396
 20
49.5612
 30
0.0
 10
171.512
 20
49.4996
 30
0.0
 10
171.512
 20
49.4996
 30
0.0
 10
177.9928
 20
49.4025
 30
0.0
 10
179.5711
 20
38.0589
 30
0.0
 10
175.6609
 20
37.7866
 30
0.0
  0
SPLINE
  5
60
330
1F
100
AcDbEntity
  8
Camada 1
 62
   142
370
     5
100
AcDbSpline
210
0.0
220
0.0
230
1.0
 70
    11
 71
     3
 72
    28
 73
    24
 74
     0
 42
0.0000000001
 43
0.0000000001
 40
0.0
 40
0.0
 40
0.0
 40
0.0
 40
0.1666666666666667
 40
0.1666666666666667
 40
0.1666666666666667
 40
0.1666666666666667
 40
0.3333333333333333
 40
0.3333333333333333
 40
0.3333333333333333
 40
0.3333333333333333
 40
0.5
 40
0.5
 40
0.5
 40
0.5
 40
0.6666666666666666
 40
0.6666666666666666
 40
0.6666666666666666
 40
0.6666666666666666
 40
0.8333333333333333
 40
0.8333333333333333
 40
0.8333333333333333
 40
0.8333333333333333
 40
1.0
 40
1.0
 40
1.0
 40
1.0
 10
191.3652
 20
39.72940000000001
 30
0.0
 10
184.9987
 20
39.2867
 30
0.0
 10
179.7779
 20
38.7696
 30
0.0
 10
180.2202
 20
44.0668
 30
0.0
 10
180.2202
 20
44.0668
 30
0.0
 10
180.2202
 20
44.0668
 30
0.0
 10
189.0017
 20
43.9718
 30
0.0
 10
189.0017
 20
43.9718
 30
0.0
 10
189.0017
 20
43.9718
 30
0.0
 10
189.0017
 20
43.9718
 30
0.0
 10
189.05
 20
46.0243
 30
0.0
 10
189.05
 20
46.0243
 30
0.0
 10
189.05
 20
46.0243
 30
0.0
 10
189.05
 20
46.0243
 30
0.0
 10
180.5911
 20
46.1971
 30
0.0
 10
180.5911
 20
46.1971
 30
0.0
 10
180.5911
 20
46.1971
 30
0.0
 10
181.0944
 20
48.099
 30
0.0
 10
183.1003
 20
51.50400000000001
 30
0.0
 10
187.2163
 20
51.4424
 30
0.0
 10
187.2163
 20
51.4424
 30
0.0
 10
193.6971
 20
51.3453
 30
0.0
 10
195.2754
 20
40.0017
 30
0.0
 10
191.3652
 20
39.72940000000001
 30
0.0
  0
SPLINE
  5
61
330
1F
100
AcDbEntity
  8
Camada 1
 62
   142
370
     5
100
AcDbSpline
210
0.0
220
0.0
230
1.0
 70
    11
 71
     3
 72
   864
 73
   860
 74
     0
 42
0.0000000001
 43
0.0000000001
 40
0.0
 40
0.0
 40
0.0
 40
0.0
 40
0.0046511627906977
 40
0.0046511627906977
 40
0.0046511627906977
 40
0.0046511627906977
 40
0.0093023255813953
 40
0.0093023255813953
 40
0.0093023255813953
 40
0.0093023255813953
 40
0.013953488372093
 40
0.013953488372093
 40
0.013953488372093
 40
0.013953488372093
 40
0.0186046511627907
 40
0.0186046511627907
 40
0.0186046511627907
 40
0.0186046511627907
 40
0.0232558139534884
 40
0.0232558139534884
 40
0.0232558139534884
 40
0.0232558139534884
 40
0.027906976744186
 40
0.027906976744186
 40
0.027906976744186
 40
0.027906976744186
 40
0.0325581395348837
 40
0.0325581395348837
 40
0.0325581395348837
 40
0.0325581395348837
 40
0.0372093023255814
 40
0.0372093023255814
 40
0.0372093023255814
 40
0.0372093023255814
 40
0.0418604651162791
 40
0.0418604651162791
 40
0.0418604651162791
 40
0.0418604651162791
 40
0.0465116279069767
 40
0.0465116279069767
 40
0.0465116279069767
 40
0.0465116279069767
 40
0.0511627906976744
 40
0.0511627906976744
 40
0.0511627906976744
 40
0.0511627906976744
 40
0.0558139534883721
 40
0.0558139534883721
 40
0.0558139534883721
 40
0.0558139534883721
 40
0.0604651162790698
 40
0.0604651162790698
 40
0.0604651162790698
 40
0.0604651162790698
 40
0.0651162790697674
 40
0.0651162790697674
 40
0.0651162790697674
 40
0.0651162790697674
 40
0.0697674418604651
 40
0.0697674418604651
 40
0.0697674418604651
 40
0.0697674418604651
 40
0.0744186046511628
 40
0.0744186046511628
 40
0.0744186046511628
 40
0.0744186046511628
 40
0.0790697674418605
 40
0.0790697674418605
 40
0.0790697674418605
 40
0.0790697674418605
 40
0.0837209302325581
 40
0.0837209302325581
 40
0.0837209302325581
 40
0.0837209302325581
 40
0.0883720930232558
 40
0.0883720930232558
 40
0.0883720930232558
 40
0.0883720930232558
 40
0.0930232558139535
 40
0.0930232558139535
 40
0.0930232558139535
 40
0.0930232558139535
 40
0.0976744186046512
 40
0.0976744186046512
 40
0.0976744186046512
 40
0.0976744186046512
 40
0.1023255813953488
 40
0.1023255813953488
 40
0.1023255813953488
 40
0.1023255813953488
 40
0.1069767441860465
 40
0.1069767441860465
 40
0.1069767441860465
 40
0.1069767441860465
 40
0.1116279069767442
 40
0.1116279069767442
 40
0.1116279069767442
 40
0.1116279069767442
 40
0.1162790697674419
 40
0.1162790697674419
 40
0.1162790697674419
 40
0.1162790697674419
 40
0.1209302325581395
 40
0.1209302325581395
 40
0.1209302325581395
 40
0.1209302325581395
 40
0.1255813953488372
 40
0.1255813953488372
 40
0.1255813953488372
 40
0.1255813953488372
 40
0.1302325581395349
 40
0.1302325581395349
 40
0.1302325581395349
 40
0.1302325581395349
 40
0.1348837209302325
 40
0.1348837209302325
 40
0.1348837209302325
 40
0.1348837209302325
 40
0.1395348837209302
 40
0.1395348837209302
 40
0.1395348837209302
 40
0.1395348837209302
 40
0.1441860465116279
 40
0.1441860465116279
 40
0.1441860465116279
 40
0.1441860465116279
 40
0.1488372093023255
 40
0.1488372093023255
 40
0.1488372093023255
 40
0.1488372093023255
 40
0.1534883720930232
 40
0.1534883720930232
 40
0.1534883720930232
 40
0.1534883720930232
 40
0.1581395348837208
 40
0.1581395348837208
 40
0.1581395348837208
 40
0.1581395348837208
 40
0.1627906976744185
 40
0.1627906976744185
 40
0.1627906976744185
 40
0.1627906976744185
 40
0.1674418604651162
 40
0.1674418604651162
 40
0.1674418604651162
 40
0.1674418604651162
 40
0.1720930232558138
 40
0.1720930232558138
 40
0.1720930232558138
 40
0.1720930232558138
 40
0.1767441860465115
 40
0.1767441860465115
 40
0.1767441860465115
 40
0.1767441860465115
 40
0.1813953488372092
 40
0.1813953488372092
 40
0.1813953488372092
 40
0.1813953488372092
 40
0.1860465116279068
 40
0.1860465116279068
 40
0.1860465116279068
 40
0.1860465116279068
 40
0.1906976744186045
 40
0.1906976744186045
 40
0.1906976744186045
 40
0.1906976744186045
 40
0.1953488372093021
 40
0.1953488372093021
 40
0.1953488372093021
 40
0.1953488372093021
 40
0.1999999999999998
 40
0.1999999999999998
 40
0.1999999999999998
 40
0.1999999999999998
 40
0.2046511627906975
 40
0.2046511627906975
 40
0.2046511627906975
 40
0.2046511627906975
 40
0.2093023255813951
 40
0.2093023255813951
 40
0.2093023255813951
 40
0.2093023255813951
 40
0.2139534883720928
 40
0.2139534883720928
 40
0.2139534883720928
 40
0.2139534883720928
 40
0.2186046511627904
 40
0.2186046511627904
 40
0.2186046511627904
 40
0.2186046511627904
 40
0.2232558139534881
 40
0.2232558139534881
 40
0.2232558139534881
 40
0.2232558139534881
 40
0.2279069767441858
 40
0.2279069767441858
 40
0.2279069767441858
 40
0.2279069767441858
 40
0.2325581395348834
 40
0.2325581395348834
 40
0.2325581395348834
 40
0.2325581395348834
 40
0.2372093023255811
 40
0.2372093023255811
 40
0.2372093023255811
 40
0.2372093023255811
 40
0.2418604651162787
 40
0.2418604651162787
 40
0.2418604651162787
 40
0.2418604651162787
 40
0.2465116279069764
 40
0.2465116279069764
 40
0.2465116279069764
 40
0.2465116279069764
 40
0.2511627906976741
 40
0.2511627906976741
 40
0.2511627906976741
 40
0.2511627906976741
 40
0.2558139534883717
 40
0.2558139534883717
 40
0.2558139534883717
 40
0.2558139534883717
 40
0.2604651162790694
 40
0.2604651162790694
 40
0.2604651162790694
 40
0.2604651162790694
 40
0.265116279069767
 40
0.265116279069767
 40
0.265116279069767
 40
0.265116279069767
 40
0.2697674418604647
 40
0.2697674418604647
 40
0.2697674418604647
 40
0.2697674418604647
 40
0.2744186046511624
 40
0.2744186046511624
 40
0.2744186046511624
 40
0.2744186046511624
 40
0.27906976744186
 40
0.27906976744186
 40
0.27906976744186
 40
0.27906976744186
 40
0.2837209302325577
 40
0.2837209302325577
 40
0.2837209302325577
 40
0.2837209302325577
 40
0.2883720930232553
 40
0.2883720930232553
 40
0.2883720930232553
 40
0.2883720930232553
 40
0.293023255813953
 40
0.293023255813953
 40
0.293023255813953
 40
0.293023255813953
 40
0.2976744186046507
 40
0.2976744186046507
 40
0.2976744186046507
 40
0.2976744186046507
 40
0.3023255813953483
 40
0.3023255813953483
 40
0.3023255813953483
 40
0.3023255813953483
 40
0.306976744186046
 40
0.306976744186046
 40
0.306976744186046
 40
0.306976744186046
 40
0.3116279069767436
 40
0.3116279069767436
 40
0.3116279069767436
 40
0.3116279069767436
 40
0.3162790697674413
 40
0.3162790697674413
 40
0.3162790697674413
 40
0.3162790697674413
 40
0.320930232558139
 40
0.320930232558139
 40
0.320930232558139
 40
0.320930232558139
 40
0.3255813953488366
 40
0.3255813953488366
 40
0.3255813953488366
 40
0.3255813953488366
 40
0.3302325581395343
 40
0.3302325581395343
 40
0.3302325581395343
 40
0.3302325581395343
 40
0.3348837209302319
 40
0.3348837209302319
 40
0.3348837209302319
 40
0.3348837209302319
 40
0.3395348837209296
 40
0.3395348837209296
 40
0.3395348837209296
 40
0.3395348837209296
 40
0.3441860465116273
 40
0.3441860465116273
 40
0.3441860465116273
 40
0.3441860465116273
 40
0.3488372093023249
 40
0.3488372093023249
 40
0.3488372093023249
 40
0.3488372093023249
 40
0.3534883720930226
 40
0.3534883720930226
 40
0.3534883720930226
 40
0.3534883720930226
 40
0.3581395348837203
 40
0.3581395348837203
 40
0.3581395348837203
 40
0.3581395348837203
 40
0.3627906976744179
 40
0.3627906976744179
 40
0.3627906976744179
 40
0.3627906976744179
 40
0.3674418604651156
 40
0.3674418604651156
 40
0.3674418604651156
 40
0.3674418604651156
 40
0.3720930232558132
 40
0.3720930232558132
 40
0.3720930232558132
 40
0.3720930232558132
 40
0.3767441860465109
 40
0.3767441860465109
 40
0.3767441860465109
 40
0.3767441860465109
 40
0.3813953488372086
 40
0.3813953488372086
 40
0.3813953488372086
 40
0.3813953488372086
 40
0.3860465116279062
 40
0.3860465116279062
 40
0.3860465116279062
 40
0.3860465116279062
 40
0.3906976744186039
 40
0.3906976744186039
 40
0.3906976744186039
 40
0.3906976744186039
 40
0.3953488372093015
 40
0.3953488372093015
 40
0.3953488372093015
 40
0.3953488372093015
 40
0.3999999999999992
 40
0.3999999999999992
 40
0.3999999999999992
 40
0.3999999999999992
 40
0.4046511627906969
 40
0.4046511627906969
 40
0.4046511627906969
 40
0.4046511627906969
 40
0.4093023255813945
 40
0.4093023255813945
 40
0.4093023255813945
 40
0.4093023255813945
 40
0.4139534883720922
 40
0.4139534883720922
 40
0.4139534883720922
 40
0.4139534883720922
 40
0.4186046511627898
 40
0.4186046511627898
 40
0.4186046511627898
 40
0.4186046511627898
 40
0.4232558139534875
 40
0.4232558139534875
 40
0.4232558139534875
 40
0.4232558139534875
 40
0.4279069767441852
 40
0.4279069767441852
 40
0.4279069767441852
 40
0.4279069767441852
 40
0.4325581395348828
 40
0.4325581395348828
 40
0.4325581395348828
 40
0.4325581395348828
 40
0.4372093023255805
 40
0.4372093023255805
 40
0.4372093023255805
 40
0.4372093023255805
 40
0.4418604651162781
 40
0.4418604651162781
 40
0.4418604651162781
 40
0.4418604651162781
 40
0.4465116279069758
 40
0.4465116279069758
 40
0.4465116279069758
 40
0.4465116279069758
 40
0.4511627906976735
 40
0.4511627906976735
 40
0.4511627906976735
 40
0.4511627906976735
 40
0.4558139534883711
 40
0.4558139534883711
 40
0.4558139534883711
 40
0.4558139534883711
 40
0.4604651162790688
 40
0.4604651162790688
 40
0.4604651162790688
 40
0.4604651162790688
 40
0.4651162790697664
 40
0.4651162790697664
 40
0.4651162790697664
 40
0.4651162790697664
 40
0.4697674418604641
 40
0.4697674418604641
 40
0.4697674418604641
 40
0.4697674418604641
 40
0.4744186046511618
 40
0.4744186046511618
 40
0.4744186046511618
 40
0.4744186046511618
 40
0.4790697674418594
 40
0.4790697674418594
 40
0.4790697674418594
 40
0.4790697674418594
 40
0.4837209302325571
 40
0.4837209302325571
 40
0.4837209302325571
 40
0.4837209302325571
 40
0.4883720930232547
 40
0.4883720930232547
 40
0.4883720930232547
 40
0.4883720930232547
 40
0.4930232558139524
 40
0.4930232558139524
 40
0.4930232558139524
 40
0.4930232558139524
 40
0.4976744186046501
 40
0.4976744186046501
 40
0.4976744186046501
 40
0.4976744186046501
 40
0.5023255813953478
 40
0.5023255813953478
 40
0.5023255813953478
 40
0.5023255813953478
 40
0.5069767441860454
 40
0.5069767441860454
 40
0.5069767441860454
 40
0.5069767441860454
 40
0.5116279069767431
 40
0.5116279069767431
 40
0.5116279069767431
 40
0.5116279069767431
 40
0.5162790697674408
 40
0.5162790697674408
 40
0.5162790697674408
 40
0.5162790697674408
 40
0.5209302325581384
 40
0.5209302325581384
 40
0.5209302325581384
 40
0.5209302325581384
 40
0.5255813953488361
 40
0.5255813953488361
 40
0.5255813953488361
 40
0.5255813953488361
 40
0.5302325581395337
 40
0.5302325581395337
 40
0.5302325581395337
 40
0.5302325581395337
 40
0.5348837209302314
 40
0.5348837209302314
 40
0.5348837209302314
 40
0.5348837209302314
 40
0.5395348837209291
 40
0.5395348837209291
 40
0.5395348837209291
 40
0.5395348837209291
 40
0.5441860465116267
 40
0.5441860465116267
 40
0.5441860465116267
 40
0.5441860465116267
 40
0.5488372093023244
 40
0.5488372093023244
 40
0.5488372093023244
 40
0.5488372093023244
 40
0.553488372093022
 40
0.553488372093022
 40
0.553488372093022
 40
0.553488372093022
 40
0.5581395348837197
 40
0.5581395348837197
 40
0.5581395348837197
 40
0.5581395348837197
 40
0.5627906976744174
 40
0.5627906976744174
 40
0.5627906976744174
 40
0.5627906976744174
 40
0.567441860465115
 40
0.567441860465115
 40
0.567441860465115
 40
0.567441860465115
 40
0.5720930232558127
 40
0.5720930232558127
 40
0.5720930232558127
 40
0.5720930232558127
 40
0.5767441860465103
 40
0.5767441860465103
 40
0.5767441860465103
 40
0.5767441860465103
 40
0.581395348837208
 40
0.581395348837208
 40
0.581395348837208
 40
0.581395348837208
 40
0.5860465116279057
 40
0.5860465116279057
 40
0.5860465116279057
 40
0.5860465116279057
 40
0.5906976744186033
 40
0.5906976744186033
 40
0.5906976744186033
 40
0.5906976744186033
 40
0.595348837209301
 40
0.595348837209301
 40
0.595348837209301
 40
0.595348837209301
 40
0.5999999999999987
 40
0.5999999999999987
 40
0.5999999999999987
 40
0.5999999999999987
 40
0.6046511627906963
 40
0.6046511627906963
 40
0.6046511627906963
 40
0.6046511627906963
 40
0.609302325581394
 40
0.609302325581394
 40
0.609302325581394
 40
0.609302325581394
 40
0.6139534883720916
 40
0.6139534883720916
 40
0.6139534883720916
 40
0.6139534883720916
 40
0.6186046511627893
 40
0.6186046511627893
 40
0.6186046511627893
 40
0.6186046511627893
 40
0.623255813953487
 40
0.623255813953487
 40
0.623255813953487
 40
0.623255813953487
 40
0.6279069767441846
 40
0.6279069767441846
 40
0.6279069767441846
 40
0.6279069767441846
 40
0.6325581395348823
 40
0.6325581395348823
 40
0.6325581395348823
 40
0.6325581395348823
 40
0.6372093023255799
 40
0.6372093023255799
 40
0.6372093023255799
 40
0.6372093023255799
 40
0.6418604651162776
 40
0.6418604651162776
 40
0.6418604651162776
 40
0.6418604651162776
 40
0.6465116279069753
 40
0.6465116279069753
 40
0.6465116279069753
 40
0.6465116279069753
 40
0.6511627906976729
 40
0.6511627906976729
 40
0.6511627906976729
 40
0.6511627906976729
 40
0.6558139534883706
 40
0.6558139534883706
 40
0.6558139534883706
 40
0.6558139534883706
 40
0.6604651162790682
 40
0.6604651162790682
 40
0.6604651162790682
 40
0.6604651162790682
 40
0.6651162790697659
 40
0.6651162790697659
 40
0.6651162790697659
 40
0.6651162790697659
 40
0.6697674418604636
 40
0.6697674418604636
 40
0.6697674418604636
 40
0.6697674418604636
 40
0.6744186046511612
 40
0.6744186046511612
 40
0.6744186046511612
 40
0.6744186046511612
 40
0.6790697674418589
 40
0.6790697674418589
 40
0.6790697674418589
 40
0.6790697674418589
 40
0.6837209302325565
 40
0.6837209302325565
 40
0.6837209302325565
 40
0.6837209302325565
 40
0.6883720930232542
 40
0.6883720930232542
 40
0.6883720930232542
 40
0.6883720930232542
 40
0.6930232558139519
 40
0.6930232558139519
 40
0.6930232558139519
 40
0.6930232558139519
 40
0.6976744186046495
 40
0.6976744186046495
 40
0.6976744186046495
 40
0.6976744186046495
 40
0.7023255813953472
 40
0.7023255813953472
 40
0.7023255813953472
 40
0.7023255813953472
 40
0.7069767441860448
 40
0.7069767441860448
 40
0.7069767441860448
 40
0.7069767441860448
 40
0.7116279069767425
 40
0.7116279069767425
 40
0.7116279069767425
 40
0.7116279069767425
 40
0.7162790697674402
 40
0.7162790697674402
 40
0.7162790697674402
 40
0.7162790697674402
 40
0.7209302325581378
 40
0.7209302325581378
 40
0.7209302325581378
 40
0.7209302325581378
 40
0.7255813953488355
 40
0.7255813953488355
 40
0.7255813953488355
 40
0.7255813953488355
 40
0.7302325581395331
 40
0.7302325581395331
 40
0.7302325581395331
 40
0.7302325581395331
 40
0.7348837209302308
 40
0.7348837209302308
 40
0.7348837209302308
 40
0.7348837209302308
 40
0.7395348837209285
 40
0.7395348837209285
 40
0.7395348837209285
 40
0.7395348837209285
 40
0.7441860465116261
 40
0.7441860465116261
 40
0.7441860465116261
 40
0.7441860465116261
 40
0.7488372093023238
 40
0.7488372093023238
 40
0.7488372093023238
 40
0.7488372093023238
 40
0.7534883720930214
 40
0.7534883720930214
 40
0.7534883720930214
 40
0.7534883720930214
 40
0.7581395348837191
 40
0.7581395348837191
 40
0.7581395348837191
 40
0.7581395348837191
 40
0.7627906976744168
 40
0.7627906976744168
 40
0.7627906976744168
 40
0.7627906976744168
 40
0.7674418604651144
 40
0.7674418604651144
 40
0.7674418604651144
 40
0.7674418604651144
 40
0.7720930232558121
 40
0.7720930232558121
 40
0.7720930232558121
 40
0.7720930232558121
 40
0.7767441860465097
 40
0.7767441860465097
 40
0.7767441860465097
 40
0.7767441860465097
 40
0.7813953488372074
 40
0.7813953488372074
 40
0.7813953488372074
 40
0.7813953488372074
 40
0.7860465116279051
 40
0.7860465116279051
 40
0.7860465116279051
 40
0.7860465116279051
 40
0.7906976744186027
 40
0.7906976744186027
 40
0.7906976744186027
 40
0.7906976744186027
 40
0.7953488372093004
 40
0.7953488372093004
 40
0.7953488372093004
 40
0.7953488372093004
 40
0.7999999999999981
 40
0.7999999999999981
 40
0.7999999999999981
 40
0.7999999999999981
 40
0.8046511627906957
 40
0.8046511627906957
 40
0.8046511627906957
 40
0.8046511627906957
 40
0.8093023255813934
 40
0.8093023255813934
 40
0.8093023255813934
 40
0.8093023255813934
 40
0.813953488372091
 40
0.813953488372091
 40
0.813953488372091
 40
0.813953488372091
 40
0.8186046511627887
 40
0.8186046511627887
 40
0.8186046511627887
 40
0.8186046511627887
 40
0.8232558139534864
 40
0.8232558139534864
 40
0.8232558139534864
 40
0.8232558139534864
 40
0.827906976744184
 40
0.827906976744184
 40
0.827906976744184
 40
0.827906976744184
 40
0.8325581395348817
 40
0.8325581395348817
 40
0.8325581395348817
 40
0.8325581395348817
 40
0.8372093023255793
 40
0.8372093023255793
 40
0.8372093023255793
 40
0.8372093023255793
 40
0.841860465116277
 40
0.841860465116277
 40
0.841860465116277
 40
0.841860465116277
 40
0.8465116279069747
 40
0.8465116279069747
 40
0.8465116279069747
 40
0.8465116279069747
 40
0.8511627906976723
 40
0.8511627906976723
 40
0.8511627906976723
 40
0.8511627906976723
 40
0.85581395348837
 40
0.85581395348837
 40
0.85581395348837
 40
0.85581395348837
 40
0.8604651162790676
 40
0.8604651162790676
 40
0.8604651162790676
 40
0.8604651162790676
 40
0.8651162790697653
 40
0.8651162790697653
 40
0.8651162790697653
 40
0.8651162790697653
 40
0.869767441860463
 40
0.869767441860463
 40
0.869767441860463
 40
0.869767441860463
 40
0.8744186046511606
 40
0.8744186046511606
 40
0.8744186046511606
 40
0.8744186046511606
 40
0.8790697674418583
 40
0.8790697674418583
 40
0.8790697674418583
 40
0.8790697674418583
 40
0.8837209302325559
 40
0.8837209302325559
 40
0.8837209302325559
 40
0.8837209302325559
 40
0.8883720930232536
 40
0.8883720930232536
 40
0.8883720930232536
 40
0.8883720930232536
 40
0.8930232558139513
 40
0.8930232558139513
 40
0.8930232558139513
 40
0.8930232558139513
 40
0.8976744186046489
 40
0.8976744186046489
 40
0.8976744186046489
 40
0.8976744186046489
 40
0.9023255813953466
 40
0.9023255813953466
 40
0.9023255813953466
 40
0.9023255813953466
 40
0.9069767441860442
 40
0.9069767441860442
 40
0.9069767441860442
 40
0.9069767441860442
 40
0.9116279069767419
 40
0.9116279069767419
 40
0.9116279069767419
 40
0.9116279069767419
 40
0.9162790697674396
 40
0.9162790697674396
 40
0.9162790697674396
 40
0.9162790697674396
 40
0.9209302325581372
 40
0.9209302325581372
 40
0.9209302325581372
 40
0.9209302325581372
 40
0.9255813953488349
 40
0.9255813953488349
 40
0.9255813953488349
 40
0.9255813953488349
 40
0.9302325581395325
 40
0.9302325581395325
 40
0.9302325581395325
 40
0.9302325581395325
 40
0.9348837209302302
 40
0.9348837209302302
 40
0.9348837209302302
 40
0.9348837209302302
 40
0.9395348837209279
 40
0.9395348837209279
 40
0.9395348837209279
 40
0.9395348837209279
 40
0.9441860465116255
 40
0.9441860465116255
 40
0.9441860465116255
 40
0.9441860465116255
 40
0.9488372093023232
 40
0.9488372093023232
 40
0.9488372093023232
 40
0.9488372093023232
 40
0.9534883720930208
 40
0.9534883720930208
 40
0.9534883720930208
 40
0.9534883720930208
 40
0.9581395348837185
 40
0.9581395348837185
 40
0.9581395348837185
 40
0.9581395348837185
 40
0.9627906976744162
 40
0.9627906976744162
 40
0.9627906976744162
 40
0.9627906976744162
 40
0.9674418604651138
 40
0.9674418604651138
 40
0.9674418604651138
 40
0.9674418604651138
 40
0.9720930232558115
 40
0.9720930232558115
 40
0.9720930232558115
 40
0.9720930232558115
 40
0.9767441860465091
 40
0.9767441860465091
 40
0.9767441860465091
 40
0.9767441860465091
 40
0.9813953488372068
 40
0.9813953488372068
 40
0.9813953488372068
 40
0.9813953488372068
 40
0.9860465116279045
 40
0.9860465116279045
 40
0.9860465116279045
 40
0.9860465116279045
 40
0.9906976744186021
 40
0.9906976744186021
 40
0.9906976744186021
 40
0.9906976744186021
 40
0.9953488372092998
 40
0.9953488372092998
 40
0.9953488372092998
 40
0.9953488372092998
 40
1.0
 40
1.0
 40
1.0
 40
1.0
 10
180.6858
 20
70.6328
 30
0.0
 10
190.9439
 20
74.8368
 30
0.0
 10
199.6819
 20
71.7154
 30
0.0
 10
207.5672
 20
64.48440000000001
 30
0.0
 10
207.5672
 20
64.48440000000001
 30
0.0
 10
219.7743
 20
42.1954
 30
0.0
 10
206.6826
 20
16.229
 30
0.0
 10
177.6028
 20
15.9135
 30
0.0
 10
177.6028
 20
15.9135
 30
0.0
 10
159.6594
 20
17.3374
 30
0.0
 10
147.3139
 20
25.9613
 30
0.0
 10
143.7974
 20
41.1649
 30
0.0
 10
143.7974
 20
41.1649
 30
0.0
 10
139.0973
 20
61.5746
 30
0.0
 10
142.5951
 20
76.21980000000001
 30
0.0
 10
151.7019
 20
86.92110000000001
 30
0.0
 10
151.7019
 20
86.92110000000001
 30
0.0
 10
161.449
 20
98.14870000000001
 30
0.0
 10
175.8424
 20
103.4098
 30
0.0
 10
196.3761
 20
100.8307
 30
0.0
 10
196.3761
 20
100.8307
 30
0.0
 10
221.971
 20
94.2308
 30
0.0
 10
236.7657
 20
78.2208
 30
0.0
 10
236.0247
 20
48.3068
 30
0.0
 10
236.0247
 20
48.3068
 30
0.0
 10
236.5185
 20
38.35760000000001
 30
0.0
 10
229.3292
 20
29.1295
 30
0.0
 10
231.9445
 20
18.7058
 30
0.0
 10
231.9445
 20
18.7058
 30
0.0
 10
235.1415
 20
10.9282
 30
0.0
 10
247.0878
 20
11.5948
 30
0.0
 10
249.5169
 20
24.5917
 30
0.0
 10
249.5169
 20
24.5917
 30
0.0
 10
252.858
 20
40.7815
 30
0.0
 10
241.9517
 20
60.85740000000001
 30
0.0
 10
253.9548
 20
71.62350000000001
 30
0.0
 10
253.9548
 20
71.62350000000001
 30
0.0
 10
264.5059
 20
83.30890000000001
 30
0.0
 10
276.0272
 20
80.9143
 30
0.0
 10
283.3812
 20
65.00190000000001
 30
0.0
 10
283.3812
 20
65.00190000000001
 30
0.0
 10
284.3434
 20
61.1073
 30
0.0
 10
287.827
 20
45.3162
 30
0.0
 10
284.0845
 20
57.0791
 30
0.0
 10
284.0845
 20
57.0791
 30
0.0
 10
280.1247
 20
69.52540000000001
 30
0.0
 10
270.2501
 20
76.77120000000001
 30
0.0
 10
263.1045
 20
71.7654
 30
0.0
 10
263.1045
 20
71.7654
 30
0.0
 10
260.618
 20
70.0235
 30
0.0
 10
258.9
 20
67.2568
 30
0.0
 10
257.7082
 20
63.7886
 30
0.0
 10
257.7082
 20
63.7886
 30
0.0
 10
257.7082
 20
63.7886
 30
0.0
 10
257.6901
 20
56.3416
 30
0.0
 10
257.6901
 20
56.3416
 30
0.0
 10
257.6901
 20
56.3416
 30
0.0
 10
257.6901
 20
56.3416
 30
0.0
 10
253.9035
 20
54.2469
 30
0.0
 10
253.9035
 20
54.2469
 30
0.0
 10
253.9035
 20
54.2469
 30
0.0
 10
253.9035
 20
54.2469
 30
0.0
 10
254.8306
 20
52.2954
 30
0.0
 10
254.8306
 20
52.2954
 30
0.0
 10
254.8306
 20
52.2954
 30
0.0
 10
254.8306
 20
52.2954
 30
0.0
 10
258.5261
 20
54.4118
 30
0.0
 10
258.5261
 20
54.4118
 30
0.0
 10
258.5261
 20
54.4118
 30
0.0
 10
258.5261
 20
54.4118
 30
0.0
 10
259.9983
 20
50.0853
 30
0.0
 10
259.9983
 20
50.0853
 30
0.0
 10
259.9983
 20
50.0853
 30
0.0
 10
259.9983
 20
50.0853
 30
0.0
 10
255.699
 20
49.2539
 30
0.0
 10
255.699
 20
49.2539
 30
0.0
 10
255.699
 20
49.2539
 30
0.0
 10
255.699
 20
49.2539
 30
0.0
 10
255.9154
 20
47.3654
 30
0.0
 10
255.9154
 20
47.3654
 30
0.0
 10
255.9154
 20
47.3654
 30
0.0
 10
255.9154
 20
47.3654
 30
0.0
 10
260.6206
 20
48.1926
 30
0.0
 10
260.6206
 20
48.1926
 30
0.0
 10
260.6206
 20
48.1926
 30
0.0
 10
260.6206
 20
48.1926
 30
0.0
 10
260.9923
 20
43.50250000000001
 30
0.0
 10
260.9923
 20
43.50250000000001
 30
0.0
 10
260.9923
 20
43.50250000000001
 30
0.0
 10
260.9923
 20
43.50250000000001
 30
0.0
 10
256.6707
 20
43.4622
 30
0.0
 10
256.6707
 20
43.4622
 30
0.0
 10
256.6707
 20
43.4622
 30
0.0
 10
256.6707
 20
43.4622
 30
0.0
 10
256.8041
 20
41.7384
 30
0.0
 10
256.8041
 20
41.7384
 30
0.0
 10
256.8041
 20
41.7384
 30
0.0
 10
256.8041
 20
41.7384
 30
0.0
 10
261.1113
 20
42.0011
 30
0.0
 10
261.1113
 20
42.0011
 30
0.0
 10
261.1113
 20
42.0011
 30
0.0
 10
261.1113
 20
42.0011
 30
0.0
 10
261.5627
 20
37.04960000000001
 30
0.0
 10
261.5627
 20
37.04960000000001
 30
0.0
 10
261.5627
 20
37.04960000000001
 30
0.0
 10
261.5627
 20
37.04960000000001
 30
0.0
 10
257.0242
 20
36.9359
 30
0.0
 10
257.0242
 20
36.9359
 30
0.0
 10
257.0242
 20
36.9359
 30
0.0
 10
257.0242
 20
36.9359
 30
0.0
 10
257.0194
 20
35.213
 30
0.0
 10
257.0194
 20
35.213
 30
0.0
 10
257.0194
 20
35.213
 30
0.0
 10
257.0194
 20
35.213
 30
0.0
 10
261.7069
 20
35.2302
 30
0.0
 10
261.7069
 20
35.2302
 30
0.0
 10
261.7069
 20
35.2302
 30
0.0
 10
261.7069
 20
35.2302
 30
0.0
 10
261.7482
 20
30.7861
 30
0.0
 10
261.7482
 20
30.7861
 30
0.0
 10
261.7482
 20
30.7861
 30
0.0
 10
261.7482
 20
30.7861
 30
0.0
 10
256.8669
 20
30.9205
 30
0.0
 10
256.8669
 20
30.9205
 30
0.0
 10
256.8669
 20
30.9205
 30
0.0
 10
256.8669
 20
30.9205
 30
0.0
 10
256.8746
 20
29.5274
 30
0.0
 10
256.8746
 20
29.5274
 30
0.0
 10
256.8746
 20
29.5274
 30
0.0
 10
256.8746
 20
29.5274
 30
0.0
 10
261.7594
 20
29.1687
 30
0.0
 10
261.7594
 20
29.1687
 30
0.0
 10
261.7594
 20
29.1687
 30
0.0
 10
261.7594
 20
29.1687
 30
0.0
 10
261.3051
 20
25.2174
 30
0.0
 10
261.3051
 20
25.2174
 30
0.0
 10
261.3051
 20
25.2174
 30
0.0
 10
261.3051
 20
25.2174
 30
0.0
 10
256.8146
 20
26.1073
 30
0.0
 10
256.8146
 20
26.1073
 30
0.0
 10
256.8146
 20
26.1073
 30
0.0
 10
256.8146
 20
26.1073
 30
0.0
 10
256.3301
 20
23.6738
 30
0.0
 10
256.3301
 20
23.6738
 30
0.0
 10
256.3301
 20
23.6738
 30
0.0
 10
256.3301
 20
23.6738
 30
0.0
 10
260.573
 20
22.6989
 30
0.0
 10
260.573
 20
22.6989
 30
0.0
 10
260.573
 20
22.6989
 30
0.0
 10
260.573
 20
22.6989
 30
0.0
 10
259.8171
 20
18.5746
 30
0.0
 10
259.8171
 20
18.5746
 30
0.0
 10
259.8171
 20
18.5746
 30
0.0
 10
259.8171
 20
18.5746
 30
0.0
 10
255.6147
 20
20.4014
 30
0.0
 10
255.6147
 20
20.4014
 30
0.0
 10
255.6147
 20
20.4014
 30
0.0
 10
255.6147
 20
20.4014
 30
0.0
 10
254.6982
 20
18.3944
 30
0.0
 10
254.6982
 20
18.3944
 30
0.0
 10
254.6982
 20
18.3944
 30
0.0
 10
254.6982
 20
18.3944
 30
0.0
 10
258.9523
 20
16.4336
 30
0.0
 10
258.9523
 20
16.4336
 30
0.0
 10
258.9523
 20
16.4336
 30
0.0
 10
258.9523
 20
16.4336
 30
0.0
 10
257.1971
 20
12.6921
 30
0.0
 10
257.1971
 20
12.6921
 30
0.0
 10
257.1971
 20
12.6921
 30
0.0
 10
257.1971
 20
12.6921
 30
0.0
 10
253.6448
 20
15.2809
 30
0.0
 10
253.6448
 20
15.2809
 30
0.0
 10
253.6448
 20
15.2809
 30
0.0
 10
253.6448
 20
15.2809
 30
0.0
 10
252.4457
 20
13.3472
 30
0.0
 10
252.4457
 20
13.3472
 30
0.0
 10
252.4457
 20
13.3472
 30
0.0
 10
252.4457
 20
13.3472
 30
0.0
 10
255.9139
 20
10.6005
 30
0.0
 10
255.9139
 20
10.6005
 30
0.0
 10
255.9139
 20
10.6005
 30
0.0
 10
255.9139
 20
10.6005
 30
0.0
 10
253.6344
 20
7.693400000000001
 30
0.0
 10
253.6344
 20
7.693400000000001
 30
0.0
 10
253.6344
 20
7.693400000000001
 30
0.0
 10
253.6344
 20
7.693400000000001
 30
0.0
 10
250.5448
 20
11.8269
 30
0.0
 10
250.5448
 20
11.8269
 30
0.0
 10
250.5448
 20
11.8269
 30
0.0
 10
250.5448
 20
11.8269
 30
0.0
 10
248.7166
 20
10.1742
 30
0.0
 10
248.7166
 20
10.1742
 30
0.0
 10
248.7166
 20
10.1742
 30
0.0
 10
248.7166
 20
10.1742
 30
0.0
 10
251.7514
 20
6.0884
 30
0.0
 10
251.7514
 20
6.0884
 30
0.0
 10
251.7514
 20
6.0884
 30
0.0
 10
251.7514
 20
6.0884
 30
0.0
 10
248.1342
 20
3.7
 30
0.0
 10
248.1342
 20
3.7
 30
0.0
 10
248.1342
 20
3.7
 30
0.0
 10
248.1342
 20
3.7
 30
0.0
 10
246.4387
 20
8.658200000000001
 30
0.0
 10
246.4387
 20
8.658200000000001
 30
0.0
 10
246.4387
 20
8.658200000000001
 30
0.0
 10
246.4387
 20
8.658200000000001
 30
0.0
 10
244.8602
 20
7.950200000000001
 30
0.0
 10
244.8602
 20
7.950200000000001
 30
0.0
 10
244.8602
 20
7.950200000000001
 30
0.0
 10
244.8602
 20
7.950200000000001
 30
0.0
 10
246.1617
 20
3.2091
 30
0.0
 10
246.1617
 20
3.2091
 30
0.0
 10
246.1617
 20
3.2091
 30
0.0
 10
246.1617
 20
3.2091
 30
0.0
 10
242.2936
 20
2.2276
 30
0.0
 10
242.2936
 20
2.2276
 30
0.0
 10
242.2936
 20
2.2276
 30
0.0
 10
242.2936
 20
2.2276
 30
0.0
 10
242.2526
 20
7.434500000000001
 30
0.0
 10
242.2526
 20
7.434500000000001
 30
0.0
 10
242.2526
 20
7.434500000000001
 30
0.0
 10
242.2526
 20
7.434500000000001
 30
0.0
 10
240.1224
 20
7.4901
 30
0.0
 10
240.1224
 20
7.4901
 30
0.0
 10
240.1224
 20
7.4901
 30
0.0
 10
240.1224
 20
7.4901
 30
0.0
 10
239.7665
 20
1.9536
 30
0.0
 10
239.7665
 20
1.9536
 30
0.0
 10
239.7665
 20
1.9536
 30
0.0
 10
239.7665
 20
1.9536
 30
0.0
 10
235.9893
 20
2.0758
 30
0.0
 10
235.9893
 20
2.0758
 30
0.0
 10
235.9893
 20
2.0758
 30
0.0
 10
235.9893
 20
2.0758
 30
0.0
 10
237.0282
 20
7.237600000000001
 30
0.0
 10
237.0282
 20
7.237600000000001
 30
0.0
 10
237.0282
 20
7.237600000000001
 30
0.0
 10
237.0282
 20
7.237600000000001
 30
0.0
 10
234.7956
 20
7.522
 30
0.0
 10
234.7956
 20
7.522
 30
0.0
 10
234.7956
 20
7.522
 30
0.0
 10
234.7956
 20
7.522
 30
0.0
 10
233.6639
 20
2.3959
 30
0.0
 10
233.6639
 20
2.3959
 30
0.0
 10
233.6639
 20
2.3959
 30
0.0
 10
233.6639
 20
2.3959
 30
0.0
 10
229.5232
 20
3.1827
 30
0.0
 10
229.5232
 20
3.1827
 30
0.0
 10
229.5232
 20
3.1827
 30
0.0
 10
229.5232
 20
3.1827
 30
0.0
 10
231.8967
 20
7.6055
 30
0.0
 10
231.8967
 20
7.6055
 30
0.0
 10
231.8967
 20
7.6055
 30
0.0
 10
231.8967
 20
7.6055
 30
0.0
 10
230.1152
 20
8.457800000000001
 30
0.0
 10
230.1152
 20
8.457800000000001
 30
0.0
 10
230.1152
 20
8.457800000000001
 30
0.0
 10
230.1152
 20
8.457800000000001
 30
0.0
 10
227.2691
 20
3.9296
 30
0.0
 10
227.2691
 20
3.9296
 30
0.0
 10
227.2691
 20
3.9296
 30
0.0
 10
227.2691
 20
3.9296
 30
0.0
 10
224.0431
 20
6.360300000000001
 30
0.0
 10
224.0431
 20
6.360300000000001
 30
0.0
 10
224.0431
 20
6.360300000000001
 30
0.0
 10
224.0431
 20
6.360300000000001
 30
0.0
 10
227.8046
 20
9.646600000000001
 30
0.0
 10
227.8046
 20
9.646600000000001
 30
0.0
 10
227.8046
 20
9.646600000000001
 30
0.0
 10
227.8046
 20
9.646600000000001
 30
0.0
 10
226.184
 20
11.1958
 30
0.0
 10
226.184
 20
11.1958
 30
0.0
 10
226.184
 20
11.1958
 30
0.0
 10
226.184
 20
11.1958
 30
0.0
 10
222.5354
 20
7.8201
 30
0.0
 10
222.5354
 20
7.8201
 30
0.0
 10
222.5354
 20
7.8201
 30
0.0
 10
222.5354
 20
7.8201
 30
0.0
 10
220.03
 20
11.5385
 30
0.0
 10
220.03
 20
11.5385
 30
0.0
 10
220.03
 20
11.5385
 30
0.0
 10
220.03
 20
11.5385
 30
0.0
 10
225.3206
 20
12.8242
 30
0.0
 10
225.3206
 20
12.8242
 30
0.0
 10
225.3206
 20
12.8242
 30
0.0
 10
225.3206
 20
12.8242
 30
0.0
 10
224.5237
 20
14.9161
 30
0.0
 10
224.5237
 20
14.9161
 30
0.0
 10
224.5237
 20
14.9161
 30
0.0
 10
224.5237
 20
14.9161
 30
0.0
 10
219.3604
 20
13.6448
 30
0.0
 10
219.3604
 20
13.6448
 30
0.0
 10
219.3604
 20
13.6448
 30
0.0
 10
219.3604
 20
13.6448
 30
0.0
 10
218.8364
 20
17.795
 30
0.0
 10
218.8364
 20
17.795
 30
0.0
 10
218.8364
 20
17.795
 30
0.0
 10
218.8364
 20
17.795
 30
0.0
 10
224.2112
 20
17.1578
 30
0.0
 10
224.2112
 20
17.1578
 30
0.0
 10
224.2112
 20
17.1578
 30
0.0
 10
224.2112
 20
17.1578
 30
0.0
 10
224.3068
 20
19.4946
 30
0.0
 10
224.3068
 20
19.4946
 30
0.0
 10
224.3068
 20
19.4946
 30
0.0
 10
224.3068
 20
19.4946
 30
0.0
 10
218.978
 20
19.7334
 30
0.0
 10
218.978
 20
19.7334
 30
0.0
 10
218.978
 20
19.7334
 30
0.0
 10
218.978
 20
19.7334
 30
0.0
 10
219.0972
 20
23.9407
 30
0.0
 10
219.0972
 20
23.9407
 30
0.0
 10
219.0972
 20
23.9407
 30
0.0
 10
219.0972
 20
23.9407
 30
0.0
 10
224.287
 20
22.5639
 30
0.0
 10
224.287
 20
22.5639
 30
0.0
 10
224.287
 20
22.5639
 30
0.0
 10
224.287
 20
22.5639
 30
0.0
 10
224.6924
 20
25.1538
 30
0.0
 10
224.6924
 20
25.1538
 30
0.0
 10
224.6924
 20
25.1538
 30
0.0
 10
224.6924
 20
25.1538
 30
0.0
 10
219.5463
 20
26.3507
 30
0.0
 10
219.5463
 20
26.3507
 30
0.0
 10
219.5463
 20
26.3507
 30
0.0
 10
219.5463
 20
26.3507
 30
0.0
 10
219.9879
 20
30.234
 30
0.0
 10
219.9879
 20
30.234
 30
0.0
 10
219.9879
 20
30.234
 30
0.0
 10
219.9879
 20
30.234
 30
0.0
 10
225.2376
 20
28.5816
 30
0.0
 10
225.2376
 20
28.5816
 30
0.0
 10
225.2376
 20
28.5816
 30
0.0
 10
225.2376
 20
28.5816
 30
0.0
 10
225.8405
 20
31.0284
 30
0.0
 10
225.8405
 20
31.0284
 30
0.0
 10
225.8405
 20
31.0284
 30
0.0
 10
225.8405
 20
31.0284
 30
0.0
 10
220.7795
 20
32.4733
 30
0.0
 10
220.7795
 20
32.4733
 30
0.0
 10
220.7795
 20
32.4733
 30
0.0
 10
220.7795
 20
32.4733
 30
0.0
 10
221.6729
 20
36.2862
 30
0.0
 10
221.6729
 20
36.2862
 30
0.0
 10
221.6729
 20
36.2862
 30
0.0
 10
221.6729
 20
36.2862
 30
0.0
 10
226.3854
 20
34.5599
 30
0.0
 10
226.3854
 20
34.5599
 30
0.0
 10
226.3854
 20
34.5599
 30
0.0
 10
226.3854
 20
34.5599
 30
0.0
 10
227.1201
 20
36.7948
 30
0.0
 10
227.1201
 20
36.7948
 30
0.0
 10
227.1201
 20
36.7948
 30
0.0
 10
227.1201
 20
36.7948
 30
0.0
 10
222.1425
 20
38.8267
 30
0.0
 10
222.1425
 20
38.8267
 30
0.0
 10
222.1425
 20
38.8267
 30
0.0
 10
222.1425
 20
38.8267
 30
0.0
 10
223.0391
 20
42.6659
 30
0.0
 10
223.0391
 20
42.6659
 30
0.0
 10
223.0391
 20
42.6659
 30
0.0
 10
223.0391
 20
42.6659
 30
0.0
 10
228.3263
 20
41.0831
 30
0.0
 10
228.3263
 20
41.0831
 30
0.0
 10
228.3263
 20
41.0831
 30
0.0
 10
228.3263
 20
41.0831
 30
0.0
 10
229.0497
 20
43.2879
 30
0.0
 10
229.0497
 20
43.2879
 30
0.0
 10
229.0497
 20
43.2879
 30
0.0
 10
229.0497
 20
43.2879
 30
0.0
 10
223.4188
 20
44.9786
 30
0.0
 10
223.4188
 20
44.9786
 30
0.0
 10
223.4188
 20
44.9786
 30
0.0
 10
223.4188
 20
44.9786
 30
0.0
 10
223.8301
 20
48.9904
 30
0.0
 10
223.8301
 20
48.9904
 30
0.0
 10
223.8301
 20
48.9904
 30
0.0
 10
223.8301
 20
48.9904
 30
0.0
 10
229.3013
 20
48.2877
 30
0.0
 10
229.3013
 20
48.2877
 30
0.0
 10
229.3013
 20
48.2877
 30
0.0
 10
229.3013
 20
48.2877
 30
0.0
 10
229.5438
 20
50.5706
 30
0.0
 10
229.5438
 20
50.5706
 30
0.0
 10
229.5438
 20
50.5706
 30
0.0
 10
229.5438
 20
50.5706
 30
0.0
 10
223.7155
 20
51.2299
 30
0.0
 10
223.7155
 20
51.2299
 30
0.0
 10
223.7155
 20
51.2299
 30
0.0
 10
223.7155
 20
51.2299
 30
0.0
 10
223.7068
 20
55.436
 30
0.0
 10
223.7068
 20
55.436
 30
0.0
 10
223.7068
 20
55.436
 30
0.0
 10
223.7068
 20
55.436
 30
0.0
 10
229.0242
 20
55.1901
 30
0.0
 10
229.0242
 20
55.1901
 30
0.0
 10
229.0242
 20
55.1901
 30
0.0
 10
229.0242
 20
55.1901
 30
0.0
 10
229.2211
 20
57.4954
 30
0.0
 10
229.2211
 20
57.4954
 30
0.0
 10
229.2211
 20
57.4954
 30
0.0
 10
229.2211
 20
57.4954
 30
0.0
 10
223.2338
 20
57.8354
 30
0.0
 10
223.2338
 20
57.8354
 30
0.0
 10
223.2338
 20
57.8354
 30
0.0
 10
223.2338
 20
57.8354
 30
0.0
 10
222.9426
 20
61.67160000000001
 30
0.0
 10
222.9426
 20
61.67160000000001
 30
0.0
 10
222.9426
 20
61.67160000000001
 30
0.0
 10
222.9426
 20
61.67160000000001
 30
0.0
 10
228.1235
 20
62.1826
 30
0.0
 10
228.1235
 20
62.1826
 30
0.0
 10
228.1235
 20
62.1826
 30
0.0
 10
228.1235
 20
62.1826
 30
0.0
 10
228.2435
 20
64.7848
 30
0.0
 10
228.2435
 20
64.7848
 30
0.0
 10
228.2435
 20
64.7848
 30
0.0
 10
228.2435
 20
64.7848
 30
0.0
 10
222.01
 20
63.7178
 30
0.0
 10
222.01
 20
63.7178
 30
0.0
 10
222.01
 20
63.7178
 30
0.0
 10
222.01
 20
63.7178
 30
0.0
 10
220.8118
 20
67.69800000000001
 30
0.0
 10
220.8118
 20
67.69800000000001
 30
0.0
 10
220.8118
 20
67.69800000000001
 30
0.0
 10
220.8118
 20
67.69800000000001
 30
0.0
 10
226.1562
 20
69.4033
 30
0.0
 10
226.1562
 20
69.4033
 30
0.0
 10
226.1562
 20
69.4033
 30
0.0
 10
226.1562
 20
69.4033
 30
0.0
 10
225.2284
 20
71.5039
 30
0.0
 10
225.2284
 20
71.5039
 30
0.0
 10
225.2284
 20
71.5039
 30
0.0
 10
225.2284
 20
71.5039
 30
0.0
 10
219.9224
 20
69.9179
 30
0.0
 10
219.9224
 20
69.9179
 30
0.0
 10
219.9224
 20
69.9179
 30
0.0
 10
219.9224
 20
69.9179
 30
0.0
 10
217.3327
 20
73.3086
 30
0.0
 10
217.3327
 20
73.3086
 30
0.0
 10
217.3327
 20
73.3086
 30
0.0
 10
217.3327
 20
73.3086
 30
0.0
 10
222.4536
 20
75.6292
 30
0.0
 10
222.4536
 20
75.6292
 30
0.0
 10
222.4536
 20
75.6292
 30
0.0
 10
222.4536
 20
75.6292
 30
0.0
 10
221.3043
 20
77.8831
 30
0.0
 10
221.3043
 20
77.8831
 30
0.0
 10
221.3043
 20
77.8831
 30
0.0
 10
221.3043
 20
77.8831
 30
0.0
 10
215.929
 20
74.69880000000001
 30
0.0
 10
215.929
 20
74.69880000000001
 30
0.0
 10
215.929
 20
74.69880000000001
 30
0.0
 10
215.929
 20
74.69880000000001
 30
0.0
 10
213.4266
 20
77.92310000000001
 30
0.0
 10
213.4266
 20
77.92310000000001
 30
0.0
 10
213.4266
 20
77.92310000000001
 30
0.0
 10
213.4266
 20
77.92310000000001
 30
0.0
 10
217.5443
 20
82.14030000000001
 30
0.0
 10
217.5443
 20
82.14030000000001
 30
0.0
 10
217.5443
 20
82.14030000000001
 30
0.0
 10
217.5443
 20
82.14030000000001
 30
0.0
 10
216.1444
 20
83.70960000000001
 30
0.0
 10
216.1444
 20
83.70960000000001
 30
0.0
 10
216.1444
 20
83.70960000000001
 30
0.0
 10
216.1444
 20
83.70960000000001
 30
0.0
 10
211.3763
 20
79.5887
 30
0.0
 10
211.3763
 20
79.5887
 30
0.0
 10
211.3763
 20
79.5887
 30
0.0
 10
211.3763
 20
79.5887
 30
0.0
 10
208.1352
 20
81.7496
 30
0.0
 10
208.1352
 20
81.7496
 30
0.0
 10
208.1352
 20
81.7496
 30
0.0
 10
208.1352
 20
81.7496
 30
0.0
 10
211.4822
 20
86.49810000000001
 30
0.0
 10
211.4822
 20
86.49810000000001
 30
0.0
 10
211.4822
 20
86.49810000000001
 30
0.0
 10
211.4822
 20
86.49810000000001
 30
0.0
 10
209.946
 20
87.8669
 30
0.0
 10
209.946
 20
87.8669
 30
0.0
 10
209.946
 20
87.8669
 30
0.0
 10
209.946
 20
87.8669
 30
0.0
 10
206.273
 20
82.7735
 30
0.0
 10
206.273
 20
82.7735
 30
0.0
 10
206.273
 20
82.7735
 30
0.0
 10
206.273
 20
82.7735
 30
0.0
 10
202.3912
 20
84.21170000000001
 30
0.0
 10
202.3912
 20
84.21170000000001
 30
0.0
 10
202.3912
 20
84.21170000000001
 30
0.0
 10
202.3912
 20
84.21170000000001
 30
0.0
 10
205.0
 20
89.97590000000001
 30
0.0
 10
205.0
 20
89.97590000000001
 30
0.0
 10
205.0
 20
89.97590000000001
 30
0.0
 10
205.0
 20
89.97590000000001
 30
0.0
 10
203.1333
 20
90.821
 30
0.0
 10
203.1333
 20
90.821
 30
0.0
 10
203.1333
 20
90.821
 30
0.0
 10
203.1333
 20
90.821
 30
0.0
 10
200.2409
 20
84.93770000000001
 30
0.0
 10
200.2409
 20
84.93770000000001
 30
0.0
 10
200.2409
 20
84.93770000000001
 30
0.0
 10
200.2409
 20
84.93770000000001
 30
0.0
 10
196.487
 20
85.74040000000001
 30
0.0
 10
196.487
 20
85.74040000000001
 30
0.0
 10
196.487
 20
85.74040000000001
 30
0.0
 10
196.487
 20
85.74040000000001
 30
0.0
 10
198.0502
 20
92.04170000000001
 30
0.0
 10
198.0502
 20
92.04170000000001
 30
0.0
 10
198.0502
 20
92.04170000000001
 30
0.0
 10
198.0502
 20
92.04170000000001
 30
0.0
 10
195.6505
 20
92.70610000000001
 30
0.0
 10
195.6505
 20
92.70610000000001
 30
0.0
 10
195.6505
 20
92.70610000000001
 30
0.0
 10
195.6505
 20
92.70610000000001
 30
0.0
 10
194.1842
 20
85.98130000000001
 30
0.0
 10
194.1842
 20
85.98130000000001
 30
0.0
 10
194.1842
 20
85.98130000000001
 30
0.0
 10
194.1842
 20
85.98130000000001
 30
0.0
 10
190.0655
 20
86.1949
 30
0.0
 10
190.0655
 20
86.1949
 30
0.0
 10
190.0655
 20
86.1949
 30
0.0
 10
190.0655
 20
86.1949
 30
0.0
 10
190.7775
 20
92.4098
 30
0.0
 10
190.7775
 20
92.4098
 30
0.0
 10
190.7775
 20
92.4098
 30
0.0
 10
190.7775
 20
92.4098
 30
0.0
 10
188.9701
 20
92.571
 30
0.0
 10
188.9701
 20
92.571
 30
0.0
 10
188.9701
 20
92.571
 30
0.0
 10
188.9701
 20
92.571
 30
0.0
 10
187.8025
 20
85.72580000000001
 30
0.0
 10
187.8025
 20
85.72580000000001
 30
0.0
 10
187.8025
 20
85.72580000000001
 30
0.0
 10
187.8025
 20
85.72580000000001
 30
0.0
 10
183.9016
 20
85.72280000000001
 30
0.0
 10
183.9016
 20
85.72280000000001
 30
0.0
 10
183.9016
 20
85.72280000000001
 30
0.0
 10
183.9016
 20
85.72280000000001
 30
0.0
 10
184.1472
 20
92.32010000000001
 30
0.0
 10
184.1472
 20
92.32010000000001
 30
0.0
 10
184.1472
 20
92.32010000000001
 30
0.0
 10
184.1472
 20
92.32010000000001
 30
0.0
 10
181.7124
 20
92.26190000000001
 30
0.0
 10
181.7124
 20
92.26190000000001
 30
0.0
 10
181.7124
 20
92.26190000000001
 30
0.0
 10
181.7124
 20
92.26190000000001
 30
0.0
 10
181.6291
 20
85.3104
 30
0.0
 10
181.6291
 20
85.3104
 30
0.0
 10
181.6291
 20
85.3104
 30
0.0
 10
181.6291
 20
85.3104
 30
0.0
 10
177.5131
 20
84.1786
 30
0.0
 10
177.5131
 20
84.1786
 30
0.0
 10
177.5131
 20
84.1786
 30
0.0
 10
177.5131
 20
84.1786
 30
0.0
 10
176.9255
 20
91.22370000000001
 30
0.0
 10
176.9255
 20
91.22370000000001
 30
0.0
 10
176.9255
 20
91.22370000000001
 30
0.0
 10
176.9255
 20
91.22370000000001
 30
0.0
 10
175.0383
 20
91.16040000000001
 30
0.0
 10
175.0383
 20
91.16040000000001
 30
0.0
 10
175.0383
 20
91.16040000000001
 30
0.0
 10
175.0383
 20
91.16040000000001
 30
0.0
 10
175.231
 20
83.8275
 30
0.0
 10
175.231
 20
83.8275
 30
0.0
 10
175.231
 20
83.8275
 30
0.0
 10
175.231
 20
83.8275
 30
0.0
 10
172.133
 20
82.6366
 30
0.0
 10
172.133
 20
82.6366
 30
0.0
 10
172.133
 20
82.6366
 30
0.0
 10
172.133
 20
82.6366
 30
0.0
 10
170.2541
 20
88.90480000000001
 30
0.0
 10
170.2541
 20
88.90480000000001
 30
0.0
 10
170.2541
 20
88.90480000000001
 30
0.0
 10
170.2541
 20
88.90480000000001
 30
0.0
 10
168.0399
 20
88.2621
 30
0.0
 10
168.0399
 20
88.2621
 30
0.0
 10
168.0399
 20
88.2621
 30
0.0
 10
168.0399
 20
88.2621
 30
0.0
 10
169.6027
 20
81.6216
 30
0.0
 10
169.6027
 20
81.6216
 30
0.0
 10
169.6027
 20
81.6216
 30
0.0
 10
169.6027
 20
81.6216
 30
0.0
 10
166.4364
 20
79.345
 30
0.0
 10
166.4364
 20
79.345
 30
0.0
 10
166.4364
 20
79.345
 30
0.0
 10
166.4364
 20
79.345
 30
0.0
 10
163.1766
 20
85.15820000000001
 30
0.0
 10
163.1766
 20
85.15820000000001
 30
0.0
 10
163.1766
 20
85.15820000000001
 30
0.0
 10
163.1766
 20
85.15820000000001
 30
0.0
 10
161.1676
 20
83.8721
 30
0.0
 10
161.1676
 20
83.8721
 30
0.0
 10
161.1676
 20
83.8721
 30
0.0
 10
161.1676
 20
83.8721
 30
0.0
 10
164.3427
 20
77.8416
 30
0.0
 10
164.3427
 20
77.8416
 30
0.0
 10
164.3427
 20
77.8416
 30
0.0
 10
164.3427
 20
77.8416
 30
0.0
 10
161.9741
 20
75.18040000000001
 30
0.0
 10
161.9741
 20
75.18040000000001
 30
0.0
 10
161.9741
 20
75.18040000000001
 30
0.0
 10
161.9741
 20
75.18040000000001
 30
0.0
 10
157.3133
 20
79.21720000000001
 30
0.0
 10
157.3133
 20
79.21720000000001
 30
0.0
 10
157.3133
 20
79.21720000000001
 30
0.0
 10
157.3133
 20
79.21720000000001
 30
0.0
 10
155.9537
 20
77.6198
 30
0.0
 10
155.9537
 20
77.6198
 30
0.0
 10
155.9537
 20
77.6198
 30
0.0
 10
155.9537
 20
77.6198
 30
0.0
 10
160.929
 20
72.56150000000001
 30
0.0
 10
160.929
 20
72.56150000000001
 30
0.0
 10
160.929
 20
72.56150000000001
 30
0.0
 10
160.929
 20
72.56150000000001
 30
0.0
 10
158.7274
 20
69.4855
 30
0.0
 10
158.7274
 20
69.4855
 30
0.0
 10
158.7274
 20
69.4855
 30
0.0
 10
158.7274
 20
69.4855
 30
0.0
 10
153.9061
 20
73.80280000000001
 30
0.0
 10
153.9061
 20
73.80280000000001
 30
0.0
 10
153.9061
 20
73.80280000000001
 30
0.0
 10
153.9061
 20
73.80280000000001
 30
0.0
 10
152.3768
 20
72.0998
 30
0.0
 10
152.3768
 20
72.0998
 30
0.0
 10
152.3768
 20
72.0998
 30
0.0
 10
152.3768
 20
72.0998
 30
0.0
 10
157.7662
 20
67.4357
 30
0.0
 10
157.7662
 20
67.4357
 30
0.0
 10
157.7662
 20
67.4357
 30
0.0
 10
157.7662
 20
67.4357
 30
0.0
 10
156.7094
 20
63.42
 30
0.0
 10
156.7094
 20
63.42
 30
0.0
 10
156.7094
 20
63.42
 30
0.0
 10
156.7094
 20
63.42
 30
0.0
 10
150.5006
 20
65.9551
 30
0.0
 10
150.5006
 20
65.9551
 30
0.0
 10
150.5006
 20
65.9551
 30
0.0
 10
150.5006
 20
65.9551
 30
0.0
 10
149.9911
 20
63.8137
 30
0.0
 10
149.9911
 20
63.8137
 30
0.0
 10
149.9911
 20
63.8137
 30
0.0
 10
149.9911
 20
63.8137
 30
0.0
 10
156.5554
 20
61.2267
 30
0.0
 10
156.5554
 20
61.2267
 30
0.0
 10
156.5554
 20
61.2267
 30
0.0
 10
156.5554
 20
61.2267
 30
0.0
 10
155.8778
 20
57.07060000000001
 30
0.0
 10
155.8778
 20
57.07060000000001
 30
0.0
 10
155.8778
 20
57.07060000000001
 30
0.0
 10
155.8778
 20
57.07060000000001
 30
0.0
 10
149.1369
 20
58.8167
 30
0.0
 10
149.1369
 20
58.8167
 30
0.0
 10
149.1369
 20
58.8167
 30
0.0
 10
149.1369
 20
58.8167
 30
0.0
 10
148.9258
 20
56.5042
 30
0.0
 10
148.9258
 20
56.5042
 30
0.0
 10
148.9258
 20
56.5042
 30
0.0
 10
148.9258
 20
56.5042
 30
0.0
 10
155.8844
 20
54.86040000000001
 30
0.0
 10
155.8844
 20
54.86040000000001
 30
0.0
 10
155.8844
 20
54.86040000000001
 30
0.0
 10
155.8844
 20
54.86040000000001
 30
0.0
 10
156.1578
 20
50.8455
 30
0.0
 10
156.1578
 20
50.8455
 30
0.0
 10
156.1578
 20
50.8455
 30
0.0
 10
156.1578
 20
50.8455
 30
0.0
 10
149.4598
 20
50.9454
 30
0.0
 10
149.4598
 20
50.9454
 30
0.0
 10
149.4598
 20
50.9454
 30
0.0
 10
149.4598
 20
50.9454
 30
0.0
 10
149.294
 20
48.2852
 30
0.0
 10
149.294
 20
48.2852
 30
0.0
 10
149.294
 20
48.2852
 30
0.0
 10
149.294
 20
48.2852
 30
0.0
 10
156.5631
 20
48.4881
 30
0.0
 10
156.5631
 20
48.4881
 30
0.0
 10
156.5631
 20
48.4881
 30
0.0
 10
156.5631
 20
48.4881
 30
0.0
 10
157.5579
 20
44.7131
 30
0.0
 10
157.5579
 20
44.7131
 30
0.0
 10
157.5579
 20
44.7131
 30
0.0
 10
157.5579
 20
44.7131
 30
0.0
 10
151.0827
 20
42.8425
 30
0.0
 10
151.0827
 20
42.8425
 30
0.0
 10
151.0827
 20
42.8425
 30
0.0
 10
151.0827
 20
42.8425
 30
0.0
 10
152.2557
 20
40.4875
 30
0.0
 10
152.2557
 20
40.4875
 30
0.0
 10
152.2557
 20
40.4875
 30
0.0
 10
152.2557
 20
40.4875
 30
0.0
 10
158.7534
 20
42.5644
 30
0.0
 10
158.7534
 20
42.5644
 30
0.0
 10
158.7534
 20
42.5644
 30
0.0
 10
158.7534
 20
42.5644
 30
0.0
 10
160.9685
 20
39.1972
 30
0.0
 10
160.9685
 20
39.1972
 30
0.0
 10
160.9685
 20
39.1972
 30
0.0
 10
160.9685
 20
39.1972
 30
0.0
 10
154.7605
 20
35.726
 30
0.0
 10
154.7605
 20
35.726
 30
0.0
 10
154.7605
 20
35.726
 30
0.0
 10
154.7605
 20
35.726
 30
0.0
 10
156.0123
 20
33.7674
 30
0.0
 10
156.0123
 20
33.7674
 30
0.0
 10
156.0123
 20
33.7674
 30
0.0
 10
156.0123
 20
33.7674
 30
0.0
 10
162.2885
 20
37.3119
 30
0.0
 10
162.2885
 20
37.3119
 30
0.0
 10
162.2885
 20
37.3119
 30
0.0
 10
162.2885
 20
37.3119
 30
0.0
 10
165.1195
 20
34.4215
 30
0.0
 10
165.1195
 20
34.4215
 30
0.0
 10
165.1195
 20
34.4215
 30
0.0
 10
165.1195
 20
34.4215
 30
0.0
 10
160.0587
 20
29.1339
 30
0.0
 10
160.0587
 20
29.1339
 30
0.0
 10
160.0587
 20
29.1339
 30
0.0
 10
160.0587
 20
29.1339
 30
0.0
 10
161.8297
 20
27.8184
 30
0.0
 10
161.8297
 20
27.8184
 30
0.0
 10
161.8297
 20
27.8184
 30
0.0
 10
161.8297
 20
27.8184
 30
0.0
 10
167.1882
 20
33.2517
 30
0.0
 10
167.1882
 20
33.2517
 30
0.0
 10
167.1882
 20
33.2517
 30
0.0
 10
167.1882
 20
33.2517
 30
0.0
 10
170.8005
 20
31.6962
 30
0.0
 10
170.8005
 20
31.6962
 30
0.0
 10
170.8005
 20
31.6962
 30
0.0
 10
170.8005
 20
31.6962
 30
0.0
 10
167.9533
 20
25.076
 30
0.0
 10
167.9533
 20
25.076
 30
0.0
 10
167.9533
 20
25.076
 30
0.0
 10
167.9533
 20
25.076
 30
0.0
 10
169.9001
 20
23.9898
 30
0.0
 10
169.9001
 20
23.9898
 30
0.0
 10
169.9001
 20
23.9898
 30
0.0
 10
169.9001
 20
23.9898
 30
0.0
 10
172.8951
 20
31.0328
 30
0.0
 10
172.8951
 20
31.0328
 30
0.0
 10
172.8951
 20
31.0328
 30
0.0
 10
172.8951
 20
31.0328
 30
0.0
 10
176.465
 20
30.6888
 30
0.0
 10
176.465
 20
30.6888
 30
0.0
 10
176.465
 20
30.6888
 30
0.0
 10
176.465
 20
30.6888
 30
0.0
 10
175.9073
 20
23.3804
 30
0.0
 10
175.9073
 20
23.3804
 30
0.0
 10
175.9073
 20
23.3804
 30
0.0
 10
175.9073
 20
23.3804
 30
0.0
 10
178.3715
 20
23.2997
 30
0.0
 10
178.3715
 20
23.2997
 30
0.0
 10
178.3715
 20
23.2997
 30
0.0
 10
178.3715
 20
23.2997
 30
0.0
 10
179.1581
 20
30.8585
 30
0.0
 10
179.1581
 20
30.8585
 30
0.0
 10
179.1581
 20
30.8585
 30
0.0
 10
179.1581
 20
30.8585
 30
0.0
 10
183.1679
 20
30.9874
 30
0.0
 10
183.1679
 20
30.9874
 30
0.0
 10
183.1679
 20
30.9874
 30
0.0
 10
183.1679
 20
30.9874
 30
0.0
 10
182.9059
 20
23.5669
 30
0.0
 10
182.9059
 20
23.5669
 30
0.0
 10
182.9059
 20
23.5669
 30
0.0
 10
182.9059
 20
23.5669
 30
0.0
 10
185.2702
 20
23.5783
 30
0.0
 10
185.2702
 20
23.5783
 30
0.0
 10
185.2702
 20
23.5783
 30
0.0
 10
185.2702
 20
23.5783
 30
0.0
 10
185.4522
 20
31.4049
 30
0.0
 10
185.4522
 20
31.4049
 30
0.0
 10
185.4522
 20
31.4049
 30
0.0
 10
185.4522
 20
31.4049
 30
0.0
 10
189.0379
 20
33.0353
 30
0.0
 10
189.0379
 20
33.0353
 30
0.0
 10
189.0379
 20
33.0353
 30
0.0
 10
189.0379
 20
33.0353
 30
0.0
 10
192.3072
 20
26.3572
 30
0.0
 10
192.3072
 20
26.3572
 30
0.0
 10
192.3072
 20
26.3572
 30
0.0
 10
192.3072
 20
26.3572
 30
0.0
 10
194.1753
 20
27.4572
 30
0.0
 10
194.1753
 20
27.4572
 30
0.0
 10
194.1753
 20
27.4572
 30
0.0
 10
194.1753
 20
27.4572
 30
0.0
 10
190.9768
 20
34.3718
 30
0.0
 10
190.9768
 20
34.3718
 30
0.0
 10
190.9768
 20
34.3718
 30
0.0
 10
190.9768
 20
34.3718
 30
0.0
 10
193.9186
 20
37.1184
 30
0.0
 10
193.9186
 20
37.1184
 30
0.0
 10
193.9186
 20
37.1184
 30
0.0
 10
193.9186
 20
37.1184
 30
0.0
 10
198.6521
 20
31.6744
 30
0.0
 10
198.6521
 20
31.6744
 30
0.0
 10
198.6521
 20
31.6744
 30
0.0
 10
198.6521
 20
31.6744
 30
0.0
 10
200.3128
 20
33.22
 30
0.0
 10
200.3128
 20
33.22
 30
0.0
 10
200.3128
 20
33.22
 30
0.0
 10
200.3128
 20
33.22
 30
0.0
 10
195.3043
 20
39.2188
 30
0.0
 10
195.3043
 20
39.2188
 30
0.0
 10
195.3043
 20
39.2188
 30
0.0
 10
195.3043
 20
39.2188
 30
0.0
 10
196.7703
 20
42.4125
 30
0.0
 10
196.7703
 20
42.4125
 30
0.0
 10
196.7703
 20
42.4125
 30
0.0
 10
196.7703
 20
42.4125
 30
0.0
 10
203.9416
 20
39.8748
 30
0.0
 10
203.9416
 20
39.8748
 30
0.0
 10
203.9416
 20
39.8748
 30
0.0
 10
203.9416
 20
39.8748
 30
0.0
 10
204.6917
 20
41.72210000000001
 30
0.0
 10
204.6917
 20
41.72210000000001
 30
0.0
 10
204.6917
 20
41.72210000000001
 30
0.0
 10
204.6917
 20
41.72210000000001
 30
0.0
 10
197.1389
 20
44.7684
 30
0.0
 10
197.1389
 20
44.7684
 30
0.0
 10
197.1389
 20
44.7684
 30
0.0
 10
197.1389
 20
44.7684
 30
0.0
 10
197.0345
 20
49.5088
 30
0.0
 10
197.0345
 20
49.5088
 30
0.0
 10
197.0345
 20
49.5088
 30
0.0
 10
197.0345
 20
49.5088
 30
0.0
 10
204.2482
 20
50.6765
 30
0.0
 10
204.2482
 20
50.6765
 30
0.0
 10
204.2482
 20
50.6765
 30
0.0
 10
204.2482
 20
50.6765
 30
0.0
 10
203.6475
 20
53.07550000000001
 30
0.0
 10
203.6475
 20
53.07550000000001
 30
0.0
 10
203.6475
 20
53.07550000000001
 30
0.0
 10
203.6475
 20
53.07550000000001
 30
0.0
 10
195.9682
 20
51.4005
 30
0.0
 10
195.9682
 20
51.4005
 30
0.0
 10
195.9682
 20
51.4005
 30
0.0
 10
191.9497
 20
54.7549
 30
0.0
 10
185.1436
 20
52.2109
 30
0.0
 10
180.6403
 20
54.7976
 30
0.0
 10
180.6403
 20
54.7976
 30
0.0
 10
180.6403
 20
54.7976
 30
0.0
 10
180.6636
 20
61.6811
 30
0.0
 10
180.6636
 20
61.6811
 30
0.0
 10
180.6636
 20
61.6811
 30
0.0
 10
180.6636
 20
61.6811
 30
0.0
 10
188.8684
 20
61.6003
 30
0.0
 10
188.8684
 20
61.6003
 30
0.0
 10
188.8684
 20
61.6003
 30
0.0
 10
188.8684
 20
61.6003
 30
0.0
 10
188.801
 20
63.9616
 30
0.0
 10
188.801
 20
63.9616
 30
0.0
 10
188.801
 20
63.9616
 30
0.0
 10
188.801
 20
63.9616
 30
0.0
 10
180.6699
 20
64.1858
 30
0.0
 10
180.6699
 20
64.1858
 30
0.0
 10
180.6699
 20
64.1858
 30
0.0
 10
180.6699
 20
64.1858
 30
0.0
 10
180.6858
 20
70.6328
 30
0.0
 10
180.6858
 20
70.6328
 30
0.0
  0
SPLINE
  5
62
330
1F
100
AcDbEntity
  8
Camada 1
 62
   142
370
     5
100
AcDbSpline
210
0.0
220
0.0
230
1.0
 70
    11
 71
     3
 72
    32
 73
    28
 74
     0
 42
0.0000000001
 43
0.0000000001
 40
0.0
 40
0.0
 40
0.0
 40
0.0
 40
0.1428571428571429
 40
0.1428571428571429
 40
0.1428571428571429
 40
0.1428571428571429
 40
0.2857142857142857
 40
0.2857142857142857
 40
0.2857142857142857
 40
0.2857142857142857
 40
0.4285714285714286
 40
0.4285714285714286
 40
0.4285714285714286
 40
0.4285714285714286
 40
0.5714285714285714
 40
0.5714285714285714
 40
0.5714285714285714
 40
0.5714285714285714
 40
0.7142857142857142
 40
0.7142857142857142
 40
0.7142857142857142
 40
0.7142857142857142
 40
0.857142857142857
 40
0.857142857142857
 40
0.857142857142857
 40
0.857142857142857
 40
1.0
 40
1.0
 40
1.0
 40
1.0
 10
301.4973
 20
-8.0303
 30
0.0
 10
301.4973
 20
-8.0303
 30
0.0
 10
301.4568
 20
-15.7857
 30
0.0
 10
301.4568
 20
-15.7857
 30
0.0
 10
301.4568
 20
-15.7857
 30
0.0
 10
301.4568
 20
-15.7857
 30
0.0
 10
303.1418
 20
-15.8311
 30
0.0
 10
303.1418
 20
-15.8311
 30
0.0
 10
303.1418
 20
-15.8311
 30
0.0
 10
303.1418
 20
-15.8311
 30
0.0
 10
303.0127
 20
-8.0083
 30
0.0
 10
303.0127
 20
-8.0083
 30
0.0
 10
303.0127
 20
-8.0083
 30
0.0
 10
307.4443
 20
-8.062800000000001
 30
0.0
 10
309.3917
 20
-11.6174
 30
0.0
 10
309.5909
 20
-15.1597
 30
0.0
 10
309.5909
 20
-15.1597
 30
0.0
 10
309.6496
 20
-20.4237
 30
0.0
 10
306.6591
 20
-22.5788
 30
0.0
 10
301.8163
 20
-23.1702
 30
0.0
 10
301.8163
 20
-23.1702
 30
0.0
 10
296.4455
 20
-22.1934
 30
0.0
 10
294.5984
 20
-19.4088
 30
0.0
 10
294.79
 20
-14.8769
 30
0.0
 10
294.79
 20
-14.8769
 30
0.0
 10
294.7984
 20
-10.5588
 30
0.0
 10
297.1692
 20
-8.399900000000001
 30
0.0
 10
301.4973
 20
-8.0303
 30
0.0
  0
SPLINE
  5
63
330
1F
100
AcDbEntity
  8
Camada 1
 62
   142
370
     5
100
AcDbSpline
210
0.0
220
0.0
230
1.0
 70
    11
 71
     3
 72
    32
 73
    28
 74
     0
 42
0.0000000001
 43
0.0000000001
 40
0.0
 40
0.0
 40
0.0
 40
0.0
 40
0.1428571428571429
 40
0.1428571428571429
 40
0.1428571428571429
 40
0.1428571428571429
 40
0.2857142857142857
 40
0.2857142857142857
 40
0.2857142857142857
 40
0.2857142857142857
 40
0.4285714285714286
 40
0.4285714285714286
 40
0.4285714285714286
 40
0.4285714285714286
 40
0.5714285714285714
 40
0.5714285714285714
 40
0.5714285714285714
 40
0.5714285714285714
 40
0.7142857142857142
 40
0.7142857142857142
 40
0.7142857142857142
 40
0.7142857142857142
 40
0.857142857142857
 40
0.857142857142857
 40
0.857142857142857
 40
0.857142857142857
 40
1.0
 40
1.0
 40
1.0
 40
1.0
 10
300.8946
 20
-29.1309
 30
0.0
 10
300.8946
 20
-29.1309
 30
0.0
 10
300.8541
 20
-36.8863
 30
0.0
 10
300.8541
 20
-36.8863
 30
0.0
 10
300.8541
 20
-36.8863
 30
0.0
 10
300.8541
 20
-36.8863
 30
0.0
 10
302.5391
 20
-36.9317
 30
0.0
 10
302.5391
 20
-36.9317
 30
0.0
 10
302.5391
 20
-36.9317
 30
0.0
 10
302.5391
 20
-36.9317
 30
0.0
 10
302.41
 20
-29.1089
 30
0.0
 10
302.41
 20
-29.1089
 30
0.0
 10
302.41
 20
-29.1089
 30
0.0
 10
306.8416
 20
-29.1634
 30
0.0
 10
308.789
 20
-32.718
 30
0.0
 10
308.9882
 20
-36.2603
 30
0.0
 10
308.9882
 20
-36.2603
 30
0.0
 10
309.0469
 20
-41.5243
 30
0.0
 10
306.0564
 20
-43.6794
 30
0.0
 10
301.2136
 20
-44.2708
 30
0.0
 10
301.2136
 20
-44.2708
 30
0.0
 10
295.8428
 20
-43.294
 30
0.0
 10
293.9957
 20
-40.5094
 30
0.0
 10
294.1873
 20
-35.9775
 30
0.0
 10
294.1873
 20
-35.9775
 30
0.0
 10
294.1957
 20
-31.6594
 30
0.0
 10
296.5665
 20
-29.5005
 30
0.0
 10
300.8946
 20
-29.1309
 30
0.0
  0
SPLINE
  5
64
330
1F
100
AcDbEntity
  8
Camada 1
 62
   142
370
     5
100
AcDbSpline
210
0.0
220
0.0
230
1.0
 70
    11
 71
     3
 72
    32
 73
    28
 74
     0
 42
0.0000000001
 43
0.0000000001
 40
0.0
 40
0.0
 40
0.0
 40
0.0
 40
0.1428571428571429
 40
0.1428571428571429
 40
0.1428571428571429
 40
0.1428571428571429
 40
0.2857142857142857
 40
0.2857142857142857
 40
0.2857142857142857
 40
0.2857142857142857
 40
0.4285714285714286
 40
0.4285714285714286
 40
0.4285714285714286
 40
0.4285714285714286
 40
0.5714285714285714
 40
0.5714285714285714
 40
0.5714285714285714
 40
0.5714285714285714
 40
0.7142857142857142
 40
0.7142857142857142
 40
0.7142857142857142
 40
0.7142857142857142
 40
0.857142857142857
 40
0.857142857142857
 40
0.857142857142857
 40
0.857142857142857
 40
1.0
 40
1.0
 40
1.0
 40
1.0
 10
151.6879
 20
-26.5914
 30
0.0
 10
151.6879
 20
-26.5914
 30
0.0
 10
151.6474
 20
-34.3468
 30
0.0
 10
151.6474
 20
-34.3468
 30
0.0
 10
151.6474
 20
-34.3468
 30
0.0
 10
151.6474
 20
-34.3468
 30
0.0
 10
153.3324
 20
-34.3922
 30
0.0
 10
153.3324
 20
-34.3922
 30
0.0
 10
153.3324
 20
-34.3922
 30
0.0
 10
153.3324
 20
-34.3922
 30
0.0
 10
153.2033
 20
-26.5694
 30
0.0
 10
153.2033
 20
-26.5694
 30
0.0
 10
153.2033
 20
-26.5694
 30
0.0
 10
157.6349
 20
-26.6239
 30
0.0
 10
159.5823
 20
-30.1785
 30
0.0
 10
159.7815
 20
-33.7208
 30
0.0
 10
159.7815
 20
-33.7208
 30
0.0
 10
159.8402
 20
-38.9848
 30
0.0
 10
156.8497
 20
-41.1399
 30
0.0
 10
152.0069
 20
-41.73130000000001
 30
0.0
 10
152.0069
 20
-41.73130000000001
 30
0.0
 10
146.6361
 20
-40.7545
 30
0.0
 10
144.789
 20
-37.9699
 30
0.0
 10
144.9806
 20
-33.438
 30
0.0
 10
144.9806
 20
-33.438
 30
0.0
 10
144.989
 20
-29.1199
 30
0.0
 10
147.3598
 20
-26.961
 30
0.0
 10
151.6879
 20
-26.5914
 30
0.0
  0
SPLINE
  5
65
330
1F
100
AcDbEntity
  8
Camada 1
 62
   142
370
     5
100
AcDbSpline
210
0.0
220
0.0
230
1.0
 70
    11
 71
     3
 72
    32
 73
    28
 74
     0
 42
0.0000000001
 43
0.0000000001
 40
0.0
 40
0.0
 40
0.0
 40
0.0
 40
0.1428571428571429
 40
0.1428571428571429
 40
0.1428571428571429
 40
0.1428571428571429
 40
0.2857142857142857
 40
0.2857142857142857
 40
0.2857142857142857
 40
0.2857142857142857
 40
0.4285714285714286
 40
0.4285714285714286
 40
0.4285714285714286
 40
0.4285714285714286
 40
0.5714285714285714
 40
0.5714285714285714
 40
0.5714285714285714
 40
0.5714285714285714
 40
0.7142857142857142
 40
0.7142857142857142
 40
0.7142857142857142
 40
0.7142857142857142
 40
0.857142857142857
 40
0.857142857142857
 40
0.857142857142857
 40
0.857142857142857
 40
1.0
 40
1.0
 40
1.0
 40
1.0
 10
301.2991
 20
-49.51770000000001
 30
0.0
 10
301.2991
 20
-49.51770000000001
 30
0.0
 10
301.2586
 20
-57.2731
 30
0.0
 10
301.2586
 20
-57.2731
 30
0.0
 10
301.2586
 20
-57.2731
 30
0.0
 10
301.2586
 20
-57.2731
 30
0.0
 10
302.9436
 20
-57.3185
 30
0.0
 10
302.9436
 20
-57.3185
 30
0.0
 10
302.9436
 20
-57.3185
 30
0.0
 10
302.9436
 20
-57.3185
 30
0.0
 10
302.8145
 20
-49.4957
 30
0.0
 10
302.8145
 20
-49.4957
 30
0.0
 10
302.8145
 20
-49.4957
 30
0.0
 10
307.2461
 20
-49.5502
 30
0.0
 10
309.9611
 20
-52.822
 30
0.0
 10
310.1603
 20
-56.3643
 30
0.0
 10
310.1603
 20
-56.3643
 30
0.0
 10
310.219
 20
-61.6283
 30
0.0
 10
306.3397
 20
-64.349
 30
0.0
 10
301.6181
 20
-64.6576
 30
0.0
 10
301.6181
 20
-64.6576
 30
0.0
 10
295.8433
 20
-63.7212
 30
0.0
 10
293.7538
 20
-60.93660000000001
 30
0.0
 10
293.9454
 20
-56.40470000000001
 30
0.0
 10
293.9454
 20
-56.40470000000001
 30
0.0
 10
293.9538
 20
-52.0866
 30
0.0
 10
296.971
 20
-49.8873
 30
0.0
 10
301.2991
 20
-49.51770000000001
 30
0.0
  0
SPLINE
  5
66
330
1F
100
AcDbEntity
  8
Camada 1
 62
   142
370
     5
100
AcDbSpline
210
0.0
220
0.0
230
1.0
 70
    11
 71
     3
 72
    32
 73
    28
 74
     0
 42
0.0000000001
 43
0.0000000001
 40
0.0
 40
0.0
 40
0.0
 40
0.0
 40
0.1428571428571429
 40
0.1428571428571429
 40
0.1428571428571429
 40
0.1428571428571429
 40
0.2857142857142857
 40
0.2857142857142857
 40
0.2857142857142857
 40
0.2857142857142857
 40
0.4285714285714286
 40
0.4285714285714286
 40
0.4285714285714286
 40
0.4285714285714286
 40
0.5714285714285714
 40
0.5714285714285714
 40
0.5714285714285714
 40
0.5714285714285714
 40
0.7142857142857142
 40
0.7142857142857142
 40
0.7142857142857142
 40
0.7142857142857142
 40
0.857142857142857
 40
0.857142857142857
 40
0.857142857142857
 40
0.857142857142857
 40
1.0
 40
1.0
 40
1.0
 40
1.0
 10
279.4152
 20
-68.81880000000001
 30
0.0
 10
279.4152
 20
-68.81880000000001
 30
0.0
 10
286.6818
 20
-69.3608
 30
0.0
 10
286.6818
 20
-69.3608
 30
0.0
 10
286.6818
 20
-69.3608
 30
0.0
 10
286.6818
 20
-69.3608
 30
0.0
 10
286.8136
 20
-67.46250000000001
 30
0.0
 10
286.8136
 20
-67.46250000000001
 30
0.0
 10
286.8136
 20
-67.46250000000001
 30
0.0
 10
286.8136
 20
-67.46250000000001
 30
0.0
 10
279.4749
 20
-67.10810000000001
 30
0.0
 10
279.4749
 20
-67.10810000000001
 30
0.0
 10
279.4749
 20
-67.10810000000001
 30
0.0
 10
279.7614
 20
-62.112
 30
0.0
 10
282.9719
 20
-59.25850000000001
 30
0.0
 10
286.3023
 20
-59.2609
 30
0.0
 10
286.3023
 20
-59.2609
 30
0.0
 10
291.2397
 20
-59.5309
 30
0.0
 10
293.5838
 20
-64.081
 30
0.0
 10
293.622
 20
-69.42700000000001
 30
0.0
 10
293.622
 20
-69.42700000000001
 30
0.0
 10
292.4373
 20
-75.8814
 30
0.0
 10
289.7168
 20
-78.06100000000001
 30
0.0
 10
285.4789
 20
-77.55510000000001
 30
0.0
 10
285.4789
 20
-77.55510000000001
 30
0.0
 10
281.4327
 20
-77.2692
 30
0.0
 10
279.5313
 20
-73.7255
 30
0.0
 10
279.4152
 20
-68.81880000000001
 30
0.0
  0
SPLINE
  5
67
330
1F
100
AcDbEntity
  8
Camada 1
 62
   142
370
     5
100
AcDbSpline
210
0.0
220
0.0
230
1.0
 70
    11
 71
     3
 72
    32
 73
    28
 74
     0
 42
0.0000000001
 43
0.0000000001
 40
0.0
 40
0.0
 40
0.0
 40
0.0
 40
0.1428571428571429
 40
0.1428571428571429
 40
0.1428571428571429
 40
0.1428571428571429
 40
0.2857142857142857
 40
0.2857142857142857
 40
0.2857142857142857
 40
0.2857142857142857
 40
0.4285714285714286
 40
0.4285714285714286
 40
0.4285714285714286
 40
0.4285714285714286
 40
0.5714285714285714
 40
0.5714285714285714
 40
0.5714285714285714
 40
0.5714285714285714
 40
0.7142857142857142
 40
0.7142857142857142
 40
0.7142857142857142
 40
0.7142857142857142
 40
0.857142857142857
 40
0.857142857142857
 40
0.857142857142857
 40
0.857142857142857
 40
1.0
 40
1.0
 40
1.0
 40
1.0
 10
299.3563
 20
-80.60250000000001
 30
0.0
 10
299.3563
 20
-80.60250000000001
 30
0.0
 10
299.3158
 20
-88.3579
 30
0.0
 10
299.3158
 20
-88.3579
 30
0.0
 10
299.3158
 20
-88.3579
 30
0.0
 10
299.3158
 20
-88.3579
 30
0.0
 10
301.0008
 20
-88.4033
 30
0.0
 10
301.0008
 20
-88.4033
 30
0.0
 10
301.0008
 20
-88.4033
 30
0.0
 10
301.0008
 20
-88.4033
 30
0.0
 10
300.8717
 20
-80.5805
 30
0.0
 10
300.8717
 20
-80.5805
 30
0.0
 10
300.8717
 20
-80.5805
 30
0.0
 10
305.3033
 20
-80.63500000000001
 30
0.0
 10
308.0183
 20
-83.9068
 30
0.0
 10
308.2175
 20
-87.4491
 30
0.0
 10
308.2175
 20
-87.4491
 30
0.0
 10
308.2762
 20
-92.71310000000001
 30
0.0
 10
304.3969
 20
-95.43380000000001
 30
0.0
 10
299.6753
 20
-95.7424
 30
0.0
 10
299.6753
 20
-95.7424
 30
0.0
 10
293.9005
 20
-94.80600000000001
 30
0.0
 10
291.811
 20
-92.0214
 30
0.0
 10
292.0026
 20
-87.48950000000001
 30
0.0
 10
292.0026
 20
-87.48950000000001
 30
0.0
 10
292.011
 20
-83.17140000000001
 30
0.0
 10
295.0282
 20
-80.9721
 30
0.0
 10
299.3563
 20
-80.60250000000001
 30
0.0
  0
SPLINE
  5
68
330
1F
100
AcDbEntity
  8
Camada 1
 62
   142
370
     5
100
AcDbSpline
210
0.0
220
0.0
230
1.0
 70
    11
 71
     3
 72
    32
 73
    28
 74
     0
 42
0.0000000001
 43
0.0000000001
 40
0.0
 40
0.0
 40
0.0
 40
0.0
 40
0.1428571428571429
 40
0.1428571428571429
 40
0.1428571428571429
 40
0.1428571428571429
 40
0.2857142857142857
 40
0.2857142857142857
 40
0.2857142857142857
 40
0.2857142857142857
 40
0.4285714285714286
 40
0.4285714285714286
 40
0.4285714285714286
 40
0.4285714285714286
 40
0.5714285714285714
 40
0.5714285714285714
 40
0.5714285714285714
 40
0.5714285714285714
 40
0.7142857142857142
 40
0.7142857142857142
 40
0.7142857142857142
 40
0.7142857142857142
 40
0.857142857142857
 40
0.857142857142857
 40
0.857142857142857
 40
0.857142857142857
 40
1.0
 40
1.0
 40
1.0
 40
1.0
 10
299.8394
 20
-100.4179
 30
0.0
 10
299.8394
 20
-100.4179
 30
0.0
 10
299.7989
 20
-108.1733
 30
0.0
 10
299.7989
 20
-108.1733
 30
0.0
 10
299.7989
 20
-108.1733
 30
0.0
 10
299.7989
 20
-108.1733
 30
0.0
 10
301.4839
 20
-108.2187
 30
0.0
 10
301.4839
 20
-108.2187
 30
0.0
 10
301.4839
 20
-108.2187
 30
0.0
 10
301.4839
 20
-108.2187
 30
0.0
 10
301.3548
 20
-100.3959
 30
0.0
 10
301.3548
 20
-100.3959
 30
0.0
 10
301.3548
 20
-100.3959
 30
0.0
 10
305.7864
 20
-100.4504
 30
0.0
 10
308.5014
 20
-103.7222
 30
0.0
 10
308.7006
 20
-107.2645
 30
0.0
 10
308.7006
 20
-107.2645
 30
0.0
 10
308.7593
 20
-112.5285
 30
0.0
 10
304.88
 20
-115.2492
 30
0.0
 10
300.1584
 20
-115.5578
 30
0.0
 10
300.1584
 20
-115.5578
 30
0.0
 10
294.3836
 20
-114.6214
 30
0.0
 10
292.2941
 20
-111.8368
 30
0.0
 10
292.4857
 20
-107.3049
 30
0.0
 10
292.4857
 20
-107.3049
 30
0.0
 10
292.4941
 20
-102.9868
 30
0.0
 10
295.5113
 20
-100.7875
 30
0.0
 10
299.8394
 20
-100.4179
 30
0.0
  0
SPLINE
  5
69
330
1F
100
AcDbEntity
  8
Camada 1
 62
   142
370
     5
100
AcDbSpline
210
0.0
220
0.0
230
1.0
 70
    11
 71
     3
 72
    32
 73
    28
 74
     0
 42
0.0000000001
 43
0.0000000001
 40
0.0
 40
0.0
 40
0.0
 40
0.0
 40
0.1428571428571429
 40
0.1428571428571429
 40
0.1428571428571429
 40
0.1428571428571429
 40
0.2857142857142857
 40
0.2857142857142857
 40
0.2857142857142857
 40
0.2857142857142857
 40
0.4285714285714286
 40
0.4285714285714286
 40
0.4285714285714286
 40
0.4285714285714286
 40
0.5714285714285714
 40
0.5714285714285714
 40
0.5714285714285714
 40
0.5714285714285714
 40
0.7142857142857142
 40
0.7142857142857142
 40
0.7142857142857142
 40
0.7142857142857142
 40
0.857142857142857
 40
0.857142857142857
 40
0.857142857142857
 40
0.857142857142857
 40
1.0
 40
1.0
 40
1.0
 40
1.0
 10
261.3903
 20
-56.3202
 30
0.0
 10
261.3903
 20
-56.3202
 30
0.0
 10
268.6569
 20
-56.86170000000001
 30
0.0
 10
268.6569
 20
-56.86170000000001
 30
0.0
 10
268.6569
 20
-56.86170000000001
 30
0.0
 10
268.6569
 20
-56.86170000000001
 30
0.0
 10
268.789
 20
-54.9638
 30
0.0
 10
268.789
 20
-54.9638
 30
0.0
 10
268.789
 20
-54.9638
 30
0.0
 10
268.789
 20
-54.9638
 30
0.0
 10
261.4502
 20
-54.60930000000001
 30
0.0
 10
261.4502
 20
-54.60930000000001
 30
0.0
 10
261.4502
 20
-54.60930000000001
 30
0.0
 10
261.7367
 20
-49.6135
 30
0.0
 10
264.9474
 20
-46.7599
 30
0.0
 10
268.278
 20
-46.7616
 30
0.0
 10
268.278
 20
-46.7616
 30
0.0
 10
273.2148
 20
-47.032
 30
0.0
 10
275.5588
 20
-51.5822
 30
0.0
 10
275.5972
 20
-56.9283
 30
0.0
 10
275.5972
 20
-56.9283
 30
0.0
 10
274.4128
 20
-63.383
 30
0.0
 10
271.6919
 20
-65.5621
 30
0.0
 10
267.4545
 20
-65.0562
 30
0.0
 10
267.4545
 20
-65.0562
 30
0.0
 10
263.4078
 20
-64.77070000000001
 30
0.0
 10
261.5068
 20
-61.2263
 30
0.0
 10
261.3903
 20
-56.3202
 30
0.0
  0
SPLINE
  5
6A
330
1F
100
AcDbEntity
  8
Camada 1
 62
   142
370
     5
100
AcDbSpline
210
0.0
220
0.0
230
1.0
 70
    11
 71
     3
 72
    32
 73
    28
 74
     0
 42
0.0000000001
 43
0.0000000001
 40
0.0
 40
0.0
 40
0.0
 40
0.0
 40
0.1428571428571429
 40
0.1428571428571429
 40
0.1428571428571429
 40
0.1428571428571429
 40
0.2857142857142857
 40
0.2857142857142857
 40
0.2857142857142857
 40
0.2857142857142857
 40
0.4285714285714286
 40
0.4285714285714286
 40
0.4285714285714286
 40
0.4285714285714286
 40
0.5714285714285714
 40
0.5714285714285714
 40
0.5714285714285714
 40
0.5714285714285714
 40
0.7142857142857142
 40
0.7142857142857142
 40
0.7142857142857142
 40
0.7142857142857142
 40
0.857142857142857
 40
0.857142857142857
 40
0.857142857142857
 40
0.857142857142857
 40
1.0
 40
1.0
 40
1.0
 40
1.0
 10
273.5687
 20
-88.19540000000001
 30
0.0
 10
273.5687
 20
-88.19540000000001
 30
0.0
 10
280.8353
 20
-88.73690000000001
 30
0.0
 10
280.8353
 20
-88.73690000000001
 30
0.0
 10
280.8353
 20
-88.73690000000001
 30
0.0
 10
280.8353
 20
-88.73690000000001
 30
0.0
 10
280.9674
 20
-86.839
 30
0.0
 10
280.9674
 20
-86.839
 30
0.0
 10
280.9674
 20
-86.839
 30
0.0
 10
280.9674
 20
-86.839
 30
0.0
 10
273.6286
 20
-86.4845
 30
0.0
 10
273.6286
 20
-86.4845
 30
0.0
 10
273.6286
 20
-86.4845
 30
0.0
 10
273.9151
 20
-81.48870000000001
 30
0.0
 10
277.1258
 20
-78.63510000000001
 30
0.0
 10
280.4564
 20
-78.63680000000001
 30
0.0
 10
280.4564
 20
-78.63680000000001
 30
0.0
 10
285.3932
 20
-78.9072
 30
0.0
 10
287.7372
 20
-83.45740000000001
 30
0.0
 10
287.7756
 20
-88.8035
 30
0.0
 10
287.7756
 20
-88.8035
 30
0.0
 10
286.5912
 20
-95.2582
 30
0.0
 10
283.8703
 20
-97.43730000000001
 30
0.0
 10
279.6329
 20
-96.93140000000001
 30
0.0
 10
279.6329
 20
-96.93140000000001
 30
0.0
 10
275.5862
 20
-96.64590000000001
 30
0.0
 10
273.6852
 20
-93.1015
 30
0.0
 10
273.5687
 20
-88.19540000000001
 30
0.0
  0
SPLINE
  5
6B
330
1F
100
AcDbEntity
  8
Camada 1
 62
   142
370
     5
100
AcDbSpline
210
0.0
220
0.0
230
1.0
 70
    11
 71
     3
 72
    32
 73
    28
 74
     0
 42
0.0000000001
 43
0.0000000001
 40
0.0
 40
0.0
 40
0.0
 40
0.0
 40
0.1428571428571429
 40
0.1428571428571429
 40
0.1428571428571429
 40
0.1428571428571429
 40
0.2857142857142857
 40
0.2857142857142857
 40
0.2857142857142857
 40
0.2857142857142857
 40
0.4285714285714286
 40
0.4285714285714286
 40
0.4285714285714286
 40
0.4285714285714286
 40
0.5714285714285714
 40
0.5714285714285714
 40
0.5714285714285714
 40
0.5714285714285714
 40
0.7142857142857142
 40
0.7142857142857142
 40
0.7142857142857142
 40
0.7142857142857142
 40
0.857142857142857
 40
0.857142857142857
 40
0.857142857142857
 40
0.857142857142857
 40
1.0
 40
1.0
 40
1.0
 40
1.0
 10
271.464
 20
-107.9472
 30
0.0
 10
271.464
 20
-107.9472
 30
0.0
 10
278.7306
 20
-108.4887
 30
0.0
 10
278.7306
 20
-108.4887
 30
0.0
 10
278.7306
 20
-108.4887
 30
0.0
 10
278.7306
 20
-108.4887
 30
0.0
 10
278.8627
 20
-106.5908
 30
0.0
 10
278.8627
 20
-106.5908
 30
0.0
 10
278.8627
 20
-106.5908
 30
0.0
 10
278.8627
 20
-106.5908
 30
0.0
 10
271.5239
 20
-106.2363
 30
0.0
 10
271.5239
 20
-106.2363
 30
0.0
 10
271.5239
 20
-106.2363
 30
0.0
 10
271.8104
 20
-101.2405
 30
0.0
 10
275.0211
 20
-98.38690000000001
 30
0.0
 10
278.3517
 20
-98.38860000000001
 30
0.0
 10
278.3517
 20
-98.38860000000001
 30
0.0
 10
283.2885
 20
-98.65900000000001
 30
0.0
 10
285.6325
 20
-103.2092
 30
0.0
 10
285.6709
 20
-108.5553
 30
0.0
 10
285.6709
 20
-108.5553
 30
0.0
 10
284.4865
 20
-115.01
 30
0.0
 10
281.7656
 20
-117.1891
 30
0.0
 10
277.5282
 20
-116.6832
 30
0.0
 10
277.5282
 20
-116.6832
 30
0.0
 10
273.4815
 20
-116.3977
 30
0.0
 10
271.5805
 20
-112.8533
 30
0.0
 10
271.464
 20
-107.9472
 30
0.0
  0
SPLINE
  5
6C
330
1F
100
AcDbEntity
  8
Camada 1
 62
   142
370
     5
100
AcDbSpline
210
0.0
220
0.0
230
1.0
 70
    11
 71
     3
 72
    68
 73
    64
 74
     0
 42
0.0000000001
 43
0.0000000001
 40
0.0
 40
0.0
 40
0.0
 40
0.0
 40
0.0625
 40
0.0625
 40
0.0625
 40
0.0625
 40
0.125
 40
0.125
 40
0.125
 40
0.125
 40
0.1875
 40
0.1875
 40
0.1875
 40
0.1875
 40
0.25
 40
0.25
 40
0.25
 40
0.25
 40
0.3125
 40
0.3125
 40
0.3125
 40
0.3125
 40
0.375
 40
0.375
 40
0.375
 40
0.375
 40
0.4375
 40
0.4375
 40
0.4375
 40
0.4375
 40
0.5
 40
0.5
 40
0.5
 40
0.5
 40
0.5625
 40
0.5625
 40
0.5625
 40
0.5625
 40
0.625
 40
0.625
 40
0.625
 40
0.625
 40
0.6875
 40
0.6875
 40
0.6875
 40
0.6875
 40
0.75
 40
0.75
 40
0.75
 40
0.75
 40
0.8125
 40
0.8125
 40
0.8125
 40
0.8125
 40
0.875
 40
0.875
 40
0.875
 40
0.875
 40
0.9375
 40
0.9375
 40
0.9375
 40
0.9375
 40
1.0
 40
1.0
 40
1.0
 40
1.0
 10
265.6622
 20
-5.0579
 30
0.0
 10
265.6622
 20
-5.0579
 30
0.0
 10
265.5784
 20
-14.1821
 30
0.0
 10
265.5784
 20
-14.1821
 30
0.0
 10
265.5784
 20
-14.1821
 30
0.0
 10
265.5784
 20
-14.1821
 30
0.0
 10
267.6128
 20
-14.162
 30
0.0
 10
267.6128
 20
-14.162
 30
0.0
 10
267.6128
 20
-14.162
 30
0.0
 10
267.6128
 20
-14.162
 30
0.0
 10
267.6788
 20
-5.1412
 30
0.0
 10
267.6788
 20
-5.1412
 30
0.0
 10
267.6788
 20
-5.1412
 30
0.0
 10
267.6788
 20
-5.1412
 30
0.0
 10
271.1549
 20
-5.254700000000001
 30
0.0
 10
271.1549
 20
-5.254700000000001
 30
0.0
 10
271.1549
 20
-5.254700000000001
 30
0.0
 10
271.1549
 20
-5.254700000000001
 30
0.0
 10
271.1554
 20
-19.2985
 30
0.0
 10
271.1554
 20
-19.2985
 30
0.0
 10
271.1554
 20
-19.2985
 30
0.0
 10
271.1554
 20
-19.2985
 30
0.0
 10
273.3136
 20
-19.2368
 30
0.0
 10
273.3136
 20
-19.2368
 30
0.0
 10
273.3136
 20
-19.2368
 30
0.0
 10
273.3136
 20
-19.2368
 30
0.0
 10
273.053
 20
-5.3167
 30
0.0
 10
273.053
 20
-5.3167
 30
0.0
 10
273.053
 20
-5.3167
 30
0.0
 10
273.053
 20
-5.3167
 30
0.0
 10
276.6096
 20
-5.4329
 30
0.0
 10
276.6096
 20
-5.4329
 30
0.0
 10
276.6096
 20
-5.4329
 30
0.0
 10
276.6096
 20
-5.4329
 30
0.0
 10
276.7305
 20
-14.1497
 30
0.0
 10
276.7305
 20
-14.1497
 30
0.0
 10
276.7305
 20
-14.1497
 30
0.0
 10
276.7305
 20
-14.1497
 30
0.0
 10
278.5529
 20
-14.0807
 30
0.0
 10
278.5529
 20
-14.0807
 30
0.0
 10
278.5529
 20
-14.0807
 30
0.0
 10
278.5529
 20
-14.0807
 30
0.0
 10
278.6559
 20
-5.518400000000001
 30
0.0
 10
278.6559
 20
-5.518400000000001
 30
0.0
 10
278.6559
 20
-5.518400000000001
 30
0.0
 10
297.2724
 20
-2.7137
 30
0.0
 10
290.6811
 20
-37.15640000000001
 30
0.0
 10
273.9361
 20
-43.9165
 30
0.0
 10
273.9361
 20
-43.9165
 30
0.0
 10
273.9361
 20
-43.9165
 30
0.0
 10
273.8696
 20
-33.8632
 30
0.0
 10
273.8696
 20
-33.8632
 30
0.0
 10
273.8696
 20
-33.8632
 30
0.0
 10
273.8696
 20
-33.8632
 30
0.0
 10
271.5199
 20
-33.9129
 30
0.0
 10
271.5199
 20
-33.9129
 30
0.0
 10
271.5199
 20
-33.9129
 30
0.0
 10
271.5199
 20
-33.9129
 30
0.0
 10
271.3657
 20
-44.0323
 30
0.0
 10
271.3657
 20
-44.0323
 30
0.0
 10
271.3657
 20
-44.0323
 30
0.0
 10
253.4123
 20
-40.6073
 30
0.0
 10
248.1808
 20
-2.307
 30
0.0
 10
265.6622
 20
-5.0579
 30
0.0
  0
SPLINE
  5
6D
330
1F
100
AcDbEntity
  8
Camada 1
 62
   142
370
     5
100
AcDbSpline
210
0.0
220
0.0
230
1.0
 70
    11
 71
     3
 72
    96
 73
    92
 74
     0
 42
0.0000000001
 43
0.0000000001
 40
0.0
 40
0.0
 40
0.0
 40
0.0
 40
0.0434782608695652
 40
0.0434782608695652
 40
0.0434782608695652
 40
0.0434782608695652
 40
0.0869565217391304
 40
0.0869565217391304
 40
0.0869565217391304
 40
0.0869565217391304
 40
0.1304347826086957
 40
0.1304347826086957
 40
0.1304347826086957
 40
0.1304347826086957
 40
0.1739130434782609
 40
0.1739130434782609
 40
0.1739130434782609
 40
0.1739130434782609
 40
0.2173913043478261
 40
0.2173913043478261
 40
0.2173913043478261
 40
0.2173913043478261
 40
0.2608695652173913
 40
0.2608695652173913
 40
0.2608695652173913
 40
0.2608695652173913
 40
0.3043478260869565
 40
0.3043478260869565
 40
0.3043478260869565
 40
0.3043478260869565
 40
0.3478260869565217
 40
0.3478260869565217
 40
0.3478260869565217
 40
0.3478260869565217
 40
0.3913043478260869
 40
0.3913043478260869
 40
0.3913043478260869
 40
0.3913043478260869
 40
0.4347826086956521
 40
0.4347826086956521
 40
0.4347826086956521
 40
0.4347826086956521
 40
0.4782608695652173
 40
0.4782608695652173
 40
0.4782608695652173
 40
0.4782608695652173
 40
0.5217391304347825
 40
0.5217391304347825
 40
0.5217391304347825
 40
0.5217391304347825
 40
0.5652173913043477
 40
0.5652173913043477
 40
0.5652173913043477
 40
0.5652173913043477
 40
0.6086956521739129
 40
0.6086956521739129
 40
0.6086956521739129
 40
0.6086956521739129
 40
0.6521739130434781
 40
0.6521739130434781
 40
0.6521739130434781
 40
0.6521739130434781
 40
0.6956521739130432
 40
0.6956521739130432
 40
0.6956521739130432
 40
0.6956521739130432
 40
0.7391304347826084
 40
0.7391304347826084
 40
0.7391304347826084
 40
0.7391304347826084
 40
0.7826086956521736
 40
0.7826086956521736
 40
0.7826086956521736
 40
0.7826086956521736
 40
0.8260869565217388
 40
0.8260869565217388
 40
0.8260869565217388
 40
0.8260869565217388
 40
0.869565217391304
 40
0.869565217391304
 40
0.869565217391304
 40
0.869565217391304
 40
0.9130434782608692
 40
0.9130434782608692
 40
0.9130434782608692
 40
0.9130434782608692
 40
0.9565217391304344
 40
0.9565217391304344
 40
0.9565217391304344
 40
0.9565217391304344
 40
1.0
 40
1.0
 40
1.0
 40
1.0
 10
143.8997
 20
-9.6928
 30
0.0
 10
150.1753
 20
-4.7077
 30
0.0
 10
155.443
 20
-12.0174
 30
0.0
 10
164.4711
 20
-5.640400000000001
 30
0.0
 10
164.4711
 20
-5.640400000000001
 30
0.0
 10
167.7967
 20
-3.2913
 30
0.0
 10
172.9591
 20
-5.153000000000001
 30
0.0
 10
172.4586
 20
-10.7954
 30
0.0
 10
172.4586
 20
-10.7954
 30
0.0
 10
177.4421
 20
-16.1637
 30
0.0
 10
185.8234
 20
-17.0825
 30
0.0
 10
191.0497
 20
-21.8037
 30
0.0
 10
191.0497
 20
-21.8037
 30
0.0
 10
191.0497
 20
-21.8037
 30
0.0
 10
195.7419
 20
-27.0754
 30
0.0
 10
195.7419
 20
-27.0754
 30
0.0
 10
195.7419
 20
-27.0754
 30
0.0
 10
200.2058
 20
-33.6012
 30
0.0
 10
201.2514
 20
-41.5293
 30
0.0
 10
197.3017
 20
-51.50720000000001
 30
0.0
 10
197.3017
 20
-51.50720000000001
 30
0.0
 10
195.6878
 20
-55.9256
 30
0.0
 10
193.5347
 20
-58.9952
 30
0.0
 10
190.1949
 20
-59.0981
 30
0.0
 10
190.1949
 20
-59.0981
 30
0.0
 10
190.1949
 20
-59.0981
 30
0.0
 10
191.6263
 20
-53.9408
 30
0.0
 10
191.6263
 20
-53.9408
 30
0.0
 10
191.6263
 20
-53.9408
 30
0.0
 10
191.6263
 20
-53.9408
 30
0.0
 10
189.5103
 20
-53.2803
 30
0.0
 10
189.5103
 20
-53.2803
 30
0.0
 10
189.5103
 20
-53.2803
 30
0.0
 10
189.5103
 20
-53.2803
 30
0.0
 10
191.4444
 20
-46.19130000000001
 30
0.0
 10
191.4444
 20
-46.19130000000001
 30
0.0
 10
191.4444
 20
-46.19130000000001
 30
0.0
 10
191.4444
 20
-46.19130000000001
 30
0.0
 10
188.9562
 20
-45.66370000000001
 30
0.0
 10
188.9562
 20
-45.66370000000001
 30
0.0
 10
188.9562
 20
-45.66370000000001
 30
0.0
 10
188.9562
 20
-45.66370000000001
 30
0.0
 10
185.6932
 20
-57.58340000000001
 30
0.0
 10
185.6932
 20
-57.58340000000001
 30
0.0
 10
185.6932
 20
-57.58340000000001
 30
0.0
 10
178.1638
 20
-56.0
 30
0.0
 10
190.9404
 20
-39.1265
 30
0.0
 10
186.1617
 20
-31.7184
 30
0.0
 10
186.1617
 20
-31.7184
 30
0.0
 10
184.1023
 20
-27.9463
 30
0.0
 10
180.7783
 20
-25.813
 30
0.0
 10
176.346
 20
-25.0613
 30
0.0
 10
176.346
 20
-25.0613
 30
0.0
 10
179.9199
 20
-29.8377
 30
0.0
 10
180.7288
 20
-32.8609
 30
0.0
 10
175.4556
 20
-32.0272
 30
0.0
 10
175.4556
 20
-32.0272
 30
0.0
 10
175.4556
 20
-32.0272
 30
0.0
 10
166.4031
 20
-42.5567
 30
0.0
 10
166.4031
 20
-42.5567
 30
0.0
 10
166.4031
 20
-42.5567
 30
0.0
 10
162.2871
 20
-44.5914
 30
0.0
 10
159.8701
 20
-41.7991
 30
0.0
 10
162.7927
 20
-37.335
 30
0.0
 10
162.7927
 20
-37.335
 30
0.0
 10
165.0678
 20
-40.0711
 30
0.0
 10
166.8036
 20
-39.1396
 30
0.0
 10
168.0003
 20
-34.5408
 30
0.0
 10
168.0003
 20
-34.5408
 30
0.0
 10
168.0003
 20
-34.5408
 30
0.0
 10
170.447
 20
-25.9951
 30
0.0
 10
170.447
 20
-25.9951
 30
0.0
 10
170.447
 20
-25.9951
 30
0.0
 10
170.9599
 20
-23.2487
 30
0.0
 10
169.855
 20
-21.7967
 30
0.0
 10
167.1322
 20
-21.6391
 30
0.0
 10
167.1322
 20
-21.6391
 30
0.0
 10
161.3417
 20
-21.2465
 30
0.0
 10
158.3961
 20
-21.0558
 30
0.0
 10
153.6846
 20
-17.4265
 30
0.0
 10
153.6846
 20
-17.4265
 30
0.0
 10
150.1897
 20
-14.5579
 30
0.0
 10
147.6293
 20
-19.2877
 30
0.0
 10
149.3527
 20
-26.1097
 30
0.0
 10
149.3527
 20
-26.1097
 30
0.0
 10
145.465
 20
-26.7443
 30
0.0
 10
148.4858
 20
-13.8449
 30
0.0
 10
143.9114
 20
-13.1464
 30
0.0
 10
143.9114
 20
-13.1464
 30
0.0
 10
141.268
 20
-11.8875
 30
0.0
 10
141.264
 20
-10.7362
 30
0.0
 10
143.8997
 20
-9.6928
 30
0.0
  0
ELLIPSE
  5
6E
330
1F
100
AcDbEntity
  8
Camada 1
 62
   142
370
     5
100
AcDbEllipse
 10
167.126
 20
-10.5591
 30
0.0
 11
0.0
 21
2.0225
 31
0.0
210
0.0
220
0.0
230
1.0
 40
0.96
 41
0.0
 42
6.283185307179586
  0
SPLINE
  5
6F
330
1F
100
AcDbEntity
  8
Camada 1
 62
   142
370
     5
100
AcDbSpline
210
0.0
220
0.0
230
1.0
 70
    11
 71
     3
 72
    96
 73
    92
 74
     0
 42
0.0000000001
 43
0.0000000001
 40
0.0
 40
0.0
 40
0.0
 40
0.0
 40
0.0434782608695652
 40
0.0434782608695652
 40
0.0434782608695652
 40
0.0434782608695652
 40
0.0869565217391304
 40
0.0869565217391304
 40
0.0869565217391304
 40
0.0869565217391304
 40
0.1304347826086957
 40
0.1304347826086957
 40
0.1304347826086957
 40
0.1304347826086957
 40
0.1739130434782609
 40
0.1739130434782609
 40
0.1739130434782609
 40
0.1739130434782609
 40
0.2173913043478261
 40
0.2173913043478261
 40
0.2173913043478261
 40
0.2173913043478261
 40
0.2608695652173913
 40
0.2608695652173913
 40
0.2608695652173913
 40
0.2608695652173913
 40
0.3043478260869565
 40
0.3043478260869565
 40
0.3043478260869565
 40
0.3043478260869565
 40
0.3478260869565217
 40
0.3478260869565217
 40
0.3478260869565217
 40
0.3478260869565217
 40
0.3913043478260869
 40
0.3913043478260869
 40
0.3913043478260869
 40
0.3913043478260869
 40
0.4347826086956521
 40
0.4347826086956521
 40
0.4347826086956521
 40
0.4347826086956521
 40
0.4782608695652173
 40
0.4782608695652173
 40
0.4782608695652173
 40
0.4782608695652173
 40
0.5217391304347825
 40
0.5217391304347825
 40
0.5217391304347825
 40
0.5217391304347825
 40
0.5652173913043477
 40
0.5652173913043477
 40
0.5652173913043477
 40
0.5652173913043477
 40
0.6086956521739129
 40
0.6086956521739129
 40
0.6086956521739129
 40
0.6086956521739129
 40
0.6521739130434781
 40
0.6521739130434781
 40
0.6521739130434781
 40
0.6521739130434781
 40
0.6956521739130432
 40
0.6956521739130432
 40
0.6956521739130432
 40
0.6956521739130432
 40
0.7391304347826084
 40
0.7391304347826084
 40
0.7391304347826084
 40
0.7391304347826084
 40
0.7826086956521736
 40
0.7826086956521736
 40
0.7826086956521736
 40
0.7826086956521736
 40
0.8260869565217388
 40
0.8260869565217388
 40
0.8260869565217388
 40
0.8260869565217388
 40
0.869565217391304
 40
0.869565217391304
 40
0.869565217391304
 40
0.869565217391304
 40
0.9130434782608692
 40
0.9130434782608692
 40
0.9130434782608692
 40
0.9130434782608692
 40
0.9565217391304344
 40
0.9565217391304344
 40
0.9565217391304344
 40
0.9565217391304344
 40
1.0
 40
1.0
 40
1.0
 40
1.0
 10
170.2502
 20
-95.74170000000001
 30
0.0
 10
176.5258
 20
-100.7268
 30
0.0
 10
181.7935
 20
-93.41710000000001
 30
0.0
 10
190.8216
 20
-99.7941
 30
0.0
 10
190.8216
 20
-99.7941
 30
0.0
 10
194.1472
 20
-102.1432
 30
0.0
 10
199.3096
 20
-100.2815
 30
0.0
 10
198.8091
 20
-94.6391
 30
0.0
 10
198.8091
 20
-94.6391
 30
0.0
 10
203.7926
 20
-89.27080000000001
 30
0.0
 10
212.1739
 20
-88.352
 30
0.0
 10
217.4002
 20
-83.63080000000001
 30
0.0
 10
217.4002
 20
-83.63080000000001
 30
0.0
 10
217.4002
 20
-83.63080000000001
 30
0.0
 10
222.0924
 20
-78.3591
 30
0.0
 10
222.0924
 20
-78.3591
 30
0.0
 10
222.0924
 20
-78.3591
 30
0.0
 10
226.5563
 20
-71.83330000000001
 30
0.0
 10
227.6019
 20
-63.9052
 30
0.0
 10
223.6522
 20
-53.9273
 30
0.0
 10
223.6522
 20
-53.9273
 30
0.0
 10
222.0383
 20
-49.5089
 30
0.0
 10
219.8852
 20
-46.4393
 30
0.0
 10
216.5454
 20
-46.33640000000001
 30
0.0
 10
216.5454
 20
-46.33640000000001
 30
0.0
 10
216.5454
 20
-46.33640000000001
 30
0.0
 10
217.9768
 20
-51.4937
 30
0.0
 10
217.9768
 20
-51.4937
 30
0.0
 10
217.9768
 20
-51.4937
 30
0.0
 10
217.9768
 20
-51.4937
 30
0.0
 10
215.8608
 20
-52.1542
 30
0.0
 10
215.8608
 20
-52.1542
 30
0.0
 10
215.8608
 20
-52.1542
 30
0.0
 10
215.8608
 20
-52.1542
 30
0.0
 10
217.7949
 20
-59.2432
 30
0.0
 10
217.7949
 20
-59.2432
 30
0.0
 10
217.7949
 20
-59.2432
 30
0.0
 10
217.7949
 20
-59.2432
 30
0.0
 10
215.3067
 20
-59.7708
 30
0.0
 10
215.3067
 20
-59.7708
 30
0.0
 10
215.3067
 20
-59.7708
 30
0.0
 10
215.3067
 20
-59.7708
 30
0.0
 10
212.0437
 20
-47.8511
 30
0.0
 10
212.0437
 20
-47.8511
 30
0.0
 10
212.0437
 20
-47.8511
 30
0.0
 10
204.5143
 20
-49.4345
 30
0.0
 10
217.2909
 20
-66.30800000000001
 30
0.0
 10
212.5122
 20
-73.7161
 30
0.0
 10
212.5122
 20
-73.7161
 30
0.0
 10
210.4528
 20
-77.48820000000001
 30
0.0
 10
207.1288
 20
-79.6215
 30
0.0
 10
202.6965
 20
-80.3732
 30
0.0
 10
202.6965
 20
-80.3732
 30
0.0
 10
206.2704
 20
-75.5968
 30
0.0
 10
207.0793
 20
-72.5736
 30
0.0
 10
201.8061
 20
-73.40730000000001
 30
0.0
 10
201.8061
 20
-73.40730000000001
 30
0.0
 10
201.8061
 20
-73.40730000000001
 30
0.0
 10
192.7536
 20
-62.8778
 30
0.0
 10
192.7536
 20
-62.8778
 30
0.0
 10
192.7536
 20
-62.8778
 30
0.0
 10
188.6376
 20
-60.8431
 30
0.0
 10
186.2206
 20
-63.6354
 30
0.0
 10
189.1432
 20
-68.09950000000001
 30
0.0
 10
189.1432
 20
-68.09950000000001
 30
0.0
 10
191.4183
 20
-65.3634
 30
0.0
 10
193.1541
 20
-66.2949
 30
0.0
 10
194.3508
 20
-70.89370000000001
 30
0.0
 10
194.3508
 20
-70.89370000000001
 30
0.0
 10
194.3508
 20
-70.89370000000001
 30
0.0
 10
196.7975
 20
-79.43940000000001
 30
0.0
 10
196.7975
 20
-79.43940000000001
 30
0.0
 10
196.7975
 20
-79.43940000000001
 30
0.0
 10
197.3104
 20
-82.1858
 30
0.0
 10
196.2055
 20
-83.6378
 30
0.0
 10
193.4827
 20
-83.7954
 30
0.0
 10
193.4827
 20
-83.7954
 30
0.0
 10
187.6922
 20
-84.188
 30
0.0
 10
184.7466
 20
-84.37870000000001
 30
0.0
 10
180.0351
 20
-88.00800000000001
 30
0.0
 10
180.0351
 20
-88.00800000000001
 30
0.0
 10
176.5402
 20
-90.87660000000001
 30
0.0
 10
173.9798
 20
-86.1468
 30
0.0
 10
175.7032
 20
-79.32480000000001
 30
0.0
 10
175.7032
 20
-79.32480000000001
 30
0.0
 10
171.8155
 20
-78.6902
 30
0.0
 10
174.8363
 20
-91.5896
 30
0.0
 10
170.2619
 20
-92.2881
 30
0.0
 10
170.2619
 20
-92.2881
 30
0.0
 10
167.6185
 20
-93.54700000000001
 30
0.0
 10
167.6145
 20
-94.6983
 30
0.0
 10
170.2502
 20
-95.74170000000001
 30
0.0
  0
ELLIPSE
  5
70
330
1F
100
AcDbEntity
  8
Camada 1
 62
   142
370
     5
100
AcDbEllipse
 10
193.4765
 20
-94.8754
 30
0.0
 11
0.0
 21
2.0225
 31
0.0
210
0.0
220
0.0
230
1.0
 40
0.96
 41
0.0
 42
6.283185307179586
  0
SPLINE
  5
71
330
1F
100
AcDbEntity
  8
Camada 1
 62
   142
370
     5
100
AcDbSpline
210
0.0
220
0.0
230
1.0
 70
    11
 71
     3
 72
    92
 73
    88
 74
     0
 42
0.0000000001
 43
0.0000000001
 40
0.0
 40
0.0
 40
0.0
 40
0.0
 40
0.0454545454545455
 40
0.0454545454545455
 40
0.0454545454545455
 40
0.0454545454545455
 40
0.0909090909090909
 40
0.0909090909090909
 40
0.0909090909090909
 40
0.0909090909090909
 40
0.1363636363636364
 40
0.1363636363636364
 40
0.1363636363636364
 40
0.1363636363636364
 40
0.1818181818181818
 40
0.1818181818181818
 40
0.1818181818181818
 40
0.1818181818181818
 40
0.2272727272727273
 40
0.2272727272727273
 40
0.2272727272727273
 40
0.2272727272727273
 40
0.2727272727272728
 40
0.2727272727272728
 40
0.2727272727272728
 40
0.2727272727272728
 40
0.3181818181818182
 40
0.3181818181818182
 40
0.3181818181818182
 40
0.3181818181818182
 40
0.3636363636363637
 40
0.3636363636363637
 40
0.3636363636363637
 40
0.3636363636363637
 40
0.4090909090909092
 40
0.4090909090909092
 40
0.4090909090909092
 40
0.4090909090909092
 40
0.4545454545454546
 40
0.4545454545454546
 40
0.4545454545454546
 40
0.4545454545454546
 40
0.5000000000000001
 40
0.5000000000000001
 40
0.5000000000000001
 40
0.5000000000000001
 40
0.5454545454545455
 40
0.5454545454545455
 40
0.5454545454545455
 40
0.5454545454545455
 40
0.5909090909090909
 40
0.5909090909090909
 40
0.5909090909090909
 40
0.5909090909090909
 40
0.6363636363636364
 40
0.6363636363636364
 40
0.6363636363636364
 40
0.6363636363636364
 40
0.6818181818181818
 40
0.6818181818181818
 40
0.6818181818181818
 40
0.6818181818181818
 40
0.7272727272727272
 40
0.7272727272727272
 40
0.7272727272727272
 40
0.7272727272727272
 40
0.7727272727272726
 40
0.7727272727272726
 40
0.7727272727272726
 40
0.7727272727272726
 40
0.818181818181818
 40
0.818181818181818
 40
0.818181818181818
 40
0.818181818181818
 40
0.8636363636363634
 40
0.8636363636363634
 40
0.8636363636363634
 40
0.8636363636363634
 40
0.9090909090909088
 40
0.9090909090909088
 40
0.9090909090909088
 40
0.9090909090909088
 40
0.9545454545454543
 40
0.9545454545454543
 40
0.9545454545454543
 40
0.9545454545454543
 40
1.0
 40
1.0
 40
1.0
 40
1.0
 10
194.2185
 20
-8.389100000000001
 30
0.0
 10
200.4941
 20
-3.404
 30
0.0
 10
211.457
 20
-7.9686
 30
0.0
 10
213.6573
 20
-6.1165
 30
0.0
 10
213.6573
 20
-6.1165
 30
0.0
 10
216.7721
 20
-3.4946
 30
0.0
 10
224.4914
 20
-4.7392
 30
0.0
 10
223.9909
 20
-10.3816
 30
0.0
 10
223.9909
 20
-10.3816
 30
0.0
 10
231.4868
 20
-11.4427
 30
0.0
 10
239.5809
 20
-13.3276
 30
0.0
 10
245.009
 20
-18.6393
 30
0.0
 10
245.009
 20
-18.6393
 30
0.0
 10
247.7615
 20
-20.3015
 30
0.0
 10
249.6711
 20
-22.6537
 30
0.0
 10
251.2383
 20
-25.2863
 30
0.0
 10
251.2383
 20
-25.2863
 30
0.0
 10
259.2448
 20
-36.991
 30
0.0
 10
250.0069
 20
-52.86530000000001
 30
0.0
 10
245.0023
 20
-63.7837
 30
0.0
 10
245.0023
 20
-63.7837
 30
0.0
 10
245.0023
 20
-63.7837
 30
0.0
 10
241.1604
 20
-63.74290000000001
 30
0.0
 10
241.1604
 20
-63.74290000000001
 30
0.0
 10
241.1604
 20
-63.74290000000001
 30
0.0
 10
241.1604
 20
-63.74290000000001
 30
0.0
 10
242.2687
 20
-56.76300000000001
 30
0.0
 10
242.2687
 20
-56.76300000000001
 30
0.0
 10
242.2687
 20
-56.76300000000001
 30
0.0
 10
242.2687
 20
-56.76300000000001
 30
0.0
 10
239.9145
 20
-56.54490000000001
 30
0.0
 10
239.9145
 20
-56.54490000000001
 30
0.0
 10
239.9145
 20
-56.54490000000001
 30
0.0
 10
239.9145
 20
-56.54490000000001
 30
0.0
 10
241.4396
 20
-50.9551
 30
0.0
 10
241.4396
 20
-50.9551
 30
0.0
 10
241.4396
 20
-50.9551
 30
0.0
 10
241.4396
 20
-50.9551
 30
0.0
 10
238.9514
 20
-50.4275
 30
0.0
 10
238.9514
 20
-50.4275
 30
0.0
 10
238.9514
 20
-50.4275
 30
0.0
 10
238.9514
 20
-50.4275
 30
0.0
 10
235.8707
 20
-62.9937
 30
0.0
 10
235.8707
 20
-62.9937
 30
0.0
 10
235.8707
 20
-62.9937
 30
0.0
 10
235.8727
 20
-62.98540000000001
 30
0.0
 10
231.3647
 20
-62.4645
 30
0.0
 10
231.3647
 20
-62.4645
 30
0.0
 10
231.3647
 20
-62.4645
 30
0.0
 10
231.8994
 20
-57.1141
 30
0.0
 10
239.3473
 20
-37.94920000000001
 30
0.0
 10
238.2618
 20
-33.89120000000001
 30
0.0
 10
238.2618
 20
-33.89120000000001
 30
0.0
 10
238.144
 20
-29.9573
 30
0.0
 10
235.6731
 20
-23.1256
 30
0.0
 10
228.5255
 20
-23.0295
 30
0.0
 10
228.5255
 20
-23.0295
 30
0.0
 10
232.0994
 20
-27.8059
 30
0.0
 10
233.151
 20
-30.101
 30
0.0
 10
227.8778
 20
-29.2673
 30
0.0
 10
227.8778
 20
-29.2673
 30
0.0
 10
227.8778
 20
-29.2673
 30
0.0
 10
219.068
 20
-39.71590000000001
 30
0.0
 10
219.068
 20
-39.71590000000001
 30
0.0
 10
219.068
 20
-39.71590000000001
 30
0.0
 10
209.2623
 20
-42.9295
 30
0.0
 10
216.2521
 20
-33.9929
 30
0.0
 10
220.7654
 20
-32.7789
 30
0.0
 10
220.7654
 20
-32.7789
 30
0.0
 10
221.2783
 20
-30.0325
 30
0.0
 10
221.749
 20
-25.9141
 30
0.0
 10
218.3394
 20
-26.1605
 30
0.0
 10
218.3394
 20
-26.1605
 30
0.0
 10
212.5489
 20
-25.7679
 30
0.0
 10
210.252
 20
-39.6535
 30
0.0
 10
201.7382
 20
-33.8399
 30
0.0
 10
201.7382
 20
-33.8399
 30
0.0
 10
201.2218
 20
-33.4161
 30
0.0
 10
207.8153
 20
-35.2337
 30
0.0
 10
211.4109
 20
-28.1233
 30
0.0
 10
211.4109
 20
-28.1233
 30
0.0
 10
214.5774
 20
-21.8614
 30
0.0
 10
221.0562
 20
-21.2089
 30
0.0
 10
221.0562
 20
-21.2089
 30
0.0
 10
221.0562
 20
-21.2089
 30
0.0
 10
212.3451
 20
-12.0913
 30
0.0
 10
191.0785
 20
-14.6698
 30
0.0
 10
194.2185
 20
-8.389100000000001
 30
0.0
  0
SPLINE
  5
72
330
1F
100
AcDbEntity
  8
Camada 1
 62
   142
370
     5
100
AcDbSpline
210
0.0
220
0.0
230
1.0
 70
    11
 71
     3
 72
    80
 73
    76
 74
     0
 42
0.0000000001
 43
0.0000000001
 40
0.0
 40
0.0
 40
0.0
 40
0.0
 40
0.0526315789473684
 40
0.0526315789473684
 40
0.0526315789473684
 40
0.0526315789473684
 40
0.1052631578947368
 40
0.1052631578947368
 40
0.1052631578947368
 40
0.1052631578947368
 40
0.1578947368421053
 40
0.1578947368421053
 40
0.1578947368421053
 40
0.1578947368421053
 40
0.2105263157894737
 40
0.2105263157894737
 40
0.2105263157894737
 40
0.2105263157894737
 40
0.2631578947368421
 40
0.2631578947368421
 40
0.2631578947368421
 40
0.2631578947368421
 40
0.3157894736842105
 40
0.3157894736842105
 40
0.3157894736842105
 40
0.3157894736842105
 40
0.3684210526315789
 40
0.3684210526315789
 40
0.3684210526315789
 40
0.3684210526315789
 40
0.4210526315789474
 40
0.4210526315789474
 40
0.4210526315789474
 40
0.4210526315789474
 40
0.4736842105263158
 40
0.4736842105263158
 40
0.4736842105263158
 40
0.4736842105263158
 40
0.5263157894736842
 40
0.5263157894736842
 40
0.5263157894736842
 40
0.5263157894736842
 40
0.5789473684210527
 40
0.5789473684210527
 40
0.5789473684210527
 40
0.5789473684210527
 40
0.631578947368421
 40
0.631578947368421
 40
0.631578947368421
 40
0.631578947368421
 40
0.6842105263157894
 40
0.6842105263157894
 40
0.6842105263157894
 40
0.6842105263157894
 40
0.7368421052631577
 40
0.7368421052631577
 40
0.7368421052631577
 40
0.7368421052631577
 40
0.7894736842105261
 40
0.7894736842105261
 40
0.7894736842105261
 40
0.7894736842105261
 40
0.8421052631578945
 40
0.8421052631578945
 40
0.8421052631578945
 40
0.8421052631578945
 40
0.8947368421052628
 40
0.8947368421052628
 40
0.8947368421052628
 40
0.8947368421052628
 40
0.9473684210526312
 40
0.9473684210526312
 40
0.9473684210526312
 40
0.9473684210526312
 40
1.0
 40
1.0
 40
1.0
 40
1.0
 10
265.5338
 20
-83.52840000000001
 30
0.0
 10
265.5338
 20
-83.52840000000001
 30
0.0
 10
260.4336
 20
-83.6323
 30
0.0
 10
260.4336
 20
-83.6323
 30
0.0
 10
260.4336
 20
-83.6323
 30
0.0
 10
260.4336
 20
-83.6323
 30
0.0
 10
260.3321
 20
-85.437
 30
0.0
 10
260.3321
 20
-85.437
 30
0.0
 10
260.3321
 20
-85.437
 30
0.0
 10
260.3321
 20
-85.437
 30
0.0
 10
264.8962
 20
-85.5214
 30
0.0
 10
264.8962
 20
-85.5214
 30
0.0
 10
264.8962
 20
-85.5214
 30
0.0
 10
264.8962
 20
-85.5214
 30
0.0
 10
264.8726
 20
-88.7423
 30
0.0
 10
264.8726
 20
-88.7423
 30
0.0
 10
264.8726
 20
-88.7423
 30
0.0
 10
264.8726
 20
-88.7423
 30
0.0
 10
253.8148
 20
-88.7791
 30
0.0
 10
253.8148
 20
-88.7791
 30
0.0
 10
253.8148
 20
-88.7791
 30
0.0
 10
253.8148
 20
-88.7791
 30
0.0
 10
253.7171
 20
-90.55580000000001
 30
0.0
 10
253.7171
 20
-90.55580000000001
 30
0.0
 10
253.7171
 20
-90.55580000000001
 30
0.0
 10
253.7171
 20
-90.55580000000001
 30
0.0
 10
265.0065
 20
-90.68520000000001
 30
0.0
 10
265.0065
 20
-90.68520000000001
 30
0.0
 10
265.0065
 20
-90.68520000000001
 30
0.0
 10
265.0065
 20
-90.68520000000001
 30
0.0
 10
264.975
 20
-93.27460000000001
 30
0.0
 10
264.975
 20
-93.27460000000001
 30
0.0
 10
264.975
 20
-93.27460000000001
 30
0.0
 10
264.975
 20
-93.27460000000001
 30
0.0
 10
260.3608
 20
-93.456
 30
0.0
 10
260.3608
 20
-93.456
 30
0.0
 10
260.3608
 20
-93.456
 30
0.0
 10
260.3608
 20
-93.456
 30
0.0
 10
260.3326
 20
-95.03360000000001
 30
0.0
 10
260.3326
 20
-95.03360000000001
 30
0.0
 10
260.3326
 20
-95.03360000000001
 30
0.0
 10
260.3326
 20
-95.03360000000001
 30
0.0
 10
265.5967
 20
-95.27250000000001
 30
0.0
 10
265.5967
 20
-95.27250000000001
 30
0.0
 10
265.5967
 20
-95.27250000000001
 30
0.0
 10
271.1366
 20
-121.4275
 30
0.0
 10
246.599
 20
-116.5616
 30
0.0
 10
231.0984
 20
-101.5157
 30
0.0
 10
231.0984
 20
-101.5157
 30
0.0
 10
225.7689
 20
-96.3425
 30
0.0
 10
219.3628
 20
-96.54210000000001
 30
0.0
 10
219.075
 20
-91.0947
 30
0.0
 10
219.075
 20
-91.0947
 30
0.0
 10
219.075
 20
-91.0947
 30
0.0
 10
230.4493
 20
-91.5967
 30
0.0
 10
230.4493
 20
-91.5967
 30
0.0
 10
230.4493
 20
-91.5967
 30
0.0
 10
230.4493
 20
-91.5967
 30
0.0
 10
230.4153
 20
-88.7616
 30
0.0
 10
230.4153
 20
-88.7616
 30
0.0
 10
230.4153
 20
-88.7616
 30
0.0
 10
230.4153
 20
-88.7616
 30
0.0
 10
219.2137
 20
-88.8622
 30
0.0
 10
219.2137
 20
-88.8622
 30
0.0
 10
219.2137
 20
-88.8622
 30
0.0
 10
218.9261
 20
-82.9435
 30
0.0
 10
223.9262
 20
-82.3771
 30
0.0
 10
226.0093
 20
-81.3224
 30
0.0
 10
226.0093
 20
-81.3224
 30
0.0
 10
229.6582
 20
-79.4748
 30
0.0
 10
234.7001
 20
-73.991
 30
0.0
 10
238.732
 20
-71.90860000000001
 30
0.0
 10
238.732
 20
-71.90860000000001
 30
0.0
 10
240.2572
 20
-71.12090000000001
 30
0.0
 10
270.9936
 20
-55.95370000000001
 30
0.0
 10
265.5338
 20
-83.52840000000001
 30
0.0
  0
SPLINE
  5
73
330
1F
100
AcDbEntity
  8
Camada 1
 62
   142
370
     5
100
AcDbSpline
210
0.0
220
0.0
230
1.0
 70
    11
 71
     3
 72
   220
 73
   216
 74
     0
 42
0.0000000001
 43
0.0000000001
 40
0.0
 40
0.0
 40
0.0
 40
0.0
 40
0.0185185185185185
 40
0.0185185185185185
 40
0.0185185185185185
 40
0.0185185185185185
 40
0.037037037037037
 40
0.037037037037037
 40
0.037037037037037
 40
0.037037037037037
 40
0.0555555555555556
 40
0.0555555555555556
 40
0.0555555555555556
 40
0.0555555555555556
 40
0.0740740740740741
 40
0.0740740740740741
 40
0.0740740740740741
 40
0.0740740740740741
 40
0.0925925925925926
 40
0.0925925925925926
 40
0.0925925925925926
 40
0.0925925925925926
 40
0.1111111111111111
 40
0.1111111111111111
 40
0.1111111111111111
 40
0.1111111111111111
 40
0.1296296296296296
 40
0.1296296296296296
 40
0.1296296296296296
 40
0.1296296296296296
 40
0.1481481481481481
 40
0.1481481481481481
 40
0.1481481481481481
 40
0.1481481481481481
 40
0.1666666666666667
 40
0.1666666666666667
 40
0.1666666666666667
 40
0.1666666666666667
 40
0.1851851851851852
 40
0.1851851851851852
 40
0.1851851851851852
 40
0.1851851851851852
 40
0.2037037037037037
 40
0.2037037037037037
 40
0.2037037037037037
 40
0.2037037037037037
 40
0.2222222222222222
 40
0.2222222222222222
 40
0.2222222222222222
 40
0.2222222222222222
 40
0.2407407407407407
 40
0.2407407407407407
 40
0.2407407407407407
 40
0.2407407407407407
 40
0.2592592592592592
 40
0.2592592592592592
 40
0.2592592592592592
 40
0.2592592592592592
 40
0.2777777777777778
 40
0.2777777777777778
 40
0.2777777777777778
 40
0.2777777777777778
 40
0.2962962962962963
 40
0.2962962962962963
 40
0.2962962962962963
 40
0.2962962962962963
 40
0.3148148148148148
 40
0.3148148148148148
 40
0.3148148148148148
 40
0.3148148148148148
 40
0.3333333333333333
 40
0.3333333333333333
 40
0.3333333333333333
 40
0.3333333333333333
 40
0.3518518518518518
 40
0.3518518518518518
 40
0.3518518518518518
 40
0.3518518518518518
 40
0.3703703703703702
 40
0.3703703703703702
 40
0.3703703703703702
 40
0.3703703703703702
 40
0.3888888888888887
 40
0.3888888888888887
 40
0.3888888888888887
 40
0.3888888888888887
 40
0.4074074074074072
 40
0.4074074074074072
 40
0.4074074074074072
 40
0.4074074074074072
 40
0.4259259259259257
 40
0.4259259259259257
 40
0.4259259259259257
 40
0.4259259259259257
 40
0.4444444444444442
 40
0.4444444444444442
 40
0.4444444444444442
 40
0.4444444444444442
 40
0.4629629629629627
 40
0.4629629629629627
 40
0.4629629629629627
 40
0.4629629629629627
 40
0.4814814814814812
 40
0.4814814814814812
 40
0.4814814814814812
 40
0.4814814814814812
 40
0.4999999999999997
 40
0.4999999999999997
 40
0.4999999999999997
 40
0.4999999999999997
 40
0.5185185185185182
 40
0.5185185185185182
 40
0.5185185185185182
 40
0.5185185185185182
 40
0.5370370370370367
 40
0.5370370370370367
 40
0.5370370370370367
 40
0.5370370370370367
 40
0.5555555555555551
 40
0.5555555555555551
 40
0.5555555555555551
 40
0.5555555555555551
 40
0.5740740740740736
 40
0.5740740740740736
 40
0.5740740740740736
 40
0.5740740740740736
 40
0.5925925925925921
 40
0.5925925925925921
 40
0.5925925925925921
 40
0.5925925925925921
 40
0.6111111111111106
 40
0.6111111111111106
 40
0.6111111111111106
 40
0.6111111111111106
 40
0.6296296296296291
 40
0.6296296296296291
 40
0.6296296296296291
 40
0.6296296296296291
 40
0.6481481481481476
 40
0.6481481481481476
 40
0.6481481481481476
 40
0.6481481481481476
 40
0.6666666666666661
 40
0.6666666666666661
 40
0.6666666666666661
 40
0.6666666666666661
 40
0.6851851851851846
 40
0.6851851851851846
 40
0.6851851851851846
 40
0.6851851851851846
 40
0.7037037037037031
 40
0.7037037037037031
 40
0.7037037037037031
 40
0.7037037037037031
 40
0.7222222222222215
 40
0.7222222222222215
 40
0.7222222222222215
 40
0.7222222222222215
 40
0.74074074074074
 40
0.74074074074074
 40
0.74074074074074
 40
0.74074074074074
 40
0.7592592592592585
 40
0.7592592592592585
 40
0.7592592592592585
 40
0.7592592592592585
 40
0.777777777777777
 40
0.777777777777777
 40
0.777777777777777
 40
0.777777777777777
 40
0.7962962962962955
 40
0.7962962962962955
 40
0.7962962962962955
 40
0.7962962962962955
 40
0.814814814814814
 40
0.814814814814814
 40
0.814814814814814
 40
0.814814814814814
 40
0.8333333333333325
 40
0.8333333333333325
 40
0.8333333333333325
 40
0.8333333333333325
 40
0.851851851851851
 40
0.851851851851851
 40
0.851851851851851
 40
0.851851851851851
 40
0.8703703703703695
 40
0.8703703703703695
 40
0.8703703703703695
 40
0.8703703703703695
 40
0.888888888888888
 40
0.888888888888888
 40
0.888888888888888
 40
0.888888888888888
 40
0.9074074074074064
 40
0.9074074074074064
 40
0.9074074074074064
 40
0.9074074074074064
 40
0.9259259259259249
 40
0.9259259259259249
 40
0.9259259259259249
 40
0.9259259259259249
 40
0.9444444444444434
 40
0.9444444444444434
 40
0.9444444444444434
 40
0.9444444444444434
 40
0.9629629629629619
 40
0.9629629629629619
 40
0.9629629629629619
 40
0.9629629629629619
 40
0.9814814814814804
 40
0.9814814814814804
 40
0.9814814814814804
 40
0.9814814814814804
 40
1.0
 40
1.0
 40
1.0
 40
1.0
 10
148.8903
 20
-46.6712
 30
0.0
 10
148.8903
 20
-46.6712
 30
0.0
 10
153.049
 20
-46.6955
 30
0.0
 10
153.049
 20
-46.6955
 30
0.0
 10
153.049
 20
-46.6955
 30
0.0
 10
153.049
 20
-46.6955
 30
0.0
 10
151.4305
 20
-59.80880000000001
 30
0.0
 10
151.4305
 20
-59.80880000000001
 30
0.0
 10
151.4305
 20
-59.80880000000001
 30
0.0
 10
151.4305
 20
-59.80880000000001
 30
0.0
 10
153.6502
 20
-60.1264
 30
0.0
 10
153.6502
 20
-60.1264
 30
0.0
 10
153.6502
 20
-60.1264
 30
0.0
 10
153.6502
 20
-60.1264
 30
0.0
 10
154.6484
 20
-53.6722
 30
0.0
 10
154.6484
 20
-53.6722
 30
0.0
 10
154.6484
 20
-53.6722
 30
0.0
 10
154.6484
 20
-53.6722
 30
0.0
 10
157.5187
 20
-53.93190000000001
 30
0.0
 10
157.5187
 20
-53.93190000000001
 30
0.0
 10
157.5187
 20
-53.93190000000001
 30
0.0
 10
157.5187
 20
-53.93190000000001
 30
0.0
 10
158.3078
 20
-46.7263
 30
0.0
 10
158.3078
 20
-46.7263
 30
0.0
 10
158.3078
 20
-46.7263
 30
0.0
 10
158.3078
 20
-46.7263
 30
0.0
 10
162.6947
 20
-46.75210000000001
 30
0.0
 10
162.6947
 20
-46.75210000000001
 30
0.0
 10
162.6947
 20
-46.75210000000001
 30
0.0
 10
162.6947
 20
-46.75210000000001
 30
0.0
 10
158.231
 20
-72.24210000000001
 30
0.0
 10
158.231
 20
-72.24210000000001
 30
0.0
 10
158.231
 20
-72.24210000000001
 30
0.0
 10
158.231
 20
-72.24210000000001
 30
0.0
 10
150.1894
 20
-70.84180000000001
 30
0.0
 10
150.1894
 20
-70.84180000000001
 30
0.0
 10
150.1894
 20
-70.84180000000001
 30
0.0
 10
150.1894
 20
-70.84180000000001
 30
0.0
 10
149.9889
 20
-72.2692
 30
0.0
 10
149.9889
 20
-72.2692
 30
0.0
 10
149.9889
 20
-72.2692
 30
0.0
 10
149.9889
 20
-72.2692
 30
0.0
 10
157.9573
 20
-73.80550000000001
 30
0.0
 10
157.9573
 20
-73.80550000000001
 30
0.0
 10
157.9573
 20
-73.80550000000001
 30
0.0
 10
157.9573
 20
-73.80550000000001
 30
0.0
 10
157.4023
 20
-76.9752
 30
0.0
 10
157.4023
 20
-76.9752
 30
0.0
 10
157.4023
 20
-76.9752
 30
0.0
 10
157.4023
 20
-76.9752
 30
0.0
 10
149.5194
 20
-77.00490000000001
 30
0.0
 10
149.5194
 20
-77.00490000000001
 30
0.0
 10
149.5194
 20
-77.00490000000001
 30
0.0
 10
149.5194
 20
-77.00490000000001
 30
0.0
 10
149.6095
 20
-78.331
 30
0.0
 10
149.6095
 20
-78.331
 30
0.0
 10
149.6095
 20
-78.331
 30
0.0
 10
149.6095
 20
-78.331
 30
0.0
 10
157.1608
 20
-78.3545
 30
0.0
 10
157.1608
 20
-78.3545
 30
0.0
 10
157.1608
 20
-78.3545
 30
0.0
 10
157.1608
 20
-78.3545
 30
0.0
 10
157.6619
 20
-81.85990000000001
 30
0.0
 10
157.6619
 20
-81.85990000000001
 30
0.0
 10
157.6619
 20
-81.85990000000001
 30
0.0
 10
157.6619
 20
-81.85990000000001
 30
0.0
 10
150.337
 20
-82.935
 30
0.0
 10
150.337
 20
-82.935
 30
0.0
 10
150.337
 20
-82.935
 30
0.0
 10
150.337
 20
-82.935
 30
0.0
 10
150.3022
 20
-84.30210000000001
 30
0.0
 10
150.3022
 20
-84.30210000000001
 30
0.0
 10
150.3022
 20
-84.30210000000001
 30
0.0
 10
150.3022
 20
-84.30210000000001
 30
0.0
 10
157.9562
 20
-83.2833
 30
0.0
 10
157.9562
 20
-83.2833
 30
0.0
 10
157.9562
 20
-83.2833
 30
0.0
 10
157.9562
 20
-83.2833
 30
0.0
 10
158.6555
 20
-86.60680000000001
 30
0.0
 10
158.6555
 20
-86.60680000000001
 30
0.0
 10
158.6555
 20
-86.60680000000001
 30
0.0
 10
158.6555
 20
-86.60680000000001
 30
0.0
 10
151.5979
 20
-88.3741
 30
0.0
 10
151.5979
 20
-88.3741
 30
0.0
 10
151.5979
 20
-88.3741
 30
0.0
 10
151.5979
 20
-88.3741
 30
0.0
 10
151.9198
 20
-89.65430000000001
 30
0.0
 10
151.9198
 20
-89.65430000000001
 30
0.0
 10
151.9198
 20
-89.65430000000001
 30
0.0
 10
151.9198
 20
-89.65430000000001
 30
0.0
 10
159.0079
 20
-87.62000000000001
 30
0.0
 10
159.0079
 20
-87.62000000000001
 30
0.0
 10
159.0079
 20
-87.62000000000001
 30
0.0
 10
159.0079
 20
-87.62000000000001
 30
0.0
 10
160.2393
 20
-91.2167
 30
0.0
 10
160.2393
 20
-91.2167
 30
0.0
 10
160.2393
 20
-91.2167
 30
0.0
 10
160.2393
 20
-91.2167
 30
0.0
 10
153.4057
 20
-93.7283
 30
0.0
 10
153.4057
 20
-93.7283
 30
0.0
 10
153.4057
 20
-93.7283
 30
0.0
 10
153.4057
 20
-93.7283
 30
0.0
 10
153.8957
 20
-95.09280000000001
 30
0.0
 10
153.8957
 20
-95.09280000000001
 30
0.0
 10
153.8957
 20
-95.09280000000001
 30
0.0
 10
153.8957
 20
-95.09280000000001
 30
0.0
 10
160.6371
 20
-92.37860000000001
 30
0.0
 10
160.6371
 20
-92.37860000000001
 30
0.0
 10
160.6371
 20
-92.37860000000001
 30
0.0
 10
160.6371
 20
-92.37860000000001
 30
0.0
 10
162.2683
 20
-95.58160000000001
 30
0.0
 10
162.2683
 20
-95.58160000000001
 30
0.0
 10
162.2683
 20
-95.58160000000001
 30
0.0
 10
162.2683
 20
-95.58160000000001
 30
0.0
 10
155.9503
 20
-99.33020000000001
 30
0.0
 10
155.9503
 20
-99.33020000000001
 30
0.0
 10
155.9503
 20
-99.33020000000001
 30
0.0
 10
155.9503
 20
-99.33020000000001
 30
0.0
 10
156.3712
 20
-100.6909
 30
0.0
 10
156.3712
 20
-100.6909
 30
0.0
 10
156.3712
 20
-100.6909
 30
0.0
 10
156.3712
 20
-100.6909
 30
0.0
 10
163.0592
 20
-96.7192
 30
0.0
 10
163.0592
 20
-96.7192
 30
0.0
 10
163.0592
 20
-96.7192
 30
0.0
 10
163.0592
 20
-96.7192
 30
0.0
 10
165.1109
 20
-99.32640000000001
 30
0.0
 10
165.1109
 20
-99.32640000000001
 30
0.0
 10
165.1109
 20
-99.32640000000001
 30
0.0
 10
165.1109
 20
-99.32640000000001
 30
0.0
 10
159.6017
 20
-104.6957
 30
0.0
 10
159.6017
 20
-104.6957
 30
0.0
 10
159.6017
 20
-104.6957
 30
0.0
 10
159.6017
 20
-104.6957
 30
0.0
 10
160.5787
 20
-105.7454
 30
0.0
 10
160.5787
 20
-105.7454
 30
0.0
 10
160.5787
 20
-105.7454
 30
0.0
 10
160.5787
 20
-105.7454
 30
0.0
 10
165.8701
 20
-100.608
 30
0.0
 10
165.8701
 20
-100.608
 30
0.0
 10
165.8701
 20
-100.608
 30
0.0
 10
165.8701
 20
-100.608
 30
0.0
 10
168.3435
 20
-102.488
 30
0.0
 10
168.3435
 20
-102.488
 30
0.0
 10
168.3435
 20
-102.488
 30
0.0
 10
168.3435
 20
-102.488
 30
0.0
 10
164.3056
 20
-108.9962
 30
0.0
 10
164.3056
 20
-108.9962
 30
0.0
 10
164.3056
 20
-108.9962
 30
0.0
 10
164.3056
 20
-108.9962
 30
0.0
 10
165.4668
 20
-109.9273
 30
0.0
 10
165.4668
 20
-109.9273
 30
0.0
 10
165.4668
 20
-109.9273
 30
0.0
 10
165.4668
 20
-109.9273
 30
0.0
 10
169.3413
 20
-103.9381
 30
0.0
 10
169.3413
 20
-103.9381
 30
0.0
 10
169.3413
 20
-103.9381
 30
0.0
 10
169.3413
 20
-103.9381
 30
0.0
 10
172.3806
 20
-105.0187
 30
0.0
 10
172.3806
 20
-105.0187
 30
0.0
 10
172.3806
 20
-105.0187
 30
0.0
 10
172.3806
 20
-105.0187
 30
0.0
 10
171.0788
 20
-112.0795
 30
0.0
 10
171.0788
 20
-112.0795
 30
0.0
 10
171.0788
 20
-112.0795
 30
0.0
 10
171.0788
 20
-112.0795
 30
0.0
 10
172.4127
 20
-112.3793
 30
0.0
 10
172.4127
 20
-112.3793
 30
0.0
 10
172.4127
 20
-112.3793
 30
0.0
 10
172.4127
 20
-112.3793
 30
0.0
 10
174.1068
 20
-105.6241
 30
0.0
 10
174.1068
 20
-105.6241
 30
0.0
 10
174.1068
 20
-105.6241
 30
0.0
 10
174.1068
 20
-105.6241
 30
0.0
 10
177.0307
 20
-105.6878
 30
0.0
 10
177.0307
 20
-105.6878
 30
0.0
 10
177.0307
 20
-105.6878
 30
0.0
 10
177.0307
 20
-105.6878
 30
0.0
 10
178.3134
 20
-113.1271
 30
0.0
 10
178.3134
 20
-113.1271
 30
0.0
 10
178.3134
 20
-113.1271
 30
0.0
 10
178.3134
 20
-113.1271
 30
0.0
 10
179.6599
 20
-112.8426
 30
0.0
 10
179.6599
 20
-112.8426
 30
0.0
 10
179.6599
 20
-112.8426
 30
0.0
 10
179.6599
 20
-112.8426
 30
0.0
 10
178.9025
 20
-105.5035
 30
0.0
 10
178.9025
 20
-105.5035
 30
0.0
 10
178.9025
 20
-105.5035
 30
0.0
 10
194.8594
 20
-102.9738
 30
0.0
 10
209.2434
 20
-101.9871
 30
0.0
 10
208.7406
 20
-111.8027
 30
0.0
 10
208.7406
 20
-111.8027
 30
0.0
 10
208.7406
 20
-111.8027
 30
0.0
 10
188.2964
 20
-113.6857
 30
0.0
 10
188.2964
 20
-113.6857
 30
0.0
 10
188.2964
 20
-113.6857
 30
0.0
 10
188.2964
 20
-113.6857
 30
0.0
 10
188.6641
 20
-115.9588
 30
0.0
 10
188.6641
 20
-115.9588
 30
0.0
 10
188.6641
 20
-115.9588
 30
0.0
 10
188.6641
 20
-115.9588
 30
0.0
 10
209.059
 20
-113.9848
 30
0.0
 10
209.059
 20
-113.9848
 30
0.0
 10
209.059
 20
-113.9848
 30
0.0
 10
209.059
 20
-113.9848
 30
0.0
 10
209.1587
 20
-117.2873
 30
0.0
 10
209.1587
 20
-117.2873
 30
0.0
 10
209.1587
 20
-117.2873
 30
0.0
 10
192.8256
 20
-118.3671
 30
0.0
 10
174.3878
 20
-123.3326
 30
0.0
 10
160.1594
 20
-120.5269
 30
0.0
 10
160.1594
 20
-120.5269
 30
0.0
 10
134.031
 20
-101.7483
 30
0.0
 10
138.247
 20
-75.57260000000001
 30
0.0
 10
148.8903
 20
-46.6712
 30
0.0
  0
ENDSEC
  0
SECTION
  2
OBJECTS
  0
DICTIONARY
  5
C
330
0
100
AcDbDictionary
281
     1
  3
ACAD_GROUP
350
D
  3
ACAD_IMAGE_DICT
350
2C
  3
ACAD_LAYOUT
350
1A
  3
ACAD_MLINESTYLE
350
17
  3
ACAD_PLOTSETTINGS
350
19
  3
ACAD_PLOTSTYLENAME
350
E
  0
IMAGEDEF_REACTOR
  5
2F
330
2E
100
AcDbRasterImageDefReactor
 90
        2
330
2E
  0
DICTIONARY
  5
D
102
{ACAD_REACTORS
330
C
102
}
330
C
100
AcDbDictionary
281
     1
  0
DICTIONARY
  5
2C
102
{ACAD_REACTORS
330
C
102
}
330
C
100
AcDbDictionary
281
     1
  3
Image #1
350
2D
  0
DICTIONARY
  5
1A
102
{ACAD_REACTORS
330
C
102
}
330
C
100
AcDbDictionary
281
     1
  3
Layout1
350
1E
  3
Layout2
350
26
  3
Model
350
22
  0
DICTIONARY
  5
17
102
{ACAD_REACTORS
330
C
102
}
330
C
100
AcDbDictionary
281
     1
  3
Standard
350
18
  0
DICTIONARY
  5
19
102
{ACAD_REACTORS
330
C
102
}
330
C
100
AcDbDictionary
281
     1
  0
ACDBDICTIONARYWDFLT
  5
E
102
{ACAD_REACTORS
330
C
102
}
330
C
100
AcDbDictionary
281
     1
  3
Normal
350
F
100
AcDbDictionaryWithDefault
340
F
  0
IMAGEDEF
  5
2D
102
{ACAD_REACTORS
330
2C
330
2F
102
}
330
2C
100
AcDbRasterImageDef
 90
        0
  1
C:\\Documents and Settings\\User\\Desktop\\ARQUIVOS DXF\\projetos DXF\\Animais puzzles\\Cobra\\cobra_ACD_0.jpg
 10
13054.0
 20
19987.0
 11
7.660487206986364E-5
 21
7.660487206986364E-5
280
     1
281
     5
  0
LAYOUT
  5
1E
102
{ACAD_REACTORS
330
1A
102
}
330
1A
100
AcDbPlotSettings
  1

  2

  4

  6

 40
0.0
 41
0.0
 42
0.0
 43
0.0
 44
0.0
 45
0.0
 46
0.0
 47
0.0
 48
0.0
 49
0.0
140
0.0
141
0.0
142
1.0
143
1.0
 70
   688
 72
     0
 73
     0
 74
     5
  7

 75
    16
 76
     0
 77
     2
 78
   300
147
1.0
148
0.0
149
0.0
100
AcDbLayout
  1
Layout1
 70
     1
 71
     1
 10
0.0
 20
0.0
 11
12.0
 21
9.0
 12
0.0
 22
0.0
 32
0.0
 14
1.000000000000000E+20
 24
1.000000000000000E+20
 34
1.000000000000000E+20
 15
-1.000000000000000E+20
 25
-1.000000000000000E+20
 35
-1.000000000000000E+20
146
0.0
 13
0.0
 23
0.0
 33
0.0
 16
1.0
 26
0.0
 36
0.0
 17
0.0
 27
1.0
 37
0.0
 76
     0
330
1B
  0
LAYOUT
  5
26
102
{ACAD_REACTORS
330
1A
102
}
330
1A
100
AcDbPlotSettings
  1

  2

  4

  6

 40
0.0
 41
0.0
 42
0.0
 43
0.0
 44
0.0
 45
0.0
 46
0.0
 47
0.0
 48
0.0
 49
0.0
140
0.0
141
0.0
142
1.0
143
1.0
 70
   688
 72
     0
 73
     0
 74
     5
  7

 75
    16
 76
     0
 77
     2
 78
   300
147
1.0
148
0.0
149
0.0
100
AcDbLayout
  1
Layout2
 70
     1
 71
     2
 10
0.0
 20
0.0
 11
0.0
 21
0.0
 12
0.0
 22
0.0
 32
0.0
 14
0.0
 24
0.0
 34
0.0
 15
0.0
 25
0.0
 35
0.0
146
0.0
 13
0.0
 23
0.0
 33
0.0
 16
1.0
 26
0.0
 36
0.0
 17
0.0
 27
1.0
 37
0.0
 76
     0
330
23
  0
LAYOUT
  5
22
102
{ACAD_REACTORS
330
1A
102
}
330
1A
100
AcDbPlotSettings
  1

  2

  4

  6

 40
0.0
 41
0.0
 42
0.0
 43
0.0
 44
0.0
 45
0.0
 46
0.0
 47
0.0
 48
0.0
 49
0.0
140
0.0
141
0.0
142
1.0
143
1.0
 70
  1712
 72
     0
 73
     0
 74
     0
  7

 75
     0
 76
     0
 77
     2
 78
   300
147
1.0
148
0.0
149
0.0
100
AcDbLayout
  1
Model
 70
     1
 71
     0
 10
0.0
 20
0.0
 11
0.0
 21
0.0
 12
0.0
 22
0.0
 32
0.0
 14
-98.61369999999999
 24
-140.596
 34
0.0
 15
310.2176
 25
141.3174
 35
0.0
146
0.0
 13
0.0
 23
0.0
 33
0.0
 16
1.0
 26
0.0
 36
0.0
 17
0.0
 27
1.0
 37
0.0
 76
     0
330
1F
  0
MLINESTYLE
  5
18
102
{ACAD_REACTORS
330
17
102
}
330
17
100
AcDbMlineStyle
  2
Standard
 70
     0
  3

 62
   256
 51
90.0
 52
90.0
 71
     2
 49
0.5
 62
   256
  6
BYLAYER
 49
-0.5
 62
   256
  6
BYLAYER
  0
ACDBPLACEHOLDER
  5
F
102
{ACAD_REACTORS
330
E
102
}
330
E
  0
ENDSEC
  0
EOF
