  0
SECTION
  2
HEADER
  9
$ACADVER
  1
AC1006
  9
$DWGCODEPAGE
  3
ansi_1252
  9
$INSBASE
 10
0.0
 20
0.0
 30
0.0
  9
$EXTMIN
 10
0.0257606629635002
 20
0.0091180185397462
  9
$EXTMAX
 10
3.732424744883271
 20
4.001131358170985
  9
$LIMMIN
 10
0.0
 20
0.0
  9
$LIMMAX
 10
12.0
 20
9.0
  9
$ORTHOMODE
 70
     0
  9
$REGENMODE
 70
     1
  9
$FILLMODE
 70
     1
  9
$QTEXTMODE
 70
     0
  9
$MIRRTEXT
 70
     1
  9
$DRAGMODE
 70
     2
  9
$LTSCALE
 40
1.0
  9
$OSMODE
 70
    37
  9
$ATTMODE
 70
     1
  9
$TEXTSIZE
 40
0.2
  9
$TRACEWID
 40
0.05
  9
$TEXTSTYLE
  7
STANDARD
  9
$CLAYER
  8
2
  9
$CELTYPE
  6
BYBLOCK
  9
$CECOLOR
 62
     2
  9
$DIMSCALE
 40
1.0
  9
$DIMASZ
 40
0.18
  9
$DIMEXO
 40
0.0625
  9
$DIMDLI
 40
0.38
  9
$DIMRND
 40
0.0
  9
$DIMDLE
 40
0.0
  9
$DIMEXE
 40
0.18
  9
$DIMTP
 40
0.0
  9
$DIMTM
 40
0.0
  9
$DIMTXT
 40
0.18
  9
$DIMCEN
 40
0.09
  9
$DIMTSZ
 40
0.0
  9
$DIMTOL
 70
     0
  9
$DIMLIM
 70
     0
  9
$DIMTIH
 70
     1
  9
$DIMTOH
 70
     1
  9
$DIMSE1
 70
     0
  9
$DIMSE2
 70
     0
  9
$DIMTAD
 70
     0
  9
$DIMZIN
 70
     0
  9
$DIMBLK
  1

  9
$DIMASO
 70
     1
  9
$DIMSHO
 70
     1
  9
$DIMPOST
  1

  9
$DIMAPOST
  1

  9
$DIMALT
 70
     0
  9
$DIMALTD
 70
     2
  9
$DIMALTF
 40
25.4
  9
$DIMLFAC
 40
1.0
  9
$DIMTOFL
 70
     0
  9
$DIMTVP
 40
0.0
  9
$DIMTIX
 70
     0
  9
$DIMSOXD
 70
     0
  9
$DIMSAH
 70
     0
  9
$DIMBLK1
  1

  9
$DIMBLK2
  1

  9
$LUNITS
 70
     2
  9
$LUPREC
 70
     4
  9
$SKETCHINC
 40
0.1
  9
$FILLETRAD
 40
0.5
  9
$AUNITS
 70
     0
  9
$AUPREC
 70
     0
  9
$MENU
  1
.
  9
$ELEVATION
 40
0.0
  9
$THICKNESS
 40
0.0
  9
$LIMCHECK
 70
     0
  9
$CHAMFERA
 40
0.5
  9
$CHAMFERB
 40
0.5
  9
$SKPOLY
 70
     0
  9
$TDCREATE
 40
2453353.508792488
  9
$TDUPDATE
 40
2440915.853035556
  9
$TDINDWG
 40
2440772.066245926
  9
$TDUSRTIMER
 40
2440772.066245926
  9
$USRTIMER
 70
     1
  9
$ANGBASE
 50
0.0
  9
$ANGDIR
 70
     0
  9
$PDMODE
 70
     0
  9
$PDSIZE
 40
0.0
  9
$PLINEWID
 40
0.0
  9
$COORDS
 70
     1
  9
$SPLFRAME
 70
     0
  9
$SPLINETYPE
 70
     6
  9
$SPLINESEGS
 70
     8
  9
$ATTDIA
 70
     0
  9
$ATTREQ
 70
     1
  9
$HANDLING
 70
     1
  9
$HANDSEED
  5
576
  9
$SURFTAB1
 70
     6
  9
$SURFTAB2
 70
     6
  9
$SURFTYPE
 70
     6
  9
$SURFU
 70
     6
  9
$SURFV
 70
     6
  9
$UCSNAME
  2

  9
$UCSORG
 10
0.0
 20
0.0
 30
0.0
  9
$UCSXDIR
 10
1.0
 20
0.0
 30
0.0
  9
$UCSYDIR
 10
0.0
 20
1.0
 30
0.0
  9
$USERI1
 70
     0
  9
$USERI2
 70
     0
  9
$USERI3
 70
     0
  9
$USERI4
 70
     0
  9
$USERI5
 70
     0
  9
$USERR1
 40
0.0
  9
$USERR2
 40
0.0
  9
$USERR3
 40
0.0
  9
$USERR4
 40
0.0
  9
$USERR5
 40
0.0
  9
$WORLDVIEW
 70
     1
  0
ENDSEC
  0
SECTION
  2
TABLES
  0
TABLE
  2
VPORT
 70
     1
  0
VPORT
  2
*ACTIVE
 70
     0
 10
0.0
 20
0.0
 11
1.0
 21
1.0
 12
1.787364754082297
 22
1.991921771338875
 13
0.0
 23
0.0
 14
0.5
 24
0.5
 15
0.5
 25
0.5
 16
0.0
 26
0.0
 36
1.0
 17
0.0
 27
0.0
 37
0.0
 40
4.051761057543355
 41
1.972972972850329
 42
50.0
 43
0.0
 44
0.0
 50
0.0
 51
0.0
 71
    16
 72
   100
 73
     1
 74
     1
 75
     0
 76
     0
 77
     0
 78
     0
  0
ENDTAB
  0
TABLE
  2
LTYPE
 70
     1
  0
LTYPE
  2
CONTINUOUS
 70
     0
  3
Solid line
 72
    65
 73
     0
 40
0.0
  0
ENDTAB
  0
TABLE
  2
LAYER
 70
     3
  0
LAYER
  2
0
 70
     0
 62
     7
  6
CONTINUOUS
  0
LAYER
  2
1
 70
     0
 62
     7
  6
CONTINUOUS
  0
LAYER
  2
2
 70
     0
 62
     7
  6
CONTINUOUS
  0
ENDTAB
  0
TABLE
  2
STYLE
 70
     1
  0
STYLE
  2
STANDARD
 70
     0
 40
0.0
 41
1.0
 50
0.0
 71
     0
 42
0.2
  3
txt
  4

  0
ENDTAB
  0
TABLE
  2
VIEW
 70
     0
  0
ENDTAB
  0
TABLE
  2
UCS
 70
     0
  0
ENDTAB
  0
ENDSEC
  0
SECTION
  2
BLOCKS
  0
ENDSEC
  0
SECTION
  2
ENTITIES
  0
LINE
  5
2DB
  8
2
 62
     2
 10
1.056091151760483
 20
2.218588465690099
 30
0.0
 11
1.055869773711363
 21
1.968247455828947
 31
0.0
  0
LINE
  5
2DC
  8
2
 62
     2
 10
1.054196062171179
 20
1.964502422171246
 30
0.0
 11
1.01323280491747
 21
1.892815941328215
 31
0.0
  0
LINE
  5
2DD
  8
2
 62
     2
 10
1.009878095779401
 20
1.888424530266002
 30
0.0
 11
0.9811627015190693
 21
1.859709136005671
 31
0.0
  0
LINE
  5
2E1
  8
2
 62
     2
 10
0.8775906294116657
 20
1.115002195883262
 30
0.0
 11
1.049218491508786
 21
0.8443582594993404
 31
0.0
  0
LINE
  5
2E3
  8
2
 62
     2
 10
0.5065846828781552
 20
0.0801538861422729
 30
0.0
 11
0.6230641948274845
 21
0.1200212349901154
 31
0.0
  0
LINE
  5
2E5
  8
2
 62
     2
 10
0.7687297118160786
 20
0.3197077671591957
 30
0.0
 11
1.218247858100977
 21
0.4779381546514797
 31
0.0
  0
LINE
  5
2FD
  8
2
 62
     2
 10
1.610640313916673
 20
0.4832975440540456
 30
0.0
 11
1.564973088707719
 21
0.4432394583389206
 31
0.0
  0
LINE
  5
2FE
  8
2
 62
     2
 10
1.67472941395226
 20
0.1493725041516588
 30
0.0
 11
1.664462037684002
 21
0.1105787826714385
 31
0.0
  0
LINE
  5
2FF
  8
2
 62
     2
 10
1.825025577387807
 20
0.0905658529343777
 30
0.0
 11
1.851144284345357
 21
0.1401030477746844
 31
0.0
  0
LINE
  5
300
  8
2
 62
     2
 10
1.851144284345357
 20
0.1401030477746844
 30
0.0
 11
1.868328700028541
 21
0.2095024179606664
 31
0.0
  0
LINE
  5
301
  8
2
 62
     2
 10
1.86844944041328
 20
0.2101623266151919
 30
0.0
 11
1.889010217333601
 21
0.363318846525985
 31
0.0
  0
LINE
  5
316
  8
2
 62
     2
 10
2.607628622997299
 20
2.767289252221354
 30
0.0
 11
2.692413051838455
 21
2.822837490362574
 31
0.0
  0
LINE
  5
317
  8
2
 62
     2
 10
2.692413051838455
 20
2.822837490362574
 30
0.0
 11
2.768309833166589
 21
2.855364533665291
 31
0.0
  0
LINE
  5
318
  8
2
 62
     2
 10
2.768309833166589
 20
2.855364533665291
 30
0.0
 11
2.851113578690876
 21
2.96319242921972
 31
0.0
  0
LINE
  5
322
  8
2
 62
     2
 10
2.0083456498671
 20
3.345779946074447
 30
0.0
 11
1.968963992125932
 21
3.383601748545277
 31
0.0
  0
LINE
  5
32B
  8
2
 62
     2
 10
2.036393855758086
 20
3.791472053188663
 30
0.0
 11
1.935673291895855
 21
3.841666576902605
 31
0.0
  0
ARC
  5
33C
  8
2
 62
     2
 10
1.847915248084449
 20
0.2135846920033306
 30
0.0
 40
0.020817307713739
 50
348.6906660000001
 51
350.5373940000001
  0
ARC
  5
33D
  8
2
 62
     2
 10
1.582759479455844
 20
0.6772812741721651
 30
0.0
 40
0.1959771121349923
 50
278.1789777882165
 51
332.5551301876218
  0
ARC
  5
352
  8
2
 62
     2
 10
0.8854172496431432
 20
0.8370061565132435
 30
0.0
 40
0.163966155822002
 50
333.7286754889792
 51
2.569955689116374
  0
ARC
  5
355
  8
2
 62
     2
 10
0.9951581774950158
 20
1.903144448550387
 30
0.0
 40
0.0208173077137388
 50
315.0
 51
330.25528
  0
ARC
  5
356
  8
2
 62
     2
 10
1.036121434748725
 20
1.974829888528031
 30
0.0
 40
0.0208173077137385
 50
330.2552800000001
 51
341.5645269999999
  0
ARC
  5
357
  8
2
 62
     2
 10
1.367545941382021
 20
3.360448189834297
 30
0.0
 40
0.3669893160011311
 50
209.3877869014307
 51
253.7537119547727
  0
ARC
  5
35D
  8
2
 62
     2
 10
1.318681324418079
 20
3.712747671175962
 30
0.0
 40
0.257665819685072
 50
107.8093795383951
 51
174.3355332760204
  0
ARC
  5
360
  8
2
 62
     2
 10
1.48959128147404
 20
3.312962866673128
 30
0.0
 40
0.6917490681109605
 50
49.84474388917991
 51
111.1612611442933
  0
ARC
  5
361
  8
2
 62
     2
 10
3.092079865113865
 20
3.017856567734971
 30
0.0
 40
0.6404362690938668
 50
340.4330214017186
 51
21.50287701479471
  0
ARC
  5
362
  8
2
 62
     2
 10
3.101514875838449
 20
4.097622650353205
 30
0.0
 40
1.00665207592606
 50
274.3953761642862
 51
303.6268944125893
  0
ARC
  5
363
  8
2
 62
     2
 10
2.950084260895034
 20
1.531617752526167
 30
0.0
 40
1.450595938148634
 50
60.75017880661834
 51
80.84921132919099
  0
ARC
  5
364
  8
2
 62
     2
 10
3.670681564697085
 20
3.244204115639209
 30
0.0
 40
0.0191961642806088
 50
25.96061085407477
 51
127.5551161459216
  0
ARC
  5
365
  8
2
 62
     2
 10
3.674056131044871
 20
2.819188185660948
 30
0.0
 40
0.0266726882313015
 50
235.3010021083361
 51
323.6236423077182
  0
ARC
  5
36C
  8
2
 62
     2
 10
2.016515239583574
 20
3.723284699934051
 30
0.0
 40
0.0710258722219094
 50
315.7539710664645
 51
73.74704531402048
  0
LINE
  5
36D
  8
2
 62
     2
 10
0.6230641948274845
 20
0.1200212349901154
 30
0.0
 11
0.7687297118160786
 21
0.3197077671591957
 31
0.0
  0
LINE
  5
36F
  8
2
 62
     2
 10
1.960284538656832
 20
3.136572019953198
 30
0.0
 11
2.447073300055536
 21
3.112689940894795
 31
0.0
  0
LINE
  5
370
  8
2
 62
     2
 10
3.178663245954917
 20
3.093931198285081
 30
0.0
 11
2.838421761494132
 21
3.093673007986014
 31
0.0
  0
LINE
  5
371
  8
2
 62
     2
 10
3.180777287641132
 20
2.963752279441861
 30
0.0
 11
2.851113578690876
 21
2.96319242921972
 31
0.0
  0
LINE
  5
374
  8
2
 62
     2
 10
0.9833402541384628
 20
3.399893794548183
 30
0.0
 11
1.006091192532113
 21
3.322155394417147
 31
0.0
  0
ARC
  5
377
  8
2
 62
     2
 10
0.8328560915514358
 20
3.194194897403727
 30
0.0
 40
0.2153701209724943
 50
356.3168875595574
 51
36.45151207035753
  0
ARC
  5
378
  8
2
 62
     2
 10
1.297192897878484
 20
3.505013496910412
 30
0.0
 40
0.3309888726336945
 50
135.2145418880707
 51
198.5174134991367
  0
ARC
  5
37C
  8
2
 62
     2
 10
1.316338520125969
 20
1.433538330616881
 30
0.0
 40
0.5421853748832456
 50
128.1843817800826
 51
215.980091417964
  0
ARC
  5
37E
  8
2
  6
BYBLOCK
 62
     2
 10
1.949892519643409
 20
2.975682117054958
 30
0.0
 40
0.6899596856112075
 50
274.2486390395284
 51
342.420051350003
  0
ARC
  5
37F
  8
2
  6
BYBLOCK
 62
     2
 10
0.0886601219737926
 20
2.976881913739074
 30
0.0
 40
0.0688970768069103
 50
55.92122902709641
 51
205.9133820901701
  0
ARC
  5
380
  8
2
  6
BYBLOCK
 62
     2
 10
1.034787022278847
 20
3.280172328460206
 30
0.0
 40
1.061797609540948
 50
198.3001600786757
 51
271.1496716591718
  0
ARC
  5
381
  8
2
  6
BYBLOCK
 62
     2
 10
0.7191220203335331
 20
3.837722257401587
 30
0.0
 40
0.9981726835920344
 50
233.634071712157
 51
267.0643584804503
  0
ARC
  5
382
  8
2
  6
BYBLOCK
 62
     2
 10
1.22608815311906
 20
2.948536416961342
 30
0.0
 40
0.0710901539903338
 50
248.6168400559879
 51
56.93474051165796
  0
ARC
  5
384
  8
2
  6
BYBLOCK
 62
     2
 10
2.383632309947796
 20
0.5623637248850378
 30
0.0
 40
0.6274341662821187
 50
138.4235263621747
 51
177.75367881195
  0
ARC
  5
385
  8
2
  6
BYBLOCK
 62
     2
 10
1.590267002984242
 20
-0.6852149989915276
 30
0.0
 40
1.553266495260754
 50
111.0465934492846
 51
122.6074985311452
  0
ARC
  5
386
  8
2
  6
BYBLOCK
 62
     2
 10
0.625102245487184
 20
0.8533867995483966
 30
0.0
 40
0.2634243683278989
 50
264.5084636311738
 51
299.1065493377329
  0
ARC
  5
387
  8
2
  6
BYBLOCK
 62
     2
 10
0.6193707556517187
 20
0.5261724610910304
 30
0.0
 40
0.0678546795543475
 50
106.6816000775529
 51
161.3082279119388
  0
ARC
  5
388
  8
2
  6
BYBLOCK
 62
     2
 10
1.318415864277147
 20
0.1595197181904353
 30
0.0
 40
0.3564580082349505
 50
358.3687529074144
 51
45.863618444364
  0
ARC
  5
389
  8
2
  6
BYBLOCK
 62
     2
 10
1.58868650609942
 20
0.4306605652446017
 30
0.0
 40
0.0268431502598213
 50
152.0560761402448
 51
214.7916663496162
  0
ARC
  5
38A
  8
2
  6
BYBLOCK
 62
     2
 10
1.900741343811538
 20
4.076003217205952
 30
0.0
 40
1.384064482381716
 50
205.3716596587985
 51
239.5909033446815
  0
ARC
  5
38B
  8
2
  6
BYBLOCK
 62
     2
 10
1.377743857463083
 20
3.30050087477039
 30
0.0
 40
0.8455794172550489
 50
168.8648507058873
 51
212.9277865958653
  0
ARC
  5
38C
  8
2
  6
BYBLOCK
 62
     2
 10
0.6027525882456744
 20
3.454048900888368
 30
0.0
 40
0.0555328375393692
 50
31.35865504305288
 51
169.8843031554099
  0
ARC
  5
38D
  8
2
  6
BYBLOCK
 62
     2
 10
0.5037419769332356
 20
0.1460615519363275
 30
0.0
 40
0.0659689425980897
 50
131.1330885893318
 51
272.4697303833718
  0
ARC
  5
38E
  8
2
  6
BYBLOCK
 62
     2
 10
0.0571987868430148
 20
0.4930420771471677
 30
0.0
 40
0.5009111935378717
 50
323.5937988231979
 51
6.289539611941773
  0
LINE
  5
3A4
  8
2
 62
     2
 10
1.789729832159164
 20
0.0199754033424757
 30
0.0
 11
1.825025577387807
 21
0.0905658529343777
 31
0.0
  0
ARC
  5
3A5
  8
2
  6
BYBLOCK
 62
     2
 10
1.781377695817962
 20
0.125863521578835
 30
0.0
 40
0.1179105354086911
 50
187.4482101012034
 51
261.939006654255
  0
ARC
  5
3A6
  8
2
 62
     2
 10
1.770524848764599
 20
0.0300458174249779
 30
0.0
 40
0.0216852775589757
 50
254.8115765737217
 51
332.331044489033
  0
CIRCLE
  5
3A7
  8
1
  6
BYBLOCK
 62
     1
 10
1.494321977644647
 20
3.831153113598911
 30
0.0
 40
0.059493689447538
  0
LINE
  5
3AD
  8
1
 62
     1
 10
2.418618616460436
 20
3.001578016988892
 30
0.0
 11
2.421204616153734
 21
2.88698374626971
 31
0.0
  0
LINE
  5
3BA
  8
1
 62
     1
 10
2.418618616460436
 20
3.001578016988892
 30
0.0
 11
1.928231184249497
 21
3.047255319579685
 31
0.0
  0
ARC
  5
3BB
  8
1
  6
BYBLOCK
 62
     1
 10
2.033849900977302
 20
3.107201157293507
 30
0.0
 40
0.4455775841393262
 50
217.3213129960335
 51
330.3810704519224
  0
ARC
  5
418
  8
2
  6
BYBLOCK
 62
     2
 10
1.989470762560813
 20
3.319998928199168
 30
0.0
 40
0.0319518740218862
 50
295.5524347225947
 51
53.79126774191823
  0
ARC
  5
419
  8
2
  6
BYBLOCK
 62
     2
 10
2.028511454499456
 20
3.233531257481012
 30
0.0
 40
0.0629323679577651
 50
113.6633590580138
 51
182.403093907454
  0
ARC
  5
41E
  8
2
  6
BYBLOCK
 62
     2
 10
1.773631868700091
 20
3.194471003558194
 30
0.0
 40
0.1954264861897488
 50
342.7662988260307
 51
10.74098414705105
  0
ARC
  5
423
  8
2
  6
BYBLOCK
 62
     2
 10
2.011309674388961
 20
2.244524456983429
 30
0.0
 40
0.0443082185222941
 50
103.4442582302527
 51
167.9547772320169
  0
ARC
  5
42C
  8
2
  6
BYBLOCK
 62
     2
 10
1.919056804795548
 20
1.724217588410452
 30
0.0
 40
0.7454919518659131
 50
234.7309799678118
 51
269.6318882397745
  0
ARC
  5
42E
  8
2
  6
BYBLOCK
 62
     2
 10
1.028423196928591
 20
0.8513555287507884
 30
0.0
 40
0.4736264461727294
 50
336.5056522453241
 51
28.48004847038643
  0
ARC
  5
42F
  8
2
  6
BYBLOCK
 62
     2
 10
1.103551574160437
 20
0.8841411934046173
 30
0.0
 40
0.4220854726735471
 50
285.7676608348688
 51
328.3307923123451
  0
ARC
  5
437
  8
2
  6
BYBLOCK
 62
     2
 10
1.468494133677968
 20
1.094291584090712
 30
0.0
 40
0.0292664990229698
 50
46.61385830244039
 51
215.7187886233831
  0
ARC
  5
43B
  8
2
  6
BYBLOCK
 62
     2
 10
0.9451331668707347
 20
2.150969063940381
 30
0.0
 40
1.027996924933398
 50
322.9943909464909
 51
5.739288220581119
  0
ARC
  5
449
  8
2
  6
BYBLOCK
 62
     2
 10
0.9778761816150599
 20
1.404863857197242
 30
0.0
 40
1.383828472137694
 50
311.1791371014093
 51
339.6403691957145
  0
ARC
  5
44B
  8
2
  6
BYBLOCK
 62
     2
 10
1.478240596714515
 20
0.6473525906419385
 30
0.0
 40
0.9305068229300675
 50
33.80994604005296
 51
71.98158414853467
  0
ARC
  5
44D
  8
2
  6
BYBLOCK
 62
     2
 10
1.927649219405185
 20
1.011125522145526
 30
0.0
 40
0.3584994711886541
 50
345.8380724454826
 51
25.43983822243239
  0
ARC
  5
4DA
  8
2
  6
BYBLOCK
 62
     2
 10
2.613534841960161
 20
3.23002070325563
 30
0.0
 40
0.7036650035754831
 50
140.9081989517591
 51
161.041504775026
  0
ARC
  5
4DC
  8
2
  6
BYBLOCK
 62
     2
 10
2.016111451128275
 20
3.437181307141026
 30
0.0
 40
0.0713698254845338
 50
162.5109663904046
 51
228.6537611422177
  0
ARC
  5
521
  8
2
  6
BYBLOCK
 62
     2
 10
2.509458327853109
 20
3.05177442149524
 30
0.0
 40
0.0871928448728548
 50
39.03208484249569
 51
135.6828245693747
  0
ARC
  5
522
  8
2
  6
BYBLOCK
 62
     2
 10
2.63844954204683
 20
3.05204269648538
 30
0.0
 40
0.0820888039107747
 50
35.47123942330411
 51
138.2682708522581
  0
ARC
  5
523
  8
2
  6
BYBLOCK
 62
     2
 10
2.769212725071834
 20
3.037939085748524
 30
0.0
 40
0.0888603444202054
 50
38.84443567599134
 51
135.9895229867378
  0
ARC
  5
56C
  8
1
  6
BYBLOCK
 62
     1
 10
1.747134873346538
 20
3.155281901666383
 30
0.0
 40
0.210868718068839
 50
260.0603584565048
 51
329.1833092215387
  0
LINE
  5
56D
  8
1
  6
BYBLOCK
 62
     1
 10
1.71073669064377
 20
2.947578294196674
 30
0.0
 11
1.679505214301765
 21
2.837054481370494
 31
0.0
  0
ENDSEC
  0
EOF
