  0
SECTION
  2
HEADER
  9
$ACADVER
  1
AC1009
  9
$EXTMIN
 10
0.95086943
 20
1.40727957
 30
0.0
  9
$EXTMAX
 10
19.21135925
 20
16.72126219
 30
0.0
  0
ENDSEC
  0
SECTION
  2
TABLES
  0
TABLE
  2
LAYER
 70
1
 0
LAYER
 2
Default_Layer
 70
0
 62
1
 6
CONTINUOUS
 0
ENDTAB
 0
ENDSEC
  0
SECTION
  2
ENTITIES
  0
POLYLINE
  8
Default_Layer
 66
   1
 39
0.000000
 70
    1
  0
VERTEX
  8
0
 10
2.17459434
 20
4.66080178
  0
VERTEX
  8
0
 10
2.15513735
 20
4.66080178
  0
VERTEX
  8
0
 10
2.18654271
 20
5.45298825
  0
VERTEX
  8
0
 10
2.23945095
 20
6.24978879
  0
VERTEX
  8
0
 10
2.24292483
 20
6.31375938
  0
VERTEX
  8
0
 10
2.22647963
 20
6.37301636
  0
VERTEX
  8
0
 10
2.13721407
 20
6.36065812
  0
VERTEX
  8
0
 10
2.04304102
 20
6.33665047
  0
VERTEX
  8
0
 10
1.95086896
 20
6.32812341
  0
VERTEX
  8
0
 10
1.90769220
 20
6.33814322
  0
VERTEX
  8
0
 10
1.86760637
 20
6.36220692
  0
VERTEX
  8
0
 10
1.81574118
 20
6.43998651
  0
VERTEX
  8
0
 10
1.80274975
 20
6.52867223
  0
VERTEX
  8
0
 10
1.83992494
 20
6.59160757
  0
VERTEX
  8
0
 10
1.90219656
 20
6.62163338
  0
VERTEX
  8
0
 10
2.00312166
 20
6.62135273
  0
VERTEX
  8
0
 10
2.08662537
 20
6.59331636
  0
VERTEX
  8
0
 10
2.15788715
 20
6.54526540
  0
VERTEX
  8
0
 10
2.22208648
 20
6.48494098
  0
VERTEX
  8
0
 10
2.35001567
 20
6.35843632
  0
VERTEX
  8
0
 10
2.42410448
 20
6.30773834
  0
VERTEX
  8
0
 10
2.51184872
 20
6.27573144
  0
VERTEX
  8
0
 10
2.60040966
 20
6.28103335
  0
VERTEX
  8
0
 10
2.68698576
 20
6.31160709
  0
VERTEX
  8
0
 10
2.76598317
 20
6.36423792
  0
VERTEX
  8
0
 10
2.83180801
 20
6.43571108
  0
VERTEX
  8
0
 10
2.90462656
 20
6.58933654
  0
VERTEX
  8
0
 10
2.94638803
 20
6.74053717
  0
VERTEX
  8
0
 10
2.95150596
 20
6.91371477
  0
VERTEX
  8
0
 10
2.92922073
 20
7.08561834
  0
VERTEX
  8
0
 10
2.88309084
 20
7.25306805
  0
VERTEX
  8
0
 10
2.81667480
 20
7.41288405
  0
VERTEX
  8
0
 10
2.70048752
 20
7.60238184
  0
VERTEX
  8
0
 10
2.56976646
 20
7.78316970
  0
VERTEX
  8
0
 10
2.49377233
 20
7.85991995
  0
VERTEX
  8
0
 10
2.40792464
 20
7.92203976
  0
VERTEX
  8
0
 10
2.31015002
 20
7.96537815
  0
VERTEX
  8
0
 10
2.19837509
 20
7.98578413
  0
VERTEX
  8
0
 10
2.17468225
 20
7.86926373
  0
VERTEX
  8
0
 10
2.16450309
 20
7.74580479
  0
VERTEX
  8
0
 10
2.16949861
 20
7.48579940
  0
VERTEX
  8
0
 10
2.18298717
 20
7.22122417
  0
VERTEX
  8
0
 10
2.17459434
 20
6.96753531
  0
VERTEX
  8
0
 10
2.20940412
 20
6.95376601
  0
VERTEX
  8
0
 10
2.23512717
 20
6.96104965
  0
VERTEX
  8
0
 10
2.23275710
 20
7.43196949
  0
VERTEX
  8
0
 10
2.21134642
 20
7.89714676
  0
VERTEX
  8
0
 10
2.30258980
 20
7.87940821
  0
VERTEX
  8
0
 10
2.38454619
 20
7.83393440
  0
VERTEX
  8
0
 10
2.53130571
 20
7.71338636
  0
VERTEX
  8
0
 10
2.71506611
 20
7.46909312
  0
VERTEX
  8
0
 10
2.78858703
 20
7.32113605
  0
VERTEX
  8
0
 10
2.84111926
 20
7.16492076
  0
VERTEX
  8
0
 10
2.87007935
 20
7.00621673
  0
VERTEX
  8
0
 10
2.87288387
 20
6.85079341
  0
VERTEX
  8
0
 10
2.81155170
 20
6.88858401
  0
VERTEX
  8
0
 10
2.77486338
 20
6.89758046
  0
VERTEX
  8
0
 10
2.73452309
 20
6.89186926
  0
VERTEX
  8
0
 10
2.61778119
 20
6.82917454
  0
VERTEX
  8
0
 10
2.52265816
 20
6.90051681
  0
VERTEX
  8
0
 10
2.43490568
 20
6.92546637
  0
VERTEX
  8
0
 10
2.35178690
 20
6.93564013
  0
VERTEX
  8
0
 10
2.27249251
 20
6.92609034
  0
VERTEX
  8
0
 10
2.19621321
 20
6.89186926
  0
VERTEX
  8
0
 10
2.12423728
 20
6.80864985
  0
VERTEX
  8
0
 10
2.07947130
 20
6.71459452
  0
VERTEX
  8
0
 10
1.95579004
 20
6.71598321
  0
VERTEX
  8
0
 10
1.88905228
 20
6.70144865
  0
VERTEX
  8
0
 10
1.83733995
 20
6.67135678
  0
VERTEX
  8
0
 10
1.76798788
 20
6.62367709
  0
VERTEX
  8
0
 10
1.74506815
 20
6.59539936
  0
VERTEX
  8
0
 10
1.73356937
 20
6.55893865
  0
VERTEX
  8
0
 10
1.73676010
 20
6.48416689
  0
VERTEX
  8
0
 10
1.75518824
 20
6.42057788
  0
VERTEX
  8
0
 10
1.84568897
 20
6.30975560
  0
VERTEX
  8
0
 10
1.90162469
 20
6.27266655
  0
VERTEX
  8
0
 10
1.96056751
 20
6.25843634
  0
VERTEX
  8
0
 10
2.07330795
 20
6.27225034
  0
VERTEX
  8
0
 10
2.12214861
 20
6.28150457
  0
VERTEX
  8
0
 10
2.16378490
 20
6.30599786
  0
VERTEX
  8
0
 10
2.06866187
 20
4.73430594
  0
VERTEX
  8
0
 10
2.08454787
 20
4.71275836
  0
VERTEX
  8
0
 10
2.08379508
 20
4.68674442
  0
VERTEX
  8
0
 10
1.44820027
 20
5.07156033
  0
VERTEX
  8
0
 10
1.47248240
 20
5.51496581
  0
VERTEX
  8
0
 10
1.46153409
 20
5.95746839
  0
VERTEX
  8
0
 10
1.42338094
 20
6.40074427
  0
VERTEX
  8
0
 10
1.36604856
 20
6.84646963
  0
VERTEX
  8
0
 10
1.50657122
 20
6.90051681
  0
VERTEX
  8
0
 10
1.60668782
 20
6.96242296
  0
VERTEX
  8
0
 10
1.68781368
 20
7.04369889
  0
VERTEX
  8
0
 10
1.75452482
 20
7.13931879
  0
VERTEX
  8
0
 10
1.81139730
 20
7.24425686
  0
VERTEX
  8
0
 10
1.81441300
 20
7.36524370
  0
VERTEX
  8
0
 10
1.79826711
 20
7.48695152
  0
VERTEX
  8
0
 10
1.75679848
 20
7.59918967
  0
VERTEX
  8
0
 10
1.68384596
 20
7.69176749
  0
VERTEX
  8
0
 10
1.48137264
 20
7.84189133
  0
VERTEX
  8
0
 10
1.36812466
 20
7.89847110
  0
VERTEX
  8
0
 10
1.24498288
 20
7.93822262
  0
VERTEX
  8
0
 10
1.20412977
 20
8.07930142
  0
VERTEX
  8
0
 10
1.17580023
 20
8.22242497
  0
VERTEX
  8
0
 10
1.11959343
 20
8.51112270
  0
VERTEX
  8
0
 10
1.08284135
 20
8.70136876
  0
VERTEX
  8
0
 10
1.06827145
 20
8.78458037
  0
VERTEX
  8
0
 10
1.04825116
 20
8.86351030
  0
VERTEX
  8
0
 10
1.26224925
 20
9.10434703
  0
VERTEX
  8
0
 10
1.48711424
 20
9.33480168
  0
VERTEX
  8
0
 10
1.58035473
 20
9.45128976
  0
VERTEX
  8
0
 10
1.67736030
 20
9.55531417
  0
VERTEX
  8
0
 10
1.64420910
 20
9.42743544
  0
VERTEX
  8
0
 10
1.62933036
 20
9.29975776
  0
VERTEX
  8
0
 10
1.64060822
 20
9.04078504
  0
VERTEX
  8
0
 10
1.66815493
 20
8.94262685
  0
VERTEX
  8
0
 10
1.70546483
 20
8.86134841
  0
VERTEX
  8
0
 10
1.83085429
 20
8.72731141
  0
VERTEX
  8
0
 10
1.73889096
 20
8.67515594
  0
VERTEX
  8
0
 10
1.70578102
 20
8.63291980
  0
VERTEX
  8
0
 10
1.68384596
 20
8.58030309
  0
VERTEX
  8
0
 10
1.69816039
 20
8.50615836
  0
VERTEX
  8
0
 10
1.73526656
 20
8.44244860
  0
VERTEX
  8
0
 10
1.84598750
 20
8.34898117
  0
VERTEX
  8
0
 10
1.91922824
 20
8.31099831
  0
VERTEX
  8
0
 10
1.99914182
 20
8.28626674
  0
VERTEX
  8
0
 10
2.16162301
 20
8.27547701
  0
VERTEX
  8
0
 10
2.17027056
 20
8.12414491
  0
VERTEX
  8
0
 10
2.19675498
 20
8.10463501
  0
VERTEX
  8
0
 10
2.22647963
 20
8.10684981
  0
VERTEX
  8
0
 10
2.23575853
 20
8.21804315
  0
VERTEX
  8
0
 10
2.23512717
 20
8.33384796
  0
VERTEX
  8
0
 10
2.18675794
 20
8.35465371
  0
VERTEX
  8
0
 10
2.13311626
 20
8.34927289
  0
VERTEX
  8
0
 10
2.07751381
 20
8.34104385
  0
VERTEX
  8
0
 10
2.02326224
 20
8.35330494
  0
VERTEX
  8
0
 10
1.93954806
 20
8.38005219
  0
VERTEX
  8
0
 10
1.86588683
 20
8.42072142
  0
VERTEX
  8
0
 10
1.80875905
 20
8.47740581
  0
VERTEX
  8
0
 10
1.77464522
 20
8.55219855
  0
VERTEX
  8
0
 10
1.77032145
 20
8.61705517
  0
VERTEX
  8
0
 10
1.83389821
 20
8.63839904
  0
VERTEX
  8
0
 10
1.89788870
 20
8.64148509
  0
VERTEX
  8
0
 10
1.96241171
 20
8.62533004
  0
VERTEX
  8
0
 10
2.02758601
 20
8.58895064
  0
VERTEX
  8
0
 10
2.10777162
 20
8.51218581
  0
VERTEX
  8
0
 10
2.15162444
 20
8.48095069
  0
VERTEX
  8
0
 10
2.21350830
 20
8.47437062
  0
VERTEX
  8
0
 10
2.26593716
 20
8.78971043
  0
VERTEX
  8
0
 10
2.28734661
 20
9.10379743
  0
VERTEX
  8
0
 10
2.30642711
 20
9.41664465
  0
VERTEX
  8
0
 10
2.35186908
 20
9.72826514
  0
VERTEX
  8
0
 10
2.36800021
 20
10.04661350
  0
VERTEX
  8
0
 10
2.39078305
 20
10.35737428
  0
VERTEX
  8
0
 10
2.41188152
 20
10.39002526
  0
VERTEX
  8
0
 10
2.44699211
 20
10.40061202
  0
VERTEX
  8
0
 10
2.56810792
 20
10.37073496
  0
VERTEX
  8
0
 10
2.67831403
 20
10.34440296
  0
VERTEX
  8
0
 10
2.72865371
 20
10.32546269
  0
VERTEX
  8
0
 10
2.76911329
 20
10.30332710
  0
VERTEX
  8
0
 10
3.21446203
 20
10.13253802
  0
VERTEX
  8
0
 10
3.52361188
 20
10.01147235
  0
VERTEX
  8
0
 10
3.62305869
 20
9.97472027
  0
VERTEX
  8
0
 10
3.89587055
 20
9.86242042
  0
VERTEX
  8
0
 10
4.15272103
 20
9.74988401
  0
VERTEX
  8
0
 10
4.36242408
 20
9.66124664
  0
VERTEX
  8
0
 10
4.51391229
 20
9.60744459
  0
VERTEX
  8
0
 10
4.64995506
 20
9.55099039
  0
VERTEX
  8
0
 10
4.98504756
 20
9.43424849
  0
VERTEX
  8
0
 10
5.14427490
 20
9.36698948
  0
VERTEX
  8
0
 10
5.30068308
 20
9.30237338
  0
VERTEX
  8
0
 10
5.51843021
 20
9.22130402
  0
VERTEX
  8
0
 10
5.62088213
 20
9.17559951
  0
VERTEX
  8
0
 10
5.70063219
 20
9.11645109
  0
VERTEX
  8
0
 10
5.75698370
 20
8.93514448
  0
VERTEX
  8
0
 10
5.84803220
 20
8.77213587
  0
VERTEX
  8
0
 10
5.90951340
 20
8.70216780
  0
VERTEX
  8
0
 10
5.98320354
 20
8.64238362
  0
VERTEX
  8
0
 10
6.07028086
 20
8.59465312
  0
VERTEX
  8
0
 10
6.17192358
 20
8.56084610
  0
VERTEX
  8
0
 10
6.24395839
 20
8.56497493
  0
VERTEX
  8
0
 10
6.31677002
 20
8.57165554
  0
VERTEX
  8
0
 10
6.46223805
 20
8.61035376
  0
VERTEX
  8
0
 10
6.59424252
 20
8.68158136
  0
VERTEX
  8
0
 10
6.71776444
 20
8.75837889
  0
VERTEX
  8
0
 10
6.83778481
 20
8.81378689
  0
VERTEX
  8
0
 10
7.06910673
 20
8.73595896
  0
VERTEX
  8
0
 10
7.12879689
 20
8.72804591
  0
VERTEX
  8
0
 10
7.17503919
 20
8.71217820
  0
VERTEX
  8
0
 10
7.23030930
 20
8.69425497
  0
VERTEX
  8
0
 10
7.28097166
 20
8.67758801
  0
VERTEX
  8
0
 10
7.58363586
 20
8.59543630
  0
VERTEX
  8
0
 10
7.37897868
 20
8.08769130
  0
VERTEX
  8
0
 10
7.28241648
 20
7.82954894
  0
VERTEX
  8
0
 10
7.20530561
 20
7.57070181
  0
VERTEX
  8
0
 10
7.14521145
 20
7.33947307
  0
VERTEX
  8
0
 10
7.09072560
 20
7.10373420
  0
VERTEX
  8
0
 10
6.98647481
 20
6.40843739
  0
VERTEX
  8
0
 10
6.93290784
 20
5.72012646
  0
VERTEX
  8
0
 10
6.55352630
 20
5.65562772
  0
VERTEX
  8
0
 10
6.36562795
 20
5.61848880
  0
VERTEX
  8
0
 10
6.17840924
 20
5.56663247
  0
VERTEX
  8
0
 10
6.06815300
 20
5.54285171
  0
VERTEX
  8
0
 10
5.95468179
 20
5.51368540
  0
VERTEX
  8
0
 10
5.84547863
 20
5.47367133
  0
VERTEX
  8
0
 10
4.92667661
 20
5.24234941
  0
VERTEX
  8
0
 10
4.68866403
 20
5.19057370
  0
VERTEX
  8
0
 10
4.57466700
 20
5.16349545
  0
VERTEX
  8
0
 10
4.45970900
 20
5.14938826
  0
VERTEX
  8
0
 10
4.33864332
 20
5.65526984
  0
VERTEX
  8
0
 10
4.54713258
 20
5.40467086
  0
VERTEX
  8
0
 10
4.67601733
 20
5.30693675
  0
VERTEX
  8
0
 10
4.75352158
 20
5.27761046
  0
VERTEX
  8
0
 10
4.84236302
 20
5.26613016
  0
VERTEX
  8
0
 10
4.88103717
 20
5.29370827
  0
VERTEX
  8
0
 10
4.90945775
 20
5.33411954
  0
VERTEX
  8
0
 10
4.93316227
 20
5.41746226
  0
VERTEX
  8
0
 10
4.92019095
 20
5.45205245
  0
VERTEX
  8
0
 10
4.66024775
 20
5.82200176
  0
VERTEX
  8
0
 10
4.36242408
 20
6.15034199
  0
VERTEX
  8
0
 10
4.11521307
 20
6.35838119
  0
VERTEX
  8
0
 10
3.97750538
 20
6.44807014
  0
VERTEX
  8
0
 10
3.82627608
 20
6.50272958
  0
VERTEX
  8
0
 10
3.77897954
 20
6.45400160
  0
VERTEX
  8
0
 10
3.75623294
 20
6.39477448
  0
VERTEX
  8
0
 10
3.75925758
 20
6.26492200
  0
VERTEX
  8
0
 10
3.77863419
 20
6.20315800
  0
VERTEX
  8
0
 10
3.80249532
 20
6.13520878
  0
VERTEX
  8
0
 10
4.01868403
 20
5.49529020
  0
VERTEX
  8
0
 10
4.05327422
 20
5.37638641
  0
VERTEX
  8
0
 10
4.09435008
 20
5.19911166
  0
VERTEX
  8
0
 10
4.10083574
 20
5.07804599
  0
VERTEX
  8
0
 10
4.04097576
 20
5.07332421
  0
VERTEX
  8
0
 10
4.01361449
 20
5.08035559
  0
VERTEX
  8
0
 10
3.99706516
 20
5.09966486
  0
VERTEX
  8
0
 10
3.91042448
 20
5.20986181
  0
VERTEX
  8
0
 10
3.80681909
 20
5.30504413
  0
VERTEX
  8
0
 10
3.63112653
 20
5.46471060
  0
VERTEX
  8
0
 10
3.56007025
 20
5.55662096
  0
VERTEX
  8
0
 10
3.51064056
 20
5.66391739
  0
VERTEX
  8
0
 10
3.44823888
 20
5.81261553
  0
VERTEX
  8
0
 10
3.37660356
 20
5.94280083
  0
VERTEX
  8
0
 10
3.24386983
 20
6.10037253
  0
VERTEX
  8
0
 10
3.16278782
 20
6.16236380
  0
VERTEX
  8
0
 10
3.06745371
 20
6.20006539
  0
VERTEX
  8
0
 10
2.97002551
 20
6.15930590
  0
VERTEX
  8
0
 10
2.93603729
 20
6.12681261
  0
VERTEX
  8
0
 10
2.91612161
 20
6.08764726
  0
VERTEX
  8
0
 10
2.88718952
 20
6.00127077
  0
VERTEX
  8
0
 10
2.87289526
 20
5.91255718
  0
VERTEX
  8
0
 10
2.87763907
 20
5.73211863
  0
VERTEX
  8
0
 10
2.94638803
 20
5.38719584
  0
VERTEX
  8
0
 10
3.02205408
 20
5.22073054
  0
VERTEX
  8
0
 10
3.12739308
 20
5.05581995
  0
VERTEX
  8
0
 10
3.23175713
 20
4.89644747
  0
VERTEX
  8
0
 10
2.17459434
 20
4.66080178
  0
SEQEND
  0
POLYLINE
  8
Default_Layer
 66
   1
 39
0.000000
 70
    1
  0
VERTEX
  8
0
 10
12.53788441
 20
1.61729056
  0
VERTEX
  8
0
 10
11.98630506
 20
1.61986095
  0
VERTEX
  8
0
 10
11.71627979
 20
1.61569828
  0
VERTEX
  8
0
 10
11.47035492
 20
1.58763696
  0
VERTEX
  8
0
 10
11.43795631
 20
1.75275206
  0
VERTEX
  8
0
 10
11.44200602
 20
1.84324340
  0
VERTEX
  8
0
 10
11.47035492
 20
1.91382653
  0
VERTEX
  8
0
 10
11.43793514
 20
2.01298499
  0
VERTEX
  8
0
 10
11.38687651
 20
2.10335728
  0
VERTEX
  8
0
 10
11.36273028
 20
2.18792499
  0
VERTEX
  8
0
 10
11.37498409
 20
2.22896387
  0
VERTEX
  8
0
 10
11.41104773
 20
2.26966969
  0
VERTEX
  8
0
 10
11.20277146
 20
2.36534974
  0
VERTEX
  8
0
 10
11.02144263
 20
2.48797444
  0
VERTEX
  8
0
 10
10.69936140
 20
2.77378084
  0
VERTEX
  8
0
 10
10.46975475
 20
2.77859795
  0
VERTEX
  8
0
 10
10.25674383
 20
2.81058742
  0
VERTEX
  8
0
 10
10.05005312
 20
2.83158699
  0
VERTEX
  8
0
 10
9.94586674
 20
2.82603986
  0
VERTEX
  8
0
 10
9.83940709
 20
2.80343443
  0
VERTEX
  8
0
 10
9.86055815
 20
2.91018913
  0
VERTEX
  8
0
 10
9.85986861
 20
3.01731895
  0
VERTEX
  8
0
 10
9.84153491
 20
3.12129410
  0
VERTEX
  8
0
 10
9.80975350
 20
3.21858479
  0
VERTEX
  8
0
 10
9.79690787
 20
3.23585688
  0
VERTEX
  8
0
 10
9.77862406
 20
3.23121109
  0
VERTEX
  8
0
 10
9.75044630
 20
3.18893119
  0
VERTEX
  8
0
 10
9.64184239
 20
3.58443287
  0
VERTEX
  8
0
 10
9.58709996
 20
3.78174809
  0
VERTEX
  8
0
 10
9.54287112
 20
3.98957831
  0
VERTEX
  8
0
 10
9.49873673
 20
3.95917242
  0
VERTEX
  8
0
 10
9.48356393
 20
3.90061752
  0
VERTEX
  8
0
 10
9.38794274
 20
4.41290618
  0
VERTEX
  8
0
 10
9.33808077
 20
4.66699220
  0
VERTEX
  8
0
 10
9.27598875
 20
4.90883981
  0
VERTEX
  8
0
 10
9.62144767
 20
4.48330869
  0
VERTEX
  8
0
 10
9.95366961
 20
4.04453919
  0
VERTEX
  8
0
 10
10.25841389
 20
3.57828925
  0
VERTEX
  8
0
 10
10.39603169
 20
3.33040847
  0
VERTEX
  8
0
 10
10.52143982
 20
3.07031681
  0
VERTEX
  8
0
 10
10.57993593
 20
3.07081553
  0
VERTEX
  8
0
 10
10.62013235
 20
3.08982125
  0
VERTEX
  8
0
 10
10.66970781
 20
3.15927760
  0
VERTEX
  8
0
 10
10.92739995
 20
2.91752051
  0
VERTEX
  8
0
 10
11.26277975
 20
2.68482005
  0
VERTEX
  8
0
 10
11.51621605
 20
2.54331121
  0
VERTEX
  8
0
 10
11.82684952
 20
2.41521304
  0
VERTEX
  8
0
 10
11.99953941
 20
2.36632797
  0
VERTEX
  8
0
 10
12.18163767
 20
2.33295758
  0
VERTEX
  8
0
 10
12.37151397
 20
2.31915589
  0
VERTEX
  8
0
 10
12.56753801
 20
2.32897688
  0
VERTEX
  8
0
 10
12.77141817
 20
2.36708926
  0
VERTEX
  8
0
 10
12.98215755
 20
2.43329410
  0
VERTEX
  8
0
 10
13.19579534
 20
2.52398639
  0
VERTEX
  8
0
 10
13.40837073
 20
2.63556114
  0
VERTEX
  8
0
 10
13.61592293
 20
2.76441335
  0
VERTEX
  8
0
 10
13.81449111
 20
2.90693803
  0
VERTEX
  8
0
 10
14.00011449
 20
3.05953017
  0
VERTEX
  8
0
 10
14.16883224
 20
3.21858479
  0
VERTEX
  8
0
 10
14.35990190
 20
3.43392031
  0
VERTEX
  8
0
 10
14.52933184
 20
3.67066892
  0
VERTEX
  8
0
 10
14.67547305
 20
3.92707650
  0
VERTEX
  8
0
 10
14.79667652
 20
4.20138893
  0
VERTEX
  8
0
 10
14.89129326
 20
4.49185207
  0
VERTEX
  8
0
 10
14.95767425
 20
4.79671181
  0
VERTEX
  8
0
 10
14.99417048
 20
5.11421401
  0
VERTEX
  8
0
 10
14.99913296
 20
5.44260456
  0
VERTEX
  8
0
 10
15.21433164
 20
5.44208000
  0
VERTEX
  8
0
 10
15.41601006
 20
5.45529276
  0
VERTEX
  8
0
 10
15.59458491
 20
5.49181501
  0
VERTEX
  8
0
 10
15.74047288
 20
5.56121895
  0
VERTEX
  8
0
 10
15.78040013
 20
5.55666580
  0
VERTEX
  8
0
 10
15.79978007
 20
5.53156535
  0
VERTEX
  8
0
 10
15.83320906
 20
5.40093485
  0
VERTEX
  8
0
 10
15.84749019
 20
5.26680120
  0
VERTEX
  8
0
 10
15.83992046
 20
4.99342464
  0
VERTEX
  8
0
 10
15.81969393
 20
4.72223606
  0
VERTEX
  8
0
 10
15.82943367
 20
4.46403586
  0
VERTEX
  8
0
 10
15.79441049
 20
4.47349307
  0
VERTEX
  8
0
 10
15.78011027
 20
4.50367325
  0
VERTEX
  8
0
 10
15.76823155
 20
4.53627493
  0
VERTEX
  8
0
 10
15.74047288
 20
4.55299665
  0
VERTEX
  8
0
 10
15.69964528
 20
4.25250177
  0
VERTEX
  8
0
 10
15.63924085
 20
3.97178409
  0
VERTEX
  8
0
 10
15.58497204
 20
3.68513672
  0
VERTEX
  8
0
 10
15.56255130
 20
3.36685277
  0
VERTEX
  8
0
 10
15.55672671
 20
3.31401908
  0
VERTEX
  8
0
 10
15.53603299
 20
3.31995133
  0
VERTEX
  8
0
 10
15.50635823
 20
3.34933429
  0
VERTEX
  8
0
 10
15.47359051
 20
3.36685277
  0
VERTEX
  8
0
 10
15.44029455
 20
3.22828975
  0
VERTEX
  8
0
 10
15.39305743
 20
3.08378675
  0
VERTEX
  8
0
 10
15.36384665
 20
2.93996217
  0
VERTEX
  8
0
 10
15.36599099
 20
2.87037255
  0
VERTEX
  8
0
 10
15.38462972
 20
2.80343443
  0
VERTEX
  8
0
 10
15.09036807
 20
2.85820253
  0
VERTEX
  8
0
 10
14.75231252
 20
2.86800160
  0
VERTEX
  8
0
 10
14.57972964
 20
2.85073520
  0
VERTEX
  8
0
 10
14.41163940
 20
2.81586349
  0
VERTEX
  8
0
 10
14.25318886
 20
2.76126545
  0
VERTEX
  8
0
 10
14.10952505
 20
2.68482005
  0
VERTEX
  8
0
 10
13.95127956
 20
2.57073119
  0
VERTEX
  8
0
 10
13.81992796
 20
2.45158553
  0
VERTEX
  8
0
 10
13.53461114
 20
2.11918088
  0
VERTEX
  8
0
 10
13.59036012
 20
1.89084148
  0
VERTEX
  8
0
 10
13.73513239
 20
1.64994791
  0
VERTEX
  8
0
 10
13.76807085
 20
1.59542723
  0
VERTEX
  8
0
 10
13.76821903
 20
1.57053458
  0
VERTEX
  8
0
 10
13.63138543
 20
1.57919932
  0
VERTEX
  8
0
 10
13.24711332
 20
1.61507401
  0
VERTEX
  8
0
 10
12.93796335
 20
1.62419381
  0
VERTEX
  8
0
 10
12.53788441
 20
1.61729056
  0
SEQEND
  0
POLYLINE
  8
Default_Layer
 66
   1
 39
0.000000
 70
    1
  0
VERTEX
  8
0
 10
15.56255130
 20
16.56270340
  0
VERTEX
  8
0
 10
15.34100982
 20
16.45677671
  0
VERTEX
  8
0
 10
15.10824242
 20
16.37910629
  0
VERTEX
  8
0
 10
14.87281409
 20
16.31168703
  0
VERTEX
  8
0
 10
14.64328979
 20
16.23651384
  0
VERTEX
  8
0
 10
14.33039170
 20
16.10447455
  0
VERTEX
  8
0
 10
14.03328841
 20
15.94299603
  0
VERTEX
  8
0
 10
13.89531923
 20
15.84836179
  0
VERTEX
  8
0
 10
13.76689005
 20
15.74294142
  0
VERTEX
  8
0
 10
13.64986462
 20
15.62559283
  0
VERTEX
  8
0
 10
13.54610671
 20
15.49517391
  0
VERTEX
  8
0
 10
13.43220379
 20
15.29676096
  0
VERTEX
  8
0
 10
13.35400879
 20
15.08071132
  0
VERTEX
  8
0
 10
13.30993959
 20
14.85135727
  0
VERTEX
  8
0
 10
13.29841408
 20
14.61303109
  0
VERTEX
  8
0
 10
13.31785015
 20
14.37006508
  0
VERTEX
  8
0
 10
13.36666569
 20
14.12679152
  0
VERTEX
  8
0
 10
13.44327858
 20
13.88754270
  0
VERTEX
  8
0
 10
13.54610671
 20
13.65665090
  0
VERTEX
  8
0
 10
13.37592340
 20
13.67309599
  0
VERTEX
  8
0
 10
13.20120181
 20
13.66206507
  0
VERTEX
  8
0
 10
13.03583788
 20
13.62608688
  0
VERTEX
  8
0
 10
12.89372758
 20
13.56769011
  0
VERTEX
  8
0
 10
12.81887952
 20
13.70651814
  0
VERTEX
  8
0
 10
12.76295841
 20
13.85065688
  0
VERTEX
  8
0
 10
12.72489425
 20
13.99918507
  0
VERTEX
  8
0
 10
12.70361701
 20
14.15118147
  0
VERTEX
  8
0
 10
12.70714324
 20
14.46189390
  0
VERTEX
  8
0
 10
12.76497701
 20
14.77542420
  0
VERTEX
  8
0
 10
12.86855820
 20
15.08440237
  0
VERTEX
  8
0
 10
13.00932669
 20
15.38145842
  0
VERTEX
  8
0
 10
13.17872237
 20
15.65922239
  0
VERTEX
  8
0
 10
13.36818513
 20
15.91032427
  0
VERTEX
  8
0
 10
13.54437879
 20
16.09096107
  0
VERTEX
  8
0
 10
13.75680792
 20
16.25413552
  0
VERTEX
  8
0
 10
14.00136936
 20
16.39442316
  0
VERTEX
  8
0
 10
14.27395997
 20
16.50639954
  0
VERTEX
  8
0
 10
14.57047661
 20
16.58464021
  0
VERTEX
  8
0
 10
14.88681614
 20
16.62372071
  0
VERTEX
  8
0
 10
15.21887542
 20
16.61821659
  0
VERTEX
  8
0
 10
15.56255130
 20
16.56270340
  0
SEQEND
  0
POLYLINE
  8
Default_Layer
 66
   1
 39
0.000000
 70
    1
  0
VERTEX
  8
0
 10
17.51968869
 20
13.65665090
  0
VERTEX
  8
0
 10
17.48067315
 20
13.87309116
  0
VERTEX
  8
0
 10
17.39715840
 20
14.06021549
  0
VERTEX
  8
0
 10
17.27472749
 20
14.21394098
  0
VERTEX
  8
0
 10
17.11896349
 20
14.33018471
  0
VERTEX
  8
0
 10
16.93544945
 20
14.40486375
  0
VERTEX
  8
0
 10
16.72976843
 20
14.43389520
  0
VERTEX
  8
0
 10
16.50750347
 20
14.41319613
  0
VERTEX
  8
0
 10
16.27423762
 20
14.33868363
  0
VERTEX
  8
0
 10
16.08323476
 20
14.22928858
  0
VERTEX
  8
0
 10
15.88169015
 20
14.06991101
  0
VERTEX
  8
0
 10
15.67625749
 20
13.87441157
  0
VERTEX
  8
0
 10
15.47359051
 20
13.65665090
  0
VERTEX
  8
0
 10
15.21850682
 20
13.36179846
  0
VERTEX
  8
0
 10
15.01554898
 20
13.08612550
  0
VERTEX
  8
0
 10
14.93329642
 20
12.94364816
  0
VERTEX
  8
0
 10
14.86369032
 20
12.79176588
  0
VERTEX
  8
0
 10
14.80660235
 20
12.62574539
  0
VERTEX
  8
0
 10
14.76190418
 20
12.44085343
  0
VERTEX
  8
0
 10
14.82241939
 20
12.47301693
  0
VERTEX
  8
0
 10
14.87938370
 20
12.52795303
  0
VERTEX
  8
0
 10
14.99966170
 20
12.66975416
  0
VERTEX
  8
0
 10
15.07147642
 20
12.73842477
  0
VERTEX
  8
0
 10
15.15674232
 20
12.79347912
  0
VERTEX
  8
0
 10
15.25970991
 20
12.82582000
  0
VERTEX
  8
0
 10
15.38462972
 20
12.82635019
  0
VERTEX
  8
0
 10
15.26961354
 20
12.79291978
  0
VERTEX
  8
0
 10
15.17202629
 20
12.74211028
  0
VERTEX
  8
0
 10
15.08793477
 20
12.67785550
  0
VERTEX
  8
0
 10
15.01340577
 20
12.60408923
  0
VERTEX
  8
0
 10
14.87730244
 20
12.44375748
  0
VERTEX
  8
0
 10
14.73225058
 20
12.29258545
  0
VERTEX
  8
0
 10
14.70534818
 20
12.42242461
  0
VERTEX
  8
0
 10
14.70944714
 20
12.54890060
  0
VERTEX
  8
0
 10
14.73924433
 20
12.67209147
  0
VERTEX
  8
0
 10
14.78943660
 20
12.79207525
  0
VERTEX
  8
0
 10
14.92979384
 20
13.02273376
  0
VERTEX
  8
0
 10
15.08809375
 20
13.24150055
  0
VERTEX
  8
0
 10
15.37305349
 20
13.62958883
  0
VERTEX
  8
0
 10
15.52427405
 20
13.81531209
  0
VERTEX
  8
0
 10
15.68116569
 20
13.98284047
  0
VERTEX
  8
0
 10
15.91964430
 20
14.18486856
  0
VERTEX
  8
0
 10
16.05730388
 20
14.27738746
  0
VERTEX
  8
0
 10
16.20516048
 20
14.35864030
  0
VERTEX
  8
0
 10
16.36165172
 20
14.42442511
  0
VERTEX
  8
0
 10
16.52521523
 20
14.47053991
  0
VERTEX
  8
0
 10
16.69428863
 20
14.49278274
  0
VERTEX
  8
0
 10
16.86730956
 20
14.48695162
  0
VERTEX
  8
0
 10
17.01078205
 20
14.45575829
  0
VERTEX
  8
0
 10
17.14250452
 20
14.40003617
  0
VERTEX
  8
0
 10
17.25950553
 20
14.32167904
  0
VERTEX
  8
0
 10
17.35881365
 20
14.22258070
  0
VERTEX
  8
0
 10
17.43745746
 20
14.10463493
  0
VERTEX
  8
0
 10
17.49246552
 20
13.96973551
  0
VERTEX
  8
0
 10
17.52086641
 20
13.81977624
  0
VERTEX
  8
0
 10
17.51968869
 20
13.65665090
  0
SEQEND
  0
POLYLINE
  8
Default_Layer
 66
   1
 39
0.000000
 70
    1
  0
VERTEX
  8
0
 10
14.16883224
 20
11.55124552
  0
VERTEX
  8
0
 10
14.00135052
 20
11.55161706
  0
VERTEX
  8
0
 10
13.80418657
 20
11.57954486
  0
VERTEX
  8
0
 10
13.59659708
 20
11.61556319
  0
VERTEX
  8
0
 10
13.39783872
 20
11.64020631
  0
VERTEX
  8
0
 10
13.43796809
 20
11.97043496
  0
VERTEX
  8
0
 10
13.49992992
 20
12.27903874
  0
VERTEX
  8
0
 10
13.66472110
 20
12.85600379
  0
VERTEX
  8
0
 10
13.63823138
 20
12.88140509
  0
VERTEX
  8
0
 10
13.60076290
 20
12.89583318
  0
VERTEX
  8
0
 10
13.51645311
 20
12.91531098
  0
VERTEX
  8
0
 10
13.53571084
 20
12.94240022
  0
VERTEX
  8
0
 10
13.59038118
 20
12.95142997
  0
VERTEX
  8
0
 10
13.64515448
 20
12.94240022
  0
VERTEX
  8
0
 10
13.66472110
 20
12.91531098
  0
VERTEX
  8
0
 10
13.76167983
 20
13.03518846
  0
VERTEX
  8
0
 10
13.86966941
 20
13.10716436
  0
VERTEX
  8
0
 10
13.98256139
 20
13.13488696
  0
VERTEX
  8
0
 10
14.09422729
 20
13.12200450
  0
VERTEX
  8
0
 10
14.19853867
 20
13.07216526
  0
VERTEX
  8
0
 10
14.28936706
 20
12.98901748
  0
VERTEX
  8
0
 10
14.36058399
 20
12.87620944
  0
VERTEX
  8
0
 10
14.40606102
 20
12.73738940
  0
VERTEX
  8
0
 10
14.42418432
 20
12.57732281
  0
VERTEX
  8
0
 10
14.41706555
 20
12.41962904
  0
VERTEX
  8
0
 10
14.38944140
 20
12.26639577
  0
VERTEX
  8
0
 10
14.34604860
 20
12.11971070
  0
VERTEX
  8
0
 10
14.23090388
 20
11.85433594
  0
VERTEX
  8
0
 10
14.10952505
 20
11.64020631
  0
VERTEX
  8
0
 10
14.11523464
 20
11.57177080
  0
VERTEX
  8
0
 10
14.13553967
 20
11.55501022
  0
VERTEX
  8
0
 10
14.16883224
 20
11.55124552
  0
SEQEND
  0
POLYLINE
  8
Default_Layer
 66
   1
 39
0.000000
 70
    1
  0
VERTEX
  8
0
 10
13.78333548
 20
12.88565738
  0
VERTEX
  8
0
 10
13.87821539
 20
12.87008260
  0
VERTEX
  8
0
 10
13.96393305
 20
12.83544952
  0
VERTEX
  8
0
 10
14.11435134
 20
12.73484380
  0
VERTEX
  8
0
 10
14.24752968
 20
12.63551088
  0
VERTEX
  8
0
 10
14.31169741
 20
12.60246880
  0
VERTEX
  8
0
 10
14.37640742
 20
12.58912142
  0
VERTEX
  8
0
 10
14.37198199
 20
12.71294372
  0
VERTEX
  8
0
 10
14.32618617
 20
12.83237333
  0
VERTEX
  8
0
 10
14.24974678
 20
12.93721298
  0
VERTEX
  8
0
 10
14.15339067
 20
13.01726540
  0
VERTEX
  8
0
 10
14.04784465
 20
13.06233332
  0
VERTEX
  8
0
 10
13.94383556
 20
13.06221947
  0
VERTEX
  8
0
 10
13.89575950
 20
13.04203274
  0
VERTEX
  8
0
 10
13.85209023
 20
13.00672658
  0
VERTEX
  8
0
 10
13.81416861
 20
12.95502635
  0
VERTEX
  8
0
 10
13.78333548
 20
12.88565738
  0
SEQEND
  0
POLYLINE
  8
Default_Layer
 66
   1
 39
0.000000
 70
    1
  0
VERTEX
  8
0
 10
13.72402829
 20
12.82635019
  0
VERTEX
  8
0
 10
13.65711919
 20
12.62596506
  0
VERTEX
  8
0
 10
13.60541390
 20
12.41119983
  0
VERTEX
  8
0
 10
13.71238781
 20
12.37087924
  0
VERTEX
  8
0
 10
13.80285166
 20
12.30526494
  0
VERTEX
  8
0
 10
13.87454425
 20
12.21899612
  0
VERTEX
  8
0
 10
13.92520439
 20
12.11671198
  0
VERTEX
  8
0
 10
13.95257086
 20
12.00305173
  0
VERTEX
  8
0
 10
13.95438247
 20
11.88265457
  0
VERTEX
  8
0
 10
13.92837800
 20
11.76015970
  0
VERTEX
  8
0
 10
13.87229627
 20
11.64020631
  0
VERTEX
  8
0
 10
13.94459154
 20
11.63837315
  0
VERTEX
  8
0
 10
13.97458838
 20
11.63130230
  0
VERTEX
  8
0
 10
13.99091066
 20
11.61055272
  0
VERTEX
  8
0
 10
14.12673584
 20
11.76353496
  0
VERTEX
  8
0
 10
14.23035176
 20
11.94893934
  0
VERTEX
  8
0
 10
14.30320792
 20
12.16531219
  0
VERTEX
  8
0
 10
14.34675382
 20
12.41119983
  0
VERTEX
  8
0
 10
14.22312611
 20
12.54703970
  0
VERTEX
  8
0
 10
14.08879846
 20
12.67218242
  0
VERTEX
  8
0
 10
13.92776711
 20
12.77062143
  0
VERTEX
  8
0
 10
13.83223637
 20
12.80482500
  0
VERTEX
  8
0
 10
13.72402829
 20
12.82635019
  0
SEQEND
  0
POLYLINE
  8
Default_Layer
 66
   1
 39
0.000000
 70
    1
  0
VERTEX
  8
0
 10
13.69437469
 20
12.11466386
  0
VERTEX
  8
0
 10
13.72382236
 20
12.18859193
  0
VERTEX
  8
0
 10
13.75368189
 20
12.26293185
  0
VERTEX
  8
0
 10
13.67624354
 20
12.30410789
  0
VERTEX
  8
0
 10
13.63403795
 20
12.32121088
  0
VERTEX
  8
0
 10
13.57576030
 20
12.32223904
  0
VERTEX
  8
0
 10
13.55873449
 20
12.23839914
  0
VERTEX
  8
0
 10
13.56399207
 20
12.17127312
  0
VERTEX
  8
0
 10
13.60478736
 20
12.12773627
  0
VERTEX
  8
0
 10
13.69437469
 20
12.11466386
  0
SEQEND
  0
POLYLINE
  8
Default_Layer
 66
   1
 39
0.000000
 70
    1
  0
VERTEX
  8
0
 10
13.51645311
 20
11.69951351
  0
VERTEX
  8
0
 10
13.54148054
 20
11.82293380
  0
VERTEX
  8
0
 10
13.53754375
 20
11.88509460
  0
VERTEX
  8
0
 10
13.48679951
 20
11.93674228
  0
VERTEX
  8
0
 10
13.48690074
 20
11.85287189
  0
VERTEX
  8
0
 10
13.47334881
 20
11.78984928
  0
VERTEX
  8
0
 10
13.47393563
 20
11.74096598
  0
VERTEX
  8
0
 10
13.51645311
 20
11.69951351
  0
SEQEND
  0
POLYLINE
  8
Default_Layer
 66
   1
 39
0.000000
 70
    1
  0
VERTEX
  8
0
 10
12.68615240
 20
13.06357897
  0
VERTEX
  8
0
 10
12.61833886
 20
12.96811450
  0
VERTEX
  8
0
 10
12.54055906
 20
12.88266898
  0
VERTEX
  8
0
 10
12.37142152
 20
12.72551330
  0
VERTEX
  8
0
 10
12.21138143
 20
12.55946887
  0
VERTEX
  8
0
 10
12.14497345
 20
12.46291242
  0
VERTEX
  8
0
 10
12.09308046
 20
12.35189264
  0
VERTEX
  8
0
 10
12.07148211
 20
12.50361739
  0
VERTEX
  8
0
 10
12.08731449
 20
12.65503152
  0
VERTEX
  8
0
 10
12.13553828
 20
12.79732408
  0
VERTEX
  8
0
 10
12.21111417
 20
12.92168407
  0
VERTEX
  8
0
 10
12.30900285
 20
13.01930054
  0
VERTEX
  8
0
 10
12.42416498
 20
13.08136249
  0
VERTEX
  8
0
 10
12.55156127
 20
13.09905896
  0
VERTEX
  8
0
 10
12.68615240
 20
13.06357897
  0
SEQEND
  0
POLYLINE
  8
Default_Layer
 66
   1
 39
0.000000
 70
    1
  0
VERTEX
  8
0
 10
14.37640742
 20
12.58912142
  0
VERTEX
  8
0
 10
14.31169741
 20
12.60246880
  0
VERTEX
  8
0
 10
14.24752968
 20
12.63551088
  0
VERTEX
  8
0
 10
14.11435134
 20
12.73484380
  0
VERTEX
  8
0
 10
13.96393305
 20
12.83544952
  0
VERTEX
  8
0
 10
13.87821539
 20
12.87008260
  0
VERTEX
  8
0
 10
13.78333548
 20
12.88565738
  0
VERTEX
  8
0
 10
13.81416861
 20
12.95502635
  0
VERTEX
  8
0
 10
13.85209023
 20
13.00672658
  0
VERTEX
  8
0
 10
13.89575950
 20
13.04203274
  0
VERTEX
  8
0
 10
13.94383556
 20
13.06221947
  0
VERTEX
  8
0
 10
14.04784465
 20
13.06233332
  0
VERTEX
  8
0
 10
14.15339067
 20
13.01726540
  0
VERTEX
  8
0
 10
14.24974678
 20
12.93721298
  0
VERTEX
  8
0
 10
14.32618617
 20
12.83237333
  0
VERTEX
  8
0
 10
14.37198199
 20
12.71294372
  0
VERTEX
  8
0
 10
14.37640742
 20
12.58912142
  0
SEQEND
  0
POLYLINE
  8
Default_Layer
 66
   1
 39
0.000000
 70
    1
  0
VERTEX
  8
0
 10
12.83442038
 20
12.41119983
  0
VERTEX
  8
0
 10
12.69074517
 20
12.33365872
  0
VERTEX
  8
0
 10
12.56699144
 20
12.22263982
  0
VERTEX
  8
0
 10
12.48057799
 20
12.07987314
  0
VERTEX
  8
0
 10
12.45681724
 20
11.99712501
  0
VERTEX
  8
0
 10
12.44892362
 20
11.90708869
  0
VERTEX
  8
0
 10
12.46462760
 20
11.81097780
  0
VERTEX
  8
0
 10
12.50013073
 20
11.72842964
  0
VERTEX
  8
0
 10
12.53968391
 20
11.64625021
  0
VERTEX
  8
0
 10
12.56753801
 20
11.55124552
  0
VERTEX
  8
0
 10
12.49981603
 20
11.54441721
  0
VERTEX
  8
0
 10
12.44892362
 20
11.52159193
  0
VERTEX
  8
0
 10
12.37641829
 20
11.58342768
  0
VERTEX
  8
0
 10
12.32423115
 20
11.66387969
  0
VERTEX
  8
0
 10
12.24134844
 20
11.84778149
  0
VERTEX
  8
0
 10
12.14465935
 20
12.02325422
  0
VERTEX
  8
0
 10
12.10586712
 20
12.11467414
  0
VERTEX
  8
0
 10
12.09308046
 20
12.20362466
  0
VERTEX
  8
0
 10
12.11781654
 20
12.31039268
  0
VERTEX
  8
0
 10
12.17409546
 20
12.41470381
  0
VERTEX
  8
0
 10
12.34642353
 20
12.61492985
  0
VERTEX
  8
0
 10
12.54034806
 20
12.80225167
  0
VERTEX
  8
0
 10
12.62362254
 20
12.89043253
  0
VERTEX
  8
0
 10
12.68615240
 20
12.97461818
  0
VERTEX
  8
0
 10
12.73228179
 20
12.93178678
  0
VERTEX
  8
0
 10
12.76377229
 20
12.87431649
  0
VERTEX
  8
0
 10
12.79634533
 20
12.72896794
  0
VERTEX
  8
0
 10
12.81088889
 20
12.56558993
  0
VERTEX
  8
0
 10
12.83442038
 20
12.41119983
  0
SEQEND
  0
POLYLINE
  8
Default_Layer
 66
   1
 39
0.000000
 70
    1
  0
VERTEX
  8
0
 10
14.34675382
 20
12.41119983
  0
VERTEX
  8
0
 10
14.30320792
 20
12.16531219
  0
VERTEX
  8
0
 10
14.23035176
 20
11.94893934
  0
VERTEX
  8
0
 10
14.12673584
 20
11.76353496
  0
VERTEX
  8
0
 10
13.99091066
 20
11.61055272
  0
VERTEX
  8
0
 10
13.97458838
 20
11.63130230
  0
VERTEX
  8
0
 10
13.94459154
 20
11.63837315
  0
VERTEX
  8
0
 10
13.87229627
 20
11.64020631
  0
VERTEX
  8
0
 10
13.92837800
 20
11.76015970
  0
VERTEX
  8
0
 10
13.95438247
 20
11.88265457
  0
VERTEX
  8
0
 10
13.95257086
 20
12.00305173
  0
VERTEX
  8
0
 10
13.92520439
 20
12.11671198
  0
VERTEX
  8
0
 10
13.87454425
 20
12.21899612
  0
VERTEX
  8
0
 10
13.80285166
 20
12.30526494
  0
VERTEX
  8
0
 10
13.71238781
 20
12.37087924
  0
VERTEX
  8
0
 10
13.60541390
 20
12.41119983
  0
VERTEX
  8
0
 10
13.65711919
 20
12.62596506
  0
VERTEX
  8
0
 10
13.72402829
 20
12.82635019
  0
VERTEX
  8
0
 10
13.83223637
 20
12.80482500
  0
VERTEX
  8
0
 10
13.92776711
 20
12.77062143
  0
VERTEX
  8
0
 10
14.08879846
 20
12.67218242
  0
VERTEX
  8
0
 10
14.22312611
 20
12.54703970
  0
VERTEX
  8
0
 10
14.34675382
 20
12.41119983
  0
SEQEND
  0
POLYLINE
  8
Default_Layer
 66
   1
 39
0.000000
 70
    1
  0
VERTEX
  8
0
 10
12.80476679
 20
12.32223904
  0
VERTEX
  8
0
 10
12.85563622
 20
12.29897101
  0
VERTEX
  8
0
 10
12.87562607
 20
12.24482479
  0
VERTEX
  8
0
 10
12.89372758
 20
12.11466386
  0
VERTEX
  8
0
 10
12.85000968
 20
12.09071018
  0
VERTEX
  8
0
 10
12.78973406
 20
12.08272562
  0
VERTEX
  8
0
 10
12.72956140
 20
12.09071018
  0
VERTEX
  8
0
 10
12.68615240
 20
12.11466386
  0
VERTEX
  8
0
 10
12.68445647
 20
12.19759690
  0
VERTEX
  8
0
 10
12.71484131
 20
12.24865788
  0
VERTEX
  8
0
 10
12.80476679
 20
12.32223904
  0
SEQEND
  0
POLYLINE
  8
Default_Layer
 66
   1
 39
0.000000
 70
    1
  0
VERTEX
  8
0
 10
13.57576030
 20
12.32223904
  0
VERTEX
  8
0
 10
13.63403795
 20
12.32121088
  0
VERTEX
  8
0
 10
13.67624354
 20
12.30410789
  0
VERTEX
  8
0
 10
13.75368189
 20
12.26293185
  0
VERTEX
  8
0
 10
13.72382236
 20
12.18859193
  0
VERTEX
  8
0
 10
13.69437469
 20
12.11466386
  0
VERTEX
  8
0
 10
13.60478736
 20
12.12773627
  0
VERTEX
  8
0
 10
13.56399207
 20
12.17127312
  0
VERTEX
  8
0
 10
13.55873449
 20
12.23839914
  0
VERTEX
  8
0
 10
13.57576030
 20
12.32223904
  0
SEQEND
  0
POLYLINE
  8
Default_Layer
 66
   1
 39
0.000000
 70
    1
  0
VERTEX
  8
0
 10
12.50823082
 20
11.96639588
  0
VERTEX
  8
0
 10
12.55065672
 20
11.94951337
  0
VERTEX
  8
0
 10
12.58255685
 20
11.92210613
  0
VERTEX
  8
0
 10
12.62429664
 20
11.84523293
  0
VERTEX
  8
0
 10
12.65248392
 20
11.75480721
  0
VERTEX
  8
0
 10
12.68615240
 20
11.66985991
  0
VERTEX
  8
0
 10
12.63821519
 20
11.68123112
  0
VERTEX
  8
0
 10
12.60294054
 20
11.70526383
  0
VERTEX
  8
0
 10
12.55973780
 20
11.78067408
  0
VERTEX
  8
0
 10
12.50823082
 20
11.96639588
  0
SEQEND
  0
POLYLINE
  8
Default_Layer
 66
   1
 39
0.000000
 70
    1
  0
VERTEX
  8
0
 10
13.48679951
 20
11.93674228
  0
VERTEX
  8
0
 10
13.53754375
 20
11.88509460
  0
VERTEX
  8
0
 10
13.54148054
 20
11.82293380
  0
VERTEX
  8
0
 10
13.51645311
 20
11.69951351
  0
VERTEX
  8
0
 10
13.47393563
 20
11.74096598
  0
VERTEX
  8
0
 10
13.47334881
 20
11.78984928
  0
VERTEX
  8
0
 10
13.48690074
 20
11.85287189
  0
VERTEX
  8
0
 10
13.48679951
 20
11.93674228
  0
SEQEND
  0
POLYLINE
  8
Default_Layer
 66
   1
 39
0.000000
 70
    1
  0
VERTEX
  8
0
 10
17.75691747
 20
10.95817358
  0
VERTEX
  8
0
 10
17.40060391
 20
11.04153243
  0
VERTEX
  8
0
 10
17.00802754
 20
11.11122894
  0
VERTEX
  8
0
 10
16.58957257
 20
11.16370497
  0
VERTEX
  8
0
 10
16.15562324
 20
11.19540236
  0
VERTEX
  8
0
 10
15.65462885
 20
11.19929530
  0
VERTEX
  8
0
 10
15.42823684
 20
11.22057922
  0
VERTEX
  8
0
 10
15.32711999
 20
11.24577079
  0
VERTEX
  8
0
 10
15.23636173
 20
11.28436315
  0
VERTEX
  8
0
 10
15.66902577
 20
11.36618232
  0
VERTEX
  8
0
 10
16.12869979
 20
11.41363409
  0
VERTEX
  8
0
 10
17.04523114
 20
11.46228473
  0
VERTEX
  8
0
 10
16.66589231
 20
11.48536856
  0
VERTEX
  8
0
 10
16.25581290
 20
11.46869563
  0
VERTEX
  8
0
 10
15.44393691
 20
11.40297754
  0
VERTEX
  8
0
 10
15.32038375
 20
11.38502764
  0
VERTEX
  8
0
 10
15.19387941
 20
11.37185811
  0
VERTEX
  8
0
 10
15.13708066
 20
11.37970127
  0
VERTEX
  8
0
 10
15.08861624
 20
11.40390188
  0
VERTEX
  8
0
 10
15.05151019
 20
11.44951406
  0
VERTEX
  8
0
 10
15.02878655
 20
11.52159193
  0
VERTEX
  8
0
 10
15.13012084
 20
11.61201151
  0
VERTEX
  8
0
 10
15.25177172
 20
11.66142780
  0
VERTEX
  8
0
 10
15.38922664
 20
11.67848443
  0
VERTEX
  8
0
 10
15.53797308
 20
11.67182500
  0
VERTEX
  8
0
 10
15.85129035
 20
11.62193245
  0
VERTEX
  8
0
 10
16.15562324
 20
11.58089912
  0
VERTEX
  8
0
 10
16.34907722
 20
11.59074373
  0
VERTEX
  8
0
 10
16.53565130
 20
11.62412051
  0
VERTEX
  8
0
 10
16.71013293
 20
11.65812680
  0
VERTEX
  8
0
 10
16.86730956
 20
11.66985991
  0
VERTEX
  8
0
 10
17.01661777
 20
11.63587933
  0
VERTEX
  8
0
 10
17.18229320
 20
11.56154957
  0
VERTEX
  8
0
 10
17.51968869
 20
11.37332394
  0
VERTEX
  8
0
 10
17.87531569
 20
11.16149950
  0
VERTEX
  8
0
 10
18.22302729
 20
10.90962688
  0
VERTEX
  8
0
 10
18.38771475
 20
10.76783871
  0
VERTEX
  8
0
 10
18.54298328
 20
10.61503795
  0
VERTEX
  8
0
 10
18.68635286
 20
10.45089109
  0
VERTEX
  8
0
 10
18.81534347
 20
10.27506459
  0
VERTEX
  8
0
 10
18.92747507
 20
10.08722496
  0
VERTEX
  8
0
 10
19.02026765
 20
9.88703867
  0
VERTEX
  8
0
 10
19.09124118
 20
9.67417221
  0
VERTEX
  8
0
 10
19.13791563
 20
9.44829206
  0
VERTEX
  8
0
 10
19.15781097
 20
9.20906471
  0
VERTEX
  8
0
 10
19.14844719
 20
8.95615663
  0
VERTEX
  8
0
 10
19.10734425
 20
8.68923432
  0
VERTEX
  8
0
 10
19.03202214
 20
8.40796425
  0
VERTEX
  8
0
 10
18.89728600
 20
8.07395223
  0
VERTEX
  8
0
 10
18.73548617
 20
7.72593152
  0
VERTEX
  8
0
 10
18.50032961
 20
7.25964968
  0
VERTEX
  8
0
 10
18.22965639
 20
6.81128576
  0
VERTEX
  8
0
 10
17.93018889
 20
6.38285417
  0
VERTEX
  8
0
 10
17.60864949
 20
5.97636930
  0
VERTEX
  8
0
 10
16.92932837
 20
5.20677411
  0
VERTEX
  8
0
 10
16.58005173
 20
4.84608227
  0
VERTEX
  8
0
 10
16.21493043
 20
4.49368946
  0
VERTEX
  8
0
 10
15.99247116
 20
4.24866047
  0
VERTEX
  8
0
 10
15.87682826
 20
4.14382236
  0
VERTEX
  8
0
 10
15.81207261
 20
4.10493463
  0
VERTEX
  8
0
 10
15.74047288
 20
4.07853910
  0
VERTEX
  8
0
 10
15.76046179
 20
4.32444098
  0
VERTEX
  8
0
 10
15.77553355
 20
4.36391331
  0
VERTEX
  8
0
 10
15.80011176
 20
4.38407172
  0
VERTEX
  8
0
 10
15.83693476
 20
4.37965989
  0
VERTEX
  8
0
 10
15.88874086
 20
4.34542147
  0
VERTEX
  8
0
 10
15.89104887
 20
4.52154691
  0
VERTEX
  8
0
 10
15.87194523
 20
4.69828239
  0
VERTEX
  8
0
 10
15.86865281
 20
4.88392239
  0
VERTEX
  8
0
 10
15.88456795
 20
4.98267361
  0
VERTEX
  8
0
 10
15.91839446
 20
5.08676140
  0
VERTEX
  8
0
 10
15.98115814
 20
5.18454931
  0
VERTEX
  8
0
 10
16.08219257
 20
5.29792519
  0
VERTEX
  8
0
 10
16.30389122
 20
5.53156535
  0
VERTEX
  8
0
 10
16.78213446
 20
6.06593534
  0
VERTEX
  8
0
 10
17.25276275
 20
6.60372541
  0
VERTEX
  8
0
 10
17.47370765
 20
6.88832749
  0
VERTEX
  8
0
 10
17.67893243
 20
7.19109400
  0
VERTEX
  8
0
 10
17.86383165
 20
7.51779473
  0
VERTEX
  8
0
 10
18.02379984
 20
7.87419951
  0
VERTEX
  8
0
 10
18.12780243
 20
8.16215944
  0
VERTEX
  8
0
 10
18.21451087
 20
8.45780790
  0
VERTEX
  8
0
 10
18.27718518
 20
8.75640766
  0
VERTEX
  8
0
 10
18.30908540
 20
9.05322149
  0
VERTEX
  8
0
 10
18.30347158
 20
9.34351216
  0
VERTEX
  8
0
 10
18.25360376
 20
9.62254244
  0
VERTEX
  8
0
 10
18.15274197
 20
9.88557508
  0
VERTEX
  8
0
 10
18.08108209
 20
10.00961191
  0
VERTEX
  8
0
 10
17.99414625
 20
10.12787287
  0
VERTEX
  8
0
 10
17.79017048
 20
10.33034864
  0
VERTEX
  8
0
 10
17.54848353
 20
10.49863813
  0
VERTEX
  8
0
 10
17.27577716
 20
10.63891333
  0
VERTEX
  8
0
 10
16.97874313
 20
10.75734625
  0
VERTEX
  8
0
 10
16.33845915
 20
10.95337325
  0
VERTEX
  8
0
 10
15.68116569
 20
11.13609517
  0
VERTEX
  8
0
 10
15.90878301
 20
11.14398823
  0
VERTEX
  8
0
 10
16.15706133
 20
11.13748502
  0
VERTEX
  8
0
 10
16.69247990
 20
11.09286335
  0
VERTEX
  8
0
 10
17.75691747
 20
10.95817358
  0
SEQEND
  0
POLYLINE
  8
Default_Layer
 66
   1
 39
0.000000
 70
    1
  0
VERTEX
  8
0
 10
13.24957074
 20
11.37332394
  0
VERTEX
  8
0
 10
13.11879160
 20
11.30903646
  0
VERTEX
  8
0
 10
12.99760170
 20
11.21778284
  0
VERTEX
  8
0
 10
12.87636853
 20
11.14499257
  0
VERTEX
  8
0
 10
12.81272556
 20
11.12971792
  0
VERTEX
  8
0
 10
12.74545959
 20
11.13609517
  0
VERTEX
  8
0
 10
12.76969243
 20
11.20435085
  0
VERTEX
  8
0
 10
12.80816215
 20
11.25842008
  0
VERTEX
  8
0
 10
12.85929046
 20
11.29988152
  0
VERTEX
  8
0
 10
12.92149908
 20
11.33031379
  0
VERTEX
  8
0
 10
13.07284404
 20
11.36440538
  0
VERTEX
  8
0
 10
13.24957074
 20
11.37332394
  0
SEQEND
  0
POLYLINE
  8
Default_Layer
 66
   1
 39
0.000000
 70
    1
  0
VERTEX
  8
0
 10
15.11774734
 20
11.28436315
  0
VERTEX
  8
0
 10
15.17271894
 20
11.28744581
  0
VERTEX
  8
0
 10
15.20594472
 20
11.26877850
  0
VERTEX
  8
0
 10
15.23213881
 20
11.24307671
  0
VERTEX
  8
0
 10
15.26601533
 20
11.22505596
  0
VERTEX
  8
0
 10
15.22860804
 20
11.19375310
  0
VERTEX
  8
0
 10
15.16421210
 20
11.19042739
  0
VERTEX
  8
0
 10
15.11365078
 20
11.21924277
  0
VERTEX
  8
0
 10
15.10631537
 20
11.24700459
  0
VERTEX
  8
0
 10
15.11774734
 20
11.28436315
  0
SEQEND
  0
POLYLINE
  8
Default_Layer
 66
   1
 39
0.000000
 70
    1
  0
VERTEX
  8
0
 10
13.57576030
 20
11.13609517
  0
VERTEX
  8
0
 10
13.56355969
 20
11.10350024
  0
VERTEX
  8
0
 10
13.53891106
 20
11.08356621
  0
VERTEX
  8
0
 10
13.45714592
 20
11.07678797
  0
VERTEX
  8
0
 10
13.46869111
 20
11.12620827
  0
VERTEX
  8
0
 10
13.50147747
 20
11.15142216
  0
VERTEX
  8
0
 10
13.54175164
 20
11.15414576
  0
VERTEX
  8
0
 10
13.57576030
 20
11.13609517
  0
SEQEND
  0
POLYLINE
  8
Default_Layer
 66
   1
 39
0.000000
 70
    1
  0
VERTEX
  8
0
 10
11.44070133
 20
10.72094481
  0
VERTEX
  8
0
 10
10.94598757
 20
10.62968974
  0
VERTEX
  8
0
 10
10.47144439
 20
10.51847281
  0
VERTEX
  8
0
 10
10.01448553
 20
10.38987749
  0
VERTEX
  8
0
 10
9.57252472
 20
10.24648726
  0
VERTEX
  8
0
 10
9.41044796
 20
10.33646607
  0
VERTEX
  8
0
 10
9.34660614
 20
10.39865343
  0
VERTEX
  8
0
 10
9.30564235
 20
10.48371603
  0
VERTEX
  8
0
 10
10.09456274
 20
10.68429572
  0
VERTEX
  8
0
 10
10.54483751
 20
10.77746121
  0
VERTEX
  8
0
 10
10.96624378
 20
10.83955920
  0
VERTEX
  8
0
 10
11.11017528
 20
10.85908339
  0
VERTEX
  8
0
 10
11.26090321
 20
10.86880559
  0
VERTEX
  8
0
 10
11.32771841
 20
10.85921757
  0
VERTEX
  8
0
 10
11.38291581
 20
10.83425100
  0
VERTEX
  8
0
 10
11.42205644
 20
10.78959653
  0
VERTEX
  8
0
 10
11.44070133
 20
10.72094481
  0
SEQEND
  0
POLYLINE
  8
Default_Layer
 66
   1
 39
0.000000
 70
    1
  0
VERTEX
  8
0
 10
11.94481247
 20
10.36510165
  0
VERTEX
  8
0
 10
11.89798406
 20
10.29049679
  0
VERTEX
  8
0
 10
11.87089375
 20
10.22234403
  0
VERTEX
  8
0
 10
11.86170894
 20
10.16080986
  0
VERTEX
  8
0
 10
11.86859706
 20
10.10606078
  0
VERTEX
  8
0
 10
11.92326179
 20
10.01758386
  0
VERTEX
  8
0
 10
12.02022730
 20
9.95824519
  0
VERTEX
  8
0
 10
12.14483295
 20
9.92937674
  0
VERTEX
  8
0
 10
12.28241810
 20
9.93231044
  0
VERTEX
  8
0
 10
12.41832214
 20
9.96837824
  0
VERTEX
  8
0
 10
12.53788441
 20
10.03891208
  0
VERTEX
  8
0
 10
12.63302509
 20
9.88255836
  0
VERTEX
  8
0
 10
12.70416880
 20
9.68781927
  0
VERTEX
  8
0
 10
12.74654532
 20
9.47080637
  0
VERTEX
  8
0
 10
12.75538444
 20
9.24763122
  0
VERTEX
  8
0
 10
12.72591597
 20
9.03440538
  0
VERTEX
  8
0
 10
12.65336968
 20
8.84724043
  0
VERTEX
  8
0
 10
12.59945167
 20
8.76846565
  0
VERTEX
  8
0
 10
12.53297537
 20
8.70224793
  0
VERTEX
  8
0
 10
12.45334452
 20
8.65060120
  0
VERTEX
  8
0
 10
12.35996283
 20
8.61553943
  0
VERTEX
  8
0
 10
12.28046296
 20
8.63242139
  0
VERTEX
  8
0
 10
12.21452471
 20
8.66285524
  0
VERTEX
  8
0
 10
12.14717152
 20
8.69187139
  0
VERTEX
  8
0
 10
12.06342686
 20
8.70450022
  0
VERTEX
  8
0
 10
12.01719172
 20
8.70485905
  0
VERTEX
  8
0
 10
11.97998255
 20
8.69255643
  0
VERTEX
  8
0
 10
11.91982911
 20
8.64449411
  0
VERTEX
  8
0
 10
11.85734056
 20
8.58936784
  0
VERTEX
  8
0
 10
11.76689089
 20
8.55623223
  0
VERTEX
  8
0
 10
11.65246230
 20
8.55857101
  0
VERTEX
  8
0
 10
11.54809941
 20
8.58985481
  0
VERTEX
  8
0
 10
11.45664385
 20
8.64639710
  0
VERTEX
  8
0
 10
11.38093726
 20
8.72451137
  0
VERTEX
  8
0
 10
11.32382128
 20
8.82051109
  0
VERTEX
  8
0
 10
11.28813754
 20
8.93070975
  0
VERTEX
  8
0
 10
11.27672768
 20
9.05142081
  0
VERTEX
  8
0
 10
11.29243334
 20
9.17895777
  0
VERTEX
  8
0
 10
10.84563610
 20
9.40677999
  0
VERTEX
  8
0
 10
10.40841864
 20
9.64418061
  0
VERTEX
  8
0
 10
9.99064478
 20
9.90102539
  0
VERTEX
  8
0
 10
9.60217832
 20
10.18718007
  0
VERTEX
  8
0
 10
9.80795713
 20
10.27405155
  0
VERTEX
  8
0
 10
10.02661491
 20
10.34809451
  0
VERTEX
  8
0
 10
10.49054465
 20
10.46971896
  0
VERTEX
  8
0
 10
10.96992197
 20
10.57610175
  0
VERTEX
  8
0
 10
11.44070133
 20
10.69129121
  0
VERTEX
  8
0
 10
11.67180420
 20
10.50723817
  0
VERTEX
  8
0
 10
11.80137560
 20
10.42923509
  0
VERTEX
  8
0
 10
11.94481247
 20
10.36510165
  0
SEQEND
  0
POLYLINE
  8
Default_Layer
 66
   1
 39
0.000000
 70
    1
  0
VERTEX
  8
0
 10
12.09308046
 20
10.12787287
  0
VERTEX
  8
0
 10
12.23579931
 20
10.23679663
  0
VERTEX
  8
0
 10
12.38961643
 20
10.33544805
  0
VERTEX
  8
0
 10
12.54177661
 20
10.29485985
  0
VERTEX
  8
0
 10
12.62102581
 20
10.27773625
  0
VERTEX
  8
0
 10
12.71580599
 20
10.27614086
  0
VERTEX
  8
0
 10
12.59581316
 20
10.14376575
  0
VERTEX
  8
0
 10
12.43754311
 20
10.04987518
  0
VERTEX
  8
0
 10
12.24048291
 20
9.99498346
  0
VERTEX
  8
0
 10
12.00411967
 20
9.97960489
  0
VERTEX
  8
0
 10
11.96079831
 20
10.04511054
  0
VERTEX
  8
0
 10
11.94419798
 20
10.11413337
  0
VERTEX
  8
0
 10
11.94979458
 20
10.18402929
  0
VERTEX
  8
0
 10
11.97306399
 20
10.25215423
  0
VERTEX
  8
0
 10
12.05452484
 20
10.37251480
  0
VERTEX
  8
0
 10
12.15238765
 20
10.45406244
  0
VERTEX
  8
0
 10
12.20107166
 20
10.45085543
  0
VERTEX
  8
0
 10
12.22631572
 20
10.42420291
  0
VERTEX
  8
0
 10
12.25166274
 20
10.39765336
  0
VERTEX
  8
0
 10
12.30065564
 20
10.39475524
  0
VERTEX
  8
0
 10
12.26499300
 20
10.31149321
  0
VERTEX
  8
0
 10
12.20578394
 20
10.25198631
  0
VERTEX
  8
0
 10
12.14211693
 20
10.19714329
  0
VERTEX
  8
0
 10
12.09308046
 20
10.12787287
  0
SEQEND
  0
POLYLINE
  8
Default_Layer
 66
   1
 39
0.000000
 70
    1
  0
VERTEX
  8
0
 10
9.33529595
 20
10.15752647
  0
VERTEX
  8
0
 10
9.27194278
 20
10.16831035
  0
VERTEX
  8
0
 10
9.24779168
 20
10.21829464
  0
VERTEX
  8
0
 10
9.24633516
 20
10.36510165
  0
VERTEX
  8
0
 10
9.31382988
 20
10.35104411
  0
VERTEX
  8
0
 10
9.36261708
 20
10.31828323
  0
VERTEX
  8
0
 10
9.45391033
 20
10.24648726
  0
VERTEX
  8
0
 10
9.43292970
 20
10.21526381
  0
VERTEX
  8
0
 10
9.39439721
 20
10.20180094
  0
VERTEX
  8
0
 10
9.35596768
 20
10.18844102
  0
VERTEX
  8
0
 10
9.33529595
 20
10.15752647
  0
SEQEND
  0
POLYLINE
  8
Default_Layer
 66
   1
 39
0.000000
 70
    1
  0
VERTEX
  8
0
 10
11.23312615
 20
9.17895777
  0
VERTEX
  8
0
 10
11.21150489
 20
9.07576322
  0
VERTEX
  8
0
 10
11.20874445
 20
8.97949134
  0
VERTEX
  8
0
 10
11.22290365
 20
8.89065398
  0
VERTEX
  8
0
 10
11.25204133
 20
8.80976297
  0
VERTEX
  8
0
 10
11.34748740
 20
8.67386731
  0
VERTEX
  8
0
 10
11.47955326
 20
8.57589904
  0
VERTEX
  8
0
 10
11.63270953
 20
8.51995281
  0
VERTEX
  8
0
 10
11.79142682
 20
8.51012329
  0
VERTEX
  8
0
 10
11.94017573
 20
8.55050514
  0
VERTEX
  8
0
 10
12.00595910
 20
8.59080491
  0
VERTEX
  8
0
 10
12.06342686
 20
8.64519303
  0
VERTEX
  8
0
 10
12.27393852
 20
8.58140544
  0
VERTEX
  8
0
 10
12.46274607
 20
8.49591513
  0
VERTEX
  8
0
 10
12.65205580
 20
8.41092978
  0
VERTEX
  8
0
 10
12.86407398
 20
8.34865706
  0
VERTEX
  8
0
 10
12.87524469
 20
8.25147213
  0
VERTEX
  8
0
 10
12.90097248
 20
8.16447806
  0
VERTEX
  8
0
 10
12.93956626
 20
8.08789716
  0
VERTEX
  8
0
 10
12.98933493
 20
8.02195169
  0
VERTEX
  8
0
 10
13.11563257
 20
7.92285620
  0
VERTEX
  8
0
 10
13.26633668
 20
7.86896989
  0
VERTEX
  8
0
 10
13.42791848
 20
7.86207102
  0
VERTEX
  8
0
 10
13.58684925
 20
7.90393788
  0
VERTEX
  8
0
 10
13.72960023
 20
7.99634874
  0
VERTEX
  8
0
 10
13.79068057
 20
8.06206388
  0
VERTEX
  8
0
 10
13.84264268
 20
8.14108188
  0
VERTEX
  8
0
 10
14.74405177
 20
8.03426867
  0
VERTEX
  8
0
 10
15.68116569
 20
7.96316030
  0
VERTEX
  8
0
 10
15.59290313
 20
7.91767278
  0
VERTEX
  8
0
 10
15.47925933
 20
7.89777243
  0
VERTEX
  8
0
 10
15.36278112
 20
7.88091242
  0
VERTEX
  8
0
 10
15.26601533
 20
7.84454591
  0
VERTEX
  8
0
 10
15.17159900
 20
7.90218707
  0
VERTEX
  8
0
 10
15.06916072
 20
7.94514462
  0
VERTEX
  8
0
 10
14.84644690
 20
7.99004187
  0
VERTEX
  8
0
 10
14.61033102
 20
7.98530375
  0
VERTEX
  8
0
 10
14.37327024
 20
7.93699635
  0
VERTEX
  8
0
 10
14.14772170
 20
7.85118575
  0
VERTEX
  8
0
 10
13.94614256
 20
7.73393802
  0
VERTEX
  8
0
 10
13.78098998
 20
7.59131926
  0
VERTEX
  8
0
 10
13.66472110
 20
7.42939555
  0
VERTEX
  8
0
 10
13.27497642
 20
7.30373183
  0
VERTEX
  8
0
 10
12.90296336
 20
7.16038677
  0
VERTEX
  8
0
 10
12.54518871
 20
7.00285373
  0
VERTEX
  8
0
 10
12.19815926
 20
6.83462611
  0
VERTEX
  8
0
 10
10.84762939
 20
6.12463729
  0
VERTEX
  8
0
 10
10.48872169
 20
6.43400898
  0
VERTEX
  8
0
 10
10.31811376
 20
6.60717631
  0
VERTEX
  8
0
 10
10.16559666
 20
6.80667002
  0
VERTEX
  8
0
 10
10.08527788
 20
6.96426038
  0
VERTEX
  8
0
 10
10.02945568
 20
7.13406961
  0
VERTEX
  8
0
 10
9.92836788
 20
7.48870275
  0
VERTEX
  8
0
 10
9.79666457
 20
7.77029241
  0
VERTEX
  8
0
 10
9.63264496
 20
8.04925894
  0
VERTEX
  8
0
 10
9.47563223
 20
8.33706994
  0
VERTEX
  8
0
 10
9.41204193
 20
8.48787575
  0
VERTEX
  8
0
 10
9.36494954
 20
8.64519303
  0
VERTEX
  8
0
 10
9.33475972
 20
8.81323218
  0
VERTEX
  8
0
 10
9.31785452
 20
8.98830120
  0
VERTEX
  8
0
 10
9.30822571
 20
9.35323435
  0
VERTEX
  8
0
 10
9.30471862
 20
9.72740339
  0
VERTEX
  8
0
 10
9.27598875
 20
10.09821927
  0
VERTEX
  8
0
 10
9.34262489
 20
10.15600980
  0
VERTEX
  8
0
 10
9.41098030
 20
10.17890364
  0
VERTEX
  8
0
 10
9.48126645
 20
10.17291617
  0
VERTEX
  8
0
 10
9.55369485
 20
10.14406279
  0
VERTEX
  8
0
 10
9.70582434
 20
10.04181979
  0
VERTEX
  8
0
 10
9.86906069
 20
9.92029769
  0
VERTEX
  8
0
 10
10.18705802
 20
9.71166442
  0
VERTEX
  8
0
 10
10.53430520
 20
9.50462671
  0
VERTEX
  8
0
 10
10.88994649
 20
9.32008951
  0
VERTEX
  8
0
 10
11.23312615
 20
9.17895777
  0
SEQEND
  0
POLYLINE
  8
Default_Layer
 66
   1
 39
0.000000
 70
    1
  0
VERTEX
  8
0
 10
9.75044630
 20
9.41618655
  0
VERTEX
  8
0
 10
9.78607434
 20
9.49193210
  0
VERTEX
  8
0
 10
9.77963265
 20
9.55575173
  0
VERTEX
  8
0
 10
9.72894419
 20
9.60168257
  0
VERTEX
  8
0
 10
9.63183191
 20
9.62376172
  0
VERTEX
  8
0
 10
9.59131086
 20
9.55229140
  0
VERTEX
  8
0
 10
9.60052233
 20
9.48549606
  0
VERTEX
  8
0
 10
9.65504219
 20
9.43593976
  0
VERTEX
  8
0
 10
9.75044630
 20
9.41618655
  0
SEQEND
  0
POLYLINE
  8
Default_Layer
 66
   1
 39
0.000000
 70
    1
  0
VERTEX
  8
0
 10
10.75866860
 20
9.17895777
  0
VERTEX
  8
0
 10
10.75046241
 20
9.12155659
  0
VERTEX
  8
0
 10
10.76665393
 20
9.07731041
  0
VERTEX
  8
0
 10
10.79939377
 20
9.04731237
  0
VERTEX
  8
0
 10
10.84083258
 20
9.03265561
  0
VERTEX
  8
0
 10
10.88312099
 20
9.03443327
  0
VERTEX
  8
0
 10
10.91840964
 20
9.05373849
  0
VERTEX
  8
0
 10
10.93884915
 20
9.09166441
  0
VERTEX
  8
0
 10
10.93659018
 20
9.14930417
  0
VERTEX
  8
0
 10
10.87910328
 20
9.16526947
  0
VERTEX
  8
0
 10
10.84742346
 20
9.18711601
  0
VERTEX
  8
0
 10
10.81584660
 20
9.19747003
  0
VERTEX
  8
0
 10
10.75866860
 20
9.17895777
  0
SEQEND
  0
POLYLINE
  8
Default_Layer
 66
   1
 39
0.000000
 70
    1
  0
VERTEX
  8
0
 10
10.04698227
 20
8.97138259
  0
VERTEX
  8
0
 10
10.06446475
 20
8.92696838
  0
VERTEX
  8
0
 10
10.09937335
 20
8.89219459
  0
VERTEX
  8
0
 10
10.20204406
 20
8.85343076
  0
VERTEX
  8
0
 10
10.31614467
 20
8.85881604
  0
VERTEX
  8
0
 10
10.36534064
 20
8.87922865
  0
VERTEX
  8
0
 10
10.40282543
 20
8.91207540
  0
VERTEX
  8
0
 10
10.40440657
 20
8.99672139
  0
VERTEX
  8
0
 10
10.37223875
 20
9.05918966
  0
VERTEX
  8
0
 10
10.31661624
 20
9.09953583
  0
VERTEX
  8
0
 10
10.24783329
 20
9.11781555
  0
VERTEX
  8
0
 10
10.17618416
 20
9.11408446
  0
VERTEX
  8
0
 10
10.11196311
 20
9.08839817
  0
VERTEX
  8
0
 10
10.06546439
 20
9.04081234
  0
VERTEX
  8
0
 10
10.04698227
 20
8.97138259
  0
SEQEND
  0
POLYLINE
  8
Default_Layer
 66
   1
 39
0.000000
 70
    1
  0
VERTEX
  8
0
 10
10.37317184
 20
7.99281389
  0
VERTEX
  8
0
 10
10.38975839
 20
7.90765433
  0
VERTEX
  8
0
 10
10.42515078
 20
7.83557877
  0
VERTEX
  8
0
 10
10.47664568
 20
7.77621663
  0
VERTEX
  8
0
 10
10.54153976
 20
7.72919734
  0
VERTEX
  8
0
 10
10.70071216
 20
7.67070492
  0
VERTEX
  8
0
 10
10.88104137
 20
7.65713682
  0
VERTEX
  8
0
 10
11.06090079
 20
7.68552836
  0
VERTEX
  8
0
 10
11.21866380
 20
7.75291484
  0
VERTEX
  8
0
 10
11.28250083
 20
7.80030472
  0
VERTEX
  8
0
 10
11.33270378
 20
7.85633158
  0
VERTEX
  8
0
 10
11.36656932
 20
7.92062483
  0
VERTEX
  8
0
 10
11.38139413
 20
7.99281389
  0
VERTEX
  8
0
 10
11.36798443
 20
8.10609240
  0
VERTEX
  8
0
 10
11.31970528
 20
8.20045263
  0
VERTEX
  8
0
 10
11.24531651
 20
8.27658446
  0
VERTEX
  8
0
 10
11.15357794
 20
8.33517781
  0
VERTEX
  8
0
 10
11.05324941
 20
8.37692256
  0
VERTEX
  8
0
 10
10.95309072
 20
8.40250862
  0
VERTEX
  8
0
 10
10.78832219
 20
8.40796425
  0
VERTEX
  8
0
 10
10.58652788
 20
8.34472233
  0
VERTEX
  8
0
 10
10.51270470
 20
8.30141648
  0
VERTEX
  8
0
 10
10.45555896
 20
8.25114656
  0
VERTEX
  8
0
 10
10.41406173
 20
8.19453195
  0
VERTEX
  8
0
 10
10.38718407
 20
8.13219204
  0
VERTEX
  8
0
 10
10.37317184
 20
7.99281389
  0
SEQEND
  0
POLYLINE
  8
Default_Layer
 66
   1
 39
0.000000
 70
    1
  0
VERTEX
  8
0
 10
11.76689089
 20
8.11142828
  0
VERTEX
  8
0
 10
11.80558309
 20
8.07719383
  0
VERTEX
  8
0
 10
11.85333732
 20
8.05809395
  0
VERTEX
  8
0
 10
11.95697914
 20
8.06306380
  0
VERTEX
  8
0
 10
12.00334034
 20
8.08601643
  0
VERTEX
  8
0
 10
12.03971083
 20
8.12186948
  0
VERTEX
  8
0
 10
12.06132740
 20
8.17006441
  0
VERTEX
  8
0
 10
12.06342686
 20
8.23004267
  0
VERTEX
  8
0
 10
11.97082807
 20
8.26036142
  0
VERTEX
  8
0
 10
11.86380494
 20
8.25697164
  0
VERTEX
  8
0
 10
11.81741591
 20
8.23969556
  0
VERTEX
  8
0
 10
11.78245878
 20
8.21046377
  0
VERTEX
  8
0
 10
11.76394622
 20
8.16810008
  0
VERTEX
  8
0
 10
11.76689089
 20
8.11142828
  0
SEQEND
  0
POLYLINE
  8
Default_Layer
 66
   1
 39
0.000000
 70
    1
  0
VERTEX
  8
0
 10
12.12273406
 20
7.48870275
  0
VERTEX
  8
0
 10
12.13461692
 20
7.43093726
  0
VERTEX
  8
0
 10
12.16183543
 20
7.38318984
  0
VERTEX
  8
0
 10
12.25349542
 20
7.31682307
  0
VERTEX
  8
0
 10
12.38014608
 20
7.28775029
  0
VERTEX
  8
0
 10
12.52421946
 20
7.29411934
  0
VERTEX
  8
0
 10
12.66814761
 20
7.33407807
  0
VERTEX
  8
0
 10
12.79436257
 20
7.40577432
  0
VERTEX
  8
0
 10
12.88529641
 20
7.50735592
  0
VERTEX
  8
0
 10
12.91204292
 20
7.56877493
  0
VERTEX
  8
0
 10
12.92338117
 20
7.63697073
  0
VERTEX
  8
0
 10
12.83546925
 20
7.71998665
  0
VERTEX
  8
0
 10
12.71834655
 20
7.76796080
  0
VERTEX
  8
0
 10
12.58488005
 20
7.78390701
  0
VERTEX
  8
0
 10
12.44793669
 20
7.77083909
  0
VERTEX
  8
0
 10
12.32038346
 20
7.73177089
  0
VERTEX
  8
0
 10
12.21508730
 20
7.66971621
  0
VERTEX
  8
0
 10
12.14491517
 20
7.58768889
  0
VERTEX
  8
0
 10
12.12273406
 20
7.48870275
  0
SEQEND
  0
POLYLINE
  8
Default_Layer
 66
   1
 39
0.000000
 70
    1
  0
VERTEX
  8
0
 10
11.08485816
 20
6.86597721
  0
VERTEX
  8
0
 10
11.10745474
 20
6.77376141
  0
VERTEX
  8
0
 10
11.17159784
 20
6.72095128
  0
VERTEX
  8
0
 10
11.26440621
 20
6.70313577
  0
VERTEX
  8
0
 10
11.37299862
 20
6.71590386
  0
VERTEX
  8
0
 10
11.48449382
 20
6.75484452
  0
VERTEX
  8
0
 10
11.58601056
 20
6.81554671
  0
VERTEX
  8
0
 10
11.66466760
 20
6.89359942
  0
VERTEX
  8
0
 10
11.70758370
 20
6.98459160
  0
VERTEX
  8
0
 10
11.63785477
 20
7.04989903
  0
VERTEX
  8
0
 10
11.54742896
 20
7.08432186
  0
VERTEX
  8
0
 10
11.44549589
 20
7.09185466
  0
VERTEX
  8
0
 10
11.34124518
 20
7.07649197
  0
VERTEX
  8
0
 10
11.24386644
 20
7.04222833
  0
VERTEX
  8
0
 10
11.16254928
 20
6.99305829
  0
VERTEX
  8
0
 10
11.10648331
 20
6.93297640
  0
VERTEX
  8
0
 10
11.08485816
 20
6.86597721
  0
SEQEND
  0
POLYLINE
  8
Default_Layer
 66
   1
 39
0.000000
 70
    1
  0
VERTEX
  8
0
 10
12.74545959
 20
9.89064410
  0
VERTEX
  8
0
 10
12.92555671
 20
9.80260149
  0
VERTEX
  8
0
 10
13.16128362
 20
9.74444980
  0
VERTEX
  8
0
 10
13.28251867
 20
9.73776832
  0
VERTEX
  8
0
 10
13.39667369
 20
9.75198187
  0
VERTEX
  8
0
 10
13.49675284
 20
9.79156456
  0
VERTEX
  8
0
 10
13.57576030
 20
9.86099050
  0
VERTEX
  8
0
 10
13.58170319
 20
9.73718199
  0
VERTEX
  8
0
 10
13.56013673
 20
9.61328490
  0
VERTEX
  8
0
 10
13.53155526
 20
9.48721283
  0
VERTEX
  8
0
 10
13.51645311
 20
9.35687935
  0
VERTEX
  8
0
 10
13.53337113
 20
9.15643223
  0
VERTEX
  8
0
 10
13.58487182
 20
8.98182004
  0
VERTEX
  8
0
 10
13.66342614
 20
8.82757948
  0
VERTEX
  8
0
 10
13.76150504
 20
8.68824725
  0
VERTEX
  8
0
 10
13.98612048
 20
8.43245454
  0
VERTEX
  8
0
 10
14.09759894
 20
8.30506745
  0
VERTEX
  8
0
 10
14.19848584
 20
8.17073547
  0
VERTEX
  8
0
 10
14.09626085
 20
8.15634730
  0
VERTEX
  8
0
 10
14.01659960
 20
8.17124212
  0
VERTEX
  8
0
 10
13.95435135
 20
8.20918824
  0
VERTEX
  8
0
 10
13.90436532
 20
8.26395395
  0
VERTEX
  8
0
 10
13.82057691
 20
8.39901733
  0
VERTEX
  8
0
 10
13.72402829
 20
8.52657864
  0
VERTEX
  8
0
 10
13.64768972
 20
8.58084929
  0
VERTEX
  8
0
 10
13.57392528
 20
8.61496431
  0
VERTEX
  8
0
 10
13.50107835
 20
8.64936689
  0
VERTEX
  8
0
 10
13.42749232
 20
8.70450022
  0
VERTEX
  8
0
 10
13.27834084
 20
8.71631755
  0
VERTEX
  8
0
 10
13.14469550
 20
8.71268265
  0
VERTEX
  8
0
 10
12.91247882
 20
8.67049920
  0
VERTEX
  8
0
 10
12.70795352
 20
8.60083586
  0
VERTEX
  8
0
 10
12.50823082
 20
8.52657864
  0
VERTEX
  8
0
 10
12.49574989
 20
8.58552963
  0
VERTEX
  8
0
 10
12.50499008
 20
8.63163390
  0
VERTEX
  8
0
 10
12.56926846
 20
8.70060872
  0
VERTEX
  8
0
 10
12.66233522
 20
8.76411589
  0
VERTEX
  8
0
 10
12.74545959
 20
8.85276820
  0
VERTEX
  8
0
 10
12.79702130
 20
8.96650293
  0
VERTEX
  8
0
 10
12.82635607
 20
9.08788428
  0
VERTEX
  8
0
 10
12.83721142
 20
9.21537463
  0
VERTEX
  8
0
 10
12.83333485
 20
9.34743633
  0
VERTEX
  8
0
 10
12.79637601
 20
9.61912328
  0
VERTEX
  8
0
 10
12.74545959
 20
9.89064410
  0
SEQEND
  0
POLYLINE
  8
Default_Layer
 66
   1
 39
0.000000
 70
    1
  0
VERTEX
  8
0
 10
9.63183191
 20
9.62376172
  0
VERTEX
  8
0
 10
9.72894419
 20
9.60168257
  0
VERTEX
  8
0
 10
9.77963265
 20
9.55575173
  0
VERTEX
  8
0
 10
9.78607434
 20
9.49193210
  0
VERTEX
  8
0
 10
9.75044630
 20
9.41618655
  0
VERTEX
  8
0
 10
9.65504219
 20
9.43593976
  0
VERTEX
  8
0
 10
9.60052233
 20
9.48549606
  0
VERTEX
  8
0
 10
9.59131086
 20
9.55229140
  0
VERTEX
  8
0
 10
9.63183191
 20
9.62376172
  0
SEQEND
  0
POLYLINE
  8
Default_Layer
 66
   1
 39
0.000000
 70
    1
  0
VERTEX
  8
0
 10
9.75044630
 20
9.53480093
  0
VERTEX
  8
0
 10
9.69914204
 20
9.55762621
  0
VERTEX
  8
0
 10
9.63183191
 20
9.56445453
  0
VERTEX
  8
0
 10
9.64004066
 20
9.50490995
  0
VERTEX
  8
0
 10
9.68055702
 20
9.47924731
  0
VERTEX
  8
0
 10
9.72636442
 20
9.48877487
  0
VERTEX
  8
0
 10
9.75044630
 20
9.53480093
  0
SEQEND
  0
POLYLINE
  8
Default_Layer
 66
   1
 39
0.000000
 70
    1
  0
VERTEX
  8
0
 10
9.63183191
 20
9.56445453
  0
VERTEX
  8
0
 10
9.69914204
 20
9.55762621
  0
VERTEX
  8
0
 10
9.75044630
 20
9.53480093
  0
VERTEX
  8
0
 10
9.72636442
 20
9.48877487
  0
VERTEX
  8
0
 10
9.68055702
 20
9.47924731
  0
VERTEX
  8
0
 10
9.64004066
 20
9.50490995
  0
VERTEX
  8
0
 10
9.63183191
 20
9.56445453
  0
SEQEND
  0
POLYLINE
  8
Default_Layer
 66
   1
 39
0.000000
 70
    1
  0
VERTEX
  8
0
 10
10.90693658
 20
9.11965058
  0
VERTEX
  8
0
 10
10.88892669
 20
9.08715999
  0
VERTEX
  8
0
 10
10.85257651
 20
9.08853300
  0
VERTEX
  8
0
 10
10.78832219
 20
9.11965058
  0
VERTEX
  8
0
 10
10.80602320
 20
9.15183227
  0
VERTEX
  8
0
 10
10.84227041
 20
9.15035630
  0
VERTEX
  8
0
 10
10.90693658
 20
9.11965058
  0
SEQEND
  0
POLYLINE
  8
Default_Layer
 66
   1
 39
0.000000
 70
    1
  0
VERTEX
  8
0
 10
10.34351824
 20
9.06034338
  0
VERTEX
  8
0
 10
10.34351824
 20
8.91207540
  0
VERTEX
  8
0
 10
10.27315626
 20
8.89063384
  0
VERTEX
  8
0
 10
10.20397785
 20
8.89197191
  0
VERTEX
  8
0
 10
10.14526243
 20
8.91818852
  0
VERTEX
  8
0
 10
10.10628947
 20
8.97138259
  0
VERTEX
  8
0
 10
10.13228277
 20
9.04370353
  0
VERTEX
  8
0
 10
10.19210380
 20
9.07821762
  0
VERTEX
  8
0
 10
10.26832486
 20
9.08155440
  0
VERTEX
  8
0
 10
10.34351824
 20
9.06034338
  0
SEQEND
  0
POLYLINE
  8
Default_Layer
 66
   1
 39
0.000000
 70
    1
  0
VERTEX
  8
0
 10
18.26102862
 20
9.08999698
  0
VERTEX
  8
0
 10
18.21109851
 20
8.76808723
  0
VERTEX
  8
0
 10
18.14154048
 20
8.46040934
  0
VERTEX
  8
0
 10
18.05375087
 20
8.16617420
  0
VERTEX
  8
0
 10
17.94912600
 20
7.88459275
  0
VERTEX
  8
0
 10
17.82906220
 20
7.61487589
  0
VERTEX
  8
0
 10
17.69495580
 20
7.35623455
  0
VERTEX
  8
0
 10
17.54820312
 20
7.10787963
  0
VERTEX
  8
0
 10
17.39020050
 20
6.86902206
  0
VERTEX
  8
0
 10
17.04603073
 20
6.41664261
  0
VERTEX
  8
0
 10
16.67361712
 20
5.99278353
  0
VERTEX
  8
0
 10
16.28413029
 20
5.59113214
  0
VERTEX
  8
0
 10
15.88874086
 20
5.20537578
  0
VERTEX
  8
0
 10
15.90029083
 20
5.29010212
  0
VERTEX
  8
0
 10
15.88337262
 20
5.37682155
  0
VERTEX
  8
0
 10
15.86172512
 20
5.45936550
  0
VERTEX
  8
0
 10
15.85908727
 20
5.53156535
  0
VERTEX
  8
0
 10
15.90598460
 20
5.62331101
  0
VERTEX
  8
0
 10
15.98183294
 20
5.68855091
  0
VERTEX
  8
0
 10
16.06302903
 20
5.74201863
  0
VERTEX
  8
0
 10
16.12596964
 20
5.79844772
  0
VERTEX
  8
0
 10
16.18271753
 20
5.88996879
  0
VERTEX
  8
0
 10
16.22832105
 20
5.99316217
  0
VERTEX
  8
0
 10
16.26130461
 20
6.10500311
  0
VERTEX
  8
0
 10
16.28019260
 20
6.22246689
  0
VERTEX
  8
0
 10
16.28350942
 20
6.34252877
  0
VERTEX
  8
0
 10
16.26977947
 20
6.46216401
  0
VERTEX
  8
0
 10
16.23752714
 20
6.57834788
  0
VERTEX
  8
0
 10
16.18527683
 20
6.68805563
  0
VERTEX
  8
0
 10
16.10414921
 20
6.79384500
  0
VERTEX
  8
0
 10
16.06156419
 20
6.85847321
  0
VERTEX
  8
0
 10
16.03700885
 20
6.92528440
  0
VERTEX
  8
0
 10
16.03355048
 20
7.03822823
  0
VERTEX
  8
0
 10
16.05773850
 20
7.14182672
  0
VERTEX
  8
0
 10
16.10259813
 20
7.23838545
  0
VERTEX
  8
0
 10
16.16115454
 20
7.33020999
  0
VERTEX
  8
0
 10
16.29145852
 20
7.50887885
  0
VERTEX
  8
0
 10
16.34925648
 20
7.60033432
  0
VERTEX
  8
0
 10
16.39285201
 20
7.69627792
  0
VERTEX
  8
0
 10
16.36411671
 20
7.77657454
  0
VERTEX
  8
0
 10
16.30373979
 20
7.83204338
  0
VERTEX
  8
0
 10
16.22158605
 20
7.86415691
  0
VERTEX
  8
0
 10
16.12752032
 20
7.87438760
  0
VERTEX
  8
0
 10
16.03140740
 20
7.86420793
  0
VERTEX
  8
0
 10
15.94311211
 20
7.83509038
  0
VERTEX
  8
0
 10
15.87249926
 20
7.78850742
  0
VERTEX
  8
0
 10
15.82943367
 20
7.72593152
  0
VERTEX
  8
0
 10
15.81207651
 20
7.75849449
  0
VERTEX
  8
0
 10
15.81123645
 20
7.79348184
  0
VERTEX
  8
0
 10
15.84234612
 20
7.86845466
  0
VERTEX
  8
0
 10
15.88923977
 20
7.94629989
  0
VERTEX
  8
0
 10
15.91839446
 20
8.02246749
  0
VERTEX
  8
0
 10
15.63363540
 20
8.01942038
  0
VERTEX
  8
0
 10
15.36891681
 20
8.03640818
  0
VERTEX
  8
0
 10
14.85086497
 20
8.08177468
  0
VERTEX
  8
0
 10
15.23447633
 20
8.25027542
  0
VERTEX
  8
0
 10
15.63200816
 20
8.40490978
  0
VERTEX
  8
0
 10
16.04259439
 20
8.54654337
  0
VERTEX
  8
0
 10
16.46536894
 20
8.67604183
  0
VERTEX
  8
0
 10
17.34401864
 20
8.90209588
  0
VERTEX
  8
0
 10
18.26102862
 20
9.08999698
  0
SEQEND
  0
POLYLINE
  8
Default_Layer
 66
   1
 39
0.000000
 70
    1
  0
VERTEX
  8
0
 10
9.42425674
 20
5.59087254
  0
VERTEX
  8
0
 10
9.28514587
 20
5.64001274
  0
VERTEX
  8
0
 10
9.16796912
 20
5.71574424
  0
VERTEX
  8
0
 10
9.06839418
 20
5.81310770
  0
VERTEX
  8
0
 10
8.98208878
 20
5.92714376
  0
VERTEX
  8
0
 10
8.83195744
 20
6.18539624
  0
VERTEX
  8
0
 10
8.68291681
 20
6.45082685
  0
VERTEX
  8
0
 10
8.58743610
 20
6.62282381
  0
VERTEX
  8
0
 10
8.55423188
 20
6.65799891
  0
VERTEX
  8
0
 10
8.51527116
 20
6.67925132
  0
VERTEX
  8
0
 10
8.46954249
 20
6.68118453
  0
VERTEX
  8
0
 10
8.41603444
 20
6.65840203
  0
VERTEX
  8
0
 10
8.43076142
 20
6.61505087
  0
VERTEX
  8
0
 10
8.47161545
 20
6.61160845
  0
VERTEX
  8
0
 10
8.52174598
 20
6.60932263
  0
VERTEX
  8
0
 10
8.56430243
 20
6.56944124
  0
VERTEX
  8
0
 10
8.72886912
 20
6.25214046
  0
VERTEX
  8
0
 10
8.90270759
 20
5.94411006
  0
VERTEX
  8
0
 10
9.00451443
 20
5.80498151
  0
VERTEX
  8
0
 10
9.12233204
 20
5.68186288
  0
VERTEX
  8
0
 10
9.26072472
 20
5.57931825
  0
VERTEX
  8
0
 10
9.42425674
 20
5.50191175
  0
VERTEX
  8
0
 10
9.45347422
 20
5.40357281
  0
VERTEX
  8
0
 10
9.44430384
 20
5.29453950
  0
VERTEX
  8
0
 10
9.40286971
 20
5.20023152
  0
VERTEX
  8
0
 10
9.33529595
 20
5.14606859
  0
VERTEX
  8
0
 10
9.20459142
 20
5.26000198
  0
VERTEX
  8
0
 10
9.08896661
 20
5.38901734
  0
VERTEX
  8
0
 10
8.88605969
 20
5.67539547
  0
VERTEX
  8
0
 10
8.69278232
 20
5.97140592
  0
VERTEX
  8
0
 10
8.58919445
 20
6.11246170
  0
VERTEX
  8
0
 10
8.47534164
 20
6.24325168
  0
VERTEX
  8
0
 10
8.51592766
 20
6.12276043
  0
VERTEX
  8
0
 10
8.58820302
 20
5.99807145
  0
VERTEX
  8
0
 10
8.77187760
 20
5.73914053
  0
VERTEX
  8
0
 10
8.96665186
 20
5.49296061
  0
VERTEX
  8
0
 10
9.04227308
 20
5.36738866
  0
VERTEX
  8
0
 10
9.06316764
 20
5.30229803
  0
VERTEX
  8
0
 10
9.06841357
 20
5.23502938
  0
VERTEX
  8
0
 10
8.97765486
 20
5.26020905
  0
VERTEX
  8
0
 10
8.89956283
 20
5.30988862
  0
VERTEX
  8
0
 10
8.83176769
 20
5.37934114
  0
VERTEX
  8
0
 10
8.77189964
 20
5.46383966
  0
VERTEX
  8
0
 10
8.66646563
 20
5.65906695
  0
VERTEX
  8
0
 10
8.56430243
 20
5.85775492
  0
VERTEX
  8
0
 10
8.39587999
 20
6.13606929
  0
VERTEX
  8
0
 10
8.22915875
 20
6.44264744
  0
VERTEX
  8
0
 10
8.16120366
 20
6.61056448
  0
VERTEX
  8
0
 10
8.11139496
 20
6.79038230
  0
VERTEX
  8
0
 10
8.08563969
 20
6.98371253
  0
VERTEX
  8
0
 10
8.08984488
 20
7.19216678
  0
VERTEX
  8
0
 10
8.11926697
 20
7.37053091
  0
VERTEX
  8
0
 10
8.16760678
 20
7.55194204
  0
VERTEX
  8
0
 10
8.28757263
 20
7.93238522
  0
VERTEX
  8
0
 10
8.34246521
 20
8.13565722
  0
VERTEX
  8
0
 10
8.38280859
 20
8.35045613
  0
VERTEX
  8
0
 10
8.40023604
 20
8.57890194
  0
VERTEX
  8
0
 10
8.38638084
 20
8.82311461
  0
VERTEX
  8
0
 10
8.43454846
 20
8.87831717
  0
VERTEX
  8
0
 10
8.47534164
 20
8.94172899
  0
VERTEX
  8
0
 10
8.55671625
 20
8.92162945
  0
VERTEX
  8
0
 10
8.62729958
 20
8.88165314
  0
VERTEX
  8
0
 10
8.68734384
 20
8.82435667
  0
VERTEX
  8
0
 10
8.73710119
 20
8.75229666
  0
VERTEX
  8
0
 10
8.80676400
 20
8.57411241
  0
VERTEX
  8
0
 10
8.83830553
 20
8.36755323
  0
VERTEX
  8
0
 10
8.83374333
 20
8.15307199
  0
VERTEX
  8
0
 10
8.79509492
 20
7.95112152
  0
VERTEX
  8
0
 10
8.72437784
 20
7.78215469
  0
VERTEX
  8
0
 10
8.67762403
 20
7.71643164
  0
VERTEX
  8
0
 10
8.62360962
 20
7.66662433
  0
VERTEX
  8
0
 10
8.69367493
 20
7.49946086
  0
VERTEX
  8
0
 10
8.71548080
 20
7.40265374
  0
VERTEX
  8
0
 10
8.71257041
 20
7.28112757
  0
VERTEX
  8
0
 10
8.75325430
 20
7.21491561
  0
VERTEX
  8
0
 10
8.81274154
 20
7.15799599
  0
VERTEX
  8
0
 10
8.87403701
 20
7.10333496
  0
VERTEX
  8
0
 10
8.92014559
 20
7.04389879
  0
VERTEX
  8
0
 10
8.97516143
 20
6.88105559
  0
VERTEX
  8
0
 10
9.00312356
 20
6.71078120
  0
VERTEX
  8
0
 10
9.03407710
 20
6.54397082
  0
VERTEX
  8
0
 10
9.09806717
 20
6.39151966
  0
VERTEX
  8
0
 10
9.22711266
 20
6.24390311
  0
VERTEX
  8
0
 10
9.37516500
 20
6.07963627
  0
VERTEX
  8
0
 10
9.43256612
 20
5.98264342
  0
VERTEX
  8
0
 10
9.46621582
 20
5.87114934
  0
VERTEX
  8
0
 10
9.46661304
 20
5.74170778
  0
VERTEX
  8
0
 10
9.42425674
 20
5.59087254
  0
SEQEND
  0
POLYLINE
  8
Default_Layer
 66
   1
 39
0.000000
 70
    1
  0
VERTEX
  8
0
 10
13.87229627
 20
8.23004267
  0
VERTEX
  8
0
 10
13.82183597
 20
8.21388007
  0
VERTEX
  8
0
 10
13.78293426
 20
8.18410784
  0
VERTEX
  8
0
 10
13.72434278
 20
8.09900841
  0
VERTEX
  8
0
 10
13.66559405
 20
8.00529211
  0
VERTEX
  8
0
 10
13.62649579
 20
7.96474881
  0
VERTEX
  8
0
 10
13.57576030
 20
7.93350670
  0
VERTEX
  8
0
 10
13.46511490
 20
7.89945102
  0
VERTEX
  8
0
 10
13.35277479
 20
7.89157789
  0
VERTEX
  8
0
 10
13.24427370
 20
7.90907452
  0
VERTEX
  8
0
 10
13.14514539
 20
7.95112814
  0
VERTEX
  8
0
 10
13.06092360
 20
8.01692598
  0
VERTEX
  8
0
 10
12.99714207
 20
8.10565527
  0
VERTEX
  8
0
 10
12.95933455
 20
8.21650322
  0
VERTEX
  8
0
 10
12.95303477
 20
8.34865706
  0
VERTEX
  8
0
 10
12.81120734
 20
8.41440481
  0
VERTEX
  8
0
 10
12.65649880
 20
8.46727144
  0
VERTEX
  8
0
 10
12.70889593
 20
8.52960303
  0
VERTEX
  8
0
 10
12.77742838
 20
8.57584974
  0
VERTEX
  8
0
 10
12.85978140
 20
8.60832666
  0
VERTEX
  8
0
 10
12.95364024
 20
8.62934890
  0
VERTEX
  8
0
 10
13.16661636
 20
8.64628973
  0
VERTEX
  8
0
 10
13.39783872
 20
8.64519303
  0
VERTEX
  8
0
 10
13.53978070
 20
8.56473303
  0
VERTEX
  8
0
 10
13.66136966
 20
8.46392001
  0
VERTEX
  8
0
 10
13.87229627
 20
8.23004267
  0
SEQEND
  0
POLYLINE
  8
Default_Layer
 66
   1
 39
0.000000
 70
    1
  0
VERTEX
  8
0
 10
10.78832219
 20
8.40796425
  0
VERTEX
  8
0
 10
10.95309072
 20
8.40250862
  0
VERTEX
  8
0
 10
11.05324941
 20
8.37692256
  0
VERTEX
  8
0
 10
11.15357794
 20
8.33517781
  0
VERTEX
  8
0
 10
11.24531651
 20
8.27658446
  0
VERTEX
  8
0
 10
11.31970528
 20
8.20045263
  0
VERTEX
  8
0
 10
11.36798443
 20
8.10609240
  0
VERTEX
  8
0
 10
11.38139413
 20
7.99281389
  0
VERTEX
  8
0
 10
11.36656932
 20
7.92062483
  0
VERTEX
  8
0
 10
11.33270378
 20
7.85633158
  0
VERTEX
  8
0
 10
11.28250083
 20
7.80030472
  0
VERTEX
  8
0
 10
11.21866380
 20
7.75291484
  0
VERTEX
  8
0
 10
11.06090079
 20
7.68552836
  0
VERTEX
  8
0
 10
10.88104137
 20
7.65713682
  0
VERTEX
  8
0
 10
10.70071216
 20
7.67070492
  0
VERTEX
  8
0
 10
10.54153976
 20
7.72919734
  0
VERTEX
  8
0
 10
10.47664568
 20
7.77621663
  0
VERTEX
  8
0
 10
10.42515078
 20
7.83557877
  0
VERTEX
  8
0
 10
10.38975839
 20
7.90765433
  0
VERTEX
  8
0
 10
10.37317184
 20
7.99281389
  0
VERTEX
  8
0
 10
10.38718407
 20
8.13219204
  0
VERTEX
  8
0
 10
10.41406173
 20
8.19453195
  0
VERTEX
  8
0
 10
10.45555896
 20
8.25114656
  0
VERTEX
  8
0
 10
10.51270470
 20
8.30141648
  0
VERTEX
  8
0
 10
10.58652788
 20
8.34472233
  0
VERTEX
  8
0
 10
10.78832219
 20
8.40796425
  0
SEQEND
  0
POLYLINE
  8
Default_Layer
 66
   1
 39
0.000000
 70
    1
  0
VERTEX
  8
0
 10
10.43247903
 20
7.99281389
  0
VERTEX
  8
0
 10
10.44866087
 20
7.92086999
  0
VERTEX
  8
0
 10
10.48096113
 20
7.86054435
  0
VERTEX
  8
0
 10
10.52705212
 20
7.81140288
  0
VERTEX
  8
0
 10
10.58460614
 20
7.77301150
  0
VERTEX
  8
0
 10
10.72479244
 20
7.72674266
  0
VERTEX
  8
0
 10
10.88289843
 20
7.71826512
  0
VERTEX
  8
0
 10
11.04030249
 20
7.74410617
  0
VERTEX
  8
0
 10
11.17838300
 20
7.80079312
  0
VERTEX
  8
0
 10
11.27851835
 20
7.88485326
  0
VERTEX
  8
0
 10
11.30853734
 20
7.93606306
  0
VERTEX
  8
0
 10
11.32208694
 20
7.99281389
  0
VERTEX
  8
0
 10
11.31301724
 20
8.09082889
  0
VERTEX
  8
0
 10
11.27413340
 20
8.17388231
  0
VERTEX
  8
0
 10
11.21157712
 20
8.24180713
  0
VERTEX
  8
0
 10
11.13149009
 20
8.29443636
  0
VERTEX
  8
0
 10
11.04001403
 20
8.33160298
  0
VERTEX
  8
0
 10
10.94329063
 20
8.35313997
  0
VERTEX
  8
0
 10
10.84746158
 20
8.35888033
  0
VERTEX
  8
0
 10
10.75866860
 20
8.34865706
  0
VERTEX
  8
0
 10
10.61616484
 20
8.30603898
  0
VERTEX
  8
0
 10
10.50863334
 20
8.24016027
  0
VERTEX
  8
0
 10
10.47063781
 20
8.19491950
  0
VERTEX
  8
0
 10
10.44457208
 20
8.13956916
  0
VERTEX
  8
0
 10
10.43149840
 20
8.07267778
  0
VERTEX
  8
0
 10
10.43247903
 20
7.99281389
  0
SEQEND
  0
POLYLINE
  8
Default_Layer
 66
   1
 39
0.000000
 70
    1
  0
VERTEX
  8
0
 10
10.75866860
 20
8.34865706
  0
VERTEX
  8
0
 10
10.84746158
 20
8.35888033
  0
VERTEX
  8
0
 10
10.94329063
 20
8.35313997
  0
VERTEX
  8
0
 10
11.04001403
 20
8.33160298
  0
VERTEX
  8
0
 10
11.13149009
 20
8.29443636
  0
VERTEX
  8
0
 10
11.21157712
 20
8.24180713
  0
VERTEX
  8
0
 10
11.27413340
 20
8.17388231
  0
VERTEX
  8
0
 10
11.31301724
 20
8.09082889
  0
VERTEX
  8
0
 10
11.32208694
 20
7.99281389
  0
VERTEX
  8
0
 10
11.30853734
 20
7.93606306
  0
VERTEX
  8
0
 10
11.27851835
 20
7.88485326
  0
VERTEX
  8
0
 10
11.17838300
 20
7.80079312
  0
VERTEX
  8
0
 10
11.04030249
 20
7.74410617
  0
VERTEX
  8
0
 10
10.88289843
 20
7.71826512
  0
VERTEX
  8
0
 10
10.72479244
 20
7.72674266
  0
VERTEX
  8
0
 10
10.58460614
 20
7.77301150
  0
VERTEX
  8
0
 10
10.52705212
 20
7.81140288
  0
VERTEX
  8
0
 10
10.48096113
 20
7.86054435
  0
VERTEX
  8
0
 10
10.44866087
 20
7.92086999
  0
VERTEX
  8
0
 10
10.43247903
 20
7.99281389
  0
VERTEX
  8
0
 10
10.43149840
 20
8.07267778
  0
VERTEX
  8
0
 10
10.44457208
 20
8.13956916
  0
VERTEX
  8
0
 10
10.47063781
 20
8.19491950
  0
VERTEX
  8
0
 10
10.50863334
 20
8.24016027
  0
VERTEX
  8
0
 10
10.61616484
 20
8.30603898
  0
VERTEX
  8
0
 10
10.75866860
 20
8.34865706
  0
SEQEND
  0
POLYLINE
  8
Default_Layer
 66
   1
 39
0.000000
 70
    1
  0
VERTEX
  8
0
 10
12.06342686
 20
8.23004267
  0
VERTEX
  8
0
 10
12.06132740
 20
8.17006441
  0
VERTEX
  8
0
 10
12.03971083
 20
8.12186948
  0
VERTEX
  8
0
 10
12.00334034
 20
8.08601643
  0
VERTEX
  8
0
 10
11.95697914
 20
8.06306380
  0
VERTEX
  8
0
 10
11.85333732
 20
8.05809395
  0
VERTEX
  8
0
 10
11.80558309
 20
8.07719383
  0
VERTEX
  8
0
 10
11.76689089
 20
8.11142828
  0
VERTEX
  8
0
 10
11.76394622
 20
8.16810008
  0
VERTEX
  8
0
 10
11.78245878
 20
8.21046377
  0
VERTEX
  8
0
 10
11.81741591
 20
8.23969556
  0
VERTEX
  8
0
 10
11.86380494
 20
8.25697164
  0
VERTEX
  8
0
 10
11.97082807
 20
8.26036142
  0
VERTEX
  8
0
 10
12.06342686
 20
8.23004267
  0
SEQEND
  0
POLYLINE
  8
Default_Layer
 66
   1
 39
0.000000
 70
    1
  0
VERTEX
  8
0
 10
11.85585168
 20
8.08177468
  0
VERTEX
  8
0
 10
11.95846404
 20
8.11219610
  0
VERTEX
  8
0
 10
11.99275593
 20
8.14472833
  0
VERTEX
  8
0
 10
12.00411967
 20
8.20038907
  0
VERTEX
  8
0
 10
11.82619809
 20
8.20038907
  0
VERTEX
  8
0
 10
11.83134352
 20
8.13139495
  0
VERTEX
  8
0
 10
11.85585168
 20
8.08177468
  0
SEQEND
  0
POLYLINE
  8
Default_Layer
 66
   1
 39
0.000000
 70
    1
  0
VERTEX
  8
0
 10
11.82619809
 20
8.20038907
  0
VERTEX
  8
0
 10
12.00411967
 20
8.20038907
  0
VERTEX
  8
0
 10
11.99275593
 20
8.14472833
  0
VERTEX
  8
0
 10
11.95846404
 20
8.11219610
  0
VERTEX
  8
0
 10
11.85585168
 20
8.08177468
  0
VERTEX
  8
0
 10
11.83134352
 20
8.13139495
  0
VERTEX
  8
0
 10
11.82619809
 20
8.20038907
  0
SEQEND
  0
POLYLINE
  8
Default_Layer
 66
   1
 39
0.000000
 70
    1
  0
VERTEX
  8
0
 10
13.81298908
 20
7.48870275
  0
VERTEX
  8
0
 10
13.89964044
 20
7.61729858
  0
VERTEX
  8
0
 10
14.02059668
 20
7.72567472
  0
VERTEX
  8
0
 10
14.16962583
 20
7.81245407
  0
VERTEX
  8
0
 10
14.34049597
 20
7.87625948
  0
VERTEX
  8
0
 10
14.52697513
 20
7.91571386
  0
VERTEX
  8
0
 10
14.72283138
 20
7.92944006
  0
VERTEX
  8
0
 10
14.92183277
 20
7.91606099
  0
VERTEX
  8
0
 10
15.11774734
 20
7.87419951
  0
VERTEX
  8
0
 10
15.03957961
 20
7.79686740
  0
VERTEX
  8
0
 10
14.93452942
 20
7.75172587
  0
VERTEX
  8
0
 10
14.70259699
 20
7.69627792
  0
VERTEX
  8
0
 10
14.29253313
 20
7.57986103
  0
VERTEX
  8
0
 10
14.06450026
 20
7.52841793
  0
VERTEX
  8
0
 10
13.81298908
 20
7.48870275
  0
SEQEND
  0
POLYLINE
  8
Default_Layer
 66
   1
 39
0.000000
 70
    1
  0
VERTEX
  8
0
 10
15.77012648
 20
7.90385310
  0
VERTEX
  8
0
 10
15.62582631
 20
7.43983156
  0
VERTEX
  8
0
 10
15.55715753
 20
7.20465533
  0
VERTEX
  8
0
 10
15.50324410
 20
6.95493800
  0
VERTEX
  8
0
 10
15.34271244
 20
7.00940187
  0
VERTEX
  8
0
 10
15.19539323
 20
7.07707540
  0
VERTEX
  8
0
 10
14.91017217
 20
7.22182037
  0
VERTEX
  8
0
 10
15.08124616
 20
7.48031168
  0
VERTEX
  8
0
 10
15.15068724
 20
7.62595936
  0
VERTEX
  8
0
 10
15.20670814
 20
7.78523871
  0
VERTEX
  8
0
 10
15.48286928
 20
7.84967207
  0
VERTEX
  8
0
 10
15.77012648
 20
7.90385310
  0
SEQEND
  0
POLYLINE
  8
Default_Layer
 66
   1
 39
0.000000
 70
    1
  0
VERTEX
  8
0
 10
16.33354482
 20
7.72593152
  0
VERTEX
  8
0
 10
16.30313611
 20
7.64147740
  0
VERTEX
  8
0
 10
16.25960727
 20
7.56252782
  0
VERTEX
  8
0
 10
16.15138850
 20
7.40967607
  0
VERTEX
  8
0
 10
16.04528710
 20
7.24444387
  0
VERTEX
  8
0
 10
16.00440497
 20
7.15001872
  0
VERTEX
  8
0
 10
15.97770166
 20
7.04389879
  0
VERTEX
  8
0
 10
15.96871882
 20
6.91678136
  0
VERTEX
  8
0
 10
15.97430315
 20
6.78949778
  0
VERTEX
  8
0
 10
15.98158672
 20
6.66338693
  0
VERTEX
  8
0
 10
15.97770166
 20
6.53978764
  0
VERTEX
  8
0
 10
15.95296281
 20
6.39383751
  0
VERTEX
  8
0
 10
15.91515729
 20
6.26209166
  0
VERTEX
  8
0
 10
15.80672622
 20
6.03266089
  0
VERTEX
  8
0
 10
15.66516848
 20
5.83439153
  0
VERTEX
  8
0
 10
15.50324410
 20
5.65017974
  0
VERTEX
  8
0
 10
15.60900208
 20
5.71859714
  0
VERTEX
  8
0
 10
15.71018329
 20
5.81085120
  0
VERTEX
  8
0
 10
15.80349935
 20
5.92537176
  0
VERTEX
  8
0
 10
15.88566187
 20
6.06058865
  0
VERTEX
  8
0
 10
15.95338247
 20
6.21493172
  0
VERTEX
  8
0
 10
16.00337276
 20
6.38683081
  0
VERTEX
  8
0
 10
16.03234435
 20
6.57471576
  0
VERTEX
  8
0
 10
16.03700885
 20
6.77701642
  0
VERTEX
  8
0
 10
16.13932660
 20
6.69661623
  0
VERTEX
  8
0
 10
16.20232319
 20
6.58798612
  0
VERTEX
  8
0
 10
16.23157190
 20
6.45925237
  0
VERTEX
  8
0
 10
16.23264602
 20
6.31854121
  0
VERTEX
  8
0
 10
16.21111885
 20
6.17397891
  0
VERTEX
  8
0
 10
16.17256367
 20
6.03369173
  0
VERTEX
  8
0
 10
16.06666245
 20
5.79844772
  0
VERTEX
  8
0
 10
15.96831148
 20
5.72269091
  0
VERTEX
  8
0
 10
15.85930228
 20
5.65867338
  0
VERTEX
  8
0
 10
15.61506993
 20
5.56466366
  0
VERTEX
  8
0
 10
15.34548692
 20
5.51403354
  0
VERTEX
  8
0
 10
15.06207473
 20
5.50439800
  0
VERTEX
  8
0
 10
14.77635488
 20
5.53337203
  0
VERTEX
  8
0
 10
14.49984884
 20
5.59857060
  0
VERTEX
  8
0
 10
14.24407814
 20
5.69760870
  0
VERTEX
  8
0
 10
14.02056426
 20
5.82810132
  0
VERTEX
  8
0
 10
13.85439299
 20
5.95917687
  0
VERTEX
  8
0
 10
13.70699728
 20
6.11872638
  0
VERTEX
  8
0
 10
13.65566749
 20
6.20583771
  0
VERTEX
  8
0
 10
13.62742427
 20
6.29605814
  0
VERTEX
  8
0
 10
13.62839851
 20
6.38805121
  0
VERTEX
  8
0
 10
13.66472110
 20
6.48048045
  0
VERTEX
  8
0
 10
13.79349073
 20
6.40963331
  0
VERTEX
  8
0
 10
13.91879453
 20
6.32562546
  0
VERTEX
  8
0
 10
14.16436954
 20
6.14257084
  0
VERTEX
  8
0
 10
14.41217590
 20
5.98020303
  0
VERTEX
  8
0
 10
14.54026889
 20
5.92205371
  0
VERTEX
  8
0
 10
14.67294339
 20
5.88740851
  0
VERTEX
  8
0
 10
14.57726053
 20
5.97025912
  0
VERTEX
  8
0
 10
14.44924275
 20
6.03806600
  0
VERTEX
  8
0
 10
14.30704750
 20
6.10467813
  0
VERTEX
  8
0
 10
14.16883224
 20
6.18394448
  0
VERTEX
  8
0
 10
13.93262038
 20
6.35911919
  0
VERTEX
  8
0
 10
13.82644911
 20
6.45353097
  0
VERTEX
  8
0
 10
13.75368189
 20
6.53978764
  0
VERTEX
  8
0
 10
13.70509997
 20
6.63148313
  0
VERTEX
  8
0
 10
13.67072686
 20
6.74834489
  0
VERTEX
  8
0
 10
13.67783126
 20
6.87212902
  0
VERTEX
  8
0
 10
13.70545900
 20
6.93091575
  0
VERTEX
  8
0
 10
13.75368189
 20
6.98459160
  0
VERTEX
  8
0
 10
13.90435771
 20
6.90234861
  0
VERTEX
  8
0
 10
14.04913275
 20
6.80444640
  0
VERTEX
  8
0
 10
14.32928802
 20
6.58914400
  0
VERTEX
  8
0
 10
14.61076279
 20
6.39364381
  0
VERTEX
  8
0
 10
14.75718721
 20
6.32049437
  0
VERTEX
  8
0
 10
14.91017217
 20
6.27290527
  0
VERTEX
  8
0
 10
14.90351148
 20
6.31477449
  0
VERTEX
  8
0
 10
14.88209010
 20
6.34571299
  0
VERTEX
  8
0
 10
14.80711163
 20
6.38544269
  0
VERTEX
  8
0
 10
14.70952943
 20
6.41338408
  0
VERTEX
  8
0
 10
14.61363620
 20
6.45082685
  0
VERTEX
  8
0
 10
14.36835562
 20
6.60133010
  0
VERTEX
  8
0
 10
14.21285609
 20
6.71220250
  0
VERTEX
  8
0
 10
14.06591033
 20
6.83642238
  0
VERTEX
  8
0
 10
13.95036332
 20
6.96618996
  0
VERTEX
  8
0
 10
13.88905999
 20
7.09370547
  0
VERTEX
  8
0
 10
13.88588877
 20
7.15418127
  0
VERTEX
  8
0
 10
13.90484532
 20
7.21116913
  0
VERTEX
  8
0
 10
13.94878528
 20
7.26369409
  0
VERTEX
  8
0
 10
14.02056426
 20
7.31078116
  0
VERTEX
  8
0
 10
14.17482633
 20
7.24264126
  0
VERTEX
  8
0
 10
14.30996477
 20
7.15537772
  0
VERTEX
  8
0
 10
14.55345661
 20
6.95406561
  0
VERTEX
  8
0
 10
14.67710293
 20
6.85530995
  0
VERTEX
  8
0
 10
14.81221145
 20
6.76801649
  0
VERTEX
  8
0
 10
14.96642863
 20
6.69983170
  0
VERTEX
  8
0
 10
15.14740094
 20
6.65840203
  0
VERTEX
  8
0
 10
15.00504494
 20
6.72313429
  0
VERTEX
  8
0
 10
14.87981706
 20
6.80211316
  0
VERTEX
  8
0
 10
14.64328979
 20
6.98459160
  0
VERTEX
  8
0
 10
14.39642858
 20
7.14886416
  0
VERTEX
  8
0
 10
14.27482808
 20
7.23680654
  0
VERTEX
  8
0
 10
14.16883224
 20
7.34043476
  0
VERTEX
  8
0
 10
14.26876089
 20
7.37789239
  0
VERTEX
  8
0
 10
14.36308323
 20
7.39548703
  0
VERTEX
  8
0
 10
14.45263429
 20
7.39561054
  0
VERTEX
  8
0
 10
14.53824909
 20
7.38065475
  0
VERTEX
  8
0
 10
14.70101010
 20
7.31507266
  0
VERTEX
  8
0
 10
14.85804650
 20
7.21787550
  0
VERTEX
  8
0
 10
15.01603856
 20
7.10819799
  0
VERTEX
  8
0
 10
15.18166654
 20
7.00517489
  0
VERTEX
  8
0
 10
15.36161070
 20
6.92794091
  0
VERTEX
  8
0
 10
15.45903893
 20
6.90497445
  0
VERTEX
  8
0
 10
15.56255130
 20
6.89563081
  0
VERTEX
  8
0
 10
15.58765069
 20
7.07323840
  0
VERTEX
  8
0
 10
15.62981046
 20
7.25848397
  0
VERTEX
  8
0
 10
15.69068253
 20
7.43700281
  0
VERTEX
  8
0
 10
15.77191883
 20
7.59443022
  0
VERTEX
  8
0
 10
15.87517128
 20
7.71640149
  0
VERTEX
  8
0
 10
15.93556979
 20
7.75960211
  0
VERTEX
  8
0
 10
16.00209182
 20
7.78855193
  0
VERTEX
  8
0
 10
16.07494384
 20
7.80145537
  0
VERTEX
  8
0
 10
16.15433235
 20
7.79651684
  0
VERTEX
  8
0
 10
16.24046385
 20
7.77194076
  0
VERTEX
  8
0
 10
16.33354482
 20
7.72593152
  0
SEQEND
  0
POLYLINE
  8
Default_Layer
 66
   1
 39
0.000000
 70
    1
  0
VERTEX
  8
0
 10
12.92338117
 20
7.63697073
  0
VERTEX
  8
0
 10
12.91204292
 20
7.56877493
  0
VERTEX
  8
0
 10
12.88529641
 20
7.50735592
  0
VERTEX
  8
0
 10
12.79436257
 20
7.40577432
  0
VERTEX
  8
0
 10
12.66814761
 20
7.33407807
  0
VERTEX
  8
0
 10
12.52421946
 20
7.29411934
  0
VERTEX
  8
0
 10
12.38014608
 20
7.28775029
  0
VERTEX
  8
0
 10
12.25349542
 20
7.31682307
  0
VERTEX
  8
0
 10
12.16183543
 20
7.38318984
  0
VERTEX
  8
0
 10
12.13461692
 20
7.43093726
  0
VERTEX
  8
0
 10
12.12273406
 20
7.48870275
  0
VERTEX
  8
0
 10
12.14491517
 20
7.58768889
  0
VERTEX
  8
0
 10
12.21508730
 20
7.66971621
  0
VERTEX
  8
0
 10
12.32038346
 20
7.73177089
  0
VERTEX
  8
0
 10
12.44793669
 20
7.77083909
  0
VERTEX
  8
0
 10
12.58488005
 20
7.78390701
  0
VERTEX
  8
0
 10
12.71834655
 20
7.76796080
  0
VERTEX
  8
0
 10
12.83546925
 20
7.71998665
  0
VERTEX
  8
0
 10
12.92338117
 20
7.63697073
  0
SEQEND
  0
POLYLINE
  8
Default_Layer
 66
   1
 39
0.000000
 70
    1
  0
VERTEX
  8
0
 10
12.18204125
 20
7.45904915
  0
VERTEX
  8
0
 10
12.26057091
 20
7.40289431
  0
VERTEX
  8
0
 10
12.36054310
 20
7.37194179
  0
VERTEX
  8
0
 10
12.47219719
 20
7.36478970
  0
VERTEX
  8
0
 10
12.58577254
 20
7.38003619
  0
VERTEX
  8
0
 10
12.69150853
 20
7.41627940
  0
VERTEX
  8
0
 10
12.77964452
 20
7.47211747
  0
VERTEX
  8
0
 10
12.84041988
 20
7.54614854
  0
VERTEX
  8
0
 10
12.86407398
 20
7.63697073
  0
VERTEX
  8
0
 10
12.78044217
 20
7.68688366
  0
VERTEX
  8
0
 10
12.67853613
 20
7.71642368
  0
VERTEX
  8
0
 10
12.56726123
 20
7.72546967
  0
VERTEX
  8
0
 10
12.45552282
 20
7.71390048
  0
VERTEX
  8
0
 10
12.35222626
 20
7.68159497
  0
VERTEX
  8
0
 10
12.26627691
 20
7.62843201
  0
VERTEX
  8
0
 10
12.20658012
 20
7.55429045
  0
VERTEX
  8
0
 10
12.18204125
 20
7.45904915
  0
SEQEND
  0
POLYLINE
  8
Default_Layer
 66
   1
 39
0.000000
 70
    1
  0
VERTEX
  8
0
 10
15.11774734
 20
7.75558512
  0
VERTEX
  8
0
 10
15.07909424
 20
7.60117817
  0
VERTEX
  8
0
 10
15.02333157
 20
7.46409228
  0
VERTEX
  8
0
 10
14.94064280
 20
7.35413841
  0
VERTEX
  8
0
 10
14.82121138
 20
7.28112757
  0
VERTEX
  8
0
 10
14.73295063
 20
7.33851996
  0
VERTEX
  8
0
 10
14.65589125
 20
7.40278940
  0
VERTEX
  8
0
 10
14.57994455
 20
7.45812172
  0
VERTEX
  8
0
 10
14.49502181
 20
7.48870275
  0
VERTEX
  8
0
 10
14.39448650
 20
7.48770533
  0
VERTEX
  8
0
 10
14.29731325
 20
7.46313336
  0
VERTEX
  8
0
 10
14.11294279
 20
7.38039426
  0
VERTEX
  8
0
 10
13.94169026
 20
7.31474241
  0
VERTEX
  8
0
 10
13.86091442
 20
7.31152950
  0
VERTEX
  8
0
 10
13.78333548
 20
7.34043476
  0
VERTEX
  8
0
 10
13.86850322
 20
7.41265221
  0
VERTEX
  8
0
 10
13.97016907
 20
7.46616210
  0
VERTEX
  8
0
 10
14.20911126
 20
7.53438835
  0
VERTEX
  8
0
 10
14.47239434
 20
7.57977180
  0
VERTEX
  8
0
 10
14.73225058
 20
7.63697073
  0
VERTEX
  8
0
 10
14.89468982
 20
7.70507483
  0
VERTEX
  8
0
 10
14.99573631
 20
7.73871781
  0
VERTEX
  8
0
 10
15.11774734
 20
7.75558512
  0
SEQEND
  0
POLYLINE
  8
Default_Layer
 66
   1
 39
0.000000
 70
    1
  0
VERTEX
  8
0
 10
12.86407398
 20
7.63697073
  0
VERTEX
  8
0
 10
12.84041988
 20
7.54614854
  0
VERTEX
  8
0
 10
12.77964452
 20
7.47211747
  0
VERTEX
  8
0
 10
12.69150853
 20
7.41627940
  0
VERTEX
  8
0
 10
12.58577254
 20
7.38003619
  0
VERTEX
  8
0
 10
12.47219719
 20
7.36478970
  0
VERTEX
  8
0
 10
12.36054310
 20
7.37194179
  0
VERTEX
  8
0
 10
12.26057091
 20
7.40289431
  0
VERTEX
  8
0
 10
12.18204125
 20
7.45904915
  0
VERTEX
  8
0
 10
12.20658012
 20
7.55429045
  0
VERTEX
  8
0
 10
12.26627691
 20
7.62843201
  0
VERTEX
  8
0
 10
12.35222626
 20
7.68159497
  0
VERTEX
  8
0
 10
12.45552282
 20
7.71390048
  0
VERTEX
  8
0
 10
12.56726123
 20
7.72546967
  0
VERTEX
  8
0
 10
12.67853613
 20
7.71642368
  0
VERTEX
  8
0
 10
12.78044217
 20
7.68688366
  0
VERTEX
  8
0
 10
12.86407398
 20
7.63697073
  0
SEQEND
  0
POLYLINE
  8
Default_Layer
 66
   1
 39
0.000000
 70
    1
  0
VERTEX
  8
0
 10
13.84264268
 20
7.19216678
  0
VERTEX
  8
0
 10
13.83202080
 20
7.13588788
  0
VERTEX
  8
0
 10
13.80966883
 20
7.09139054
  0
VERTEX
  8
0
 10
13.74235957
 20
7.02515566
  0
VERTEX
  8
0
 10
13.66588466
 20
6.96829234
  0
VERTEX
  8
0
 10
13.60541390
 20
6.89563081
  0
VERTEX
  8
0
 10
13.60613280
 20
6.79255934
  0
VERTEX
  8
0
 10
13.62046586
 20
6.70310759
  0
VERTEX
  8
0
 10
13.64951314
 20
6.62837006
  0
VERTEX
  8
0
 10
13.69437469
 20
6.56944124
  0
VERTEX
  8
0
 10
13.59276135
 20
6.46980483
  0
VERTEX
  8
0
 10
13.55527841
 20
6.36118781
  0
VERTEX
  8
0
 10
13.56967215
 20
6.24854653
  0
VERTEX
  8
0
 10
13.62368884
 20
6.13683731
  0
VERTEX
  8
0
 10
13.70507476
 20
6.03101649
  0
VERTEX
  8
0
 10
13.80157618
 20
5.93604040
  0
VERTEX
  8
0
 10
13.99091066
 20
5.79844772
  0
VERTEX
  8
0
 10
13.44505742
 20
5.49876715
  0
VERTEX
  8
0
 10
13.18509797
 20
5.33626651
  0
VERTEX
  8
0
 10
12.95303477
 20
5.14606859
  0
VERTEX
  8
0
 10
12.87502170
 20
5.22533565
  0
VERTEX
  8
0
 10
12.78845488
 20
5.26252214
  0
VERTEX
  8
0
 10
12.50823082
 20
5.29433657
  0
VERTEX
  8
0
 10
12.34518290
 20
5.33065869
  0
VERTEX
  8
0
 10
12.21169485
 20
5.35364377
  0
VERTEX
  8
0
 10
12.01183994
 20
5.31633206
  0
VERTEX
  8
0
 10
11.82482877
 20
5.23193325
  0
VERTEX
  8
0
 10
11.65478620
 20
5.10655142
  0
VERTEX
  8
0
 10
11.50583710
 20
4.94629062
  0
VERTEX
  8
0
 10
11.38210632
 20
4.75725492
  0
VERTEX
  8
0
 10
11.28771873
 20
4.54554839
  0
VERTEX
  8
0
 10
11.22679919
 20
4.31727510
  0
VERTEX
  8
0
 10
11.20347255
 20
4.07853910
  0
VERTEX
  8
0
 10
11.22623778
 20
3.93359360
  0
VERTEX
  8
0
 10
11.23775344
 20
3.85099879
  0
VERTEX
  8
0
 10
11.23312615
 20
3.78200313
  0
VERTEX
  8
0
 10
11.19689379
 20
3.71356557
  0
VERTEX
  8
0
 10
11.13327561
 20
3.64245435
  0
VERTEX
  8
0
 10
10.95699535
 20
3.49853937
  0
VERTEX
  8
0
 10
10.77051251
 20
3.36291509
  0
VERTEX
  8
0
 10
10.64005421
 20
3.24823839
  0
VERTEX
  8
0
 10
10.58388281
 20
3.61876740
  0
VERTEX
  8
0
 10
10.54840688
 20
3.98580997
  0
VERTEX
  8
0
 10
10.53395081
 20
4.34795229
  0
VERTEX
  8
0
 10
10.54083900
 20
4.70378054
  0
VERTEX
  8
0
 10
10.56939584
 20
5.05188090
  0
VERTEX
  8
0
 10
10.61994572
 20
5.39083956
  0
VERTEX
  8
0
 10
10.69281304
 20
5.71924269
  0
VERTEX
  8
0
 10
10.78832219
 20
6.03567650
  0
VERTEX
  8
0
 10
12.16002065
 20
6.75415033
  0
VERTEX
  8
0
 10
12.87180767
 20
7.08775626
  0
VERTEX
  8
0
 10
13.24540125
 20
7.23693403
  0
VERTEX
  8
0
 10
13.63506750
 20
7.37008836
  0
VERTEX
  8
0
 10
13.75929251
 20
7.30157611
  0
VERTEX
  8
0
 10
13.84264268
 20
7.19216678
  0
SEQEND
  0
POLYLINE
  8
Default_Layer
 66
   1
 39
0.000000
 70
    1
  0
VERTEX
  8
0
 10
13.39783872
 20
6.21359808
  0
VERTEX
  8
0
 10
13.39862684
 20
6.29208866
  0
VERTEX
  8
0
 10
13.37877202
 20
6.35798635
  0
VERTEX
  8
0
 10
13.34124551
 20
6.41137635
  0
VERTEX
  8
0
 10
13.28901853
 20
6.45234390
  0
VERTEX
  8
0
 10
13.15234819
 20
6.49735249
  0
VERTEX
  8
0
 10
12.99253093
 20
6.49369389
  0
VERTEX
  8
0
 10
12.83333670
 20
6.44204986
  0
VERTEX
  8
0
 10
12.76140133
 20
6.39844637
  0
VERTEX
  8
0
 10
12.69853545
 20
6.34310218
  0
VERTEX
  8
0
 10
12.64771029
 20
6.27610252
  0
VERTEX
  8
0
 10
12.61189710
 20
6.19753260
  0
VERTEX
  8
0
 10
12.59406713
 20
6.10747766
  0
VERTEX
  8
0
 10
12.59719161
 20
6.00602290
  0
VERTEX
  8
0
 10
12.69875284
 20
5.91706882
  0
VERTEX
  8
0
 10
12.81790401
 20
5.87333291
  0
VERTEX
  8
0
 10
12.94563867
 20
5.86862051
  0
VERTEX
  8
0
 10
13.07295037
 20
5.89673696
  0
VERTEX
  8
0
 10
13.19083268
 20
5.95148760
  0
VERTEX
  8
0
 10
13.29027913
 20
6.02667777
  0
VERTEX
  8
0
 10
13.36228330
 20
6.11611282
  0
VERTEX
  8
0
 10
13.39783872
 20
6.21359808
  0
SEQEND
  0
POLYLINE
  8
Default_Layer
 66
   1
 39
0.000000
 70
    1
  0
VERTEX
  8
0
 10
11.70758370
 20
6.06533009
  0
VERTEX
  8
0
 10
11.76914627
 20
6.03995785
  0
VERTEX
  8
0
 10
11.83098676
 20
6.03139404
  0
VERTEX
  8
0
 10
11.94518442
 20
6.05828197
  0
VERTEX
  8
0
 10
12.02954252
 20
6.13317436
  0
VERTEX
  8
0
 10
12.05408354
 20
6.18461612
  0
VERTEX
  8
0
 10
12.06342686
 20
6.24325168
  0
VERTEX
  8
0
 10
12.02087476
 20
6.30435602
  0
VERTEX
  8
0
 10
11.96332233
 20
6.33848363
  0
VERTEX
  8
0
 10
11.89799426
 20
6.34721650
  0
VERTEX
  8
0
 10
11.83211526
 20
6.33213664
  0
VERTEX
  8
0
 10
11.77291000
 20
6.29482607
  0
VERTEX
  8
0
 10
11.72760320
 20
6.23686678
  0
VERTEX
  8
0
 10
11.70341953
 20
6.15984078
  0
VERTEX
  8
0
 10
11.70758370
 20
6.06533009
  0
SEQEND
  0
POLYLINE
  8
Default_Layer
 66
   1
 39
0.000000
 70
    1
  0
VERTEX
  8
0
 10
10.99589737
 20
4.87918622
  0
VERTEX
  8
0
 10
11.08637280
 20
4.85864432
  0
VERTEX
  8
0
 10
11.16355341
 20
4.88644076
  0
VERTEX
  8
0
 10
11.21621320
 20
4.95509033
  0
VERTEX
  8
0
 10
11.23312615
 20
5.05710780
  0
VERTEX
  8
0
 10
11.18383557
 20
5.09431615
  0
VERTEX
  8
0
 10
11.13284499
 20
5.10637635
  0
VERTEX
  8
0
 10
11.08380970
 20
5.09736983
  0
VERTEX
  8
0
 10
11.04038498
 20
5.07137802
  0
VERTEX
  8
0
 10
11.00622610
 20
5.03248232
  0
VERTEX
  8
0
 10
10.98498836
 20
4.98476417
  0
VERTEX
  8
0
 10
10.98032702
 20
4.93230500
  0
VERTEX
  8
0
 10
10.99589737
 20
4.87918622
  0
SEQEND
  0
POLYLINE
  8
Default_Layer
 66
   1
 39
0.000000
 70
    1
  0
VERTEX
  8
0
 10
11.70758370
 20
6.98459160
  0
VERTEX
  8
0
 10
11.66466760
 20
6.89359942
  0
VERTEX
  8
0
 10
11.58601056
 20
6.81554671
  0
VERTEX
  8
0
 10
11.48449382
 20
6.75484452
  0
VERTEX
  8
0
 10
11.37299862
 20
6.71590386
  0
VERTEX
  8
0
 10
11.26440621
 20
6.70313577
  0
VERTEX
  8
0
 10
11.17159784
 20
6.72095128
  0
VERTEX
  8
0
 10
11.10745474
 20
6.77376141
  0
VERTEX
  8
0
 10
11.08485816
 20
6.86597721
  0
VERTEX
  8
0
 10
11.10648331
 20
6.93297640
  0
VERTEX
  8
0
 10
11.16254928
 20
6.99305829
  0
VERTEX
  8
0
 10
11.24386644
 20
7.04222833
  0
VERTEX
  8
0
 10
11.34124518
 20
7.07649197
  0
VERTEX
  8
0
 10
11.44549589
 20
7.09185466
  0
VERTEX
  8
0
 10
11.54742896
 20
7.08432186
  0
VERTEX
  8
0
 10
11.63785477
 20
7.04989903
  0
VERTEX
  8
0
 10
11.70758370
 20
6.98459160
  0
SEQEND
  0
POLYLINE
  8
Default_Layer
 66
   1
 39
0.000000
 70
    1
  0
VERTEX
  8
0
 10
11.11451176
 20
6.83632361
  0
VERTEX
  8
0
 10
11.14645657
 20
6.78272217
  0
VERTEX
  8
0
 10
11.20724281
 20
6.75594789
  0
VERTEX
  8
0
 10
11.28741772
 20
6.75289219
  0
VERTEX
  8
0
 10
11.37752858
 20
6.77044646
  0
VERTEX
  8
0
 10
11.46812263
 20
6.80550213
  0
VERTEX
  8
0
 10
11.54974713
 20
6.85495060
  0
VERTEX
  8
0
 10
11.61294934
 20
6.91568328
  0
VERTEX
  8
0
 10
11.64827651
 20
6.98459160
  0
VERTEX
  8
0
 10
11.58333777
 20
7.02962807
  0
VERTEX
  8
0
 10
11.50107946
 20
7.04658090
  0
VERTEX
  8
0
 10
11.40990683
 20
7.04041048
  0
VERTEX
  8
0
 10
11.31822509
 20
7.01607721
  0
VERTEX
  8
0
 10
11.23443949
 20
6.97854149
  0
VERTEX
  8
0
 10
11.16695524
 20
6.93276372
  0
VERTEX
  8
0
 10
11.12417759
 20
6.88370430
  0
VERTEX
  8
0
 10
11.11451176
 20
6.83632361
  0
SEQEND
  0
POLYLINE
  8
Default_Layer
 66
   1
 39
0.000000
 70
    1
  0
VERTEX
  8
0
 10
11.64827651
 20
6.98459160
  0
VERTEX
  8
0
 10
11.61294934
 20
6.91568328
  0
VERTEX
  8
0
 10
11.54974713
 20
6.85495060
  0
VERTEX
  8
0
 10
11.46812263
 20
6.80550213
  0
VERTEX
  8
0
 10
11.37752858
 20
6.77044646
  0
VERTEX
  8
0
 10
11.28741772
 20
6.75289219
  0
VERTEX
  8
0
 10
11.20724281
 20
6.75594789
  0
VERTEX
  8
0
 10
11.14645657
 20
6.78272217
  0
VERTEX
  8
0
 10
11.11451176
 20
6.83632361
  0
VERTEX
  8
0
 10
11.12417759
 20
6.88370430
  0
VERTEX
  8
0
 10
11.16695524
 20
6.93276372
  0
VERTEX
  8
0
 10
11.23443949
 20
6.97854149
  0
VERTEX
  8
0
 10
11.31822509
 20
7.01607721
  0
VERTEX
  8
0
 10
11.40990683
 20
7.04041048
  0
VERTEX
  8
0
 10
11.50107946
 20
7.04658090
  0
VERTEX
  8
0
 10
11.58333777
 20
7.02962807
  0
VERTEX
  8
0
 10
11.64827651
 20
6.98459160
  0
SEQEND
  0
POLYLINE
  8
Default_Layer
 66
   1
 39
0.000000
 70
    1
  0
VERTEX
  8
0
 10
12.59719161
 20
6.00602290
  0
VERTEX
  8
0
 10
12.59406713
 20
6.10747766
  0
VERTEX
  8
0
 10
12.61189710
 20
6.19753260
  0
VERTEX
  8
0
 10
12.64771029
 20
6.27610252
  0
VERTEX
  8
0
 10
12.69853545
 20
6.34310218
  0
VERTEX
  8
0
 10
12.76140133
 20
6.39844637
  0
VERTEX
  8
0
 10
12.83333670
 20
6.44204986
  0
VERTEX
  8
0
 10
12.99253093
 20
6.49369389
  0
VERTEX
  8
0
 10
13.15234819
 20
6.49735249
  0
VERTEX
  8
0
 10
13.28901853
 20
6.45234390
  0
VERTEX
  8
0
 10
13.34124551
 20
6.41137635
  0
VERTEX
  8
0
 10
13.37877202
 20
6.35798635
  0
VERTEX
  8
0
 10
13.39862684
 20
6.29208866
  0
VERTEX
  8
0
 10
13.39783872
 20
6.21359808
  0
VERTEX
  8
0
 10
13.36228330
 20
6.11611282
  0
VERTEX
  8
0
 10
13.29027913
 20
6.02667777
  0
VERTEX
  8
0
 10
13.19083268
 20
5.95148760
  0
VERTEX
  8
0
 10
13.07295037
 20
5.89673696
  0
VERTEX
  8
0
 10
12.94563867
 20
5.86862051
  0
VERTEX
  8
0
 10
12.81790401
 20
5.87333291
  0
VERTEX
  8
0
 10
12.69875284
 20
5.91706882
  0
VERTEX
  8
0
 10
12.59719161
 20
6.00602290
  0
SEQEND
  0
POLYLINE
  8
Default_Layer
 66
   1
 39
0.000000
 70
    1
  0
VERTEX
  8
0
 10
13.33853153
 20
6.30255887
  0
VERTEX
  8
0
 10
13.31653342
 20
6.35421467
  0
VERTEX
  8
0
 10
13.28292310
 20
6.39483008
  0
VERTEX
  8
0
 10
13.18846152
 20
6.44459310
  0
VERTEX
  8
0
 10
13.07033827
 20
6.45515467
  0
VERTEX
  8
0
 10
12.94374483
 20
6.42982152
  0
VERTEX
  8
0
 10
12.82387269
 20
6.37190040
  0
VERTEX
  8
0
 10
12.72591331
 20
6.28469803
  0
VERTEX
  8
0
 10
12.66505819
 20
6.17152115
  0
VERTEX
  8
0
 10
12.65329206
 20
6.10622562
  0
VERTEX
  8
0
 10
12.65649880
 20
6.03567650
  0
VERTEX
  8
0
 10
12.75019779
 20
5.95899697
  0
VERTEX
  8
0
 10
12.86378266
 20
5.92519038
  0
VERTEX
  8
0
 10
12.98610407
 20
5.92854023
  0
VERTEX
  8
0
 10
13.10601265
 20
5.96333004
  0
VERTEX
  8
0
 10
13.21235905
 20
6.02384330
  0
VERTEX
  8
0
 10
13.29399390
 20
6.10436352
  0
VERTEX
  8
0
 10
13.33976784
 20
6.19917421
  0
VERTEX
  8
0
 10
13.33853153
 20
6.30255887
  0
SEQEND
  0
POLYLINE
  8
Default_Layer
 66
   1
 39
0.000000
 70
    1
  0
VERTEX
  8
0
 10
12.65649880
 20
6.03567650
  0
VERTEX
  8
0
 10
12.65329206
 20
6.10622562
  0
VERTEX
  8
0
 10
12.66505819
 20
6.17152115
  0
VERTEX
  8
0
 10
12.72591331
 20
6.28469803
  0
VERTEX
  8
0
 10
12.82387269
 20
6.37190040
  0
VERTEX
  8
0
 10
12.94374483
 20
6.42982152
  0
VERTEX
  8
0
 10
13.07033827
 20
6.45515467
  0
VERTEX
  8
0
 10
13.18846152
 20
6.44459310
  0
VERTEX
  8
0
 10
13.28292310
 20
6.39483008
  0
VERTEX
  8
0
 10
13.31653342
 20
6.35421467
  0
VERTEX
  8
0
 10
13.33853153
 20
6.30255887
  0
VERTEX
  8
0
 10
13.33976784
 20
6.19917421
  0
VERTEX
  8
0
 10
13.29399390
 20
6.10436352
  0
VERTEX
  8
0
 10
13.21235905
 20
6.02384330
  0
VERTEX
  8
0
 10
13.10601265
 20
5.96333004
  0
VERTEX
  8
0
 10
12.98610407
 20
5.92854023
  0
VERTEX
  8
0
 10
12.86378266
 20
5.92519038
  0
VERTEX
  8
0
 10
12.75019779
 20
5.95899697
  0
VERTEX
  8
0
 10
12.65649880
 20
6.03567650
  0
SEQEND
  0
POLYLINE
  8
Default_Layer
 66
   1
 39
0.000000
 70
    1
  0
VERTEX
  8
0
 10
12.06342686
 20
6.24325168
  0
VERTEX
  8
0
 10
12.05408354
 20
6.18461612
  0
VERTEX
  8
0
 10
12.02954252
 20
6.13317436
  0
VERTEX
  8
0
 10
11.94518442
 20
6.05828197
  0
VERTEX
  8
0
 10
11.83098676
 20
6.03139404
  0
VERTEX
  8
0
 10
11.76914627
 20
6.03995785
  0
VERTEX
  8
0
 10
11.70758370
 20
6.06533009
  0
VERTEX
  8
0
 10
11.70341953
 20
6.15984078
  0
VERTEX
  8
0
 10
11.72760320
 20
6.23686678
  0
VERTEX
  8
0
 10
11.77291000
 20
6.29482607
  0
VERTEX
  8
0
 10
11.83211526
 20
6.33213664
  0
VERTEX
  8
0
 10
11.89799426
 20
6.34721650
  0
VERTEX
  8
0
 10
11.96332233
 20
6.33848363
  0
VERTEX
  8
0
 10
12.02087476
 20
6.30435602
  0
VERTEX
  8
0
 10
12.06342686
 20
6.24325168
  0
SEQEND
  0
POLYLINE
  8
Default_Layer
 66
   1
 39
0.000000
 70
    1
  0
VERTEX
  8
0
 10
11.76689089
 20
6.09498369
  0
VERTEX
  8
0
 10
11.85499482
 20
6.09553500
  0
VERTEX
  8
0
 10
11.92520272
 20
6.11418827
  0
VERTEX
  8
0
 10
11.97556190
 20
6.15289284
  0
VERTEX
  8
0
 10
12.00411967
 20
6.21359808
  0
VERTEX
  8
0
 10
11.97818324
 20
6.26231984
  0
VERTEX
  8
0
 10
11.94068662
 20
6.28876432
  0
VERTEX
  8
0
 10
11.89687889
 20
6.29499180
  0
VERTEX
  8
0
 10
11.85200911
 20
6.28306254
  0
VERTEX
  8
0
 10
11.81132635
 20
6.25503682
  0
VERTEX
  8
0
 10
11.78007969
 20
6.21297492
  0
VERTEX
  8
0
 10
11.76351818
 20
6.15893712
  0
VERTEX
  8
0
 10
11.76689089
 20
6.09498369
  0
SEQEND
  0
POLYLINE
  8
Default_Layer
 66
   1
 39
0.000000
 70
    1
  0
VERTEX
  8
0
 10
12.00411967
 20
6.21359808
  0
VERTEX
  8
0
 10
11.97556190
 20
6.15289284
  0
VERTEX
  8
0
 10
11.92520272
 20
6.11418827
  0
VERTEX
  8
0
 10
11.85499482
 20
6.09553500
  0
VERTEX
  8
0
 10
11.76689089
 20
6.09498369
  0
VERTEX
  8
0
 10
11.76351818
 20
6.15893712
  0
VERTEX
  8
0
 10
11.78007969
 20
6.21297492
  0
VERTEX
  8
0
 10
11.81132635
 20
6.25503682
  0
VERTEX
  8
0
 10
11.85200911
 20
6.28306254
  0
VERTEX
  8
0
 10
11.89687889
 20
6.29499180
  0
VERTEX
  8
0
 10
11.94068662
 20
6.28876432
  0
VERTEX
  8
0
 10
11.97818324
 20
6.26231984
  0
VERTEX
  8
0
 10
12.00411967
 20
6.21359808
  0
SEQEND
  0
POLYLINE
  8
Default_Layer
 66
   1
 39
0.000000
 70
    1
  0
VERTEX
  8
0
 10
14.96947936
 20
5.41295096
  0
VERTEX
  8
0
 10
14.96321107
 20
5.19254472
  0
VERTEX
  8
0
 10
14.94249709
 20
4.97842212
  0
VERTEX
  8
0
 10
14.86045173
 20
4.56997995
  0
VERTEX
  8
0
 10
14.72878254
 20
4.18952861
  0
VERTEX
  8
0
 10
14.55292878
 20
3.83897230
  0
VERTEX
  8
0
 10
14.33832969
 20
3.52021519
  0
VERTEX
  8
0
 10
14.09042455
 20
3.23516146
  0
VERTEX
  8
0
 10
13.81465260
 20
2.98571528
  0
VERTEX
  8
0
 10
13.51645311
 20
2.77378084
  0
VERTEX
  8
0
 10
13.29118023
 20
2.64521033
  0
VERTEX
  8
0
 10
13.04433614
 20
2.52890790
  0
VERTEX
  8
0
 10
12.79632175
 20
2.43866775
  0
VERTEX
  8
0
 10
12.56753801
 20
2.38828408
  0
VERTEX
  8
0
 10
12.27360918
 20
2.37711897
  0
VERTEX
  8
0
 10
12.00198163
 20
2.41352057
  0
VERTEX
  8
0
 10
11.75066378
 20
2.48959780
  0
VERTEX
  8
0
 10
11.51766407
 20
2.59745960
  0
VERTEX
  8
0
 10
11.30099091
 20
2.72921491
  0
VERTEX
  8
0
 10
11.09865272
 20
2.87697265
  0
VERTEX
  8
0
 10
10.72901500
 20
3.18893119
  0
VERTEX
  8
0
 10
10.85229578
 20
3.33963868
  0
VERTEX
  8
0
 10
10.99144950
 20
3.47467638
  0
VERTEX
  8
0
 10
11.29243334
 20
3.72269594
  0
VERTEX
  8
0
 10
11.27813033
 20
4.03145427
  0
VERTEX
  8
0
 10
11.30227405
 20
4.34831397
  0
VERTEX
  8
0
 10
11.33374472
 20
4.50216484
  0
VERTEX
  8
0
 10
11.38080461
 20
4.64890063
  0
VERTEX
  8
0
 10
11.44544624
 20
4.78547456
  0
VERTEX
  8
0
 10
11.52966212
 20
4.90883981
  0
VERTEX
  8
0
 10
11.66268425
 20
5.04046081
  0
VERTEX
  8
0
 10
11.83138504
 20
5.16060902
  0
VERTEX
  8
0
 10
12.01231915
 20
5.25124682
  0
VERTEX
  8
0
 10
12.18204125
 20
5.29433657
  0
VERTEX
  8
0
 10
12.34096941
 20
5.28702560
  0
VERTEX
  8
0
 10
12.57226533
 20
5.24992899
  0
VERTEX
  8
0
 10
12.78637079
 20
5.18314238
  0
VERTEX
  8
0
 10
12.85899016
 20
5.13864521
  0
VERTEX
  8
0
 10
12.89372758
 20
5.08676140
  0
VERTEX
  8
0
 10
13.14914455
 20
5.22979494
  0
VERTEX
  8
0
 10
13.39783872
 20
5.38329736
  0
VERTEX
  8
0
 10
13.96125706
 20
5.73914053
  0
VERTEX
  8
0
 10
14.21953599
 20
5.66381648
  0
VERTEX
  8
0
 10
14.45728814
 20
5.56796567
  0
VERTEX
  8
0
 10
14.69908033
 20
5.47615490
  0
VERTEX
  8
0
 10
14.96947936
 20
5.41295096
  0
SEQEND
  0
POLYLINE
  8
Default_Layer
 66
   1
 39
0.000000
 70
    1
  0
VERTEX
  8
0
 10
11.23312615
 20
5.05710780
  0
VERTEX
  8
0
 10
11.21621320
 20
4.95509033
  0
VERTEX
  8
0
 10
11.16355341
 20
4.88644076
  0
VERTEX
  8
0
 10
11.08637280
 20
4.85864432
  0
VERTEX
  8
0
 10
10.99589737
 20
4.87918622
  0
VERTEX
  8
0
 10
10.98032702
 20
4.93230500
  0
VERTEX
  8
0
 10
10.98498836
 20
4.98476417
  0
VERTEX
  8
0
 10
11.00622610
 20
5.03248232
  0
VERTEX
  8
0
 10
11.04038498
 20
5.07137802
  0
VERTEX
  8
0
 10
11.08380970
 20
5.09736983
  0
VERTEX
  8
0
 10
11.13284499
 20
5.10637635
  0
VERTEX
  8
0
 10
11.18383557
 20
5.09431615
  0
VERTEX
  8
0
 10
11.23312615
 20
5.05710780
  0
SEQEND
  0
POLYLINE
  8
Default_Layer
 66
   1
 39
0.000000
 70
    1
  0
VERTEX
  8
0
 10
11.05520457
 20
4.90883981
  0
VERTEX
  8
0
 10
11.10490518
 20
4.91813402
  0
VERTEX
  8
0
 10
11.14124205
 20
4.94099930
  0
VERTEX
  8
0
 10
11.16421377
 20
4.97743844
  0
VERTEX
  8
0
 10
11.17381895
 20
5.02745420
  0
VERTEX
  8
0
 10
11.14532652
 20
5.04817327
  0
VERTEX
  8
0
 10
11.11443437
 20
5.05243322
  0
VERTEX
  8
0
 10
11.05805926
 20
5.02418209
  0
VERTEX
  8
0
 10
11.02991040
 20
4.96791342
  0
VERTEX
  8
0
 10
11.03430106
 20
4.93715145
  0
VERTEX
  8
0
 10
11.05520457
 20
4.90883981
  0
SEQEND
  0
POLYLINE
  8
Default_Layer
 66
   1
 39
0.000000
 70
    1
  0
VERTEX
  8
0
 10
11.17381895
 20
5.02745420
  0
VERTEX
  8
0
 10
11.16421377
 20
4.97743844
  0
VERTEX
  8
0
 10
11.14124205
 20
4.94099930
  0
VERTEX
  8
0
 10
11.10490518
 20
4.91813402
  0
VERTEX
  8
0
 10
11.05520457
 20
4.90883981
  0
VERTEX
  8
0
 10
11.03430106
 20
4.93715145
  0
VERTEX
  8
0
 10
11.02991040
 20
4.96791342
  0
VERTEX
  8
0
 10
11.05805926
 20
5.02418209
  0
VERTEX
  8
0
 10
11.11443437
 20
5.05243322
  0
VERTEX
  8
0
 10
11.14532652
 20
5.04817327
  0
VERTEX
  8
0
 10
11.17381895
 20
5.02745420
  0
SEQEND
  0
POLYLINE
  8
Default_Layer
 66
   1
 39
0.000000
 70
    1
  0
VERTEX
  8
0
 10
15.59220490
 20
2.68482005
  0
VERTEX
  8
0
 10
15.65391768
 20
2.55379418
  0
VERTEX
  8
0
 10
15.74330348
 20
2.45043299
  0
VERTEX
  8
0
 10
15.94804806
 20
2.26966969
  0
VERTEX
  8
0
 10
15.94357978
 20
2.19106736
  0
VERTEX
  8
0
 10
15.95622933
 20
2.11307023
  0
VERTEX
  8
0
 10
16.01179011
 20
1.95388017
  0
VERTEX
  8
0
 10
16.07254686
 20
1.78207669
  0
VERTEX
  8
0
 10
16.09169137
 20
1.68831278
  0
VERTEX
  8
0
 10
16.09631604
 20
1.58763696
  0
VERTEX
  8
0
 10
16.04163952
 20
1.54563318
  0
VERTEX
  8
0
 10
15.96217334
 20
1.52861942
  0
VERTEX
  8
0
 10
15.77012648
 20
1.52832977
  0
VERTEX
  8
0
 10
15.83655441
 20
1.75802595
  0
VERTEX
  8
0
 10
15.85911491
 20
1.88383361
  0
VERTEX
  8
0
 10
15.85908727
 20
2.03244091
  0
VERTEX
  8
0
 10
15.83980505
 20
2.07247284
  0
VERTEX
  8
0
 10
15.79777788
 20
2.08975703
  0
VERTEX
  8
0
 10
15.74933841
 20
2.10062337
  0
VERTEX
  8
0
 10
15.71081928
 20
2.12140170
  0
VERTEX
  8
0
 10
15.64916925
 20
2.09761381
  0
VERTEX
  8
0
 10
15.60691116
 20
2.05448580
  0
VERTEX
  8
0
 10
15.58050856
 20
1.99555448
  0
VERTEX
  8
0
 10
15.56642496
 20
1.92435668
  0
VERTEX
  8
0
 10
15.56106893
 20
1.75930889
  0
VERTEX
  8
0
 10
15.56255130
 20
1.58763696
  0
VERTEX
  8
0
 10
15.50908765
 20
1.58890070
  0
VERTEX
  8
0
 10
15.47338458
 20
1.57260423
  0
VERTEX
  8
0
 10
15.43778447
 20
1.55641073
  0
VERTEX
  8
0
 10
15.38462972
 20
1.55798336
  0
VERTEX
  8
0
 10
15.36360583
 20
1.61170017
  0
VERTEX
  8
0
 10
15.36292118
 20
1.66855290
  0
VERTEX
  8
0
 10
15.39390479
 20
1.78858880
  0
VERTEX
  8
0
 10
15.42025085
 20
1.91193637
  0
VERTEX
  8
0
 10
15.41376929
 20
1.97292869
  0
VERTEX
  8
0
 10
15.38462972
 20
2.03244091
  0
VERTEX
  8
0
 10
15.32624899
 20
1.76422022
  0
VERTEX
  8
0
 10
15.28175099
 20
1.64572361
  0
VERTEX
  8
0
 10
15.20670814
 20
1.55798336
  0
VERTEX
  8
0
 10
14.99913296
 20
1.55798336
  0
VERTEX
  8
0
 10
14.98894306
 20
1.61689284
  0
VERTEX
  8
0
 10
14.99512503
 20
1.68396262
  0
VERTEX
  8
0
 10
15.03180175
 20
1.83496221
  0
VERTEX
  8
0
 10
15.05955747
 20
1.99574036
  0
VERTEX
  8
0
 10
15.05458820
 20
2.07503334
  0
VERTEX
  8
0
 10
15.02878655
 20
2.15105530
  0
VERTEX
  8
0
 10
14.90136284
 20
2.16414748
  0
VERTEX
  8
0
 10
14.80517812
 20
2.13870058
  0
VERTEX
  8
0
 10
14.73752100
 20
2.08258232
  0
VERTEX
  8
0
 10
14.69568008
 20
2.00366041
  0
VERTEX
  8
0
 10
14.67694397
 20
1.90980257
  0
VERTEX
  8
0
 10
14.67860128
 20
1.80887650
  0
VERTEX
  8
0
 10
14.69794062
 20
1.70874993
  0
VERTEX
  8
0
 10
14.73225058
 20
1.61729056
  0
VERTEX
  8
0
 10
14.46536821
 20
1.61729056
  0
VERTEX
  8
0
 10
14.40767916
 20
1.71528289
  0
VERTEX
  8
0
 10
14.36694475
 20
1.83022986
  0
VERTEX
  8
0
 10
14.34576848
 20
1.96473497
  0
VERTEX
  8
0
 10
14.34675382
 20
2.12140170
  0
VERTEX
  8
0
 10
14.28602496
 20
2.03201194
  0
VERTEX
  8
0
 10
14.26305671
 20
1.91180320
  0
VERTEX
  8
0
 10
14.27452362
 20
1.78519273
  0
VERTEX
  8
0
 10
14.31710023
 20
1.67659775
  0
VERTEX
  8
0
 10
14.27325797
 20
1.64599990
  0
VERTEX
  8
0
 10
14.20180573
 20
1.64321241
  0
VERTEX
  8
0
 10
14.12128014
 20
1.64970419
  0
VERTEX
  8
0
 10
14.05021786
 20
1.64694415
  0
VERTEX
  8
0
 10
14.09056026
 20
1.81376508
  0
VERTEX
  8
0
 10
14.13917865
 20
1.97313372
  0
VERTEX
  8
0
 10
14.08852342
 20
2.07075760
  0
VERTEX
  8
0
 10
14.05120530
 20
2.10756930
  0
VERTEX
  8
0
 10
13.99091066
 20
2.12140170
  0
VERTEX
  8
0
 10
13.93035750
 20
2.09865950
  0
VERTEX
  8
0
 10
13.88990832
 20
2.05878358
  0
VERTEX
  8
0
 10
13.86657299
 20
2.00564675
  0
VERTEX
  8
0
 10
13.85736140
 20
1.94312185
  0
VERTEX
  8
0
 10
13.86934892
 20
1.80539906
  0
VERTEX
  8
0
 10
13.90194987
 20
1.67659775
  0
VERTEX
  8
0
 10
13.85138290
 20
1.66713064
  0
VERTEX
  8
0
 10
13.81407865
 20
1.68999430
  0
VERTEX
  8
0
 10
13.76044715
 20
1.79464332
  0
VERTEX
  8
0
 10
13.70343302
 20
1.91440355
  0
VERTEX
  8
0
 10
13.66190048
 20
1.95615622
  0
VERTEX
  8
0
 10
13.60541390
 20
1.97313372
  0
VERTEX
  8
0
 10
13.61280145
 20
2.01472239
  0
VERTEX
  8
0
 10
13.63082734
 20
2.04602952
  0
VERTEX
  8
0
 10
13.67965036
 20
2.09154218
  0
VERTEX
  8
0
 10
13.71359535
 20
2.13715780
  0
VERTEX
  8
0
 10
13.71302370
 20
2.16859363
  0
VERTEX
  8
0
 10
13.69437469
 20
2.21036249
  0
VERTEX
  8
0
 10
13.90021100
 20
2.41473641
  0
VERTEX
  8
0
 10
14.14560326
 20
2.61585558
  0
VERTEX
  8
0
 10
14.28830130
 20
2.70150388
  0
VERTEX
  8
0
 10
14.44709041
 20
2.76990959
  0
VERTEX
  8
0
 10
14.62403799
 20
2.81559641
  0
VERTEX
  8
0
 10
14.82121138
 20
2.83308803
  0
VERTEX
  8
0
 10
14.95812646
 20
2.82424842
  0
VERTEX
  8
0
 10
15.09534829
 20
2.79640966
  0
VERTEX
  8
0
 10
15.22894285
 20
2.74984309
  0
VERTEX
  8
0
 10
15.35497612
 20
2.68482005
  0
VERTEX
  8
0
 10
15.59220490
 20
2.68482005
  0
SEQEND
  0
POLYLINE
  8
Default_Layer
 66
   1
 39
0.000000
 70
    1
  0
VERTEX
  8
0
 10
14.99913296
 20
2.09174811
  0
VERTEX
  8
0
 10
14.99172913
 20
1.91351084
  0
VERTEX
  8
0
 10
14.96897245
 20
1.75082680
  0
VERTEX
  8
0
 10
14.93164242
 20
1.60292203
  0
VERTEX
  8
0
 10
14.88051857
 20
1.46902257
  0
VERTEX
  8
0
 10
14.79092911
 20
1.63317940
  0
VERTEX
  8
0
 10
14.75479358
 20
1.74344444
  0
VERTEX
  8
0
 10
14.73571169
 20
1.85633763
  0
VERTEX
  8
0
 10
14.74214407
 20
1.95973679
  0
VERTEX
  8
0
 10
14.78255132
 20
2.04151972
  0
VERTEX
  8
0
 10
14.81813947
 20
2.07051691
  0
VERTEX
  8
0
 10
14.86539407
 20
2.08956422
  0
VERTEX
  8
0
 10
14.99913296
 20
2.09174811
  0
SEQEND
  0
POLYLINE
  8
Default_Layer
 66
   1
 39
0.000000
 70
    1
  0
VERTEX
  8
0
 10
9.27598875
 20
2.06209451
  0
VERTEX
  8
0
 10
9.29089898
 20
1.94022669
  0
VERTEX
  8
0
 10
9.27254020
 20
1.80973144
  0
VERTEX
  8
0
 10
9.25590570
 20
1.67197655
  0
VERTEX
  8
0
 10
9.27598875
 20
1.52832977
  0
VERTEX
  8
0
 10
9.22001281
 20
1.57666393
  0
VERTEX
  8
0
 10
9.17725254
 20
1.64226461
  0
VERTEX
  8
0
 10
9.14909668
 20
1.71912519
  0
VERTEX
  8
0
 10
9.13693393
 20
1.80123903
  0
VERTEX
  8
0
 10
9.14215304
 20
1.88259950
  0
VERTEX
  8
0
 10
9.16614273
 20
1.95719999
  0
VERTEX
  8
0
 10
9.21029173
 20
2.01903387
  0
VERTEX
  8
0
 10
9.27598875
 20
2.06209451
  0
SEQEND
  0
POLYLINE
  8
Default_Layer
 66
   1
 39
0.000000
 70
    1
  0
VERTEX
  8
0
 10
10.19525026
 20
2.03244091
  0
VERTEX
  8
0
 10
10.18454923
 20
1.87974313
  0
VERTEX
  8
0
 10
10.16080999
 20
1.74028532
  0
VERTEX
  8
0
 10
10.10628947
 20
1.46902257
  0
VERTEX
  8
0
 10
10.05103776
 20
1.52606069
  0
VERTEX
  8
0
 10
10.00625360
 20
1.61679398
  0
VERTEX
  8
0
 10
9.97618490
 20
1.72628760
  0
VERTEX
  8
0
 10
9.96507957
 20
1.83960670
  0
VERTEX
  8
0
 10
9.97718553
 20
1.94181643
  0
VERTEX
  8
0
 10
10.01675069
 20
2.01798194
  0
VERTEX
  8
0
 10
10.04815794
 20
2.04163098
  0
VERTEX
  8
0
 10
10.08802296
 20
2.05316839
  0
VERTEX
  8
0
 10
10.19525026
 20
2.03244091
  0
SEQEND
  0
POLYLINE
  8
Default_Layer
 66
   1
 39
0.000000
 70
    1
  0
VERTEX
  8
0
 10
11.14416536
 20
2.06209451
  0
VERTEX
  8
0
 10
11.16626405
 20
1.99298886
  0
VERTEX
  8
0
 10
11.17411427
 20
1.92064712
  0
VERTEX
  8
0
 10
11.15658408
 20
1.77409042
  0
VERTEX
  8
0
 10
11.11060433
 20
1.63809458
  0
VERTEX
  8
0
 10
11.05520457
 20
1.52832977
  0
VERTEX
  8
0
 10
11.01264848
 20
1.78230409
  0
VERTEX
  8
0
 10
10.98646260
 20
1.90438689
  0
VERTEX
  8
0
 10
10.93659018
 20
2.00278732
  0
VERTEX
  8
0
 10
11.02430568
 20
2.04810114
  0
VERTEX
  8
0
 10
11.07569579
 20
2.06353459
  0
VERTEX
  8
0
 10
11.14416536
 20
2.06209451
  0
SEQEND
  0
POLYLINE
  8
Default_Layer
 66
   1
 39
0.000000
 70
    1
  0
VERTEX
  8
0
 10
13.93160347
 20
2.06209451
  0
VERTEX
  8
0
 10
13.97992552
 20
2.06593616
  0
VERTEX
  8
0
 10
14.01016861
 20
2.05169886
  0
VERTEX
  8
0
 10
14.03819613
 20
2.03524599
  0
VERTEX
  8
0
 10
14.07987145
 20
2.03244091
  0
VERTEX
  8
0
 10
14.07160661
 20
1.90695610
  0
VERTEX
  8
0
 10
14.04432177
 20
1.80069748
  0
VERTEX
  8
0
 10
14.01998498
 20
1.69169619
  0
VERTEX
  8
0
 10
14.02056426
 20
1.55798336
  0
VERTEX
  8
0
 10
13.97988431
 20
1.60064754
  0
VERTEX
  8
0
 10
13.95192807
 20
1.65540607
  0
VERTEX
  8
0
 10
13.92563066
 20
1.78864588
  0
VERTEX
  8
0
 10
13.93160347
 20
2.06209451
  0
SEQEND
  0
POLYLINE
  8
Default_Layer
 66
   1
 39
0.000000
 70
    1
  0
VERTEX
  8
0
 10
15.65151209
 20
2.03244091
  0
VERTEX
  8
0
 10
15.77012648
 20
2.03244091
  0
VERTEX
  8
0
 10
15.79624841
 20
1.87314868
  0
VERTEX
  8
0
 10
15.77712081
 20
1.70555984
  0
VERTEX
  8
0
 10
15.74973593
 20
1.63062168
  0
VERTEX
  8
0
 10
15.71001565
 20
1.56797035
  0
VERTEX
  8
0
 10
15.65761898
 20
1.52239285
  0
VERTEX
  8
0
 10
15.59220490
 20
1.49867617
  0
VERTEX
  8
0
 10
15.61785014
 20
1.62098028
  0
VERTEX
  8
0
 10
15.62306370
 20
1.76393035
  0
VERTEX
  8
0
 10
15.62767466
 20
1.90769452
  0
VERTEX
  8
0
 10
15.65151209
 20
2.03244091
  0
SEQEND
  0
POLYLINE
  8
Default_Layer
 66
   1
 39
0.000000
 70
    1
  0
VERTEX
  8
0
 10
13.36818513
 20
15.91032427
  0
VERTEX
  8
0
 10
13.17872237
 20
15.65922239
  0
VERTEX
  8
0
 10
13.00932669
 20
15.38145842
  0
VERTEX
  8
0
 10
12.86855820
 20
15.08440237
  0
VERTEX
  8
0
 10
12.76497701
 20
14.77542420
  0
VERTEX
  8
0
 10
12.70714324
 20
14.46189390
  0
VERTEX
  8
0
 10
12.70361701
 20
14.15118147
  0
VERTEX
  8
0
 10
12.72489425
 20
13.99918507
  0
VERTEX
  8
0
 10
12.76295841
 20
13.85065688
  0
VERTEX
  8
0
 10
12.81887952
 20
13.70651814
  0
VERTEX
  8
0
 10
12.89372758
 20
13.56769011
  0
VERTEX
  8
0
 10
13.03583788
 20
13.62608688
  0
VERTEX
  8
0
 10
13.20120181
 20
13.66206507
  0
VERTEX
  8
0
 10
13.37592340
 20
13.67309599
  0
VERTEX
  8
0
 10
13.54610671
 20
13.65665090
  0
VERTEX
  8
0
 10
13.44327858
 20
13.88754270
  0
VERTEX
  8
0
 10
13.36666569
 20
14.12679152
  0
VERTEX
  8
0
 10
13.31785015
 20
14.37006508
  0
VERTEX
  8
0
 10
13.29841408
 20
14.61303109
  0
VERTEX
  8
0
 10
13.30993959
 20
14.85135727
  0
VERTEX
  8
0
 10
13.35400879
 20
15.08071132
  0
VERTEX
  8
0
 10
13.43220379
 20
15.29676096
  0
VERTEX
  8
0
 10
13.54610671
 20
15.49517391
  0
VERTEX
  8
0
 10
13.64986462
 20
15.62559283
  0
VERTEX
  8
0
 10
13.76689005
 20
15.74294142
  0
VERTEX
  8
0
 10
13.89531923
 20
15.84836179
  0
VERTEX
  8
0
 10
14.03328841
 20
15.94299603
  0
VERTEX
  8
0
 10
14.33039170
 20
16.10447455
  0
VERTEX
  8
0
 10
14.64328979
 20
16.23651384
  0
VERTEX
  8
0
 10
14.87281409
 20
16.31168703
  0
VERTEX
  8
0
 10
15.10824242
 20
16.37910629
  0
VERTEX
  8
0
 10
15.34100982
 20
16.45677671
  0
VERTEX
  8
0
 10
15.56255130
 20
16.56270340
  0
VERTEX
  8
0
 10
15.21887542
 20
16.61821659
  0
VERTEX
  8
0
 10
14.88681614
 20
16.62372071
  0
VERTEX
  8
0
 10
14.57047661
 20
16.58464021
  0
VERTEX
  8
0
 10
14.27395997
 20
16.50639954
  0
VERTEX
  8
0
 10
14.00136936
 20
16.39442316
  0
VERTEX
  8
0
 10
13.75680792
 20
16.25413552
  0
VERTEX
  8
0
 10
13.54437879
 20
16.09096107
  0
VERTEX
  8
0
 10
13.36818513
 20
15.91032427
  0
SEQEND
  0
POLYLINE
  8
Default_Layer
 66
   1
 39
0.000000
 70
    1
  0
VERTEX
  8
0
 10
15.85908727
 20
11.66985991
  0
VERTEX
  8
0
 10
16.26292256
 20
11.64622196
  0
VERTEX
  8
0
 10
16.64033851
 20
11.68089279
  0
VERTEX
  8
0
 10
16.81698780
 20
11.71931954
  0
VERTEX
  8
0
 10
16.98445055
 20
11.77139413
  0
VERTEX
  8
0
 10
17.14186618
 20
11.83680676
  0
VERTEX
  8
0
 10
17.28837412
 20
11.91524767
  0
VERTEX
  8
0
 10
17.42311381
 20
12.00640705
  0
VERTEX
  8
0
 10
17.54522468
 20
12.10997513
  0
VERTEX
  8
0
 10
17.65384615
 20
12.22564212
  0
VERTEX
  8
0
 10
17.74811766
 20
12.35309823
  0
VERTEX
  8
0
 10
17.82717863
 20
12.49203368
  0
VERTEX
  8
0
 10
17.89016850
 20
12.64213867
  0
VERTEX
  8
0
 10
17.93622670
 20
12.80310343
  0
VERTEX
  8
0
 10
17.96449265
 20
12.97461818
  0
VERTEX
  8
0
 10
17.97282170
 20
13.22207752
  0
VERTEX
  8
0
 10
17.94958836
 20
13.47771812
  0
VERTEX
  8
0
 10
17.89985245
 20
13.73228114
  0
VERTEX
  8
0
 10
17.82867378
 20
13.97650774
  0
VERTEX
  8
0
 10
17.74111217
 20
14.20113908
  0
VERTEX
  8
0
 10
17.64222744
 20
14.39691633
  0
VERTEX
  8
0
 10
17.53707941
 20
14.55458065
  0
VERTEX
  8
0
 10
17.43072790
 20
14.66487320
  0
VERTEX
  8
0
 10
17.32275469
 20
14.72843965
  0
VERTEX
  8
0
 10
17.19243213
 20
14.77455572
  0
VERTEX
  8
0
 10
17.05522967
 20
14.80289752
  0
VERTEX
  8
0
 10
16.92661676
 20
14.81314118
  0
VERTEX
  8
0
 10
16.69856671
 20
14.80074852
  0
VERTEX
  8
0
 10
16.49149945
 20
14.76201394
  0
VERTEX
  8
0
 10
16.30319817
 20
14.69975903
  0
VERTEX
  8
0
 10
16.13144604
 20
14.61680540
  0
VERTEX
  8
0
 10
15.97402623
 20
14.51597465
  0
VERTEX
  8
0
 10
15.82872191
 20
14.40008839
  0
VERTEX
  8
0
 10
15.56559244
 20
14.13443575
  0
VERTEX
  8
0
 10
15.08717906
 20
13.54661487
  0
VERTEX
  8
0
 10
14.83642592
 20
13.26959228
  0
VERTEX
  8
0
 10
14.70040385
 20
13.14517857
  0
VERTEX
  8
0
 10
14.55432900
 20
13.03392537
  0
VERTEX
  8
0
 10
14.55039472
 20
13.00406523
  0
VERTEX
  8
0
 10
14.56071285
 20
12.97928624
  0
VERTEX
  8
0
 10
14.60208592
 20
12.94128177
  0
VERTEX
  8
0
 10
14.63440732
 20
12.91253210
  0
VERTEX
  8
0
 10
14.63341088
 20
12.89932161
  0
VERTEX
  8
0
 10
14.61363620
 20
12.88565738
  0
VERTEX
  8
0
 10
14.39177895
 20
13.11081616
  0
VERTEX
  8
0
 10
14.18790189
 20
13.32243131
  0
VERTEX
  8
0
 10
14.07715743
 20
13.41474698
  0
VERTEX
  8
0
 10
13.95224982
 20
13.49358108
  0
VERTEX
  8
0
 10
13.80695964
 20
13.55556840
  0
VERTEX
  8
0
 10
13.63506750
 20
13.59734371
  0
VERTEX
  8
0
 10
13.48444980
 20
13.61370048
  0
VERTEX
  8
0
 10
13.33676307
 20
13.61422609
  0
VERTEX
  8
0
 10
13.05196323
 20
13.57207068
  0
VERTEX
  8
0
 10
12.78422936
 20
13.47945110
  0
VERTEX
  8
0
 10
12.53712285
 20
13.34494098
  0
VERTEX
  8
0
 10
12.31420508
 20
13.17711397
  0
VERTEX
  8
0
 10
12.11903744
 20
12.98454368
  0
VERTEX
  8
0
 10
11.95518131
 20
12.77580375
  0
VERTEX
  8
0
 10
11.82619809
 20
12.55946782
  0
VERTEX
  8
0
 10
11.82452125
 20
12.63497114
  0
VERTEX
  8
0
 10
11.84563878
 20
12.68788326
  0
VERTEX
  8
0
 10
11.87186276
 20
12.73589484
  0
VERTEX
  8
0
 10
11.88550528
 20
12.79669659
  0
VERTEX
  8
0
 10
11.80947993
 20
12.82445744
  0
VERTEX
  8
0
 10
11.74792721
 20
12.86669370
  0
VERTEX
  8
0
 10
11.68844294
 20
12.91099841
  0
VERTEX
  8
0
 10
11.61862291
 20
12.94496458
  0
VERTEX
  8
0
 10
11.34368641
 20
13.37300885
  0
VERTEX
  8
0
 10
11.19361299
 20
13.59625624
  0
VERTEX
  8
0
 10
11.02555097
 20
13.80491889
  0
VERTEX
  8
0
 10
10.83770348
 20
13.99302466
  0
VERTEX
  8
0
 10
10.62046929
 20
14.17612871
  0
VERTEX
  8
0
 10
10.39078736
 20
14.32930924
  0
VERTEX
  8
0
 10
10.16559666
 20
14.42764442
  0
VERTEX
  8
0
 10
10.00279768
 20
14.46393585
  0
VERTEX
  8
0
 10
9.84455102
 20
14.47923841
  0
VERTEX
  8
0
 10
9.69146131
 20
14.47489469
  0
VERTEX
  8
0
 10
9.54413319
 20
14.45224730
  0
VERTEX
  8
0
 10
9.40317130
 20
14.41263885
  0
VERTEX
  8
0
 10
9.26918028
 20
14.35741195
  0
VERTEX
  8
0
 10
9.14276476
 20
14.28790918
  0
VERTEX
  8
0
 10
9.02452938
 20
14.20547317
  0
VERTEX
  8
0
 10
8.81501760
 20
14.00717181
  0
VERTEX
  8
0
 10
8.64548205
 20
13.77324869
  0
VERTEX
  8
0
 10
8.52075983
 20
13.51444466
  0
VERTEX
  8
0
 10
8.44568804
 20
13.24150055
  0
VERTEX
  8
0
 10
8.42161614
 20
13.03850141
  0
VERTEX
  8
0
 10
8.42119837
 20
12.84234779
  0
VERTEX
  8
0
 10
8.44301913
 20
12.65387788
  0
VERTEX
  8
0
 10
8.48566279
 20
12.47392987
  0
VERTEX
  8
0
 10
8.54771373
 20
12.30334195
  0
VERTEX
  8
0
 10
8.62775635
 20
12.14295231
  0
VERTEX
  8
0
 10
8.72437504
 20
11.99359913
  0
VERTEX
  8
0
 10
8.83615416
 20
11.85612062
  0
VERTEX
  8
0
 10
8.96167812
 20
11.73135496
  0
VERTEX
  8
0
 10
9.09953130
 20
11.62014034
  0
VERTEX
  8
0
 10
9.24829807
 20
11.52331495
  0
VERTEX
  8
0
 10
9.40656284
 20
11.44171698
  0
VERTEX
  8
0
 10
9.57290997
 20
11.37618463
  0
VERTEX
  8
0
 10
9.74592387
 20
11.32755608
  0
VERTEX
  8
0
 10
9.92418890
 20
11.29666952
  0
VERTEX
  8
0
 10
10.10628947
 20
11.28436315
  0
VERTEX
  8
0
 10
10.30385649
 20
11.28946225
  0
VERTEX
  8
0
 10
10.49221762
 20
11.30821422
  0
VERTEX
  8
0
 10
10.84850804
 20
11.36916593
  0
VERTEX
  8
0
 10
11.18953233
 20
11.43219665
  0
VERTEX
  8
0
 10
11.52966212
 20
11.46228473
  0
VERTEX
  8
0
 10
11.51142458
 20
11.35418573
  0
VERTEX
  8
0
 10
11.47664573
 20
11.26283258
  0
VERTEX
  8
0
 10
11.44613487
 20
11.16741792
  0
VERTEX
  8
0
 10
11.44070133
 20
11.04713438
  0
VERTEX
  8
0
 10
11.55420064
 20
11.04201791
  0
VERTEX
  8
0
 10
11.68417865
 20
11.05338292
  0
VERTEX
  8
0
 10
11.79620559
 20
11.04679687
  0
VERTEX
  8
0
 10
11.83472810
 20
11.02601201
  0
VERTEX
  8
0
 10
11.85585168
 20
10.98782718
  0
VERTEX
  8
0
 10
11.64234261
 20
11.00589528
  0
VERTEX
  8
0
 10
11.53041642
 20
10.99170183
  0
VERTEX
  8
0
 10
11.48157972
 20
10.96780493
  0
VERTEX
  8
0
 10
11.44070133
 20
10.92851999
  0
VERTEX
  8
0
 10
11.55420064
 20
10.92340352
  0
VERTEX
  8
0
 10
11.68417865
 20
10.93476854
  0
VERTEX
  8
0
 10
11.79620559
 20
10.92818248
  0
VERTEX
  8
0
 10
11.83472810
 20
10.90739762
  0
VERTEX
  8
0
 10
11.85585168
 20
10.86921279
  0
VERTEX
  8
0
 10
11.74927354
 20
10.86428106
  0
VERTEX
  8
0
 10
11.62691496
 20
10.87533569
  0
VERTEX
  8
0
 10
11.52265056
 20
10.86850207
  0
VERTEX
  8
0
 10
11.48788948
 20
10.84779135
  0
VERTEX
  8
0
 10
11.47035492
 20
10.80990560
  0
VERTEX
  8
0
 10
11.49608243
 20
10.76800552
  0
VERTEX
  8
0
 10
11.53913842
 20
10.75430792
  0
VERTEX
  8
0
 10
11.65329480
 20
10.77482185
  0
VERTEX
  8
0
 10
11.76494203
 20
10.79805086
  0
VERTEX
  8
0
 10
11.80486159
 20
10.78774710
  0
VERTEX
  8
0
 10
11.82619809
 20
10.75059841
  0
VERTEX
  8
0
 10
11.67066995
 20
10.72779310
  0
VERTEX
  8
0
 10
11.60104554
 20
10.70855969
  0
VERTEX
  8
0
 10
11.55931571
 20
10.66163762
  0
VERTEX
  8
0
 10
11.69751768
 20
10.57196355
  0
VERTEX
  8
0
 10
11.85410710
 20
10.46395393
  0
VERTEX
  8
0
 10
11.92919025
 20
10.43042448
  0
VERTEX
  8
0
 10
11.99674202
 20
10.42513256
  0
VERTEX
  8
0
 10
12.05271967
 20
10.45901865
  0
VERTEX
  8
0
 10
12.09308046
 20
10.54302323
  0
VERTEX
  8
0
 10
12.02761874
 20
10.52471494
  0
VERTEX
  8
0
 10
11.97471421
 20
10.50104131
  0
VERTEX
  8
0
 10
11.92909902
 20
10.49835864
  0
VERTEX
  8
0
 10
11.88550528
 20
10.54302323
  0
VERTEX
  8
0
 10
12.00549475
 20
10.58581687
  0
VERTEX
  8
0
 10
12.09498994
 20
10.65931627
  0
VERTEX
  8
0
 10
12.24134844
 20
10.83955920
  0
VERTEX
  8
0
 10
12.24250152
 20
10.78633250
  0
VERTEX
  8
0
 10
12.23087797
 20
10.74593332
  0
VERTEX
  8
0
 10
12.18572291
 20
10.68719659
  0
VERTEX
  8
0
 10
12.13872701
 20
10.63050716
  0
VERTEX
  8
0
 10
12.12480243
 20
10.59266712
  0
VERTEX
  8
0
 10
12.12273406
 20
10.54302323
  0
VERTEX
  8
0
 10
12.35952158
 20
10.42447249
  0
VERTEX
  8
0
 10
12.50256013
 20
10.37274296
  0
VERTEX
  8
0
 10
12.65388574
 20
10.33387250
  0
VERTEX
  8
0
 10
12.80739134
 20
10.31373248
  0
VERTEX
  8
0
 10
12.95696983
 20
10.31819427
  0
VERTEX
  8
0
 10
13.09651413
 20
10.35312927
  0
VERTEX
  8
0
 10
13.21991714
 20
10.42440884
  0
VERTEX
  8
0
 10
13.23654908
 20
10.52614393
  0
VERTEX
  8
0
 10
13.23360123
 20
10.60919316
  0
VERTEX
  8
0
 10
13.21373500
 20
10.67597773
  0
VERTEX
  8
0
 10
13.17961182
 20
10.72891888
  0
VERTEX
  8
0
 10
13.07924023
 20
10.80295575
  0
VERTEX
  8
0
 10
12.95377776
 20
10.85067353
  0
VERTEX
  8
0
 10
12.82451571
 20
10.89144197
  0
VERTEX
  8
0
 10
12.71274540
 20
10.94463082
  0
VERTEX
  8
0
 10
12.67007318
 20
10.98193595
  0
VERTEX
  8
0
 10
12.63975813
 20
11.02960983
  0
VERTEX
  8
0
 10
12.62446167
 20
11.09007370
  0
VERTEX
  8
0
 10
12.62684520
 20
11.16574876
  0
VERTEX
  8
0
 10
12.64581819
 20
11.21765647
  0
VERTEX
  8
0
 10
12.68562885
 20
11.26693542
  0
VERTEX
  8
0
 10
12.81578285
 20
11.35435155
  0
VERTEX
  8
0
 10
12.99334644
 20
11.42148626
  0
VERTEX
  8
0
 10
13.19435887
 20
11.46182860
  0
VERTEX
  8
0
 10
13.39485939
 20
11.46886767
  0
VERTEX
  8
0
 10
13.57088723
 20
11.43609253
  0
VERTEX
  8
0
 10
13.64223617
 20
11.40273997
  0
VERTEX
  8
0
 10
13.69848165
 20
11.35699227
  0
VERTEX
  8
0
 10
13.73662859
 20
11.29803555
  0
VERTEX
  8
0
 10
13.75368189
 20
11.22505596
  0
VERTEX
  8
0
 10
13.74048755
 20
11.14140884
  0
VERTEX
  8
0
 10
13.69506153
 20
11.07087832
  0
VERTEX
  8
0
 10
13.62693211
 20
11.00985370
  0
VERTEX
  8
0
 10
13.54562760
 20
10.95472429
  0
VERTEX
  8
0
 10
13.38160642
 20
10.84770831
  0
VERTEX
  8
0
 10
13.31794635
 20
10.78860035
  0
VERTEX
  8
0
 10
13.27922434
 20
10.72094481
  0
VERTEX
  8
0
 10
13.27192166
 20
10.66096571
  0
VERTEX
  8
0
 10
13.28227919
 20
10.59919694
  0
VERTEX
  8
0
 10
13.30887793
 20
10.42440884
  0
VERTEX
  8
0
 10
13.45511069
 20
10.39855748
  0
VERTEX
  8
0
 10
13.59104894
 20
10.40089139
  0
VERTEX
  8
0
 10
13.71736493
 20
10.42630627
  0
VERTEX
  8
0
 10
13.83473089
 20
10.46969783
  0
VERTEX
  8
0
 10
14.04530174
 20
10.58999377
  0
VERTEX
  8
0
 10
14.22813944
 20
10.72094481
  0
VERTEX
  8
0
 10
14.19665990
 20
10.77975460
  0
VERTEX
  8
0
 10
14.13825177
 20
10.83100949
  0
VERTEX
  8
0
 10
14.09513387
 20
10.87912584
  0
VERTEX
  8
0
 10
14.09250214
 20
10.90338717
  0
VERTEX
  8
0
 10
14.10952505
 20
10.92851999
  0
VERTEX
  8
0
 10
14.19479071
 20
10.85810635
  0
VERTEX
  8
0
 10
14.29181959
 20
10.79945732
  0
VERTEX
  8
0
 10
14.40148879
 20
10.75344583
  0
VERTEX
  8
0
 10
14.52467541
 20
10.72094481
  0
VERTEX
  8
0
 10
14.47532666
 20
10.69626721
  0
VERTEX
  8
0
 10
14.40585509
 20
10.68804134
  0
VERTEX
  8
0
 10
14.33648648
 20
10.69626721
  0
VERTEX
  8
0
 10
14.28744663
 20
10.72094481
  0
VERTEX
  8
0
 10
14.09654514
 20
10.55086918
  0
VERTEX
  8
0
 10
13.97806982
 20
10.47226003
  0
VERTEX
  8
0
 10
13.84738223
 20
10.40631179
  0
VERTEX
  8
0
 10
13.70683544
 20
10.35930583
  0
VERTEX
  8
0
 10
13.55878254
 20
10.33752351
  0
VERTEX
  8
0
 10
13.40557661
 20
10.34724619
  0
VERTEX
  8
0
 10
13.24957074
 20
10.39475524
  0
VERTEX
  8
0
 10
13.18495470
 20
10.33316209
  0
VERTEX
  8
0
 10
13.09959543
 20
10.29236469
  0
VERTEX
  8
0
 10
12.89845860
 20
10.24134438
  0
VERTEX
  8
0
 10
12.79858674
 20
10.21521506
  0
VERTEX
  8
0
 10
12.70978306
 20
10.17806870
  0
VERTEX
  8
0
 10
12.64000039
 20
10.12195211
  0
VERTEX
  8
0
 10
12.59719161
 20
10.03891208
  0
VERTEX
  8
0
 10
12.79232500
 20
9.94897011
  0
VERTEX
  8
0
 10
12.97213778
 20
9.85284964
  0
VERTEX
  8
0
 10
13.06505185
 20
9.81494201
  0
VERTEX
  8
0
 10
13.16463925
 20
9.79045319
  0
VERTEX
  8
0
 10
13.27440116
 20
9.78437102
  0
VERTEX
  8
0
 10
13.39783872
 20
9.80168331
  0
VERTEX
  8
0
 10
13.48866008
 20
9.84525800
  0
VERTEX
  8
0
 10
13.58087905
 20
9.92150476
  0
VERTEX
  8
0
 10
13.78333548
 20
10.09821927
  0
VERTEX
  8
0
 10
13.93889997
 20
10.19550734
  0
VERTEX
  8
0
 10
14.11338811
 20
10.28893586
  0
VERTEX
  8
0
 10
14.47711861
 20
10.47776546
  0
VERTEX
  8
0
 10
14.64535261
 20
10.57994217
  0
VERTEX
  8
0
 10
14.79049352
 20
10.69181055
  0
VERTEX
  8
0
 10
14.90203717
 20
10.81675842
  0
VERTEX
  8
0
 10
14.96947936
 20
10.95817358
  0
VERTEX
  8
0
 10
14.85959683
 20
10.98173016
  0
VERTEX
  8
0
 10
14.72753397
 20
10.98310501
  0
VERTEX
  8
0
 10
14.61265622
 20
11.00166775
  0
VERTEX
  8
0
 10
14.57396346
 20
11.02969758
  0
VERTEX
  8
0
 10
14.55432900
 20
11.07678797
  0
VERTEX
  8
0
 10
14.69640905
 20
11.05538645
  0
VERTEX
  8
0
 10
14.85816289
 20
11.02442063
  0
VERTEX
  8
0
 10
14.93217905
 20
11.02115572
  0
VERTEX
  8
0
 10
14.99402757
 20
11.03446528
  0
VERTEX
  8
0
 10
15.03801305
 20
11.07067114
  0
VERTEX
  8
0
 10
15.05844015
 20
11.13609517
  0
VERTEX
  8
0
 10
14.88436259
 20
11.13846318
  0
VERTEX
  8
0
 10
14.74636846
 20
11.11947486
  0
VERTEX
  8
0
 10
14.62355559
 20
11.10879670
  0
VERTEX
  8
0
 10
14.49502181
 20
11.13609517
  0
VERTEX
  8
0
 10
14.55742583
 20
11.15875958
  0
VERTEX
  8
0
 10
14.63237563
 20
11.16893299
  0
VERTEX
  8
0
 10
14.79940577
 20
11.17231016
  0
VERTEX
  8
0
 10
14.95509851
 20
11.18723343
  0
VERTEX
  8
0
 10
15.01587657
 20
11.21183946
  0
VERTEX
  8
0
 10
15.05844015
 20
11.25470955
  0
VERTEX
  8
0
 10
14.99924666
 20
11.28070704
  0
VERTEX
  8
0
 10
14.93413369
 20
11.28378457
  0
VERTEX
  8
0
 10
14.79368707
 20
11.25216396
  0
VERTEX
  8
0
 10
14.65217580
 20
11.22181615
  0
VERTEX
  8
0
 10
14.58573203
 20
11.22648467
  0
VERTEX
  8
0
 10
14.52467541
 20
11.25470955
  0
VERTEX
  8
0
 10
14.76609996
 20
11.30940911
  0
VERTEX
  8
0
 10
15.02878655
 20
11.34367034
  0
VERTEX
  8
0
 10
14.99430230
 20
11.43816029
  0
VERTEX
  8
0
 10
14.93377785
 20
11.51652226
  0
VERTEX
  8
0
 10
14.78309481
 20
11.65395870
  0
VERTEX
  8
0
 10
14.71717941
 20
11.72758140
  0
VERTEX
  8
0
 10
14.67371025
 20
11.81417255
  0
VERTEX
  8
0
 10
14.66480890
 20
11.92100627
  0
VERTEX
  8
0
 10
14.70259699
 20
12.05535667
  0
VERTEX
  8
0
 10
14.71954002
 20
11.91662666
  0
VERTEX
  8
0
 10
14.76582492
 20
11.80723296
  0
VERTEX
  8
0
 10
14.83238965
 20
11.71811353
  0
VERTEX
  8
0
 10
14.91017217
 20
11.64020631
  0
VERTEX
  8
0
 10
15.02245254
 20
11.70961959
  0
VERTEX
  8
0
 10
15.13555774
 20
11.74854377
  0
VERTEX
  8
0
 10
15.24998021
 20
11.76283675
  0
VERTEX
  8
0
 10
15.36621240
 20
11.75835642
  0
VERTEX
  8
0
 10
15.60607572
 20
11.71650741
  0
VERTEX
  8
0
 10
15.85908727
 20
11.66985991
  0
SEQEND
  0
POLYLINE
  8
Default_Layer
 66
   1
 39
0.000000
 70
    1
  0
VERTEX
  8
0
 10
15.68116569
 20
11.13609517
  0
VERTEX
  8
0
 10
16.33845915
 20
10.95337325
  0
VERTEX
  8
0
 10
16.97874313
 20
10.75734625
  0
VERTEX
  8
0
 10
17.27577716
 20
10.63891333
  0
VERTEX
  8
0
 10
17.54848353
 20
10.49863813
  0
VERTEX
  8
0
 10
17.79017048
 20
10.33034864
  0
VERTEX
  8
0
 10
17.99414625
 20
10.12787287
  0
VERTEX
  8
0
 10
18.08108209
 20
10.00961191
  0
VERTEX
  8
0
 10
18.15274197
 20
9.88557508
  0
VERTEX
  8
0
 10
18.25360376
 20
9.62254244
  0
VERTEX
  8
0
 10
18.30347158
 20
9.34351216
  0
VERTEX
  8
0
 10
18.30908540
 20
9.05322149
  0
VERTEX
  8
0
 10
18.27718518
 20
8.75640766
  0
VERTEX
  8
0
 10
18.21451087
 20
8.45780790
  0
VERTEX
  8
0
 10
18.12780243
 20
8.16215944
  0
VERTEX
  8
0
 10
18.02379984
 20
7.87419951
  0
VERTEX
  8
0
 10
17.86383165
 20
7.51779473
  0
VERTEX
  8
0
 10
17.67893243
 20
7.19109400
  0
VERTEX
  8
0
 10
17.47370765
 20
6.88832749
  0
VERTEX
  8
0
 10
17.25276275
 20
6.60372541
  0
VERTEX
  8
0
 10
16.78213446
 20
6.06593534
  0
VERTEX
  8
0
 10
16.30389122
 20
5.53156535
  0
VERTEX
  8
0
 10
16.08219257
 20
5.29792519
  0
VERTEX
  8
0
 10
15.98115814
 20
5.18454931
  0
VERTEX
  8
0
 10
15.91839446
 20
5.08676140
  0
VERTEX
  8
0
 10
15.88456795
 20
4.98267361
  0
VERTEX
  8
0
 10
15.86865281
 20
4.88392239
  0
VERTEX
  8
0
 10
15.87194523
 20
4.69828239
  0
VERTEX
  8
0
 10
15.89104887
 20
4.52154691
  0
VERTEX
  8
0
 10
15.88874086
 20
4.34542147
  0
VERTEX
  8
0
 10
15.83693476
 20
4.37965989
  0
VERTEX
  8
0
 10
15.80011176
 20
4.38407172
  0
VERTEX
  8
0
 10
15.77553355
 20
4.36391331
  0
VERTEX
  8
0
 10
15.76046179
 20
4.32444098
  0
VERTEX
  8
0
 10
15.74047288
 20
4.07853910
  0
VERTEX
  8
0
 10
15.81207261
 20
4.10493463
  0
VERTEX
  8
0
 10
15.87682826
 20
4.14382236
  0
VERTEX
  8
0
 10
15.99247116
 20
4.24866047
  0
VERTEX
  8
0
 10
16.21493043
 20
4.49368946
  0
VERTEX
  8
0
 10
16.58005173
 20
4.84608227
  0
VERTEX
  8
0
 10
16.92932837
 20
5.20677411
  0
VERTEX
  8
0
 10
17.60864949
 20
5.97636930
  0
VERTEX
  8
0
 10
17.93018889
 20
6.38285417
  0
VERTEX
  8
0
 10
18.22965639
 20
6.81128576
  0
VERTEX
  8
0
 10
18.50032961
 20
7.25964968
  0
VERTEX
  8
0
 10
18.73548617
 20
7.72593152
  0
VERTEX
  8
0
 10
18.89728600
 20
8.07395223
  0
VERTEX
  8
0
 10
19.03202214
 20
8.40796425
  0
VERTEX
  8
0
 10
19.10734425
 20
8.68923432
  0
VERTEX
  8
0
 10
19.14844719
 20
8.95615663
  0
VERTEX
  8
0
 10
19.15781097
 20
9.20906471
  0
VERTEX
  8
0
 10
19.13791563
 20
9.44829206
  0
VERTEX
  8
0
 10
19.09124118
 20
9.67417221
  0
VERTEX
  8
0
 10
19.02026765
 20
9.88703867
  0
VERTEX
  8
0
 10
18.92747507
 20
10.08722496
  0
VERTEX
  8
0
 10
18.81534347
 20
10.27506459
  0
VERTEX
  8
0
 10
18.68635286
 20
10.45089109
  0
VERTEX
  8
0
 10
18.54298328
 20
10.61503795
  0
VERTEX
  8
0
 10
18.38771475
 20
10.76783871
  0
VERTEX
  8
0
 10
18.22302729
 20
10.90962688
  0
VERTEX
  8
0
 10
17.87531569
 20
11.16149950
  0
VERTEX
  8
0
 10
17.51968869
 20
11.37332394
  0
VERTEX
  8
0
 10
17.18229320
 20
11.56154957
  0
VERTEX
  8
0
 10
17.01661777
 20
11.63587933
  0
VERTEX
  8
0
 10
16.86730956
 20
11.66985991
  0
VERTEX
  8
0
 10
16.71013293
 20
11.65812680
  0
VERTEX
  8
0
 10
16.53565130
 20
11.62412051
  0
VERTEX
  8
0
 10
16.34907722
 20
11.59074373
  0
VERTEX
  8
0
 10
16.15562324
 20
11.58089912
  0
VERTEX
  8
0
 10
15.85129035
 20
11.62193245
  0
VERTEX
  8
0
 10
15.53797308
 20
11.67182500
  0
VERTEX
  8
0
 10
15.38922664
 20
11.67848443
  0
VERTEX
  8
0
 10
15.25177172
 20
11.66142780
  0
VERTEX
  8
0
 10
15.13012084
 20
11.61201151
  0
VERTEX
  8
0
 10
15.02878655
 20
11.52159193
  0
VERTEX
  8
0
 10
15.05151019
 20
11.44951406
  0
VERTEX
  8
0
 10
15.08861624
 20
11.40390188
  0
VERTEX
  8
0
 10
15.13708066
 20
11.37970127
  0
VERTEX
  8
0
 10
15.19387941
 20
11.37185811
  0
VERTEX
  8
0
 10
15.32038375
 20
11.38502764
  0
VERTEX
  8
0
 10
15.44393691
 20
11.40297754
  0
VERTEX
  8
0
 10
16.25581290
 20
11.46869563
  0
VERTEX
  8
0
 10
16.66589231
 20
11.48536856
  0
VERTEX
  8
0
 10
17.04523114
 20
11.46228473
  0
VERTEX
  8
0
 10
16.12869979
 20
11.41363409
  0
VERTEX
  8
0
 10
15.66902577
 20
11.36618232
  0
VERTEX
  8
0
 10
15.23636173
 20
11.28436315
  0
VERTEX
  8
0
 10
15.32711999
 20
11.24577079
  0
VERTEX
  8
0
 10
15.42823684
 20
11.22057922
  0
VERTEX
  8
0
 10
15.65462885
 20
11.19929530
  0
VERTEX
  8
0
 10
16.15562324
 20
11.19540236
  0
VERTEX
  8
0
 10
16.58957257
 20
11.16370497
  0
VERTEX
  8
0
 10
17.00802754
 20
11.11122894
  0
VERTEX
  8
0
 10
17.40060391
 20
11.04153243
  0
VERTEX
  8
0
 10
17.75691747
 20
10.95817358
  0
VERTEX
  8
0
 10
16.69247990
 20
11.09286335
  0
VERTEX
  8
0
 10
16.15706133
 20
11.13748502
  0
VERTEX
  8
0
 10
15.90878301
 20
11.14398823
  0
VERTEX
  8
0
 10
15.68116569
 20
11.13609517
  0
SEQEND
  0
POLYLINE
  8
Default_Layer
 66
   1
 39
0.000000
 70
    1
  0
VERTEX
  8
0
 10
12.74545959
 20
11.13609517
  0
VERTEX
  8
0
 10
12.81272556
 20
11.12971792
  0
VERTEX
  8
0
 10
12.87636853
 20
11.14499257
  0
VERTEX
  8
0
 10
12.99760170
 20
11.21778284
  0
VERTEX
  8
0
 10
13.11879160
 20
11.30903646
  0
VERTEX
  8
0
 10
13.24957074
 20
11.37332394
  0
VERTEX
  8
0
 10
13.07284404
 20
11.36440538
  0
VERTEX
  8
0
 10
12.92149908
 20
11.33031379
  0
VERTEX
  8
0
 10
12.85929046
 20
11.29988152
  0
VERTEX
  8
0
 10
12.80816215
 20
11.25842008
  0
VERTEX
  8
0
 10
12.76969243
 20
11.20435085
  0
VERTEX
  8
0
 10
12.74545959
 20
11.13609517
  0
SEQEND
  0
POLYLINE
  8
Default_Layer
 66
   1
 39
0.000000
 70
    1
  0
VERTEX
  8
0
 10
15.26601533
 20
11.22505596
  0
VERTEX
  8
0
 10
15.23213881
 20
11.24307671
  0
VERTEX
  8
0
 10
15.20594472
 20
11.26877850
  0
VERTEX
  8
0
 10
15.17271894
 20
11.28744581
  0
VERTEX
  8
0
 10
15.11774734
 20
11.28436315
  0
VERTEX
  8
0
 10
15.10631537
 20
11.24700459
  0
VERTEX
  8
0
 10
15.11365078
 20
11.21924277
  0
VERTEX
  8
0
 10
15.16421210
 20
11.19042739
  0
VERTEX
  8
0
 10
15.22860804
 20
11.19375310
  0
VERTEX
  8
0
 10
15.26601533
 20
11.22505596
  0
SEQEND
  0
POLYLINE
  8
Default_Layer
 66
   1
 39
0.000000
 70
    1
  0
VERTEX
  8
0
 10
13.45714592
 20
11.07678797
  0
VERTEX
  8
0
 10
13.53891106
 20
11.08356621
  0
VERTEX
  8
0
 10
13.56355969
 20
11.10350024
  0
VERTEX
  8
0
 10
13.57576030
 20
11.13609517
  0
VERTEX
  8
0
 10
13.54175164
 20
11.15414576
  0
VERTEX
  8
0
 10
13.50147747
 20
11.15142216
  0
VERTEX
  8
0
 10
13.46869111
 20
11.12620827
  0
VERTEX
  8
0
 10
13.45714592
 20
11.07678797
  0
SEQEND
  0
POLYLINE
  8
Default_Layer
 66
   1
 39
0.000000
 70
    1
  0
VERTEX
  8
0
 10
16.77834877
 20
10.75059841
  0
VERTEX
  8
0
 10
15.97993881
 20
10.99892409
  0
VERTEX
  8
0
 10
15.56700581
 20
11.10035052
  0
VERTEX
  8
0
 10
15.17705454
 20
11.16574876
  0
VERTEX
  8
0
 10
15.12738419
 20
11.14087883
  0
VERTEX
  8
0
 10
15.08809375
 20
11.10644157
  0
VERTEX
  8
0
 10
15.08983161
 20
11.00815489
  0
VERTEX
  8
0
 10
15.17705454
 20
10.98782718
  0
VERTEX
  8
0
 10
15.35497612
 20
10.95817358
  0
VERTEX
  8
0
 10
16.45964913
 20
10.66705920
  0
VERTEX
  8
0
 10
16.98390503
 20
10.50379285
  0
VERTEX
  8
0
 10
17.43072790
 20
10.33544805
  0
VERTEX
  8
0
 10
16.26167653
 20
10.66390332
  0
VERTEX
  8
0
 10
15.67110638
 20
10.82208788
  0
VERTEX
  8
0
 10
15.05844015
 20
10.95817358
  0
VERTEX
  8
0
 10
14.98434289
 20
10.82951755
  0
VERTEX
  8
0
 10
14.90511491
 20
10.72288469
  0
VERTEX
  8
0
 10
14.81358876
 20
10.63010869
  0
VERTEX
  8
0
 10
14.70259699
 20
10.54302323
  0
VERTEX
  8
0
 10
14.47655224
 20
10.41718762
  0
VERTEX
  8
0
 10
14.20314125
 20
10.29196900
  0
VERTEX
  8
0
 10
13.94222936
 20
10.15883631
  0
VERTEX
  8
0
 10
13.83516848
 20
10.08663623
  0
VERTEX
  8
0
 10
13.75368189
 20
10.00925848
  0
VERTEX
  8
0
 10
13.67657760
 20
9.89182422
  0
VERTEX
  8
0
 10
13.61912826
 20
9.75467993
  0
VERTEX
  8
0
 10
13.58093270
 20
9.60380533
  0
VERTEX
  8
0
 10
13.56158976
 20
9.44518014
  0
VERTEX
  8
0
 10
13.56069829
 20
9.28478411
  0
VERTEX
  8
0
 10
13.57785712
 20
9.12859696
  0
VERTEX
  8
0
 10
13.61266511
 20
8.98259841
  0
VERTEX
  8
0
 10
13.66472110
 20
8.85276820
  0
VERTEX
  8
0
 10
13.73556417
 20
8.75535339
  0
VERTEX
  8
0
 10
13.82763479
 20
8.67680615
  0
VERTEX
  8
0
 10
14.02056426
 20
8.52657864
  0
VERTEX
  8
0
 10
14.11023542
 20
8.41985120
  0
VERTEX
  8
0
 10
14.18399689
 20
8.31313221
  0
VERTEX
  8
0
 10
14.25758943
 20
8.21676224
  0
VERTEX
  8
0
 10
14.34675382
 20
8.14108188
  0
VERTEX
  8
0
 10
14.47732168
 20
8.12207629
  0
VERTEX
  8
0
 10
14.60544178
 20
8.12384645
  0
VERTEX
  8
0
 10
14.85452180
 20
8.17384964
  0
VERTEX
  8
0
 10
15.09436000
 20
8.25936274
  0
VERTEX
  8
0
 10
15.32532252
 20
8.34865706
  0
VERTEX
  8
0
 10
16.03092188
 20
8.58963542
  0
VERTEX
  8
0
 10
16.74937255
 20
8.80792583
  0
VERTEX
  8
0
 10
17.49713814
 20
8.99674363
  0
VERTEX
  8
0
 10
18.29068221
 20
9.14930417
  0
VERTEX
  8
0
 10
18.23956296
 20
9.49327764
  0
VERTEX
  8
0
 10
18.14236691
 20
9.78090409
  0
VERTEX
  8
0
 10
18.00242925
 20
10.01981251
  0
VERTEX
  8
0
 10
17.82308519
 20
10.21763188
  0
VERTEX
  8
0
 10
17.60766991
 20
10.38199118
  0
VERTEX
  8
0
 10
17.35951862
 20
10.52051938
  0
VERTEX
  8
0
 10
17.08196651
 20
10.64084546
  0
VERTEX
  8
0
 10
16.77834877
 20
10.75059841
  0
SEQEND
  0
POLYLINE
  8
Default_Layer
 66
   1
 39
0.000000
 70
    1
  0
VERTEX
  8
0
 10
10.96624378
 20
10.83955920
  0
VERTEX
  8
0
 10
10.54483751
 20
10.77746121
  0
VERTEX
  8
0
 10
10.09456274
 20
10.68429572
  0
VERTEX
  8
0
 10
9.30564235
 20
10.48371603
  0
VERTEX
  8
0
 10
9.34660614
 20
10.39865343
  0
VERTEX
  8
0
 10
9.41044796
 20
10.33646607
  0
VERTEX
  8
0
 10
9.57252472
 20
10.24648726
  0
VERTEX
  8
0
 10
10.01448553
 20
10.38987749
  0
VERTEX
  8
0
 10
10.47144439
 20
10.51847281
  0
VERTEX
  8
0
 10
10.94598757
 20
10.62968974
  0
VERTEX
  8
0
 10
11.44070133
 20
10.72094481
  0
VERTEX
  8
0
 10
11.42205644
 20
10.78959653
  0
VERTEX
  8
0
 10
11.38291581
 20
10.83425100
  0
VERTEX
  8
0
 10
11.32771841
 20
10.85921757
  0
VERTEX
  8
0
 10
11.26090321
 20
10.86880559
  0
VERTEX
  8
0
 10
11.11017528
 20
10.85908339
  0
VERTEX
  8
0
 10
10.96624378
 20
10.83955920
  0
SEQEND
  0
POLYLINE
  8
Default_Layer
 66
   1
 39
0.000000
 70
    1
  0
VERTEX
  8
0
 10
11.44070133
 20
10.69129121
  0
VERTEX
  8
0
 10
10.96992197
 20
10.57610175
  0
VERTEX
  8
0
 10
10.49054465
 20
10.46971896
  0
VERTEX
  8
0
 10
10.02661491
 20
10.34809451
  0
VERTEX
  8
0
 10
9.80795713
 20
10.27405155
  0
VERTEX
  8
0
 10
9.60217832
 20
10.18718007
  0
VERTEX
  8
0
 10
9.99064478
 20
9.90102539
  0
VERTEX
  8
0
 10
10.40841864
 20
9.64418061
  0
VERTEX
  8
0
 10
10.84563610
 20
9.40677999
  0
VERTEX
  8
0
 10
11.29243334
 20
9.17895777
  0
VERTEX
  8
0
 10
11.27672768
 20
9.05142081
  0
VERTEX
  8
0
 10
11.28813754
 20
8.93070975
  0
VERTEX
  8
0
 10
11.32382128
 20
8.82051109
  0
VERTEX
  8
0
 10
11.38093726
 20
8.72451137
  0
VERTEX
  8
0
 10
11.45664385
 20
8.64639710
  0
VERTEX
  8
0
 10
11.54809941
 20
8.58985481
  0
VERTEX
  8
0
 10
11.65246230
 20
8.55857101
  0
VERTEX
  8
0
 10
11.76689089
 20
8.55623223
  0
VERTEX
  8
0
 10
11.85734056
 20
8.58936784
  0
VERTEX
  8
0
 10
11.91982911
 20
8.64449411
  0
VERTEX
  8
0
 10
11.97998255
 20
8.69255643
  0
VERTEX
  8
0
 10
12.01719172
 20
8.70485905
  0
VERTEX
  8
0
 10
12.06342686
 20
8.70450022
  0
VERTEX
  8
0
 10
12.14717152
 20
8.69187139
  0
VERTEX
  8
0
 10
12.21452471
 20
8.66285524
  0
VERTEX
  8
0
 10
12.28046296
 20
8.63242139
  0
VERTEX
  8
0
 10
12.35996283
 20
8.61553943
  0
VERTEX
  8
0
 10
12.45334452
 20
8.65060120
  0
VERTEX
  8
0
 10
12.53297537
 20
8.70224793
  0
VERTEX
  8
0
 10
12.59945167
 20
8.76846565
  0
VERTEX
  8
0
 10
12.65336968
 20
8.84724043
  0
VERTEX
  8
0
 10
12.72591597
 20
9.03440538
  0
VERTEX
  8
0
 10
12.75538444
 20
9.24763122
  0
VERTEX
  8
0
 10
12.74654532
 20
9.47080637
  0
VERTEX
  8
0
 10
12.70416880
 20
9.68781927
  0
VERTEX
  8
0
 10
12.63302509
 20
9.88255836
  0
VERTEX
  8
0
 10
12.53788441
 20
10.03891208
  0
VERTEX
  8
0
 10
12.41832214
 20
9.96837824
  0
VERTEX
  8
0
 10
12.28241810
 20
9.93231044
  0
VERTEX
  8
0
 10
12.14483295
 20
9.92937674
  0
VERTEX
  8
0
 10
12.02022730
 20
9.95824519
  0
VERTEX
  8
0
 10
11.92326179
 20
10.01758386
  0
VERTEX
  8
0
 10
11.86859706
 20
10.10606078
  0
VERTEX
  8
0
 10
11.86170894
 20
10.16080986
  0
VERTEX
  8
0
 10
11.87089375
 20
10.22234403
  0
VERTEX
  8
0
 10
11.89798406
 20
10.29049679
  0
VERTEX
  8
0
 10
11.94481247
 20
10.36510165
  0
VERTEX
  8
0
 10
11.80137560
 20
10.42923509
  0
VERTEX
  8
0
 10
11.67180420
 20
10.50723817
  0
VERTEX
  8
0
 10
11.44070133
 20
10.69129121
  0
SEQEND
  0
POLYLINE
  8
Default_Layer
 66
   1
 39
0.000000
 70
    1
  0
VERTEX
  8
0
 10
10.58074702
 20
3.15927760
  0
VERTEX
  8
0
 10
10.58105088
 20
3.33455684
  0
VERTEX
  8
0
 10
10.56498181
 20
3.50786965
  0
VERTEX
  8
0
 10
10.50570653
 20
3.84980254
  0
VERTEX
  8
0
 10
10.44688450
 20
4.18748932
  0
VERTEX
  8
0
 10
10.43138199
 20
4.35549450
  0
VERTEX
  8
0
 10
10.43247903
 20
4.52334305
  0
VERTEX
  8
0
 10
10.45445349
 20
4.67538050
  0
VERTEX
  8
0
 10
10.49119999
 20
4.83053669
  0
VERTEX
  8
0
 10
10.52823961
 20
4.98777744
  0
VERTEX
  8
0
 10
10.55109342
 20
5.14606859
  0
VERTEX
  8
0
 10
10.57395498
 20
5.40626397
  0
VERTEX
  8
0
 10
10.61114434
 20
5.64750107
  0
VERTEX
  8
0
 10
10.67020203
 20
5.87525071
  0
VERTEX
  8
0
 10
10.75866860
 20
6.09498369
  0
VERTEX
  8
0
 10
10.52748163
 20
6.31778639
  0
VERTEX
  8
0
 10
10.31320094
 20
6.54580452
  0
VERTEX
  8
0
 10
10.12890569
 20
6.79305441
  0
VERTEX
  8
0
 10
10.05208986
 20
6.92827137
  0
VERTEX
  8
0
 10
9.98767508
 20
7.07355239
  0
VERTEX
  8
0
 10
9.94330345
 20
7.26278216
  0
VERTEX
  8
0
 10
9.89871429
 20
7.45904915
  0
VERTEX
  8
0
 10
9.77082239
 20
7.72641435
  0
VERTEX
  8
0
 10
9.61011490
 20
7.99342937
  0
VERTEX
  8
0
 10
9.45285252
 20
8.27496345
  0
VERTEX
  8
0
 10
9.38684471
 20
8.42582178
  0
VERTEX
  8
0
 10
9.33529595
 20
8.58588583
  0
VERTEX
  8
0
 10
9.28386533
 20
8.87537192
  0
VERTEX
  8
0
 10
9.26604532
 20
9.16779966
  0
VERTEX
  8
0
 10
9.26061043
 20
9.46580645
  0
VERTEX
  8
0
 10
9.24633516
 20
9.77202971
  0
VERTEX
  8
0
 10
9.22815692
 20
9.95207502
  0
VERTEX
  8
0
 10
9.20351122
 20
10.04396810
  0
VERTEX
  8
0
 10
9.15737436
 20
10.12787287
  0
VERTEX
  8
0
 10
9.18476102
 20
10.19655290
  0
VERTEX
  8
0
 10
9.19329949
 20
10.28428427
  0
VERTEX
  8
0
 10
9.19870220
 20
10.37535733
  0
VERTEX
  8
0
 10
9.21668156
 20
10.45406244
  0
VERTEX
  8
0
 10
9.17024242
 20
10.43609719
  0
VERTEX
  8
0
 10
9.13516816
 20
10.40619433
  0
VERTEX
  8
0
 10
9.09021247
 20
10.32141762
  0
VERTEX
  8
0
 10
9.03875998
 20
10.12787287
  0
VERTEX
  8
0
 10
8.96175457
 20
9.95074951
  0
VERTEX
  8
0
 10
8.89049199
 20
9.77202971
  0
VERTEX
  8
0
 10
8.77112420
 20
9.35089653
  0
VERTEX
  8
0
 10
8.72470409
 20
9.12548741
  0
VERTEX
  8
0
 10
8.71257041
 20
8.94172899
  0
VERTEX
  8
0
 10
8.74296927
 20
8.80476643
  0
VERTEX
  8
0
 10
8.79855637
 20
8.66588436
  0
VERTEX
  8
0
 10
8.85563088
 20
8.52407002
  0
VERTEX
  8
0
 10
8.89049199
 20
8.37831065
  0
VERTEX
  8
0
 10
8.89611397
 20
8.12354672
  0
VERTEX
  8
0
 10
8.85710665
 20
7.93144742
  0
VERTEX
  8
0
 10
8.78289821
 20
7.77003136
  0
VERTEX
  8
0
 10
8.68291681
 20
7.60731713
  0
VERTEX
  8
0
 10
8.72746322
 20
7.54807942
  0
VERTEX
  8
0
 10
8.75640823
 20
7.47323893
  0
VERTEX
  8
0
 10
8.77187760
 20
7.28112757
  0
VERTEX
  8
0
 10
8.86211337
 20
7.22719237
  0
VERTEX
  8
0
 10
8.92334580
 20
7.15029709
  0
VERTEX
  8
0
 10
8.96301054
 20
7.05532951
  0
VERTEX
  8
0
 10
8.98854326
 20
6.94717745
  0
VERTEX
  8
0
 10
9.02695528
 20
6.71087109
  0
VERTEX
  8
0
 10
9.05470591
 20
6.59249240
  0
VERTEX
  8
0
 10
9.09806717
 20
6.48048045
  0
VERTEX
  8
0
 10
9.17211742
 20
6.38526982
  0
VERTEX
  8
0
 10
9.27211764
 20
6.30143739
  0
VERTEX
  8
0
 10
9.37405341
 20
6.21075229
  0
VERTEX
  8
0
 10
9.45391033
 20
6.09498369
  0
VERTEX
  8
0
 10
9.48768723
 20
5.98597301
  0
VERTEX
  8
0
 10
9.51148556
 20
5.83791002
  0
VERTEX
  8
0
 10
9.52176264
 20
5.66788986
  0
VERTEX
  8
0
 10
9.51497578
 20
5.49300768
  0
VERTEX
  8
0
 10
9.48758229
 20
5.33035861
  0
VERTEX
  8
0
 10
9.43603949
 20
5.19703778
  0
VERTEX
  8
0
 10
9.40010500
 20
5.14671768
  0
VERTEX
  8
0
 10
9.35680467
 20
5.11014033
  0
VERTEX
  8
0
 10
9.30569567
 20
5.08944260
  0
VERTEX
  8
0
 10
9.24633516
 20
5.08676140
  0
VERTEX
  8
0
 10
9.23345194
 20
5.10535399
  0
VERTEX
  8
0
 10
9.21668156
 20
5.08676140
  0
VERTEX
  8
0
 10
9.58156470
 20
4.62875514
  0
VERTEX
  8
0
 10
9.93286168
 20
4.15716133
  0
VERTEX
  8
0
 10
10.26708497
 20
3.66849661
  0
VERTEX
  8
0
 10
10.58074702
 20
3.15927760
  0
SEQEND
  0
POLYLINE
  8
Default_Layer
 66
   1
 39
0.000000
 70
    1
  0
VERTEX
  8
0
 10
12.30065564
 20
10.39475524
  0
VERTEX
  8
0
 10
12.25166274
 20
10.39765336
  0
VERTEX
  8
0
 10
12.22631572
 20
10.42420291
  0
VERTEX
  8
0
 10
12.20107166
 20
10.45085543
  0
VERTEX
  8
0
 10
12.15238765
 20
10.45406244
  0
VERTEX
  8
0
 10
12.05452484
 20
10.37251480
  0
VERTEX
  8
0
 10
11.97306399
 20
10.25215423
  0
VERTEX
  8
0
 10
11.94979458
 20
10.18402929
  0
VERTEX
  8
0
 10
11.94419798
 20
10.11413337
  0
VERTEX
  8
0
 10
11.96079831
 20
10.04511054
  0
VERTEX
  8
0
 10
12.00411967
 20
9.97960489
  0
VERTEX
  8
0
 10
12.24048291
 20
9.99498346
  0
VERTEX
  8
0
 10
12.43754311
 20
10.04987518
  0
VERTEX
  8
0
 10
12.59581316
 20
10.14376575
  0
VERTEX
  8
0
 10
12.71580599
 20
10.27614086
  0
VERTEX
  8
0
 10
12.62102581
 20
10.27773625
  0
VERTEX
  8
0
 10
12.54177661
 20
10.29485985
  0
VERTEX
  8
0
 10
12.38961643
 20
10.33544805
  0
VERTEX
  8
0
 10
12.23579931
 20
10.23679663
  0
VERTEX
  8
0
 10
12.09308046
 20
10.12787287
  0
VERTEX
  8
0
 10
12.14211693
 20
10.19714329
  0
VERTEX
  8
0
 10
12.20578394
 20
10.25198631
  0
VERTEX
  8
0
 10
12.26499300
 20
10.31149321
  0
VERTEX
  8
0
 10
12.30065564
 20
10.39475524
  0
SEQEND
  0
POLYLINE
  8
Default_Layer
 66
   1
 39
0.000000
 70
    1
  0
VERTEX
  8
0
 10
9.86906069
 20
9.92029769
  0
VERTEX
  8
0
 10
9.70582434
 20
10.04181979
  0
VERTEX
  8
0
 10
9.55369485
 20
10.14406279
  0
VERTEX
  8
0
 10
9.48126645
 20
10.17291617
  0
VERTEX
  8
0
 10
9.41098030
 20
10.17890364
  0
VERTEX
  8
0
 10
9.34262489
 20
10.15600980
  0
VERTEX
  8
0
 10
9.27598875
 20
10.09821927
  0
VERTEX
  8
0
 10
9.30471862
 20
9.72740339
  0
VERTEX
  8
0
 10
9.30822571
 20
9.35323435
  0
VERTEX
  8
0
 10
9.31785452
 20
8.98830120
  0
VERTEX
  8
0
 10
9.33475972
 20
8.81323218
  0
VERTEX
  8
0
 10
9.36494954
 20
8.64519303
  0
VERTEX
  8
0
 10
9.41204193
 20
8.48787575
  0
VERTEX
  8
0
 10
9.47563223
 20
8.33706994
  0
VERTEX
  8
0
 10
9.63264496
 20
8.04925894
  0
VERTEX
  8
0
 10
9.79666457
 20
7.77029241
  0
VERTEX
  8
0
 10
9.92836788
 20
7.48870275
  0
VERTEX
  8
0
 10
10.02945568
 20
7.13406961
  0
VERTEX
  8
0
 10
10.08527788
 20
6.96426038
  0
VERTEX
  8
0
 10
10.16559666
 20
6.80667002
  0
VERTEX
  8
0
 10
10.31811376
 20
6.60717631
  0
VERTEX
  8
0
 10
10.48872169
 20
6.43400898
  0
VERTEX
  8
0
 10
10.84762939
 20
6.12463729
  0
VERTEX
  8
0
 10
12.19815926
 20
6.83462611
  0
VERTEX
  8
0
 10
12.54518871
 20
7.00285373
  0
VERTEX
  8
0
 10
12.90296336
 20
7.16038677
  0
VERTEX
  8
0
 10
13.27497642
 20
7.30373183
  0
VERTEX
  8
0
 10
13.66472110
 20
7.42939555
  0
VERTEX
  8
0
 10
13.78098998
 20
7.59131926
  0
VERTEX
  8
0
 10
13.94614256
 20
7.73393802
  0
VERTEX
  8
0
 10
14.14772170
 20
7.85118575
  0
VERTEX
  8
0
 10
14.37327024
 20
7.93699635
  0
VERTEX
  8
0
 10
14.61033102
 20
7.98530375
  0
VERTEX
  8
0
 10
14.84644690
 20
7.99004187
  0
VERTEX
  8
0
 10
15.06916072
 20
7.94514462
  0
VERTEX
  8
0
 10
15.17159900
 20
7.90218707
  0
VERTEX
  8
0
 10
15.26601533
 20
7.84454591
  0
VERTEX
  8
0
 10
15.36278112
 20
7.88091242
  0
VERTEX
  8
0
 10
15.47925933
 20
7.89777243
  0
VERTEX
  8
0
 10
15.59290313
 20
7.91767278
  0
VERTEX
  8
0
 10
15.68116569
 20
7.96316030
  0
VERTEX
  8
0
 10
14.74405177
 20
8.03426867
  0
VERTEX
  8
0
 10
13.84264268
 20
8.14108188
  0
VERTEX
  8
0
 10
13.79068057
 20
8.06206388
  0
VERTEX
  8
0
 10
13.72960023
 20
7.99634874
  0
VERTEX
  8
0
 10
13.58684925
 20
7.90393788
  0
VERTEX
  8
0
 10
13.42791848
 20
7.86207102
  0
VERTEX
  8
0
 10
13.26633668
 20
7.86896989
  0
VERTEX
  8
0
 10
13.11563257
 20
7.92285620
  0
VERTEX
  8
0
 10
12.98933493
 20
8.02195169
  0
VERTEX
  8
0
 10
12.93956626
 20
8.08789716
  0
VERTEX
  8
0
 10
12.90097248
 20
8.16447806
  0
VERTEX
  8
0
 10
12.87524469
 20
8.25147213
  0
VERTEX
  8
0
 10
12.86407398
 20
8.34865706
  0
VERTEX
  8
0
 10
12.65205580
 20
8.41092978
  0
VERTEX
  8
0
 10
12.46274607
 20
8.49591513
  0
VERTEX
  8
0
 10
12.27393852
 20
8.58140544
  0
VERTEX
  8
0
 10
12.06342686
 20
8.64519303
  0
VERTEX
  8
0
 10
12.00595910
 20
8.59080491
  0
VERTEX
  8
0
 10
11.94017573
 20
8.55050514
  0
VERTEX
  8
0
 10
11.79142682
 20
8.51012329
  0
VERTEX
  8
0
 10
11.63270953
 20
8.51995281
  0
VERTEX
  8
0
 10
11.47955326
 20
8.57589904
  0
VERTEX
  8
0
 10
11.34748740
 20
8.67386731
  0
VERTEX
  8
0
 10
11.25204133
 20
8.80976297
  0
VERTEX
  8
0
 10
11.22290365
 20
8.89065398
  0
VERTEX
  8
0
 10
11.20874445
 20
8.97949134
  0
VERTEX
  8
0
 10
11.21150489
 20
9.07576322
  0
VERTEX
  8
0
 10
11.23312615
 20
9.17895777
  0
VERTEX
  8
0
 10
10.88994649
 20
9.32008951
  0
VERTEX
  8
0
 10
10.53430520
 20
9.50462671
  0
VERTEX
  8
0
 10
10.18705802
 20
9.71166442
  0
VERTEX
  8
0
 10
9.86906069
 20
9.92029769
  0
SEQEND
  0
POLYLINE
  8
Default_Layer
 66
   1
 39
0.000000
 70
    1
  0
VERTEX
  8
0
 10
9.45391033
 20
10.24648726
  0
VERTEX
  8
0
 10
9.36261708
 20
10.31828323
  0
VERTEX
  8
0
 10
9.31382988
 20
10.35104411
  0
VERTEX
  8
0
 10
9.24633516
 20
10.36510165
  0
VERTEX
  8
0
 10
9.24779168
 20
10.21829464
  0
VERTEX
  8
0
 10
9.27194278
 20
10.16831035
  0
VERTEX
  8
0
 10
9.33529595
 20
10.15752647
  0
VERTEX
  8
0
 10
9.35596768
 20
10.18844102
  0
VERTEX
  8
0
 10
9.39439721
 20
10.20180094
  0
VERTEX
  8
0
 10
9.43292970
 20
10.21526381
  0
VERTEX
  8
0
 10
9.45391033
 20
10.24648726
  0
SEQEND
  0
POLYLINE
  8
Default_Layer
 66
   1
 39
0.000000
 70
    1
  0
VERTEX
  8
0
 10
12.74545959
 20
8.85276820
  0
VERTEX
  8
0
 10
12.66233522
 20
8.76411589
  0
VERTEX
  8
0
 10
12.56926846
 20
8.70060872
  0
VERTEX
  8
0
 10
12.50499008
 20
8.63163390
  0
VERTEX
  8
0
 10
12.49574989
 20
8.58552963
  0
VERTEX
  8
0
 10
12.50823082
 20
8.52657864
  0
VERTEX
  8
0
 10
12.70795352
 20
8.60083586
  0
VERTEX
  8
0
 10
12.91247882
 20
8.67049920
  0
VERTEX
  8
0
 10
13.14469550
 20
8.71268265
  0
VERTEX
  8
0
 10
13.27834084
 20
8.71631755
  0
VERTEX
  8
0
 10
13.42749232
 20
8.70450022
  0
VERTEX
  8
0
 10
13.50107835
 20
8.64936689
  0
VERTEX
  8
0
 10
13.57392528
 20
8.61496431
  0
VERTEX
  8
0
 10
13.64768972
 20
8.58084929
  0
VERTEX
  8
0
 10
13.72402829
 20
8.52657864
  0
VERTEX
  8
0
 10
13.82057691
 20
8.39901733
  0
VERTEX
  8
0
 10
13.90436532
 20
8.26395395
  0
VERTEX
  8
0
 10
13.95435135
 20
8.20918824
  0
VERTEX
  8
0
 10
14.01659960
 20
8.17124212
  0
VERTEX
  8
0
 10
14.09626085
 20
8.15634730
  0
VERTEX
  8
0
 10
14.19848584
 20
8.17073547
  0
VERTEX
  8
0
 10
14.09759894
 20
8.30506745
  0
VERTEX
  8
0
 10
13.98612048
 20
8.43245454
  0
VERTEX
  8
0
 10
13.76150504
 20
8.68824725
  0
VERTEX
  8
0
 10
13.66342614
 20
8.82757948
  0
VERTEX
  8
0
 10
13.58487182
 20
8.98182004
  0
VERTEX
  8
0
 10
13.53337113
 20
9.15643223
  0
VERTEX
  8
0
 10
13.51645311
 20
9.35687935
  0
VERTEX
  8
0
 10
13.53155526
 20
9.48721283
  0
VERTEX
  8
0
 10
13.56013673
 20
9.61328490
  0
VERTEX
  8
0
 10
13.58170319
 20
9.73718199
  0
VERTEX
  8
0
 10
13.57576030
 20
9.86099050
  0
VERTEX
  8
0
 10
13.49675284
 20
9.79156456
  0
VERTEX
  8
0
 10
13.39667369
 20
9.75198187
  0
VERTEX
  8
0
 10
13.28251867
 20
9.73776832
  0
VERTEX
  8
0
 10
13.16128362
 20
9.74444980
  0
VERTEX
  8
0
 10
12.92555671
 20
9.80260149
  0
VERTEX
  8
0
 10
12.74545959
 20
9.89064410
  0
VERTEX
  8
0
 10
12.79637601
 20
9.61912328
  0
VERTEX
  8
0
 10
12.83333485
 20
9.34743633
  0
VERTEX
  8
0
 10
12.83721142
 20
9.21537463
  0
VERTEX
  8
0
 10
12.82635607
 20
9.08788428
  0
VERTEX
  8
0
 10
12.79702130
 20
8.96650293
  0
VERTEX
  8
0
 10
12.74545959
 20
8.85276820
  0
SEQEND
  0
POLYLINE
  8
Default_Layer
 66
   1
 39
0.000000
 70
    1
  0
VERTEX
  8
0
 10
14.85086497
 20
8.08177468
  0
VERTEX
  8
0
 10
15.36891681
 20
8.03640818
  0
VERTEX
  8
0
 10
15.63363540
 20
8.01942038
  0
VERTEX
  8
0
 10
15.91839446
 20
8.02246749
  0
VERTEX
  8
0
 10
15.88923977
 20
7.94629989
  0
VERTEX
  8
0
 10
15.84234612
 20
7.86845466
  0
VERTEX
  8
0
 10
15.81123645
 20
7.79348184
  0
VERTEX
  8
0
 10
15.81207651
 20
7.75849449
  0
VERTEX
  8
0
 10
15.82943367
 20
7.72593152
  0
VERTEX
  8
0
 10
15.87249926
 20
7.78850742
  0
VERTEX
  8
0
 10
15.94311211
 20
7.83509038
  0
VERTEX
  8
0
 10
16.03140740
 20
7.86420793
  0
VERTEX
  8
0
 10
16.12752032
 20
7.87438760
  0
VERTEX
  8
0
 10
16.22158605
 20
7.86415691
  0
VERTEX
  8
0
 10
16.30373979
 20
7.83204338
  0
VERTEX
  8
0
 10
16.36411671
 20
7.77657454
  0
VERTEX
  8
0
 10
16.39285201
 20
7.69627792
  0
VERTEX
  8
0
 10
16.34925648
 20
7.60033432
  0
VERTEX
  8
0
 10
16.29145852
 20
7.50887885
  0
VERTEX
  8
0
 10
16.16115454
 20
7.33020999
  0
VERTEX
  8
0
 10
16.10259813
 20
7.23838545
  0
VERTEX
  8
0
 10
16.05773850
 20
7.14182672
  0
VERTEX
  8
0
 10
16.03355048
 20
7.03822823
  0
VERTEX
  8
0
 10
16.03700885
 20
6.92528440
  0
VERTEX
  8
0
 10
16.06156419
 20
6.85847321
  0
VERTEX
  8
0
 10
16.10414921
 20
6.79384500
  0
VERTEX
  8
0
 10
16.18527683
 20
6.68805563
  0
VERTEX
  8
0
 10
16.23752714
 20
6.57834788
  0
VERTEX
  8
0
 10
16.26977947
 20
6.46216401
  0
VERTEX
  8
0
 10
16.28350942
 20
6.34252877
  0
VERTEX
  8
0
 10
16.28019260
 20
6.22246689
  0
VERTEX
  8
0
 10
16.26130461
 20
6.10500311
  0
VERTEX
  8
0
 10
16.22832105
 20
5.99316217
  0
VERTEX
  8
0
 10
16.18271753
 20
5.88996879
  0
VERTEX
  8
0
 10
16.12596964
 20
5.79844772
  0
VERTEX
  8
0
 10
16.06302903
 20
5.74201863
  0
VERTEX
  8
0
 10
15.98183294
 20
5.68855091
  0
VERTEX
  8
0
 10
15.90598460
 20
5.62331101
  0
VERTEX
  8
0
 10
15.85908727
 20
5.53156535
  0
VERTEX
  8
0
 10
15.86172512
 20
5.45936550
  0
VERTEX
  8
0
 10
15.88337262
 20
5.37682155
  0
VERTEX
  8
0
 10
15.90029083
 20
5.29010212
  0
VERTEX
  8
0
 10
15.88874086
 20
5.20537578
  0
VERTEX
  8
0
 10
16.28413029
 20
5.59113214
  0
VERTEX
  8
0
 10
16.67361712
 20
5.99278353
  0
VERTEX
  8
0
 10
17.04603073
 20
6.41664261
  0
VERTEX
  8
0
 10
17.39020050
 20
6.86902206
  0
VERTEX
  8
0
 10
17.54820312
 20
7.10787963
  0
VERTEX
  8
0
 10
17.69495580
 20
7.35623455
  0
VERTEX
  8
0
 10
17.82906220
 20
7.61487589
  0
VERTEX
  8
0
 10
17.94912600
 20
7.88459275
  0
VERTEX
  8
0
 10
18.05375087
 20
8.16617420
  0
VERTEX
  8
0
 10
18.14154048
 20
8.46040934
  0
VERTEX
  8
0
 10
18.21109851
 20
8.76808723
  0
VERTEX
  8
0
 10
18.26102862
 20
9.08999698
  0
VERTEX
  8
0
 10
17.34401864
 20
8.90209588
  0
VERTEX
  8
0
 10
16.46536894
 20
8.67604183
  0
VERTEX
  8
0
 10
16.04259439
 20
8.54654337
  0
VERTEX
  8
0
 10
15.63200816
 20
8.40490978
  0
VERTEX
  8
0
 10
15.23447633
 20
8.25027542
  0
VERTEX
  8
0
 10
14.85086497
 20
8.08177468
  0
SEQEND
  0
POLYLINE
  8
Default_Layer
 66
   1
 39
0.000000
 70
    1
  0
VERTEX
  8
0
 10
9.09806717
 20
6.39151966
  0
VERTEX
  8
0
 10
9.03407710
 20
6.54397082
  0
VERTEX
  8
0
 10
9.00312356
 20
6.71078120
  0
VERTEX
  8
0
 10
8.97516143
 20
6.88105559
  0
VERTEX
  8
0
 10
8.92014559
 20
7.04389879
  0
VERTEX
  8
0
 10
8.87403701
 20
7.10333496
  0
VERTEX
  8
0
 10
8.81274154
 20
7.15799599
  0
VERTEX
  8
0
 10
8.75325430
 20
7.21491561
  0
VERTEX
  8
0
 10
8.71257041
 20
7.28112757
  0
VERTEX
  8
0
 10
8.71548080
 20
7.40265374
  0
VERTEX
  8
0
 10
8.69367493
 20
7.49946086
  0
VERTEX
  8
0
 10
8.62360962
 20
7.66662433
  0
VERTEX
  8
0
 10
8.67762403
 20
7.71643164
  0
VERTEX
  8
0
 10
8.72437784
 20
7.78215469
  0
VERTEX
  8
0
 10
8.79509492
 20
7.95112152
  0
VERTEX
  8
0
 10
8.83374333
 20
8.15307199
  0
VERTEX
  8
0
 10
8.83830553
 20
8.36755323
  0
VERTEX
  8
0
 10
8.80676400
 20
8.57411241
  0
VERTEX
  8
0
 10
8.73710119
 20
8.75229666
  0
VERTEX
  8
0
 10
8.68734384
 20
8.82435667
  0
VERTEX
  8
0
 10
8.62729958
 20
8.88165314
  0
VERTEX
  8
0
 10
8.55671625
 20
8.92162945
  0
VERTEX
  8
0
 10
8.47534164
 20
8.94172899
  0
VERTEX
  8
0
 10
8.43454846
 20
8.87831717
  0
VERTEX
  8
0
 10
8.38638084
 20
8.82311461
  0
VERTEX
  8
0
 10
8.40023604
 20
8.57890194
  0
VERTEX
  8
0
 10
8.38280859
 20
8.35045613
  0
VERTEX
  8
0
 10
8.34246521
 20
8.13565722
  0
VERTEX
  8
0
 10
8.28757263
 20
7.93238522
  0
VERTEX
  8
0
 10
8.16760678
 20
7.55194204
  0
VERTEX
  8
0
 10
8.11926697
 20
7.37053091
  0
VERTEX
  8
0
 10
8.08984488
 20
7.19216678
  0
VERTEX
  8
0
 10
8.08563969
 20
6.98371253
  0
VERTEX
  8
0
 10
8.11139496
 20
6.79038230
  0
VERTEX
  8
0
 10
8.16120366
 20
6.61056448
  0
VERTEX
  8
0
 10
8.22915875
 20
6.44264744
  0
VERTEX
  8
0
 10
8.39587999
 20
6.13606929
  0
VERTEX
  8
0
 10
8.56430243
 20
5.85775492
  0
VERTEX
  8
0
 10
8.66646563
 20
5.65906695
  0
VERTEX
  8
0
 10
8.77189964
 20
5.46383966
  0
VERTEX
  8
0
 10
8.83176769
 20
5.37934114
  0
VERTEX
  8
0
 10
8.89956283
 20
5.30988862
  0
VERTEX
  8
0
 10
8.97765486
 20
5.26020905
  0
VERTEX
  8
0
 10
9.06841357
 20
5.23502938
  0
VERTEX
  8
0
 10
9.06316764
 20
5.30229803
  0
VERTEX
  8
0
 10
9.04227308
 20
5.36738866
  0
VERTEX
  8
0
 10
8.96665186
 20
5.49296061
  0
VERTEX
  8
0
 10
8.77187760
 20
5.73914053
  0
VERTEX
  8
0
 10
8.58820302
 20
5.99807145
  0
VERTEX
  8
0
 10
8.51592766
 20
6.12276043
  0
VERTEX
  8
0
 10
8.47534164
 20
6.24325168
  0
VERTEX
  8
0
 10
8.58919445
 20
6.11246170
  0
VERTEX
  8
0
 10
8.69278232
 20
5.97140592
  0
VERTEX
  8
0
 10
8.88605969
 20
5.67539547
  0
VERTEX
  8
0
 10
9.08896661
 20
5.38901734
  0
VERTEX
  8
0
 10
9.20459142
 20
5.26000198
  0
VERTEX
  8
0
 10
9.33529595
 20
5.14606859
  0
VERTEX
  8
0
 10
9.40286971
 20
5.20023152
  0
VERTEX
  8
0
 10
9.44430384
 20
5.29453950
  0
VERTEX
  8
0
 10
9.45347422
 20
5.40357281
  0
VERTEX
  8
0
 10
9.42425674
 20
5.50191175
  0
VERTEX
  8
0
 10
9.26072472
 20
5.57931825
  0
VERTEX
  8
0
 10
9.12233204
 20
5.68186288
  0
VERTEX
  8
0
 10
9.00451443
 20
5.80498151
  0
VERTEX
  8
0
 10
8.90270759
 20
5.94411006
  0
VERTEX
  8
0
 10
8.72886912
 20
6.25214046
  0
VERTEX
  8
0
 10
8.56430243
 20
6.56944124
  0
VERTEX
  8
0
 10
8.52174598
 20
6.60932263
  0
VERTEX
  8
0
 10
8.47161545
 20
6.61160845
  0
VERTEX
  8
0
 10
8.43076142
 20
6.61505087
  0
VERTEX
  8
0
 10
8.41603444
 20
6.65840203
  0
VERTEX
  8
0
 10
8.46954249
 20
6.68118453
  0
VERTEX
  8
0
 10
8.51527116
 20
6.67925132
  0
VERTEX
  8
0
 10
8.55423188
 20
6.65799891
  0
VERTEX
  8
0
 10
8.58743610
 20
6.62282381
  0
VERTEX
  8
0
 10
8.68291681
 20
6.45082685
  0
VERTEX
  8
0
 10
8.83195744
 20
6.18539624
  0
VERTEX
  8
0
 10
8.98208878
 20
5.92714376
  0
VERTEX
  8
0
 10
9.06839418
 20
5.81310770
  0
VERTEX
  8
0
 10
9.16796912
 20
5.71574424
  0
VERTEX
  8
0
 10
9.28514587
 20
5.64001274
  0
VERTEX
  8
0
 10
9.42425674
 20
5.59087254
  0
VERTEX
  8
0
 10
9.46661304
 20
5.74170778
  0
VERTEX
  8
0
 10
9.46621582
 20
5.87114934
  0
VERTEX
  8
0
 10
9.43256612
 20
5.98264342
  0
VERTEX
  8
0
 10
9.37516500
 20
6.07963627
  0
VERTEX
  8
0
 10
9.22711266
 20
6.24390311
  0
VERTEX
  8
0
 10
9.09806717
 20
6.39151966
  0
SEQEND
  0
POLYLINE
  8
Default_Layer
 66
   1
 39
0.000000
 70
    1
  0
VERTEX
  8
0
 10
13.39783872
 20
8.64519303
  0
VERTEX
  8
0
 10
13.16661636
 20
8.64628973
  0
VERTEX
  8
0
 10
12.95364024
 20
8.62934890
  0
VERTEX
  8
0
 10
12.85978140
 20
8.60832666
  0
VERTEX
  8
0
 10
12.77742838
 20
8.57584974
  0
VERTEX
  8
0
 10
12.70889593
 20
8.52960303
  0
VERTEX
  8
0
 10
12.65649880
 20
8.46727144
  0
VERTEX
  8
0
 10
12.81120734
 20
8.41440481
  0
VERTEX
  8
0
 10
12.95303477
 20
8.34865706
  0
VERTEX
  8
0
 10
12.95933455
 20
8.21650322
  0
VERTEX
  8
0
 10
12.99714207
 20
8.10565527
  0
VERTEX
  8
0
 10
13.06092360
 20
8.01692598
  0
VERTEX
  8
0
 10
13.14514539
 20
7.95112814
  0
VERTEX
  8
0
 10
13.24427370
 20
7.90907452
  0
VERTEX
  8
0
 10
13.35277479
 20
7.89157789
  0
VERTEX
  8
0
 10
13.46511490
 20
7.89945102
  0
VERTEX
  8
0
 10
13.57576030
 20
7.93350670
  0
VERTEX
  8
0
 10
13.62649579
 20
7.96474881
  0
VERTEX
  8
0
 10
13.66559405
 20
8.00529211
  0
VERTEX
  8
0
 10
13.72434278
 20
8.09900841
  0
VERTEX
  8
0
 10
13.78293426
 20
8.18410784
  0
VERTEX
  8
0
 10
13.82183597
 20
8.21388007
  0
VERTEX
  8
0
 10
13.87229627
 20
8.23004267
  0
VERTEX
  8
0
 10
13.66136966
 20
8.46392001
  0
VERTEX
  8
0
 10
13.53978070
 20
8.56473303
  0
VERTEX
  8
0
 10
13.39783872
 20
8.64519303
  0
SEQEND
  0
POLYLINE
  8
Default_Layer
 66
   1
 39
0.000000
 70
    1
  0
VERTEX
  8
0
 10
14.73225058
 20
7.63697073
  0
VERTEX
  8
0
 10
14.47239434
 20
7.57977180
  0
VERTEX
  8
0
 10
14.20911126
 20
7.53438835
  0
VERTEX
  8
0
 10
13.97016907
 20
7.46616210
  0
VERTEX
  8
0
 10
13.86850322
 20
7.41265221
  0
VERTEX
  8
0
 10
13.78333548
 20
7.34043476
  0
VERTEX
  8
0
 10
13.86091442
 20
7.31152950
  0
VERTEX
  8
0
 10
13.94169026
 20
7.31474241
  0
VERTEX
  8
0
 10
14.11294279
 20
7.38039426
  0
VERTEX
  8
0
 10
14.29731325
 20
7.46313336
  0
VERTEX
  8
0
 10
14.39448650
 20
7.48770533
  0
VERTEX
  8
0
 10
14.49502181
 20
7.48870275
  0
VERTEX
  8
0
 10
14.57994455
 20
7.45812172
  0
VERTEX
  8
0
 10
14.65589125
 20
7.40278940
  0
VERTEX
  8
0
 10
14.73295063
 20
7.33851996
  0
VERTEX
  8
0
 10
14.82121138
 20
7.28112757
  0
VERTEX
  8
0
 10
14.94064280
 20
7.35413841
  0
VERTEX
  8
0
 10
15.02333157
 20
7.46409228
  0
VERTEX
  8
0
 10
15.07909424
 20
7.60117817
  0
VERTEX
  8
0
 10
15.11774734
 20
7.75558512
  0
VERTEX
  8
0
 10
14.99573631
 20
7.73871781
  0
VERTEX
  8
0
 10
14.89468982
 20
7.70507483
  0
VERTEX
  8
0
 10
14.73225058
 20
7.63697073
  0
SEQEND
  0
POLYLINE
  8
Default_Layer
 66
   1
 39
0.000000
 70
    1
  0
VERTEX
  8
0
 10
14.70259699
 20
7.69627792
  0
VERTEX
  8
0
 10
14.93452942
 20
7.75172587
  0
VERTEX
  8
0
 10
15.03957961
 20
7.79686740
  0
VERTEX
  8
0
 10
15.11774734
 20
7.87419951
  0
VERTEX
  8
0
 10
14.92183277
 20
7.91606099
  0
VERTEX
  8
0
 10
14.72283138
 20
7.92944006
  0
VERTEX
  8
0
 10
14.52697513
 20
7.91571386
  0
VERTEX
  8
0
 10
14.34049597
 20
7.87625948
  0
VERTEX
  8
0
 10
14.16962583
 20
7.81245407
  0
VERTEX
  8
0
 10
14.02059668
 20
7.72567472
  0
VERTEX
  8
0
 10
13.89964044
 20
7.61729858
  0
VERTEX
  8
0
 10
13.81298908
 20
7.48870275
  0
VERTEX
  8
0
 10
14.06450026
 20
7.52841793
  0
VERTEX
  8
0
 10
14.29253313
 20
7.57986103
  0
VERTEX
  8
0
 10
14.70259699
 20
7.69627792
  0
SEQEND
  0
POLYLINE
  8
Default_Layer
 66
   1
 39
0.000000
 70
    1
  0
VERTEX
  8
0
 10
15.20670814
 20
7.78523871
  0
VERTEX
  8
0
 10
15.15068724
 20
7.62595936
  0
VERTEX
  8
0
 10
15.08124616
 20
7.48031168
  0
VERTEX
  8
0
 10
14.91017217
 20
7.22182037
  0
VERTEX
  8
0
 10
15.19539323
 20
7.07707540
  0
VERTEX
  8
0
 10
15.34271244
 20
7.00940187
  0
VERTEX
  8
0
 10
15.50324410
 20
6.95493800
  0
VERTEX
  8
0
 10
15.55715753
 20
7.20465533
  0
VERTEX
  8
0
 10
15.62582631
 20
7.43983156
  0
VERTEX
  8
0
 10
15.77012648
 20
7.90385310
  0
VERTEX
  8
0
 10
15.48286928
 20
7.84967207
  0
VERTEX
  8
0
 10
15.20670814
 20
7.78523871
  0
SEQEND
  0
POLYLINE
  8
Default_Layer
 66
   1
 39
0.000000
 70
    1
  0
VERTEX
  8
0
 10
15.56255130
 20
6.89563081
  0
VERTEX
  8
0
 10
15.45903893
 20
6.90497445
  0
VERTEX
  8
0
 10
15.36161070
 20
6.92794091
  0
VERTEX
  8
0
 10
15.18166654
 20
7.00517489
  0
VERTEX
  8
0
 10
15.01603856
 20
7.10819799
  0
VERTEX
  8
0
 10
14.85804650
 20
7.21787550
  0
VERTEX
  8
0
 10
14.70101010
 20
7.31507266
  0
VERTEX
  8
0
 10
14.53824909
 20
7.38065475
  0
VERTEX
  8
0
 10
14.45263429
 20
7.39561054
  0
VERTEX
  8
0
 10
14.36308323
 20
7.39548703
  0
VERTEX
  8
0
 10
14.26876089
 20
7.37789239
  0
VERTEX
  8
0
 10
14.16883224
 20
7.34043476
  0
VERTEX
  8
0
 10
14.27482808
 20
7.23680654
  0
VERTEX
  8
0
 10
14.39642858
 20
7.14886416
  0
VERTEX
  8
0
 10
14.64328979
 20
6.98459160
  0
VERTEX
  8
0
 10
14.87981706
 20
6.80211316
  0
VERTEX
  8
0
 10
15.00504494
 20
6.72313429
  0
VERTEX
  8
0
 10
15.14740094
 20
6.65840203
  0
VERTEX
  8
0
 10
14.96642863
 20
6.69983170
  0
VERTEX
  8
0
 10
14.81221145
 20
6.76801649
  0
VERTEX
  8
0
 10
14.67710293
 20
6.85530995
  0
VERTEX
  8
0
 10
14.55345661
 20
6.95406561
  0
VERTEX
  8
0
 10
14.30996477
 20
7.15537772
  0
VERTEX
  8
0
 10
14.17482633
 20
7.24264126
  0
VERTEX
  8
0
 10
14.02056426
 20
7.31078116
  0
VERTEX
  8
0
 10
13.94878528
 20
7.26369409
  0
VERTEX
  8
0
 10
13.90484532
 20
7.21116913
  0
VERTEX
  8
0
 10
13.88588877
 20
7.15418127
  0
VERTEX
  8
0
 10
13.88905999
 20
7.09370547
  0
VERTEX
  8
0
 10
13.95036332
 20
6.96618996
  0
VERTEX
  8
0
 10
14.06591033
 20
6.83642238
  0
VERTEX
  8
0
 10
14.21285609
 20
6.71220250
  0
VERTEX
  8
0
 10
14.36835562
 20
6.60133010
  0
VERTEX
  8
0
 10
14.61363620
 20
6.45082685
  0
VERTEX
  8
0
 10
14.70952943
 20
6.41338408
  0
VERTEX
  8
0
 10
14.80711163
 20
6.38544269
  0
VERTEX
  8
0
 10
14.88209010
 20
6.34571299
  0
VERTEX
  8
0
 10
14.90351148
 20
6.31477449
  0
VERTEX
  8
0
 10
14.91017217
 20
6.27290527
  0
VERTEX
  8
0
 10
14.75718721
 20
6.32049437
  0
VERTEX
  8
0
 10
14.61076279
 20
6.39364381
  0
VERTEX
  8
0
 10
14.32928802
 20
6.58914400
  0
VERTEX
  8
0
 10
14.04913275
 20
6.80444640
  0
VERTEX
  8
0
 10
13.90435771
 20
6.90234861
  0
VERTEX
  8
0
 10
13.75368189
 20
6.98459160
  0
VERTEX
  8
0
 10
13.70545900
 20
6.93091575
  0
VERTEX
  8
0
 10
13.67783126
 20
6.87212902
  0
VERTEX
  8
0
 10
13.67072686
 20
6.74834489
  0
VERTEX
  8
0
 10
13.70509997
 20
6.63148313
  0
VERTEX
  8
0
 10
13.75368189
 20
6.53978764
  0
VERTEX
  8
0
 10
13.82644911
 20
6.45353097
  0
VERTEX
  8
0
 10
13.93262038
 20
6.35911919
  0
VERTEX
  8
0
 10
14.16883224
 20
6.18394448
  0
VERTEX
  8
0
 10
14.30704750
 20
6.10467813
  0
VERTEX
  8
0
 10
14.44924275
 20
6.03806600
  0
VERTEX
  8
0
 10
14.57726053
 20
5.97025912
  0
VERTEX
  8
0
 10
14.67294339
 20
5.88740851
  0
VERTEX
  8
0
 10
14.54026889
 20
5.92205371
  0
VERTEX
  8
0
 10
14.41217590
 20
5.98020303
  0
VERTEX
  8
0
 10
14.16436954
 20
6.14257084
  0
VERTEX
  8
0
 10
13.91879453
 20
6.32562546
  0
VERTEX
  8
0
 10
13.79349073
 20
6.40963331
  0
VERTEX
  8
0
 10
13.66472110
 20
6.48048045
  0
VERTEX
  8
0
 10
13.62839851
 20
6.38805121
  0
VERTEX
  8
0
 10
13.62742427
 20
6.29605814
  0
VERTEX
  8
0
 10
13.65566749
 20
6.20583771
  0
VERTEX
  8
0
 10
13.70699728
 20
6.11872638
  0
VERTEX
  8
0
 10
13.85439299
 20
5.95917687
  0
VERTEX
  8
0
 10
14.02056426
 20
5.82810132
  0
VERTEX
  8
0
 10
14.24407814
 20
5.69760870
  0
VERTEX
  8
0
 10
14.49984884
 20
5.59857060
  0
VERTEX
  8
0
 10
14.77635488
 20
5.53337203
  0
VERTEX
  8
0
 10
15.06207473
 20
5.50439800
  0
VERTEX
  8
0
 10
15.34548692
 20
5.51403354
  0
VERTEX
  8
0
 10
15.61506993
 20
5.56466366
  0
VERTEX
  8
0
 10
15.85930228
 20
5.65867338
  0
VERTEX
  8
0
 10
15.96831148
 20
5.72269091
  0
VERTEX
  8
0
 10
16.06666245
 20
5.79844772
  0
VERTEX
  8
0
 10
16.17256367
 20
6.03369173
  0
VERTEX
  8
0
 10
16.21111885
 20
6.17397891
  0
VERTEX
  8
0
 10
16.23264602
 20
6.31854121
  0
VERTEX
  8
0
 10
16.23157190
 20
6.45925237
  0
VERTEX
  8
0
 10
16.20232319
 20
6.58798612
  0
VERTEX
  8
0
 10
16.13932660
 20
6.69661623
  0
VERTEX
  8
0
 10
16.03700885
 20
6.77701642
  0
VERTEX
  8
0
 10
16.03234435
 20
6.57471576
  0
VERTEX
  8
0
 10
16.00337276
 20
6.38683081
  0
VERTEX
  8
0
 10
15.95338247
 20
6.21493172
  0
VERTEX
  8
0
 10
15.88566187
 20
6.06058865
  0
VERTEX
  8
0
 10
15.80349935
 20
5.92537176
  0
VERTEX
  8
0
 10
15.71018329
 20
5.81085120
  0
VERTEX
  8
0
 10
15.60900208
 20
5.71859714
  0
VERTEX
  8
0
 10
15.50324410
 20
5.65017974
  0
VERTEX
  8
0
 10
15.66516848
 20
5.83439153
  0
VERTEX
  8
0
 10
15.80672622
 20
6.03266089
  0
VERTEX
  8
0
 10
15.91515729
 20
6.26209166
  0
VERTEX
  8
0
 10
15.95296281
 20
6.39383751
  0
VERTEX
  8
0
 10
15.97770166
 20
6.53978764
  0
VERTEX
  8
0
 10
15.98158672
 20
6.66338693
  0
VERTEX
  8
0
 10
15.97430315
 20
6.78949778
  0
VERTEX
  8
0
 10
15.96871882
 20
6.91678136
  0
VERTEX
  8
0
 10
15.97770166
 20
7.04389879
  0
VERTEX
  8
0
 10
16.00440497
 20
7.15001872
  0
VERTEX
  8
0
 10
16.04528710
 20
7.24444387
  0
VERTEX
  8
0
 10
16.15138850
 20
7.40967607
  0
VERTEX
  8
0
 10
16.25960727
 20
7.56252782
  0
VERTEX
  8
0
 10
16.30313611
 20
7.64147740
  0
VERTEX
  8
0
 10
16.33354482
 20
7.72593152
  0
VERTEX
  8
0
 10
16.24046385
 20
7.77194076
  0
VERTEX
  8
0
 10
16.15433235
 20
7.79651684
  0
VERTEX
  8
0
 10
16.07494384
 20
7.80145537
  0
VERTEX
  8
0
 10
16.00209182
 20
7.78855193
  0
VERTEX
  8
0
 10
15.93556979
 20
7.75960211
  0
VERTEX
  8
0
 10
15.87517128
 20
7.71640149
  0
VERTEX
  8
0
 10
15.77191883
 20
7.59443022
  0
VERTEX
  8
0
 10
15.69068253
 20
7.43700281
  0
VERTEX
  8
0
 10
15.62981046
 20
7.25848397
  0
VERTEX
  8
0
 10
15.58765069
 20
7.07323840
  0
VERTEX
  8
0
 10
15.56255130
 20
6.89563081
  0
SEQEND
  0
POLYLINE
  8
Default_Layer
 66
   1
 39
0.000000
 70
    1
  0
VERTEX
  8
0
 10
13.63506750
 20
7.37008836
  0
VERTEX
  8
0
 10
13.24540125
 20
7.23693403
  0
VERTEX
  8
0
 10
12.87180767
 20
7.08775626
  0
VERTEX
  8
0
 10
12.16002065
 20
6.75415033
  0
VERTEX
  8
0
 10
10.78832219
 20
6.03567650
  0
VERTEX
  8
0
 10
10.69281304
 20
5.71924269
  0
VERTEX
  8
0
 10
10.61994572
 20
5.39083956
  0
VERTEX
  8
0
 10
10.56939584
 20
5.05188090
  0
VERTEX
  8
0
 10
10.54083900
 20
4.70378054
  0
VERTEX
  8
0
 10
10.53395081
 20
4.34795229
  0
VERTEX
  8
0
 10
10.54840688
 20
3.98580997
  0
VERTEX
  8
0
 10
10.58388281
 20
3.61876740
  0
VERTEX
  8
0
 10
10.64005421
 20
3.24823839
  0
VERTEX
  8
0
 10
10.77051251
 20
3.36291509
  0
VERTEX
  8
0
 10
10.95699535
 20
3.49853937
  0
VERTEX
  8
0
 10
11.13327561
 20
3.64245435
  0
VERTEX
  8
0
 10
11.19689379
 20
3.71356557
  0
VERTEX
  8
0
 10
11.23312615
 20
3.78200313
  0
VERTEX
  8
0
 10
11.23775344
 20
3.85099879
  0
VERTEX
  8
0
 10
11.22623778
 20
3.93359360
  0
VERTEX
  8
0
 10
11.20347255
 20
4.07853910
  0
VERTEX
  8
0
 10
11.22679919
 20
4.31727510
  0
VERTEX
  8
0
 10
11.28771873
 20
4.54554839
  0
VERTEX
  8
0
 10
11.38210632
 20
4.75725492
  0
VERTEX
  8
0
 10
11.50583710
 20
4.94629062
  0
VERTEX
  8
0
 10
11.65478620
 20
5.10655142
  0
VERTEX
  8
0
 10
11.82482877
 20
5.23193325
  0
VERTEX
  8
0
 10
12.01183994
 20
5.31633206
  0
VERTEX
  8
0
 10
12.21169485
 20
5.35364377
  0
VERTEX
  8
0
 10
12.34518290
 20
5.33065869
  0
VERTEX
  8
0
 10
12.50823082
 20
5.29433657
  0
VERTEX
  8
0
 10
12.78845488
 20
5.26252214
  0
VERTEX
  8
0
 10
12.87502170
 20
5.22533565
  0
VERTEX
  8
0
 10
12.95303477
 20
5.14606859
  0
VERTEX
  8
0
 10
13.18509797
 20
5.33626651
  0
VERTEX
  8
0
 10
13.44505742
 20
5.49876715
  0
VERTEX
  8
0
 10
13.99091066
 20
5.79844772
  0
VERTEX
  8
0
 10
13.80157618
 20
5.93604040
  0
VERTEX
  8
0
 10
13.70507476
 20
6.03101649
  0
VERTEX
  8
0
 10
13.62368884
 20
6.13683731
  0
VERTEX
  8
0
 10
13.56967215
 20
6.24854653
  0
VERTEX
  8
0
 10
13.55527841
 20
6.36118781
  0
VERTEX
  8
0
 10
13.59276135
 20
6.46980483
  0
VERTEX
  8
0
 10
13.69437469
 20
6.56944124
  0
VERTEX
  8
0
 10
13.64951314
 20
6.62837006
  0
VERTEX
  8
0
 10
13.62046586
 20
6.70310759
  0
VERTEX
  8
0
 10
13.60613280
 20
6.79255934
  0
VERTEX
  8
0
 10
13.60541390
 20
6.89563081
  0
VERTEX
  8
0
 10
13.66588466
 20
6.96829234
  0
VERTEX
  8
0
 10
13.74235957
 20
7.02515566
  0
VERTEX
  8
0
 10
13.80966883
 20
7.09139054
  0
VERTEX
  8
0
 10
13.83202080
 20
7.13588788
  0
VERTEX
  8
0
 10
13.84264268
 20
7.19216678
  0
VERTEX
  8
0
 10
13.75929251
 20
7.30157611
  0
VERTEX
  8
0
 10
13.63506750
 20
7.37008836
  0
SEQEND
  0
POLYLINE
  8
Default_Layer
 66
   1
 39
0.000000
 70
    1
  0
VERTEX
  8
0
 10
13.96125706
 20
5.73914053
  0
VERTEX
  8
0
 10
13.39783872
 20
5.38329736
  0
VERTEX
  8
0
 10
13.14914455
 20
5.22979494
  0
VERTEX
  8
0
 10
12.89372758
 20
5.08676140
  0
VERTEX
  8
0
 10
12.85899016
 20
5.13864521
  0
VERTEX
  8
0
 10
12.78637079
 20
5.18314238
  0
VERTEX
  8
0
 10
12.57226533
 20
5.24992899
  0
VERTEX
  8
0
 10
12.34096941
 20
5.28702560
  0
VERTEX
  8
0
 10
12.18204125
 20
5.29433657
  0
VERTEX
  8
0
 10
12.01231915
 20
5.25124682
  0
VERTEX
  8
0
 10
11.83138504
 20
5.16060902
  0
VERTEX
  8
0
 10
11.66268425
 20
5.04046081
  0
VERTEX
  8
0
 10
11.52966212
 20
4.90883981
  0
VERTEX
  8
0
 10
11.44544624
 20
4.78547456
  0
VERTEX
  8
0
 10
11.38080461
 20
4.64890063
  0
VERTEX
  8
0
 10
11.33374472
 20
4.50216484
  0
VERTEX
  8
0
 10
11.30227405
 20
4.34831397
  0
VERTEX
  8
0
 10
11.27813033
 20
4.03145427
  0
VERTEX
  8
0
 10
11.29243334
 20
3.72269594
  0
VERTEX
  8
0
 10
10.99144950
 20
3.47467638
  0
VERTEX
  8
0
 10
10.85229578
 20
3.33963868
  0
VERTEX
  8
0
 10
10.72901500
 20
3.18893119
  0
VERTEX
  8
0
 10
11.09865272
 20
2.87697265
  0
VERTEX
  8
0
 10
11.30099091
 20
2.72921491
  0
VERTEX
  8
0
 10
11.51766407
 20
2.59745960
  0
VERTEX
  8
0
 10
11.75066378
 20
2.48959780
  0
VERTEX
  8
0
 10
12.00198163
 20
2.41352057
  0
VERTEX
  8
0
 10
12.27360918
 20
2.37711897
  0
VERTEX
  8
0
 10
12.56753801
 20
2.38828408
  0
VERTEX
  8
0
 10
12.79632175
 20
2.43866775
  0
VERTEX
  8
0
 10
13.04433614
 20
2.52890790
  0
VERTEX
  8
0
 10
13.29118023
 20
2.64521033
  0
VERTEX
  8
0
 10
13.51645311
 20
2.77378084
  0
VERTEX
  8
0
 10
13.81465260
 20
2.98571528
  0
VERTEX
  8
0
 10
14.09042455
 20
3.23516146
  0
VERTEX
  8
0
 10
14.33832969
 20
3.52021519
  0
VERTEX
  8
0
 10
14.55292878
 20
3.83897230
  0
VERTEX
  8
0
 10
14.72878254
 20
4.18952861
  0
VERTEX
  8
0
 10
14.86045173
 20
4.56997995
  0
VERTEX
  8
0
 10
14.94249709
 20
4.97842212
  0
VERTEX
  8
0
 10
14.96321107
 20
5.19254472
  0
VERTEX
  8
0
 10
14.96947936
 20
5.41295096
  0
VERTEX
  8
0
 10
14.69908033
 20
5.47615490
  0
VERTEX
  8
0
 10
14.45728814
 20
5.56796567
  0
VERTEX
  8
0
 10
14.21953599
 20
5.66381648
  0
VERTEX
  8
0
 10
13.96125706
 20
5.73914053
  0
SEQEND
  0
POLYLINE
  8
Default_Layer
 66
   1
 39
0.000000
 70
    1
  0
VERTEX
  8
0
 10
15.35497612
 20
2.68482005
  0
VERTEX
  8
0
 10
15.22894285
 20
2.74984309
  0
VERTEX
  8
0
 10
15.09534829
 20
2.79640966
  0
VERTEX
  8
0
 10
14.95812646
 20
2.82424842
  0
VERTEX
  8
0
 10
14.82121138
 20
2.83308803
  0
VERTEX
  8
0
 10
14.62403799
 20
2.81559641
  0
VERTEX
  8
0
 10
14.44709041
 20
2.76990959
  0
VERTEX
  8
0
 10
14.28830130
 20
2.70150388
  0
VERTEX
  8
0
 10
14.14560326
 20
2.61585558
  0
VERTEX
  8
0
 10
13.90021100
 20
2.41473641
  0
VERTEX
  8
0
 10
13.69437469
 20
2.21036249
  0
VERTEX
  8
0
 10
13.71302370
 20
2.16859363
  0
VERTEX
  8
0
 10
13.71359535
 20
2.13715780
  0
VERTEX
  8
0
 10
13.67965036
 20
2.09154218
  0
VERTEX
  8
0
 10
13.63082734
 20
2.04602952
  0
VERTEX
  8
0
 10
13.61280145
 20
2.01472239
  0
VERTEX
  8
0
 10
13.60541390
 20
1.97313372
  0
VERTEX
  8
0
 10
13.66190048
 20
1.95615622
  0
VERTEX
  8
0
 10
13.70343302
 20
1.91440355
  0
VERTEX
  8
0
 10
13.76044715
 20
1.79464332
  0
VERTEX
  8
0
 10
13.81407865
 20
1.68999430
  0
VERTEX
  8
0
 10
13.85138290
 20
1.66713064
  0
VERTEX
  8
0
 10
13.90194987
 20
1.67659775
  0
VERTEX
  8
0
 10
13.86934892
 20
1.80539906
  0
VERTEX
  8
0
 10
13.85736140
 20
1.94312185
  0
VERTEX
  8
0
 10
13.86657299
 20
2.00564675
  0
VERTEX
  8
0
 10
13.88990832
 20
2.05878358
  0
VERTEX
  8
0
 10
13.93035750
 20
2.09865950
  0
VERTEX
  8
0
 10
13.99091066
 20
2.12140170
  0
VERTEX
  8
0
 10
14.05120530
 20
2.10756930
  0
VERTEX
  8
0
 10
14.08852342
 20
2.07075760
  0
VERTEX
  8
0
 10
14.13917865
 20
1.97313372
  0
VERTEX
  8
0
 10
14.09056026
 20
1.81376508
  0
VERTEX
  8
0
 10
14.05021786
 20
1.64694415
  0
VERTEX
  8
0
 10
14.12128014
 20
1.64970419
  0
VERTEX
  8
0
 10
14.20180573
 20
1.64321241
  0
VERTEX
  8
0
 10
14.27325797
 20
1.64599990
  0
VERTEX
  8
0
 10
14.31710023
 20
1.67659775
  0
VERTEX
  8
0
 10
14.27452362
 20
1.78519273
  0
VERTEX
  8
0
 10
14.26305671
 20
1.91180320
  0
VERTEX
  8
0
 10
14.28602496
 20
2.03201194
  0
VERTEX
  8
0
 10
14.34675382
 20
2.12140170
  0
VERTEX
  8
0
 10
14.34576848
 20
1.96473497
  0
VERTEX
  8
0
 10
14.36694475
 20
1.83022986
  0
VERTEX
  8
0
 10
14.40767916
 20
1.71528289
  0
VERTEX
  8
0
 10
14.46536821
 20
1.61729056
  0
VERTEX
  8
0
 10
14.73225058
 20
1.61729056
  0
VERTEX
  8
0
 10
14.69794062
 20
1.70874993
  0
VERTEX
  8
0
 10
14.67860128
 20
1.80887650
  0
VERTEX
  8
0
 10
14.67694397
 20
1.90980257
  0
VERTEX
  8
0
 10
14.69568008
 20
2.00366041
  0
VERTEX
  8
0
 10
14.73752100
 20
2.08258232
  0
VERTEX
  8
0
 10
14.80517812
 20
2.13870058
  0
VERTEX
  8
0
 10
14.90136284
 20
2.16414748
  0
VERTEX
  8
0
 10
15.02878655
 20
2.15105530
  0
VERTEX
  8
0
 10
15.05458820
 20
2.07503334
  0
VERTEX
  8
0
 10
15.05955747
 20
1.99574036
  0
VERTEX
  8
0
 10
15.03180175
 20
1.83496221
  0
VERTEX
  8
0
 10
14.99512503
 20
1.68396262
  0
VERTEX
  8
0
 10
14.98894306
 20
1.61689284
  0
VERTEX
  8
0
 10
14.99913296
 20
1.55798336
  0
VERTEX
  8
0
 10
15.20670814
 20
1.55798336
  0
VERTEX
  8
0
 10
15.28175099
 20
1.64572361
  0
VERTEX
  8
0
 10
15.32624899
 20
1.76422022
  0
VERTEX
  8
0
 10
15.38462972
 20
2.03244091
  0
VERTEX
  8
0
 10
15.41376929
 20
1.97292869
  0
VERTEX
  8
0
 10
15.42025085
 20
1.91193637
  0
VERTEX
  8
0
 10
15.39390479
 20
1.78858880
  0
VERTEX
  8
0
 10
15.36292118
 20
1.66855290
  0
VERTEX
  8
0
 10
15.36360583
 20
1.61170017
  0
VERTEX
  8
0
 10
15.38462972
 20
1.55798336
  0
VERTEX
  8
0
 10
15.43778447
 20
1.55641073
  0
VERTEX
  8
0
 10
15.47338458
 20
1.57260423
  0
VERTEX
  8
0
 10
15.50908765
 20
1.58890070
  0
VERTEX
  8
0
 10
15.56255130
 20
1.58763696
  0
VERTEX
  8
0
 10
15.56106893
 20
1.75930889
  0
VERTEX
  8
0
 10
15.56642496
 20
1.92435668
  0
VERTEX
  8
0
 10
15.58050856
 20
1.99555448
  0
VERTEX
  8
0
 10
15.60691116
 20
2.05448580
  0
VERTEX
  8
0
 10
15.64916925
 20
2.09761381
  0
VERTEX
  8
0
 10
15.71081928
 20
2.12140170
  0
VERTEX
  8
0
 10
15.74933841
 20
2.10062337
  0
VERTEX
  8
0
 10
15.79777788
 20
2.08975703
  0
VERTEX
  8
0
 10
15.83980505
 20
2.07247284
  0
VERTEX
  8
0
 10
15.85908727
 20
2.03244091
  0
VERTEX
  8
0
 10
15.85911491
 20
1.88383361
  0
VERTEX
  8
0
 10
15.83655441
 20
1.75802595
  0
VERTEX
  8
0
 10
15.77012648
 20
1.52832977
  0
VERTEX
  8
0
 10
15.96217334
 20
1.52861942
  0
VERTEX
  8
0
 10
16.04163952
 20
1.54563318
  0
VERTEX
  8
0
 10
16.09631604
 20
1.58763696
  0
VERTEX
  8
0
 10
16.09169137
 20
1.68831278
  0
VERTEX
  8
0
 10
16.07254686
 20
1.78207669
  0
VERTEX
  8
0
 10
16.01179011
 20
1.95388017
  0
VERTEX
  8
0
 10
15.95622933
 20
2.11307023
  0
VERTEX
  8
0
 10
15.94357978
 20
2.19106736
  0
VERTEX
  8
0
 10
15.94804806
 20
2.26966969
  0
VERTEX
  8
0
 10
15.74330348
 20
2.45043299
  0
VERTEX
  8
0
 10
15.65391768
 20
2.55379418
  0
VERTEX
  8
0
 10
15.59220490
 20
2.68482005
  0
VERTEX
  8
0
 10
15.35497612
 20
2.68482005
  0
SEQEND
  0
POLYLINE
  8
Default_Layer
 66
   1
 39
0.000000
 70
    1
  0
VERTEX
  8
0
 10
14.88051857
 20
1.46902257
  0
VERTEX
  8
0
 10
14.93164242
 20
1.60292203
  0
VERTEX
  8
0
 10
14.96897245
 20
1.75082680
  0
VERTEX
  8
0
 10
14.99172913
 20
1.91351084
  0
VERTEX
  8
0
 10
14.99913296
 20
2.09174811
  0
VERTEX
  8
0
 10
14.86539407
 20
2.08956422
  0
VERTEX
  8
0
 10
14.81813947
 20
2.07051691
  0
VERTEX
  8
0
 10
14.78255132
 20
2.04151972
  0
VERTEX
  8
0
 10
14.74214407
 20
1.95973679
  0
VERTEX
  8
0
 10
14.73571169
 20
1.85633763
  0
VERTEX
  8
0
 10
14.75479358
 20
1.74344444
  0
VERTEX
  8
0
 10
14.79092911
 20
1.63317940
  0
VERTEX
  8
0
 10
14.88051857
 20
1.46902257
  0
SEQEND
  0
POLYLINE
  8
Default_Layer
 66
   1
 39
0.000000
 70
    1
  0
VERTEX
  8
0
 10
9.27598875
 20
1.52832977
  0
VERTEX
  8
0
 10
9.25590570
 20
1.67197655
  0
VERTEX
  8
0
 10
9.27254020
 20
1.80973144
  0
VERTEX
  8
0
 10
9.29089898
 20
1.94022669
  0
VERTEX
  8
0
 10
9.27598875
 20
2.06209451
  0
VERTEX
  8
0
 10
9.21029173
 20
2.01903387
  0
VERTEX
  8
0
 10
9.16614273
 20
1.95719999
  0
VERTEX
  8
0
 10
9.14215304
 20
1.88259950
  0
VERTEX
  8
0
 10
9.13693393
 20
1.80123903
  0
VERTEX
  8
0
 10
9.14909668
 20
1.71912519
  0
VERTEX
  8
0
 10
9.17725254
 20
1.64226461
  0
VERTEX
  8
0
 10
9.22001281
 20
1.57666393
  0
VERTEX
  8
0
 10
9.27598875
 20
1.52832977
  0
SEQEND
  0
POLYLINE
  8
Default_Layer
 66
   1
 39
0.000000
 70
    1
  0
VERTEX
  8
0
 10
10.10628947
 20
1.46902257
  0
VERTEX
  8
0
 10
10.16080999
 20
1.74028532
  0
VERTEX
  8
0
 10
10.18454923
 20
1.87974313
  0
VERTEX
  8
0
 10
10.19525026
 20
2.03244091
  0
VERTEX
  8
0
 10
10.08802296
 20
2.05316839
  0
VERTEX
  8
0
 10
10.04815794
 20
2.04163098
  0
VERTEX
  8
0
 10
10.01675069
 20
2.01798194
  0
VERTEX
  8
0
 10
9.97718553
 20
1.94181643
  0
VERTEX
  8
0
 10
9.96507957
 20
1.83960670
  0
VERTEX
  8
0
 10
9.97618490
 20
1.72628760
  0
VERTEX
  8
0
 10
10.00625360
 20
1.61679398
  0
VERTEX
  8
0
 10
10.05103776
 20
1.52606069
  0
VERTEX
  8
0
 10
10.10628947
 20
1.46902257
  0
SEQEND
  0
POLYLINE
  8
Default_Layer
 66
   1
 39
0.000000
 70
    1
  0
VERTEX
  8
0
 10
10.93659018
 20
2.00278732
  0
VERTEX
  8
0
 10
10.98646260
 20
1.90438689
  0
VERTEX
  8
0
 10
11.01264848
 20
1.78230409
  0
VERTEX
  8
0
 10
11.05520457
 20
1.52832977
  0
VERTEX
  8
0
 10
11.11060433
 20
1.63809458
  0
VERTEX
  8
0
 10
11.15658408
 20
1.77409042
  0
VERTEX
  8
0
 10
11.17411427
 20
1.92064712
  0
VERTEX
  8
0
 10
11.16626405
 20
1.99298886
  0
VERTEX
  8
0
 10
11.14416536
 20
2.06209451
  0
VERTEX
  8
0
 10
11.07569579
 20
2.06353459
  0
VERTEX
  8
0
 10
11.02430568
 20
2.04810114
  0
VERTEX
  8
0
 10
10.93659018
 20
2.00278732
  0
SEQEND
  0
POLYLINE
  8
Default_Layer
 66
   1
 39
0.000000
 70
    1
  0
VERTEX
  8
0
 10
14.02056426
 20
1.55798336
  0
VERTEX
  8
0
 10
14.01998498
 20
1.69169619
  0
VERTEX
  8
0
 10
14.04432177
 20
1.80069748
  0
VERTEX
  8
0
 10
14.07160661
 20
1.90695610
  0
VERTEX
  8
0
 10
14.07987145
 20
2.03244091
  0
VERTEX
  8
0
 10
14.03819613
 20
2.03524599
  0
VERTEX
  8
0
 10
14.01016861
 20
2.05169886
  0
VERTEX
  8
0
 10
13.97992552
 20
2.06593616
  0
VERTEX
  8
0
 10
13.93160347
 20
2.06209451
  0
VERTEX
  8
0
 10
13.92563066
 20
1.78864588
  0
VERTEX
  8
0
 10
13.95192807
 20
1.65540607
  0
VERTEX
  8
0
 10
13.97988431
 20
1.60064754
  0
VERTEX
  8
0
 10
14.02056426
 20
1.55798336
  0
SEQEND
  0
POLYLINE
  8
Default_Layer
 66
   1
 39
0.000000
 70
    1
  0
VERTEX
  8
0
 10
15.59220490
 20
1.49867617
  0
VERTEX
  8
0
 10
15.65761898
 20
1.52239285
  0
VERTEX
  8
0
 10
15.71001565
 20
1.56797035
  0
VERTEX
  8
0
 10
15.74973593
 20
1.63062168
  0
VERTEX
  8
0
 10
15.77712081
 20
1.70555984
  0
VERTEX
  8
0
 10
15.79624841
 20
1.87314868
  0
VERTEX
  8
0
 10
15.77012648
 20
2.03244091
  0
VERTEX
  8
0
 10
15.65151209
 20
2.03244091
  0
VERTEX
  8
0
 10
15.62767466
 20
1.90769452
  0
VERTEX
  8
0
 10
15.62306370
 20
1.76393035
  0
VERTEX
  8
0
 10
15.61785014
 20
1.62098028
  0
VERTEX
  8
0
 10
15.59220490
 20
1.49867617
  0
SEQEND
  0
POLYLINE
  8
Default_Layer
 66
   1
 39
0.000000
 70
    1
  0
VERTEX
  8
0
 10
11.47035492
 20
11.93674228
  0
VERTEX
  8
0
 10
11.39606800
 20
12.02305335
  0
VERTEX
  8
0
 10
11.29565116
 20
12.07914927
  0
VERTEX
  8
0
 10
11.17477781
 20
12.11204367
  0
VERTEX
  8
0
 10
11.03912136
 20
12.12875023
  0
VERTEX
  8
0
 10
10.74615277
 20
12.14165441
  0
VERTEX
  8
0
 10
10.60018744
 20
12.15187935
  0
VERTEX
  8
0
 10
10.46213263
 20
12.17397106
  0
VERTEX
  8
0
 10
10.39186693
 20
12.20237692
  0
VERTEX
  8
0
 10
10.32921833
 20
12.23984521
  0
VERTEX
  8
0
 10
10.26630628
 20
12.26661662
  0
VERTEX
  8
0
 10
10.19525026
 20
12.26293185
  0
VERTEX
  8
0
 10
10.45693424
 20
12.26044204
  0
VERTEX
  8
0
 10
10.74109122
 20
12.22308833
  0
VERTEX
  8
0
 10
11.04145029
 20
12.18341618
  0
VERTEX
  8
0
 10
11.35174054
 20
12.17397106
  0
VERTEX
  8
0
 10
11.19080801
 20
12.26880081
  0
VERTEX
  8
0
 10
11.01524313
 20
12.34899820
  0
VERTEX
  8
0
 10
10.63341864
 20
12.47869826
  0
VERTEX
  8
0
 10
10.23267174
 20
12.58947590
  0
VERTEX
  8
0
 10
9.83940709
 20
12.70773580
  0
VERTEX
  8
0
 10
9.99327070
 20
12.71281128
  0
VERTEX
  8
0
 10
10.16368973
 20
12.69615513
  0
VERTEX
  8
0
 10
10.52143982
 20
12.61877501
  0
VERTEX
  8
0
 10
10.83714330
 20
12.50129393
  0
VERTEX
  8
0
 10
10.98311698
 20
12.44486388
  0
VERTEX
  8
0
 10
11.11451176
 20
12.41119983
  0
VERTEX
  8
0
 10
11.30159406
 20
12.39738917
  0
VERTEX
  8
0
 10
11.46382944
 20
12.41423282
  0
VERTEX
  8
0
 10
11.58484717
 20
12.46662698
  0
VERTEX
  8
0
 10
11.62478356
 20
12.50768555
  0
VERTEX
  8
0
 10
11.64827651
 20
12.55946782
  0
VERTEX
  8
0
 10
11.65164352
 20
12.61492529
  0
VERTEX
  8
0
 10
11.63553309
 20
12.66731590
  0
VERTEX
  8
0
 10
11.56072961
 20
12.76699386
  0
VERTEX
  8
0
 10
11.45556559
 20
12.86669640
  0
VERTEX
  8
0
 10
11.35174054
 20
12.97461818
  0
VERTEX
  8
0
 10
11.20684679
 20
13.17513893
  0
VERTEX
  8
0
 10
11.05180050
 20
13.40459068
  0
VERTEX
  8
0
 10
10.87621604
 20
13.63404475
  0
VERTEX
  8
0
 10
10.77747650
 20
13.73973245
  0
VERTEX
  8
0
 10
10.66970781
 20
13.83457249
  0
VERTEX
  8
0
 10
10.50114201
 20
13.95235725
  0
VERTEX
  8
0
 10
10.31747995
 20
14.05833202
  0
VERTEX
  8
0
 10
10.13942364
 20
14.14138781
  0
VERTEX
  8
0
 10
9.98767508
 20
14.19041565
  0
VERTEX
  8
0
 10
9.82892054
 20
14.21326970
  0
VERTEX
  8
0
 10
9.67897051
 20
14.21392232
  0
VERTEX
  8
0
 10
9.53809798
 20
14.19438455
  0
VERTEX
  8
0
 10
9.40657594
 20
14.15666743
  0
VERTEX
  8
0
 10
9.28467741
 20
14.10278198
  0
VERTEX
  8
0
 10
9.17267537
 20
14.03473925
  0
VERTEX
  8
0
 10
8.97945278
 20
13.86422608
  0
VERTEX
  8
0
 10
8.99819386
 20
13.92921245
  0
VERTEX
  8
0
 10
9.03922052
 20
13.99262864
  0
VERTEX
  8
0
 10
9.17097626
 20
14.10829129
  0
VERTEX
  8
0
 10
9.34041145
 20
14.19829552
  0
VERTEX
  8
0
 10
9.51321753
 20
14.24972284
  0
VERTEX
  8
0
 10
9.71826824
 20
14.26354158
  0
VERTEX
  8
0
 10
9.92836788
 20
14.24972284
  0
VERTEX
  8
0
 10
10.13530163
 20
14.20163561
  0
VERTEX
  8
0
 10
10.33048399
 20
14.11809260
  0
VERTEX
  8
0
 10
10.51405748
 20
14.00515779
  0
VERTEX
  8
0
 10
10.68616461
 20
13.86889521
  0
VERTEX
  8
0
 10
10.84694789
 20
13.71536883
  0
VERTEX
  8
0
 10
10.99654983
 20
13.55064266
  0
VERTEX
  8
0
 10
11.26277975
 20
13.21184695
  0
VERTEX
  8
0
 10
11.42887073
 20
13.01743721
  0
VERTEX
  8
0
 10
11.59423484
 20
12.82876749
  0
VERTEX
  8
0
 10
11.65751523
 20
12.73441368
  0
VERTEX
  8
0
 10
11.69765900
 20
12.63888912
  0
VERTEX
  8
0
 10
11.70701450
 20
12.54132523
  0
VERTEX
  8
0
 10
11.67793010
 20
12.44085343
  0
VERTEX
  8
0
 10
11.59409696
 20
12.38795288
  0
VERTEX
  8
0
 10
11.47592144
 20
12.35459684
  0
VERTEX
  8
0
 10
11.35496266
 20
12.34212890
  0
VERTEX
  8
0
 10
11.26277975
 20
12.35189264
  0
VERTEX
  8
0
 10
11.30296540
 20
12.28848374
  0
VERTEX
  8
0
 10
11.37841189
 20
12.23625119
  0
VERTEX
  8
0
 10
11.46276289
 20
12.17511878
  0
VERTEX
  8
0
 10
11.52966212
 20
12.08501027
  0
VERTEX
  8
0
 10
11.55456042
 20
11.98498070
  0
VERTEX
  8
0
 10
11.55206557
 20
11.88407581
  0
VERTEX
  8
0
 10
11.52966212
 20
11.66985991
  0
VERTEX
  8
0
 10
11.12400082
 20
11.56086429
  0
VERTEX
  8
0
 10
10.69704873
 20
11.50523026
  0
VERTEX
  8
0
 10
10.26656812
 20
11.50402699
  0
VERTEX
  8
0
 10
9.85032126
 20
11.55832363
  0
VERTEX
  8
0
 10
9.65308620
 20
11.60661854
  0
VERTEX
  8
0
 10
9.46607043
 20
11.66918936
  0
VERTEX
  8
0
 10
9.29149424
 20
11.74616974
  0
VERTEX
  8
0
 10
9.13157790
 20
11.83769332
  0
VERTEX
  8
0
 10
8.98854170
 20
11.94389376
  0
VERTEX
  8
0
 10
8.86460593
 20
12.06490470
  0
VERTEX
  8
0
 10
8.76199088
 20
12.20085977
  0
VERTEX
  8
0
 10
8.68291681
 20
12.35189264
  0
VERTEX
  8
0
 10
8.80549411
 20
12.24029520
  0
VERTEX
  8
0
 10
8.92779601
 20
12.10012672
  0
VERTEX
  8
0
 10
9.06851290
 20
11.95240002
  0
VERTEX
  8
0
 10
9.24633516
 20
11.81812790
  0
VERTEX
  8
0
 10
9.49858916
 20
11.69636016
  0
VERTEX
  8
0
 10
9.79806199
 20
11.60558146
  0
VERTEX
  8
0
 10
10.13303417
 20
11.55435538
  0
VERTEX
  8
0
 10
10.49178623
 20
11.55124552
  0
VERTEX
  8
0
 10
10.78054974
 20
11.57785873
  0
VERTEX
  8
0
 10
11.07003672
 20
11.63693050
  0
VERTEX
  8
0
 10
11.20092447
 20
11.68522370
  0
VERTEX
  8
0
 10
11.31504063
 20
11.74953397
  0
VERTEX
  8
0
 10
11.40673439
 20
11.83249545
  0
VERTEX
  8
0
 10
11.47035492
 20
11.93674228
  0
SEQEND
  0
POLYLINE
  8
Default_Layer
 66
   1
 39
0.000000
 70
    1
  0
VERTEX
  8
0
 10
12.83442038
 20
13.09323256
  0
VERTEX
  8
0
 10
12.85554355
 20
13.11617794
  0
VERTEX
  8
0
 10
12.89372758
 20
13.12288616
  0
VERTEX
  8
0
 10
12.87709421
 20
13.08732171
  0
VERTEX
  8
0
 10
12.84589389
 20
13.06652596
  0
VERTEX
  8
0
 10
12.77511319
 20
13.03392537
  0
VERTEX
  8
0
 10
12.85209692
 20
12.69575889
  0
VERTEX
  8
0
 10
12.91384400
 20
12.34235435
  0
VERTEX
  8
0
 10
12.97294626
 20
11.98630557
  0
VERTEX
  8
0
 10
13.04199556
 20
11.64020631
  0
VERTEX
  8
0
 10
12.79603110
 20
11.59673931
  0
VERTEX
  8
0
 10
12.58399110
 20
11.51955378
  0
VERTEX
  8
0
 10
12.38596476
 20
11.42856052
  0
VERTEX
  8
0
 10
12.18204125
 20
11.34367034
  0
VERTEX
  8
0
 10
12.20237531
 20
11.39716278
  0
VERTEX
  8
0
 10
12.24610727
 20
11.42746045
  0
VERTEX
  8
0
 10
12.35996283
 20
11.46228473
  0
VERTEX
  8
0
 10
12.26584484
 20
11.61213869
  0
VERTEX
  8
0
 10
12.17698872
 20
11.79806801
  0
VERTEX
  8
0
 10
12.10156134
 20
12.00869232
  0
VERTEX
  8
0
 10
12.04772952
 20
12.23263123
  0
VERTEX
  8
0
 10
12.02366012
 20
12.45850437
  0
VERTEX
  8
0
 10
12.03751998
 20
12.67493136
  0
VERTEX
  8
0
 10
12.09747594
 20
12.87053182
  0
VERTEX
  8
0
 10
12.14729210
 20
12.95696573
  0
VERTEX
  8
0
 10
12.21169485
 20
13.03392537
  0
VERTEX
  8
0
 10
12.36289685
 20
13.12992572
  0
VERTEX
  8
0
 10
12.46630923
 20
13.16811826
  0
VERTEX
  8
0
 10
12.56753801
 20
13.18219335
  0
VERTEX
  8
0
 10
12.65220337
 20
13.15854061
  0
VERTEX
  8
0
 10
12.70075659
 20
13.11503887
  0
VERTEX
  8
0
 10
12.74942111
 20
13.08287418
  0
VERTEX
  8
0
 10
12.83442038
 20
13.09323256
  0
SEQEND
  0
POLYLINE
  8
Default_Layer
 66
   1
 39
0.000000
 70
    1
  0
VERTEX
  8
0
 10
12.09308046
 20
12.35189264
  0
VERTEX
  8
0
 10
12.14497345
 20
12.46291242
  0
VERTEX
  8
0
 10
12.21138143
 20
12.55946887
  0
VERTEX
  8
0
 10
12.37142152
 20
12.72551330
  0
VERTEX
  8
0
 10
12.54055906
 20
12.88266898
  0
VERTEX
  8
0
 10
12.61833886
 20
12.96811450
  0
VERTEX
  8
0
 10
12.68615240
 20
13.06357897
  0
VERTEX
  8
0
 10
12.55156127
 20
13.09905896
  0
VERTEX
  8
0
 10
12.42416498
 20
13.08136249
  0
VERTEX
  8
0
 10
12.30900285
 20
13.01930054
  0
VERTEX
  8
0
 10
12.21111417
 20
12.92168407
  0
VERTEX
  8
0
 10
12.13553828
 20
12.79732408
  0
VERTEX
  8
0
 10
12.08731449
 20
12.65503152
  0
VERTEX
  8
0
 10
12.07148211
 20
12.50361739
  0
VERTEX
  8
0
 10
12.09308046
 20
12.35189264
  0
SEQEND
  0
POLYLINE
  8
Default_Layer
 66
   1
 39
0.000000
 70
    1
  0
VERTEX
  8
0
 10
12.68615240
 20
12.97461818
  0
VERTEX
  8
0
 10
12.62362254
 20
12.89043253
  0
VERTEX
  8
0
 10
12.54034806
 20
12.80225167
  0
VERTEX
  8
0
 10
12.34642353
 20
12.61492985
  0
VERTEX
  8
0
 10
12.17409546
 20
12.41470381
  0
VERTEX
  8
0
 10
12.11781654
 20
12.31039268
  0
VERTEX
  8
0
 10
12.09308046
 20
12.20362466
  0
VERTEX
  8
0
 10
12.10586712
 20
12.11467414
  0
VERTEX
  8
0
 10
12.14465935
 20
12.02325422
  0
VERTEX
  8
0
 10
12.24134844
 20
11.84778149
  0
VERTEX
  8
0
 10
12.32423115
 20
11.66387969
  0
VERTEX
  8
0
 10
12.37641829
 20
11.58342768
  0
VERTEX
  8
0
 10
12.44892362
 20
11.52159193
  0
VERTEX
  8
0
 10
12.49981603
 20
11.54441721
  0
VERTEX
  8
0
 10
12.56753801
 20
11.55124552
  0
VERTEX
  8
0
 10
12.53968391
 20
11.64625021
  0
VERTEX
  8
0
 10
12.50013073
 20
11.72842964
  0
VERTEX
  8
0
 10
12.46462760
 20
11.81097780
  0
VERTEX
  8
0
 10
12.44892362
 20
11.90708869
  0
VERTEX
  8
0
 10
12.45681724
 20
11.99712501
  0
VERTEX
  8
0
 10
12.48057799
 20
12.07987314
  0
VERTEX
  8
0
 10
12.56699144
 20
12.22263982
  0
VERTEX
  8
0
 10
12.69074517
 20
12.33365872
  0
VERTEX
  8
0
 10
12.83442038
 20
12.41119983
  0
VERTEX
  8
0
 10
12.81088889
 20
12.56558993
  0
VERTEX
  8
0
 10
12.79634533
 20
12.72896794
  0
VERTEX
  8
0
 10
12.76377229
 20
12.87431649
  0
VERTEX
  8
0
 10
12.73228179
 20
12.93178678
  0
VERTEX
  8
0
 10
12.68615240
 20
12.97461818
  0
SEQEND
  0
POLYLINE
  8
Default_Layer
 66
   1
 39
0.000000
 70
    1
  0
VERTEX
  8
0
 10
12.68615240
 20
12.11466386
  0
VERTEX
  8
0
 10
12.72956140
 20
12.09071018
  0
VERTEX
  8
0
 10
12.78973406
 20
12.08272562
  0
VERTEX
  8
0
 10
12.85000968
 20
12.09071018
  0
VERTEX
  8
0
 10
12.89372758
 20
12.11466386
  0
VERTEX
  8
0
 10
12.87562607
 20
12.24482479
  0
VERTEX
  8
0
 10
12.85563622
 20
12.29897101
  0
VERTEX
  8
0
 10
12.80476679
 20
12.32223904
  0
VERTEX
  8
0
 10
12.71484131
 20
12.24865788
  0
VERTEX
  8
0
 10
12.68445647
 20
12.19759690
  0
VERTEX
  8
0
 10
12.68615240
 20
12.11466386
  0
SEQEND
  0
POLYLINE
  8
Default_Layer
 66
   1
 39
0.000000
 70
    1
  0
VERTEX
  8
0
 10
12.68615240
 20
11.66985991
  0
VERTEX
  8
0
 10
12.65248392
 20
11.75480721
  0
VERTEX
  8
0
 10
12.62429664
 20
11.84523293
  0
VERTEX
  8
0
 10
12.58255685
 20
11.92210613
  0
VERTEX
  8
0
 10
12.55065672
 20
11.94951337
  0
VERTEX
  8
0
 10
12.50823082
 20
11.96639588
  0
VERTEX
  8
0
 10
12.55973780
 20
11.78067408
  0
VERTEX
  8
0
 10
12.60294054
 20
11.70526383
  0
VERTEX
  8
0
 10
12.63821519
 20
11.68123112
  0
VERTEX
  8
0
 10
12.68615240
 20
11.66985991
  0
SEQEND
  0
POLYLINE
  8
Default_Layer
 66
   1
 39
0.000000
 70
    1
  0
VERTEX
  8
0
 10
16.09631604
 20
12.50016062
  0
VERTEX
  8
0
 10
15.82554236
 20
12.36289124
  0
VERTEX
  8
0
 10
15.53773029
 20
12.24286061
  0
VERTEX
  8
0
 10
15.24750192
 20
12.12545220
  0
VERTEX
  8
0
 10
14.96947936
 20
11.99604948
  0
VERTEX
  8
0
 10
15.00504593
 20
11.95922254
  0
VERTEX
  8
0
 10
15.04533190
 20
11.93760574
  0
VERTEX
  8
0
 10
15.13571685
 20
11.92639001
  0
VERTEX
  8
0
 10
15.23194384
 20
11.93517721
  0
VERTEX
  8
0
 10
15.32532252
 20
11.93674228
  0
VERTEX
  8
0
 10
15.50298369
 20
11.89238178
  0
VERTEX
  8
0
 10
15.68116569
 20
11.84778149
  0
VERTEX
  8
0
 10
16.05317594
 20
11.82053794
  0
VERTEX
  8
0
 10
16.42101114
 20
11.84057922
  0
VERTEX
  8
0
 10
16.76856338
 20
11.91145412
  0
VERTEX
  8
0
 10
16.92969967
 20
11.96706316
  0
VERTEX
  8
0
 10
17.07972474
 20
12.03671140
  0
VERTEX
  8
0
 10
17.21662512
 20
12.12084242
  0
VERTEX
  8
0
 10
17.33838731
 20
12.21989983
  0
VERTEX
  8
0
 10
17.44299782
 20
12.33432722
  0
VERTEX
  8
0
 10
17.52844316
 20
12.46456818
  0
VERTEX
  8
0
 10
17.59270985
 20
12.61106633
  0
VERTEX
  8
0
 10
17.63378439
 20
12.77426524
  0
VERTEX
  8
0
 10
17.64965330
 20
12.95460852
  0
VERTEX
  8
0
 10
17.63830308
 20
13.15253976
  0
VERTEX
  8
0
 10
17.70056797
 20
13.02062769
  0
VERTEX
  8
0
 10
17.71862479
 20
12.87629591
  0
VERTEX
  8
0
 10
17.69932825
 20
12.72553585
  0
VERTEX
  8
0
 10
17.64953306
 20
12.57433889
  0
VERTEX
  8
0
 10
17.57609393
 20
12.42869645
  0
VERTEX
  8
0
 10
17.48586556
 20
12.29459993
  0
VERTEX
  8
0
 10
17.38570265
 20
12.17804073
  0
VERTEX
  8
0
 10
17.28245992
 20
12.08501027
  0
VERTEX
  8
0
 10
17.16928048
 20
12.00789984
  0
VERTEX
  8
0
 10
17.04371245
 20
11.94143523
  0
VERTEX
  8
0
 10
16.76013718
 20
11.83991567
  0
VERTEX
  8
0
 10
16.44118731
 20
11.77939602
  0
VERTEX
  8
0
 10
16.09631604
 20
11.75882070
  0
VERTEX
  8
0
 10
15.78999057
 20
11.78096141
  0
VERTEX
  8
0
 10
15.48196744
 20
11.82153822
  0
VERTEX
  8
0
 10
15.17716925
 20
11.83816968
  0
VERTEX
  8
0
 10
15.02751781
 20
11.82426169
  0
VERTEX
  8
0
 10
14.88051857
 20
11.78847430
  0
VERTEX
  8
0
 10
14.82599918
 20
11.92934802
  0
VERTEX
  8
0
 10
14.81679089
 20
12.05495499
  0
VERTEX
  8
0
 10
14.84544002
 20
12.16763056
  0
VERTEX
  8
0
 10
14.90449293
 20
12.26971008
  0
VERTEX
  8
0
 10
14.98649593
 20
12.36352894
  0
VERTEX
  8
0
 10
15.08399537
 20
12.45142247
  0
VERTEX
  8
0
 10
15.29566893
 20
12.61877501
  0
VERTEX
  8
0
 10
15.59860468
 20
12.83659048
  0
VERTEX
  8
0
 10
15.72905530
 20
12.93454925
  0
VERTEX
  8
0
 10
15.82943367
 20
13.03392537
  0
VERTEX
  8
0
 10
15.74680531
 20
12.91607448
  0
VERTEX
  8
0
 10
15.63786595
 20
12.80537531
  0
VERTEX
  8
0
 10
15.37311280
 20
12.59281049
  0
VERTEX
  8
0
 10
15.09929130
 20
12.37098773
  0
VERTEX
  8
0
 10
14.97901652
 20
12.24871614
  0
VERTEX
  8
0
 10
14.88051857
 20
12.11466386
  0
VERTEX
  8
0
 10
15.03063314
 20
12.13168370
  0
VERTEX
  8
0
 10
15.18042271
 20
12.16800534
  0
VERTEX
  8
0
 10
15.48073978
 20
12.27776030
  0
VERTEX
  8
0
 10
15.78489562
 20
12.40234122
  0
VERTEX
  8
0
 10
16.09631604
 20
12.50016062
  0
SEQEND
  0
POLYLINE
  8
Default_Layer
 66
   1
 39
0.000000
 70
    1
  0
VERTEX
  8
0
 10
9.21668156
 20
5.08676140
  0
VERTEX
  8
0
 10
9.23345194
 20
5.10535399
  0
VERTEX
  8
0
 10
9.24633516
 20
5.08676140
  0
VERTEX
  8
0
 10
9.30569567
 20
5.08944260
  0
VERTEX
  8
0
 10
9.35680467
 20
5.11014033
  0
VERTEX
  8
0
 10
9.40010500
 20
5.14671768
  0
VERTEX
  8
0
 10
9.43603949
 20
5.19703778
  0
VERTEX
  8
0
 10
9.48758229
 20
5.33035861
  0
VERTEX
  8
0
 10
9.51497578
 20
5.49300768
  0
VERTEX
  8
0
 10
9.52176264
 20
5.66788986
  0
VERTEX
  8
0
 10
9.51148556
 20
5.83791002
  0
VERTEX
  8
0
 10
9.48768723
 20
5.98597301
  0
VERTEX
  8
0
 10
9.45391033
 20
6.09498369
  0
VERTEX
  8
0
 10
9.37405341
 20
6.21075229
  0
VERTEX
  8
0
 10
9.27211764
 20
6.30143739
  0
VERTEX
  8
0
 10
9.17211742
 20
6.38526982
  0
VERTEX
  8
0
 10
9.09806717
 20
6.48048045
  0
VERTEX
  8
0
 10
9.05470591
 20
6.59249240
  0
VERTEX
  8
0
 10
9.02695528
 20
6.71087109
  0
VERTEX
  8
0
 10
8.98854326
 20
6.94717745
  0
VERTEX
  8
0
 10
8.96301054
 20
7.05532951
  0
VERTEX
  8
0
 10
8.92334580
 20
7.15029709
  0
VERTEX
  8
0
 10
8.86211337
 20
7.22719237
  0
VERTEX
  8
0
 10
8.77187760
 20
7.28112757
  0
VERTEX
  8
0
 10
8.75640823
 20
7.47323893
  0
VERTEX
  8
0
 10
8.72746322
 20
7.54807942
  0
VERTEX
  8
0
 10
8.68291681
 20
7.60731713
  0
VERTEX
  8
0
 10
8.78289821
 20
7.77003136
  0
VERTEX
  8
0
 10
8.85710665
 20
7.93144742
  0
VERTEX
  8
0
 10
8.89611397
 20
8.12354672
  0
VERTEX
  8
0
 10
8.89049199
 20
8.37831065
  0
VERTEX
  8
0
 10
8.85563088
 20
8.52407002
  0
VERTEX
  8
0
 10
8.79855637
 20
8.66588436
  0
VERTEX
  8
0
 10
8.74296927
 20
8.80476643
  0
VERTEX
  8
0
 10
8.71257041
 20
8.94172899
  0
VERTEX
  8
0
 10
8.72470409
 20
9.12548741
  0
VERTEX
  8
0
 10
8.77112420
 20
9.35089653
  0
VERTEX
  8
0
 10
8.89049199
 20
9.77202971
  0
VERTEX
  8
0
 10
8.96175457
 20
9.95074951
  0
VERTEX
  8
0
 10
9.03875998
 20
10.12787287
  0
VERTEX
  8
0
 10
9.09021247
 20
10.32141762
  0
VERTEX
  8
0
 10
9.13516816
 20
10.40619433
  0
VERTEX
  8
0
 10
9.17024242
 20
10.43609719
  0
VERTEX
  8
0
 10
9.21668156
 20
10.45406244
  0
VERTEX
  8
0
 10
9.19870220
 20
10.37535733
  0
VERTEX
  8
0
 10
9.19329949
 20
10.28428427
  0
VERTEX
  8
0
 10
9.18476102
 20
10.19655290
  0
VERTEX
  8
0
 10
9.15737436
 20
10.12787287
  0
VERTEX
  8
0
 10
9.20351122
 20
10.04396810
  0
VERTEX
  8
0
 10
9.22815692
 20
9.95207502
  0
VERTEX
  8
0
 10
9.24633516
 20
9.77202971
  0
VERTEX
  8
0
 10
9.26061043
 20
9.46580645
  0
VERTEX
  8
0
 10
9.26604532
 20
9.16779966
  0
VERTEX
  8
0
 10
9.28386533
 20
8.87537192
  0
VERTEX
  8
0
 10
9.33529595
 20
8.58588583
  0
VERTEX
  8
0
 10
9.38684471
 20
8.42582178
  0
VERTEX
  8
0
 10
9.45285252
 20
8.27496345
  0
VERTEX
  8
0
 10
9.61011490
 20
7.99342937
  0
VERTEX
  8
0
 10
9.77082239
 20
7.72641435
  0
VERTEX
  8
0
 10
9.89871429
 20
7.45904915
  0
VERTEX
  8
0
 10
9.94330345
 20
7.26278216
  0
VERTEX
  8
0
 10
9.98767508
 20
7.07355239
  0
VERTEX
  8
0
 10
10.05208986
 20
6.92827137
  0
VERTEX
  8
0
 10
10.12890569
 20
6.79305441
  0
VERTEX
  8
0
 10
10.31320094
 20
6.54580452
  0
VERTEX
  8
0
 10
10.52748163
 20
6.31778639
  0
VERTEX
  8
0
 10
10.75866860
 20
6.09498369
  0
VERTEX
  8
0
 10
10.67020203
 20
5.87525071
  0
VERTEX
  8
0
 10
10.61114434
 20
5.64750107
  0
VERTEX
  8
0
 10
10.57395498
 20
5.40626397
  0
VERTEX
  8
0
 10
10.55109342
 20
5.14606859
  0
VERTEX
  8
0
 10
10.52823961
 20
4.98777744
  0
VERTEX
  8
0
 10
10.49119999
 20
4.83053669
  0
VERTEX
  8
0
 10
10.45445349
 20
4.67538050
  0
VERTEX
  8
0
 10
10.43247903
 20
4.52334305
  0
VERTEX
  8
0
 10
10.43138199
 20
4.35549450
  0
VERTEX
  8
0
 10
10.44688450
 20
4.18748932
  0
VERTEX
  8
0
 10
10.50570653
 20
3.84980254
  0
VERTEX
  8
0
 10
10.56498181
 20
3.50786965
  0
VERTEX
  8
0
 10
10.58105088
 20
3.33455684
  0
VERTEX
  8
0
 10
10.58074702
 20
3.15927760
  0
VERTEX
  8
0
 10
10.26708497
 20
3.66849661
  0
VERTEX
  8
0
 10
9.93286168
 20
4.15716133
  0
VERTEX
  8
0
 10
9.58156470
 20
4.62875514
  0
VERTEX
  8
0
 10
9.21668156
 20
5.08676140
  0
SEQEND
  0
POLYLINE
  8
Default_Layer
 66
   1
 39
0.000000
 70
    1
  0
VERTEX
  8
0
 10
10.93659018
 20
9.14930417
  0
VERTEX
  8
0
 10
10.93884915
 20
9.09166441
  0
VERTEX
  8
0
 10
10.91840964
 20
9.05373849
  0
VERTEX
  8
0
 10
10.88312099
 20
9.03443327
  0
VERTEX
  8
0
 10
10.84083258
 20
9.03265561
  0
VERTEX
  8
0
 10
10.79939377
 20
9.04731237
  0
VERTEX
  8
0
 10
10.76665393
 20
9.07731041
  0
VERTEX
  8
0
 10
10.75046241
 20
9.12155659
  0
VERTEX
  8
0
 10
10.75866860
 20
9.17895777
  0
VERTEX
  8
0
 10
10.81584660
 20
9.19747003
  0
VERTEX
  8
0
 10
10.84742346
 20
9.18711601
  0
VERTEX
  8
0
 10
10.87910328
 20
9.16526947
  0
VERTEX
  8
0
 10
10.93659018
 20
9.14930417
  0
SEQEND
  0
POLYLINE
  8
Default_Layer
 66
   1
 39
0.000000
 70
    1
  0
VERTEX
  8
0
 10
10.78832219
 20
9.11965058
  0
VERTEX
  8
0
 10
10.85257651
 20
9.08853300
  0
VERTEX
  8
0
 10
10.88892669
 20
9.08715999
  0
VERTEX
  8
0
 10
10.90693658
 20
9.11965058
  0
VERTEX
  8
0
 10
10.84227041
 20
9.15035630
  0
VERTEX
  8
0
 10
10.80602320
 20
9.15183227
  0
VERTEX
  8
0
 10
10.78832219
 20
9.11965058
  0
SEQEND
  0
POLYLINE
  8
Default_Layer
 66
   1
 39
0.000000
 70
    1
  0
VERTEX
  8
0
 10
10.40282543
 20
8.91207540
  0
VERTEX
  8
0
 10
10.36534064
 20
8.87922865
  0
VERTEX
  8
0
 10
10.31614467
 20
8.85881604
  0
VERTEX
  8
0
 10
10.20204406
 20
8.85343076
  0
VERTEX
  8
0
 10
10.09937335
 20
8.89219459
  0
VERTEX
  8
0
 10
10.06446475
 20
8.92696838
  0
VERTEX
  8
0
 10
10.04698227
 20
8.97138259
  0
VERTEX
  8
0
 10
10.06546439
 20
9.04081234
  0
VERTEX
  8
0
 10
10.11196311
 20
9.08839817
  0
VERTEX
  8
0
 10
10.17618416
 20
9.11408446
  0
VERTEX
  8
0
 10
10.24783329
 20
9.11781555
  0
VERTEX
  8
0
 10
10.31661624
 20
9.09953583
  0
VERTEX
  8
0
 10
10.37223875
 20
9.05918966
  0
VERTEX
  8
0
 10
10.40440657
 20
8.99672139
  0
VERTEX
  8
0
 10
10.40282543
 20
8.91207540
  0
SEQEND
  0
POLYLINE
  8
Default_Layer
 66
   1
 39
0.000000
 70
    1
  0
VERTEX
  8
0
 10
10.10628947
 20
8.97138259
  0
VERTEX
  8
0
 10
10.14526243
 20
8.91818852
  0
VERTEX
  8
0
 10
10.20397785
 20
8.89197191
  0
VERTEX
  8
0
 10
10.27315626
 20
8.89063384
  0
VERTEX
  8
0
 10
10.34351824
 20
8.91207540
  0
VERTEX
  8
0
 10
10.34351824
 20
9.06034338
  0
VERTEX
  8
0
 10
10.26832486
 20
9.08155440
  0
VERTEX
  8
0
 10
10.19210380
 20
9.07821762
  0
VERTEX
  8
0
 10
10.13228277
 20
9.04370353
  0
VERTEX
  8
0
 10
10.10628947
 20
8.97138259
  0
SEQEND
  0
POLYLINE
  8
Default_Layer
 66
   1
 39
0.000000
 70
    1
  0
VERTEX
  8
0
 10
14.91017217
 20
11.64020631
  0
VERTEX
  8
0
 10
14.83238965
 20
11.71811353
  0
VERTEX
  8
0
 10
14.76582492
 20
11.80723296
  0
VERTEX
  8
0
 10
14.71954002
 20
11.91662666
  0
VERTEX
  8
0
 10
14.70259699
 20
12.05535667
  0
VERTEX
  8
0
 10
14.66480890
 20
11.92100627
  0
VERTEX
  8
0
 10
14.67371025
 20
11.81417255
  0
VERTEX
  8
0
 10
14.71717941
 20
11.72758140
  0
VERTEX
  8
0
 10
14.78309481
 20
11.65395870
  0
VERTEX
  8
0
 10
14.93377785
 20
11.51652226
  0
VERTEX
  8
0
 10
14.99430230
 20
11.43816029
  0
VERTEX
  8
0
 10
15.02878655
 20
11.34367034
  0
VERTEX
  8
0
 10
14.76609996
 20
11.30940911
  0
VERTEX
  8
0
 10
14.52467541
 20
11.25470955
  0
VERTEX
  8
0
 10
14.58573203
 20
11.22648467
  0
VERTEX
  8
0
 10
14.65217580
 20
11.22181615
  0
VERTEX
  8
0
 10
14.79368707
 20
11.25216396
  0
VERTEX
  8
0
 10
14.93413369
 20
11.28378457
  0
VERTEX
  8
0
 10
14.99924666
 20
11.28070704
  0
VERTEX
  8
0
 10
15.05844015
 20
11.25470955
  0
VERTEX
  8
0
 10
15.01587657
 20
11.21183946
  0
VERTEX
  8
0
 10
14.95509851
 20
11.18723343
  0
VERTEX
  8
0
 10
14.79940577
 20
11.17231016
  0
VERTEX
  8
0
 10
14.63237563
 20
11.16893299
  0
VERTEX
  8
0
 10
14.55742583
 20
11.15875958
  0
VERTEX
  8
0
 10
14.49502181
 20
11.13609517
  0
VERTEX
  8
0
 10
14.62355559
 20
11.10879670
  0
VERTEX
  8
0
 10
14.74636846
 20
11.11947486
  0
VERTEX
  8
0
 10
14.88436259
 20
11.13846318
  0
VERTEX
  8
0
 10
15.05844015
 20
11.13609517
  0
VERTEX
  8
0
 10
15.03801305
 20
11.07067114
  0
VERTEX
  8
0
 10
14.99402757
 20
11.03446528
  0
VERTEX
  8
0
 10
14.93217905
 20
11.02115572
  0
VERTEX
  8
0
 10
14.85816289
 20
11.02442063
  0
VERTEX
  8
0
 10
14.69640905
 20
11.05538645
  0
VERTEX
  8
0
 10
14.55432900
 20
11.07678797
  0
VERTEX
  8
0
 10
14.57396346
 20
11.02969758
  0
VERTEX
  8
0
 10
14.61265622
 20
11.00166775
  0
VERTEX
  8
0
 10
14.72753397
 20
10.98310501
  0
VERTEX
  8
0
 10
14.85959683
 20
10.98173016
  0
VERTEX
  8
0
 10
14.96947936
 20
10.95817358
  0
VERTEX
  8
0
 10
14.90203717
 20
10.81675842
  0
VERTEX
  8
0
 10
14.79049352
 20
10.69181055
  0
VERTEX
  8
0
 10
14.64535261
 20
10.57994217
  0
VERTEX
  8
0
 10
14.47711861
 20
10.47776546
  0
VERTEX
  8
0
 10
14.11338811
 20
10.28893586
  0
VERTEX
  8
0
 10
13.93889997
 20
10.19550734
  0
VERTEX
  8
0
 10
13.78333548
 20
10.09821927
  0
VERTEX
  8
0
 10
13.58087905
 20
9.92150476
  0
VERTEX
  8
0
 10
13.48866008
 20
9.84525800
  0
VERTEX
  8
0
 10
13.39783872
 20
9.80168331
  0
VERTEX
  8
0
 10
13.27440116
 20
9.78437102
  0
VERTEX
  8
0
 10
13.16463925
 20
9.79045319
  0
VERTEX
  8
0
 10
13.06505185
 20
9.81494201
  0
VERTEX
  8
0
 10
12.97213778
 20
9.85284964
  0
VERTEX
  8
0
 10
12.79232500
 20
9.94897011
  0
VERTEX
  8
0
 10
12.59719161
 20
10.03891208
  0
VERTEX
  8
0
 10
12.64000039
 20
10.12195211
  0
VERTEX
  8
0
 10
12.70978306
 20
10.17806870
  0
VERTEX
  8
0
 10
12.79858674
 20
10.21521506
  0
VERTEX
  8
0
 10
12.89845860
 20
10.24134438
  0
VERTEX
  8
0
 10
13.09959543
 20
10.29236469
  0
VERTEX
  8
0
 10
13.18495470
 20
10.33316209
  0
VERTEX
  8
0
 10
13.24957074
 20
10.39475524
  0
VERTEX
  8
0
 10
13.40557661
 20
10.34724619
  0
VERTEX
  8
0
 10
13.55878254
 20
10.33752351
  0
VERTEX
  8
0
 10
13.70683544
 20
10.35930583
  0
VERTEX
  8
0
 10
13.84738223
 20
10.40631179
  0
VERTEX
  8
0
 10
13.97806982
 20
10.47226003
  0
VERTEX
  8
0
 10
14.09654514
 20
10.55086918
  0
VERTEX
  8
0
 10
14.28744663
 20
10.72094481
  0
VERTEX
  8
0
 10
14.33648648
 20
10.69626721
  0
VERTEX
  8
0
 10
14.40585509
 20
10.68804134
  0
VERTEX
  8
0
 10
14.47532666
 20
10.69626721
  0
VERTEX
  8
0
 10
14.52467541
 20
10.72094481
  0
VERTEX
  8
0
 10
14.40148879
 20
10.75344583
  0
VERTEX
  8
0
 10
14.29181959
 20
10.79945732
  0
VERTEX
  8
0
 10
14.19479071
 20
10.85810635
  0
VERTEX
  8
0
 10
14.10952505
 20
10.92851999
  0
VERTEX
  8
0
 10
14.09250214
 20
10.90338717
  0
VERTEX
  8
0
 10
14.09513387
 20
10.87912584
  0
VERTEX
  8
0
 10
14.13825177
 20
10.83100949
  0
VERTEX
  8
0
 10
14.19665990
 20
10.77975460
  0
VERTEX
  8
0
 10
14.22813944
 20
10.72094481
  0
VERTEX
  8
0
 10
14.04530174
 20
10.58999377
  0
VERTEX
  8
0
 10
13.83473089
 20
10.46969783
  0
VERTEX
  8
0
 10
13.71736493
 20
10.42630627
  0
VERTEX
  8
0
 10
13.59104894
 20
10.40089139
  0
VERTEX
  8
0
 10
13.45511069
 20
10.39855748
  0
VERTEX
  8
0
 10
13.30887793
 20
10.42440884
  0
VERTEX
  8
0
 10
13.28227919
 20
10.59919694
  0
VERTEX
  8
0
 10
13.27192166
 20
10.66096571
  0
VERTEX
  8
0
 10
13.27922434
 20
10.72094481
  0
VERTEX
  8
0
 10
13.31794635
 20
10.78860035
  0
VERTEX
  8
0
 10
13.38160642
 20
10.84770831
  0
VERTEX
  8
0
 10
13.54562760
 20
10.95472429
  0
VERTEX
  8
0
 10
13.62693211
 20
11.00985370
  0
VERTEX
  8
0
 10
13.69506153
 20
11.07087832
  0
VERTEX
  8
0
 10
13.74048755
 20
11.14140884
  0
VERTEX
  8
0
 10
13.75368189
 20
11.22505596
  0
VERTEX
  8
0
 10
13.73662859
 20
11.29803555
  0
VERTEX
  8
0
 10
13.69848165
 20
11.35699227
  0
VERTEX
  8
0
 10
13.64223617
 20
11.40273997
  0
VERTEX
  8
0
 10
13.57088723
 20
11.43609253
  0
VERTEX
  8
0
 10
13.39485939
 20
11.46886767
  0
VERTEX
  8
0
 10
13.19435887
 20
11.46182860
  0
VERTEX
  8
0
 10
12.99334644
 20
11.42148626
  0
VERTEX
  8
0
 10
12.81578285
 20
11.35435155
  0
VERTEX
  8
0
 10
12.68562885
 20
11.26693542
  0
VERTEX
  8
0
 10
12.64581819
 20
11.21765647
  0
VERTEX
  8
0
 10
12.62684520
 20
11.16574876
  0
VERTEX
  8
0
 10
12.62446167
 20
11.09007370
  0
VERTEX
  8
0
 10
12.63975813
 20
11.02960983
  0
VERTEX
  8
0
 10
12.67007318
 20
10.98193595
  0
VERTEX
  8
0
 10
12.71274540
 20
10.94463082
  0
VERTEX
  8
0
 10
12.82451571
 20
10.89144197
  0
VERTEX
  8
0
 10
12.95377776
 20
10.85067353
  0
VERTEX
  8
0
 10
13.07924023
 20
10.80295575
  0
VERTEX
  8
0
 10
13.17961182
 20
10.72891888
  0
VERTEX
  8
0
 10
13.21373500
 20
10.67597773
  0
VERTEX
  8
0
 10
13.23360123
 20
10.60919316
  0
VERTEX
  8
0
 10
13.23654908
 20
10.52614393
  0
VERTEX
  8
0
 10
13.21991714
 20
10.42440884
  0
VERTEX
  8
0
 10
13.09651413
 20
10.35312927
  0
VERTEX
  8
0
 10
12.95696983
 20
10.31819427
  0
VERTEX
  8
0
 10
12.80739134
 20
10.31373248
  0
VERTEX
  8
0
 10
12.65388574
 20
10.33387250
  0
VERTEX
  8
0
 10
12.50256013
 20
10.37274296
  0
VERTEX
  8
0
 10
12.35952158
 20
10.42447249
  0
VERTEX
  8
0
 10
12.12273406
 20
10.54302323
  0
VERTEX
  8
0
 10
12.12480243
 20
10.59266712
  0
VERTEX
  8
0
 10
12.13872701
 20
10.63050716
  0
VERTEX
  8
0
 10
12.18572291
 20
10.68719659
  0
VERTEX
  8
0
 10
12.23087797
 20
10.74593332
  0
VERTEX
  8
0
 10
12.24250152
 20
10.78633250
  0
VERTEX
  8
0
 10
12.24134844
 20
10.83955920
  0
VERTEX
  8
0
 10
12.09498994
 20
10.65931627
  0
VERTEX
  8
0
 10
12.00549475
 20
10.58581687
  0
VERTEX
  8
0
 10
11.88550528
 20
10.54302323
  0
VERTEX
  8
0
 10
11.92909902
 20
10.49835864
  0
VERTEX
  8
0
 10
11.97471421
 20
10.50104131
  0
VERTEX
  8
0
 10
12.02761874
 20
10.52471494
  0
VERTEX
  8
0
 10
12.09308046
 20
10.54302323
  0
VERTEX
  8
0
 10
12.05271967
 20
10.45901865
  0
VERTEX
  8
0
 10
11.99674202
 20
10.42513256
  0
VERTEX
  8
0
 10
11.92919025
 20
10.43042448
  0
VERTEX
  8
0
 10
11.85410710
 20
10.46395393
  0
VERTEX
  8
0
 10
11.69751768
 20
10.57196355
  0
VERTEX
  8
0
 10
11.55931571
 20
10.66163762
  0
VERTEX
  8
0
 10
11.60104554
 20
10.70855969
  0
VERTEX
  8
0
 10
11.67066995
 20
10.72779310
  0
VERTEX
  8
0
 10
11.82619809
 20
10.75059841
  0
VERTEX
  8
0
 10
11.80486159
 20
10.78774710
  0
VERTEX
  8
0
 10
11.76494203
 20
10.79805086
  0
VERTEX
  8
0
 10
11.65329480
 20
10.77482185
  0
VERTEX
  8
0
 10
11.53913842
 20
10.75430792
  0
VERTEX
  8
0
 10
11.49608243
 20
10.76800552
  0
VERTEX
  8
0
 10
11.47035492
 20
10.80990560
  0
VERTEX
  8
0
 10
11.48788948
 20
10.84779135
  0
VERTEX
  8
0
 10
11.52265056
 20
10.86850207
  0
VERTEX
  8
0
 10
11.62691496
 20
10.87533569
  0
VERTEX
  8
0
 10
11.74927354
 20
10.86428106
  0
VERTEX
  8
0
 10
11.85585168
 20
10.86921279
  0
VERTEX
  8
0
 10
11.83472810
 20
10.90739762
  0
VERTEX
  8
0
 10
11.79620559
 20
10.92818248
  0
VERTEX
  8
0
 10
11.68417865
 20
10.93476854
  0
VERTEX
  8
0
 10
11.55420064
 20
10.92340352
  0
VERTEX
  8
0
 10
11.44070133
 20
10.92851999
  0
VERTEX
  8
0
 10
11.48157972
 20
10.96780493
  0
VERTEX
  8
0
 10
11.53041642
 20
10.99170183
  0
VERTEX
  8
0
 10
11.64234261
 20
11.00589528
  0
VERTEX
  8
0
 10
11.85585168
 20
10.98782718
  0
VERTEX
  8
0
 10
11.83472810
 20
11.02601201
  0
VERTEX
  8
0
 10
11.79620559
 20
11.04679687
  0
VERTEX
  8
0
 10
11.68417865
 20
11.05338292
  0
VERTEX
  8
0
 10
11.55420064
 20
11.04201791
  0
VERTEX
  8
0
 10
11.44070133
 20
11.04713438
  0
VERTEX
  8
0
 10
11.44613487
 20
11.16741792
  0
VERTEX
  8
0
 10
11.47664573
 20
11.26283258
  0
VERTEX
  8
0
 10
11.51142458
 20
11.35418573
  0
VERTEX
  8
0
 10
11.52966212
 20
11.46228473
  0
VERTEX
  8
0
 10
11.18953233
 20
11.43219665
  0
VERTEX
  8
0
 10
10.84850804
 20
11.36916593
  0
VERTEX
  8
0
 10
10.49221762
 20
11.30821422
  0
VERTEX
  8
0
 10
10.30385649
 20
11.28946225
  0
VERTEX
  8
0
 10
10.10628947
 20
11.28436315
  0
VERTEX
  8
0
 10
9.92418890
 20
11.29666952
  0
VERTEX
  8
0
 10
9.74592387
 20
11.32755608
  0
VERTEX
  8
0
 10
9.57290997
 20
11.37618463
  0
VERTEX
  8
0
 10
9.40656284
 20
11.44171698
  0
VERTEX
  8
0
 10
9.24829807
 20
11.52331495
  0
VERTEX
  8
0
 10
9.09953130
 20
11.62014034
  0
VERTEX
  8
0
 10
8.96167812
 20
11.73135496
  0
VERTEX
  8
0
 10
8.83615416
 20
11.85612062
  0
VERTEX
  8
0
 10
8.72437504
 20
11.99359913
  0
VERTEX
  8
0
 10
8.62775635
 20
12.14295231
  0
VERTEX
  8
0
 10
8.54771373
 20
12.30334195
  0
VERTEX
  8
0
 10
8.48566279
 20
12.47392987
  0
VERTEX
  8
0
 10
8.44301913
 20
12.65387788
  0
VERTEX
  8
0
 10
8.42119837
 20
12.84234779
  0
VERTEX
  8
0
 10
8.42161614
 20
13.03850141
  0
VERTEX
  8
0
 10
8.44568804
 20
13.24150055
  0
VERTEX
  8
0
 10
8.52075983
 20
13.51444466
  0
VERTEX
  8
0
 10
8.64548205
 20
13.77324869
  0
VERTEX
  8
0
 10
8.81501760
 20
14.00717181
  0
VERTEX
  8
0
 10
9.02452938
 20
14.20547317
  0
VERTEX
  8
0
 10
9.14276476
 20
14.28790918
  0
VERTEX
  8
0
 10
9.26918028
 20
14.35741195
  0
VERTEX
  8
0
 10
9.40317130
 20
14.41263885
  0
VERTEX
  8
0
 10
9.54413319
 20
14.45224730
  0
VERTEX
  8
0
 10
9.69146131
 20
14.47489469
  0
VERTEX
  8
0
 10
9.84455102
 20
14.47923841
  0
VERTEX
  8
0
 10
10.00279768
 20
14.46393585
  0
VERTEX
  8
0
 10
10.16559666
 20
14.42764442
  0
VERTEX
  8
0
 10
10.39078736
 20
14.32930924
  0
VERTEX
  8
0
 10
10.62046929
 20
14.17612871
  0
VERTEX
  8
0
 10
10.83770348
 20
13.99302466
  0
VERTEX
  8
0
 10
11.02555097
 20
13.80491889
  0
VERTEX
  8
0
 10
11.19361299
 20
13.59625624
  0
VERTEX
  8
0
 10
11.34368641
 20
13.37300885
  0
VERTEX
  8
0
 10
11.61862291
 20
12.94496458
  0
VERTEX
  8
0
 10
11.68844294
 20
12.91099841
  0
VERTEX
  8
0
 10
11.74792721
 20
12.86669370
  0
VERTEX
  8
0
 10
11.80947993
 20
12.82445744
  0
VERTEX
  8
0
 10
11.88550528
 20
12.79669659
  0
VERTEX
  8
0
 10
11.87186276
 20
12.73589484
  0
VERTEX
  8
0
 10
11.84563878
 20
12.68788326
  0
VERTEX
  8
0
 10
11.82452125
 20
12.63497114
  0
VERTEX
  8
0
 10
11.82619809
 20
12.55946782
  0
VERTEX
  8
0
 10
11.95518131
 20
12.77580375
  0
VERTEX
  8
0
 10
12.11903744
 20
12.98454368
  0
VERTEX
  8
0
 10
12.31420508
 20
13.17711397
  0
VERTEX
  8
0
 10
12.53712285
 20
13.34494098
  0
VERTEX
  8
0
 10
12.78422936
 20
13.47945110
  0
VERTEX
  8
0
 10
13.05196323
 20
13.57207068
  0
VERTEX
  8
0
 10
13.33676307
 20
13.61422609
  0
VERTEX
  8
0
 10
13.48444980
 20
13.61370048
  0
VERTEX
  8
0
 10
13.63506750
 20
13.59734371
  0
VERTEX
  8
0
 10
13.80695964
 20
13.55556840
  0
VERTEX
  8
0
 10
13.95224982
 20
13.49358108
  0
VERTEX
  8
0
 10
14.07715743
 20
13.41474698
  0
VERTEX
  8
0
 10
14.18790189
 20
13.32243131
  0
VERTEX
  8
0
 10
14.39177895
 20
13.11081616
  0
VERTEX
  8
0
 10
14.61363620
 20
12.88565738
  0
VERTEX
  8
0
 10
14.63341088
 20
12.89932161
  0
VERTEX
  8
0
 10
14.63440732
 20
12.91253210
  0
VERTEX
  8
0
 10
14.60208592
 20
12.94128177
  0
VERTEX
  8
0
 10
14.56071285
 20
12.97928624
  0
VERTEX
  8
0
 10
14.55039472
 20
13.00406523
  0
VERTEX
  8
0
 10
14.55432900
 20
13.03392537
  0
VERTEX
  8
0
 10
14.70040385
 20
13.14517857
  0
VERTEX
  8
0
 10
14.83642592
 20
13.26959228
  0
VERTEX
  8
0
 10
15.08717906
 20
13.54661487
  0
VERTEX
  8
0
 10
15.56559244
 20
14.13443575
  0
VERTEX
  8
0
 10
15.82872191
 20
14.40008839
  0
VERTEX
  8
0
 10
15.97402623
 20
14.51597465
  0
VERTEX
  8
0
 10
16.13144604
 20
14.61680540
  0
VERTEX
  8
0
 10
16.30319817
 20
14.69975903
  0
VERTEX
  8
0
 10
16.49149945
 20
14.76201394
  0
VERTEX
  8
0
 10
16.69856671
 20
14.80074852
  0
VERTEX
  8
0
 10
16.92661676
 20
14.81314118
  0
VERTEX
  8
0
 10
17.05522967
 20
14.80289752
  0
VERTEX
  8
0
 10
17.19243213
 20
14.77455572
  0
VERTEX
  8
0
 10
17.32275469
 20
14.72843965
  0
VERTEX
  8
0
 10
17.43072790
 20
14.66487320
  0
VERTEX
  8
0
 10
17.53707941
 20
14.55458065
  0
VERTEX
  8
0
 10
17.64222744
 20
14.39691633
  0
VERTEX
  8
0
 10
17.74111217
 20
14.20113908
  0
VERTEX
  8
0
 10
17.82867378
 20
13.97650774
  0
VERTEX
  8
0
 10
17.89985245
 20
13.73228114
  0
VERTEX
  8
0
 10
17.94958836
 20
13.47771812
  0
VERTEX
  8
0
 10
17.97282170
 20
13.22207752
  0
VERTEX
  8
0
 10
17.96449265
 20
12.97461818
  0
VERTEX
  8
0
 10
17.93622670
 20
12.80310343
  0
VERTEX
  8
0
 10
17.89016850
 20
12.64213867
  0
VERTEX
  8
0
 10
17.82717863
 20
12.49203368
  0
VERTEX
  8
0
 10
17.74811766
 20
12.35309823
  0
VERTEX
  8
0
 10
17.65384615
 20
12.22564212
  0
VERTEX
  8
0
 10
17.54522468
 20
12.10997513
  0
VERTEX
  8
0
 10
17.42311381
 20
12.00640705
  0
VERTEX
  8
0
 10
17.28837412
 20
11.91524767
  0
VERTEX
  8
0
 10
17.14186618
 20
11.83680676
  0
VERTEX
  8
0
 10
16.98445055
 20
11.77139413
  0
VERTEX
  8
0
 10
16.81698780
 20
11.71931954
  0
VERTEX
  8
0
 10
16.64033851
 20
11.68089279
  0
VERTEX
  8
0
 10
16.26292256
 20
11.64622196
  0
VERTEX
  8
0
 10
15.85908727
 20
11.66985991
  0
VERTEX
  8
0
 10
15.60607572
 20
11.71650741
  0
VERTEX
  8
0
 10
15.36621240
 20
11.75835642
  0
VERTEX
  8
0
 10
15.24998021
 20
11.76283675
  0
VERTEX
  8
0
 10
15.13555774
 20
11.74854377
  0
VERTEX
  8
0
 10
15.02245254
 20
11.70961959
  0
VERTEX
  8
0
 10
14.91017217
 20
11.64020631
  0
SEQEND
  0
POLYLINE
  8
Default_Layer
 66
   1
 39
0.000000
 70
    1
  0
VERTEX
  8
0
 10
16.86730956
 20
14.48695162
  0
VERTEX
  8
0
 10
16.69428863
 20
14.49278274
  0
VERTEX
  8
0
 10
16.52521523
 20
14.47053991
  0
VERTEX
  8
0
 10
16.36165172
 20
14.42442511
  0
VERTEX
  8
0
 10
16.20516048
 20
14.35864030
  0
VERTEX
  8
0
 10
16.05730388
 20
14.27738746
  0
VERTEX
  8
0
 10
15.91964430
 20
14.18486856
  0
VERTEX
  8
0
 10
15.68116569
 20
13.98284047
  0
VERTEX
  8
0
 10
15.52427405
 20
13.81531209
  0
VERTEX
  8
0
 10
15.37305349
 20
13.62958883
  0
VERTEX
  8
0
 10
15.08809375
 20
13.24150055
  0
VERTEX
  8
0
 10
14.92979384
 20
13.02273376
  0
VERTEX
  8
0
 10
14.78943660
 20
12.79207525
  0
VERTEX
  8
0
 10
14.73924433
 20
12.67209147
  0
VERTEX
  8
0
 10
14.70944714
 20
12.54890060
  0
VERTEX
  8
0
 10
14.70534818
 20
12.42242461
  0
VERTEX
  8
0
 10
14.73225058
 20
12.29258545
  0
VERTEX
  8
0
 10
14.87730244
 20
12.44375748
  0
VERTEX
  8
0
 10
15.01340577
 20
12.60408923
  0
VERTEX
  8
0
 10
15.08793477
 20
12.67785550
  0
VERTEX
  8
0
 10
15.17202629
 20
12.74211028
  0
VERTEX
  8
0
 10
15.26961354
 20
12.79291978
  0
VERTEX
  8
0
 10
15.38462972
 20
12.82635019
  0
VERTEX
  8
0
 10
15.25970991
 20
12.82582000
  0
VERTEX
  8
0
 10
15.15674232
 20
12.79347912
  0
VERTEX
  8
0
 10
15.07147642
 20
12.73842477
  0
VERTEX
  8
0
 10
14.99966170
 20
12.66975416
  0
VERTEX
  8
0
 10
14.87938370
 20
12.52795303
  0
VERTEX
  8
0
 10
14.82241939
 20
12.47301693
  0
VERTEX
  8
0
 10
14.76190418
 20
12.44085343
  0
VERTEX
  8
0
 10
14.80660235
 20
12.62574539
  0
VERTEX
  8
0
 10
14.86369032
 20
12.79176588
  0
VERTEX
  8
0
 10
14.93329642
 20
12.94364816
  0
VERTEX
  8
0
 10
15.01554898
 20
13.08612550
  0
VERTEX
  8
0
 10
15.21850682
 20
13.36179846
  0
VERTEX
  8
0
 10
15.47359051
 20
13.65665090
  0
VERTEX
  8
0
 10
15.67625749
 20
13.87441157
  0
VERTEX
  8
0
 10
15.88169015
 20
14.06991101
  0
VERTEX
  8
0
 10
16.08323476
 20
14.22928858
  0
VERTEX
  8
0
 10
16.27423762
 20
14.33868363
  0
VERTEX
  8
0
 10
16.50750347
 20
14.41319613
  0
VERTEX
  8
0
 10
16.72976843
 20
14.43389520
  0
VERTEX
  8
0
 10
16.93544945
 20
14.40486375
  0
VERTEX
  8
0
 10
17.11896349
 20
14.33018471
  0
VERTEX
  8
0
 10
17.27472749
 20
14.21394098
  0
VERTEX
  8
0
 10
17.39715840
 20
14.06021549
  0
VERTEX
  8
0
 10
17.48067315
 20
13.87309116
  0
VERTEX
  8
0
 10
17.51968869
 20
13.65665090
  0
VERTEX
  8
0
 10
17.52086641
 20
13.81977624
  0
VERTEX
  8
0
 10
17.49246552
 20
13.96973551
  0
VERTEX
  8
0
 10
17.43745746
 20
14.10463493
  0
VERTEX
  8
0
 10
17.35881365
 20
14.22258070
  0
VERTEX
  8
0
 10
17.25950553
 20
14.32167904
  0
VERTEX
  8
0
 10
17.14250452
 20
14.40003617
  0
VERTEX
  8
0
 10
17.01078205
 20
14.45575829
  0
VERTEX
  8
0
 10
16.86730956
 20
14.48695162
  0
SEQEND
  0
POLYLINE
  8
Default_Layer
 66
   1
 39
0.000000
 70
    1
  0
VERTEX
  8
0
 10
10.49178623
 20
11.55124552
  0
VERTEX
  8
0
 10
10.13303417
 20
11.55435538
  0
VERTEX
  8
0
 10
9.79806199
 20
11.60558146
  0
VERTEX
  8
0
 10
9.49858916
 20
11.69636016
  0
VERTEX
  8
0
 10
9.24633516
 20
11.81812790
  0
VERTEX
  8
0
 10
9.06851290
 20
11.95240002
  0
VERTEX
  8
0
 10
8.92779601
 20
12.10012672
  0
VERTEX
  8
0
 10
8.80549411
 20
12.24029520
  0
VERTEX
  8
0
 10
8.68291681
 20
12.35189264
  0
VERTEX
  8
0
 10
8.76199088
 20
12.20085977
  0
VERTEX
  8
0
 10
8.86460593
 20
12.06490470
  0
VERTEX
  8
0
 10
8.98854170
 20
11.94389376
  0
VERTEX
  8
0
 10
9.13157790
 20
11.83769332
  0
VERTEX
  8
0
 10
9.29149424
 20
11.74616974
  0
VERTEX
  8
0
 10
9.46607043
 20
11.66918936
  0
VERTEX
  8
0
 10
9.65308620
 20
11.60661854
  0
VERTEX
  8
0
 10
9.85032126
 20
11.55832363
  0
VERTEX
  8
0
 10
10.26656812
 20
11.50402699
  0
VERTEX
  8
0
 10
10.69704873
 20
11.50523026
  0
VERTEX
  8
0
 10
11.12400082
 20
11.56086429
  0
VERTEX
  8
0
 10
11.52966212
 20
11.66985991
  0
VERTEX
  8
0
 10
11.55206557
 20
11.88407581
  0
VERTEX
  8
0
 10
11.55456042
 20
11.98498070
  0
VERTEX
  8
0
 10
11.52966212
 20
12.08501027
  0
VERTEX
  8
0
 10
11.46276289
 20
12.17511878
  0
VERTEX
  8
0
 10
11.37841189
 20
12.23625119
  0
VERTEX
  8
0
 10
11.30296540
 20
12.28848374
  0
VERTEX
  8
0
 10
11.26277975
 20
12.35189264
  0
VERTEX
  8
0
 10
11.35496266
 20
12.34212890
  0
VERTEX
  8
0
 10
11.47592144
 20
12.35459684
  0
VERTEX
  8
0
 10
11.59409696
 20
12.38795288
  0
VERTEX
  8
0
 10
11.67793010
 20
12.44085343
  0
VERTEX
  8
0
 10
11.70701450
 20
12.54132523
  0
VERTEX
  8
0
 10
11.69765900
 20
12.63888912
  0
VERTEX
  8
0
 10
11.65751523
 20
12.73441368
  0
VERTEX
  8
0
 10
11.59423484
 20
12.82876749
  0
VERTEX
  8
0
 10
11.42887073
 20
13.01743721
  0
VERTEX
  8
0
 10
11.26277975
 20
13.21184695
  0
VERTEX
  8
0
 10
10.99654983
 20
13.55064266
  0
VERTEX
  8
0
 10
10.84694789
 20
13.71536883
  0
VERTEX
  8
0
 10
10.68616461
 20
13.86889521
  0
VERTEX
  8
0
 10
10.51405748
 20
14.00515779
  0
VERTEX
  8
0
 10
10.33048399
 20
14.11809260
  0
VERTEX
  8
0
 10
10.13530163
 20
14.20163561
  0
VERTEX
  8
0
 10
9.92836788
 20
14.24972284
  0
VERTEX
  8
0
 10
9.71826824
 20
14.26354158
  0
VERTEX
  8
0
 10
9.51321753
 20
14.24972284
  0
VERTEX
  8
0
 10
9.34041145
 20
14.19829552
  0
VERTEX
  8
0
 10
9.17097626
 20
14.10829129
  0
VERTEX
  8
0
 10
9.03922052
 20
13.99262864
  0
VERTEX
  8
0
 10
8.99819386
 20
13.92921245
  0
VERTEX
  8
0
 10
8.97945278
 20
13.86422608
  0
VERTEX
  8
0
 10
9.17267537
 20
14.03473925
  0
VERTEX
  8
0
 10
9.28467741
 20
14.10278198
  0
VERTEX
  8
0
 10
9.40657594
 20
14.15666743
  0
VERTEX
  8
0
 10
9.53809798
 20
14.19438455
  0
VERTEX
  8
0
 10
9.67897051
 20
14.21392232
  0
VERTEX
  8
0
 10
9.82892054
 20
14.21326970
  0
VERTEX
  8
0
 10
9.98767508
 20
14.19041565
  0
VERTEX
  8
0
 10
10.13942364
 20
14.14138781
  0
VERTEX
  8
0
 10
10.31747995
 20
14.05833202
  0
VERTEX
  8
0
 10
10.50114201
 20
13.95235725
  0
VERTEX
  8
0
 10
10.66970781
 20
13.83457249
  0
VERTEX
  8
0
 10
10.77747650
 20
13.73973245
  0
VERTEX
  8
0
 10
10.87621604
 20
13.63404475
  0
VERTEX
  8
0
 10
11.05180050
 20
13.40459068
  0
VERTEX
  8
0
 10
11.20684679
 20
13.17513893
  0
VERTEX
  8
0
 10
11.35174054
 20
12.97461818
  0
VERTEX
  8
0
 10
11.45556559
 20
12.86669640
  0
VERTEX
  8
0
 10
11.56072961
 20
12.76699386
  0
VERTEX
  8
0
 10
11.63553309
 20
12.66731590
  0
VERTEX
  8
0
 10
11.65164352
 20
12.61492529
  0
VERTEX
  8
0
 10
11.64827651
 20
12.55946782
  0
VERTEX
  8
0
 10
11.62478356
 20
12.50768555
  0
VERTEX
  8
0
 10
11.58484717
 20
12.46662698
  0
VERTEX
  8
0
 10
11.46382944
 20
12.41423282
  0
VERTEX
  8
0
 10
11.30159406
 20
12.39738917
  0
VERTEX
  8
0
 10
11.11451176
 20
12.41119983
  0
VERTEX
  8
0
 10
10.98311698
 20
12.44486388
  0
VERTEX
  8
0
 10
10.83714330
 20
12.50129393
  0
VERTEX
  8
0
 10
10.52143982
 20
12.61877501
  0
VERTEX
  8
0
 10
10.16368973
 20
12.69615513
  0
VERTEX
  8
0
 10
9.99327070
 20
12.71281128
  0
VERTEX
  8
0
 10
9.83940709
 20
12.70773580
  0
VERTEX
  8
0
 10
10.23267174
 20
12.58947590
  0
VERTEX
  8
0
 10
10.63341864
 20
12.47869826
  0
VERTEX
  8
0
 10
11.01524313
 20
12.34899820
  0
VERTEX
  8
0
 10
11.19080801
 20
12.26880081
  0
VERTEX
  8
0
 10
11.35174054
 20
12.17397106
  0
VERTEX
  8
0
 10
11.04145029
 20
12.18341618
  0
VERTEX
  8
0
 10
10.74109122
 20
12.22308833
  0
VERTEX
  8
0
 10
10.45693424
 20
12.26044204
  0
VERTEX
  8
0
 10
10.19525026
 20
12.26293185
  0
VERTEX
  8
0
 10
10.26630628
 20
12.26661662
  0
VERTEX
  8
0
 10
10.32921833
 20
12.23984521
  0
VERTEX
  8
0
 10
10.39186693
 20
12.20237692
  0
VERTEX
  8
0
 10
10.46213263
 20
12.17397106
  0
VERTEX
  8
0
 10
10.60018744
 20
12.15187935
  0
VERTEX
  8
0
 10
10.74615277
 20
12.14165441
  0
VERTEX
  8
0
 10
11.03912136
 20
12.12875023
  0
VERTEX
  8
0
 10
11.17477781
 20
12.11204367
  0
VERTEX
  8
0
 10
11.29565116
 20
12.07914927
  0
VERTEX
  8
0
 10
11.39606800
 20
12.02305335
  0
VERTEX
  8
0
 10
11.47035492
 20
11.93674228
  0
VERTEX
  8
0
 10
11.40673439
 20
11.83249545
  0
VERTEX
  8
0
 10
11.31504063
 20
11.74953397
  0
VERTEX
  8
0
 10
11.20092447
 20
11.68522370
  0
VERTEX
  8
0
 10
11.07003672
 20
11.63693050
  0
VERTEX
  8
0
 10
10.78054974
 20
11.57785873
  0
VERTEX
  8
0
 10
10.49178623
 20
11.55124552
  0
SEQEND
  0
POLYLINE
  8
Default_Layer
 66
   1
 39
0.000000
 70
    1
  0
VERTEX
  8
0
 10
12.56753801
 20
13.18219335
  0
VERTEX
  8
0
 10
12.46630923
 20
13.16811826
  0
VERTEX
  8
0
 10
12.36289685
 20
13.12992572
  0
VERTEX
  8
0
 10
12.21169485
 20
13.03392537
  0
VERTEX
  8
0
 10
12.14729210
 20
12.95696573
  0
VERTEX
  8
0
 10
12.09747594
 20
12.87053182
  0
VERTEX
  8
0
 10
12.03751998
 20
12.67493136
  0
VERTEX
  8
0
 10
12.02366012
 20
12.45850437
  0
VERTEX
  8
0
 10
12.04772952
 20
12.23263123
  0
VERTEX
  8
0
 10
12.10156134
 20
12.00869232
  0
VERTEX
  8
0
 10
12.17698872
 20
11.79806801
  0
VERTEX
  8
0
 10
12.26584484
 20
11.61213869
  0
VERTEX
  8
0
 10
12.35996283
 20
11.46228473
  0
VERTEX
  8
0
 10
12.24610727
 20
11.42746045
  0
VERTEX
  8
0
 10
12.20237531
 20
11.39716278
  0
VERTEX
  8
0
 10
12.18204125
 20
11.34367034
  0
VERTEX
  8
0
 10
12.38596476
 20
11.42856052
  0
VERTEX
  8
0
 10
12.58399110
 20
11.51955378
  0
VERTEX
  8
0
 10
12.79603110
 20
11.59673931
  0
VERTEX
  8
0
 10
13.04199556
 20
11.64020631
  0
VERTEX
  8
0
 10
12.97294626
 20
11.98630557
  0
VERTEX
  8
0
 10
12.91384400
 20
12.34235435
  0
VERTEX
  8
0
 10
12.85209692
 20
12.69575889
  0
VERTEX
  8
0
 10
12.77511319
 20
13.03392537
  0
VERTEX
  8
0
 10
12.84589389
 20
13.06652596
  0
VERTEX
  8
0
 10
12.87709421
 20
13.08732171
  0
VERTEX
  8
0
 10
12.89372758
 20
13.12288616
  0
VERTEX
  8
0
 10
12.85554355
 20
13.11617794
  0
VERTEX
  8
0
 10
12.83442038
 20
13.09323256
  0
VERTEX
  8
0
 10
12.74942111
 20
13.08287418
  0
VERTEX
  8
0
 10
12.70075659
 20
13.11503887
  0
VERTEX
  8
0
 10
12.65220337
 20
13.15854061
  0
VERTEX
  8
0
 10
12.56753801
 20
13.18219335
  0
SEQEND
  0
POLYLINE
  8
Default_Layer
 66
   1
 39
0.000000
 70
    1
  0
VERTEX
  8
0
 10
14.10952505
 20
11.64020631
  0
VERTEX
  8
0
 10
14.23090388
 20
11.85433594
  0
VERTEX
  8
0
 10
14.34604860
 20
12.11971070
  0
VERTEX
  8
0
 10
14.38944140
 20
12.26639577
  0
VERTEX
  8
0
 10
14.41706555
 20
12.41962904
  0
VERTEX
  8
0
 10
14.42418432
 20
12.57732281
  0
VERTEX
  8
0
 10
14.40606102
 20
12.73738940
  0
VERTEX
  8
0
 10
14.36058399
 20
12.87620944
  0
VERTEX
  8
0
 10
14.28936706
 20
12.98901748
  0
VERTEX
  8
0
 10
14.19853867
 20
13.07216526
  0
VERTEX
  8
0
 10
14.09422729
 20
13.12200450
  0
VERTEX
  8
0
 10
13.98256139
 20
13.13488696
  0
VERTEX
  8
0
 10
13.86966941
 20
13.10716436
  0
VERTEX
  8
0
 10
13.76167983
 20
13.03518846
  0
VERTEX
  8
0
 10
13.66472110
 20
12.91531098
  0
VERTEX
  8
0
 10
13.64515448
 20
12.94240022
  0
VERTEX
  8
0
 10
13.59038118
 20
12.95142997
  0
VERTEX
  8
0
 10
13.53571084
 20
12.94240022
  0
VERTEX
  8
0
 10
13.51645311
 20
12.91531098
  0
VERTEX
  8
0
 10
13.60076290
 20
12.89583318
  0
VERTEX
  8
0
 10
13.63823138
 20
12.88140509
  0
VERTEX
  8
0
 10
13.66472110
 20
12.85600379
  0
VERTEX
  8
0
 10
13.49992992
 20
12.27903874
  0
VERTEX
  8
0
 10
13.43796809
 20
11.97043496
  0
VERTEX
  8
0
 10
13.39783872
 20
11.64020631
  0
VERTEX
  8
0
 10
13.59659708
 20
11.61556319
  0
VERTEX
  8
0
 10
13.80418657
 20
11.57954486
  0
VERTEX
  8
0
 10
14.00135052
 20
11.55161706
  0
VERTEX
  8
0
 10
14.16883224
 20
11.55124552
  0
VERTEX
  8
0
 10
14.13553967
 20
11.55501022
  0
VERTEX
  8
0
 10
14.11523464
 20
11.57177080
  0
VERTEX
  8
0
 10
14.10952505
 20
11.64020631
  0
SEQEND
  0
POLYLINE
  8
Default_Layer
 66
   1
 39
0.000000
 70
    1
  0
VERTEX
  8
0
 10
14.88051857
 20
12.11466386
  0
VERTEX
  8
0
 10
14.97901652
 20
12.24871614
  0
VERTEX
  8
0
 10
15.09929130
 20
12.37098773
  0
VERTEX
  8
0
 10
15.37311280
 20
12.59281049
  0
VERTEX
  8
0
 10
15.63786595
 20
12.80537531
  0
VERTEX
  8
0
 10
15.74680531
 20
12.91607448
  0
VERTEX
  8
0
 10
15.82943367
 20
13.03392537
  0
VERTEX
  8
0
 10
15.72905530
 20
12.93454925
  0
VERTEX
  8
0
 10
15.59860468
 20
12.83659048
  0
VERTEX
  8
0
 10
15.29566893
 20
12.61877501
  0
VERTEX
  8
0
 10
15.08399537
 20
12.45142247
  0
VERTEX
  8
0
 10
14.98649593
 20
12.36352894
  0
VERTEX
  8
0
 10
14.90449293
 20
12.26971008
  0
VERTEX
  8
0
 10
14.84544002
 20
12.16763056
  0
VERTEX
  8
0
 10
14.81679089
 20
12.05495499
  0
VERTEX
  8
0
 10
14.82599918
 20
11.92934802
  0
VERTEX
  8
0
 10
14.88051857
 20
11.78847430
  0
VERTEX
  8
0
 10
15.02751781
 20
11.82426169
  0
VERTEX
  8
0
 10
15.17716925
 20
11.83816968
  0
VERTEX
  8
0
 10
15.48196744
 20
11.82153822
  0
VERTEX
  8
0
 10
15.78999057
 20
11.78096141
  0
VERTEX
  8
0
 10
16.09631604
 20
11.75882070
  0
VERTEX
  8
0
 10
16.44118731
 20
11.77939602
  0
VERTEX
  8
0
 10
16.76013718
 20
11.83991567
  0
VERTEX
  8
0
 10
17.04371245
 20
11.94143523
  0
VERTEX
  8
0
 10
17.16928048
 20
12.00789984
  0
VERTEX
  8
0
 10
17.28245992
 20
12.08501027
  0
VERTEX
  8
0
 10
17.38570265
 20
12.17804073
  0
VERTEX
  8
0
 10
17.48586556
 20
12.29459993
  0
VERTEX
  8
0
 10
17.57609393
 20
12.42869645
  0
VERTEX
  8
0
 10
17.64953306
 20
12.57433889
  0
VERTEX
  8
0
 10
17.69932825
 20
12.72553585
  0
VERTEX
  8
0
 10
17.71862479
 20
12.87629591
  0
VERTEX
  8
0
 10
17.70056797
 20
13.02062769
  0
VERTEX
  8
0
 10
17.63830308
 20
13.15253976
  0
VERTEX
  8
0
 10
17.64965330
 20
12.95460852
  0
VERTEX
  8
0
 10
17.63378439
 20
12.77426524
  0
VERTEX
  8
0
 10
17.59270985
 20
12.61106633
  0
VERTEX
  8
0
 10
17.52844316
 20
12.46456818
  0
VERTEX
  8
0
 10
17.44299782
 20
12.33432722
  0
VERTEX
  8
0
 10
17.33838731
 20
12.21989983
  0
VERTEX
  8
0
 10
17.21662512
 20
12.12084242
  0
VERTEX
  8
0
 10
17.07972474
 20
12.03671140
  0
VERTEX
  8
0
 10
16.92969967
 20
11.96706316
  0
VERTEX
  8
0
 10
16.76856338
 20
11.91145412
  0
VERTEX
  8
0
 10
16.42101114
 20
11.84057922
  0
VERTEX
  8
0
 10
16.05317594
 20
11.82053794
  0
VERTEX
  8
0
 10
15.68116569
 20
11.84778149
  0
VERTEX
  8
0
 10
15.50298369
 20
11.89238178
  0
VERTEX
  8
0
 10
15.32532252
 20
11.93674228
  0
VERTEX
  8
0
 10
15.23194384
 20
11.93517721
  0
VERTEX
  8
0
 10
15.13571685
 20
11.92639001
  0
VERTEX
  8
0
 10
15.04533190
 20
11.93760574
  0
VERTEX
  8
0
 10
15.00504593
 20
11.95922254
  0
VERTEX
  8
0
 10
14.96947936
 20
11.99604948
  0
VERTEX
  8
0
 10
15.24750192
 20
12.12545220
  0
VERTEX
  8
0
 10
15.53773029
 20
12.24286061
  0
VERTEX
  8
0
 10
15.82554236
 20
12.36289124
  0
VERTEX
  8
0
 10
16.09631604
 20
12.50016062
  0
VERTEX
  8
0
 10
15.78489562
 20
12.40234122
  0
VERTEX
  8
0
 10
15.48073978
 20
12.27776030
  0
VERTEX
  8
0
 10
15.18042271
 20
12.16800534
  0
VERTEX
  8
0
 10
15.03063314
 20
12.13168370
  0
VERTEX
  8
0
 10
14.88051857
 20
12.11466386
  0
SEQEND
  0
POLYLINE
  8
Default_Layer
 66
   1
 39
0.000000
 70
    1
  0
VERTEX
  8
0
 10
18.29068221
 20
9.14930417
  0
VERTEX
  8
0
 10
17.49713814
 20
8.99674363
  0
VERTEX
  8
0
 10
16.74937255
 20
8.80792583
  0
VERTEX
  8
0
 10
16.03092188
 20
8.58963542
  0
VERTEX
  8
0
 10
15.32532252
 20
8.34865706
  0
VERTEX
  8
0
 10
15.09436000
 20
8.25936274
  0
VERTEX
  8
0
 10
14.85452180
 20
8.17384964
  0
VERTEX
  8
0
 10
14.60544178
 20
8.12384645
  0
VERTEX
  8
0
 10
14.47732168
 20
8.12207629
  0
VERTEX
  8
0
 10
14.34675382
 20
8.14108188
  0
VERTEX
  8
0
 10
14.25758943
 20
8.21676224
  0
VERTEX
  8
0
 10
14.18399689
 20
8.31313221
  0
VERTEX
  8
0
 10
14.11023542
 20
8.41985120
  0
VERTEX
  8
0
 10
14.02056426
 20
8.52657864
  0
VERTEX
  8
0
 10
13.82763479
 20
8.67680615
  0
VERTEX
  8
0
 10
13.73556417
 20
8.75535339
  0
VERTEX
  8
0
 10
13.66472110
 20
8.85276820
  0
VERTEX
  8
0
 10
13.61266511
 20
8.98259841
  0
VERTEX
  8
0
 10
13.57785712
 20
9.12859696
  0
VERTEX
  8
0
 10
13.56069829
 20
9.28478411
  0
VERTEX
  8
0
 10
13.56158976
 20
9.44518014
  0
VERTEX
  8
0
 10
13.58093270
 20
9.60380533
  0
VERTEX
  8
0
 10
13.61912826
 20
9.75467993
  0
VERTEX
  8
0
 10
13.67657760
 20
9.89182422
  0
VERTEX
  8
0
 10
13.75368189
 20
10.00925848
  0
VERTEX
  8
0
 10
13.83516848
 20
10.08663623
  0
VERTEX
  8
0
 10
13.94222936
 20
10.15883631
  0
VERTEX
  8
0
 10
14.20314125
 20
10.29196900
  0
VERTEX
  8
0
 10
14.47655224
 20
10.41718762
  0
VERTEX
  8
0
 10
14.70259699
 20
10.54302323
  0
VERTEX
  8
0
 10
14.81358876
 20
10.63010869
  0
VERTEX
  8
0
 10
14.90511491
 20
10.72288469
  0
VERTEX
  8
0
 10
14.98434289
 20
10.82951755
  0
VERTEX
  8
0
 10
15.05844015
 20
10.95817358
  0
VERTEX
  8
0
 10
15.67110638
 20
10.82208788
  0
VERTEX
  8
0
 10
16.26167653
 20
10.66390332
  0
VERTEX
  8
0
 10
17.43072790
 20
10.33544805
  0
VERTEX
  8
0
 10
16.98390503
 20
10.50379285
  0
VERTEX
  8
0
 10
16.45964913
 20
10.66705920
  0
VERTEX
  8
0
 10
15.35497612
 20
10.95817358
  0
VERTEX
  8
0
 10
15.17705454
 20
10.98782718
  0
VERTEX
  8
0
 10
15.08983161
 20
11.00815489
  0
VERTEX
  8
0
 10
15.08809375
 20
11.10644157
  0
VERTEX
  8
0
 10
15.12738419
 20
11.14087883
  0
VERTEX
  8
0
 10
15.17705454
 20
11.16574876
  0
VERTEX
  8
0
 10
15.56700581
 20
11.10035052
  0
VERTEX
  8
0
 10
15.97993881
 20
10.99892409
  0
VERTEX
  8
0
 10
16.77834877
 20
10.75059841
  0
VERTEX
  8
0
 10
17.08196651
 20
10.64084546
  0
VERTEX
  8
0
 10
17.35951862
 20
10.52051938
  0
VERTEX
  8
0
 10
17.60766991
 20
10.38199118
  0
VERTEX
  8
0
 10
17.82308519
 20
10.21763188
  0
VERTEX
  8
0
 10
18.00242925
 20
10.01981251
  0
VERTEX
  8
0
 10
18.14236691
 20
9.78090409
  0
VERTEX
  8
0
 10
18.23956296
 20
9.49327764
  0
VERTEX
  8
0
 10
18.29068221
 20
9.14930417
  0
SEQEND
  0
POLYLINE
  8
Default_Layer
 66
   1
 39
0.000000
 70
    1
  0
VERTEX
  8
0
 10
15.53289770
 20
2.03244091
  0
VERTEX
  8
0
 10
15.41428331
 20
2.03244091
  0
VERTEX
  8
0
 10
15.38816138
 20
1.87314868
  0
VERTEX
  8
0
 10
15.40728898
 20
1.70555984
  0
VERTEX
  8
0
 10
15.43467386
 20
1.63062168
  0
VERTEX
  8
0
 10
15.47439414
 20
1.56797035
  0
VERTEX
  8
0
 10
15.52679081
 20
1.52239285
  0
VERTEX
  8
0
 10
15.59220490
 20
1.49867617
  0
VERTEX
  8
0
 10
15.56655965
 20
1.62098028
  0
VERTEX
  8
0
 10
15.56134609
 20
1.76393035
  0
VERTEX
  8
0
 10
15.55673513
 20
1.90769452
  0
VERTEX
  8
0
 10
15.53289770
 20
2.03244091
  0
SEQEND
  0
POLYLINE
  8
Default_Layer
 66
   1
 39
0.000000
 70
    1
  0
VERTEX
  8
0
 10
15.59220490
 20
1.49867617
  0
VERTEX
  8
0
 10
15.52679081
 20
1.52239285
  0
VERTEX
  8
0
 10
15.47439414
 20
1.56797035
  0
VERTEX
  8
0
 10
15.43467386
 20
1.63062168
  0
VERTEX
  8
0
 10
15.40728898
 20
1.70555984
  0
VERTEX
  8
0
 10
15.38816138
 20
1.87314868
  0
VERTEX
  8
0
 10
15.41428331
 20
2.03244091
  0
VERTEX
  8
0
 10
15.53289770
 20
2.03244091
  0
VERTEX
  8
0
 10
15.55673513
 20
1.90769452
  0
VERTEX
  8
0
 10
15.56134609
 20
1.76393035
  0
VERTEX
  8
0
 10
15.56655965
 20
1.62098028
  0
VERTEX
  8
0
 10
15.59220490
 20
1.49867617
  0
SEQEND
  0
POLYLINE
  8
Default_Layer
 66
   1
 39
0.000000
 70
    0
  0
VERTEX
  8
0
 10
9.17258874
 20
1.55510560
  0
VERTEX
  8
0
 10
9.12666820
 20
1.63268383
  0
VERTEX
  8
0
 10
9.09574083
 20
1.72123455
  0
VERTEX
  8
0
 10
9.08230512
 20
1.81377179
  0
VERTEX
  8
0
 10
9.08885959
 20
1.90330963
  0
VERTEX
  8
0
 10
9.11790276
 20
1.98286212
  0
VERTEX
  8
0
 10
9.17193314
 20
2.04544333
  0
VERTEX
  8
0
 10
9.25344922
 20
2.08406730
  0
VERTEX
  8
0
 10
9.36494954
 20
2.09174811
  0
VERTEX
  8
0
 10
9.35683524
 20
1.96610816
  0
VERTEX
  8
0
 10
9.33509002
 20
1.85431340
  0
VERTEX
  8
0
 10
9.31344776
 20
1.74262161
  0
VERTEX
  8
0
 10
9.30564235
 20
1.61729056
  0
VERTEX
  8
0
 10
9.57252472
 20
1.61729056
  0
VERTEX
  8
0
 10
9.54188605
 20
1.90472674
  0
VERTEX
  8
0
 10
9.55562424
 20
2.03569941
  0
VERTEX
  8
0
 10
9.58389918
 20
2.08593311
  0
VERTEX
  8
0
 10
9.63183191
 20
2.12140170
  0
VERTEX
  8
0
 10
9.60517948
 20
1.98581743
  0
VERTEX
  8
0
 10
9.60806324
 20
1.84752940
  0
VERTEX
  8
0
 10
9.63765814
 20
1.72014974
  0
VERTEX
  8
0
 10
9.69113911
 20
1.61729056
  0
VERTEX
  8
0
 10
9.84072314
 20
1.61861216
  0
VERTEX
  8
0
 10
9.90846377
 20
1.61221672
  0
VERTEX
  8
0
 10
9.95802148
 20
1.58763696
  0
VERTEX
  8
0
 10
9.92925090
 20
1.76413029
  0
VERTEX
  8
0
 10
9.93195725
 20
1.95028875
  0
VERTEX
  8
0
 10
9.95556708
 20
2.02900808
  0
VERTEX
  8
0
 10
9.99958951
 20
2.08856251
  0
VERTEX
  8
0
 10
10.06820566
 20
2.12175829
  0
VERTEX
  8
0
 10
10.16559666
 20
2.12140170
  0
VERTEX
  8
0
 10
10.17924017
 20
2.09797669
  0
VERTEX
  8
0
 10
10.20380067
 20
2.08547283
  0
VERTEX
  8
0
 10
10.25455745
 20
2.06209451
  0
VERTEX
  8
0
 10
10.25378783
 20
1.92910780
  0
VERTEX
  8
0
 10
10.23285897
 20
1.81649321
  0
VERTEX
  8
0
 10
10.20795254
 20
1.70806488
  0
VERTEX
  8
0
 10
10.19525026
 20
1.58763696
  0
VERTEX
  8
0
 10
10.31750118
 20
1.58369292
  0
VERTEX
  8
0
 10
10.42460580
 20
1.59509834
  0
VERTEX
  8
0
 10
10.51340683
 20
1.62501326
  0
VERTEX
  8
0
 10
10.58074702
 20
1.67659775
  0
VERTEX
  8
0
 10
10.60708324
 20
1.76115154
  0
VERTEX
  8
0
 10
10.60756145
 20
1.87176788
  0
VERTEX
  8
0
 10
10.60945924
 20
1.98117335
  0
VERTEX
  8
0
 10
10.61946472
 20
2.02689906
  0
VERTEX
  8
0
 10
10.64005421
 20
2.06209451
  0
VERTEX
  8
0
 10
10.67259285
 20
1.97224025
  0
VERTEX
  8
0
 10
10.67231897
 20
1.85876589
  0
VERTEX
  8
0
 10
10.64005421
 20
1.64694415
  0
VERTEX
  8
0
 10
10.73101767
 20
1.62664843
  0
VERTEX
  8
0
 10
10.80057004
 20
1.62486721
  0
VERTEX
  8
0
 10
10.96624378
 20
1.64694415
  0
VERTEX
  8
0
 10
10.97578229
 20
1.71380903
  0
VERTEX
  8
0
 10
10.96854289
 20
1.77128885
  0
VERTEX
  8
0
 10
10.92759937
 20
1.86619041
  0
VERTEX
  8
0
 10
10.89115126
 20
1.94784303
  0
VERTEX
  8
0
 10
10.88953112
 20
1.98876168
  0
VERTEX
  8
0
 10
10.90693658
 20
2.03244091
  0
VERTEX
  8
0
 10
10.95418707
 20
2.07874416
  0
VERTEX
  8
0
 10
11.02109383
 20
2.11538552
  0
VERTEX
  8
0
 10
11.09022916
 20
2.13279479
  0
VERTEX
  8
0
 10
11.14416536
 20
2.12140170
  0
VERTEX
  8
0
 10
11.19452420
 20
2.08175963
  0
VERTEX
  8
0
 10
11.22252191
 20
2.02858950
  0
VERTEX
  8
0
 10
11.23267446
 20
1.96531650
  0
VERTEX
  8
0
 10
11.22949782
 20
1.89536584
  0
VERTEX
  8
0
 10
11.17381895
 20
1.61729056
  0
VERTEX
  8
0
 10
11.38139413
 20
1.61729056
  0
VERTEX
  8
0
 10
11.38460444
 20
1.72697143
  0
VERTEX
  8
0
 10
11.37384779
 20
1.82492591
  0
VERTEX
  8
0
 10
11.33229684
 20
1.99303219
  0
VERTEX
  8
0
 10
11.30046774
 20
2.13636244
  0
VERTEX
  8
0
 10
11.30186340
 20
2.20334687
  0
VERTEX
  8
0
 10
11.32208694
 20
2.26966969
  0
VERTEX
  8
0
 10
11.22017040
 20
2.30119433
  0
VERTEX
  8
0
 10
11.12934753
 20
2.34381265
  0
VERTEX
  8
0
 10
10.97255311
 20
2.45390061
  0
VERTEX
  8
0
 10
10.69936140
 20
2.71447364
  0
VERTEX
  8
0
 10
10.46839499
 20
2.71622791
  0
VERTEX
  8
0
 10
10.26786578
 20
2.75012299
  0
VERTEX
  8
0
 10
10.08292260
 20
2.78102019
  0
VERTEX
  8
0
 10
9.99165478
 20
2.78436375
  0
VERTEX
  8
0
 10
9.89871429
 20
2.77378084
  0
VERTEX
  8
0
 10
9.78116231
 20
2.73447382
  0
VERTEX
  8
0
 10
9.67402665
 20
2.67193295
  0
VERTEX
  8
0
 10
9.47803704
 20
2.50795244
  0
VERTEX
  8
0
 10
9.28481087
 20
2.34344495
  0
VERTEX
  8
0
 10
9.18112952
 20
2.28024534
  0
VERTEX
  8
0
 10
9.06841357
 20
2.24001609
  0
VERTEX
  8
0
 10
9.02791207
 20
2.13193794
  0
VERTEX
  8
0
 10
8.97443630
 20
2.03704554
  0
VERTEX
  8
0
 10
8.92346877
 20
1.93985083
  0
VERTEX
  8
0
 10
8.89049199
 20
1.82486573
  0
VERTEX
  8
0
 10
8.88608704
 20
1.78697747
  0
VERTEX
  8
0
 10
8.89406903
 20
1.77285340
  0
VERTEX
  8
0
 10
8.93129143
 20
1.78366556
  0
VERTEX
  8
0
 10
8.97035430
 20
1.79283761
  0
VERTEX
  8
0
 10
8.98063690
 20
1.77666340
  0
VERTEX
  8
0
 10
8.97945278
 20
1.73590494
  0
VERTEX
  8
0
 10
8.96427459
 20
1.65314956
  0
VERTEX
  8
0
 10
8.98509704
 20
1.58742108
  0
VERTEX
  8
0
 10
9.05161337
 20
1.55043409
  0
VERTEX
  8
0
 10
9.17351680
 20
1.55390316
  0
SEQEND
  0
POLYLINE
  8
Default_Layer
 66
   1
 39
0.000000
 70
    1
  0
VERTEX
  8
0
 10
10.99589737
 20
1.46902257
  0
VERTEX
  8
0
 10
10.97338111
 20
1.49159741
  0
VERTEX
  8
0
 10
10.96761999
 20
1.53848471
  0
VERTEX
  8
0
 10
10.95375737
 20
1.58029454
  0
VERTEX
  8
0
 10
10.93602029
 20
1.59011105
  0
VERTEX
  8
0
 10
10.90693658
 20
1.58763696
  0
VERTEX
  8
0
 10
10.74787467
 20
1.55669379
  0
VERTEX
  8
0
 10
10.57885120
 20
1.54708101
  0
VERTEX
  8
0
 10
10.19525026
 20
1.52832977
  0
VERTEX
  8
0
 10
10.16134960
 20
1.50262073
  0
VERTEX
  8
0
 10
10.14746995
 20
1.45708828
  0
VERTEX
  8
0
 10
10.12782686
 20
1.41752297
  0
VERTEX
  8
0
 10
10.07663587
 20
1.40971538
  0
VERTEX
  8
0
 10
10.02950151
 20
1.48170569
  0
VERTEX
  8
0
 10
9.96086029
 20
1.52327333
  0
VERTEX
  8
0
 10
9.87654948
 20
1.54166870
  0
VERTEX
  8
0
 10
9.78240637
 20
1.54414220
  0
VERTEX
  8
0
 10
9.58797242
 20
1.53032515
  0
VERTEX
  8
0
 10
9.49935615
 20
1.52853539
  0
VERTEX
  8
0
 10
9.42425674
 20
1.53982533
  0
VERTEX
  8
0
 10
9.35511917
 20
1.51749811
  0
VERTEX
  8
0
 10
9.30133668
 20
1.48797884
  0
VERTEX
  8
0
 10
9.18264540
 20
1.47399436
  0
VERTEX
  8
0
 10
8.91878148
 20
1.49827155
  0
VERTEX
  8
0
 10
8.88975317
 20
1.62667108
  0
VERTEX
  8
0
 10
8.85289570
 20
1.66932559
  0
VERTEX
  8
0
 10
8.81966855
 20
1.68586143
  0
VERTEX
  8
0
 10
8.80153120
 20
1.73590494
  0
VERTEX
  8
0
 10
8.91330986
 20
2.02750375
  0
VERTEX
  8
0
 10
8.94911366
 20
2.16276813
  0
VERTEX
  8
0
 10
8.94979919
 20
2.26966969
  0
VERTEX
  8
0
 10
9.07855165
 20
2.30754277
  0
VERTEX
  8
0
 10
9.19260741
 20
2.36016179
  0
VERTEX
  8
0
 10
9.39175656
 20
2.49451195
  0
VERTEX
  8
0
 10
9.57750220
 20
2.64246876
  0
VERTEX
  8
0
 10
9.78009990
 20
2.77378084
  0
VERTEX
  8
0
 10
9.80566184
 20
2.92572307
  0
VERTEX
  8
0
 10
9.80975350
 20
3.09997040
  0
VERTEX
  8
0
 10
9.76072765
 20
3.09488901
  0
VERTEX
  8
0
 10
9.72368521
 20
3.06017766
  0
VERTEX
  8
0
 10
9.69260991
 20
3.03794929
  0
VERTEX
  8
0
 10
9.66148551
 20
3.07031681
  0
VERTEX
  8
0
 10
9.67522360
 20
3.15818470
  0
VERTEX
  8
0
 10
9.67322341
 20
3.24682918
  0
VERTEX
  8
0
 10
9.63716194
 20
3.42551924
  0
VERTEX
  8
0
 10
9.58360866
 20
3.60452967
  0
VERTEX
  8
0
 10
9.54287112
 20
3.78200313
  0
VERTEX
  8
0
 10
9.51301038
 20
3.78575723
  0
VERTEX
  8
0
 10
9.48822991
 20
3.77531039
  0
VERTEX
  8
0
 10
9.45022196
 20
3.73383436
  0
VERTEX
  8
0
 10
9.42147160
 20
3.70161592
  0
VERTEX
  8
0
 10
9.40826311
 20
3.70274107
  0
VERTEX
  8
0
 10
9.39460314
 20
3.72269594
  0
VERTEX
  8
0
 10
9.39395603
 20
3.93703863
  0
VERTEX
  8
0
 10
9.37918552
 20
4.13725687
  0
VERTEX
  8
0
 10
9.31682785
 20
4.50487496
  0
VERTEX
  8
0
 10
9.22663723
 20
4.84466010
  0
VERTEX
  8
0
 10
9.12772077
 20
5.17572219
  0
VERTEX
  8
0
 10
9.05967285
 20
5.16658539
  0
VERTEX
  8
0
 10
9.00080593
 20
5.17657209
  0
VERTEX
  8
0
 10
8.94909224
 20
5.20293767
  0
VERTEX
  8
0
 10
8.90250405
 20
5.24293753
  0
VERTEX
  8
0
 10
8.81659311
 20
5.35286167
  0
VERTEX
  8
0
 10
8.72685108
 20
5.48438767
  0
VERTEX
  8
0
 10
8.58750128
 20
5.70623835
  0
VERTEX
  8
0
 10
8.40061892
 20
6.03954808
  0
VERTEX
  8
0
 10
8.21183552
 20
6.37368877
  0
VERTEX
  8
0
 10
8.13251000
 20
6.54797670
  0
VERTEX
  8
0
 10
8.07164410
 20
6.73075955
  0
VERTEX
  8
0
 10
8.03554945
 20
6.92479971
  0
VERTEX
  8
0
 10
8.03053768
 20
7.13285958
  0
VERTEX
  8
0
 10
8.05572399
 20
7.28077282
  0
VERTEX
  8
0
 10
8.10390455
 20
7.42491172
  0
VERTEX
  8
0
 10
8.15988207
 20
7.57129254
  0
VERTEX
  8
0
 10
8.20845926
 20
7.72593152
  0
VERTEX
  8
0
 10
8.26280039
 20
8.02272143
  0
VERTEX
  8
0
 10
8.29551386
 20
8.32093704
  0
VERTEX
  8
0
 10
8.32918043
 20
8.61818586
  0
VERTEX
  8
0
 10
8.38638084
 20
8.91207540
  0
VERTEX
  8
0
 10
8.40451420
 20
8.95304381
  0
VERTEX
  8
0
 10
8.43851449
 20
8.97540870
  0
VERTEX
  8
0
 10
8.53108315
 20
8.98659690
  0
VERTEX
  8
0
 10
8.61802125
 20
8.99017795
  0
VERTEX
  8
0
 10
8.64498334
 20
9.00303390
  0
VERTEX
  8
0
 10
8.65326322
 20
9.03068979
  0
VERTEX
  8
0
 10
8.83830553
 20
9.73484352
  0
VERTEX
  8
0
 10
8.94303227
 20
10.07502371
  0
VERTEX
  8
0
 10
9.06841357
 20
10.39475524
  0
VERTEX
  8
0
 10
8.76317741
 20
10.31323448
  0
VERTEX
  8
0
 10
8.46590862
 20
10.20362834
  0
VERTEX
  8
0
 10
8.18076974
 20
10.10062486
  0
VERTEX
  8
0
 10
7.91192329
 20
10.03891208
  0
VERTEX
  8
0
 10
8.15646607
 20
10.14160465
  0
VERTEX
  8
0
 10
8.40567660
 20
10.22709620
  0
VERTEX
  8
0
 10
8.89049199
 20
10.39475524
  0
VERTEX
  8
0
 10
9.04034550
 20
10.48833178
  0
VERTEX
  8
0
 10
9.11527894
 20
10.53896831
  0
VERTEX
  8
0
 10
9.18702796
 20
10.57267682
  0
VERTEX
  8
0
 10
9.21460560
 20
10.54145509
  0
VERTEX
  8
0
 10
9.27598875
 20
10.51336963
  0
VERTEX
  8
0
 10
9.33973711
 20
10.54030861
  0
VERTEX
  8
0
 10
9.39460314
 20
10.57267682
  0
VERTEX
  8
0
 10
10.23436722
 20
10.76403313
  0
VERTEX
  8
0
 10
10.65701749
 20
10.84371073
  0
VERTEX
  8
0
 10
11.08485816
 20
10.89886639
  0
VERTEX
  8
0
 10
11.24315627
 20
10.88685277
  0
VERTEX
  8
0
 10
11.32145382
 20
10.89983577
  0
VERTEX
  8
0
 10
11.35455252
 20
10.92180275
  0
VERTEX
  8
0
 10
11.38139413
 20
10.95817358
  0
VERTEX
  8
0
 10
10.98499603
 20
10.97328818
  0
VERTEX
  8
0
 10
10.59361096
 20
10.95425971
  0
VERTEX
  8
0
 10
10.20840786
 20
10.90964615
  0
VERTEX
  8
0
 10
9.83055566
 20
10.84800545
  0
VERTEX
  8
0
 10
9.10157967
 20
10.70787446
  0
VERTEX
  8
0
 10
8.75279375
 20
10.64650009
  0
VERTEX
  8
0
 10
8.41603444
 20
10.60233042
  0
VERTEX
  8
0
 10
9.10802738
 20
10.76257089
  0
VERTEX
  8
0
 10
9.82546710
 20
10.89756773
  0
VERTEX
  8
0
 10
10.57953042
 20
10.99614690
  0
VERTEX
  8
0
 10
11.38139413
 20
11.04713438
  0
VERTEX
  8
0
 10
11.38096664
 20
11.14362438
  0
VERTEX
  8
0
 10
11.40314781
 20
11.21771723
  0
VERTEX
  8
0
 10
11.42927893
 20
11.28806604
  0
VERTEX
  8
0
 10
11.44070133
 20
11.37332394
  0
VERTEX
  8
0
 10
10.87204216
 20
11.32412773
  0
VERTEX
  8
0
 10
10.34848205
 20
11.26395497
  0
VERTEX
  8
0
 10
10.10264521
 20
11.24795477
  0
VERTEX
  8
0
 10
9.86692043
 20
11.25105330
  0
VERTEX
  8
0
 10
9.64092013
 20
11.28053150
  0
VERTEX
  8
0
 10
9.42425674
 20
11.34367034
  0
VERTEX
  8
0
 10
9.19953268
 20
11.45557663
  0
VERTEX
  8
0
 10
8.98468343
 20
11.61286828
  0
VERTEX
  8
0
 10
8.78834153
 20
11.81128534
  0
VERTEX
  8
0
 10
8.61913950
 20
12.04656788
  0
VERTEX
  8
0
 10
8.48570989
 20
12.31445597
  0
VERTEX
  8
0
 10
8.39668522
 20
12.61068967
  0
VERTEX
  8
0
 10
8.37152241
 20
12.76810489
  0
VERTEX
  8
0
 10
8.36069803
 20
12.93100904
  0
VERTEX
  8
0
 10
8.36529115
 20
13.09886962
  0
VERTEX
  8
0
 10
8.38638084
 20
13.27115414
  0
VERTEX
  8
0
 10
8.45250008
 20
13.50852195
  0
VERTEX
  8
0
 10
8.56940376
 20
13.74991956
  0
VERTEX
  8
0
 10
8.73243717
 20
13.98166259
  0
VERTEX
  8
0
 10
8.93694563
 20
14.19006664
  0
VERTEX
  8
0
 10
9.17827443
 20
14.36144733
  0
VERTEX
  8
0
 10
9.31129186
 20
14.42897753
  0
VERTEX
  8
0
 10
9.45176887
 20
14.48212024
  0
VERTEX
  8
0
 10
9.59912361
 20
14.51916492
  0
VERTEX
  8
0
 10
9.75277425
 20
14.53840101
  0
VERTEX
  8
0
 10
9.91213895
 20
14.53811795
  0
VERTEX
  8
0
 10
10.07663587
 20
14.51660521
  0
VERTEX
  8
0
 10
10.27467782
 20
14.44530757
  0
VERTEX
  8
0
 10
10.49476658
 20
14.32386701
  0
VERTEX
  8
0
 10
10.69853836
 20
14.18759456
  0
VERTEX
  8
0
 10
10.84762939
 20
14.07180126
  0
VERTEX
  8
0
 10
10.99041718
 20
13.93109755
  0
VERTEX
  8
0
 10
11.11964362
 20
13.77456142
  0
VERTEX
  8
0
 10
11.35707612
 20
13.43709806
  0
VERTEX
  8
0
 10
11.59925423
 20
13.10562353
  0
VERTEX
  8
0
 10
11.73441268
 20
12.95657344
  0
VERTEX
  8
0
 10
11.88550528
 20
12.82635019
  0
VERTEX
  8
0
 10
12.08715830
 20
13.03953725
  0
VERTEX
  8
0
 10
12.30156839
 20
13.24017594
  0
VERTEX
  8
0
 10
12.53776231
 20
13.41923673
  0
VERTEX
  8
0
 10
12.80476679
 20
13.56769011
  0
VERTEX
  8
0
 10
12.74227483
 20
13.68469619
  0
VERTEX
  8
0
 10
12.69446256
 20
13.80524802
  0
VERTEX
  8
0
 10
12.63870728
 20
14.05392170
  0
VERTEX
  8
0
 10
12.62916138
 20
14.30757673
  0
VERTEX
  8
0
 10
12.65748532
 20
14.56007866
  0
VERTEX
  8
0
 10
12.71533954
 20
14.80529307
  0
VERTEX
  8
0
 10
12.79438449
 20
15.03708550
  0
VERTEX
  8
0
 10
12.88628062
 20
15.24932153
  0
VERTEX
  8
0
 10
12.98268837
 20
15.43586672
  0
VERTEX
  8
0
 10
13.12204499
 20
15.66126007
  0
VERTEX
  8
0
 10
13.28414367
 20
15.87678613
  0
VERTEX
  8
0
 10
13.46788841
 20
16.07741969
  0
VERTEX
  8
0
 10
13.67218322
 20
16.25813555
  0
VERTEX
  8
0
 10
13.89593211
 20
16.41390850
  0
VERTEX
  8
0
 10
14.13803910
 20
16.53971332
  0
VERTEX
  8
0
 10
14.39740819
 20
16.63052482
  0
VERTEX
  8
0
 10
14.67294339
 20
16.68131779
  0
VERTEX
  8
0
 10
14.91667016
 20
16.71930866
  0
VERTEX
  8
0
 10
15.18595241
 20
16.71102136
  0
VERTEX
  8
0
 10
15.45504941
 20
16.66447453
  0
VERTEX
  8
0
 10
15.69822042
 20
16.58768680
  0
VERTEX
  8
0
 10
15.59428437
 20
16.49437462
  0
VERTEX
  8
0
 10
15.49182483
 20
16.42845615
  0
VERTEX
  8
0
 10
15.28936704
 20
16.35022554
  0
VERTEX
  8
0
 10
15.08691048
 20
16.29584546
  0
VERTEX
  8
0
 10
14.98445248
 20
16.25974014
  0
VERTEX
  8
0
 10
14.88051857
 20
16.20816638
  0
VERTEX
  8
0
 10
14.59138811
 20
16.12012708
  0
VERTEX
  8
0
 10
14.30569747
 20
16.01189240
  0
VERTEX
  8
0
 10
14.04794841
 20
15.88285380
  0
VERTEX
  8
0
 10
13.84264268
 20
15.73240269
  0
VERTEX
  8
0
 10
13.67841447
 20
15.54212296
  0
VERTEX
  8
0
 10
13.54348411
 20
15.31291696
  0
VERTEX
  8
0
 10
13.44242761
 20
15.05489319
  0
VERTEX
  8
0
 10
13.37982099
 20
14.77816011
  0
VERTEX
  8
0
 10
13.36024029
 20
14.49282623
  0
VERTEX
  8
0
 10
13.38826152
 20
14.20900001
  0
VERTEX
  8
0
 10
13.46846072
 20
13.93678994
  0
VERTEX
  8
0
 10
13.52955706
 20
13.80819986
  0
VERTEX
  8
0
 10
13.60541390
 20
13.68630450
  0
VERTEX
  8
0
 10
13.75808397
 20
13.64622558
  0
VERTEX
  8
0
 10
13.89626651
 20
13.59166105
  0
VERTEX
  8
0
 10
14.02181067
 20
13.52445918
  0
VERTEX
  8
0
 10
14.13656559
 20
13.44646823
  0
VERTEX
  8
0
 10
14.34110420
 20
13.26551216
  0
VERTEX
  8
0
 10
14.52467541
 20
13.06357897
  0
VERTEX
  8
0
 10
14.71831142
 20
13.23719871
  0
VERTEX
  8
0
 10
14.90899347
 20
13.44375572
  0
VERTEX
  8
0
 10
15.29536885
 20
13.90709200
  0
VERTEX
  8
0
 10
15.49799876
 20
14.13957651
  0
VERTEX
  8
0
 10
15.71154787
 20
14.35640873
  0
VERTEX
  8
0
 10
15.93948446
 20
14.54544129
  0
VERTEX
  8
0
 10
16.18527683
 20
14.69452680
  0
VERTEX
  8
0
 10
16.39021130
 20
14.78169988
  0
VERTEX
  8
0
 10
16.62190027
 20
14.84960638
  0
VERTEX
  8
0
 10
16.87250629
 20
14.88445348
  0
VERTEX
  8
0
 10
17.13419193
 20
14.87244838
  0
VERTEX
  8
0
 10
17.29966628
 20
14.81655413
  0
VERTEX
  8
0
 10
17.45331944
 20
14.70698847
  0
VERTEX
  8
0
 10
17.59330865
 20
14.55262511
  0
VERTEX
  8
0
 10
17.71779120
 20
14.36233773
  0
VERTEX
  8
0
 10
17.82492433
 20
14.14500005
  0
VERTEX
  8
0
 10
17.91286530
 20
13.90948575
  0
VERTEX
  8
0
 10
17.97977139
 20
13.66466854
  0
VERTEX
  8
0
 10
18.02379984
 20
13.41942213
  0
VERTEX
  8
0
 10
18.03714191
 20
13.17892596
  0
VERTEX
  8
0
 10
18.01657793
 20
12.94548114
  0
VERTEX
  8
0
 10
17.96656433
 20
12.72291263
  0
VERTEX
  8
0
 10
17.89155757
 20
12.51504541
  0
VERTEX
  8
0
 10
17.79601410
 20
12.32570444
  0
VERTEX
  8
0
 10
17.68439036
 20
12.15871468
  0
VERTEX
  8
0
 10
17.56114282
 20
12.01790111
  0
VERTEX
  8
0
 10
17.43072790
 20
11.90708869
  0
VERTEX
  8
0
 10
17.31869614
 20
11.84857170
  0
VERTEX
  8
0
 10
17.21143638
 20
11.81271924
  0
VERTEX
  8
0
 10
17.11003480
 20
11.76474432
  0
VERTEX
  8
0
 10
17.01557755
 20
11.66985991
  0
VERTEX
  8
0
 10
17.40401091
 20
11.49117249
  0
VERTEX
  8
0
 10
17.77750789
 20
11.29754643
  0
VERTEX
  8
0
 10
18.12723131
 20
11.08014506
  0
VERTEX
  8
0
 10
18.44434398
 20
10.83013174
  0
VERTEX
  8
0
 10
18.58790967
 20
10.69013414
  0
VERTEX
  8
0
 10
18.72000874
 20
10.53866981
  0
VERTEX
  8
0
 10
18.83953653
 20
10.37463415
  0
VERTEX
  8
0
 10
18.94538840
 20
10.19692260
  0
VERTEX
  8
0
 10
19.03645970
 20
10.00443057
  0
VERTEX
  8
0
 10
19.11164578
 20
9.79605347
  0
VERTEX
  8
0
 10
19.16984201
 20
9.57068673
  0
VERTEX
  8
0
 10
19.20994372
 20
9.32722575
  0
VERTEX
  8
0
 10
19.20994372
 20
9.23826496
  0
VERTEX
  8
0
 10
19.20483927
 20
8.99047476
  0
VERTEX
  8
0
 10
19.18042030
 20
8.76990724
  0
VERTEX
  8
0
 10
19.13965990
 20
8.57134371
  0
VERTEX
  8
0
 10
19.08553111
 20
8.38956547
  0
VERTEX
  8
0
 10
18.94906062
 20
8.05549009
  0
VERTEX
  8
0
 10
18.79479336
 20
7.72593152
  0
VERTEX
  8
0
 10
18.53377497
 20
7.21000317
  0
VERTEX
  8
0
 10
18.24605038
 20
6.73735490
  0
VERTEX
  8
0
 10
17.93616131
 20
6.29936419
  0
VERTEX
  8
0
 10
17.60864949
 20
5.88740851
  0
VERTEX
  8
0
 10
16.90999200
 20
5.09546415
  0
VERTEX
  8
0
 10
16.15562324
 20
4.31576788
  0
VERTEX
  8
0
 10
15.85374497
 20
4.05558886
  0
VERTEX
  8
0
 10
15.72781606
 20
3.93416429
  0
VERTEX
  8
0
 10
15.65151209
 20
3.81165673
  0
VERTEX
  8
0
 10
15.61792136
 20
3.63071718
  0
VERTEX
  8
0
 10
15.61942632
 20
3.45144131
  0
VERTEX
  8
0
 10
15.62214737
 20
3.28176496
  0
VERTEX
  8
0
 10
15.59220490
 20
3.12962400
  0
VERTEX
  8
0
 10
15.55219768
 20
3.14152031
  0
VERTEX
  8
0
 10
15.53973228
 20
3.18095009
  0
VERTEX
  8
0
 10
15.53126299
 20
3.22437042
  0
VERTEX
  8
0
 10
15.50324410
 20
3.24823839
  0
VERTEX
  8
0
 10
15.43892302
 20
3.01560052
  0
VERTEX
  8
0
 10
15.41384044
 20
2.89251948
  0
VERTEX
  8
0
 10
15.41428331
 20
2.74412724
  0
VERTEX
  8
0
 10
15.65151209
 20
2.74412724
  0
VERTEX
  8
0
 10
15.67907671
 20
2.64196345
  0
VERTEX
  8
0
 10
15.72611918
 20
2.55927509
  0
VERTEX
  8
0
 10
15.85570247
 20
2.42939080
  0
VERTEX
  8
0
 10
15.99439156
 20
2.30860675
  0
VERTEX
  8
0
 10
16.05281628
 20
2.23729367
  0
VERTEX
  8
0
 10
16.09631604
 20
2.15105530
  0
VERTEX
  8
0
 10
16.08787844
 20
2.12533478
  0
VERTEX
  8
0
 10
16.07352274
 20
2.11882442
  0
VERTEX
  8
0
 10
16.03736041
 20
2.13547509
  0
VERTEX
  8
0
 10
16.00843569
 20
2.14508907
  0
VERTEX
  8
0
 10
16.00735525
 20
2.09174811
  0
VERTEX
  8
0
 10
16.04927930
 20
2.04842415
  0
VERTEX
  8
0
 10
16.07904369
 20
1.99293809
  0
VERTEX
  8
0
 10
16.11304677
 20
1.85643438
  0
VERTEX
  8
0
 10
16.13127109
 20
1.70414634
  0
VERTEX
  8
0
 10
16.15562324
 20
1.55798336
  0
VERTEX
  8
0
 10
16.16959676
 20
1.50769187
  0
VERTEX
  8
0
 10
16.16343822
 20
1.50043704
  0
VERTEX
  8
0
 10
15.94774965
 20
1.51142443
  0
VERTEX
  8
0
 10
15.74047288
 20
1.49867617
  0
VERTEX
  8
0
 10
15.69939675
 20
1.47937949
  0
VERTEX
  8
0
 10
15.65675723
 20
1.44806432
  0
VERTEX
  8
0
 10
15.61149515
 20
1.42722827
  0
VERTEX
  8
0
 10
15.56255130
 20
1.43936897
  0
VERTEX
  8
0
 10
15.53847743
 20
1.45236488
  0
VERTEX
  8
0
 10
15.53034543
 20
1.48129710
  0
VERTEX
  8
0
 10
15.52348957
 20
1.51150546
  0
VERTEX
  8
0
 10
15.50324410
 20
1.52832977
  0
VERTEX
  8
0
 10
15.29437282
 20
1.49991730
  0
VERTEX
  8
0
 10
15.09799451
 20
1.49820262
  0
VERTEX
  8
0
 10
14.93373281
 20
1.48189792
  0
VERTEX
  8
0
 10
14.86977809
 20
1.45537187
  0
VERTEX
  8
0
 10
14.82121138
 20
1.40971538
  0
VERTEX
  8
0
 10
14.78949582
 20
1.44472041
  0
VERTEX
  8
0
 10
14.77756330
 20
1.49950849
  0
VERTEX
  8
0
 10
14.75780122
 20
1.54646700
  0
VERTEX
  8
0
 10
14.73635516
 20
1.55838124
  0
VERTEX
  8
0
 10
14.70259699
 20
1.55798336
  0
VERTEX
  8
0
 10
14.53494425
 20
1.55591112
  0
VERTEX
  8
0
 10
14.39234158
 20
1.54060911
  0
VERTEX
  8
0
 10
14.27142543
 20
1.53399424
  0
VERTEX
  8
0
 10
14.16883224
 20
1.55798336
  0
VERTEX
  8
0
 10
14.12098800
 20
1.55471038
  0
VERTEX
  8
0
 10
14.10302452
 20
1.52247877
  0
VERTEX
  8
0
 10
14.08831130
 20
1.48575927
  0
VERTEX
  8
0
 10
14.05021786
 20
1.46902257
  0
VERTEX
  8
0
 10
13.26402723
 20
1.47750328
  0
VERTEX
  8
0
 10
12.47550963
 20
1.47295622
  0
VERTEX
  8
0
 10
10.99589737
 20
1.46902257
  0
SEQEND
  0
POLYLINE
  8
Default_Layer
 66
   1
 39
0.000000
 70
    1
  0
VERTEX
  8
0
 10
3.90842779
 20
1.98870932
  0
VERTEX
  8
0
 10
3.86205463
 20
2.00051087
  0
VERTEX
  8
0
 10
3.82498740
 20
2.03651962
  0
VERTEX
  8
0
 10
3.75925758
 20
2.12707010
  0
VERTEX
  8
0
 10
3.71567450
 20
2.24948414
  0
VERTEX
  8
0
 10
3.68831061
 20
2.37562550
  0
VERTEX
  8
0
 10
3.63603001
 20
2.61781847
  0
VERTEX
  8
0
 10
3.43281263
 20
3.14531892
  0
VERTEX
  8
0
 10
3.34243931
 20
3.68433318
  0
VERTEX
  8
0
 10
3.29661374
 20
4.21112926
  0
VERTEX
  8
0
 10
3.27471823
 20
4.22799803
  0
VERTEX
  8
0
 10
3.27067109
 20
4.25436700
  0
VERTEX
  8
0
 10
3.20918786
 20
4.24615629
  0
VERTEX
  8
0
 10
3.14311976
 20
4.23274813
  0
VERTEX
  8
0
 10
3.03286351
 20
4.20464360
  0
VERTEX
  8
0
 10
2.98083848
 20
4.18493875
  0
VERTEX
  8
0
 10
2.93125482
 20
4.16356774
  0
VERTEX
  8
0
 10
2.85403688
 20
4.13631501
  0
VERTEX
  8
0
 10
2.78565706
 20
4.09764458
  0
VERTEX
  8
0
 10
2.66464474
 20
4.00422991
  0
VERTEX
  8
0
 10
2.54668376
 20
3.91968236
  0
VERTEX
  8
0
 10
2.48211812
 20
3.89209581
  0
VERTEX
  8
0
 10
2.41024003
 20
3.88036053
  0
VERTEX
  8
0
 10
2.33224644
 20
3.96775631
  0
VERTEX
  8
0
 10
2.28485058
 20
4.08357792
  0
VERTEX
  8
0
 10
2.25805939
 20
4.23957937
  0
VERTEX
  8
0
 10
2.19621321
 20
4.38624212
  0
VERTEX
  8
0
 10
2.17891811
 20
4.59378328
  0
VERTEX
  8
0
 10
2.13310532
 20
4.58012634
  0
VERTEX
  8
0
 10
2.10779131
 20
4.57437867
  0
VERTEX
  8
0
 10
2.07947130
 20
4.58729762
  0
VERTEX
  8
0
 10
2.03292182
 20
4.63232389
  0
VERTEX
  8
0
 10
1.98651016
 20
4.67593499
  0
VERTEX
  8
0
 10
1.69815382
 20
4.87405121
  0
VERTEX
  8
0
 10
1.54892210
 20
4.95853834
  0
VERTEX
  8
0
 10
1.38766743
 20
5.00237994
  0
VERTEX
  8
0
 10
1.38118177
 20
5.05210334
  0
VERTEX
  8
0
 10
1.34659158
 20
5.06291278
  0
VERTEX
  8
0
 10
1.37478559
 20
5.29398097
  0
VERTEX
  8
0
 10
1.38535402
 20
5.52434688
  0
VERTEX
  8
0
 10
1.37901988
 20
5.99468612
  0
VERTEX
  8
0
 10
1.34659158
 20
6.30599786
  0
VERTEX
  8
0
 10
1.33343584
 20
6.60966582
  0
VERTEX
  8
0
 10
1.29038251
 20
6.90051681
  0
VERTEX
  8
0
 10
1.32787088
 20
6.90877273
  0
VERTEX
  8
0
 10
1.36388667
 20
6.93294512
  0
VERTEX
  8
0
 10
1.43125712
 20
7.15950874
  0
VERTEX
  8
0
 10
1.44571807
 20
7.27585911
  0
VERTEX
  8
0
 10
1.44546229
 20
7.39145148
  0
VERTEX
  8
0
 10
1.42906437
 20
7.50418310
  0
VERTEX
  8
0
 10
1.39509890
 20
7.61195117
  0
VERTEX
  8
0
 10
1.34214046
 20
7.71265294
  0
VERTEX
  8
0
 10
1.26876364
 20
7.80418562
  0
VERTEX
  8
0
 10
1.22221367
 20
7.83627745
  0
VERTEX
  8
0
 10
1.17580250
 20
7.86039468
  0
VERTEX
  8
0
 10
1.17037762
 20
7.88512083
  0
VERTEX
  8
0
 10
1.15418362
 20
7.90363242
  0
VERTEX
  8
0
 10
1.13472664
 20
7.91011809
  0
VERTEX
  8
0
 10
1.13983613
 20
8.01594767
  0
VERTEX
  8
0
 10
1.12567466
 20
8.12252303
  0
VERTEX
  8
0
 10
1.09365079
 20
8.34033362
  0
VERTEX
  8
0
 10
1.07784104
 20
8.41429380
  0
VERTEX
  8
0
 10
1.06987003
 20
8.48734194
  0
VERTEX
  8
0
 10
1.04027555
 20
8.64214649
  0
VERTEX
  8
0
 10
1.00501341
 20
8.78568236
  0
VERTEX
  8
0
 10
0.99204209
 20
8.80946312
  0
VERTEX
  8
0
 10
0.96530566
 20
8.81581691
  0
VERTEX
  8
0
 10
0.95096624
 20
8.83756765
  0
VERTEX
  8
0
 10
0.99962832
 20
8.90124704
  0
VERTEX
  8
0
 10
1.05473682
 20
8.95430955
  0
VERTEX
  8
0
 10
1.51835532
 20
9.50038329
  0
VERTEX
  8
0
 10
1.97570072
 20
10.04606254
  0
VERTEX
  8
0
 10
2.13250461
 20
10.26568760
  0
VERTEX
  8
0
 10
2.21395751
 20
10.36944895
  0
VERTEX
  8
0
 10
2.30430756
 20
10.45898298
  0
VERTEX
  8
0
 10
2.37461948
 20
10.48089808
  0
VERTEX
  8
0
 10
2.43834456
 20
10.46979241
  0
VERTEX
  8
0
 10
2.58967666
 20
10.42871656
  0
VERTEX
  8
0
 10
2.83180801
 20
10.34440296
  0
VERTEX
  8
0
 10
2.87405837
 20
10.31884562
  0
VERTEX
  8
0
 10
2.92260727
 20
10.30332710
  0
VERTEX
  8
0
 10
5.80656466
 20
9.15752694
  0
VERTEX
  8
0
 10
5.80015193
 20
9.14109262
  0
VERTEX
  8
0
 10
5.78510688
 20
9.13397310
  0
VERTEX
  8
0
 10
5.75684126
 20
9.10996543
  0
VERTEX
  8
0
 10
5.83683108
 20
8.90458615
  0
VERTEX
  8
0
 10
5.89706130
 20
8.79967032
  0
VERTEX
  8
0
 10
5.97867390
 20
8.71898660
  0
VERTEX
  8
0
 10
6.07746198
 20
8.66246274
  0
VERTEX
  8
0
 10
6.18921868
 20
8.63002649
  0
VERTEX
  8
0
 10
6.27014318
 20
8.62746856
  0
VERTEX
  8
0
 10
6.34573347
 20
8.64278644
  0
VERTEX
  8
0
 10
6.48502334
 20
8.70943709
  0
VERTEX
  8
0
 10
6.61531212
 20
8.79475339
  0
VERTEX
  8
0
 10
6.74482366
 20
8.86351030
  0
VERTEX
  8
0
 10
6.95223824
 20
8.83868247
  0
VERTEX
  8
0
 10
7.16329853
 20
8.77613187
  0
VERTEX
  8
0
 10
7.37860773
 20
8.70646614
  0
VERTEX
  8
0
 10
7.59876907
 20
8.66029291
  0
VERTEX
  8
0
 10
7.66838451
 20
8.65070413
  0
VERTEX
  8
0
 10
7.69519894
 20
8.63802859
  0
VERTEX
  8
0
 10
7.71334908
 20
8.61056951
  0
VERTEX
  8
0
 10
7.62517741
 20
8.49712796
  0
VERTEX
  8
0
 10
7.55625161
 20
8.36007454
  0
VERTEX
  8
0
 10
7.43446565
 20
8.06577396
  0
VERTEX
  8
0
 10
7.33593729
 20
7.77887424
  0
VERTEX
  8
0
 10
7.24854336
 20
7.50152142
  0
VERTEX
  8
0
 10
7.16712199
 20
7.19396877
  0
VERTEX
  8
0
 10
7.10802069
 20
6.89186926
  0
VERTEX
  8
0
 10
7.08952091
 20
6.75095633
  0
VERTEX
  8
0
 10
7.06910673
 20
6.62379526
  0
VERTEX
  8
0
 10
7.02748754
 20
6.37494022
  0
VERTEX
  8
0
 10
7.01374031
 20
6.12596417
  0
VERTEX
  8
0
 10
7.00281459
 20
5.88106996
  0
VERTEX
  8
0
 10
6.96965992
 20
5.64446041
  0
VERTEX
  8
0
 10
6.73653442
 20
5.59103812
  0
VERTEX
  8
0
 10
6.51998740
 20
5.54933737
  0
VERTEX
  8
0
 10
6.07680055
 20
5.46718566
  0
VERTEX
  8
0
 10
5.97855516
 20
5.44202951
  0
VERTEX
  8
0
 10
5.88655448
 20
5.41746226
  0
VERTEX
  8
0
 10
4.45970900
 20
5.06723655
  0
VERTEX
  8
0
 10
4.47585743
 20
4.75913383
  0
VERTEX
  8
0
 10
4.46903966
 20
4.60709113
  0
VERTEX
  8
0
 10
4.44241390
 20
4.45109873
  0
VERTEX
  8
0
 10
4.42338888
 20
4.39318773
  0
VERTEX
  8
0
 10
4.43063491
 20
4.33699114
  0
VERTEX
  8
0
 10
4.44593233
 20
4.28109880
  0
VERTEX
  8
0
 10
4.45106145
 20
4.22410058
  0
VERTEX
  8
0
 10
4.44951397
 20
4.07070421
  0
VERTEX
  8
0
 10
4.43825413
 20
3.99773712
  0
VERTEX
  8
0
 10
4.39917616
 20
3.93656960
  0
VERTEX
  8
0
 10
4.33245441
 20
3.92171349
  0
VERTEX
  8
0
 10
4.27378671
 20
3.90630318
  0
VERTEX
  8
0
 10
4.15297762
 20
3.97224033
  0
VERTEX
  8
0
 10
4.03165535
 20
4.03169263
  0
VERTEX
  8
0
 10
3.80329600
 20
4.22053228
  0
VERTEX
  8
0
 10
3.59495416
 20
4.44461307
  0
VERTEX
  8
0
 10
3.56622790
 20
4.47620008
  0
VERTEX
  8
0
 10
3.55455298
 20
4.48869955
  0
VERTEX
  8
0
 10
3.53874509
 20
4.48785081
  0
VERTEX
  8
0
 10
3.58846850
 20
4.40137532
  0
VERTEX
  8
0
 10
3.74692399
 20
4.13393130
  0
VERTEX
  8
0
 10
3.86086627
 20
3.85009411
  0
VERTEX
  8
0
 10
3.88432023
 20
3.79109322
  0
VERTEX
  8
0
 10
3.90194213
 20
3.72470466
  0
VERTEX
  8
0
 10
3.99766633
 20
3.38923964
  0
VERTEX
  8
0
 10
4.08786442
 20
3.05451966
  0
VERTEX
  8
0
 10
4.12461650
 20
2.78860755
  0
VERTEX
  8
0
 10
4.12312109
 20
2.50625672
  0
VERTEX
  8
0
 10
4.10083574
 20
2.22435502
  0
VERTEX
  8
0
 10
4.06880182
 20
2.11343008
  0
VERTEX
  8
0
 10
4.04630742
 20
2.06413226
  0
VERTEX
  8
0
 10
4.00787459
 20
2.02113763
  0
VERTEX
  8
0
 10
3.95647643
 20
1.99900742
  0
VERTEX
  8
0
 10
3.90842779
 20
1.98870932
  0
SEQEND
  0
POLYLINE
  8
Default_Layer
 66
   1
 39
0.000000
 70
    1
  0
VERTEX
  8
0
 10
4.12894027
 20
4.88996181
  0
VERTEX
  8
0
 10
4.11813084
 20
4.99589428
  0
VERTEX
  8
0
 10
4.09423636
 20
5.00235810
  0
VERTEX
  8
0
 10
4.07921687
 20
4.99373239
  0
VERTEX
  8
0
 10
4.12894027
 20
4.88996181
  0
SEQEND
  0
POLYLINE
  8
Default_Layer
 66
   1
 39
0.000000
 70
    1
  0
VERTEX
  8
0
 10
2.54427703
 20
4.48785081
  0
VERTEX
  8
0
 10
2.94638803
 20
4.55270742
  0
VERTEX
  8
0
 10
3.16775000
 20
4.57902532
  0
VERTEX
  8
0
 10
3.27845992
 20
4.59727377
  0
VERTEX
  8
0
 10
3.38308922
 20
4.62837347
  0
VERTEX
  8
0
 10
3.44905834
 20
4.58266980
  0
VERTEX
  8
0
 10
3.51064056
 20
4.52892666
  0
VERTEX
  8
0
 10
3.39337913
 20
4.67930883
  0
VERTEX
  8
0
 10
3.33071238
 20
4.75338194
  0
VERTEX
  8
0
 10
3.25553788
 20
4.80997199
  0
VERTEX
  8
0
 10
2.47509664
 20
4.66080178
  0
VERTEX
  8
0
 10
2.47228835
 20
4.63588805
  0
VERTEX
  8
0
 10
2.47509664
 20
4.61324026
  0
VERTEX
  8
0
 10
2.49527764
 20
4.53370414
  0
VERTEX
  8
0
 10
2.51210644
 20
4.50250847
  0
VERTEX
  8
0
 10
2.54427703
 20
4.48785081
  0
SEQEND
  0
POLYLINE
  8
Default_Layer
 66
   1
 39
0.000000
 70
    1
  0
VERTEX
  8
0
 10
3.92356100
 20
2.04708027
  0
VERTEX
  8
0
 10
3.89523711
 20
2.05625364
  0
VERTEX
  8
0
 10
3.87578267
 20
2.08299292
  0
VERTEX
  8
0
 10
3.85751758
 20
2.11285427
  0
VERTEX
  8
0
 10
3.83276174
 20
2.13139387
  0
VERTEX
  8
0
 10
3.79785113
 20
2.21642689
  0
VERTEX
  8
0
 10
3.76790513
 20
2.29353540
  0
VERTEX
  8
0
 10
3.73003878
 20
2.47582870
  0
VERTEX
  8
0
 10
3.71106918
 20
2.56214326
  0
VERTEX
  8
0
 10
3.70521040
 20
2.64376111
  0
VERTEX
  8
0
 10
3.68555426
 20
2.70889249
  0
VERTEX
  8
0
 10
3.68477746
 20
2.78017268
  0
VERTEX
  8
0
 10
3.68556958
 20
2.85188700
  0
VERTEX
  8
0
 10
3.67062021
 20
2.91832078
  0
VERTEX
  8
0
 10
3.64235113
 20
2.91259669
  0
VERTEX
  8
0
 10
3.63038700
 20
2.89497872
  0
VERTEX
  8
0
 10
3.61441114
 20
2.84697850
  0
VERTEX
  8
0
 10
3.53874509
 20
3.05451966
  0
VERTEX
  8
0
 10
3.52268917
 20
3.14296900
  0
VERTEX
  8
0
 10
3.51877366
 20
3.22922814
  0
VERTEX
  8
0
 10
3.51241302
 20
3.31406804
  0
VERTEX
  8
0
 10
3.48902169
 20
3.39825971
  0
VERTEX
  8
0
 10
3.47133037
 20
3.56765556
  0
VERTEX
  8
0
 10
3.43281263
 20
3.73119032
  0
VERTEX
  8
0
 10
3.39099635
 20
3.88204903
  0
VERTEX
  8
0
 10
3.37009598
 20
4.03344692
  0
VERTEX
  8
0
 10
3.37660356
 20
4.32570928
  0
VERTEX
  8
0
 10
3.27695900
 20
4.33364899
  0
VERTEX
  8
0
 10
3.17459716
 20
4.32338809
  0
VERTEX
  8
0
 10
2.97233067
 20
4.27598587
  0
VERTEX
  8
0
 10
2.82235480
 20
4.21079180
  0
VERTEX
  8
0
 10
2.69890717
 20
4.12018807
  0
VERTEX
  8
0
 10
2.58353900
 20
4.02695296
  0
VERTEX
  8
0
 10
2.45780155
 20
3.95386470
  0
VERTEX
  8
0
 10
2.35038462
 20
4.27135857
  0
VERTEX
  8
0
 10
2.26755548
 20
4.60243083
  0
VERTEX
  8
0
 10
2.40159248
 20
4.63702102
  0
VERTEX
  8
0
 10
2.42124987
 20
4.55003973
  0
VERTEX
  8
0
 10
2.43613878
 20
4.50161741
  0
VERTEX
  8
0
 10
2.44050645
 20
4.44461307
  0
VERTEX
  8
0
 10
2.45344867
 20
4.42439921
  0
VERTEX
  8
0
 10
2.47361726
 20
4.41571512
  0
VERTEX
  8
0
 10
2.52914382
 20
4.41002287
  0
VERTEX
  8
0
 10
2.65237138
 20
4.42299420
  0
VERTEX
  8
0
 10
3.03271469
 20
4.49440943
  0
VERTEX
  8
0
 10
3.22273843
 20
4.51338703
  0
VERTEX
  8
0
 10
3.40903187
 20
4.51379345
  0
VERTEX
  8
0
 10
3.50286855
 20
4.39165183
  0
VERTEX
  8
0
 10
3.57982095
 20
4.25436700
  0
VERTEX
  8
0
 10
3.75061003
 20
3.87387487
  0
VERTEX
  8
0
 10
3.91292778
 20
3.33567997
  0
VERTEX
  8
0
 10
4.04678856
 20
2.81238831
  0
VERTEX
  8
0
 10
4.05779197
 20
2.60174581
  0
VERTEX
  8
0
 10
4.05327422
 20
2.39946787
  0
VERTEX
  8
0
 10
4.04268625
 20
2.28201930
  0
VERTEX
  8
0
 10
4.02300780
 20
2.16166029
  0
VERTEX
  8
0
 10
3.98343154
 20
2.09339330
  0
VERTEX
  8
0
 10
3.92356100
 20
2.04708027
  0
SEQEND
  0
POLYLINE
  8
Default_Layer
 66
   1
 39
0.000000
 70
    1
  0
VERTEX
  8
0
 10
4.34512898
 20
3.99494055
  0
VERTEX
  8
0
 10
4.33492669
 20
4.03176527
  0
VERTEX
  8
0
 10
4.32999577
 20
4.07493037
  0
VERTEX
  8
0
 10
4.31853220
 20
4.17316931
  0
VERTEX
  8
0
 10
4.28459614
 20
4.26085266
  0
VERTEX
  8
0
 10
4.21010146
 20
4.42593434
  0
VERTEX
  8
0
 10
4.12461650
 20
4.58729762
  0
VERTEX
  8
0
 10
3.99985920
 20
4.79291462
  0
VERTEX
  8
0
 10
3.85624621
 20
4.98197116
  0
VERTEX
  8
0
 10
3.71980750
 20
5.17420595
  0
VERTEX
  8
0
 10
3.66241287
 20
5.27768355
  0
VERTEX
  8
0
 10
3.61657303
 20
5.38935773
  0
VERTEX
  8
0
 10
3.78255767
 20
5.23432456
  0
VERTEX
  8
0
 10
3.92356100
 20
5.05210334
  0
VERTEX
  8
0
 10
4.12461650
 20
4.78186745
  0
VERTEX
  8
0
 10
4.18514934
 20
4.63702102
  0
VERTEX
  8
0
 10
4.22408390
 20
4.60949349
  0
VERTEX
  8
0
 10
4.25649161
 20
4.60243083
  0
VERTEX
  8
0
 10
4.27378671
 20
4.62621158
  0
VERTEX
  8
0
 10
4.24711553
 20
4.67732811
  0
VERTEX
  8
0
 10
4.21973953
 20
4.73214405
  0
VERTEX
  8
0
 10
4.22285150
 20
4.87292727
  0
VERTEX
  8
0
 10
4.20552753
 20
5.00783400
  0
VERTEX
  8
0
 10
4.14407348
 20
5.27477771
  0
VERTEX
  8
0
 10
4.11101023
 20
5.41927944
  0
VERTEX
  8
0
 10
4.07273121
 20
5.55149926
  0
VERTEX
  8
0
 10
4.00988870
 20
5.77380762
  0
VERTEX
  8
0
 10
3.92642863
 20
5.98932753
  0
VERTEX
  8
0
 10
3.85612749
 20
6.20482438
  0
VERTEX
  8
0
 10
3.83646666
 20
6.31467833
  0
VERTEX
  8
0
 10
3.83276174
 20
6.42706354
  0
VERTEX
  8
0
 10
3.90103605
 20
6.41152132
  0
VERTEX
  8
0
 10
3.97544629
 20
6.37734013
  0
VERTEX
  8
0
 10
4.19525986
 20
6.21637880
  0
VERTEX
  8
0
 10
4.39249233
 20
6.03368824
  0
VERTEX
  8
0
 10
4.57144785
 20
5.83365850
  0
VERTEX
  8
0
 10
4.73643055
 20
5.62067965
  0
VERTEX
  8
0
 10
4.79688440
 20
5.48179705
  0
VERTEX
  8
0
 10
4.83587735
 20
5.35260565
  0
VERTEX
  8
0
 10
4.74053206
 20
5.36187585
  0
VERTEX
  8
0
 10
4.65621294
 20
5.40420157
  0
VERTEX
  8
0
 10
4.51159429
 20
5.53852794
  0
VERTEX
  8
0
 10
4.48178254
 20
5.58558230
  0
VERTEX
  8
0
 10
4.44673768
 20
5.62932720
  0
VERTEX
  8
0
 10
4.13542593
 20
6.10926613
  0
VERTEX
  8
0
 10
4.12132794
 20
6.05729779
  0
VERTEX
  8
0
 10
4.13748375
 20
6.00088003
  0
VERTEX
  8
0
 10
4.18731122
 20
5.88226799
  0
VERTEX
  8
0
 10
4.26997695
 20
5.66380378
  0
VERTEX
  8
0
 10
4.32134822
 20
5.44340491
  0
VERTEX
  8
0
 10
4.37323351
 20
5.18397845
  0
VERTEX
  8
0
 10
4.38836672
 20
4.68025876
  0
VERTEX
  8
0
 10
4.36926942
 20
4.53322171
  0
VERTEX
  8
0
 10
4.36092314
 20
4.46044011
  0
VERTEX
  8
0
 10
4.34080521
 20
4.39056589
  0
VERTEX
  8
0
 10
4.37265243
 20
4.19203607
  0
VERTEX
  8
0
 10
4.38171568
 20
4.09790227
  0
VERTEX
  8
0
 10
4.36242408
 20
4.00791187
  0
VERTEX
  8
0
 10
4.34512898
 20
3.99494055
  0
SEQEND
  0
POLYLINE
  8
Default_Layer
 66
   1
 39
0.000000
 70
    1
  0
VERTEX
  8
0
 10
4.24352029
 20
4.01223565
  0
VERTEX
  8
0
 10
4.18912658
 20
4.02090137
  0
VERTEX
  8
0
 10
4.14089778
 20
4.04762147
  0
VERTEX
  8
0
 10
4.04462668
 20
4.11384434
  0
VERTEX
  8
0
 10
3.80381640
 20
4.32982483
  0
VERTEX
  8
0
 10
3.59495416
 20
4.55703120
  0
VERTEX
  8
0
 10
3.28646065
 20
4.94841905
  0
VERTEX
  8
0
 10
3.14249501
 20
5.15188023
  0
VERTEX
  8
0
 10
3.02205408
 20
5.38071018
  0
VERTEX
  8
0
 10
2.98097822
 20
5.51474718
  0
VERTEX
  8
0
 10
2.96491111
 20
5.56335262
  0
VERTEX
  8
0
 10
2.95287369
 20
5.60770833
  0
VERTEX
  8
0
 10
2.92973215
 20
5.74247569
  0
VERTEX
  8
0
 10
2.92370416
 20
5.88047678
  0
VERTEX
  8
0
 10
2.94955603
 20
6.00748310
  0
VERTEX
  8
0
 10
2.97905139
 20
6.06241681
  0
VERTEX
  8
0
 10
3.02205408
 20
6.10926613
  0
VERTEX
  8
0
 10
3.07692459
 20
6.11236594
  0
VERTEX
  8
0
 10
3.12385994
 20
6.09047285
  0
VERTEX
  8
0
 10
3.21230014
 20
6.01630499
  0
VERTEX
  8
0
 10
3.29538610
 20
5.90327775
  0
VERTEX
  8
0
 10
3.36159080
 20
5.77939389
  0
VERTEX
  8
0
 10
3.47605037
 20
5.52771850
  0
VERTEX
  8
0
 10
3.56379577
 20
5.34184640
  0
VERTEX
  8
0
 10
3.60871681
 20
5.24767720
  0
VERTEX
  8
0
 10
3.63819190
 20
5.15587392
  0
VERTEX
  8
0
 10
3.93931359
 20
4.75897275
  0
VERTEX
  8
0
 10
4.07613267
 20
4.54654205
  0
VERTEX
  8
0
 10
4.19379689
 20
4.31706173
  0
VERTEX
  8
0
 10
4.23677758
 20
4.15910474
  0
VERTEX
  8
0
 10
4.24352029
 20
4.01223565
  0
SEQEND
  0
POLYLINE
  8
Default_Layer
 66
   1
 39
0.000000
 70
    1
  0
VERTEX
  8
0
 10
1.90003467
 20
5.12776939
  0
VERTEX
  8
0
 10
1.81213453
 20
5.13697697
  0
VERTEX
  8
0
 10
1.73036215
 20
5.17228621
  0
VERTEX
  8
0
 10
1.66046235
 20
5.22695337
  0
VERTEX
  8
0
 10
1.60817992
 20
5.29423470
  0
VERTEX
  8
0
 10
1.58668149
 20
5.34927199
  0
VERTEX
  8
0
 10
1.56278029
 20
5.39584339
  0
VERTEX
  8
0
 10
1.56603087
 20
5.51478642
  0
VERTEX
  8
0
 10
1.59304671
 20
5.62067965
  0
VERTEX
  8
0
 10
1.64397336
 20
5.70238258
  0
VERTEX
  8
0
 10
1.67818025
 20
5.72647131
  0
VERTEX
  8
0
 10
1.71843616
 20
5.72228834
  0
VERTEX
  8
0
 10
1.81987113
 20
5.68559110
  0
VERTEX
  8
0
 10
1.90354274
 20
5.62912317
  0
VERTEX
  8
0
 10
1.97194853
 20
5.55546216
  0
VERTEX
  8
0
 10
2.02758601
 20
5.46718566
  0
VERTEX
  8
0
 10
2.04218147
 20
5.38871479
  0
VERTEX
  8
0
 10
2.04164190
 20
5.30830342
  0
VERTEX
  8
0
 10
2.02110307
 20
5.23274807
  0
VERTEX
  8
0
 10
1.97570072
 20
5.16884525
  0
VERTEX
  8
0
 10
1.90003467
 20
5.12776939
  0
SEQEND
  0
POLYLINE
  8
Default_Layer
 66
   1
 39
0.000000
 70
    1
  0
VERTEX
  8
0
 10
1.88057769
 20
5.17316902
  0
VERTEX
  8
0
 10
1.85247316
 20
5.18181657
  0
VERTEX
  8
0
 10
1.88031983
 20
5.18952378
  0
VERTEX
  8
0
 10
1.91084411
 20
5.19262600
  0
VERTEX
  8
0
 10
1.88057769
 20
5.17316902
  0
SEQEND
  0
POLYLINE
  8
Default_Layer
 66
   1
 39
0.000000
 70
    1
  0
VERTEX
  8
0
 10
1.85463504
 20
5.23370186
  0
VERTEX
  8
0
 10
1.79336871
 20
5.24385754
  0
VERTEX
  8
0
 10
1.74109300
 20
5.28131948
  0
VERTEX
  8
0
 10
1.66006521
 20
5.38071018
  0
VERTEX
  8
0
 10
1.62991518
 20
5.44269453
  0
VERTEX
  8
0
 10
1.61972061
 20
5.50024343
  0
VERTEX
  8
0
 10
1.64277011
 20
5.60770833
  0
VERTEX
  8
0
 10
1.67225738
 20
5.65153402
  0
VERTEX
  8
0
 10
1.71843616
 20
5.66391739
  0
VERTEX
  8
0
 10
1.80874845
 20
5.62539758
  0
VERTEX
  8
0
 10
1.87200275
 20
5.56022988
  0
VERTEX
  8
0
 10
1.91684471
 20
5.47826603
  0
VERTEX
  8
0
 10
1.95191996
 20
5.38935773
  0
VERTEX
  8
0
 10
1.96108696
 20
5.32561995
  0
VERTEX
  8
0
 10
1.94543430
 20
5.27045394
  0
VERTEX
  8
0
 10
1.89926872
 20
5.24987950
  0
VERTEX
  8
0
 10
1.85463504
 20
5.23370186
  0
SEQEND
  0
POLYLINE
  8
Default_Layer
 66
   1
 39
0.000000
 70
    1
  0
VERTEX
  8
0
 10
5.88655448
 20
5.85200157
  0
VERTEX
  8
0
 10
5.85347931
 20
5.85932089
  0
VERTEX
  8
0
 10
5.82598419
 20
5.88222826
  0
VERTEX
  8
0
 10
5.76548881
 20
5.93199139
  0
VERTEX
  8
0
 10
5.69917605
 20
6.05382805
  0
VERTEX
  8
0
 10
5.64009935
 20
6.17412275
  0
VERTEX
  8
0
 10
5.60767568
 20
6.33446156
  0
VERTEX
  8
0
 10
5.62053368
 20
6.48654232
  0
VERTEX
  8
0
 10
5.67614330
 20
6.62509784
  0
VERTEX
  8
0
 10
5.77197447
 20
6.74486094
  0
VERTEX
  8
0
 10
5.84001090
 20
6.80045911
  0
VERTEX
  8
0
 10
5.92062242
 20
6.84096174
  0
VERTEX
  8
0
 10
6.00635931
 20
6.86097803
  0
VERTEX
  8
0
 10
6.08977187
 20
6.85511718
  0
VERTEX
  8
0
 10
6.17448208
 20
6.81976807
  0
VERTEX
  8
0
 10
6.24599240
 20
6.76291924
  0
VERTEX
  8
0
 10
6.36216965
 20
6.62379526
  0
VERTEX
  8
0
 10
6.40283783
 20
6.51359373
  0
VERTEX
  8
0
 10
6.41292519
 20
6.40077077
  0
VERTEX
  8
0
 10
6.39243606
 20
6.17412275
  0
VERTEX
  8
0
 10
6.35906516
 20
6.08324327
  0
VERTEX
  8
0
 10
6.30420632
 20
6.01087657
  0
VERTEX
  8
0
 10
6.16327603
 20
5.89740120
  0
VERTEX
  8
0
 10
6.03564578
 20
5.86794457
  0
VERTEX
  8
0
 10
5.91249713
 20
5.86064912
  0
VERTEX
  8
0
 10
5.88655448
 20
5.85200157
  0
SEQEND
  0
POLYLINE
  8
Default_Layer
 66
   1
 39
0.000000
 70
    1
  0
VERTEX
  8
0
 10
5.99897261
 20
5.91685818
  0
VERTEX
  8
0
 10
5.91845834
 20
5.92224377
  0
VERTEX
  8
0
 10
5.84547863
 20
5.96658158
  0
VERTEX
  8
0
 10
5.76296639
 20
6.06865876
  0
VERTEX
  8
0
 10
5.70324832
 20
6.18687131
  0
VERTEX
  8
0
 10
5.67573143
 20
6.31222137
  0
VERTEX
  8
0
 10
5.68982276
 20
6.43571108
  0
VERTEX
  8
0
 10
5.72084738
 20
6.52869963
  0
VERTEX
  8
0
 10
5.76548881
 20
6.60866205
  0
VERTEX
  8
0
 10
5.81221538
 20
6.68510502
  0
VERTEX
  8
0
 10
5.87604952
 20
6.74928516
  0
VERTEX
  8
0
 10
5.95540511
 20
6.79233668
  0
VERTEX
  8
0
 10
6.04869602
 20
6.80539378
  0
VERTEX
  8
0
 10
6.13747690
 20
6.77801460
  0
VERTEX
  8
0
 10
6.21365265
 20
6.72292162
  0
VERTEX
  8
0
 10
6.27544953
 20
6.64907236
  0
VERTEX
  8
0
 10
6.32109379
 20
6.56542431
  0
VERTEX
  8
0
 10
6.34495997
 20
6.43616810
  0
VERTEX
  8
0
 10
6.34826577
 20
6.30654379
  0
VERTEX
  8
0
 10
6.32285237
 20
6.18475359
  0
VERTEX
  8
0
 10
6.26056095
 20
6.07899971
  0
VERTEX
  8
0
 10
6.14138511
 20
5.97493249
  0
VERTEX
  8
0
 10
6.07375758
 20
5.93947006
  0
VERTEX
  8
0
 10
5.99897261
 20
5.91685818
  0
SEQEND
  0
POLYLINE
  8
Default_Layer
 66
   1
 39
0.000000
 70
    1
  0
VERTEX
  8
0
 10
2.56589590
 20
6.34058805
  0
VERTEX
  8
0
 10
2.47692945
 20
6.37966409
  0
VERTEX
  8
0
 10
2.39736956
 20
6.43963634
  0
VERTEX
  8
0
 10
2.23512717
 20
6.57407186
  0
VERTEX
  8
0
 10
2.18277254
 20
6.62996369
  0
VERTEX
  8
0
 10
2.12919471
 20
6.68000433
  0
VERTEX
  8
0
 10
2.17795288
 20
6.74973581
  0
VERTEX
  8
0
 10
2.23921136
 20
6.80935276
  0
VERTEX
  8
0
 10
2.30977765
 20
6.85185701
  0
VERTEX
  8
0
 10
2.38645927
 20
6.87025039
  0
VERTEX
  8
0
 10
2.48140435
 20
6.83145103
  0
VERTEX
  8
0
 10
2.55724835
 20
6.77728925
  0
VERTEX
  8
0
 10
2.49239174
 20
6.63028092
  0
VERTEX
  8
0
 10
2.53104274
 20
6.61405858
  0
VERTEX
  8
0
 10
2.56589590
 20
6.58488129
  0
VERTEX
  8
0
 10
2.59062288
 20
6.62215163
  0
VERTEX
  8
0
 10
2.60069563
 20
6.66947194
  0
VERTEX
  8
0
 10
2.61498739
 20
6.71719420
  0
VERTEX
  8
0
 10
2.65237138
 20
6.75567038
  0
VERTEX
  8
0
 10
2.67029841
 20
6.78636820
  0
VERTEX
  8
0
 10
2.70112710
 20
6.80568820
  0
VERTEX
  8
0
 10
2.76911329
 20
6.82701265
  0
VERTEX
  8
0
 10
2.82336311
 20
6.80789024
  0
VERTEX
  8
0
 10
2.86207443
 20
6.75567038
  0
VERTEX
  8
0
 10
2.85717420
 20
6.65692281
  0
VERTEX
  8
0
 10
2.82598470
 20
6.55817677
  0
VERTEX
  8
0
 10
2.77500704
 20
6.47170205
  0
VERTEX
  8
0
 10
2.71074234
 20
6.40976844
  0
VERTEX
  8
0
 10
2.64220468
 20
6.36171393
  0
VERTEX
  8
0
 10
2.56589590
 20
6.34058805
  0
SEQEND
  0
POLYLINE
  8
Default_Layer
 66
   1
 39
0.000000
 70
    1
  0
VERTEX
  8
0
 10
1.44820027
 20
6.94159267
  0
VERTEX
  8
0
 10
1.50440933
 20
7.22047610
  0
VERTEX
  8
0
 10
1.50121545
 20
7.39137080
  0
VERTEX
  8
0
 10
1.46897282
 20
7.55914093
  0
VERTEX
  8
0
 10
1.40742740
 20
7.71755829
  0
VERTEX
  8
0
 10
1.31632516
 20
7.86039468
  0
VERTEX
  8
0
 10
1.45276164
 20
7.80088153
  0
VERTEX
  8
0
 10
1.56686301
 20
7.70920957
  0
VERTEX
  8
0
 10
1.65946603
 20
7.58827864
  0
VERTEX
  8
0
 10
1.73140748
 20
7.44098859
  0
VERTEX
  8
0
 10
1.73431810
 20
7.31971035
  0
VERTEX
  8
0
 10
1.70881446
 20
7.20291539
  0
VERTEX
  8
0
 10
1.65623384
 20
7.09868409
  0
VERTEX
  8
0
 10
1.57791350
 20
7.01509683
  0
VERTEX
  8
0
 10
1.44820027
 20
6.94159267
  0
SEQEND
  0
POLYLINE
  8
Default_Layer
 66
   1
 39
0.000000
 70
    1
  0
VERTEX
  8
0
 10
4.50943240
 20
7.60745389
  0
VERTEX
  8
0
 10
4.21223451
 20
7.62032609
  0
VERTEX
  8
0
 10
4.06396582
 20
7.64684146
  0
VERTEX
  8
0
 10
3.92572289
 20
7.70690070
  0
VERTEX
  8
0
 10
3.87278494
 20
7.77407417
  0
VERTEX
  8
0
 10
3.83698693
 20
7.85018871
  0
VERTEX
  8
0
 10
3.79384777
 20
8.01605055
  0
VERTEX
  8
0
 10
3.80713444
 20
8.20805982
  0
VERTEX
  8
0
 10
3.85293085
 20
8.39910255
  0
VERTEX
  8
0
 10
3.93404233
 20
8.57373213
  0
VERTEX
  8
0
 10
4.05327422
 20
8.71650197
  0
VERTEX
  8
0
 10
4.18288744
 20
8.79809351
  0
VERTEX
  8
0
 10
4.31486256
 20
8.85053897
  0
VERTEX
  8
0
 10
4.44735866
 20
8.88397241
  0
VERTEX
  8
0
 10
4.58008314
 20
8.88040785
  0
VERTEX
  8
0
 10
4.70666773
 20
8.84515422
  0
VERTEX
  8
0
 10
4.82074414
 20
8.78352047
  0
VERTEX
  8
0
 10
4.93113912
 20
8.68055539
  0
VERTEX
  8
0
 10
5.01419426
 20
8.55468589
  0
VERTEX
  8
0
 10
5.06916426
 20
8.41622281
  0
VERTEX
  8
0
 10
5.09530381
 20
8.27547701
  0
VERTEX
  8
0
 10
5.08464728
 20
8.17296718
  0
VERTEX
  8
0
 10
5.05869697
 20
8.07621932
  0
VERTEX
  8
0
 10
4.96794325
 20
7.90289836
  0
VERTEX
  8
0
 10
4.83709923
 20
7.76129179
  0
VERTEX
  8
0
 10
4.68022148
 20
7.65717730
  0
VERTEX
  8
0
 10
4.50943240
 20
7.60745389
  0
SEQEND
  0
POLYLINE
  8
Default_Layer
 66
   1
 39
0.000000
 70
    1
  0
VERTEX
  8
0
 10
4.54402260
 20
7.65933918
  0
VERTEX
  8
0
 10
4.38518451
 20
7.66058798
  0
VERTEX
  8
0
 10
4.21850104
 20
7.66849064
  0
VERTEX
  8
0
 10
4.05946295
 20
7.70965060
  0
VERTEX
  8
0
 10
3.98765178
 20
7.75101563
  0
VERTEX
  8
0
 10
3.92356100
 20
7.81067128
  0
VERTEX
  8
0
 10
3.88923558
 20
7.90186768
  0
VERTEX
  8
0
 10
3.86086627
 20
7.99010791
  0
VERTEX
  8
0
 10
3.86826350
 20
8.14766105
  0
VERTEX
  8
0
 10
3.91010398
 20
8.29607471
  0
VERTEX
  8
0
 10
3.97812996
 20
8.43689188
  0
VERTEX
  8
0
 10
4.06408366
 20
8.57165554
  0
VERTEX
  8
0
 10
4.16868432
 20
8.68691693
  0
VERTEX
  8
0
 10
4.30235551
 20
8.77980654
  0
VERTEX
  8
0
 10
4.45471107
 20
8.82915349
  0
VERTEX
  8
0
 10
4.53464982
 20
8.83088256
  0
VERTEX
  8
0
 10
4.61536487
 20
8.81378689
  0
VERTEX
  8
0
 10
4.75465874
 20
8.74775106
  0
VERTEX
  8
0
 10
4.87011194
 20
8.65169735
  0
VERTEX
  8
0
 10
4.95763842
 20
8.53183690
  0
VERTEX
  8
0
 10
5.01315210
 20
8.39438080
  0
VERTEX
  8
0
 10
5.03133155
 20
8.27406458
  0
VERTEX
  8
0
 10
5.02046079
 20
8.15897656
  0
VERTEX
  8
0
 10
4.98647870
 20
8.04917253
  0
VERTEX
  8
0
 10
4.93532416
 20
7.94470828
  0
VERTEX
  8
0
 10
4.85665191
 20
7.85185883
  0
VERTEX
  8
0
 10
4.76318252
 20
7.77462724
  0
VERTEX
  8
0
 10
4.65795856
 20
7.71109390
  0
VERTEX
  8
0
 10
4.54402260
 20
7.65933918
  0
SEQEND
  0
POLYLINE
  8
Default_Layer
 66
   1
 39
0.000000
 70
    1
  0
VERTEX
  8
0
 10
2.76695140
 20
8.39005702
  0
VERTEX
  8
0
 10
2.66832697
 20
8.41525871
  0
VERTEX
  8
0
 10
2.58439106
 20
8.46596266
  0
VERTEX
  8
0
 10
2.51552880
 20
8.53654428
  0
VERTEX
  8
0
 10
2.46212532
 20
8.62137894
  0
VERTEX
  8
0
 10
2.38645927
 20
8.80946312
  0
VERTEX
  8
0
 10
2.36469092
 20
8.98164858
  0
VERTEX
  8
0
 10
2.36963160
 20
9.15298222
  0
VERTEX
  8
0
 10
2.40298357
 20
9.31740021
  0
VERTEX
  8
0
 10
2.46644909
 20
9.46883868
  0
VERTEX
  8
0
 10
2.59684115
 20
9.60561317
  0
VERTEX
  8
0
 10
2.74749442
 20
9.70232249
  0
VERTEX
  8
0
 10
2.82343279
 20
9.70094286
  0
VERTEX
  8
0
 10
2.89750917
 20
9.67896346
  0
VERTEX
  8
0
 10
2.96197526
 20
9.64218047
  0
VERTEX
  8
0
 10
3.00908276
 20
9.59639002
  0
VERTEX
  8
0
 10
3.09225011
 20
9.38100187
  0
VERTEX
  8
0
 10
3.12973665
 20
9.15460145
  0
VERTEX
  8
0
 10
3.12635322
 20
8.92371859
  0
VERTEX
  8
0
 10
3.08691069
 20
8.69488310
  0
VERTEX
  8
0
 10
3.04290539
 20
8.59245843
  0
VERTEX
  8
0
 10
2.98296157
 20
8.50438777
  0
VERTEX
  8
0
 10
2.90473097
 20
8.43643921
  0
VERTEX
  8
0
 10
2.80586537
 20
8.39438080
  0
VERTEX
  8
0
 10
2.76695140
 20
8.39005702
  0
SEQEND
  0
POLYLINE
  8
Default_Layer
 66
   1
 39
0.000000
 70
    1
  0
VERTEX
  8
0
 10
2.79721782
 20
8.45491364
  0
VERTEX
  8
0
 10
2.73717007
 20
8.45789695
  0
VERTEX
  8
0
 10
2.68139158
 20
8.48588032
  0
VERTEX
  8
0
 10
2.62947904
 20
8.51945874
  0
VERTEX
  8
0
 10
2.58102911
 20
8.53922723
  0
VERTEX
  8
0
 10
2.48353114
 20
8.73805920
  0
VERTEX
  8
0
 10
2.43196889
 20
8.95441638
  0
VERTEX
  8
0
 10
2.43169645
 20
9.17504392
  0
VERTEX
  8
0
 10
2.45246708
 20
9.28281694
  0
VERTEX
  8
0
 10
2.48806796
 20
9.38668697
  0
VERTEX
  8
0
 10
2.56473367
 20
9.49857377
  0
VERTEX
  8
0
 10
2.60882129
 20
9.54154000
  0
VERTEX
  8
0
 10
2.66318082
 20
9.57260927
  0
VERTEX
  8
0
 10
2.73154523
 20
9.60316859
  0
VERTEX
  8
0
 10
2.80277273
 20
9.61859460
  0
VERTEX
  8
0
 10
2.87014184
 20
9.61697313
  0
VERTEX
  8
0
 10
2.92693105
 20
9.59639002
  0
VERTEX
  8
0
 10
2.97097845
 20
9.53962064
  0
VERTEX
  8
0
 10
3.00258574
 20
9.47656322
  0
VERTEX
  8
0
 10
3.05232050
 20
9.33696357
  0
VERTEX
  8
0
 10
3.07610126
 20
9.19211714
  0
VERTEX
  8
0
 10
3.07541590
 20
9.00275942
  0
VERTEX
  8
0
 10
3.05314315
 20
8.80883177
  0
VERTEX
  8
0
 10
2.99208557
 20
8.63035300
  0
VERTEX
  8
0
 10
2.94163828
 20
8.55316283
  0
VERTEX
  8
0
 10
2.87504576
 20
8.48734194
  0
VERTEX
  8
0
 10
2.79721782
 20
8.45491364
  0
SEQEND
  0
POLYLINE
  8
Default_Layer
 66
   1
 39
0.000000
 70
    1
  0
VERTEX
  8
0
 10
2.17459434
 20
8.58895064
  0
VERTEX
  8
0
 10
1.93462487
 20
8.71217820
  0
VERTEX
  8
0
 10
2.02758601
 20
8.74244462
  0
VERTEX
  8
0
 10
2.10239937
 20
8.84812163
  0
VERTEX
  8
0
 10
2.14160407
 20
8.96920952
  0
VERTEX
  8
0
 10
2.15406617
 20
9.09689970
  0
VERTEX
  8
0
 10
2.14865169
 20
9.22238356
  0
VERTEX
  8
0
 10
2.07483251
 20
9.44262213
  0
VERTEX
  8
0
 10
2.01939241
 20
9.53866394
  0
VERTEX
  8
0
 10
1.92597732
 20
9.60719946
  0
VERTEX
  8
0
 10
1.87249146
 20
9.62342135
  0
VERTEX
  8
0
 10
1.81992614
 20
9.62183743
  0
VERTEX
  8
0
 10
1.72492182
 20
9.58774247
  0
VERTEX
  8
0
 10
1.70549910
 20
9.56454421
  0
VERTEX
  8
0
 10
1.69486455
 20
9.55917017
  0
VERTEX
  8
0
 10
1.69033163
 20
9.57260927
  0
VERTEX
  8
0
 10
2.28485058
 20
10.32278409
  0
VERTEX
  8
0
 10
2.29887685
 20
10.16379180
  0
VERTEX
  8
0
 10
2.30214567
 20
10.00282480
  0
VERTEX
  8
0
 10
2.27138126
 20
9.67849977
  0
VERTEX
  8
0
 10
2.25026038
 20
9.36290622
  0
VERTEX
  8
0
 10
2.20578191
 20
8.97532810
  0
VERTEX
  8
0
 10
2.17459434
 20
8.58895064
  0
SEQEND
  0
POLYLINE
  8
Default_Layer
 66
   1
 39
0.000000
 70
    1
  0
VERTEX
  8
0
 10
2.96800690
 20
8.74893028
  0
VERTEX
  8
0
 10
2.93523575
 20
8.75842283
  0
VERTEX
  8
0
 10
2.92260727
 20
8.79216802
  0
VERTEX
  8
0
 10
2.92451622
 20
8.85297115
  0
VERTEX
  8
0
 10
2.93314438
 20
8.87560352
  0
VERTEX
  8
0
 10
2.95287369
 20
8.88729105
  0
VERTEX
  8
0
 10
3.00908276
 20
8.89593860
  0
VERTEX
  8
0
 10
3.01880125
 20
8.83067029
  0
VERTEX
  8
0
 10
2.99394955
 20
8.76406349
  0
VERTEX
  8
0
 10
2.96800690
 20
8.74893028
  0
SEQEND
  0
POLYLINE
  8
Default_Layer
 66
   1
 39
0.000000
 70
    1
  0
VERTEX
  8
0
 10
1.94543430
 20
8.77703481
  0
VERTEX
  8
0
 10
1.84514849
 20
8.80173445
  0
VERTEX
  8
0
 10
1.80017147
 20
8.83215076
  0
VERTEX
  8
0
 10
1.76599767
 20
8.87215785
  0
VERTEX
  8
0
 10
1.69958303
 20
9.02801067
  0
VERTEX
  8
0
 10
1.67384167
 20
9.19211803
  0
VERTEX
  8
0
 10
1.68553076
 20
9.35946777
  0
VERTEX
  8
0
 10
1.73140748
 20
9.52504775
  0
VERTEX
  8
0
 10
1.78329277
 20
9.55531417
  0
VERTEX
  8
0
 10
1.88392634
 20
9.54059226
  0
VERTEX
  8
0
 10
1.92988187
 20
9.51719702
  0
VERTEX
  8
0
 10
1.97353884
 20
9.47532435
  0
VERTEX
  8
0
 10
2.01510498
 20
9.40545694
  0
VERTEX
  8
0
 10
2.04704300
 20
9.32183036
  0
VERTEX
  8
0
 10
2.07604909
 20
9.20930808
  0
VERTEX
  8
0
 10
2.09047652
 20
9.09716941
  0
VERTEX
  8
0
 10
2.08534909
 20
8.98710497
  0
VERTEX
  8
0
 10
2.05569054
 20
8.88080539
  0
VERTEX
  8
0
 10
2.01487490
 20
8.81385407
  0
VERTEX
  8
0
 10
1.94543430
 20
8.77703481
  0
SEQEND
  0
POLYLINE
  8
Default_Layer
 66
   1
 39
0.000000
 70
    1
  0
VERTEX
  8
0
 10
2.00596714
 20
8.96944276
  0
VERTEX
  8
0
 10
1.97524837
 20
8.98435503
  0
VERTEX
  8
0
 10
1.96056751
 20
9.01051862
  0
VERTEX
  8
0
 10
1.96506932
 20
9.04919478
  0
VERTEX
  8
0
 10
1.99515771
 20
9.07321335
  0
VERTEX
  8
0
 10
2.02122366
 20
9.06699284
  0
VERTEX
  8
0
 10
2.03464144
 20
9.05141690
  0
VERTEX
  8
0
 10
2.04055734
 20
9.00187107
  0
VERTEX
  8
0
 10
2.02607685
 20
8.98437511
  0
VERTEX
  8
0
 10
2.00596714
 20
8.96944276
  0
SEQEND
  0
ENDSEC
  0
EOF
