  0
SECTION
  2
HEADER
  9
$ACADVER
  1
AC1006
  0
ENDSEC
  0
SECTION
  2
TABLES
  0
TABLE
  2
LTYPE
 70
    25
  0
LTYPE
  2
CONTINUOUS
 70
    64
  3
Solid line
 72
    64
 73
     0
 40
0.000000
  0
LTYPE
  2
DASHDOT
 70
    64
  3
__ . __ . __ . __ . __ . __ . __ . __ . __ . __
 72
    65
 73
     4
 40
1.000000
 49
0.500000
 49
-0.250000
 49
0.000000
 49
-0.250000
  0
LTYPE
  2
DASHED
 70
    64
  3
__ __ __ __ __ __ __ __ __ __ __ __ __ __ __ __
 72
    65
 73
     2
 40
0.750000
 49
0.500000
 49
-0.250000
  0
LTYPE
  2
DIVIDE
 70
    64
  3
____ . . ____ . . ____ . . ____ . . ____ . . __
 72
    65
 73
     6
 40
1.250000
 49
0.500000
 49
-0.250000
 49
0.000000
 49
-0.250000
 49
0.000000
 49
-0.250000
  0
LTYPE
  2
DOT
 70
    64
  3
. . . . . . . . . . . . . . . . . . . . . . . . 
 72
    65
 73
     2
 40
0.250000
 49
0.000000
 49
-0.250000
  0
ENDTAB
  0
ENDSEC
  0
SECTION
  2
ENTITIES
  0
LINE
  8
0
 62
     7
  6
CONTINUOUS
 10
2.871848
 20
7.542881
 30
0.000000
 11
2.871848
 21
7.565769
 31
0.000000
  0
LINE
  8
0
 62
    12
  6
CONTINUOUS
 10
2.879477
 20
7.542881
 30
0.000000
 11
2.871848
 21
7.542881
 31
0.000000
  0
LINE
  8
0
 62
     7
  6
CONTINUOUS
 10
2.885581
 20
7.534488
 30
0.000000
 11
2.879477
 21
7.542881
 31
0.000000
  0
LINE
  8
0
 62
     7
  6
CONTINUOUS
 10
2.897025
 20
7.505496
 30
0.000000
 11
2.885581
 21
7.534488
 31
0.000000
  0
LINE
  8
0
 62
     7
  6
CONTINUOUS
 10
2.900077
 20
7.496341
 30
0.000000
 11
2.897025
 21
7.505496
 31
0.000000
  0
LINE
  8
0
 62
     7
  6
CONTINUOUS
 10
2.926780
 20
7.429203
 30
0.000000
 11
2.900077
 21
7.496341
 31
0.000000
  0
LINE
  8
0
 62
     7
  6
CONTINUOUS
 10
2.949668
 20
7.391056
 30
0.000000
 11
2.926780
 21
7.429203
 31
0.000000
  0
LINE
  8
0
 62
     7
  6
CONTINUOUS
 10
2.971030
 20
7.352146
 30
0.000000
 11
2.949668
 21
7.391056
 31
0.000000
  0
LINE
  8
0
 62
     7
  6
CONTINUOUS
 10
3.039695
 20
7.283481
 30
0.000000
 11
2.971030
 21
7.352146
 31
0.000000
  0
LINE
  8
0
 62
     7
  6
CONTINUOUS
 10
3.183280
 20
7.197727
 30
0.000000
 11
3.039695
 21
7.283481
 31
0.000000
  0
LINE
  8
0
 62
     7
  6
CONTINUOUS
 10
3.207541
 20
7.176670
 30
0.000000
 11
3.183280
 21
7.197727
 31
0.000000
  0
LINE
  8
0
 62
     7
  6
CONTINUOUS
 10
3.207541
 20
7.169040
 30
0.000000
 11
3.207541
 21
7.176670
 31
0.000000
  0
LINE
  8
0
 62
    12
  6
CONTINUOUS
 10
3.215171
 20
7.169040
 30
0.000000
 11
3.207541
 21
7.169040
 31
0.000000
  0
LINE
  8
0
 62
     7
  6
CONTINUOUS
 10
3.222800
 20
7.169040
 30
0.000000
 11
3.215171
 21
7.169040
 31
0.000000
  0
LINE
  8
0
 62
     7
  6
CONTINUOUS
 10
3.222800
 20
7.169040
 30
0.000000
 11
3.222800
 21
7.176670
 31
0.000000
  0
LINE
  8
0
 62
     7
  6
CONTINUOUS
 10
3.222800
 20
7.176670
 30
0.000000
 11
3.230429
 21
7.184299
 31
0.000000
  0
LINE
  8
0
 62
     7
  6
CONTINUOUS
 10
3.230429
 20
7.184299
 30
0.000000
 11
3.238059
 21
7.184299
 31
0.000000
  0
LINE
  8
0
 62
    12
  6
CONTINUOUS
 10
3.230429
 20
7.161411
 30
0.000000
 11
3.222800
 21
7.169040
 31
0.000000
  0
LINE
  8
0
 62
    12
  6
CONTINUOUS
 10
3.344870
 20
7.176670
 30
0.000000
 11
3.230429
 21
7.161411
 31
0.000000
  0
LINE
  8
0
 62
    12
  6
CONTINUOUS
 10
3.353263
 20
7.171329
 30
0.000000
 11
3.344870
 21
7.176670
 31
0.000000
  0
LINE
  8
0
 62
    12
  6
CONTINUOUS
 10
3.428794
 20
7.146152
 30
0.000000
 11
3.353263
 21
7.171329
 31
0.000000
  0
LINE
  8
0
 62
     7
  6
CONTINUOUS
 10
3.436423
 20
7.146152
 30
0.000000
 11
3.428794
 21
7.146152
 31
0.000000
  0
LINE
  8
0
 62
     7
  6
CONTINUOUS
 10
3.436423
 20
7.146152
 30
0.000000
 11
3.457733
 21
7.150098
 31
0.000000
  0
LINE
  8
0
 62
     7
  6
CONTINUOUS
 10
3.457733
 20
7.150098
 30
0.000000
 11
3.475744
 21
7.159650
 31
0.000000
  0
LINE
  8
0
 62
     7
  6
CONTINUOUS
 10
3.475744
 20
7.159650
 30
0.000000
 11
3.514206
 21
7.190068
 31
0.000000
  0
LINE
  8
0
 62
     7
  6
CONTINUOUS
 10
3.514206
 20
7.190068
 30
0.000000
 11
3.544608
 21
7.212986
 31
0.000000
  0
LINE
  8
0
 62
     7
  6
CONTINUOUS
 10
3.544608
 20
7.212986
 30
0.000000
 11
3.680564
 21
7.321628
 31
0.000000
  0
LINE
  8
0
 62
     7
  6
CONTINUOUS
 10
3.680564
 20
7.321628
 30
0.000000
 11
3.697654
 21
7.343143
 31
0.000000
  0
LINE
  8
0
 62
     7
  6
CONTINUOUS
 10
3.697654
 20
7.343143
 30
0.000000
 11
3.751113
 21
7.411565
 31
0.000000
  0
LINE
  8
0
 62
     7
  6
CONTINUOUS
 10
3.751113
 20
7.411565
 30
0.000000
 11
3.795005
 21
7.458957
 31
0.000000
  0
LINE
  8
0
 62
     7
  6
CONTINUOUS
 10
3.833152
 20
7.497104
 30
0.000000
 11
3.795005
 21
7.458957
 31
0.000000
  0
LINE
  8
0
 62
     7
  6
CONTINUOUS
 10
3.840781
 20
7.497104
 30
0.000000
 11
3.833152
 21
7.497104
 31
0.000000
  0
LINE
  8
0
 62
     7
  6
CONTINUOUS
 10
3.865195
 20
7.452091
 30
0.000000
 11
3.840781
 21
7.497104
 31
0.000000
  0
LINE
  8
0
 62
     7
  6
CONTINUOUS
 10
3.876235
 20
7.412508
 30
0.000000
 11
3.865195
 21
7.452091
 31
0.000000
  0
LINE
  8
0
 62
     7
  6
CONTINUOUS
 10
3.901816
 20
7.260593
 30
0.000000
 11
3.876235
 21
7.412508
 31
0.000000
  0
LINE
  8
0
 62
     7
  6
CONTINUOUS
 10
3.901816
 20
7.169040
 30
0.000000
 11
3.901816
 21
7.260593
 31
0.000000
  0
LINE
  8
0
 62
     7
  6
CONTINUOUS
 10
3.901816
 20
7.169040
 30
0.000000
 11
3.897626
 21
7.069545
 31
0.000000
  0
LINE
  8
0
 62
     7
  6
CONTINUOUS
 10
3.878928
 20
6.848606
 30
0.000000
 11
3.897626
 21
7.069545
 31
0.000000
  0
LINE
  8
0
 62
     7
  6
CONTINUOUS
 10
3.878928
 20
6.833347
 30
0.000000
 11
3.878928
 21
6.848606
 31
0.000000
  0
LINE
  8
0
 62
     7
  6
CONTINUOUS
 10
3.869010
 20
6.803592
 30
0.000000
 11
3.878928
 21
6.833347
 31
0.000000
  0
LINE
  8
0
 62
     7
  6
CONTINUOUS
 10
3.846885
 20
6.719669
 30
0.000000
 11
3.869010
 21
6.803592
 31
0.000000
  0
LINE
  8
0
 62
     7
  6
CONTINUOUS
 10
3.833152
 20
6.696018
 30
0.000000
 11
3.846885
 21
6.719669
 31
0.000000
  0
LINE
  8
0
 62
     7
  6
CONTINUOUS
 10
3.833152
 20
6.696018
 30
0.000000
 11
3.789136
 21
6.758227
 31
0.000000
  0
LINE
  8
0
 62
     7
  6
CONTINUOUS
 10
3.789136
 20
6.758227
 30
0.000000
 11
3.754569
 21
6.840213
 31
0.000000
  0
LINE
  8
0
 62
     7
  6
CONTINUOUS
 10
3.754569
 20
6.840213
 30
0.000000
 11
3.731035
 21
6.924313
 31
0.000000
  0
LINE
  8
0
 62
     7
  6
CONTINUOUS
 10
3.731035
 20
6.924313
 30
0.000000
 11
3.726340
 21
6.932529
 31
0.000000
  0
LINE
  8
0
 62
     7
  6
CONTINUOUS
 10
3.726340
 20
6.932529
 30
0.000000
 11
3.726340
 21
7.031711
 31
0.000000
  0
LINE
  8
0
 62
     7
  6
CONTINUOUS
 10
3.726340
 20
7.031711
 30
0.000000
 11
3.752628
 21
7.237365
 31
0.000000
  0
LINE
  8
0
 62
     7
  6
CONTINUOUS
 10
3.752628
 20
7.237365
 30
0.000000
 11
3.753571
 21
7.245745
 31
0.000000
  0
LINE
  8
0
 62
     7
  6
CONTINUOUS
 10
3.753571
 20
7.245745
 30
0.000000
 11
3.785086
 21
7.383426
 31
0.000000
  0
LINE
  8
0
 62
     7
  6
CONTINUOUS
 10
3.785086
 20
7.383426
 30
0.000000
 11
3.810263
 21
7.443698
 31
0.000000
  0
LINE
  8
0
 62
     7
  6
CONTINUOUS
 10
3.810263
 20
7.443698
 30
0.000000
 11
3.817893
 21
7.481845
 31
0.000000
  0
LINE
  8
0
 62
     7
  6
CONTINUOUS
 10
3.428794
 20
7.138523
 30
0.000000
 11
3.428794
 21
7.146152
 31
0.000000
  0
LINE
  8
0
 62
     7
  6
CONTINUOUS
 10
3.421164
 20
7.130893
 30
0.000000
 11
3.428794
 21
7.138523
 31
0.000000
  0
LINE
  8
0
 62
     7
  6
CONTINUOUS
 10
3.413535
 20
7.130893
 30
0.000000
 11
3.421164
 21
7.130893
 31
0.000000
  0
LINE
  8
0
 62
     7
  6
CONTINUOUS
 10
3.147269
 20
7.144626
 30
0.000000
 11
3.207541
 21
7.169040
 31
0.000000
  0
LINE
  8
0
 62
     7
  6
CONTINUOUS
 10
3.056327
 20
7.098545
 30
0.000000
 11
3.147269
 21
7.144626
 31
0.000000
  0
LINE
  8
0
 62
     7
  6
CONTINUOUS
 10
3.025809
 20
7.075656
 30
0.000000
 11
3.056327
 21
7.098545
 31
0.000000
  0
LINE
  8
0
 62
     7
  6
CONTINUOUS
 10
2.993918
 20
7.054599
 30
0.000000
 11
3.025809
 21
7.075656
 31
0.000000
  0
LINE
  8
0
 62
     7
  6
CONTINUOUS
 10
2.909995
 20
6.970676
 30
0.000000
 11
2.993918
 21
7.054599
 31
0.000000
  0
LINE
  8
0
 62
     7
  6
CONTINUOUS
 10
2.909995
 20
6.947788
 30
0.000000
 11
2.909995
 21
6.970676
 31
0.000000
  0
LINE
  8
0
 62
     7
  6
CONTINUOUS
 10
2.917624
 20
6.947788
 30
0.000000
 11
2.894736
 21
6.947788
 31
0.000000
  0
LINE
  8
0
 62
     7
  6
CONTINUOUS
 10
2.894736
 20
6.940158
 30
0.000000
 11
2.894736
 21
6.947788
 31
0.000000
  0
LINE
  8
0
 62
     7
  6
CONTINUOUS
 10
2.893210
 20
6.933292
 30
0.000000
 11
2.894736
 21
6.940158
 31
0.000000
  0
LINE
  8
0
 62
     7
  6
CONTINUOUS
 10
2.879477
 20
6.909641
 30
0.000000
 11
2.893210
 21
6.933292
 31
0.000000
  0
LINE
  8
0
 62
     7
  6
CONTINUOUS
 10
2.879477
 20
6.894382
 30
0.000000
 11
2.879477
 21
6.909641
 31
0.000000
  0
LINE
  8
0
 62
     7
  6
CONTINUOUS
 10
2.884516
 20
6.857675
 30
0.000000
 11
2.879477
 21
6.894382
 31
0.000000
  0
LINE
  8
0
 62
     7
  6
CONTINUOUS
 10
2.909995
 20
6.810459
 30
0.000000
 11
2.884516
 21
6.857675
 31
0.000000
  0
LINE
  8
0
 62
     7
  6
CONTINUOUS
 10
2.917624
 20
6.810459
 30
0.000000
 11
2.909995
 21
6.810459
 31
0.000000
  0
LINE
  8
0
 62
     7
  6
CONTINUOUS
 10
2.932120
 20
6.808170
 30
0.000000
 11
2.917624
 21
6.810459
 31
0.000000
  0
LINE
  8
0
 62
     7
  6
CONTINUOUS
 10
3.001548
 20
6.787570
 30
0.000000
 11
2.932120
 21
6.808170
 31
0.000000
  0
LINE
  8
0
 62
     7
  6
CONTINUOUS
 10
3.032065
 20
6.757053
 30
0.000000
 11
3.001548
 21
6.787570
 31
0.000000
  0
LINE
  8
0
 62
     7
  6
CONTINUOUS
 10
3.033591
 20
6.750186
 30
0.000000
 11
3.032065
 21
6.757053
 31
0.000000
  0
LINE
  8
0
 62
     7
  6
CONTINUOUS
 10
3.039695
 20
6.741794
 30
0.000000
 11
3.033591
 21
6.750186
 31
0.000000
  0
LINE
  8
0
 62
     7
  6
CONTINUOUS
 10
3.014114
 20
6.681432
 30
0.000000
 11
3.039695
 21
6.741794
 31
0.000000
  0
LINE
  8
0
 62
     7
  6
CONTINUOUS
 10
3.009177
 20
6.673130
 30
0.000000
 11
3.014114
 21
6.681432
 31
0.000000
  0
LINE
  8
0
 62
     7
  6
CONTINUOUS
 10
3.009177
 20
6.673130
 30
0.000000
 11
2.970267
 21
6.679233
 31
0.000000
  0
LINE
  8
0
 62
     7
  6
CONTINUOUS
 10
2.970267
 20
6.679233
 30
0.000000
 11
2.963401
 21
6.680759
 31
0.000000
  0
LINE
  8
0
 62
     7
  6
CONTINUOUS
 10
2.963401
 20
6.680759
 30
0.000000
 11
2.909995
 21
6.741794
 31
0.000000
  0
LINE
  8
0
 62
     7
  6
CONTINUOUS
 10
2.909995
 20
6.741794
 30
0.000000
 11
2.917624
 21
6.757053
 31
0.000000
  0
LINE
  8
0
 62
     7
  6
CONTINUOUS
 10
2.917624
 20
6.757053
 30
0.000000
 11
2.917624
 21
6.779941
 31
0.000000
  0
LINE
  8
0
 62
     7
  6
CONTINUOUS
 10
2.917624
 20
6.779941
 30
0.000000
 11
2.909995
 21
6.802829
 31
0.000000
  0
LINE
  8
0
 62
     7
  6
CONTINUOUS
 10
2.909995
 20
6.802829
 30
0.000000
 11
2.909995
 21
6.810459
 31
0.000000
  0
LINE
  8
0
 62
     7
  6
CONTINUOUS
 10
2.887107
 20
6.711277
 30
0.000000
 11
2.909995
 21
6.741794
 31
0.000000
  0
LINE
  8
0
 62
     7
  6
CONTINUOUS
 10
2.864219
 20
6.703647
 30
0.000000
 11
2.887107
 21
6.711277
 31
0.000000
  0
LINE
  8
0
 62
     7
  6
CONTINUOUS
 10
2.841330
 20
6.680759
 30
0.000000
 11
2.864219
 21
6.703647
 31
0.000000
  0
LINE
  8
0
 62
     7
  6
CONTINUOUS
 10
2.841330
 20
6.634983
 30
0.000000
 11
2.841330
 21
6.680759
 31
0.000000
  0
LINE
  8
0
 62
     7
  6
CONTINUOUS
 10
2.848960
 20
6.627353
 30
0.000000
 11
2.841330
 21
6.634983
 31
0.000000
  0
LINE
  8
0
 62
     7
  6
CONTINUOUS
 10
2.826072
 20
6.535800
 30
0.000000
 11
2.848960
 21
6.627353
 31
0.000000
  0
LINE
  8
0
 62
    12
  6
CONTINUOUS
 10
2.826072
 20
6.528171
 30
0.000000
 11
2.826072
 21
6.535800
 31
0.000000
  0
LINE
  8
0
 62
     7
  6
CONTINUOUS
 10
2.833701
 20
6.528171
 30
0.000000
 11
2.826072
 21
6.528171
 31
0.000000
  0
LINE
  8
0
 62
     7
  6
CONTINUOUS
 10
2.833701
 20
6.528171
 30
0.000000
 11
2.880240
 21
6.549533
 31
0.000000
  0
LINE
  8
0
 62
     7
  6
CONTINUOUS
 10
2.880240
 20
6.549533
 30
0.000000
 11
2.962027
 21
6.591037
 31
0.000000
  0
LINE
  8
0
 62
     7
  6
CONTINUOUS
 10
2.962027
 20
6.591037
 30
0.000000
 11
2.993918
 21
6.612094
 31
0.000000
  0
LINE
  8
0
 62
     7
  6
CONTINUOUS
 10
2.993918
 20
6.612094
 30
0.000000
 11
3.016806
 21
6.642612
 31
0.000000
  0
LINE
  8
0
 62
     7
  6
CONTINUOUS
 10
3.016806
 20
6.642612
 30
0.000000
 11
3.016806
 21
6.665500
 31
0.000000
  0
LINE
  8
0
 62
     7
  6
CONTINUOUS
 10
3.016806
 20
6.665500
 30
0.000000
 11
3.009177
 21
6.673130
 31
0.000000
  0
LINE
  8
0
 62
     7
  6
CONTINUOUS
 10
3.154136
 20
6.589206
 30
0.000000
 11
3.177787
 21
6.602939
 31
0.000000
  0
LINE
  8
0
 62
     7
  6
CONTINUOUS
 10
3.177787
 20
6.602939
 30
0.000000
 11
3.199912
 21
6.612094
 31
0.000000
  0
LINE
  8
0
 62
     7
  6
CONTINUOUS
 10
3.199912
 20
6.612094
 30
0.000000
 11
3.207541
 21
6.604465
 31
0.000000
  0
LINE
  8
0
 62
     7
  6
CONTINUOUS
 10
3.207541
 20
6.604465
 30
0.000000
 11
3.215171
 21
6.604465
 31
0.000000
  0
LINE
  8
0
 62
     7
  6
CONTINUOUS
 10
3.215171
 20
6.604465
 30
0.000000
 11
3.222800
 21
6.612094
 31
0.000000
  0
LINE
  8
0
 62
     7
  6
CONTINUOUS
 10
3.222800
 20
6.612094
 30
0.000000
 11
3.222800
 21
6.619724
 31
0.000000
  0
LINE
  8
0
 62
     7
  6
CONTINUOUS
 10
3.222800
 20
6.619724
 30
0.000000
 11
3.225493
 21
6.641939
 31
0.000000
  0
LINE
  8
0
 62
     7
  6
CONTINUOUS
 10
3.225493
 20
6.641939
 30
0.000000
 11
3.245688
 21
6.688388
 31
0.000000
  0
LINE
  8
0
 62
     7
  6
CONTINUOUS
 10
3.245688
 20
6.688388
 30
0.000000
 11
3.260947
 21
6.703647
 31
0.000000
  0
LINE
  8
0
 62
     7
  6
CONTINUOUS
 10
3.260947
 20
6.703647
 30
0.000000
 11
3.321395
 21
6.714211
 31
0.000000
  0
LINE
  8
0
 62
     7
  6
CONTINUOUS
 10
3.321395
 20
6.714211
 30
0.000000
 11
3.329612
 21
6.718906
 31
0.000000
  0
LINE
  8
0
 62
     7
  6
CONTINUOUS
 10
3.329612
 20
6.718906
 30
0.000000
 11
3.405906
 21
6.711277
 31
0.000000
  0
LINE
  8
0
 62
     7
  6
CONTINUOUS
 10
3.428794
 20
6.673130
 30
0.000000
 11
3.428794
 21
6.711277
 31
0.000000
  0
LINE
  8
0
 62
     7
  6
CONTINUOUS
 10
3.405906
 20
6.650241
 30
0.000000
 11
3.428794
 21
6.673130
 31
0.000000
  0
LINE
  8
0
 62
     7
  6
CONTINUOUS
 10
3.398276
 20
6.650241
 30
0.000000
 11
3.405906
 21
6.650241
 31
0.000000
  0
LINE
  8
0
 62
     7
  6
CONTINUOUS
 10
3.390647
 20
6.642612
 30
0.000000
 11
3.398276
 21
6.650241
 31
0.000000
  0
LINE
  8
0
 62
     7
  6
CONTINUOUS
 10
3.390647
 20
6.634983
 30
0.000000
 11
3.390647
 21
6.642612
 31
0.000000
  0
LINE
  8
0
 62
     7
  6
CONTINUOUS
 10
3.360129
 20
6.604465
 30
0.000000
 11
3.390647
 21
6.634983
 31
0.000000
  0
LINE
  8
0
 62
     7
  6
CONTINUOUS
 10
3.337914
 20
6.601772
 30
0.000000
 11
3.360129
 21
6.604465
 31
0.000000
  0
LINE
  8
0
 62
     7
  6
CONTINUOUS
 10
3.321982
 20
6.596836
 30
0.000000
 11
3.337914
 21
6.601772
 31
0.000000
  0
LINE
  8
0
 62
     7
  6
CONTINUOUS
 10
3.314353
 20
6.604465
 30
0.000000
 11
3.321982
 21
6.596836
 31
0.000000
  0
LINE
  8
0
 62
     7
  6
CONTINUOUS
 10
3.306723
 20
6.604465
 30
0.000000
 11
3.314353
 21
6.604465
 31
0.000000
  0
LINE
  8
0
 62
     7
  6
CONTINUOUS
 10
3.299094
 20
6.596836
 30
0.000000
 11
3.306723
 21
6.604465
 31
0.000000
  0
LINE
  8
0
 62
     7
  6
CONTINUOUS
 10
3.268576
 20
6.596836
 30
0.000000
 11
3.299094
 21
6.596836
 31
0.000000
  0
LINE
  8
0
 62
     7
  6
CONTINUOUS
 10
3.230429
 20
6.612094
 30
0.000000
 11
3.268576
 21
6.596836
 31
0.000000
  0
LINE
  8
0
 62
     7
  6
CONTINUOUS
 10
3.230429
 20
6.612094
 30
0.000000
 11
3.222800
 21
6.612094
 31
0.000000
  0
LINE
  8
0
 62
     7
  6
CONTINUOUS
 10
3.437186
 20
6.735691
 30
0.000000
 11
3.292991
 21
6.767734
 31
0.000000
  0
LINE
  8
0
 62
     7
  6
CONTINUOUS
 10
3.443290
 20
6.732639
 30
0.000000
 11
3.437186
 21
6.735691
 31
0.000000
  0
LINE
  8
0
 62
     7
  6
CONTINUOUS
 10
3.488655
 20
6.701886
 30
0.000000
 11
3.443290
 21
6.732639
 31
0.000000
  0
LINE
  8
0
 62
     7
  6
CONTINUOUS
 10
3.505088
 20
6.688388
 30
0.000000
 11
3.488655
 21
6.701886
 31
0.000000
  0
LINE
  8
0
 62
     7
  6
CONTINUOUS
 10
3.292991
 20
6.767734
 30
0.000000
 11
3.268576
 21
6.779941
 31
0.000000
  0
LINE
  8
0
 62
     7
  6
CONTINUOUS
 10
3.268576
 20
6.779941
 30
0.000000
 11
3.259186
 21
6.794026
 31
0.000000
  0
LINE
  8
0
 62
     7
  6
CONTINUOUS
 10
3.259186
 20
6.794026
 30
0.000000
 11
3.248740
 21
6.811985
 31
0.000000
  0
LINE
  8
0
 62
     7
  6
CONTINUOUS
 10
3.248740
 20
6.811985
 30
0.000000
 11
3.245688
 21
6.825717
 31
0.000000
  0
LINE
  8
0
 62
     7
  6
CONTINUOUS
 10
3.054953
 20
6.902011
 30
0.000000
 11
3.002311
 21
6.949314
 31
0.000000
  0
LINE
  8
0
 62
     7
  6
CONTINUOUS
 10
3.002311
 20
6.949314
 30
0.000000
 11
2.978659
 21
6.963047
 31
0.000000
  0
LINE
  8
0
 62
     7
  6
CONTINUOUS
 10
2.978659
 20
6.963047
 30
0.000000
 11
2.932883
 21
6.963047
 31
0.000000
  0
LINE
  8
0
 62
     7
  6
CONTINUOUS
 10
2.932883
 20
6.963047
 30
0.000000
 11
2.917624
 21
6.947788
 31
0.000000
  0
LINE
  8
0
 62
     7
  6
CONTINUOUS
 10
2.879477
 20
6.902011
 30
0.000000
 11
2.871848
 21
6.902011
 31
0.000000
  0
LINE
  8
0
 62
     7
  6
CONTINUOUS
 10
2.871848
 20
6.902011
 30
0.000000
 11
2.867423
 21
6.910099
 31
0.000000
  0
LINE
  8
0
 62
     7
  6
CONTINUOUS
 10
2.867423
 20
6.910099
 30
0.000000
 11
2.833701
 21
7.207187
 31
0.000000
  0
LINE
  8
0
 62
     7
  6
CONTINUOUS
 10
2.833701
 20
7.207187
 30
0.000000
 11
2.833701
 21
7.283481
 31
0.000000
  0
LINE
  8
0
 62
     7
  6
CONTINUOUS
 10
2.833701
 20
7.283481
 30
0.000000
 11
2.837786
 21
7.291347
 31
0.000000
  0
LINE
  8
0
 62
     7
  6
CONTINUOUS
 10
2.837786
 20
7.291347
 30
0.000000
 11
2.844875
 21
7.397686
 31
0.000000
  0
LINE
  8
0
 62
     7
  6
CONTINUOUS
 10
2.844875
 20
7.397686
 30
0.000000
 11
2.866911
 21
7.534578
 31
0.000000
  0
LINE
  8
0
 62
     7
  6
CONTINUOUS
 10
2.866911
 20
7.534578
 30
0.000000
 11
2.871848
 21
7.542881
 31
0.000000
  0
LINE
  8
0
 62
     7
  6
CONTINUOUS
 10
2.217209
 20
6.758914
 30
0.000000
 11
2.136492
 21
6.821316
 31
0.000000
  0
LINE
  8
0
 62
     7
  6
CONTINUOUS
 10
2.086020
 20
6.863864
 30
0.000000
 11
2.136492
 21
6.821316
 31
0.000000
  0
LINE
  8
0
 62
     7
  6
CONTINUOUS
 10
2.086020
 20
6.863864
 30
0.000000
 11
2.086020
 21
6.879123
 31
0.000000
  0
LINE
  8
0
 62
     7
  6
CONTINUOUS
 10
2.086020
 20
6.879123
 30
0.000000
 11
2.093650
 21
6.886753
 31
0.000000
  0
LINE
  8
0
 62
     7
  6
CONTINUOUS
 10
2.093650
 20
6.886753
 30
0.000000
 11
2.070762
 21
6.909641
 31
0.000000
  0
LINE
  8
0
 62
     7
  6
CONTINUOUS
 10
2.070762
 20
6.909641
 30
0.000000
 11
2.063132
 21
6.909641
 31
0.000000
  0
LINE
  8
0
 62
     7
  6
CONTINUOUS
 10
2.063132
 20
6.909641
 30
0.000000
 11
2.047873
 21
6.924900
 31
0.000000
  0
LINE
  8
0
 62
     7
  6
CONTINUOUS
 10
2.063132
 20
6.902011
 30
0.000000
 11
2.063132
 21
6.909641
 31
0.000000
  0
LINE
  8
0
 62
     7
  6
CONTINUOUS
 10
2.065825
 20
6.879796
 30
0.000000
 11
2.063132
 21
6.902011
 31
0.000000
  0
LINE
  8
0
 62
     7
  6
CONTINUOUS
 10
2.078391
 20
6.856235
 30
0.000000
 11
2.065825
 21
6.879796
 31
0.000000
  0
LINE
  8
0
 62
    12
  6
CONTINUOUS
 10
2.078391
 20
6.856235
 30
0.000000
 11
2.086020
 21
6.863864
 31
0.000000
  0
LINE
  8
0
 62
     7
  6
CONTINUOUS
 10
2.080680
 20
6.841739
 30
0.000000
 11
2.078391
 21
6.856235
 31
0.000000
  0
LINE
  8
0
 62
     7
  6
CONTINUOUS
 10
2.115012
 20
6.756290
 30
0.000000
 11
2.080680
 21
6.841739
 31
0.000000
  0
LINE
  8
0
 62
     7
  6
CONTINUOUS
 10
2.118064
 20
6.750186
 30
0.000000
 11
2.115012
 21
6.756290
 31
0.000000
  0
LINE
  8
0
 62
     7
  6
CONTINUOUS
 10
2.133557
 20
6.712450
 30
0.000000
 11
2.118064
 21
6.750186
 31
0.000000
  0
LINE
  8
0
 62
     7
  6
CONTINUOUS
 10
2.145295
 20
6.694844
 30
0.000000
 11
2.133557
 21
6.712450
 31
0.000000
  0
LINE
  8
0
 62
     7
  6
CONTINUOUS
 10
2.225180
 20
6.582950
 30
0.000000
 11
2.145295
 21
6.694844
 31
0.000000
  0
LINE
  8
0
 62
     7
  6
CONTINUOUS
 10
2.246238
 20
6.558689
 30
0.000000
 11
2.225180
 21
6.582950
 31
0.000000
  0
LINE
  8
0
 62
     7
  6
CONTINUOUS
 10
2.246238
 20
6.551059
 30
0.000000
 11
2.246238
 21
6.558689
 31
0.000000
  0
LINE
  8
0
 62
    12
  6
CONTINUOUS
 10
2.246238
 20
6.551059
 30
0.000000
 11
2.238608
 21
6.551059
 31
0.000000
  0
LINE
  8
0
 62
     7
  6
CONTINUOUS
 10
2.200461
 20
6.535800
 30
0.000000
 11
2.238608
 21
6.551059
 31
0.000000
  0
LINE
  8
0
 62
     7
  6
CONTINUOUS
 10
2.200461
 20
6.535800
 30
0.000000
 11
2.185202
 21
6.535800
 31
0.000000
  0
LINE
  8
0
 62
     7
  6
CONTINUOUS
 10
2.185202
 20
6.535800
 30
0.000000
 11
1.948691
 21
6.520542
 31
0.000000
  0
LINE
  8
0
 62
     7
  6
CONTINUOUS
 10
1.948691
 20
6.520542
 30
0.000000
 11
1.940651
 21
6.524885
 31
0.000000
  0
LINE
  8
0
 62
     7
  6
CONTINUOUS
 10
1.940651
 20
6.524885
 30
0.000000
 11
1.888067
 21
6.531458
 31
0.000000
  0
LINE
  8
0
 62
     7
  6
CONTINUOUS
 10
1.888067
 20
6.531458
 30
0.000000
 11
1.841880
 21
6.543430
 31
0.000000
  0
LINE
  8
0
 62
     7
  6
CONTINUOUS
 10
1.841880
 20
6.543430
 30
0.000000
 11
1.796103
 21
6.543430
 31
0.000000
  0
LINE
  8
0
 62
     7
  6
CONTINUOUS
 10
1.796103
 20
6.543430
 30
0.000000
 11
1.780845
 21
6.528171
 31
0.000000
  0
LINE
  8
0
 62
     7
  6
CONTINUOUS
 10
1.780845
 20
6.528171
 30
0.000000
 11
1.741172
 21
6.437381
 31
0.000000
  0
LINE
  8
0
 62
     7
  6
CONTINUOUS
 10
1.741172
 20
6.437381
 30
0.000000
 11
1.664573
 21
6.315921
 31
0.000000
  0
LINE
  8
0
 62
     7
  6
CONTINUOUS
 10
1.664573
 20
6.315921
 30
0.000000
 11
1.630017
 21
6.267598
 31
0.000000
  0
LINE
  8
0
 62
     7
  6
CONTINUOUS
 10
1.630017
 20
6.267598
 30
0.000000
 11
1.567221
 21
6.192478
 31
0.000000
  0
LINE
  8
0
 62
     7
  6
CONTINUOUS
 10
1.567221
 20
6.192478
 30
0.000000
 11
1.582480
 21
6.177219
 31
0.000000
  0
LINE
  8
0
 62
     7
  6
CONTINUOUS
 10
1.582480
 20
6.177219
 30
0.000000
 11
1.597739
 21
6.177219
 31
0.000000
  0
LINE
  8
0
 62
     7
  6
CONTINUOUS
 10
1.597739
 20
6.177219
 30
0.000000
 11
1.627494
 21
6.194004
 31
0.000000
  0
LINE
  8
0
 62
     7
  6
CONTINUOUS
 10
1.627494
 20
6.194004
 30
0.000000
 11
1.651908
 21
6.206211
 31
0.000000
  0
LINE
  8
0
 62
     7
  6
CONTINUOUS
 10
1.651908
 20
6.206211
 30
0.000000
 11
1.705924
 21
6.244052
 31
0.000000
  0
LINE
  8
0
 62
     7
  6
CONTINUOUS
 10
1.705924
 20
6.244052
 30
0.000000
 11
1.826621
 21
6.360324
 31
0.000000
  0
LINE
  8
0
 62
     7
  6
CONTINUOUS
 10
1.834250
 20
6.360324
 30
0.000000
 11
1.826621
 21
6.360324
 31
0.000000
  0
LINE
  8
0
 62
     7
  6
CONTINUOUS
 10
1.834250
 20
6.352695
 30
0.000000
 11
1.834250
 21
6.367954
 31
0.000000
  0
LINE
  8
0
 62
     7
  6
CONTINUOUS
 10
1.834250
 20
6.367954
 30
0.000000
 11
1.878196
 21
6.422733
 31
0.000000
  0
LINE
  8
0
 62
     7
  6
CONTINUOUS
 10
1.878196
 20
6.422733
 30
0.000000
 11
1.880027
 21
6.428989
 31
0.000000
  0
LINE
  8
0
 62
     7
  6
CONTINUOUS
 10
1.880027
 20
6.428989
 30
0.000000
 11
1.895285
 21
6.444248
 31
0.000000
  0
LINE
  8
0
 62
     7
  6
CONTINUOUS
 10
1.895285
 20
6.444248
 30
0.000000
 11
1.941062
 21
6.444248
 31
0.000000
  0
LINE
  8
0
 62
     7
  6
CONTINUOUS
 10
1.941062
 20
6.444248
 30
0.000000
 11
1.949004
 21
6.440058
 31
0.000000
  0
LINE
  8
0
 62
     7
  6
CONTINUOUS
 10
1.949004
 20
6.440058
 30
0.000000
 11
2.023954
 21
6.430432
 31
0.000000
  0
LINE
  8
0
 62
     7
  6
CONTINUOUS
 10
2.023954
 20
6.430432
 30
0.000000
 11
2.040244
 21
6.421360
 31
0.000000
  0
LINE
  8
0
 62
     7
  6
CONTINUOUS
 10
2.040244
 20
6.421360
 30
0.000000
 11
2.051688
 21
6.417545
 31
0.000000
  0
LINE
  8
0
 62
     7
  6
CONTINUOUS
 10
2.055503
 20
6.421360
 30
0.000000
 11
2.192832
 21
6.528171
 31
0.000000
  0
LINE
  8
0
 62
     7
  6
CONTINUOUS
 10
2.192832
 20
6.528171
 30
0.000000
 11
2.200461
 21
6.535800
 31
0.000000
  0
LINE
  8
0
 62
     7
  6
CONTINUOUS
 10
2.246238
 20
6.551059
 30
0.000000
 11
2.297783
 21
6.488535
 31
0.000000
  0
LINE
  8
0
 62
     7
  6
CONTINUOUS
 10
2.297783
 20
6.488535
 30
0.000000
 11
2.330161
 21
6.436618
 31
0.000000
  0
LINE
  8
0
 62
     7
  6
CONTINUOUS
 10
2.330161
 20
6.436618
 30
0.000000
 11
2.337790
 21
6.436618
 31
0.000000
  0
LINE
  8
0
 62
     7
  6
CONTINUOUS
 10
2.337790
 20
6.436618
 30
0.000000
 11
2.375937
 21
6.474765
 31
0.000000
  0
LINE
  8
0
 62
     7
  6
CONTINUOUS
 10
2.375937
 20
6.474765
 30
0.000000
 11
2.375937
 21
6.505283
 31
0.000000
  0
LINE
  8
0
 62
    12
  6
CONTINUOUS
 10
2.375937
 20
6.505283
 30
0.000000
 11
2.383567
 21
6.512912
 31
0.000000
  0
LINE
  8
0
 62
    12
  6
CONTINUOUS
 10
2.383567
 20
6.512912
 30
0.000000
 11
2.383567
 21
6.528171
 31
0.000000
  0
LINE
  8
0
 62
     7
  6
CONTINUOUS
 10
2.383567
 20
6.528171
 30
0.000000
 11
2.368308
 21
6.551059
 31
0.000000
  0
LINE
  8
0
 62
     7
  6
CONTINUOUS
 10
2.391196
 20
6.528171
 30
0.000000
 11
2.383567
 21
6.528171
 31
0.000000
  0
LINE
  8
0
 62
     7
  6
CONTINUOUS
 10
2.407629
 20
6.514673
 30
0.000000
 11
2.391196
 21
6.528171
 31
0.000000
  0
LINE
  8
0
 62
     7
  6
CONTINUOUS
 10
2.445117
 20
6.500746
 30
0.000000
 11
2.407629
 21
6.514673
 31
0.000000
  0
LINE
  8
0
 62
     7
  6
CONTINUOUS
 10
2.482233
 20
6.494560
 30
0.000000
 11
2.445117
 21
6.500746
 31
0.000000
  0
LINE
  8
0
 62
     7
  6
CONTINUOUS
 10
2.530051
 20
6.477817
 30
0.000000
 11
2.482233
 21
6.494560
 31
0.000000
  0
LINE
  8
0
 62
     7
  6
CONTINUOUS
 10
2.583457
 20
6.447299
 30
0.000000
 11
2.530051
 21
6.477817
 31
0.000000
  0
LINE
  8
0
 62
     7
  6
CONTINUOUS
 10
2.597190
 20
6.444248
 30
0.000000
 11
2.583457
 21
6.447299
 31
0.000000
  0
LINE
  8
0
 62
     7
  6
CONTINUOUS
 10
2.597190
 20
6.444248
 30
0.000000
 11
2.604819
 21
6.451877
 31
0.000000
  0
LINE
  8
0
 62
     7
  6
CONTINUOUS
 10
2.604819
 20
6.451877
 30
0.000000
 11
2.604819
 21
6.482395
 31
0.000000
  0
LINE
  8
0
 62
     7
  6
CONTINUOUS
 10
2.604819
 20
6.482395
 30
0.000000
 11
2.594097
 21
6.527656
 31
0.000000
  0
LINE
  8
0
 62
     7
  6
CONTINUOUS
 10
2.594097
 20
6.527656
 30
0.000000
 11
2.586509
 21
6.549533
 31
0.000000
  0
LINE
  8
0
 62
     7
  6
CONTINUOUS
 10
2.586509
 20
6.549533
 30
0.000000
 11
2.574302
 21
6.573947
 31
0.000000
  0
LINE
  8
0
 62
     7
  6
CONTINUOUS
 10
2.574302
 20
6.573947
 30
0.000000
 11
2.519407
 21
6.617863
 31
0.000000
  0
LINE
  8
0
 62
     7
  6
CONTINUOUS
 10
2.519407
 20
6.617863
 30
0.000000
 11
2.474356
 21
6.648715
 31
0.000000
  0
LINE
  8
0
 62
     7
  6
CONTINUOUS
 10
2.474356
 20
6.648715
 30
0.000000
 11
2.468253
 21
6.651767
 31
0.000000
  0
LINE
  8
0
 62
     7
  6
CONTINUOUS
 10
2.468253
 20
6.651767
 30
0.000000
 11
2.315665
 21
6.713565
 31
0.000000
  0
LINE
  8
0
 62
     7
  6
CONTINUOUS
 10
2.315665
 20
6.713565
 30
0.000000
 11
2.269889
 21
6.728824
 31
0.000000
  0
LINE
  8
0
 62
     7
  6
CONTINUOUS
 10
2.269889
 20
6.728824
 30
0.000000
 11
2.222176
 21
6.755292
 31
0.000000
  0
LINE
  8
0
 62
     7
  6
CONTINUOUS
 10
2.222176
 20
6.755292
 30
0.000000
 11
2.217209
 21
6.758914
 31
0.000000
  0
LINE
  8
0
 62
     7
  6
CONTINUOUS
 10
2.248114
 20
6.613658
 30
0.000000
 11
2.160788
 21
6.733402
 31
0.000000
  0
LINE
  8
0
 62
     7
  6
CONTINUOUS
 10
2.368308
 20
6.467136
 30
0.000000
 11
2.248114
 21
6.613658
 31
0.000000
  0
LINE
  8
0
 62
    12
  6
CONTINUOUS
 10
2.368308
 20
6.497653
 30
0.000000
 11
2.360678
 21
6.505283
 31
0.000000
  0
LINE
  8
0
 62
     7
  6
CONTINUOUS
 10
2.375937
 20
6.497653
 30
0.000000
 11
2.368308
 21
6.497653
 31
0.000000
  0
LINE
  8
0
 62
     7
  6
CONTINUOUS
 10
2.505637
 20
6.306919
 30
0.000000
 11
2.543784
 21
6.345066
 31
0.000000
  0
LINE
  8
0
 62
     7
  6
CONTINUOUS
 10
2.505637
 20
6.268772
 30
0.000000
 11
2.505637
 21
6.306919
 31
0.000000
  0
LINE
  8
0
 62
     7
  6
CONTINUOUS
 10
2.513266
 20
6.245883
 30
0.000000
 11
2.505637
 21
6.268772
 31
0.000000
  0
LINE
  8
0
 62
     7
  6
CONTINUOUS
 10
2.559043
 20
6.200107
 30
0.000000
 11
2.513266
 21
6.245883
 31
0.000000
  0
LINE
  8
0
 62
     7
  6
CONTINUOUS
 10
2.566672
 20
6.200107
 30
0.000000
 11
2.559043
 21
6.200107
 31
0.000000
  0
LINE
  8
0
 62
     7
  6
CONTINUOUS
 10
2.581931
 20
6.177219
 30
0.000000
 11
2.566672
 21
6.200107
 31
0.000000
  0
LINE
  8
0
 62
     7
  6
CONTINUOUS
 10
2.589560
 20
6.181034
 30
0.000000
 11
2.581931
 21
6.177219
 31
0.000000
  0
LINE
  8
0
 62
     7
  6
CONTINUOUS
 10
2.597953
 20
6.178745
 30
0.000000
 11
2.589560
 21
6.181034
 31
0.000000
  0
LINE
  8
0
 62
     7
  6
CONTINUOUS
 10
2.604056
 20
6.175693
 30
0.000000
 11
2.597953
 21
6.178745
 31
0.000000
  0
LINE
  8
0
 62
     7
  6
CONTINUOUS
 10
2.635337
 20
6.161960
 30
0.000000
 11
2.604056
 21
6.175693
 31
0.000000
  0
LINE
  8
0
 62
     7
  6
CONTINUOUS
 10
2.642966
 20
6.169590
 30
0.000000
 11
2.635337
 21
6.161960
 31
0.000000
  0
LINE
  8
0
 62
     7
  6
CONTINUOUS
 10
2.681113
 20
6.161960
 30
0.000000
 11
2.642966
 21
6.169590
 31
0.000000
  0
LINE
  8
0
 62
     7
  6
CONTINUOUS
 10
2.681113
 20
6.161960
 30
0.000000
 11
2.689505
 21
6.168064
 31
0.000000
  0
LINE
  8
0
 62
     7
  6
CONTINUOUS
 10
2.689505
 20
6.168064
 30
0.000000
 11
2.696372
 21
6.169590
 31
0.000000
  0
LINE
  8
0
 62
     7
  6
CONTINUOUS
 10
2.696372
 20
6.169590
 30
0.000000
 11
2.719260
 21
6.192478
 31
0.000000
  0
LINE
  8
0
 62
     7
  6
CONTINUOUS
 10
2.719260
 20
6.192478
 30
0.000000
 11
2.760107
 21
6.256330
 31
0.000000
  0
LINE
  8
0
 62
     7
  6
CONTINUOUS
 10
2.760107
 20
6.256330
 30
0.000000
 11
2.772666
 21
6.284030
 31
0.000000
  0
LINE
  8
0
 62
     7
  6
CONTINUOUS
 10
2.772666
 20
6.284030
 30
0.000000
 11
2.772666
 21
6.322177
 31
0.000000
  0
LINE
  8
0
 62
     7
  6
CONTINUOUS
 10
2.772666
 20
6.322177
 30
0.000000
 11
2.758933
 21
6.345829
 31
0.000000
  0
LINE
  8
0
 62
     7
  6
CONTINUOUS
 10
2.758933
 20
6.345829
 30
0.000000
 11
2.757407
 21
6.352695
 31
0.000000
  0
LINE
  8
0
 62
     7
  6
CONTINUOUS
 10
2.757407
 20
6.352695
 30
0.000000
 11
2.742148
 21
6.367954
 31
0.000000
  0
LINE
  8
0
 62
     7
  6
CONTINUOUS
 10
2.742148
 20
6.367954
 30
0.000000
 11
2.719260
 21
6.375583
 31
0.000000
  0
LINE
  8
0
 62
     7
  6
CONTINUOUS
 10
2.719260
 20
6.375583
 30
0.000000
 11
2.704001
 21
6.375583
 31
0.000000
  0
LINE
  8
0
 62
     7
  6
CONTINUOUS
 10
2.704001
 20
6.375583
 30
0.000000
 11
2.695699
 21
6.370646
 31
0.000000
  0
LINE
  8
0
 62
     7
  6
CONTINUOUS
 10
2.695699
 20
6.370646
 30
0.000000
 11
2.673484
 21
6.367954
 31
0.000000
  0
LINE
  8
0
 62
     7
  6
CONTINUOUS
 10
2.673484
 20
6.367954
 30
0.000000
 11
2.635337
 21
6.367954
 31
0.000000
  0
LINE
  8
0
 62
     7
  6
CONTINUOUS
 10
2.628470
 20
6.366428
 30
0.000000
 11
2.635337
 21
6.367954
 31
0.000000
  0
LINE
  8
0
 62
     7
  6
CONTINUOUS
 10
2.543784
 20
6.345066
 30
0.000000
 11
2.628470
 21
6.366428
 31
0.000000
  0
LINE
  8
0
 62
    12
  6
CONTINUOUS
 10
2.543784
 20
6.299289
 30
0.000000
 11
2.589932
 21
6.287380
 31
0.000000
  0
LINE
  8
0
 62
    12
  6
CONTINUOUS
 10
2.589932
 20
6.287380
 30
0.000000
 11
2.681113
 21
6.276401
 31
0.000000
  0
LINE
  8
0
 62
    12
  6
CONTINUOUS
 10
2.681113
 20
6.276401
 30
0.000000
 11
2.720023
 21
6.289371
 31
0.000000
  0
LINE
  8
0
 62
    12
  6
CONTINUOUS
 10
2.720023
 20
6.289371
 30
0.000000
 11
2.734519
 21
6.291660
 31
0.000000
  0
LINE
  8
0
 62
     7
  6
CONTINUOUS
 10
2.658225
 20
6.383213
 30
0.000000
 11
2.654410
 21
6.367954
 31
0.000000
  0
LINE
  8
0
 62
     7
  6
CONTINUOUS
 10
2.658225
 20
6.383213
 30
0.000000
 11
2.742148
 21
6.444248
 31
0.000000
  0
LINE
  8
0
 62
     7
  6
CONTINUOUS
 10
2.742148
 20
6.444248
 30
0.000000
 11
2.742148
 21
6.451877
 31
0.000000
  0
LINE
  8
0
 62
     7
  6
CONTINUOUS
 10
2.742148
 20
6.451877
 30
0.000000
 11
2.732230
 21
6.481632
 31
0.000000
  0
LINE
  8
0
 62
     7
  6
CONTINUOUS
 10
2.732230
 20
6.481632
 30
0.000000
 11
2.709800
 21
6.534427
 31
0.000000
  0
LINE
  8
0
 62
     7
  6
CONTINUOUS
 10
2.709800
 20
6.534427
 30
0.000000
 11
2.688742
 21
6.566318
 31
0.000000
  0
LINE
  8
0
 62
     7
  6
CONTINUOUS
 10
2.688742
 20
6.566318
 30
0.000000
 11
2.635337
 21
6.619724
 31
0.000000
  0
LINE
  8
0
 62
     7
  6
CONTINUOUS
 10
2.635337
 20
6.619724
 30
0.000000
 11
2.519722
 21
6.686628
 31
0.000000
  0
LINE
  8
0
 62
     7
  6
CONTINUOUS
 10
2.519722
 20
6.686628
 30
0.000000
 11
2.308036
 21
6.773838
 31
0.000000
  0
LINE
  8
0
 62
     7
  6
CONTINUOUS
 10
2.308036
 20
6.773838
 30
0.000000
 11
2.093650
 21
6.886753
 31
0.000000
  0
LINE
  8
0
 62
     7
  6
CONTINUOUS
 10
2.131797
 20
6.818088
 30
0.000000
 11
2.131278
 21
6.825960
 31
0.000000
  0
LINE
  8
0
 62
     7
  6
CONTINUOUS
 10
2.134489
 20
6.795873
 30
0.000000
 11
2.131797
 21
6.818088
 31
0.000000
  0
LINE
  8
0
 62
     7
  6
CONTINUOUS
 10
2.160788
 20
6.733402
 30
0.000000
 11
2.134489
 21
6.795873
 31
0.000000
  0
LINE
  8
0
 62
     7
  6
CONTINUOUS
 10
2.047873
 20
6.413730
 30
0.000000
 11
2.055503
 21
6.421360
 31
0.000000
  0
LINE
  8
0
 62
     7
  6
CONTINUOUS
 10
2.023109
 20
6.384776
 30
0.000000
 11
2.047873
 21
6.413730
 31
0.000000
  0
LINE
  8
0
 62
     7
  6
CONTINUOUS
 10
1.969819
 20
6.315722
 30
0.000000
 11
2.023109
 21
6.384776
 31
0.000000
  0
LINE
  8
0
 62
     7
  6
CONTINUOUS
 10
1.941062
 20
6.276401
 30
0.000000
 11
1.969819
 21
6.315722
 31
0.000000
  0
LINE
  8
0
 62
     7
  6
CONTINUOUS
 10
1.941062
 20
6.276401
 30
0.000000
 11
1.933432
 21
6.276401
 31
0.000000
  0
LINE
  8
0
 62
     7
  6
CONTINUOUS
 10
1.933432
 20
6.276401
 30
0.000000
 11
1.886040
 21
6.320292
 31
0.000000
  0
LINE
  8
0
 62
     7
  6
CONTINUOUS
 10
1.886040
 20
6.320292
 30
0.000000
 11
1.834250
 21
6.352695
 31
0.000000
  0
LINE
  8
0
 62
     7
  6
CONTINUOUS
 10
1.941062
 20
6.268772
 30
0.000000
 11
1.941062
 21
6.276401
 31
0.000000
  0
LINE
  8
0
 62
     7
  6
CONTINUOUS
 10
1.923514
 20
6.216129
 30
0.000000
 11
1.941062
 21
6.268772
 31
0.000000
  0
LINE
  8
0
 62
     7
  6
CONTINUOUS
 10
1.877738
 20
6.078800
 30
0.000000
 11
1.923514
 21
6.216129
 31
0.000000
  0
LINE
  8
0
 62
     7
  6
CONTINUOUS
 10
1.857138
 20
6.032260
 30
0.000000
 11
1.877738
 21
6.078800
 31
0.000000
  0
LINE
  8
0
 62
     7
  6
CONTINUOUS
 10
1.857138
 20
6.017002
 30
0.000000
 11
1.857138
 21
6.032260
 31
0.000000
  0
LINE
  8
0
 62
     7
  6
CONTINUOUS
 10
1.864768
 20
6.009372
 30
0.000000
 11
1.857138
 21
6.017002
 31
0.000000
  0
LINE
  8
0
 62
     7
  6
CONTINUOUS
 10
1.895285
 20
6.001743
 30
0.000000
 11
1.864768
 21
6.009372
 31
0.000000
  0
LINE
  8
0
 62
     7
  6
CONTINUOUS
 10
1.925803
 20
5.971225
 30
0.000000
 11
1.895285
 21
6.001743
 31
0.000000
  0
LINE
  8
0
 62
     7
  6
CONTINUOUS
 10
1.925803
 20
5.940708
 30
0.000000
 11
1.925803
 21
5.971225
 31
0.000000
  0
LINE
  8
0
 62
     7
  6
CONTINUOUS
 10
1.919699
 20
5.932315
 30
0.000000
 11
1.925803
 21
5.940708
 31
0.000000
  0
LINE
  8
0
 62
     7
  6
CONTINUOUS
 10
1.916648
 20
5.926212
 30
0.000000
 11
1.919699
 21
5.932315
 31
0.000000
  0
LINE
  8
0
 62
     7
  6
CONTINUOUS
 10
1.902915
 20
5.894931
 30
0.000000
 11
1.916648
 21
5.926212
 31
0.000000
  0
LINE
  8
0
 62
     7
  6
CONTINUOUS
 10
1.826621
 20
5.818637
 30
0.000000
 11
1.902915
 21
5.894931
 31
0.000000
  0
LINE
  8
0
 62
     7
  6
CONTINUOUS
 10
1.765586
 20
5.780490
 30
0.000000
 11
1.826621
 21
5.818637
 31
0.000000
  0
LINE
  8
0
 62
     7
  6
CONTINUOUS
 10
1.727439
 20
5.734714
 30
0.000000
 11
1.765586
 21
5.780490
 31
0.000000
  0
LINE
  8
0
 62
     7
  6
CONTINUOUS
 10
1.696921
 20
5.658420
 30
0.000000
 11
1.727439
 21
5.734714
 31
0.000000
  0
LINE
  8
0
 62
     7
  6
CONTINUOUS
 10
1.696921
 20
5.643161
 30
0.000000
 11
1.696921
 21
5.658420
 31
0.000000
  0
LINE
  8
0
 62
     7
  6
CONTINUOUS
 10
1.708234
 20
5.626324
 30
0.000000
 11
1.696921
 21
5.643161
 31
0.000000
  0
LINE
  8
0
 62
     7
  6
CONTINUOUS
 10
1.716285
 20
5.597133
 30
0.000000
 11
1.708234
 21
5.626324
 31
0.000000
  0
LINE
  8
0
 62
     7
  6
CONTINUOUS
 10
1.719809
 20
5.498203
 30
0.000000
 11
1.716285
 21
5.597133
 31
0.000000
  0
LINE
  8
0
 62
     7
  6
CONTINUOUS
 10
1.712180
 20
5.490573
 30
0.000000
 11
1.719809
 21
5.498203
 31
0.000000
  0
LINE
  8
0
 62
     7
  6
CONTINUOUS
 10
1.712180
 20
5.475315
 30
0.000000
 11
1.712180
 21
5.490573
 31
0.000000
  0
LINE
  8
0
 62
    12
  6
CONTINUOUS
 10
1.712180
 20
5.444797
 30
0.000000
 11
1.712180
 21
5.475315
 31
0.000000
  0
LINE
  8
0
 62
     7
  6
CONTINUOUS
 10
1.712180
 20
5.437168
 30
0.000000
 11
1.712180
 21
5.444797
 31
0.000000
  0
LINE
  8
0
 62
     7
  6
CONTINUOUS
 10
1.712180
 20
5.437168
 30
0.000000
 11
1.704551
 21
5.437168
 31
0.000000
  0
LINE
  8
0
 62
     7
  6
CONTINUOUS
 10
1.689292
 20
5.429538
 30
0.000000
 11
1.704551
 21
5.437168
 31
0.000000
  0
LINE
  8
0
 62
     7
  6
CONTINUOUS
 10
1.658774
 20
5.429538
 30
0.000000
 11
1.689292
 21
5.429538
 31
0.000000
  0
LINE
  8
0
 62
     7
  6
CONTINUOUS
 10
1.589347
 20
5.450901
 30
0.000000
 11
1.658774
 21
5.429538
 31
0.000000
  0
LINE
  8
0
 62
     7
  6
CONTINUOUS
 10
1.567221
 20
5.460056
 30
0.000000
 11
1.589347
 21
5.450901
 31
0.000000
  0
LINE
  8
0
 62
     7
  6
CONTINUOUS
 10
1.536704
 20
5.490573
 30
0.000000
 11
1.567221
 21
5.460056
 31
0.000000
  0
LINE
  8
0
 62
     7
  6
CONTINUOUS
 10
1.536704
 20
5.528720
 30
0.000000
 11
1.536704
 21
5.490573
 31
0.000000
  0
LINE
  8
0
 62
     7
  6
CONTINUOUS
 10
1.574851
 20
5.566867
 30
0.000000
 11
1.536704
 21
5.528720
 31
0.000000
  0
LINE
  8
0
 62
     7
  6
CONTINUOUS
 10
1.680899
 20
5.644687
 30
0.000000
 11
1.574851
 21
5.566867
 31
0.000000
  0
LINE
  8
0
 62
     7
  6
CONTINUOUS
 10
1.689292
 20
5.650791
 30
0.000000
 11
1.680899
 21
5.644687
 31
0.000000
  0
LINE
  8
0
 62
     7
  6
CONTINUOUS
 10
1.696921
 20
5.650791
 30
0.000000
 11
1.689292
 21
5.650791
 31
0.000000
  0
LINE
  8
0
 62
     7
  6
CONTINUOUS
 10
1.649581
 20
5.538226
 30
0.000000
 11
1.689292
 21
5.574497
 31
0.000000
  0
LINE
  8
0
 62
     7
  6
CONTINUOUS
 10
1.596976
 20
5.515750
 30
0.000000
 11
1.649581
 21
5.538226
 31
0.000000
  0
LINE
  8
0
 62
     7
  6
CONTINUOUS
 10
1.582480
 20
5.513462
 30
0.000000
 11
1.596976
 21
5.515750
 31
0.000000
  0
LINE
  8
0
 62
     7
  6
CONTINUOUS
 10
1.737088
 20
5.417645
 30
0.000000
 11
1.712180
 21
5.437168
 31
0.000000
  0
LINE
  8
0
 62
     7
  6
CONTINUOUS
 10
1.788684
 20
5.394969
 30
0.000000
 11
1.737088
 21
5.417645
 31
0.000000
  0
LINE
  8
0
 62
     7
  6
CONTINUOUS
 10
1.910544
 20
5.391391
 30
0.000000
 11
1.788684
 21
5.394969
 31
0.000000
  0
LINE
  8
0
 62
     7
  6
CONTINUOUS
 10
1.910544
 20
5.391391
 30
0.000000
 11
1.926977
 21
5.404889
 31
0.000000
  0
LINE
  8
0
 62
     7
  6
CONTINUOUS
 10
1.926977
 20
5.404889
 30
0.000000
 11
1.941825
 21
5.411991
 31
0.000000
  0
LINE
  8
0
 62
     7
  6
CONTINUOUS
 10
1.941825
 20
5.411991
 30
0.000000
 11
1.956321
 21
5.414279
 31
0.000000
  0
LINE
  8
0
 62
     7
  6
CONTINUOUS
 10
1.963950
 20
5.414279
 30
0.000000
 11
1.956321
 21
5.414279
 31
0.000000
  0
LINE
  8
0
 62
     7
  6
CONTINUOUS
 10
1.963950
 20
5.414279
 30
0.000000
 11
1.963950
 21
5.421909
 31
0.000000
  0
LINE
  8
0
 62
     7
  6
CONTINUOUS
 10
1.963950
 20
5.421909
 30
0.000000
 11
1.971579
 21
5.429538
 31
0.000000
  0
LINE
  8
0
 62
     7
  6
CONTINUOUS
 10
1.971579
 20
5.429538
 30
0.000000
 11
1.979209
 21
5.429538
 31
0.000000
  0
LINE
  8
0
 62
     7
  6
CONTINUOUS
 10
1.979209
 20
5.429538
 30
0.000000
 11
2.002097
 21
5.444797
 31
0.000000
  0
LINE
  8
0
 62
     7
  6
CONTINUOUS
 10
2.002097
 20
5.444797
 30
0.000000
 11
2.041770
 21
5.505069
 31
0.000000
  0
LINE
  8
0
 62
     7
  6
CONTINUOUS
 10
2.041770
 20
5.505069
 30
0.000000
 11
2.046347
 21
5.514225
 31
0.000000
  0
LINE
  8
0
 62
     7
  6
CONTINUOUS
 10
2.046347
 20
5.514225
 30
0.000000
 11
2.147055
 21
5.681308
 31
0.000000
  0
LINE
  8
0
 62
     7
  6
CONTINUOUS
 10
2.147055
 20
5.681308
 30
0.000000
 11
2.177573
 21
5.711826
 31
0.000000
  0
LINE
  8
0
 62
     7
  6
CONTINUOUS
 10
2.177573
 20
5.711826
 30
0.000000
 11
2.202040
 21
5.723138
 31
0.000000
  0
LINE
  8
0
 62
     7
  6
CONTINUOUS
 10
2.202040
 20
5.723138
 30
0.000000
 11
2.254454
 21
5.739409
 31
0.000000
  0
LINE
  8
0
 62
     7
  6
CONTINUOUS
 10
2.254454
 20
5.739409
 30
0.000000
 11
2.307273
 21
5.749973
 31
0.000000
  0
LINE
  8
0
 62
     7
  6
CONTINUOUS
 10
2.322532
 20
5.749973
 30
0.000000
 11
2.307273
 21
5.749973
 31
0.000000
  0
LINE
  8
0
 62
     7
  6
CONTINUOUS
 10
2.368308
 20
5.742343
 30
0.000000
 11
2.322532
 21
5.749973
 31
0.000000
  0
LINE
  8
0
 62
     7
  6
CONTINUOUS
 10
2.383567
 20
5.727085
 30
0.000000
 11
2.368308
 21
5.742343
 31
0.000000
  0
LINE
  8
0
 62
     7
  6
CONTINUOUS
 10
2.391196
 20
5.704196
 30
0.000000
 11
2.383567
 21
5.727085
 31
0.000000
  0
LINE
  8
0
 62
     7
  6
CONTINUOUS
 10
2.391196
 20
5.688938
 30
0.000000
 11
2.391196
 21
5.704196
 31
0.000000
  0
LINE
  8
0
 62
     7
  6
CONTINUOUS
 10
2.360678
 20
5.643161
 30
0.000000
 11
2.391196
 21
5.688938
 31
0.000000
  0
LINE
  8
0
 62
     7
  6
CONTINUOUS
 10
2.360678
 20
5.643161
 30
0.000000
 11
2.314902
 21
5.681308
 31
0.000000
  0
LINE
  8
0
 62
     7
  6
CONTINUOUS
 10
2.314902
 20
5.681308
 30
0.000000
 11
2.314902
 21
5.749973
 31
0.000000
  0
LINE
  8
0
 62
     7
  6
CONTINUOUS
 10
2.307273
 20
5.650791
 30
0.000000
 11
2.314902
 21
5.681308
 31
0.000000
  0
LINE
  8
0
 62
     7
  6
CONTINUOUS
 10
2.299643
 20
5.643161
 30
0.000000
 11
2.307273
 21
5.650791
 31
0.000000
  0
LINE
  8
0
 62
     7
  6
CONTINUOUS
 10
2.284385
 20
5.643161
 30
0.000000
 11
2.299643
 21
5.643161
 31
0.000000
  0
LINE
  8
0
 62
     7
  6
CONTINUOUS
 10
2.269126
 20
5.658420
 30
0.000000
 11
2.284385
 21
5.643161
 31
0.000000
  0
LINE
  8
0
 62
     7
  6
CONTINUOUS
 10
2.261496
 20
5.650791
 30
0.000000
 11
2.269126
 21
5.658420
 31
0.000000
  0
LINE
  8
0
 62
     7
  6
CONTINUOUS
 10
2.261496
 20
5.635532
 30
0.000000
 11
2.261496
 21
5.650791
 31
0.000000
  0
LINE
  8
0
 62
     7
  6
CONTINUOUS
 10
2.230979
 20
5.605014
 30
0.000000
 11
2.261496
 21
5.635532
 31
0.000000
  0
LINE
  8
0
 62
     7
  6
CONTINUOUS
 10
2.223349
 20
5.605014
 30
0.000000
 11
2.230979
 21
5.605014
 31
0.000000
  0
LINE
  8
0
 62
     7
  6
CONTINUOUS
 10
2.215720
 20
5.612644
 30
0.000000
 11
2.223349
 21
5.605014
 31
0.000000
  0
LINE
  8
0
 62
     7
  6
CONTINUOUS
 10
2.215720
 20
5.612644
 30
0.000000
 11
2.135489
 21
5.660435
 31
0.000000
  0
LINE
  8
0
 62
     7
  6
CONTINUOUS
 10
2.185202
 20
5.582126
 30
0.000000
 11
2.126055
 21
5.644545
 31
0.000000
  0
LINE
  8
0
 62
     7
  6
CONTINUOUS
 10
2.192832
 20
5.574497
 30
0.000000
 11
2.185202
 21
5.582126
 31
0.000000
  0
LINE
  8
0
 62
     7
  6
CONTINUOUS
 10
2.192832
 20
5.566867
 30
0.000000
 11
2.192832
 21
5.574497
 31
0.000000
  0
LINE
  8
0
 62
     7
  6
CONTINUOUS
 10
2.177573
 20
5.551609
 30
0.000000
 11
2.192832
 21
5.566867
 31
0.000000
  0
LINE
  8
0
 62
     7
  6
CONTINUOUS
 10
2.162314
 20
5.551609
 30
0.000000
 11
2.177573
 21
5.551609
 31
0.000000
  0
LINE
  8
0
 62
     7
  6
CONTINUOUS
 10
2.139426
 20
5.574497
 30
0.000000
 11
2.162314
 21
5.551609
 31
0.000000
  0
LINE
  8
0
 62
     7
  6
CONTINUOUS
 10
2.131797
 20
5.566867
 30
0.000000
 11
2.139426
 21
5.574497
 31
0.000000
  0
LINE
  8
0
 62
     7
  6
CONTINUOUS
 10
2.131797
 20
5.528720
 30
0.000000
 11
2.131797
 21
5.566867
 31
0.000000
  0
LINE
  8
0
 62
     7
  6
CONTINUOUS
 10
2.137900
 20
5.520328
 30
0.000000
 11
2.131797
 21
5.528720
 31
0.000000
  0
LINE
  8
0
 62
     7
  6
CONTINUOUS
 10
2.139426
 20
5.513462
 30
0.000000
 11
2.137900
 21
5.520328
 31
0.000000
  0
LINE
  8
0
 62
     7
  6
CONTINUOUS
 10
2.139426
 20
5.498203
 30
0.000000
 11
2.139426
 21
5.513462
 31
0.000000
  0
LINE
  8
0
 62
     7
  6
CONTINUOUS
 10
2.154685
 20
5.482944
 30
0.000000
 11
2.139426
 21
5.498203
 31
0.000000
  0
LINE
  8
0
 62
     7
  6
CONTINUOUS
 10
2.154685
 20
5.482944
 30
0.000000
 11
2.178946
 21
5.504001
 31
0.000000
  0
LINE
  8
0
 62
     7
  6
CONTINUOUS
 10
2.178946
 20
5.504001
 30
0.000000
 11
2.360678
 21
5.643161
 31
0.000000
  0
LINE
  8
0
 62
     7
  6
CONTINUOUS
 10
2.444602
 20
5.666049
 30
0.000000
 11
2.459861
 21
5.688938
 31
0.000000
  0
LINE
  8
0
 62
     7
  6
CONTINUOUS
 10
2.459861
 20
5.688938
 30
0.000000
 11
2.459861
 21
5.734714
 31
0.000000
  0
LINE
  8
0
 62
     7
  6
CONTINUOUS
 10
2.459861
 20
5.734714
 30
0.000000
 11
2.443076
 21
5.756839
 31
0.000000
  0
LINE
  8
0
 62
     7
  6
CONTINUOUS
 10
2.443076
 20
5.756839
 30
0.000000
 11
2.438498
 21
5.765995
 31
0.000000
  0
LINE
  8
0
 62
     7
  6
CONTINUOUS
 10
2.438498
 20
5.765995
 30
0.000000
 11
2.414084
 21
5.795749
 31
0.000000
  0
LINE
  8
0
 62
     7
  6
CONTINUOUS
 10
2.383567
 20
5.524906
 30
0.000000
 11
2.566672
 21
5.620273
 31
0.000000
  0
LINE
  8
0
 62
     7
  6
CONTINUOUS
 10
2.345420
 20
5.505832
 30
0.000000
 11
2.383567
 21
5.524906
 31
0.000000
  0
LINE
  8
0
 62
     7
  6
CONTINUOUS
 10
2.328987
 20
5.492334
 30
0.000000
 11
2.345420
 21
5.505832
 31
0.000000
  0
LINE
  8
0
 62
     7
  6
CONTINUOUS
 10
2.299643
 20
5.475315
 30
0.000000
 11
2.328987
 21
5.492334
 31
0.000000
  0
LINE
  8
0
 62
     7
  6
CONTINUOUS
 10
2.238608
 20
5.414279
 30
0.000000
 11
2.299643
 21
5.475315
 31
0.000000
  0
LINE
  8
0
 62
     7
  6
CONTINUOUS
 10
2.236848
 20
5.407824
 30
0.000000
 11
2.238608
 21
5.414279
 31
0.000000
  0
LINE
  8
0
 62
     7
  6
CONTINUOUS
 10
2.202292
 20
5.359500
 30
0.000000
 11
2.236848
 21
5.407824
 31
0.000000
  0
LINE
  8
0
 62
     7
  6
CONTINUOUS
 10
2.192832
 20
5.337986
 30
0.000000
 11
2.202292
 21
5.359500
 31
0.000000
  0
LINE
  8
0
 62
     7
  6
CONTINUOUS
 10
2.154685
 20
5.299839
 30
0.000000
 11
2.192832
 21
5.337986
 31
0.000000
  0
LINE
  8
0
 62
     7
  6
CONTINUOUS
 10
2.147818
 20
5.298313
 30
0.000000
 11
2.154685
 21
5.299839
 31
0.000000
  0
LINE
  8
0
 62
     7
  6
CONTINUOUS
 10
2.138663
 20
5.293735
 30
0.000000
 11
2.147818
 21
5.298313
 31
0.000000
  0
LINE
  8
0
 62
     7
  6
CONTINUOUS
 10
2.116538
 20
5.276950
 30
0.000000
 11
2.138663
 21
5.293735
 31
0.000000
  0
LINE
  8
0
 62
     7
  6
CONTINUOUS
 10
2.009726
 20
5.276950
 30
0.000000
 11
2.116538
 21
5.276950
 31
0.000000
  0
LINE
  8
0
 62
     7
  6
CONTINUOUS
 10
1.993294
 20
5.290449
 30
0.000000
 11
2.009726
 21
5.276950
 31
0.000000
  0
LINE
  8
0
 62
     7
  6
CONTINUOUS
 10
1.986838
 20
5.292209
 30
0.000000
 11
1.993294
 21
5.290449
 31
0.000000
  0
LINE
  8
0
 62
     7
  6
CONTINUOUS
 10
1.986838
 20
5.292209
 30
0.000000
 11
1.979209
 21
5.292209
 31
0.000000
  0
LINE
  8
0
 62
     7
  6
CONTINUOUS
 10
1.979209
 20
5.292209
 30
0.000000
 11
1.979209
 21
5.322727
 31
0.000000
  0
LINE
  8
0
 62
     7
  6
CONTINUOUS
 10
1.979209
 20
5.322727
 30
0.000000
 11
1.986838
 21
5.330356
 31
0.000000
  0
LINE
  8
0
 62
     7
  6
CONTINUOUS
 10
1.986838
 20
5.330356
 30
0.000000
 11
1.986838
 21
5.337986
 31
0.000000
  0
LINE
  8
0
 62
     7
  6
CONTINUOUS
 10
1.986838
 20
5.337986
 30
0.000000
 11
1.963950
 21
5.368503
 31
0.000000
  0
LINE
  8
0
 62
    12
  6
CONTINUOUS
 10
1.963950
 20
5.368503
 30
0.000000
 11
1.927382
 21
5.380079
 31
0.000000
  0
LINE
  8
0
 62
    12
  6
CONTINUOUS
 10
1.927382
 20
5.380079
 30
0.000000
 11
1.910544
 21
5.391391
 31
0.000000
  0
LINE
  8
0
 62
    12
  6
CONTINUOUS
 10
1.963950
 20
5.368503
 30
0.000000
 11
1.971579
 21
5.376132
 31
0.000000
  0
LINE
  8
0
 62
    12
  6
CONTINUOUS
 10
1.971579
 20
5.376132
 30
0.000000
 11
2.002097
 21
5.376132
 31
0.000000
  0
LINE
  8
0
 62
     7
  6
CONTINUOUS
 10
2.017356
 20
5.376132
 30
0.000000
 11
2.002097
 21
5.376132
 31
0.000000
  0
LINE
  8
0
 62
    12
  6
CONTINUOUS
 10
2.032615
 20
5.360874
 30
0.000000
 11
2.017356
 21
5.376132
 31
0.000000
  0
LINE
  8
0
 62
     7
  6
CONTINUOUS
 10
2.032615
 20
5.360874
 30
0.000000
 11
2.047873
 21
5.376132
 31
0.000000
  0
LINE
  8
0
 62
     7
  6
CONTINUOUS
 10
2.047873
 20
5.376132
 30
0.000000
 11
2.047873
 21
5.383762
 31
0.000000
  0
LINE
  8
0
 62
    12
  6
CONTINUOUS
 10
2.047873
 20
5.383762
 30
0.000000
 11
2.040244
 21
5.391391
 31
0.000000
  0
LINE
  8
0
 62
    12
  6
CONTINUOUS
 10
2.040244
 20
5.391391
 30
0.000000
 11
2.025748
 21
5.393680
 31
0.000000
  0
LINE
  8
0
 62
    12
  6
CONTINUOUS
 10
2.025748
 20
5.393680
 30
0.000000
 11
2.017356
 21
5.395206
 31
0.000000
  0
LINE
  8
0
 62
    12
  6
CONTINUOUS
 10
2.017356
 20
5.395206
 30
0.000000
 11
2.009726
 21
5.391391
 31
0.000000
  0
LINE
  8
0
 62
     7
  6
CONTINUOUS
 10
2.009726
 20
5.391391
 30
0.000000
 11
1.994468
 21
5.414279
 31
0.000000
  0
LINE
  8
0
 62
     7
  6
CONTINUOUS
 10
1.994468
 20
5.414279
 30
0.000000
 11
1.986838
 21
5.414279
 31
0.000000
  0
LINE
  8
0
 62
     7
  6
CONTINUOUS
 10
1.986838
 20
5.414279
 30
0.000000
 11
1.986838
 21
5.421909
 31
0.000000
  0
LINE
  8
0
 62
    12
  6
CONTINUOUS
 10
1.986838
 20
5.421909
 30
0.000000
 11
1.979209
 21
5.429538
 31
0.000000
  0
LINE
  8
0
 62
     7
  6
CONTINUOUS
 10
2.040244
 20
5.429538
 30
0.000000
 11
2.010356
 21
5.456349
 31
0.000000
  0
LINE
  8
0
 62
     7
  6
CONTINUOUS
 10
2.047873
 20
5.421909
 30
0.000000
 11
2.040244
 21
5.429538
 31
0.000000
  0
LINE
  8
0
 62
    12
  6
CONTINUOUS
 10
2.055503
 20
5.421909
 30
0.000000
 11
2.047873
 21
5.421909
 31
0.000000
  0
LINE
  8
0
 62
     7
  6
CONTINUOUS
 10
2.070762
 20
5.421909
 30
0.000000
 11
2.055503
 21
5.421909
 31
0.000000
  0
LINE
  8
0
 62
     7
  6
CONTINUOUS
 10
2.070762
 20
5.421909
 30
0.000000
 11
2.078391
 21
5.429538
 31
0.000000
  0
LINE
  8
0
 62
    12
  6
CONTINUOUS
 10
2.078391
 20
5.429538
 30
0.000000
 11
2.078391
 21
5.467685
 31
0.000000
  0
LINE
  8
0
 62
    12
  6
CONTINUOUS
 10
2.078391
 20
5.467685
 30
0.000000
 11
2.070762
 21
5.475315
 31
0.000000
  0
LINE
  8
0
 62
     7
  6
CONTINUOUS
 10
2.070762
 20
5.475315
 30
0.000000
 11
2.044058
 21
5.509647
 31
0.000000
  0
LINE
  8
0
 62
     7
  6
CONTINUOUS
 10
2.097083
 20
5.512699
 30
0.000000
 11
2.052564
 21
5.525370
 31
0.000000
  0
LINE
  8
0
 62
     7
  6
CONTINUOUS
 10
2.093650
 20
5.513462
 30
0.000000
 11
2.100516
 21
5.511936
 31
0.000000
  0
LINE
  8
0
 62
     7
  6
CONTINUOUS
 10
2.100516
 20
5.511936
 30
0.000000
 11
2.124167
 21
5.502017
 31
0.000000
  0
LINE
  8
0
 62
     7
  6
CONTINUOUS
 10
2.124167
 20
5.502017
 30
0.000000
 11
2.131797
 21
5.505832
 31
0.000000
  0
LINE
  8
0
 62
     7
  6
CONTINUOUS
 10
2.139426
 20
5.505832
 30
0.000000
 11
2.131797
 21
5.505832
 31
0.000000
  0
LINE
  8
0
 62
     7
  6
CONTINUOUS
 10
2.093650
 20
5.414279
 30
0.000000
 11
2.154685
 21
5.482944
 31
0.000000
  0
LINE
  8
0
 62
     7
  6
CONTINUOUS
 10
2.093650
 20
5.414279
 30
0.000000
 11
2.086020
 21
5.414279
 31
0.000000
  0
LINE
  8
0
 62
     7
  6
CONTINUOUS
 10
2.086020
 20
5.406650
 30
0.000000
 11
2.086020
 21
5.421909
 31
0.000000
  0
LINE
  8
0
 62
     7
  6
CONTINUOUS
 10
2.086020
 20
5.421909
 30
0.000000
 11
2.078391
 21
5.429538
 31
0.000000
  0
LINE
  8
0
 62
    12
  6
CONTINUOUS
 10
2.070762
 20
5.391391
 30
0.000000
 11
2.086020
 21
5.406650
 31
0.000000
  0
LINE
  8
0
 62
    12
  6
CONTINUOUS
 10
2.055503
 20
5.391391
 30
0.000000
 11
2.070762
 21
5.391391
 31
0.000000
  0
LINE
  8
0
 62
     7
  6
CONTINUOUS
 10
2.055503
 20
5.391391
 30
0.000000
 11
2.047873
 21
5.399021
 31
0.000000
  0
LINE
  8
0
 62
     7
  6
CONTINUOUS
 10
2.047873
 20
5.399021
 30
0.000000
 11
2.047873
 21
5.421909
 31
0.000000
  0
LINE
  8
0
 62
     7
  6
CONTINUOUS
 10
2.047873
 20
5.383762
 30
0.000000
 11
2.055503
 21
5.391391
 31
0.000000
  0
LINE
  8
0
 62
     7
  6
CONTINUOUS
 10
1.994468
 20
5.337986
 30
0.000000
 11
2.032615
 21
5.360874
 31
0.000000
  0
LINE
  8
0
 62
     7
  6
CONTINUOUS
 10
1.994468
 20
5.337986
 30
0.000000
 11
1.986838
 21
5.337986
 31
0.000000
  0
LINE
  8
0
 62
     7
  6
CONTINUOUS
 10
2.009726
 20
5.376132
 30
0.000000
 11
2.009726
 21
5.383762
 31
0.000000
  0
LINE
  8
0
 62
    12
  6
CONTINUOUS
 10
2.009726
 20
5.383762
 30
0.000000
 11
2.009726
 21
5.391391
 31
0.000000
  0
LINE
  8
0
 62
     7
  6
CONTINUOUS
 10
2.177573
 20
5.551609
 30
0.000000
 11
2.205007
 21
5.522391
 31
0.000000
  0
LINE
  8
0
 62
     7
  6
CONTINUOUS
 10
2.131797
 20
5.566867
 30
0.000000
 11
2.096701
 21
5.597766
 31
0.000000
  0
LINE
  8
0
 62
    12
  6
CONTINUOUS
 10
2.070762
 20
5.612644
 30
0.000000
 11
2.076865
 21
5.628665
 31
0.000000
  0
LINE
  8
0
 62
    12
  6
CONTINUOUS
 10
2.076865
 20
5.628665
 30
0.000000
 11
2.108908
 21
5.681308
 31
0.000000
  0
LINE
  8
0
 62
    12
  6
CONTINUOUS
 10
2.108908
 20
5.681308
 30
0.000000
 11
2.192832
 21
5.765232
 31
0.000000
  0
LINE
  8
0
 62
    12
  6
CONTINUOUS
 10
2.192832
 20
5.765232
 30
0.000000
 11
2.200461
 21
5.765232
 31
0.000000
  0
LINE
  8
0
 62
     7
  6
CONTINUOUS
 10
1.995230
 20
5.969699
 30
0.000000
 11
2.002097
 21
5.971225
 31
0.000000
  0
LINE
  8
0
 62
     7
  6
CONTINUOUS
 10
1.986838
 20
5.963596
 30
0.000000
 11
1.995230
 21
5.969699
 31
0.000000
  0
LINE
  8
0
 62
     7
  6
CONTINUOUS
 10
1.979209
 20
5.963596
 30
0.000000
 11
1.986838
 21
5.963596
 31
0.000000
  0
LINE
  8
0
 62
     7
  6
CONTINUOUS
 10
1.971579
 20
5.971225
 30
0.000000
 11
1.979209
 21
5.963596
 31
0.000000
  0
LINE
  8
0
 62
     7
  6
CONTINUOUS
 10
1.971579
 20
5.971225
 30
0.000000
 11
1.971579
 21
6.039890
 31
0.000000
  0
LINE
  8
0
 62
     7
  6
CONTINUOUS
 10
1.971579
 20
6.039890
 30
0.000000
 11
1.918174
 21
6.039890
 31
0.000000
  0
LINE
  8
0
 62
     7
  6
CONTINUOUS
 10
1.918174
 20
6.039890
 30
0.000000
 11
1.902915
 21
6.055149
 31
0.000000
  0
LINE
  8
0
 62
     7
  6
CONTINUOUS
 10
1.971579
 20
6.039890
 30
0.000000
 11
1.979972
 21
6.045993
 31
0.000000
  0
LINE
  8
0
 62
     7
  6
CONTINUOUS
 10
1.979972
 20
6.045993
 30
0.000000
 11
2.000481
 21
6.057033
 31
0.000000
  0
LINE
  8
0
 62
     7
  6
CONTINUOUS
 10
2.000481
 20
6.057033
 30
0.000000
 11
2.047873
 21
6.100925
 31
0.000000
  0
LINE
  8
0
 62
     7
  6
CONTINUOUS
 10
2.055503
 20
6.100925
 30
0.000000
 11
2.047873
 21
6.100925
 31
0.000000
  0
LINE
  8
0
 62
     7
  6
CONTINUOUS
 10
2.078391
 20
6.078037
 30
0.000000
 11
2.055503
 21
6.100925
 31
0.000000
  0
LINE
  8
0
 62
     7
  6
CONTINUOUS
 10
2.093650
 20
6.078037
 30
0.000000
 11
2.078391
 21
6.078037
 31
0.000000
  0
LINE
  8
0
 62
     7
  6
CONTINUOUS
 10
2.093650
 20
6.078037
 30
0.000000
 11
2.116538
 21
6.100925
 31
0.000000
  0
LINE
  8
0
 62
     7
  6
CONTINUOUS
 10
2.116538
 20
6.100925
 30
0.000000
 11
2.108908
 21
6.108554
 31
0.000000
  0
LINE
  8
0
 62
     7
  6
CONTINUOUS
 10
2.108908
 20
6.108554
 30
0.000000
 11
2.078391
 21
6.108554
 31
0.000000
  0
LINE
  8
0
 62
    12
  6
CONTINUOUS
 10
2.078391
 20
6.108554
 30
0.000000
 11
2.070762
 21
6.108554
 31
0.000000
  0
LINE
  8
0
 62
     7
  6
CONTINUOUS
 10
2.070762
 20
6.108554
 30
0.000000
 11
2.063132
 21
6.116184
 31
0.000000
  0
LINE
  8
0
 62
     7
  6
CONTINUOUS
 10
2.063132
 20
6.116184
 30
0.000000
 11
2.063132
 21
6.131443
 31
0.000000
  0
LINE
  8
0
 62
     7
  6
CONTINUOUS
 10
2.063132
 20
6.131443
 30
0.000000
 11
2.093650
 21
6.161960
 31
0.000000
  0
LINE
  8
0
 62
     7
  6
CONTINUOUS
 10
2.093650
 20
6.161960
 30
0.000000
 11
2.117712
 21
6.175458
 31
0.000000
  0
LINE
  8
0
 62
     7
  6
CONTINUOUS
 10
2.117712
 20
6.175458
 30
0.000000
 11
2.124167
 21
6.177219
 31
0.000000
  0
LINE
  8
0
 62
     7
  6
CONTINUOUS
 10
2.047873
 20
6.100925
 30
0.000000
 11
2.063132
 21
6.131443
 31
0.000000
  0
LINE
  8
0
 62
     7
  6
CONTINUOUS
 10
2.078391
 20
6.070407
 30
0.000000
 11
2.078391
 21
6.078037
 31
0.000000
  0
LINE
  8
0
 62
     7
  6
CONTINUOUS
 10
2.055503
 20
6.024631
 30
0.000000
 11
2.078391
 21
6.070407
 31
0.000000
  0
LINE
  8
0
 62
     7
  6
CONTINUOUS
 10
2.002097
 20
5.971225
 30
0.000000
 11
2.055503
 21
6.024631
 31
0.000000
  0
LINE
  8
0
 62
     7
  6
CONTINUOUS
 10
1.896048
 20
5.786594
 30
0.000000
 11
1.925803
 21
5.803379
 31
0.000000
  0
LINE
  8
0
 62
     7
  6
CONTINUOUS
 10
1.834250
 20
5.749973
 30
0.000000
 11
1.896048
 21
5.786594
 31
0.000000
  0
LINE
  8
0
 62
     7
  6
CONTINUOUS
 10
1.780845
 20
5.696567
 30
0.000000
 11
1.834250
 21
5.749973
 31
0.000000
  0
LINE
  8
0
 62
     7
  6
CONTINUOUS
 10
1.773215
 20
5.666049
 30
0.000000
 11
1.780845
 21
5.696567
 31
0.000000
  0
LINE
  8
0
 62
     7
  6
CONTINUOUS
 10
2.399499
 20
5.035502
 30
0.000000
 11
2.391196
 21
5.040439
 31
0.000000
  0
LINE
  8
0
 62
     7
  6
CONTINUOUS
 10
2.444602
 20
5.025180
 30
0.000000
 11
2.399499
 21
5.035502
 31
0.000000
  0
LINE
  8
0
 62
     7
  6
CONTINUOUS
 10
2.444602
 20
5.025180
 30
0.000000
 11
2.459098
 21
5.034336
 31
0.000000
  0
LINE
  8
0
 62
     7
  6
CONTINUOUS
 10
2.459098
 20
5.034336
 30
0.000000
 11
2.520485
 21
5.043726
 31
0.000000
  0
LINE
  8
0
 62
     7
  6
CONTINUOUS
 10
2.520485
 20
5.043726
 30
0.000000
 11
2.566157
 21
5.051162
 31
0.000000
  0
LINE
  8
0
 62
     7
  6
CONTINUOUS
 10
2.566157
 20
5.051162
 30
0.000000
 11
2.620841
 21
5.068668
 31
0.000000
  0
LINE
  8
0
 62
     7
  6
CONTINUOUS
 10
2.620841
 20
5.068668
 30
0.000000
 11
2.681113
 21
5.101474
 31
0.000000
  0
LINE
  8
0
 62
     7
  6
CONTINUOUS
 10
2.681113
 20
5.101474
 30
0.000000
 11
2.704001
 21
5.116733
 31
0.000000
  0
LINE
  8
0
 62
     7
  6
CONTINUOUS
 10
2.704001
 20
5.116733
 30
0.000000
 11
2.736045
 21
5.154117
 31
0.000000
  0
LINE
  8
0
 62
     7
  6
CONTINUOUS
 10
2.736045
 20
5.154117
 30
0.000000
 11
2.769731
 21
5.231761
 31
0.000000
  0
LINE
  8
0
 62
     7
  6
CONTINUOUS
 10
2.769731
 20
5.231761
 30
0.000000
 11
2.780295
 21
5.284580
 31
0.000000
  0
ARC
  8
0
 62
     7
  6
CONTINUOUS
 10
2.643806
 20
5.341597
 30
0.000000
 40
0.147920
 50
337.327690
 51
404.240544
  0
LINE
  8
0
 62
    12
  6
CONTINUOUS
 10
2.749778
 20
5.444797
 30
0.000000
 11
2.711631
 21
5.505832
 31
0.000000
  0
LINE
  8
0
 62
     7
  6
CONTINUOUS
 10
2.597190
 20
5.612644
 30
0.000000
 11
2.711631
 21
5.505832
 31
0.000000
  0
LINE
  8
0
 62
     7
  6
CONTINUOUS
 10
2.589560
 20
5.620273
 30
0.000000
 11
2.597190
 21
5.612644
 31
0.000000
  0
LINE
  8
0
 62
     7
  6
CONTINUOUS
 10
2.566672
 20
5.620273
 30
0.000000
 11
2.589560
 21
5.620273
 31
0.000000
  0
LINE
  8
0
 62
     7
  6
CONTINUOUS
 10
2.787925
 20
5.772861
 30
0.000000
 11
2.818442
 21
5.818637
 31
0.000000
  0
LINE
  8
0
 62
     7
  6
CONTINUOUS
 10
2.818442
 20
5.818637
 30
0.000000
 11
2.864219
 21
5.856784
 31
0.000000
  0
LINE
  8
0
 62
     7
  6
CONTINUOUS
 10
2.864219
 20
5.856784
 30
0.000000
 11
2.879477
 21
5.872043
 31
0.000000
  0
LINE
  8
0
 62
     7
  6
CONTINUOUS
 10
2.879477
 20
5.872043
 30
0.000000
 11
2.917624
 21
5.910190
 31
0.000000
  0
LINE
  8
0
 62
     7
  6
CONTINUOUS
 10
2.917624
 20
5.910190
 30
0.000000
 11
2.917624
 21
5.955966
 31
0.000000
  0
LINE
  8
0
 62
     7
  6
CONTINUOUS
 10
2.917624
 20
5.955966
 30
0.000000
 11
2.887107
 21
5.955966
 31
0.000000
  0
LINE
  8
0
 62
     7
  6
CONTINUOUS
 10
2.887107
 20
5.955966
 30
0.000000
 11
2.856589
 21
5.963596
 31
0.000000
  0
LINE
  8
0
 62
     7
  6
CONTINUOUS
 10
2.856589
 20
5.963596
 30
0.000000
 11
2.848960
 21
5.963596
 31
0.000000
  0
LINE
  8
0
 62
     7
  6
CONTINUOUS
 10
2.833701
 20
5.955966
 30
0.000000
 11
2.848960
 21
5.963596
 31
0.000000
  0
LINE
  8
0
 62
     7
  6
CONTINUOUS
 10
2.833701
 20
5.955966
 30
0.000000
 11
2.826072
 21
5.955966
 31
0.000000
  0
LINE
  8
0
 62
     7
  6
CONTINUOUS
 10
2.826072
 20
5.955966
 30
0.000000
 11
2.733146
 21
6.015171
 31
0.000000
  0
LINE
  8
0
 62
     7
  6
CONTINUOUS
 10
2.733146
 20
6.015171
 30
0.000000
 11
2.726889
 21
6.017002
 31
0.000000
  0
LINE
  8
0
 62
     7
  6
CONTINUOUS
 10
2.726889
 20
6.017002
 30
0.000000
 11
2.719260
 21
6.017002
 31
0.000000
  0
LINE
  8
0
 62
     7
  6
CONTINUOUS
 10
2.719260
 20
6.017002
 30
0.000000
 11
2.719260
 21
6.024631
 31
0.000000
  0
LINE
  8
0
 62
     7
  6
CONTINUOUS
 10
2.719260
 20
6.024631
 30
0.000000
 11
2.710105
 21
6.046756
 31
0.000000
  0
LINE
  8
0
 62
     7
  6
CONTINUOUS
 10
2.710105
 20
6.046756
 30
0.000000
 11
2.704001
 21
6.055149
 31
0.000000
  0
LINE
  8
0
 62
     7
  6
CONTINUOUS
 10
2.704001
 20
6.055149
 30
0.000000
 11
2.704001
 21
6.070407
 31
0.000000
  0
LINE
  8
0
 62
     7
  6
CONTINUOUS
 10
2.704001
 20
6.070407
 30
0.000000
 11
2.734519
 21
6.100925
 31
0.000000
  0
LINE
  8
0
 62
     7
  6
CONTINUOUS
 10
2.734519
 20
6.100925
 30
0.000000
 11
2.734519
 21
6.108554
 31
0.000000
  0
LINE
  8
0
 62
     7
  6
CONTINUOUS
 10
2.734519
 20
6.108554
 30
0.000000
 11
2.681113
 21
6.161960
 31
0.000000
  0
LINE
  8
0
 62
     7
  6
CONTINUOUS
 10
2.742148
 20
6.108554
 30
0.000000
 11
2.734519
 21
6.108554
 31
0.000000
  0
LINE
  8
0
 62
     7
  6
CONTINUOUS
 10
2.742148
 20
6.108554
 30
0.000000
 11
2.825485
 21
6.090361
 31
0.000000
  0
LINE
  8
0
 62
     7
  6
CONTINUOUS
 10
2.825485
 20
6.090361
 30
0.000000
 11
2.871848
 21
6.078037
 31
0.000000
  0
LINE
  8
0
 62
     7
  6
CONTINUOUS
 10
2.871848
 20
6.078037
 30
0.000000
 11
2.940512
 21
6.078037
 31
0.000000
  0
LINE
  8
0
 62
     7
  6
CONTINUOUS
 10
2.940512
 20
6.078037
 30
0.000000
 11
2.985773
 21
6.088759
 31
0.000000
  0
LINE
  8
0
 62
     7
  6
CONTINUOUS
 10
2.985773
 20
6.088759
 30
0.000000
 11
2.994681
 21
6.091007
 31
0.000000
  0
LINE
  8
0
 62
     7
  6
CONTINUOUS
 10
2.994681
 20
6.091007
 30
0.000000
 11
3.070212
 21
6.123813
 31
0.000000
  0
LINE
  8
0
 62
     7
  6
CONTINUOUS
 10
3.070212
 20
6.123813
 30
0.000000
 11
3.100730
 21
6.154331
 31
0.000000
  0
LINE
  8
0
 62
     7
  6
CONTINUOUS
 10
3.100730
 20
6.154331
 30
0.000000
 11
3.100730
 21
6.161960
 31
0.000000
  0
LINE
  8
0
 62
     7
  6
CONTINUOUS
 10
3.100730
 20
6.161960
 30
0.000000
 11
3.184653
 21
6.245883
 31
0.000000
  0
LINE
  8
0
 62
     7
  6
CONTINUOUS
 10
3.184653
 20
6.245883
 30
0.000000
 11
3.225148
 21
6.272880
 31
0.000000
  0
LINE
  8
0
 62
     7
  6
CONTINUOUS
 10
3.225148
 20
6.272880
 30
0.000000
 11
3.246361
 21
6.281338
 31
0.000000
  0
LINE
  8
0
 62
     7
  6
CONTINUOUS
 10
3.246361
 20
6.281338
 30
0.000000
 11
3.321982
 21
6.299289
 31
0.000000
  0
LINE
  8
0
 62
     7
  6
CONTINUOUS
 10
3.360129
 20
6.276401
 30
0.000000
 11
3.375388
 21
6.291660
 31
0.000000
  0
LINE
  8
0
 62
     7
  6
CONTINUOUS
 10
3.375388
 20
6.291660
 30
0.000000
 11
3.375388
 21
6.306919
 31
0.000000
  0
LINE
  8
0
 62
     7
  6
CONTINUOUS
 10
3.375388
 20
6.306919
 30
0.000000
 11
3.367759
 21
6.314548
 31
0.000000
  0
LINE
  8
0
 62
     7
  6
CONTINUOUS
 10
3.299767
 20
6.166897
 30
0.000000
 11
3.360129
 21
6.184848
 31
0.000000
  0
LINE
  8
0
 62
     7
  6
CONTINUOUS
 10
3.191520
 20
6.117710
 30
0.000000
 11
3.299767
 21
6.166897
 31
0.000000
  0
LINE
  8
0
 62
     7
  6
CONTINUOUS
 10
3.161765
 20
6.100925
 30
0.000000
 11
3.191520
 21
6.117710
 31
0.000000
  0
LINE
  8
0
 62
     7
  6
CONTINUOUS
 10
3.140403
 20
6.090244
 30
0.000000
 11
3.161765
 21
6.100925
 31
0.000000
  0
LINE
  8
0
 62
     7
  6
CONTINUOUS
 10
3.091727
 20
6.056980
 30
0.000000
 11
3.140403
 21
6.090244
 31
0.000000
  0
LINE
  8
0
 62
     7
  6
CONTINUOUS
 10
3.087197
 20
6.053250
 30
0.000000
 11
3.091727
 21
6.056980
 31
0.000000
  0
LINE
  8
0
 62
     7
  6
CONTINUOUS
 10
3.002721
 20
5.977094
 30
0.000000
 11
3.087197
 21
6.053250
 31
0.000000
  0
LINE
  8
0
 62
     7
  6
CONTINUOUS
 10
2.984849
 20
5.968634
 30
0.000000
 11
3.002721
 21
5.977094
 31
0.000000
  0
LINE
  8
0
 62
     7
  6
CONTINUOUS
 10
2.948657
 20
5.960503
 30
0.000000
 11
2.984849
 21
5.968634
 31
0.000000
  0
LINE
  8
0
 62
     7
  6
CONTINUOUS
 10
2.917624
 20
5.955966
 30
0.000000
 11
2.948657
 21
5.960503
 31
0.000000
  0
LINE
  8
0
 62
     7
  6
CONTINUOUS
 10
2.963401
 20
5.933078
 30
0.000000
 11
2.956982
 21
5.962536
 31
0.000000
  0
LINE
  8
0
 62
     7
  6
CONTINUOUS
 10
2.978659
 20
5.879673
 30
0.000000
 11
2.963401
 21
5.933078
 31
0.000000
  0
LINE
  8
0
 62
     7
  6
CONTINUOUS
 10
2.978659
 20
5.780490
 30
0.000000
 11
2.978659
 21
5.879673
 31
0.000000
  0
LINE
  8
0
 62
     7
  6
CONTINUOUS
 10
2.974470
 20
5.772548
 30
0.000000
 11
2.978659
 21
5.780490
 31
0.000000
  0
LINE
  8
0
 62
     7
  6
CONTINUOUS
 10
2.967591
 20
5.696880
 30
0.000000
 11
2.974470
 21
5.772548
 31
0.000000
  0
LINE
  8
0
 62
     7
  6
CONTINUOUS
 10
2.951076
 20
5.596798
 30
0.000000
 11
2.967591
 21
5.696880
 31
0.000000
  0
LINE
  8
0
 62
     7
  6
CONTINUOUS
 10
2.932883
 20
5.513462
 30
0.000000
 11
2.951076
 21
5.596798
 31
0.000000
  0
LINE
  8
0
 62
     7
  6
CONTINUOUS
 10
2.971030
 20
5.498203
 30
0.000000
 11
3.009177
 21
5.543979
 31
0.000000
  0
LINE
  8
0
 62
     7
  6
CONTINUOUS
 10
3.009177
 20
5.543979
 30
0.000000
 11
3.047324
 21
5.612644
 31
0.000000
  0
LINE
  8
0
 62
     7
  6
CONTINUOUS
 10
3.047324
 20
5.612644
 30
0.000000
 11
3.077842
 21
5.650791
 31
0.000000
  0
LINE
  8
0
 62
     7
  6
CONTINUOUS
 10
3.077842
 20
5.650791
 30
0.000000
 11
3.108359
 21
5.704196
 31
0.000000
  0
LINE
  8
0
 62
     7
  6
CONTINUOUS
 10
3.108359
 20
5.704196
 30
0.000000
 11
3.177024
 21
5.772861
 31
0.000000
  0
LINE
  8
0
 62
     7
  6
CONTINUOUS
 10
3.093100
 20
5.719455
 30
0.000000
 11
3.173972
 21
5.843051
 31
0.000000
  0
LINE
  8
0
 62
     7
  6
CONTINUOUS
 10
3.057242
 20
5.669101
 30
0.000000
 11
3.093100
 21
5.719455
 31
0.000000
  0
LINE
  8
0
 62
     7
  6
CONTINUOUS
 10
2.993918
 20
5.627902
 30
0.000000
 11
3.057242
 21
5.669101
 31
0.000000
  0
LINE
  8
0
 62
     7
  6
CONTINUOUS
 10
3.070212
 20
5.589756
 30
0.000000
 11
3.123618
 21
5.650791
 31
0.000000
  0
LINE
  8
0
 62
     7
  6
CONTINUOUS
 10
3.123618
 20
5.650791
 30
0.000000
 11
3.131247
 21
5.650791
 31
0.000000
  0
LINE
  8
0
 62
     7
  6
CONTINUOUS
 10
3.033826
 20
5.519917
 30
0.000000
 11
3.070212
 21
5.589756
 31
0.000000
  0
LINE
  8
0
 62
     7
  6
CONTINUOUS
 10
2.971030
 20
5.406650
 30
0.000000
 11
3.033826
 21
5.519917
 31
0.000000
  0
LINE
  8
0
 62
     7
  6
CONTINUOUS
 10
3.129416
 20
5.125736
 30
0.000000
 11
3.197623
 21
5.239566
 31
0.000000
  0
LINE
  8
0
 62
     7
  6
CONTINUOUS
 10
3.108359
 20
5.093845
 30
0.000000
 11
3.129416
 21
5.125736
 31
0.000000
  0
LINE
  8
0
 62
     7
  6
CONTINUOUS
 10
3.009177
 20
4.994663
 30
0.000000
 11
3.108359
 21
5.093845
 31
0.000000
  0
LINE
  8
0
 62
     7
  6
CONTINUOUS
 10
3.002721
 20
4.992902
 30
0.000000
 11
3.009177
 21
4.994663
 31
0.000000
  0
LINE
  8
0
 62
     7
  6
CONTINUOUS
 10
2.955771
 20
4.956516
 30
0.000000
 11
3.002721
 21
4.992902
 31
0.000000
  0
LINE
  8
0
 62
     7
  6
CONTINUOUS
 10
2.940512
 20
4.941257
 30
0.000000
 11
2.955771
 21
4.956516
 31
0.000000
  0
LINE
  8
0
 62
     7
  6
CONTINUOUS
 10
2.932120
 20
4.935153
 30
0.000000
 11
2.940512
 21
4.941257
 31
0.000000
  0
LINE
  8
0
 62
     7
  6
CONTINUOUS
 10
2.871848
 20
4.910739
 30
0.000000
 11
2.932120
 21
4.935153
 31
0.000000
  0
LINE
  8
0
 62
     7
  6
CONTINUOUS
 10
2.932120
 20
4.935153
 30
0.000000
 11
2.971030
 21
4.941257
 31
0.000000
  0
LINE
  8
0
 62
     7
  6
CONTINUOUS
 10
2.971030
 20
4.941257
 30
0.000000
 11
2.963401
 21
4.941257
 31
0.000000
  0
LINE
  8
0
 62
     7
  6
CONTINUOUS
 10
2.971030
 20
4.941257
 30
0.000000
 11
3.115989
 21
5.009922
 31
0.000000
  0
LINE
  8
0
 62
     7
  6
CONTINUOUS
 10
3.115989
 20
5.009922
 30
0.000000
 11
3.143073
 21
5.020602
 31
0.000000
  0
LINE
  8
0
 62
     7
  6
CONTINUOUS
 10
3.143073
 20
5.020602
 30
0.000000
 11
3.123618
 21
4.994663
 31
0.000000
  0
LINE
  8
0
 62
     7
  6
CONTINUOUS
 10
3.091340
 20
4.950060
 30
0.000000
 11
3.123618
 21
4.994663
 31
0.000000
  0
LINE
  8
0
 62
     7
  6
CONTINUOUS
 10
2.992392
 20
4.804691
 30
0.000000
 11
3.091340
 21
4.950060
 31
0.000000
  0
LINE
  8
0
 62
     7
  6
CONTINUOUS
 10
2.978659
 20
4.773410
 30
0.000000
 11
2.992392
 21
4.804691
 31
0.000000
  0
LINE
  8
0
 62
     7
  6
CONTINUOUS
 10
2.978659
 20
4.773410
 30
0.000000
 11
2.993918
 21
4.765781
 31
0.000000
  0
LINE
  8
0
 62
     7
  6
CONTINUOUS
 10
2.993918
 20
4.765781
 30
0.000000
 11
3.079583
 21
4.847804
 31
0.000000
  0
LINE
  8
0
 62
     7
  6
CONTINUOUS
 10
3.079583
 20
4.847804
 30
0.000000
 11
3.125181
 21
4.885975
 31
0.000000
  0
LINE
  8
0
 62
     7
  6
CONTINUOUS
 10
3.125181
 20
4.885975
 30
0.000000
 11
3.154136
 21
4.903110
 31
0.000000
  0
LINE
  8
0
 62
     7
  6
CONTINUOUS
 10
3.154136
 20
4.903110
 30
0.000000
 11
3.161765
 21
4.910739
 31
0.000000
  0
LINE
  8
0
 62
     7
  6
CONTINUOUS
 10
3.146506
 20
4.872592
 30
0.000000
 11
3.157950
 21
4.906924
 31
0.000000
  0
LINE
  8
0
 62
     7
  6
CONTINUOUS
 10
3.125907
 20
4.818424
 30
0.000000
 11
3.146506
 21
4.872592
 31
0.000000
  0
LINE
  8
0
 62
     7
  6
CONTINUOUS
 10
3.105425
 20
4.735850
 30
0.000000
 11
3.125907
 21
4.818424
 31
0.000000
  0
LINE
  8
0
 62
     7
  6
CONTINUOUS
 10
3.097331
 20
4.659309
 30
0.000000
 11
3.105425
 21
4.735850
 31
0.000000
  0
LINE
  8
0
 62
     7
  6
CONTINUOUS
 10
3.093100
 20
4.651340
 30
0.000000
 11
3.097331
 21
4.659309
 31
0.000000
  0
LINE
  8
0
 62
     7
  6
CONTINUOUS
 10
3.093100
 20
4.582675
 30
0.000000
 11
3.093100
 21
4.651340
 31
0.000000
  0
LINE
  8
0
 62
     7
  6
CONTINUOUS
 10
3.100730
 20
4.575046
 30
0.000000
 11
3.093100
 21
4.582675
 31
0.000000
  0
LINE
  8
0
 62
     7
  6
CONTINUOUS
 10
3.108359
 20
4.575046
 30
0.000000
 11
3.100730
 21
4.575046
 31
0.000000
  0
LINE
  8
0
 62
     7
  6
CONTINUOUS
 10
3.108359
 20
4.575046
 30
0.000000
 11
3.117963
 21
4.591561
 31
0.000000
  0
LINE
  8
0
 62
     7
  6
CONTINUOUS
 10
3.117963
 20
4.591561
 30
0.000000
 11
3.126904
 21
4.643300
 31
0.000000
  0
LINE
  8
0
 62
     7
  6
CONTINUOUS
 10
3.126904
 20
4.643300
 30
0.000000
 11
3.148032
 21
4.711612
 31
0.000000
  0
LINE
  8
0
 62
     7
  6
CONTINUOUS
 10
3.148032
 20
4.711612
 30
0.000000
 11
3.154136
 21
4.720005
 31
0.000000
  0
LINE
  8
0
 62
     7
  6
CONTINUOUS
 10
3.161765
 20
4.720005
 30
0.000000
 11
3.154136
 21
4.720005
 31
0.000000
  0
LINE
  8
0
 62
     7
  6
CONTINUOUS
 10
3.161765
 20
4.712375
 30
0.000000
 11
3.161765
 21
4.758152
 31
0.000000
  0
LINE
  8
0
 62
     7
  6
CONTINUOUS
 10
3.165955
 20
4.704433
 30
0.000000
 11
3.161765
 21
4.712375
 31
0.000000
  0
LINE
  8
0
 62
     7
  6
CONTINUOUS
 10
3.172834
 20
4.628764
 30
0.000000
 11
3.165955
 21
4.704433
 31
0.000000
  0
LINE
  8
0
 62
     7
  6
CONTINUOUS
 10
3.189348
 20
4.551571
 30
0.000000
 11
3.172834
 21
4.628764
 31
0.000000
  0
LINE
  8
0
 62
     7
  6
CONTINUOUS
 10
3.197623
 20
4.513248
 30
0.000000
 11
3.189348
 21
4.551571
 31
0.000000
  0
LINE
  8
0
 62
     7
  6
CONTINUOUS
 10
3.236533
 20
4.391178
 30
0.000000
 11
3.197623
 21
4.513248
 31
0.000000
  0
LINE
  8
0
 62
     7
  6
CONTINUOUS
 10
3.247214
 20
4.369815
 30
0.000000
 11
3.236533
 21
4.391178
 31
0.000000
  0
LINE
  8
0
 62
     7
  6
CONTINUOUS
 10
3.253318
 20
4.353794
 30
0.000000
 11
3.247214
 21
4.369815
 31
0.000000
  0
LINE
  8
0
 62
     7
  6
CONTINUOUS
 10
3.268576
 20
4.338535
 30
0.000000
 11
3.253318
 21
4.353794
 31
0.000000
  0
LINE
  8
0
 62
     7
  6
CONTINUOUS
 10
3.291465
 20
4.330905
 30
0.000000
 11
3.268576
 21
4.338535
 31
0.000000
  0
LINE
  8
0
 62
     7
  6
CONTINUOUS
 10
3.222800
 20
4.178318
 30
0.000000
 11
3.184653
 21
4.216465
 31
0.000000
  0
LINE
  8
0
 62
     7
  6
CONTINUOUS
 10
3.230429
 20
4.163059
 30
0.000000
 11
3.222800
 21
4.178318
 31
0.000000
  0
LINE
  8
0
 62
     7
  6
CONTINUOUS
 10
3.245688
 20
4.163059
 30
0.000000
 11
3.230429
 21
4.163059
 31
0.000000
  0
LINE
  8
0
 62
     7
  6
CONTINUOUS
 10
3.451682
 20
4.033359
 30
0.000000
 11
3.245688
 21
4.163059
 31
0.000000
  0
LINE
  8
0
 62
     7
  6
CONTINUOUS
 10
3.428794
 20
3.972324
 30
0.000000
 11
3.428794
 21
3.979953
 31
0.000000
  0
LINE
  8
0
 62
     7
  6
CONTINUOUS
 10
3.457450
 20
3.940318
 30
0.000000
 11
3.428794
 21
3.972324
 31
0.000000
  0
LINE
  8
0
 62
     7
  6
CONTINUOUS
 10
3.495932
 20
3.887638
 30
0.000000
 11
3.457450
 21
3.940318
 31
0.000000
  0
LINE
  8
0
 62
     7
  6
CONTINUOUS
 10
3.505088
 20
3.873142
 30
0.000000
 11
3.495932
 21
3.887638
 31
0.000000
  0
LINE
  8
0
 62
     7
  6
CONTINUOUS
 10
3.512717
 20
3.873142
 30
0.000000
 11
3.505088
 21
3.873142
 31
0.000000
  0
LINE
  8
0
 62
     7
  6
CONTINUOUS
 10
3.512717
 20
3.865512
 30
0.000000
 11
3.512717
 21
3.972324
 31
0.000000
  0
LINE
  8
0
 62
     7
  6
CONTINUOUS
 10
3.512717
 20
3.972324
 30
0.000000
 11
3.505088
 21
3.979953
 31
0.000000
  0
LINE
  8
0
 62
     7
  6
CONTINUOUS
 10
3.520346
 20
3.949436
 30
0.000000
 11
3.512717
 21
3.949436
 31
0.000000
  0
LINE
  8
0
 62
     7
  6
CONTINUOUS
 10
3.527976
 20
3.941806
 30
0.000000
 11
3.520346
 21
3.949436
 31
0.000000
  0
LINE
  8
0
 62
     7
  6
CONTINUOUS
 10
3.550864
 20
3.941806
 30
0.000000
 11
3.527976
 21
3.941806
 31
0.000000
  0
LINE
  8
0
 62
     7
  6
CONTINUOUS
 10
3.558493
 20
3.934177
 30
0.000000
 11
3.550864
 21
3.941806
 31
0.000000
  0
LINE
  8
0
 62
     7
  6
CONTINUOUS
 10
3.558493
 20
3.918918
 30
0.000000
 11
3.558493
 21
3.934177
 31
0.000000
  0
LINE
  8
0
 62
     7
  6
CONTINUOUS
 10
3.571992
 20
3.902486
 30
0.000000
 11
3.558493
 21
3.918918
 31
0.000000
  0
LINE
  8
0
 62
     7
  6
CONTINUOUS
 10
3.613425
 20
3.812870
 30
0.000000
 11
3.571992
 21
3.902486
 31
0.000000
  0
LINE
  8
0
 62
     7
  6
CONTINUOUS
 10
3.619529
 20
3.804477
 30
0.000000
 11
3.613425
 21
3.812870
 31
0.000000
  0
LINE
  8
0
 62
     7
  6
CONTINUOUS
 10
3.619529
 20
3.804477
 30
0.000000
 11
3.628684
 21
3.789981
 31
0.000000
  0
LINE
  8
0
 62
     7
  6
CONTINUOUS
 10
3.644177
 20
3.752245
 30
0.000000
 11
3.628684
 21
3.789981
 31
0.000000
  0
LINE
  8
0
 62
     7
  6
CONTINUOUS
 10
3.657676
 20
3.728183
 30
0.000000
 11
3.644177
 21
3.752245
 31
0.000000
  0
LINE
  8
0
 62
     7
  6
CONTINUOUS
 10
3.657676
 20
3.712924
 30
0.000000
 11
3.657676
 21
3.728183
 31
0.000000
  0
LINE
  8
0
 62
     7
  6
CONTINUOUS
 10
3.657676
 20
3.712924
 30
0.000000
 11
3.729033
 21
3.629674
 31
0.000000
  0
LINE
  8
0
 62
     7
  6
CONTINUOUS
 10
3.762961
 20
3.559574
 30
0.000000
 11
3.729033
 21
3.629674
 31
0.000000
  0
LINE
  8
0
 62
     7
  6
CONTINUOUS
 10
3.764487
 20
3.552707
 30
0.000000
 11
3.762961
 21
3.559574
 31
0.000000
  0
LINE
  8
0
 62
     7
  6
CONTINUOUS
 10
3.810263
 20
3.506931
 30
0.000000
 11
3.797293
 21
3.538211
 31
0.000000
  0
LINE
  8
0
 62
     7
  6
CONTINUOUS
 10
3.810263
 20
3.506931
 30
0.000000
 11
3.825522
 21
3.484043
 31
0.000000
  0
LINE
  8
0
 62
     7
  6
CONTINUOUS
 10
3.797293
 20
3.538211
 30
0.000000
 11
3.762726
 21
3.620198
 31
0.000000
  0
LINE
  8
0
 62
     7
  6
CONTINUOUS
 10
3.762726
 20
3.620198
 30
0.000000
 11
3.733970
 21
3.659519
 31
0.000000
  0
LINE
  8
0
 62
     7
  6
CONTINUOUS
 10
3.695823
 20
3.720554
 30
0.000000
 11
3.733970
 21
3.659519
 31
0.000000
  0
LINE
  8
0
 62
     7
  6
CONTINUOUS
 10
3.695823
 20
3.720554
 30
0.000000
 11
3.642417
 21
3.827365
 31
0.000000
  0
LINE
  8
0
 62
     7
  6
CONTINUOUS
 10
3.642417
 20
3.827365
 30
0.000000
 11
3.627158
 21
3.842624
 31
0.000000
  0
LINE
  8
0
 62
     7
  6
CONTINUOUS
 10
3.604270
 20
3.751071
 30
0.000000
 11
3.543235
 21
3.903659
 31
0.000000
  0
LINE
  8
0
 62
     7
  6
CONTINUOUS
 10
3.543235
 20
3.903659
 30
0.000000
 11
3.543235
 21
3.941806
 31
0.000000
  0
LINE
  8
0
 62
     7
  6
CONTINUOUS
 10
3.517654
 20
3.857210
 30
0.000000
 11
3.512717
 21
3.865512
 31
0.000000
  0
LINE
  8
0
 62
     7
  6
CONTINUOUS
 10
3.532671
 20
3.796261
 30
0.000000
 11
3.517654
 21
3.857210
 31
0.000000
  0
LINE
  8
0
 62
     7
  6
CONTINUOUS
 10
3.535605
 20
3.766330
 30
0.000000
 11
3.532671
 21
3.796261
 31
0.000000
  0
LINE
  8
0
 62
     7
  6
CONTINUOUS
 10
3.535605
 20
3.758701
 30
0.000000
 11
3.535605
 21
3.766330
 31
0.000000
  0
LINE
  8
0
 62
     7
  6
CONTINUOUS
 10
3.535605
 20
3.758701
 30
0.000000
 11
3.527976
 21
3.758701
 31
0.000000
  0
LINE
  8
0
 62
     7
  6
CONTINUOUS
 10
3.508609
 20
3.753419
 30
0.000000
 11
3.527976
 21
3.758701
 31
0.000000
  0
LINE
  8
0
 62
     7
  6
CONTINUOUS
 10
3.413535
 20
3.682407
 30
0.000000
 11
3.508609
 21
3.753419
 31
0.000000
  0
LINE
  8
0
 62
     7
  6
CONTINUOUS
 10
3.314353
 20
3.583225
 30
0.000000
 11
3.413535
 21
3.682407
 31
0.000000
  0
LINE
  8
0
 62
     7
  6
CONTINUOUS
 10
3.274445
 20
3.523363
 30
0.000000
 11
3.314353
 21
3.583225
 31
0.000000
  0
LINE
  8
0
 62
     7
  6
CONTINUOUS
 10
3.236298
 20
3.462328
 30
0.000000
 11
3.274445
 21
3.523363
 31
0.000000
  0
LINE
  8
0
 62
     7
  6
CONTINUOUS
 10
3.122092
 20
3.301700
 30
0.000000
 11
3.236298
 21
3.462328
 31
0.000000
  0
LINE
  8
0
 62
     7
  6
CONTINUOUS
 10
3.077842
 20
3.217014
 30
0.000000
 11
3.122092
 21
3.301700
 31
0.000000
  0
LINE
  8
0
 62
     7
  6
CONTINUOUS
 10
3.077842
 20
3.186496
 30
0.000000
 11
3.077842
 21
3.217014
 31
0.000000
  0
LINE
  8
0
 62
     7
  6
CONTINUOUS
 10
3.108359
 20
3.079685
 30
0.000000
 11
3.077842
 21
3.186496
 31
0.000000
  0
LINE
  8
0
 62
     7
  6
CONTINUOUS
 10
3.146506
 20
2.965244
 30
0.000000
 11
3.108359
 21
3.079685
 31
0.000000
  0
LINE
  8
0
 62
     7
  6
CONTINUOUS
 10
3.152610
 20
2.933963
 30
0.000000
 11
3.146506
 21
2.965244
 31
0.000000
  0
LINE
  8
0
 62
     7
  6
CONTINUOUS
 10
3.288772
 20
2.590730
 30
0.000000
 11
3.152610
 21
2.933963
 31
0.000000
  0
LINE
  8
0
 62
     7
  6
CONTINUOUS
 10
3.296160
 20
2.560299
 30
0.000000
 11
3.288772
 21
2.590730
 31
0.000000
  0
LINE
  8
0
 62
     7
  6
CONTINUOUS
 10
3.299094
 20
2.530368
 30
0.000000
 11
3.296160
 21
2.560299
 31
0.000000
  0
LINE
  8
0
 62
     7
  6
CONTINUOUS
 10
3.299094
 20
2.522739
 30
0.000000
 11
3.299094
 21
2.530368
 31
0.000000
  0
LINE
  8
0
 62
     7
  6
CONTINUOUS
 10
3.306723
 20
2.515110
 30
0.000000
 11
3.299094
 21
2.522739
 31
0.000000
  0
LINE
  8
0
 62
     7
  6
CONTINUOUS
 10
3.306723
 20
2.438816
 30
0.000000
 11
3.306723
 21
2.515110
 31
0.000000
  0
LINE
  8
0
 62
     7
  6
CONTINUOUS
 10
3.293225
 20
2.422383
 30
0.000000
 11
3.306723
 21
2.438816
 31
0.000000
  0
LINE
  8
0
 62
     7
  6
CONTINUOUS
 10
3.268576
 20
2.385410
 30
0.000000
 11
3.293225
 21
2.422383
 31
0.000000
  0
LINE
  8
0
 62
     7
  6
CONTINUOUS
 10
3.230429
 20
2.377780
 30
0.000000
 11
3.268576
 21
2.385410
 31
0.000000
  0
LINE
  8
0
 62
     7
  6
CONTINUOUS
 10
3.230429
 20
2.377780
 30
0.000000
 11
3.215171
 21
2.377780
 31
0.000000
  0
LINE
  8
0
 62
     7
  6
CONTINUOUS
 10
3.215171
 20
2.377780
 30
0.000000
 11
3.116240
 21
2.381305
 31
0.000000
  0
LINE
  8
0
 62
     7
  6
CONTINUOUS
 10
3.116240
 20
2.381305
 30
0.000000
 11
2.680741
 21
2.465984
 31
0.000000
  0
LINE
  8
0
 62
     7
  6
CONTINUOUS
 10
2.680741
 20
2.465984
 30
0.000000
 11
2.620450
 21
2.472683
 31
0.000000
  0
LINE
  8
0
 62
     7
  6
CONTINUOUS
 10
2.620450
 20
2.472683
 30
0.000000
 11
2.612449
 21
2.476963
 31
0.000000
  0
LINE
  8
0
 62
     7
  6
CONTINUOUS
 10
2.612449
 20
2.476963
 30
0.000000
 11
2.574302
 21
2.476963
 31
0.000000
  0
LINE
  8
0
 62
     7
  6
CONTINUOUS
 10
2.574302
 20
2.476963
 30
0.000000
 11
2.520133
 21
2.463993
 31
0.000000
  0
LINE
  8
0
 62
     7
  6
CONTINUOUS
 10
2.520133
 20
2.463993
 30
0.000000
 11
2.505637
 21
2.461704
 31
0.000000
  0
LINE
  8
0
 62
     7
  6
CONTINUOUS
 10
2.505637
 20
2.461704
 30
0.000000
 11
2.444602
 21
2.400669
 31
0.000000
  0
LINE
  8
0
 62
     7
  6
CONTINUOUS
 10
2.444602
 20
2.400669
 30
0.000000
 11
2.431104
 21
2.376607
 31
0.000000
  0
LINE
  8
0
 62
     7
  6
CONTINUOUS
 10
2.431104
 20
2.376607
 30
0.000000
 11
2.427817
 21
2.370914
 31
0.000000
  0
LINE
  8
0
 62
     7
  6
CONTINUOUS
 10
2.427817
 20
2.370914
 30
0.000000
 11
2.383567
 21
2.286228
 31
0.000000
  0
LINE
  8
0
 62
     7
  6
CONTINUOUS
 10
2.383567
 20
2.286228
 30
0.000000
 11
2.383567
 21
2.232822
 31
0.000000
  0
LINE
  8
0
 62
     7
  6
CONTINUOUS
 10
2.383567
 20
2.232822
 30
0.000000
 11
2.398825
 21
2.217563
 31
0.000000
  0
LINE
  8
0
 62
     7
  6
CONTINUOUS
 10
2.398825
 20
2.217563
 30
0.000000
 11
2.452231
 21
2.194675
 31
0.000000
  0
LINE
  8
0
 62
     7
  6
CONTINUOUS
 10
2.452231
 20
2.194675
 30
0.000000
 11
2.536155
 21
2.194675
 31
0.000000
  0
LINE
  8
0
 62
     7
  6
CONTINUOUS
 10
2.536155
 20
2.194675
 30
0.000000
 11
2.543784
 21
2.202304
 31
0.000000
  0
LINE
  8
0
 62
     7
  6
CONTINUOUS
 10
2.543784
 20
2.202304
 30
0.000000
 11
2.543784
 21
2.209934
 31
0.000000
  0
LINE
  8
0
 62
     7
  6
CONTINUOUS
 10
2.543784
 20
2.209934
 30
0.000000
 11
2.536155
 21
2.217563
 31
0.000000
  0
LINE
  8
0
 62
     7
  6
CONTINUOUS
 10
2.536155
 20
2.217563
 30
0.000000
 11
2.536155
 21
2.270969
 31
0.000000
  0
LINE
  8
0
 62
     7
  6
CONTINUOUS
 10
2.536155
 20
2.270969
 30
0.000000
 11
2.541495
 21
2.279361
 31
0.000000
  0
LINE
  8
0
 62
     7
  6
CONTINUOUS
 10
2.541495
 20
2.279361
 30
0.000000
 11
2.566672
 21
2.332004
 31
0.000000
  0
LINE
  8
0
 62
     7
  6
CONTINUOUS
 10
2.566672
 20
2.332004
 30
0.000000
 11
2.581931
 21
2.347263
 31
0.000000
  0
LINE
  8
0
 62
     7
  6
CONTINUOUS
 10
2.581931
 20
2.347263
 30
0.000000
 11
2.673484
 21
2.347263
 31
0.000000
  0
LINE
  8
0
 62
     7
  6
CONTINUOUS
 10
2.673484
 20
2.347263
 30
0.000000
 11
2.688742
 21
2.339633
 31
0.000000
  0
LINE
  8
0
 62
     7
  6
CONTINUOUS
 10
2.620078
 20
2.202304
 30
0.000000
 11
2.627707
 21
2.209934
 31
0.000000
  0
LINE
  8
0
 62
    12
  6
CONTINUOUS
 10
2.620078
 20
2.194675
 30
0.000000
 11
2.620078
 21
2.202304
 31
0.000000
  0
LINE
  8
0
 62
     7
  6
CONTINUOUS
 10
2.620078
 20
2.194675
 30
0.000000
 11
2.559043
 21
2.194675
 31
0.000000
  0
LINE
  8
0
 62
     7
  6
CONTINUOUS
 10
2.559043
 20
2.194675
 30
0.000000
 11
2.551413
 21
2.202304
 31
0.000000
  0
LINE
  8
0
 62
     7
  6
CONTINUOUS
 10
2.551413
 20
2.202304
 30
0.000000
 11
2.543784
 21
2.202304
 31
0.000000
  0
LINE
  8
0
 62
     7
  6
CONTINUOUS
 10
2.620078
 20
2.194675
 30
0.000000
 11
2.749778
 21
2.179416
 31
0.000000
  0
LINE
  8
0
 62
     7
  6
CONTINUOUS
 10
2.749778
 20
2.179416
 30
0.000000
 11
3.070212
 21
2.179416
 31
0.000000
  0
LINE
  8
0
 62
     7
  6
CONTINUOUS
 10
3.070212
 20
2.179416
 30
0.000000
 11
3.207084
 21
2.197879
 31
0.000000
  0
LINE
  8
0
 62
     7
  6
CONTINUOUS
 10
3.207084
 20
2.197879
 30
0.000000
 11
3.429381
 21
2.237517
 31
0.000000
  0
LINE
  8
0
 62
     7
  6
CONTINUOUS
 10
3.429381
 20
2.237517
 30
0.000000
 11
3.467456
 21
2.244988
 31
0.000000
  0
LINE
  8
0
 62
     7
  6
CONTINUOUS
 10
3.467456
 20
2.244988
 30
0.000000
 11
3.580619
 21
2.264865
 31
0.000000
  0
LINE
  8
0
 62
     7
  6
CONTINUOUS
 10
3.580619
 20
2.264865
 30
0.000000
 11
3.596640
 21
2.270969
 31
0.000000
  0
LINE
  8
0
 62
     7
  6
CONTINUOUS
 10
3.604270
 20
2.270969
 30
0.000000
 11
3.596640
 21
2.270969
 31
0.000000
  0
LINE
  8
0
 62
     7
  6
CONTINUOUS
 10
3.604270
 20
2.278598
 30
0.000000
 11
3.627158
 21
2.301486
 31
0.000000
  0
LINE
  8
0
 62
     7
  6
CONTINUOUS
 10
3.627158
 20
2.301486
 30
0.000000
 11
3.627158
 21
2.309116
 31
0.000000
  0
LINE
  8
0
 62
     7
  6
CONTINUOUS
 10
3.627158
 20
2.309116
 30
0.000000
 11
3.610373
 21
2.338871
 31
0.000000
  0
LINE
  8
0
 62
     7
  6
CONTINUOUS
 10
3.610373
 20
2.338871
 30
0.000000
 11
3.589011
 21
2.377780
 31
0.000000
  0
LINE
  8
0
 62
     7
  6
CONTINUOUS
 10
3.589011
 20
2.377780
 30
0.000000
 11
3.589011
 21
2.415927
 31
0.000000
  0
LINE
  8
0
 62
     7
  6
CONTINUOUS
 10
3.589011
 20
2.415927
 30
0.000000
 11
3.605796
 21
2.438053
 31
0.000000
  0
LINE
  8
0
 62
     7
  6
CONTINUOUS
 10
3.605796
 20
2.438053
 30
0.000000
 11
3.680564
 21
2.499851
 31
0.000000
  0
LINE
  8
0
 62
     7
  6
CONTINUOUS
 10
3.688193
 20
2.492221
 30
0.000000
 11
3.680564
 21
2.499851
 31
0.000000
  0
LINE
  8
0
 62
     7
  6
CONTINUOUS
 10
3.679038
 20
2.470096
 30
0.000000
 11
3.688193
 21
2.492221
 31
0.000000
  0
LINE
  8
0
 62
     7
  6
CONTINUOUS
 10
3.672934
 20
2.461704
 30
0.000000
 11
3.679038
 21
2.470096
 31
0.000000
  0
LINE
  8
0
 62
     7
  6
CONTINUOUS
 10
3.672934
 20
2.446445
 30
0.000000
 11
3.672934
 21
2.461704
 31
0.000000
  0
LINE
  8
0
 62
     7
  6
CONTINUOUS
 10
3.662612
 20
2.393712
 30
0.000000
 11
3.672934
 21
2.446445
 31
0.000000
  0
LINE
  8
0
 62
     7
  6
CONTINUOUS
 10
3.636313
 20
2.323612
 30
0.000000
 11
3.662612
 21
2.393712
 31
0.000000
  0
LINE
  8
0
 62
     7
  6
CONTINUOUS
 10
3.627158
 20
2.309116
 30
0.000000
 11
3.636313
 21
2.323612
 31
0.000000
  0
LINE
  8
0
 62
     7
  6
CONTINUOUS
 10
3.604270
 20
2.263340
 30
0.000000
 11
3.604270
 21
2.278598
 31
0.000000
  0
LINE
  8
0
 62
     7
  6
CONTINUOUS
 10
3.594352
 20
2.233585
 30
0.000000
 11
3.604270
 21
2.263340
 31
0.000000
  0
LINE
  8
0
 62
     7
  6
CONTINUOUS
 10
3.575513
 20
2.201131
 30
0.000000
 11
3.594352
 21
2.233585
 31
0.000000
  0
LINE
  8
0
 62
     7
  6
CONTINUOUS
 10
3.566123
 20
2.187046
 30
0.000000
 11
3.575513
 21
2.201131
 31
0.000000
  0
LINE
  8
0
 62
     7
  6
CONTINUOUS
 10
3.535605
 20
2.133640
 30
0.000000
 11
3.566123
 21
2.187046
 31
0.000000
  0
LINE
  8
0
 62
     7
  6
CONTINUOUS
 10
3.482199
 20
2.049716
 30
0.000000
 11
3.535605
 21
2.133640
 31
0.000000
  0
LINE
  8
0
 62
     7
  6
CONTINUOUS
 10
3.482199
 20
2.042087
 30
0.000000
 11
3.482199
 21
2.049716
 31
0.000000
  0
LINE
  8
0
 62
     7
  6
CONTINUOUS
 10
3.482199
 20
2.042087
 30
0.000000
 11
3.474570
 21
2.042087
 31
0.000000
  0
LINE
  8
0
 62
     7
  6
CONTINUOUS
 10
3.398276
 20
2.034458
 30
0.000000
 11
3.474570
 21
2.042087
 31
0.000000
  0
LINE
  8
0
 62
     7
  6
CONTINUOUS
 10
3.398276
 20
2.034458
 30
0.000000
 11
3.383017
 21
2.034458
 31
0.000000
  0
LINE
  8
0
 62
     7
  6
CONTINUOUS
 10
3.367759
 20
2.042087
 30
0.000000
 11
3.383017
 21
2.034458
 31
0.000000
  0
LINE
  8
0
 62
     7
  6
CONTINUOUS
 10
3.268576
 20
2.042087
 30
0.000000
 11
3.367759
 21
2.042087
 31
0.000000
  0
LINE
  8
0
 62
     7
  6
CONTINUOUS
 10
3.230429
 20
2.003940
 30
0.000000
 11
3.268576
 21
2.042087
 31
0.000000
  0
LINE
  8
0
 62
     7
  6
CONTINUOUS
 10
3.230429
 20
2.003940
 30
0.000000
 11
3.199912
 21
2.003940
 31
0.000000
  0
LINE
  8
0
 62
     7
  6
CONTINUOUS
 10
3.169394
 20
1.973423
 30
0.000000
 11
3.199912
 21
2.003940
 31
0.000000
  0
LINE
  8
0
 62
     7
  6
CONTINUOUS
 10
3.159476
 20
1.936038
 30
0.000000
 11
3.169394
 21
1.973423
 31
0.000000
  0
LINE
  8
0
 62
     7
  6
CONTINUOUS
 10
3.156828
 20
1.926973
 30
0.000000
 11
3.159476
 21
1.936038
 31
0.000000
  0
LINE
  8
0
 62
     7
  6
CONTINUOUS
 10
3.146506
 20
1.897129
 30
0.000000
 11
3.156828
 21
1.926973
 31
0.000000
  0
LINE
  8
0
 62
     7
  6
CONTINUOUS
 10
3.146506
 20
1.843723
 30
0.000000
 11
3.146506
 21
1.897129
 31
0.000000
  0
LINE
  8
0
 62
     7
  6
CONTINUOUS
 10
3.169394
 20
1.820835
 30
0.000000
 11
3.146506
 21
1.843723
 31
0.000000
  0
LINE
  8
0
 62
     7
  6
CONTINUOUS
 10
3.191520
 20
1.811679
 30
0.000000
 11
3.169394
 21
1.820835
 31
0.000000
  0
LINE
  8
0
 62
     7
  6
CONTINUOUS
 10
3.207541
 20
1.805576
 30
0.000000
 11
3.191520
 21
1.811679
 31
0.000000
  0
LINE
  8
0
 62
     7
  6
CONTINUOUS
 10
3.222800
 20
1.805576
 30
0.000000
 11
3.207541
 21
1.805576
 31
0.000000
  0
LINE
  8
0
 62
     7
  6
CONTINUOUS
 10
3.254081
 20
1.791843
 30
0.000000
 11
3.222800
 21
1.805576
 31
0.000000
  0
LINE
  8
0
 62
     7
  6
CONTINUOUS
 10
3.292052
 20
1.777993
 30
0.000000
 11
3.254081
 21
1.791843
 31
0.000000
  0
LINE
  8
0
 62
     7
  6
CONTINUOUS
 10
3.330069
 20
1.770633
 30
0.000000
 11
3.292052
 21
1.777993
 31
0.000000
  0
LINE
  8
0
 62
     7
  6
CONTINUOUS
 10
3.375388
 20
1.767429
 30
0.000000
 11
3.330069
 21
1.770633
 31
0.000000
  0
LINE
  8
0
 62
     7
  6
CONTINUOUS
 10
3.390647
 20
1.767429
 30
0.000000
 11
3.375388
 21
1.767429
 31
0.000000
  0
LINE
  8
0
 62
     7
  6
CONTINUOUS
 10
3.390647
 20
1.767429
 30
0.000000
 11
3.428278
 21
1.764336
 31
0.000000
  0
LINE
  8
0
 62
     7
  6
CONTINUOUS
 10
3.428278
 20
1.764336
 30
0.000000
 11
3.436423
 21
1.759799
 31
0.000000
  0
LINE
  8
0
 62
     7
  6
CONTINUOUS
 10
3.436423
 20
1.759799
 30
0.000000
 11
3.521109
 21
1.772769
 31
0.000000
  0
LINE
  8
0
 62
     7
  6
CONTINUOUS
 10
3.521109
 20
1.772769
 30
0.000000
 11
3.543235
 21
1.782688
 31
0.000000
  0
LINE
  8
0
 62
     7
  6
CONTINUOUS
 10
3.558493
 20
1.782688
 30
0.000000
 11
3.543235
 21
1.782688
 31
0.000000
  0
LINE
  8
0
 62
     7
  6
CONTINUOUS
 10
3.558493
 20
1.782688
 30
0.000000
 11
3.580708
 21
1.785380
 31
0.000000
  0
LINE
  8
0
 62
     7
  6
CONTINUOUS
 10
3.580708
 20
1.785380
 30
0.000000
 11
3.649283
 21
1.800235
 31
0.000000
  0
LINE
  8
0
 62
     7
  6
CONTINUOUS
 10
3.649283
 20
1.800235
 30
0.000000
 11
3.658262
 21
1.802641
 31
0.000000
  0
LINE
  8
0
 62
     7
  6
CONTINUOUS
 10
3.658262
 20
1.802641
 30
0.000000
 11
3.726340
 21
1.820835
 31
0.000000
  0
LINE
  8
0
 62
     7
  6
CONTINUOUS
 10
3.726340
 20
1.820835
 30
0.000000
 11
3.749228
 21
1.843723
 31
0.000000
  0
LINE
  8
0
 62
     7
  6
CONTINUOUS
 10
3.749228
 20
1.843723
 30
0.000000
 11
3.769828
 21
1.890262
 31
0.000000
  0
LINE
  8
0
 62
     7
  6
CONTINUOUS
 10
3.769828
 20
1.890262
 30
0.000000
 11
3.774405
 21
1.903995
 31
0.000000
  0
LINE
  8
0
 62
     7
  6
CONTINUOUS
 10
3.774405
 20
1.903995
 30
0.000000
 11
3.834678
 21
2.064212
 31
0.000000
  0
LINE
  8
0
 62
     7
  6
CONTINUOUS
 10
3.834678
 20
2.064212
 30
0.000000
 11
3.839255
 21
2.073368
 31
0.000000
  0
LINE
  8
0
 62
     7
  6
CONTINUOUS
 10
3.839255
 20
2.073368
 30
0.000000
 11
3.911206
 21
2.201131
 31
0.000000
  0
LINE
  8
0
 62
     7
  6
CONTINUOUS
 10
3.911206
 20
2.201131
 30
0.000000
 11
3.946067
 21
2.264102
 31
0.000000
  0
LINE
  8
0
 62
     7
  6
CONTINUOUS
 10
3.946067
 20
2.264102
 30
0.000000
 11
3.980803
 21
2.354219
 31
0.000000
  0
LINE
  8
0
 62
     7
  6
CONTINUOUS
 10
3.980803
 20
2.354219
 30
0.000000
 11
3.985740
 21
2.377780
 31
0.000000
  0
LINE
  8
0
 62
     7
  6
CONTINUOUS
 10
3.985740
 20
2.377780
 30
0.000000
 11
3.985740
 21
2.393039
 31
0.000000
  0
LINE
  8
0
 62
     7
  6
CONTINUOUS
 10
3.985740
 20
2.393039
 30
0.000000
 11
3.990676
 21
2.401342
 31
0.000000
  0
LINE
  8
0
 62
     7
  6
CONTINUOUS
 10
3.990676
 20
2.401342
 30
0.000000
 11
4.005535
 21
2.477478
 31
0.000000
  0
LINE
  8
0
 62
     7
  6
CONTINUOUS
 10
4.005535
 20
2.477478
 30
0.000000
 11
4.034209
 21
2.628877
 31
0.000000
  0
LINE
  8
0
 62
     7
  6
CONTINUOUS
 10
4.034209
 20
2.628877
 30
0.000000
 11
4.051118
 21
2.698626
 31
0.000000
  0
LINE
  8
0
 62
     7
  6
CONTINUOUS
 10
4.051118
 20
2.698626
 30
0.000000
 11
4.057691
 21
2.751210
 31
0.000000
  0
LINE
  8
0
 62
     7
  6
CONTINUOUS
 10
4.057691
 20
2.751210
 30
0.000000
 11
4.094840
 21
2.850040
 31
0.000000
  0
LINE
  8
0
 62
     7
  6
CONTINUOUS
 10
4.094840
 20
2.850040
 30
0.000000
 11
4.158123
 21
3.034424
 31
0.000000
  0
LINE
  8
0
 62
     7
  6
CONTINUOUS
 10
4.158123
 20
3.034424
 30
0.000000
 11
4.164309
 21
3.071540
 31
0.000000
  0
LINE
  8
0
 62
     7
  6
CONTINUOUS
 10
4.164309
 20
3.071540
 30
0.000000
 11
4.304648
 21
3.431400
 31
0.000000
  0
LINE
  8
0
 62
     7
  6
CONTINUOUS
 10
4.304648
 20
3.431400
 30
0.000000
 11
4.312278
 21
3.446659
 31
0.000000
  0
LINE
  8
0
 62
     7
  6
CONTINUOUS
 10
4.312278
 20
3.446659
 30
0.000000
 11
4.380942
 21
3.629764
 31
0.000000
  0
LINE
  8
0
 62
     7
  6
CONTINUOUS
 10
4.380942
 20
3.629764
 30
0.000000
 11
4.383994
 21
3.635868
 31
0.000000
  0
LINE
  8
0
 62
     7
  6
CONTINUOUS
 10
4.383994
 20
3.635868
 30
0.000000
 11
4.402152
 21
3.682865
 31
0.000000
  0
LINE
  8
0
 62
     7
  6
CONTINUOUS
 10
4.402152
 20
3.682865
 30
0.000000
 11
4.408561
 21
3.727725
 31
0.000000
  0
LINE
  8
0
 62
     7
  6
CONTINUOUS
 10
4.408561
 20
3.727725
 30
0.000000
 11
4.412986
 21
3.735813
 31
0.000000
  0
LINE
  8
0
 62
     7
  6
CONTINUOUS
 10
4.412986
 20
3.735813
 30
0.000000
 11
4.412986
 21
3.781589
 31
0.000000
  0
LINE
  8
0
 62
     7
  6
CONTINUOUS
 10
4.412986
 20
3.781589
 30
0.000000
 11
4.396201
 21
3.834232
 31
0.000000
  0
LINE
  8
0
 62
     7
  6
CONTINUOUS
 10
4.396201
 20
3.834232
 30
0.000000
 11
4.387809
 21
3.857120
 31
0.000000
  0
LINE
  8
0
 62
     7
  6
CONTINUOUS
 10
4.387809
 20
3.857120
 30
0.000000
 11
4.365683
 21
3.895267
 31
0.000000
  0
LINE
  8
0
 62
     7
  6
CONTINUOUS
 10
4.365683
 20
3.895267
 30
0.000000
 11
4.330588
 21
3.957828
 31
0.000000
  0
LINE
  8
0
 62
     7
  6
CONTINUOUS
 10
4.330588
 20
3.957828
 30
0.000000
 11
4.329062
 21
3.964694
 31
0.000000
  0
LINE
  8
0
 62
     7
  6
CONTINUOUS
 10
4.329062
 20
3.964694
 30
0.000000
 11
4.329062
 21
3.972324
 31
0.000000
  0
ARC
  8
0
 62
     7
  6
CONTINUOUS
 10
4.481113
 20
4.023974
 30
0.000000
 40
0.160584
 50
173.917914
 51
198.761920
  0
LINE
  8
0
 62
     7
  6
CONTINUOUS
 10
4.321433
 20
4.040988
 30
0.000000
 11
4.329062
 21
4.094394
 31
0.000000
  0
LINE
  8
0
 62
     7
  6
CONTINUOUS
 10
4.351950
 20
4.056247
 30
0.000000
 11
4.358054
 21
4.072269
 31
0.000000
  0
LINE
  8
0
 62
    12
  6
CONTINUOUS
 10
4.351950
 20
4.048618
 30
0.000000
 11
4.351950
 21
4.056247
 31
0.000000
  0
ARC
  8
0
 62
     7
  6
CONTINUOUS
 10
4.510234
 20
3.959553
 30
0.000000
 40
0.181622
 50
150.633945
 51
175.967842
  0
LINE
  8
0
 62
     7
  6
CONTINUOUS
 10
4.358054
 20
4.072269
 30
0.000000
 11
4.382468
 21
4.117282
 31
0.000000
  0
LINE
  8
0
 62
     7
  6
CONTINUOUS
 10
4.382468
 20
4.117282
 30
0.000000
 11
4.412986
 21
4.147800
 31
0.000000
  0
LINE
  8
0
 62
     7
  6
CONTINUOUS
 10
4.412986
 20
4.147800
 30
0.000000
 11
4.428244
 21
4.155429
 31
0.000000
  0
LINE
  8
0
 62
     7
  6
CONTINUOUS
 10
4.983329
 20
4.428599
 30
0.000000
 11
4.847861
 21
4.605564
 31
0.000000
  0
LINE
  8
0
 62
     7
  6
CONTINUOUS
 10
5.223462
 20
4.103197
 30
0.000000
 11
4.983329
 21
4.428599
 31
0.000000
  0
LINE
  8
0
 62
     7
  6
CONTINUOUS
 10
5.296235
 20
3.986409
 30
0.000000
 11
5.223462
 21
4.103197
 31
0.000000
  0
LINE
  8
0
 62
     7
  6
CONTINUOUS
 10
5.352927
 20
3.881534
 30
0.000000
 11
5.296235
 21
3.986409
 31
0.000000
  0
LINE
  8
0
 62
     7
  6
CONTINUOUS
 10
5.425406
 20
3.689273
 30
0.000000
 11
5.352927
 21
3.881534
 31
0.000000
  0
LINE
  8
0
 62
     7
  6
CONTINUOUS
 10
5.447490
 20
3.613227
 30
0.000000
 11
5.425406
 21
3.689273
 31
0.000000
  0
LINE
  8
0
 62
     7
  6
CONTINUOUS
 10
5.462908
 20
3.529232
 30
0.000000
 11
5.447490
 21
3.613227
 31
0.000000
  0
LINE
  8
0
 62
     7
  6
CONTINUOUS
 10
5.469971
 20
3.491403
 30
0.000000
 11
5.462908
 21
3.529232
 31
0.000000
  0
LINE
  8
0
 62
     7
  6
CONTINUOUS
 10
5.488730
 20
3.270420
 30
0.000000
 11
5.469971
 21
3.491403
 31
0.000000
  0
LINE
  8
0
 62
     7
  6
CONTINUOUS
 10
5.488730
 20
3.148349
 30
0.000000
 11
5.488730
 21
3.270420
 31
0.000000
  0
LINE
  8
0
 62
     7
  6
CONTINUOUS
 10
5.484726
 20
3.140547
 30
0.000000
 11
5.488730
 21
3.148349
 31
0.000000
  0
LINE
  8
0
 62
     7
  6
CONTINUOUS
 10
5.477476
 20
2.988305
 30
0.000000
 11
5.484726
 21
3.140547
 31
0.000000
  0
LINE
  8
0
 62
     7
  6
CONTINUOUS
 10
5.460501
 20
2.842411
 30
0.000000
 11
5.477476
 21
2.988305
 31
0.000000
  0
LINE
  8
0
 62
     7
  6
CONTINUOUS
 10
5.450583
 20
2.820285
 30
0.000000
 11
5.460501
 21
2.842411
 31
0.000000
  0
LINE
  8
0
 62
     7
  6
CONTINUOUS
 10
5.450583
 20
2.805027
 30
0.000000
 11
5.450583
 21
2.820285
 31
0.000000
  0
LINE
  8
0
 62
     7
  6
CONTINUOUS
 10
5.446579
 20
2.789595
 30
0.000000
 11
5.450583
 21
2.805027
 31
0.000000
  0
LINE
  8
0
 62
     7
  6
CONTINUOUS
 10
5.442954
 20
2.637180
 30
0.000000
 11
5.446579
 21
2.789595
 31
0.000000
  0
LINE
  8
0
 62
     7
  6
CONTINUOUS
 10
5.442954
 20
2.629550
 30
0.000000
 11
5.442954
 21
2.637180
 31
0.000000
  0
LINE
  8
0
 62
     7
  6
CONTINUOUS
 10
5.447649
 20
2.621334
 30
0.000000
 11
5.442954
 21
2.629550
 31
0.000000
  0
LINE
  8
0
 62
     7
  6
CONTINUOUS
 10
5.465842
 20
2.507480
 30
0.000000
 11
5.447649
 21
2.621334
 31
0.000000
  0
LINE
  8
0
 62
     7
  6
CONTINUOUS
 10
5.465842
 20
2.492221
 30
0.000000
 11
5.465842
 21
2.507480
 31
0.000000
  0
LINE
  8
0
 62
     7
  6
CONTINUOUS
 10
5.465842
 20
2.492221
 30
0.000000
 11
5.488730
 21
2.476963
 31
0.000000
  0
LINE
  8
0
 62
     7
  6
CONTINUOUS
 10
5.488730
 20
2.476963
 30
0.000000
 11
5.571891
 21
2.444156
 31
0.000000
  0
LINE
  8
0
 62
     7
  6
CONTINUOUS
 10
5.571891
 20
2.444156
 30
0.000000
 11
5.641690
 21
2.426906
 31
0.000000
  0
LINE
  8
0
 62
     7
  6
CONTINUOUS
 10
5.641690
 20
2.426906
 30
0.000000
 11
5.701981
 21
2.420207
 31
0.000000
  0
LINE
  8
0
 62
     7
  6
CONTINUOUS
 10
5.701981
 20
2.420207
 30
0.000000
 11
5.709983
 21
2.415927
 31
0.000000
  0
LINE
  8
0
 62
     7
  6
CONTINUOUS
 10
5.709983
 20
2.415927
 30
0.000000
 11
6.053305
 21
2.415927
 31
0.000000
  0
LINE
  8
0
 62
     7
  6
CONTINUOUS
 10
6.053305
 20
2.415927
 30
0.000000
 11
6.159444
 21
2.433879
 31
0.000000
  0
LINE
  8
0
 62
     7
  6
CONTINUOUS
 10
6.159444
 20
2.433879
 30
0.000000
 11
6.191397
 21
2.444156
 31
0.000000
  0
LINE
  8
0
 62
     7
  6
CONTINUOUS
 10
6.191397
 20
2.444156
 30
0.000000
 11
6.258125
 21
2.471094
 31
0.000000
  0
LINE
  8
0
 62
     7
  6
CONTINUOUS
 10
6.258125
 20
2.471094
 30
0.000000
 11
6.305075
 21
2.499851
 31
0.000000
  0
LINE
  8
0
 62
     7
  6
CONTINUOUS
 10
6.305075
 20
2.499851
 30
0.000000
 11
6.419516
 21
2.614292
 31
0.000000
  0
LINE
  8
0
 62
     7
  6
CONTINUOUS
 10
6.419516
 20
2.614292
 30
0.000000
 11
6.478720
 21
2.691959
 31
0.000000
  0
LINE
  8
0
 62
     7
  6
CONTINUOUS
 10
6.478720
 20
2.691959
 30
0.000000
 11
6.517173
 21
2.752384
 31
0.000000
  0
LINE
  8
0
 62
     7
  6
CONTINUOUS
 10
6.517173
 20
2.752384
 30
0.000000
 11
6.559134
 21
2.834781
 31
0.000000
  0
LINE
  8
0
 62
     7
  6
CONTINUOUS
 10
6.559134
 20
2.834781
 30
0.000000
 11
6.599529
 21
2.973389
 31
0.000000
  0
LINE
  8
0
 62
     7
  6
CONTINUOUS
 10
6.599529
 20
2.973389
 30
0.000000
 11
6.605715
 21
3.010505
 31
0.000000
  0
LINE
  8
0
 62
     7
  6
CONTINUOUS
 10
6.605715
 20
3.010505
 30
0.000000
 11
6.610251
 21
3.018650
 31
0.000000
  0
LINE
  8
0
 62
     7
  6
CONTINUOUS
 10
6.610251
 20
3.018650
 30
0.000000
 11
6.610251
 21
3.079685
 31
0.000000
  0
LINE
  8
0
 62
     7
  6
CONTINUOUS
 10
6.610251
 20
3.079685
 30
0.000000
 11
6.599529
 21
3.124946
 31
0.000000
  0
LINE
  8
0
 62
     7
  6
CONTINUOUS
 10
6.599529
 20
3.124946
 30
0.000000
 11
6.589652
 21
3.156742
 31
0.000000
  0
LINE
  8
0
 62
     7
  6
CONTINUOUS
 10
6.589652
 20
3.156742
 30
0.000000
 11
6.550742
 21
3.240665
 31
0.000000
  0
LINE
  8
0
 62
     7
  6
CONTINUOUS
 10
6.550742
 20
3.240665
 30
0.000000
 11
6.480552
 21
3.339084
 31
0.000000
  0
LINE
  8
0
 62
     7
  6
CONTINUOUS
 10
6.480552
 20
3.339084
 30
0.000000
 11
6.442405
 21
3.377231
 31
0.000000
  0
LINE
  8
0
 62
     7
  6
CONTINUOUS
 10
6.442405
 20
3.377231
 30
0.000000
 11
6.372566
 21
3.428876
 31
0.000000
  0
LINE
  8
0
 62
     7
  6
CONTINUOUS
 10
6.372566
 20
3.428876
 30
0.000000
 11
6.349678
 21
3.444135
 31
0.000000
  0
LINE
  8
0
 62
     7
  6
CONTINUOUS
 10
6.349678
 20
3.444135
 30
0.000000
 11
6.151725
 21
3.543552
 31
0.000000
  0
LINE
  8
0
 62
     7
  6
CONTINUOUS
 10
6.151725
 20
3.543552
 30
0.000000
 11
6.137229
 21
3.552707
 31
0.000000
  0
LINE
  8
0
 62
    12
  6
CONTINUOUS
 10
6.137229
 20
3.552707
 30
0.000000
 11
6.137229
 21
3.560337
 31
0.000000
  0
LINE
  8
0
 62
     7
  6
CONTINUOUS
 10
6.137229
 20
3.560337
 30
0.000000
 11
6.266928
 21
3.575595
 31
0.000000
  0
LINE
  8
0
 62
     7
  6
CONTINUOUS
 10
6.335593
 20
3.575595
 30
0.000000
 11
6.266928
 21
3.575595
 31
0.000000
  0
LINE
  8
0
 62
     7
  6
CONTINUOUS
 10
6.366784
 20
3.563029
 30
0.000000
 11
6.335593
 21
3.575595
 31
0.000000
  0
LINE
  8
0
 62
     7
  6
CONTINUOUS
 10
6.397391
 20
3.554233
 30
0.000000
 11
6.366784
 21
3.563029
 31
0.000000
  0
LINE
  8
0
 62
     7
  6
CONTINUOUS
 10
6.534720
 20
3.493198
 30
0.000000
 11
6.397391
 21
3.554233
 31
0.000000
  0
LINE
  8
0
 62
     7
  6
CONTINUOUS
 10
6.540413
 20
3.489911
 30
0.000000
 11
6.534720
 21
3.493198
 31
0.000000
  0
LINE
  8
0
 62
     7
  6
CONTINUOUS
 10
6.624021
 20
3.428776
 30
0.000000
 11
6.540413
 21
3.489911
 31
0.000000
  0
LINE
  8
0
 62
     7
  6
CONTINUOUS
 10
6.656028
 20
3.400119
 30
0.000000
 11
6.624021
 21
3.428776
 31
0.000000
  0
LINE
  8
0
 62
     7
  6
CONTINUOUS
 10
6.678916
 20
3.377231
 30
0.000000
 11
6.656028
 21
3.400119
 31
0.000000
  0
LINE
  8
0
 62
     7
  6
CONTINUOUS
 10
6.707573
 20
3.345225
 30
0.000000
 11
6.678916
 21
3.377231
 31
0.000000
  0
LINE
  8
0
 62
     7
  6
CONTINUOUS
 10
6.787253
 20
3.210147
 30
0.000000
 11
6.707573
 21
3.345225
 31
0.000000
  0
LINE
  8
0
 62
     7
  6
CONTINUOUS
 10
6.793357
 20
3.201755
 30
0.000000
 11
6.787253
 21
3.210147
 31
0.000000
  0
LINE
  8
0
 62
     7
  6
CONTINUOUS
 10
6.869651
 20
3.041538
 30
0.000000
 11
6.844070
 21
3.162935
 31
0.000000
  0
LINE
  8
0
 62
     7
  6
CONTINUOUS
 10
6.869651
 20
2.873691
 30
0.000000
 11
6.869651
 21
3.041538
 31
0.000000
  0
LINE
  8
0
 62
     7
  6
CONTINUOUS
 10
6.865226
 20
2.865604
 30
0.000000
 11
6.869651
 21
2.873691
 31
0.000000
  0
LINE
  8
0
 62
     7
  6
CONTINUOUS
 10
6.858817
 20
2.820743
 30
0.000000
 11
6.865226
 21
2.865604
 31
0.000000
  0
LINE
  8
0
 62
     7
  6
CONTINUOUS
 10
6.844474
 20
2.752384
 30
0.000000
 11
6.858817
 21
2.820743
 31
0.000000
  0
LINE
  8
0
 62
     7
  6
CONTINUOUS
 10
6.831504
 20
2.705844
 30
0.000000
 11
6.844474
 21
2.752384
 31
0.000000
  0
LINE
  8
0
 62
     7
  6
CONTINUOUS
 10
6.823874
 20
2.675327
 30
0.000000
 11
6.831504
 21
2.705844
 31
0.000000
  0
LINE
  8
0
 62
     7
  6
CONTINUOUS
 10
6.802817
 20
2.651065
 30
0.000000
 11
6.823874
 21
2.675327
 31
0.000000
  0
LINE
  8
0
 62
     7
  6
CONTINUOUS
 10
6.770469
 20
2.591403
 30
0.000000
 11
6.802817
 21
2.651065
 31
0.000000
  0
LINE
  8
0
 62
     7
  6
CONTINUOUS
 10
6.823874
 20
2.675327
 30
0.000000
 11
6.846762
 21
2.698215
 31
0.000000
  0
LINE
  8
0
 62
     7
  6
CONTINUOUS
 10
6.846762
 20
2.698215
 30
0.000000
 11
6.890708
 21
2.760623
 31
0.000000
  0
LINE
  8
0
 62
     7
  6
CONTINUOUS
 10
6.890708
 20
2.760623
 30
0.000000
 11
6.977988
 21
2.911075
 31
0.000000
  0
LINE
  8
0
 62
     7
  6
CONTINUOUS
 10
6.977988
 20
2.911075
 30
0.000000
 11
6.999350
 21
2.949985
 31
0.000000
  0
LINE
  8
0
 62
     7
  6
CONTINUOUS
 10
6.999350
 20
2.949985
 30
0.000000
 11
7.014609
 21
2.949985
 31
0.000000
  0
LINE
  8
0
 62
     7
  6
CONTINUOUS
 10
7.014609
 20
2.934726
 30
0.000000
 11
7.014609
 21
2.949985
 31
0.000000
  0
LINE
  8
0
 62
     7
  6
CONTINUOUS
 10
6.978751
 20
2.834781
 30
0.000000
 11
7.014609
 21
2.934726
 31
0.000000
  0
LINE
  8
0
 62
     7
  6
CONTINUOUS
 10
6.921531
 20
2.714237
 30
0.000000
 11
6.978751
 21
2.834781
 31
0.000000
  0
LINE
  8
0
 62
     7
  6
CONTINUOUS
 10
6.892539
 20
2.652439
 30
0.000000
 11
6.921531
 21
2.714237
 31
0.000000
  0
LINE
  8
0
 62
     7
  6
CONTINUOUS
 10
6.869651
 20
2.606662
 30
0.000000
 11
6.892539
 21
2.652439
 31
0.000000
  0
LINE
  8
0
 62
     7
  6
CONTINUOUS
 10
6.852561
 20
2.585147
 30
0.000000
 11
6.869651
 21
2.606662
 31
0.000000
  0
LINE
  8
0
 62
     7
  6
CONTINUOUS
 10
6.793357
 20
2.499851
 30
0.000000
 11
6.852561
 21
2.585147
 31
0.000000
  0
LINE
  8
0
 62
     7
  6
CONTINUOUS
 10
6.732322
 20
2.438816
 30
0.000000
 11
6.793357
 21
2.499851
 31
0.000000
  0
LINE
  8
0
 62
     7
  6
CONTINUOUS
 10
6.724692
 20
2.438816
 30
0.000000
 11
6.732322
 21
2.438816
 31
0.000000
  0
LINE
  8
0
 62
     7
  6
CONTINUOUS
 10
6.684838
 20
2.341530
 30
0.000000
 11
6.756917
 21
2.406401
 31
0.000000
  0
LINE
  8
0
 62
     7
  6
CONTINUOUS
 10
6.649572
 20
2.314985
 30
0.000000
 11
6.684838
 21
2.341530
 31
0.000000
  0
LINE
  8
0
 62
     7
  6
CONTINUOUS
 10
6.610251
 20
2.286228
 30
0.000000
 11
6.649572
 21
2.314985
 31
0.000000
  0
LINE
  8
0
 62
     7
  6
CONTINUOUS
 10
6.610251
 20
2.278598
 30
0.000000
 11
6.610251
 21
2.286228
 31
0.000000
  0
LINE
  8
0
 62
     7
  6
CONTINUOUS
 10
6.610251
 20
2.278598
 30
0.000000
 11
6.602622
 21
2.278598
 31
0.000000
  0
LINE
  8
0
 62
     7
  6
CONTINUOUS
 10
6.533957
 20
2.248081
 30
0.000000
 11
6.602622
 21
2.278598
 31
0.000000
  0
LINE
  8
0
 62
     7
  6
CONTINUOUS
 10
6.610251
 20
2.278598
 30
0.000000
 11
6.617881
 21
2.274784
 31
0.000000
  0
LINE
  8
0
 62
     7
  6
CONTINUOUS
 10
6.617881
 20
2.274784
 30
0.000000
 11
6.800986
 21
2.324375
 31
0.000000
  0
LINE
  8
0
 62
     7
  6
CONTINUOUS
 10
6.808616
 20
2.324375
 30
0.000000
 11
6.800986
 21
2.324375
 31
0.000000
  0
LINE
  8
0
 62
     7
  6
CONTINUOUS
 10
6.808616
 20
2.324375
 30
0.000000
 11
6.854392
 21
2.354892
 31
0.000000
  0
LINE
  8
0
 62
     7
  6
CONTINUOUS
 10
6.808616
 20
2.316745
 30
0.000000
 11
6.808616
 21
2.324375
 31
0.000000
  0
LINE
  8
0
 62
     7
  6
CONTINUOUS
 10
6.776609
 20
2.288089
 30
0.000000
 11
6.808616
 21
2.316745
 31
0.000000
  0
LINE
  8
0
 62
     7
  6
CONTINUOUS
 10
6.718237
 20
2.253949
 30
0.000000
 11
6.776609
 21
2.288089
 31
0.000000
  0
LINE
  8
0
 62
     7
  6
CONTINUOUS
 10
6.700630
 20
2.242212
 30
0.000000
 11
6.718237
 21
2.253949
 31
0.000000
  0
LINE
  8
0
 62
     7
  6
CONTINUOUS
 10
6.464530
 20
2.120670
 30
0.000000
 11
6.700630
 21
2.242212
 31
0.000000
  0
LINE
  8
0
 62
     7
  6
CONTINUOUS
 10
6.441642
 20
2.112277
 30
0.000000
 11
6.464530
 21
2.120670
 31
0.000000
  0
LINE
  8
0
 62
     7
  6
CONTINUOUS
 10
6.396041
 20
2.098427
 30
0.000000
 11
6.441642
 21
2.112277
 31
0.000000
  0
LINE
  8
0
 62
     7
  6
CONTINUOUS
 10
6.343222
 20
2.087863
 30
0.000000
 11
6.396041
 21
2.098427
 31
0.000000
  0
LINE
  8
0
 62
     7
  6
CONTINUOUS
 10
6.343222
 20
2.087863
 30
0.000000
 11
6.335593
 21
2.095493
 31
0.000000
  0
LINE
  8
0
 62
     7
  6
CONTINUOUS
 10
6.335593
 20
2.095493
 30
0.000000
 11
6.320334
 21
2.095493
 31
0.000000
  0
LINE
  8
0
 62
     7
  6
CONTINUOUS
 10
6.213523
 20
2.064975
 30
0.000000
 11
6.328727
 21
2.078708
 31
0.000000
  0
LINE
  8
0
 62
     7
  6
CONTINUOUS
 10
6.205893
 20
2.072605
 30
0.000000
 11
6.213523
 21
2.064975
 31
0.000000
  0
LINE
  8
0
 62
     7
  6
CONTINUOUS
 10
6.160117
 20
2.072605
 30
0.000000
 11
6.205893
 21
2.072605
 31
0.000000
  0
LINE
  8
0
 62
     7
  6
CONTINUOUS
 10
6.152488
 20
2.064975
 30
0.000000
 11
6.160117
 21
2.072605
 31
0.000000
  0
LINE
  8
0
 62
     7
  6
CONTINUOUS
 10
6.152488
 20
2.064975
 30
0.000000
 11
5.992270
 21
2.087863
 31
0.000000
  0
LINE
  8
0
 62
     7
  6
CONTINUOUS
 10
5.771691
 20
2.105815
 30
0.000000
 11
6.015616
 21
2.045291
 31
0.000000
  0
LINE
  8
0
 62
     7
  6
CONTINUOUS
 10
5.740500
 20
2.118381
 30
0.000000
 11
5.771691
 21
2.105815
 31
0.000000
  0
LINE
  8
0
 62
     7
  6
CONTINUOUS
 10
5.740500
 20
2.118381
 30
0.000000
 11
5.702353
 21
2.126010
 31
0.000000
  0
LINE
  8
0
 62
     7
  6
CONTINUOUS
 10
5.702353
 20
2.126010
 30
0.000000
 11
5.694724
 21
2.133640
 31
0.000000
  0
LINE
  8
0
 62
     7
  6
CONTINUOUS
 10
5.702353
 20
2.126010
 30
0.000000
 11
5.732871
 21
2.103122
 31
0.000000
  0
LINE
  8
0
 62
     7
  6
CONTINUOUS
 10
5.824424
 20
2.034458
 30
0.000000
 11
5.732871
 21
2.103122
 31
0.000000
  0
LINE
  8
0
 62
     7
  6
CONTINUOUS
 10
5.824424
 20
2.026828
 30
0.000000
 11
5.824424
 21
2.034458
 31
0.000000
  0
LINE
  8
0
 62
     7
  6
CONTINUOUS
 10
5.832053
 20
2.026828
 30
0.000000
 11
5.824424
 21
2.026828
 31
0.000000
  0
LINE
  8
0
 62
     7
  6
CONTINUOUS
 10
5.840445
 20
2.021488
 30
0.000000
 11
5.832053
 21
2.026828
 31
0.000000
  0
LINE
  8
0
 62
     7
  6
CONTINUOUS
 10
5.886132
 20
2.006633
 30
0.000000
 11
5.840445
 21
2.021488
 31
0.000000
  0
LINE
  8
0
 62
     7
  6
CONTINUOUS
 10
5.908347
 20
2.003940
 30
0.000000
 11
5.886132
 21
2.006633
 31
0.000000
  0
LINE
  8
0
 62
     7
  6
CONTINUOUS
 10
5.816794
 20
2.019199
 30
0.000000
 11
5.824424
 21
2.026828
 31
0.000000
  0
LINE
  8
0
 62
     7
  6
CONTINUOUS
 10
5.733634
 20
2.044376
 30
0.000000
 11
5.816794
 21
2.019199
 31
0.000000
  0
LINE
  8
0
 62
     7
  6
CONTINUOUS
 10
5.625296
 20
2.101596
 30
0.000000
 11
5.733634
 21
2.044376
 31
0.000000
  0
LINE
  8
0
 62
     7
  6
CONTINUOUS
 10
5.556632
 20
2.147373
 30
0.000000
 11
5.625296
 21
2.101596
 31
0.000000
  0
LINE
  8
0
 62
     7
  6
CONTINUOUS
 10
5.549765
 20
2.148899
 30
0.000000
 11
5.556632
 21
2.147373
 31
0.000000
  0
LINE
  8
0
 62
     7
  6
CONTINUOUS
 10
5.549765
 20
2.148899
 30
0.000000
 11
5.542136
 21
2.148899
 31
0.000000
  0
LINE
  8
0
 62
    12
  6
CONTINUOUS
 10
5.542136
 20
2.148899
 30
0.000000
 11
5.511618
 21
2.171787
 31
0.000000
  0
LINE
  8
0
 62
    12
  6
CONTINUOUS
 10
5.542136
 20
2.141269
 30
0.000000
 11
5.542136
 21
2.148899
 31
0.000000
  0
LINE
  8
0
 62
     7
  6
CONTINUOUS
 10
5.572654
 20
2.095493
 30
0.000000
 11
5.542136
 21
2.141269
 31
0.000000
  0
LINE
  8
0
 62
     7
  6
CONTINUOUS
 10
5.595542
 20
2.072605
 30
0.000000
 11
5.572654
 21
2.095493
 31
0.000000
  0
LINE
  8
0
 62
     7
  6
CONTINUOUS
 10
5.633689
 20
2.042087
 30
0.000000
 11
5.595542
 21
2.072605
 31
0.000000
  0
LINE
  8
0
 62
     7
  6
CONTINUOUS
 10
5.633689
 20
2.034458
 30
0.000000
 11
5.633689
 21
2.042087
 31
0.000000
  0
LINE
  8
0
 62
    12
  6
CONTINUOUS
 10
5.633689
 20
2.034458
 30
0.000000
 11
5.626059
 21
2.034458
 31
0.000000
  0
LINE
  8
0
 62
     7
  6
CONTINUOUS
 10
5.618430
 20
2.030643
 30
0.000000
 11
5.626059
 21
2.034458
 31
0.000000
  0
LINE
  8
0
 62
     7
  6
CONTINUOUS
 10
5.610038
 20
2.032932
 30
0.000000
 11
5.618430
 21
2.030643
 31
0.000000
  0
LINE
  8
0
 62
     7
  6
CONTINUOUS
 10
5.603934
 20
2.035984
 30
0.000000
 11
5.610038
 21
2.032932
 31
0.000000
  0
LINE
  8
0
 62
     7
  6
CONTINUOUS
 10
5.526877
 20
2.080234
 30
0.000000
 11
5.603934
 21
2.035984
 31
0.000000
  0
LINE
  8
0
 62
     7
  6
CONTINUOUS
 10
5.427695
 20
2.179416
 30
0.000000
 11
5.526877
 21
2.080234
 31
0.000000
  0
LINE
  8
0
 62
     7
  6
CONTINUOUS
 10
5.397178
 20
2.225193
 30
0.000000
 11
5.427695
 21
2.179416
 31
0.000000
  0
LINE
  8
0
 62
     7
  6
CONTINUOUS
 10
5.365486
 20
2.219324
 30
0.000000
 11
5.397178
 21
2.225193
 31
0.000000
  0
LINE
  8
0
 62
     7
  6
CONTINUOUS
 10
5.214072
 20
2.148899
 30
0.000000
 11
5.365486
 21
2.219324
 31
0.000000
  0
LINE
  8
0
 62
     7
  6
CONTINUOUS
 10
5.214072
 20
2.148899
 30
0.000000
 11
5.198813
 21
2.148899
 31
0.000000
  0
LINE
  8
0
 62
     7
  6
CONTINUOUS
 10
5.153037
 20
2.110752
 30
0.000000
 11
5.198813
 21
2.148899
 31
0.000000
  0
LINE
  8
0
 62
     7
  6
CONTINUOUS
 10
5.053855
 20
2.034458
 30
0.000000
 11
5.153037
 21
2.110752
 31
0.000000
  0
LINE
  8
0
 62
     7
  6
CONTINUOUS
 10
5.022163
 20
2.013330
 30
0.000000
 11
5.053855
 21
2.034458
 31
0.000000
  0
LINE
  8
0
 62
     7
  6
CONTINUOUS
 10
5.016882
 20
2.009809
 30
0.000000
 11
5.022163
 21
2.013330
 31
0.000000
  0
LINE
  8
0
 62
     7
  6
CONTINUOUS
 10
4.933273
 20
1.956303
 30
0.000000
 11
5.016882
 21
2.009809
 31
0.000000
  0
LINE
  8
0
 62
     7
  6
CONTINUOUS
 10
4.840232
 20
1.881870
 30
0.000000
 11
4.933273
 21
1.956303
 31
0.000000
  0
LINE
  8
0
 62
     7
  6
CONTINUOUS
 10
4.795829
 20
1.857151
 30
0.000000
 11
4.840232
 21
1.881870
 31
0.000000
  0
LINE
  8
0
 62
     7
  6
CONTINUOUS
 10
4.609061
 20
1.733860
 30
0.000000
 11
4.795829
 21
1.857151
 31
0.000000
  0
LINE
  8
0
 62
     7
  6
CONTINUOUS
 10
4.580832
 20
1.721652
 30
0.000000
 11
4.609061
 21
1.733860
 31
0.000000
  0
LINE
  8
0
 62
     7
  6
CONTINUOUS
 10
4.526253
 20
1.685266
 30
0.000000
 11
4.580832
 21
1.721652
 31
0.000000
  0
LINE
  8
0
 62
     7
  6
CONTINUOUS
 10
4.404593
 20
1.617130
 30
0.000000
 11
4.526253
 21
1.685266
 31
0.000000
  0
LINE
  8
0
 62
     7
  6
CONTINUOUS
 10
4.344321
 20
1.599582
 30
0.000000
 11
4.404593
 21
1.617130
 31
0.000000
  0
LINE
  8
0
 62
     7
  6
CONTINUOUS
 10
4.313803
 20
1.591953
 30
0.000000
 11
4.344321
 21
1.599582
 31
0.000000
  0
LINE
  8
0
 62
     7
  6
CONTINUOUS
 10
4.145957
 20
1.591953
 30
0.000000
 11
4.313803
 21
1.591953
 31
0.000000
  0
LINE
  8
0
 62
     7
  6
CONTINUOUS
 10
4.053641
 20
1.613315
 30
0.000000
 11
4.145957
 21
1.591953
 31
0.000000
  0
LINE
  8
0
 62
     7
  6
CONTINUOUS
 10
4.039145
 20
1.622470
 30
0.000000
 11
4.053641
 21
1.613315
 31
0.000000
  0
LINE
  8
0
 62
     7
  6
CONTINUOUS
 10
4.039145
 20
1.622470
 30
0.000000
 11
4.023887
 21
1.622470
 31
0.000000
  0
LINE
  8
0
 62
     7
  6
CONTINUOUS
 10
4.016257
 20
1.618656
 30
0.000000
 11
4.023887
 21
1.622470
 31
0.000000
  0
LINE
  8
0
 62
     7
  6
CONTINUOUS
 10
4.007865
 20
1.620182
 30
0.000000
 11
4.016257
 21
1.618656
 31
0.000000
  0
LINE
  8
0
 62
     7
  6
CONTINUOUS
 10
3.956711
 20
1.639590
 30
0.000000
 11
4.007865
 21
1.620182
 31
0.000000
  0
LINE
  8
0
 62
     7
  6
CONTINUOUS
 10
3.924704
 20
1.668247
 30
0.000000
 11
3.956711
 21
1.639590
 31
0.000000
  0
LINE
  8
0
 62
     7
  6
CONTINUOUS
 10
3.924704
 20
1.668247
 30
0.000000
 11
3.901816
 21
1.691135
 31
0.000000
  0
LINE
  8
0
 62
     7
  6
CONTINUOUS
 10
3.901816
 20
1.691135
 30
0.000000
 11
3.901816
 21
1.729282
 31
0.000000
  0
LINE
  8
0
 62
     7
  6
CONTINUOUS
 10
3.901816
 20
1.729282
 30
0.000000
 11
3.955222
 21
1.813205
 31
0.000000
  0
LINE
  8
0
 62
     7
  6
CONTINUOUS
 10
3.955222
 20
1.813205
 30
0.000000
 11
3.994932
 21
1.849476
 31
0.000000
  0
LINE
  8
0
 62
     7
  6
CONTINUOUS
 10
3.994932
 20
1.849476
 30
0.000000
 11
4.040519
 21
1.880039
 31
0.000000
  0
LINE
  8
0
 62
     7
  6
CONTINUOUS
 10
4.040519
 20
1.880039
 30
0.000000
 11
4.046012
 21
1.883396
 31
0.000000
  0
LINE
  8
0
 62
     7
  6
CONTINUOUS
 10
4.046012
 20
1.883396
 30
0.000000
 11
4.077292
 21
1.897129
 31
0.000000
  0
LINE
  8
0
 62
     7
  6
CONTINUOUS
 10
4.077292
 20
1.897129
 30
0.000000
 11
4.100180
 21
1.897129
 31
0.000000
  0
LINE
  8
0
 62
     7
  6
CONTINUOUS
 10
4.100180
 20
1.897129
 30
0.000000
 11
4.145194
 21
1.880344
 31
0.000000
  0
LINE
  8
0
 62
     7
  6
CONTINUOUS
 10
4.145194
 20
1.880344
 30
0.000000
 11
4.153586
 21
1.874240
 31
0.000000
  0
LINE
  8
0
 62
     7
  6
CONTINUOUS
 10
4.183517
 20
1.871306
 30
0.000000
 11
4.153586
 21
1.874240
 31
0.000000
  0
LINE
  8
0
 62
     7
  6
CONTINUOUS
 10
4.206992
 20
1.858982
 30
0.000000
 11
4.183517
 21
1.871306
 31
0.000000
  0
LINE
  8
0
 62
     7
  6
CONTINUOUS
 10
4.229880
 20
1.851352
 30
0.000000
 11
4.206992
 21
1.858982
 31
0.000000
  0
LINE
  8
0
 62
     7
  6
CONTINUOUS
 10
4.245139
 20
1.851352
 30
0.000000
 11
4.229880
 21
1.851352
 31
0.000000
  0
LINE
  8
0
 62
     7
  6
CONTINUOUS
 10
4.336422
 20
1.854853
 30
0.000000
 11
4.245139
 21
1.851352
 31
0.000000
  0
LINE
  8
0
 62
     7
  6
CONTINUOUS
 10
4.336422
 20
1.854853
 30
0.000000
 11
4.385901
 21
1.852115
 31
0.000000
  0
LINE
  8
0
 62
     7
  6
CONTINUOUS
 10
4.382468
 20
1.851352
 30
0.000000
 11
4.389334
 21
1.852878
 31
0.000000
  0
LINE
  8
0
 62
     7
  6
CONTINUOUS
 10
4.389334
 20
1.852878
 30
0.000000
 11
4.480277
 21
1.891330
 31
0.000000
  0
LINE
  8
0
 62
     7
  6
CONTINUOUS
 10
4.480277
 20
1.891330
 30
0.000000
 11
4.504538
 21
1.912387
 31
0.000000
  0
LINE
  8
0
 62
     7
  6
CONTINUOUS
 10
4.504538
 20
1.912387
 30
0.000000
 11
4.556571
 21
1.944736
 31
0.000000
  0
LINE
  8
0
 62
     7
  6
CONTINUOUS
 10
4.556571
 20
1.944736
 30
0.000000
 11
4.582206
 21
1.963962
 31
0.000000
  0
LINE
  8
0
 62
     7
  6
CONTINUOUS
 10
4.582206
 20
1.963962
 30
0.000000
 11
4.588462
 21
1.965793
 31
0.000000
  0
LINE
  8
0
 62
     7
  6
CONTINUOUS
 10
4.588462
 20
1.965793
 30
0.000000
 11
4.626609
 21
2.003940
 31
0.000000
  0
LINE
  8
0
 62
     7
  6
CONTINUOUS
 10
4.626609
 20
2.003940
 30
0.000000
 11
4.643393
 21
2.041324
 31
0.000000
  0
LINE
  8
0
 62
     7
  6
CONTINUOUS
 10
4.643393
 20
2.041324
 30
0.000000
 11
4.649497
 21
2.049716
 31
0.000000
  0
LINE
  8
0
 62
    12
  6
CONTINUOUS
 10
4.649497
 20
2.049716
 30
0.000000
 11
4.649497
 21
2.057346
 31
0.000000
  0
LINE
  8
0
 62
     7
  6
CONTINUOUS
 10
4.649497
 20
2.057346
 30
0.000000
 11
4.649497
 21
2.095493
 31
0.000000
  0
LINE
  8
0
 62
     7
  6
CONTINUOUS
 10
4.649497
 20
2.095493
 30
0.000000
 11
4.557944
 21
2.202304
 31
0.000000
  0
LINE
  8
0
 62
     7
  6
CONTINUOUS
 10
4.557944
 20
2.202304
 30
0.000000
 11
4.557944
 21
2.209934
 31
0.000000
  0
LINE
  8
0
 62
     7
  6
CONTINUOUS
 10
4.557944
 20
2.209934
 30
0.000000
 11
4.496909
 21
2.286228
 31
0.000000
  0
LINE
  8
0
 62
     7
  6
CONTINUOUS
 10
4.496909
 20
2.286228
 30
0.000000
 11
4.489280
 21
2.293857
 31
0.000000
  0
LINE
  8
0
 62
     7
  6
CONTINUOUS
 10
4.489280
 20
2.293857
 30
0.000000
 11
4.481650
 21
2.293857
 31
0.000000
  0
LINE
  8
0
 62
     7
  6
CONTINUOUS
 10
4.473610
 20
2.289514
 30
0.000000
 11
4.481650
 21
2.293857
 31
0.000000
  0
LINE
  8
0
 62
     7
  6
CONTINUOUS
 10
4.421026
 20
2.282941
 30
0.000000
 11
4.473610
 21
2.289514
 31
0.000000
  0
LINE
  8
0
 62
     7
  6
CONTINUOUS
 10
4.412986
 20
2.278598
 30
0.000000
 11
4.421026
 21
2.282941
 31
0.000000
  0
LINE
  8
0
 62
     7
  6
CONTINUOUS
 10
4.367209
 20
2.278598
 30
0.000000
 11
4.412986
 21
2.278598
 31
0.000000
  0
LINE
  8
0
 62
     7
  6
CONTINUOUS
 10
4.350425
 20
2.290805
 30
0.000000
 11
4.367209
 21
2.278598
 31
0.000000
  0
LINE
  8
0
 62
     7
  6
CONTINUOUS
 10
4.328547
 20
2.298393
 30
0.000000
 11
4.350425
 21
2.290805
 31
0.000000
  0
LINE
  8
0
 62
     7
  6
CONTINUOUS
 10
4.229880
 20
2.316745
 30
0.000000
 11
4.328547
 21
2.298393
 31
0.000000
  0
LINE
  8
0
 62
     7
  6
CONTINUOUS
 10
4.191733
 20
2.324375
 30
0.000000
 11
4.229880
 21
2.316745
 31
0.000000
  0
LINE
  8
0
 62
     7
  6
CONTINUOUS
 10
4.191733
 20
2.324375
 30
0.000000
 11
4.152823
 21
2.337345
 31
0.000000
  0
LINE
  8
0
 62
     7
  6
CONTINUOUS
 10
4.152823
 20
2.337345
 30
0.000000
 11
4.039145
 21
2.377780
 31
0.000000
  0
LINE
  8
0
 62
     7
  6
CONTINUOUS
 10
4.039145
 20
2.377780
 30
0.000000
 11
4.031516
 21
2.370151
 31
0.000000
  0
LINE
  8
0
 62
     7
  6
CONTINUOUS
 10
4.031516
 20
2.370151
 30
0.000000
 11
4.001761
 21
2.380069
 31
0.000000
  0
LINE
  8
0
 62
     7
  6
CONTINUOUS
 10
4.001761
 20
2.380069
 30
0.000000
 11
3.993369
 21
2.385410
 31
0.000000
  0
LINE
  8
0
 62
     7
  6
CONTINUOUS
 10
3.993369
 20
2.385410
 30
0.000000
 11
3.985740
 21
2.385410
 31
0.000000
  0
LINE
  8
0
 62
     7
  6
CONTINUOUS
 10
3.680564
 20
2.499851
 30
0.000000
 11
3.680564
 21
2.522739
 31
0.000000
  0
LINE
  8
0
 62
     7
  6
CONTINUOUS
 10
3.680564
 20
2.522739
 30
0.000000
 11
3.784282
 21
2.927612
 31
0.000000
  0
LINE
  8
0
 62
     7
  6
CONTINUOUS
 10
3.784282
 20
2.927612
 30
0.000000
 11
3.790468
 21
2.964728
 31
0.000000
  0
LINE
  8
0
 62
     7
  6
CONTINUOUS
 10
3.790468
 20
2.964728
 30
0.000000
 11
3.810263
 21
3.110202
 31
0.000000
  0
LINE
  8
0
 62
    12
  6
CONTINUOUS
 10
3.810263
 20
3.110202
 30
0.000000
 11
3.810263
 21
3.125461
 31
0.000000
  0
LINE
  8
0
 62
     7
  6
CONTINUOUS
 10
3.810263
 20
3.125461
 30
0.000000
 11
3.820182
 21
3.147586
 31
0.000000
  0
LINE
  8
0
 62
     7
  6
CONTINUOUS
 10
3.820182
 20
3.147586
 30
0.000000
 11
3.825522
 21
3.155979
 31
0.000000
  0
LINE
  8
0
 62
     7
  6
CONTINUOUS
 10
3.825522
 20
3.155979
 30
0.000000
 11
3.825522
 21
3.644260
 31
0.000000
  0
LINE
  8
0
 62
     7
  6
CONTINUOUS
 10
3.825522
 20
3.644260
 30
0.000000
 11
3.793479
 21
3.727420
 31
0.000000
  0
LINE
  8
0
 62
     7
  6
CONTINUOUS
 10
3.793479
 20
3.727420
 30
0.000000
 11
3.788901
 21
3.736576
 31
0.000000
  0
LINE
  8
0
 62
     7
  6
CONTINUOUS
 10
3.788901
 20
3.736576
 30
0.000000
 11
3.663779
 21
3.956302
 31
0.000000
  0
LINE
  8
0
 62
     7
  6
CONTINUOUS
 10
3.663779
 20
3.956302
 30
0.000000
 11
3.621817
 21
4.041751
 31
0.000000
  0
LINE
  8
0
 62
     7
  6
CONTINUOUS
 10
3.621817
 20
4.041751
 30
0.000000
 11
3.563071
 21
4.184421
 31
0.000000
  0
LINE
  8
0
 62
     7
  6
CONTINUOUS
 10
3.563071
 20
4.184421
 30
0.000000
 11
3.550864
 21
4.201206
 31
0.000000
  0
LINE
  8
0
 62
     7
  6
CONTINUOUS
 10
3.550864
 20
4.201206
 30
0.000000
 11
3.550864
 21
4.254611
 31
0.000000
  0
LINE
  8
0
 62
     7
  6
CONTINUOUS
 10
3.550864
 20
4.254611
 30
0.000000
 11
3.599333
 21
4.444673
 31
0.000000
  0
LINE
  8
0
 62
     7
  6
CONTINUOUS
 10
3.599333
 20
4.444673
 30
0.000000
 11
3.606559
 21
4.467472
 31
0.000000
  0
LINE
  8
0
 62
     7
  6
CONTINUOUS
 10
3.606559
 20
4.467472
 30
0.000000
 11
3.656150
 21
4.598697
 31
0.000000
  0
LINE
  8
0
 62
     7
  6
CONTINUOUS
 10
3.656150
 20
4.598697
 30
0.000000
 11
3.674460
 21
4.635318
 31
0.000000
  0
LINE
  8
0
 62
     7
  6
CONTINUOUS
 10
3.674460
 20
4.635318
 30
0.000000
 11
3.720572
 21
4.703257
 31
0.000000
  0
LINE
  8
0
 62
     7
  6
CONTINUOUS
 10
3.720572
 20
4.703257
 30
0.000000
 11
3.749228
 21
4.742893
 31
0.000000
  0
LINE
  8
0
 62
     7
  6
CONTINUOUS
 10
3.749228
 20
4.742893
 30
0.000000
 11
3.810263
 21
4.803928
 31
0.000000
  0
LINE
  8
0
 62
     7
  6
CONTINUOUS
 10
3.810263
 20
4.803928
 30
0.000000
 11
3.825522
 21
4.811557
 31
0.000000
  0
LINE
  8
0
 62
     7
  6
CONTINUOUS
 10
3.825522
 20
4.811557
 30
0.000000
 11
3.856040
 21
4.826816
 31
0.000000
  0
LINE
  8
0
 62
     7
  6
CONTINUOUS
 10
3.856040
 20
4.826816
 30
0.000000
 11
3.911100
 21
4.878331
 31
0.000000
  0
LINE
  8
0
 62
     7
  6
CONTINUOUS
 10
3.911100
 20
4.878331
 30
0.000000
 11
3.972007
 21
4.915317
 31
0.000000
  0
LINE
  8
0
 62
     7
  6
CONTINUOUS
 10
3.972007
 20
4.915317
 30
0.000000
 11
4.093138
 21
4.968840
 31
0.000000
  0
LINE
  8
0
 62
     7
  6
CONTINUOUS
 10
4.093138
 20
4.968840
 30
0.000000
 11
4.229880
 21
4.994663
 31
0.000000
  0
LINE
  8
0
 62
     7
  6
CONTINUOUS
 10
4.229117
 20
4.958042
 30
0.000000
 11
4.237510
 21
4.964145
 31
0.000000
  0
LINE
  8
0
 62
     7
  6
CONTINUOUS
 10
4.138327
 20
4.925998
 30
0.000000
 11
4.229117
 21
4.958042
 31
0.000000
  0
LINE
  8
0
 62
     7
  6
CONTINUOUS
 10
4.237510
 20
4.964145
 30
0.000000
 11
4.275657
 21
4.987033
 31
0.000000
  0
LINE
  8
0
 62
     7
  6
CONTINUOUS
 10
4.275657
 20
4.987033
 30
0.000000
 11
4.321433
 21
5.009922
 31
0.000000
  0
LINE
  8
0
 62
     7
  6
CONTINUOUS
 10
4.321433
 20
4.941257
 30
0.000000
 11
4.338218
 21
4.978641
 31
0.000000
  0
LINE
  8
0
 62
     7
  6
CONTINUOUS
 10
4.306174
 20
4.903110
 30
0.000000
 11
4.321433
 21
4.941257
 31
0.000000
  0
LINE
  8
0
 62
     7
  6
CONTINUOUS
 10
4.283286
 20
4.872592
 30
0.000000
 11
4.306174
 21
4.903110
 31
0.000000
  0
LINE
  8
0
 62
     7
  6
CONTINUOUS
 10
4.336692
 20
4.933628
 30
0.000000
 11
4.313803
 21
4.922184
 31
0.000000
  0
LINE
  8
0
 62
     7
  6
CONTINUOUS
 10
4.336692
 20
4.933628
 30
0.000000
 11
4.367209
 21
4.956516
 31
0.000000
  0
LINE
  8
0
 62
     7
  6
CONTINUOUS
 10
4.367209
 20
4.956516
 30
0.000000
 11
4.403830
 21
5.025943
 31
0.000000
  0
LINE
  8
0
 62
     7
  6
CONTINUOUS
 10
4.403830
 20
5.025943
 30
0.000000
 11
4.412986
 21
5.040439
 31
0.000000
  0
LINE
  8
0
 62
     7
  6
CONTINUOUS
 10
4.412986
 20
5.040439
 30
0.000000
 11
4.443503
 21
5.086215
 31
0.000000
  0
LINE
  8
0
 62
     7
  6
CONTINUOUS
 10
4.443503
 20
5.086215
 30
0.000000
 11
4.443503
 21
5.170139
 31
0.000000
  0
LINE
  8
0
 62
     7
  6
CONTINUOUS
 10
4.481650
 20
5.193027
 30
0.000000
 11
4.481650
 21
5.200656
 31
0.000000
  0
LINE
  8
0
 62
     7
  6
CONTINUOUS
 10
4.481650
 20
5.200656
 30
0.000000
 11
4.443503
 21
5.246433
 31
0.000000
  0
LINE
  8
0
 62
     7
  6
CONTINUOUS
 10
4.506299
 20
5.217089
 30
0.000000
 11
4.472495
 21
5.276187
 31
0.000000
  0
LINE
  8
0
 62
     7
  6
CONTINUOUS
 10
4.519797
 20
5.193027
 30
0.000000
 11
4.506299
 21
5.217089
 31
0.000000
  0
LINE
  8
0
 62
     7
  6
CONTINUOUS
 10
4.519797
 20
5.185398
 30
0.000000
 11
4.519797
 21
5.193027
 31
0.000000
  0
LINE
  8
0
 62
     7
  6
CONTINUOUS
 10
4.527427
 20
5.185398
 30
0.000000
 11
4.504538
 21
5.185398
 31
0.000000
  0
LINE
  8
0
 62
     7
  6
CONTINUOUS
 10
4.504538
 20
5.185398
 30
0.000000
 11
4.489280
 21
5.200656
 31
0.000000
  0
LINE
  8
0
 62
     7
  6
CONTINUOUS
 10
4.489280
 20
5.200656
 30
0.000000
 11
4.481650
 21
5.200656
 31
0.000000
  0
LINE
  8
0
 62
     7
  6
CONTINUOUS
 10
4.496909
 20
5.055698
 30
0.000000
 11
4.481650
 21
5.193027
 31
0.000000
  0
LINE
  8
0
 62
     7
  6
CONTINUOUS
 10
4.486187
 20
5.002808
 30
0.000000
 11
4.496909
 21
5.055698
 31
0.000000
  0
LINE
  8
0
 62
     7
  6
CONTINUOUS
 10
4.474021
 20
4.979404
 30
0.000000
 11
4.486187
 21
5.002808
 31
0.000000
  0
LINE
  8
0
 62
     7
  6
CONTINUOUS
 10
4.474021
 20
4.979404
 30
0.000000
 11
4.467917
 21
4.987796
 31
0.000000
  0
LINE
  8
0
 62
     7
  6
CONTINUOUS
 10
4.467917
 20
4.987796
 30
0.000000
 11
4.448844
 21
5.077823
 31
0.000000
  0
LINE
  8
0
 62
     7
  6
CONTINUOUS
 10
4.448844
 20
5.077823
 30
0.000000
 11
4.443503
 21
5.086215
 31
0.000000
  0
LINE
  8
0
 62
     7
  6
CONTINUOUS
 10
4.535819
 20
5.179294
 30
0.000000
 11
4.527427
 21
5.185398
 31
0.000000
  0
LINE
  8
0
 62
     7
  6
CONTINUOUS
 10
4.557944
 20
5.170139
 30
0.000000
 11
4.535819
 21
5.179294
 31
0.000000
  0
LINE
  8
0
 62
     7
  6
CONTINUOUS
 10
4.579659
 20
5.214155
 30
0.000000
 11
4.573203
 21
5.215915
 31
0.000000
  0
LINE
  8
0
 62
     7
  6
CONTINUOUS
 10
4.602958
 20
5.199131
 30
0.000000
 11
4.579659
 21
5.214155
 31
0.000000
  0
LINE
  8
0
 62
     7
  6
CONTINUOUS
 10
4.673148
 20
5.172428
 30
0.000000
 11
4.602958
 21
5.199131
 31
0.000000
  0
LINE
  8
0
 62
     7
  6
CONTINUOUS
 10
4.756308
 20
5.147251
 30
0.000000
 11
4.673148
 21
5.172428
 31
0.000000
  0
LINE
  8
0
 62
     7
  6
CONTINUOUS
 10
4.756308
 20
5.139621
 30
0.000000
 11
4.756308
 21
5.147251
 31
0.000000
  0
LINE
  8
0
 62
     7
  6
CONTINUOUS
 10
4.817344
 20
5.139621
 30
0.000000
 11
4.748679
 21
5.139621
 31
0.000000
  0
LINE
  8
0
 62
     7
  6
CONTINUOUS
 10
4.740592
 20
5.135196
 30
0.000000
 11
4.748679
 21
5.139621
 31
0.000000
  0
LINE
  8
0
 62
     7
  6
CONTINUOUS
 10
4.657126
 20
5.124362
 30
0.000000
 11
4.740592
 21
5.135196
 31
0.000000
  0
LINE
  8
0
 62
     7
  6
CONTINUOUS
 10
4.657126
 20
5.124362
 30
0.000000
 11
4.611350
 21
5.124362
 31
0.000000
  0
LINE
  8
0
 62
     7
  6
CONTINUOUS
 10
4.649497
 20
5.116733
 30
0.000000
 11
4.649497
 21
5.124362
 31
0.000000
  0
LINE
  8
0
 62
     7
  6
CONTINUOUS
 10
4.702140
 20
5.084690
 30
0.000000
 11
4.649497
 21
5.116733
 31
0.000000
  0
LINE
  8
0
 62
     7
  6
CONTINUOUS
 10
4.718161
 20
5.078586
 30
0.000000
 11
4.702140
 21
5.084690
 31
0.000000
  0
LINE
  8
0
 62
     7
  6
CONTINUOUS
 10
4.779197
 20
5.017551
 30
0.000000
 11
4.718161
 21
5.078586
 31
0.000000
  0
LINE
  8
0
 62
     7
  6
CONTINUOUS
 10
4.786826
 20
4.994663
 30
0.000000
 11
4.779197
 21
5.017551
 31
0.000000
  0
LINE
  8
0
 62
     7
  6
CONTINUOUS
 10
4.786826
 20
4.987033
 30
0.000000
 11
4.786826
 21
4.994663
 31
0.000000
  0
LINE
  8
0
 62
     7
  6
CONTINUOUS
 10
4.786826
 20
4.987033
 30
0.000000
 11
4.779197
 21
4.987033
 31
0.000000
  0
LINE
  8
0
 62
     7
  6
CONTINUOUS
 10
4.779197
 20
4.987033
 30
0.000000
 11
4.772330
 21
4.988559
 31
0.000000
  0
LINE
  8
0
 62
     7
  6
CONTINUOUS
 10
4.772330
 20
4.988559
 30
0.000000
 11
4.718161
 21
5.013736
 31
0.000000
  0
LINE
  8
0
 62
     7
  6
CONTINUOUS
 10
4.718161
 20
5.013736
 30
0.000000
 11
4.710532
 21
5.009922
 31
0.000000
  0
LINE
  8
0
 62
     7
  6
CONTINUOUS
 10
4.710532
 20
5.009922
 30
0.000000
 11
4.672385
 21
5.048069
 31
0.000000
  0
LINE
  8
0
 62
     7
  6
CONTINUOUS
 10
4.713584
 20
4.996189
 30
0.000000
 11
4.710532
 21
5.009922
 31
0.000000
  0
LINE
  8
0
 62
     7
  6
CONTINUOUS
 10
4.786826
 20
4.872592
 30
0.000000
 11
4.713584
 21
4.996189
 31
0.000000
  0
LINE
  8
0
 62
     7
  6
CONTINUOUS
 10
4.802085
 20
4.819187
 30
0.000000
 11
4.786826
 21
4.872592
 31
0.000000
  0
LINE
  8
0
 62
     7
  6
CONTINUOUS
 10
4.832602
 20
4.781040
 30
0.000000
 11
4.802085
 21
4.819187
 31
0.000000
  0
LINE
  8
0
 62
     7
  6
CONTINUOUS
 10
4.741050
 20
4.887851
 30
0.000000
 11
4.802085
 21
4.819187
 31
0.000000
  0
LINE
  8
0
 62
     7
  6
CONTINUOUS
 10
4.741050
 20
4.887851
 30
0.000000
 11
4.725791
 21
4.910739
 31
0.000000
  0
LINE
  8
0
 62
     7
  6
CONTINUOUS
 10
4.725791
 20
4.910739
 30
0.000000
 11
4.704428
 21
4.942020
 31
0.000000
  0
LINE
  8
0
 62
     7
  6
CONTINUOUS
 10
4.704428
 20
4.942020
 30
0.000000
 11
4.702903
 21
4.948886
 31
0.000000
  0
LINE
  8
0
 62
     7
  6
CONTINUOUS
 10
4.733420
 20
4.880222
 30
0.000000
 11
4.725791
 21
4.910739
 31
0.000000
  0
LINE
  8
0
 62
     7
  6
CONTINUOUS
 10
4.736113
 20
4.858007
 30
0.000000
 11
4.733420
 21
4.880222
 31
0.000000
  0
LINE
  8
0
 62
     7
  6
CONTINUOUS
 10
4.769278
 20
4.787906
 30
0.000000
 11
4.736113
 21
4.858007
 31
0.000000
  0
LINE
  8
0
 62
     7
  6
CONTINUOUS
 10
4.769278
 20
4.787906
 30
0.000000
 11
4.779197
 21
4.750522
 31
0.000000
  0
LINE
  8
0
 62
     7
  6
CONTINUOUS
 10
4.847861
 20
4.636081
 30
0.000000
 11
4.779197
 21
4.750522
 31
0.000000
  0
LINE
  8
0
 62
     7
  6
CONTINUOUS
 10
4.847861
 20
4.605564
 30
0.000000
 11
4.847861
 21
4.636081
 31
0.000000
  0
LINE
  8
0
 62
     7
  6
CONTINUOUS
 10
4.817344
 20
4.964145
 30
0.000000
 11
4.786826
 21
4.987033
 31
0.000000
  0
LINE
  8
0
 62
     7
  6
CONTINUOUS
 10
4.573203
 20
5.215915
 30
0.000000
 11
4.504538
 21
5.284580
 31
0.000000
  0
LINE
  8
0
 62
     7
  6
CONTINUOUS
 10
4.504538
 20
5.284580
 30
0.000000
 11
4.474021
 21
5.322727
 31
0.000000
  0
LINE
  8
0
 62
     7
  6
CONTINUOUS
 10
4.474021
 20
5.322727
 30
0.000000
 11
4.458762
 21
5.345615
 31
0.000000
  0
LINE
  8
0
 62
    12
  6
CONTINUOUS
 10
4.458762
 20
5.345615
 30
0.000000
 11
4.458762
 21
5.353244
 31
0.000000
  0
LINE
  8
0
 62
     7
  6
CONTINUOUS
 10
4.458762
 20
5.353244
 30
0.000000
 11
4.451133
 21
5.376132
 31
0.000000
  0
LINE
  8
0
 62
     7
  6
CONTINUOUS
 10
4.451133
 20
5.376132
 30
0.000000
 11
4.454947
 21
5.399021
 31
0.000000
  0
ARC
  8
0
 62
     7
  6
CONTINUOUS
 10
4.348291
 20
5.850189
 30
0.000000
 40
0.463603
 50
283.300525
 51
299.021560
  0
LINE
  8
0
 62
     7
  6
CONTINUOUS
 10
4.573203
 20
5.444797
 30
0.000000
 11
4.611350
 21
5.482944
 31
0.000000
  0
LINE
  8
0
 62
     7
  6
CONTINUOUS
 10
4.611350
 20
5.482944
 30
0.000000
 11
4.662467
 21
5.575260
 31
0.000000
  0
LINE
  8
0
 62
     7
  6
CONTINUOUS
 10
4.662467
 20
5.575260
 30
0.000000
 11
4.672385
 21
5.597385
 31
0.000000
  0
LINE
  8
0
 62
     7
  6
CONTINUOUS
 10
4.680014
 20
5.597385
 30
0.000000
 11
4.672385
 21
5.597385
 31
0.000000
  0
LINE
  8
0
 62
    12
  6
CONTINUOUS
 10
4.680014
 20
5.597385
 30
0.000000
 11
4.680014
 21
5.605014
 31
0.000000
  0
LINE
  8
0
 62
     7
  6
CONTINUOUS
 10
4.680014
 20
5.605014
 30
0.000000
 11
4.687644
 21
5.688938
 31
0.000000
  0
LINE
  8
0
 62
     7
  6
CONTINUOUS
 10
4.733420
 20
5.605014
 30
0.000000
 11
4.736983
 21
5.719233
 31
0.000000
  0
LINE
  8
0
 62
     7
  6
CONTINUOUS
 10
4.718161
 20
5.566867
 30
0.000000
 11
4.733420
 21
5.605014
 31
0.000000
  0
LINE
  8
0
 62
     7
  6
CONTINUOUS
 10
4.695273
 20
5.513462
 30
0.000000
 11
4.718161
 21
5.566867
 31
0.000000
  0
LINE
  8
0
 62
    12
  6
CONTINUOUS
 10
4.695273
 20
5.513462
 30
0.000000
 11
4.687644
 21
5.513462
 31
0.000000
  0
LINE
  8
0
 62
    12
  6
CONTINUOUS
 10
4.687644
 20
5.513462
 30
0.000000
 11
4.687644
 21
5.589756
 31
0.000000
  0
LINE
  8
0
 62
    12
  6
CONTINUOUS
 10
4.687644
 20
5.589756
 30
0.000000
 11
4.680014
 21
5.597385
 31
0.000000
  0
LINE
  8
0
 62
     7
  6
CONTINUOUS
 10
4.588462
 20
5.528720
 30
0.000000
 11
4.634238
 21
5.597385
 31
0.000000
  0
LINE
  8
0
 62
     7
  6
CONTINUOUS
 10
4.580832
 20
5.521091
 30
0.000000
 11
4.588462
 21
5.528720
 31
0.000000
  0
LINE
  8
0
 62
     7
  6
CONTINUOUS
 10
4.495167
 20
5.439068
 30
0.000000
 11
4.580832
 21
5.521091
 31
0.000000
  0
LINE
  8
0
 62
     7
  6
CONTINUOUS
 10
4.466391
 20
5.421909
 30
0.000000
 11
4.495167
 21
5.439068
 31
0.000000
  0
LINE
  8
0
 62
     7
  6
CONTINUOUS
 10
4.454947
 20
5.399021
 30
0.000000
 11
4.466391
 21
5.421909
 31
0.000000
  0
LINE
  8
0
 62
     7
  6
CONTINUOUS
 10
4.466391
 20
5.315097
 30
0.000000
 11
4.458762
 21
5.345615
 31
0.000000
  0
LINE
  8
0
 62
     7
  6
CONTINUOUS
 10
4.472495
 20
5.276187
 30
0.000000
 11
4.466391
 21
5.315097
 31
0.000000
  0
LINE
  8
0
 62
     7
  6
CONTINUOUS
 10
4.223624
 20
5.366672
 30
0.000000
 11
4.306937
 21
5.411991
 31
0.000000
  0
LINE
  8
0
 62
     7
  6
CONTINUOUS
 10
4.199363
 20
5.345615
 30
0.000000
 11
4.223624
 21
5.366672
 31
0.000000
  0
LINE
  8
0
 62
     7
  6
CONTINUOUS
 10
4.123069
 20
5.261692
 30
0.000000
 11
4.199363
 21
5.345615
 31
0.000000
  0
LINE
  8
0
 62
     7
  6
CONTINUOUS
 10
4.109570
 20
5.245259
 30
0.000000
 11
4.123069
 21
5.261692
 31
0.000000
  0
LINE
  8
0
 62
     7
  6
CONTINUOUS
 10
4.092551
 20
5.215915
 30
0.000000
 11
4.109570
 21
5.245259
 31
0.000000
  0
LINE
  8
0
 62
     7
  6
CONTINUOUS
 10
4.069663
 20
5.193027
 30
0.000000
 11
4.092551
 21
5.215915
 31
0.000000
  0
LINE
  8
0
 62
     7
  6
CONTINUOUS
 10
4.009391
 20
5.168613
 30
0.000000
 11
4.069663
 21
5.193027
 31
0.000000
  0
LINE
  8
0
 62
     7
  6
CONTINUOUS
 10
3.955222
 20
5.139621
 30
0.000000
 11
4.009391
 21
5.168613
 31
0.000000
  0
LINE
  8
0
 62
     7
  6
CONTINUOUS
 10
3.955222
 20
5.139621
 30
0.000000
 11
3.947593
 21
5.147251
 31
0.000000
  0
LINE
  8
0
 62
     7
  6
CONTINUOUS
 10
3.947593
 20
5.147251
 30
0.000000
 11
3.924704
 21
5.147251
 31
0.000000
  0
LINE
  8
0
 62
     7
  6
CONTINUOUS
 10
3.886557
 20
5.139621
 30
0.000000
 11
3.924704
 21
5.147251
 31
0.000000
  0
LINE
  8
0
 62
     7
  6
CONTINUOUS
 10
3.817893
 20
5.139621
 30
0.000000
 11
3.886557
 21
5.139621
 31
0.000000
  0
LINE
  8
0
 62
     7
  6
CONTINUOUS
 10
3.809501
 20
5.144962
 30
0.000000
 11
3.817893
 21
5.139621
 31
0.000000
  0
LINE
  8
0
 62
     7
  6
CONTINUOUS
 10
3.795768
 20
5.149539
 30
0.000000
 11
3.809501
 21
5.144962
 31
0.000000
  0
LINE
  8
0
 62
     7
  6
CONTINUOUS
 10
3.772116
 20
5.162509
 30
0.000000
 11
3.795768
 21
5.149539
 31
0.000000
  0
LINE
  8
0
 62
     7
  6
CONTINUOUS
 10
3.749228
 20
5.170139
 30
0.000000
 11
3.772116
 21
5.162509
 31
0.000000
  0
LINE
  8
0
 62
     7
  6
CONTINUOUS
 10
3.749228
 20
5.170139
 30
0.000000
 11
3.680564
 21
5.238803
 31
0.000000
  0
LINE
  8
0
 62
     7
  6
CONTINUOUS
 10
3.680564
 20
5.238803
 30
0.000000
 11
3.675223
 21
5.247196
 31
0.000000
  0
LINE
  8
0
 62
     7
  6
CONTINUOUS
 10
3.675223
 20
5.247196
 30
0.000000
 11
3.634787
 21
5.353244
 31
0.000000
  0
LINE
  8
0
 62
     7
  6
CONTINUOUS
 10
3.634787
 20
5.353244
 30
0.000000
 11
3.634787
 21
5.429538
 31
0.000000
  0
LINE
  8
0
 62
     7
  6
CONTINUOUS
 10
3.634787
 20
5.429538
 30
0.000000
 11
3.648520
 21
5.460819
 31
0.000000
  0
LINE
  8
0
 62
     7
  6
CONTINUOUS
 10
3.648520
 20
5.460819
 30
0.000000
 11
3.667998
 21
5.520418
 31
0.000000
  0
LINE
  8
0
 62
     7
  6
CONTINUOUS
 10
3.667998
 20
5.520418
 30
0.000000
 11
3.680564
 21
5.566867
 31
0.000000
  0
LINE
  8
0
 62
     7
  6
CONTINUOUS
 10
3.680564
 20
5.566867
 30
0.000000
 11
3.662371
 21
5.657833
 31
0.000000
  0
LINE
  8
0
 62
     7
  6
CONTINUOUS
 10
3.662371
 20
5.657833
 30
0.000000
 11
3.644706
 21
5.765995
 31
0.000000
  0
LINE
  8
0
 62
     7
  6
CONTINUOUS
 10
3.644706
 20
5.765995
 30
0.000000
 11
3.633262
 21
5.794986
 31
0.000000
  0
LINE
  8
0
 62
     7
  6
CONTINUOUS
 10
3.633262
 20
5.794986
 30
0.000000
 11
3.627158
 21
5.803379
 31
0.000000
  0
LINE
  8
0
 62
     7
  6
CONTINUOUS
 10
3.627158
 20
5.803379
 30
0.000000
 11
3.619529
 21
5.803379
 31
0.000000
  0
LINE
  8
0
 62
     7
  6
CONTINUOUS
 10
3.550864
 20
5.734714
 30
0.000000
 11
3.619529
 21
5.803379
 31
0.000000
  0
LINE
  8
0
 62
     7
  6
CONTINUOUS
 10
3.496695
 20
5.706485
 30
0.000000
 11
3.550864
 21
5.734714
 31
0.000000
  0
LINE
  8
0
 62
     7
  6
CONTINUOUS
 10
3.482199
 20
5.704196
 30
0.000000
 11
3.496695
 21
5.706485
 31
0.000000
  0
LINE
  8
0
 62
     7
  6
CONTINUOUS
 10
3.535605
 20
5.681308
 30
0.000000
 11
3.589011
 21
5.734714
 31
0.000000
  0
LINE
  8
0
 62
     7
  6
CONTINUOUS
 10
3.596640
 20
5.734714
 30
0.000000
 11
3.589011
 21
5.734714
 31
0.000000
  0
LINE
  8
0
 62
     7
  6
CONTINUOUS
 10
3.596640
 20
5.734714
 30
0.000000
 11
3.604270
 21
5.742343
 31
0.000000
  0
LINE
  8
0
 62
     7
  6
CONTINUOUS
 10
3.604270
 20
5.742343
 30
0.000000
 11
3.611899
 21
5.742343
 31
0.000000
  0
LINE
  8
0
 62
     7
  6
CONTINUOUS
 10
3.627158
 20
5.803379
 30
0.000000
 11
3.627158
 21
5.811008
 31
0.000000
  0
LINE
  8
0
 62
     7
  6
CONTINUOUS
 10
3.627158
 20
5.811008
 30
0.000000
 11
3.604270
 21
5.971225
 31
0.000000
  0
LINE
  8
0
 62
     7
  6
CONTINUOUS
 10
3.604270
 20
5.971225
 30
0.000000
 11
3.611899
 21
6.009372
 31
0.000000
  0
LINE
  8
0
 62
     7
  6
CONTINUOUS
 10
3.573752
 20
6.009372
 30
0.000000
 11
3.613425
 21
6.092533
 31
0.000000
  0
LINE
  8
0
 62
     7
  6
CONTINUOUS
 10
3.613425
 20
6.092533
 30
0.000000
 11
3.647757
 21
6.151279
 31
0.000000
  0
LINE
  8
0
 62
     7
  6
CONTINUOUS
 10
3.647757
 20
6.151279
 30
0.000000
 11
3.680564
 21
6.169590
 31
0.000000
  0
LINE
  8
0
 62
     7
  6
CONTINUOUS
 10
3.680564
 20
6.169590
 30
0.000000
 11
3.695823
 21
6.215366
 31
0.000000
  0
LINE
  8
0
 62
    12
  6
CONTINUOUS
 10
3.695823
 20
6.215366
 30
0.000000
 11
3.695823
 21
6.222995
 31
0.000000
  0
LINE
  8
0
 62
     7
  6
CONTINUOUS
 10
3.695823
 20
6.222995
 30
0.000000
 11
3.688193
 21
6.222995
 31
0.000000
  0
LINE
  8
0
 62
     7
  6
CONTINUOUS
 10
3.688193
 20
6.222995
 30
0.000000
 11
3.642417
 21
6.238254
 31
0.000000
  0
LINE
  8
0
 62
     7
  6
CONTINUOUS
 10
3.688604
 20
6.279688
 30
0.000000
 11
3.642417
 21
6.284030
 31
0.000000
  0
LINE
  8
0
 62
     7
  6
CONTINUOUS
 10
3.749991
 20
6.271060
 30
0.000000
 11
3.688604
 21
6.279688
 31
0.000000
  0
LINE
  8
0
 62
     7
  6
CONTINUOUS
 10
3.772116
 20
6.261142
 30
0.000000
 11
3.749991
 21
6.271060
 31
0.000000
  0
LINE
  8
0
 62
     7
  6
CONTINUOUS
 10
3.779746
 20
6.261142
 30
0.000000
 11
3.772116
 21
6.261142
 31
0.000000
  0
LINE
  8
0
 62
     7
  6
CONTINUOUS
 10
3.779746
 20
6.261142
 30
0.000000
 11
3.799268
 21
6.286050
 31
0.000000
  0
LINE
  8
0
 62
     7
  6
CONTINUOUS
 10
3.799268
 20
6.286050
 30
0.000000
 11
3.808738
 21
6.307682
 31
0.000000
  0
LINE
  8
0
 62
     7
  6
CONTINUOUS
 10
3.808738
 20
6.307682
 30
0.000000
 11
3.810263
 21
6.314548
 31
0.000000
  0
LINE
  8
0
 62
     7
  6
CONTINUOUS
 10
3.810263
 20
6.314548
 30
0.000000
 11
3.833152
 21
6.383213
 31
0.000000
  0
LINE
  8
0
 62
     7
  6
CONTINUOUS
 10
3.833152
 20
6.383213
 30
0.000000
 11
3.894187
 21
6.490024
 31
0.000000
  0
LINE
  8
0
 62
     7
  6
CONTINUOUS
 10
3.894187
 20
6.490024
 30
0.000000
 11
3.894187
 21
6.497653
 31
0.000000
  0
LINE
  8
0
 62
     7
  6
CONTINUOUS
 10
3.894187
 20
6.497653
 30
0.000000
 11
3.886557
 21
6.497653
 31
0.000000
  0
LINE
  8
0
 62
     7
  6
CONTINUOUS
 10
3.886557
 20
6.497653
 30
0.000000
 11
3.825522
 21
6.634983
 31
0.000000
  0
LINE
  8
0
 62
    12
  6
CONTINUOUS
 10
3.825522
 20
6.634983
 30
0.000000
 11
3.825522
 21
6.642612
 31
0.000000
  0
LINE
  8
0
 62
     7
  6
CONTINUOUS
 10
3.825522
 20
6.642612
 30
0.000000
 11
3.833152
 21
6.650241
 31
0.000000
  0
LINE
  8
0
 62
    12
  6
CONTINUOUS
 10
3.856040
 20
6.650241
 30
0.000000
 11
3.833152
 21
6.650241
 31
0.000000
  0
LINE
  8
0
 62
     7
  6
CONTINUOUS
 10
3.871299
 20
6.650241
 30
0.000000
 11
3.856040
 21
6.650241
 31
0.000000
  0
LINE
  8
0
 62
     7
  6
CONTINUOUS
 10
3.879691
 20
6.644138
 30
0.000000
 11
3.871299
 21
6.650241
 31
0.000000
  0
LINE
  8
0
 62
     7
  6
CONTINUOUS
 10
3.901816
 20
6.634983
 30
0.000000
 11
3.879691
 21
6.644138
 31
0.000000
  0
LINE
  8
0
 62
     7
  6
CONTINUOUS
 10
3.863669
 20
6.650241
 30
0.000000
 11
3.863669
 21
6.665500
 31
0.000000
  0
LINE
  8
0
 62
     7
  6
CONTINUOUS
 10
3.863669
 20
6.665500
 30
0.000000
 11
3.833152
 21
6.696018
 31
0.000000
  0
LINE
  8
0
 62
     7
  6
CONTINUOUS
 10
3.810263
 20
6.657871
 30
0.000000
 11
3.772116
 21
6.688388
 31
0.000000
  0
LINE
  8
0
 62
     7
  6
CONTINUOUS
 10
3.810263
 20
6.657871
 30
0.000000
 11
3.829337
 21
6.646426
 31
0.000000
  0
LINE
  8
0
 62
     7
  6
CONTINUOUS
 10
3.962851
 20
6.757053
 30
0.000000
 11
3.924704
 21
6.757053
 31
0.000000
  0
LINE
  8
0
 62
     7
  6
CONTINUOUS
 10
3.962851
 20
6.757053
 30
0.000000
 11
3.993369
 21
6.779941
 31
0.000000
  0
LINE
  8
0
 62
     7
  6
CONTINUOUS
 10
3.993369
 20
6.779941
 30
0.000000
 11
3.963525
 21
6.790263
 31
0.000000
  0
LINE
  8
0
 62
     7
  6
CONTINUOUS
 10
3.963525
 20
6.790263
 30
0.000000
 11
3.933897
 21
6.804705
 31
0.000000
  0
LINE
  8
0
 62
     7
  6
CONTINUOUS
 10
3.933897
 20
6.804705
 30
0.000000
 11
3.886557
 21
6.840976
 31
0.000000
  0
LINE
  8
0
 62
     7
  6
CONTINUOUS
 10
3.886557
 20
6.840976
 30
0.000000
 11
3.878928
 21
6.840976
 31
0.000000
  0
LINE
  8
0
 62
     7
  6
CONTINUOUS
 10
4.016257
 20
6.711277
 30
0.000000
 11
3.962851
 21
6.757053
 31
0.000000
  0
LINE
  8
0
 62
     7
  6
CONTINUOUS
 10
3.993369
 20
6.779941
 30
0.000000
 11
4.084921
 21
6.772311
 31
0.000000
  0
LINE
  8
0
 62
     7
  6
CONTINUOUS
 10
3.894187
 20
6.497653
 30
0.000000
 11
3.962851
 21
6.589206
 31
0.000000
  0
LINE
  8
0
 62
     7
  6
CONTINUOUS
 10
4.206992
 20
6.955417
 30
0.000000
 11
4.237510
 21
6.985935
 31
0.000000
  0
LINE
  8
0
 62
     7
  6
CONTINUOUS
 10
4.237510
 20
6.985935
 30
0.000000
 11
4.252768
 21
7.046970
 31
0.000000
  0
LINE
  8
0
 62
     7
  6
CONTINUOUS
 10
4.254873
 20
6.960679
 30
0.000000
 11
4.237510
 21
6.985935
 31
0.000000
  0
LINE
  8
0
 62
     7
  6
CONTINUOUS
 10
4.295852
 20
6.771638
 30
0.000000
 11
4.254873
 21
6.960679
 31
0.000000
  0
LINE
  8
0
 62
     7
  6
CONTINUOUS
 10
4.301237
 20
6.750097
 30
0.000000
 11
4.295852
 21
6.771638
 31
0.000000
  0
LINE
  8
0
 62
     7
  6
CONTINUOUS
 10
4.367209
 20
6.543430
 30
0.000000
 11
4.301237
 21
6.750097
 31
0.000000
  0
LINE
  8
0
 62
     7
  6
CONTINUOUS
 10
4.428244
 20
6.482395
 30
0.000000
 11
4.367209
 21
6.543430
 31
0.000000
  0
LINE
  8
0
 62
     7
  6
CONTINUOUS
 10
4.535056
 20
6.421360
 30
0.000000
 11
4.428244
 21
6.482395
 31
0.000000
  0
LINE
  8
0
 62
     7
  6
CONTINUOUS
 10
4.550315
 20
6.421360
 30
0.000000
 11
4.535056
 21
6.421360
 31
0.000000
  0
LINE
  8
0
 62
    12
  6
CONTINUOUS
 10
4.650260
 20
6.385501
 30
0.000000
 11
4.550315
 21
6.421360
 31
0.000000
  0
LINE
  8
0
 62
    12
  6
CONTINUOUS
 10
4.664756
 20
6.383213
 30
0.000000
 11
4.650260
 21
6.385501
 31
0.000000
  0
LINE
  8
0
 62
     7
  6
CONTINUOUS
 10
4.664756
 20
6.383213
 30
0.000000
 11
4.679251
 21
6.374057
 31
0.000000
  0
LINE
  8
0
 62
     7
  6
CONTINUOUS
 10
4.679251
 20
6.374057
 30
0.000000
 11
4.687644
 21
6.367954
 31
0.000000
  0
LINE
  8
0
 62
     7
  6
CONTINUOUS
 10
4.687644
 20
6.367954
 30
0.000000
 11
4.784542
 21
6.376762
 31
0.000000
  0
ARC
  8
0
 62
     7
  6
CONTINUOUS
 10
4.656298
 20
7.787514
 30
0.000000
 40
1.416568
 50
275.194183
 51
282.791117
  0
LINE
  8
0
 62
     7
  6
CONTINUOUS
 10
5.030451
 20
6.416823
 30
0.000000
 11
4.969922
 21
6.406099
 31
0.000000
  0
LINE
  8
0
 62
     7
  6
CONTINUOUS
 10
5.030451
 20
6.416823
 30
0.000000
 11
5.122519
 21
6.451877
 31
0.000000
  0
LINE
  8
0
 62
     7
  6
CONTINUOUS
 10
5.122519
 20
6.451877
 30
0.000000
 11
5.137778
 21
6.444248
 31
0.000000
  0
LINE
  8
0
 62
     7
  6
CONTINUOUS
 10
5.145407
 20
6.444248
 30
0.000000
 11
5.137778
 21
6.444248
 31
0.000000
  0
LINE
  8
0
 62
     7
  6
CONTINUOUS
 10
5.145407
 20
6.444248
 30
0.000000
 11
5.145407
 21
6.428989
 31
0.000000
  0
LINE
  8
0
 62
     7
  6
CONTINUOUS
 10
5.122519
 20
6.406101
 30
0.000000
 11
5.145407
 21
6.428989
 31
0.000000
  0
LINE
  8
0
 62
     7
  6
CONTINUOUS
 10
5.092002
 20
6.390842
 30
0.000000
 11
5.122519
 21
6.406101
 31
0.000000
  0
LINE
  8
0
 62
     7
  6
CONTINUOUS
 10
5.016471
 20
6.343540
 30
0.000000
 11
5.092002
 21
6.390842
 31
0.000000
  0
LINE
  8
0
 62
     7
  6
CONTINUOUS
 10
4.816581
 20
6.286319
 30
0.000000
 11
5.016471
 21
6.343540
 31
0.000000
  0
LINE
  8
0
 62
     7
  6
CONTINUOUS
 10
4.803611
 20
6.280979
 30
0.000000
 11
4.816581
 21
6.286319
 31
0.000000
  0
LINE
  8
0
 62
     7
  6
CONTINUOUS
 10
4.765112
 20
6.259382
 30
0.000000
 11
4.803611
 21
6.280979
 31
0.000000
  0
LINE
  8
0
 62
     7
  6
CONTINUOUS
 10
4.748679
 20
6.245883
 30
0.000000
 11
4.765112
 21
6.259382
 31
0.000000
  0
LINE
  8
0
 62
     7
  6
CONTINUOUS
 10
4.779197
 20
6.177219
 30
0.000000
 11
4.756308
 21
6.207736
 31
0.000000
  0
LINE
  8
0
 62
     7
  6
CONTINUOUS
 10
4.786826
 20
6.161960
 30
0.000000
 11
4.779197
 21
6.177219
 31
0.000000
  0
LINE
  8
0
 62
     7
  6
CONTINUOUS
 10
4.822684
 20
6.084903
 30
0.000000
 11
4.786826
 21
6.161960
 31
0.000000
  0
LINE
  8
0
 62
     7
  6
CONTINUOUS
 10
4.824973
 20
6.070407
 30
0.000000
 11
4.822684
 21
6.084903
 31
0.000000
  0
LINE
  8
0
 62
     7
  6
CONTINUOUS
 10
4.824973
 20
6.062778
 30
0.000000
 11
4.824973
 21
6.070407
 31
0.000000
  0
LINE
  8
0
 62
     7
  6
CONTINUOUS
 10
4.824973
 20
6.062778
 30
0.000000
 11
4.817344
 21
6.062778
 31
0.000000
  0
LINE
  8
0
 62
     7
  6
CONTINUOUS
 10
4.817344
 20
6.062778
 30
0.000000
 11
4.794455
 21
6.093296
 31
0.000000
  0
LINE
  8
0
 62
     7
  6
CONTINUOUS
 10
4.794455
 20
6.093296
 30
0.000000
 11
4.786826
 21
6.093296
 31
0.000000
  0
LINE
  8
0
 62
     7
  6
CONTINUOUS
 10
4.786826
 20
6.093296
 30
0.000000
 11
4.781485
 21
6.101688
 31
0.000000
  0
LINE
  8
0
 62
     7
  6
CONTINUOUS
 10
4.781485
 20
6.101688
 30
0.000000
 11
4.762177
 21
6.145528
 31
0.000000
  0
LINE
  8
0
 62
     7
  6
CONTINUOUS
 10
4.762177
 20
6.145528
 30
0.000000
 11
4.748679
 21
6.161960
 31
0.000000
  0
LINE
  8
0
 62
     7
  6
CONTINUOUS
 10
4.786826
 20
6.085666
 30
0.000000
 11
4.786826
 21
6.093296
 31
0.000000
  0
LINE
  8
0
 62
     7
  6
CONTINUOUS
 10
4.794455
 20
5.986484
 30
0.000000
 11
4.786826
 21
6.085666
 31
0.000000
  0
LINE
  8
0
 62
     7
  6
CONTINUOUS
 10
4.800559
 20
5.978092
 30
0.000000
 11
4.794455
 21
5.986484
 31
0.000000
  0
LINE
  8
0
 62
     7
  6
CONTINUOUS
 10
4.809714
 20
5.955966
 30
0.000000
 11
4.800559
 21
5.978092
 31
0.000000
  0
LINE
  8
0
 62
     7
  6
CONTINUOUS
 10
4.774660
 20
5.924933
 30
0.000000
 11
4.788352
 21
5.978092
 31
0.000000
  0
LINE
  8
0
 62
     7
  6
CONTINUOUS
 10
4.771567
 20
5.887302
 30
0.000000
 11
4.774660
 21
5.924933
 31
0.000000
  0
LINE
  8
0
 62
     7
  6
CONTINUOUS
 10
4.771567
 20
5.872043
 30
0.000000
 11
4.771567
 21
5.887302
 31
0.000000
  0
LINE
  8
0
 62
     7
  6
CONTINUOUS
 10
4.775068
 20
5.780760
 30
0.000000
 11
4.771567
 21
5.872043
 31
0.000000
  0
LINE
  8
0
 62
     7
  6
CONTINUOUS
 10
4.786826
 20
5.734714
 30
0.000000
 11
4.775068
 21
5.780760
 31
0.000000
  0
LINE
  8
0
 62
     7
  6
CONTINUOUS
 10
4.779197
 20
5.727085
 30
0.000000
 11
4.786826
 21
5.734714
 31
0.000000
  0
LINE
  8
0
 62
     7
  6
CONTINUOUS
 10
4.779197
 20
5.711826
 30
0.000000
 11
4.779197
 21
5.727085
 31
0.000000
  0
LINE
  8
0
 62
     7
  6
CONTINUOUS
 10
4.817344
 20
5.620273
 30
0.000000
 11
4.779197
 21
5.711826
 31
0.000000
  0
LINE
  8
0
 62
     7
  6
CONTINUOUS
 10
4.779197
 20
5.719455
 30
0.000000
 11
4.771567
 21
5.719455
 31
0.000000
  0
LINE
  8
0
 62
     7
  6
CONTINUOUS
 10
4.771567
 20
5.719455
 30
0.000000
 11
4.748679
 21
5.757602
 31
0.000000
  0
LINE
  8
0
 62
     7
  6
CONTINUOUS
 10
4.748679
 20
5.757602
 30
0.000000
 11
4.741050
 21
5.757602
 31
0.000000
  0
LINE
  8
0
 62
     7
  6
CONTINUOUS
 10
4.741050
 20
5.749973
 30
0.000000
 11
4.741050
 21
5.765232
 31
0.000000
  0
LINE
  8
0
 62
     7
  6
CONTINUOUS
 10
4.741050
 20
5.765232
 30
0.000000
 11
4.729474
 21
5.801800
 31
0.000000
  0
LINE
  8
0
 62
     7
  6
CONTINUOUS
 10
4.729474
 20
5.801800
 30
0.000000
 11
4.718161
 21
5.818637
 31
0.000000
  0
LINE
  8
0
 62
     7
  6
CONTINUOUS
 10
4.786826
 20
5.879673
 30
0.000000
 11
4.771567
 21
5.879673
 31
0.000000
  0
LINE
  8
0
 62
     7
  6
CONTINUOUS
 10
4.786826
 20
5.879673
 30
0.000000
 11
4.886008
 21
5.978855
 31
0.000000
  0
LINE
  8
0
 62
     7
  6
CONTINUOUS
 10
4.886008
 20
5.978855
 30
0.000000
 11
4.940940
 21
6.062015
 31
0.000000
  0
LINE
  8
0
 62
     7
  6
CONTINUOUS
 10
4.940940
 20
6.062015
 30
0.000000
 11
4.948569
 21
6.077274
 31
0.000000
  0
LINE
  8
0
 62
     7
  6
CONTINUOUS
 10
4.948569
 20
6.077274
 30
0.000000
 11
5.009604
 21
6.237491
 31
0.000000
  0
LINE
  8
0
 62
     7
  6
CONTINUOUS
 10
5.009604
 20
6.237491
 30
0.000000
 11
5.021811
 21
6.261905
 31
0.000000
  0
LINE
  8
0
 62
     7
  6
CONTINUOUS
 10
5.021811
 20
6.261905
 30
0.000000
 11
5.048086
 21
6.305430
 31
0.000000
  0
LINE
  8
0
 62
     7
  6
CONTINUOUS
 10
5.048086
 20
6.305430
 30
0.000000
 11
5.107261
 21
6.375583
 31
0.000000
  0
LINE
  8
0
 62
     7
  6
CONTINUOUS
 10
5.107261
 20
6.375583
 30
0.000000
 11
5.122519
 21
6.406101
 31
0.000000
  0
LINE
  8
0
 62
     7
  6
CONTINUOUS
 10
4.832602
 20
6.055149
 30
0.000000
 11
4.824973
 21
6.062778
 31
0.000000
  0
LINE
  8
0
 62
     7
  6
CONTINUOUS
 10
4.788352
 20
5.978092
 30
0.000000
 11
4.794455
 21
5.986484
 31
0.000000
  0
LINE
  8
0
 62
     7
  6
CONTINUOUS
 10
4.736983
 20
5.719233
 30
0.000000
 11
4.741050
 21
5.749973
 31
0.000000
  0
LINE
  8
0
 62
     7
  6
CONTINUOUS
 10
4.557944
 20
5.536350
 30
0.000000
 11
4.573203
 21
5.536350
 31
0.000000
  0
LINE
  8
0
 62
     7
  6
CONTINUOUS
 10
4.472847
 20
5.477075
 30
0.000000
 11
4.557944
 21
5.536350
 31
0.000000
  0
LINE
  8
0
 62
     7
  6
CONTINUOUS
 10
4.458762
 20
5.467685
 30
0.000000
 11
4.472847
 21
5.477075
 31
0.000000
  0
LINE
  8
0
 62
     7
  6
CONTINUOUS
 10
4.367209
 20
5.528720
 30
0.000000
 11
4.374839
 21
5.536350
 31
0.000000
  0
LINE
  8
0
 62
     7
  6
CONTINUOUS
 10
4.329062
 20
5.505832
 30
0.000000
 11
4.367209
 21
5.528720
 31
0.000000
  0
LINE
  8
0
 62
    12
  6
CONTINUOUS
 10
4.298545
 20
5.482944
 30
0.000000
 11
4.329062
 21
5.505832
 31
0.000000
  0
LINE
  8
0
 62
     7
  6
CONTINUOUS
 10
4.178371
 20
5.412572
 30
0.000000
 11
4.268027
 21
5.513462
 31
0.000000
  0
LINE
  8
0
 62
     7
  6
CONTINUOUS
 10
4.155875
 20
5.367740
 30
0.000000
 11
4.178371
 21
5.412572
 31
0.000000
  0
LINE
  8
0
 62
     7
  6
CONTINUOUS
 10
4.145957
 20
5.337986
 30
0.000000
 11
4.155875
 21
5.367740
 31
0.000000
  0
LINE
  8
0
 62
     7
  6
CONTINUOUS
 10
4.145957
 20
5.337986
 30
0.000000
 11
4.116319
 21
5.253476
 31
0.000000
  0
LINE
  8
0
 62
    12
  6
CONTINUOUS
 10
4.098617
 20
5.164386
 30
0.000000
 11
4.145957
 21
5.200656
 31
0.000000
  0
LINE
  8
0
 62
    12
  6
CONTINUOUS
 10
4.017020
 20
5.107578
 30
0.000000
 11
4.098617
 21
5.164386
 31
0.000000
  0
LINE
  8
0
 62
    12
  6
CONTINUOUS
 10
3.970481
 20
5.078586
 30
0.000000
 11
4.017020
 21
5.107578
 31
0.000000
  0
LINE
  8
0
 62
     7
  6
CONTINUOUS
 10
3.923531
 20
5.110864
 30
0.000000
 11
3.939963
 21
5.124362
 31
0.000000
  0
LINE
  8
0
 62
     7
  6
CONTINUOUS
 10
3.871299
 20
5.086215
 30
0.000000
 11
3.923531
 21
5.110864
 31
0.000000
  0
LINE
  8
0
 62
     7
  6
CONTINUOUS
 10
3.787375
 20
5.086215
 30
0.000000
 11
3.871299
 21
5.086215
 31
0.000000
  0
LINE
  8
0
 62
     7
  6
CONTINUOUS
 10
3.740836
 20
5.107578
 30
0.000000
 11
3.787375
 21
5.086215
 31
0.000000
  0
LINE
  8
0
 62
     7
  6
CONTINUOUS
 10
3.718711
 20
5.116733
 30
0.000000
 11
3.740836
 21
5.107578
 31
0.000000
  0
LINE
  8
0
 62
     7
  6
CONTINUOUS
 10
3.672934
 20
5.170139
 30
0.000000
 11
3.718711
 21
5.116733
 31
0.000000
  0
LINE
  8
0
 62
     7
  6
CONTINUOUS
 10
3.672934
 20
5.223545
 30
0.000000
 11
3.672934
 21
5.170139
 31
0.000000
  0
LINE
  8
0
 62
     7
  6
CONTINUOUS
 10
3.680564
 20
5.231174
 30
0.000000
 11
3.672934
 21
5.223545
 31
0.000000
  0
LINE
  8
0
 62
     7
  6
CONTINUOUS
 10
3.680564
 20
5.231174
 30
0.000000
 11
3.684378
 21
5.234989
 31
0.000000
  0
LINE
  8
0
 62
     7
  6
CONTINUOUS
 10
3.703452
 20
5.292209
 30
0.000000
 11
3.718711
 21
5.231174
 31
0.000000
  0
LINE
  8
0
 62
     7
  6
CONTINUOUS
 10
3.703452
 20
5.337986
 30
0.000000
 11
3.703452
 21
5.292209
 31
0.000000
  0
LINE
  8
0
 62
     7
  6
CONTINUOUS
 10
3.733970
 20
5.360874
 30
0.000000
 11
3.703452
 21
5.337986
 31
0.000000
  0
LINE
  8
0
 62
     7
  6
CONTINUOUS
 10
3.787375
 20
5.360874
 30
0.000000
 11
3.733970
 21
5.360874
 31
0.000000
  0
LINE
  8
0
 62
     7
  6
CONTINUOUS
 10
3.818656
 20
5.347904
 30
0.000000
 11
3.787375
 21
5.360874
 31
0.000000
  0
LINE
  8
0
 62
     7
  6
CONTINUOUS
 10
3.832389
 20
5.343326
 30
0.000000
 11
3.818656
 21
5.347904
 31
0.000000
  0
LINE
  8
0
 62
     7
  6
CONTINUOUS
 10
3.886557
 20
5.315097
 30
0.000000
 11
3.832389
 21
5.343326
 31
0.000000
  0
LINE
  8
0
 62
     7
  6
CONTINUOUS
 10
3.901816
 20
5.299839
 30
0.000000
 11
3.886557
 21
5.315097
 31
0.000000
  0
LINE
  8
0
 62
     7
  6
CONTINUOUS
 10
3.903577
 20
5.293383
 30
0.000000
 11
3.901816
 21
5.299839
 31
0.000000
  0
LINE
  8
0
 62
     7
  6
CONTINUOUS
 10
3.932334
 20
5.254062
 30
0.000000
 11
3.903577
 21
5.293383
 31
0.000000
  0
LINE
  8
0
 62
     7
  6
CONTINUOUS
 10
3.932334
 20
5.231174
 30
0.000000
 11
3.932334
 21
5.254062
 31
0.000000
  0
LINE
  8
0
 62
     7
  6
CONTINUOUS
 10
3.894187
 20
5.193027
 30
0.000000
 11
3.932334
 21
5.231174
 31
0.000000
  0
LINE
  8
0
 62
     7
  6
CONTINUOUS
 10
3.772116
 20
5.170139
 30
0.000000
 11
3.894187
 21
5.193027
 31
0.000000
  0
LINE
  8
0
 62
     7
  6
CONTINUOUS
 10
3.772116
 20
5.170139
 30
0.000000
 11
3.749228
 21
5.170139
 31
0.000000
  0
LINE
  8
0
 62
     7
  6
CONTINUOUS
 10
3.726340
 20
5.193027
 30
0.000000
 11
3.726340
 21
5.200656
 31
0.000000
  0
LINE
  8
0
 62
     7
  6
CONTINUOUS
 10
3.718711
 20
5.231174
 30
0.000000
 11
3.726340
 21
5.200656
 31
0.000000
  0
LINE
  8
0
 62
     7
  6
CONTINUOUS
 10
3.832389
 20
5.259403
 30
0.000000
 11
3.804123
 21
5.271182
 31
0.000000
  0
LINE
  8
0
 62
     7
  6
CONTINUOUS
 10
3.894187
 20
5.254062
 30
0.000000
 11
3.832389
 21
5.259403
 31
0.000000
  0
LINE
  8
0
 62
     7
  6
CONTINUOUS
 10
3.804123
 20
5.271182
 30
0.000000
 11
3.741599
 21
5.322727
 31
0.000000
  0
LINE
  8
0
 62
    12
  6
CONTINUOUS
 10
3.863669
 20
5.391391
 30
0.000000
 11
3.872824
 21
5.421146
 31
0.000000
  0
LINE
  8
0
 62
    12
  6
CONTINUOUS
 10
3.872824
 20
5.421146
 30
0.000000
 11
3.877402
 21
5.430301
 31
0.000000
  0
LINE
  8
0
 62
    12
  6
CONTINUOUS
 10
3.877402
 20
5.430301
 30
0.000000
 11
3.922844
 21
5.492062
 31
0.000000
  0
LINE
  8
0
 62
    12
  6
CONTINUOUS
 10
3.922844
 20
5.492062
 30
0.000000
 11
3.947593
 21
5.528720
 31
0.000000
  0
LINE
  8
0
 62
     7
  6
CONTINUOUS
 10
3.732209
 20
5.636706
 30
0.000000
 11
3.762198
 21
5.712589
 31
0.000000
  0
LINE
  8
0
 62
     7
  6
CONTINUOUS
 10
3.762198
 20
5.712589
 30
0.000000
 11
3.779746
 21
5.803379
 31
0.000000
  0
LINE
  8
0
 62
     7
  6
CONTINUOUS
 10
3.779746
 20
5.803379
 30
0.000000
 11
3.779746
 21
5.818637
 31
0.000000
  0
LINE
  8
0
 62
     7
  6
CONTINUOUS
 10
3.779746
 20
5.818637
 30
0.000000
 11
3.777457
 21
5.833133
 31
0.000000
  0
LINE
  8
0
 62
     7
  6
CONTINUOUS
 10
3.777457
 20
5.833133
 30
0.000000
 11
3.755027
 21
5.885929
 31
0.000000
  0
LINE
  8
0
 62
     7
  6
CONTINUOUS
 10
3.755027
 20
5.885929
 30
0.000000
 11
3.733970
 21
5.910190
 31
0.000000
  0
LINE
  8
0
 62
     7
  6
CONTINUOUS
 10
3.848410
 20
5.940708
 30
0.000000
 11
3.802634
 21
5.971225
 31
0.000000
  0
LINE
  8
0
 62
     7
  6
CONTINUOUS
 10
3.856040
 20
5.940708
 30
0.000000
 11
3.848410
 21
5.940708
 31
0.000000
  0
LINE
  8
0
 62
     7
  6
CONTINUOUS
 10
3.856040
 20
5.940708
 30
0.000000
 11
3.856040
 21
5.948337
 31
0.000000
  0
LINE
  8
0
 62
     7
  6
CONTINUOUS
 10
3.856040
 20
5.948337
 30
0.000000
 11
3.861380
 21
5.956729
 31
0.000000
  0
LINE
  8
0
 62
     7
  6
CONTINUOUS
 10
3.861380
 20
5.956729
 30
0.000000
 11
3.880689
 21
6.000569
 31
0.000000
  0
LINE
  8
0
 62
     7
  6
CONTINUOUS
 10
3.880689
 20
6.000569
 30
0.000000
 11
3.894187
 21
6.017002
 31
0.000000
  0
LINE
  8
0
 62
     7
  6
CONTINUOUS
 10
3.894187
 20
6.017002
 30
0.000000
 11
3.924704
 21
6.009372
 31
0.000000
  0
LINE
  8
0
 62
     7
  6
CONTINUOUS
 10
3.970481
 20
5.994113
 30
0.000000
 11
3.924704
 21
6.009372
 31
0.000000
  0
LINE
  8
0
 62
     7
  6
CONTINUOUS
 10
4.016257
 20
5.994113
 30
0.000000
 11
3.970481
 21
5.994113
 31
0.000000
  0
LINE
  8
0
 62
     7
  6
CONTINUOUS
 10
4.031516
 20
5.978855
 30
0.000000
 11
4.016257
 21
5.994113
 31
0.000000
  0
LINE
  8
0
 62
     7
  6
CONTINUOUS
 10
4.031516
 20
5.948337
 30
0.000000
 11
4.031516
 21
5.978855
 31
0.000000
  0
LINE
  8
0
 62
     7
  6
CONTINUOUS
 10
4.020952
 20
5.910777
 30
0.000000
 11
4.031516
 21
5.948337
 31
0.000000
  0
LINE
  8
0
 62
     7
  6
CONTINUOUS
 10
3.993369
 20
5.841526
 30
0.000000
 11
4.020952
 21
5.910777
 31
0.000000
  0
LINE
  8
0
 62
     7
  6
CONTINUOUS
 10
3.970481
 20
5.818637
 30
0.000000
 11
3.993369
 21
5.841526
 31
0.000000
  0
LINE
  8
0
 62
     7
  6
CONTINUOUS
 10
3.938437
 20
5.838474
 30
0.000000
 11
3.970481
 21
5.818637
 31
0.000000
  0
LINE
  8
0
 62
     7
  6
CONTINUOUS
 10
3.909446
 20
5.856784
 30
0.000000
 11
3.938437
 21
5.838474
 31
0.000000
  0
LINE
  8
0
 62
     7
  6
CONTINUOUS
 10
3.909446
 20
5.856784
 30
0.000000
 11
3.856040
 21
5.940708
 31
0.000000
  0
LINE
  8
0
 62
     7
  6
CONTINUOUS
 10
3.886557
 20
6.024631
 30
0.000000
 11
3.833152
 21
6.024631
 31
0.000000
  0
LINE
  8
0
 62
     7
  6
CONTINUOUS
 10
3.886557
 20
6.024631
 30
0.000000
 11
3.909446
 21
6.032260
 31
0.000000
  0
LINE
  8
0
 62
     7
  6
CONTINUOUS
 10
3.971244
 20
6.061252
 30
0.000000
 11
3.909446
 21
6.032260
 31
0.000000
  0
LINE
  8
0
 62
     7
  6
CONTINUOUS
 10
3.986255
 20
6.067314
 30
0.000000
 11
3.971244
 21
6.061252
 31
0.000000
  0
LINE
  8
0
 62
     7
  6
CONTINUOUS
 10
4.023371
 20
6.073500
 30
0.000000
 11
3.986255
 21
6.067314
 31
0.000000
  0
LINE
  8
0
 62
     7
  6
CONTINUOUS
 10
4.046775
 20
6.070407
 30
0.000000
 11
4.023371
 21
6.073500
 31
0.000000
  0
LINE
  8
0
 62
     7
  6
CONTINUOUS
 10
4.062033
 20
6.055149
 30
0.000000
 11
4.046775
 21
6.070407
 31
0.000000
  0
LINE
  8
0
 62
     7
  6
CONTINUOUS
 10
4.069663
 20
5.994113
 30
0.000000
 11
4.062033
 21
6.055149
 31
0.000000
  0
LINE
  8
0
 62
    12
  6
CONTINUOUS
 10
3.970481
 20
5.986484
 30
0.000000
 11
3.970481
 21
5.994113
 31
0.000000
  0
LINE
  8
0
 62
     7
  6
CONTINUOUS
 10
3.967788
 20
5.964269
 30
0.000000
 11
3.970481
 21
5.986484
 31
0.000000
  0
LINE
  8
0
 62
     7
  6
CONTINUOUS
 10
3.955222
 20
5.940708
 30
0.000000
 11
3.967788
 21
5.964269
 31
0.000000
  0
LINE
  8
0
 62
     7
  6
CONTINUOUS
 10
4.053889
 20
5.807915
 30
0.000000
 11
4.016257
 21
5.811008
 31
0.000000
  0
LINE
  8
0
 62
     7
  6
CONTINUOUS
 10
4.078055
 20
5.797275
 30
0.000000
 11
4.053889
 21
5.807915
 31
0.000000
  0
LINE
  8
0
 62
     7
  6
CONTINUOUS
 10
4.083748
 20
5.793989
 30
0.000000
 11
4.078055
 21
5.797275
 31
0.000000
  0
LINE
  8
0
 62
     7
  6
CONTINUOUS
 10
4.107810
 20
5.780490
 30
0.000000
 11
4.083748
 21
5.793989
 31
0.000000
  0
LINE
  8
0
 62
     7
  6
CONTINUOUS
 10
4.138327
 20
5.749973
 30
0.000000
 11
4.107810
 21
5.780490
 31
0.000000
  0
LINE
  8
0
 62
     7
  6
CONTINUOUS
 10
4.155112
 20
5.720218
 30
0.000000
 11
4.138327
 21
5.749973
 31
0.000000
  0
LINE
  8
0
 62
     7
  6
CONTINUOUS
 10
4.161216
 20
5.711826
 30
0.000000
 11
4.155112
 21
5.720218
 31
0.000000
  0
LINE
  8
0
 62
     7
  6
CONTINUOUS
 10
4.214621
 20
5.711826
 30
0.000000
 11
4.206992
 21
5.719455
 31
0.000000
  0
LINE
  8
0
 62
     7
  6
CONTINUOUS
 10
4.221488
 20
5.710300
 30
0.000000
 11
4.214621
 21
5.711826
 31
0.000000
  0
LINE
  8
0
 62
     7
  6
CONTINUOUS
 10
4.260398
 20
5.688938
 30
0.000000
 11
4.221488
 21
5.710300
 31
0.000000
  0
LINE
  8
0
 62
     7
  6
CONTINUOUS
 10
4.260398
 20
5.688938
 30
0.000000
 11
4.359328
 21
5.692462
 31
0.000000
  0
LINE
  8
0
 62
     7
  6
CONTINUOUS
 10
4.359328
 20
5.692462
 30
0.000000
 11
4.374839
 21
5.696567
 31
0.000000
  0
LINE
  8
0
 62
     7
  6
CONTINUOUS
 10
4.382468
 20
5.696567
 30
0.000000
 11
4.374839
 21
5.696567
 31
0.000000
  0
LINE
  8
0
 62
     7
  6
CONTINUOUS
 10
4.382468
 20
5.688938
 30
0.000000
 11
4.382468
 21
5.704196
 31
0.000000
  0
LINE
  8
0
 62
     7
  6
CONTINUOUS
 10
4.382468
 20
5.704196
 30
0.000000
 11
4.420615
 21
5.749973
 31
0.000000
  0
LINE
  8
0
 62
     7
  6
CONTINUOUS
 10
4.420615
 20
5.749973
 30
0.000000
 11
4.420615
 21
5.788120
 31
0.000000
  0
LINE
  8
0
 62
     7
  6
CONTINUOUS
 10
4.420615
 20
5.788120
 30
0.000000
 11
4.417411
 21
5.833438
 31
0.000000
  0
LINE
  8
0
 62
     7
  6
CONTINUOUS
 10
4.417411
 20
5.833438
 30
0.000000
 11
4.402422
 21
5.901974
 31
0.000000
  0
LINE
  8
0
 62
     7
  6
CONTINUOUS
 10
4.402422
 20
5.901974
 30
0.000000
 11
4.399253
 21
5.910953
 31
0.000000
  0
LINE
  8
0
 62
     7
  6
CONTINUOUS
 10
4.399253
 20
5.910953
 30
0.000000
 11
4.397727
 21
5.917819
 31
0.000000
  0
LINE
  8
0
 62
     7
  6
CONTINUOUS
 10
4.397727
 20
5.917819
 30
0.000000
 11
4.382468
 21
5.933078
 31
0.000000
  0
LINE
  8
0
 62
     7
  6
CONTINUOUS
 10
4.382468
 20
5.933078
 30
0.000000
 11
4.336692
 21
5.933078
 31
0.000000
  0
LINE
  8
0
 62
     7
  6
CONTINUOUS
 10
4.336692
 20
5.933078
 30
0.000000
 11
4.322196
 21
5.923923
 31
0.000000
  0
LINE
  8
0
 62
     7
  6
CONTINUOUS
 10
4.322196
 20
5.923923
 30
0.000000
 11
4.306174
 21
5.917819
 31
0.000000
  0
LINE
  8
0
 62
     7
  6
CONTINUOUS
 10
4.299308
 20
5.824741
 30
0.000000
 11
4.321433
 21
5.833896
 31
0.000000
  0
LINE
  8
0
 62
     7
  6
CONTINUOUS
 10
4.283286
 20
5.818637
 30
0.000000
 11
4.299308
 21
5.824741
 31
0.000000
  0
LINE
  8
0
 62
     7
  6
CONTINUOUS
 10
4.222251
 20
5.757602
 30
0.000000
 11
4.283286
 21
5.818637
 31
0.000000
  0
LINE
  8
0
 62
     7
  6
CONTINUOUS
 10
4.220725
 20
5.750736
 30
0.000000
 11
4.222251
 21
5.757602
 31
0.000000
  0
LINE
  8
0
 62
     7
  6
CONTINUOUS
 10
4.206992
 20
5.719455
 30
0.000000
 11
4.220725
 21
5.750736
 31
0.000000
  0
LINE
  8
0
 62
     7
  6
CONTINUOUS
 10
4.321433
 20
5.772861
 30
0.000000
 11
4.321433
 21
5.788120
 31
0.000000
  0
LINE
  8
0
 62
     7
  6
CONTINUOUS
 10
4.321433
 20
5.788120
 30
0.000000
 11
4.336692
 21
5.803379
 31
0.000000
  0
LINE
  8
0
 62
     7
  6
CONTINUOUS
 10
4.336692
 20
5.803379
 30
0.000000
 11
4.351950
 21
5.811008
 31
0.000000
  0
LINE
  8
0
 62
    12
  6
CONTINUOUS
 10
4.351950
 20
5.811008
 30
0.000000
 11
4.344321
 21
5.818637
 31
0.000000
  0
LINE
  8
0
 62
     7
  6
CONTINUOUS
 10
4.321433
 20
5.833896
 30
0.000000
 11
4.344321
 21
5.818637
 31
0.000000
  0
LINE
  8
0
 62
     7
  6
CONTINUOUS
 10
4.398490
 20
5.782779
 30
0.000000
 11
4.351950
 21
5.811008
 31
0.000000
  0
LINE
  8
0
 62
     7
  6
CONTINUOUS
 10
4.412986
 20
5.780490
 30
0.000000
 11
4.398490
 21
5.782779
 31
0.000000
  0
LINE
  8
0
 62
     7
  6
CONTINUOUS
 10
4.420615
 20
5.780490
 30
0.000000
 11
4.412986
 21
5.780490
 31
0.000000
  0
LINE
  8
0
 62
     7
  6
CONTINUOUS
 10
4.435874
 20
5.734714
 30
0.000000
 11
4.420615
 21
5.749973
 31
0.000000
  0
LINE
  8
0
 62
     7
  6
CONTINUOUS
 10
4.435874
 20
5.711826
 30
0.000000
 11
4.435874
 21
5.734714
 31
0.000000
  0
LINE
  8
0
 62
     7
  6
CONTINUOUS
 10
4.443503
 20
5.673679
 30
0.000000
 11
4.382468
 21
5.688938
 31
0.000000
  0
LINE
  8
0
 62
     7
  6
CONTINUOUS
 10
4.344321
 20
5.574497
 30
0.000000
 11
4.405356
 21
5.582126
 31
0.000000
  0
LINE
  8
0
 62
     7
  6
CONTINUOUS
 10
4.344321
 20
5.574497
 30
0.000000
 11
4.336692
 21
5.574497
 31
0.000000
  0
LINE
  8
0
 62
     7
  6
CONTINUOUS
 10
4.268027
 20
5.513462
 30
0.000000
 11
4.336692
 21
5.574497
 31
0.000000
  0
LINE
  8
0
 62
    12
  6
CONTINUOUS
 10
4.290915
 20
5.345615
 30
0.000000
 11
4.298545
 21
5.360874
 31
0.000000
  0
LINE
  8
0
 62
    12
  6
CONTINUOUS
 10
4.145957
 20
5.200656
 30
0.000000
 11
4.290915
 21
5.345615
 31
0.000000
  0
LINE
  8
0
 62
     7
  6
CONTINUOUS
 10
3.947593
 20
5.131992
 30
0.000000
 11
3.955222
 21
5.139621
 31
0.000000
  0
LINE
  8
0
 62
     7
  6
CONTINUOUS
 10
3.939963
 20
5.124362
 30
0.000000
 11
3.951407
 21
5.135807
 31
0.000000
  0
LINE
  8
0
 62
    12
  6
CONTINUOUS
 10
3.650046
 20
5.070957
 30
0.000000
 11
3.624224
 21
5.177181
 31
0.000000
  0
LINE
  8
0
 62
    12
  6
CONTINUOUS
 10
3.624224
 20
5.177181
 30
0.000000
 11
3.604270
 21
5.299839
 31
0.000000
  0
LINE
  8
0
 62
    12
  6
CONTINUOUS
 10
3.604270
 20
5.299839
 30
0.000000
 11
3.604270
 21
5.521091
 31
0.000000
  0
LINE
  8
0
 62
    12
  6
CONTINUOUS
 10
3.604270
 20
5.521091
 30
0.000000
 11
3.629851
 21
5.627229
 31
0.000000
  0
LINE
  8
0
 62
    12
  6
CONTINUOUS
 10
3.629851
 20
5.627229
 30
0.000000
 11
3.634787
 21
5.635532
 31
0.000000
  0
LINE
  8
0
 62
     7
  6
CONTINUOUS
 10
3.550864
 20
5.658420
 30
0.000000
 11
3.581382
 21
5.681308
 31
0.000000
  0
LINE
  8
0
 62
     7
  6
CONTINUOUS
 10
3.485251
 20
5.576023
 30
0.000000
 11
3.550864
 21
5.658420
 31
0.000000
  0
LINE
  8
0
 62
     7
  6
CONTINUOUS
 10
3.430320
 20
5.489810
 30
0.000000
 11
3.485251
 21
5.576023
 31
0.000000
  0
LINE
  8
0
 62
     7
  6
CONTINUOUS
 10
3.400969
 20
5.436494
 30
0.000000
 11
3.430320
 21
5.489810
 31
0.000000
  0
LINE
  8
0
 62
     7
  6
CONTINUOUS
 10
3.367759
 20
5.353244
 30
0.000000
 11
3.400969
 21
5.436494
 31
0.000000
  0
LINE
  8
0
 62
     7
  6
CONTINUOUS
 10
3.367759
 20
5.353244
 30
0.000000
 11
3.360129
 21
5.322727
 31
0.000000
  0
LINE
  8
0
 62
     7
  6
CONTINUOUS
 10
3.337241
 20
5.292209
 30
0.000000
 11
3.360129
 21
5.322727
 31
0.000000
  0
LINE
  8
0
 62
     7
  6
CONTINUOUS
 10
3.360129
 20
5.322727
 30
0.000000
 11
3.383017
 21
5.345615
 31
0.000000
  0
LINE
  8
0
 62
     7
  6
CONTINUOUS
 10
3.383017
 20
5.345615
 30
0.000000
 11
3.459311
 21
5.429538
 31
0.000000
  0
LINE
  8
0
 62
     7
  6
CONTINUOUS
 10
3.459311
 20
5.429538
 30
0.000000
 11
3.482199
 21
5.452426
 31
0.000000
  0
LINE
  8
0
 62
     7
  6
CONTINUOUS
 10
3.482199
 20
5.452426
 30
0.000000
 11
3.505088
 21
5.482944
 31
0.000000
  0
LINE
  8
0
 62
     7
  6
CONTINUOUS
 10
3.505088
 20
5.482944
 30
0.000000
 11
3.519584
 21
5.492099
 31
0.000000
  0
LINE
  8
0
 62
     7
  6
CONTINUOUS
 10
3.519584
 20
5.492099
 30
0.000000
 11
3.527976
 21
5.498203
 31
0.000000
  0
LINE
  8
0
 62
     7
  6
CONTINUOUS
 10
3.470755
 20
5.414279
 30
0.000000
 11
3.482199
 21
5.452426
 31
0.000000
  0
LINE
  8
0
 62
     7
  6
CONTINUOUS
 10
3.445578
 20
5.352481
 30
0.000000
 11
3.470755
 21
5.414279
 31
0.000000
  0
LINE
  8
0
 62
     7
  6
CONTINUOUS
 10
3.416228
 20
5.268648
 30
0.000000
 11
3.445578
 21
5.352481
 31
0.000000
  0
LINE
  8
0
 62
     7
  6
CONTINUOUS
 10
3.408598
 20
5.238130
 30
0.000000
 11
3.416228
 21
5.268648
 31
0.000000
  0
LINE
  8
0
 62
     7
  6
CONTINUOUS
 10
3.393933
 20
5.162099
 30
0.000000
 11
3.408598
 21
5.238130
 31
0.000000
  0
LINE
  8
0
 62
     7
  6
CONTINUOUS
 10
3.383017
 20
5.078586
 30
0.000000
 11
3.393933
 21
5.162099
 31
0.000000
  0
LINE
  8
0
 62
     7
  6
CONTINUOUS
 10
3.199149
 20
5.057224
 30
0.000000
 11
3.215171
 21
5.063327
 31
0.000000
  0
LINE
  8
0
 62
     7
  6
CONTINUOUS
 10
3.147269
 20
5.023654
 30
0.000000
 11
3.199149
 21
5.057224
 31
0.000000
  0
LINE
  8
0
 62
     7
  6
CONTINUOUS
 10
3.138877
 20
5.017551
 30
0.000000
 11
3.147269
 21
5.023654
 31
0.000000
  0
LINE
  8
0
 62
     7
  6
CONTINUOUS
 10
3.197623
 20
5.239566
 30
0.000000
 11
3.206015
 21
5.262454
 31
0.000000
  0
LINE
  8
0
 62
     7
  6
CONTINUOUS
 10
3.206015
 20
5.262454
 30
0.000000
 11
3.219866
 21
5.315684
 31
0.000000
  0
LINE
  8
0
 62
     7
  6
CONTINUOUS
 10
3.219866
 20
5.315684
 30
0.000000
 11
3.222800
 21
5.345615
 31
0.000000
  0
LINE
  8
0
 62
     7
  6
CONTINUOUS
 10
3.436423
 20
5.559238
 30
0.000000
 11
3.466941
 21
5.589756
 31
0.000000
  0
LINE
  8
0
 62
     7
  6
CONTINUOUS
 10
3.466941
 20
5.589756
 30
0.000000
 11
3.535605
 21
5.681308
 31
0.000000
  0
LINE
  8
0
 62
     7
  6
CONTINUOUS
 10
3.377282
 20
5.710142
 30
0.000000
 11
3.434529
 21
5.774545
 31
0.000000
  0
LINE
  8
0
 62
     7
  6
CONTINUOUS
 10
3.268576
 20
5.589756
 30
0.000000
 11
3.377282
 21
5.710142
 31
0.000000
  0
LINE
  8
0
 62
     7
  6
CONTINUOUS
 10
3.253318
 20
5.582126
 30
0.000000
 11
3.268576
 21
5.589756
 31
0.000000
  0
LINE
  8
0
 62
     7
  6
CONTINUOUS
 10
3.434529
 20
5.774545
 30
0.000000
 11
3.518586
 21
5.888476
 31
0.000000
  0
LINE
  8
0
 62
     7
  6
CONTINUOUS
 10
3.518586
 20
5.888476
 30
0.000000
 11
3.527976
 21
5.910190
 31
0.000000
  0
LINE
  8
0
 62
     7
  6
CONTINUOUS
 10
3.527976
 20
5.910190
 30
0.000000
 11
3.573752
 21
6.009372
 31
0.000000
  0
LINE
  8
0
 62
     7
  6
CONTINUOUS
 10
3.581382
 20
6.108554
 30
0.000000
 11
3.596640
 21
6.123813
 31
0.000000
  0
LINE
  8
0
 62
     7
  6
CONTINUOUS
 10
3.596640
 20
6.123813
 30
0.000000
 11
3.634787
 21
6.177219
 31
0.000000
  0
LINE
  8
0
 62
     7
  6
CONTINUOUS
 10
3.634787
 20
6.177219
 30
0.000000
 11
3.687430
 21
6.209262
 31
0.000000
  0
LINE
  8
0
 62
     7
  6
CONTINUOUS
 10
3.687430
 20
6.209262
 30
0.000000
 11
3.695823
 21
6.215366
 31
0.000000
  0
LINE
  8
0
 62
     7
  6
CONTINUOUS
 10
3.695823
 20
6.222995
 30
0.000000
 11
3.704125
 21
6.227932
 31
0.000000
  0
LINE
  8
0
 62
     7
  6
CONTINUOUS
 10
3.704125
 20
6.227932
 30
0.000000
 11
3.755279
 21
6.242200
 31
0.000000
  0
LINE
  8
0
 62
     7
  6
CONTINUOUS
 10
3.755279
 20
6.242200
 30
0.000000
 11
3.772116
 21
6.253513
 31
0.000000
  0
LINE
  8
0
 62
     7
  6
CONTINUOUS
 10
3.772116
 20
6.253513
 30
0.000000
 11
3.772116
 21
6.261142
 31
0.000000
  0
LINE
  8
0
 62
     7
  6
CONTINUOUS
 10
3.772116
 20
6.291660
 30
0.000000
 11
3.795005
 21
6.329807
 31
0.000000
  0
LINE
  8
0
 62
     7
  6
CONTINUOUS
 10
3.795005
 20
6.329807
 30
0.000000
 11
3.833152
 21
6.383213
 31
0.000000
  0
ARC
  8
0
 62
     7
  6
CONTINUOUS
 10
3.619049
 20
7.082893
 30
0.000000
 40
0.601604
 50
304.853181
 51
347.766611
  0
LINE
  8
0
 62
     7
  6
CONTINUOUS
 10
3.962851
 20
6.589206
 30
0.000000
 11
4.206992
 21
6.955417
 31
0.000000
  0
LINE
  8
0
 62
     7
  6
CONTINUOUS
 10
4.061447
 20
6.113249
 30
0.000000
 11
4.031516
 21
6.116184
 31
0.000000
  0
LINE
  8
0
 62
     7
  6
CONTINUOUS
 10
4.085685
 20
6.102451
 30
0.000000
 11
4.061447
 21
6.113249
 31
0.000000
  0
LINE
  8
0
 62
     7
  6
CONTINUOUS
 10
4.092551
 20
6.100925
 30
0.000000
 11
4.085685
 21
6.102451
 31
0.000000
  0
LINE
  8
0
 62
    12
  6
CONTINUOUS
 10
4.130698
 20
5.849155
 30
0.000000
 11
4.199363
 21
5.971225
 31
0.000000
  0
LINE
  8
0
 62
    12
  6
CONTINUOUS
 10
4.412986
 20
5.994113
 30
0.000000
 11
4.390097
 21
5.994113
 31
0.000000
  0
LINE
  8
0
 62
    12
  6
CONTINUOUS
 10
4.435874
 20
5.963596
 30
0.000000
 11
4.412986
 21
5.994113
 31
0.000000
  0
LINE
  8
0
 62
     7
  6
CONTINUOUS
 10
4.664756
 20
6.383213
 30
0.000000
 11
4.672385
 21
6.390842
 31
0.000000
  0
LINE
  8
0
 62
     7
  6
CONTINUOUS
 10
4.542685
 20
6.413730
 30
0.000000
 11
4.542685
 21
6.421360
 31
0.000000
  0
LINE
  8
0
 62
     7
  6
CONTINUOUS
 10
3.802634
 20
5.803379
 30
0.000000
 11
3.795005
 21
5.811008
 31
0.000000
  0
LINE
  8
0
 62
     7
  6
CONTINUOUS
 10
3.795005
 20
5.811008
 30
0.000000
 11
3.779746
 21
5.811008
 31
0.000000
  0
LINE
  8
0
 62
     7
  6
CONTINUOUS
 10
3.709221
 20
5.598874
 30
0.000000
 11
3.732209
 21
5.636706
 31
0.000000
  0
LINE
  8
0
 62
     7
  6
CONTINUOUS
 10
3.680564
 20
5.566867
 30
0.000000
 11
3.709221
 21
5.598874
 31
0.000000
  0
LINE
  8
0
 62
     7
  6
CONTINUOUS
 10
3.173972
 20
5.843051
 30
0.000000
 11
3.199912
 21
5.910190
 31
0.000000
  0
LINE
  8
0
 62
     7
  6
CONTINUOUS
 10
3.199912
 20
5.910190
 30
0.000000
 11
3.199912
 21
5.971225
 31
0.000000
  0
LINE
  8
0
 62
     7
  6
CONTINUOUS
 10
3.199912
 20
5.971225
 30
0.000000
 11
3.195569
 21
5.979265
 31
0.000000
  0
LINE
  8
0
 62
     7
  6
CONTINUOUS
 10
3.195569
 20
5.979265
 30
0.000000
 11
3.188996
 21
6.031850
 31
0.000000
  0
LINE
  8
0
 62
     7
  6
CONTINUOUS
 10
3.188996
 20
6.031850
 30
0.000000
 11
3.174735
 21
6.077274
 31
0.000000
  0
LINE
  8
0
 62
     7
  6
CONTINUOUS
 10
3.174735
 20
6.077274
 30
0.000000
 11
3.161765
 21
6.100925
 31
0.000000
  0
LINE
  8
0
 62
    12
  6
CONTINUOUS
 10
2.848960
 20
6.345066
 30
0.000000
 11
2.902366
 21
6.375583
 31
0.000000
  0
LINE
  8
0
 62
     7
  6
CONTINUOUS
 10
2.749778
 20
6.444248
 30
0.000000
 11
2.742148
 21
6.444248
 31
0.000000
  0
LINE
  8
0
 62
     7
  6
CONTINUOUS
 10
2.749778
 20
6.444248
 30
0.000000
 11
2.826072
 21
6.528171
 31
0.000000
  0
LINE
  8
0
 62
     7
  6
CONTINUOUS
 10
2.642966
 20
6.383213
 30
0.000000
 11
2.654410
 21
6.367954
 31
0.000000
  0
LINE
  8
0
 62
     7
  6
CONTINUOUS
 10
2.642966
 20
6.383213
 30
0.000000
 11
2.597190
 21
6.444248
 31
0.000000
  0
LINE
  8
0
 62
     7
  6
CONTINUOUS
 10
2.584624
 20
6.155004
 30
0.000000
 11
2.581931
 21
6.177219
 31
0.000000
  0
LINE
  8
0
 62
     7
  6
CONTINUOUS
 10
2.589560
 20
6.131443
 30
0.000000
 11
2.584624
 21
6.155004
 31
0.000000
  0
LINE
  8
0
 62
     7
  6
CONTINUOUS
 10
2.612449
 20
6.108554
 30
0.000000
 11
2.589560
 21
6.131443
 31
0.000000
  0
LINE
  8
0
 62
     7
  6
CONTINUOUS
 10
2.649222
 20
6.091465
 30
0.000000
 11
2.612449
 21
6.108554
 31
0.000000
  0
LINE
  8
0
 62
     7
  6
CONTINUOUS
 10
2.674857
 20
6.072238
 30
0.000000
 11
2.649222
 21
6.091465
 31
0.000000
  0
LINE
  8
0
 62
     7
  6
CONTINUOUS
 10
2.696372
 20
6.062778
 30
0.000000
 11
2.674857
 21
6.072238
 31
0.000000
  0
LINE
  8
0
 62
     7
  6
CONTINUOUS
 10
2.704001
 20
6.062778
 30
0.000000
 11
2.696372
 21
6.062778
 31
0.000000
  0
LINE
  8
0
 62
     7
  6
CONTINUOUS
 10
2.696372
 20
5.025180
 30
0.000000
 11
2.795554
 21
5.070957
 31
0.000000
  0
LINE
  8
0
 62
     7
  6
CONTINUOUS
 10
2.696372
 20
5.009922
 30
0.000000
 11
2.696372
 21
5.025180
 31
0.000000
  0
LINE
  8
0
 62
     7
  6
CONTINUOUS
 10
2.660514
 20
4.932865
 30
0.000000
 11
2.696372
 21
5.009922
 31
0.000000
  0
LINE
  8
0
 62
     7
  6
CONTINUOUS
 10
2.622771
 20
4.826143
 30
0.000000
 11
2.660514
 21
4.932865
 31
0.000000
  0
LINE
  8
0
 62
     7
  6
CONTINUOUS
 10
2.610160
 20
4.781803
 30
0.000000
 11
2.622771
 21
4.826143
 31
0.000000
  0
LINE
  8
0
 62
     7
  6
CONTINUOUS
 10
2.589560
 20
4.613193
 30
0.000000
 11
2.610160
 21
4.781803
 31
0.000000
  0
LINE
  8
0
 62
     7
  6
CONTINUOUS
 10
2.589560
 20
4.559787
 30
0.000000
 11
2.589560
 21
4.613193
 31
0.000000
  0
LINE
  8
0
 62
     7
  6
CONTINUOUS
 10
2.597190
 20
4.552158
 30
0.000000
 11
2.589560
 21
4.559787
 31
0.000000
  0
LINE
  8
0
 62
     7
  6
CONTINUOUS
 10
2.597190
 20
4.552158
 30
0.000000
 11
2.610688
 21
4.568590
 31
0.000000
  0
LINE
  8
0
 62
     7
  6
CONTINUOUS
 10
2.610688
 20
4.568590
 30
0.000000
 11
2.617789
 21
4.583438
 31
0.000000
  0
LINE
  8
0
 62
     7
  6
CONTINUOUS
 10
2.617789
 20
4.583438
 30
0.000000
 11
2.622367
 21
4.597171
 31
0.000000
  0
LINE
  8
0
 62
     7
  6
CONTINUOUS
 10
2.622367
 20
4.597171
 30
0.000000
 11
2.698132
 21
4.749348
 31
0.000000
  0
LINE
  8
0
 62
     7
  6
CONTINUOUS
 10
2.698132
 20
4.749348
 30
0.000000
 11
2.719260
 21
4.781040
 31
0.000000
  0
LINE
  8
0
 62
     7
  6
CONTINUOUS
 10
2.726889
 20
4.781040
 30
0.000000
 11
2.719260
 21
4.781040
 31
0.000000
  0
LINE
  8
0
 62
    12
  6
CONTINUOUS
 10
2.726889
 20
4.781040
 30
0.000000
 11
2.726889
 21
4.788669
 31
0.000000
  0
LINE
  8
0
 62
     7
  6
CONTINUOUS
 10
2.726889
 20
4.788669
 30
0.000000
 11
2.749778
 21
4.849704
 31
0.000000
  0
LINE
  8
0
 62
     7
  6
CONTINUOUS
 10
2.739055
 20
4.666083
 30
0.000000
 11
2.726889
 21
4.781040
 31
0.000000
  0
LINE
  8
0
 62
     7
  6
CONTINUOUS
 10
2.777602
 20
4.482820
 30
0.000000
 11
2.739055
 21
4.666083
 31
0.000000
  0
LINE
  8
0
 62
     7
  6
CONTINUOUS
 10
2.782988
 20
4.461278
 30
0.000000
 11
2.777602
 21
4.482820
 31
0.000000
  0
LINE
  8
0
 62
     7
  6
CONTINUOUS
 10
2.795554
 20
4.430088
 30
0.000000
 11
2.782988
 21
4.461278
 31
0.000000
  0
LINE
  8
0
 62
    12
  6
CONTINUOUS
 10
2.803183
 20
4.430088
 30
0.000000
 11
2.795554
 21
4.430088
 31
0.000000
  0
LINE
  8
0
 62
     7
  6
CONTINUOUS
 10
2.803183
 20
4.430088
 30
0.000000
 11
2.808120
 21
4.438390
 31
0.000000
  0
LINE
  8
0
 62
     7
  6
CONTINUOUS
 10
2.808120
 20
4.438390
 30
0.000000
 11
2.851652
 21
4.673555
 31
0.000000
  0
LINE
  8
0
 62
     7
  6
CONTINUOUS
 10
2.851652
 20
4.673555
 30
0.000000
 11
2.856589
 21
4.681858
 31
0.000000
  0
LINE
  8
0
 62
     7
  6
CONTINUOUS
 10
2.856589
 20
4.681858
 30
0.000000
 11
2.856589
 21
4.712375
 31
0.000000
  0
LINE
  8
0
 62
     7
  6
CONTINUOUS
 10
2.877646
 20
4.657596
 30
0.000000
 11
2.856589
 21
4.681858
 31
0.000000
  0
LINE
  8
0
 62
     7
  6
CONTINUOUS
 10
2.896262
 20
4.621585
 30
0.000000
 11
2.877646
 21
4.657596
 31
0.000000
  0
LINE
  8
0
 62
     7
  6
CONTINUOUS
 10
2.900840
 20
4.612430
 30
0.000000
 11
2.896262
 21
4.621585
 31
0.000000
  0
LINE
  8
0
 62
     7
  6
CONTINUOUS
 10
2.973319
 20
4.423221
 30
0.000000
 11
2.900840
 21
4.612430
 31
0.000000
  0
LINE
  8
0
 62
     7
  6
CONTINUOUS
 10
2.976371
 20
4.414066
 30
0.000000
 11
2.973319
 21
4.423221
 31
0.000000
  0
LINE
  8
0
 62
     7
  6
CONTINUOUS
 10
2.993918
 20
4.323276
 30
0.000000
 11
2.976371
 21
4.414066
 31
0.000000
  0
LINE
  8
0
 62
     7
  6
CONTINUOUS
 10
2.993918
 20
4.315647
 30
0.000000
 11
2.993918
 21
4.323276
 31
0.000000
  0
LINE
  8
0
 62
     7
  6
CONTINUOUS
 10
2.993918
 20
4.315647
 30
0.000000
 11
2.986289
 21
4.315647
 31
0.000000
  0
LINE
  8
0
 62
     7
  6
CONTINUOUS
 10
2.749778
 20
4.040988
 30
0.000000
 11
2.986289
 21
4.315647
 31
0.000000
  0
LINE
  8
0
 62
     7
  6
CONTINUOUS
 10
2.704001
 20
3.987583
 30
0.000000
 11
2.749778
 21
4.040988
 31
0.000000
  0
LINE
  8
0
 62
     7
  6
CONTINUOUS
 10
2.522802
 20
3.802648
 30
0.000000
 11
2.704001
 21
3.987583
 31
0.000000
  0
LINE
  8
0
 62
     7
  6
CONTINUOUS
 10
2.520896
 20
3.796848
 30
0.000000
 11
2.522802
 21
3.802648
 31
0.000000
  0
LINE
  8
0
 62
     7
  6
CONTINUOUS
 10
2.452231
 20
3.728183
 30
0.000000
 11
2.520896
 21
3.796848
 31
0.000000
  0
LINE
  8
0
 62
     7
  6
CONTINUOUS
 10
2.444602
 20
3.728183
 30
0.000000
 11
2.452231
 21
3.728183
 31
0.000000
  0
LINE
  8
0
 62
     7
  6
CONTINUOUS
 10
2.391196
 20
3.674777
 30
0.000000
 11
2.444602
 21
3.728183
 31
0.000000
  0
LINE
  8
0
 62
     7
  6
CONTINUOUS
 10
2.299643
 20
3.583225
 30
0.000000
 11
2.391196
 21
3.674777
 31
0.000000
  0
LINE
  8
0
 62
     7
  6
CONTINUOUS
 10
2.009726
 20
3.300937
 30
0.000000
 11
2.299643
 21
3.583225
 31
0.000000
  0
LINE
  8
0
 62
     7
  6
CONTINUOUS
 10
1.976274
 20
3.232859
 30
0.000000
 11
2.009726
 21
3.300937
 31
0.000000
  0
LINE
  8
0
 62
     7
  6
CONTINUOUS
 10
1.963950
 20
3.148349
 30
0.000000
 11
1.976274
 21
3.232859
 31
0.000000
  0
LINE
  8
0
 62
     7
  6
CONTINUOUS
 10
1.963950
 20
3.133090
 30
0.000000
 11
1.963950
 21
3.148349
 31
0.000000
  0
LINE
  8
0
 62
     7
  6
CONTINUOUS
 10
1.971579
 20
3.064426
 30
0.000000
 11
1.963950
 21
3.133090
 31
0.000000
  0
LINE
  8
0
 62
     7
  6
CONTINUOUS
 10
1.979209
 20
2.934726
 30
0.000000
 11
1.971579
 21
3.064426
 31
0.000000
  0
LINE
  8
0
 62
     7
  6
CONTINUOUS
 10
1.979209
 20
2.919467
 30
0.000000
 11
1.979209
 21
2.934726
 31
0.000000
  0
LINE
  8
0
 62
     7
  6
CONTINUOUS
 10
1.982733
 20
2.820537
 30
0.000000
 11
1.979209
 21
2.919467
 31
0.000000
  0
LINE
  8
0
 62
     7
  6
CONTINUOUS
 10
1.992942
 20
2.689823
 30
0.000000
 11
1.982733
 21
2.820537
 31
0.000000
  0
ARC
  8
0
 62
     7
  6
CONTINUOUS
 10
2.312547
 20
2.678933
 30
0.000000
 40
0.319790
 50
178.048511
 51
198.749016
  0
LINE
  8
0
 62
     7
  6
CONTINUOUS
 10
2.009726
 20
2.576145
 30
0.000000
 11
2.072445
 21
2.517004
 31
0.000000
  0
LINE
  8
0
 62
     7
  6
CONTINUOUS
 10
2.072445
 20
2.517004
 30
0.000000
 11
2.095176
 21
2.502902
 31
0.000000
  0
LINE
  8
0
 62
     7
  6
CONTINUOUS
 10
2.095176
 20
2.502902
 30
0.000000
 11
2.108146
 21
2.497562
 31
0.000000
  0
LINE
  8
0
 62
     7
  6
CONTINUOUS
 10
2.108146
 20
2.497562
 30
0.000000
 11
2.169944
 21
2.484592
 31
0.000000
  0
LINE
  8
0
 62
     7
  6
CONTINUOUS
 10
2.169944
 20
2.484592
 30
0.000000
 11
2.246238
 21
2.484592
 31
0.000000
  0
LINE
  8
0
 62
     7
  6
CONTINUOUS
 10
2.246238
 20
2.484592
 30
0.000000
 11
2.276755
 21
2.515110
 31
0.000000
  0
LINE
  8
0
 62
     7
  6
CONTINUOUS
 10
2.276755
 20
2.515110
 30
0.000000
 11
2.282096
 21
2.538761
 31
0.000000
  0
LINE
  8
0
 62
     7
  6
CONTINUOUS
 10
2.282096
 20
2.538761
 30
0.000000
 11
2.284385
 21
2.553256
 31
0.000000
  0
LINE
  8
0
 62
     7
  6
CONTINUOUS
 10
2.284385
 20
2.553256
 30
0.000000
 11
2.284385
 21
2.568515
 31
0.000000
  0
LINE
  8
0
 62
     7
  6
CONTINUOUS
 10
2.284385
 20
2.568515
 30
0.000000
 11
2.307273
 21
2.637180
 31
0.000000
  0
LINE
  8
0
 62
     7
  6
CONTINUOUS
 10
2.307273
 20
2.637180
 30
0.000000
 11
2.307273
 21
2.698215
 31
0.000000
  0
LINE
  8
0
 62
     7
  6
CONTINUOUS
 10
2.307273
 20
2.698215
 30
0.000000
 11
2.276755
 21
2.789768
 31
0.000000
  0
LINE
  8
0
 62
     7
  6
CONTINUOUS
 10
2.253867
 20
2.827915
 30
0.000000
 11
2.276755
 21
2.789768
 31
0.000000
  0
LINE
  8
0
 62
     7
  6
CONTINUOUS
 10
2.253867
 20
2.827915
 30
0.000000
 11
2.243949
 21
2.850040
 31
0.000000
  0
LINE
  8
0
 62
     7
  6
CONTINUOUS
 10
2.243949
 20
2.850040
 30
0.000000
 11
2.198935
 21
3.002628
 31
0.000000
  0
LINE
  8
0
 62
     7
  6
CONTINUOUS
 10
2.198935
 20
3.002628
 30
0.000000
 11
2.192832
 21
3.011020
 31
0.000000
  0
LINE
  8
0
 62
     7
  6
CONTINUOUS
 10
2.192832
 20
3.011020
 30
0.000000
 11
2.200461
 21
3.110202
 31
0.000000
  0
LINE
  8
0
 62
     7
  6
CONTINUOUS
 10
2.200461
 20
3.110202
 30
0.000000
 11
2.148946
 21
3.165262
 31
0.000000
  0
LINE
  8
0
 62
     7
  6
CONTINUOUS
 10
2.148946
 20
3.165262
 30
0.000000
 11
2.140952
 21
3.179630
 31
0.000000
  0
LINE
  8
0
 62
     7
  6
CONTINUOUS
 10
2.140952
 20
3.179630
 30
0.000000
 11
2.139426
 21
3.186496
 31
0.000000
  0
LINE
  8
0
 62
     7
  6
CONTINUOUS
 10
2.200461
 20
3.110202
 30
0.000000
 11
2.215720
 21
3.125461
 31
0.000000
  0
LINE
  8
0
 62
     7
  6
CONTINUOUS
 10
2.261496
 20
3.209384
 30
0.000000
 11
2.215720
 21
3.125461
 31
0.000000
  0
LINE
  8
0
 62
     7
  6
CONTINUOUS
 10
2.261496
 20
3.209384
 30
0.000000
 11
2.292014
 21
3.285678
 31
0.000000
  0
LINE
  8
0
 62
     7
  6
CONTINUOUS
 10
2.307273
 20
3.331455
 30
0.000000
 11
2.292014
 21
3.285678
 31
0.000000
  0
LINE
  8
0
 62
     7
  6
CONTINUOUS
 10
2.307273
 20
3.331455
 30
0.000000
 11
2.307273
 21
3.339084
 31
0.000000
  0
LINE
  8
0
 62
    12
  6
CONTINUOUS
 10
2.307273
 20
3.339084
 30
0.000000
 11
2.320243
 21
3.362735
 31
0.000000
  0
LINE
  8
0
 62
    12
  6
CONTINUOUS
 10
2.320243
 20
3.362735
 30
0.000000
 11
2.324820
 21
3.376468
 31
0.000000
  0
LINE
  8
0
 62
    12
  6
CONTINUOUS
 10
2.324820
 20
3.376468
 30
0.000000
 11
2.408286
 21
3.505558
 31
0.000000
  0
LINE
  8
0
 62
    12
  6
CONTINUOUS
 10
2.408286
 20
3.505558
 30
0.000000
 11
2.452231
 21
3.560337
 31
0.000000
  0
LINE
  8
0
 62
     7
  6
CONTINUOUS
 10
2.452231
 20
3.560337
 30
0.000000
 11
2.490378
 21
3.590854
 31
0.000000
  0
LINE
  8
0
 62
    12
  6
CONTINUOUS
 10
2.490378
 20
3.590854
 30
0.000000
 11
2.499768
 21
3.604939
 31
0.000000
  0
LINE
  8
0
 62
    12
  6
CONTINUOUS
 10
2.499768
 20
3.604939
 30
0.000000
 11
2.513266
 21
3.621372
 31
0.000000
  0
LINE
  8
0
 62
     7
  6
CONTINUOUS
 10
2.496834
 20
3.462915
 30
0.000000
 11
2.575827
 21
3.511508
 31
0.000000
  0
LINE
  8
0
 62
     7
  6
CONTINUOUS
 10
2.461034
 20
3.436506
 30
0.000000
 11
2.496834
 21
3.462915
 31
0.000000
  0
LINE
  8
0
 62
     7
  6
CONTINUOUS
 10
2.383567
 20
3.384861
 30
0.000000
 11
2.461034
 21
3.436506
 31
0.000000
  0
LINE
  8
0
 62
     7
  6
CONTINUOUS
 10
2.330161
 20
3.323825
 30
0.000000
 11
2.383567
 21
3.384861
 31
0.000000
  0
LINE
  8
0
 62
     7
  6
CONTINUOUS
 10
2.330161
 20
3.323825
 30
0.000000
 11
2.292014
 21
3.285678
 31
0.000000
  0
LINE
  8
0
 62
     7
  6
CONTINUOUS
 10
2.575827
 20
3.511508
 30
0.000000
 11
2.672110
 21
3.562168
 31
0.000000
  0
LINE
  8
0
 62
     7
  6
CONTINUOUS
 10
2.672110
 20
3.562168
 30
0.000000
 11
2.697745
 21
3.581394
 31
0.000000
  0
LINE
  8
0
 62
     7
  6
CONTINUOUS
 10
2.697745
 20
3.581394
 30
0.000000
 11
2.773429
 21
3.619846
 31
0.000000
  0
LINE
  8
0
 62
     7
  6
CONTINUOUS
 10
2.773429
 20
3.619846
 30
0.000000
 11
3.032065
 21
3.751071
 31
0.000000
  0
LINE
  8
0
 62
     7
  6
CONTINUOUS
 10
3.032065
 20
3.751071
 30
0.000000
 11
3.039695
 21
3.758701
 31
0.000000
  0
LINE
  8
0
 62
     7
  6
CONTINUOUS
 10
3.039695
 20
3.758701
 30
0.000000
 11
3.168631
 21
3.814395
 31
0.000000
  0
LINE
  8
0
 62
     7
  6
CONTINUOUS
 10
3.168631
 20
3.814395
 30
0.000000
 11
3.275032
 21
3.867273
 31
0.000000
  0
LINE
  8
0
 62
     7
  6
CONTINUOUS
 10
3.275032
 20
3.867273
 30
0.000000
 11
3.292638
 21
3.879011
 31
0.000000
  0
LINE
  8
0
 62
     7
  6
CONTINUOUS
 10
3.292638
 20
3.879011
 30
0.000000
 11
3.428794
 21
3.972324
 31
0.000000
  0
LINE
  8
0
 62
     7
  6
CONTINUOUS
 10
3.428794
 20
3.979953
 30
0.000000
 11
3.360129
 21
4.048618
 31
0.000000
  0
LINE
  8
0
 62
     7
  6
CONTINUOUS
 10
3.360129
 20
4.048618
 30
0.000000
 11
3.298331
 21
4.092868
 31
0.000000
  0
LINE
  8
0
 62
     7
  6
CONTINUOUS
 10
3.298331
 20
4.092868
 30
0.000000
 11
3.291465
 21
4.094394
 31
0.000000
  0
LINE
  8
0
 62
     7
  6
CONTINUOUS
 10
3.253318
 20
4.033359
 30
0.000000
 11
3.253318
 21
4.109653
 31
0.000000
  0
LINE
  8
0
 62
     7
  6
CONTINUOUS
 10
3.245688
 20
4.025730
 30
0.000000
 11
3.253318
 21
4.033359
 31
0.000000
  0
LINE
  8
0
 62
    12
  6
CONTINUOUS
 10
3.245688
 20
4.018100
 30
0.000000
 11
3.245688
 21
4.025730
 31
0.000000
  0
LINE
  8
0
 62
     7
  6
CONTINUOUS
 10
3.245688
 20
4.018100
 30
0.000000
 11
3.238059
 21
4.018100
 31
0.000000
  0
LINE
  8
0
 62
     7
  6
CONTINUOUS
 10
3.238059
 20
4.018100
 30
0.000000
 11
3.210593
 21
4.065402
 31
0.000000
  0
LINE
  8
0
 62
     7
  6
CONTINUOUS
 10
3.186179
 20
4.110416
 30
0.000000
 11
3.210593
 21
4.065402
 31
0.000000
  0
LINE
  8
0
 62
     7
  6
CONTINUOUS
 10
3.186179
 20
4.110416
 30
0.000000
 11
3.144645
 21
4.176829
 31
0.000000
  0
LINE
  8
0
 62
     7
  6
CONTINUOUS
 10
3.144645
 20
4.176829
 30
0.000000
 11
3.115989
 21
4.208835
 31
0.000000
  0
LINE
  8
0
 62
     7
  6
CONTINUOUS
 10
3.115989
 20
4.208835
 30
0.000000
 11
3.115989
 21
4.224094
 31
0.000000
  0
LINE
  8
0
 62
     7
  6
CONTINUOUS
 10
3.115989
 20
4.224094
 30
0.000000
 11
3.067160
 21
4.344638
 31
0.000000
  0
LINE
  8
0
 62
     7
  6
CONTINUOUS
 10
3.067160
 20
4.344638
 30
0.000000
 11
3.054953
 21
4.361423
 31
0.000000
  0
LINE
  8
0
 62
     7
  6
CONTINUOUS
 10
3.054953
 20
4.361423
 30
0.000000
 11
3.047324
 21
4.361423
 31
0.000000
  0
LINE
  8
0
 62
     7
  6
CONTINUOUS
 10
3.047324
 20
4.369052
 30
0.000000
 11
3.032065
 21
4.430088
 31
0.000000
  0
LINE
  8
0
 62
     7
  6
CONTINUOUS
 10
3.047324
 20
4.246982
 30
0.000000
 11
3.047324
 21
4.369052
 31
0.000000
  0
LINE
  8
0
 62
     7
  6
CONTINUOUS
 10
3.044631
 20
4.224767
 30
0.000000
 11
3.047324
 21
4.246982
 31
0.000000
  0
LINE
  8
0
 62
     7
  6
CONTINUOUS
 10
3.029372
 20
4.156103
 30
0.000000
 11
3.044631
 21
4.224767
 31
0.000000
  0
LINE
  8
0
 62
     7
  6
CONTINUOUS
 10
3.024436
 20
4.147800
 30
0.000000
 11
3.029372
 21
4.156103
 31
0.000000
  0
LINE
  8
0
 62
     7
  6
CONTINUOUS
 10
3.001548
 20
4.117282
 30
0.000000
 11
3.024436
 21
4.147800
 31
0.000000
  0
LINE
  8
0
 62
     7
  6
CONTINUOUS
 10
3.001548
 20
4.071506
 30
0.000000
 11
3.001548
 21
4.117282
 31
0.000000
  0
LINE
  8
0
 62
     7
  6
CONTINUOUS
 10
3.009177
 20
4.155429
 30
0.000000
 11
3.001548
 21
4.117282
 31
0.000000
  0
LINE
  8
0
 62
     7
  6
CONTINUOUS
 10
3.009177
 20
4.155429
 30
0.000000
 11
3.005653
 21
4.254360
 31
0.000000
  0
LINE
  8
0
 62
     7
  6
CONTINUOUS
 10
3.005653
 20
4.254360
 30
0.000000
 11
2.998343
 21
4.307559
 31
0.000000
  0
LINE
  8
0
 62
     7
  6
CONTINUOUS
 10
2.998343
 20
4.307559
 30
0.000000
 11
2.993918
 21
4.315647
 31
0.000000
  0
LINE
  8
0
 62
     7
  6
CONTINUOUS
 10
3.054953
 20
4.254611
 30
0.000000
 11
3.047324
 21
4.254611
 31
0.000000
  0
LINE
  8
0
 62
     7
  6
CONTINUOUS
 10
3.108359
 20
4.216465
 30
0.000000
 11
3.054953
 21
4.254611
 31
0.000000
  0
LINE
  8
0
 62
     7
  6
CONTINUOUS
 10
3.108359
 20
4.216465
 30
0.000000
 11
3.115989
 21
4.208835
 31
0.000000
  0
LINE
  8
0
 62
     7
  6
CONTINUOUS
 10
3.184653
 20
4.216465
 30
0.000000
 11
3.146506
 21
4.231723
 31
0.000000
  0
LINE
  8
0
 62
    12
  6
CONTINUOUS
 10
3.238059
 20
4.155429
 30
0.000000
 11
3.238059
 21
4.163059
 31
0.000000
  0
LINE
  8
0
 62
     7
  6
CONTINUOUS
 10
3.243399
 20
4.131778
 30
0.000000
 11
3.238059
 21
4.155429
 31
0.000000
  0
LINE
  8
0
 62
     7
  6
CONTINUOUS
 10
3.253318
 20
4.109653
 30
0.000000
 11
3.243399
 21
4.131778
 31
0.000000
  0
LINE
  8
0
 62
     7
  6
CONTINUOUS
 10
3.245688
 20
3.995212
 30
0.000000
 11
3.245688
 21
4.018100
 31
0.000000
  0
LINE
  8
0
 62
     7
  6
CONTINUOUS
 10
3.543235
 20
3.751071
 30
0.000000
 11
3.535605
 21
3.758701
 31
0.000000
  0
LINE
  8
0
 62
     7
  6
CONTINUOUS
 10
3.558493
 20
3.751071
 30
0.000000
 11
3.543235
 21
3.751071
 31
0.000000
  0
LINE
  8
0
 62
     7
  6
CONTINUOUS
 10
3.596640
 20
3.743442
 30
0.000000
 11
3.558493
 21
3.751071
 31
0.000000
  0
LINE
  8
0
 62
     7
  6
CONTINUOUS
 10
3.604270
 20
3.743442
 30
0.000000
 11
3.596640
 21
3.743442
 31
0.000000
  0
LINE
  8
0
 62
     7
  6
CONTINUOUS
 10
3.604270
 20
3.743442
 30
0.000000
 11
3.604270
 21
3.751071
 31
0.000000
  0
LINE
  8
0
 62
     7
  6
CONTINUOUS
 10
3.627158
 20
3.712924
 30
0.000000
 11
3.604270
 21
3.743442
 31
0.000000
  0
LINE
  8
0
 62
     7
  6
CONTINUOUS
 10
3.650046
 20
3.674777
 30
0.000000
 11
3.627158
 21
3.712924
 31
0.000000
  0
LINE
  8
0
 62
     7
  6
CONTINUOUS
 10
3.627158
 20
3.712924
 30
0.000000
 11
3.634787
 21
3.720554
 31
0.000000
  0
LINE
  8
0
 62
     7
  6
CONTINUOUS
 10
3.657676
 20
3.720554
 30
0.000000
 11
3.634787
 21
3.720554
 31
0.000000
  0
LINE
  8
0
 62
     7
  6
CONTINUOUS
 10
3.550864
 20
3.720554
 30
0.000000
 11
3.550864
 21
3.751071
 31
0.000000
  0
LINE
  8
0
 62
     7
  6
CONTINUOUS
 10
3.161765
 20
2.965244
 30
0.000000
 11
3.108359
 21
3.079685
 31
0.000000
  0
LINE
  8
0
 62
     7
  6
CONTINUOUS
 10
3.230429
 20
2.843173
 30
0.000000
 11
3.161765
 21
2.965244
 31
0.000000
  0
LINE
  8
0
 62
     7
  6
CONTINUOUS
 10
3.527976
 20
2.026828
 30
0.000000
 11
3.482199
 21
2.042087
 31
0.000000
  0
LINE
  8
0
 62
     7
  6
CONTINUOUS
 10
3.558493
 20
2.034458
 30
0.000000
 11
3.527976
 21
2.026828
 31
0.000000
  0
LINE
  8
0
 62
     7
  6
CONTINUOUS
 10
3.581382
 20
2.019199
 30
0.000000
 11
3.558493
 21
2.034458
 31
0.000000
  0
LINE
  8
0
 62
     7
  6
CONTINUOUS
 10
3.611312
 20
2.016265
 30
0.000000
 11
3.581382
 21
2.019199
 31
0.000000
  0
LINE
  8
0
 62
     7
  6
CONTINUOUS
 10
3.664542
 20
1.994785
 30
0.000000
 11
3.611312
 21
2.016265
 31
0.000000
  0
LINE
  8
0
 62
     7
  6
CONTINUOUS
 10
3.680564
 20
1.988681
 30
0.000000
 11
3.664542
 21
1.994785
 31
0.000000
  0
LINE
  8
0
 62
     7
  6
CONTINUOUS
 10
3.561859
 20
1.994291
 30
0.000000
 11
3.581382
 21
2.019199
 31
0.000000
  0
LINE
  8
0
 62
     7
  6
CONTINUOUS
 10
3.549338
 20
1.966556
 30
0.000000
 11
3.561859
 21
1.994291
 31
0.000000
  0
LINE
  8
0
 62
     7
  6
CONTINUOUS
 10
3.545523
 20
1.957401
 30
0.000000
 11
3.549338
 21
1.966556
 31
0.000000
  0
LINE
  8
0
 62
     7
  6
CONTINUOUS
 10
3.527976
 20
1.904758
 30
0.000000
 11
3.545523
 21
1.957401
 31
0.000000
  0
LINE
  8
0
 62
     7
  6
CONTINUOUS
 10
3.527976
 20
1.828464
 30
0.000000
 11
3.527976
 21
1.904758
 31
0.000000
  0
LINE
  8
0
 62
     7
  6
CONTINUOUS
 10
3.550864
 20
1.790317
 30
0.000000
 11
3.527976
 21
1.828464
 31
0.000000
  0
LINE
  8
0
 62
     7
  6
CONTINUOUS
 10
3.550864
 20
1.782688
 30
0.000000
 11
3.550864
 21
1.790317
 31
0.000000
  0
LINE
  8
0
 62
     7
  6
CONTINUOUS
 10
3.383017
 20
1.775058
 30
0.000000
 11
3.344870
 21
1.828464
 31
0.000000
  0
LINE
  8
0
 62
     7
  6
CONTINUOUS
 10
3.344870
 20
1.828464
 30
0.000000
 11
3.344870
 21
1.942905
 31
0.000000
  0
LINE
  8
0
 62
     7
  6
CONTINUOUS
 10
3.344870
 20
1.942905
 30
0.000000
 11
3.355434
 21
1.980465
 31
0.000000
  0
LINE
  8
0
 62
     7
  6
CONTINUOUS
 10
3.355434
 20
1.980465
 30
0.000000
 11
3.358603
 21
1.989444
 31
0.000000
  0
LINE
  8
0
 62
     7
  6
CONTINUOUS
 10
3.358603
 20
1.989444
 30
0.000000
 11
3.390647
 21
2.026828
 31
0.000000
  0
LINE
  8
0
 62
     7
  6
CONTINUOUS
 10
3.390647
 20
2.026828
 30
0.000000
 11
3.390647
 21
2.034458
 31
0.000000
  0
LINE
  8
0
 62
     7
  6
CONTINUOUS
 10
3.230429
 20
1.996311
 30
0.000000
 11
3.230429
 21
2.003940
 31
0.000000
  0
LINE
  8
0
 62
     7
  6
CONTINUOUS
 10
3.224326
 20
1.987918
 30
0.000000
 11
3.230429
 21
1.996311
 31
0.000000
  0
LINE
  8
0
 62
     7
  6
CONTINUOUS
 10
3.212882
 20
1.958927
 30
0.000000
 11
3.224326
 21
1.987918
 31
0.000000
  0
LINE
  8
0
 62
     7
  6
CONTINUOUS
 10
3.210634
 20
1.950019
 30
0.000000
 11
3.212882
 21
1.958927
 31
0.000000
  0
LINE
  8
0
 62
     7
  6
CONTINUOUS
 10
3.199912
 20
1.904758
 30
0.000000
 11
3.210634
 21
1.950019
 31
0.000000
  0
LINE
  8
0
 62
     7
  6
CONTINUOUS
 10
3.199912
 20
1.866611
 30
0.000000
 11
3.199912
 21
1.904758
 31
0.000000
  0
LINE
  8
0
 62
     7
  6
CONTINUOUS
 10
3.212882
 20
1.827701
 30
0.000000
 11
3.199912
 21
1.866611
 31
0.000000
  0
LINE
  8
0
 62
     7
  6
CONTINUOUS
 10
3.215171
 20
1.813205
 30
0.000000
 11
3.212882
 21
1.827701
 31
0.000000
  0
LINE
  8
0
 62
     7
  6
CONTINUOUS
 10
3.215171
 20
1.805576
 30
0.000000
 11
3.215171
 21
1.813205
 31
0.000000
  0
LINE
  8
0
 62
     7
  6
CONTINUOUS
 10
3.383017
 20
1.767429
 30
0.000000
 11
3.383017
 21
1.775058
 31
0.000000
  0
LINE
  8
0
 62
     7
  6
CONTINUOUS
 10
4.031516
 20
1.630100
 30
0.000000
 11
4.034720
 21
1.675418
 31
0.000000
  0
LINE
  8
0
 62
     7
  6
CONTINUOUS
 10
4.031516
 20
1.622470
 30
0.000000
 11
4.031516
 21
1.630100
 31
0.000000
  0
LINE
  8
0
 62
     7
  6
CONTINUOUS
 10
4.034720
 20
1.675418
 30
0.000000
 11
4.041838
 21
1.705721
 31
0.000000
  0
LINE
  8
0
 62
     7
  6
CONTINUOUS
 10
4.041838
 20
1.705721
 30
0.000000
 11
4.044486
 21
1.714786
 31
0.000000
  0
LINE
  8
0
 62
     7
  6
CONTINUOUS
 10
4.044486
 20
1.714786
 30
0.000000
 11
4.079053
 21
1.796773
 31
0.000000
  0
LINE
  8
0
 62
     7
  6
CONTINUOUS
 10
4.079053
 20
1.796773
 30
0.000000
 11
4.092551
 21
1.820835
 31
0.000000
  0
LINE
  8
0
 62
     7
  6
CONTINUOUS
 10
4.092551
 20
1.820835
 30
0.000000
 11
4.138327
 21
1.866611
 31
0.000000
  0
LINE
  8
0
 62
     7
  6
CONTINUOUS
 10
4.138327
 20
1.866611
 30
0.000000
 11
4.153586
 21
1.874240
 31
0.000000
  0
LINE
  8
0
 62
     7
  6
CONTINUOUS
 10
4.191733
 20
1.843723
 30
0.000000
 11
4.206992
 21
1.858982
 31
0.000000
  0
LINE
  8
0
 62
     7
  6
CONTINUOUS
 10
4.191733
 20
1.836093
 30
0.000000
 11
4.229880
 21
1.824649
 31
0.000000
  0
LINE
  8
0
 62
     7
  6
CONTINUOUS
 10
4.229880
 20
1.824649
 30
0.000000
 11
4.260398
 21
1.820835
 31
0.000000
  0
LINE
  8
0
 62
     7
  6
CONTINUOUS
 10
4.290915
 20
1.820835
 30
0.000000
 11
4.260398
 21
1.820835
 31
0.000000
  0
LINE
  8
0
 62
     7
  6
CONTINUOUS
 10
4.290915
 20
1.820835
 30
0.000000
 11
4.313130
 21
1.823527
 31
0.000000
  0
LINE
  8
0
 62
     7
  6
CONTINUOUS
 10
4.313130
 20
1.823527
 30
0.000000
 11
4.365683
 21
1.839145
 31
0.000000
  0
LINE
  8
0
 62
     7
  6
CONTINUOUS
 10
4.365683
 20
1.839145
 30
0.000000
 11
4.382468
 21
1.851352
 31
0.000000
  0
LINE
  8
0
 62
     7
  6
CONTINUOUS
 10
4.260398
 20
1.759799
 30
0.000000
 11
4.344321
 21
1.759799
 31
0.000000
  0
LINE
  8
0
 62
     7
  6
CONTINUOUS
 10
4.245139
 20
1.744541
 30
0.000000
 11
4.260398
 21
1.759799
 31
0.000000
  0
LINE
  8
0
 62
     7
  6
CONTINUOUS
 10
4.243378
 20
1.738085
 30
0.000000
 11
4.245139
 21
1.744541
 31
0.000000
  0
LINE
  8
0
 62
     7
  6
CONTINUOUS
 10
4.231641
 20
1.720479
 30
0.000000
 11
4.243378
 21
1.738085
 31
0.000000
  0
LINE
  8
0
 62
     7
  6
CONTINUOUS
 10
4.217314
 20
1.682832
 30
0.000000
 11
4.231641
 21
1.720479
 31
0.000000
  0
LINE
  8
0
 62
     7
  6
CONTINUOUS
 10
4.206992
 20
1.652988
 30
0.000000
 11
4.217314
 21
1.682832
 31
0.000000
  0
LINE
  8
0
 62
     7
  6
CONTINUOUS
 10
4.206992
 20
1.614841
 30
0.000000
 11
4.206992
 21
1.652988
 31
0.000000
  0
LINE
  8
0
 62
     7
  6
CONTINUOUS
 10
4.214621
 20
1.607212
 30
0.000000
 11
4.206992
 21
1.614841
 31
0.000000
  0
LINE
  8
0
 62
     7
  6
CONTINUOUS
 10
4.214621
 20
1.607212
 30
0.000000
 11
4.214046
 21
1.592150
 31
0.000000
  0
LINE
  8
0
 62
    12
  6
CONTINUOUS
 10
4.191733
 20
1.836093
 30
0.000000
 11
4.191733
 21
1.843723
 31
0.000000
  0
LINE
  8
0
 62
     7
  6
CONTINUOUS
 10
4.191733
 20
1.836093
 30
0.000000
 11
4.191733
 21
1.843723
 31
0.000000
  0
LINE
  8
0
 62
     7
  6
CONTINUOUS
 10
4.489280
 20
2.293857
 30
0.000000
 11
4.489280
 21
2.301486
 31
0.000000
  0
LINE
  8
0
 62
     7
  6
CONTINUOUS
 10
4.489280
 20
2.301486
 30
0.000000
 11
4.312278
 21
2.583011
 31
0.000000
  0
LINE
  8
0
 62
     7
  6
CONTINUOUS
 10
4.312278
 20
2.583011
 30
0.000000
 11
4.246665
 21
2.691349
 31
0.000000
  0
LINE
  8
0
 62
     7
  6
CONTINUOUS
 10
4.246665
 20
2.691349
 30
0.000000
 11
4.231406
 21
2.721866
 31
0.000000
  0
LINE
  8
0
 62
     7
  6
CONTINUOUS
 10
4.231406
 20
2.721866
 30
0.000000
 11
4.209926
 21
2.782725
 31
0.000000
  0
LINE
  8
0
 62
     7
  6
CONTINUOUS
 10
4.209926
 20
2.782725
 30
0.000000
 11
4.191733
 21
2.881320
 31
0.000000
  0
LINE
  8
0
 62
     7
  6
CONTINUOUS
 10
4.191733
 20
2.881320
 30
0.000000
 11
4.195963
 21
2.896919
 31
0.000000
  0
LINE
  8
0
 62
     7
  6
CONTINUOUS
 10
4.195963
 20
2.896919
 30
0.000000
 11
4.205405
 21
2.964145
 31
0.000000
  0
LINE
  8
0
 62
     7
  6
CONTINUOUS
 10
4.205405
 20
2.964145
 30
0.000000
 11
4.252768
 21
3.155979
 31
0.000000
  0
LINE
  8
0
 62
     7
  6
CONTINUOUS
 10
4.252768
 20
3.155979
 30
0.000000
 11
4.289389
 21
3.263553
 31
0.000000
  0
LINE
  8
0
 62
     7
  6
CONTINUOUS
 10
4.316092
 20
3.330692
 30
0.000000
 11
4.289389
 21
3.263553
 31
0.000000
  0
LINE
  8
0
 62
     7
  6
CONTINUOUS
 10
4.411460
 20
3.515323
 30
0.000000
 11
4.316092
 21
3.330692
 31
0.000000
  0
LINE
  8
0
 62
     7
  6
CONTINUOUS
 10
4.452893
 20
3.582051
 30
0.000000
 11
4.411460
 21
3.515323
 31
0.000000
  0
LINE
  8
0
 62
     7
  6
CONTINUOUS
 10
4.489280
 20
3.636631
 30
0.000000
 11
4.452893
 21
3.582051
 31
0.000000
  0
LINE
  8
0
 62
     7
  6
CONTINUOUS
 10
4.512168
 20
3.659519
 30
0.000000
 11
4.489280
 21
3.636631
 31
0.000000
  0
LINE
  8
0
 62
     7
  6
CONTINUOUS
 10
4.519034
 20
3.661045
 30
0.000000
 11
4.512168
 21
3.659519
 31
0.000000
  0
LINE
  8
0
 62
     7
  6
CONTINUOUS
 10
4.527427
 20
3.667148
 30
0.000000
 11
4.519034
 21
3.661045
 31
0.000000
  0
LINE
  8
0
 62
     7
  6
CONTINUOUS
 10
4.535056
 20
3.667148
 30
0.000000
 11
4.527427
 21
3.667148
 31
0.000000
  0
LINE
  8
0
 62
     7
  6
CONTINUOUS
 10
4.549552
 20
3.657993
 30
0.000000
 11
4.535056
 21
3.667148
 31
0.000000
  0
LINE
  8
0
 62
     7
  6
CONTINUOUS
 10
4.565574
 20
3.651889
 30
0.000000
 11
4.549552
 21
3.657993
 31
0.000000
  0
LINE
  8
0
 62
     7
  6
CONTINUOUS
 10
4.657126
 20
3.560337
 30
0.000000
 11
4.565574
 21
3.651889
 31
0.000000
  0
LINE
  8
0
 62
     7
  6
CONTINUOUS
 10
4.742881
 20
3.454898
 30
0.000000
 11
4.657126
 21
3.560337
 31
0.000000
  0
LINE
  8
0
 62
     7
  6
CONTINUOUS
 10
4.842126
 20
3.325509
 30
0.000000
 11
4.742881
 21
3.454898
 31
0.000000
  0
LINE
  8
0
 62
     7
  6
CONTINUOUS
 10
4.903171
 20
3.256953
 30
0.000000
 11
4.842126
 21
3.325509
 31
0.000000
  0
LINE
  8
0
 62
     7
  6
CONTINUOUS
 10
5.025198
 20
3.126950
 30
0.000000
 11
4.903171
 21
3.256953
 31
0.000000
  0
LINE
  8
0
 62
     7
  6
CONTINUOUS
 10
5.053855
 20
3.087314
 30
0.000000
 11
5.025198
 21
3.126950
 31
0.000000
  0
LINE
  8
0
 62
     7
  6
CONTINUOUS
 10
5.177691
 20
2.974775
 30
0.000000
 11
5.053855
 21
3.087314
 31
0.000000
  0
LINE
  8
0
 62
     7
  6
CONTINUOUS
 10
5.267478
 20
2.904209
 30
0.000000
 11
5.177691
 21
2.974775
 31
0.000000
  0
LINE
  8
0
 62
     7
  6
CONTINUOUS
 10
5.435324
 20
2.820285
 30
0.000000
 11
5.435324
 21
2.866062
 31
0.000000
  0
LINE
  8
0
 62
     7
  6
CONTINUOUS
 10
5.442954
 20
2.812656
 30
0.000000
 11
5.435324
 21
2.820285
 31
0.000000
  0
LINE
  8
0
 62
     7
  6
CONTINUOUS
 10
5.450583
 20
2.812656
 30
0.000000
 11
5.442954
 21
2.812656
 31
0.000000
  0
LINE
  8
0
 62
     7
  6
CONTINUOUS
 10
5.070487
 20
2.288059
 30
0.000000
 11
4.985190
 21
2.354892
 31
0.000000
  0
LINE
  8
0
 62
     7
  6
CONTINUOUS
 10
4.985190
 20
2.354892
 30
0.000000
 11
4.931784
 21
2.408298
 31
0.000000
  0
LINE
  8
0
 62
     7
  6
CONTINUOUS
 10
4.931784
 20
2.408298
 30
0.000000
 11
4.899741
 21
2.460941
 31
0.000000
  0
LINE
  8
0
 62
     7
  6
CONTINUOUS
 10
4.899741
 20
2.460941
 30
0.000000
 11
4.860831
 21
2.552494
 31
0.000000
  0
LINE
  8
0
 62
     7
  6
CONTINUOUS
 10
4.860831
 20
2.552494
 30
0.000000
 11
4.847861
 21
2.599033
 31
0.000000
  0
LINE
  8
0
 62
     7
  6
CONTINUOUS
 10
5.177099
 20
2.219324
 30
0.000000
 11
5.070487
 21
2.288059
 31
0.000000
  0
LINE
  8
0
 62
     7
  6
CONTINUOUS
 10
5.183554
 20
2.217563
 30
0.000000
 11
5.177099
 21
2.219324
 31
0.000000
  0
LINE
  8
0
 62
     7
  6
CONTINUOUS
 10
5.192944
 20
2.203478
 30
0.000000
 11
5.183554
 21
2.217563
 31
0.000000
  0
LINE
  8
0
 62
     7
  6
CONTINUOUS
 10
5.201865
 20
2.185520
 30
0.000000
 11
5.192944
 21
2.203478
 31
0.000000
  0
LINE
  8
0
 62
     7
  6
CONTINUOUS
 10
5.206443
 20
2.156528
 30
0.000000
 11
5.201865
 21
2.185520
 31
0.000000
  0
LINE
  8
0
 62
     7
  6
CONTINUOUS
 10
5.206443
 20
2.148899
 30
0.000000
 11
5.206443
 21
2.156528
 31
0.000000
  0
LINE
  8
0
 62
     7
  6
CONTINUOUS
 10
5.641318
 20
2.026828
 30
0.000000
 11
5.633689
 21
2.034458
 31
0.000000
  0
LINE
  8
0
 62
     7
  6
CONTINUOUS
 10
5.648948
 20
2.026828
 30
0.000000
 11
5.641318
 21
2.026828
 31
0.000000
  0
LINE
  8
0
 62
     7
  6
CONTINUOUS
 10
6.015616
 20
2.045291
 30
0.000000
 11
6.060477
 21
2.038883
 31
0.000000
  0
LINE
  8
0
 62
     7
  6
CONTINUOUS
 10
6.060477
 20
2.038883
 30
0.000000
 11
6.068564
 21
2.034458
 31
0.000000
  0
LINE
  8
0
 62
     7
  6
CONTINUOUS
 10
6.068564
 20
2.034458
 30
0.000000
 11
6.198264
 21
2.034458
 31
0.000000
  0
LINE
  8
0
 62
     7
  6
CONTINUOUS
 10
6.198264
 20
2.034458
 30
0.000000
 11
6.205893
 21
2.042087
 31
0.000000
  0
LINE
  8
0
 62
    12
  6
CONTINUOUS
 10
6.205893
 20
2.042087
 30
0.000000
 11
6.152488
 21
2.064975
 31
0.000000
  0
LINE
  8
0
 62
     7
  6
CONTINUOUS
 10
6.266928
 20
2.034458
 30
0.000000
 11
6.205893
 21
2.042087
 31
0.000000
  0
LINE
  8
0
 62
     7
  6
CONTINUOUS
 10
6.328727
 20
2.078708
 30
0.000000
 11
6.343222
 21
2.087863
 31
0.000000
  0
LINE
  8
0
 62
     7
  6
CONTINUOUS
 10
6.756917
 20
2.406401
 30
0.000000
 11
6.762839
 21
2.408298
 31
0.000000
  0
LINE
  8
0
 62
     7
  6
CONTINUOUS
 10
6.762839
 20
2.408298
 30
0.000000
 11
6.816245
 21
2.461704
 31
0.000000
  0
LINE
  8
0
 62
     7
  6
CONTINUOUS
 10
6.816245
 20
2.461704
 30
0.000000
 11
6.898408
 21
2.577318
 31
0.000000
  0
LINE
  8
0
 62
     7
  6
CONTINUOUS
 10
6.898408
 20
2.577318
 30
0.000000
 11
6.913666
 21
2.600207
 31
0.000000
  0
LINE
  8
0
 62
     7
  6
CONTINUOUS
 10
6.913666
 20
2.600207
 30
0.000000
 11
6.936026
 21
2.645572
 31
0.000000
  0
LINE
  8
0
 62
     7
  6
CONTINUOUS
 10
6.953574
 20
2.690586
 30
0.000000
 11
6.936026
 21
2.645572
 31
0.000000
  0
LINE
  8
0
 62
     7
  6
CONTINUOUS
 10
6.953574
 20
2.690586
 30
0.000000
 11
6.968833
 21
2.705844
 31
0.000000
  0
LINE
  8
0
 62
     7
  6
CONTINUOUS
 10
6.968833
 20
2.705844
 30
0.000000
 11
6.968833
 21
2.713474
 31
0.000000
  0
LINE
  8
0
 62
     7
  6
CONTINUOUS
 10
6.945945
 20
2.682956
 30
0.000000
 11
6.953574
 21
2.690586
 31
0.000000
  0
LINE
  8
0
 62
    12
  6
CONTINUOUS
 10
6.938315
 20
2.675327
 30
0.000000
 11
6.945945
 21
2.682956
 31
0.000000
  0
LINE
  8
0
 62
     7
  6
CONTINUOUS
 10
6.930686
 20
2.667697
 30
0.000000
 11
6.938315
 21
2.675327
 31
0.000000
  0
LINE
  8
0
 62
    12
  6
CONTINUOUS
 10
6.907798
 20
2.644809
 30
0.000000
 11
6.930686
 21
2.667697
 31
0.000000
  0
LINE
  8
0
 62
     7
  6
CONTINUOUS
 10
6.869651
 20
2.606662
 30
0.000000
 11
6.907798
 21
2.644809
 31
0.000000
  0
LINE
  8
0
 62
     7
  6
CONTINUOUS
 10
6.844070
 20
3.162935
 30
0.000000
 11
6.800986
 21
3.285678
 31
0.000000
  0
ARC
  8
0
 62
     7
  6
CONTINUOUS
 10
6.577925
 20
3.212295
 30
0.000000
 40
0.234822
 50
18.210385
 51
34.919718
  0
LINE
  8
0
 62
     7
  6
CONTINUOUS
 10
6.770469
 20
3.346714
 30
0.000000
 11
6.764365
 21
3.355106
 31
0.000000
  0
LINE
  8
0
 62
     7
  6
CONTINUOUS
 10
6.764365
 20
3.355106
 30
0.000000
 11
6.694175
 21
3.453525
 31
0.000000
  0
LINE
  8
0
 62
     7
  6
CONTINUOUS
 10
6.694175
 20
3.453525
 30
0.000000
 11
6.663657
 21
3.484043
 31
0.000000
  0
LINE
  8
0
 62
     7
  6
CONTINUOUS
 10
6.633139
 20
3.491672
 30
0.000000
 11
6.663657
 21
3.484043
 31
0.000000
  0
LINE
  8
0
 62
     7
  6
CONTINUOUS
 10
6.633139
 20
3.491672
 30
0.000000
 11
6.594992
 21
3.529819
 31
0.000000
  0
LINE
  8
0
 62
     7
  6
CONTINUOUS
 10
6.648398
 20
3.468784
 30
0.000000
 11
6.633139
 21
3.491672
 31
0.000000
  0
LINE
  8
0
 62
     7
  6
CONTINUOUS
 10
6.678916
 20
3.415378
 30
0.000000
 11
6.648398
 21
3.468784
 31
0.000000
  0
LINE
  8
0
 62
     7
  6
CONTINUOUS
 10
6.707573
 20
3.345225
 30
0.000000
 11
6.678916
 21
3.415378
 31
0.000000
  0
LINE
  8
0
 62
     7
  6
CONTINUOUS
 10
4.687644
 20
5.490573
 30
0.000000
 11
4.687644
 21
5.513462
 31
0.000000
  0
LINE
  8
0
 62
     7
  6
CONTINUOUS
 10
4.573203
 20
5.536350
 30
0.000000
 11
4.580832
 21
5.528720
 31
0.000000
  0
LINE
  8
0
 62
     7
  6
CONTINUOUS
 10
4.466391
 20
4.933628
 30
0.000000
 11
4.474021
 21
4.979404
 31
0.000000
  0
LINE
  8
0
 62
     7
  6
CONTINUOUS
 10
3.108359
 20
4.506381
 30
0.000000
 11
3.108359
 21
4.575046
 31
0.000000
  0
LINE
  8
0
 62
     7
  6
CONTINUOUS
 10
2.810813
 20
4.399570
 30
0.000000
 11
2.803183
 21
4.422458
 31
0.000000
  0
LINE
  8
0
 62
     7
  6
CONTINUOUS
 10
2.803183
 20
4.422458
 30
0.000000
 11
2.803183
 21
4.430088
 31
0.000000
  0
LINE
  8
0
 62
     7
  6
CONTINUOUS
 10
2.589560
 20
4.521640
 30
0.000000
 11
2.597190
 21
4.552158
 31
0.000000
  0
LINE
  8
0
 62
     7
  6
CONTINUOUS
 10
2.498008
 20
5.002292
 30
0.000000
 11
2.627707
 21
5.002292
 31
0.000000
  0
LINE
  8
0
 62
     7
  6
CONTINUOUS
 10
2.444602
 20
5.025180
 30
0.000000
 11
2.498008
 21
5.002292
 31
0.000000
  0
LINE
  8
0
 62
     7
  6
CONTINUOUS
 10
2.627707
 20
5.002292
 30
0.000000
 11
2.666527
 21
5.014858
 31
0.000000
  0
LINE
  8
0
 62
     7
  6
CONTINUOUS
 10
2.666527
 20
5.014858
 30
0.000000
 11
2.688742
 21
5.017551
 31
0.000000
  0
LINE
  8
0
 62
     7
  6
CONTINUOUS
 10
2.696372
 20
5.017551
 30
0.000000
 11
2.688742
 21
5.017551
 31
0.000000
  0
LINE
  8
0
 62
     7
  6
CONTINUOUS
 10
2.176399
 20
2.597272
 30
0.000000
 11
2.124167
 21
2.637180
 31
0.000000
  0
LINE
  8
0
 62
     7
  6
CONTINUOUS
 10
2.214957
 20
2.574619
 30
0.000000
 11
2.176399
 21
2.597272
 31
0.000000
  0
LINE
  8
0
 62
     7
  6
CONTINUOUS
 10
2.224023
 20
2.571208
 30
0.000000
 11
2.214957
 21
2.574619
 31
0.000000
  0
LINE
  8
0
 62
     7
  6
CONTINUOUS
 10
2.276755
 20
2.560886
 30
0.000000
 11
2.224023
 21
2.571208
 31
0.000000
  0
LINE
  8
0
 62
     7
  6
CONTINUOUS
 10
2.284385
 20
2.560886
 30
0.000000
 11
2.276755
 21
2.560886
 31
0.000000
  0
ENDSEC
  0
EOF
