999
\"DXF R12 Output\" (www.mydxf.blogspot.com)
 0 
SECTION
 2 
HEADER
 9 
$ACADVER
 1 
AC1009
 9 
$EXTMIN
 10 
 0 
 20 
 0 
 9 
$EXTMAX
 10 
 8.5 
 20 
 11 
 0 
ENDSEC
 0 
SECTION
 2 
ENTITIES
0
LINE
8
Layer 1
10
113.104450
20
35.112424
11
116.735803
21
36.388133
0
LINE
8
Layer 1
10
116.735803
20
36.388133
11
117.397817
21
36.893252
0
LINE
8
Layer 1
10
117.397817
20
36.893252
11
117.876597
21
37.617414
0
LINE
8
Layer 1
10
117.876597
20
37.617414
11
118.744421
21
38.706915
0
LINE
8
Layer 1
10
118.744421
20
38.706915
11
120.028389
21
39.435560
0
LINE
8
Layer 1
10
120.028389
20
39.435560
11
121.042159
21
39.967522
0
LINE
8
Layer 1
10
121.042159
20
39.967522
11
121.328389
21
40.387792
0
LINE
8
Layer 1
10
121.328389
20
40.387792
11
120.687059
21
42.166975
0
LINE
8
Layer 1
10
120.687059
20
42.166975
11
120.316270
21
43.012255
0
LINE
8
Layer 1
10
120.316270
20
43.012255
11
119.711235
21
43.786725
0
LINE
8
Layer 1
10
119.711235
20
43.786725
11
116.688444
21
46.259197
0
LINE
8
Layer 1
10
116.688444
20
46.259197
11
113.195137
21
48.927681
0
LINE
8
Layer 1
10
113.195137
20
48.927681
11
110.488089
21
53.981065
0
LINE
8
Layer 1
10
110.488089
20
53.981065
11
108.461044
21
57.972352
0
LINE
8
Layer 1
10
108.461044
20
57.972352
11
107.388894
21
60.472176
0
LINE
8
Layer 1
10
107.388894
20
60.472176
11
107.048916
21
63.514651
0
LINE
8
Layer 1
10
107.048916
20
63.514651
11
106.817056
21
69.882681
0
LINE
8
Layer 1
10
106.817056
20
69.882681
11
106.742618
21
76.400844
0
LINE
8
Layer 1
10
106.742618
20
76.400844
11
106.837319
21
77.558505
0
LINE
8
Layer 1
10
106.837319
20
77.558505
11
107.034674
21
77.853969
0
LINE
8
Layer 1
10
107.034674
20
77.853969
11
112.123194
21
72.920640
0
LINE
8
Layer 1
10
112.123194
20
72.920640
11
123.799374
21
61.061747
0
LINE
8
Layer 1
10
123.799374
20
61.061747
11
140.166767
21
44.271015
0
LINE
8
Layer 1
10
140.166767
20
44.271015
11
142.347970
21
44.271015
0
LINE
8
Layer 1
10
142.347970
20
44.271015
11
144.529175
21
44.271015
0
LINE
8
Layer 1
10
144.529175
20
44.271015
11
147.538149
21
48.262738
0
LINE
8
Layer 1
10
147.538149
20
48.262738
11
150.579551
21
52.591764
0
LINE
8
Layer 1
10
150.579551
20
52.591764
11
140.612670
21
63.466601
0
LINE
8
Layer 1
10
140.612670
20
63.466601
11
116.604203
21
89.138822
0
LINE
8
Layer 1
10
116.604203
20
89.138822
11
81.835577
21
126.253014
0
LINE
8
Layer 1
10
81.835577
20
126.253014
11
81.074731
21
127.157460
0
LINE
8
Layer 1
10
81.074731
20
127.157460
11
91.338694
21
138.983680
0
LINE
8
Layer 1
10
91.338694
20
138.983680
11
101.602659
21
150.809904
0
LINE
8
Layer 1
10
101.602659
20
150.809904
11
98.595468
21
153.843792
0
LINE
8
Layer 1
10
98.595468
20
153.843792
11
95.588274
21
156.877681
0
LINE
8
Layer 1
10
95.588274
20
156.877681
11
93.890126
21
156.825476
0
LINE
8
Layer 1
10
93.890126
20
156.825476
11
92.191981
21
156.773270
0
LINE
8
Layer 1
10
92.191981
20
156.773270
11
93.712064
21
156.668284
0
LINE
8
Layer 1
10
93.712064
20
156.668284
11
94.635161
21
156.558244
0
LINE
8
Layer 1
10
94.635161
20
156.558244
11
95.420670
21
156.201114
0
LINE
8
Layer 1
10
95.420670
20
156.201114
11
96.477559
21
155.322617
0
LINE
8
Layer 1
10
96.477559
20
155.322617
11
98.214792
21
153.648475
0
LINE
8
Layer 1
10
98.214792
20
153.648475
11
101.197435
21
150.733653
0
LINE
8
Layer 1
10
101.197435
20
150.733653
11
97.823599
21
146.826523
0
LINE
8
Layer 1
10
97.823599
20
146.826523
11
87.464759
21
134.947558
0
LINE
8
Layer 1
10
87.464759
20
134.947558
11
80.479759
21
126.756290
0
LINE
8
Layer 1
10
80.479759
20
126.756290
11
87.553921
21
119.200049
0
LINE
8
Layer 1
10
87.553921
20
119.200049
11
122.965886
21
81.728950
0
LINE
8
Layer 1
10
122.965886
20
81.728950
11
141.874937
21
61.541279
0
LINE
8
Layer 1
10
141.874937
20
61.541279
11
150.135325
21
52.575943
0
LINE
8
Layer 1
10
150.135325
20
52.575943
11
149.353066
21
51.192448
0
LINE
8
Layer 1
10
149.353066
20
51.192448
11
147.349035
21
48.381206
0
LINE
8
Layer 1
10
147.349035
20
48.381206
11
144.474954
21
44.553237
0
LINE
8
Layer 1
10
144.474954
20
44.553237
11
142.486987
21
44.553237
0
LINE
8
Layer 1
10
142.486987
20
44.553237
11
140.499019
21
44.553237
0
LINE
8
Layer 1
10
140.499019
20
44.553237
11
138.777619
21
46.317126
0
LINE
8
Layer 1
10
138.777619
20
46.317126
11
124.525151
21
60.922126
0
LINE
8
Layer 1
10
124.525151
20
60.922126
11
109.148589
21
76.654742
0
LINE
8
Layer 1
10
109.148589
20
76.654742
11
106.303092
21
79.546244
0
LINE
8
Layer 1
10
106.303092
20
79.546244
11
106.379261
21
71.292520
0
LINE
8
Layer 1
10
106.379261
20
71.292520
11
106.493821
21
65.096398
0
LINE
8
Layer 1
10
106.493821
20
65.096398
11
106.648444
21
62.964427
0
LINE
8
Layer 1
10
106.648444
20
62.964427
11
106.926670
21
61.204873
0
LINE
8
Layer 1
10
106.926670
20
61.204873
11
107.372529
21
59.614005
0
LINE
8
Layer 1
10
107.372529
20
59.614005
11
108.030050
21
57.988091
0
LINE
8
Layer 1
10
108.030050
20
57.988091
11
110.156199
21
53.816199
0
LINE
8
Layer 1
10
110.156199
20
53.816199
11
111.794352
21
50.766933
0
LINE
8
Layer 1
10
111.794352
20
50.766933
11
112.845929
21
49.036342
0
LINE
8
Layer 1
10
112.845929
20
49.036342
11
113.743510
21
48.013306
0
LINE
8
Layer 1
10
113.743510
20
48.013306
11
114.919675
21
47.086709
0
LINE
8
Layer 1
10
114.919675
20
47.086709
11
116.234913
21
46.006598
0
LINE
8
Layer 1
10
116.234913
20
46.006598
11
116.875874
21
45.272056
0
LINE
8
Layer 1
10
116.875874
20
45.272056
11
116.919853
21
45.078099
0
LINE
8
Layer 1
10
116.919853
20
45.078099
11
116.766885
21
45.023003
0
LINE
8
Layer 1
10
116.766885
20
45.023003
11
115.832272
21
45.399356
0
LINE
8
Layer 1
10
115.832272
20
45.399356
11
114.920942
21
45.836383
0
LINE
8
Layer 1
10
114.920942
20
45.836383
11
114.400575
21
45.958973
0
LINE
8
Layer 1
10
114.400575
20
45.958973
11
114.266360
21
45.766614
0
LINE
8
Layer 1
10
114.266360
20
45.766614
11
114.513490
21
45.258792
0
LINE
8
Layer 1
10
114.513490
20
45.258792
11
115.085360
21
44.710045
0
LINE
8
Layer 1
10
115.085360
20
44.710045
11
115.931106
21
44.553237
0
LINE
8
Layer 1
10
115.931106
20
44.553237
11
116.886426
21
44.393572
0
LINE
8
Layer 1
10
116.886426
20
44.393572
11
116.743364
21
43.938377
0
LINE
8
Layer 1
10
116.743364
20
43.938377
11
116.316039
21
43.418259
0
LINE
8
Layer 1
10
116.316039
20
43.418259
11
114.619758
21
42.194088
0
LINE
8
Layer 1
10
114.619758
20
42.194088
11
113.279759
21
41.521235
0
LINE
8
Layer 1
10
113.279759
20
41.521235
11
111.843350
21
41.201756
0
LINE
8
Layer 1
10
111.843350
20
41.201756
11
109.829944
21
41.189428
0
LINE
8
Layer 1
10
109.829944
20
41.189428
11
106.758949
21
41.438028
0
LINE
8
Layer 1
10
106.758949
20
41.438028
11
104.967251
21
41.684023
0
LINE
8
Layer 1
10
104.967251
20
41.684023
11
103.878093
21
41.965471
0
LINE
8
Layer 1
10
103.878093
20
41.965471
11
103.660753
21
42.093628
0
LINE
8
Layer 1
10
103.660753
20
42.093628
11
103.695593
21
42.199613
0
LINE
8
Layer 1
10
103.695593
20
42.199613
11
104.623870
21
42.303692
0
LINE
8
Layer 1
10
104.623870
20
42.303692
11
109.392951
21
42.579169
0
LINE
8
Layer 1
10
109.392951
20
42.579169
11
112.463092
21
42.900882
0
LINE
8
Layer 1
10
112.463092
20
42.900882
11
113.177447
21
43.110246
0
LINE
8
Layer 1
10
113.177447
20
43.110246
11
113.603385
21
43.402544
0
LINE
8
Layer 1
10
113.603385
20
43.402544
11
113.902912
21
43.754232
0
LINE
8
Layer 1
10
113.902912
20
43.754232
11
113.927196
21
44.131712
0
LINE
8
Layer 1
10
113.927196
20
44.131712
11
112.884469
21
45.878733
0
LINE
8
Layer 1
10
112.884469
20
45.878733
11
109.465550
21
51.587302
0
LINE
8
Layer 1
10
109.465550
20
51.587302
11
106.865095
21
56.582409
0
LINE
8
Layer 1
10
106.865095
20
56.582409
11
106.250012
21
58.095789
0
LINE
8
Layer 1
10
106.250012
20
58.095789
11
105.611210
21
55.487291
0
LINE
8
Layer 1
10
105.611210
20
55.487291
11
105.074568
21
53.483728
0
LINE
8
Layer 1
10
105.074568
20
53.483728
11
104.588601
21
52.215716
0
LINE
8
Layer 1
10
104.588601
20
52.215716
11
104.045477
21
51.472507
0
LINE
8
Layer 1
10
104.045477
20
51.472507
11
103.337366
21
51.043357
0
LINE
8
Layer 1
10
103.337366
20
51.043357
11
102.642058
21
50.858068
0
LINE
8
Layer 1
10
102.642058
20
50.858068
11
102.185148
21
50.941736
0
LINE
8
Layer 1
10
102.185148
20
50.941736
11
102.016466
21
51.262172
0
LINE
8
Layer 1
10
102.016466
20
51.262172
11
102.185848
21
51.787185
0
LINE
8
Layer 1
10
102.185848
20
51.787185
11
103.326748
21
54.666123
0
LINE
8
Layer 1
10
103.326748
20
54.666123
11
103.814160
21
56.178605
0
LINE
8
Layer 1
10
103.814160
20
56.178605
11
104.099594
21
57.945750
0
LINE
8
Layer 1
10
104.099594
20
57.945750
11
104.494525
21
66.660567
0
LINE
8
Layer 1
10
104.494525
20
66.660567
11
104.671318
21
74.468164
0
LINE
8
Layer 1
10
104.671318
20
74.468164
11
104.572565
21
78.984348
0
LINE
8
Layer 1
10
104.572565
20
78.984348
11
104.320188
21
81.665459
0
LINE
8
Layer 1
10
104.320188
20
81.665459
11
102.966430
21
74.950326
0
LINE
8
Layer 1
10
102.966430
20
74.950326
11
101.199970
21
67.065477
0
LINE
8
Layer 1
10
101.199970
20
67.065477
11
100.655411
21
65.922511
0
LINE
8
Layer 1
10
100.655411
20
65.922511
11
99.726642
21
64.543692
0
LINE
8
Layer 1
10
99.726642
20
64.543692
11
96.507712
21
60.799723
0
LINE
8
Layer 1
10
96.507712
20
60.799723
11
94.769683
21
59.090881
0
LINE
8
Layer 1
10
94.769683
20
59.090881
11
94.267943
21
58.773529
0
LINE
8
Layer 1
10
94.267943
20
58.773529
11
93.929570
21
58.749424
0
LINE
8
Layer 1
10
93.929570
20
58.749424
11
93.629235
21
59.004992
0
LINE
8
Layer 1
10
93.629235
20
59.004992
11
93.877267
21
59.716436
0
LINE
8
Layer 1
10
93.877267
20
59.716436
11
97.078662
21
64.414132
0
LINE
8
Layer 1
10
97.078662
20
64.414132
11
100.044236
21
68.611696
0
LINE
8
Layer 1
10
100.044236
20
68.611696
11
100.835945
21
72.034132
0
LINE
8
Layer 1
10
100.835945
20
72.034132
11
101.379284
21
75.039031
0
LINE
8
Layer 1
10
101.379284
20
75.039031
11
101.869045
21
78.743334
0
LINE
8
Layer 1
10
101.869045
20
78.743334
11
102.176245
21
82.017602
0
LINE
8
Layer 1
10
102.176245
20
82.017602
11
102.171901
21
83.732395
0
LINE
8
Layer 1
10
102.171901
20
83.732395
11
101.146381
21
83.418876
0
LINE
8
Layer 1
10
101.146381
20
83.418876
11
98.824203
21
82.270634
0
LINE
8
Layer 1
10
98.824203
20
82.270634
11
93.903623
21
79.847440
0
LINE
8
Layer 1
10
93.903623
20
79.847440
11
90.173900
21
78.445038
0
LINE
8
Layer 1
10
90.173900
20
78.445038
11
89.432515
21
78.311146
0
LINE
8
Layer 1
10
89.432515
20
78.311146
11
88.556306
21
78.351093
0
LINE
8
Layer 1
10
88.556306
20
78.351093
11
85.202703
21
79.113397
0
LINE
8
Layer 1
10
85.202703
20
79.113397
11
79.278666
21
80.770349
0
LINE
8
Layer 1
10
79.278666
20
80.770349
11
77.154413
21
81.444925
0
LINE
8
Layer 1
10
77.154413
20
81.444925
11
77.552812
21
80.285192
0
LINE
8
Layer 1
10
77.552812
20
80.285192
11
78.408491
21
78.814028
0
LINE
8
Layer 1
10
78.408491
20
78.814028
11
79.921041
21
76.895508
0
LINE
8
Layer 1
10
79.921041
20
76.895508
11
81.666683
21
74.721086
0
LINE
8
Layer 1
10
81.666683
20
74.721086
11
81.869526
21
74.180056
0
LINE
8
Layer 1
10
81.869526
20
74.180056
11
81.725793
21
73.833344
0
LINE
8
Layer 1
10
81.725793
20
73.833344
11
81.222885
21
73.779430
0
LINE
8
Layer 1
10
81.222885
20
73.779430
11
80.424149
21
74.109539
0
LINE
8
Layer 1
10
80.424149
20
74.109539
11
79.540471
21
74.707357
0
LINE
8
Layer 1
10
79.540471
20
74.707357
11
78.782737
21
75.456570
0
LINE
8
Layer 1
10
78.782737
20
75.456570
11
75.621998
21
80.176714
0
LINE
8
Layer 1
10
75.621998
20
80.176714
11
72.978024
21
84.083308
0
LINE
8
Layer 1
10
72.978024
20
84.083308
11
72.941029
21
83.932407
0
LINE
8
Layer 1
10
72.941029
20
83.932407
11
73.121177
21
83.288428
0
LINE
8
Layer 1
10
73.121177
20
83.288428
11
73.998912
21
80.934520
0
LINE
8
Layer 1
10
73.998912
20
80.934520
11
75.278365
21
77.604356
0
LINE
8
Layer 1
10
75.278365
20
77.604356
11
75.345475
21
77.109450
0
LINE
8
Layer 1
10
75.345475
20
77.109450
11
75.143326
21
77.008792
0
LINE
8
Layer 1
10
75.143326
20
77.008792
11
74.444920
21
77.927243
0
LINE
8
Layer 1
10
74.444920
20
77.927243
11
73.185003
21
80.047500
0
LINE
8
Layer 1
10
73.185003
20
80.047500
11
71.902942
21
82.416922
0
LINE
8
Layer 1
10
71.902942
20
82.416922
11
71.138107
21
84.082867
0
LINE
8
Layer 1
10
71.138107
20
84.082867
11
70.788906
21
84.857387
0
LINE
8
Layer 1
10
70.788906
20
84.857387
11
70.250785
21
85.513915
0
LINE
8
Layer 1
10
70.250785
20
85.513915
11
69.444444
21
86.127360
0
LINE
8
Layer 1
10
69.444444
20
86.127360
11
68.290581
21
86.772631
0
LINE
8
Layer 1
10
68.290581
20
86.772631
11
66.961571
21
87.446093
0
LINE
8
Layer 1
10
66.961571
20
87.446093
11
67.336743
21
86.249109
0
LINE
8
Layer 1
10
67.336743
20
86.249109
11
70.397604
21
77.855459
0
LINE
8
Layer 1
10
70.397604
20
77.855459
11
72.867783
21
71.562907
0
LINE
8
Layer 1
10
72.867783
20
71.562907
11
75.391947
21
65.784006
0
LINE
8
Layer 1
10
75.391947
20
65.784006
11
77.984793
21
60.486940
0
LINE
8
Layer 1
10
77.984793
20
60.486940
11
80.661022
21
55.639894
0
LINE
8
Layer 1
10
80.661022
20
55.639894
11
82.240684
21
53.017429
0
LINE
8
Layer 1
10
82.240684
20
53.017429
11
83.515455
21
51.159660
0
LINE
8
Layer 1
10
83.515455
20
51.159660
11
84.933447
21
49.477493
0
LINE
8
Layer 1
10
84.933447
20
49.477493
11
86.942775
21
47.381835
0
LINE
8
Layer 1
10
86.942775
20
47.381835
11
89.875467
21
44.570221
0
LINE
8
Layer 1
10
89.875467
20
44.570221
11
91.627537
21
43.290487
0
LINE
8
Layer 1
10
91.627537
20
43.290487
11
97.413092
21
41.658235
0
LINE
8
Layer 1
10
97.413092
20
41.658235
11
100.164826
21
40.996998
0
LINE
8
Layer 1
10
100.164826
20
40.996998
11
102.202278
21
40.639288
0
LINE
8
Layer 1
10
102.202278
20
40.639288
11
104.420414
21
40.475414
0
LINE
8
Layer 1
10
104.420414
20
40.475414
11
107.714203
21
40.395683
0
LINE
8
Layer 1
10
107.714203
20
40.395683
11
112.589719
21
40.415433
0
LINE
8
Layer 1
10
112.589719
20
40.415433
11
116.039759
21
40.659852
0
LINE
8
Layer 1
10
116.039759
20
40.659852
11
118.378117
21
41.082197
0
LINE
8
Layer 1
10
118.378117
20
41.082197
11
118.710771
21
41.360413
0
LINE
8
Layer 1
10
118.710771
20
41.360413
11
118.811932
21
41.819813
0
LINE
8
Layer 1
10
118.811932
20
41.819813
11
118.745866
21
42.579804
0
LINE
8
Layer 1
10
118.745866
20
42.579804
11
118.459154
21
43.291548
0
LINE
8
Layer 1
10
118.459154
20
43.291548
11
118.039918
21
44.088004
0
LINE
8
Layer 1
10
118.039918
20
44.088004
11
118.112681
21
44.230279
0
LINE
8
Layer 1
10
118.112681
20
44.230279
11
118.368092
21
44.261625
0
LINE
8
Layer 1
10
118.368092
20
44.261625
11
118.935664
21
44.060913
0
LINE
8
Layer 1
10
118.935664
20
44.060913
11
119.494931
21
43.530032
0
LINE
8
Layer 1
10
119.494931
20
43.530032
11
119.995993
21
42.731544
0
LINE
8
Layer 1
10
119.995993
20
42.731544
11
120.388950
21
41.728009
0
LINE
8
Layer 1
10
120.388950
20
41.728009
11
120.657291
21
40.617662
0
LINE
8
Layer 1
10
120.657291
20
40.617662
11
120.675211
21
40.060242
0
LINE
8
Layer 1
10
120.675211
20
40.060242
11
119.617837
21
39.591361
0
LINE
8
Layer 1
10
119.617837
20
39.591361
11
118.792740
21
39.092399
0
LINE
8
Layer 1
10
118.792740
20
39.092399
11
118.068567
21
38.321361
0
LINE
8
Layer 1
10
118.068567
20
38.321361
11
117.302075
21
37.452411
0
LINE
8
Layer 1
10
117.302075
20
37.452411
11
116.375234
21
36.718048
0
LINE
8
Layer 1
10
116.375234
20
36.718048
11
114.972528
21
36.039239
0
LINE
8
Layer 1
10
114.972528
20
36.039239
11
113.272944
21
35.474302
0
LINE
8
Layer 1
10
113.272944
20
35.474302
11
111.574015
21
35.105025
0
LINE
8
Layer 1
10
111.574015
20
35.105025
11
110.173276
21
35.013197
0
LINE
8
Layer 1
10
110.173276
20
35.013197
11
109.037994
21
35.207250
0
LINE
8
Layer 1
10
109.037994
20
35.207250
11
108.838976
21
35.451847
0
LINE
8
Layer 1
10
108.838976
20
35.451847
11
108.753791
21
35.874904
0
LINE
8
Layer 1
10
108.753791
20
35.874904
11
108.578001
21
36.651015
0
LINE
8
Layer 1
10
108.578001
20
36.651015
11
107.256191
21
36.114965
0
LINE
8
Layer 1
10
107.256191
20
36.114965
11
105.251808
21
35.602116
0
LINE
8
Layer 1
10
105.251808
20
35.602116
11
101.994894
21
35.127054
0
LINE
8
Layer 1
10
101.994894
20
35.127054
11
98.142242
21
34.815673
0
LINE
8
Layer 1
10
98.142242
20
34.815673
11
96.856096
21
34.937557
0
LINE
8
Layer 1
10
96.856096
20
34.937557
11
95.221560
21
35.259668
0
LINE
8
Layer 1
10
95.221560
20
35.259668
11
89.141210
21
36.829467
0
LINE
8
Layer 1
10
89.141210
20
36.829467
11
86.651992
21
37.499295
0
LINE
8
Layer 1
10
86.651992
20
37.499295
11
85.347643
21
37.726089
0
LINE
8
Layer 1
10
85.347643
20
37.726089
11
85.619046
21
37.543496
0
LINE
8
Layer 1
10
85.619046
20
37.543496
11
86.778771
21
37.145920
0
LINE
8
Layer 1
10
86.778771
20
37.145920
11
90.693276
21
36.001749
0
LINE
8
Layer 1
10
90.693276
20
36.001749
11
94.951326
21
34.885441
0
LINE
8
Layer 1
10
94.951326
20
34.885441
11
97.413092
21
34.388860
0
LINE
8
Layer 1
10
97.413092
20
34.388860
11
103.198648
21
34.957681
0
LINE
8
Layer 1
10
103.198648
20
34.957681
11
108.185667
21
35.518175
0
LINE
8
Layer 1
10
108.185667
20
35.518175
11
108.560870
21
34.675459
0
LINE
8
Layer 1
10
108.560870
20
34.675459
11
108.897448
21
33.828792
0
LINE
8
Layer 1
10
108.897448
20
33.828792
11
113.104450
21
35.112424
0
LINE
8
Layer 1
10
113.104450
20
35.112424
11
113.104450
21
35.112424
0
LINE
8
Layer 1
10
84.330427
20
64.058278
11
82.620529
21
65.323869
0
LINE
8
Layer 1
10
82.620529
20
65.323869
11
81.200380
21
66.736908
0
LINE
8
Layer 1
10
81.200380
20
66.736908
11
79.851397
21
68.552227
0
LINE
8
Layer 1
10
79.851397
20
68.552227
11
78.354995
21
71.024660
0
LINE
8
Layer 1
10
78.354995
20
71.024660
11
76.217461
21
74.900389
0
LINE
8
Layer 1
10
76.217461
20
74.900389
11
76.023757
21
75.479104
0
LINE
8
Layer 1
10
76.023757
20
75.479104
11
76.203627
21
75.597681
0
LINE
8
Layer 1
10
76.203627
20
75.597681
11
76.768803
21
74.996636
0
LINE
8
Layer 1
10
76.768803
20
74.996636
11
77.706612
21
73.551570
0
LINE
8
Layer 1
10
77.706612
20
73.551570
11
79.435365
21
71.190481
0
LINE
8
Layer 1
10
79.435365
20
71.190481
11
82.221409
21
68.195763
0
LINE
8
Layer 1
10
82.221409
20
68.195763
11
85.362324
21
64.897662
0
LINE
8
Layer 1
10
85.362324
20
64.897662
11
85.960461
21
64.050902
0
LINE
8
Layer 1
10
85.960461
20
64.050902
11
86.124203
21
63.480679
0
LINE
8
Layer 1
10
86.124203
20
63.480679
11
86.042683
21
63.236324
0
LINE
8
Layer 1
10
86.042683
20
63.236324
11
85.757335
21
63.238005
0
LINE
8
Layer 1
10
85.757335
20
63.238005
11
84.330427
21
64.058278
0
LINE
8
Layer 1
10
84.330427
20
64.058278
11
84.330427
21
64.058278
0
LINE
8
Layer 1
10
112.058902
20
36.528288
11
112.379508
21
36.594722
0
LINE
8
Layer 1
10
112.379508
20
36.594722
11
112.818178
21
36.959726
0
LINE
8
Layer 1
10
112.818178
20
36.959726
11
113.429507
21
37.382068
0
LINE
8
Layer 1
10
113.429507
20
37.382068
11
114.295335
21
37.358303
0
LINE
8
Layer 1
10
114.295335
20
37.358303
11
115.004505
21
37.336403
0
LINE
8
Layer 1
10
115.004505
20
37.336403
11
115.630686
21
37.556192
0
LINE
8
Layer 1
10
115.630686
20
37.556192
11
116.181352
21
38.022026
0
LINE
8
Layer 1
10
116.181352
20
38.022026
11
116.663978
21
38.738260
0
LINE
8
Layer 1
10
116.663978
20
38.738260
11
116.776049
21
39.038320
0
LINE
8
Layer 1
10
116.776049
20
39.038320
11
116.581714
21
39.180042
0
LINE
8
Layer 1
10
116.581714
20
39.180042
11
114.591727
21
39.111236
0
LINE
8
Layer 1
10
114.591727
20
39.111236
11
112.201696
21
38.783916
0
LINE
8
Layer 1
10
112.201696
20
38.783916
11
110.647197
21
38.208842
0
LINE
8
Layer 1
10
110.647197
20
38.208842
11
110.188966
21
37.831898
0
LINE
8
Layer 1
10
110.188966
20
37.831898
11
109.946450
21
37.397216
0
LINE
8
Layer 1
10
109.946450
20
37.397216
11
109.921925
21
36.906196
0
LINE
8
Layer 1
10
109.921925
20
36.906196
11
110.117670
21
36.360238
0
LINE
8
Layer 1
10
110.117670
20
36.360238
11
110.490515
21
35.918986
0
LINE
8
Layer 1
10
110.490515
20
35.918986
11
111.129056
21
36.220197
0
LINE
8
Layer 1
10
111.129056
20
36.220197
11
111.688189
21
36.498087
0
LINE
8
Layer 1
10
111.688189
20
36.498087
11
112.058902
21
36.528288
0
LINE
8
Layer 1
10
112.058902
20
36.528288
11
112.058902
21
36.528288
0
LINE
8
Layer 1
10
111.383092
20
37.215459
11
111.389152
21
37.414779
0
LINE
8
Layer 1
10
111.389152
20
37.414779
11
111.648658
21
37.497681
0
LINE
8
Layer 1
10
111.648658
20
37.497681
11
111.959401
21
37.414779
0
LINE
8
Layer 1
10
111.959401
20
37.414779
11
112.088648
21
37.215459
0
LINE
8
Layer 1
10
112.088648
20
37.215459
11
112.010638
21
37.016140
0
LINE
8
Layer 1
10
112.010638
20
37.016140
11
111.823082
21
36.933237
0
LINE
8
Layer 1
10
111.823082
20
36.933237
11
111.383092
21
37.215459
0
LINE
8
Layer 1
10
111.383092
20
37.215459
11
111.383092
21
37.215459
0
LINE
8
Layer 1
10
105.290857
20
37.084728
11
108.451184
21
38.326989
0
LINE
8
Layer 1
10
108.451184
20
38.326989
11
109.626770
21
38.853313
0
LINE
8
Layer 1
10
109.626770
20
38.853313
11
107.400485
21
39.017310
0
LINE
8
Layer 1
10
107.400485
20
39.017310
11
100.799759
21
39.607434
0
LINE
8
Layer 1
10
100.799759
20
39.607434
11
98.297241
21
39.875582
0
LINE
8
Layer 1
10
98.297241
20
39.875582
11
96.589944
21
40.169170
0
LINE
8
Layer 1
10
96.589944
20
40.169170
11
95.082555
21
40.627430
0
LINE
8
Layer 1
10
95.082555
20
40.627430
11
93.179759
21
41.389591
0
LINE
8
Layer 1
10
93.179759
20
41.389591
11
89.856350
21
42.945875
0
LINE
8
Layer 1
10
89.856350
20
42.945875
11
88.531793
21
43.772472
0
LINE
8
Layer 1
10
88.531793
20
43.772472
11
87.311450
21
44.738205
0
LINE
8
Layer 1
10
87.311450
20
44.738205
11
86.104910
21
45.923198
0
LINE
8
Layer 1
10
86.104910
20
45.923198
11
84.821760
21
47.407575
0
LINE
8
Layer 1
10
84.821760
20
47.407575
11
81.663983
21
51.594975
0
LINE
8
Layer 1
10
81.663983
20
51.594975
11
76.444455
21
59.107671
0
LINE
8
Layer 1
10
76.444455
20
59.107671
11
74.771968
21
62.591659
0
LINE
8
Layer 1
10
74.771968
20
62.591659
11
72.189018
21
68.562116
0
LINE
8
Layer 1
10
72.189018
20
68.562116
11
67.519608
21
79.600112
0
LINE
8
Layer 1
10
67.519608
20
79.600112
11
67.163847
21
80.252652
0
LINE
8
Layer 1
10
67.163847
20
80.252652
11
66.959750
21
80.420967
0
LINE
8
Layer 1
10
66.959750
20
80.420967
11
66.660595
21
80.022045
0
LINE
8
Layer 1
10
66.660595
20
80.022045
11
61.171787
21
72.246882
0
LINE
8
Layer 1
10
61.171787
20
72.246882
11
59.138287
21
69.044245
0
LINE
8
Layer 1
10
59.138287
20
69.044245
11
58.075576
21
67.049043
0
LINE
8
Layer 1
10
58.075576
20
67.049043
11
57.356570
21
65.138822
0
LINE
8
Layer 1
10
57.356570
20
65.138822
11
57.781515
21
60.702139
0
LINE
8
Layer 1
10
57.781515
20
60.702139
11
58.758500
21
51.608792
0
LINE
8
Layer 1
10
58.758500
20
51.608792
11
59.311814
21
45.188237
0
LINE
8
Layer 1
10
59.311814
20
45.188237
11
59.313092
21
43.424348
0
LINE
8
Layer 1
10
59.313092
20
43.424348
11
60.421560
21
43.424348
0
LINE
8
Layer 1
10
60.421560
20
43.424348
11
63.737671
21
43.117660
0
LINE
8
Layer 1
10
63.737671
20
43.117660
11
66.046261
21
42.578873
0
LINE
8
Layer 1
10
66.046261
20
42.578873
11
68.696981
21
41.253444
0
LINE
8
Layer 1
10
68.696981
20
41.253444
11
70.640346
21
40.079280
0
LINE
8
Layer 1
10
70.640346
20
40.079280
11
71.448648
21
39.443462
0
LINE
8
Layer 1
10
71.448648
20
39.443462
11
71.276938
21
39.243582
0
LINE
8
Layer 1
10
71.276938
20
39.243582
11
70.790676
21
39.210213
0
LINE
8
Layer 1
10
70.790676
20
39.210213
11
69.047707
21
39.629585
0
LINE
8
Layer 1
10
69.047707
20
39.629585
11
67.992212
21
39.893882
0
LINE
8
Layer 1
10
67.992212
20
39.893882
11
67.268519
21
39.913456
0
LINE
8
Layer 1
10
67.268519
20
39.913456
11
60.060109
21
38.908792
0
LINE
8
Layer 1
10
60.060109
20
38.908792
11
59.906769
21
38.866751
0
LINE
8
Layer 1
10
59.906769
20
38.866751
11
59.926581
21
38.765672
0
LINE
8
Layer 1
10
59.926581
20
38.765672
11
63.881962
21
39.045227
0
LINE
8
Layer 1
10
63.881962
20
39.045227
11
67.694220
21
39.467897
0
LINE
8
Layer 1
10
67.694220
20
39.467897
11
71.557255
21
38.623559
0
LINE
8
Layer 1
10
71.557255
20
38.623559
11
75.315285
21
37.940360
0
LINE
8
Layer 1
10
75.315285
20
37.940360
11
76.721309
21
37.920294
0
LINE
8
Layer 1
10
76.721309
20
37.920294
11
78.553931
21
38.054209
0
LINE
8
Layer 1
10
78.553931
20
38.054209
11
81.836257
21
38.477884
0
LINE
8
Layer 1
10
81.836257
20
38.477884
11
81.806559
21
38.583403
0
LINE
8
Layer 1
10
81.806559
20
38.583403
11
81.306295
21
38.603205
0
LINE
8
Layer 1
10
81.306295
20
38.603205
11
78.185360
21
38.363443
0
LINE
8
Layer 1
10
78.185360
20
38.363443
11
75.710014
21
38.258413
0
LINE
8
Layer 1
10
75.710014
20
38.258413
11
73.841099
21
38.498551
0
LINE
8
Layer 1
10
73.841099
20
38.498551
11
72.367806
21
38.909173
0
LINE
8
Layer 1
10
72.367806
20
38.909173
11
72.055546
21
39.073484
0
LINE
8
Layer 1
10
72.055546
20
39.073484
11
72.030577
21
39.215261
0
LINE
8
Layer 1
10
72.030577
20
39.215261
11
72.855607
21
39.445621
0
LINE
8
Layer 1
10
72.855607
20
39.445621
11
74.869091
21
39.629057
0
LINE
8
Layer 1
10
74.869091
20
39.629057
11
77.192388
21
39.845476
0
LINE
8
Layer 1
10
77.192388
20
39.845476
11
77.538429
21
39.957876
0
LINE
8
Layer 1
10
77.538429
20
39.957876
11
77.400119
21
40.083737
0
LINE
8
Layer 1
10
77.400119
20
40.083737
11
76.563929
21
40.549064
0
LINE
8
Layer 1
10
76.563929
20
40.549064
11
75.492290
21
41.460494
0
LINE
8
Layer 1
10
75.492290
20
41.460494
11
72.159681
21
45.082361
0
LINE
8
Layer 1
10
72.159681
20
45.082361
11
70.039273
21
47.785739
0
LINE
8
Layer 1
10
70.039273
20
47.785739
11
68.150518
21
50.846711
0
LINE
8
Layer 1
10
68.150518
20
50.846711
11
66.215142
21
54.773782
0
LINE
8
Layer 1
10
66.215142
20
54.773782
11
63.954872
21
60.075459
0
LINE
8
Layer 1
10
63.954872
20
60.075459
11
62.744477
21
63.038792
0
LINE
8
Layer 1
10
62.744477
20
63.038792
11
61.522672
21
63.118393
0
LINE
8
Layer 1
10
61.522672
20
63.118393
11
60.363568
21
63.227525
0
LINE
8
Layer 1
10
60.363568
20
63.227525
11
59.827460
21
63.411783
0
LINE
8
Layer 1
10
59.827460
20
63.411783
11
59.835504
21
63.749030
0
LINE
8
Layer 1
10
59.835504
20
63.749030
11
60.308860
21
64.317132
0
LINE
8
Layer 1
10
60.308860
20
64.317132
11
60.959314
21
64.869772
0
LINE
8
Layer 1
10
60.959314
20
64.869772
11
61.584222
21
65.106306
0
LINE
8
Layer 1
10
61.584222
20
65.106306
11
62.210818
21
64.999856
0
LINE
8
Layer 1
10
62.210818
20
64.999856
11
62.866333
21
64.523544
0
LINE
8
Layer 1
10
62.866333
20
64.523544
11
63.578002
21
63.650493
0
LINE
8
Layer 1
10
63.578002
20
63.650493
11
64.373055
21
62.353824
0
LINE
8
Layer 1
10
64.373055
20
62.353824
11
66.322248
21
58.382126
0
LINE
8
Layer 1
10
66.322248
20
58.382126
11
68.442076
21
53.867529
0
LINE
8
Layer 1
10
68.442076
20
53.867529
11
70.170495
21
50.628514
0
LINE
8
Layer 1
10
70.170495
20
50.628514
11
71.792922
21
48.180688
0
LINE
8
Layer 1
10
71.792922
20
48.180688
11
73.594776
21
46.039656
0
LINE
8
Layer 1
10
73.594776
20
46.039656
11
76.148088
21
43.475282
0
LINE
8
Layer 1
10
76.148088
20
43.475282
11
77.335488
21
42.540820
0
LINE
8
Layer 1
10
77.335488
20
42.540820
11
78.630525
21
41.748870
0
LINE
8
Layer 1
10
78.630525
20
41.748870
11
80.158559
21
41.032453
0
LINE
8
Layer 1
10
80.158559
20
41.032453
11
82.044944
21
40.324592
0
LINE
8
Layer 1
10
82.044944
20
40.324592
11
87.394203
21
38.666620
0
LINE
8
Layer 1
10
87.394203
20
38.666620
11
95.014203
21
36.428584
0
LINE
8
Layer 1
10
95.014203
20
36.428584
11
99.160161
21
36.398688
0
LINE
8
Layer 1
10
99.160161
20
36.398688
11
102.962789
21
36.487274
0
LINE
8
Layer 1
10
102.962789
20
36.487274
11
104.101610
21
36.698946
0
LINE
8
Layer 1
10
104.101610
20
36.698946
11
105.290857
21
37.084728
0
LINE
8
Layer 1
10
105.290857
20
37.084728
11
105.290857
21
37.084728
0
LINE
8
Layer 1
10
57.230462
20
38.772993
11
55.680733
21
39.376879
0
LINE
8
Layer 1
10
55.680733
20
39.376879
11
55.460034
21
39.710084
0
LINE
8
Layer 1
10
55.460034
20
39.710084
11
55.524036
21
40.131599
0
LINE
8
Layer 1
10
55.524036
20
40.131599
11
55.842956
21
40.436414
0
LINE
8
Layer 1
10
55.842956
20
40.436414
11
56.360482
21
40.592212
0
LINE
8
Layer 1
10
56.360482
20
40.592212
11
56.842605
21
40.568155
0
LINE
8
Layer 1
10
56.842605
20
40.568155
11
57.055314
21
40.333402
0
LINE
8
Layer 1
10
57.055314
20
40.333402
11
57.438163
21
40.257406
0
LINE
8
Layer 1
10
57.438163
20
40.257406
11
58.382702
21
40.464164
0
LINE
8
Layer 1
10
58.382702
20
40.464164
11
59.828678
21
40.745060
0
LINE
8
Layer 1
10
59.828678
20
40.745060
11
59.891244
21
40.490019
0
LINE
8
Layer 1
10
59.891244
20
40.490019
11
59.750224
21
40.162411
0
LINE
8
Layer 1
10
59.750224
20
40.162411
11
59.470933
21
39.860120
0
LINE
8
Layer 1
10
59.470933
20
39.860120
11
59.118683
21
39.681026
0
LINE
8
Layer 1
10
59.118683
20
39.681026
11
59.020426
21
39.644096
0
LINE
8
Layer 1
10
59.020426
20
39.644096
11
59.130749
21
39.630932
0
LINE
8
Layer 1
10
59.130749
20
39.630932
11
59.877537
21
39.676499
0
LINE
8
Layer 1
10
59.877537
20
39.676499
11
63.575237
21
40.241495
0
LINE
8
Layer 1
10
63.575237
20
40.241495
11
66.341204
21
40.885152
0
LINE
8
Layer 1
10
66.341204
20
40.885152
11
66.278456
21
41.011256
0
LINE
8
Layer 1
10
66.278456
20
41.011256
11
65.835847
21
41.201892
0
LINE
8
Layer 1
10
65.835847
20
41.201892
11
64.208929
21
41.676177
0
LINE
8
Layer 1
10
64.208929
20
41.676177
11
62.256208
21
42.106837
0
LINE
8
Layer 1
10
62.256208
20
42.106837
11
60.773443
21
42.292702
0
LINE
8
Layer 1
10
60.773443
20
42.292702
11
59.797078
21
42.084391
0
LINE
8
Layer 1
10
59.797078
20
42.084391
11
58.509572
21
41.587431
0
LINE
8
Layer 1
10
58.509572
20
41.587431
11
57.382231
21
41.144206
0
LINE
8
Layer 1
10
57.382231
20
41.144206
11
56.778215
21
41.082691
0
LINE
8
Layer 1
10
56.778215
20
41.082691
11
56.686388
21
41.189811
0
LINE
8
Layer 1
10
56.686388
20
41.189811
11
56.742115
21
41.386041
0
LINE
8
Layer 1
10
56.742115
20
41.386041
11
57.318523
21
42.037409
0
LINE
8
Layer 1
10
57.318523
20
42.037409
11
57.968530
21
42.805913
0
LINE
8
Layer 1
10
57.968530
20
42.805913
11
58.052631
21
43.485957
0
LINE
8
Layer 1
10
58.052631
20
43.485957
11
56.914440
21
53.019904
0
LINE
8
Layer 1
10
56.914440
20
53.019904
11
56.151784
21
59.846753
0
LINE
8
Layer 1
10
56.151784
20
59.846753
11
55.670276
21
63.113910
0
LINE
8
Layer 1
10
55.670276
20
63.113910
11
55.431711
21
63.862990
0
LINE
8
Layer 1
10
55.431711
20
63.862990
11
55.139543
21
64.262611
0
LINE
8
Layer 1
10
55.139543
20
64.262611
11
54.229214
21
64.734090
0
LINE
8
Layer 1
10
54.229214
20
64.734090
11
53.502883
21
65.154342
0
LINE
8
Layer 1
10
53.502883
20
65.154342
11
52.945005
21
65.632998
0
LINE
8
Layer 1
10
52.945005
20
65.632998
11
51.916736
21
67.213567
0
LINE
8
Layer 1
10
51.916736
20
67.213567
11
51.349616
21
68.425886
0
LINE
8
Layer 1
10
51.349616
20
68.425886
11
50.932383
21
70.187987
0
LINE
8
Layer 1
10
50.932383
20
70.187987
11
49.745999
21
80.131818
0
LINE
8
Layer 1
10
49.745999
20
80.131818
11
48.324505
21
91.479350
0
LINE
8
Layer 1
10
48.324505
20
91.479350
11
48.036117
21
91.471550
0
LINE
8
Layer 1
10
48.036117
20
91.471550
11
47.624667
21
91.146201
0
LINE
8
Layer 1
10
47.624667
20
91.146201
11
47.276638
21
90.692585
0
LINE
8
Layer 1
10
47.276638
20
90.692585
11
47.716003
21
90.749114
0
LINE
8
Layer 1
10
47.716003
20
90.749114
11
48.132462
21
90.786313
0
LINE
8
Layer 1
10
48.132462
20
90.786313
11
48.304631
21
90.658930
0
LINE
8
Layer 1
10
48.304631
20
90.658930
11
49.457503
21
79.635502
0
LINE
8
Layer 1
10
49.457503
20
79.635502
11
50.612170
21
68.856654
0
LINE
8
Layer 1
10
50.612170
20
68.856654
11
51.604031
21
66.988755
0
LINE
8
Layer 1
10
51.604031
20
66.988755
11
52.645794
21
65.362616
0
LINE
8
Layer 1
10
52.645794
20
65.362616
11
53.177891
21
64.894534
0
LINE
8
Layer 1
10
53.177891
20
64.894534
11
53.847774
21
64.512639
0
LINE
8
Layer 1
10
53.847774
20
64.512639
11
54.783469
21
63.914016
0
LINE
8
Layer 1
10
54.783469
20
63.914016
11
55.221161
21
63.330497
0
LINE
8
Layer 1
10
55.221161
20
63.330497
11
57.611755
21
43.142126
0
LINE
8
Layer 1
10
57.611755
20
43.142126
11
57.347724
21
42.430808
0
LINE
8
Layer 1
10
57.347724
20
42.430808
11
56.541803
21
41.707029
0
LINE
8
Layer 1
10
56.541803
20
41.707029
11
55.677251
21
40.901440
0
LINE
8
Layer 1
10
55.677251
20
40.901440
11
55.171114
21
39.953873
0
LINE
8
Layer 1
10
55.171114
20
39.953873
11
54.856959
21
38.930258
0
LINE
8
Layer 1
10
54.856959
20
38.930258
11
56.026691
21
38.667526
0
LINE
8
Layer 1
10
56.026691
20
38.667526
11
57.896447
21
38.406132
0
LINE
8
Layer 1
10
57.896447
20
38.406132
11
58.016175
21
38.443198
0
LINE
8
Layer 1
10
58.016175
20
38.443198
11
57.958019
21
38.517829
0
LINE
8
Layer 1
10
57.958019
20
38.517829
11
57.230462
21
38.772993
0
LINE
8
Layer 1
10
57.230462
20
38.772993
11
57.230462
21
38.772993
0
LINE
8
Layer 1
10
145.882174
20
49.190162
11
148.213092
21
52.445914
0
LINE
8
Layer 1
10
148.213092
20
52.445914
11
127.540314
21
74.475854
0
LINE
8
Layer 1
10
127.540314
20
74.475854
11
106.867537
21
96.289427
0
LINE
8
Layer 1
10
106.867537
20
96.289427
11
106.726426
21
93.634111
0
LINE
8
Layer 1
10
106.726426
20
93.634111
11
106.732099
21
91.069497
0
LINE
8
Layer 1
10
106.732099
20
91.069497
11
107.266986
21
88.831903
0
LINE
8
Layer 1
10
107.266986
20
88.831903
11
107.948657
21
86.685016
0
LINE
8
Layer 1
10
107.948657
20
86.685016
11
107.219231
21
85.379927
0
LINE
8
Layer 1
10
107.219231
20
85.379927
11
106.489802
21
84.074841
0
LINE
8
Layer 1
10
106.489802
20
84.074841
11
114.704122
21
75.391261
0
LINE
8
Layer 1
10
114.704122
20
75.391261
11
134.391653
21
54.828622
0
LINE
8
Layer 1
10
134.391653
20
54.828622
11
140.727585
21
48.394437
0
LINE
8
Layer 1
10
140.727585
20
48.394437
11
143.243500
21
46.048188
0
LINE
8
Layer 1
10
143.243500
20
46.048188
11
145.882174
21
49.190162
0
LINE
8
Layer 1
10
145.882174
20
49.190162
11
145.882174
21
49.190162
0
LINE
8
Layer 1
10
56.392521
20
67.694344
11
57.467286
21
69.897299
0
LINE
8
Layer 1
10
57.467286
20
69.897299
11
59.841105
21
73.479900
0
LINE
8
Layer 1
10
59.841105
20
73.479900
11
62.828689
21
77.714348
0
LINE
8
Layer 1
10
62.828689
20
77.714348
11
62.935587
21
82.653237
0
LINE
8
Layer 1
10
62.935587
20
82.653237
11
63.042484
21
87.592126
0
LINE
8
Layer 1
10
63.042484
20
87.592126
11
60.204694
21
87.495583
0
LINE
8
Layer 1
10
60.204694
20
87.495583
11
57.823130
21
87.507885
0
LINE
8
Layer 1
10
57.823130
20
87.507885
11
56.082221
21
87.673036
0
LINE
8
Layer 1
10
56.082221
20
87.673036
11
54.797537
21
87.947032
0
LINE
8
Layer 1
10
54.797537
20
87.947032
11
54.797537
21
86.965025
0
LINE
8
Layer 1
10
54.797537
20
86.965025
11
55.013920
21
85.564696
0
LINE
8
Layer 1
10
55.013920
20
85.564696
11
55.590941
21
83.256758
0
LINE
8
Layer 1
10
55.590941
20
83.256758
11
57.394128
21
77.496204
0
LINE
8
Layer 1
10
57.394128
20
77.496204
11
58.266079
21
75.020283
0
LINE
8
Layer 1
10
58.266079
20
75.020283
11
56.518426
21
73.438749
0
LINE
8
Layer 1
10
56.518426
20
73.438749
11
55.218032
21
72.090219
0
LINE
8
Layer 1
10
55.218032
20
72.090219
11
54.231520
21
70.706599
0
LINE
8
Layer 1
10
54.231520
20
70.706599
11
53.605461
21
69.366547
0
LINE
8
Layer 1
10
53.605461
20
69.366547
11
53.386426
21
68.148722
0
LINE
8
Layer 1
10
53.386426
20
68.148722
11
53.594732
21
67.195043
0
LINE
8
Layer 1
10
53.594732
20
67.195043
11
54.431613
21
66.310575
0
LINE
8
Layer 1
10
54.431613
20
66.310575
11
55.147366
21
65.782418
0
LINE
8
Layer 1
10
55.147366
20
65.782418
11
55.603239
21
65.759702
0
LINE
8
Layer 1
10
55.603239
20
65.759702
11
55.963526
21
66.358365
0
LINE
8
Layer 1
10
55.963526
20
66.358365
11
56.392521
21
67.694344
0
LINE
8
Layer 1
10
56.392521
20
67.694344
11
56.392521
21
67.694344
0
LINE
8
Layer 1
10
53.197695
20
72.500933
11
55.114498
21
74.287727
0
LINE
8
Layer 1
10
55.114498
20
74.287727
11
56.701459
21
75.643492
0
LINE
8
Layer 1
10
56.701459
20
75.643492
11
56.138928
21
77.102253
0
LINE
8
Layer 1
10
56.138928
20
77.102253
11
54.317031
21
83.047979
0
LINE
8
Layer 1
10
54.317031
20
83.047979
11
53.107409
21
88.031185
0
LINE
8
Layer 1
10
53.107409
20
88.031185
11
52.893013
21
88.826130
0
LINE
8
Layer 1
10
52.893013
20
88.826130
11
52.382053
21
89.724518
0
LINE
8
Layer 1
10
52.382053
20
89.724518
11
50.925318
21
92.038540
0
LINE
8
Layer 1
10
50.925318
20
92.038540
11
50.073738
21
93.263514
0
LINE
8
Layer 1
10
50.073738
20
93.263514
11
50.834469
21
82.814046
0
LINE
8
Layer 1
10
50.834469
20
82.814046
11
51.869893
21
71.646912
0
LINE
8
Layer 1
10
51.869893
20
71.646912
11
52.057076
21
71.108675
0
LINE
8
Layer 1
10
52.057076
20
71.108675
11
52.444585
21
71.505801
0
LINE
8
Layer 1
10
52.444585
20
71.505801
11
53.197695
21
72.500933
0
LINE
8
Layer 1
10
53.197695
20
72.500933
11
53.197695
21
72.500933
0
LINE
8
Layer 1
10
65.307735
20
81.656738
11
65.547463
21
82.996500
0
LINE
8
Layer 1
10
65.547463
20
82.996500
11
65.597813
21
84.545510
0
LINE
8
Layer 1
10
65.597813
20
84.545510
11
65.467032
21
85.996192
0
LINE
8
Layer 1
10
65.467032
20
85.996192
11
65.163367
21
87.040968
0
LINE
8
Layer 1
10
65.163367
20
87.040968
11
64.928874
21
87.401962
0
LINE
8
Layer 1
10
64.928874
20
87.401962
11
64.781535
21
87.228076
0
LINE
8
Layer 1
10
64.781535
20
87.228076
11
64.558029
21
84.466289
0
LINE
8
Layer 1
10
64.558029
20
84.466289
11
64.225599
21
80.254348
0
LINE
8
Layer 1
10
64.225599
20
80.254348
11
64.166639
21
79.605561
0
LINE
8
Layer 1
10
64.166639
20
79.605561
11
64.526676
21
79.963405
0
LINE
8
Layer 1
10
64.526676
20
79.963405
11
65.307735
21
81.656738
0
LINE
8
Layer 1
10
65.307735
20
81.656738
11
65.307735
21
81.656738
0
LINE
8
Layer 1
10
90.747452
20
80.427531
11
93.406485
21
81.473186
0
LINE
8
Layer 1
10
93.406485
20
81.473186
11
96.986767
21
83.149547
0
LINE
8
Layer 1
10
96.986767
20
83.149547
11
101.881287
21
85.370108
0
LINE
8
Layer 1
10
101.881287
20
85.370108
11
103.521542
21
85.874961
0
LINE
8
Layer 1
10
103.521542
20
85.874961
11
104.786870
21
86.036554
0
LINE
8
Layer 1
10
104.786870
20
86.036554
11
105.556962
21
86.163826
0
LINE
8
Layer 1
10
105.556962
20
86.163826
11
105.948134
21
86.600298
0
LINE
8
Layer 1
10
105.948134
20
86.600298
11
105.992853
21
87.441108
0
LINE
8
Layer 1
10
105.992853
20
87.441108
11
105.723586
21
88.781390
0
LINE
8
Layer 1
10
105.723586
20
88.781390
11
105.385943
21
90.735227
0
LINE
8
Layer 1
10
105.385943
20
90.735227
11
105.265037
21
92.743836
0
LINE
8
Layer 1
10
105.265037
20
92.743836
11
105.297097
21
94.791101
0
LINE
8
Layer 1
10
105.297097
20
94.791101
11
102.725700
21
93.062098
0
LINE
8
Layer 1
10
102.725700
20
93.062098
11
100.295184
21
91.560969
0
LINE
8
Layer 1
10
100.295184
20
91.560969
11
98.062505
21
90.379832
0
LINE
8
Layer 1
10
98.062505
20
90.379832
11
96.860066
21
89.865841
0
LINE
8
Layer 1
10
96.860066
20
89.865841
11
95.890532
21
89.579955
0
LINE
8
Layer 1
10
95.890532
20
89.579955
11
93.375790
21
89.435805
0
LINE
8
Layer 1
10
93.375790
20
89.435805
11
91.172619
21
89.499829
0
LINE
8
Layer 1
10
91.172619
20
89.499829
11
89.008621
21
89.713847
0
LINE
8
Layer 1
10
89.008621
20
89.713847
11
83.071391
21
90.824589
0
LINE
8
Layer 1
10
83.071391
20
90.824589
11
79.030799
21
91.687904
0
LINE
8
Layer 1
10
79.030799
20
91.687904
11
73.899169
21
90.126967
0
LINE
8
Layer 1
10
73.899169
20
90.126967
11
68.556451
21
88.502411
0
LINE
8
Layer 1
10
68.556451
20
88.502411
11
69.404364
21
87.841302
0
LINE
8
Layer 1
10
69.404364
20
87.841302
11
71.741092
21
86.379080
0
LINE
8
Layer 1
10
71.741092
20
86.379080
11
77.016616
21
83.387607
0
LINE
8
Layer 1
10
77.016616
20
83.387607
11
80.149513
21
81.951769
0
LINE
8
Layer 1
10
80.149513
20
81.951769
11
83.079918
21
80.855296
0
LINE
8
Layer 1
10
83.079918
20
80.855296
11
85.671296
21
80.142915
0
LINE
8
Layer 1
10
85.671296
20
80.142915
11
87.787110
21
79.859353
0
LINE
8
Layer 1
10
87.787110
20
79.859353
11
89.051617
21
80.014565
0
LINE
8
Layer 1
10
89.051617
20
80.014565
11
90.747452
21
80.427531
0
LINE
8
Layer 1
10
90.747452
20
80.427531
11
90.747452
21
80.427531
0
LINE
8
Layer 1
10
82.289568
20
84.599963
11
81.259625
21
84.963700
0
LINE
8
Layer 1
10
81.259625
20
84.963700
11
80.769473
21
85.341350
0
LINE
8
Layer 1
10
80.769473
20
85.341350
11
80.743851
21
85.505649
0
LINE
8
Layer 1
10
80.743851
20
85.505649
11
80.873617
21
85.637736
0
LINE
8
Layer 1
10
80.873617
20
85.637736
11
81.626563
21
85.757681
0
LINE
8
Layer 1
10
81.626563
20
85.757681
11
85.507119
21
86.233652
0
LINE
8
Layer 1
10
85.507119
20
86.233652
11
87.359031
21
86.573667
0
LINE
8
Layer 1
10
87.359031
20
86.573667
11
87.764809
21
86.709006
0
LINE
8
Layer 1
10
87.764809
20
86.709006
11
87.813858
21
86.829983
0
LINE
8
Layer 1
10
87.813858
20
86.829983
11
86.811933
21
87.055105
0
LINE
8
Layer 1
10
86.811933
20
87.055105
11
84.293591
21
87.301538
0
LINE
8
Layer 1
10
84.293591
20
87.301538
11
82.363543
21
87.567578
0
LINE
8
Layer 1
10
82.363543
20
87.567578
11
81.478140
21
88.003741
0
LINE
8
Layer 1
10
81.478140
20
88.003741
11
81.195432
21
88.454204
0
LINE
8
Layer 1
10
81.195432
20
88.454204
11
81.732080
21
88.645599
0
LINE
8
Layer 1
10
81.732080
20
88.645599
11
87.035654
21
88.554046
0
LINE
8
Layer 1
10
87.035654
20
88.554046
11
91.980314
21
88.312063
0
LINE
8
Layer 1
10
91.980314
20
88.312063
11
92.330861
21
88.171834
0
LINE
8
Layer 1
10
92.330861
20
88.171834
11
92.063990
21
87.790192
0
LINE
8
Layer 1
10
92.063990
20
87.790192
11
89.581426
21
86.218387
0
LINE
8
Layer 1
10
89.581426
20
86.218387
11
86.996651
21
84.926436
0
LINE
8
Layer 1
10
86.996651
20
84.926436
11
86.040077
21
84.657719
0
LINE
8
Layer 1
10
86.040077
20
84.657719
11
84.995314
21
84.525302
0
LINE
8
Layer 1
10
84.995314
20
84.525302
11
83.443793
21
84.486879
0
LINE
8
Layer 1
10
83.443793
20
84.486879
11
82.289568
21
84.599963
0
LINE
8
Layer 1
10
82.289568
20
84.599963
11
82.289568
21
84.599963
0
LINE
8
Layer 1
10
44.390623
20
87.098237
11
46.307631
21
89.327750
0
LINE
8
Layer 1
10
46.307631
20
89.327750
11
46.780602
21
89.918431
0
LINE
8
Layer 1
10
46.780602
20
89.918431
11
46.823447
21
90.031401
0
LINE
8
Layer 1
10
46.823447
20
90.031401
11
43.891567
21
86.856401
0
LINE
8
Layer 1
10
43.891567
20
86.856401
11
41.441689
21
84.064348
0
LINE
8
Layer 1
10
41.441689
20
84.064348
11
39.889337
21
84.064348
0
LINE
8
Layer 1
10
39.889337
20
84.064348
11
38.336988
21
84.064348
0
LINE
8
Layer 1
10
38.336988
20
84.064348
11
35.207818
21
87.098237
0
LINE
8
Layer 1
10
35.207818
20
87.098237
11
31.985805
21
90.340101
0
LINE
8
Layer 1
10
31.985805
20
90.340101
11
32.554179
21
91.234194
0
LINE
8
Layer 1
10
32.554179
20
91.234194
11
34.051073
21
93.091768
0
LINE
8
Layer 1
10
34.051073
20
93.091768
11
36.073252
21
95.635459
0
LINE
8
Layer 1
10
36.073252
20
95.635459
11
33.604982
21
92.924255
0
LINE
8
Layer 1
10
33.604982
20
92.924255
11
31.272644
21
90.213053
0
LINE
8
Layer 1
10
31.272644
20
90.213053
11
34.638979
21
87.011462
0
LINE
8
Layer 1
10
34.638979
20
87.011462
11
38.005314
21
83.809868
0
LINE
8
Layer 1
10
38.005314
20
83.809868
11
39.740552
21
83.795997
0
LINE
8
Layer 1
10
39.740552
20
83.795997
11
41.475793
21
83.782126
0
LINE
8
Layer 1
10
41.475793
20
83.782126
11
44.390623
21
87.098237
0
LINE
8
Layer 1
10
44.390623
20
87.098237
11
44.390623
21
87.098237
0
LINE
8
Layer 1
10
45.708372
20
90.730713
11
49.435314
21
95.440238
0
LINE
8
Layer 1
10
49.435314
20
95.440238
11
50.987537
21
97.575618
0
LINE
8
Layer 1
10
50.987537
20
97.575618
11
53.277149
21
97.593317
0
LINE
8
Layer 1
10
53.277149
20
97.593317
11
55.566762
21
97.611015
0
LINE
8
Layer 1
10
55.566762
20
97.611015
11
55.910655
21
95.479235
0
LINE
8
Layer 1
10
55.910655
20
95.479235
11
56.112934
21
93.381569
0
LINE
8
Layer 1
10
56.112934
20
93.381569
11
55.922443
21
91.378512
0
LINE
8
Layer 1
10
55.922443
20
91.378512
11
55.675600
21
89.646448
0
LINE
8
Layer 1
10
55.675600
20
89.646448
11
55.740200
21
89.134301
0
LINE
8
Layer 1
10
55.740200
20
89.134301
11
56.006000
21
88.810558
0
LINE
8
Layer 1
10
56.006000
20
88.810558
11
56.529889
21
88.639578
0
LINE
8
Layer 1
10
56.529889
20
88.639578
11
57.368758
21
88.585721
0
LINE
8
Layer 1
10
57.368758
20
88.585721
11
60.218989
21
88.686818
0
LINE
8
Layer 1
10
60.218989
20
88.686818
11
63.225722
21
88.897162
0
LINE
8
Layer 1
10
63.225722
20
88.897162
11
66.096826
21
89.337365
0
LINE
8
Layer 1
10
66.096826
20
89.337365
11
69.682309
21
90.175752
0
LINE
8
Layer 1
10
69.682309
20
90.175752
11
74.832182
21
91.580648
0
LINE
8
Layer 1
10
74.832182
20
91.580648
11
77.641045
21
92.457983
0
LINE
8
Layer 1
10
77.641045
20
92.457983
11
79.861403
21
93.423139
0
LINE
8
Layer 1
10
79.861403
20
93.423139
11
81.954732
21
94.717878
0
LINE
8
Layer 1
10
81.954732
20
94.717878
11
84.382511
21
96.583966
0
LINE
8
Layer 1
10
84.382511
20
96.583966
11
86.251532
21
98.188888
0
LINE
8
Layer 1
10
86.251532
20
98.188888
11
87.574400
21
99.617077
0
LINE
8
Layer 1
10
87.574400
20
99.617077
11
88.650518
21
101.250652
0
LINE
8
Layer 1
10
88.650518
20
101.250652
11
89.779286
21
103.471729
0
LINE
8
Layer 1
10
89.779286
20
103.471729
11
90.554111
21
104.891574
0
LINE
8
Layer 1
10
90.554111
20
104.891574
11
91.049286
21
105.425519
0
LINE
8
Layer 1
10
91.049286
20
105.425519
11
91.371699
21
105.017677
0
LINE
8
Layer 1
10
91.371699
20
105.017677
11
91.366348
21
104.117851
0
LINE
8
Layer 1
10
91.366348
20
104.117851
11
91.034346
21
102.733577
0
LINE
8
Layer 1
10
91.034346
20
102.733577
11
90.376807
21
100.872392
0
LINE
8
Layer 1
10
90.376807
20
100.872392
11
89.565920
21
98.491217
0
LINE
8
Layer 1
10
89.565920
20
98.491217
11
89.228648
21
96.890024
0
LINE
8
Layer 1
10
89.228648
20
96.890024
11
89.228648
21
95.844275
0
LINE
8
Layer 1
10
89.228648
20
95.844275
11
90.512590
21
95.988993
0
LINE
8
Layer 1
10
90.512590
20
95.988993
11
91.915581
21
96.252764
0
LINE
8
Layer 1
10
91.915581
20
96.252764
11
91.477581
21
97.497714
0
LINE
8
Layer 1
10
91.477581
20
97.497714
11
90.920530
21
98.623611
0
LINE
8
Layer 1
10
90.920530
20
98.623611
11
91.799608
21
101.292313
0
LINE
8
Layer 1
10
91.799608
20
101.292313
11
92.779255
21
104.313792
0
LINE
8
Layer 1
10
92.779255
20
104.313792
11
92.935785
21
104.562942
0
LINE
8
Layer 1
10
92.935785
20
104.562942
11
93.170903
21
104.666570
0
LINE
8
Layer 1
10
93.170903
20
104.666570
11
93.387398
21
104.321764
0
LINE
8
Layer 1
10
93.387398
20
104.321764
11
93.451742
21
103.461675
0
LINE
8
Layer 1
10
93.451742
20
103.461675
11
93.366678
21
102.347801
0
LINE
8
Layer 1
10
93.366678
20
102.347801
11
93.134950
21
101.241637
0
LINE
8
Layer 1
10
93.134950
20
101.241637
11
92.950858
21
100.052545
0
LINE
8
Layer 1
10
92.950858
20
100.052545
11
93.155191
21
98.598338
0
LINE
8
Layer 1
10
93.155191
20
98.598338
11
93.624287
21
97.046570
0
LINE
8
Layer 1
10
93.624287
20
97.046570
11
96.567382
21
98.809991
0
LINE
8
Layer 1
10
96.567382
20
98.809991
11
98.595358
21
100.203416
0
LINE
8
Layer 1
10
98.595358
20
100.203416
11
99.388648
21
101.020979
0
LINE
8
Layer 1
10
99.388648
20
101.020979
11
99.061653
21
101.813201
0
LINE
8
Layer 1
10
99.061653
20
101.813201
11
98.178619
21
103.177735
0
LINE
8
Layer 1
10
98.178619
20
103.177735
11
95.332149
21
106.788184
0
LINE
8
Layer 1
10
95.332149
20
106.788184
11
90.921981
21
112.329214
0
LINE
8
Layer 1
10
90.921981
20
112.329214
11
88.984983
21
114.768137
0
LINE
8
Layer 1
10
88.984983
20
114.768137
11
87.484086
21
116.328331
0
LINE
8
Layer 1
10
87.484086
20
116.328331
11
86.220372
21
117.183593
0
LINE
8
Layer 1
10
86.220372
20
117.183593
11
84.994925
21
117.507718
0
LINE
8
Layer 1
10
84.994925
20
117.507718
11
83.361030
21
117.964570
0
LINE
8
Layer 1
10
83.361030
20
117.964570
11
81.015902
21
118.918045
0
LINE
8
Layer 1
10
81.015902
20
118.918045
11
78.039778
21
120.100666
0
LINE
8
Layer 1
10
78.039778
20
120.100666
11
78.035903
21
119.612784
0
LINE
8
Layer 1
10
78.035903
20
119.612784
11
78.295417
21
118.781595
0
LINE
8
Layer 1
10
78.295417
20
118.781595
11
78.666230
21
117.996972
0
LINE
8
Layer 1
10
78.666230
20
117.996972
11
78.996252
21
117.648792
0
LINE
8
Layer 1
10
78.996252
20
117.648792
11
79.297421
21
117.489782
0
LINE
8
Layer 1
10
79.297421
20
117.489782
11
79.292197
21
117.013099
0
LINE
8
Layer 1
10
79.292197
20
117.013099
11
78.363092
21
115.108792
0
LINE
8
Layer 1
10
78.363092
20
115.108792
11
77.672951
21
113.763977
0
LINE
8
Layer 1
10
77.672951
20
113.763977
11
77.400768
21
112.814097
0
LINE
8
Layer 1
10
77.400768
20
112.814097
11
77.471632
21
112.446294
0
LINE
8
Layer 1
10
77.471632
20
112.446294
11
77.691059
21
113.062681
0
LINE
8
Layer 1
10
77.691059
20
113.062681
11
77.971297
21
113.752459
0
LINE
8
Layer 1
10
77.971297
20
113.752459
11
78.233795
21
113.943241
0
LINE
8
Layer 1
10
78.233795
20
113.943241
11
78.428211
21
113.646681
0
LINE
8
Layer 1
10
78.428211
20
113.646681
11
78.504203
21
112.874433
0
LINE
8
Layer 1
10
78.504203
20
112.874433
11
78.438689
21
112.214707
0
LINE
8
Layer 1
10
78.438689
20
112.214707
11
78.149937
21
111.574129
0
LINE
8
Layer 1
10
78.149937
20
111.574129
11
76.349479
21
109.478476
0
LINE
8
Layer 1
10
76.349479
20
109.478476
11
74.087267
21
107.326482
0
LINE
8
Layer 1
10
74.087267
20
107.326482
11
71.404734
21
105.118543
0
LINE
8
Layer 1
10
71.404734
20
105.118543
11
68.894751
21
103.312920
0
LINE
8
Layer 1
10
68.894751
20
103.312920
11
67.150186
21
102.367870
0
LINE
8
Layer 1
10
67.150186
20
102.367870
11
66.318529
21
101.985144
0
LINE
8
Layer 1
10
66.318529
20
101.985144
11
66.213509
21
101.745873
0
LINE
8
Layer 1
10
66.213509
20
101.745873
11
66.255468
21
101.410200
0
LINE
8
Layer 1
10
66.255468
20
101.410200
11
66.317885
21
101.059518
0
LINE
8
Layer 1
10
66.317885
20
101.059518
11
66.209605
21
100.900487
0
LINE
8
Layer 1
10
66.209605
20
100.900487
11
65.085016
21
101.028139
0
LINE
8
Layer 1
10
65.085016
20
101.028139
11
59.235439
21
101.741732
0
LINE
8
Layer 1
10
59.235439
20
101.741732
11
56.305118
21
101.960185
0
LINE
8
Layer 1
10
56.305118
20
101.960185
11
54.707477
21
101.965678
0
LINE
8
Layer 1
10
54.707477
20
101.965678
11
53.903697
21
101.789140
0
LINE
8
Layer 1
10
53.903697
20
101.789140
11
54.491729
21
101.241304
0
LINE
8
Layer 1
10
54.491729
20
101.241304
11
54.859716
21
100.793401
0
LINE
8
Layer 1
10
54.859716
20
100.793401
11
55.055922
21
100.347539
0
LINE
8
Layer 1
10
55.055922
20
100.347539
11
55.055122
21
100.005431
0
LINE
8
Layer 1
10
55.055122
20
100.005431
11
54.832092
21
99.868792
0
LINE
8
Layer 1
10
54.832092
20
99.868792
11
54.247898
21
100.274287
0
LINE
8
Layer 1
10
54.247898
20
100.274287
11
53.539336
21
100.618134
0
LINE
8
Layer 1
10
53.539336
20
100.618134
11
52.308342
21
100.875417
0
LINE
8
Layer 1
10
52.308342
20
100.875417
11
50.595885
21
101.225973
0
LINE
8
Layer 1
10
50.595885
20
101.225973
11
48.729759
21
101.794067
0
LINE
8
Layer 1
10
48.729759
20
101.794067
11
44.919759
21
102.837985
0
LINE
8
Layer 1
10
44.919759
20
102.837985
11
43.482445
21
103.188608
0
LINE
8
Layer 1
10
43.482445
20
103.188608
11
43.193392
21
103.383062
0
LINE
8
Layer 1
10
43.193392
20
103.383062
11
43.122737
21
103.619867
0
LINE
8
Layer 1
10
43.122737
20
103.619867
11
43.102286
21
103.836418
0
LINE
8
Layer 1
10
43.102286
20
103.836418
11
42.954117
21
103.887220
0
LINE
8
Layer 1
10
42.954117
20
103.887220
11
42.042619
21
103.456486
0
LINE
8
Layer 1
10
42.042619
20
103.456486
11
40.687938
21
102.578845
0
LINE
8
Layer 1
10
40.687938
20
102.578845
11
39.530984
21
101.601754
0
LINE
8
Layer 1
10
39.530984
20
101.601754
11
38.687143
21
100.637185
0
LINE
8
Layer 1
10
38.687143
20
100.637185
11
38.271794
21
99.797111
0
LINE
8
Layer 1
10
38.271794
20
99.797111
11
37.647852
21
98.241347
0
LINE
8
Layer 1
10
37.647852
20
98.241347
11
37.399688
21
97.732059
0
LINE
8
Layer 1
10
37.399688
20
97.732059
11
37.399217
21
97.417481
0
LINE
8
Layer 1
10
37.399217
20
97.417481
11
37.713096
21
97.719302
0
LINE
8
Layer 1
10
37.713096
20
97.719302
11
38.193320
21
98.621583
0
LINE
8
Layer 1
10
38.193320
20
98.621583
11
38.617553
21
99.649770
0
LINE
8
Layer 1
10
38.617553
20
99.649770
11
38.763459
21
100.329311
0
LINE
8
Layer 1
10
38.763459
20
100.329311
11
39.031487
21
100.867969
0
LINE
8
Layer 1
10
39.031487
20
100.867969
11
39.749756
21
101.560263
0
LINE
8
Layer 1
10
39.749756
20
101.560263
11
40.574913
21
102.126272
0
LINE
8
Layer 1
10
40.574913
20
102.126272
11
41.163607
21
102.286071
0
LINE
8
Layer 1
10
41.163607
20
102.286071
11
41.979509
21
102.126570
0
LINE
8
Layer 1
10
41.979509
20
102.126570
11
42.319296
21
102.034328
0
LINE
8
Layer 1
10
42.319296
20
102.034328
11
42.355718
21
101.808954
0
LINE
8
Layer 1
10
42.355718
20
101.808954
11
42.119188
21
101.527482
0
LINE
8
Layer 1
10
42.119188
20
101.527482
11
41.640119
21
101.266944
0
LINE
8
Layer 1
10
41.640119
20
101.266944
11
41.062582
21
100.885829
0
LINE
8
Layer 1
10
41.062582
20
100.885829
11
41.068619
21
100.145043
0
LINE
8
Layer 1
10
41.068619
20
100.145043
11
41.103940
21
99.468189
0
LINE
8
Layer 1
10
41.103940
20
99.468189
11
40.749926
21
99.271610
0
LINE
8
Layer 1
10
40.749926
20
99.271610
11
40.410989
21
99.224345
0
LINE
8
Layer 1
10
40.410989
20
99.224345
11
40.756981
21
99.109804
0
LINE
8
Layer 1
10
40.756981
20
99.109804
11
41.159030
21
98.884774
0
LINE
8
Layer 1
10
41.159030
20
98.884774
11
41.228044
21
98.576118
0
LINE
8
Layer 1
10
41.228044
20
98.576118
11
40.990971
21
98.280699
0
LINE
8
Layer 1
10
40.990971
20
98.280699
11
40.474759
21
98.095379
0
LINE
8
Layer 1
10
40.474759
20
98.095379
11
40.299636
21
98.046392
0
LINE
8
Layer 1
10
40.299636
20
98.046392
11
40.396541
21
97.999924
0
LINE
8
Layer 1
10
40.396541
20
97.999924
11
41.298343
21
97.935522
0
LINE
8
Layer 1
10
41.298343
20
97.935522
11
43.344454
21
97.721931
0
LINE
8
Layer 1
10
43.344454
20
97.721931
11
43.742260
21
97.484880
0
LINE
8
Layer 1
10
43.742260
20
97.484880
11
43.741926
21
97.267339
0
LINE
8
Layer 1
10
43.741926
20
97.267339
11
43.380827
21
97.108253
0
LINE
8
Layer 1
10
43.380827
20
97.108253
11
42.696336
21
97.046570
0
LINE
8
Layer 1
10
42.696336
20
97.046570
11
42.055389
21
96.985021
0
LINE
8
Layer 1
10
42.055389
20
96.985021
11
41.447220
21
96.728791
0
LINE
8
Layer 1
10
41.447220
20
96.728791
11
39.610374
21
95.202812
0
LINE
8
Layer 1
10
39.610374
20
95.202812
11
36.483459
21
92.002841
0
LINE
8
Layer 1
10
36.483459
20
92.002841
11
35.347975
21
90.646628
0
LINE
8
Layer 1
10
35.347975
20
90.646628
11
38.228865
21
88.053003
0
LINE
8
Layer 1
10
38.228865
20
88.053003
11
41.109759
21
85.459375
0
LINE
8
Layer 1
10
41.109759
20
85.459375
11
42.321706
21
86.807974
0
LINE
8
Layer 1
10
42.321706
20
86.807974
11
45.708372
21
90.730713
0
LINE
8
Layer 1
10
45.708372
20
90.730713
11
45.708372
21
90.730713
0
LINE
8
Layer 1
10
59.211168
20
90.492055
11
59.676829
21
93.178266
0
LINE
8
Layer 1
10
59.676829
20
93.178266
11
60.129768
21
95.495107
0
LINE
8
Layer 1
10
60.129768
20
95.495107
11
60.046111
21
96.175118
0
LINE
8
Layer 1
10
60.046111
20
96.175118
11
59.766152
21
96.981114
0
LINE
8
Layer 1
10
59.766152
20
96.981114
11
59.233549
21
98.505126
0
LINE
8
Layer 1
10
59.233549
20
98.505126
11
59.130853
21
99.251824
0
LINE
8
Layer 1
10
59.130853
20
99.251824
11
59.246991
21
99.353686
0
LINE
8
Layer 1
10
59.246991
20
99.353686
11
59.478133
21
99.285226
0
LINE
8
Layer 1
10
59.478133
20
99.285226
11
60.295463
21
98.669348
0
LINE
8
Layer 1
10
60.295463
20
98.669348
11
60.697233
21
98.246326
0
LINE
8
Layer 1
10
60.697233
20
98.246326
11
60.939418
21
97.686460
0
LINE
8
Layer 1
10
60.939418
20
97.686460
11
61.198407
21
95.175894
0
LINE
8
Layer 1
10
61.198407
20
95.175894
11
61.244430
21
92.559411
0
LINE
8
Layer 1
10
61.244430
20
92.559411
11
61.031791
21
91.930375
0
LINE
8
Layer 1
10
61.031791
20
91.930375
11
60.590136
21
91.295339
0
LINE
8
Layer 1
10
60.590136
20
91.295339
11
59.705864
21
90.355930
0
LINE
8
Layer 1
10
59.705864
20
90.355930
11
59.425891
21
90.298913
0
LINE
8
Layer 1
10
59.425891
20
90.298913
11
59.211168
21
90.492055
0
LINE
8
Layer 1
10
59.211168
20
90.492055
11
59.211168
21
90.492055
0
LINE
8
Layer 1
10
45.079147
20
97.299221
11
45.100886
21
97.566271
0
LINE
8
Layer 1
10
45.100886
20
97.566271
11
45.564143
21
97.751104
0
LINE
8
Layer 1
10
45.564143
20
97.751104
11
47.906175
21
97.893237
0
LINE
8
Layer 1
10
47.906175
20
97.893237
11
49.580273
21
97.808415
0
LINE
8
Layer 1
10
49.580273
20
97.808415
11
49.907876
21
97.678749
0
LINE
8
Layer 1
10
49.907876
20
97.678749
11
49.999759
21
97.469904
0
LINE
8
Layer 1
10
49.999759
20
97.469904
11
49.898856
21
97.259113
0
LINE
8
Layer 1
10
49.898856
20
97.259113
11
49.532165
21
97.129664
0
LINE
8
Layer 1
10
49.532165
20
97.129664
11
47.617527
21
97.046570
0
LINE
8
Layer 1
10
47.617527
20
97.046570
11
45.889206
21
97.120787
0
LINE
8
Layer 1
10
45.889206
20
97.120787
11
45.079147
21
97.299221
0
LINE
8
Layer 1
10
45.079147
20
97.299221
11
45.079147
21
97.299221
0
LINE
8
Layer 1
10
54.638519
20
90.202681
11
54.015706
21
92.550388
0
LINE
8
Layer 1
10
54.015706
20
92.550388
11
53.327022
21
94.485849
0
LINE
8
Layer 1
10
53.327022
20
94.485849
11
52.769396
21
95.537127
0
LINE
8
Layer 1
10
52.769396
20
95.537127
11
52.601271
21
95.583717
0
LINE
8
Layer 1
10
52.601271
20
95.583717
11
52.539759
21
95.232285
0
LINE
8
Layer 1
10
52.539759
20
95.232285
11
52.409664
21
94.817446
0
LINE
8
Layer 1
10
52.409664
20
94.817446
11
52.096882
21
94.386233
0
LINE
8
Layer 1
10
52.096882
20
94.386233
11
51.892669
21
94.082952
0
LINE
8
Layer 1
10
51.892669
20
94.082952
11
51.918759
21
93.654166
0
LINE
8
Layer 1
10
51.918759
20
93.654166
11
52.872993
21
91.685240
0
LINE
8
Layer 1
10
52.872993
20
91.685240
11
53.712814
21
90.281680
0
LINE
8
Layer 1
10
53.712814
20
90.281680
11
54.340222
21
89.522048
0
LINE
8
Layer 1
10
54.340222
20
89.522048
11
54.549328
21
89.404652
0
LINE
8
Layer 1
10
54.549328
20
89.404652
11
54.675397
21
89.473373
0
LINE
8
Layer 1
10
54.675397
20
89.473373
11
54.638519
21
90.202681
0
LINE
8
Layer 1
10
54.638519
20
90.202681
11
54.638519
21
90.202681
0
LINE
8
Layer 1
10
97.182184
20
91.412667
11
98.638865
21
91.950509
0
LINE
8
Layer 1
10
98.638865
20
91.950509
11
100.345471
21
93.005992
0
LINE
8
Layer 1
10
100.345471
20
93.005992
11
102.118439
21
94.410852
0
LINE
8
Layer 1
10
102.118439
20
94.410852
11
99.942929
21
93.954058
0
LINE
8
Layer 1
10
99.942929
20
93.954058
11
93.038648
21
92.344638
0
LINE
8
Layer 1
10
93.038648
20
92.344638
11
89.045067
21
91.376454
0
LINE
8
Layer 1
10
89.045067
20
91.376454
11
88.881381
21
91.277063
0
LINE
8
Layer 1
10
88.881381
20
91.277063
11
88.976512
21
91.205691
0
LINE
8
Layer 1
10
88.976512
20
91.205691
11
89.793092
21
91.088916
0
LINE
8
Layer 1
10
89.793092
20
91.088916
11
93.471116
21
91.038125
0
LINE
8
Layer 1
10
93.471116
20
91.038125
11
97.182184
21
91.412667
0
LINE
8
Layer 1
10
97.182184
20
91.412667
11
97.182184
21
91.412667
0
LINE
8
Layer 1
10
95.000166
20
93.939002
11
101.507346
21
95.433272
0
LINE
8
Layer 1
10
101.507346
20
95.433272
11
102.249992
21
98.075578
0
LINE
8
Layer 1
10
102.249992
20
98.075578
11
102.962532
21
100.656805
0
LINE
8
Layer 1
10
102.962532
20
100.656805
11
102.092811
21
102.070515
0
LINE
8
Layer 1
10
102.092811
20
102.070515
11
101.131351
21
103.296749
0
LINE
8
Layer 1
10
101.131351
20
103.296749
11
99.953092
21
104.079954
0
LINE
8
Layer 1
10
99.953092
20
104.079954
11
98.683092
21
104.675683
0
LINE
8
Layer 1
10
98.683092
20
104.675683
11
99.788094
21
103.683652
0
LINE
8
Layer 1
10
99.788094
20
103.683652
11
100.379204
21
103.102918
0
LINE
8
Layer 1
10
100.379204
20
103.102918
11
100.747078
21
102.560532
0
LINE
8
Layer 1
10
100.747078
20
102.560532
11
101.138019
21
100.927431
0
LINE
8
Layer 1
10
101.138019
20
100.927431
11
101.382943
21
99.163237
0
LINE
8
Layer 1
10
101.382943
20
99.163237
11
100.370016
21
98.227755
0
LINE
8
Layer 1
10
100.370016
20
98.227755
11
99.670524
21
97.675670
0
LINE
8
Layer 1
10
99.670524
20
97.675670
11
99.135789
21
97.443623
0
LINE
8
Layer 1
10
99.135789
20
97.443623
11
98.805003
21
97.537855
0
LINE
8
Layer 1
10
98.805003
20
97.537855
11
98.717362
21
97.964605
0
LINE
8
Layer 1
10
98.717362
20
97.964605
11
98.704461
21
98.183288
0
LINE
8
Layer 1
10
98.704461
20
98.183288
11
98.577661
21
98.257910
0
LINE
8
Layer 1
10
98.577661
20
98.257910
11
97.729585
21
97.978536
0
LINE
8
Layer 1
10
97.729585
20
97.978536
11
96.800506
21
97.487622
0
LINE
8
Layer 1
10
96.800506
20
97.487622
11
96.001981
21
96.897162
0
LINE
8
Layer 1
10
96.001981
20
96.897162
11
94.583668
21
95.966709
0
LINE
8
Layer 1
10
94.583668
20
95.966709
11
91.104314
21
95.253593
0
LINE
8
Layer 1
10
91.104314
20
95.253593
11
86.265314
21
94.637699
0
LINE
8
Layer 1
10
86.265314
20
94.637699
11
84.139107
21
94.303751
0
LINE
8
Layer 1
10
84.139107
20
94.303751
11
82.388109
21
93.559819
0
LINE
8
Layer 1
10
82.388109
20
93.559819
11
81.243402
21
92.857971
0
LINE
8
Layer 1
10
81.243402
20
92.857971
11
80.765331
21
92.417093
0
LINE
8
Layer 1
10
80.765331
20
92.417093
11
81.859217
21
92.282665
0
LINE
8
Layer 1
10
81.859217
20
92.282665
11
84.642537
21
92.333933
0
LINE
8
Layer 1
10
84.642537
20
92.333933
11
89.015755
21
92.745129
0
LINE
8
Layer 1
10
89.015755
20
92.745129
11
95.000166
21
93.939002
0
LINE
8
Layer 1
10
95.000166
20
93.939002
11
95.000166
21
93.939002
0
LINE
8
Layer 1
10
103.566485
20
95.301531
11
104.054794
21
95.856837
0
LINE
8
Layer 1
10
104.054794
20
95.856837
11
103.886745
21
96.635810
0
LINE
8
Layer 1
10
103.886745
20
96.635810
11
103.556946
21
97.469904
0
LINE
8
Layer 1
10
103.556946
20
97.469904
11
103.045949
21
96.341015
0
LINE
8
Layer 1
10
103.045949
20
96.341015
11
102.629046
21
95.319168
0
LINE
8
Layer 1
10
102.629046
20
95.319168
11
102.565418
21
94.828102
0
LINE
8
Layer 1
10
102.565418
20
94.828102
11
102.872190
21
94.833622
0
LINE
8
Layer 1
10
102.872190
20
94.833622
11
103.566485
21
95.301531
0
LINE
8
Layer 1
10
103.566485
20
95.301531
11
103.566485
21
95.301531
0
LINE
8
Layer 1
10
36.876426
20
96.482126
11
37.246131
21
97.046570
0
LINE
8
Layer 1
10
37.246131
20
97.046570
11
36.594203
21
96.482126
0
LINE
8
Layer 1
10
36.594203
20
96.482126
11
36.224498
21
95.917681
0
LINE
8
Layer 1
10
36.224498
20
95.917681
11
36.876426
21
96.482126
0
LINE
8
Layer 1
10
36.876426
20
96.482126
11
36.876426
21
96.482126
0
LINE
8
Layer 1
10
51.901604
20
102.408792
11
53.083082
21
102.829365
0
LINE
8
Layer 1
10
53.083082
20
102.829365
11
54.511135
21
102.973536
0
LINE
8
Layer 1
10
54.511135
20
102.973536
11
56.067537
21
102.973832
0
LINE
8
Layer 1
10
56.067537
20
102.973832
11
58.572541
21
105.301869
0
LINE
8
Layer 1
10
58.572541
20
105.301869
11
61.077546
21
107.629904
0
LINE
8
Layer 1
10
61.077546
20
107.629904
11
59.252327
21
109.887681
0
LINE
8
Layer 1
10
59.252327
20
109.887681
11
57.803066
21
111.647810
0
LINE
8
Layer 1
10
57.803066
20
111.647810
11
56.940198
21
112.513758
0
LINE
8
Layer 1
10
56.940198
20
112.513758
11
56.353905
21
112.713324
0
LINE
8
Layer 1
10
56.353905
20
112.713324
11
55.734365
21
112.474307
0
LINE
8
Layer 1
10
55.734365
20
112.474307
11
54.438793
21
111.511275
0
LINE
8
Layer 1
10
54.438793
20
111.511275
11
54.086548
21
110.918094
0
LINE
8
Layer 1
10
54.086548
20
110.918094
11
54.367165
21
110.141825
0
LINE
8
Layer 1
10
54.367165
20
110.141825
11
54.738198
21
109.234789
0
LINE
8
Layer 1
10
54.738198
20
109.234789
11
54.774617
21
108.538465
0
LINE
8
Layer 1
10
54.774617
20
108.538465
11
54.467140
21
108.010951
0
LINE
8
Layer 1
10
54.467140
20
108.010951
11
53.806488
21
107.610348
0
LINE
8
Layer 1
10
53.806488
20
107.610348
11
52.700778
21
107.308758
0
LINE
8
Layer 1
10
52.700778
20
107.308758
11
51.434049
21
107.165140
0
LINE
8
Layer 1
10
51.434049
20
107.165140
11
50.626589
21
107.106471
0
LINE
8
Layer 1
10
50.626589
20
107.106471
11
49.998345
21
106.880660
0
LINE
8
Layer 1
10
49.998345
20
106.880660
11
48.298532
21
105.364161
0
LINE
8
Layer 1
10
48.298532
20
105.364161
11
46.860452
21
103.783331
0
LINE
8
Layer 1
10
46.860452
20
103.783331
11
46.850036
21
103.480402
0
LINE
8
Layer 1
10
46.850036
20
103.480402
11
47.180353
21
103.253952
0
LINE
8
Layer 1
10
47.180353
20
103.253952
11
50.776892
21
101.864970
0
LINE
8
Layer 1
10
50.776892
20
101.864970
11
51.901604
21
102.408792
0
LINE
8
Layer 1
10
51.901604
20
102.408792
11
51.901604
21
102.408792
0
LINE
8
Layer 1
10
59.270928
20
103.094186
11
58.920297
21
103.594105
0
LINE
8
Layer 1
10
58.920297
20
103.594105
11
58.437357
21
103.454031
0
LINE
8
Layer 1
10
58.437357
20
103.454031
11
58.144663
21
103.201495
0
LINE
8
Layer 1
10
58.144663
20
103.201495
11
58.122144
21
102.977313
0
LINE
8
Layer 1
10
58.122144
20
102.977313
11
58.889759
21
102.610037
0
LINE
8
Layer 1
10
58.889759
20
102.610037
11
59.518708
21
102.441530
0
LINE
8
Layer 1
10
59.518708
20
102.441530
11
59.270928
21
103.094186
0
LINE
8
Layer 1
10
59.270928
20
103.094186
11
59.270928
21
103.094186
0
LINE
8
Layer 1
10
64.324137
20
102.712723
11
63.640659
21
103.409741
0
LINE
8
Layer 1
10
63.640659
20
103.409741
11
62.688701
21
104.682852
0
LINE
8
Layer 1
10
62.688701
20
104.682852
11
61.649354
21
106.023264
0
LINE
8
Layer 1
10
61.649354
20
106.023264
11
61.324373
21
106.170126
0
LINE
8
Layer 1
10
61.324373
20
106.170126
11
61.000236
21
106.074368
0
LINE
8
Layer 1
10
61.000236
20
106.074368
11
60.370025
21
105.605818
0
LINE
8
Layer 1
10
60.370025
20
105.605818
11
60.075434
21
105.051612
0
LINE
8
Layer 1
10
60.075434
20
105.051612
11
60.115483
21
104.407128
0
LINE
8
Layer 1
10
60.115483
20
104.407128
11
60.489188
21
103.667741
0
LINE
8
Layer 1
10
60.489188
20
103.667741
11
60.981572
21
103.054635
0
LINE
8
Layer 1
10
60.981572
20
103.054635
11
61.532779
21
102.696824
0
LINE
8
Layer 1
10
61.532779
20
102.696824
11
62.326500
21
102.521487
0
LINE
8
Layer 1
10
62.326500
20
102.521487
11
63.546426
21
102.455808
0
LINE
8
Layer 1
10
63.546426
20
102.455808
11
64.448342
21
102.492087
0
LINE
8
Layer 1
10
64.448342
20
102.492087
11
64.502509
21
102.575397
0
LINE
8
Layer 1
10
64.502509
20
102.575397
11
64.324137
21
102.712723
0
LINE
8
Layer 1
10
64.324137
20
102.712723
11
64.324137
21
102.712723
0
LINE
8
Layer 1
10
66.932700
20
103.358930
11
64.674922
21
105.727113
0
LINE
8
Layer 1
10
64.674922
20
105.727113
11
62.839835
21
107.498802
0
LINE
8
Layer 1
10
62.839835
20
107.498802
11
62.505355
21
107.644039
0
LINE
8
Layer 1
10
62.505355
20
107.644039
11
62.417537
21
107.400860
0
LINE
8
Layer 1
10
62.417537
20
107.400860
11
62.740044
21
106.514128
0
LINE
8
Layer 1
10
62.740044
20
106.514128
11
63.514596
21
105.270626
0
LINE
8
Layer 1
10
63.514596
20
105.270626
11
64.451735
21
104.081692
0
LINE
8
Layer 1
10
64.451735
20
104.081692
11
65.262004
21
103.358668
0
LINE
8
Layer 1
10
65.262004
20
103.358668
11
66.266881
21
103.175794
0
LINE
8
Layer 1
10
66.266881
20
103.175794
11
66.735943
21
103.221626
0
LINE
8
Layer 1
10
66.735943
20
103.221626
11
66.932700
21
103.358930
0
LINE
8
Layer 1
10
66.932700
20
103.358930
11
66.932700
21
103.358930
0
LINE
8
Layer 1
10
44.661257
20
105.559733
11
45.131212
21
106.762201
0
LINE
8
Layer 1
10
45.131212
20
106.762201
11
44.313588
21
105.496744
0
LINE
8
Layer 1
10
44.313588
20
105.496744
11
43.865492
21
104.562676
0
LINE
8
Layer 1
10
43.865492
20
104.562676
11
43.827356
21
104.265786
0
LINE
8
Layer 1
10
43.827356
20
104.265786
11
44.661257
21
105.559733
0
LINE
8
Layer 1
10
44.661257
20
105.559733
11
44.661257
21
105.559733
0
LINE
8
Layer 1
10
68.986389
20
104.500248
11
69.214503
21
104.762479
0
LINE
8
Layer 1
10
69.214503
20
104.762479
11
69.143673
21
105.140891
0
LINE
8
Layer 1
10
69.143673
20
105.140891
11
67.744586
21
106.960715
0
LINE
8
Layer 1
10
67.744586
20
106.960715
11
66.422492
21
108.404087
0
LINE
8
Layer 1
10
66.422492
20
108.404087
11
65.691289
21
108.953049
0
LINE
8
Layer 1
10
65.691289
20
108.953049
11
64.718466
21
108.213677
0
LINE
8
Layer 1
10
64.718466
20
108.213677
11
64.056065
21
107.562272
0
LINE
8
Layer 1
10
64.056065
20
107.562272
11
66.111391
21
105.832199
0
LINE
8
Layer 1
10
66.111391
20
105.832199
11
68.326017
21
104.111100
0
LINE
8
Layer 1
10
68.326017
20
104.111100
11
68.986389
21
104.500248
0
LINE
8
Layer 1
10
68.986389
20
104.500248
11
68.986389
21
104.500248
0
LINE
8
Layer 1
10
70.945152
20
106.148237
11
71.466414
21
106.996473
0
LINE
8
Layer 1
10
71.466414
20
106.996473
11
72.105114
21
108.521467
0
LINE
8
Layer 1
10
72.105114
20
108.521467
11
72.626146
21
110.095058
0
LINE
8
Layer 1
10
72.626146
20
110.095058
11
72.794402
21
111.089082
0
LINE
8
Layer 1
10
72.794402
20
111.089082
11
72.814432
21
111.577091
0
LINE
8
Layer 1
10
72.814432
20
111.577091
11
73.051583
21
111.603899
0
LINE
8
Layer 1
10
73.051583
20
111.603899
11
73.381827
21
111.242620
0
LINE
8
Layer 1
10
73.381827
20
111.242620
11
73.681133
21
110.566367
0
LINE
8
Layer 1
10
73.681133
20
110.566367
11
74.023241
21
109.730560
0
LINE
8
Layer 1
10
74.023241
20
109.730560
11
74.180359
21
109.624785
0
LINE
8
Layer 1
10
74.180359
20
109.624785
11
74.343901
21
109.706712
0
LINE
8
Layer 1
10
74.343901
20
109.706712
11
74.453124
21
109.964643
0
LINE
8
Layer 1
10
74.453124
20
109.964643
11
74.435275
21
110.425804
0
LINE
8
Layer 1
10
74.435275
20
110.425804
11
73.993431
21
112.130205
0
LINE
8
Layer 1
10
73.993431
20
112.130205
11
73.331169
21
114.241905
0
LINE
8
Layer 1
10
73.331169
20
114.241905
11
72.003034
21
113.266965
0
LINE
8
Layer 1
10
72.003034
20
113.266965
11
70.568341
21
112.446048
0
LINE
8
Layer 1
10
70.568341
20
112.446048
11
68.820594
21
112.077630
0
LINE
8
Layer 1
10
68.820594
20
112.077630
11
66.966293
21
111.863237
0
LINE
8
Layer 1
10
66.966293
20
111.863237
11
68.077709
21
109.212092
0
LINE
8
Layer 1
10
68.077709
20
109.212092
11
69.002568
21
107.126333
0
LINE
8
Layer 1
10
69.002568
20
107.126333
11
69.671684
21
106.045534
0
LINE
8
Layer 1
10
69.671684
20
106.045534
11
69.965218
21
105.823355
0
LINE
8
Layer 1
10
69.965218
20
105.823355
11
70.260673
21
105.782050
0
LINE
8
Layer 1
10
70.260673
20
105.782050
11
70.945152
21
106.148237
0
LINE
8
Layer 1
10
70.945152
20
106.148237
11
70.945152
21
106.148237
0
LINE
8
Layer 1
10
97.717116
20
106.571570
11
95.295435
21
109.323237
0
LINE
8
Layer 1
10
95.295435
20
109.323237
11
93.583701
21
111.044712
0
LINE
8
Layer 1
10
93.583701
20
111.044712
11
93.490908
21
111.075438
0
LINE
8
Layer 1
10
93.490908
20
111.075438
11
93.505300
21
110.964913
0
LINE
8
Layer 1
10
93.505300
20
110.964913
11
93.801895
21
110.357316
0
LINE
8
Layer 1
10
93.801895
20
110.357316
11
94.750268
21
109.044238
0
LINE
8
Layer 1
10
94.750268
20
109.044238
11
96.120630
21
107.605649
0
LINE
8
Layer 1
10
96.120630
20
107.605649
11
97.756955
21
106.185003
0
LINE
8
Layer 1
10
97.756955
20
106.185003
11
97.903343
21
106.180374
0
LINE
8
Layer 1
10
97.903343
20
106.180374
11
97.717116
21
106.571570
0
LINE
8
Layer 1
10
97.717116
20
106.571570
11
97.717116
21
106.571570
0
LINE
8
Layer 1
10
47.188882
20
107.643574
11
47.819412
21
107.969776
0
LINE
8
Layer 1
10
47.819412
20
107.969776
11
48.987326
21
108.073684
0
LINE
8
Layer 1
10
48.987326
20
108.073684
11
51.229117
21
108.126802
0
LINE
8
Layer 1
10
51.229117
20
108.126802
11
52.257537
21
108.261116
0
LINE
8
Layer 1
10
52.257537
20
108.261116
11
51.249447
21
108.749090
0
LINE
8
Layer 1
10
51.249447
20
108.749090
11
50.589796
21
109.131208
0
LINE
8
Layer 1
10
50.589796
20
109.131208
11
50.419437
21
109.458433
0
LINE
8
Layer 1
10
50.419437
20
109.458433
11
50.667085
21
109.679274
0
LINE
8
Layer 1
10
50.667085
20
109.679274
11
50.994572
21
109.732345
0
LINE
8
Layer 1
10
50.994572
20
109.732345
11
51.346577
21
109.622285
0
LINE
8
Layer 1
10
51.346577
20
109.622285
11
51.667780
21
109.353734
0
LINE
8
Layer 1
10
51.667780
20
109.353734
11
52.574983
21
108.808918
0
LINE
8
Layer 1
10
52.574983
20
108.808918
11
53.001774
21
108.755376
0
LINE
8
Layer 1
10
53.001774
20
108.755376
11
52.688462
21
109.173735
0
LINE
8
Layer 1
10
52.688462
20
109.173735
11
52.406033
21
109.615818
0
LINE
8
Layer 1
10
52.406033
20
109.615818
11
52.542101
21
109.889129
0
LINE
8
Layer 1
10
52.542101
20
109.889129
11
52.637143
21
110.140946
0
LINE
8
Layer 1
10
52.637143
20
110.140946
11
52.274126
21
110.500493
0
LINE
8
Layer 1
10
52.274126
20
110.500493
11
51.452344
21
110.777717
0
LINE
8
Layer 1
10
51.452344
20
110.777717
11
49.925063
21
110.643588
0
LINE
8
Layer 1
10
49.925063
20
110.643588
11
48.073654
21
110.546092
0
LINE
8
Layer 1
10
48.073654
20
110.546092
11
47.733371
21
110.699839
0
LINE
8
Layer 1
10
47.733371
20
110.699839
11
47.764984
21
110.961865
0
LINE
8
Layer 1
10
47.764984
20
110.961865
11
48.888747
21
111.730605
0
LINE
8
Layer 1
10
48.888747
20
111.730605
11
51.334633
21
112.692008
0
LINE
8
Layer 1
10
51.334633
20
112.692008
11
52.728695
21
113.355947
0
LINE
8
Layer 1
10
52.728695
20
113.355947
11
53.929861
21
114.446352
0
LINE
8
Layer 1
10
53.929861
20
114.446352
11
55.049101
21
115.717876
0
LINE
8
Layer 1
10
55.049101
20
115.717876
11
54.207224
21
118.023891
0
LINE
8
Layer 1
10
54.207224
20
118.023891
11
52.516593
21
122.042228
0
LINE
8
Layer 1
10
52.516593
20
122.042228
11
51.838984
21
123.100432
0
LINE
8
Layer 1
10
51.838984
20
123.100432
11
51.240061
21
123.586751
0
LINE
8
Layer 1
10
51.240061
20
123.586751
11
50.735073
21
123.944620
0
LINE
8
Layer 1
10
50.735073
20
123.944620
11
50.564203
21
124.499807
0
LINE
8
Layer 1
10
50.564203
20
124.499807
11
50.484016
21
125.043363
0
LINE
8
Layer 1
10
50.484016
20
125.043363
11
50.291224
21
125.428883
0
LINE
8
Layer 1
10
50.291224
20
125.428883
11
50.116830
21
125.850692
0
LINE
8
Layer 1
10
50.116830
20
125.850692
11
50.199165
21
126.357495
0
LINE
8
Layer 1
10
50.199165
20
126.357495
11
50.474559
21
126.783303
0
LINE
8
Layer 1
10
50.474559
20
126.783303
11
50.879341
21
126.962126
0
LINE
8
Layer 1
10
50.879341
20
126.962126
11
51.254733
21
127.038442
0
LINE
8
Layer 1
10
51.254733
20
127.038442
11
51.410870
21
127.221923
0
LINE
8
Layer 1
10
51.410870
20
127.221923
11
51.680304
21
127.462216
0
LINE
8
Layer 1
10
51.680304
20
127.462216
11
52.328092
21
127.675118
0
LINE
8
Layer 1
10
52.328092
20
127.675118
11
54.135879
21
128.412762
0
LINE
8
Layer 1
10
54.135879
20
128.412762
11
56.472201
21
129.757534
0
LINE
8
Layer 1
10
56.472201
20
129.757534
11
56.593376
21
129.935689
0
LINE
8
Layer 1
10
56.593376
20
129.935689
11
56.535883
21
130.240631
0
LINE
8
Layer 1
10
56.535883
20
130.240631
11
55.736987
21
131.413327
0
LINE
8
Layer 1
10
55.736987
20
131.413327
11
50.368217
21
137.287107
0
LINE
8
Layer 1
10
50.368217
20
137.287107
11
46.072826
21
141.826536
0
LINE
8
Layer 1
10
46.072826
20
141.826536
11
46.389550
21
142.858524
0
LINE
8
Layer 1
10
46.389550
20
142.858524
11
46.727453
21
143.522085
0
LINE
8
Layer 1
10
46.727453
20
143.522085
11
47.548150
21
144.337603
0
LINE
8
Layer 1
10
47.548150
20
144.337603
11
51.992939
21
147.561873
0
LINE
8
Layer 1
10
51.992939
20
147.561873
11
57.556132
21
151.233237
0
LINE
8
Layer 1
10
57.556132
20
151.233237
11
59.896360
21
148.909483
0
LINE
8
Layer 1
10
59.896360
20
148.909483
11
65.134544
21
143.322588
0
LINE
8
Layer 1
10
65.134544
20
143.322588
11
72.436426
21
135.411941
0
LINE
8
Layer 1
10
72.436426
20
135.411941
11
73.819749
21
136.902032
0
LINE
8
Layer 1
10
73.819749
20
136.902032
11
81.532476
21
145.094904
0
LINE
8
Layer 1
10
81.532476
20
145.094904
11
87.714622
21
151.797681
0
LINE
8
Layer 1
10
87.714622
20
151.797681
11
80.161322
21
143.966015
0
LINE
8
Layer 1
10
80.161322
20
143.966015
11
72.588871
21
136.134348
0
LINE
8
Layer 1
10
72.588871
20
136.134348
11
65.136285
21
143.966015
0
LINE
8
Layer 1
10
65.136285
20
143.966015
11
57.729165
21
151.797681
0
LINE
8
Layer 1
10
57.729165
20
151.797681
11
52.078608
21
147.921766
0
LINE
8
Layer 1
10
52.078608
20
147.921766
11
48.001017
21
144.932131
0
LINE
8
Layer 1
10
48.001017
20
144.932131
11
46.301076
21
143.393764
0
LINE
8
Layer 1
10
46.301076
20
143.393764
11
45.968921
21
142.286420
0
LINE
8
Layer 1
10
45.968921
20
142.286420
11
46.030366
21
141.782792
0
LINE
8
Layer 1
10
46.030366
20
141.782792
11
46.322458
21
141.188574
0
LINE
8
Layer 1
10
46.322458
20
141.188574
11
47.835483
21
139.356519
0
LINE
8
Layer 1
10
47.835483
20
139.356519
11
50.981793
21
136.046546
0
LINE
8
Layer 1
10
50.981793
20
136.046546
11
55.620569
21
130.944363
0
LINE
8
Layer 1
10
55.620569
20
130.944363
11
56.226945
21
129.955063
0
LINE
8
Layer 1
10
56.226945
20
129.955063
11
56.132725
21
129.811305
0
LINE
8
Layer 1
10
56.132725
20
129.811305
11
55.785314
21
129.886408
0
LINE
8
Layer 1
10
55.785314
20
129.886408
11
55.477835
21
129.893192
0
LINE
8
Layer 1
10
55.477835
20
129.893192
11
55.361981
21
129.642503
0
LINE
8
Layer 1
10
55.361981
20
129.642503
11
54.839246
21
129.183713
0
LINE
8
Layer 1
10
54.839246
20
129.183713
11
53.364460
21
128.629421
0
LINE
8
Layer 1
10
53.364460
20
128.629421
11
51.913133
21
128.095177
0
LINE
8
Layer 1
10
51.913133
20
128.095177
11
51.228803
21
127.662717
0
LINE
8
Layer 1
10
51.228803
20
127.662717
11
50.756376
21
127.352269
0
LINE
8
Layer 1
10
50.756376
20
127.352269
11
49.814520
21
127.111371
0
LINE
8
Layer 1
10
49.814520
20
127.111371
11
48.824299
21
126.889148
0
LINE
8
Layer 1
10
48.824299
20
126.889148
11
48.813692
21
126.748146
0
LINE
8
Layer 1
10
48.813692
20
126.748146
11
49.057399
21
126.534918
0
LINE
8
Layer 1
10
49.057399
20
126.534918
11
49.417455
21
126.114092
0
LINE
8
Layer 1
10
49.417455
20
126.114092
11
49.221257
21
125.568202
0
LINE
8
Layer 1
10
49.221257
20
125.568202
11
49.020930
21
125.086279
0
LINE
8
Layer 1
10
49.020930
20
125.086279
11
49.414176
21
124.986570
0
LINE
8
Layer 1
10
49.414176
20
124.986570
11
49.853996
21
124.806047
0
LINE
8
Layer 1
10
49.853996
20
124.806047
11
50.051569
21
124.221621
0
LINE
8
Layer 1
10
50.051569
20
124.221621
11
50.272271
21
123.610467
0
LINE
8
Layer 1
10
50.272271
20
123.610467
11
50.753634
21
123.304399
0
LINE
8
Layer 1
10
50.753634
20
123.304399
11
51.343309
21
122.989599
0
LINE
8
Layer 1
10
51.343309
20
122.989599
11
51.900565
21
122.446570
0
LINE
8
Layer 1
10
51.900565
20
122.446570
11
53.397362
21
119.144230
0
LINE
8
Layer 1
10
53.397362
20
119.144230
11
54.515314
21
115.893173
0
LINE
8
Layer 1
10
54.515314
20
115.893173
11
53.660844
21
114.534496
0
LINE
8
Layer 1
10
53.660844
20
114.534496
11
52.662104
21
113.594632
0
LINE
8
Layer 1
10
52.662104
20
113.594632
11
51.332511
21
112.973527
0
LINE
8
Layer 1
10
51.332511
20
112.973527
11
49.777002
21
112.403185
0
LINE
8
Layer 1
10
49.777002
20
112.403185
11
48.589170
21
111.810207
0
LINE
8
Layer 1
10
48.589170
20
111.810207
11
47.660606
21
111.129344
0
LINE
8
Layer 1
10
47.660606
20
111.129344
11
46.882902
21
110.295346
0
LINE
8
Layer 1
10
46.882902
20
110.295346
11
46.253129
21
109.350566
0
LINE
8
Layer 1
10
46.253129
20
109.350566
11
46.196931
21
109.079395
0
LINE
8
Layer 1
10
46.196931
20
109.079395
11
46.302653
21
108.917342
0
LINE
8
Layer 1
10
46.302653
20
108.917342
11
46.504934
21
108.562768
0
LINE
8
Layer 1
10
46.504934
20
108.562768
11
46.457751
21
107.955910
0
LINE
8
Layer 1
10
46.457751
20
107.955910
11
46.403893
21
107.458790
0
LINE
8
Layer 1
10
46.403893
20
107.458790
11
46.532260
21
107.230576
0
LINE
8
Layer 1
10
46.532260
20
107.230576
11
46.806155
21
107.286945
0
LINE
8
Layer 1
10
46.806155
20
107.286945
11
47.188882
21
107.643574
0
LINE
8
Layer 1
10
47.188882
20
107.643574
11
47.188882
21
107.643574
0
LINE
8
Layer 1
10
62.354739
20
109.621461
11
62.797729
21
110.092848
0
LINE
8
Layer 1
10
62.797729
20
110.092848
11
62.981981
21
110.609239
0
LINE
8
Layer 1
10
62.981981
20
110.609239
11
63.074676
21
111.054179
0
LINE
8
Layer 1
10
63.074676
20
111.054179
11
63.310988
21
111.125340
0
LINE
8
Layer 1
10
63.310988
20
111.125340
11
63.628257
21
110.846255
0
LINE
8
Layer 1
10
63.628257
20
110.846255
11
63.963824
21
110.240459
0
LINE
8
Layer 1
10
63.963824
20
110.240459
11
64.353976
21
109.323237
0
LINE
8
Layer 1
10
64.353976
20
109.323237
11
64.774205
21
110.318265
0
LINE
8
Layer 1
10
64.774205
20
110.318265
11
65.098374
21
111.599193
0
LINE
8
Layer 1
10
65.098374
20
111.599193
11
65.287652
21
113.281598
0
LINE
8
Layer 1
10
65.287652
20
113.281598
11
65.275157
21
114.969549
0
LINE
8
Layer 1
10
65.275157
20
114.969549
11
65.102057
21
115.240744
0
LINE
8
Layer 1
10
65.102057
20
115.240744
11
64.764971
21
115.337584
0
LINE
8
Layer 1
10
64.764971
20
115.337584
11
64.079791
21
115.270125
0
LINE
8
Layer 1
10
64.079791
20
115.270125
11
63.297319
21
114.984807
0
LINE
8
Layer 1
10
63.297319
20
114.984807
11
62.242798
21
114.673733
0
LINE
8
Layer 1
10
62.242798
20
114.673733
11
60.903536
21
114.544348
0
LINE
8
Layer 1
10
60.903536
20
114.544348
11
59.361507
21
114.544348
0
LINE
8
Layer 1
10
59.361507
20
114.544348
11
58.474331
21
115.986193
0
LINE
8
Layer 1
10
58.474331
20
115.986193
11
57.809737
21
116.966472
0
LINE
8
Layer 1
10
57.809737
20
116.966472
11
57.457707
21
117.298591
0
LINE
8
Layer 1
10
57.457707
20
117.298591
11
57.703903
21
114.945160
0
LINE
8
Layer 1
10
57.703903
20
114.945160
11
57.949848
21
113.655876
0
LINE
8
Layer 1
10
57.949848
20
113.655876
11
58.258414
21
112.789549
0
LINE
8
Layer 1
10
58.258414
20
112.789549
11
58.802412
21
112.013223
0
LINE
8
Layer 1
10
58.802412
20
112.013223
11
59.754654
21
110.993939
0
LINE
8
Layer 1
10
59.754654
20
110.993939
11
61.578628
21
109.224414
0
LINE
8
Layer 1
10
61.578628
20
109.224414
11
62.354739
21
109.621461
0
LINE
8
Layer 1
10
62.354739
20
109.621461
11
62.354739
21
109.621461
0
LINE
8
Layer 1
10
77.412537
20
116.422472
11
77.428396
21
116.578998
0
LINE
8
Layer 1
10
77.428396
20
116.578998
11
77.250409
21
116.726593
0
LINE
8
Layer 1
10
77.250409
20
116.726593
11
76.524075
21
116.955066
0
LINE
8
Layer 1
10
76.524075
20
116.955066
11
75.655887
21
117.028043
0
LINE
8
Layer 1
10
75.655887
20
117.028043
11
75.068199
21
116.865677
0
LINE
8
Layer 1
10
75.068199
20
116.865677
11
74.713149
21
116.165092
0
LINE
8
Layer 1
10
74.713149
20
116.165092
11
74.607635
21
115.140738
0
LINE
8
Layer 1
10
74.607635
20
115.140738
11
74.748836
21
113.966437
0
LINE
8
Layer 1
10
74.748836
20
113.966437
11
75.133931
21
112.816011
0
LINE
8
Layer 1
10
75.133931
20
112.816011
11
75.794026
21
111.406683
0
LINE
8
Layer 1
10
75.794026
20
111.406683
11
76.468532
21
113.751628
0
LINE
8
Layer 1
10
76.468532
20
113.751628
11
77.412537
21
116.422472
0
LINE
8
Layer 1
10
77.412537
20
116.422472
11
77.412537
21
116.422472
0
LINE
8
Layer 1
10
70.996463
20
114.105010
11
72.660945
21
115.059691
0
LINE
8
Layer 1
10
72.660945
20
115.059691
11
70.573130
21
116.103360
0
LINE
8
Layer 1
10
70.573130
20
116.103360
11
68.012889
21
117.563338
0
LINE
8
Layer 1
10
68.012889
20
117.563338
11
67.735058
21
117.764942
0
LINE
8
Layer 1
10
67.735058
20
117.764942
11
67.476489
21
117.805013
0
LINE
8
Layer 1
10
67.476489
20
117.805013
11
66.683416
21
117.346008
0
LINE
8
Layer 1
10
66.683416
20
117.346008
11
66.141285
21
116.893117
0
LINE
8
Layer 1
10
66.141285
20
116.893117
11
65.993221
21
116.564923
0
LINE
8
Layer 1
10
65.993221
20
116.564923
11
66.254424
21
116.278908
0
LINE
8
Layer 1
10
66.254424
20
116.278908
11
66.940094
21
115.952558
0
LINE
8
Layer 1
10
66.940094
20
115.952558
11
67.555248
21
115.569135
0
LINE
8
Layer 1
10
67.555248
20
115.569135
11
67.705501
21
115.139699
0
LINE
8
Layer 1
10
67.705501
20
115.139699
11
67.535907
21
114.839618
0
LINE
8
Layer 1
10
67.535907
20
114.839618
11
67.269109
21
114.756015
0
LINE
8
Layer 1
10
67.269109
20
114.756015
11
67.034329
21
114.778037
0
LINE
8
Layer 1
10
67.034329
20
114.778037
11
66.955020
21
114.673754
0
LINE
8
Layer 1
10
66.955020
20
114.673754
11
67.260617
21
113.852071
0
LINE
8
Layer 1
10
67.260617
20
113.852071
11
67.748799
21
113.297948
0
LINE
8
Layer 1
10
67.748799
20
113.297948
11
68.527721
21
113.154960
0
LINE
8
Layer 1
10
68.527721
20
113.154960
11
69.607052
21
113.423763
0
LINE
8
Layer 1
10
69.607052
20
113.423763
11
70.996463
21
114.105010
0
LINE
8
Layer 1
10
70.996463
20
114.105010
11
70.996463
21
114.105010
0
LINE
8
Layer 1
10
56.222432
20
117.542251
11
55.523543
21
118.693922
0
LINE
8
Layer 1
10
55.523543
20
118.693922
11
55.446200
21
118.500688
0
LINE
8
Layer 1
10
55.446200
20
118.500688
11
55.629133
21
117.765113
0
LINE
8
Layer 1
10
55.629133
20
117.765113
11
56.256055
21
115.673237
0
LINE
8
Layer 1
10
56.256055
20
115.673237
11
56.579833
21
114.683365
0
LINE
8
Layer 1
10
56.579833
20
114.683365
11
56.710397
21
115.311417
0
LINE
8
Layer 1
10
56.710397
20
115.311417
11
56.609169
21
116.340098
0
LINE
8
Layer 1
10
56.609169
20
116.340098
11
56.222432
21
117.542251
0
LINE
8
Layer 1
10
56.222432
20
117.542251
11
56.222432
21
117.542251
0
LINE
8
Layer 1
10
62.812128
20
116.094645
11
64.206133
21
117.030186
0
LINE
8
Layer 1
10
64.206133
20
117.030186
11
65.315550
21
118.000504
0
LINE
8
Layer 1
10
65.315550
20
118.000504
11
66.017548
21
118.880153
0
LINE
8
Layer 1
10
66.017548
20
118.880153
11
66.189293
21
119.543686
0
LINE
8
Layer 1
10
66.189293
20
119.543686
11
65.984458
21
119.986616
0
LINE
8
Layer 1
10
65.984458
20
119.986616
11
65.507599
21
119.609966
0
LINE
8
Layer 1
10
65.507599
20
119.609966
11
64.415163
21
118.797552
0
LINE
8
Layer 1
10
64.415163
20
118.797552
11
63.226839
21
118.254152
0
LINE
8
Layer 1
10
63.226839
20
118.254152
11
62.379997
21
118.124425
0
LINE
8
Layer 1
10
62.379997
20
118.124425
11
62.221310
21
118.259894
0
LINE
8
Layer 1
10
62.221310
20
118.259894
11
62.312008
21
118.553030
0
LINE
8
Layer 1
10
62.312008
20
118.553030
11
62.313336
21
118.675350
0
LINE
8
Layer 1
10
62.313336
20
118.675350
11
62.119811
21
118.731512
0
LINE
8
Layer 1
10
62.119811
20
118.731512
11
61.117167
21
118.647822
0
LINE
8
Layer 1
10
61.117167
20
118.647822
11
59.323280
21
118.203558
0
LINE
8
Layer 1
10
59.323280
20
118.203558
11
59.168075
21
118.020032
0
LINE
8
Layer 1
10
59.168075
20
118.020032
11
59.665870
21
117.939597
0
LINE
8
Layer 1
10
59.665870
20
117.939597
11
60.174334
21
117.888560
0
LINE
8
Layer 1
10
60.174334
20
117.888560
11
60.398596
21
117.726939
0
LINE
8
Layer 1
10
60.398596
20
117.726939
11
60.351721
21
117.420242
0
LINE
8
Layer 1
10
60.351721
20
117.420242
11
60.046774
21
116.933974
0
LINE
8
Layer 1
10
60.046774
20
116.933974
11
59.838056
21
116.403261
0
LINE
8
Layer 1
10
59.838056
20
116.403261
11
60.399552
21
115.912886
0
LINE
8
Layer 1
10
60.399552
20
115.912886
11
60.998334
21
115.558484
0
LINE
8
Layer 1
10
60.998334
20
115.558484
11
61.455328
21
115.459742
0
LINE
8
Layer 1
10
61.455328
20
115.459742
11
61.987578
21
115.633012
0
LINE
8
Layer 1
10
61.987578
20
115.633012
11
62.812128
21
116.094645
0
LINE
8
Layer 1
10
62.812128
20
116.094645
11
62.812128
21
116.094645
0
LINE
8
Layer 1
10
72.859759
20
116.751123
11
72.202787
21
117.194049
0
LINE
8
Layer 1
10
72.202787
20
117.194049
11
70.744379
21
117.907918
0
LINE
8
Layer 1
10
70.744379
20
117.907918
11
69.253301
21
118.541520
0
LINE
8
Layer 1
10
69.253301
20
118.541520
11
68.498316
21
118.743645
0
LINE
8
Layer 1
10
68.498316
20
118.743645
11
68.517169
21
118.427500
0
LINE
8
Layer 1
10
68.517169
20
118.427500
11
68.934840
21
117.981067
0
LINE
8
Layer 1
10
68.934840
20
117.981067
11
70.504437
21
117.080518
0
LINE
8
Layer 1
10
70.504437
20
117.080518
11
72.234677
21
116.561385
0
LINE
8
Layer 1
10
72.234677
20
116.561385
11
72.698957
21
116.565744
0
LINE
8
Layer 1
10
72.698957
20
116.565744
11
72.859759
21
116.751123
0
LINE
8
Layer 1
10
72.859759
20
116.751123
11
72.859759
21
116.751123
0
LINE
8
Layer 1
10
77.375314
20
117.981532
11
77.253072
21
118.682117
0
LINE
8
Layer 1
10
77.253072
20
118.682117
11
76.939478
21
119.424825
0
LINE
8
Layer 1
10
76.939478
20
119.424825
11
76.514237
21
120.060917
0
LINE
8
Layer 1
10
76.514237
20
120.060917
11
76.057049
21
120.441655
0
LINE
8
Layer 1
10
76.057049
20
120.441655
11
75.482400
21
120.794581
0
LINE
8
Layer 1
10
75.482400
20
120.794581
11
75.425123
21
120.932180
0
LINE
8
Layer 1
10
75.425123
20
120.932180
11
75.519157
21
121.042695
0
LINE
8
Layer 1
10
75.519157
20
121.042695
11
76.155000
21
121.178957
0
LINE
8
Layer 1
10
76.155000
20
121.178957
11
77.377609
21
121.196329
0
LINE
8
Layer 1
10
77.377609
20
121.196329
11
79.122748
21
121.019413
0
LINE
8
Layer 1
10
79.122748
20
121.019413
11
80.209833
21
120.506549
0
LINE
8
Layer 1
10
80.209833
20
120.506549
11
80.990472
21
120.084149
0
LINE
8
Layer 1
10
80.990472
20
120.084149
11
81.632467
21
120.055242
0
LINE
8
Layer 1
10
81.632467
20
120.055242
11
82.255738
21
120.052420
0
LINE
8
Layer 1
10
82.255738
20
120.052420
11
82.963021
21
119.769825
0
LINE
8
Layer 1
10
82.963021
20
119.769825
11
83.336317
21
119.595285
0
LINE
8
Layer 1
10
83.336317
20
119.595285
11
82.752181
21
120.137561
0
LINE
8
Layer 1
10
82.752181
20
120.137561
11
80.733197
21
121.243099
0
LINE
8
Layer 1
10
80.733197
20
121.243099
11
76.845908
21
122.834586
0
LINE
8
Layer 1
10
76.845908
20
122.834586
11
72.163890
21
124.477631
0
LINE
8
Layer 1
10
72.163890
20
124.477631
11
71.817936
21
124.539943
0
LINE
8
Layer 1
10
71.817936
20
124.539943
11
71.810980
21
124.460505
0
LINE
8
Layer 1
10
71.810980
20
124.460505
11
72.832409
21
123.871634
0
LINE
8
Layer 1
10
72.832409
20
123.871634
11
73.649074
21
123.353096
0
LINE
8
Layer 1
10
73.649074
20
123.353096
11
73.988890
21
122.934724
0
LINE
8
Layer 1
10
73.988890
20
122.934724
11
73.874114
21
122.770839
0
LINE
8
Layer 1
10
73.874114
20
122.770839
11
73.563204
21
122.669819
0
LINE
8
Layer 1
10
73.563204
20
122.669819
11
72.555164
21
122.642206
0
LINE
8
Layer 1
10
72.555164
20
122.642206
11
71.369124
21
122.823552
0
LINE
8
Layer 1
10
71.369124
20
122.823552
11
70.409438
21
123.185527
0
LINE
8
Layer 1
10
70.409438
20
123.185527
11
70.123943
21
123.344531
0
LINE
8
Layer 1
10
70.123943
20
123.344531
11
70.083357
21
123.312926
0
LINE
8
Layer 1
10
70.083357
20
123.312926
11
70.743092
21
122.668309
0
LINE
8
Layer 1
10
70.743092
20
122.668309
11
71.486314
21
121.898139
0
LINE
8
Layer 1
10
71.486314
20
121.898139
11
71.687961
21
121.467592
0
LINE
8
Layer 1
10
71.687961
20
121.467592
11
71.110795
21
121.623367
0
LINE
8
Layer 1
10
71.110795
20
121.623367
11
70.038018
21
122.346784
0
LINE
8
Layer 1
10
70.038018
20
122.346784
11
68.821411
21
123.369531
0
LINE
8
Layer 1
10
68.821411
20
123.369531
11
67.812756
21
124.423294
0
LINE
8
Layer 1
10
67.812756
20
124.423294
11
66.867689
21
125.440625
0
LINE
8
Layer 1
10
66.867689
20
125.440625
11
65.806758
21
126.346302
0
LINE
8
Layer 1
10
65.806758
20
126.346302
11
64.820317
21
126.995739
0
LINE
8
Layer 1
10
64.820317
20
126.995739
11
64.098720
21
127.244348
0
LINE
8
Layer 1
10
64.098720
20
127.244348
11
63.603303
21
127.101362
0
LINE
8
Layer 1
10
63.603303
20
127.101362
11
63.465105
21
126.704804
0
LINE
8
Layer 1
10
63.465105
20
126.704804
11
63.680373
21
126.103273
0
LINE
8
Layer 1
10
63.680373
20
126.103273
11
64.245355
21
125.345371
0
LINE
8
Layer 1
10
64.245355
20
125.345371
11
66.985854
21
122.035988
0
LINE
8
Layer 1
10
66.985854
20
122.035988
11
68.015217
21
120.788306
0
LINE
8
Layer 1
10
68.015217
20
120.788306
11
68.834381
21
119.991498
0
LINE
8
Layer 1
10
68.834381
20
119.991498
11
69.727929
21
119.417847
0
LINE
8
Layer 1
10
69.727929
20
119.417847
11
70.980444
21
118.839638
0
LINE
8
Layer 1
10
70.980444
20
118.839638
11
73.322042
21
118.017002
0
LINE
8
Layer 1
10
73.322042
20
118.017002
11
72.981717
21
118.424427
0
LINE
8
Layer 1
10
72.981717
20
118.424427
11
71.982776
21
119.223271
0
LINE
8
Layer 1
10
71.982776
20
119.223271
11
71.041012
21
120.015971
0
LINE
8
Layer 1
10
71.041012
20
120.015971
11
70.838162
21
120.408629
0
LINE
8
Layer 1
10
70.838162
20
120.408629
11
71.434179
21
120.400119
0
LINE
8
Layer 1
10
71.434179
20
120.400119
11
72.237879
21
120.141507
0
LINE
8
Layer 1
10
72.237879
20
120.141507
11
73.060710
21
119.712506
0
LINE
8
Layer 1
10
73.060710
20
119.712506
11
73.714119
21
119.192825
0
LINE
8
Layer 1
10
73.714119
20
119.192825
11
74.546201
21
118.525515
0
LINE
8
Layer 1
10
74.546201
20
118.525515
11
74.686155
21
118.642109
0
LINE
8
Layer 1
10
74.686155
20
118.642109
11
74.634866
21
119.059904
0
LINE
8
Layer 1
10
74.634866
20
119.059904
11
74.598785
21
119.503311
0
LINE
8
Layer 1
10
74.598785
20
119.503311
11
74.813707
21
119.578841
0
LINE
8
Layer 1
10
74.813707
20
119.578841
11
75.964203
21
118.636570
0
LINE
8
Layer 1
10
75.964203
20
118.636570
11
77.043489
21
117.711354
0
LINE
8
Layer 1
10
77.043489
20
117.711354
11
77.294977
21
117.700666
0
LINE
8
Layer 1
10
77.294977
20
117.700666
11
77.375314
21
117.981532
0
LINE
8
Layer 1
10
77.375314
20
117.981532
11
77.375314
21
117.981532
0
LINE
8
Layer 1
10
68.411570
20
122.000676
11
67.725798
21
122.740432
0
LINE
8
Layer 1
10
67.725798
20
122.740432
11
67.556033
21
123.163587
0
LINE
8
Layer 1
10
67.556033
20
123.163587
11
68.038775
21
123.021993
0
LINE
8
Layer 1
10
68.038775
20
123.021993
11
68.881236
21
122.461303
0
LINE
8
Layer 1
10
68.881236
20
122.461303
11
69.681471
21
121.784349
0
LINE
8
Layer 1
10
69.681471
20
121.784349
11
70.037537
21
121.293966
0
LINE
8
Layer 1
10
70.037537
20
121.293966
11
69.929919
21
121.058527
0
LINE
8
Layer 1
10
69.929919
20
121.058527
11
69.615059
21
121.101306
0
LINE
8
Layer 1
10
69.615059
20
121.101306
11
68.411570
21
122.000676
0
LINE
8
Layer 1
10
68.411570
20
122.000676
11
68.411570
21
122.000676
0
LINE
8
Layer 1
10
59.877537
20
119.331935
11
61.711981
21
119.866359
0
LINE
8
Layer 1
10
61.711981
20
119.866359
11
60.246971
21
119.886465
0
LINE
8
Layer 1
10
60.246971
20
119.886465
11
59.264861
21
119.962478
0
LINE
8
Layer 1
10
59.264861
20
119.962478
11
58.702734
21
120.142816
0
LINE
8
Layer 1
10
58.702734
20
120.142816
11
58.595352
21
120.404526
0
LINE
8
Layer 1
10
58.595352
20
120.404526
11
58.977474
21
120.724659
0
LINE
8
Layer 1
10
58.977474
20
120.724659
11
59.766055
21
120.800625
0
LINE
8
Layer 1
10
59.766055
20
120.800625
11
61.055607
21
120.642722
0
LINE
8
Layer 1
10
61.055607
20
120.642722
11
62.446432
21
120.322282
0
LINE
8
Layer 1
10
62.446432
20
120.322282
11
63.538831
21
119.910634
0
LINE
8
Layer 1
10
63.538831
20
119.910634
11
63.976140
21
119.795860
0
LINE
8
Layer 1
10
63.976140
20
119.795860
11
64.324196
21
119.984040
0
LINE
8
Layer 1
10
64.324196
20
119.984040
11
64.598098
21
120.492074
0
LINE
8
Layer 1
10
64.598098
20
120.492074
11
64.812943
21
121.336864
0
LINE
8
Layer 1
10
64.812943
20
121.336864
11
64.850834
21
122.349478
0
LINE
8
Layer 1
10
64.850834
20
122.349478
11
64.555869
21
123.305003
0
LINE
8
Layer 1
10
64.555869
20
123.305003
11
63.906688
21
124.246356
0
LINE
8
Layer 1
10
63.906688
20
124.246356
11
62.881931
21
125.216452
0
LINE
8
Layer 1
10
62.881931
20
125.216452
11
61.548787
21
126.126031
0
LINE
8
Layer 1
10
61.548787
20
126.126031
11
61.008624
21
126.248120
0
LINE
8
Layer 1
10
61.008624
20
126.248120
11
60.356180
21
126.227053
0
LINE
8
Layer 1
10
60.356180
20
126.227053
11
59.463077
21
126.071545
0
LINE
8
Layer 1
10
59.463077
20
126.071545
11
58.938730
21
125.853986
0
LINE
8
Layer 1
10
58.938730
20
125.853986
11
58.567129
21
125.733716
0
LINE
8
Layer 1
10
58.567129
20
125.733716
11
58.017249
21
125.843064
0
LINE
8
Layer 1
10
58.017249
20
125.843064
11
57.480464
21
125.951753
0
LINE
8
Layer 1
10
57.480464
20
125.951753
11
57.172995
21
125.795326
0
LINE
8
Layer 1
10
57.172995
20
125.795326
11
56.803786
21
125.619526
0
LINE
8
Layer 1
10
56.803786
20
125.619526
11
56.175227
21
125.616121
0
LINE
8
Layer 1
10
56.175227
20
125.616121
11
55.600872
21
125.633946
0
LINE
8
Layer 1
10
55.600872
20
125.633946
11
55.361981
21
125.509192
0
LINE
8
Layer 1
10
55.361981
20
125.509192
11
55.118767
21
125.398018
0
LINE
8
Layer 1
10
55.118767
20
125.398018
11
54.534020
21
125.448495
0
LINE
8
Layer 1
10
54.534020
20
125.448495
11
54.074493
21
125.513581
0
LINE
8
Layer 1
10
54.074493
20
125.513581
11
53.801960
21
125.434993
0
LINE
8
Layer 1
10
53.801960
20
125.434993
11
53.514252
21
124.591679
0
LINE
8
Layer 1
10
53.514252
20
124.591679
11
53.465116
21
123.811386
0
LINE
8
Layer 1
10
53.465116
20
123.811386
11
53.635201
21
123.225376
0
LINE
8
Layer 1
10
53.635201
20
123.225376
11
54.011265
21
122.856796
0
LINE
8
Layer 1
10
54.011265
20
122.856796
11
54.580065
21
122.728792
0
LINE
8
Layer 1
10
54.580065
20
122.728792
11
54.963634
21
122.625372
0
LINE
8
Layer 1
10
54.963634
20
122.625372
11
54.977699
21
122.305459
0
LINE
8
Layer 1
10
54.977699
20
122.305459
11
54.943272
21
122.006480
0
LINE
8
Layer 1
10
54.943272
20
122.006480
11
55.088615
21
121.882126
0
LINE
8
Layer 1
10
55.088615
20
121.882126
11
55.281680
21
121.965029
0
LINE
8
Layer 1
10
55.281680
20
121.965029
11
55.361981
21
122.164348
0
LINE
8
Layer 1
10
55.361981
20
122.164348
11
55.454224
21
122.403339
0
LINE
8
Layer 1
10
55.454224
20
122.403339
11
55.673894
21
122.432459
0
LINE
8
Layer 1
10
55.673894
20
122.432459
11
55.935398
21
122.274607
0
LINE
8
Layer 1
10
55.935398
20
122.274607
11
56.153146
21
121.952681
0
LINE
8
Layer 1
10
56.153146
20
121.952681
11
58.043092
21
118.796517
0
LINE
8
Layer 1
10
58.043092
20
118.796517
11
59.877537
21
119.331935
0
LINE
8
Layer 1
10
59.877537
20
119.331935
11
59.877537
21
119.331935
0
LINE
8
Layer 1
10
57.243464
20
122.634719
11
57.069819
21
123.014851
0
LINE
8
Layer 1
10
57.069819
20
123.014851
11
57.071395
21
123.513620
0
LINE
8
Layer 1
10
57.071395
20
123.513620
11
57.223573
21
123.976963
0
LINE
8
Layer 1
10
57.223573
20
123.976963
11
57.501731
21
124.250820
0
LINE
8
Layer 1
10
57.501731
20
124.250820
11
58.802164
21
124.414902
0
LINE
8
Layer 1
10
58.802164
20
124.414902
11
59.363307
21
124.339710
0
LINE
8
Layer 1
10
59.363307
20
124.339710
11
59.595314
21
124.170099
0
LINE
8
Layer 1
10
59.595314
20
124.170099
11
59.171981
21
123.755621
0
LINE
8
Layer 1
10
59.171981
20
123.755621
11
58.873002
21
123.472486
0
LINE
8
Layer 1
10
58.873002
20
123.472486
11
58.748648
21
123.019871
0
LINE
8
Layer 1
10
58.748648
20
123.019871
11
58.597049
21
122.578550
0
LINE
8
Layer 1
10
58.597049
20
122.578550
11
58.090130
21
122.446570
0
LINE
8
Layer 1
10
58.090130
20
122.446570
11
57.243464
21
122.634719
0
LINE
8
Layer 1
10
57.243464
20
122.634719
11
57.243464
21
122.634719
0
LINE
8
Layer 1
10
56.258246
20
120.185922
11
55.638255
21
121.272994
0
LINE
8
Layer 1
10
55.638255
20
121.272994
11
55.522646
21
121.142071
0
LINE
8
Layer 1
10
55.522646
20
121.142071
11
55.574935
21
120.541570
0
LINE
8
Layer 1
10
55.574935
20
120.541570
11
56.029585
21
119.568204
0
LINE
8
Layer 1
10
56.029585
20
119.568204
11
56.362723
21
119.204214
0
LINE
8
Layer 1
10
56.362723
20
119.204214
11
56.664964
21
119.059904
0
LINE
8
Layer 1
10
56.664964
20
119.059904
11
56.258246
21
120.185922
0
LINE
8
Layer 1
10
56.258246
20
120.185922
11
56.258246
21
120.185922
0
LINE
8
Layer 1
10
83.866426
20
121.459707
11
81.339292
21
124.313397
0
LINE
8
Layer 1
10
81.339292
20
124.313397
11
78.812161
21
127.025059
0
LINE
8
Layer 1
10
78.812161
20
127.025059
11
81.796915
21
130.450813
0
LINE
8
Layer 1
10
81.796915
20
130.450813
11
91.566850
21
141.778792
0
LINE
8
Layer 1
10
91.566850
20
141.778792
11
98.879304
21
150.273190
0
LINE
8
Layer 1
10
98.879304
20
150.273190
11
99.143606
21
150.649304
0
LINE
8
Layer 1
10
99.143606
20
150.649304
11
99.038922
21
151.062597
0
LINE
8
Layer 1
10
99.038922
20
151.062597
11
97.050660
21
153.004232
0
LINE
8
Layer 1
10
97.050660
20
153.004232
11
94.694745
21
155.143096
0
LINE
8
Layer 1
10
94.694745
20
155.143096
11
89.810006
21
149.783930
0
LINE
8
Layer 1
10
89.810006
20
149.783930
11
79.849709
21
138.586221
0
LINE
8
Layer 1
10
79.849709
20
138.586221
11
74.433069
21
132.386095
0
LINE
8
Layer 1
10
74.433069
20
132.386095
11
74.256659
21
132.376667
0
LINE
8
Layer 1
10
74.256659
20
132.376667
11
73.905383
21
132.590407
0
LINE
8
Layer 1
10
73.905383
20
132.590407
11
72.521152
21
133.841124
0
LINE
8
Layer 1
10
72.521152
20
133.841124
11
65.926428
21
140.711651
0
LINE
8
Layer 1
10
65.926428
20
140.711651
11
60.074957
21
146.838611
0
LINE
8
Layer 1
10
60.074957
20
146.838611
11
57.473057
21
149.370423
0
LINE
8
Layer 1
10
57.473057
20
149.370423
11
53.205554
21
146.465697
0
LINE
8
Layer 1
10
53.205554
20
146.465697
11
49.011572
21
143.330354
0
LINE
8
Layer 1
10
49.011572
20
143.330354
11
50.351813
21
141.774455
0
LINE
8
Layer 1
10
50.351813
20
141.774455
11
53.747729
21
138.314628
0
LINE
8
Layer 1
10
53.747729
20
138.314628
11
59.765816
21
132.135547
0
LINE
8
Layer 1
10
59.765816
20
132.135547
11
60.924099
21
130.772126
0
LINE
8
Layer 1
10
60.924099
20
130.772126
11
63.858038
21
130.735251
0
LINE
8
Layer 1
10
63.858038
20
130.735251
11
67.285218
21
130.610328
0
LINE
8
Layer 1
10
67.285218
20
130.610328
11
67.781495
21
130.382272
0
LINE
8
Layer 1
10
67.781495
20
130.382272
11
68.059478
21
129.930136
0
LINE
8
Layer 1
10
68.059478
20
129.930136
11
68.476923
21
129.386728
0
LINE
8
Layer 1
10
68.476923
20
129.386728
11
68.953834
21
129.064450
0
LINE
8
Layer 1
10
68.953834
20
129.064450
11
69.320560
21
128.840564
0
LINE
8
Layer 1
10
69.320560
20
128.840564
11
69.473092
21
128.533711
0
LINE
8
Layer 1
10
69.473092
20
128.533711
11
69.690812
21
128.142969
0
LINE
8
Layer 1
10
69.690812
20
128.142969
11
70.451640
21
127.521968
0
LINE
8
Layer 1
10
70.451640
20
127.521968
11
74.248631
21
125.128559
0
LINE
8
Layer 1
10
74.248631
20
125.128559
11
77.085694
21
123.653667
0
LINE
8
Layer 1
10
77.085694
20
123.653667
11
80.316409
21
122.454408
0
LINE
8
Layer 1
10
80.316409
20
122.454408
11
83.795870
21
121.348799
0
LINE
8
Layer 1
10
83.795870
20
121.348799
11
83.866426
21
121.459707
0
LINE
8
Layer 1
10
83.866426
20
121.459707
11
83.866426
21
121.459707
0
LINE
8
Layer 1
10
69.190870
20
125.840871
11
67.740102
21
127.026203
0
LINE
8
Layer 1
10
67.740102
20
127.026203
11
66.828114
21
127.521928
0
LINE
8
Layer 1
10
66.828114
20
127.521928
11
66.448166
21
127.427012
0
LINE
8
Layer 1
10
66.448166
20
127.427012
11
66.718790
21
126.895541
0
LINE
8
Layer 1
10
66.718790
20
126.895541
11
67.449025
21
126.206141
0
LINE
8
Layer 1
10
67.449025
20
126.206141
11
68.687603
21
125.302853
0
LINE
8
Layer 1
10
68.687603
20
125.302853
11
69.947850
21
124.515038
0
LINE
8
Layer 1
10
69.947850
20
124.515038
11
70.743092
21
124.172054
0
LINE
8
Layer 1
10
70.743092
20
124.172054
11
70.403544
21
124.659137
0
LINE
8
Layer 1
10
70.403544
20
124.659137
11
69.190870
21
125.840871
0
LINE
8
Layer 1
10
69.190870
20
125.840871
11
69.190870
21
125.840871
0
LINE
8
Layer 1
10
61.000778
20
127.953395
11
61.336323
21
127.913299
0
LINE
8
Layer 1
10
61.336323
20
127.913299
11
61.771056
21
128.046810
0
LINE
8
Layer 1
10
61.771056
20
128.046810
11
63.405314
21
128.660124
0
LINE
8
Layer 1
10
63.405314
20
128.660124
11
65.090889
21
129.400325
0
LINE
8
Layer 1
10
65.090889
20
129.400325
11
65.285661
21
129.601699
0
LINE
8
Layer 1
10
65.285661
20
129.601699
11
65.050993
21
129.717999
0
LINE
8
Layer 1
10
65.050993
20
129.717999
11
62.751312
21
129.784348
0
LINE
8
Layer 1
10
62.751312
20
129.784348
11
60.203401
21
129.672676
0
LINE
8
Layer 1
10
60.203401
20
129.672676
11
58.737404
21
129.214169
0
LINE
8
Layer 1
10
58.737404
20
129.214169
11
57.948067
21
128.725368
0
LINE
8
Layer 1
10
57.948067
20
128.725368
11
57.619759
21
128.350845
0
LINE
8
Layer 1
10
57.619759
20
128.350845
11
57.694033
21
128.189718
0
LINE
8
Layer 1
10
57.694033
20
128.189718
11
57.872607
21
128.213973
0
LINE
8
Layer 1
10
57.872607
20
128.213973
11
58.281137
21
128.205036
0
LINE
8
Layer 1
10
58.281137
20
128.205036
11
58.908278
21
127.964108
0
LINE
8
Layer 1
10
58.908278
20
127.964108
11
59.630061
21
127.718688
0
LINE
8
Layer 1
10
59.630061
20
127.718688
11
60.213486
21
127.837545
0
LINE
8
Layer 1
10
60.213486
20
127.837545
11
60.660236
21
127.986899
0
LINE
8
Layer 1
10
60.660236
20
127.986899
11
61.000778
21
127.953395
0
LINE
8
Layer 1
10
61.000778
20
127.953395
11
61.000778
21
127.953395
0
LINE
8
Layer 1
10
91.768648
20
156.015876
11
89.793092
21
154.196570
0
LINE
8
Layer 1
10
89.793092
20
154.196570
11
87.817537
21
152.095042
0
LINE
8
Layer 1
10
87.817537
20
152.095042
11
89.793092
21
153.914348
0
LINE
8
Layer 1
10
89.793092
20
153.914348
11
91.768648
21
156.015876
0
LINE
8
Layer 1
10
91.768648
20
156.015876
11
91.768648
21
156.015876
 0 
ENDSEC
 0 
EOF
