  0
SECTION
  2
HEADER
  9
$ACADVER
  1
AC1009
  9
$DWGCODEPAGE
  3
ansi_1252
  9
$INSBASE
 10
0.0
 20
0.0
 30
0.0
  9
$EXTMIN
 10
6.915378813559342
 20
8.289279780697651
 30
0.0
  9
$EXTMAX
 10
11.08360126714718
 20
9.653177348113871
 30
0.0
  9
$LIMMIN
 10
0.0
 20
0.0
  9
$LIMMAX
 10
12.0
 20
9.0
  9
$ORTHOMODE
 70
     0
  9
$REGENMODE
 70
     1
  9
$FILLMODE
 70
     1
  9
$QTEXTMODE
 70
     0
  9
$MIRRTEXT
 70
     1
  9
$DRAGMODE
 70
     2
  9
$LTSCALE
 40
1.0
  9
$OSMODE
 70
    37
  9
$ATTMODE
 70
     1
  9
$TEXTSIZE
 40
0.2
  9
$TRACEWID
 40
0.05
  9
$TEXTSTYLE
  7
STANDARD
  9
$CLAYER
  8
0
  9
$CELTYPE
  6
BYLAYER
  9
$CECOLOR
 62
   256
  9
$DIMSCALE
 40
1.0
  9
$DIMASZ
 40
0.18
  9
$DIMEXO
 40
0.0625
  9
$DIMDLI
 40
0.38
  9
$DIMRND
 40
0.0
  9
$DIMDLE
 40
0.0
  9
$DIMEXE
 40
0.18
  9
$DIMTP
 40
0.0
  9
$DIMTM
 40
0.0
  9
$DIMTXT
 40
0.18
  9
$DIMCEN
 40
0.09
  9
$DIMTSZ
 40
0.0
  9
$DIMTOL
 70
     0
  9
$DIMLIM
 70
     0
  9
$DIMTIH
 70
     1
  9
$DIMTOH
 70
     1
  9
$DIMSE1
 70
     0
  9
$DIMSE2
 70
     0
  9
$DIMTAD
 70
     0
  9
$DIMZIN
 70
     0
  9
$DIMBLK
  1

  9
$DIMASO
 70
     1
  9
$DIMSHO
 70
     1
  9
$DIMPOST
  1

  9
$DIMAPOST
  1

  9
$DIMALT
 70
     0
  9
$DIMALTD
 70
     2
  9
$DIMALTF
 40
25.4
  9
$DIMLFAC
 40
1.0
  9
$DIMTOFL
 70
     0
  9
$DIMTVP
 40
0.0
  9
$DIMTIX
 70
     0
  9
$DIMSOXD
 70
     0
  9
$DIMSAH
 70
     0
  9
$DIMBLK1
  1

  9
$DIMBLK2
  1

  9
$DIMSTYLE
  2
STANDARD
  9
$DIMCLRD
 70
     0
  9
$DIMCLRE
 70
     0
  9
$DIMCLRT
 70
     0
  9
$DIMTFAC
 40
1.0
  9
$DIMGAP
 40
0.09
  9
$LUNITS
 70
     2
  9
$LUPREC
 70
     4
  9
$SKETCHINC
 40
0.1
  9
$FILLETRAD
 40
0.5
  9
$AUNITS
 70
     0
  9
$AUPREC
 70
     0
  9
$MENU
  1
.
  9
$ELEVATION
 40
0.0
  9
$PELEVATION
 40
0.0
  9
$THICKNESS
 40
0.0
  9
$LIMCHECK
 70
     0
  9
$CHAMFERA
 40
0.5
  9
$CHAMFERB
 40
0.5
  9
$SKPOLY
 70
     0
  9
$TDCREATE
 40
2454910.5
  9
$TDUPDATE
 40
2455734.846091829
  9
$TDINDWG
 40
0.0000000116
  9
$TDUSRTIMER
 40
0.0000000116
  9
$USRTIMER
 70
     1
  9
$ANGBASE
 50
0.0
  9
$ANGDIR
 70
     0
  9
$PDMODE
 70
     0
  9
$PDSIZE
 40
0.0
  9
$PLINEWID
 40
0.0
  9
$COORDS
 70
     1
  9
$SPLFRAME
 70
     0
  9
$SPLINETYPE
 70
     6
  9
$SPLINESEGS
 70
     8
  9
$ATTDIA
 70
     0
  9
$ATTREQ
 70
     1
  9
$HANDLING
 70
     1
  9
$HANDSEED
  5
774
  9
$SURFTAB1
 70
     6
  9
$SURFTAB2
 70
     6
  9
$SURFTYPE
 70
     6
  9
$SURFU
 70
     6
  9
$SURFV
 70
     6
  9
$UCSNAME
  2

  9
$UCSORG
 10
0.0
 20
0.0
 30
0.0
  9
$UCSXDIR
 10
1.0
 20
0.0
 30
0.0
  9
$UCSYDIR
 10
0.0
 20
1.0
 30
0.0
  9
$PUCSNAME
  2

  9
$PUCSORG
 10
0.0
 20
0.0
 30
0.0
  9
$PUCSXDIR
 10
1.0
 20
0.0
 30
0.0
  9
$PUCSYDIR
 10
0.0
 20
1.0
 30
0.0
  9
$USERI1
 70
     0
  9
$USERI2
 70
     0
  9
$USERI3
 70
     0
  9
$USERI4
 70
     0
  9
$USERI5
 70
     0
  9
$USERR1
 40
0.0
  9
$USERR2
 40
0.0
  9
$USERR3
 40
0.0
  9
$USERR4
 40
0.0
  9
$USERR5
 40
0.0
  9
$WORLDVIEW
 70
     1
  9
$SHADEDGE
 70
     3
  9
$SHADEDIF
 70
    70
  9
$TILEMODE
 70
     1
  9
$MAXACTVP
 70
    64
  9
$PLIMCHECK
 70
     0
  9
$PEXTMIN
 10
1.000000000000000E+20
 20
1.000000000000000E+20
 30
1.000000000000000E+20
  9
$PEXTMAX
 10
-1.000000000000000E+20
 20
-1.000000000000000E+20
 30
-1.000000000000000E+20
  9
$PLIMMIN
 10
0.0
 20
0.0
  9
$PLIMMAX
 10
12.0
 20
9.0
  9
$UNITMODE
 70
     0
  9
$VISRETAIN
 70
     1
  9
$PLINEGEN
 70
     0
  9
$PSLTSCALE
 70
     1
  0
ENDSEC
  0
SECTION
  2
TABLES
  0
TABLE
  2
VPORT
 70
     1
  0
VPORT
  2
*ACTIVE
 70
     0
 10
0.0
 20
0.0
 11
1.0
 21
1.0
 12
10.42990654205607
 22
4.5
 13
0.0
 23
0.0
 14
0.5
 24
0.5
 15
0.5
 25
0.5
 16
0.0
 26
0.0
 36
1.0
 17
0.0
 27
0.0
 37
0.0
 40
9.0
 41
1.972972972850329
 42
50.0
 43
0.0
 44
0.0
 50
0.0
 51
0.0
 71
     0
 72
   100
 73
     1
 74
     3
 75
     0
 76
     0
 77
     0
 78
     0
  0
ENDTAB
  0
TABLE
  2
LTYPE
 70
     2
  0
LTYPE
  2
CONTINUOUS
 70
     0
  3
Solid line
 72
    65
 73
     0
 40
0.0
  0
LTYPE
  2
CONTINUOUS2
 70
     0
  3
Solid Line
 72
    65
 73
     0
 40
0.0
  0
ENDTAB
  0
TABLE
  2
LAYER
 70
     2
  0
LAYER
  2
0
 70
     0
 62
     7
  6
CONTINUOUS
  0
LAYER
  2
LAYER_1
 70
     0
 62
    18
  6
CONTINUOUS
  0
ENDTAB
  0
TABLE
  2
STYLE
 70
     1
  0
STYLE
  2
STANDARD
 70
     0
 40
0.0
 41
1.0
 50
0.0
 71
     0
 42
0.2
  3
txt
  4

  0
ENDTAB
  0
TABLE
  2
VIEW
 70
     0
  0
ENDTAB
  0
TABLE
  2
UCS
 70
     0
  0
ENDTAB
  0
TABLE
  2
APPID
 70
     1
  0
APPID
  2
ACAD
 70
     0
  0
ENDTAB
  0
TABLE
  2
DIMSTYLE
 70
     1
  0
DIMSTYLE
  2
STANDARD
 70
     0
  3

  4

  5

  6

  7

 40
1.0
 41
0.18
 42
0.0625
 43
0.38
 44
0.18
 45
0.0
 46
0.0
 47
0.0
 48
0.0
140
0.18
141
0.09
142
0.0
143
25.4
144
1.0
145
0.0
146
1.0
147
0.09
 71
     0
 72
     0
 73
     1
 74
     1
 75
     0
 76
     0
 77
     0
 78
     0
170
     0
171
     2
172
     0
173
     0
174
     0
175
     0
176
     0
177
     0
178
     0
  0
ENDTAB
  0
ENDSEC
  0
SECTION
  2
BLOCKS
  0
BLOCK
  8
0
  2
$MODEL_SPACE
 70
     0
 10
0.0
 20
0.0
 30
0.0
  3
$MODEL_SPACE
  1

  0
ENDBLK
  5
21
  8
0
  0
BLOCK
 67
     1
  8
0
  2
$PAPER_SPACE
 70
     0
 10
0.0
 20
0.0
 30
0.0
  3
$PAPER_SPACE
  1

  0
ENDBLK
  5
1D
 67
     1
  8
0
  0
ENDSEC
  0
SECTION
  2
ENTITIES
  0
POLYLINE
  5
41
  8
LAYER_1
 66
     1
 10
0.0
 20
0.0
 30
0.0
  0
VERTEX
  5
8B
  8
LAYER_1
 10
8.239127602873035
 20
9.309004282005755
 30
0.0
  0
VERTEX
  5
8C
  8
LAYER_1
 10
8.47023046947631
 20
9.519885647781244
 30
0.0
  0
SEQEND
  5
8D
  8
LAYER_1
  0
POLYLINE
  5
42
  8
LAYER_1
 66
     1
 10
0.0
 20
0.0
 30
0.0
  0
VERTEX
  5
8E
  8
LAYER_1
 10
8.47023046947631
 20
9.519885647781244
 30
0.0
  0
VERTEX
  5
8F
  8
LAYER_1
 10
8.516285637956745
 20
9.529151568938618
 30
0.0
  0
VERTEX
  5
90
  8
LAYER_1
 10
8.562450856782938
 20
9.537536278949304
 30
0.0
  0
VERTEX
  5
91
  8
LAYER_1
 10
8.608726455276468
 20
9.545039834415446
 30
0.0
  0
VERTEX
  5
92
  8
LAYER_1
 10
8.655112762758927
 20
9.551662291939195
 30
0.0
  0
VERTEX
  5
93
  8
LAYER_1
 10
8.689274524989397
 20
9.555987188360241
 30
0.0
  0
VERTEX
  5
94
  8
LAYER_1
 10
8.723505368338298
 20
9.559909504783494
 30
0.0
  0
VERTEX
  5
95
  8
LAYER_1
 10
8.792117604457932
 20
9.566737264855387
 30
0.0
  0
VERTEX
  5
96
  8
LAYER_1
 10
8.86083608325091
 20
9.572527306592402
 30
0.0
  0
VERTEX
  5
97
  8
LAYER_1
 10
8.929547416850314
 20
9.577661364432064
 30
0.0
  0
VERTEX
  5
98
  8
LAYER_1
 10
9.003114573190022
 20
9.582549676389249
 30
0.0
  0
VERTEX
  5
99
  8
LAYER_1
 10
9.076791841685376
 20
9.586620985029118
 30
0.0
  0
VERTEX
  5
9A
  8
LAYER_1
 10
9.150510936492992
 20
9.589823465661135
 30
0.0
  0
VERTEX
  5
9B
  8
LAYER_1
 10
9.224203571769488
 20
9.592105293594768
 30
0.0
  0
VERTEX
  5
9C
  8
LAYER_1
 10
9.271838942568756
 20
9.593762328073257
 30
0.0
  0
VERTEX
  5
9D
  8
LAYER_1
 10
9.317640842634608
 20
9.595364742629393
 30
0.0
  0
VERTEX
  5
9E
  8
LAYER_1
 10
9.341150724263406
 20
9.595713110057293
 30
0.0
  0
VERTEX
  5
9F
  8
LAYER_1
 10
9.365758017953933
 20
9.595528993649461
 30
0.0
  0
VERTEX
  5
A0
  8
LAYER_1
 10
9.391981316954555
 20
9.594639450454183
 30
0.0
  0
VERTEX
  5
A1
  8
LAYER_1
 10
9.420339214513628
 20
9.592871537519745
 30
0.0
  0
VERTEX
  5
A2
  8
LAYER_1
 10
9.421486498817288
 20
9.592627130934744
 30
0.0
  0
VERTEX
  5
A3
  8
LAYER_1
 10
9.422447491451415
 20
9.592104180267485
 30
0.0
  0
VERTEX
  5
A4
  8
LAYER_1
 10
9.423866764630644
 20
9.590341000624093
 30
0.0
  0
VERTEX
  5
A5
  8
LAYER_1
 10
9.424709359890478
 20
9.587818706465368
 30
0.0
  0
VERTEX
  5
A6
  8
LAYER_1
 10
9.425087603070082
 20
9.58477400566711
 30
0.0
  0
VERTEX
  5
A7
  8
LAYER_1
 10
9.424900336545258
 20
9.578064215655203
 30
0.0
  0
VERTEX
  5
A8
  8
LAYER_1
 10
9.424203571769489
 20
9.572105293594769
 30
0.0
  0
VERTEX
  5
A9
  8
LAYER_1
 10
9.422484449270687
 20
9.560999457586785
 30
0.0
  0
VERTEX
  5
AA
  8
LAYER_1
 10
9.420301884762296
 20
9.549965852574921
 30
0.0
  0
VERTEX
  5
AB
  8
LAYER_1
 10
9.417717228997876
 20
9.539002530270004
 30
0.0
  0
VERTEX
  5
AC
  8
LAYER_1
 10
9.414791832730996
 20
9.528107542382866
 30
0.0
  0
VERTEX
  5
AD
  8
LAYER_1
 10
9.408164221704137
 20
9.50651477670526
 30
0.0
  0
VERTEX
  5
AE
  8
LAYER_1
 10
9.40090985771026
 20
9.485171969228752
 30
0.0
  0
VERTEX
  5
AF
  8
LAYER_1
 10
9.393030935572096
 20
9.4637855323762
 30
0.0
  0
VERTEX
  5
B0
  8
LAYER_1
 10
9.38451395940192
 20
9.442646192004247
 30
0.0
  0
VERTEX
  5
B1
  8
LAYER_1
 10
9.375505123736025
 20
9.42169450996358
 30
0.0
  0
VERTEX
  5
B2
  8
LAYER_1
 10
9.366150623110702
 20
9.400871048104877
 30
0.0
  0
VERTEX
  5
B3
  8
LAYER_1
 10
9.34698940512694
 20
9.3593710323361
 30
0.0
  0
VERTEX
  5
B4
  8
LAYER_1
 10
9.337475076841084
 20
9.338575602127392
 30
0.0
  0
VERTEX
  5
B5
  8
LAYER_1
 10
9.328199861740963
 20
9.31767063950338
 30
0.0
  0
SEQEND
  5
B6
  8
LAYER_1
  0
POLYLINE
  5
43
  8
LAYER_1
 66
     1
 10
0.0
 20
0.0
 30
0.0
  0
VERTEX
  5
B7
  8
LAYER_1
 10
8.239127602873035
 20
9.309004282005755
 30
0.0
  0
VERTEX
  5
B8
  8
LAYER_1
 10
8.256753088812559
 20
9.30729283888914
 30
0.0
  0
VERTEX
  5
B9
  8
LAYER_1
 10
8.274294834334068
 20
9.30672235785027
 30
0.0
  0
VERTEX
  5
BA
  8
LAYER_1
 10
8.29175296412506
 20
9.30729283888914
 30
0.0
  0
VERTEX
  5
BB
  8
LAYER_1
 10
8.309127602873035
 20
9.309004282005755
 30
0.0
  0
VERTEX
  5
BC
  8
LAYER_1
 10
8.325334459306909
 20
9.311576796388227
 30
0.0
  0
VERTEX
  5
BD
  8
LAYER_1
 10
8.341721766765126
 20
9.314909426405666
 30
0.0
  0
VERTEX
  5
BE
  8
LAYER_1
 10
8.37477657991409
 20
9.322972709441052
 30
0.0
  0
VERTEX
  5
BF
  8
LAYER_1
 10
8.407769732638954
 20
9.331429483303108
 30
0.0
  0
VERTEX
  5
C0
  8
LAYER_1
 10
8.424079964567039
 20
9.335253976853886
 30
0.0
  0
VERTEX
  5
C1
  8
LAYER_1
 10
8.44017891525873
 20
9.338515100183034
 30
0.0
  0
VERTEX
  5
C2
  8
LAYER_1
 10
8.453651214138095
 20
9.34068371198538
 30
0.0
  0
VERTEX
  5
C3
  8
LAYER_1
 10
8.466639278790662
 20
9.342259614825595
 30
0.0
  0
VERTEX
  5
C4
  8
LAYER_1
 10
8.479313238429924
 20
9.343364589690356
 30
0.0
  0
VERTEX
  5
C5
  8
LAYER_1
 10
8.491843222269376
 20
9.344120417566334
 30
0.0
  0
VERTEX
  5
C6
  8
LAYER_1
 10
8.517151779402798
 20
9.345071756298635
 30
0.0
  0
VERTEX
  5
C7
  8
LAYER_1
 10
8.543925983898859
 20
9.346087878915892
 30
0.0
  0
VERTEX
  5
C8
  8
LAYER_1
 10
8.558998371915452
 20
9.346501366011228
 30
0.0
  0
VERTEX
  5
C9
  8
LAYER_1
 10
8.574200578475192
 20
9.346455423000634
 30
0.0
  0
VERTEX
  5
CA
  8
LAYER_1
 10
8.604508213761708
 20
9.346087878915892
 30
0.0
  0
VERTEX
  5
CB
  8
LAYER_1
 10
8.606536505545243
 20
9.345781713838216
 30
0.0
  0
VERTEX
  5
CC
  8
LAYER_1
 10
8.608575793830529
 20
9.344916464705653
 30
0.0
  0
VERTEX
  5
CD
  8
LAYER_1
 10
8.610600930360354
 20
9.343572000668903
 30
0.0
  0
VERTEX
  5
CE
  8
LAYER_1
 10
8.612586766877497
 20
9.34182819087866
 30
0.0
  0
VERTEX
  5
CF
  8
LAYER_1
 10
8.616339946844874
 20
9.337462010640497
 30
0.0
  0
VERTEX
  5
D0
  8
LAYER_1
 10
8.619634147674924
 20
9.332456877196751
 30
0.0
  0
VERTEX
  5
D1
  8
LAYER_1
 10
8.622268183309911
 20
9.327451743753006
 30
0.0
  0
VERTEX
  5
D2
  8
LAYER_1
 10
8.624040867692099
 20
9.323085563514843
 30
0.0
  0
VERTEX
  5
D3
  8
LAYER_1
 10
8.624751014763753
 20
9.31999728968785
 30
0.0
  0
VERTEX
  5
D4
  8
LAYER_1
 10
8.624644766165087
 20
9.319132040555287
 30
0.0
  0
VERTEX
  5
D5
  8
LAYER_1
 10
8.624197438467135
 20
9.31882587547761
 30
0.0
  0
SEQEND
  5
D6
  8
LAYER_1
  0
POLYLINE
  5
44
  8
LAYER_1
 66
     1
 10
0.0
 20
0.0
 30
0.0
  0
VERTEX
  5
D7
  8
LAYER_1
 10
8.624197438467135
 20
9.31882587547761
 30
0.0
  0
VERTEX
  5
D8
  8
LAYER_1
 10
8.708485460856972
 20
9.33073950557445
 30
0.0
  0
VERTEX
  5
D9
  8
LAYER_1
 10
8.73960603434504
 20
9.335056235227494
 30
0.0
  0
VERTEX
  5
DA
  8
LAYER_1
 10
8.770772812063274
 20
9.339267873917297
 30
0.0
  0
VERTEX
  5
DB
  8
LAYER_1
 10
8.801856139449837
 20
9.343948315143713
 30
0.0
  0
VERTEX
  5
DC
  8
LAYER_1
 10
8.81732599221817
 20
9.346643678426855
 30
0.0
  0
VERTEX
  5
DD
  8
LAYER_1
 10
8.832726361942893
 20
9.349671452406591
 30
0.0
  0
VERTEX
  5
DE
  8
LAYER_1
 10
8.852584115398646
 20
9.353243287344425
 30
0.0
  0
VERTEX
  5
DF
  8
LAYER_1
 10
8.872829955084473
 20
9.356036305816996
 30
0.0
  0
VERTEX
  5
E0
  8
LAYER_1
 10
8.913187135979488
 20
9.360912295838174
 30
0.0
  0
VERTEX
  5
E1
  8
LAYER_1
 10
8.94004669540156
 20
9.36440821007464
 30
0.0
  0
VERTEX
  5
E2
  8
LAYER_1
 10
8.9664762664898
 20
9.367437576334368
 30
0.0
  0
VERTEX
  5
E3
  8
LAYER_1
 10
8.979682539563516
 20
9.368642953276952
 30
0.0
  0
VERTEX
  5
E4
  8
LAYER_1
 10
8.992964595339513
 20
9.369570472390151
 30
0.0
  0
VERTEX
  5
E5
  8
LAYER_1
 10
9.006383527079711
 20
9.370166393395566
 30
0.0
  0
VERTEX
  5
E6
  8
LAYER_1
 10
9.020000428046016
 20
9.370376976014793
 30
0.0
  0
VERTEX
  5
E7
  8
LAYER_1
 10
9.044934306608685
 20
9.370843953814152
 30
0.0
  0
VERTEX
  5
E8
  8
LAYER_1
 10
9.057338678078896
 20
9.371086195634936
 30
0.0
  0
VERTEX
  5
E9
  8
LAYER_1
 10
9.069673136134465
 20
9.371030734577866
 30
0.0
  0
VERTEX
  5
EA
  8
LAYER_1
 10
9.081916529619978
 20
9.370449917023999
 30
0.0
  0
VERTEX
  5
EB
  8
LAYER_1
 10
9.094047707380016
 20
9.369116089354394
 30
0.0
  0
VERTEX
  5
EC
  8
LAYER_1
 10
9.106045518259164
 20
9.366801597950104
 30
0.0
  0
VERTEX
  5
ED
  8
LAYER_1
 10
9.111987801382334
 20
9.365205461591536
 30
0.0
  0
VERTEX
  5
EE
  8
LAYER_1
 10
9.117888811102002
 20
9.363278789192192
 30
0.0
  0
VERTEX
  5
EF
  8
LAYER_1
 10
9.120290938851106
 20
9.361380409615112
 30
0.0
  0
VERTEX
  5
F0
  8
LAYER_1
 10
9.123613199948993
 20
9.35751461511926
 30
0.0
  0
VERTEX
  5
F1
  8
LAYER_1
 10
9.127791895787386
 20
9.3523658163129
 30
0.0
  0
VERTEX
  5
F2
  8
LAYER_1
 10
9.13276332775801
 20
9.346618423804307
 30
0.0
  0
VERTEX
  5
F3
  8
LAYER_1
 10
9.138463797252587
 20
9.340956848201746
 30
0.0
  0
VERTEX
  5
F4
  8
LAYER_1
 10
9.141567515256275
 20
9.338372120055313
 30
0.0
  0
VERTEX
  5
F5
  8
LAYER_1
 10
9.144829605662848
 20
9.336065500113488
 30
0.0
  0
VERTEX
  5
F6
  8
LAYER_1
 10
9.148242106146272
 20
9.334122539702307
 30
0.0
  0
VERTEX
  5
F7
  8
LAYER_1
 10
9.151797054380513
 20
9.332628790147801
 30
0.0
  0
VERTEX
  5
F8
  8
LAYER_1
 10
9.155486488039537
 20
9.331669802776005
 30
0.0
  0
VERTEX
  5
F9
  8
LAYER_1
 10
9.159302444797309
 20
9.331331128912957
 30
0.0
  0
VERTEX
  5
FA
  8
LAYER_1
 10
9.17931154834622
 20
9.330906497241358
 30
0.0
  0
VERTEX
  5
FB
  8
LAYER_1
 10
9.201288098187721
 20
9.329753280240599
 30
0.0
  0
VERTEX
  5
FC
  8
LAYER_1
 10
9.224405953113948
 20
9.32805249493175
 30
0.0
  0
VERTEX
  5
FD
  8
LAYER_1
 10
9.247838971917046
 20
9.325985158335872
 30
0.0
  0
VERTEX
  5
FE
  8
LAYER_1
 10
9.292345936322416
 20
9.321474899367294
 30
0.0
  0
VERTEX
  5
FF
  8
LAYER_1
 10
9.328199861740963
 20
9.31767063950338
 30
0.0
  0
SEQEND
  5
100
  8
LAYER_1
  0
POLYLINE
  5
45
  8
LAYER_1
 66
     1
 10
0.0
 20
0.0
 30
0.0
  0
VERTEX
  5
101
  8
LAYER_1
 10
9.468856291859492
 20
9.324647193470945
 30
0.0
  0
VERTEX
  5
102
  8
LAYER_1
 10
9.468856291859492
 20
9.354647193470944
 30
0.0
  0
VERTEX
  5
103
  8
LAYER_1
 10
9.46815386998449
 20
9.362332594345094
 30
0.0
  0
VERTEX
  5
104
  8
LAYER_1
 10
9.466983166859492
 20
9.370149095802017
 30
0.0
  0
VERTEX
  5
105
  8
LAYER_1
 10
9.466661223500118
 20
9.37398711807767
 30
0.0
  0
VERTEX
  5
106
  8
LAYER_1
 10
9.466749026234492
 20
9.3777146460934
 30
0.0
  0
VERTEX
  5
107
  8
LAYER_1
 10
9.467422180531369
 20
9.381283923380671
 30
0.0
  0
VERTEX
  5
108
  8
LAYER_1
 10
9.468856291859492
 20
9.384647193470943
 30
0.0
  0
VERTEX
  5
109
  8
LAYER_1
 10
9.471739570472648
 20
9.388642943689689
 30
0.0
  0
VERTEX
  5
10A
  8
LAYER_1
 10
9.475304863320238
 20
9.392036784597359
 30
0.0
  0
VERTEX
  5
10B
  8
LAYER_1
 10
9.47941785591444
 20
9.394915992246812
 30
0.0
  0
VERTEX
  5
10C
  8
LAYER_1
 10
9.483944233767431
 20
9.397367842690908
 30
0.0
  0
VERTEX
  5
10D
  8
LAYER_1
 10
9.493699887298499
 20
9.401338576174474
 30
0.0
  0
VERTEX
  5
10E
  8
LAYER_1
 10
9.503497308010868
 20
9.404647193470943
 30
0.0
  0
VERTEX
  5
10F
  8
LAYER_1
 10
9.512583849078963
 20
9.407341163099389
 30
0.0
  0
VERTEX
  5
110
  8
LAYER_1
 10
9.521837879784867
 20
9.409395551820978
 30
0.0
  0
VERTEX
  5
111
  8
LAYER_1
 10
9.531223708384749
 20
9.410922262509743
 30
0.0
  0
VERTEX
  5
112
  8
LAYER_1
 10
9.540705643134777
 20
9.412033198039726
 30
0.0
  0
VERTEX
  5
113
  8
LAYER_1
 10
9.559815064109939
 20
9.413455355119481
 30
0.0
  0
VERTEX
  5
114
  8
LAYER_1
 10
9.578880608759697
 20
9.414557246052528
 30
0.0
  0
VERTEX
  5
115
  8
LAYER_1
 10
9.585869845474473
 20
9.414831239549589
 30
0.0
  0
VERTEX
  5
116
  8
LAYER_1
 10
9.592147497345687
 20
9.414741737158057
 30
0.0
  0
VERTEX
  5
117
  8
LAYER_1
 10
9.604145742384052
 20
9.413875350298369
 30
0.0
  0
VERTEX
  5
118
  8
LAYER_1
 10
9.61803073552803
 20
9.412764296651787
 30
0.0
  0
VERTEX
  5
119
  8
LAYER_1
 10
9.62666682253126
 20
9.412368960776638
 30
0.0
  0
VERTEX
  5
11A
  8
LAYER_1
 10
9.636957868430859
 20
9.412214787396634
 30
0.0
  0
VERTEX
  5
11B
  8
LAYER_1
 10
9.640559696199325
 20
9.411607915599376
 30
0.0
  0
VERTEX
  5
11C
  8
LAYER_1
 10
9.643876936676776
 20
9.409931241804262
 30
0.0
  0
VERTEX
  5
11D
  8
LAYER_1
 10
9.646915975621296
 20
9.407400678406285
 30
0.0
  0
VERTEX
  5
11E
  8
LAYER_1
 10
9.649683198790969
 20
9.404232137800433
 30
0.0
  0
VERTEX
  5
11F
  8
LAYER_1
 10
9.654427740838106
 20
9.39684477454506
 30
0.0
  0
VERTEX
  5
120
  8
LAYER_1
 10
9.658161648882853
 20
9.389496451198065
 30
0.0
  0
VERTEX
  5
121
  8
LAYER_1
 10
9.660121761333505
 20
9.384820321086309
 30
0.0
  0
VERTEX
  5
122
  8
LAYER_1
 10
9.661548893194436
 20
9.380138722103695
 30
0.0
  0
VERTEX
  5
123
  8
LAYER_1
 10
9.662510655611126
 20
9.375432743495587
 30
0.0
  0
VERTEX
  5
124
  8
LAYER_1
 10
9.663074659729048
 20
9.370683474507354
 30
0.0
  0
VERTEX
  5
125
  8
LAYER_1
 10
9.66327983765049
 20
9.360979422371978
 30
0.0
  0
VERTEX
  5
126
  8
LAYER_1
 10
9.662705316122569
 20
9.3508752796605
 30
0.0
  0
VERTEX
  5
127
  8
LAYER_1
 10
9.661696696717902
 20
9.340742467680942
 30
0.0
  0
VERTEX
  5
128
  8
LAYER_1
 10
9.660846768652762
 20
9.335709736574216
 30
0.0
  0
VERTEX
  5
129
  8
LAYER_1
 10
9.659628754413616
 20
9.330843608635561
 30
0.0
  0
VERTEX
  5
12A
  8
LAYER_1
 10
9.657939398551363
 20
9.326252198799507
 30
0.0
  0
VERTEX
  5
12B
  8
LAYER_1
 10
9.655675445616906
 20
9.322043622000582
 30
0.0
  0
VERTEX
  5
12C
  8
LAYER_1
 10
9.652733640161141
 20
9.318325993173314
 30
0.0
  0
VERTEX
  5
12D
  8
LAYER_1
 10
9.649010726734971
 20
9.315207427252233
 30
0.0
  0
VERTEX
  5
12E
  8
LAYER_1
 10
9.64344798904115
 20
9.31211839725518
 30
0.0
  0
VERTEX
  5
12F
  8
LAYER_1
 10
9.63752037625569
 20
9.309956682963687
 30
0.0
  0
VERTEX
  5
130
  8
LAYER_1
 10
9.631282003190732
 20
9.308587027251773
 30
0.0
  0
VERTEX
  5
131
  8
LAYER_1
 10
9.624786984658414
 20
9.307874172993458
 30
0.0
  0
VERTEX
  5
132
  8
LAYER_1
 10
9.618089435470878
 20
9.307682863062759
 30
0.0
  0
VERTEX
  5
133
  8
LAYER_1
 10
9.611243470440261
 20
9.307877840333692
 30
0.0
  0
VERTEX
  5
134
  8
LAYER_1
 10
9.59732275209834
 20
9.308885627976535
 30
0.0
  0
VERTEX
  5
135
  8
LAYER_1
 10
9.583457748129765
 20
9.309815478914134
 30
0.0
  0
VERTEX
  5
136
  8
LAYER_1
 10
9.576681426065832
 20
9.309913035303511
 30
0.0
  0
VERTEX
  5
137
  8
LAYER_1
 10
9.570081377031649
 20
9.309585336138632
 30
0.0
  0
VERTEX
  5
138
  8
LAYER_1
 10
9.56371171583936
 20
9.308697124293516
 30
0.0
  0
VERTEX
  5
139
  8
LAYER_1
 10
9.557626557301102
 20
9.30711314264218
 30
0.0
  0
VERTEX
  5
13A
  8
LAYER_1
 10
9.551880016229015
 20
9.304698134058643
 30
0.0
  0
VERTEX
  5
13B
  8
LAYER_1
 10
9.546526207435239
 20
9.301316841416922
 30
0.0
  0
VERTEX
  5
13C
  8
LAYER_1
 10
9.544062808544869
 20
9.29919562640627
 30
0.0
  0
VERTEX
  5
13D
  8
LAYER_1
 10
9.541899623312176
 20
9.296840023207775
 30
0.0
  0
VERTEX
  5
13E
  8
LAYER_1
 10
9.538349533000755
 20
9.291522326681001
 30
0.0
  0
VERTEX
  5
13F
  8
LAYER_1
 10
9.535627214862835
 20
9.285557100704102
 30
0.0
  0
VERTEX
  5
140
  8
LAYER_1
 10
9.53348394726028
 20
9.279137694144577
 30
0.0
  0
VERTEX
  5
141
  8
LAYER_1
 10
9.529939677108715
 20
9.265709734747654
 30
0.0
  0
VERTEX
  5
142
  8
LAYER_1
 10
9.528041231283424
 20
9.259087879645257
 30
0.0
  0
VERTEX
  5
143
  8
LAYER_1
 10
9.525726949440944
 20
9.252785239430235
 30
0.0
  0
SEQEND
  5
144
  8
LAYER_1
  0
POLYLINE
  5
46
  8
LAYER_1
 66
     1
 10
0.0
 20
0.0
 30
0.0
  0
VERTEX
  5
145
  8
LAYER_1
 10
9.468856291859492
 20
9.324647193470945
 30
0.0
  0
VERTEX
  5
146
  8
LAYER_1
 10
9.447279130203738
 20
9.306387248288363
 30
0.0
  0
VERTEX
  5
147
  8
LAYER_1
 10
9.426352716801537
 20
9.287450669420728
 30
0.0
  0
VERTEX
  5
148
  8
LAYER_1
 10
9.422006454669159
 20
9.284254055959249
 30
0.0
  0
VERTEX
  5
149
  8
LAYER_1
 10
9.417231618846579
 20
9.281160503334068
 30
0.0
  0
VERTEX
  5
14A
  8
LAYER_1
 10
9.415137732289509
 20
9.279498152429184
 30
0.0
  0
VERTEX
  5
14B
  8
LAYER_1
 10
9.413481798095546
 20
9.277676499846285
 30
0.0
  0
VERTEX
  5
14C
  8
LAYER_1
 10
9.412445514859908
 20
9.27563385662301
 30
0.0
  0
VERTEX
  5
14D
  8
LAYER_1
 10
9.412210581177806
 20
9.273308533796996
 30
0.0
  0
VERTEX
  5
14E
  8
LAYER_1
 10
9.412816342401552
 20
9.269922585195165
 30
0.0
  0
VERTEX
  5
14F
  8
LAYER_1
 10
9.413961233854833
 20
9.26678110676164
 30
0.0
  0
VERTEX
  5
150
  8
LAYER_1
 10
9.415595449698046
 20
9.263871170495952
 30
0.0
  0
VERTEX
  5
151
  8
LAYER_1
 10
9.417669184091592
 20
9.261179848397624
 30
0.0
  0
VERTEX
  5
152
  8
LAYER_1
 10
9.420132631195873
 20
9.258694212466189
 30
0.0
  0
VERTEX
  5
153
  8
LAYER_1
 10
9.42293598517129
 20
9.25640133470117
 30
0.0
  0
VERTEX
  5
154
  8
LAYER_1
 10
9.429363190377131
 20
9.252342141668496
 30
0.0
  0
VERTEX
  5
155
  8
LAYER_1
 10
9.436552352992319
 20
9.248898845295827
 30
0.0
  0
VERTEX
  5
156
  8
LAYER_1
 10
9.444105026300056
 20
9.245968021579387
 30
0.0
  0
VERTEX
  5
157
  8
LAYER_1
 10
9.458707118125997
 20
9.241230096100072
 30
0.0
  0
VERTEX
  5
158
  8
LAYER_1
 10
9.466047913605014
 20
9.239122316996836
 30
0.0
  0
VERTEX
  5
159
  8
LAYER_1
 10
9.473681020049199
 20
9.237345752005465
 30
0.0
  0
VERTEX
  5
15A
  8
LAYER_1
 10
9.481483025478962
 20
9.236035905370493
 30
0.0
  0
VERTEX
  5
15B
  8
LAYER_1
 10
9.48933051791472
 20
9.235328281336445
 30
0.0
  0
VERTEX
  5
15C
  8
LAYER_1
 10
9.497100085376887
 20
9.235358384147851
 30
0.0
  0
VERTEX
  5
15D
  8
LAYER_1
 10
9.50466831588588
 20
9.236261718049237
 30
0.0
  0
VERTEX
  5
15E
  8
LAYER_1
 10
9.511911797462108
 20
9.238173787285135
 30
0.0
  0
VERTEX
  5
15F
  8
LAYER_1
 10
9.515373191156819
 20
9.239550442729941
 30
0.0
  0
VERTEX
  5
160
  8
LAYER_1
 10
9.518707118125995
 20
9.241230096100072
 30
0.0
  0
VERTEX
  5
161
  8
LAYER_1
 10
9.520039191727724
 20
9.242202097239083
 30
0.0
  0
VERTEX
  5
162
  8
LAYER_1
 10
9.521129675759482
 20
9.24342413621396
 30
0.0
  0
VERTEX
  5
163
  8
LAYER_1
 10
9.522809285860252
 20
9.246388190158019
 30
0.0
  0
VERTEX
  5
164
  8
LAYER_1
 10
9.524192769922628
 20
9.249661982905643
 30
0.0
  0
VERTEX
  5
165
  8
LAYER_1
 10
9.525726949440944
 20
9.252785239430235
 30
0.0
  0
SEQEND
  5
166
  8
LAYER_1
  0
POLYLINE
  5
47
  8
LAYER_1
 66
     1
 10
0.0
 20
0.0
 30
0.0
  0
VERTEX
  5
167
  8
LAYER_1
 10
9.468856291859492
 20
9.324647193470945
 30
0.0
  0
VERTEX
  5
168
  8
LAYER_1
 10
9.398856291859492
 20
9.324647193470945
 30
0.0
  0
VERTEX
  5
169
  8
LAYER_1
 10
9.406273566491071
 20
9.334827279354597
 30
0.0
  0
VERTEX
  5
16A
  8
LAYER_1
 10
9.413119563523205
 20
9.345135969310807
 30
0.0
  0
VERTEX
  5
16B
  8
LAYER_1
 10
9.419449620827002
 20
9.35556759713768
 30
0.0
  0
VERTEX
  5
16C
  8
LAYER_1
 10
9.425319076273578
 20
9.366116496633325
 30
0.0
  0
VERTEX
  5
16D
  8
LAYER_1
 10
9.430783267734038
 20
9.376777001595846
 30
0.0
  0
VERTEX
  5
16E
  8
LAYER_1
 10
9.435897533079498
 20
9.38754344582335
 30
0.0
  0
VERTEX
  5
16F
  8
LAYER_1
 10
9.445297636909858
 20
9.40937148726573
 30
0.0
  0
VERTEX
  5
170
  8
LAYER_1
 10
9.462333597519457
 20
9.454049528446959
 30
0.0
  0
VERTEX
  5
171
  8
LAYER_1
 10
9.470854860236477
 20
9.476808868955509
 30
0.0
  0
VERTEX
  5
172
  8
LAYER_1
 10
9.479968581853498
 20
9.499787983255814
 30
0.0
  0
VERTEX
  5
173
  8
LAYER_1
 10
9.482916328745567
 20
9.507654180879241
 30
0.0
  0
VERTEX
  5
174
  8
LAYER_1
 10
9.48555359550055
 20
9.51597106652741
 30
0.0
  0
VERTEX
  5
175
  8
LAYER_1
 10
9.490417927448954
 20
9.533420318915676
 30
0.0
  0
VERTEX
  5
176
  8
LAYER_1
 10
9.495604055398108
 20
9.551062574456012
 30
0.0
  0
VERTEX
  5
177
  8
LAYER_1
 10
9.498643567154028
 20
9.559620714044268
 30
0.0
  0
VERTEX
  5
178
  8
LAYER_1
 10
9.50215445704741
 20
9.567824667183817
 30
0.0
  0
VERTEX
  5
179
  8
LAYER_1
 10
9.506295607836872
 20
9.576642768651023
 30
0.0
  0
VERTEX
  5
17A
  8
LAYER_1
 10
9.508605084770627
 20
9.581100270771278
 30
0.0
  0
VERTEX
  5
17B
  8
LAYER_1
 10
9.511147053115069
 20
9.58527582586989
 30
0.0
  0
VERTEX
  5
17C
  8
LAYER_1
 10
9.513976430658698
 20
9.588933747987298
 30
0.0
  0
VERTEX
  5
17D
  8
LAYER_1
 10
9.51714813519002
 20
9.591838351163947
 30
0.0
  0
VERTEX
  5
17E
  8
LAYER_1
 10
9.518879521884973
 20
9.592934506287126
 30
0.0
  0
VERTEX
  5
17F
  8
LAYER_1
 10
9.520717084497534
 20
9.59375394944028
 30
0.0
  0
VERTEX
  5
180
  8
LAYER_1
 10
9.52266768775127
 20
9.594267219878464
 30
0.0
  0
VERTEX
  5
181
  8
LAYER_1
 10
9.524738196369743
 20
9.594444856856736
 30
0.0
  0
VERTEX
  5
182
  8
LAYER_1
 10
9.553919410398064
 20
9.594221586249432
 30
0.0
  0
VERTEX
  5
183
  8
LAYER_1
 10
9.581644477488632
 20
9.593584057861985
 30
0.0
  0
VERTEX
  5
184
  8
LAYER_1
 10
9.608185535149843
 20
9.592580696846102
 30
0.0
  0
VERTEX
  5
185
  8
LAYER_1
 10
9.6338147208901
 20
9.591259928353491
 30
0.0
  0
VERTEX
  5
186
  8
LAYER_1
 10
9.683426026641353
 20
9.587859869544904
 30
0.0
  0
VERTEX
  5
187
  8
LAYER_1
 10
9.732655494809592
 20
9.583771282649868
 30
0.0
  0
VERTEX
  5
188
  8
LAYER_1
 10
9.782132097853601
 20
9.579545524408529
 30
0.0
  0
VERTEX
  5
189
  8
LAYER_1
 10
9.806122025836281
 20
9.577337172930896
 30
0.0
  0
VERTEX
  5
18A
  8
LAYER_1
 10
9.829862097324138
 20
9.574865851561679
 30
0.0
  0
VERTEX
  5
18B
  8
LAYER_1
 10
9.853539106715713
 20
9.571982069060677
 30
0.0
  0
VERTEX
  5
18C
  8
LAYER_1
 10
9.877339848409555
 20
9.56853633418768
 30
0.0
  0
VERTEX
  5
18D
  8
LAYER_1
 10
9.901451116804203
 20
9.564379155702488
 30
0.0
  0
VERTEX
  5
18E
  8
LAYER_1
 10
9.926059706298208
 20
9.559361042364895
 30
0.0
  0
VERTEX
  5
18F
  8
LAYER_1
 10
9.975338787694454
 20
9.549474520151342
 30
0.0
  0
VERTEX
  5
190
  8
LAYER_1
 10
10.00012165426049
 20
9.544655490949577
 30
0.0
  0
VERTEX
  5
191
  8
LAYER_1
 10
10.02479259226468
 20
9.539445768662931
 30
0.0
  0
VERTEX
  5
192
  8
LAYER_1
 10
10.04919599235167
 20
9.533490217525252
 30
0.0
  0
VERTEX
  5
193
  8
LAYER_1
 10
10.06124873775268
 20
9.530121776210347
 30
0.0
  0
VERTEX
  5
194
  8
LAYER_1
 10
10.07317624516612
 20
9.526433701770374
 30
0.0
  0
VERTEX
  5
195
  8
LAYER_1
 10
10.0849590634226
 20
9.52238160223456
 30
0.0
  0
VERTEX
  5
196
  8
LAYER_1
 10
10.09657774135269
 20
9.517921085632139
 30
0.0
  0
VERTEX
  5
197
  8
LAYER_1
 10
10.10801282778697
 20
9.513007759992341
 30
0.0
  0
VERTEX
  5
198
  8
LAYER_1
 10
10.11924487155602
 20
9.50759723334439
 30
0.0
  0
VERTEX
  5
199
  8
LAYER_1
 10
10.13984636827363
 20
9.497121853447338
 30
0.0
  0
VERTEX
  5
19A
  8
LAYER_1
 10
10.15893338993716
 20
9.487051447913553
 30
0.0
  0
VERTEX
  5
19B
  8
LAYER_1
 10
10.16800896417991
 20
9.481914267889824
 30
0.0
  0
VERTEX
  5
19C
  8
LAYER_1
 10
10.17682590952665
 20
9.476573720285243
 30
0.0
  0
VERTEX
  5
19D
  8
LAYER_1
 10
10.1854242225999
 20
9.470928268042583
 30
0.0
  0
VERTEX
  5
19E
  8
LAYER_1
 10
10.19384390002215
 20
9.46487637410462
 30
0.0
  0
VERTEX
  5
19F
  8
LAYER_1
 10
10.20212493841592
 20
9.45831650141413
 30
0.0
  0
VERTEX
  5
1A0
  8
LAYER_1
 10
10.2103073344037
 20
9.451147112913887
 30
0.0
  0
VERTEX
  5
1A1
  8
LAYER_1
 10
10.21843108460801
 20
9.443266671546668
 30
0.0
  0
VERTEX
  5
1A2
  8
LAYER_1
 10
10.22653618565134
 20
9.434573640255254
 30
0.0
  0
VERTEX
  5
1A3
  8
LAYER_1
 10
10.23466263415621
 20
9.424966481982416
 30
0.0
  0
VERTEX
  5
1A4
  8
LAYER_1
 10
10.24285042674511
 20
9.41434365967093
 30
0.0
  0
VERTEX
  5
1A5
  8
LAYER_1
 10
10.25113956004056
 20
9.402603636263573
 30
0.0
  0
VERTEX
  5
1A6
  8
LAYER_1
 10
10.25957003066505
 20
9.38964487470312
 30
0.0
  0
VERTEX
  5
1A7
  8
LAYER_1
 10
10.2606791861707
 20
9.387614302320497
 30
0.0
  0
VERTEX
  5
1A8
  8
LAYER_1
 10
10.26135831446872
 20
9.385767608469983
 30
0.0
  0
VERTEX
  5
1A9
  8
LAYER_1
 10
10.26162906201345
 20
9.384091616716562
 30
0.0
  0
VERTEX
  5
1AA
  8
LAYER_1
 10
10.26151307525924
 20
9.382573150625216
 30
0.0
  0
VERTEX
  5
1AB
  8
LAYER_1
 10
10.2610320006604
 20
9.381199033760925
 30
0.0
  0
VERTEX
  5
1AC
  8
LAYER_1
 10
10.26020748467126
 20
9.379956089688672
 30
0.0
  0
VERTEX
  5
1AD
  8
LAYER_1
 10
10.25761471433944
 20
9.377811014180207
 30
0.0
  0
VERTEX
  5
1AE
  8
LAYER_1
 10
10.25390793589842
 20
9.37603251261967
 30
0.0
  0
VERTEX
  5
1AF
  8
LAYER_1
 10
10.24926032098287
 20
9.374515173526918
 30
0.0
  0
VERTEX
  5
1B0
  8
LAYER_1
 10
10.23783526826675
 20
9.371842336824184
 30
0.0
  0
VERTEX
  5
1B1
  8
LAYER_1
 10
10.21740653986787
 20
9.368161639943674
 30
0.0
  0
VERTEX
  5
1B2
  8
LAYER_1
 10
10.19529776386499
 20
9.364554634147725
 30
0.0
  0
VERTEX
  5
1B3
  8
LAYER_1
 10
10.18453872522396
 20
9.362577027039514
 30
0.0
  0
VERTEX
  5
1B4
  8
LAYER_1
 10
10.17447011533621
 20
9.360375756662116
 30
0.0
  0
VERTEX
  5
1B5
  8
LAYER_1
 10
10.16546208108651
 20
9.357870127668745
 30
0.0
  0
VERTEX
  5
1B6
  8
LAYER_1
 10
10.15788476935962
 20
9.354979444712626
 30
0.0
  0
SEQEND
  5
1B7
  8
LAYER_1
  0
POLYLINE
  5
48
  8
LAYER_1
 66
     1
 10
0.0
 20
0.0
 30
0.0
  0
VERTEX
  5
1B8
  8
LAYER_1
 10
9.621891348145528
 20
9.30750790233093
 30
0.0
  0
VERTEX
  5
1B9
  8
LAYER_1
 10
9.646283224542781
 20
9.301148472121717
 30
0.0
  0
VERTEX
  5
1BA
  8
LAYER_1
 10
9.656238298667379
 20
9.298867752072299
 30
0.0
  0
VERTEX
  5
1BB
  8
LAYER_1
 10
9.665764849826651
 20
9.297048708012824
 30
0.0
  0
VERTEX
  5
1BC
  8
LAYER_1
 10
9.675661917833622
 20
9.29558809940815
 30
0.0
  0
VERTEX
  5
1BD
  8
LAYER_1
 10
9.686728542501317
 20
9.29438268572314
 30
0.0
  0
VERTEX
  5
1BE
  8
LAYER_1
 10
9.715566621070959
 20
9.292324480971555
 30
0.0
  0
VERTEX
  5
1BF
  8
LAYER_1
 10
9.743642056380862
 20
9.290946541797007
 30
0.0
  0
VERTEX
  5
1C0
  8
LAYER_1
 10
9.769685401174376
 20
9.290169877205312
 30
0.0
  0
VERTEX
  5
1C1
  8
LAYER_1
 10
9.824538907036759
 20
9.289749736202381
 30
0.0
  0
VERTEX
  5
1C2
  8
LAYER_1
 10
9.836050400603984
 20
9.289908926313137
 30
0.0
  0
VERTEX
  5
1C3
  8
LAYER_1
 10
9.848020434895547
 20
9.29038200658919
 30
0.0
  0
VERTEX
  5
1C4
  8
LAYER_1
 10
9.872949447190997
 20
9.292242897299907
 30
0.0
  0
VERTEX
  5
1C5
  8
LAYER_1
 10
9.898552587001731
 20
9.295278527659953
 30
0.0
  0
VERTEX
  5
1C6
  8
LAYER_1
 10
9.924056497406372
 20
9.29943501699475
 30
0.0
  0
VERTEX
  5
1C7
  8
LAYER_1
 10
9.953488889841225
 20
9.305273332550026
 30
0.0
  0
VERTEX
  5
1C8
  8
LAYER_1
 10
9.982800585976648
 20
9.311694859973123
 30
0.0
  0
VERTEX
  5
1C9
  8
LAYER_1
 10
10.04118679141052
 20
9.32575240549254
 30
0.0
  0
VERTEX
  5
1CA
  8
LAYER_1
 10
10.09946491783064
 20
9.34053736369253
 30
0.0
  0
VERTEX
  5
1CB
  8
LAYER_1
 10
10.15788476935962
 20
9.354979444712626
 30
0.0
  0
SEQEND
  5
1CC
  8
LAYER_1
  0
POLYLINE
  5
49
  8
LAYER_1
 66
     1
 10
0.0
 20
0.0
 30
0.0
  0
VERTEX
  5
1CD
  8
LAYER_1
 10
9.356236568268768
 20
9.276238166278112
 30
0.0
  0
VERTEX
  5
1CE
  8
LAYER_1
 10
9.398856291859492
 20
9.324647193470945
 30
0.0
  0
SEQEND
  5
1CF
  8
LAYER_1
  0
POLYLINE
  5
4A
  8
LAYER_1
 66
     1
 10
0.0
 20
0.0
 30
0.0
  0
VERTEX
  5
1D0
  8
LAYER_1
 10
10.00910216642301
 20
9.314514578559281
 30
0.0
  0
VERTEX
  5
1D1
  8
LAYER_1
 10
10.14487510055244
 20
9.132521071109203
 30
0.0
  0
VERTEX
  5
1D2
  8
LAYER_1
 10
10.11020967056195
 20
8.751201341213804
 30
0.0
  0
VERTEX
  5
1D3
  8
LAYER_1
 10
10.06020967056195
 20
8.66459880083536
 30
0.0
  0
VERTEX
  5
1D4
  8
LAYER_1
 10
9.97154795059998
 20
8.537431189605776
 30
0.0
  0
SEQEND
  5
1D5
  8
LAYER_1
  0
POLYLINE
  5
4B
  8
LAYER_1
 66
     1
 10
0.0
 20
0.0
 30
0.0
  0
VERTEX
  5
1D6
  8
LAYER_1
 10
11.08295528334152
 20
8.99267640575263
 30
0.0
  0
VERTEX
  5
1D7
  8
LAYER_1
 10
11.06283622646523
 20
8.99413724838717
 30
0.0
  0
VERTEX
  5
1D8
  8
LAYER_1
 10
11.04152833319234
 20
8.994923740661276
 30
0.0
  0
VERTEX
  5
1D9
  8
LAYER_1
 10
11.03156755135146
 20
8.994875473581839
 30
0.0
  0
VERTEX
  5
1DA
  8
LAYER_1
 10
11.02267633454461
 20
8.9944322607147
 30
0.0
  0
VERTEX
  5
1DB
  8
LAYER_1
 10
11.01531027414947
 20
8.993518649327328
 30
0.0
  0
VERTEX
  5
1DC
  8
LAYER_1
 10
11.00992496154379
 20
8.992059186687193
 30
0.0
  0
VERTEX
  5
1DD
  8
LAYER_1
 10
11.00653051504385
 20
8.990424252193744
 30
0.0
  0
VERTEX
  5
1DE
  8
LAYER_1
 10
11.0032890812042
 20
8.988414735106016
 30
0.0
  0
VERTEX
  5
1DF
  8
LAYER_1
 10
11.00023026741903
 20
8.98607268158743
 30
0.0
  0
VERTEX
  5
1E0
  8
LAYER_1
 10
10.99738368108258
 20
8.983440137801418
 30
0.0
  0
VERTEX
  5
1E1
  8
LAYER_1
 10
10.99477892958905
 20
8.980559149911404
 30
0.0
  0
VERTEX
  5
1E2
  8
LAYER_1
 10
10.99244562033267
 20
8.977471764080809
 30
0.0
  0
VERTEX
  5
1E3
  8
LAYER_1
 10
10.99041336070764
 20
8.974220026473066
 30
0.0
  0
VERTEX
  5
1E4
  8
LAYER_1
 10
10.9887117581082
 20
8.970845983251596
 30
0.0
  0
VERTEX
  5
1E5
  8
LAYER_1
 10
10.98637597997887
 20
8.964824781798024
 30
0.0
  0
VERTEX
  5
1E6
  8
LAYER_1
 10
10.98463020032381
 20
8.958668268799777
 30
0.0
  0
VERTEX
  5
1E7
  8
LAYER_1
 10
10.98340468748512
 20
8.95239145108873
 30
0.0
  0
VERTEX
  5
1E8
  8
LAYER_1
 10
10.98262970980491
 20
8.946009335496754
 30
0.0
  0
VERTEX
  5
1E9
  8
LAYER_1
 10
10.98215243328842
 20
8.932989237997514
 30
0.0
  0
VERTEX
  5
1EA
  8
LAYER_1
 10
10.98264051751122
 20
8.919728030957046
 30
0.0
  0
VERTEX
  5
1EB
  8
LAYER_1
 10
10.9835361092102
 20
8.906345769030338
 30
0.0
  0
VERTEX
  5
1EC
  8
LAYER_1
 10
10.98428135512227
 20
8.892962506872376
 30
0.0
  0
VERTEX
  5
1ED
  8
LAYER_1
 10
10.98431840198431
 20
8.879698299138152
 30
0.0
  0
VERTEX
  5
1EE
  8
LAYER_1
 10
10.98389702162685
 20
8.873148357759627
 30
0.0
  0
VERTEX
  5
1EF
  8
LAYER_1
 10
10.98308939653323
 20
8.866673200482655
 30
0.0
  0
VERTEX
  5
1F0
  8
LAYER_1
 10
10.98054287347751
 20
8.851913276732947
 30
0.0
  0
VERTEX
  5
1F1
  8
LAYER_1
 10
10.97761471778934
 20
8.83723084355858
 30
0.0
  0
VERTEX
  5
1F2
  8
LAYER_1
 10
10.9743049225534
 20
8.82262587515122
 30
0.0
  0
VERTEX
  5
1F3
  8
LAYER_1
 10
10.97061348085437
 20
8.808098345702536
 30
0.0
  0
VERTEX
  5
1F4
  8
LAYER_1
 10
10.96654038577693
 20
8.7936482294042
 30
0.0
  0
VERTEX
  5
1F5
  8
LAYER_1
 10
10.96208563040576
 20
8.779275500447879
 30
0.0
  0
VERTEX
  5
1F6
  8
LAYER_1
 10
10.95724920782553
 20
8.764980133025244
 30
0.0
  0
VERTEX
  5
1F7
  8
LAYER_1
 10
10.95203111112092
 20
8.750762101327965
 30
0.0
  0
SEQEND
  5
1F8
  8
LAYER_1
  0
POLYLINE
  5
4C
  8
LAYER_1
 66
     1
 10
0.0
 20
0.0
 30
0.0
  0
VERTEX
  5
1F9
  8
LAYER_1
 10
9.366092592769924
 20
8.641736435222043
 30
0.0
  0
VERTEX
  5
1FA
  8
LAYER_1
 10
10.35694613333146
 20
8.690845794375239
 30
0.0
  0
SEQEND
  5
1FB
  8
LAYER_1
  0
POLYLINE
  5
4D
  8
LAYER_1
 66
     1
 10
0.0
 20
0.0
 30
0.0
  0
VERTEX
  5
1FC
  8
LAYER_1
 10
9.161789750581313
 20
8.733164734865001
 30
0.0
  0
VERTEX
  5
1FD
  8
LAYER_1
 10
10.38041751822085
 20
8.748621511026055
 30
0.0
  0
SEQEND
  5
1FE
  8
LAYER_1
  0
POLYLINE
  5
4E
  8
LAYER_1
 66
     1
 10
0.0
 20
0.0
 30
0.0
  0
VERTEX
  5
1FF
  8
LAYER_1
 10
10.73720231577881
 20
8.79839742571528
 30
0.0
  0
VERTEX
  5
200
  8
LAYER_1
 10
10.97514630149521
 20
8.826438179390127
 30
0.0
  0
SEQEND
  5
201
  8
LAYER_1
  0
POLYLINE
  5
4F
  8
LAYER_1
 66
     1
 10
0.0
 20
0.0
 30
0.0
 70
     1
  0
VERTEX
  5
202
  8
LAYER_1
 10
10.20959548723255
 20
8.956027306346767
 30
0.0
  0
VERTEX
  5
203
  8
LAYER_1
 10
10.32959548723256
 20
8.956027306346767
 30
0.0
  0
VERTEX
  5
204
  8
LAYER_1
 10
10.31359177720403
 20
8.852031016375292
 30
0.0
  0
VERTEX
  5
205
  8
LAYER_1
 10
10.20959548723255
 20
8.852031016375292
 30
0.0
  0
SEQEND
  5
206
  8
LAYER_1
  0
POLYLINE
  5
50
  8
LAYER_1
 66
     1
 10
0.0
 20
0.0
 30
0.0
 70
     1
  0
VERTEX
  5
207
  8
LAYER_1
 10
10.20959548723255
 20
8.966027306346767
 30
0.0
 42
0.4142135623730946
  0
VERTEX
  5
208
  8
LAYER_1
 10
10.19959548723256
 20
8.956027306346767
 30
0.0
  0
VERTEX
  5
209
  8
LAYER_1
 10
10.19959548723256
 20
8.852031016375292
 30
0.0
 42
0.414213562373095
  0
VERTEX
  5
20A
  8
LAYER_1
 10
10.20959548723255
 20
8.842031016375294
 30
0.0
  0
VERTEX
  5
20B
  8
LAYER_1
 10
10.31359177720403
 20
8.842031016375294
 30
0.0
 42
0.3701668806521121
  0
VERTEX
  5
20C
  8
LAYER_1
 10
10.32347543302878
 20
8.850510047099522
 30
0.0
  0
VERTEX
  5
20D
  8
LAYER_1
 10
10.33947914305731
 20
8.954506337070994
 30
0.0
 42
0.4596762104249164
  0
VERTEX
  5
20E
  8
LAYER_1
 10
10.32959548723256
 20
8.966027306346767
 30
0.0
  0
SEQEND
  5
20F
  8
LAYER_1
  0
POLYLINE
  5
51
  8
LAYER_1
 66
     1
 10
0.0
 20
0.0
 30
0.0
 70
     1
  0
VERTEX
  5
210
  8
LAYER_1
 10
10.65003133040508
 20
9.268108617407826
 30
0.0
  0
VERTEX
  5
211
  8
LAYER_1
 10
10.64645942530342
 20
9.264658695213008
 30
0.0
  0
VERTEX
  5
212
  8
LAYER_1
 10
10.64363656315685
 20
9.260496484237333
 30
0.0
  0
VERTEX
  5
213
  8
LAYER_1
 10
10.6415136238987
 20
9.255781027880287
 30
0.0
  0
VERTEX
  5
214
  8
LAYER_1
 10
10.64004148746231
 20
9.250671369541347
 30
0.0
  0
VERTEX
  5
215
  8
LAYER_1
 10
10.63917103378101
 20
9.245326552619993
 30
0.0
  0
VERTEX
  5
216
  8
LAYER_1
 10
10.63885314278813
 20
9.23990562051571
 30
0.0
  0
VERTEX
  5
217
  8
LAYER_1
 10
10.63903869441701
 20
9.234567616627972
 30
0.0
  0
VERTEX
  5
218
  8
LAYER_1
 10
10.63967856860098
 20
9.229471584356261
 30
0.0
  0
VERTEX
  5
219
  8
LAYER_1
 10
10.64141874999179
 20
9.222561767945372
 30
0.0
  0
VERTEX
  5
21A
  8
LAYER_1
 10
10.64410800245969
 20
9.215933521056378
 30
0.0
  0
VERTEX
  5
21B
  8
LAYER_1
 10
10.64760424021385
 20
9.20959124071861
 30
0.0
  0
VERTEX
  5
21C
  8
LAYER_1
 10
10.65176537746341
 20
9.203539323961397
 30
0.0
  0
VERTEX
  5
21D
  8
LAYER_1
 10
10.65644932841755
 20
9.19778216781407
 30
0.0
  0
VERTEX
  5
21E
  8
LAYER_1
 10
10.66151400728542
 20
9.192324169305957
 30
0.0
  0
VERTEX
  5
21F
  8
LAYER_1
 10
10.67221720559899
 20
9.18232323332469
 30
0.0
  0
VERTEX
  5
220
  8
LAYER_1
 10
10.67946067440408
 20
9.176550407548064
 30
0.0
  0
VERTEX
  5
221
  8
LAYER_1
 10
10.68334590892028
 20
9.173910749739704
 30
0.0
  0
VERTEX
  5
222
  8
LAYER_1
 10
10.68738512373154
 20
9.171531381318594
 30
0.0
  0
VERTEX
  5
223
  8
LAYER_1
 10
10.69156205400234
 20
9.16948414178519
 30
0.0
  0
VERTEX
  5
224
  8
LAYER_1
 10
10.69586043489716
 20
9.167840870639957
 30
0.0
  0
VERTEX
  5
225
  8
LAYER_1
 10
10.70026400158046
 20
9.166673407383346
 30
0.0
  0
VERTEX
  5
226
  8
LAYER_1
 10
10.70475648921673
 20
9.16605359151582
 30
0.0
  0
VERTEX
  5
227
  8
LAYER_1
 10
10.71015069999978
 20
9.165873858971949
 30
0.0
  0
VERTEX
  5
228
  8
LAYER_1
 10
10.71574245087895
 20
9.16611516931176
 30
0.0
  0
VERTEX
  5
229
  8
LAYER_1
 10
10.72137548768268
 20
9.166830382976759
 30
0.0
  0
VERTEX
  5
22A
  8
LAYER_1
 10
10.72689355623944
 20
9.168072360408447
 30
0.0
  0
VERTEX
  5
22B
  8
LAYER_1
 10
10.73214040237768
 20
9.169893962048327
 30
0.0
  0
VERTEX
  5
22C
  8
LAYER_1
 10
10.73695977192585
 20
9.172348048337906
 30
0.0
  0
VERTEX
  5
22D
  8
LAYER_1
 10
10.74119541071239
 20
9.175487479718687
 30
0.0
  0
VERTEX
  5
22E
  8
LAYER_1
 10
10.74469106456578
 20
9.179365116632168
 30
0.0
  0
VERTEX
  5
22F
  8
LAYER_1
 10
10.74647419394431
 20
9.18258521801322
 30
0.0
  0
VERTEX
  5
230
  8
LAYER_1
 10
10.74751894465058
 20
9.18611464731288
 30
0.0
  0
VERTEX
  5
231
  8
LAYER_1
 10
10.74793977325236
 20
9.189874440374554
 30
0.0
  0
VERTEX
  5
232
  8
LAYER_1
 10
10.74785113631741
 20
9.193785633041644
 30
0.0
  0
VERTEX
  5
233
  8
LAYER_1
 10
10.74660329210843
 20
9.201746360565668
 30
0.0
  0
VERTEX
  5
234
  8
LAYER_1
 10
10.74469106456578
 20
9.209365116632167
 30
0.0
  0
VERTEX
  5
235
  8
LAYER_1
 10
10.74321569119834
 20
9.214149155355866
 30
0.0
  0
VERTEX
  5
236
  8
LAYER_1
 10
10.74139327185857
 20
9.218839630647018
 30
0.0
  0
VERTEX
  5
237
  8
LAYER_1
 10
10.73925095429941
 20
9.22341847969264
 30
0.0
  0
VERTEX
  5
238
  8
LAYER_1
 10
10.7368158862738
 20
9.227867639679758
 30
0.0
  0
VERTEX
  5
239
  8
LAYER_1
 10
10.73117608983502
 20
9.236304641226546
 30
0.0
  0
VERTEX
  5
23A
  8
LAYER_1
 10
10.72469106456578
 20
9.244006132783545
 30
0.0
  0
VERTEX
  5
23B
  8
LAYER_1
 10
10.71680305553764
 20
9.251638608367784
 30
0.0
  0
VERTEX
  5
23C
  8
LAYER_1
 10
10.7125363552392
 20
9.255168558039653
 30
0.0
  0
VERTEX
  5
23D
  8
LAYER_1
 10
10.70807155613467
 20
9.258446088705067
 30
0.0
  0
VERTEX
  5
23E
  8
LAYER_1
 10
10.70342143201166
 20
9.26142503016931
 30
0.0
  0
VERTEX
  5
23F
  8
LAYER_1
 10
10.69859875665778
 20
9.26405921223766
 30
0.0
  0
VERTEX
  5
240
  8
LAYER_1
 10
10.69361630386064
 20
9.266302464715404
 30
0.0
  0
VERTEX
  5
241
  8
LAYER_1
 10
10.68848684740786
 20
9.268108617407826
 30
0.0
  0
VERTEX
  5
242
  8
LAYER_1
 10
10.67873574633006
 20
9.270768739669764
 30
0.0
  0
VERTEX
  5
243
  8
LAYER_1
 10
10.67361147924777
 20
9.27179312595861
 30
0.0
  0
VERTEX
  5
244
  8
LAYER_1
 10
10.66847234620331
 20
9.272422072633582
 30
0.0
  0
VERTEX
  5
245
  8
LAYER_1
 10
10.66343155599674
 20
9.272511837405332
 30
0.0
  0
VERTEX
  5
246
  8
LAYER_1
 10
10.65860231742813
 20
9.27191867798452
 30
0.0
  0
VERTEX
  5
247
  8
LAYER_1
 10
10.65409783929756
 20
9.270498852081799
 30
0.0
  0
SEQEND
  5
248
  8
LAYER_1
  0
POLYLINE
  5
52
  8
LAYER_1
 66
     1
 10
0.0
 20
0.0
 30
0.0
  0
VERTEX
  5
249
  8
LAYER_1
 10
8.269983071064821
 20
9.112557249977684
 30
0.0
  0
VERTEX
  5
24A
  8
LAYER_1
 10
8.298590190992025
 20
9.129250879308431
 30
0.0
  0
VERTEX
  5
24B
  8
LAYER_1
 10
8.327535343067595
 20
9.145043761615652
 30
0.0
  0
VERTEX
  5
24C
  8
LAYER_1
 10
8.356818580356045
 20
9.159935921019578
 30
0.0
  0
VERTEX
  5
24D
  8
LAYER_1
 10
8.386439955921887
 20
9.173927381640443
 30
0.0
  0
VERTEX
  5
24E
  8
LAYER_1
 10
8.416399522829632
 20
9.187018167598481
 30
0.0
  0
VERTEX
  5
24F
  8
LAYER_1
 10
8.446697334143801
 20
9.199208303013926
 30
0.0
  0
VERTEX
  5
250
  8
LAYER_1
 10
8.477333442928902
 20
9.21049781200701
 30
0.0
  0
VERTEX
  5
251
  8
LAYER_1
 10
8.508307902249445
 20
9.220886718697965
 30
0.0
  0
VERTEX
  5
252
  8
LAYER_1
 10
8.535600406258965
 20
9.229049659553366
 30
0.0
  0
VERTEX
  5
253
  8
LAYER_1
 10
8.563188982653838
 20
9.236275087743095
 30
0.0
  0
VERTEX
  5
254
  8
LAYER_1
 10
8.591024539347565
 20
9.242639407111504
 30
0.0
  0
VERTEX
  5
255
  8
LAYER_1
 10
8.619057984253642
 20
9.248219021502946
 30
0.0
  0
VERTEX
  5
256
  8
LAYER_1
 10
8.647240225285564
 20
9.253090334761772
 30
0.0
  0
VERTEX
  5
257
  8
LAYER_1
 10
8.675522170356828
 20
9.257329750732335
 30
0.0
  0
VERTEX
  5
258
  8
LAYER_1
 10
8.703854727380929
 20
9.261013673258988
 30
0.0
  0
VERTEX
  5
259
  8
LAYER_1
 10
8.732188804271367
 20
9.26421850618608
 30
0.0
  0
VERTEX
  5
25A
  8
LAYER_1
 10
8.770969853779143
 20
9.267906789416756
 30
0.0
  0
VERTEX
  5
25B
  8
LAYER_1
 10
8.809799012692755
 20
9.270837789984965
 30
0.0
  0
VERTEX
  5
25C
  8
LAYER_1
 10
8.848672312875019
 20
9.273089866904808
 30
0.0
  0
VERTEX
  5
25D
  8
LAYER_1
 10
8.887585786188737
 20
9.274741379190388
 30
0.0
  0
VERTEX
  5
25E
  8
LAYER_1
 10
8.926535464496716
 20
9.275870685855805
 30
0.0
  0
VERTEX
  5
25F
  8
LAYER_1
 10
8.965517379661765
 20
9.276556145915166
 30
0.0
  0
VERTEX
  5
260
  8
LAYER_1
 10
9.043562048014307
 20
9.276908962272124
 30
0.0
  0
VERTEX
  5
261
  8
LAYER_1
 10
9.121688046148819
 20
9.276426700374078
 30
0.0
  0
VERTEX
  5
262
  8
LAYER_1
 10
9.199863628967758
 20
9.275736232333847
 30
0.0
  0
VERTEX
  5
263
  8
LAYER_1
 10
9.27805705137359
 20
9.27546443026425
 30
0.0
  0
VERTEX
  5
264
  8
LAYER_1
 10
9.317150532078607
 20
9.275681426503699
 30
0.0
  0
VERTEX
  5
265
  8
LAYER_1
 10
9.356236568268768
 20
9.276238166278112
 30
0.0
  0
SEQEND
  5
266
  8
LAYER_1
  0
POLYLINE
  5
53
  8
LAYER_1
 66
     1
 10
0.0
 20
0.0
 30
0.0
  0
VERTEX
  5
267
  8
LAYER_1
 10
8.092864389707156
 20
9.094321789409765
 30
0.0
  0
VERTEX
  5
268
  8
LAYER_1
 10
8.090582572679988
 20
9.100303323348179
 30
0.0
  0
VERTEX
  5
269
  8
LAYER_1
 10
8.089406501916223
 20
9.106327950911316
 30
0.0
  0
VERTEX
  5
26A
  8
LAYER_1
 10
8.08927732162331
 20
9.112218576532046
 30
0.0
  0
VERTEX
  5
26B
  8
LAYER_1
 10
8.090136176008702
 20
9.117798104643235
 30
0.0
  0
VERTEX
  5
26C
  8
LAYER_1
 10
8.09192420927985
 20
9.122889439677756
 30
0.0
  0
VERTEX
  5
26D
  8
LAYER_1
 10
8.094582565644199
 20
9.127315486068477
 30
0.0
  0
VERTEX
  5
26E
  8
LAYER_1
 10
8.096219722551156
 20
9.129223683657685
 30
0.0
  0
VERTEX
  5
26F
  8
LAYER_1
 10
8.098052389309208
 20
9.130899148248272
 30
0.0
  0
VERTEX
  5
270
  8
LAYER_1
 10
8.100073208944288
 20
9.132319742894342
 30
0.0
  0
VERTEX
  5
271
  8
LAYER_1
 10
8.102274824482325
 20
9.133463330650006
 30
0.0
  0
VERTEX
  5
272
  8
LAYER_1
 10
8.127440995386742
 20
9.144316934638844
 30
0.0
  0
VERTEX
  5
273
  8
LAYER_1
 10
8.151780035720666
 20
9.154513704915773
 30
0.0
  0
VERTEX
  5
274
  8
LAYER_1
 10
8.17555724740815
 20
9.164063271459714
 30
0.0
  0
VERTEX
  5
275
  8
LAYER_1
 10
8.199037932373244
 20
9.172975264249585
 30
0.0
  0
VERTEX
  5
276
  8
LAYER_1
 10
8.222487392540003
 20
9.181259313264302
 30
0.0
  0
VERTEX
  5
277
  8
LAYER_1
 10
8.246170929832482
 20
9.188925048482783
 30
0.0
  0
VERTEX
  5
278
  8
LAYER_1
 10
8.270353846174734
 20
9.195982099883949
 30
0.0
  0
VERTEX
  5
279
  8
LAYER_1
 10
8.295301443490812
 20
9.202440097446715
 30
0.0
  0
VERTEX
  5
27A
  8
LAYER_1
 10
8.324270042264281
 20
9.209098258789842
 30
0.0
  0
VERTEX
  5
27B
  8
LAYER_1
 10
8.353256677422385
 20
9.215076432691678
 30
0.0
  0
VERTEX
  5
27C
  8
LAYER_1
 10
8.382265097738042
 20
9.22044138337999
 30
0.0
  0
VERTEX
  5
27D
  8
LAYER_1
 10
8.41129905198417
 20
9.225259875082543
 30
0.0
  0
VERTEX
  5
27E
  8
LAYER_1
 10
8.440362288933686
 20
9.229598672027095
 30
0.0
  0
VERTEX
  5
27F
  8
LAYER_1
 10
8.469458557359511
 20
9.233524538441415
 30
0.0
  0
VERTEX
  5
280
  8
LAYER_1
 10
8.527765183731756
 20
9.2404045365904
 30
0.0
  0
VERTEX
  5
281
  8
LAYER_1
 10
8.586248921284247
 20
9.246433983351611
 30
0.0
  0
VERTEX
  5
282
  8
LAYER_1
 10
8.644939760200328
 20
9.252146992547157
 30
0.0
  0
VERTEX
  5
283
  8
LAYER_1
 10
8.703867690663346
 20
9.258077677999143
 30
0.0
  0
VERTEX
  5
284
  8
LAYER_1
 10
8.763062702856647
 20
9.264760153529679
 30
0.0
  0
SEQEND
  5
285
  8
LAYER_1
  0
POLYLINE
  5
54
  8
LAYER_1
 66
     1
 10
0.0
 20
0.0
 30
0.0
  0
VERTEX
  5
286
  8
LAYER_1
 10
7.754375749073203
 20
9.15877856051648
 30
0.0
  0
VERTEX
  5
287
  8
LAYER_1
 10
7.767639389620872
 20
9.168577214935954
 30
0.0
  0
VERTEX
  5
288
  8
LAYER_1
 10
7.781134200680597
 20
9.17789765343312
 30
0.0
  0
VERTEX
  5
289
  8
LAYER_1
 10
7.794860207319754
 20
9.186739890480638
 30
0.0
  0
VERTEX
  5
28A
  8
LAYER_1
 10
7.80881743460572
 20
9.195103940551165
 30
0.0
  0
VERTEX
  5
28B
  8
LAYER_1
 10
7.823005907605869
 20
9.202989818117356
 30
0.0
  0
VERTEX
  5
28C
  8
LAYER_1
 10
7.837425651387578
 20
9.210397537651868
 30
0.0
  0
VERTEX
  5
28D
  8
LAYER_1
 10
7.852076691018222
 20
9.217327113627357
 30
0.0
  0
VERTEX
  5
28E
  8
LAYER_1
 10
7.86695905156518
 20
9.223778560516479
 30
0.0
  0
VERTEX
  5
28F
  8
LAYER_1
 10
7.880914212797697
 20
9.229289650991735
 30
0.0
  0
VERTEX
  5
290
  8
LAYER_1
 10
7.895073736984235
 20
9.234349267128984
 30
0.0
  0
VERTEX
  5
291
  8
LAYER_1
 10
7.909411689242333
 20
9.23895045969741
 30
0.0
  0
VERTEX
  5
292
  8
LAYER_1
 10
7.92390213468952
 20
9.243086279466201
 30
0.0
  0
VERTEX
  5
293
  8
LAYER_1
 10
7.938519138443334
 20
9.246749777204547
 30
0.0
  0
VERTEX
  5
294
  8
LAYER_1
 10
7.953236765621307
 20
9.249934003681634
 30
0.0
  0
VERTEX
  5
295
  8
LAYER_1
 10
7.968029081340974
 20
9.252632009666648
 30
0.0
  0
VERTEX
  5
296
  8
LAYER_1
 10
7.982870150719869
 20
9.254836845928779
 30
0.0
  0
VERTEX
  5
297
  8
LAYER_1
 10
7.997122851966088
 20
9.256484300937796
 30
0.0
  0
VERTEX
  5
298
  8
LAYER_1
 10
8.011403724946616
 20
9.257707078655603
 30
0.0
  0
VERTEX
  5
299
  8
LAYER_1
 10
8.02571022711135
 20
9.258549111215768
 30
0.0
  0
VERTEX
  5
29A
  8
LAYER_1
 10
8.040039815910193
 20
9.259054330751868
 30
0.0
  0
VERTEX
  5
29B
  8
LAYER_1
 10
8.068758083209792
 20
9.259230059286164
 30
0.0
  0
VERTEX
  5
29C
  8
LAYER_1
 10
8.097538186444602
 20
9.25858572132708
 30
0.0
  0
VERTEX
  5
29D
  8
LAYER_1
 10
8.155202539116644
 20
9.25624267420314
 30
0.0
  0
VERTEX
  5
29E
  8
LAYER_1
 10
8.184046107752263
 20
9.255246879175468
 30
0.0
  0
VERTEX
  5
29F
  8
LAYER_1
 10
8.21287015071987
 20
9.254836845928779
 30
0.0
  0
SEQEND
  5
2A0
  8
LAYER_1
  0
POLYLINE
  5
55
  8
LAYER_1
 66
     1
 10
0.0
 20
0.0
 30
0.0
  0
VERTEX
  5
2A1
  8
LAYER_1
 10
7.754375749073203
 20
9.15877856051648
 30
0.0
  0
VERTEX
  5
2A2
  8
LAYER_1
 10
7.874226538238937
 20
9.18523363802336
 30
0.0
  0
VERTEX
  5
2A3
  8
LAYER_1
 10
7.994144973174099
 20
9.210776705502212
 30
0.0
  0
VERTEX
  5
2A4
  8
LAYER_1
 10
8.103384134636517
 20
9.232991946756748
 30
0.0
  0
VERTEX
  5
2A5
  8
LAYER_1
 10
8.21287015071987
 20
9.254836845928779
 30
0.0
  0
SEQEND
  5
2A6
  8
LAYER_1
  0
POLYLINE
  5
56
  8
LAYER_1
 66
     1
 10
0.0
 20
0.0
 30
0.0
 70
     1
  0
VERTEX
  5
2A7
  8
LAYER_1
 10
6.982194051920357
 20
9.009449998867854
 30
0.0
  0
VERTEX
  5
2A8
  8
LAYER_1
 10
7.502148636069476
 20
9.0526156811706
 30
0.0
  0
VERTEX
  5
2A9
  8
LAYER_1
 10
8.26496864497481
 20
9.075184320487324
 30
0.0
  0
VERTEX
  5
2AA
  8
LAYER_1
 10
8.305592195744914
 20
8.980396035357078
 30
0.0
  0
VERTEX
  5
2AB
  8
LAYER_1
 10
8.305592195744914
 20
8.880396035357077
 30
0.0
  0
VERTEX
  5
2AC
  8
LAYER_1
 10
7.927866982060948
 20
8.866281773007127
 30
0.0
  0
VERTEX
  5
2AD
  8
LAYER_1
 10
7.553521422403993
 20
8.858525383046757
 30
0.0
  0
VERTEX
  5
2AE
  8
LAYER_1
 10
7.0
 20
8.826929288003342
 30
0.0
  0
VERTEX
  5
2AF
  8
LAYER_1
 10
6.974042476058091
 20
8.89463520595352
 30
0.0
  0
SEQEND
  5
2B0
  8
LAYER_1
  0
POLYLINE
  5
57
  8
LAYER_1
 66
     1
 10
0.0
 20
0.0
 30
0.0
  0
VERTEX
  5
2B1
  8
LAYER_1
 10
8.092864389707156
 20
9.094321789409765
 30
0.0
  0
VERTEX
  5
2B2
  8
LAYER_1
 10
8.106712164326344
 20
9.073653715368867
 30
0.0
  0
SEQEND
  5
2B3
  8
LAYER_1
  0
POLYLINE
  5
58
  8
LAYER_1
 66
     1
 10
0.0
 20
0.0
 30
0.0
  0
VERTEX
  5
2B4
  8
LAYER_1
 10
8.269983071064821
 20
9.112557249977684
 30
0.0
  0
VERTEX
  5
2B5
  8
LAYER_1
 10
8.25584093544109
 20
9.098415114353951
 30
0.0
  0
VERTEX
  5
2B6
  8
LAYER_1
 10
8.26496864497481
 20
9.075184320487324
 30
0.0
  0
SEQEND
  5
2B7
  8
LAYER_1
  0
POLYLINE
  5
59
  8
LAYER_1
 66
     1
 10
0.0
 20
0.0
 30
0.0
 70
     1
  0
VERTEX
  5
2B8
  8
LAYER_1
 10
7.708258169994942
 20
9.002290671288067
 30
0.0
  0
VERTEX
  5
2B9
  8
LAYER_1
 10
7.965022698905842
 20
9.00820690467311
 30
0.0
  0
VERTEX
  5
2BA
  8
LAYER_1
 10
7.966205945582851
 20
8.93247911734455
 30
0.0
  0
VERTEX
  5
2BB
  8
LAYER_1
 10
7.997564582430829
 20
8.887131246223905
 30
0.0
  0
VERTEX
  5
2BC
  8
LAYER_1
 10
7.718957539410071
 20
8.884660236598467
 30
0.0
  0
SEQEND
  5
2BD
  8
LAYER_1
  0
POLYLINE
  5
5A
  8
LAYER_1
 66
     1
 10
0.0
 20
0.0
 30
0.0
 70
     1
  0
VERTEX
  5
2BE
  8
LAYER_1
 10
7.382558429210684
 20
8.978141346139495
 30
0.0
  0
VERTEX
  5
2BF
  8
LAYER_1
 10
7.585842288246587
 20
8.985236204144211
 30
0.0
  0
VERTEX
  5
2C0
  8
LAYER_1
 10
7.597484095151728
 20
8.881078142166118
 30
0.0
  0
VERTEX
  5
2C1
  8
LAYER_1
 10
7.375816003077531
 20
8.880223061559683
 30
0.0
  0
VERTEX
  5
2C2
  8
LAYER_1
 10
7.386169411501358
 20
8.921636695254993
 30
0.0
  0
SEQEND
  5
2C3
  8
LAYER_1
  0
POLYLINE
  5
5B
  8
LAYER_1
 66
     1
 10
0.0
 20
0.0
 30
0.0
 70
     1
  0
VERTEX
  5
2C4
  8
LAYER_1
 10
7.104449158654303
 20
9.004626913276848
 30
0.0
 42
0.4142135623730951
  0
VERTEX
  5
2C5
  8
LAYER_1
 10
7.033892009087408
 20
8.91580541528371
 30
0.0
 42
0.4142135623730951
  0
VERTEX
  5
2C6
  8
LAYER_1
 10
7.110365392039347
 20
8.83749332014936
 30
0.0
 42
0.4142135623730951
  0
VERTEX
  5
2C7
  8
LAYER_1
 10
7.165158437318066
 20
8.91580541528371
 30
0.0
 42
0.4142135623730951
  0
SEQEND
  5
2C8
  8
LAYER_1
  0
POLYLINE
  5
5C
  8
LAYER_1
 66
     1
 10
0.0
 20
0.0
 30
0.0
 70
     1
  0
VERTEX
  5
2C9
  8
LAYER_1
 10
8.031968346200609
 20
9.051571508768284
 30
0.0
 42
0.4142135623730951
  0
VERTEX
  5
2CA
  8
LAYER_1
 10
7.963845557465712
 20
8.9727
 30
0.0
 42
0.4142135623730951
  0
VERTEX
  5
2CB
  8
LAYER_1
 10
8.0307850995236
 20
8.872901260539958
 30
0.0
 42
0.4142135623730951
  0
VERTEX
  5
2CC
  8
LAYER_1
 10
8.107696133529169
 20
8.965194501346645
 30
0.0
 42
0.4142135623730951
  0
SEQEND
  5
2CD
  8
LAYER_1
  0
POLYLINE
  5
5D
  8
LAYER_1
 66
     1
 10
0.0
 20
0.0
 30
0.0
  0
VERTEX
  5
2CE
  8
LAYER_1
 10
8.276572883320327
 20
9.04818712880694
 30
0.0
  0
VERTEX
  5
2CF
  8
LAYER_1
 10
8.26992189058023
 20
9.051622843914537
 30
0.0
  0
VERTEX
  5
2D0
  8
LAYER_1
 10
8.262931343353923
 20
9.054357712030626
 30
0.0
  0
VERTEX
  5
2D1
  8
LAYER_1
 10
8.255654299391795
 20
9.056360174215463
 30
0.0
  0
VERTEX
  5
2D2
  8
LAYER_1
 10
8.248143816444243
 20
9.057598671529295
 30
0.0
 42
0.4142135623730951
  0
VERTEX
  5
2D3
  8
LAYER_1
 10
8.1683
 20
8.9669
 30
0.0
 42
0.4142135623730951
  0
VERTEX
  5
2D4
  8
LAYER_1
 10
8.250037011127457
 20
8.877745176623964
 30
0.0
  0
VERTEX
  5
2D5
  8
LAYER_1
 10
8.25520895385862
 20
8.878837133156328
 30
0.0
  0
VERTEX
  5
2D6
  8
LAYER_1
 10
8.260209582558343
 20
8.880290469559318
 30
0.0
  0
VERTEX
  5
2D7
  8
LAYER_1
 10
8.265027362878175
 20
8.882088845505969
 30
0.0
  0
VERTEX
  5
2D8
  8
LAYER_1
 10
8.269650760469666
 20
8.884215920669309
 30
0.0
  0
VERTEX
  5
2D9
  8
LAYER_1
 10
8.274068240984366
 20
8.886655354722368
 30
0.0
  0
VERTEX
  5
2DA
  8
LAYER_1
 10
8.278268270073827
 20
8.88939080733817
 30
0.0
  0
VERTEX
  5
2DB
  8
LAYER_1
 10
8.2822393133896
 20
8.89240593818975
 30
0.0
  0
VERTEX
  5
2DC
  8
LAYER_1
 10
8.285969836583227
 20
8.895684406950135
 30
0.0
  0
VERTEX
  5
2DD
  8
LAYER_1
 10
8.289448305306266
 20
8.899209873292355
 30
0.0
  0
VERTEX
  5
2DE
  8
LAYER_1
 10
8.292663185210264
 20
8.902965996889439
 30
0.0
  0
VERTEX
  5
2DF
  8
LAYER_1
 10
8.295602941946772
 20
8.906936437414416
 30
0.0
  0
VERTEX
  5
2E0
  8
LAYER_1
 10
8.29825604116734
 20
8.911104854540314
 30
0.0
  0
VERTEX
  5
2E1
  8
LAYER_1
 10
8.300610948523516
 20
8.915454907940166
 30
0.0
  0
VERTEX
  5
2E2
  8
LAYER_1
 10
8.302656129666856
 20
8.919970257286995
 30
0.0
  0
VERTEX
  5
2E3
  8
LAYER_1
 10
8.304380050248906
 20
8.924634562253836
 30
0.0
  0
VERTEX
  5
2E4
  8
LAYER_1
 10
8.305771175921212
 20
8.929431482513719
 30
0.0
  0
SEQEND
  5
2E5
  8
LAYER_1
  0
POLYLINE
  5
5E
  8
LAYER_1
 66
     1
 10
0.0
 20
0.0
 30
0.0
  0
VERTEX
  5
2E6
  8
LAYER_1
 10
7.383105895639684
 20
8.971803798569148
 30
0.0
  0
VERTEX
  5
2E7
  8
LAYER_1
 10
7.380323064771959
 20
8.976563324661523
 30
0.0
  0
VERTEX
  5
2E8
  8
LAYER_1
 10
7.377240281728749
 20
8.981109202075242
 30
0.0
  0
VERTEX
  5
2E9
  8
LAYER_1
 10
7.373871678044525
 20
8.985428540855647
 30
0.0
  0
VERTEX
  5
2EA
  8
LAYER_1
 10
7.370231385253753
 20
8.989508451048078
 30
0.0
  0
VERTEX
  5
2EB
  8
LAYER_1
 10
7.3663335348909
 20
8.99333604269788
 30
0.0
  0
VERTEX
  5
2EC
  8
LAYER_1
 10
7.362192258490436
 20
8.996898425850395
 30
0.0
  0
VERTEX
  5
2ED
  8
LAYER_1
 10
7.357821687586825
 20
9.000182710550964
 30
0.0
  0
VERTEX
  5
2EE
  8
LAYER_1
 10
7.353235953714538
 20
9.003176006844928
 30
0.0
  0
VERTEX
  5
2EF
  8
LAYER_1
 10
7.348449188408042
 20
9.005865424777632
 30
0.0
  0
VERTEX
  5
2F0
  8
LAYER_1
 10
7.343475523201805
 20
9.008238074394418
 30
0.0
  0
VERTEX
  5
2F1
  8
LAYER_1
 10
7.338329089630294
 20
9.010281065740628
 30
0.0
  0
VERTEX
  5
2F2
  8
LAYER_1
 10
7.333024019227977
 20
9.011981508861602
 30
0.0
  0
VERTEX
  5
2F3
  8
LAYER_1
 10
7.32757444352932
 20
9.013326513802685
 30
0.0
  0
VERTEX
  5
2F4
  8
LAYER_1
 10
7.321994494068794
 20
9.014303190609217
 30
0.0
  0
VERTEX
  5
2F5
  8
LAYER_1
 10
7.316298302380865
 20
9.014898649326542
 30
0.0
  0
VERTEX
  5
2F6
  8
LAYER_1
 10
7.310500000000001
 20
9.0151
 30
0.0
 42
0.4142135623730951
  0
VERTEX
  5
2F7
  8
LAYER_1
 10
7.24025614579112
 20
8.925472540634875
 30
0.0
 42
0.4142135623730951
  0
VERTEX
  5
2F8
  8
LAYER_1
 10
7.310500000000001
 20
8.850100000000001
 30
0.0
  0
VERTEX
  5
2F9
  8
LAYER_1
 10
7.320515095933612
 20
8.850701741362423
 30
0.0
  0
VERTEX
  5
2FA
  8
LAYER_1
 10
7.330173699330947
 20
8.852460327053542
 30
0.0
  0
VERTEX
  5
2FB
  8
LAYER_1
 10
7.339405852597783
 20
8.855305799479135
 30
0.0
  0
VERTEX
  5
2FC
  8
LAYER_1
 10
7.348141598139896
 20
8.859168201044977
 30
0.0
  0
VERTEX
  5
2FD
  8
LAYER_1
 10
7.356310978363064
 20
8.863977574156845
 30
0.0
  0
VERTEX
  5
2FE
  8
LAYER_1
 10
7.363844035673063
 20
8.869663961220517
 30
0.0
  0
VERTEX
  5
2FF
  8
LAYER_1
 10
7.37067081247567
 20
8.87615740464177
 30
0.0
  0
VERTEX
  5
300
  8
LAYER_1
 10
7.376721351176663
 20
8.883387946826383
 30
0.0
  0
SEQEND
  5
301
  8
LAYER_1
  0
POLYLINE
  5
5F
  8
LAYER_1
 66
     1
 10
0.0
 20
0.0
 30
0.0
 70
     1
  0
VERTEX
  5
302
  8
LAYER_1
 10
8.118255547048287
 20
8.754541834967949
 30
0.0
  0
VERTEX
  5
303
  8
LAYER_1
 10
8.122952080890098
 20
8.682055879210488
 30
0.0
  0
VERTEX
  5
304
  8
LAYER_1
 10
8.441874036802613
 20
8.684366907876521
 30
0.0
  0
VERTEX
  5
305
  8
LAYER_1
 10
8.44413745155854
 20
8.751134417596855
 30
0.0
  0
SEQEND
  5
306
  8
LAYER_1
  0
POLYLINE
  5
60
  8
LAYER_1
 66
     1
 10
0.0
 20
0.0
 30
0.0
  0
VERTEX
  5
307
  8
LAYER_1
 10
7.077831344345928
 20
8.670641022542322
 30
0.0
  0
VERTEX
  5
308
  8
LAYER_1
 10
7.451293576776814
 20
8.685431606004931
 30
0.0
  0
VERTEX
  5
309
  8
LAYER_1
 10
7.440662844913065
 20
8.76296661775033
 30
0.0
  0
VERTEX
  5
30A
  8
LAYER_1
 10
7.736474514165254
 20
8.761117794817503
 30
0.0
  0
VERTEX
  5
30B
  8
LAYER_1
 10
7.769291121222917
 20
8.69467572066906
 30
0.0
  0
VERTEX
  5
30C
  8
LAYER_1
 10
8.12056747845989
 20
8.698373366534716
 30
0.0
  0
SEQEND
  5
30D
  8
LAYER_1
  0
POLYLINE
  5
61
  8
LAYER_1
 66
     1
 10
0.0
 20
0.0
 30
0.0
  0
VERTEX
  5
30E
  8
LAYER_1
 10
8.44413745155854
 20
8.751134417596855
 30
0.0
  0
VERTEX
  5
30F
  8
LAYER_1
 10
8.60495908686035
 20
8.770477460914933
 30
0.0
  0
SEQEND
  5
310
  8
LAYER_1
  0
POLYLINE
  5
62
  8
LAYER_1
 66
     1
 10
0.0
 20
0.0
 30
0.0
  0
VERTEX
  5
311
  8
LAYER_1
 10
8.239127602873035
 20
9.309004282005755
 30
0.0
  0
VERTEX
  5
312
  8
LAYER_1
 10
8.624197438467135
 20
9.31882587547761
 30
0.0
  0
VERTEX
  5
313
  8
LAYER_1
 10
9.159302444797309
 20
9.331331128912957
 30
0.0
  0
SEQEND
  5
314
  8
LAYER_1
  0
POLYLINE
  5
63
  8
LAYER_1
 66
     1
 10
0.0
 20
0.0
 30
0.0
  0
VERTEX
  5
315
  8
LAYER_1
 10
7.484117524003491
 20
8.720984549156917
 30
0.0
  0
VERTEX
  5
316
  8
LAYER_1
 10
7.507227810663817
 20
8.58232282919495
 30
0.0
  0
VERTEX
  5
317
  8
LAYER_1
 10
7.817227810663818
 20
8.58232282919495
 30
0.0
  0
VERTEX
  5
318
  8
LAYER_1
 10
7.786169525251514
 20
8.698233928349639
 30
0.0
  0
SEQEND
  5
319
  8
LAYER_1
  0
POLYLINE
  5
64
  8
LAYER_1
 66
     1
 10
0.0
 20
0.0
 30
0.0
  0
VERTEX
  5
31A
  8
LAYER_1
 10
7.484117524003491
 20
8.720984549156917
 30
0.0
  0
VERTEX
  5
31B
  8
LAYER_1
 10
7.752882817694086
 20
8.727896757743283
 30
0.0
  0
SEQEND
  5
31C
  8
LAYER_1
  0
POLYLINE
  5
65
  8
LAYER_1
 66
     1
 10
0.0
 20
0.0
 30
0.0
  0
VERTEX
  5
31D
  8
LAYER_1
 10
8.668136133440804
 20
8.923041218616657
 30
0.0
  0
VERTEX
  5
31E
  8
LAYER_1
 10
8.683183710725427
 20
8.930441761367089
 30
0.0
  0
VERTEX
  5
31F
  8
LAYER_1
 10
8.698674770819391
 20
8.937046301846792
 30
0.0
  0
VERTEX
  5
320
  8
LAYER_1
 10
8.714582879130301
 20
8.942828435723177
 30
0.0
  0
VERTEX
  5
321
  8
LAYER_1
 10
8.73088160106576
 20
8.947761758663654
 30
0.0
  0
VERTEX
  5
322
  8
LAYER_1
 10
8.747544502033374
 20
8.951819866335633
 30
0.0
  0
VERTEX
  5
323
  8
LAYER_1
 10
8.764545147440748
 20
8.954976354406526
 30
0.0
  0
VERTEX
  5
324
  8
LAYER_1
 10
8.781857102695483
 20
8.95720481854374
 30
0.0
  0
VERTEX
  5
325
  8
LAYER_1
 10
8.799453933205186
 20
8.958478854414686
 30
0.0
 42
-0.4142135623730951
  0
VERTEX
  5
326
  8
LAYER_1
 10
9.099887659789442
 20
8.639556898502168
 30
0.0
  0
VERTEX
  5
327
  8
LAYER_1
 10
9.100375444237644
 20
8.625314268148145
 30
0.0
  0
VERTEX
  5
328
  8
LAYER_1
 10
9.100240614822647
 20
8.61119657314212
 30
0.0
  0
VERTEX
  5
329
  8
LAYER_1
 10
9.099495538211546
 20
8.597217564549265
 30
0.0
  0
VERTEX
  5
32A
  8
LAYER_1
 10
9.098152581071432
 20
8.583390993434753
 30
0.0
  0
VERTEX
  5
32B
  8
LAYER_1
 10
9.096224110069402
 20
8.569730610863763
 30
0.0
  0
VERTEX
  5
32C
  8
LAYER_1
 10
9.093722491872553
 20
8.55625016790147
 30
0.0
  0
VERTEX
  5
32D
  8
LAYER_1
 10
9.090660093147978
 20
8.542963415613048
 30
0.0
  0
VERTEX
  5
32E
  8
LAYER_1
 10
9.08704928056277
 20
8.529884105063674
 30
0.0
  0
VERTEX
  5
32F
  8
LAYER_1
 10
9.082902420784027
 20
8.517025987318522
 30
0.0
  0
VERTEX
  5
330
  8
LAYER_1
 10
9.078231880478842
 20
8.504402813442772
 30
0.0
  0
VERTEX
  5
331
  8
LAYER_1
 10
9.073050026314311
 20
8.492028334501592
 30
0.0
  0
VERTEX
  5
332
  8
LAYER_1
 10
9.067369224957528
 20
8.479916301560163
 30
0.0
  0
VERTEX
  5
333
  8
LAYER_1
 10
9.061201843075585
 20
8.46808046568366
 30
0.0
  0
VERTEX
  5
334
  8
LAYER_1
 10
9.054560247335582
 20
8.456534577937255
 30
0.0
  0
VERTEX
  5
335
  8
LAYER_1
 10
9.04745680440461
 20
8.445292389386129
 30
0.0
  0
VERTEX
  5
336
  8
LAYER_1
 10
9.039903880949765
 20
8.434367651095453
 30
0.0
  0
VERTEX
  5
337
  8
LAYER_1
 10
9.031913843638144
 20
8.423774114130405
 30
0.0
  0
VERTEX
  5
338
  8
LAYER_1
 10
9.023499059136839
 20
8.413525529556157
 30
0.0
  0
VERTEX
  5
339
  8
LAYER_1
 10
9.014671894112944
 20
8.403635648437888
 30
0.0
  0
VERTEX
  5
33A
  8
LAYER_1
 10
9.005444715233555
 20
8.394118221840774
 30
0.0
  0
VERTEX
  5
33B
  8
LAYER_1
 10
8.995829889165769
 20
8.384987000829991
 30
0.0
  0
VERTEX
  5
33C
  8
LAYER_1
 10
8.985839782576678
 20
8.376255736470709
 30
0.0
  0
VERTEX
  5
33D
  8
LAYER_1
 10
8.975486762133377
 20
8.367938179828109
 30
0.0
  0
VERTEX
  5
33E
  8
LAYER_1
 10
8.964783194502962
 20
8.360048081967362
 30
0.0
  0
VERTEX
  5
33F
  8
LAYER_1
 10
8.953741446352526
 20
8.352599193953647
 30
0.0
  0
VERTEX
  5
340
  8
LAYER_1
 10
8.942373884349168
 20
8.345605266852138
 30
0.0
  0
VERTEX
  5
341
  8
LAYER_1
 10
8.930692875159979
 20
8.339080051728011
 30
0.0
  0
VERTEX
  5
342
  8
LAYER_1
 10
8.918710785452053
 20
8.333037299646442
 30
0.0
  0
VERTEX
  5
343
  8
LAYER_1
 10
8.906439981892486
 20
8.327490761672607
 30
0.0
  0
VERTEX
  5
344
  8
LAYER_1
 10
8.893892831148374
 20
8.322454188871678
 30
0.0
  0
VERTEX
  5
345
  8
LAYER_1
 10
8.881081699886813
 20
8.317941332308834
 30
0.0
  0
VERTEX
  5
346
  8
LAYER_1
 10
8.868018954774893
 20
8.31396594304925
 30
0.0
  0
VERTEX
  5
347
  8
LAYER_1
 10
8.72824513060231
 20
8.314016642394957
 30
0.0
  0
VERTEX
  5
348
  8
LAYER_1
 10
8.715835396527556
 20
8.317828298299665
 30
0.0
  0
VERTEX
  5
349
  8
LAYER_1
 10
8.703658904005959
 20
8.322133748387799
 30
0.0
  0
VERTEX
  5
34A
  8
LAYER_1
 10
8.69172655896272
 20
8.326920706525058
 30
0.0
  0
VERTEX
  5
34B
  8
LAYER_1
 10
8.680049267323046
 20
8.332176886577143
 30
0.0
  0
VERTEX
  5
34C
  8
LAYER_1
 10
8.668637935012136
 20
8.337890002409747
 30
0.0
  0
VERTEX
  5
34D
  8
LAYER_1
 10
8.657503467955188
 20
8.344047767888574
 30
0.0
  0
VERTEX
  5
34E
  8
LAYER_1
 10
8.646656772077408
 20
8.350637896879318
 30
0.0
  0
VERTEX
  5
34F
  8
LAYER_1
 10
8.636108753303994
 20
8.357648103247675
 30
0.0
  0
VERTEX
  5
350
  8
LAYER_1
 10
8.625870317560146
 20
8.365066100859343
 30
0.0
  0
VERTEX
  5
351
  8
LAYER_1
 10
8.615952370771069
 20
8.372879603580023
 30
0.0
  0
VERTEX
  5
352
  8
LAYER_1
 10
8.606365818861962
 20
8.381076325275409
 30
0.0
  0
VERTEX
  5
353
  8
LAYER_1
 10
8.597121567758027
 20
8.389643979811195
 30
0.0
  0
VERTEX
  5
354
  8
LAYER_1
 10
8.588230523384466
 20
8.398570281053086
 30
0.0
  0
VERTEX
  5
355
  8
LAYER_1
 10
8.57970359166648
 20
8.407842942866775
 30
0.0
  0
VERTEX
  5
356
  8
LAYER_1
 10
8.57155167852927
 20
8.417449679117963
 30
0.0
  0
VERTEX
  5
357
  8
LAYER_1
 10
8.563785689898037
 20
8.427378203672347
 30
0.0
  0
VERTEX
  5
358
  8
LAYER_1
 10
8.556416531697982
 20
8.437616230395623
 30
0.0
  0
VERTEX
  5
359
  8
LAYER_1
 10
8.549455109854307
 20
8.448151473153487
 30
0.0
  0
VERTEX
  5
35A
  8
LAYER_1
 10
8.54291233029221
 20
8.458971645811639
 30
0.0
  0
VERTEX
  5
35B
  8
LAYER_1
 10
8.5367990989369
 20
8.470064462235772
 30
0.0
  0
VERTEX
  5
35C
  8
LAYER_1
 10
8.531126321713572
 20
8.481417636291589
 30
0.0
  0
VERTEX
  5
35D
  8
LAYER_1
 10
8.525904904547428
 20
8.493018881844785
 30
0.0
  0
VERTEX
  5
35E
  8
LAYER_1
 10
8.521145753363669
 20
8.504855912761059
 30
0.0
  0
VERTEX
  5
35F
  8
LAYER_1
 10
8.5168597740875
 20
8.516916442906108
 30
0.0
  0
VERTEX
  5
360
  8
LAYER_1
 10
8.513057872644119
 20
8.52918818614563
 30
0.0
  0
VERTEX
  5
361
  8
LAYER_1
 10
8.509750954958726
 20
8.541658856345322
 30
0.0
  0
VERTEX
  5
362
  8
LAYER_1
 10
8.506949926956526
 20
8.554316167370878
 30
0.0
  0
VERTEX
  5
363
  8
LAYER_1
 10
8.504665694562718
 20
8.567147833088002
 30
0.0
  0
VERTEX
  5
364
  8
LAYER_1
 10
8.502909163702505
 20
8.58014156736239
 30
0.0
  0
VERTEX
  5
365
  8
LAYER_1
 10
8.501691240301085
 20
8.593285084059733
 30
0.0
  0
VERTEX
  5
366
  8
LAYER_1
 10
8.501022830283661
 20
8.606566097045736
 30
0.0
  0
VERTEX
  5
367
  8
LAYER_1
 10
8.500914839575438
 20
8.619972320186093
 30
0.0
  0
SEQEND
  5
368
  8
LAYER_1
  0
POLYLINE
  5
66
  8
LAYER_1
 66
     1
 10
0.0
 20
0.0
 30
0.0
  0
VERTEX
  5
369
  8
LAYER_1
 10
7.303422525785138
 20
8.490917312274604
 30
0.0
  0
VERTEX
  5
36A
  8
LAYER_1
 10
7.309627627382319
 20
8.472886850250749
 30
0.0
  0
VERTEX
  5
36B
  8
LAYER_1
 10
7.316668133717734
 20
8.455499149524908
 30
0.0
  0
VERTEX
  5
36C
  8
LAYER_1
 10
7.324523169173982
 20
8.438771564570375
 30
0.0
  0
VERTEX
  5
36D
  8
LAYER_1
 10
7.333171858133663
 20
8.422721449860441
 30
0.0
  0
VERTEX
  5
36E
  8
LAYER_1
 10
7.342593324979378
 20
8.407366159868397
 30
0.0
  0
VERTEX
  5
36F
  8
LAYER_1
 10
7.35276669409373
 20
8.39272304906753
 30
0.0
  0
VERTEX
  5
370
  8
LAYER_1
 10
7.363671089859317
 20
8.378809471931135
 30
0.0
  0
VERTEX
  5
371
  8
LAYER_1
 10
7.37528563665874
 20
8.365642782932497
 30
0.0
  0
VERTEX
  5
372
  8
LAYER_1
 10
7.387589458874599
 20
8.35324033654491
 30
0.0
  0
VERTEX
  5
373
  8
LAYER_1
 10
7.400561680889497
 20
8.341619487241667
 30
0.0
  0
VERTEX
  5
374
  8
LAYER_1
 10
7.414181427086033
 20
8.330797589496054
 30
0.0
  0
VERTEX
  5
375
  8
LAYER_1
 10
7.428427821846809
 20
8.320791997781367
 30
0.0
  0
VERTEX
  5
376
  8
LAYER_1
 10
7.443279989554425
 20
8.311620066570892
 30
0.0
  0
VERTEX
  5
377
  8
LAYER_1
 10
7.458717054591479
 20
8.303299150337919
 30
0.0
  0
VERTEX
  5
378
  8
LAYER_1
 10
7.474718141340574
 20
8.295846603555741
 30
0.0
  0
VERTEX
  5
379
  8
LAYER_1
 10
7.491262374184313
 20
8.289279780697651
 30
0.0
  0
VERTEX
  5
37A
  8
LAYER_1
 10
7.735498413752326
 20
8.289295329106523
 30
0.0
  0
VERTEX
  5
37B
  8
LAYER_1
 10
7.753720247631321
 20
8.296128729912631
 30
0.0
  0
VERTEX
  5
37C
  8
LAYER_1
 10
7.7713980488456
 20
8.303909987690433
 30
0.0
  0
VERTEX
  5
37D
  8
LAYER_1
 10
7.788492355891871
 20
8.312618743890678
 30
0.0
  0
VERTEX
  5
37E
  8
LAYER_1
 10
7.804963707266842
 20
8.322234639964122
 30
0.0
  0
VERTEX
  5
37F
  8
LAYER_1
 10
7.820772641467219
 20
8.332737317361516
 30
0.0
  0
VERTEX
  5
380
  8
LAYER_1
 10
7.835879696989711
 20
8.344106417533611
 30
0.0
  0
VERTEX
  5
381
  8
LAYER_1
 10
7.850245412331022
 20
8.356321581931159
 30
0.0
  0
VERTEX
  5
382
  8
LAYER_1
 10
7.863830325987859
 20
8.369362452004914
 30
0.0
  0
VERTEX
  5
383
  8
LAYER_1
 10
7.876594976456931
 20
8.383208669205628
 30
0.0
  0
VERTEX
  5
384
  8
LAYER_1
 10
7.888499902234946
 20
8.39783987498405
 30
0.0
  0
VERTEX
  5
385
  8
LAYER_1
 10
7.899505641818607
 20
8.413235710790936
 30
0.0
  0
VERTEX
  5
386
  8
LAYER_1
 10
7.904658985067776
 20
8.421214002908412
 30
0.0
  0
VERTEX
  5
387
  8
LAYER_1
 10
7.909572733704623
 20
8.429375818077036
 30
0.0
  0
VERTEX
  5
388
  8
LAYER_1
 10
7.914241955041236
 20
8.43771861147815
 30
0.0
  0
VERTEX
  5
389
  8
LAYER_1
 10
7.918661716389702
 20
8.446239838293103
 30
0.0
  0
VERTEX
  5
38A
  8
LAYER_1
 10
7.922827085062111
 20
8.454936953703234
 30
0.0
  0
VERTEX
  5
38B
  8
LAYER_1
 10
7.926733128370549
 20
8.463807412889889
 30
0.0
  0
VERTEX
  5
38C
  8
LAYER_1
 10
7.930374913627108
 20
8.472848671034411
 30
0.0
  0
VERTEX
  5
38D
  8
LAYER_1
 10
7.933747508143873
 20
8.482058183318145
 30
0.0
  0
VERTEX
  5
38E
  8
LAYER_1
 10
7.936845979232935
 20
8.491433404922436
 30
0.0
  0
VERTEX
  5
38F
  8
LAYER_1
 10
7.939665394206379
 20
8.500971791028626
 30
0.0
  0
SEQEND
  5
390
  8
LAYER_1
  0
POLYLINE
  5
67
  8
LAYER_1
 66
     1
 10
0.0
 20
0.0
 30
0.0
 70
     1
  0
VERTEX
  5
391
  8
LAYER_1
 10
8.7902
 20
8.8613
 30
0.0
 42
0.4142135623730951
  0
VERTEX
  5
392
  8
LAYER_1
 10
8.60626313076995
 20
8.649582068635768
 30
0.0
 42
0.4142135623730951
  0
VERTEX
  5
393
  8
LAYER_1
 10
8.812089121338492
 20
8.407646255160465
 30
0.0
 42
0.4142135623730951
  0
VERTEX
  5
394
  8
LAYER_1
 10
9.0027
 20
8.6488
 30
0.0
 42
0.4142135623730951
  0
SEQEND
  5
395
  8
LAYER_1
  0
POLYLINE
  5
68
  8
LAYER_1
 66
     1
 10
0.0
 20
0.0
 30
0.0
 70
     1
  0
VERTEX
  5
396
  8
LAYER_1
 10
8.770860731034693
 20
8.779611735431875
 30
0.0
 42
0.4142135623730951
  0
VERTEX
  5
397
  8
LAYER_1
 10
8.64237295367671
 20
8.635138139473064
 30
0.0
 42
0.4142135623730951
  0
VERTEX
  5
398
  8
LAYER_1
 10
8.78320126301308
 20
8.49792081242737
 30
0.0
 42
0.4142135623730951
  0
VERTEX
  5
399
  8
LAYER_1
 10
8.896811793333477
 20
8.647189792868197
 30
0.0
 42
0.4142135623730951
  0
SEQEND
  5
39A
  8
LAYER_1
  0
POLYLINE
  5
69
  8
LAYER_1
 66
     1
 10
0.0
 20
0.0
 30
0.0
  0
VERTEX
  5
39B
  8
LAYER_1
 10
8.653581999883244
 20
8.69703607249993
 30
0.0
  0
VERTEX
  5
39C
  8
LAYER_1
 10
8.721841898779983
 20
8.636292050033077
 30
0.0
  0
VERTEX
  5
39D
  8
LAYER_1
 10
8.657995863356355
 20
8.573610135199065
 30
0.0
  0
SEQEND
  5
39E
  8
LAYER_1
  0
POLYLINE
  5
6A
  8
LAYER_1
 66
     1
 10
0.0
 20
0.0
 30
0.0
  0
VERTEX
  5
39F
  8
LAYER_1
 10
8.823529954312601
 20
8.510491599987919
 30
0.0
  0
VERTEX
  5
3A0
  8
LAYER_1
 10
8.818392557269338
 20
8.60862311549058
 30
0.0
  0
VERTEX
  5
3A1
  8
LAYER_1
 10
8.897758819850246
 20
8.625880064984145
 30
0.0
  0
SEQEND
  5
3A2
  8
LAYER_1
  0
POLYLINE
  5
6B
  8
LAYER_1
 66
     1
 10
0.0
 20
0.0
 30
0.0
  0
VERTEX
  5
3A3
  8
LAYER_1
 10
8.783593054591618
 20
8.498000545757797
 30
0.0
  0
VERTEX
  5
3A4
  8
LAYER_1
 10
8.75775116507264
 20
8.602706882105537
 30
0.0
  0
VERTEX
  5
3A5
  8
LAYER_1
 10
8.681904128664911
 20
8.54722786574302
 30
0.0
  0
SEQEND
  5
3A6
  8
LAYER_1
  0
POLYLINE
  5
6C
  8
LAYER_1
 66
     1
 10
0.0
 20
0.0
 30
0.0
 70
     1
  0
VERTEX
  5
3A7
  8
LAYER_1
 10
10.51999461319027
 20
8.814088321656186
 30
0.0
 42
0.3719693523611106
  0
VERTEX
  5
3A8
  8
LAYER_1
 10
10.4517699486949
 20
8.768625725885578
 30
0.0
 42
0.1315562527695607
  0
VERTEX
  5
3A9
  8
LAYER_1
 10
10.4238558206833
 20
8.629206028373567
 30
0.0
 42
0.0659752729584695
  0
VERTEX
  5
3AA
  8
LAYER_1
 10
10.44113653753356
 20
8.506184194908982
 30
0.0
 42
0.3335650174897238
  0
VERTEX
  5
3AB
  8
LAYER_1
 10
10.52433356951074
 20
8.436853334928
 30
0.0
 42
0.3420167558746903
  0
VERTEX
  5
3AC
  8
LAYER_1
 10
10.62842230062886
 20
8.626183896186998
 30
0.0
 42
0.1599543998308075
  0
VERTEX
  5
3AD
  8
LAYER_1
 10
10.57919923886529
 20
8.787105444260188
 30
0.0
 42
0.1147723312357638
  0
SEQEND
  5
3AE
  8
LAYER_1
  0
POLYLINE
  5
6D
  8
LAYER_1
 66
     1
 10
0.0
 20
0.0
 30
0.0
  0
VERTEX
  5
3AF
  8
LAYER_1
 10
10.56823403261338
 20
8.324296783909082
 30
0.0
  0
VERTEX
  5
3B0
  8
LAYER_1
 10
10.55560268436512
 20
8.323572180699031
 30
0.0
  0
VERTEX
  5
3B1
  8
LAYER_1
 10
10.54299200364097
 20
8.322961951702517
 30
0.0
  0
VERTEX
  5
3B2
  8
LAYER_1
 10
10.53045663499078
 20
8.323081340864803
 30
0.0
  0
VERTEX
  5
3B3
  8
LAYER_1
 10
10.52423426911526
 20
8.323606905988388
 30
0.0
  0
VERTEX
  5
3B4
  8
LAYER_1
 10
10.51805122296442
 20
8.324545592131145
 30
0.0
  0
VERTEX
  5
3B5
  8
LAYER_1
 10
10.5080224214599
 20
8.326550095650244
 30
0.0
  0
VERTEX
  5
3B6
  8
LAYER_1
 10
10.49792924519858
 20
8.32884540597093
 30
0.0
  0
VERTEX
  5
3B7
  8
LAYER_1
 10
10.48788816493639
 20
8.331531477463527
 30
0.0
  0
VERTEX
  5
3B8
  8
LAYER_1
 10
10.47801565142925
 20
8.334708264498365
 30
0.0
  0
VERTEX
  5
3B9
  8
LAYER_1
 10
10.46842817543308
 20
8.338475721445779
 30
0.0
  0
VERTEX
  5
3BA
  8
LAYER_1
 10
10.4592422077038
 20
8.3429338026761
 30
0.0
  0
VERTEX
  5
3BB
  8
LAYER_1
 10
10.45057421899735
 20
8.34818246255966
 30
0.0
  0
VERTEX
  5
3BC
  8
LAYER_1
 10
10.44254068006963
 20
8.354321655466784
 30
0.0
  0
VERTEX
  5
3BD
  8
LAYER_1
 10
10.43656484265751
 20
8.359795093641562
 30
0.0
  0
VERTEX
  5
3BE
  8
LAYER_1
 10
10.43092235107534
 20
8.365598999589833
 30
0.0
  0
VERTEX
  5
3BF
  8
LAYER_1
 10
10.42559644085705
 20
8.371707216452448
 30
0.0
  0
VERTEX
  5
3C0
  8
LAYER_1
 10
10.42057034753657
 20
8.378093587370255
 30
0.0
  0
VERTEX
  5
3C1
  8
LAYER_1
 10
10.41582730664782
 20
8.384731955484106
 30
0.0
  0
VERTEX
  5
3C2
  8
LAYER_1
 10
10.41135055372473
 20
8.391596163934857
 30
0.0
  0
VERTEX
  5
3C3
  8
LAYER_1
 10
10.40312885391126
 20
8.405897474410443
 30
0.0
  0
VERTEX
  5
3C4
  8
LAYER_1
 10
10.39577113236759
 20
8.420788263923821
 30
0.0
  0
VERTEX
  5
3C5
  8
LAYER_1
 10
10.38914327336515
 20
8.436059277601794
 30
0.0
  0
VERTEX
  5
3C6
  8
LAYER_1
 10
10.38311116117535
 20
8.451501260571174
 30
0.0
  0
VERTEX
  5
3C7
  8
LAYER_1
 10
10.37754068006963
 20
8.46690495795876
 30
0.0
  0
VERTEX
  5
3C8
  8
LAYER_1
 10
10.37249952017848
 20
8.483037533666408
 30
0.0
  0
VERTEX
  5
3C9
  8
LAYER_1
 10
10.36849200461021
 20
8.499465811369603
 30
0.0
  0
VERTEX
  5
3CA
  8
LAYER_1
 10
10.36535371713894
 20
8.516129087048345
 30
0.0
  0
VERTEX
  5
3CB
  8
LAYER_1
 10
10.36292024153878
 20
8.532966656682632
 30
0.0
  0
VERTEX
  5
3CC
  8
LAYER_1
 10
10.36102716158384
 20
8.549917816252467
 30
0.0
  0
VERTEX
  5
3CD
  8
LAYER_1
 10
10.35951006104823
 20
8.566921861737846
 30
0.0
  0
VERTEX
  5
3CE
  8
LAYER_1
 10
10.35694613333146
 20
8.600845794375239
 30
0.0
  0
VERTEX
  5
3CF
  8
LAYER_1
 10
10.35566141087928
 20
8.6232798149307
 30
0.0
  0
VERTEX
  5
3D0
  8
LAYER_1
 10
10.35523317006189
 20
8.645757714907521
 30
0.0
  0
VERTEX
  5
3D1
  8
LAYER_1
 10
10.35566141087928
 20
8.6682796546182
 30
0.0
  0
VERTEX
  5
3D2
  8
LAYER_1
 10
10.35694613333146
 20
8.690845794375239
 30
0.0
  0
SEQEND
  5
3D3
  8
LAYER_1
  0
POLYLINE
  5
6E
  8
LAYER_1
 66
     1
 10
0.0
 20
0.0
 30
0.0
  0
VERTEX
  5
3D4
  8
LAYER_1
 10
10.7030380686077
 20
8.716659853078239
 30
0.0
  0
VERTEX
  5
3D5
  8
LAYER_1
 10
10.70184397274802
 20
8.727928865394134
 30
0.0
  0
VERTEX
  5
3D6
  8
LAYER_1
 10
10.70027763265162
 20
8.7390571745374
 30
0.0
  0
VERTEX
  5
3D7
  8
LAYER_1
 10
10.69829537105592
 20
8.750013404560505
 30
0.0
  0
VERTEX
  5
3D8
  8
LAYER_1
 10
10.69585351069832
 20
8.760766179515917
 30
0.0
  0
VERTEX
  5
3D9
  8
LAYER_1
 10
10.69290837431621
 20
8.771284123456105
 30
0.0
  0
VERTEX
  5
3DA
  8
LAYER_1
 10
10.68941628464701
 20
8.781535860433543
 30
0.0
  0
VERTEX
  5
3DB
  8
LAYER_1
 10
10.68533356442811
 20
8.791490014500694
 30
0.0
  0
VERTEX
  5
3DC
  8
LAYER_1
 10
10.6806165363969
 20
8.801115209710023
 30
0.0
  0
VERTEX
  5
3DD
  8
LAYER_1
 10
10.67352228905069
 20
8.814039951019705
 30
0.0
  0
VERTEX
  5
3DE
  8
LAYER_1
 10
10.66588516640573
 20
8.826974175133694
 30
0.0
  0
VERTEX
  5
3DF
  8
LAYER_1
 10
10.65761983120234
 20
8.839630518590162
 30
0.0
  0
VERTEX
  5
3E0
  8
LAYER_1
 10
10.64864094618085
 20
8.851721617927279
 30
0.0
  0
VERTEX
  5
3E1
  8
LAYER_1
 10
10.64385725459465
 20
8.857465399969257
 30
0.0
  0
VERTEX
  5
3E2
  8
LAYER_1
 10
10.63886317408155
 20
8.862960109683213
 30
0.0
  0
VERTEX
  5
3E3
  8
LAYER_1
 10
10.63364803748408
 20
8.868169826636416
 30
0.0
  0
VERTEX
  5
3E4
  8
LAYER_1
 10
10.62820117764477
 20
8.873058630396137
 30
0.0
  0
VERTEX
  5
3E5
  8
LAYER_1
 10
10.62251192740618
 20
8.877590600529649
 30
0.0
  0
VERTEX
  5
3E6
  8
LAYER_1
 10
10.61656961961083
 20
8.881729816604222
 30
0.0
  0
VERTEX
  5
3E7
  8
LAYER_1
 10
10.61036358710127
 20
8.885440358187129
 30
0.0
  0
VERTEX
  5
3E8
  8
LAYER_1
 10
10.60388316272003
 20
8.888686304845638
 30
0.0
  0
VERTEX
  5
3E9
  8
LAYER_1
 10
10.59781727401525
 20
8.89114630217884
 30
0.0
  0
VERTEX
  5
3EA
  8
LAYER_1
 10
10.59105731311332
 20
8.893366978454175
 30
0.0
  0
VERTEX
  5
3EB
  8
LAYER_1
 10
10.58369982792896
 20
8.895343426844684
 30
0.0
  0
VERTEX
  5
3EC
  8
LAYER_1
 10
10.57584136637684
 20
8.8970707405234
 30
0.0
  0
VERTEX
  5
3ED
  8
LAYER_1
 10
10.56757847637166
 20
8.898544012663358
 30
0.0
  0
VERTEX
  5
3EE
  8
LAYER_1
 10
10.55900770582812
 20
8.899758336437596
 30
0.0
  0
VERTEX
  5
3EF
  8
LAYER_1
 10
10.54132871478471
 20
8.901390511581045
 30
0.0
  0
VERTEX
  5
3F0
  8
LAYER_1
 10
10.52357677656416
 20
8.901928011338034
 30
0.0
  0
VERTEX
  5
3F1
  8
LAYER_1
 10
10.51491482204919
 20
8.901773990879194
 30
0.0
  0
VERTEX
  5
3F2
  8
LAYER_1
 10
10.50652427448401
 20
8.901331581092844
 30
0.0
  0
VERTEX
  5
3F3
  8
LAYER_1
 10
10.49850168178331
 20
8.90059587515202
 30
0.0
  0
VERTEX
  5
3F4
  8
LAYER_1
 10
10.4909435918618
 20
8.899561966229756
 30
0.0
  0
VERTEX
  5
3F5
  8
LAYER_1
 10
10.48394655263416
 20
8.898224947499092
 30
0.0
  0
VERTEX
  5
3F6
  8
LAYER_1
 10
10.47760711201509
 20
8.896579912133056
 30
0.0
  0
VERTEX
  5
3F7
  8
LAYER_1
 10
10.47034672090918
 20
8.893791727044324
 30
0.0
  0
VERTEX
  5
3F8
  8
LAYER_1
 10
10.46174097688758
 20
8.889573598456895
 30
0.0
  0
VERTEX
  5
3F9
  8
LAYER_1
 10
10.45228743254364
 20
8.884342474878608
 30
0.0
  0
VERTEX
  5
3FA
  8
LAYER_1
 10
10.44248364047072
 20
8.878515304817308
 30
0.0
  0
VERTEX
  5
3FB
  8
LAYER_1
 10
10.42381552351134
 20
8.866740619277028
 30
0.0
  0
VERTEX
  5
3FC
  8
LAYER_1
 10
10.40971704675626
 20
8.857585129898787
 30
0.0
  0
SEQEND
  5
3FD
  8
LAYER_1
  0
POLYLINE
  5
6F
  8
LAYER_1
 66
     1
 10
0.0
 20
0.0
 30
0.0
  0
VERTEX
  5
3FE
  8
LAYER_1
 10
10.70484340713254
 20
8.681310719093497
 30
0.0
  0
VERTEX
  5
3FF
  8
LAYER_1
 10
10.70466997083006
 20
8.637970021512027
 30
0.0
  0
VERTEX
  5
400
  8
LAYER_1
 10
10.7040879212863
 20
8.596146185548804
 30
0.0
  0
VERTEX
  5
401
  8
LAYER_1
 10
10.70366020672845
 20
8.571489194952528
 30
0.0
  0
VERTEX
  5
402
  8
LAYER_1
 10
10.70222942186786
 20
8.54744033149893
 30
0.0
  0
VERTEX
  5
403
  8
LAYER_1
 10
10.70106867126758
 20
8.535630873232765
 30
0.0
  0
VERTEX
  5
404
  8
LAYER_1
 10
10.69957410492388
 20
8.523957757690837
 30
0.0
  0
VERTEX
  5
405
  8
LAYER_1
 10
10.69771804011418
 20
8.512415755185993
 30
0.0
  0
VERTEX
  5
406
  8
LAYER_1
 10
10.6954727941159
 20
8.50099963603109
 30
0.0
  0
VERTEX
  5
407
  8
LAYER_1
 10
10.69281068420648
 20
8.48970417053898
 30
0.0
  0
VERTEX
  5
408
  8
LAYER_1
 10
10.68970402766332
 20
8.478524129022519
 30
0.0
  0
VERTEX
  5
409
  8
LAYER_1
 10
10.68612514176385
 20
8.467454281794563
 30
0.0
  0
VERTEX
  5
40A
  8
LAYER_1
 10
10.68204634378549
 20
8.45648939916796
 30
0.0
  0
VERTEX
  5
40B
  8
LAYER_1
 10
10.67743995100568
 20
8.44562425145557
 30
0.0
  0
VERTEX
  5
40C
  8
LAYER_1
 10
10.67227828070182
 20
8.434853608970247
 30
0.0
  0
VERTEX
  5
40D
  8
LAYER_1
 10
10.66653365015134
 20
8.424172242024845
 30
0.0
  0
VERTEX
  5
40E
  8
LAYER_1
 10
10.66017837663167
 20
8.413574920932216
 30
0.0
  0
VERTEX
  5
40F
  8
LAYER_1
 10
10.64929806713378
 20
8.397052087245427
 30
0.0
  0
VERTEX
  5
410
  8
LAYER_1
 10
10.64350270611536
 20
8.388878354759964
 30
0.0
  0
VERTEX
  5
411
  8
LAYER_1
 10
10.63746059083794
 20
8.380859294451414
 30
0.0
  0
VERTEX
  5
412
  8
LAYER_1
 10
10.631164258742
 20
8.3730670682735
 30
0.0
  0
VERTEX
  5
413
  8
LAYER_1
 10
10.62460624726801
 20
8.365573838179941
 30
0.0
  0
VERTEX
  5
414
  8
LAYER_1
 10
10.61777909385644
 20
8.35845176612446
 30
0.0
  0
VERTEX
  5
415
  8
LAYER_1
 10
10.6106753359478
 20
8.351773014060777
 30
0.0
  0
VERTEX
  5
416
  8
LAYER_1
 10
10.60328751098254
 20
8.345609743942612
 30
0.0
  0
VERTEX
  5
417
  8
LAYER_1
 10
10.59560815640115
 20
8.340034117723686
 30
0.0
  0
VERTEX
  5
418
  8
LAYER_1
 10
10.58762980964412
 20
8.33511829735772
 30
0.0
  0
VERTEX
  5
419
  8
LAYER_1
 10
10.57934500815191
 20
8.330934444798437
 30
0.0
  0
VERTEX
  5
41A
  8
LAYER_1
 10
10.57074628936502
 20
8.327554721999554
 30
0.0
  0
VERTEX
  5
41B
  8
LAYER_1
 10
10.56182619072391
 20
8.325051290914793
 30
0.0
  0
VERTEX
  5
41C
  8
LAYER_1
 10
10.55257724966907
 20
8.323496313497873
 30
0.0
  0
VERTEX
  5
41D
  8
LAYER_1
 10
10.54299200364097
 20
8.322961951702517
 30
0.0
  0
VERTEX
  5
41E
  8
LAYER_1
 10
10.45598592167086
 20
8.322606454513615
 30
0.0
  0
VERTEX
  5
41F
  8
LAYER_1
 10
10.36147983970074
 20
8.322250957324714
 30
0.0
  0
VERTEX
  5
420
  8
LAYER_1
 10
10.34978347784828
 20
8.322759612808792
 30
0.0
  0
VERTEX
  5
421
  8
LAYER_1
 10
10.34447111760896
 20
8.323399852315639
 30
0.0
  0
VERTEX
  5
422
  8
LAYER_1
 10
10.33946483078428
 20
8.324301295356134
 30
0.0
  0
VERTEX
  5
423
  8
LAYER_1
 10
10.33472626209173
 20
8.325466888698113
 30
0.0
  0
VERTEX
  5
424
  8
LAYER_1
 10
10.33021705624884
 20
8.326899579109408
 30
0.0
  0
VERTEX
  5
425
  8
LAYER_1
 10
10.3258988579731
 20
8.328602313357852
 30
0.0
  0
VERTEX
  5
426
  8
LAYER_1
 10
10.32173331198204
 20
8.330578038211275
 30
0.0
  0
VERTEX
  5
427
  8
LAYER_1
 10
10.31370675572399
 20
8.3353602468044
 30
0.0
  0
VERTEX
  5
428
  8
LAYER_1
 10
10.30583054521477
 20
8.341269779031448
 30
0.0
  0
VERTEX
  5
429
  8
LAYER_1
 10
10.29779783819448
 20
8.348330209035081
 30
0.0
  0
VERTEX
  5
42A
  8
LAYER_1
 10
10.28930179240321
 20
8.356565110957968
 30
0.0
  0
VERTEX
  5
42B
  8
LAYER_1
 10
10.28035120225213
 20
8.366099605703504
 30
0.0
  0
VERTEX
  5
42C
  8
LAYER_1
 10
10.27203405377472
 20
8.376116651524093
 30
0.0
  0
VERTEX
  5
42D
  8
LAYER_1
 10
10.26430995042547
 20
8.386578920304926
 30
0.0
  0
VERTEX
  5
42E
  8
LAYER_1
 10
10.2571384956589
 20
8.3974490839312
 30
0.0
  0
VERTEX
  5
42F
  8
LAYER_1
 10
10.2504792929295
 20
8.408689814288106
 30
0.0
  0
VERTEX
  5
430
  8
LAYER_1
 10
10.24429194569179
 20
8.42026378326084
 30
0.0
  0
VERTEX
  5
431
  8
LAYER_1
 10
10.23853605740026
 20
8.432133662734593
 30
0.0
  0
VERTEX
  5
432
  8
LAYER_1
 10
10.23317123150943
 20
8.444262124594559
 30
0.0
  0
VERTEX
  5
433
  8
LAYER_1
 10
10.22815707147379
 20
8.456611840725932
 30
0.0
  0
VERTEX
  5
434
  8
LAYER_1
 10
10.22345318074785
 20
8.469145483013904
 30
0.0
  0
VERTEX
  5
435
  8
LAYER_1
 10
10.21481462104309
 20
8.494615233600424
 30
0.0
  0
VERTEX
  5
436
  8
LAYER_1
 10
10.19948328534821
 20
8.546119411601168
 30
0.0
  0
SEQEND
  5
437
  8
LAYER_1
  0
POLYLINE
  5
70
  8
LAYER_1
 66
     1
 10
0.0
 20
0.0
 30
0.0
  0
VERTEX
  5
438
  8
LAYER_1
 10
8.427825977630492
 20
8.583333643298097
 30
0.0
  0
VERTEX
  5
439
  8
LAYER_1
 10
8.429796092892786
 20
8.557005860143779
 30
0.0
  0
VERTEX
  5
43A
  8
LAYER_1
 10
8.43110045084007
 20
8.543725463969356
 30
0.0
  0
VERTEX
  5
43B
  8
LAYER_1
 10
8.432825625411246
 20
8.530538070739475
 30
0.0
  0
VERTEX
  5
43C
  8
LAYER_1
 10
8.435127578916166
 20
8.517571684961172
 30
0.0
  0
VERTEX
  5
43D
  8
LAYER_1
 10
8.438162273664677
 20
8.504954311141482
 30
0.0
  0
VERTEX
  5
43E
  8
LAYER_1
 10
8.442085671966634
 20
8.492813953787444
 30
0.0
  0
VERTEX
  5
43F
  8
LAYER_1
 10
8.444429373171982
 20
8.486962657693493
 30
0.0
  0
VERTEX
  5
440
  8
LAYER_1
 10
8.447053736131885
 20
8.481278617406092
 30
0.0
  0
VERTEX
  5
441
  8
LAYER_1
 10
8.454209312758223
 20
8.467107288867872
 30
0.0
  0
VERTEX
  5
442
  8
LAYER_1
 10
8.461474925702339
 20
8.453420497829804
 30
0.0
  0
VERTEX
  5
443
  8
LAYER_1
 10
8.468985383571601
 20
8.440178452554317
 30
0.0
  0
VERTEX
  5
444
  8
LAYER_1
 10
8.476875494973388
 20
8.427341361303844
 30
0.0
  0
VERTEX
  5
445
  8
LAYER_1
 10
8.485280068515074
 20
8.414869432340819
 30
0.0
  0
VERTEX
  5
446
  8
LAYER_1
 10
8.49433391280403
 20
8.402722873927672
 30
0.0
  0
VERTEX
  5
447
  8
LAYER_1
 10
8.504171836447636
 20
8.390861894326838
 30
0.0
  0
VERTEX
  5
448
  8
LAYER_1
 10
8.514928648053267
 20
8.379246701800746
 30
0.0
  0
VERTEX
  5
449
  8
LAYER_1
 10
8.525806797511793
 20
8.368203422077578
 30
0.0
  0
VERTEX
  5
44A
  8
LAYER_1
 10
8.537338830368956
 20
8.356958078458646
 30
0.0
  0
VERTEX
  5
44B
  8
LAYER_1
 10
8.54949549529288
 20
8.346026784325105
 30
0.0
  0
VERTEX
  5
44C
  8
LAYER_1
 10
8.555798923738665
 20
8.340840191246965
 30
0.0
  0
VERTEX
  5
44D
  8
LAYER_1
 10
8.562247540951686
 20
8.335925653058105
 30
0.0
  0
VERTEX
  5
44E
  8
LAYER_1
 10
8.568837690515458
 20
8.33134768393117
 30
0.0
  0
VERTEX
  5
44F
  8
LAYER_1
 10
8.575565716013497
 20
8.327170798038802
 30
0.0
  0
VERTEX
  5
450
  8
LAYER_1
 10
8.582427961029314
 20
8.323459509553647
 30
0.0
  0
VERTEX
  5
451
  8
LAYER_1
 10
8.589420769146429
 20
8.32027833264835
 30
0.0
  0
VERTEX
  5
452
  8
LAYER_1
 10
8.596540483948354
 20
8.31769178149555
 30
0.0
  0
VERTEX
  5
453
  8
LAYER_1
 10
8.603783449018607
 20
8.3157643702679
 30
0.0
  0
VERTEX
  5
454
  8
LAYER_1
 10
8.611146007940702
 20
8.314560613138037
 30
0.0
  0
VERTEX
  5
455
  8
LAYER_1
 10
8.618624504298154
 20
8.314145024278604
 30
0.0
  0
VERTEX
  5
456
  8
LAYER_1
 10
8.806464914273295
 20
8.314145024278604
 30
0.0
  0
SEQEND
  5
457
  8
LAYER_1
  0
POLYLINE
  5
71
  8
LAYER_1
 66
     1
 10
0.0
 20
0.0
 30
0.0
  0
VERTEX
  5
458
  8
LAYER_1
 10
9.093956880327768
 20
8.514464989050323
 30
0.0
  0
VERTEX
  5
459
  8
LAYER_1
 10
9.094215731139995
 20
8.505064772273919
 30
0.0
  0
VERTEX
  5
45A
  8
LAYER_1
 10
9.094895838830956
 20
8.495791724742125
 30
0.0
  0
VERTEX
  5
45B
  8
LAYER_1
 10
9.095997206488041
 20
8.486645830503422
 30
0.0
  0
VERTEX
  5
45C
  8
LAYER_1
 10
9.09751983719864
 20
8.4776270736063
 30
0.0
  0
VERTEX
  5
45D
  8
LAYER_1
 10
9.09946373405014
 20
8.468735438099241
 30
0.0
  0
VERTEX
  5
45E
  8
LAYER_1
 10
9.101828900129934
 20
8.45997090803073
 30
0.0
  0
VERTEX
  5
45F
  8
LAYER_1
 10
9.104615338525413
 20
8.451333467449256
 30
0.0
  0
VERTEX
  5
460
  8
LAYER_1
 10
9.107823052323964
 20
8.442823100403306
 30
0.0
  0
VERTEX
  5
461
  8
LAYER_1
 10
9.11101253242628
 20
8.435562724893977
 30
0.0
  0
VERTEX
  5
462
  8
LAYER_1
 10
9.114608835816199
 20
8.428474321423838
 30
0.0
  0
VERTEX
  5
463
  8
LAYER_1
 10
9.11857193637085
 20
8.421559927986792
 30
0.0
  0
VERTEX
  5
464
  8
LAYER_1
 10
9.122861807967357
 20
8.41482158257674
 30
0.0
  0
VERTEX
  5
465
  8
LAYER_1
 10
9.132261759794442
 20
8.401881187813238
 30
0.0
  0
VERTEX
  5
466
  8
LAYER_1
 10
9.142488482314455
 20
8.389669441084555
 30
0.0
  0
VERTEX
  5
467
  8
LAYER_1
 10
9.152025772599025
 20
8.379184320251344
 30
0.0
  0
VERTEX
  5
468
  8
LAYER_1
 10
9.162564820523617
 20
8.368306410263648
 30
0.0
  0
VERTEX
  5
469
  8
LAYER_1
 10
9.173960692114239
 20
8.357587671648528
 30
0.0
  0
VERTEX
  5
46A
  8
LAYER_1
 10
9.179934644917438
 20
8.352460479270391
 30
0.0
  0
VERTEX
  5
46B
  8
LAYER_1
 10
9.1860684533969
 20
8.347580064933046
 30
0.0
  0
VERTEX
  5
46C
  8
LAYER_1
 10
9.192344000805871
 20
8.343015423702377
 30
0.0
  0
VERTEX
  5
46D
  8
LAYER_1
 10
9.198743170397602
 20
8.338835550644268
 30
0.0
  0
VERTEX
  5
46E
  8
LAYER_1
 10
9.20524784542535
 20
8.3351094408246
 30
0.0
  0
VERTEX
  5
46F
  8
LAYER_1
 10
9.211839909142359
 20
8.331906089309253
 30
0.0
  0
VERTEX
  5
470
  8
LAYER_1
 10
9.218501244801885
 20
8.329294491164115
 30
0.0
  0
VERTEX
  5
471
  8
LAYER_1
 10
9.225213735657174
 20
8.327343641455066
 30
0.0
  0
VERTEX
  5
472
  8
LAYER_1
 10
9.231959264961482
 20
8.32612253524799
 30
0.0
  0
VERTEX
  5
473
  8
LAYER_1
 10
9.238719715968058
 20
8.325700167608769
 30
0.0
  0
VERTEX
  5
474
  8
LAYER_1
 10
9.324505100051192
 20
8.3264396967819
 30
0.0
  0
VERTEX
  5
475
  8
LAYER_1
 10
9.360982551608348
 20
8.326948123088428
 30
0.0
  0
VERTEX
  5
476
  8
LAYER_1
 10
9.410290484134329
 20
8.32717922595503
 30
0.0
  0
VERTEX
  5
477
  8
LAYER_1
 10
9.415817859830112
 20
8.32751706085849
 30
0.0
  0
VERTEX
  5
478
  8
LAYER_1
 10
9.421482783901524
 20
8.328494400263484
 30
0.0
  0
VERTEX
  5
479
  8
LAYER_1
 10
9.427248403687011
 20
8.33005699621194
 30
0.0
  0
VERTEX
  5
47A
  8
LAYER_1
 10
9.433077866525018
 20
8.33215060074579
 30
0.0
  0
VERTEX
  5
47B
  8
LAYER_1
 10
9.438934319753987
 20
8.334720965906957
 30
0.0
  0
VERTEX
  5
47C
  8
LAYER_1
 10
9.44478091071236
 20
8.33771384373737
 30
0.0
  0
VERTEX
  5
47D
  8
LAYER_1
 10
9.450580786738588
 20
8.34107498627896
 30
0.0
  0
VERTEX
  5
47E
  8
LAYER_1
 10
9.45629709517111
 20
8.34475014557365
 30
0.0
  0
VERTEX
  5
47F
  8
LAYER_1
 10
9.467331598608816
 20
8.352825522590049
 30
0.0
  0
VERTEX
  5
480
  8
LAYER_1
 10
9.47758959973303
 20
8.361505991121984
 30
0.0
  0
VERTEX
  5
481
  8
LAYER_1
 10
9.486776277251305
 20
8.370357567504882
 30
0.0
  0
VERTEX
  5
482
  8
LAYER_1
 10
9.4945968098712
 20
8.378946268074165
 30
0.0
  0
VERTEX
  5
483
  8
LAYER_1
 10
9.507886559796056
 20
8.394441021495716
 30
0.0
  0
VERTEX
  5
484
  8
LAYER_1
 10
9.52115874112671
 20
8.410529666243832
 30
0.0
  0
VERTEX
  5
485
  8
LAYER_1
 10
9.52742563077313
 20
8.418843312839675
 30
0.0
  0
VERTEX
  5
486
  8
LAYER_1
 10
9.5332529929157
 20
8.427361370236351
 30
0.0
  0
VERTEX
  5
487
  8
LAYER_1
 10
9.538495782435987
 20
8.436102484423586
 30
0.0
  0
VERTEX
  5
488
  8
LAYER_1
 10
9.543008954215559
 20
8.445085301391114
 30
0.0
  0
VERTEX
  5
489
  8
LAYER_1
 10
9.547084314312528
 20
8.455246835963877
 30
0.0
  0
VERTEX
  5
48A
  8
LAYER_1
 10
9.550650204174607
 20
8.466146385455014
 30
0.0
  0
VERTEX
  5
48B
  8
LAYER_1
 10
9.556768077391942
 20
8.489245629102687
 30
0.0
  0
VERTEX
  5
48C
  8
LAYER_1
 10
9.562391582263258
 20
8.512555232154686
 30
0.0
  0
VERTEX
  5
48D
  8
LAYER_1
 10
9.565339511692814
 20
8.523717730901229
 30
0.0
  0
VERTEX
  5
48E
  8
LAYER_1
 10
9.56854972718425
 20
8.534247394431564
 30
0.0
  0
SEQEND
  5
48F
  8
LAYER_1
  0
POLYLINE
  5
72
  8
LAYER_1
 66
     1
 10
0.0
 20
0.0
 30
0.0
  0
VERTEX
  5
490
  8
LAYER_1
 10
9.307505799286115
 20
8.528915781588754
 30
0.0
  0
VERTEX
  5
491
  8
LAYER_1
 10
9.39234639117553
 20
8.700407538173913
 30
0.0
  0
VERTEX
  5
492
  8
LAYER_1
 10
9.39234639117553
 20
9.000407538173915
 30
0.0
  0
VERTEX
  5
493
  8
LAYER_1
 10
9.39234639117553
 20
9.200407538173915
 30
0.0
  0
VERTEX
  5
494
  8
LAYER_1
 10
9.356236568268768
 20
9.276238166278112
 30
0.0
  0
SEQEND
  5
495
  8
LAYER_1
  0
POLYLINE
  5
73
  8
LAYER_1
 66
     1
 10
0.0
 20
0.0
 30
0.0
  0
VERTEX
  5
496
  8
LAYER_1
 10
8.6667585711992
 20
8.717615387232282
 30
0.0
  0
VERTEX
  5
497
  8
LAYER_1
 10
8.755142364985044
 20
8.671572892536513
 30
0.0
  0
VERTEX
  5
498
  8
LAYER_1
 10
8.78319004421686
 20
8.778197617095131
 30
0.0
  0
SEQEND
  5
499
  8
LAYER_1
  0
POLYLINE
  5
74
  8
LAYER_1
 66
     1
 10
0.0
 20
0.0
 30
0.0
  0
VERTEX
  5
49A
  8
LAYER_1
 10
8.894888530526487
 20
8.656086560027827
 30
0.0
  0
VERTEX
  5
49B
  8
LAYER_1
 10
8.810641367123464
 20
8.661766144077468
 30
0.0
  0
VERTEX
  5
49C
  8
LAYER_1
 10
8.807786635939149
 20
8.773075290313567
 30
0.0
  0
SEQEND
  5
49D
  8
LAYER_1
  0
POLYLINE
  5
75
  8
LAYER_1
 66
     1
 10
0.0
 20
0.0
 30
0.0
  0
VERTEX
  5
49E
  8
LAYER_1
 10
10.51821077713678
 20
8.505293785232514
 30
0.0
  0
VERTEX
  5
49F
  8
LAYER_1
 10
10.53207694913297
 20
8.611601103870019
 30
0.0
  0
VERTEX
  5
4A0
  8
LAYER_1
 10
10.56452069482566
 20
8.607891810419892
 30
0.0
  0
SEQEND
  5
4A1
  8
LAYER_1
  0
POLYLINE
  5
76
  8
LAYER_1
 66
     1
 10
0.0
 20
0.0
 30
0.0
  0
VERTEX
  5
4A2
  8
LAYER_1
 10
10.42843797958709
 20
8.567125061635718
 30
0.0
  0
VERTEX
  5
4A3
  8
LAYER_1
 10
10.50148470716637
 20
8.602848082797422
 30
0.0
  0
VERTEX
  5
4A4
  8
LAYER_1
 10
10.46631122063393
 20
8.50258285616611
 30
0.0
  0
SEQEND
  5
4A5
  8
LAYER_1
  0
POLYLINE
  5
77
  8
LAYER_1
 66
     1
 10
0.0
 20
0.0
 30
0.0
  0
VERTEX
  5
4A6
  8
LAYER_1
 10
10.54203900796249
 20
8.651671937469215
 30
0.0
  0
VERTEX
  5
4A7
  8
LAYER_1
 10
10.51224023457808
 20
8.6577350136157
 30
0.0
  0
VERTEX
  5
4A8
  8
LAYER_1
 10
10.52310706113035
 20
8.72503323144376
 30
0.0
  0
SEQEND
  5
4A9
  8
LAYER_1
  0
POLYLINE
  5
78
  8
LAYER_1
 66
     1
 10
0.0
 20
0.0
 30
0.0
  0
VERTEX
  5
4AA
  8
LAYER_1
 10
10.43819834675892
 20
8.735171223684922
 30
0.0
  0
VERTEX
  5
4AB
  8
LAYER_1
 10
10.50148470716637
 20
8.654846227783159
 30
0.0
  0
VERTEX
  5
4AC
  8
LAYER_1
 10
10.5029918676212
 20
8.74278193159889
 30
0.0
  0
SEQEND
  5
4AD
  8
LAYER_1
  0
POLYLINE
  5
79
  8
LAYER_1
 66
     1
 10
0.0
 20
0.0
 30
0.0
  0
VERTEX
  5
4AE
  8
LAYER_1
 10
10.42518635968016
 20
8.597518202263387
 30
0.0
  0
VERTEX
  5
4AF
  8
LAYER_1
 10
10.48415199217112
 20
8.640402298620455
 30
0.0
  0
VERTEX
  5
4B0
  8
LAYER_1
 10
10.4305646464223
 20
8.708417006686261
 30
0.0
  0
SEQEND
  5
4B1
  8
LAYER_1
  0
POLYLINE
  5
7A
  8
LAYER_1
 66
     1
 10
0.0
 20
0.0
 30
0.0
  0
VERTEX
  5
4B2
  8
LAYER_1
 10
10.42843797958709
 20
8.567125061635718
 30
0.0
  0
VERTEX
  5
4B3
  8
LAYER_1
 10
10.46631122063393
 20
8.50258285616611
 30
0.0
  0
SEQEND
  5
4B4
  8
LAYER_1
  0
POLYLINE
  5
7B
  8
LAYER_1
 66
     1
 10
0.0
 20
0.0
 30
0.0
  0
VERTEX
  5
4B5
  8
LAYER_1
 10
10.4305646464223
 20
8.708417006686261
 30
0.0
  0
VERTEX
  5
4B6
  8
LAYER_1
 10
10.42518635968016
 20
8.597518202263387
 30
0.0
  0
SEQEND
  5
4B7
  8
LAYER_1
  0
POLYLINE
  5
7C
  8
LAYER_1
 66
     1
 10
0.0
 20
0.0
 30
0.0
  0
VERTEX
  5
4B8
  8
LAYER_1
 10
10.43819834675892
 20
8.735171223684922
 30
0.0
  0
VERTEX
  5
4B9
  8
LAYER_1
 10
10.47283936291029
 20
8.755171223684922
 30
0.0
  0
VERTEX
  5
4BA
  8
LAYER_1
 10
10.5029918676212
 20
8.74278193159889
 30
0.0
  0
SEQEND
  5
4BB
  8
LAYER_1
  0
POLYLINE
  5
7D
  8
LAYER_1
 66
     1
 10
0.0
 20
0.0
 30
0.0
  0
VERTEX
  5
4BC
  8
LAYER_1
 10
10.52310706113035
 20
8.72503323144376
 30
0.0
  0
VERTEX
  5
4BD
  8
LAYER_1
 10
10.54203900796249
 20
8.651671937469215
 30
0.0
  0
SEQEND
  5
4BE
  8
LAYER_1
  0
POLYLINE
  5
7E
  8
LAYER_1
 66
     1
 10
0.0
 20
0.0
 30
0.0
  0
VERTEX
  5
4BF
  8
LAYER_1
 10
10.51955732109932
 20
8.510865582905172
 30
0.0
  0
VERTEX
  5
4C0
  8
LAYER_1
 10
10.56452069482566
 20
8.607891810419892
 30
0.0
  0
SEQEND
  5
4C1
  8
LAYER_1
  0
POLYLINE
  5
7F
  8
LAYER_1
 66
     1
 10
0.0
 20
0.0
 30
0.0
  0
VERTEX
  5
4C2
  8
LAYER_1
 10
10.5029918676212
 20
8.74278193159889
 30
0.0
  0
VERTEX
  5
4C3
  8
LAYER_1
 10
10.52882757927524
 20
8.719653662246754
 30
0.0
  0
SEQEND
  5
4C4
  8
LAYER_1
  0
POLYLINE
  5
80
  8
LAYER_1
 66
     1
 10
0.0
 20
0.0
 30
0.0
  0
VERTEX
  5
4C5
  8
LAYER_1
 10
10.52882757927524
 20
8.719653662246754
 30
0.0
  0
VERTEX
  5
4C6
  8
LAYER_1
 10
10.53500114945579
 20
8.712819713234051
 30
0.0
  0
VERTEX
  5
4C7
  8
LAYER_1
 10
10.54066082685595
 20
8.705773284568293
 30
0.0
  0
VERTEX
  5
4C8
  8
LAYER_1
 10
10.54580661926871
 20
8.698514362751665
 30
0.0
  0
VERTEX
  5
4C9
  8
LAYER_1
 10
10.55043853448702
 20
8.691042934286347
 30
0.0
  0
VERTEX
  5
4CA
  8
LAYER_1
 10
10.55455658030386
 20
8.683358985674527
 30
0.0
  0
VERTEX
  5
4CB
  8
LAYER_1
 10
10.5581607645122
 20
8.67546250341838
 30
0.0
  0
VERTEX
  5
4CC
  8
LAYER_1
 10
10.561251094905
 20
8.667353474020093
 30
0.0
  0
VERTEX
  5
4CD
  8
LAYER_1
 10
10.56382757927524
 20
8.659031883981845
 30
0.0
  0
VERTEX
  5
4CE
  8
LAYER_1
 10
10.56515018274536
 20
8.652818469713829
 30
0.0
  0
VERTEX
  5
4CF
  8
LAYER_1
 10
10.5658262604363
 20
8.646508749921221
 30
0.0
  0
VERTEX
  5
4D0
  8
LAYER_1
 10
10.56600250894817
 20
8.640125292376709
 30
0.0
  0
VERTEX
  5
4D1
  8
LAYER_1
 10
10.5658256248811
 20
8.633690664852992
 30
0.0
  0
VERTEX
  5
4D2
  8
LAYER_1
 10
10.56499924541058
 20
8.620758170958702
 30
0.0
  0
VERTEX
  5
4D3
  8
LAYER_1
 10
10.56452069482566
 20
8.607891810419892
 30
0.0
  0
VERTEX
  5
4D4
  8
LAYER_1
 10
10.56487317204563
 20
8.60033448386673
 30
0.0
  0
VERTEX
  5
4D5
  8
LAYER_1
 10
10.56565303245457
 20
8.592683754212636
 30
0.0
  0
VERTEX
  5
4D6
  8
LAYER_1
 10
10.56743872090713
 20
8.577321649833891
 30
0.0
  0
VERTEX
  5
4D7
  8
LAYER_1
 10
10.56791645798466
 20
8.569720057225364
 30
0.0
  0
VERTEX
  5
4D8
  8
LAYER_1
 10
10.56776539631896
 20
8.562244625748148
 30
0.0
  0
VERTEX
  5
4D9
  8
LAYER_1
 10
10.56672149042697
 20
8.554950246460303
 30
0.0
  0
VERTEX
  5
4DA
  8
LAYER_1
 10
10.56578220668267
 20
8.551388104843038
 30
0.0
  0
VERTEX
  5
4DB
  8
LAYER_1
 10
10.56452069482566
 20
8.547891810419891
 30
0.0
  0
VERTEX
  5
4DC
  8
LAYER_1
 10
10.56071603126725
 20
8.539947757752378
 30
0.0
  0
VERTEX
  5
4DD
  8
LAYER_1
 10
10.55605188964546
 20
8.532326909624091
 30
0.0
  0
VERTEX
  5
4DE
  8
LAYER_1
 10
10.55061764888099
 20
8.525118644955722
 30
0.0
  0
VERTEX
  5
4DF
  8
LAYER_1
 10
10.54450268789453
 20
8.518412342667961
 30
0.0
  0
VERTEX
  5
4E0
  8
LAYER_1
 10
10.53779638560677
 20
8.512297381681503
 30
0.0
  0
VERTEX
  5
4E1
  8
LAYER_1
 10
10.5305881209384
 20
8.506863140917034
 30
0.0
  0
VERTEX
  5
4E2
  8
LAYER_1
 10
10.52296727281011
 20
8.502198999295246
 30
0.0
  0
VERTEX
  5
4E3
  8
LAYER_1
 10
10.5150232201426
 20
8.498394335736833
 30
0.0
  0
VERTEX
  5
4E4
  8
LAYER_1
 10
10.51266969820326
 20
8.497642820412686
 30
0.0
  0
VERTEX
  5
4E5
  8
LAYER_1
 10
10.51023651433497
 20
8.497251339576824
 30
0.0
  0
VERTEX
  5
4E6
  8
LAYER_1
 10
10.50520678292048
 20
8.497257849721471
 30
0.0
  0
VERTEX
  5
4E7
  8
LAYER_1
 10
10.50008527011705
 20
8.4978326028738
 30
0.0
  0
VERTEX
  5
4E8
  8
LAYER_1
 10
10.4950232201426
 20
8.498394335736833
 30
0.0
  0
VERTEX
  5
4E9
  8
LAYER_1
 10
10.48064953739294
 20
8.500226191984648
 30
0.0
  0
VERTEX
  5
4EA
  8
LAYER_1
 10
10.46631122063393
 20
8.50258285616611
 30
0.0
  0
SEQEND
  5
4EB
  8
LAYER_1
  0
POLYLINE
  5
81
  8
LAYER_1
 66
     1
 10
0.0
 20
0.0
 30
0.0
  0
VERTEX
  5
4EC
  8
LAYER_1
 10
10.64384319005353
 20
9.34173257423419
 30
0.0
  0
VERTEX
  5
4ED
  8
LAYER_1
 10
10.65998564621219
 20
9.338865498123244
 30
0.0
  0
VERTEX
  5
4EE
  8
LAYER_1
 10
10.67600057174381
 20
9.335615941746362
 30
0.0
  0
VERTEX
  5
4EF
  8
LAYER_1
 10
10.69188799460741
 20
9.331983897611941
 30
0.0
  0
VERTEX
  5
4F0
  8
LAYER_1
 10
10.70764794276203
 20
9.327969358228387
 30
0.0
  0
VERTEX
  5
4F1
  8
LAYER_1
 10
10.72328044416668
 20
9.323572316104102
 30
0.0
  0
VERTEX
  5
4F2
  8
LAYER_1
 10
10.7387855267804
 20
9.318792763747485
 30
0.0
  0
VERTEX
  5
4F3
  8
LAYER_1
 10
10.7541632185622
 20
9.313630693666937
 30
0.0
  0
VERTEX
  5
4F4
  8
LAYER_1
 10
10.76941354747111
 20
9.308086098370863
 30
0.0
  0
VERTEX
  5
4F5
  8
LAYER_1
 10
10.78375477588399
 20
9.302284843872398
 30
0.0
  0
VERTEX
  5
4F6
  8
LAYER_1
 10
10.79784790546823
 20
9.295910363163431
 30
0.0
  0
VERTEX
  5
4F7
  8
LAYER_1
 10
10.82552529085671
 20
9.281967676326095
 30
0.0
  0
VERTEX
  5
4F8
  8
LAYER_1
 10
10.85291654904844
 20
9.26730994428306
 30
0.0
  0
VERTEX
  5
4F9
  8
LAYER_1
 10
10.88049252545528
 20
9.252989073458533
 30
0.0
  0
SEQEND
  5
4FA
  8
LAYER_1
  0
POLYLINE
  5
82
  8
LAYER_1
 66
     1
 10
0.0
 20
0.0
 30
0.0
 70
     1
  0
VERTEX
  5
4FB
  8
LAYER_1
 10
7.217068025575123
 20
9.160889804822915
 30
0.0
  0
VERTEX
  5
4FC
  8
LAYER_1
 10
7.246039125784752
 20
9.167367786736266
 30
0.0
  0
VERTEX
  5
4FD
  8
LAYER_1
 10
7.275074766821971
 20
9.173414236561037
 30
0.0
  0
VERTEX
  5
4FE
  8
LAYER_1
 10
7.304175155797127
 20
9.179029195841146
 30
0.0
  0
VERTEX
  5
4FF
  8
LAYER_1
 10
7.333340499820562
 20
9.184212706120512
 30
0.0
  0
VERTEX
  5
500
  8
LAYER_1
 10
7.356351341515527
 20
9.188130603106531
 30
0.0
  0
VERTEX
  5
501
  8
LAYER_1
 10
7.379424114648543
 20
9.191828688504561
 30
0.0
  0
VERTEX
  5
502
  8
LAYER_1
 10
7.402565367027895
 20
9.194954222843013
 30
0.0
  0
VERTEX
  5
503
  8
LAYER_1
 10
7.42578164646187
 20
9.197154466650293
 30
0.0
  0
VERTEX
  5
504
  8
LAYER_1
 10
7.434523348016598
 20
9.197555792320667
 30
0.0
  0
VERTEX
  5
505
  8
LAYER_1
 10
7.443302958827718
 20
9.197589718254132
 30
0.0
  0
VERTEX
  5
506
  8
LAYER_1
 10
7.460944362964543
 20
9.196824419179645
 30
0.0
  0
VERTEX
  5
507
  8
LAYER_1
 10
7.478642768363166
 20
9.19539666596545
 30
0.0
  0
VERTEX
  5
508
  8
LAYER_1
 10
7.496335084514403
 20
9.19384455515016
 30
0.0
  0
VERTEX
  5
509
  8
LAYER_1
 10
7.513958220909073
 20
9.192706183272385
 30
0.0
  0
VERTEX
  5
50A
  8
LAYER_1
 10
7.522724130913577
 20
9.192460304603383
 30
0.0
  0
VERTEX
  5
50B
  8
LAYER_1
 10
7.531449087037996
 20
9.19251964687074
 30
0.0
  0
VERTEX
  5
50C
  8
LAYER_1
 10
7.540125202968682
 20
9.192951472141782
 30
0.0
  0
VERTEX
  5
50D
  8
LAYER_1
 10
7.548744592391989
 20
9.193823042483839
 30
0.0
  0
VERTEX
  5
50E
  8
LAYER_1
 10
7.557299368994267
 20
9.195201619964234
 30
0.0
  0
VERTEX
  5
50F
  8
LAYER_1
 10
7.56578164646187
 20
9.197154466650293
 30
0.0
  0
VERTEX
  5
510
  8
LAYER_1
 10
7.570473066887923
 20
9.19876417138251
 30
0.0
  0
VERTEX
  5
511
  8
LAYER_1
 10
7.574938612027646
 20
9.200912824036747
 30
0.0
  0
VERTEX
  5
512
  8
LAYER_1
 10
7.583437373645259
 20
9.206257817420264
 30
0.0
  0
VERTEX
  5
513
  8
LAYER_1
 10
7.591768525709021
 20
9.212051135418795
 30
0.0
  0
VERTEX
  5
514
  8
LAYER_1
 10
7.596024558906432
 20
9.214760193841801
 30
0.0
  0
VERTEX
  5
515
  8
LAYER_1
 10
7.600422662613248
 20
9.217154466650294
 30
0.0
  0
VERTEX
  5
516
  8
LAYER_1
 10
7.619594254600738
 20
9.226279265023052
 30
0.0
  0
VERTEX
  5
517
  8
LAYER_1
 10
7.639060339964149
 20
9.234848942418616
 30
0.0
  0
VERTEX
  5
518
  8
LAYER_1
 10
7.658869518063562
 20
9.242513142459803
 30
0.0
  0
VERTEX
  5
519
  8
LAYER_1
 10
7.668917954189294
 20
9.245896202104635
 30
0.0
  0
VERTEX
  5
51A
  8
LAYER_1
 10
7.679070388259058
 20
9.248921508769431
 30
0.0
  0
VERTEX
  5
51B
  8
LAYER_1
 10
7.693337712701853
 20
9.252566694355785
 30
0.0
  0
VERTEX
  5
51C
  8
LAYER_1
 10
7.707740509841156
 20
9.255678349909871
 30
0.0
  0
VERTEX
  5
51D
  8
LAYER_1
 10
7.722252779922031
 20
9.25833264660206
 30
0.0
  0
VERTEX
  5
51E
  8
LAYER_1
 10
7.736848523189538
 20
9.260605755602732
 30
0.0
  0
VERTEX
  5
51F
  8
LAYER_1
 10
7.766186430264693
 20
9.264313095211008
 30
0.0
  0
VERTEX
  5
520
  8
LAYER_1
 10
7.795546233027109
 20
9.26740973809769
 30
0.0
  0
VERTEX
  5
521
  8
LAYER_1
 10
7.820408203514801
 20
9.26968666836163
 30
0.0
  0
VERTEX
  5
522
  8
LAYER_1
 10
7.84532277358237
 20
9.271492457416613
 30
0.0
  0
VERTEX
  5
523
  8
LAYER_1
 10
7.895260021357647
 20
9.273992085214235
 30
0.0
  0
VERTEX
  5
524
  8
LAYER_1
 10
7.945258594153961
 20
9.275511568119617
 30
0.0
  0
VERTEX
  5
525
  8
LAYER_1
 10
7.995219109772337
 20
9.276653852761822
 30
0.0
  0
VERTEX
  5
526
  8
LAYER_1
 10
8.005219109772337
 20
9.276653852761822
 30
0.0
  0
VERTEX
  5
527
  8
LAYER_1
 10
8.020263528338582
 20
9.27622922776595
 30
0.0
  0
VERTEX
  5
528
  8
LAYER_1
 10
8.035393901999461
 20
9.275197995633121
 30
0.0
  0
VERTEX
  5
529
  8
LAYER_1
 10
8.065715222378
 20
9.272771567085282
 30
0.0
  0
VERTEX
  5
52A
  8
LAYER_1
 10
8.080807522982099
 20
9.272104299234627
 30
0.0
  0
VERTEX
  5
52B
  8
LAYER_1
 10
8.09578848645371
 20
9.272286281375715
 30
0.0
  0
VERTEX
  5
52C
  8
LAYER_1
 10
8.103221803309587
 20
9.272809480031343
 30
0.0
  0
VERTEX
  5
52D
  8
LAYER_1
 10
8.110608789736048
 20
9.27368147779072
 30
0.0
  0
VERTEX
  5
52E
  8
LAYER_1
 10
8.117943280350996
 20
9.274947770189124
 30
0.0
  0
VERTEX
  5
52F
  8
LAYER_1
 10
8.125219109772337
 20
9.276653852761822
 30
0.0
  0
VERTEX
  5
530
  8
LAYER_1
 10
8.13153159936884
 20
9.278538984399631
 30
0.0
  0
VERTEX
  5
531
  8
LAYER_1
 10
8.13763763633843
 20
9.280737793897156
 30
0.0
  0
VERTEX
  5
532
  8
LAYER_1
 10
8.14355622320201
 20
9.283227752531491
 30
0.0
  0
VERTEX
  5
533
  8
LAYER_1
 10
8.14930636248048
 20
9.285986331579737
 30
0.0
  0
VERTEX
  5
534
  8
LAYER_1
 10
8.160377308365717
 20
9.292219236026337
 30
0.0
  0
VERTEX
  5
535
  8
LAYER_1
 10
8.171002494161378
 20
9.299256277453729
 30
0.0
  0
VERTEX
  5
536
  8
LAYER_1
 10
8.181333940034687
 20
9.306917226078685
 30
0.0
  0
VERTEX
  5
537
  8
LAYER_1
 10
8.191523666152882
 20
9.315021852117983
 30
0.0
  0
VERTEX
  5
538
  8
LAYER_1
 10
8.212086039792847
 20
9.331841217306684
 30
0.0
  0
VERTEX
  5
539
  8
LAYER_1
 10
8.243018062698276
 20
9.35754404238713
 30
0.0
  0
VERTEX
  5
53A
  8
LAYER_1
 10
8.273738876875543
 20
9.38447686774199
 30
0.0
  0
VERTEX
  5
53B
  8
LAYER_1
 10
8.334818055069242
 20
9.440487935073975
 30
0.0
  0
VERTEX
  5
53C
  8
LAYER_1
 10
8.365312007097502
 20
9.468793884950605
 30
0.0
  0
VERTEX
  5
53D
  8
LAYER_1
 10
8.395865926421255
 20
9.496785250900666
 30
0.0
  0
VERTEX
  5
53E
  8
LAYER_1
 10
8.42654760704641
 20
9.524075886873913
 30
0.0
  0
VERTEX
  5
53F
  8
LAYER_1
 10
8.457424842978885
 20
9.550279646820098
 30
0.0
  0
VERTEX
  5
540
  8
LAYER_1
 10
8.477518972836176
 20
9.558886938948511
 30
0.0
  0
VERTEX
  5
541
  8
LAYER_1
 10
8.49787275053416
 20
9.566616756817297
 30
0.0
  0
VERTEX
  5
542
  8
LAYER_1
 10
8.51848632201954
 20
9.573469152375779
 30
0.0
  0
VERTEX
  5
543
  8
LAYER_1
 10
8.539359833239015
 20
9.579444177573272
 30
0.0
  0
VERTEX
  5
544
  8
LAYER_1
 10
8.566959640087738
 20
9.586208925747247
 30
0.0
  0
VERTEX
  5
545
  8
LAYER_1
 10
8.594767479948878
 20
9.592122659976408
 30
0.0
  0
VERTEX
  5
546
  8
LAYER_1
 10
8.622739538562923
 20
9.597346056910492
 30
0.0
  0
VERTEX
  5
547
  8
LAYER_1
 10
8.650832001670377
 20
9.602039793199246
 30
0.0
  0
VERTEX
  5
548
  8
LAYER_1
 10
8.707202884327494
 20
9.610480990439736
 30
0.0
  0
VERTEX
  5
549
  8
LAYER_1
 10
8.763529613844192
 20
9.618731664895826
 30
0.0
  0
VERTEX
  5
54A
  8
LAYER_1
 10
8.803272112778366
 20
9.62478260701987
 30
0.0
  0
VERTEX
  5
54B
  8
LAYER_1
 10
8.84309592885147
 20
9.630535442080165
 30
0.0
  0
VERTEX
  5
54C
  8
LAYER_1
 10
8.88300183191
 20
9.635586203046863
 30
0.0
  0
VERTEX
  5
54D
  8
LAYER_1
 10
8.90298580663583
 20
9.637722066048287
 30
0.0
  0
VERTEX
  5
54E
  8
LAYER_1
 10
8.922990591800449
 20
9.639530922890122
 30
0.0
  0
VERTEX
  5
54F
  8
LAYER_1
 10
8.967064717548677
 20
9.642691477679321
 30
0.0
  0
VERTEX
  5
550
  8
LAYER_1
 10
9.011210479997429
 20
9.645096306478528
 30
0.0
  0
VERTEX
  5
551
  8
LAYER_1
 10
9.055409817580678
 20
9.646878106300894
 30
0.0
  0
VERTEX
  5
552
  8
LAYER_1
 10
9.099644668732395
 20
9.648169574159567
 30
0.0
  0
VERTEX
  5
553
  8
LAYER_1
 10
9.188148665477144
 20
9.649812302038423
 30
0.0
  0
VERTEX
  5
554
  8
LAYER_1
 10
9.276577977703457
 20
9.651086066220286
 30
0.0
  0
VERTEX
  5
555
  8
LAYER_1
 10
9.344059369928727
 20
9.65225090519662
 30
0.0
  0
VERTEX
  5
556
  8
LAYER_1
 10
9.411604852313275
 20
9.653090906222983
 30
0.0
  0
VERTEX
  5
557
  8
LAYER_1
 10
9.445377399982721
 20
9.653177348113871
 30
0.0
  0
VERTEX
  5
558
  8
LAYER_1
 10
9.479136897392916
 20
9.652928487247998
 30
0.0
  0
VERTEX
  5
559
  8
LAYER_1
 10
9.512873653610836
 20
9.652259625868943
 30
0.0
  0
VERTEX
  5
55A
  8
LAYER_1
 10
9.546577977703457
 20
9.651086066220286
 30
0.0
  0
VERTEX
  5
55B
  8
LAYER_1
 10
9.583393977408363
 20
9.649344011023006
 30
0.0
  0
VERTEX
  5
55C
  8
LAYER_1
 10
9.620224686925425
 20
9.647269411987228
 30
0.0
  0
VERTEX
  5
55D
  8
LAYER_1
 10
9.657051376292724
 20
9.644823454000989
 30
0.0
  0
VERTEX
  5
55E
  8
LAYER_1
 10
9.693855315548332
 20
9.641967321952315
 30
0.0
  0
VERTEX
  5
55F
  8
LAYER_1
 10
9.730617774730334
 20
9.63866220072924
 30
0.0
  0
VERTEX
  5
560
  8
LAYER_1
 10
9.767320023876799
 20
9.634869275219796
 30
0.0
  0
VERTEX
  5
561
  8
LAYER_1
 10
9.803943333025813
 20
9.630549730312016
 30
0.0
  0
VERTEX
  5
562
  8
LAYER_1
 10
9.840468972215445
 20
9.625664750893925
 30
0.0
  0
VERTEX
  5
563
  8
LAYER_1
 10
9.91689047913341
 20
9.614436582999485
 30
0.0
  0
VERTEX
  5
564
  8
LAYER_1
 10
9.955080259500372
 20
9.608285429565145
 30
0.0
  0
VERTEX
  5
565
  8
LAYER_1
 10
9.993169201041013
 20
9.601556864407883
 30
0.0
  0
VERTEX
  5
566
  8
LAYER_1
 10
10.0310921611816
 20
9.594086363479073
 30
0.0
  0
VERTEX
  5
567
  8
LAYER_1
 10
10.0687839973484
 20
9.585709402730089
 30
0.0
  0
VERTEX
  5
568
  8
LAYER_1
 10
10.08752288688735
 20
9.581129586157834
 30
0.0
  0
VERTEX
  5
569
  8
LAYER_1
 10
10.10617956696769
 20
9.576261458112299
 30
0.0
  0
VERTEX
  5
56A
  8
LAYER_1
 10
10.12474589476773
 20
9.571084453087407
 30
0.0
  0
VERTEX
  5
56B
  8
LAYER_1
 10
10.14321372746574
 20
9.565578005577075
 30
0.0
  0
VERTEX
  5
56C
  8
LAYER_1
 10
10.17026156736007
 20
9.556972341666592
 30
0.0
  0
VERTEX
  5
56D
  8
LAYER_1
 10
10.19716357042729
 20
9.54789918958259
 30
0.0
  0
VERTEX
  5
56E
  8
LAYER_1
 10
10.22392514947008
 20
9.538386835032403
 30
0.0
  0
VERTEX
  5
56F
  8
LAYER_1
 10
10.2505517172911
 20
9.52846356372336
 30
0.0
  0
VERTEX
  5
570
  8
LAYER_1
 10
10.27704868669303
 20
9.518157661362789
 30
0.0
  0
VERTEX
  5
571
  8
LAYER_1
 10
10.30342147047853
 20
9.507497413658026
 30
0.0
  0
VERTEX
  5
572
  8
LAYER_1
 10
10.32967548145028
 20
9.4965111063164
 30
0.0
  0
VERTEX
  5
573
  8
LAYER_1
 10
10.35581613241094
 20
9.48522702504524
 30
0.0
  0
VERTEX
  5
574
  8
LAYER_1
 10
10.4077790055097
 20
9.461878683543652
 30
0.0
  0
VERTEX
  5
575
  8
LAYER_1
 10
10.45935339219616
 20
9.43767867481191
 30
0.0
  0
VERTEX
  5
576
  8
LAYER_1
 10
10.51058259489169
 20
9.41285328450866
 30
0.0
  0
VERTEX
  5
577
  8
LAYER_1
 10
10.56150991601766
 20
9.387628798292555
 30
0.0
  0
VERTEX
  5
578
  8
LAYER_1
 10
10.57196751421175
 20
9.381704062453817
 30
0.0
  0
VERTEX
  5
579
  8
LAYER_1
 10
10.58310607559707
 20
9.374450885306192
 30
0.0
  0
VERTEX
  5
57A
  8
LAYER_1
 10
10.59474209232113
 20
9.366594689841595
 30
0.0
  0
VERTEX
  5
57B
  8
LAYER_1
 10
10.60669205653143
 20
9.358860899051942
 30
0.0
  0
VERTEX
  5
57C
  8
LAYER_1
 10
10.61877246037548
 20
9.351974935929153
 30
0.0
  0
VERTEX
  5
57D
  8
LAYER_1
 10
10.62480423095625
 20
9.349076584427808
 30
0.0
  0
VERTEX
  5
57E
  8
LAYER_1
 10
10.63079979600077
 20
9.346662223465145
 30
0.0
  0
VERTEX
  5
57F
  8
LAYER_1
 10
10.63673621702748
 20
9.344822530915158
 30
0.0
  0
VERTEX
  5
580
  8
LAYER_1
 10
10.64259055555481
 20
9.343648184651837
 30
0.0
  0
VERTEX
  5
581
  8
LAYER_1
 10
10.6483398731012
 20
9.343229862549169
 30
0.0
  0
VERTEX
  5
582
  8
LAYER_1
 10
10.6539612311851
 20
9.343658242481144
 30
0.0
  0
VERTEX
  5
583
  8
LAYER_1
 10
10.68184096782252
 20
9.347847534984727
 30
0.0
  0
VERTEX
  5
584
  8
LAYER_1
 10
10.70688943466506
 20
9.351110728876932
 30
0.0
  0
VERTEX
  5
585
  8
LAYER_1
 10
10.72975819829454
 20
9.35356110280495
 30
0.0
  0
VERTEX
  5
586
  8
LAYER_1
 10
10.75109882529277
 20
9.355311935415976
 30
0.0
  0
VERTEX
  5
587
  8
LAYER_1
 10
10.77156288224157
 20
9.356476505357215
 30
0.0
  0
VERTEX
  5
588
  8
LAYER_1
 10
10.79180193572276
 20
9.357168091275852
 30
0.0
  0
VERTEX
  5
589
  8
LAYER_1
 10
10.83421129860952
 20
9.357585425634129
 30
0.0
  0
VERTEX
  5
58A
  8
LAYER_1
 10
10.83837472677845
 20
9.357192373973676
 30
0.0
  0
VERTEX
  5
58B
  8
LAYER_1
 10
10.84249036982206
 20
9.356072746465003
 30
0.0
  0
VERTEX
  5
58C
  8
LAYER_1
 10
10.84648256527874
 20
9.354315834317134
 30
0.0
  0
VERTEX
  5
58D
  8
LAYER_1
 10
10.85027565068688
 20
9.352010928739102
 30
0.0
  0
VERTEX
  5
58E
  8
LAYER_1
 10
10.85379396358488
 20
9.34924732093993
 30
0.0
  0
VERTEX
  5
58F
  8
LAYER_1
 10
10.85696184151113
 20
9.34611430212865
 30
0.0
  0
VERTEX
  5
590
  8
LAYER_1
 10
10.85970362200401
 20
9.342701163514285
 30
0.0
  0
VERTEX
  5
591
  8
LAYER_1
 10
10.86194364260191
 20
9.339097196305865
 30
0.0
  0
VERTEX
  5
592
  8
LAYER_1
 10
10.86340570792385
 20
9.335581442129218
 30
0.0
  0
VERTEX
  5
593
  8
LAYER_1
 10
10.86431023482315
 20
9.331677450490051
 30
0.0
  0
VERTEX
  5
594
  8
LAYER_1
 10
10.86473781296059
 20
9.327441207327624
 30
0.0
  0
VERTEX
  5
595
  8
LAYER_1
 10
10.86476903199698
 20
9.322928698581197
 30
0.0
  0
VERTEX
  5
596
  8
LAYER_1
 10
10.86396475140976
 20
9.313298828093375
 30
0.0
  0
VERTEX
  5
597
  8
LAYER_1
 10
10.86254211034781
 20
9.303235726540656
 30
0.0
  0
VERTEX
  5
598
  8
LAYER_1
 10
10.86114582609748
 20
9.293187281437113
 30
0.0
  0
VERTEX
  5
599
  8
LAYER_1
 10
10.86042061594511
 20
9.283601380296819
 30
0.0
  0
VERTEX
  5
59A
  8
LAYER_1
 10
10.86051113780764
 20
9.279121848561038
 30
0.0
  0
VERTEX
  5
59B
  8
LAYER_1
 10
10.86101119717704
 20
9.274925910633847
 30
0.0
  0
VERTEX
  5
59C
  8
LAYER_1
 10
10.8620013837141
 20
9.271069552454506
 30
0.0
  0
VERTEX
  5
59D
  8
LAYER_1
 10
10.86356228707961
 20
9.267608759962272
 30
0.0
  0
VERTEX
  5
59E
  8
LAYER_1
 10
10.86661645768038
 20
9.263140107668232
 30
0.0
  0
VERTEX
  5
59F
  8
LAYER_1
 10
10.87012707465776
 20
9.259407296149972
 30
0.0
  0
VERTEX
  5
5A0
  8
LAYER_1
 10
10.87404535827435
 20
9.25632047894313
 30
0.0
  0
VERTEX
  5
5A1
  8
LAYER_1
 10
10.87832252879276
 20
9.253789809583335
 30
0.0
  0
VERTEX
  5
5A2
  8
LAYER_1
 10
10.88290980647559
 20
9.251725441606222
 30
0.0
  0
VERTEX
  5
5A3
  8
LAYER_1
 10
10.88775841158544
 20
9.250037528547427
 30
0.0
  0
VERTEX
  5
5A4
  8
LAYER_1
 10
10.89804448513661
 20
9.247431681327306
 30
0.0
  0
VERTEX
  5
5A5
  8
LAYER_1
 10
10.90879051154708
 20
9.245253496208031
 30
0.0
  0
VERTEX
  5
5A6
  8
LAYER_1
 10
10.91960625291768
 20
9.24278420147466
 30
0.0
  0
VERTEX
  5
5A7
  8
LAYER_1
 10
10.92491831736953
 20
9.24121577184177
 30
0.0
  0
VERTEX
  5
5A8
  8
LAYER_1
 10
10.93010147134922
 20
9.239305025412252
 30
0.0
  0
VERTEX
  5
5A9
  8
LAYER_1
 10
10.93510693511935
 20
9.23696211572174
 30
0.0
  0
VERTEX
  5
5AA
  8
LAYER_1
 10
10.93988592894252
 20
9.234097196305866
 30
0.0
  0
VERTEX
  5
5AB
  8
LAYER_1
 10
10.95647627285351
 20
9.222691894382503
 30
0.0
  0
VERTEX
  5
5AC
  8
LAYER_1
 10
10.97277469112399
 20
9.210800341898667
 30
0.0
  0
VERTEX
  5
5AD
  8
LAYER_1
 10
10.98069104068205
 20
9.204570642824077
 30
0.0
  0
VERTEX
  5
5AE
  8
LAYER_1
 10
10.98838634387559
 20
9.19809748646238
 30
0.0
  0
VERTEX
  5
5AF
  8
LAYER_1
 10
10.99581124571981
 20
9.191340241264578
 30
0.0
  0
VERTEX
  5
5B0
  8
LAYER_1
 10
11.00291639122991
 20
9.184258275681675
 30
0.0
  0
VERTEX
  5
5B1
  8
LAYER_1
 10
11.01224251626754
 20
9.174012273712874
 30
0.0
  0
VERTEX
  5
5B2
  8
LAYER_1
 10
11.02111837894855
 20
9.16335698907858
 30
0.0
  0
VERTEX
  5
5B3
  8
LAYER_1
 10
11.02959232120744
 20
9.152351311286093
 30
0.0
  0
VERTEX
  5
5B4
  8
LAYER_1
 10
11.03771268497876
 20
9.141054129842715
 30
0.0
  0
VERTEX
  5
5B5
  8
LAYER_1
 10
11.05308604479678
 20
9.11782081403251
 30
0.0
  0
VERTEX
  5
5B6
  8
LAYER_1
 10
11.06762519387883
 20
9.094128157706397
 30
0.0
  0
VERTEX
  5
5B7
  8
LAYER_1
 10
11.07018888637714
 20
9.089395435146537
 30
0.0
  0
VERTEX
  5
5B8
  8
LAYER_1
 10
11.07236157237213
 20
9.08445507470617
 30
0.0
  0
VERTEX
  5
5B9
  8
LAYER_1
 10
11.07417907161745
 20
9.079330119625187
 30
0.0
  0
VERTEX
  5
5BA
  8
LAYER_1
 10
11.07567720386671
 20
9.074043613143484
 30
0.0
  0
VERTEX
  5
5BB
  8
LAYER_1
 10
11.0778586463916
 20
9.063078118937508
 30
0.0
  0
VERTEX
  5
5BC
  8
LAYER_1
 10
11.07919245797584
 20
9.05174293800741
 30
0.0
  0
VERTEX
  5
5BD
  8
LAYER_1
 10
11.08046342043849
 20
9.028700899651511
 30
0.0
  0
VERTEX
  5
5BE
  8
LAYER_1
 10
11.08097368737497
 20
9.017362734064047
 30
0.0
  0
VERTEX
  5
5BF
  8
LAYER_1
 10
11.08178255548695
 20
9.006392265429126
 30
0.0
  0
VERTEX
  5
5C0
  8
LAYER_1
 10
11.08331024542752
 20
8.988322865370286
 30
0.0
  0
VERTEX
  5
5C1
  8
LAYER_1
 10
11.08360126714718
 20
8.980272947219916
 30
0.0
  0
VERTEX
  5
5C2
  8
LAYER_1
 10
11.0834406714814
 20
8.972544999141876
 30
0.0
  0
VERTEX
  5
5C3
  8
LAYER_1
 10
11.08272615701641
 20
8.96488810775088
 30
0.0
  0
VERTEX
  5
5C4
  8
LAYER_1
 10
11.08135542233844
 20
8.957051359661655
 30
0.0
  0
VERTEX
  5
5C5
  8
LAYER_1
 10
11.07922616603371
 20
8.948783841488915
 30
0.0
  0
VERTEX
  5
5C6
  8
LAYER_1
 10
11.07623608668847
 20
8.939834639847383
 30
0.0
  0
VERTEX
  5
5C7
  8
LAYER_1
 10
11.06800815150944
 20
8.914921086851862
 30
0.0
  0
VERTEX
  5
5C8
  8
LAYER_1
 10
11.06040619922438
 20
8.890291502589175
 30
0.0
  0
VERTEX
  5
5C9
  8
LAYER_1
 10
11.0562333142752
 20
8.878200175856044
 30
0.0
  0
VERTEX
  5
5CA
  8
LAYER_1
 10
11.05148894217924
 20
8.866320213854205
 30
0.0
  0
VERTEX
  5
5CB
  8
LAYER_1
 10
11.04593042197974
 20
8.854698407433018
 30
0.0
  0
VERTEX
  5
5CC
  8
LAYER_1
 10
11.04277002479217
 20
8.848998934705595
 30
0.0
  0
VERTEX
  5
5CD
  8
LAYER_1
 10
11.03931509271993
 20
8.843381547441846
 30
0.0
  0
VERTEX
  5
5CE
  8
LAYER_1
 10
11.03220828765442
 20
8.83270484344634
 30
0.0
  0
VERTEX
  5
5CF
  8
LAYER_1
 10
11.02479269358978
 20
8.822185360648401
 30
0.0
  0
VERTEX
  5
5D0
  8
LAYER_1
 10
11.01705149728229
 20
8.8118769244222
 30
0.0
  0
VERTEX
  5
5D1
  8
LAYER_1
 10
11.00896788548821
 20
8.80183336014191
 30
0.0
  0
VERTEX
  5
5D2
  8
LAYER_1
 10
11.00052504496381
 20
8.792108493181695
 30
0.0
  0
VERTEX
  5
5D3
  8
LAYER_1
 10
10.99170616246538
 20
8.782756148915732
 30
0.0
  0
VERTEX
  5
5D4
  8
LAYER_1
 10
10.98249442474918
 20
8.77383015271819
 30
0.0
  0
VERTEX
  5
5D5
  8
LAYER_1
 10
10.97287301857149
 20
8.76538432996324
 30
0.0
  0
VERTEX
  5
5D6
  8
LAYER_1
 10
10.96211261937922
 20
8.756797745133861
 30
0.0
  0
VERTEX
  5
5D7
  8
LAYER_1
 10
10.95096266365845
 20
8.748638996476602
 30
0.0
  0
VERTEX
  5
5D8
  8
LAYER_1
 10
10.93945400822918
 20
8.740938678023886
 30
0.0
  0
VERTEX
  5
5D9
  8
LAYER_1
 10
10.9276175099114
 20
8.733727383808136
 30
0.0
  0
VERTEX
  5
5DA
  8
LAYER_1
 10
10.91548402552511
 20
8.727035707861774
 30
0.0
  0
VERTEX
  5
5DB
  8
LAYER_1
 10
10.90308441189032
 20
8.72089424421722
 30
0.0
  0
VERTEX
  5
5DC
  8
LAYER_1
 10
10.89044952582702
 20
8.715333586906903
 30
0.0
  0
VERTEX
  5
5DD
  8
LAYER_1
 10
10.8776102241552
 20
8.71038432996324
 30
0.0
  0
VERTEX
  5
5DE
  8
LAYER_1
 10
10.86618020033272
 20
8.70656616695759
 30
0.0
  0
VERTEX
  5
5DF
  8
LAYER_1
 10
10.8546265401493
 20
8.70322256791258
 30
0.0
  0
VERTEX
  5
5E0
  8
LAYER_1
 10
10.84296172528613
 20
8.70030438882435
 30
0.0
  0
VERTEX
  5
5E1
  8
LAYER_1
 10
10.8311982374244
 20
8.697762485689037
 30
0.0
  0
VERTEX
  5
5E2
  8
LAYER_1
 10
10.80742516943004
 20
8.693610931261714
 30
0.0
  0
VERTEX
  5
5E3
  8
LAYER_1
 10
10.78340718961575
 20
8.690374752599714
 30
0.0
  0
VERTEX
  5
5E4
  8
LAYER_1
 10
10.73503590832551
 20
8.685075914448099
 30
0.0
  0
VERTEX
  5
5E5
  8
LAYER_1
 10
10.71088231374862
 20
8.682226950896688
 30
0.0
  0
VERTEX
  5
5E6
  8
LAYER_1
 10
10.68688322114994
 20
8.678720754987014
 30
0.0
  0
VERTEX
  5
5E7
  8
LAYER_1
 10
10.70570416572647
 20
8.723299598332877
 30
0.0
  0
VERTEX
  5
5E8
  8
LAYER_1
 10
10.7150254777641
 20
8.745590982090748
 30
0.0
  0
VERTEX
  5
5E9
  8
LAYER_1
 10
10.72408679253764
 20
8.76797816354031
 30
0.0
  0
VERTEX
  5
5EA
  8
LAYER_1
 10
10.73011220780585
 20
8.783391993382917
 30
0.0
  0
VERTEX
  5
5EB
  8
LAYER_1
 10
10.73293987355334
 20
8.791186766360731
 30
0.0
  0
VERTEX
  5
5EC
  8
LAYER_1
 10
10.73549847100377
 20
8.799047837034397
 30
0.0
  0
VERTEX
  5
5ED
  8
LAYER_1
 10
10.73767871987765
 20
8.80698099964754
 30
0.0
  0
VERTEX
  5
5EE
  8
LAYER_1
 10
10.73937133989551
 20
8.814992048443791
 30
0.0
  0
VERTEX
  5
5EF
  8
LAYER_1
 10
10.74046705077784
 20
8.823086777666783
 30
0.0
  0
VERTEX
  5
5F0
  8
LAYER_1
 10
10.74085657224517
 20
8.831270981560145
 30
0.0
  0
VERTEX
  5
5F1
  8
LAYER_1
 10
10.74105994276779
 20
8.838582460200826
 30
0.0
  0
VERTEX
  5
5F2
  8
LAYER_1
 10
10.74159610141831
 20
8.84558544934443
 30
0.0
  0
VERTEX
  5
5F3
  8
LAYER_1
 10
10.74322306559919
 20
8.859077278469854
 30
0.0
  0
VERTEX
  5
5F4
  8
LAYER_1
 10
10.74485002978008
 20
8.872569107595277
 30
0.0
  0
VERTEX
  5
5F5
  8
LAYER_1
 10
10.7453861884306
 20
8.879572096738883
 30
0.0
  0
VERTEX
  5
5F6
  8
LAYER_1
 10
10.74558955895321
 20
8.88688357537956
 30
0.0
  0
VERTEX
  5
5F7
  8
LAYER_1
 10
10.74529079912147
 20
8.892340833651044
 30
0.0
  0
VERTEX
  5
5F8
  8
LAYER_1
 10
10.74444008101973
 20
8.898609845087904
 30
0.0
  0
VERTEX
  5
5F9
  8
LAYER_1
 10
10.74310574673819
 20
8.905384548953068
 30
0.0
  0
VERTEX
  5
5FA
  8
LAYER_1
 10
10.74135613836707
 20
8.912358884509452
 30
0.0
  0
VERTEX
  5
5FB
  8
LAYER_1
 10
10.73925959799656
 20
8.919226791019977
 30
0.0
  0
VERTEX
  5
5FC
  8
LAYER_1
 10
10.73688446771687
 20
8.92568220774757
 30
0.0
  0
VERTEX
  5
5FD
  8
LAYER_1
 10
10.73429908961822
 20
8.931419073955148
 30
0.0
  0
VERTEX
  5
5FE
  8
LAYER_1
 10
10.7315718057908
 20
8.936131328905631
 30
0.0
  0
VERTEX
  5
5FF
  8
LAYER_1
 10
10.7286283089166
 20
8.940159397516972
 30
0.0
  0
VERTEX
  5
600
  8
LAYER_1
 10
10.72542885150027
 20
8.943990813259743
 30
0.0
  0
VERTEX
  5
601
  8
LAYER_1
 10
10.7184356692502
 20
8.951175543473624
 30
0.0
  0
VERTEX
  5
602
  8
LAYER_1
 10
10.70328753454334
 20
8.964415600153092
 30
0.0
  0
VERTEX
  5
603
  8
LAYER_1
 10
10.69492527436687
 20
8.971821713253524
 30
0.0
  0
VERTEX
  5
604
  8
LAYER_1
 10
10.68640400811522
 20
8.9791732797507
 30
0.0
  0
VERTEX
  5
605
  8
LAYER_1
 10
10.68197000131672
 20
8.982551944941324
 30
0.0
  0
VERTEX
  5
606
  8
LAYER_1
 10
10.67735974732605
 20
8.98558497778304
 30
0.0
  0
VERTEX
  5
607
  8
LAYER_1
 10
10.67252774758543
 20
8.988161713043151
 30
0.0
  0
VERTEX
  5
608
  8
LAYER_1
 10
10.66742850353705
 20
8.990171485488961
 30
0.0
  0
VERTEX
  5
609
  8
LAYER_1
 10
10.66141256718176
 20
8.991636315042758
 30
0.0
  0
VERTEX
  5
60A
  8
LAYER_1
 10
10.65527109450479
 20
8.99232388809862
 30
0.0
  0
VERTEX
  5
60B
  8
LAYER_1
 10
10.64903341600344
 20
8.992413571540688
 30
0.0
  0
VERTEX
  5
60C
  8
LAYER_1
 10
10.64272886217504
 20
8.992084732253101
 30
0.0
  0
VERTEX
  5
60D
  8
LAYER_1
 10
10.63003645052629
 20
8.990888953025514
 30
0.0
  0
VERTEX
  5
60E
  8
LAYER_1
 10
10.62370725370058
 20
8.990380746853788
 30
0.0
  0
VERTEX
  5
60F
  8
LAYER_1
 10
10.61742850353705
 20
8.990171485488961
 30
0.0
  0
VERTEX
  5
610
  8
LAYER_1
 10
10.60739783467818
 20
8.990454285736211
 30
0.0
  0
VERTEX
  5
611
  8
LAYER_1
 10
10.59730835316378
 20
8.991141086336675
 30
0.0
  0
VERTEX
  5
612
  8
LAYER_1
 10
10.57708810254167
 20
8.992757087749535
 30
0.0
  0
VERTEX
  5
613
  8
LAYER_1
 10
10.56702490862059
 20
8.993201488138073
 30
0.0
  0
VERTEX
  5
614
  8
LAYER_1
 10
10.55703805241725
 20
8.993080288032107
 30
0.0
  0
VERTEX
  5
615
  8
LAYER_1
 10
10.54716132152496
 20
8.992151087219714
 30
0.0
  0
VERTEX
  5
616
  8
LAYER_1
 10
10.54227481169338
 20
8.991307736482378
 30
0.0
  0
VERTEX
  5
617
  8
LAYER_1
 10
10.53742850353705
 20
8.990171485488961
 30
0.0
  0
VERTEX
  5
618
  8
LAYER_1
 10
10.52909284541345
 20
8.987548468430226
 30
0.0
  0
VERTEX
  5
619
  8
LAYER_1
 10
10.52097293707233
 20
8.984259387111734
 30
0.0
  0
VERTEX
  5
61A
  8
LAYER_1
 10
10.51306918017111
 20
8.980386990386037
 30
0.0
  0
VERTEX
  5
61B
  8
LAYER_1
 10
10.50538197636717
 20
8.976014027105695
 30
0.0
  0
VERTEX
  5
61C
  8
LAYER_1
 10
10.49791172731791
 20
8.97122324612326
 30
0.0
  0
VERTEX
  5
61D
  8
LAYER_1
 10
10.49065883468071
 20
8.966097396291289
 30
0.0
  0
VERTEX
  5
61E
  8
LAYER_1
 10
10.47680672527213
 20
8.955171485488963
 30
0.0
  0
VERTEX
  5
61F
  8
LAYER_1
 10
10.46938907641879
 20
8.948692934544269
 30
0.0
  0
VERTEX
  5
620
  8
LAYER_1
 10
10.46223454662607
 20
8.941876456201065
 30
0.0
  0
VERTEX
  5
621
  8
LAYER_1
 10
10.45536333636677
 20
8.934743543841474
 30
0.0
  0
VERTEX
  5
622
  8
LAYER_1
 10
10.44879564611367
 20
8.927315690847621
 30
0.0
  0
VERTEX
  5
623
  8
LAYER_1
 10
10.4425516763396
 20
8.919614390601634
 30
0.0
  0
VERTEX
  5
624
  8
LAYER_1
 10
10.43665162751733
 20
8.911661136485634
 30
0.0
  0
VERTEX
  5
625
  8
LAYER_1
 10
10.43111570011967
 20
8.903477421881753
 30
0.0
  0
VERTEX
  5
626
  8
LAYER_1
 10
10.42596409461941
 20
8.895084740172111
 30
0.0
  0
VERTEX
  5
627
  8
LAYER_1
 10
10.42113779226493
 20
8.88608616412044
 30
0.0
  0
VERTEX
  5
628
  8
LAYER_1
 10
10.41689344278362
 20
8.876797608652987
 30
0.0
  0
VERTEX
  5
629
  8
LAYER_1
 10
10.41312265725441
 20
8.867277716376766
 30
0.0
  0
VERTEX
  5
62A
  8
LAYER_1
 10
10.40971704675626
 20
8.857585129898789
 30
0.0
  0
VERTEX
  5
62B
  8
LAYER_1
 10
10.40356779516885
 20
8.837916444765613
 30
0.0
  0
VERTEX
  5
62C
  8
LAYER_1
 10
10.3975785766529
 20
8.818260694109558
 30
0.0
  0
VERTEX
  5
62D
  8
LAYER_1
 10
10.39444066367558
 20
8.807460844082343
 30
0.0
  0
VERTEX
  5
62E
  8
LAYER_1
 10
10.39172045361628
 20
8.796521952112183
 30
0.0
  0
VERTEX
  5
62F
  8
LAYER_1
 10
10.38682699282706
 20
8.774466945932616
 30
0.0
  0
VERTEX
  5
630
  8
LAYER_1
 10
10.38430066738483
 20
8.763470783517995
 30
0.0
  0
VERTEX
  5
631
  8
LAYER_1
 10
10.38148589543597
 20
8.752575482750014
 30
0.0
  0
VERTEX
  5
632
  8
LAYER_1
 10
10.3782061396243
 20
8.741841019526063
 30
0.0
  0
VERTEX
  5
633
  8
LAYER_1
 10
10.37428486259368
 20
8.731327369743541
 30
0.0
  0
VERTEX
  5
634
  8
LAYER_1
 10
10.36808212940213
 20
8.717650018224354
 30
0.0
  0
VERTEX
  5
635
  8
LAYER_1
 10
10.36097875198353
 20
8.704368640134799
 30
0.0
  0
VERTEX
  5
636
  8
LAYER_1
 10
10.35302842987001
 20
8.691576245792849
 30
0.0
  0
VERTEX
  5
637
  8
LAYER_1
 10
10.34428486259368
 20
8.679365845516475
 30
0.0
  0
VERTEX
  5
638
  8
LAYER_1
 10
10.33565157518877
 20
8.668691348915749
 30
0.0
  0
VERTEX
  5
639
  8
LAYER_1
 10
10.32653368895703
 20
8.658419641313325
 30
0.0
  0
VERTEX
  5
63A
  8
LAYER_1
 10
10.31701787033524
 20
8.648485296547111
 30
0.0
  0
VERTEX
  5
63B
  8
LAYER_1
 10
10.30719078576019
 20
8.638822888455014
 30
0.0
  0
VERTEX
  5
63C
  8
LAYER_1
 10
10.28694948449746
 20
8.620052177644803
 30
0.0
  0
VERTEX
  5
63D
  8
LAYER_1
 10
10.26650311666316
 20
8.601584099585954
 30
0.0
  0
VERTEX
  5
63E
  8
LAYER_1
 10
10.25026309752848
 20
8.58714967597498
 30
0.0
  0
VERTEX
  5
63F
  8
LAYER_1
 10
10.23367986551715
 20
8.573094152638173
 30
0.0
  0
VERTEX
  5
640
  8
LAYER_1
 10
10.21675330125008
 20
8.55941743077906
 30
0.0
  0
VERTEX
  5
641
  8
LAYER_1
 10
10.19948328534821
 20
8.546119411601168
 30
0.0
  0
VERTEX
  5
642
  8
LAYER_1
 10
10.05688182243834
 20
8.542696427714397
 30
0.0
  0
VERTEX
  5
643
  8
LAYER_1
 10
9.918840474239325
 20
8.539891639639492
 30
0.0
  0
VERTEX
  5
644
  8
LAYER_1
 10
9.650080376342228
 20
8.53528341306403
 30
0.0
  0
VERTEX
  5
645
  8
LAYER_1
 10
9.380487500393759
 20
8.530588256152274
 30
0.0
  0
VERTEX
  5
646
  8
LAYER_1
 10
9.241405179630522
 20
8.527674805157003
 30
0.0
  0
VERTEX
  5
647
  8
LAYER_1
 10
9.09734635513076
 20
8.524099693181723
 30
0.0
  0
VERTEX
  5
648
  8
LAYER_1
 10
9.09533301059075
 20
8.524138442289859
 30
0.0
  0
VERTEX
  5
649
  8
LAYER_1
 10
9.093555240771066
 20
8.52448740126526
 30
0.0
  0
VERTEX
  5
64A
  8
LAYER_1
 10
9.092053288044346
 20
8.525323844579582
 30
0.0
  0
VERTEX
  5
64B
  8
LAYER_1
 10
9.090867394783228
 20
8.52682504670448
 30
0.0
  0
VERTEX
  5
64C
  8
LAYER_1
 10
9.090037803360348
 20
8.52916828211161
 30
0.0
  0
VERTEX
  5
64D
  8
LAYER_1
 10
9.089604756148344
 20
8.532530825272627
 30
0.0
  0
VERTEX
  5
64E
  8
LAYER_1
 10
9.089608495519855
 20
8.537089950659182
 30
0.0
  0
VERTEX
  5
64F
  8
LAYER_1
 10
9.090089263847517
 20
8.543022932742932
 30
0.0
  0
VERTEX
  5
650
  8
LAYER_1
 10
9.09649067989169
 20
8.556802929994085
 30
0.0
  0
VERTEX
  5
651
  8
LAYER_1
 10
9.10315818511237
 20
8.569721907547656
 30
0.0
  0
VERTEX
  5
652
  8
LAYER_1
 10
9.116406987805522
 20
8.592977809681596
 30
0.0
  0
VERTEX
  5
653
  8
LAYER_1
 10
9.128066721371532
 20
8.612792651383852
 30
0.0
  0
VERTEX
  5
654
  8
LAYER_1
 10
9.132747890183282
 20
8.621410303397818
 30
0.0
  0
VERTEX
  5
655
  8
LAYER_1
 10
9.136368435254955
 20
8.629168444893526
 30
0.0
  0
VERTEX
  5
656
  8
LAYER_1
 10
9.141376294123926
 20
8.642255945844049
 30
0.0
  0
VERTEX
  5
657
  8
LAYER_1
 10
9.145566815206344
 20
8.655050902190201
 30
0.0
  0
VERTEX
  5
658
  8
LAYER_1
 10
9.149087211045032
 20
8.667687019847868
 30
0.0
  0
VERTEX
  5
659
  8
LAYER_1
 10
9.152084694182815
 20
8.680298004732936
 30
0.0
  0
VERTEX
  5
65A
  8
LAYER_1
 10
9.157099772526946
 20
8.705979399848836
 30
0.0
  0
VERTEX
  5
65B
  8
LAYER_1
 10
9.161789750581313
 20
8.733164734865001
 30
0.0
  0
VERTEX
  5
65C
  8
LAYER_1
 10
9.166252128187404
 20
8.758612146328877
 30
0.0
  0
VERTEX
  5
65D
  8
LAYER_1
 10
9.168367738359079
 20
8.771782093117862
 30
0.0
  0
VERTEX
  5
65E
  8
LAYER_1
 10
9.170181091521227
 20
8.785085093518319
 30
0.0
  0
VERTEX
  5
65F
  8
LAYER_1
 10
9.171523284232396
 20
8.798397817210327
 30
0.0
  0
VERTEX
  5
660
  8
LAYER_1
 10
9.172225413051127
 20
8.81159693387397
 30
0.0
  0
VERTEX
  5
661
  8
LAYER_1
 10
9.172118574535961
 20
8.824559113189324
 30
0.0
  0
VERTEX
  5
662
  8
LAYER_1
 10
9.171033865245443
 20
8.837161024836472
 30
0.0
  0
VERTEX
  5
663
  8
LAYER_1
 10
9.16927722397324
 20
8.84932991696831
 30
0.0
  0
VERTEX
  5
664
  8
LAYER_1
 10
9.167208403693113
 20
8.861116672353656
 30
0.0
  0
VERTEX
  5
665
  8
LAYER_1
 10
9.16473922223377
 20
8.872583412596484
 30
0.0
  0
VERTEX
  5
666
  8
LAYER_1
 10
9.161781497423899
 20
8.883792259300758
 30
0.0
  0
VERTEX
  5
667
  8
LAYER_1
 10
9.158247047092196
 20
8.894805334070453
 30
0.0
  0
VERTEX
  5
668
  8
LAYER_1
 10
9.154047689067356
 20
8.905684758509537
 30
0.0
  0
VERTEX
  5
669
  8
LAYER_1
 10
9.149095241178076
 20
8.916492654221978
 30
0.0
  0
VERTEX
  5
66A
  8
LAYER_1
 10
9.14330152125305
 20
8.92729114281175
 30
0.0
  0
VERTEX
  5
66B
  8
LAYER_1
 10
9.137069530212006
 20
8.93748530519904
 30
0.0
  0
VERTEX
  5
66C
  8
LAYER_1
 10
9.130763831029135
 20
8.94657794134838
 30
0.0
  0
VERTEX
  5
66D
  8
LAYER_1
 10
9.124238584614844
 20
8.954777751430257
 30
0.0
  0
VERTEX
  5
66E
  8
LAYER_1
 10
9.117347951879538
 20
8.962293435615152
 30
0.0
  0
VERTEX
  5
66F
  8
LAYER_1
 10
9.109946093733615
 20
8.969333694073553
 30
0.0
  0
VERTEX
  5
670
  8
LAYER_1
 10
9.101887171087483
 20
8.976107226975945
 30
0.0
  0
VERTEX
  5
671
  8
LAYER_1
 10
9.093025344851544
 20
8.98282273449281
 30
0.0
  0
VERTEX
  5
672
  8
LAYER_1
 10
9.083214775936199
 20
8.989688916794634
 30
0.0
  0
VERTEX
  5
673
  8
LAYER_1
 10
9.07035107855601
 20
8.997693571528885
 30
0.0
  0
VERTEX
  5
674
  8
LAYER_1
 10
9.056702535245464
 20
9.004889815557924
 30
0.0
  0
VERTEX
  5
675
  8
LAYER_1
 10
9.042435821572235
 20
9.011322431141153
 30
0.0
  0
VERTEX
  5
676
  8
LAYER_1
 10
9.027717613104002
 20
9.017036200537973
 30
0.0
  0
VERTEX
  5
677
  8
LAYER_1
 10
9.01271458540844
 20
9.02207590600779
 30
0.0
  0
VERTEX
  5
678
  8
LAYER_1
 10
8.99759341405323
 20
9.026486329810009
 30
0.0
  0
VERTEX
  5
679
  8
LAYER_1
 10
8.982520774606044
 20
9.030312254204029
 30
0.0
  0
VERTEX
  5
67A
  8
LAYER_1
 10
8.967663342634562
 20
9.033598461449255
 30
0.0
  0
VERTEX
  5
67B
  8
LAYER_1
 10
8.955979721423908
 20
9.035708347094548
 30
0.0
  0
VERTEX
  5
67C
  8
LAYER_1
 10
8.945186725431817
 20
9.037047975686546
 30
0.0
  0
VERTEX
  5
67D
  8
LAYER_1
 10
8.934981201139045
 20
9.037701063516856
 30
0.0
  0
VERTEX
  5
67E
  8
LAYER_1
 10
8.925059995026343
 20
9.03775132687708
 30
0.0
  0
VERTEX
  5
67F
  8
LAYER_1
 10
8.915119953574468
 20
9.037282482058826
 30
0.0
  0
VERTEX
  5
680
  8
LAYER_1
 10
8.904857923264174
 20
9.036378245353701
 30
0.0
  0
VERTEX
  5
681
  8
LAYER_1
 10
8.88215528199135
 20
9.033598461449255
 30
0.0
  0
VERTEX
  5
682
  8
LAYER_1
 10
8.869843390830127
 20
9.032529287307305
 30
0.0
  0
VERTEX
  5
683
  8
LAYER_1
 10
8.857668083718659
 20
9.032295103533949
 30
0.0
  0
VERTEX
  5
684
  8
LAYER_1
 10
8.83372140740137
 20
9.032612389103788
 30
0.0
  0
VERTEX
  5
685
  8
LAYER_1
 10
8.821947131073738
 20
9.032304199452373
 30
0.0
  0
VERTEX
  5
686
  8
LAYER_1
 10
8.810303624552237
 20
9.031111682180327
 30
0.0
  0
VERTEX
  5
687
  8
LAYER_1
 10
8.804530455731003
 20
9.030049478968662
 30
0.0
  0
VERTEX
  5
688
  8
LAYER_1
 10
8.798789434275964
 20
9.028605007790349
 30
0.0
  0
VERTEX
  5
689
  8
LAYER_1
 10
8.793080378492004
 20
9.026724539958224
 30
0.0
  0
VERTEX
  5
68A
  8
LAYER_1
 10
8.78740310668401
 20
9.024354346785126
 30
0.0
  0
VERTEX
  5
68B
  8
LAYER_1
 10
8.774660518081909
 20
9.01816944467632
 30
0.0
  0
VERTEX
  5
68C
  8
LAYER_1
 10
8.762598040602537
 20
9.011738796840698
 30
0.0
  0
VERTEX
  5
68D
  8
LAYER_1
 10
8.75112779046145
 20
9.004954587621805
 30
0.0
  0
VERTEX
  5
68E
  8
LAYER_1
 10
8.740161883874205
 20
8.997709001363182
 30
0.0
  0
VERTEX
  5
68F
  8
LAYER_1
 10
8.729612437056359
 20
8.98989422240837
 30
0.0
  0
VERTEX
  5
690
  8
LAYER_1
 10
8.719391566223464
 20
8.981402435100918
 30
0.0
  0
VERTEX
  5
691
  8
LAYER_1
 10
8.709411387591082
 20
8.97212582378436
 30
0.0
  0
VERTEX
  5
692
  8
LAYER_1
 10
8.699584017374764
 20
8.96195657280224
 30
0.0
  0
VERTEX
  5
693
  8
LAYER_1
 10
8.69116293023714
 20
8.952438310432404
 30
0.0
  0
VERTEX
  5
694
  8
LAYER_1
 10
8.682832317828481
 20
8.942359516950157
 30
0.0
  0
VERTEX
  5
695
  8
LAYER_1
 10
8.674653773710585
 20
8.931839689073986
 30
0.0
  0
VERTEX
  5
696
  8
LAYER_1
 10
8.666688891445249
 20
8.920998323522376
 30
0.0
  0
VERTEX
  5
697
  8
LAYER_1
 10
8.658999264594268
 20
8.909954917013813
 30
0.0
  0
VERTEX
  5
698
  8
LAYER_1
 10
8.651646486719441
 20
8.898828966266786
 30
0.0
  0
VERTEX
  5
699
  8
LAYER_1
 10
8.64469215138256
 20
8.887739967999774
 30
0.0
  0
VERTEX
  5
69A
  8
LAYER_1
 10
8.638197852145424
 20
8.87680741893127
 30
0.0
  0
VERTEX
  5
69B
  8
LAYER_1
 10
8.632535889641186
 20
8.865760050123669
 30
0.0
  0
VERTEX
  5
69C
  8
LAYER_1
 10
8.627894391838517
 20
8.854303258131278
 30
0.0
  0
VERTEX
  5
69D
  8
LAYER_1
 10
8.624058693302487
 20
8.842521537910443
 30
0.0
  0
VERTEX
  5
69E
  8
LAYER_1
 10
8.620814128598173
 20
8.830499384417507
 30
0.0
  0
VERTEX
  5
69F
  8
LAYER_1
 10
8.615239738944972
 20
8.806071757440723
 30
0.0
  0
VERTEX
  5
6A0
  8
LAYER_1
 10
8.61248058312623
 20
8.793835273869565
 30
0.0
  0
VERTEX
  5
6A1
  8
LAYER_1
 10
8.609453899399487
 20
8.781696336851688
 30
0.0
  0
VERTEX
  5
6A2
  8
LAYER_1
 10
8.606627394980404
 20
8.769775229413444
 30
0.0
  0
VERTEX
  5
6A3
  8
LAYER_1
 10
8.604421245207869
 20
8.758100078605146
 30
0.0
  0
VERTEX
  5
6A4
  8
LAYER_1
 10
8.6007261566021
 20
8.735272690847571
 30
0.0
  0
VERTEX
  5
6A5
  8
LAYER_1
 10
8.598665291268698
 20
8.72401297588289
 30
0.0
  0
VERTEX
  5
6A6
  8
LAYER_1
 10
8.596080927581507
 20
8.71278426151734
 30
0.0
  0
VERTEX
  5
6A7
  8
LAYER_1
 10
8.592687102290444
 20
8.70153280874322
 30
0.0
  0
VERTEX
  5
6A8
  8
LAYER_1
 10
8.588197852145424
 20
8.690204878552827
 30
0.0
  0
VERTEX
  5
6A9
  8
LAYER_1
 10
8.586036767091146
 20
8.685934580661634
 30
0.0
  0
VERTEX
  5
6AA
  8
LAYER_1
 10
8.583535605578541
 20
8.681897354086315
 30
0.0
  0
VERTEX
  5
6AB
  8
LAYER_1
 10
8.580725706508716
 20
8.678074000084399
 30
0.0
  0
VERTEX
  5
6AC
  8
LAYER_1
 10
8.57763840878277
 20
8.67444531991341
 30
0.0
  0
VERTEX
  5
6AD
  8
LAYER_1
 10
8.570756972966954
 20
8.667695186094326
 30
0.0
  0
VERTEX
  5
6AE
  8
LAYER_1
 10
8.563142009339941
 20
8.661493362689281
 30
0.0
  0
VERTEX
  5
6AF
  8
LAYER_1
 10
8.546714343487706
 20
8.650120287362196
 30
0.0
  0
VERTEX
  5
6B0
  8
LAYER_1
 10
8.53036110089682
 20
8.639097374413893
 30
0.0
  0
VERTEX
  5
6B1
  8
LAYER_1
 10
8.520114915597855
 20
8.631946699634447
 30
0.0
  0
VERTEX
  5
6B2
  8
LAYER_1
 10
8.509663179224559
 20
8.625073490044802
 30
0.0
  0
VERTEX
  5
6B3
  8
LAYER_1
 10
8.48822322269029
 20
8.612119207357846
 30
0.0
  0
VERTEX
  5
6B4
  8
LAYER_1
 10
8.466201570164678
 20
8.600154008198915
 30
0.0
  0
VERTEX
  5
6B5
  8
LAYER_1
 10
8.443758560518377
 20
8.589097374413894
 30
0.0
  0
VERTEX
  5
6B6
  8
LAYER_1
 10
8.413004184506828
 20
8.575202426717764
 30
0.0
  0
VERTEX
  5
6B7
  8
LAYER_1
 10
8.397414697892376
 20
8.568661480010823
 30
0.0
  0
VERTEX
  5
6B8
  8
LAYER_1
 10
8.381684675592517
 20
8.562462637622888
 30
0.0
  0
VERTEX
  5
6B9
  8
LAYER_1
 10
8.365814865147536
 20
8.556659214222655
 30
0.0
  0
VERTEX
  5
6BA
  8
LAYER_1
 10
8.34980601409772
 20
8.551304524478816
 30
0.0
  0
VERTEX
  5
6BB
  8
LAYER_1
 10
8.33365886998335
 20
8.546451883060069
 30
0.0
  0
VERTEX
  5
6BC
  8
LAYER_1
 10
8.31737418034471
 20
8.542154604635105
 30
0.0
  0
VERTEX
  5
6BD
  8
LAYER_1
 10
8.301442776195081
 20
8.538456977122827
 30
0.0
  0
VERTEX
  5
6BE
  8
LAYER_1
 10
8.285434703499785
 20
8.535121367415957
 30
0.0
  0
VERTEX
  5
6BF
  8
LAYER_1
 10
8.253217923664662
 20
8.529416351867956
 30
0.0
  0
VERTEX
  5
6C0
  8
LAYER_1
 10
8.220782583224274
 20
8.524799858890118
 30
0.0
  0
VERTEX
  5
6C1
  8
LAYER_1
 10
8.188187424563555
 20
8.521032189381462
 30
0.0
  0
VERTEX
  5
6C2
  8
LAYER_1
 10
8.122752622120856
 20
8.515084524367765
 30
0.0
  0
VERTEX
  5
6C3
  8
LAYER_1
 10
8.057383455416028
 20
8.50965576401902
 30
0.0
  0
VERTEX
  5
6C4
  8
LAYER_1
 10
8.015279153296408
 20
8.506132937309038
 30
0.0
  0
VERTEX
  5
6C5
  8
LAYER_1
 10
7.973114894246196
 20
8.503039883443538
 30
0.0
  0
VERTEX
  5
6C6
  8
LAYER_1
 10
7.9309043446864
 20
8.500342567825747
 30
0.0
  0
VERTEX
  5
6C7
  8
LAYER_1
 10
7.888661171038038
 20
8.498006955858905
 30
0.0
  0
VERTEX
  5
6C8
  8
LAYER_1
 10
7.804131617159658
 20
8.494284704490985
 30
0.0
  0
VERTEX
  5
6C9
  8
LAYER_1
 10
7.71963556397916
 20
8.49160085256564
 30
0.0
  0
VERTEX
  5
6CA
  8
LAYER_1
 10
7.657209858128283
 20
8.490142167644379
 30
0.0
  0
VERTEX
  5
6CB
  8
LAYER_1
 10
7.594763148033907
 20
8.489100249843478
 30
0.0
  0
VERTEX
  5
6CC
  8
LAYER_1
 10
7.532295322367906
 20
8.488475099162935
 30
0.0
  0
VERTEX
  5
6CD
  8
LAYER_1
 10
7.469806269802156
 20
8.488266715602755
 30
0.0
  0
VERTEX
  5
6CE
  8
LAYER_1
 10
7.407295879008531
 20
8.488475099162935
 30
0.0
  0
VERTEX
  5
6CF
  8
LAYER_1
 10
7.344764038658908
 20
8.489100249843478
 30
0.0
  0
VERTEX
  5
6D0
  8
LAYER_1
 10
7.282210637425159
 20
8.490142167644379
 30
0.0
  0
VERTEX
  5
6D1
  8
LAYER_1
 10
7.219635563979161
 20
8.49160085256564
 30
0.0
  0
VERTEX
  5
6D2
  8
LAYER_1
 10
7.215891279052402
 20
8.505940894612287
 30
0.0
  0
VERTEX
  5
6D3
  8
LAYER_1
 10
7.211481490693362
 20
8.52000937219337
 30
0.0
  0
VERTEX
  5
6D4
  8
LAYER_1
 10
7.206406165111205
 20
8.533806384580044
 30
0.0
  0
VERTEX
  5
6D5
  8
LAYER_1
 10
7.20066526851509
 20
8.547332031043478
 30
0.0
  0
VERTEX
  5
6D6
  8
LAYER_1
 10
7.193452116677777
 20
8.563441957776508
 30
0.0
  0
VERTEX
  5
6D7
  8
LAYER_1
 10
7.185735353871509
 20
8.579422498856692
 30
0.0
  0
VERTEX
  5
6D8
  8
LAYER_1
 10
7.181443920945876
 20
8.587126623624613
 30
0.0
  0
VERTEX
  5
6D9
  8
LAYER_1
 10
7.176733548387032
 20
8.594513250596496
 30
0.0
  0
VERTEX
  5
6DA
  8
LAYER_1
 10
7.171506557231323
 20
8.601487329311404
 30
0.0
  0
VERTEX
  5
6DB
  8
LAYER_1
 10
7.16566526851509
 20
8.60795380930839
 30
0.0
  0
VERTEX
  5
6DC
  8
LAYER_1
 10
7.16201509868089
 20
8.611329153775724
 30
0.0
  0
VERTEX
  5
6DD
  8
LAYER_1
 10
7.158146796168142
 20
8.614415764835389
 30
0.0
  0
VERTEX
  5
6DE
  8
LAYER_1
 10
7.14986505458179
 20
8.619870233142024
 30
0.0
  0
VERTEX
  5
6DF
  8
LAYER_1
 10
7.141038566705607
 20
8.624612107048906
 30
0.0
  0
VERTEX
  5
6E0
  8
LAYER_1
 10
7.131885855489168
 20
8.628936279376646
 30
0.0
  0
VERTEX
  5
6E1
  8
LAYER_1
 10
7.122625443882047
 20
8.63313764294585
 30
0.0
  0
VERTEX
  5
6E2
  8
LAYER_1
 10
7.113475854833818
 20
8.637511090577137
 30
0.0
  0
VERTEX
  5
6E3
  8
LAYER_1
 10
7.104655611294056
 20
8.642351515091114
 30
0.0
  0
VERTEX
  5
6E4
  8
LAYER_1
 10
7.096383236212334
 20
8.64795380930839
 30
0.0
  0
VERTEX
  5
6E5
  8
LAYER_1
 10
7.088714398128327
 20
8.654363151860396
 30
0.0
  0
VERTEX
  5
6E6
  8
LAYER_1
 10
7.081501578587202
 20
8.661320885375233
 30
0.0
  0
VERTEX
  5
6E7
  8
LAYER_1
 10
7.074658520046778
 20
8.668666148668514
 30
0.0
  0
VERTEX
  5
6E8
  8
LAYER_1
 10
7.068098964964873
 20
8.67623808055585
 30
0.0
  0
VERTEX
  5
6E9
  8
LAYER_1
 10
7.064848144507843
 20
8.681206910127253
 30
0.0
  0
VERTEX
  5
6EA
  8
LAYER_1
 10
7.062061352954332
 20
8.686625760835842
 30
0.0
  0
VERTEX
  5
6EB
  8
LAYER_1
 10
7.060586374287018
 20
8.68922459567947
 30
0.0
  0
VERTEX
  5
6EC
  8
LAYER_1
 10
7.058920690370329
 20
8.691600717682865
 30
0.0
  0
VERTEX
  5
6ED
  8
LAYER_1
 10
7.056962063712514
 20
8.693642387471183
 30
0.0
  0
VERTEX
  5
6EE
  8
LAYER_1
 10
7.054608256821821
 20
8.695237865669576
 30
0.0
  0
VERTEX
  5
6EF
  8
LAYER_1
 10
7.051790129736463
 20
8.696472948890065
 30
0.0
  0
VERTEX
  5
6F0
  8
LAYER_1
 10
7.048889417107878
 20
8.697342115016033
 30
0.0
  0
VERTEX
  5
6F1
  8
LAYER_1
 10
7.042875951639266
 20
8.698155186840227
 30
0.0
  0
VERTEX
  5
6F2
  8
LAYER_1
 10
7.036639293252453
 20
8.698022062853795
 30
0.0
  0
VERTEX
  5
6F3
  8
LAYER_1
 10
7.030250874783907
 20
8.697287724768373
 30
0.0
  0
VERTEX
  5
6F4
  8
LAYER_1
 10
7.017304488947506
 20
8.695395333147118
 30
0.0
  0
VERTEX
  5
6F5
  8
LAYER_1
 10
7.01088938725259
 20
8.694927243034563
 30
0.0
  0
VERTEX
  5
6F6
  8
LAYER_1
 10
7.004608256821822
 20
8.695237865669576
 30
0.0
  0
VERTEX
  5
6F7
  8
LAYER_1
 10
6.986823869644554
 20
8.697268257534137
 30
0.0
  0
VERTEX
  5
6F8
  8
LAYER_1
 10
6.977802621988017
 20
8.698399823463618
 30
0.0
  0
VERTEX
  5
6F9
  8
LAYER_1
 10
6.968881591818056
 20
8.699880097582687
 30
0.0
  0
VERTEX
  5
6FA
  8
LAYER_1
 10
6.960200469283549
 20
8.701912426034944
 30
0.0
  0
VERTEX
  5
6FB
  8
LAYER_1
 10
6.951898944533381
 20
8.704700154963977
 30
0.0
  0
VERTEX
  5
6FC
  8
LAYER_1
 10
6.947934184498949
 20
8.706440840277157
 30
0.0
  0
VERTEX
  5
6FD
  8
LAYER_1
 10
6.944116707716432
 20
8.708446630513379
 30
0.0
  0
VERTEX
  5
6FE
  8
LAYER_1
 10
6.94046397545444
 20
8.710742943940595
 30
0.0
  0
VERTEX
  5
6FF
  8
LAYER_1
 10
6.936993448981585
 20
8.71335519882675
 30
0.0
  0
VERTEX
  5
700
  8
LAYER_1
 10
6.933453742575615
 20
8.716756409222135
 30
0.0
  0
VERTEX
  5
701
  8
LAYER_1
 10
6.93041507051705
 20
8.720628157750637
 30
0.0
  0
VERTEX
  5
702
  8
LAYER_1
 10
6.927822779649896
 20
8.724883190501618
 30
0.0
  0
VERTEX
  5
703
  8
LAYER_1
 10
6.92562221681816
 20
8.729434253564445
 30
0.0
  0
VERTEX
  5
704
  8
LAYER_1
 10
6.922177662636965
 20
8.739075454983102
 30
0.0
  0
VERTEX
  5
705
  8
LAYER_1
 10
6.919644182725508
 20
8.748853730721532
 30
0.0
  0
VERTEX
  5
706
  8
LAYER_1
 10
6.917012971097171
 20
8.761416182147855
 30
0.0
  0
VERTEX
  5
707
  8
LAYER_1
 10
6.916029716646506
 20
8.767877243512968
 30
0.0
  0
VERTEX
  5
708
  8
LAYER_1
 10
6.915441603928085
 20
8.774353956108165
 30
0.0
  0
VERTEX
  5
709
  8
LAYER_1
 10
6.915378813559342
 20
8.780768140530032
 30
0.0
  0
VERTEX
  5
70A
  8
LAYER_1
 10
6.915971526157711
 20
8.78704161737516
 30
0.0
  0
VERTEX
  5
70B
  8
LAYER_1
 10
6.917349922340622
 20
8.79309620724013
 30
0.0
  0
VERTEX
  5
70C
  8
LAYER_1
 10
6.919644182725508
 20
8.798853730721532
 30
0.0
  0
VERTEX
  5
70D
  8
LAYER_1
 10
6.921457397673648
 20
8.801748440281006
 30
0.0
  0
VERTEX
  5
70E
  8
LAYER_1
 10
6.923748652415719
 20
8.804281045725135
 30
0.0
  0
VERTEX
  5
70F
  8
LAYER_1
 10
6.926442938980196
 20
8.806505715219755
 30
0.0
  0
VERTEX
  5
710
  8
LAYER_1
 10
6.929465249395554
 20
8.8084766169307
 30
0.0
  0
VERTEX
  5
711
  8
LAYER_1
 10
6.936193909892808
 20
8.81187378966489
 30
0.0
  0
VERTEX
  5
712
  8
LAYER_1
 10
6.943334570135281
 20
8.814905909254382
 30
0.0
  0
VERTEX
  5
713
  8
LAYER_1
 10
6.950287166350773
 20
8.818006321025837
 30
0.0
  0
VERTEX
  5
714
  8
LAYER_1
 10
6.953505420519587
 20
8.819717556894389
 30
0.0
  0
VERTEX
  5
715
  8
LAYER_1
 10
6.956451634767079
 20
8.821608370305933
 30
0.0
  0
VERTEX
  5
716
  8
LAYER_1
 10
6.959050801121727
 20
8.823732929426303
 30
0.0
  0
VERTEX
  5
717
  8
LAYER_1
 10
6.961227911612002
 20
8.826145402421334
 30
0.0
  0
VERTEX
  5
718
  8
LAYER_1
 10
6.96290795826638
 20
8.828899957456859
 30
0.0
  0
VERTEX
  5
719
  8
LAYER_1
 10
6.964015933113338
 20
8.83205076269871
 30
0.0
  0
VERTEX
  5
71A
  8
LAYER_1
 10
6.964226494391095
 20
8.835003745430733
 30
0.0
  0
VERTEX
  5
71B
  8
LAYER_1
 10
6.963568665189563
 20
8.837852080072466
 30
0.0
  0
VERTEX
  5
71C
  8
LAYER_1
 10
6.962248472394473
 20
8.840622412335799
 30
0.0
  0
VERTEX
  5
71D
  8
LAYER_1
 10
6.96047194289156
 20
8.843341387932625
 30
0.0
  0
VERTEX
  5
71E
  8
LAYER_1
 10
6.956373981305206
 20
8.848731851974307
 30
0.0
  0
VERTEX
  5
71F
  8
LAYER_1
 10
6.954464602993236
 20
8.851456631842943
 30
0.0
  0
VERTEX
  5
720
  8
LAYER_1
 10
6.952922995516381
 20
8.854236637892626
 30
0.0
  0
VERTEX
  5
721
  8
LAYER_1
 10
6.943116243128555
 20
8.876198598746466
 30
0.0
  0
VERTEX
  5
722
  8
LAYER_1
 10
6.938564141620908
 20
8.887329771584023
 30
0.0
  0
VERTEX
  5
723
  8
LAYER_1
 10
6.934434766188119
 20
8.898608388280454
 30
0.0
  0
VERTEX
  5
724
  8
LAYER_1
 10
6.929657294547142
 20
8.91285718742775
 30
0.0
  0
VERTEX
  5
725
  8
LAYER_1
 10
6.925232357082391
 20
8.927250113342863
 30
0.0
  0
VERTEX
  5
726
  8
LAYER_1
 10
6.921526338493965
 20
8.941811064121108
 30
0.0
  0
VERTEX
  5
727
  8
LAYER_1
 10
6.920057418997158
 20
8.94916201698869
 30
0.0
  0
VERTEX
  5
728
  8
LAYER_1
 10
6.918905623481969
 20
8.956563937857798
 30
0.0
  0
VERTEX
  5
729
  8
LAYER_1
 10
6.91727859288884
 20
8.971536032127393
 30
0.0
  0
VERTEX
  5
72A
  8
LAYER_1
 10
6.91652281022404
 20
8.986632721329032
 30
0.0
  0
VERTEX
  5
72B
  8
LAYER_1
 10
6.916571686458713
 20
8.994178105695724
 30
0.0
  0
VERTEX
  5
72C
  8
LAYER_1
 10
6.916958434188206
 20
9.001695018795054
 30
0.0
  0
VERTEX
  5
72D
  8
LAYER_1
 10
6.917723073250098
 20
9.009163587293566
 30
0.0
  0
VERTEX
  5
72E
  8
LAYER_1
 10
6.918905623481969
 20
9.016563937857798
 30
0.0
  0
VERTEX
  5
72F
  8
LAYER_1
 10
6.920034146243243
 20
9.021571905770092
 30
0.0
  0
VERTEX
  5
730
  8
LAYER_1
 10
6.921452512729333
 20
9.0262834243707
 30
0.0
  0
VERTEX
  5
731
  8
LAYER_1
 10
6.923171243176974
 20
9.030743507292339
 30
0.0
  0
VERTEX
  5
732
  8
LAYER_1
 10
6.925200857822897
 20
9.034997168167727
 30
0.0
  0
VERTEX
  5
733
  8
LAYER_1
 10
6.927551876903833
 20
9.03908942062958
 30
0.0
  0
VERTEX
  5
734
  8
LAYER_1
 10
6.930234820656516
 20
9.043065278310614
 30
0.0
  0
VERTEX
  5
735
  8
LAYER_1
 10
6.936638563124045
 20
9.050847863861097
 30
0.0
  0
VERTEX
  5
736
  8
LAYER_1
 10
6.939555884994197
 20
9.053714146890012
 30
0.0
  0
VERTEX
  5
737
  8
LAYER_1
 10
6.943010558102888
 20
9.056589534944154
 30
0.0
  0
VERTEX
  5
738
  8
LAYER_1
 10
6.951152099383215
 20
9.062268895952872
 30
0.0
  0
VERTEX
  5
739
  8
LAYER_1
 10
6.960303469659692
 20
9.067688486536774
 30
0.0
  0
VERTEX
  5
73A
  8
LAYER_1
 10
6.969704951626979
 20
9.072650846345383
 30
0.0
  0
VERTEX
  5
73B
  8
LAYER_1
 10
6.986219381412633
 20
9.080414032234813
 30
0.0
  0
VERTEX
  5
73C
  8
LAYER_1
 10
6.994617650297476
 20
9.083978770817343
 30
0.0
  0
VERTEX
  5
73D
  8
LAYER_1
 10
7.02290001189042
 20
9.095151017040006
 30
0.0
  0
VERTEX
  5
73E
  8
LAYER_1
 10
7.050983350583431
 20
9.105691177766776
 30
0.0
  0
VERTEX
  5
73F
  8
LAYER_1
 10
7.078899168586013
 20
9.115692671892461
 30
0.0
  0
VERTEX
  5
740
  8
LAYER_1
 10
7.106678968107669
 20
9.12524891831187
 30
0.0
  0
VERTEX
  5
741
  8
LAYER_1
 10
7.161956520546223
 20
9.143399343611094
 30
0.0
  0
SEQEND
  5
742
  8
LAYER_1
  0
POLYLINE
  5
83
  8
LAYER_1
 66
     1
 10
0.0
 20
0.0
 30
0.0
 70
     1
  0
VERTEX
  5
743
  8
LAYER_1
 10
9.988776346267901
 20
9.172650290390912
 30
0.0
  0
VERTEX
  5
744
  8
LAYER_1
 10
10.0887763462679
 20
9.172650290390912
 30
0.0
  0
VERTEX
  5
745
  8
LAYER_1
 10
10.0887763462679
 20
9.142650290390915
 30
0.0
  0
VERTEX
  5
746
  8
LAYER_1
 10
9.988776346267901
 20
9.142650290390915
 30
0.0
  0
SEQEND
  5
747
  8
LAYER_1
  0
POLYLINE
  5
84
  8
LAYER_1
 66
     1
 10
0.0
 20
0.0
 30
0.0
  0
VERTEX
  5
748
  8
LAYER_1
 10
9.4601454653924
 20
9.432003451258897
 30
0.0
  0
VERTEX
  5
749
  8
LAYER_1
 10
9.485218003165295
 20
9.433485293046791
 30
0.0
  0
VERTEX
  5
74A
  8
LAYER_1
 10
9.51026972679772
 20
9.434543751466716
 30
0.0
  0
VERTEX
  5
74B
  8
LAYER_1
 10
9.535300680820924
 20
9.435178826518671
 30
0.0
  0
VERTEX
  5
74C
  8
LAYER_1
 10
9.560310909766159
 20
9.435390518202656
 30
0.0
  0
VERTEX
  5
74D
  8
LAYER_1
 10
9.585300458164673
 20
9.435178826518671
 30
0.0
  0
VERTEX
  5
74E
  8
LAYER_1
 10
9.61026937054772
 20
9.434543751466716
 30
0.0
  0
VERTEX
  5
74F
  8
LAYER_1
 10
9.635217691446545
 20
9.433485293046791
 30
0.0
  0
VERTEX
  5
750
  8
LAYER_1
 10
9.6601454653924
 20
9.432003451258897
 30
0.0
  0
VERTEX
  5
751
  8
LAYER_1
 10
9.677048764539464
 20
9.431324498814288
 30
0.0
  0
VERTEX
  5
752
  8
LAYER_1
 10
9.69431431993998
 20
9.431158763906062
 30
0.0
  0
VERTEX
  5
753
  8
LAYER_1
 10
9.711649576548949
 20
9.430923217506084
 30
0.0
  0
VERTEX
  5
754
  8
LAYER_1
 10
9.728761979321366
 20
9.430034830586226
 30
0.0
  0
VERTEX
  5
755
  8
LAYER_1
 10
9.737143187067305
 20
9.42916362536005
 30
0.0
  0
VERTEX
  5
756
  8
LAYER_1
 10
9.745358973212232
 20
9.427910574118359
 30
0.0
  0
VERTEX
  5
757
  8
LAYER_1
 10
9.75337276837552
 20
9.42620279823263
 30
0.0
  0
VERTEX
  5
758
  8
LAYER_1
 10
9.761148003176542
 20
9.423967419074353
 30
0.0
  0
VERTEX
  5
759
  8
LAYER_1
 10
9.768648108234675
 20
9.421131558015007
 30
0.0
  0
VERTEX
  5
75A
  8
LAYER_1
 10
9.775836514169296
 20
9.417622336426078
 30
0.0
  0
VERTEX
  5
75B
  8
LAYER_1
 10
9.782676651599775
 20
9.413366875679047
 30
0.0
  0
VERTEX
  5
75C
  8
LAYER_1
 10
9.789131951145489
 20
9.408292297145401
 30
0.0
  0
VERTEX
  5
75D
  8
LAYER_1
 10
9.793360325174431
 20
9.403972710490663
 30
0.0
  0
VERTEX
  5
75E
  8
LAYER_1
 10
9.796738740767676
 20
9.399292948888526
 30
0.0
  0
VERTEX
  5
75F
  8
LAYER_1
 10
9.799360215296609
 20
9.39428721538247
 30
0.0
  0
VERTEX
  5
760
  8
LAYER_1
 10
9.801317766132613
 20
9.388989713015974
 30
0.0
  0
VERTEX
  5
761
  8
LAYER_1
 10
9.802704410647078
 20
9.38343464483252
 30
0.0
  0
VERTEX
  5
762
  8
LAYER_1
 10
9.803613166211385
 20
9.37765621387559
 30
0.0
  0
VERTEX
  5
763
  8
LAYER_1
 10
9.80436907997507
 20
9.365566075815227
 30
0.0
  0
VERTEX
  5
764
  8
LAYER_1
 10
9.804329646394756
 20
9.352992923182736
 30
0.0
  0
VERTEX
  5
765
  8
LAYER_1
 10
9.80423900444152
 20
9.34021038032596
 30
0.0
  0
VERTEX
  5
766
  8
LAYER_1
 10
9.804841293086447
 20
9.32749207159275
 30
0.0
  0
VERTEX
  5
767
  8
LAYER_1
 10
9.805634829811684
 20
9.321242512631187
 30
0.0
  0
VERTEX
  5
768
  8
LAYER_1
 10
9.80688065130062
 20
9.315111621330962
 30
0.0
  0
VERTEX
  5
769
  8
LAYER_1
 10
9.808204759146399
 20
9.311772400708131
 30
0.0
  0
VERTEX
  5
76A
  8
LAYER_1
 10
9.81030136018309
 20
9.308584440629243
 30
0.0
  0
VERTEX
  5
76B
  8
LAYER_1
 10
9.815771726373807
 20
9.302456343862126
 30
0.0
  0
VERTEX
  5
76C
  8
LAYER_1
 10
9.818625333800131
 20
9.299413228053318
 30
0.0
  0
VERTEX
  5
76D
  8
LAYER_1
 10
9.821211118961967
 20
9.296315414547283
 30
0.0
  0
VERTEX
  5
76E
  8
LAYER_1
 10
9.823269002995461
 20
9.293111413783736
 30
0.0
  0
VERTEX
  5
76F
  8
LAYER_1
 10
9.824538907036759
 20
9.289749736202381
 30
0.0
  0
SEQEND
  5
770
  8
LAYER_1
  0
POLYLINE
  5
85
  8
LAYER_1
 66
     1
 10
0.0
 20
0.0
 30
0.0
  0
VERTEX
  5
771
  8
LAYER_1
 10
9.806928316266859
 20
9.33357529597965
 30
0.0
  0
VERTEX
  5
772
  8
LAYER_1
 10
10.25761471433944
 20
9.377811014180207
 30
0.0
  0
SEQEND
  5
773
  8
LAYER_1
  0
ENDSEC
  0
EOF
