  0
SECTION
  2
HEADER
  9
$ACADVER
  1
AC1009
  9
$LIMMIN
 10
-.600921
 20
-.099157
  9
$LIMMAX
 10
9.294521
 20
7.322423
  0
ENDSEC
  0
SECTION
  2
TABLES
  0
TABLE
  2
LTYPE
 70
     4
  0
LTYPE
  2
CONTINUOUS
 70
     0
  3
Solid line
 72
    65
 73
     0
 40
0.000000
  0
LTYPE
  2
HIDDEN
 70
     0
  3
 _ _ _ _ _ _ _ _ _ _ _
 72
    65
 73
     2
 40
0.375000
 49
0.250000
 49
-0.125000
  0
LTYPE
  2
DASHED
 70
     0
  3
 ___ ___ ___ ___ ___ ___ ___ 
 72
    65
 73
     2
 40
0.750000
 49
0.500000
 49
-0.250000
  0
LTYPE
  2
CENTER
 70
     0
  3
___ _ ___ _ ___ _ ___
 72
    65
 73
     4
 40
2.000000
 49
1.250000
 49
-0.250000
 49
0.250000
 49
-0.250000
  0
LTYPE
  2
BORDER
 70
     0
  3
___ ___ . ___ ___ . ___ ___
 72
    65
 73
     6
 40
1.750000
 49
0.500000
 49
-0.250000
 49
0.500000
 49
-0.250000
 49
0.000000
 49
-0.250000
  0
LTYPE
  2
DOT
 70
     0
  3
.................
 72
    65
 73
     2
 40
0.250000
 49
0.000000
 49
-0.250000
  0
LTYPE
  2
DASHDOT
 70
     0
  3
__ . __ . __ . __
 72
    65
 73
     4
 40
1.000000
 49
0.500000
 49
-0.250000
 49
0.000000
 49
-0.250000
  0
LTYPE
  2
DIVIDE
 70
     0
  3
___ .. ___ .. ___ .. ___
 72
    65
 73
     6
 40
1.250000
 49
0.500000
 49
-0.250000
 49
0.000000
 49
-0.250000
 49
0.000000
 49
-0.250000
  0
ENDTAB
  0
TABLE
  2
LAYER
 70
     8
  0
LAYER
  2
BLACK
 70
     0
 62
     0
  6
CONTINUOUS
  0
LAYER
  2
WHITE
 70
     0
 62
     7
  6
CONTINUOUS
  0
LAYER
  2
RED
 70
     0
 62
     1
  6
CONTINUOUS
  0
LAYER
  2
YELLOW
 70
     0
 62
     2
  6
CONTINUOUS
  0
LAYER
  2
GREEN
 70
     0
 62
     3
  6
CONTINUOUS
  0
LAYER
  2
CYAN
 70
     0
 62
     4
  6
CONTINUOUS
  0
LAYER
  2
BLUE
 70
     0
 62
     5
  6
CONTINUOUS
  0
LAYER
  2
MAGENTA
 70
     0
 62
     6
  6
CONTINUOUS
  0
ENDTAB
  0
ENDSEC
  0
SECTION
  2
BLOCKS
  0
ENDSEC
  0
SECTION
  2
ENTITIES
 0
LINE
 8
WHITE
 10
7.6241
 20
.3215
 30
0.0000
 11
7.6241
 21
.2624
 31
0.0000
 6
CONTINUOUS
 0
LINE
 8
WHITE
 10
7.6241
 20
.2624
 30
0.0000
 11
8.1229
 21
.2624
 31
0.0000
 6
CONTINUOUS
 0
LINE
 8
WHITE
 10
8.1229
 20
.2624
 30
0.0000
 11
8.1399
 21
.2664
 31
0.0000
 6
CONTINUOUS
 0
LINE
 8
WHITE
 10
8.1399
 20
.2664
 30
0.0000
 11
8.1503
 21
.274199
 31
0.0000
 6
CONTINUOUS
 0
LINE
 8
WHITE
 10
8.1503
 20
.274199
 30
0.0000
 11
8.153499
 21
.285699
 31
0.0000
 6
CONTINUOUS
 0
LINE
 8
WHITE
 10
8.153499
 20
.285699
 30
0.0000
 11
8.125499
 21
.335
 31
0.0000
 6
CONTINUOUS
 0
LINE
 8
WHITE
 10
8.125499
 20
.335
 30
0.0000
 11
8.0858
 21
.389899
 31
0.0000
 6
CONTINUOUS
 0
LINE
 8
WHITE
 10
8.0858
 20
.389899
 30
0.0000
 11
8.038
 21
.4487
 31
0.0000
 6
CONTINUOUS
 0
LINE
 8
WHITE
 10
8.038
 20
.4487
 30
0.0000
 11
7.985899
 21
.5094
 31
0.0000
 6
CONTINUOUS
 0
LINE
 8
WHITE
 10
7.985899
 20
.5094
 30
0.0000
 11
7.933199
 21
.570599
 31
0.0000
 6
CONTINUOUS
 0
LINE
 8
WHITE
 10
7.933199
 20
.570599
 30
0.0000
 11
7.9042
 21
.5817
 31
0.0000
 6
CONTINUOUS
 0
LINE
 8
WHITE
 10
7.9042
 20
.5817
 30
0.0000
 11
7.881599
 21
.600499
 31
0.0000
 6
CONTINUOUS
 0
LINE
 8
WHITE
 10
7.881599
 20
.600499
 30
0.0000
 11
7.867499
 21
.629299
 31
0.0000
 6
CONTINUOUS
 0
LINE
 8
WHITE
 10
7.867499
 20
.629299
 30
0.0000
 11
7.829299
 21
.6387
 31
0.0000
 6
CONTINUOUS
 0
LINE
 8
WHITE
 10
7.829299
 20
.6387
 30
0.0000
 11
7.796599
 21
.656099
 31
0.0000
 6
CONTINUOUS
 0
LINE
 8
WHITE
 10
7.796599
 20
.656099
 30
0.0000
 11
7.773399
 21
.6868
 31
0.0000
 6
CONTINUOUS
 0
LINE
 8
WHITE
 10
7.773399
 20
.6868
 30
0.0000
 11
7.743899
 21
.684599
 31
0.0000
 6
CONTINUOUS
 0
LINE
 8
WHITE
 10
7.743899
 20
.684599
 30
0.0000
 11
7.715799
 21
.6807
 31
0.0000
 6
CONTINUOUS
 0
LINE
 8
WHITE
 10
7.715799
 20
.6807
 30
0.0000
 11
7.6897
 21
.674799
 31
0.0000
 6
CONTINUOUS
 0
LINE
 8
WHITE
 10
7.6897
 20
.674799
 30
0.0000
 11
7.6002
 21
.6793
 31
0.0000
 6
CONTINUOUS
 0
LINE
 8
WHITE
 10
7.6002
 20
.6793
 30
0.0000
 11
7.5279
 21
.685699
 31
0.0000
 6
CONTINUOUS
 0
LINE
 8
WHITE
 10
7.5279
 20
.685699
 30
0.0000
 11
7.482999
 21
.716099
 31
0.0000
 6
CONTINUOUS
 0
LINE
 8
WHITE
 10
7.482999
 20
.716099
 30
0.0000
 11
7.463099
 21
.7681
 31
0.0000
 6
CONTINUOUS
 0
LINE
 8
WHITE
 10
7.463099
 20
.7681
 30
0.0000
 11
7.465899
 21
.8398
 31
0.0000
 6
CONTINUOUS
 0
LINE
 8
WHITE
 10
7.465899
 20
.8398
 30
0.0000
 11
7.430099
 21
.8959
 31
0.0000
 6
CONTINUOUS
 0
LINE
 8
WHITE
 10
7.430099
 20
.8959
 30
0.0000
 11
7.416299
 21
.949599
 31
0.0000
 6
CONTINUOUS
 0
LINE
 8
WHITE
 10
7.416299
 20
.949599
 30
0.0000
 11
7.4246
 21
1.000699
 31
0.0000
 6
CONTINUOUS
 0
LINE
 8
WHITE
 10
7.4246
 20
1.000699
 30
0.0000
 11
7.454999
 21
1.049299
 31
0.0000
 6
CONTINUOUS
 0
LINE
 8
WHITE
 10
7.454999
 20
1.049299
 30
0.0000
 11
7.5064
 21
1.0944
 31
0.0000
 6
CONTINUOUS
 0
ARC
 8
WHITE
 10
7.5055
 20
1.0956
 30
 0
 40
.0015
 50
306.8699
 51
31.61073
 6
CONTINUOUS
 0
LINE
 8
WHITE
 10
7.5068
 20
1.0964
 30
0.0000
 11
7.487199
 21
1.1339
 31
0.0000
 6
CONTINUOUS
 0
LINE
 8
WHITE
 10
7.487199
 20
1.1339
 30
0.0000
 11
7.4909
 21
1.179999
 31
0.0000
 6
CONTINUOUS
 0
LINE
 8
WHITE
 10
7.4909
 20
1.179999
 30
0.0000
 11
7.5253
 21
1.235
 31
0.0000
 6
CONTINUOUS
 0
LINE
 8
WHITE
 10
7.5253
 20
1.235
 30
0.0000
 11
7.5107
 21
1.232699
 31
0.0000
 6
CONTINUOUS
 0
LINE
 8
WHITE
 10
7.5107
 20
1.232699
 30
0.0000
 11
7.498499
 21
1.2367
 31
0.0000
 6
CONTINUOUS
 0
LINE
 8
WHITE
 10
7.498499
 20
1.2367
 30
0.0000
 11
7.492199
 21
1.250399
 31
0.0000
 6
CONTINUOUS
 0
ARC
 8
WHITE
 10
7.491099
 20
1.250099
 30
 0
 40
.00114
 50
15.25512
 51
146.2994
 6
CONTINUOUS
 0
LINE
 8
WHITE
 10
7.4902
 20
1.250699
 30
0.0000
 11
7.4492
 21
1.200299
 31
0.0000
 6
CONTINUOUS
 0
LINE
 8
WHITE
 10
7.4492
 20
1.200299
 30
0.0000
 11
7.401
 21
1.165699
 31
0.0000
 6
CONTINUOUS
 0
LINE
 8
WHITE
 10
7.401
 20
1.165699
 30
0.0000
 11
7.3473
 21
1.147799
 31
0.0000
 6
CONTINUOUS
 0
LINE
 8
WHITE
 10
7.3473
 20
1.147799
 30
0.0000
 11
7.2883
 21
1.146
 31
0.0000
 6
CONTINUOUS
 0
LINE
 8
WHITE
 10
7.2883
 20
1.146
 30
0.0000
 11
7.2259
 21
1.159399
 31
0.0000
 6
CONTINUOUS
 0
ARC
 8
WHITE
 10
7.2256
 20
1.157899
 30
 0
 40
.001529
 50
78.69007
 51
169.3803
 6
CONTINUOUS
 0
LINE
 8
WHITE
 10
7.223999
 20
1.1582
 30
0.0000
 11
7.2107
 21
1.1028
 31
0.0000
 6
CONTINUOUS
 0
LINE
 8
WHITE
 10
7.2107
 20
1.1028
 30
0.0000
 11
7.1833
 21
1.073099
 31
0.0000
 6
CONTINUOUS
 0
LINE
 8
WHITE
 10
7.1833
 20
1.073099
 30
0.0000
 11
7.1402
 21
1.078299
 31
0.0000
 6
CONTINUOUS
 0
ARC
 8
WHITE
 10
7.14
 20
1.076799
 30
 0
 40
.001513
 50
82.40536
 51
172.4048
 6
CONTINUOUS
 0
LINE
 8
WHITE
 10
7.1385
 20
1.077
 30
0.0000
 11
7.1336
 21
1.0456
 31
0.0000
 6
CONTINUOUS
 0
LINE
 8
WHITE
 10
7.1336
 20
1.0456
 30
0.0000
 11
7.123199
 21
1.0154
 31
0.0000
 6
CONTINUOUS
 0
LINE
 8
WHITE
 10
7.123199
 20
1.0154
 30
0.0000
 11
7.103799
 21
.99
 31
0.0000
 6
CONTINUOUS
 0
LINE
 8
WHITE
 10
7.103799
 20
.99
 30
0.0000
 11
7.081799
 21
.903599
 31
0.0000
 6
CONTINUOUS
 0
LINE
 8
WHITE
 10
7.081799
 20
.903599
 30
0.0000
 11
7.070799
 21
.822899
 31
0.0000
 6
CONTINUOUS
 0
LINE
 8
WHITE
 10
7.070799
 20
.822899
 30
0.0000
 11
7.069099
 21
.747099
 31
0.0000
 6
CONTINUOUS
 0
LINE
 8
WHITE
 10
7.069099
 20
.747099
 30
0.0000
 11
7.0749
 21
.675199
 31
0.0000
 6
CONTINUOUS
 0
LINE
 8
WHITE
 10
7.0749
 20
.675199
 30
0.0000
 11
7.0746
 21
.593599
 31
0.0000
 6
CONTINUOUS
 0
LINE
 8
WHITE
 10
7.0746
 20
.593599
 30
0.0000
 11
7.079599
 21
.517
 31
0.0000
 6
CONTINUOUS
 0
LINE
 8
WHITE
 10
7.079599
 20
.517
 30
0.0000
 11
7.090099
 21
.445699
 31
0.0000
 6
CONTINUOUS
 0
LINE
 8
WHITE
 10
7.090099
 20
.445699
 30
0.0000
 11
7.1068
 21
.380199
 31
0.0000
 6
CONTINUOUS
 0
LINE
 8
WHITE
 10
7.1068
 20
.380199
 30
0.0000
 11
7.129799
 21
.3208
 31
0.0000
 6
CONTINUOUS
 0
LINE
 8
WHITE
 10
7.129799
 20
.3208
 30
0.0000
 11
7.1595
 21
.2633
 31
0.0000
 6
CONTINUOUS
 0
ARC
 8
WHITE
 10
7.1609
 20
.263999
 30
 0
 40
.001565
 50
206.565
 51
270
 6
CONTINUOUS
 0
LINE
 8
WHITE
 10
7.1609
 20
.2624
 30
0.0000
 11
7.6241
 21
.2624
 31
0.0000
 6
CONTINUOUS
 0
LINE
 8
WHITE
 10
7.6241
 20
.2624
 30
0.0000
 11
7.6244
 21
.262699
 31
0.0000
 6
CONTINUOUS
 0
LINE
 8
WHITE
 10
7.872499
 20
.844699
 30
0.0000
 11
7.929699
 21
.859399
 31
0.0000
 6
CONTINUOUS
 0
LINE
 8
WHITE
 10
7.929699
 20
.859399
 30
0.0000
 11
7.9534
 21
.865499
 31
0.0000
 6
CONTINUOUS
 0
LINE
 8
WHITE
 10
7.9534
 20
.865499
 30
0.0000
 11
7.971
 21
.8804
 31
0.0000
 6
CONTINUOUS
 0
LINE
 8
WHITE
 10
7.971
 20
.8804
 30
0.0000
 11
7.9801
 21
.904999
 31
0.0000
 6
CONTINUOUS
 0
ARC
 8
WHITE
 10
7.9788
 20
.905699
 30
 0
 40
.001476
 50
331.6992
 51
77.90841
 6
CONTINUOUS
 0
LINE
 8
WHITE
 10
7.9791
 20
.9071
 30
0.0000
 11
7.9633
 21
.912199
 31
0.0000
 6
CONTINUOUS
 0
LINE
 8
WHITE
 10
7.9633
 20
.912199
 30
0.0000
 11
7.940199
 21
.9343
 31
0.0000
 6
CONTINUOUS
 0
LINE
 8
WHITE
 10
7.940199
 20
.9343
 30
0.0000
 11
7.913899
 21
.961499
 31
0.0000
 6
CONTINUOUS
 0
ARC
 8
WHITE
 10
7.912799
 20
.960399
 30
 0
 40
.001555
 50
45
 51
154.9781
 6
CONTINUOUS
 0
LINE
 8
WHITE
 10
7.9113
 20
.961099
 30
0.0000
 11
7.893499
 21
.9261
 31
0.0000
 6
CONTINUOUS
 0
LINE
 8
WHITE
 10
7.893499
 20
.9261
 30
0.0000
 11
7.8687
 21
.9174
 31
0.0000
 6
CONTINUOUS
 0
ARC
 8
WHITE
 10
7.868199
 20
.918799
 30
 0
 40
.001486
 50
224.9984
 51
289.6538
 6
CONTINUOUS
 0
LINE
 8
WHITE
 10
7.867099
 20
.917699
 30
0.0000
 11
7.834199
 21
.9477
 31
0.0000
 6
CONTINUOUS
 0
ARC
 8
WHITE
 10
7.833099
 20
.9467
 30
 0
 40
.001486
 50
42.27369
 51
156.802
 6
CONTINUOUS
 0
LINE
 8
WHITE
 10
7.831699
 20
.9473
 30
0.0000
 11
7.824399
 21
.934499
 31
0.0000
 6
CONTINUOUS
 0
LINE
 8
WHITE
 10
7.824399
 20
.934499
 30
0.0000
 11
7.814899
 21
.929199
 31
0.0000
 6
CONTINUOUS
 0
ARC
 8
WHITE
 10
7.814199
 20
.930499
 30
 0
 40
.001476
 50
233.1356
 51
298.3008
 6
CONTINUOUS
 0
LINE
 8
WHITE
 10
7.8133
 20
.9293
 30
0.0000
 11
7.801
 21
.9376
 31
0.0000
 6
CONTINUOUS
 0
LINE
 8
WHITE
 10
7.801
 20
.9376
 30
0.0000
 11
7.8042
 21
.903299
 31
0.0000
 6
CONTINUOUS
 0
LINE
 8
WHITE
 10
7.8042
 20
.903299
 30
0.0000
 11
7.801599
 21
.874199
 31
0.0000
 6
CONTINUOUS
 0
LINE
 8
WHITE
 10
7.801599
 20
.874199
 30
0.0000
 11
7.787499
 21
.850799
 31
0.0000
 6
CONTINUOUS
 0
LINE
 8
WHITE
 10
7.787499
 20
.850799
 30
0.0000
 11
7.741199
 21
.820399
 31
0.0000
 6
CONTINUOUS
 0
ARC
 8
WHITE
 10
7.741899
 20
.8191
 30
 0
 40
.001476
 50
118.3008
 51
213.6861
 6
CONTINUOUS
 0
LINE
 8
WHITE
 10
7.740699
 20
.8183
 30
0.0000
 11
7.7637
 21
.779799
 31
0.0000
 6
CONTINUOUS
 0
LINE
 8
WHITE
 10
7.7637
 20
.779799
 30
0.0000
 11
7.806
 21
.7597
 31
0.0000
 6
CONTINUOUS
 0
LINE
 8
WHITE
 10
7.806
 20
.7597
 30
0.0000
 11
7.854199
 21
.760699
 31
0.0000
 6
CONTINUOUS
 0
LINE
 8
WHITE
 10
7.854199
 20
.760699
 30
0.0000
 11
7.895999
 21
.783699
 31
0.0000
 6
CONTINUOUS
 0
LINE
 8
WHITE
 10
7.895999
 20
.783699
 30
0.0000
 11
7.9187
 21
.830099
 31
0.0000
 6
CONTINUOUS
 0
LINE
 8
WHITE
 10
7.9187
 20
.830099
 30
0.0000
 11
7.918799
 21
.8399
 31
0.0000
 6
CONTINUOUS
 0
LINE
 8
WHITE
 10
7.918799
 20
.8399
 30
0.0000
 11
7.922399
 21
.849699
 31
0.0000
 6
CONTINUOUS
 0
LINE
 8
WHITE
 10
7.922399
 20
.849699
 30
0.0000
 11
7.929699
 21
.859399
 31
0.0000
 6
CONTINUOUS
 0
LINE
 8
WHITE
 10
7.929699
 20
.859399
 30
0.0000
 11
7.930099
 21
.859399
 31
0.0000
 6
CONTINUOUS
 0
LINE
 8
WHITE
 10
8.027899
 20
.999
 30
0.0000
 11
8.058899
 21
.9487
 31
0.0000
 6
CONTINUOUS
 0
LINE
 8
WHITE
 10
8.058899
 20
.9487
 30
0.0000
 11
8.072099
 21
.956799
 31
0.0000
 6
CONTINUOUS
 0
LINE
 8
WHITE
 10
8.072099
 20
.956799
 30
0.0000
 11
8.0867
 21
.9814
 31
0.0000
 6
CONTINUOUS
 0
LINE
 8
WHITE
 10
8.0867
 20
.9814
 30
0.0000
 11
8.088299
 21
1.0146
 31
0.0000
 6
CONTINUOUS
 0
LINE
 8
WHITE
 10
8.088299
 20
1.0146
 30
0.0000
 11
8.093
 21
1.029999
 31
0.0000
 6
CONTINUOUS
 0
LINE
 8
WHITE
 10
8.093
 20
1.029999
 30
0.0000
 11
8.094099
 21
1.0455
 31
0.0000
 6
CONTINUOUS
 0
LINE
 8
WHITE
 10
8.094099
 20
1.0455
 30
0.0000
 11
8.0916
 21
1.0612
 31
0.0000
 6
CONTINUOUS
 0
LINE
 8
WHITE
 10
8.0916
 20
1.0612
 30
0.0000
 11
8.0921
 21
1.0812
 31
0.0000
 6
CONTINUOUS
 0
LINE
 8
WHITE
 10
8.0921
 20
1.0812
 30
0.0000
 11
8.0832
 21
1.0942
 31
0.0000
 6
CONTINUOUS
 0
LINE
 8
WHITE
 10
8.0832
 20
1.0942
 30
0.0000
 11
8.065299
 21
1.100399
 31
0.0000
 6
CONTINUOUS
 0
LINE
 8
WHITE
 10
8.065299
 20
1.100399
 30
0.0000
 11
8.053199
 21
1.107599
 31
0.0000
 6
CONTINUOUS
 0
LINE
 8
WHITE
 10
8.053199
 20
1.107599
 30
0.0000
 11
8.034899
 21
1.1245
 31
0.0000
 6
CONTINUOUS
 0
LINE
 8
WHITE
 10
8.034899
 20
1.1245
 30
0.0000
 11
8.0107
 21
1.146499
 31
0.0000
 6
CONTINUOUS
 0
LINE
 8
WHITE
 10
8.0107
 20
1.146499
 30
0.0000
 11
7.996099
 21
1.1518
 31
0.0000
 6
CONTINUOUS
 0
LINE
 8
WHITE
 10
7.996099
 20
1.1518
 30
0.0000
 11
7.987699
 21
1.1483
 31
0.0000
 6
CONTINUOUS
 0
ARC
 8
WHITE
 10
7.9882
 20
1.1469
 30
 0
 40
.001486
 50
109.6538
 51
184.0863
 6
CONTINUOUS
 0
LINE
 8
WHITE
 10
7.9868
 20
1.1468
 30
0.0000
 11
7.9861
 21
1.1311
 31
0.0000
 6
CONTINUOUS
 0
LINE
 8
WHITE
 10
7.9861
 20
1.1311
 30
0.0000
 11
7.993299
 21
1.0994
 31
0.0000
 6
CONTINUOUS
 0
LINE
 8
WHITE
 10
7.993299
 20
1.0994
 30
0.0000
 11
7.992899
 21
1.093099
 31
0.0000
 6
CONTINUOUS
 0
LINE
 8
WHITE
 10
7.992899
 20
1.093099
 30
0.0000
 11
7.990699
 21
1.086099
 31
0.0000
 6
CONTINUOUS
 0
LINE
 8
WHITE
 10
7.990699
 20
1.086099
 30
0.0000
 11
7.986599
 21
1.078099
 31
0.0000
 6
CONTINUOUS
 0
LINE
 8
WHITE
 10
7.986599
 20
1.078099
 30
0.0000
 11
7.9657
 21
1.058099
 31
0.0000
 6
CONTINUOUS
 0
LINE
 8
WHITE
 10
7.9657
 20
1.058099
 30
0.0000
 11
7.9611
 21
1.0297
 31
0.0000
 6
CONTINUOUS
 0
LINE
 8
WHITE
 10
7.9611
 20
1.0297
 30
0.0000
 11
7.972199
 21
.9944
 31
0.0000
 6
CONTINUOUS
 0
LINE
 8
WHITE
 10
7.972199
 20
.9944
 30
0.0000
 11
7.983399
 21
.9804
 31
0.0000
 6
CONTINUOUS
 0
LINE
 8
WHITE
 10
7.983399
 20
.9804
 30
0.0000
 11
7.995699
 21
.965799
 31
0.0000
 6
CONTINUOUS
 0
LINE
 8
WHITE
 10
7.995699
 20
.965799
 30
0.0000
 11
8.0086
 21
.951699
 31
0.0000
 6
CONTINUOUS
 0
LINE
 8
WHITE
 10
8.0086
 20
.951699
 30
0.0000
 11
8.0172
 21
.938199
 31
0.0000
 6
CONTINUOUS
 0
LINE
 8
WHITE
 10
8.0172
 20
.938199
 30
0.0000
 11
8.0295
 21
.934499
 31
0.0000
 6
CONTINUOUS
 0
LINE
 8
WHITE
 10
8.0295
 20
.934499
 30
0.0000
 11
8.0457
 21
.940599
 31
0.0000
 6
CONTINUOUS
 0
LINE
 8
WHITE
 10
8.0457
 20
.940599
 30
0.0000
 11
8.058899
 21
.9487
 31
0.0000
 6
CONTINUOUS
 0
LINE
 8
WHITE
 10
8.058899
 20
.9487
 30
0.0000
 11
8.059
 21
.9491
 31
0.0000
 6
CONTINUOUS
 0
LINE
 8
WHITE
 10
8.388999
 20
1.175999
 30
0.0000
 11
8.334799
 21
1.1524
 31
0.0000
 6
CONTINUOUS
 0
LINE
 8
WHITE
 10
8.334799
 20
1.1524
 30
0.0000
 11
8.289199
 21
1.132599
 31
0.0000
 6
CONTINUOUS
 0
ARC
 8
WHITE
 10
8.289799
 20
1.131199
 30
 0
 40
.001523
 50
113.1986
 51
198.4322
 6
CONTINUOUS
 0
LINE
 8
WHITE
 10
8.288299
 20
1.130699
 30
0.0000
 11
8.3079
 21
1.0642
 31
0.0000
 6
CONTINUOUS
 0
LINE
 8
WHITE
 10
8.3079
 20
1.0642
 30
0.0000
 11
8.2889
 21
1.0326
 31
0.0000
 6
CONTINUOUS
 0
LINE
 8
WHITE
 10
8.2889
 20
1.0326
 30
0.0000
 11
8.246999
 21
1.0247
 31
0.0000
 6
CONTINUOUS
 0
ARC
 8
WHITE
 10
8.2472
 20
1.0232
 30
 0
 40
.001513
 50
97.59464
 51
195.948
 6
CONTINUOUS
 0
LINE
 8
WHITE
 10
8.2458
 20
1.022799
 30
0.0000
 11
8.259799
 21
.9641
 31
0.0000
 6
CONTINUOUS
 0
LINE
 8
WHITE
 10
8.259799
 20
.9641
 30
0.0000
 11
8.249199
 21
.921199
 31
0.0000
 6
CONTINUOUS
 0
LINE
 8
WHITE
 10
8.249199
 20
.921199
 30
0.0000
 11
8.2114
 21
.898899
 31
0.0000
 6
CONTINUOUS
 0
ARC
 8
WHITE
 10
8.2121
 20
.897599
 30
 0
 40
.001476
 50
118.3008
 51
192.0944
 6
CONTINUOUS
 0
LINE
 8
WHITE
 10
8.2107
 20
.8973
 30
0.0000
 11
8.22
 21
.841799
 31
0.0000
 6
CONTINUOUS
 0
LINE
 8
WHITE
 10
8.22
 20
.841799
 30
0.0000
 11
8.192299
 21
.8015
 31
0.0000
 6
CONTINUOUS
 0
LINE
 8
WHITE
 10
8.192299
 20
.8015
 30
0.0000
 11
8.128399
 21
.778199
 31
0.0000
 6
CONTINUOUS
 0
ARC
 8
WHITE
 10
8.128899
 20
.776799
 30
 0
 40
.001486
 50
109.6538
 51
203.198
 6
CONTINUOUS
 0
LINE
 8
WHITE
 10
8.127499
 20
.776199
 30
0.0000
 11
8.1364
 21
.7497
 31
0.0000
 6
CONTINUOUS
 0
LINE
 8
WHITE
 10
8.1364
 20
.7497
 30
0.0000
 11
8.132699
 21
.726
 31
0.0000
 6
CONTINUOUS
 0
LINE
 8
WHITE
 10
8.132699
 20
.726
 30
0.0000
 11
8.1189
 21
.705799
 31
0.0000
 6
CONTINUOUS
 0
LINE
 8
WHITE
 10
8.1189
 20
.705799
 30
0.0000
 11
8.1371
 21
.647199
 31
0.0000
 6
CONTINUOUS
 0
LINE
 8
WHITE
 10
8.1371
 20
.647199
 30
0.0000
 11
8.1308
 21
.591499
 31
0.0000
 6
CONTINUOUS
 0
LINE
 8
WHITE
 10
8.1308
 20
.591499
 30
0.0000
 11
8.093099
 21
.539799
 31
0.0000
 6
CONTINUOUS
 0
LINE
 8
WHITE
 10
8.093099
 20
.539799
 30
0.0000
 11
8.0921
 21
.530499
 31
0.0000
 6
CONTINUOUS
 0
LINE
 8
WHITE
 10
8.0921
 20
.530499
 30
0.0000
 11
8.0929
 21
.522099
 31
0.0000
 6
CONTINUOUS
 0
LINE
 8
WHITE
 10
8.0929
 20
.522099
 30
0.0000
 11
8.095499
 21
.5145
 31
0.0000
 6
CONTINUOUS
 0
LINE
 8
WHITE
 10
8.095499
 20
.5145
 30
0.0000
 11
8.136699
 21
.452399
 31
0.0000
 6
CONTINUOUS
 0
LINE
 8
WHITE
 10
8.136699
 20
.452399
 30
0.0000
 11
8.1764
 21
.390399
 31
0.0000
 6
CONTINUOUS
 0
LINE
 8
WHITE
 10
8.1764
 20
.390399
 30
0.0000
 11
8.214699
 21
.328399
 31
0.0000
 6
CONTINUOUS
 0
LINE
 8
WHITE
 10
8.214699
 20
.328399
 30
0.0000
 11
8.2508
 21
.2633
 31
0.0000
 6
CONTINUOUS
 0
ARC
 8
WHITE
 10
8.2522
 20
.2639
 30
 0
 40
.001523
 50
203.1986
 51
270
 6
CONTINUOUS
 0
LINE
 8
WHITE
 10
8.2522
 20
.2624
 30
0.0000
 11
8.4621
 21
.2624
 31
0.0000
 6
CONTINUOUS
 0
ARC
 8
WHITE
 10
8.4621
 20
.2639
 30
 0
 40
.0015
 50
270
 51
3.813243
 6
CONTINUOUS
 0
LINE
 8
WHITE
 10
8.4636
 20
.263999
 30
0.0000
 11
8.464099
 21
.332599
 31
0.0000
 6
CONTINUOUS
 0
LINE
 8
WHITE
 10
8.464099
 20
.332599
 30
0.0000
 11
8.464599
 21
.391299
 31
0.0000
 6
CONTINUOUS
 0
LINE
 8
WHITE
 10
8.464599
 20
.391299
 30
0.0000
 11
8.4651
 21
.4501
 31
0.0000
 6
CONTINUOUS
 0
LINE
 8
WHITE
 10
8.4651
 20
.4501
 30
0.0000
 11
8.4657
 21
.5088
 31
0.0000
 6
CONTINUOUS
 0
LINE
 8
WHITE
 10
8.4657
 20
.5088
 30
0.0000
 11
8.4663
 21
.5676
 31
0.0000
 6
CONTINUOUS
 0
LINE
 8
WHITE
 10
8.4663
 20
.5676
 30
0.0000
 11
8.466899
 21
.626299
 31
0.0000
 6
CONTINUOUS
 0
LINE
 8
WHITE
 10
8.466899
 20
.626299
 30
0.0000
 11
8.467599
 21
.6851
 31
0.0000
 6
CONTINUOUS
 0
LINE
 8
WHITE
 10
8.467599
 20
.6851
 30
0.0000
 11
8.468299
 21
.743799
 31
0.0000
 6
CONTINUOUS
 0
LINE
 8
WHITE
 10
8.468299
 20
.743799
 30
0.0000
 11
8.469099
 21
.8026
 31
0.0000
 6
CONTINUOUS
 0
LINE
 8
WHITE
 10
8.469099
 20
.8026
 30
0.0000
 11
8.4699
 21
.861299
 31
0.0000
 6
CONTINUOUS
 0
LINE
 8
WHITE
 10
8.4699
 20
.861299
 30
0.0000
 11
8.4707
 21
.92
 31
0.0000
 6
CONTINUOUS
 0
LINE
 8
WHITE
 10
8.4707
 20
.92
 30
0.0000
 11
8.4715
 21
.978799
 31
0.0000
 6
CONTINUOUS
 0
LINE
 8
WHITE
 10
8.4715
 20
.978799
 30
0.0000
 11
8.472299
 21
1.0375
 31
0.0000
 6
CONTINUOUS
 0
LINE
 8
WHITE
 10
8.472299
 20
1.0375
 30
0.0000
 11
8.473199
 21
1.0963
 31
0.0000
 6
CONTINUOUS
 0
LINE
 8
WHITE
 10
8.473199
 20
1.0963
 30
0.0000
 11
8.475
 21
1.2137
 31
0.0000
 6
CONTINUOUS
 0
LINE
 8
WHITE
 10
8.475
 20
1.2137
 30
0.0000
 11
8.476799
 21
1.330899
 31
0.0000
 6
CONTINUOUS
 0
LINE
 8
WHITE
 10
8.476799
 20
1.330899
 30
0.0000
 11
8.4687
 21
1.322999
 31
0.0000
 6
CONTINUOUS
 0
LINE
 8
WHITE
 10
8.4687
 20
1.322999
 30
0.0000
 11
8.457699
 21
1.3185
 31
0.0000
 6
CONTINUOUS
 0
LINE
 8
WHITE
 10
8.457699
 20
1.3185
 30
0.0000
 11
8.444199
 21
1.3178
 31
0.0000
 6
CONTINUOUS
 0
LINE
 8
WHITE
 10
8.444199
 20
1.3178
 30
0.0000
 11
8.4173
 21
1.279899
 31
0.0000
 6
CONTINUOUS
 0
LINE
 8
WHITE
 10
8.4173
 20
1.279899
 30
0.0000
 11
8.382399
 21
1.2615
 31
0.0000
 6
CONTINUOUS
 0
LINE
 8
WHITE
 10
8.382399
 20
1.2615
 30
0.0000
 11
8.3437
 21
1.2567
 31
0.0000
 6
CONTINUOUS
 0
ARC
 8
WHITE
 10
8.3438
 20
1.2552
 30
 0
 40
.001503
 50
93.81407
 51
191.3108
 6
CONTINUOUS
 0
LINE
 8
WHITE
 10
8.3423
 20
1.254899
 30
0.0000
 11
8.351799
 21
1.1949
 31
0.0000
 6
CONTINUOUS
 0
LINE
 8
WHITE
 10
8.351799
 20
1.1949
 30
0.0000
 11
8.334799
 21
1.1524
 31
0.0000
 6
CONTINUOUS
 0
LINE
 8
WHITE
 10
8.334799
 20
1.1524
 30
0.0000
 11
8.3345
 21
1.1523
 31
0.0000
 6
CONTINUOUS
 0
LINE
 8
WHITE
 10
8.1505
 20
1.4858
 30
0.0000
 11
8.207599
 21
1.4707
 31
0.0000
 6
CONTINUOUS
 0
LINE
 8
WHITE
 10
8.207599
 20
1.4707
 30
0.0000
 11
8.236499
 21
1.463099
 31
0.0000
 6
CONTINUOUS
 0
ARC
 8
WHITE
 10
8.2368
 20
1.464599
 30
 0
 40
.001529
 50
258.6901
 51
333.4349
 6
CONTINUOUS
 0
LINE
 8
WHITE
 10
8.2382
 20
1.463899
 30
0.0000
 11
8.2418
 21
1.469699
 31
0.0000
 6
CONTINUOUS
 0
LINE
 8
WHITE
 10
8.2418
 20
1.469699
 30
0.0000
 11
8.2409
 21
1.488999
 31
0.0000
 6
CONTINUOUS
 0
LINE
 8
WHITE
 10
8.2409
 20
1.488999
 30
0.0000
 11
8.2438
 21
1.510699
 31
0.0000
 6
CONTINUOUS
 0
LINE
 8
WHITE
 10
8.2438
 20
1.510699
 30
0.0000
 11
8.2486
 21
1.533499
 31
0.0000
 6
CONTINUOUS
 0
LINE
 8
WHITE
 10
8.2486
 20
1.533499
 30
0.0000
 11
8.2473
 21
1.557399
 31
0.0000
 6
CONTINUOUS
 0
LINE
 8
WHITE
 10
8.2473
 20
1.557399
 30
0.0000
 11
8.2494
 21
1.583299
 31
0.0000
 6
CONTINUOUS
 0
LINE
 8
WHITE
 10
8.2494
 20
1.583299
 30
0.0000
 11
8.2537
 21
1.610599
 31
0.0000
 6
CONTINUOUS
 0
LINE
 8
WHITE
 10
8.2537
 20
1.610599
 30
0.0000
 11
8.260199
 21
1.664199
 31
0.0000
 6
CONTINUOUS
 0
LINE
 8
WHITE
 10
8.260199
 20
1.664199
 30
0.0000
 11
8.256899
 21
1.6747
 31
0.0000
 6
CONTINUOUS
 0
LINE
 8
WHITE
 10
8.256899
 20
1.6747
 30
0.0000
 11
8.2572
 21
1.687
 31
0.0000
 6
CONTINUOUS
 0
LINE
 8
WHITE
 10
8.2572
 20
1.687
 30
0.0000
 11
8.261199
 21
1.700899
 31
0.0000
 6
CONTINUOUS
 0
LINE
 8
WHITE
 10
8.261199
 20
1.700899
 30
0.0000
 11
8.2615
 21
1.708799
 31
0.0000
 6
CONTINUOUS
 0
LINE
 8
WHITE
 10
8.2615
 20
1.708799
 30
0.0000
 11
8.258799
 21
1.7141
 31
0.0000
 6
CONTINUOUS
 0
LINE
 8
WHITE
 10
8.258799
 20
1.7141
 30
0.0000
 11
8.2536
 21
1.7151
 31
0.0000
 6
CONTINUOUS
 0
LINE
 8
WHITE
 10
8.2536
 20
1.7151
 30
0.0000
 11
8.2334
 21
1.712399
 31
0.0000
 6
CONTINUOUS
 0
LINE
 8
WHITE
 10
8.2334
 20
1.712399
 30
0.0000
 11
8.212699
 21
1.7107
 31
0.0000
 6
CONTINUOUS
 0
LINE
 8
WHITE
 10
8.212699
 20
1.7107
 30
0.0000
 11
8.1926
 21
1.711699
 31
0.0000
 6
CONTINUOUS
 0
LINE
 8
WHITE
 10
8.1926
 20
1.711699
 30
0.0000
 11
8.1813
 21
1.705899
 31
0.0000
 6
CONTINUOUS
 0
LINE
 8
WHITE
 10
8.1813
 20
1.705899
 30
0.0000
 11
8.169799
 21
1.7027
 31
0.0000
 6
CONTINUOUS
 0
LINE
 8
WHITE
 10
8.169799
 20
1.7027
 30
0.0000
 11
8.1568
 21
1.702499
 31
0.0000
 6
CONTINUOUS
 0
LINE
 8
WHITE
 10
8.1568
 20
1.702499
 30
0.0000
 11
8.1408
 21
1.702
 31
0.0000
 6
CONTINUOUS
 0
LINE
 8
WHITE
 10
8.1408
 20
1.702
 30
0.0000
 11
8.126399
 21
1.700399
 31
0.0000
 6
CONTINUOUS
 0
LINE
 8
WHITE
 10
8.126399
 20
1.700399
 30
0.0000
 11
8.1139
 21
1.694499
 31
0.0000
 6
CONTINUOUS
 0
LINE
 8
WHITE
 10
8.1139
 20
1.694499
 30
0.0000
 11
8.1021
 21
1.6927
 31
0.0000
 6
CONTINUOUS
 0
LINE
 8
WHITE
 10
8.1021
 20
1.6927
 30
0.0000
 11
8.09
 21
1.690099
 31
0.0000
 6
CONTINUOUS
 0
LINE
 8
WHITE
 10
8.09
 20
1.690099
 30
0.0000
 11
8.0781
 21
1.6883
 31
0.0000
 6
CONTINUOUS
 0
LINE
 8
WHITE
 10
8.0781
 20
1.6883
 30
0.0000
 11
8.0656
 21
1.687999
 31
0.0000
 6
CONTINUOUS
 0
LINE
 8
WHITE
 10
8.0656
 20
1.687999
 30
0.0000
 11
8.049799
 21
1.6899
 31
0.0000
 6
CONTINUOUS
 0
LINE
 8
WHITE
 10
8.049799
 20
1.6899
 30
0.0000
 11
8.029299
 21
1.684599
 31
0.0000
 6
CONTINUOUS
 0
LINE
 8
WHITE
 10
8.029299
 20
1.684599
 30
0.0000
 11
8.0178
 21
1.6763
 31
0.0000
 6
CONTINUOUS
 0
LINE
 8
WHITE
 10
8.0178
 20
1.6763
 30
0.0000
 11
8.0079
 21
1.670099
 31
0.0000
 6
CONTINUOUS
 0
LINE
 8
WHITE
 10
8.0079
 20
1.670099
 30
0.0000
 11
7.9973
 21
1.667099
 31
0.0000
 6
CONTINUOUS
 0
LINE
 8
WHITE
 10
7.9973
 20
1.667099
 30
0.0000
 11
7.976399
 21
1.666499
 31
0.0000
 6
CONTINUOUS
 0
LINE
 8
WHITE
 10
7.976399
 20
1.666499
 30
0.0000
 11
7.9579
 21
1.6639
 31
0.0000
 6
CONTINUOUS
 0
LINE
 8
WHITE
 10
7.9579
 20
1.6639
 30
0.0000
 11
7.944399
 21
1.660099
 31
0.0000
 6
CONTINUOUS
 0
ARC
 8
WHITE
 10
7.944699
 20
1.659
 30
 0
 40
.00114
 50
105.2551
 51
228.3797
 6
CONTINUOUS
 0
LINE
 8
WHITE
 10
7.9439
 20
1.6581
 30
0.0000
 11
7.9977
 21
1.602599
 31
0.0000
 6
CONTINUOUS
 0
LINE
 8
WHITE
 10
7.9977
 20
1.602599
 30
0.0000
 11
8.0494
 21
1.542999
 31
0.0000
 6
CONTINUOUS
 0
LINE
 8
WHITE
 10
8.0494
 20
1.542999
 30
0.0000
 11
8.096099
 21
1.482599
 31
0.0000
 6
CONTINUOUS
 0
LINE
 8
WHITE
 10
8.096099
 20
1.482599
 30
0.0000
 11
8.1351
 21
1.424399
 31
0.0000
 6
CONTINUOUS
 0
ARC
 8
WHITE
 10
8.1364
 20
1.425099
 30
 0
 40
.001476
 50
208.3008
 51
314.9863
 6
CONTINUOUS
 0
LINE
 8
WHITE
 10
8.137399
 20
1.4241
 30
0.0000
 11
8.172599
 21
1.453099
 31
0.0000
 6
CONTINUOUS
 0
LINE
 8
WHITE
 10
8.172599
 20
1.453099
 30
0.0000
 11
8.207599
 21
1.4707
 31
0.0000
 6
CONTINUOUS
 0
LINE
 8
WHITE
 10
8.207599
 20
1.4707
 30
0.0000
 11
8.208
 21
1.4706
 31
0.0000
 6
CONTINUOUS
 0
LINE
 8
WHITE
 10
8.377499
 20
1.548799
 30
0.0000
 11
8.393899
 21
1.491999
 31
0.0000
 6
CONTINUOUS
 0
LINE
 8
WHITE
 10
8.393899
 20
1.491999
 30
0.0000
 11
8.402999
 21
1.4605
 31
0.0000
 6
CONTINUOUS
 0
ARC
 8
WHITE
 10
8.404399
 20
1.460899
 30
 0
 40
.001456
 50
195.9454
 51
273.8195
 6
CONTINUOUS
 0
LINE
 8
WHITE
 10
8.4045
 20
1.4594
 30
0.0000
 11
8.4277
 21
1.458799
 31
0.0000
 6
CONTINUOUS
 0
LINE
 8
WHITE
 10
8.4277
 20
1.458799
 30
0.0000
 11
8.4539
 21
1.4579
 31
0.0000
 6
CONTINUOUS
 0
LINE
 8
WHITE
 10
8.4539
 20
1.4579
 30
0.0000
 11
8.476599
 21
1.457399
 31
0.0000
 6
CONTINUOUS
 0
ARC
 8
WHITE
 10
8.476799
 20
1.458899
 30
 0
 40
.001513
 50
262.4054
 51
0
 6
CONTINUOUS
 0
LINE
 8
WHITE
 10
8.4783
 20
1.458899
 30
0.0000
 11
8.485699
 21
1.735399
 31
0.0000
 6
CONTINUOUS
 0
LINE
 8
WHITE
 10
8.485699
 20
1.735399
 30
0.0000
 11
8.4749
 21
1.744699
 31
0.0000
 6
CONTINUOUS
 0
LINE
 8
WHITE
 10
8.4749
 20
1.744699
 30
0.0000
 11
8.4342
 21
1.745599
 31
0.0000
 6
CONTINUOUS
 0
LINE
 8
WHITE
 10
8.4342
 20
1.745599
 30
0.0000
 11
8.392499
 21
1.743399
 31
0.0000
 6
CONTINUOUS
 0
LINE
 8
WHITE
 10
8.392499
 20
1.743399
 30
0.0000
 11
8.3498
 21
1.738899
 31
0.0000
 6
CONTINUOUS
 0
LINE
 8
WHITE
 10
8.3498
 20
1.738899
 30
0.0000
 11
8.345199
 21
1.738499
 31
0.0000
 6
CONTINUOUS
 0
LINE
 8
WHITE
 10
8.345199
 20
1.738499
 30
0.0000
 11
8.3415
 21
1.736299
 31
0.0000
 6
CONTINUOUS
 0
LINE
 8
WHITE
 10
8.3415
 20
1.736299
 30
0.0000
 11
8.3386
 21
1.7322
 31
0.0000
 6
CONTINUOUS
 0
LINE
 8
WHITE
 10
8.3386
 20
1.7322
 30
0.0000
 11
8.3325
 21
1.6444
 31
0.0000
 6
CONTINUOUS
 0
LINE
 8
WHITE
 10
8.3325
 20
1.6444
 30
0.0000
 11
8.3268
 21
1.561499
 31
0.0000
 6
CONTINUOUS
 0
LINE
 8
WHITE
 10
8.3268
 20
1.561499
 30
0.0000
 11
8.3191
 21
1.491299
 31
0.0000
 6
CONTINUOUS
 0
ARC
 8
WHITE
 10
8.3206
 20
1.490999
 30
 0
 40
.001529
 50
168.6901
 51
285.9299
 6
CONTINUOUS
 0
LINE
 8
WHITE
 10
8.321
 20
1.489599
 30
0.0000
 11
8.3638
 21
1.4989
 31
0.0000
 6
CONTINUOUS
 0
LINE
 8
WHITE
 10
8.3638
 20
1.4989
 30
0.0000
 11
8.393899
 21
1.491999
 31
0.0000
 6
CONTINUOUS
 0
LINE
 8
WHITE
 10
8.393899
 20
1.491999
 30
0.0000
 11
8.3941
 21
1.4917
 31
0.0000
 6
CONTINUOUS
 0
LINE
 8
WHITE
 10
7.782999
 20
1.543499
 30
0.0000
 11
7.729
 21
1.5526
 31
0.0000
 6
CONTINUOUS
 0
LINE
 8
WHITE
 10
7.729
 20
1.5526
 30
0.0000
 11
7.6753
 21
1.5375
 31
0.0000
 6
CONTINUOUS
 0
LINE
 8
WHITE
 10
7.6753
 20
1.5375
 30
0.0000
 11
7.600299
 21
1.5446
 31
0.0000
 6
CONTINUOUS
 0
LINE
 8
WHITE
 10
7.600299
 20
1.5446
 30
0.0000
 11
7.6236
 21
1.5274
 31
0.0000
 6
CONTINUOUS
 0
LINE
 8
WHITE
 10
7.6236
 20
1.5274
 30
0.0000
 11
7.6437
 21
1.508999
 31
0.0000
 6
CONTINUOUS
 0
LINE
 8
WHITE
 10
7.6437
 20
1.508999
 30
0.0000
 11
7.658299
 21
1.4917
 31
0.0000
 6
CONTINUOUS
 0
LINE
 8
WHITE
 10
7.658299
 20
1.4917
 30
0.0000
 11
7.717899
 21
1.491299
 31
0.0000
 6
CONTINUOUS
 0
LINE
 8
WHITE
 10
7.717899
 20
1.491299
 30
0.0000
 11
7.7712
 21
1.482399
 31
0.0000
 6
CONTINUOUS
 0
LINE
 8
WHITE
 10
7.7712
 20
1.482399
 30
0.0000
 11
7.813899
 21
1.458999
 31
0.0000
 6
CONTINUOUS
 0
LINE
 8
WHITE
 10
7.813899
 20
1.458999
 30
0.0000
 11
7.896299
 21
1.4744
 31
0.0000
 6
CONTINUOUS
 0
LINE
 8
WHITE
 10
7.896299
 20
1.4744
 30
0.0000
 11
7.9601
 21
1.4657
 31
0.0000
 6
CONTINUOUS
 0
LINE
 8
WHITE
 10
7.9601
 20
1.4657
 30
0.0000
 11
8.0107
 21
1.4398
 31
0.0000
 6
CONTINUOUS
 0
LINE
 8
WHITE
 10
8.0107
 20
1.4398
 30
0.0000
 11
8.0534
 21
1.4038
 31
0.0000
 6
CONTINUOUS
 0
LINE
 8
WHITE
 10
8.0534
 20
1.4038
 30
0.0000
 11
8.0929
 21
1.366
 31
0.0000
 6
CONTINUOUS
 0
LINE
 8
WHITE
 10
8.0929
 20
1.366
 30
0.0000
 11
8.0481
 21
1.4333
 31
0.0000
 6
CONTINUOUS
 0
LINE
 8
WHITE
 10
8.0481
 20
1.4333
 30
0.0000
 11
8.005999
 21
1.4907
 31
0.0000
 6
CONTINUOUS
 0
LINE
 8
WHITE
 10
8.005999
 20
1.4907
 30
0.0000
 11
7.9636
 21
1.540099
 31
0.0000
 6
CONTINUOUS
 0
LINE
 8
WHITE
 10
7.9636
 20
1.540099
 30
0.0000
 11
7.9175
 21
1.584499
 31
0.0000
 6
CONTINUOUS
 0
LINE
 8
WHITE
 10
7.9175
 20
1.584499
 30
0.0000
 11
7.8649
 21
1.626299
 31
0.0000
 6
CONTINUOUS
 0
ARC
 8
WHITE
 10
7.8639
 20
1.6252
 30
 0
 40
.001486
 50
47.72631
 51
118.3011
 6
CONTINUOUS
 0
LINE
 8
WHITE
 10
7.8632
 20
1.6265
 30
0.0000
 11
7.8238
 21
1.604799
 31
0.0000
 6
CONTINUOUS
 0
LINE
 8
WHITE
 10
7.8238
 20
1.604799
 30
0.0000
 11
7.784699
 21
1.5971
 31
0.0000
 6
CONTINUOUS
 0
LINE
 8
WHITE
 10
7.784699
 20
1.5971
 30
0.0000
 11
7.7501
 21
1.6035
 31
0.0000
 6
CONTINUOUS
 0
ARC
 8
WHITE
 10
7.7497
 20
1.601999
 30
 0
 40
.001552
 50
75.06858
 51
160.3474
 6
CONTINUOUS
 0
LINE
 8
WHITE
 10
7.7483
 20
1.602499
 30
0.0000
 11
7.729
 21
1.5526
 31
0.0000
 6
CONTINUOUS
 0
LINE
 8
WHITE
 10
7.729
 20
1.5526
 30
0.0000
 11
7.7286
 21
1.5525
 31
0.0000
 6
CONTINUOUS
 0
LINE
 8
WHITE
 10
8.102299
 20
1.851799
 30
0.0000
 11
8.043299
 21
1.853999
 31
0.0000
 6
CONTINUOUS
 0
LINE
 8
WHITE
 10
8.043299
 20
1.853999
 30
0.0000
 11
7.999899
 21
1.855499
 31
0.0000
 6
CONTINUOUS
 0
ARC
 8
WHITE
 10
7.999799
 20
1.853999
 30
 0
 40
.001503
 50
86.18593
 51
168.6857
 6
CONTINUOUS
 0
LINE
 8
WHITE
 10
7.9983
 20
1.8543
 30
0.0000
 11
7.9909
 21
1.814299
 31
0.0000
 6
CONTINUOUS
 0
LINE
 8
WHITE
 10
7.9909
 20
1.814299
 30
0.0000
 11
7.978199
 21
1.777099
 31
0.0000
 6
CONTINUOUS
 0
LINE
 8
WHITE
 10
7.978199
 20
1.777099
 30
0.0000
 11
7.958199
 21
1.749199
 31
0.0000
 6
CONTINUOUS
 0
LINE
 8
WHITE
 10
7.958199
 20
1.749199
 30
0.0000
 11
7.9709
 21
1.7515
 31
0.0000
 6
CONTINUOUS
 0
LINE
 8
WHITE
 10
7.9709
 20
1.7515
 30
0.0000
 11
7.9847
 21
1.7538
 31
0.0000
 6
CONTINUOUS
 0
LINE
 8
WHITE
 10
7.9847
 20
1.7538
 30
0.0000
 11
7.9977
 21
1.756199
 31
0.0000
 6
CONTINUOUS
 0
LINE
 8
WHITE
 10
7.9977
 20
1.756199
 30
0.0000
 11
8.031599
 21
1.772899
 31
0.0000
 6
CONTINUOUS
 0
LINE
 8
WHITE
 10
8.031599
 20
1.772899
 30
0.0000
 11
8.067199
 21
1.781399
 31
0.0000
 6
CONTINUOUS
 0
LINE
 8
WHITE
 10
8.067199
 20
1.781399
 30
0.0000
 11
8.109399
 21
1.783699
 31
0.0000
 6
CONTINUOUS
 0
LINE
 8
WHITE
 10
8.109399
 20
1.783699
 30
0.0000
 11
8.121399
 21
1.786599
 31
0.0000
 6
CONTINUOUS
 0
LINE
 8
WHITE
 10
8.121399
 20
1.786599
 30
0.0000
 11
8.133299
 21
1.789999
 31
0.0000
 6
CONTINUOUS
 0
LINE
 8
WHITE
 10
8.133299
 20
1.789999
 30
0.0000
 11
8.145299
 21
1.792899
 31
0.0000
 6
CONTINUOUS
 0
LINE
 8
WHITE
 10
8.145299
 20
1.792899
 30
0.0000
 11
8.164999
 21
1.789399
 31
0.0000
 6
CONTINUOUS
 0
LINE
 8
WHITE
 10
8.164999
 20
1.789399
 30
0.0000
 11
8.184599
 21
1.7924
 31
0.0000
 6
CONTINUOUS
 0
LINE
 8
WHITE
 10
8.184599
 20
1.7924
 30
0.0000
 11
8.2046
 21
1.801499
 31
0.0000
 6
CONTINUOUS
 0
LINE
 8
WHITE
 10
8.2046
 20
1.801499
 30
0.0000
 11
8.225199
 21
1.8019
 31
0.0000
 6
CONTINUOUS
 0
LINE
 8
WHITE
 10
8.225199
 20
1.8019
 30
0.0000
 11
8.248299
 21
1.8039
 31
0.0000
 6
CONTINUOUS
 0
LINE
 8
WHITE
 10
8.248299
 20
1.8039
 30
0.0000
 11
8.2671
 21
1.8076
 31
0.0000
 6
CONTINUOUS
 0
ARC
 8
WHITE
 10
8.266799
 20
1.8091
 30
 0
 40
.001529
 50
281.3099
 51
14.9283
 6
CONTINUOUS
 0
LINE
 8
WHITE
 10
8.2683
 20
1.809499
 30
0.0000
 11
8.2629
 21
1.830199
 31
0.0000
 6
CONTINUOUS
 0
LINE
 8
WHITE
 10
8.2629
 20
1.830199
 30
0.0000
 11
8.259099
 21
1.854599
 31
0.0000
 6
CONTINUOUS
 0
LINE
 8
WHITE
 10
8.259099
 20
1.854599
 30
0.0000
 11
8.2586
 21
1.8824
 31
0.0000
 6
CONTINUOUS
 0
LINE
 8
WHITE
 10
8.2586
 20
1.8824
 30
0.0000
 11
8.260299
 21
1.915199
 31
0.0000
 6
CONTINUOUS
 0
LINE
 8
WHITE
 10
8.260299
 20
1.915199
 30
0.0000
 11
8.254199
 21
1.950199
 31
0.0000
 6
CONTINUOUS
 0
LINE
 8
WHITE
 10
8.254199
 20
1.950199
 30
0.0000
 11
8.238499
 21
1.9823
 31
0.0000
 6
CONTINUOUS
 0
ARC
 8
WHITE
 10
8.237099
 20
1.9816
 30
 0
 40
.001565
 50
26.56505
 51
104.9167
 6
CONTINUOUS
 0
LINE
 8
WHITE
 10
8.2367
 20
1.9831
 30
0.0000
 11
8.218899
 21
1.978099
 31
0.0000
 6
CONTINUOUS
 0
LINE
 8
WHITE
 10
8.218899
 20
1.978099
 30
0.0000
 11
8.199899
 21
1.977399
 31
0.0000
 6
CONTINUOUS
 0
LINE
 8
WHITE
 10
8.199899
 20
1.977399
 30
0.0000
 11
8.1821
 21
1.9808
 31
0.0000
 6
CONTINUOUS
 0
ARC
 8
WHITE
 10
8.1819
 20
1.9793
 30
 0
 40
.001513
 50
82.40536
 51
150.2546
 6
CONTINUOUS
 0
LINE
 8
WHITE
 10
8.1805
 20
1.9801
 30
0.0000
 11
8.163499
 21
1.953199
 31
0.0000
 6
CONTINUOUS
 0
LINE
 8
WHITE
 10
8.163499
 20
1.953199
 30
0.0000
 11
8.133299
 21
1.933899
 31
0.0000
 6
CONTINUOUS
 0
LINE
 8
WHITE
 10
8.133299
 20
1.933899
 30
0.0000
 11
8.083
 21
1.928799
 31
0.0000
 6
CONTINUOUS
 0
ARC
 8
WHITE
 10
8.0831
 20
1.927299
 30
 0
 40
.001503
 50
93.81407
 51
165.0674
 6
CONTINUOUS
 0
LINE
 8
WHITE
 10
8.0816
 20
1.9277
 30
0.0000
 11
8.068499
 21
1.8824
 31
0.0000
 6
CONTINUOUS
 0
LINE
 8
WHITE
 10
8.068499
 20
1.8824
 30
0.0000
 11
8.043299
 21
1.853999
 31
0.0000
 6
CONTINUOUS
 0
LINE
 8
WHITE
 10
8.043299
 20
1.853999
 30
0.0000
 11
8.0429
 21
1.853899
 31
0.0000
 6
CONTINUOUS
 0
LINE
 8
WHITE
 10
8.3968
 20
2.028
 30
0.0000
 11
8.337699
 21
2.027699
 31
0.0000
 6
CONTINUOUS
 0
LINE
 8
WHITE
 10
8.337699
 20
2.027699
 30
0.0000
 11
8.309
 21
2.0276
 31
0.0000
 6
CONTINUOUS
 0
LINE
 8
WHITE
 10
8.309
 20
2.0276
 30
0.0000
 11
8.323599
 21
1.958099
 31
0.0000
 6
CONTINUOUS
 0
LINE
 8
WHITE
 10
8.323599
 20
1.958099
 30
0.0000
 11
8.3331
 21
1.887799
 31
0.0000
 6
CONTINUOUS
 0
LINE
 8
WHITE
 10
8.3331
 20
1.887799
 30
0.0000
 11
8.3367
 21
1.8186
 31
0.0000
 6
CONTINUOUS
 0
ARC
 8
WHITE
 10
8.3382
 20
1.8186
 30
 0
 40
.0015
 50
180
 51
282.0724
 6
CONTINUOUS
 0
LINE
 8
WHITE
 10
8.3385
 20
1.817199
 30
0.0000
 11
8.4673
 21
1.839699
 31
0.0000
 6
CONTINUOUS
 0
LINE
 8
WHITE
 10
8.4673
 20
1.839699
 30
0.0000
 11
8.478099
 21
1.845
 31
0.0000
 6
CONTINUOUS
 0
LINE
 8
WHITE
 10
8.478099
 20
1.845
 30
0.0000
 11
8.481699
 21
1.851999
 31
0.0000
 6
CONTINUOUS
 0
LINE
 8
WHITE
 10
8.481699
 20
1.851999
 30
0.0000
 11
8.482899
 21
1.8595
 31
0.0000
 6
CONTINUOUS
 0
LINE
 8
WHITE
 10
8.482899
 20
1.8595
 30
0.0000
 11
8.483799
 21
1.938199
 31
0.0000
 6
CONTINUOUS
 0
LINE
 8
WHITE
 10
8.483799
 20
1.938199
 30
0.0000
 11
8.4863
 21
2.173799
 31
0.0000
 6
CONTINUOUS
 0
LINE
 8
WHITE
 10
8.4863
 20
2.173799
 30
0.0000
 11
8.449
 21
2.115499
 31
0.0000
 6
CONTINUOUS
 0
LINE
 8
WHITE
 10
8.449
 20
2.115499
 30
0.0000
 11
8.4061
 21
2.087399
 31
0.0000
 6
CONTINUOUS
 0
LINE
 8
WHITE
 10
8.4061
 20
2.087399
 30
0.0000
 11
8.3605
 21
2.0833
 31
0.0000
 6
CONTINUOUS
 0
ARC
 8
WHITE
 10
8.3606
 20
2.0818
 30
 0
 40
.001503
 50
93.81407
 51
176.4364
 6
CONTINUOUS
 0
LINE
 8
WHITE
 10
8.359
 20
2.081899
 30
0.0000
 11
8.354599
 21
2.046299
 31
0.0000
 6
CONTINUOUS
 0
LINE
 8
WHITE
 10
8.354599
 20
2.046299
 30
0.0000
 11
8.337699
 21
2.027699
 31
0.0000
 6
CONTINUOUS
 0
LINE
 8
WHITE
 10
8.337699
 20
2.027699
 30
0.0000
 11
8.3373
 21
2.027699
 31
0.0000
 6
CONTINUOUS
 0
LINE
 8
WHITE
 10
8.4448
 20
2.9079
 30
0.0000
 11
8.503899
 21
2.907999
 31
0.0000
 6
CONTINUOUS
 0
LINE
 8
WHITE
 10
8.503899
 20
2.907999
 30
0.0000
 11
8.5038
 21
2.9463
 31
0.0000
 6
CONTINUOUS
 0
LINE
 8
WHITE
 10
8.5038
 20
2.9463
 30
0.0000
 11
8.503899
 21
3.016499
 31
0.0000
 6
CONTINUOUS
 0
LINE
 8
WHITE
 10
8.503899
 20
3.016499
 30
0.0000
 11
8.503899
 21
3.084
 31
0.0000
 6
CONTINUOUS
 0
ARC
 8
WHITE
 10
8.502399
 20
3.0842
 30
 0
 40
.001513
 50
352.4054
 51
105.9325
 6
CONTINUOUS
 0
LINE
 8
WHITE
 10
8.501999
 20
3.085599
 30
0.0000
 11
8.4481
 21
3.074599
 31
0.0000
 6
CONTINUOUS
 0
LINE
 8
WHITE
 10
8.4481
 20
3.074599
 30
0.0000
 11
7.834
 21
2.9493
 31
0.0000
 6
CONTINUOUS
 0
LINE
 8
WHITE
 10
7.834
 20
2.9493
 30
0.0000
 11
6.7751
 21
2.733299
 31
0.0000
 6
CONTINUOUS
 0
ARC
 8
WHITE
 10
6.7754
 20
2.7318
 30
 0
 40
.001529
 50
101.3099
 51
190.6238
 6
CONTINUOUS
 0
LINE
 8
WHITE
 10
6.773799
 20
2.731499
 30
0.0000
 11
6.783299
 21
2.682399
 31
0.0000
 6
CONTINUOUS
 0
LINE
 8
WHITE
 10
6.783299
 20
2.682399
 30
0.0000
 11
6.801
 21
2.6314
 31
0.0000
 6
CONTINUOUS
 0
LINE
 8
WHITE
 10
6.801
 20
2.6314
 30
0.0000
 11
6.8231
 21
2.584899
 31
0.0000
 6
CONTINUOUS
 0
ARC
 8
WHITE
 10
6.824399
 20
2.585599
 30
 0
 40
.001476
 50
208.3008
 51
270
 6
CONTINUOUS
 0
LINE
 8
WHITE
 10
6.824399
 20
2.5841
 30
0.0000
 11
6.874599
 21
2.581599
 31
0.0000
 6
CONTINUOUS
 0
LINE
 8
WHITE
 10
6.874599
 20
2.581599
 30
0.0000
 11
6.9246
 21
2.576499
 31
0.0000
 6
CONTINUOUS
 0
LINE
 8
WHITE
 10
6.9246
 20
2.576499
 30
0.0000
 11
6.975599
 21
2.565
 31
0.0000
 6
CONTINUOUS
 0
LINE
 8
WHITE
 10
6.975599
 20
2.565
 30
0.0000
 11
7.0095
 21
2.535
 31
0.0000
 6
CONTINUOUS
 0
LINE
 8
WHITE
 10
7.0095
 20
2.535
 30
0.0000
 11
7.0184
 21
2.499399
 31
0.0000
 6
CONTINUOUS
 0
LINE
 8
WHITE
 10
7.0184
 20
2.499399
 30
0.0000
 11
7.0018
 21
2.459199
 31
0.0000
 6
CONTINUOUS
 0
ARC
 8
WHITE
 10
7.003099
 20
2.458599
 30
 0
 40
.001431
 50
155.2249
 51
233.1301
 6
CONTINUOUS
 0
LINE
 8
WHITE
 10
7.0022
 20
2.4574
 30
0.0000
 11
7.0243
 21
2.4372
 31
0.0000
 6
CONTINUOUS
 0
LINE
 8
WHITE
 10
7.0243
 20
2.4372
 30
0.0000
 11
7.028999
 21
2.4112
 31
0.0000
 6
CONTINUOUS
 0
LINE
 8
WHITE
 10
7.028999
 20
2.4112
 30
0.0000
 11
7.0155
 21
2.380199
 31
0.0000
 6
CONTINUOUS
 0
LINE
 8
WHITE
 10
7.0155
 20
2.380199
 30
0.0000
 11
6.9797
 21
2.3494
 31
0.0000
 6
CONTINUOUS
 0
LINE
 8
WHITE
 10
6.9797
 20
2.3494
 30
0.0000
 11
6.936999
 21
2.3289
 31
0.0000
 6
CONTINUOUS
 0
LINE
 8
WHITE
 10
6.936999
 20
2.3289
 30
0.0000
 11
6.888999
 21
2.3187
 31
0.0000
 6
CONTINUOUS
 0
ARC
 8
WHITE
 10
6.889299
 20
2.3172
 30
 0
 40
.001529
 50
101.3099
 51
187.1355
 6
CONTINUOUS
 0
LINE
 8
WHITE
 10
6.8877
 20
2.316999
 30
0.0000
 11
6.901299
 21
2.2244
 31
0.0000
 6
CONTINUOUS
 0
LINE
 8
WHITE
 10
6.901299
 20
2.2244
 30
0.0000
 11
6.907299
 21
2.198999
 31
0.0000
 6
CONTINUOUS
 0
LINE
 8
WHITE
 10
6.907299
 20
2.198999
 30
0.0000
 11
6.8958
 21
2.1835
 31
0.0000
 6
CONTINUOUS
 0
LINE
 8
WHITE
 10
6.8958
 20
2.1835
 30
0.0000
 11
6.855199
 21
2.1847
 31
0.0000
 6
CONTINUOUS
 0
LINE
 8
WHITE
 10
6.855199
 20
2.1847
 30
0.0000
 11
6.806099
 21
2.205899
 31
0.0000
 6
CONTINUOUS
 0
LINE
 8
WHITE
 10
6.806099
 20
2.205899
 30
0.0000
 11
6.7711
 21
2.190399
 31
0.0000
 6
CONTINUOUS
 0
LINE
 8
WHITE
 10
6.7711
 20
2.190399
 30
0.0000
 11
6.720799
 21
2.1863
 31
0.0000
 6
CONTINUOUS
 0
LINE
 8
WHITE
 10
6.720799
 20
2.1863
 30
0.0000
 11
6.6908
 21
2.1805
 31
0.0000
 6
CONTINUOUS
 0
LINE
 8
WHITE
 10
6.6908
 20
2.1805
 30
0.0000
 11
6.663099
 21
2.1698
 31
0.0000
 6
CONTINUOUS
 0
LINE
 8
WHITE
 10
6.663099
 20
2.1698
 30
0.0000
 11
6.6364
 21
2.154999
 31
0.0000
 6
CONTINUOUS
 0
LINE
 8
WHITE
 10
6.6364
 20
2.154999
 30
0.0000
 11
6.6072
 21
2.150199
 31
0.0000
 6
CONTINUOUS
 0
LINE
 8
WHITE
 10
6.6072
 20
2.150199
 30
0.0000
 11
6.581799
 21
2.142699
 31
0.0000
 6
CONTINUOUS
 0
LINE
 8
WHITE
 10
6.581799
 20
2.142699
 30
0.0000
 11
6.561399
 21
2.1305
 31
0.0000
 6
CONTINUOUS
 0
LINE
 8
WHITE
 10
6.561399
 20
2.1305
 30
0.0000
 11
6.542699
 21
2.045399
 31
0.0000
 6
CONTINUOUS
 0
LINE
 8
WHITE
 10
6.542699
 20
2.045399
 30
0.0000
 11
6.5151
 21
1.9636
 31
0.0000
 6
CONTINUOUS
 0
LINE
 8
WHITE
 10
6.5151
 20
1.9636
 30
0.0000
 11
6.4786
 21
1.8865
 31
0.0000
 6
CONTINUOUS
 0
LINE
 8
WHITE
 10
6.4786
 20
1.8865
 30
0.0000
 11
6.5366
 21
1.898499
 31
0.0000
 6
CONTINUOUS
 0
LINE
 8
WHITE
 10
6.5366
 20
1.898499
 30
0.0000
 11
6.5949
 21
1.910599
 31
0.0000
 6
CONTINUOUS
 0
LINE
 8
WHITE
 10
6.5949
 20
1.910599
 30
0.0000
 11
6.653299
 21
1.9226
 31
0.0000
 6
CONTINUOUS
 0
LINE
 8
WHITE
 10
6.653299
 20
1.9226
 30
0.0000
 11
6.770199
 21
1.946699
 31
0.0000
 6
CONTINUOUS
 0
LINE
 8
WHITE
 10
6.770199
 20
1.946699
 30
0.0000
 11
6.9456
 21
1.982699
 31
0.0000
 6
CONTINUOUS
 0
LINE
 8
WHITE
 10
6.9456
 20
1.982699
 30
0.0000
 11
7.0625
 21
2.0067
 31
0.0000
 6
CONTINUOUS
 0
LINE
 8
WHITE
 10
7.0625
 20
2.0067
 30
0.0000
 11
7.179399
 21
2.0308
 31
0.0000
 6
CONTINUOUS
 0
LINE
 8
WHITE
 10
7.179399
 20
2.0308
 30
0.0000
 11
7.237699
 21
2.0429
 31
0.0000
 6
CONTINUOUS
 0
LINE
 8
WHITE
 10
7.237699
 20
2.0429
 30
0.0000
 11
7.296
 21
2.055
 31
0.0000
 6
CONTINUOUS
 0
LINE
 8
WHITE
 10
7.296
 20
2.055
 30
0.0000
 11
7.349599
 21
2.130899
 31
0.0000
 6
CONTINUOUS
 0
LINE
 8
WHITE
 10
7.349599
 20
2.130899
 30
0.0000
 11
7.413799
 21
2.190299
 31
0.0000
 6
CONTINUOUS
 0
LINE
 8
WHITE
 10
7.413799
 20
2.190299
 30
0.0000
 11
7.488299
 21
2.2332
 31
0.0000
 6
CONTINUOUS
 0
LINE
 8
WHITE
 10
7.488299
 20
2.2332
 30
0.0000
 11
7.5577
 21
2.266099
 31
0.0000
 6
CONTINUOUS
 0
LINE
 8
WHITE
 10
7.5577
 20
2.266099
 30
0.0000
 11
7.6272
 21
2.279299
 31
0.0000
 6
CONTINUOUS
 0
LINE
 8
WHITE
 10
7.6272
 20
2.279299
 30
0.0000
 11
7.696599
 21
2.273699
 31
0.0000
 6
CONTINUOUS
 0
LINE
 8
WHITE
 10
7.696599
 20
2.273699
 30
0.0000
 11
7.7649
 21
2.2506
 31
0.0000
 6
CONTINUOUS
 0
ARC
 8
WHITE
 10
7.7654
 20
2.252
 30
 0
 40
.001486
 50
250.3462
 51
323.1228
 6
CONTINUOUS
 0
LINE
 8
WHITE
 10
7.7666
 20
2.2511
 30
0.0000
 11
7.8041
 21
2.2994
 31
0.0000
 6
CONTINUOUS
 0
LINE
 8
WHITE
 10
7.8041
 20
2.2994
 30
0.0000
 11
7.8554
 21
2.331
 31
0.0000
 6
CONTINUOUS
 0
LINE
 8
WHITE
 10
7.8554
 20
2.331
 30
0.0000
 11
7.9232
 21
2.339699
 31
0.0000
 6
CONTINUOUS
 0
LINE
 8
WHITE
 10
7.9232
 20
2.339699
 30
0.0000
 11
7.9559
 21
2.377
 31
0.0000
 6
CONTINUOUS
 0
LINE
 8
WHITE
 10
7.9559
 20
2.377
 30
0.0000
 11
7.989299
 21
2.394599
 31
0.0000
 6
CONTINUOUS
 0
LINE
 8
WHITE
 10
7.989299
 20
2.394599
 30
0.0000
 11
8.0234
 21
2.3921
 31
0.0000
 6
CONTINUOUS
 0
ARC
 8
WHITE
 10
8.0237
 20
2.393599
 30
 0
 40
.001529
 50
258.6901
 51
331.6792
 6
CONTINUOUS
 0
LINE
 8
WHITE
 10
8.024999
 20
2.392899
 30
0.0000
 11
8.0408
 21
2.423099
 31
0.0000
 6
CONTINUOUS
 0
LINE
 8
WHITE
 10
8.0408
 20
2.423099
 30
0.0000
 11
8.057399
 21
2.449399
 31
0.0000
 6
CONTINUOUS
 0
LINE
 8
WHITE
 10
8.057399
 20
2.449399
 30
0.0000
 11
8.073399
 21
2.466099
 31
0.0000
 6
CONTINUOUS
 0
LINE
 8
WHITE
 10
8.073399
 20
2.466099
 30
0.0000
 11
8.119
 21
2.497499
 31
0.0000
 6
CONTINUOUS
 0
LINE
 8
WHITE
 10
8.119
 20
2.497499
 30
0.0000
 11
8.1455
 21
2.519399
 31
0.0000
 6
CONTINUOUS
 0
LINE
 8
WHITE
 10
8.1455
 20
2.519399
 30
0.0000
 11
8.1743
 21
2.5295
 31
0.0000
 6
CONTINUOUS
 0
LINE
 8
WHITE
 10
8.1743
 20
2.5295
 30
0.0000
 11
8.2044
 21
2.527899
 31
0.0000
 6
CONTINUOUS
 0
ARC
 8
WHITE
 10
8.2046
 20
2.529399
 30
 0
 40
.001513
 50
262.4054
 51
331.7049
 6
CONTINUOUS
 0
LINE
 8
WHITE
 10
8.2059
 20
2.5287
 30
0.0000
 11
8.223099
 21
2.5641
 31
0.0000
 6
CONTINUOUS
 0
LINE
 8
WHITE
 10
8.223099
 20
2.5641
 30
0.0000
 11
8.258099
 21
2.5919
 31
0.0000
 6
CONTINUOUS
 0
LINE
 8
WHITE
 10
8.258099
 20
2.5919
 30
0.0000
 11
8.3023
 21
2.6077
 31
0.0000
 6
CONTINUOUS
 0
LINE
 8
WHITE
 10
8.3023
 20
2.6077
 30
0.0000
 11
8.321
 21
2.622499
 31
0.0000
 6
CONTINUOUS
 0
LINE
 8
WHITE
 10
8.321
 20
2.622499
 30
0.0000
 11
8.3392
 21
2.6326
 31
0.0000
 6
CONTINUOUS
 0
LINE
 8
WHITE
 10
8.3392
 20
2.6326
 30
0.0000
 11
8.3634
 21
2.6417
 31
0.0000
 6
CONTINUOUS
 0
LINE
 8
WHITE
 10
8.3634
 20
2.6417
 30
0.0000
 11
8.4027
 21
2.6607
 31
0.0000
 6
CONTINUOUS
 0
LINE
 8
WHITE
 10
8.4027
 20
2.6607
 30
0.0000
 11
8.445599
 21
2.666699
 31
0.0000
 6
CONTINUOUS
 0
LINE
 8
WHITE
 10
8.445599
 20
2.666699
 30
0.0000
 11
8.5023
 21
2.6656
 31
0.0000
 6
CONTINUOUS
 0
ARC
 8
WHITE
 10
8.5024
 20
2.667099
 30
 0
 40
.001503
 50
266.1859
 51
3.821332
 6
CONTINUOUS
 0
LINE
 8
WHITE
 10
8.503899
 20
2.6672
 30
0.0000
 11
8.503899
 21
2.875799
 31
0.0000
 6
CONTINUOUS
 0
LINE
 8
WHITE
 10
8.503899
 20
2.875799
 30
0.0000
 11
8.503899
 21
2.907999
 31
0.0000
 6
CONTINUOUS
 0
LINE
 8
WHITE
 10
8.503899
 20
2.907999
 30
0.0000
 11
8.5036
 21
2.908299
 31
0.0000
 6
CONTINUOUS
 0
LINE
 8
WHITE
 10
8.041899
 20
4.7788
 30
0.0000
 11
8.0474
 21
4.719999
 31
0.0000
 6
CONTINUOUS
 0
LINE
 8
WHITE
 10
8.0474
 20
4.719999
 30
0.0000
 11
8.0683
 21
4.722
 31
0.0000
 6
CONTINUOUS
 0
LINE
 8
WHITE
 10
8.0683
 20
4.722
 30
0.0000
 11
8.0775
 21
4.723499
 31
0.0000
 6
CONTINUOUS
 0
LINE
 8
WHITE
 10
8.0775
 20
4.723499
 30
0.0000
 11
8.0823
 21
4.728799
 31
0.0000
 6
CONTINUOUS
 0
LINE
 8
WHITE
 10
8.0823
 20
4.728799
 30
0.0000
 11
8.082799
 21
4.737699
 31
0.0000
 6
CONTINUOUS
 0
LINE
 8
WHITE
 10
8.082799
 20
4.737699
 30
0.0000
 11
8.084899
 21
4.815899
 31
0.0000
 6
CONTINUOUS
 0
LINE
 8
WHITE
 10
8.084899
 20
4.815899
 30
0.0000
 11
8.0822
 21
4.8267
 31
0.0000
 6
CONTINUOUS
 0
LINE
 8
WHITE
 10
8.0822
 20
4.8267
 30
0.0000
 11
8.0753
 21
4.831299
 31
0.0000
 6
CONTINUOUS
 0
LINE
 8
WHITE
 10
8.0753
 20
4.831299
 30
0.0000
 11
8.065199
 21
4.8315
 31
0.0000
 6
CONTINUOUS
 0
LINE
 8
WHITE
 10
8.065199
 20
4.8315
 30
0.0000
 11
8.0296
 21
4.830399
 31
0.0000
 6
CONTINUOUS
 0
LINE
 8
WHITE
 10
8.0296
 20
4.830399
 30
0.0000
 11
8.0227
 21
4.8276
 31
0.0000
 6
CONTINUOUS
 0
LINE
 8
WHITE
 10
8.0227
 20
4.8276
 30
0.0000
 11
8.017499
 21
4.822
 31
0.0000
 6
CONTINUOUS
 0
LINE
 8
WHITE
 10
8.017499
 20
4.822
 30
0.0000
 11
8.013999
 21
4.8137
 31
0.0000
 6
CONTINUOUS
 0
LINE
 8
WHITE
 10
8.013999
 20
4.8137
 30
0.0000
 11
8.0129
 21
4.7335
 31
0.0000
 6
CONTINUOUS
 0
LINE
 8
WHITE
 10
8.0129
 20
4.7335
 30
0.0000
 11
8.014699
 21
4.7248
 31
0.0000
 6
CONTINUOUS
 0
LINE
 8
WHITE
 10
8.014699
 20
4.7248
 30
0.0000
 11
8.0192
 21
4.719699
 31
0.0000
 6
CONTINUOUS
 0
LINE
 8
WHITE
 10
8.0192
 20
4.719699
 30
0.0000
 11
8.026599
 21
4.7181
 31
0.0000
 6
CONTINUOUS
 0
LINE
 8
WHITE
 10
8.026599
 20
4.7181
 30
0.0000
 11
8.0474
 21
4.719999
 31
0.0000
 6
CONTINUOUS
 0
LINE
 8
WHITE
 10
8.0474
 20
4.719999
 30
0.0000
 11
8.047699
 21
4.7203
 31
0.0000
 6
CONTINUOUS
 0
LINE
 8
WHITE
 10
8.3745
 20
4.800899
 30
0.0000
 11
8.3829
 21
4.742499
 31
0.0000
 6
CONTINUOUS
 0
LINE
 8
WHITE
 10
8.3829
 20
4.742499
 30
0.0000
 11
8.415499
 21
4.7472
 31
0.0000
 6
CONTINUOUS
 0
LINE
 8
WHITE
 10
8.415499
 20
4.7472
 30
0.0000
 11
8.423199
 21
4.750999
 31
0.0000
 6
CONTINUOUS
 0
LINE
 8
WHITE
 10
8.423199
 20
4.750999
 30
0.0000
 11
8.4273
 21
4.757599
 31
0.0000
 6
CONTINUOUS
 0
LINE
 8
WHITE
 10
8.4273
 20
4.757599
 30
0.0000
 11
8.428099
 21
4.767
 31
0.0000
 6
CONTINUOUS
 0
LINE
 8
WHITE
 10
8.428099
 20
4.767
 30
0.0000
 11
8.4312
 21
4.845099
 31
0.0000
 6
CONTINUOUS
 0
LINE
 8
WHITE
 10
8.4312
 20
4.845099
 30
0.0000
 11
8.425999
 21
4.852399
 31
0.0000
 6
CONTINUOUS
 0
LINE
 8
WHITE
 10
8.425999
 20
4.852399
 30
0.0000
 11
8.4181
 21
4.855299
 31
0.0000
 6
CONTINUOUS
 0
LINE
 8
WHITE
 10
8.4181
 20
4.855299
 30
0.0000
 11
8.407199
 21
4.853799
 31
0.0000
 6
CONTINUOUS
 0
LINE
 8
WHITE
 10
8.407199
 20
4.853799
 30
0.0000
 11
8.3654
 21
4.846799
 31
0.0000
 6
CONTINUOUS
 0
LINE
 8
WHITE
 10
8.3654
 20
4.846799
 30
0.0000
 11
8.359199
 21
4.842899
 31
0.0000
 6
CONTINUOUS
 0
LINE
 8
WHITE
 10
8.359199
 20
4.842899
 30
0.0000
 11
8.354599
 21
4.836299
 31
0.0000
 6
CONTINUOUS
 0
LINE
 8
WHITE
 10
8.354599
 20
4.836299
 30
0.0000
 11
8.351799
 21
4.827
 31
0.0000
 6
CONTINUOUS
 0
LINE
 8
WHITE
 10
8.351799
 20
4.827
 30
0.0000
 11
8.3493
 21
4.797299
 31
0.0000
 6
CONTINUOUS
 0
LINE
 8
WHITE
 10
8.3493
 20
4.797299
 30
0.0000
 11
8.347499
 21
4.767499
 31
0.0000
 6
CONTINUOUS
 0
LINE
 8
WHITE
 10
8.347499
 20
4.767499
 30
0.0000
 11
8.350199
 21
4.739399
 31
0.0000
 6
CONTINUOUS
 0
ARC
 8
WHITE
 10
8.351699
 20
4.7395
 30
 0
 40
.001503
 50
183.8141
 51
282.1107
 6
CONTINUOUS
 0
LINE
 8
WHITE
 10
8.352
 20
4.7381
 30
0.0000
 11
8.3829
 21
4.742499
 31
0.0000
 6
CONTINUOUS
 0
LINE
 8
WHITE
 10
8.3829
 20
4.742499
 30
0.0000
 11
8.383099
 21
4.7428
 31
0.0000
 6
CONTINUOUS
 0
LINE
 8
WHITE
 10
8.201999
 20
4.7891
 30
0.0000
 11
8.260899
 21
4.7863
 31
0.0000
 6
CONTINUOUS
 0
LINE
 8
WHITE
 10
8.260899
 20
4.7863
 30
0.0000
 11
8.263099
 21
4.8315
 31
0.0000
 6
CONTINUOUS
 0
ARC
 8
WHITE
 10
8.261599
 20
4.831699
 30
 0
 40
.001513
 50
352.4054
 51
93.78265
 6
CONTINUOUS
 0
LINE
 8
WHITE
 10
8.2615
 20
4.833199
 30
0.0000
 11
8.197299
 21
4.829999
 31
0.0000
 6
CONTINUOUS
 0
LINE
 8
WHITE
 10
8.197299
 20
4.829999
 30
0.0000
 11
8.1905
 21
4.8267
 31
0.0000
 6
CONTINUOUS
 0
LINE
 8
WHITE
 10
8.1905
 20
4.8267
 30
0.0000
 11
8.1863
 21
4.8225
 31
0.0000
 6
CONTINUOUS
 0
LINE
 8
WHITE
 10
8.1863
 20
4.8225
 30
0.0000
 11
8.1849
 21
4.8172
 31
0.0000
 6
CONTINUOUS
 0
LINE
 8
WHITE
 10
8.1849
 20
4.8172
 30
0.0000
 11
8.1759
 21
4.747399
 31
0.0000
 6
CONTINUOUS
 0
LINE
 8
WHITE
 10
8.1759
 20
4.747399
 30
0.0000
 11
8.177599
 21
4.7367
 31
0.0000
 6
CONTINUOUS
 0
LINE
 8
WHITE
 10
8.177599
 20
4.7367
 30
0.0000
 11
8.1821
 21
4.729499
 31
0.0000
 6
CONTINUOUS
 0
LINE
 8
WHITE
 10
8.1821
 20
4.729499
 30
0.0000
 11
8.189399
 21
4.7259
 31
0.0000
 6
CONTINUOUS
 0
LINE
 8
WHITE
 10
8.189399
 20
4.7259
 30
0.0000
 11
8.257399
 21
4.738999
 31
0.0000
 6
CONTINUOUS
 0
ARC
 8
WHITE
 10
8.257099
 20
4.740499
 30
 0
 40
.001529
 50
281.3099
 51
356.4215
 6
CONTINUOUS
 0
LINE
 8
WHITE
 10
8.2587
 20
4.740399
 30
0.0000
 11
8.260899
 21
4.7863
 31
0.0000
 6
CONTINUOUS
 0
LINE
 8
WHITE
 10
8.260899
 20
4.7863
 30
0.0000
 11
8.2607
 21
4.786499
 31
0.0000
 6
CONTINUOUS
 0
LINE
 8
WHITE
 10
7.8695
 20
4.914999
 30
0.0000
 11
7.891399
 21
4.9481
 31
0.0000
 6
CONTINUOUS
 0
LINE
 8
WHITE
 10
7.891399
 20
4.9481
 30
0.0000
 11
7.890999
 21
5.021299
 31
0.0000
 6
CONTINUOUS
 0
LINE
 8
WHITE
 10
7.890999
 20
5.021299
 30
0.0000
 11
7.889599
 21
5.2431
 31
0.0000
 6
CONTINUOUS
 0
LINE
 8
WHITE
 10
7.889599
 20
5.2431
 30
0.0000
 11
7.8891
 21
5.316199
 31
0.0000
 6
CONTINUOUS
 0
LINE
 8
WHITE
 10
7.8891
 20
5.316199
 30
0.0000
 11
7.8895
 21
5.334799
 31
0.0000
 6
CONTINUOUS
 0
LINE
 8
WHITE
 10
7.8895
 20
5.334799
 30
0.0000
 11
7.8951
 21
5.3459
 31
0.0000
 6
CONTINUOUS
 0
LINE
 8
WHITE
 10
7.8951
 20
5.3459
 30
0.0000
 11
7.909599
 21
5.351399
 31
0.0000
 6
CONTINUOUS
 0
LINE
 8
WHITE
 10
7.909599
 20
5.351399
 30
0.0000
 11
7.969099
 21
5.352399
 31
0.0000
 6
CONTINUOUS
 0
LINE
 8
WHITE
 10
7.969099
 20
5.352399
 30
0.0000
 11
8.029299
 21
5.3537
 31
0.0000
 6
CONTINUOUS
 0
LINE
 8
WHITE
 10
8.029299
 20
5.3537
 30
0.0000
 11
8.0899
 21
5.355
 31
0.0000
 6
CONTINUOUS
 0
LINE
 8
WHITE
 10
8.0899
 20
5.355
 30
0.0000
 11
8.150799
 21
5.3565
 31
0.0000
 6
CONTINUOUS
 0
LINE
 8
WHITE
 10
8.150799
 20
5.3565
 30
0.0000
 11
8.273099
 21
5.3596
 31
0.0000
 6
CONTINUOUS
 0
LINE
 8
WHITE
 10
8.273099
 20
5.3596
 30
0.0000
 11
8.333999
 21
5.3611
 31
0.0000
 6
CONTINUOUS
 0
LINE
 8
WHITE
 10
8.333999
 20
5.3611
 30
0.0000
 11
8.394599
 21
5.3625
 31
0.0000
 6
CONTINUOUS
 0
LINE
 8
WHITE
 10
8.394599
 20
5.3625
 30
0.0000
 11
8.4547
 21
5.363699
 31
0.0000
 6
CONTINUOUS
 0
LINE
 8
WHITE
 10
8.4547
 20
5.363699
 30
0.0000
 11
8.513099
 21
5.364699
 31
0.0000
 6
CONTINUOUS
 0
ARC
 8
WHITE
 10
8.513099
 20
5.366199
 30
 0
 40
.0015
 50
270
 51
340.3387
 6
CONTINUOUS
 0
LINE
 8
WHITE
 10
8.514499
 20
5.365699
 30
0.0000
 11
8.5214
 21
5.383399
 31
0.0000
 6
CONTINUOUS
 0
LINE
 8
WHITE
 10
8.5214
 20
5.383399
 30
0.0000
 11
8.5233
 21
5.4024
 31
0.0000
 6
CONTINUOUS
 0
LINE
 8
WHITE
 10
8.5233
 20
5.4024
 30
0.0000
 11
8.52
 21
5.42
 31
0.0000
 6
CONTINUOUS
 0
ARC
 8
WHITE
 10
8.5185
 20
5.4198
 30
 0
 40
.001513
 50
7.594642
 51
93.82012
 6
CONTINUOUS
 0
LINE
 8
WHITE
 10
8.5184
 20
5.421299
 30
0.0000
 11
7.8589
 21
5.4024
 31
0.0000
 6
CONTINUOUS
 0
LINE
 8
WHITE
 10
7.8589
 20
5.4024
 30
0.0000
 11
7.819499
 21
5.452499
 31
0.0000
 6
CONTINUOUS
 0
LINE
 8
WHITE
 10
7.819499
 20
5.452499
 30
0.0000
 11
7.778999
 21
5.501699
 31
0.0000
 6
CONTINUOUS
 0
LINE
 8
WHITE
 10
7.778999
 20
5.501699
 30
0.0000
 11
7.737699
 21
5.5503
 31
0.0000
 6
CONTINUOUS
 0
LINE
 8
WHITE
 10
7.737699
 20
5.5503
 30
0.0000
 11
7.6957
 21
5.5984
 31
0.0000
 6
CONTINUOUS
 0
LINE
 8
WHITE
 10
7.6957
 20
5.5984
 30
0.0000
 11
7.6529
 21
5.6461
 31
0.0000
 6
CONTINUOUS
 0
LINE
 8
WHITE
 10
7.6529
 20
5.6461
 30
0.0000
 11
7.609799
 21
5.693399
 31
0.0000
 6
CONTINUOUS
 0
LINE
 8
WHITE
 10
7.609799
 20
5.693399
 30
0.0000
 11
7.566299
 21
5.740499
 31
0.0000
 6
CONTINUOUS
 0
LINE
 8
WHITE
 10
7.566299
 20
5.740499
 30
0.0000
 11
7.5225
 21
5.778399
 31
0.0000
 6
CONTINUOUS
 0
LINE
 8
WHITE
 10
7.5225
 20
5.778399
 30
0.0000
 11
7.462299
 21
5.810699
 31
0.0000
 6
CONTINUOUS
 0
LINE
 8
WHITE
 10
7.462299
 20
5.810699
 30
0.0000
 11
7.400899
 21
5.842599
 31
0.0000
 6
CONTINUOUS
 0
LINE
 8
WHITE
 10
7.400899
 20
5.842599
 30
0.0000
 11
7.340799
 21
5.874899
 31
0.0000
 6
CONTINUOUS
 0
LINE
 8
WHITE
 10
7.340799
 20
5.874899
 30
0.0000
 11
7.318999
 21
5.8722
 31
0.0000
 6
CONTINUOUS
 0
LINE
 8
WHITE
 10
7.318999
 20
5.8722
 30
0.0000
 11
7.314199
 21
5.863699
 31
0.0000
 6
CONTINUOUS
 0
ARC
 8
WHITE
 10
7.315499
 20
5.862999
 30
 0
 40
.001476
 50
151.6992
 51
225.0124
 6
CONTINUOUS
 0
LINE
 8
WHITE
 10
7.3144
 20
5.861899
 30
0.0000
 11
7.332799
 21
5.840799
 31
0.0000
 6
CONTINUOUS
 0
LINE
 8
WHITE
 10
7.332799
 20
5.840799
 30
0.0000
 11
7.3884
 21
5.806099
 31
0.0000
 6
CONTINUOUS
 0
LINE
 8
WHITE
 10
7.3884
 20
5.806099
 30
0.0000
 11
7.4446
 21
5.772099
 31
0.0000
 6
CONTINUOUS
 0
LINE
 8
WHITE
 10
7.4446
 20
5.772099
 30
0.0000
 11
7.500199
 21
5.7374
 31
0.0000
 6
CONTINUOUS
 0
LINE
 8
WHITE
 10
7.500199
 20
5.7374
 30
0.0000
 11
7.546899
 21
5.6851
 31
0.0000
 6
CONTINUOUS
 0
LINE
 8
WHITE
 10
7.546899
 20
5.6851
 30
0.0000
 11
7.5935
 21
5.632699
 31
0.0000
 6
CONTINUOUS
 0
LINE
 8
WHITE
 10
7.5935
 20
5.632699
 30
0.0000
 11
7.6402
 21
5.580299
 31
0.0000
 6
CONTINUOUS
 0
LINE
 8
WHITE
 10
7.6402
 20
5.580299
 30
0.0000
 11
7.687099
 21
5.5281
 31
0.0000
 6
CONTINUOUS
 0
LINE
 8
WHITE
 10
7.687099
 20
5.5281
 30
0.0000
 11
7.734399
 21
5.476399
 31
0.0000
 6
CONTINUOUS
 0
LINE
 8
WHITE
 10
7.734399
 20
5.476399
 30
0.0000
 11
7.782299
 21
5.425099
 31
0.0000
 6
CONTINUOUS
 0
LINE
 8
WHITE
 10
7.782299
 20
5.425099
 30
0.0000
 11
7.805399
 21
5.3937
 31
0.0000
 6
CONTINUOUS
 0
LINE
 8
WHITE
 10
7.805399
 20
5.3937
 30
0.0000
 11
7.8196
 21
5.363399
 31
0.0000
 6
CONTINUOUS
 0
LINE
 8
WHITE
 10
7.8196
 20
5.363399
 30
0.0000
 11
7.824699
 21
5.334199
 31
0.0000
 6
CONTINUOUS
 0
LINE
 8
WHITE
 10
7.824699
 20
5.334199
 30
0.0000
 11
7.8248
 21
5.2746
 31
0.0000
 6
CONTINUOUS
 0
LINE
 8
WHITE
 10
7.8248
 20
5.2746
 30
0.0000
 11
7.8249
 21
5.2146
 31
0.0000
 6
CONTINUOUS
 0
LINE
 8
WHITE
 10
7.8249
 20
5.2146
 30
0.0000
 11
7.8252
 21
5.1546
 31
0.0000
 6
CONTINUOUS
 0
LINE
 8
WHITE
 10
7.8252
 20
5.1546
 30
0.0000
 11
7.8255
 21
5.094399
 31
0.0000
 6
CONTINUOUS
 0
LINE
 8
WHITE
 10
7.8255
 20
5.094399
 30
0.0000
 11
7.826099
 21
4.9738
 31
0.0000
 6
CONTINUOUS
 0
LINE
 8
WHITE
 10
7.826099
 20
4.9738
 30
0.0000
 11
7.826399
 21
4.913599
 31
0.0000
 6
CONTINUOUS
 0
LINE
 8
WHITE
 10
7.826399
 20
4.913599
 30
0.0000
 11
7.8266
 21
4.853499
 31
0.0000
 6
CONTINUOUS
 0
LINE
 8
WHITE
 10
7.8266
 20
4.853499
 30
0.0000
 11
7.826799
 21
4.7936
 31
0.0000
 6
CONTINUOUS
 0
LINE
 8
WHITE
 10
7.826799
 20
4.7936
 30
0.0000
 11
7.8269
 21
4.734
 31
0.0000
 6
CONTINUOUS
 0
LINE
 8
WHITE
 10
7.8269
 20
4.734
 30
0.0000
 11
7.847899
 21
4.726299
 31
0.0000
 6
CONTINUOUS
 0
LINE
 8
WHITE
 10
7.847899
 20
4.726299
 30
0.0000
 11
7.869299
 21
4.726299
 31
0.0000
 6
CONTINUOUS
 0
LINE
 8
WHITE
 10
7.869299
 20
4.726299
 30
0.0000
 11
7.8899
 21
4.736
 31
0.0000
 6
CONTINUOUS
 0
ARC
 8
WHITE
 10
7.8893
 20
4.7374
 30
 0
 40
.001523
 50
293.1986
 51
0
 6
CONTINUOUS
 0
LINE
 8
WHITE
 10
7.8909
 20
4.7374
 30
0.0000
 11
7.891499
 21
4.770199
 31
0.0000
 6
CONTINUOUS
 0
LINE
 8
WHITE
 10
7.891499
 20
4.770199
 30
0.0000
 11
7.892
 21
4.8052
 31
0.0000
 6
CONTINUOUS
 0
LINE
 8
WHITE
 10
7.892
 20
4.8052
 30
0.0000
 11
7.8926
 21
4.839099
 31
0.0000
 6
CONTINUOUS
 0
LINE
 8
WHITE
 10
7.8926
 20
4.839099
 30
0.0000
 11
7.889999
 21
4.8701
 31
0.0000
 6
CONTINUOUS
 0
LINE
 8
WHITE
 10
7.889999
 20
4.8701
 30
0.0000
 11
7.896299
 21
4.892499
 31
0.0000
 6
CONTINUOUS
 0
ARC
 8
WHITE
 10
7.897799
 20
4.892099
 30
 0
 40
.001552
 50
104.9325
 51
165.0686
 6
CONTINUOUS
 0
LINE
 8
WHITE
 10
7.897399
 20
4.893599
 30
0.0000
 11
7.9229
 21
4.8996
 31
0.0000
 6
CONTINUOUS
 0
LINE
 8
WHITE
 10
7.9229
 20
4.8996
 30
0.0000
 11
7.986999
 21
4.9021
 31
0.0000
 6
CONTINUOUS
 0
LINE
 8
WHITE
 10
7.986999
 20
4.9021
 30
0.0000
 11
8.052
 21
4.904699
 31
0.0000
 6
CONTINUOUS
 0
LINE
 8
WHITE
 10
8.052
 20
4.904699
 30
0.0000
 11
8.117799
 21
4.9074
 31
0.0000
 6
CONTINUOUS
 0
LINE
 8
WHITE
 10
8.117799
 20
4.9074
 30
0.0000
 11
8.184
 21
4.9102
 31
0.0000
 6
CONTINUOUS
 0
LINE
 8
WHITE
 10
8.184
 20
4.9102
 30
0.0000
 11
8.250399
 21
4.913
 31
0.0000
 6
CONTINUOUS
 0
LINE
 8
WHITE
 10
8.250399
 20
4.913
 30
0.0000
 11
8.316599
 21
4.915699
 31
0.0000
 6
CONTINUOUS
 0
LINE
 8
WHITE
 10
8.316599
 20
4.915699
 30
0.0000
 11
8.3823
 21
4.918499
 31
0.0000
 6
CONTINUOUS
 0
LINE
 8
WHITE
 10
8.3823
 20
4.918499
 30
0.0000
 11
8.4474
 21
4.9211
 31
0.0000
 6
CONTINUOUS
 0
LINE
 8
WHITE
 10
8.4474
 20
4.9211
 30
0.0000
 11
8.510299
 21
4.9235
 31
0.0000
 6
CONTINUOUS
 0
ARC
 8
WHITE
 10
8.510299
 20
4.925
 30
 0
 40
.0015
 50
270
 51
341.5596
 6
CONTINUOUS
 0
LINE
 8
WHITE
 10
8.511799
 20
4.924499
 30
0.0000
 11
8.518799
 21
4.943699
 31
0.0000
 6
CONTINUOUS
 0
LINE
 8
WHITE
 10
8.518799
 20
4.943699
 30
0.0000
 11
8.5192
 21
4.9586
 31
0.0000
 6
CONTINUOUS
 0
LINE
 8
WHITE
 10
8.5192
 20
4.9586
 30
0.0000
 11
8.516099
 21
4.9688
 31
0.0000
 6
CONTINUOUS
 0
ARC
 8
WHITE
 10
8.514699
 20
4.9686
 30
 0
 40
.001414
 50
8.130102
 51
98.14377
 6
CONTINUOUS
 0
LINE
 8
WHITE
 10
8.514499
 20
4.969999
 30
0.0000
 11
8.454
 21
4.9682
 31
0.0000
 6
CONTINUOUS
 0
LINE
 8
WHITE
 10
8.454
 20
4.9682
 30
0.0000
 11
8.391799
 21
4.966199
 31
0.0000
 6
CONTINUOUS
 0
LINE
 8
WHITE
 10
8.391799
 20
4.966199
 30
0.0000
 11
8.329299
 21
4.9639
 31
0.0000
 6
CONTINUOUS
 0
LINE
 8
WHITE
 10
8.329299
 20
4.9639
 30
0.0000
 11
8.266599
 21
4.9615
 31
0.0000
 6
CONTINUOUS
 0
LINE
 8
WHITE
 10
8.266599
 20
4.9615
 30
0.0000
 11
8.140899
 21
4.9566
 31
0.0000
 6
CONTINUOUS
 0
LINE
 8
WHITE
 10
8.140899
 20
4.9566
 30
0.0000
 11
8.0782
 21
4.954199
 31
0.0000
 6
CONTINUOUS
 0
LINE
 8
WHITE
 10
8.0782
 20
4.954199
 30
0.0000
 11
8.0157
 21
4.9519
 31
0.0000
 6
CONTINUOUS
 0
LINE
 8
WHITE
 10
8.0157
 20
4.9519
 30
0.0000
 11
7.9534
 21
4.9498
 31
0.0000
 6
CONTINUOUS
 0
LINE
 8
WHITE
 10
7.9534
 20
4.9498
 30
0.0000
 11
7.891399
 21
4.9481
 31
0.0000
 6
CONTINUOUS
 0
LINE
 8
WHITE
 10
7.891399
 20
4.9481
 30
0.0000
 11
7.8912
 21
4.948299
 31
0.0000
 6
CONTINUOUS
 0
LINE
 8
WHITE
 10
8.232199
 20
5.0931
 30
0.0000
 11
8.2347
 21
5.033999
 31
0.0000
 6
CONTINUOUS
 0
LINE
 8
WHITE
 10
8.2347
 20
5.033999
 30
0.0000
 11
8.2566
 21
5.034999
 31
0.0000
 6
CONTINUOUS
 0
LINE
 8
WHITE
 10
8.2566
 20
5.034999
 30
0.0000
 11
8.267999
 21
5.036799
 31
0.0000
 6
CONTINUOUS
 0
LINE
 8
WHITE
 10
8.267999
 20
5.036799
 30
0.0000
 11
8.2746
 21
5.0437
 31
0.0000
 6
CONTINUOUS
 0
LINE
 8
WHITE
 10
8.2746
 20
5.0437
 30
0.0000
 11
8.2763
 21
5.0556
 31
0.0000
 6
CONTINUOUS
 0
LINE
 8
WHITE
 10
8.2763
 20
5.0556
 30
0.0000
 11
8.275799
 21
5.081099
 31
0.0000
 6
CONTINUOUS
 0
LINE
 8
WHITE
 10
8.275799
 20
5.081099
 30
0.0000
 11
8.275799
 21
5.1064
 31
0.0000
 6
CONTINUOUS
 0
LINE
 8
WHITE
 10
8.275799
 20
5.1064
 30
0.0000
 11
8.2753
 21
5.1318
 31
0.0000
 6
CONTINUOUS
 0
LINE
 8
WHITE
 10
8.2753
 20
5.1318
 30
0.0000
 11
8.273799
 21
5.138999
 31
0.0000
 6
CONTINUOUS
 0
LINE
 8
WHITE
 10
8.273799
 20
5.138999
 30
0.0000
 11
8.2672
 21
5.144199
 31
0.0000
 6
CONTINUOUS
 0
LINE
 8
WHITE
 10
8.2672
 20
5.144199
 30
0.0000
 11
8.2565
 21
5.144899
 31
0.0000
 6
CONTINUOUS
 0
LINE
 8
WHITE
 10
8.2565
 20
5.144899
 30
0.0000
 11
8.2425
 21
5.144599
 31
0.0000
 6
CONTINUOUS
 0
LINE
 8
WHITE
 10
8.2425
 20
5.144599
 30
0.0000
 11
8.228799
 21
5.1444
 31
0.0000
 6
CONTINUOUS
 0
LINE
 8
WHITE
 10
8.228799
 20
5.1444
 30
0.0000
 11
8.2149
 21
5.144
 31
0.0000
 6
CONTINUOUS
 0
LINE
 8
WHITE
 10
8.2149
 20
5.144
 30
0.0000
 11
8.204899
 21
5.1423
 31
0.0000
 6
CONTINUOUS
 0
LINE
 8
WHITE
 10
8.204899
 20
5.1423
 30
0.0000
 11
8.199199
 21
5.135799
 31
0.0000
 6
CONTINUOUS
 0
LINE
 8
WHITE
 10
8.199199
 20
5.135799
 30
0.0000
 11
8.197199
 21
5.1258
 31
0.0000
 6
CONTINUOUS
 0
LINE
 8
WHITE
 10
8.197199
 20
5.1258
 30
0.0000
 11
8.1981
 21
5.045599
 31
0.0000
 6
CONTINUOUS
 0
LINE
 8
WHITE
 10
8.1981
 20
5.045599
 30
0.0000
 11
8.200699
 21
5.0383
 31
0.0000
 6
CONTINUOUS
 0
LINE
 8
WHITE
 10
8.200699
 20
5.0383
 30
0.0000
 11
8.205599
 21
5.0342
 31
0.0000
 6
CONTINUOUS
 0
LINE
 8
WHITE
 10
8.205599
 20
5.0342
 30
0.0000
 11
8.2129
 21
5.0331
 31
0.0000
 6
CONTINUOUS
 0
LINE
 8
WHITE
 10
8.2129
 20
5.0331
 30
0.0000
 11
8.2347
 21
5.033999
 31
0.0000
 6
CONTINUOUS
 0
LINE
 8
WHITE
 10
8.2347
 20
5.033999
 30
0.0000
 11
8.234999
 21
5.034299
 31
0.0000
 6
CONTINUOUS
 0
LINE
 8
WHITE
 10
8.351599
 20
5.1001
 30
0.0000
 11
8.351799
 21
5.0411
 31
0.0000
 6
CONTINUOUS
 0
LINE
 8
WHITE
 10
8.351799
 20
5.0411
 30
0.0000
 11
8.368499
 21
5.0411
 31
0.0000
 6
CONTINUOUS
 0
LINE
 8
WHITE
 10
8.368499
 20
5.0411
 30
0.0000
 11
8.376399
 21
5.0437
 31
0.0000
 6
CONTINUOUS
 0
LINE
 8
WHITE
 10
8.376399
 20
5.0437
 30
0.0000
 11
8.3814
 21
5.048999
 31
0.0000
 6
CONTINUOUS
 0
LINE
 8
WHITE
 10
8.3814
 20
5.048999
 30
0.0000
 11
8.383
 21
5.0563
 31
0.0000
 6
CONTINUOUS
 0
LINE
 8
WHITE
 10
8.383
 20
5.0563
 30
0.0000
 11
8.3836
 21
5.0826
 31
0.0000
 6
CONTINUOUS
 0
LINE
 8
WHITE
 10
8.3836
 20
5.0826
 30
0.0000
 11
8.384099
 21
5.1092
 31
0.0000
 6
CONTINUOUS
 0
LINE
 8
WHITE
 10
8.384099
 20
5.1092
 30
0.0000
 11
8.384699
 21
5.135499
 31
0.0000
 6
CONTINUOUS
 0
LINE
 8
WHITE
 10
8.384699
 20
5.135499
 30
0.0000
 11
8.3837
 21
5.141499
 31
0.0000
 6
CONTINUOUS
 0
LINE
 8
WHITE
 10
8.3837
 20
5.141499
 30
0.0000
 11
8.3786
 21
5.144599
 31
0.0000
 6
CONTINUOUS
 0
LINE
 8
WHITE
 10
8.3786
 20
5.144599
 30
0.0000
 11
8.3703
 21
5.1454
 31
0.0000
 6
CONTINUOUS
 0
LINE
 8
WHITE
 10
8.3703
 20
5.1454
 30
0.0000
 11
8.336799
 21
5.146299
 31
0.0000
 6
CONTINUOUS
 0
LINE
 8
WHITE
 10
8.336799
 20
5.146299
 30
0.0000
 11
8.329799
 21
5.144999
 31
0.0000
 6
CONTINUOUS
 0
LINE
 8
WHITE
 10
8.329799
 20
5.144999
 30
0.0000
 11
8.326299
 21
5.1401
 31
0.0000
 6
CONTINUOUS
 0
LINE
 8
WHITE
 10
8.326299
 20
5.1401
 30
0.0000
 11
8.3254
 21
5.130499
 31
0.0000
 6
CONTINUOUS
 0
LINE
 8
WHITE
 10
8.3254
 20
5.130499
 30
0.0000
 11
8.322299
 21
5.055399
 31
0.0000
 6
CONTINUOUS
 0
LINE
 8
WHITE
 10
8.322299
 20
5.055399
 30
0.0000
 11
8.323499
 21
5.048999
 31
0.0000
 6
CONTINUOUS
 0
LINE
 8
WHITE
 10
8.323499
 20
5.048999
 30
0.0000
 11
8.3275
 21
5.044
 31
0.0000
 6
CONTINUOUS
 0
LINE
 8
WHITE
 10
8.3275
 20
5.044
 30
0.0000
 11
8.335
 21
5.040999
 31
0.0000
 6
CONTINUOUS
 0
LINE
 8
WHITE
 10
8.335
 20
5.040999
 30
0.0000
 11
8.351799
 21
5.0411
 31
0.0000
 6
CONTINUOUS
 0
LINE
 8
WHITE
 10
8.351799
 20
5.0411
 30
0.0000
 11
8.352
 21
5.041299
 31
0.0000
 6
CONTINUOUS
 0
LINE
 8
WHITE
 10
8.4581
 20
5.1079
 30
0.0000
 11
8.459199
 21
5.048799
 31
0.0000
 6
CONTINUOUS
 0
LINE
 8
WHITE
 10
8.459199
 20
5.048799
 30
0.0000
 11
8.481499
 21
5.0492
 31
0.0000
 6
CONTINUOUS
 0
LINE
 8
WHITE
 10
8.481499
 20
5.0492
 30
0.0000
 11
8.490099
 21
5.051899
 31
0.0000
 6
CONTINUOUS
 0
LINE
 8
WHITE
 10
8.490099
 20
5.051899
 30
0.0000
 11
8.494299
 21
5.059199
 31
0.0000
 6
CONTINUOUS
 0
LINE
 8
WHITE
 10
8.494299
 20
5.059199
 30
0.0000
 11
8.494199
 21
5.0711
 31
0.0000
 6
CONTINUOUS
 0
LINE
 8
WHITE
 10
8.494199
 20
5.0711
 30
0.0000
 11
8.4919
 21
5.137199
 31
0.0000
 6
CONTINUOUS
 0
LINE
 8
WHITE
 10
8.4919
 20
5.137199
 30
0.0000
 11
8.490699
 21
5.1469
 31
0.0000
 6
CONTINUOUS
 0
LINE
 8
WHITE
 10
8.490699
 20
5.1469
 30
0.0000
 11
8.484
 21
5.152599
 31
0.0000
 6
CONTINUOUS
 0
LINE
 8
WHITE
 10
8.484
 20
5.152599
 30
0.0000
 11
8.468099
 21
5.151899
 31
0.0000
 6
CONTINUOUS
 0
LINE
 8
WHITE
 10
8.468099
 20
5.151899
 30
0.0000
 11
8.4425
 21
5.1475
 31
0.0000
 6
CONTINUOUS
 0
LINE
 8
WHITE
 10
8.4425
 20
5.1475
 30
0.0000
 11
8.433099
 21
5.1454
 31
0.0000
 6
CONTINUOUS
 0
LINE
 8
WHITE
 10
8.433099
 20
5.1454
 30
0.0000
 11
8.428199
 21
5.1398
 31
0.0000
 6
CONTINUOUS
 0
LINE
 8
WHITE
 10
8.428199
 20
5.1398
 30
0.0000
 11
8.4259
 21
5.128799
 31
0.0000
 6
CONTINUOUS
 0
LINE
 8
WHITE
 10
8.4259
 20
5.128799
 30
0.0000
 11
8.425
 21
5.056799
 31
0.0000
 6
CONTINUOUS
 0
LINE
 8
WHITE
 10
8.425
 20
5.056799
 30
0.0000
 11
8.427499
 21
5.051099
 31
0.0000
 6
CONTINUOUS
 0
LINE
 8
WHITE
 10
8.427499
 20
5.051099
 30
0.0000
 11
8.4315
 21
5.048699
 31
0.0000
 6
CONTINUOUS
 0
LINE
 8
WHITE
 10
8.4315
 20
5.048699
 30
0.0000
 11
8.4368
 21
5.048399
 31
0.0000
 6
CONTINUOUS
 0
LINE
 8
WHITE
 10
8.4368
 20
5.048399
 30
0.0000
 11
8.459199
 21
5.048799
 31
0.0000
 6
CONTINUOUS
 0
LINE
 8
WHITE
 10
8.459199
 20
5.048799
 30
0.0000
 11
8.4594
 21
5.049099
 31
0.0000
 6
CONTINUOUS
 0
LINE
 8
WHITE
 10
7.185299
 20
5.620999
 30
0.0000
 11
7.1897
 21
5.562099
 31
0.0000
 6
CONTINUOUS
 0
LINE
 8
WHITE
 10
7.1897
 20
5.562099
 30
0.0000
 11
7.324999
 21
5.572199
 31
0.0000
 6
CONTINUOUS
 0
LINE
 8
WHITE
 10
7.324999
 20
5.572199
 30
0.0000
 11
7.335599
 21
5.5773
 31
0.0000
 6
CONTINUOUS
 0
LINE
 8
WHITE
 10
7.335599
 20
5.5773
 30
0.0000
 11
7.340799
 21
5.585199
 31
0.0000
 6
CONTINUOUS
 0
LINE
 8
WHITE
 10
7.340799
 20
5.585199
 30
0.0000
 11
7.340799
 21
5.596
 31
0.0000
 6
CONTINUOUS
 0
LINE
 8
WHITE
 10
7.340799
 20
5.596
 30
0.0000
 11
7.3411
 21
5.6188
 31
0.0000
 6
CONTINUOUS
 0
LINE
 8
WHITE
 10
7.3411
 20
5.6188
 30
0.0000
 11
7.3383
 21
5.6412
 31
0.0000
 6
CONTINUOUS
 0
LINE
 8
WHITE
 10
7.3383
 20
5.6412
 30
0.0000
 11
7.3315
 21
5.661699
 31
0.0000
 6
CONTINUOUS
 0
LINE
 8
WHITE
 10
7.3315
 20
5.661699
 30
0.0000
 11
7.308
 21
5.7003
 31
0.0000
 6
CONTINUOUS
 0
LINE
 8
WHITE
 10
7.308
 20
5.7003
 30
0.0000
 11
7.2767
 21
5.7325
 31
0.0000
 6
CONTINUOUS
 0
LINE
 8
WHITE
 10
7.2767
 20
5.7325
 30
0.0000
 11
7.2396
 21
5.7539
 31
0.0000
 6
CONTINUOUS
 0
LINE
 8
WHITE
 10
7.2396
 20
5.7539
 30
0.0000
 11
7.1985
 21
5.760099
 31
0.0000
 6
CONTINUOUS
 0
LINE
 8
WHITE
 10
7.1985
 20
5.760099
 30
0.0000
 11
7.155099
 21
5.7469
 31
0.0000
 6
CONTINUOUS
 0
LINE
 8
WHITE
 10
7.155099
 20
5.7469
 30
0.0000
 11
7.111199
 21
5.709799
 31
0.0000
 6
CONTINUOUS
 0
LINE
 8
WHITE
 10
7.111199
 20
5.709799
 30
0.0000
 11
7.068699
 21
5.644599
 31
0.0000
 6
CONTINUOUS
 0
LINE
 8
WHITE
 10
7.068699
 20
5.644599
 30
0.0000
 11
7.0619
 21
5.625599
 31
0.0000
 6
CONTINUOUS
 0
LINE
 8
WHITE
 10
7.0619
 20
5.625599
 30
0.0000
 11
7.056799
 21
5.602399
 31
0.0000
 6
CONTINUOUS
 0
LINE
 8
WHITE
 10
7.056799
 20
5.602399
 30
0.0000
 11
7.0542
 21
5.582399
 31
0.0000
 6
CONTINUOUS
 0
LINE
 8
WHITE
 10
7.0542
 20
5.582399
 30
0.0000
 11
7.054399
 21
5.553699
 31
0.0000
 6
CONTINUOUS
 0
ARC
 8
WHITE
 10
7.0559
 20
5.553699
 30
 0
 40
.0015
 50
180
 51
273.8189
 6
CONTINUOUS
 0
LINE
 8
WHITE
 10
7.056
 20
5.552199
 30
0.0000
 11
7.1897
 21
5.562099
 31
0.0000
 6
CONTINUOUS
 0
LINE
 8
WHITE
 10
7.1897
 20
5.562099
 30
0.0000
 11
7.189899
 21
5.562399
 31
0.0000
 6
CONTINUOUS
 0
LINE
 8
WHITE
 10
7.686399
 20
4.969999
 30
0.0000
 11
7.642499
 21
4.9874
 31
0.0000
 6
CONTINUOUS
 0
LINE
 8
WHITE
 10
7.642499
 20
4.9874
 30
0.0000
 11
7.5847
 21
4.985
 31
0.0000
 6
CONTINUOUS
 0
LINE
 8
WHITE
 10
7.5847
 20
4.985
 30
0.0000
 11
7.5268
 21
4.9829
 31
0.0000
 6
CONTINUOUS
 0
LINE
 8
WHITE
 10
7.5268
 20
4.9829
 30
0.0000
 11
7.468299
 21
4.980999
 31
0.0000
 6
CONTINUOUS
 0
LINE
 8
WHITE
 10
7.468299
 20
4.980999
 30
0.0000
 11
7.409399
 21
4.9793
 31
0.0000
 6
CONTINUOUS
 0
LINE
 8
WHITE
 10
7.409399
 20
4.9793
 30
0.0000
 11
7.3501
 21
4.977799
 31
0.0000
 6
CONTINUOUS
 0
LINE
 8
WHITE
 10
7.3501
 20
4.977799
 30
0.0000
 11
7.2905
 21
4.9765
 31
0.0000
 6
CONTINUOUS
 0
LINE
 8
WHITE
 10
7.2905
 20
4.9765
 30
0.0000
 11
7.2308
 21
4.975299
 31
0.0000
 6
CONTINUOUS
 0
LINE
 8
WHITE
 10
7.2308
 20
4.975299
 30
0.0000
 11
7.171
 21
4.974299
 31
0.0000
 6
CONTINUOUS
 0
LINE
 8
WHITE
 10
7.171
 20
4.974299
 30
0.0000
 11
7.111299
 21
4.973299
 31
0.0000
 6
CONTINUOUS
 0
LINE
 8
WHITE
 10
7.111299
 20
4.973299
 30
0.0000
 11
7.051799
 21
4.9724
 31
0.0000
 6
CONTINUOUS
 0
LINE
 8
WHITE
 10
7.051799
 20
4.9724
 30
0.0000
 11
6.992499
 21
4.9716
 31
0.0000
 6
CONTINUOUS
 0
LINE
 8
WHITE
 10
6.992499
 20
4.9716
 30
0.0000
 11
6.8751
 21
4.969999
 31
0.0000
 6
CONTINUOUS
 0
LINE
 8
WHITE
 10
6.8751
 20
4.969999
 30
0.0000
 11
6.8172
 21
4.9692
 31
0.0000
 6
CONTINUOUS
 0
LINE
 8
WHITE
 10
6.8172
 20
4.9692
 30
0.0000
 11
6.76
 21
4.968299
 31
0.0000
 6
CONTINUOUS
 0
LINE
 8
WHITE
 10
6.76
 20
4.968299
 30
0.0000
 11
6.6956
 21
4.996799
 31
0.0000
 6
CONTINUOUS
 0
LINE
 8
WHITE
 10
6.6956
 20
4.996799
 30
0.0000
 11
6.633299
 21
5.024799
 31
0.0000
 6
CONTINUOUS
 0
LINE
 8
WHITE
 10
6.633299
 20
5.024799
 30
0.0000
 11
6.5109
 21
5.079999
 31
0.0000
 6
CONTINUOUS
 0
LINE
 8
WHITE
 10
6.5109
 20
5.079999
 30
0.0000
 11
6.448699
 21
5.1079
 31
0.0000
 6
CONTINUOUS
 0
LINE
 8
WHITE
 10
6.448699
 20
5.1079
 30
0.0000
 11
6.384399
 21
5.1364
 31
0.0000
 6
CONTINUOUS
 0
LINE
 8
WHITE
 10
6.384399
 20
5.1364
 30
0.0000
 11
6.363999
 21
5.1342
 31
0.0000
 6
CONTINUOUS
 0
LINE
 8
WHITE
 10
6.363999
 20
5.1342
 30
0.0000
 11
6.3544
 21
5.126399
 31
0.0000
 6
CONTINUOUS
 0
LINE
 8
WHITE
 10
6.3544
 20
5.126399
 30
0.0000
 11
6.355299
 21
5.112999
 31
0.0000
 6
CONTINUOUS
 0
LINE
 8
WHITE
 10
6.355299
 20
5.112999
 30
0.0000
 11
6.7174
 21
4.9361
 31
0.0000
 6
CONTINUOUS
 0
LINE
 8
WHITE
 10
6.7174
 20
4.9361
 30
0.0000
 11
6.729
 21
4.929399
 31
0.0000
 6
CONTINUOUS
 0
LINE
 8
WHITE
 10
6.729
 20
4.929399
 30
0.0000
 11
6.7342
 21
4.9183
 31
0.0000
 6
CONTINUOUS
 0
LINE
 8
WHITE
 10
6.7342
 20
4.9183
 30
0.0000
 11
6.7329
 21
4.902999
 31
0.0000
 6
CONTINUOUS
 0
LINE
 8
WHITE
 10
6.7329
 20
4.902999
 30
0.0000
 11
6.7287
 21
4.7483
 31
0.0000
 6
CONTINUOUS
 0
LINE
 8
WHITE
 10
6.7287
 20
4.7483
 30
0.0000
 11
6.7451
 21
4.735799
 31
0.0000
 6
CONTINUOUS
 0
LINE
 8
WHITE
 10
6.7451
 20
4.735799
 30
0.0000
 11
6.762199
 21
4.731599
 31
0.0000
 6
CONTINUOUS
 0
LINE
 8
WHITE
 10
6.762199
 20
4.731599
 30
0.0000
 11
6.7774
 21
4.731599
 31
0.0000
 6
CONTINUOUS
 0
ARC
 8
WHITE
 10
6.7774
 20
4.733099
 30
 0
 40
.0015
 50
270
 51
3.818909
 6
CONTINUOUS
 0
LINE
 8
WHITE
 10
6.7789
 20
4.7332
 30
0.0000
 11
6.78
 21
4.793
 31
0.0000
 6
CONTINUOUS
 0
LINE
 8
WHITE
 10
6.78
 20
4.793
 30
0.0000
 11
6.7807
 21
4.852399
 31
0.0000
 6
CONTINUOUS
 0
LINE
 8
WHITE
 10
6.7807
 20
4.852399
 30
0.0000
 11
6.781799
 21
4.914
 31
0.0000
 6
CONTINUOUS
 0
LINE
 8
WHITE
 10
6.781799
 20
4.914
 30
0.0000
 11
7.0205
 21
4.9196
 31
0.0000
 6
CONTINUOUS
 0
LINE
 8
WHITE
 10
7.0205
 20
4.9196
 30
0.0000
 11
7.4386
 21
4.9292
 31
0.0000
 6
CONTINUOUS
 0
LINE
 8
WHITE
 10
7.4386
 20
4.9292
 30
0.0000
 11
7.675799
 21
4.9348
 31
0.0000
 6
CONTINUOUS
 0
ARC
 8
WHITE
 10
7.675899
 20
4.9333
 30
 0
 40
.001503
 50
356.1811
 51
93.81407
 6
CONTINUOUS
 0
LINE
 8
WHITE
 10
7.6774
 20
4.933199
 30
0.0000
 11
7.6788
 21
4.8857
 31
0.0000
 6
CONTINUOUS
 0
LINE
 8
WHITE
 10
7.6788
 20
4.8857
 30
0.0000
 11
7.6792
 21
4.8368
 31
0.0000
 6
CONTINUOUS
 0
LINE
 8
WHITE
 10
7.6792
 20
4.8368
 30
0.0000
 11
7.6805
 21
4.789299
 31
0.0000
 6
CONTINUOUS
 0
ARC
 8
WHITE
 10
7.682
 20
4.789199
 30
 0
 40
.001503
 50
176.1859
 51
266.1799
 6
CONTINUOUS
 0
LINE
 8
WHITE
 10
7.6819
 20
4.7877
 30
0.0000
 11
7.6942
 21
4.7862
 31
0.0000
 6
CONTINUOUS
 0
LINE
 8
WHITE
 10
7.6942
 20
4.7862
 30
0.0000
 11
7.7083
 21
4.789199
 31
0.0000
 6
CONTINUOUS
 0
LINE
 8
WHITE
 10
7.7083
 20
4.789199
 30
0.0000
 11
7.721
 21
4.7925
 31
0.0000
 6
CONTINUOUS
 0
ARC
 8
WHITE
 10
7.7207
 20
4.794
 30
 0
 40
.001529
 50
281.3099
 51
3.801982
 6
CONTINUOUS
 0
LINE
 8
WHITE
 10
7.722199
 20
4.794099
 30
0.0000
 11
7.7216
 21
4.850999
 31
0.0000
 6
CONTINUOUS
 0
LINE
 8
WHITE
 10
7.7216
 20
4.850999
 30
0.0000
 11
7.721399
 21
4.9078
 31
0.0000
 6
CONTINUOUS
 0
LINE
 8
WHITE
 10
7.721399
 20
4.9078
 30
0.0000
 11
7.720699
 21
4.9661
 31
0.0000
 6
CONTINUOUS
 0
LINE
 8
WHITE
 10
7.720699
 20
4.9661
 30
0.0000
 11
7.718599
 21
4.9874
 31
0.0000
 6
CONTINUOUS
 0
LINE
 8
WHITE
 10
7.718599
 20
4.9874
 30
0.0000
 11
7.710899
 21
5.002399
 31
0.0000
 6
CONTINUOUS
 0
LINE
 8
WHITE
 10
7.710899
 20
5.002399
 30
0.0000
 11
7.697599
 21
5.0114
 31
0.0000
 6
CONTINUOUS
 0
LINE
 8
WHITE
 10
7.697599
 20
5.0114
 30
0.0000
 11
7.636199
 21
5.041999
 31
0.0000
 6
CONTINUOUS
 0
LINE
 8
WHITE
 10
7.636199
 20
5.041999
 30
0.0000
 11
7.5752
 21
5.0725
 31
0.0000
 6
CONTINUOUS
 0
LINE
 8
WHITE
 10
7.5752
 20
5.0725
 30
0.0000
 11
7.3926
 21
5.163499
 31
0.0000
 6
CONTINUOUS
 0
LINE
 8
WHITE
 10
7.3926
 20
5.163499
 30
0.0000
 11
7.3315
 21
5.193999
 31
0.0000
 6
CONTINUOUS
 0
LINE
 8
WHITE
 10
7.3315
 20
5.193999
 30
0.0000
 11
7.270299
 21
5.224599
 31
0.0000
 6
CONTINUOUS
 0
LINE
 8
WHITE
 10
7.270299
 20
5.224599
 30
0.0000
 11
7.2083
 21
5.219999
 31
0.0000
 6
CONTINUOUS
 0
LINE
 8
WHITE
 10
7.2083
 20
5.219999
 30
0.0000
 11
7.145999
 21
5.2156
 31
0.0000
 6
CONTINUOUS
 0
LINE
 8
WHITE
 10
7.145999
 20
5.2156
 30
0.0000
 11
7.0836
 21
5.2112
 31
0.0000
 6
CONTINUOUS
 0
LINE
 8
WHITE
 10
7.0836
 20
5.2112
 30
0.0000
 11
7.020999
 21
5.206999
 31
0.0000
 6
CONTINUOUS
 0
LINE
 8
WHITE
 10
7.020999
 20
5.206999
 30
0.0000
 11
6.9586
 21
5.2026
 31
0.0000
 6
CONTINUOUS
 0
LINE
 8
WHITE
 10
6.9586
 20
5.2026
 30
0.0000
 11
6.896299
 21
5.1982
 31
0.0000
 6
CONTINUOUS
 0
LINE
 8
WHITE
 10
6.896299
 20
5.1982
 30
0.0000
 11
6.8344
 21
5.1936
 31
0.0000
 6
CONTINUOUS
 0
LINE
 8
WHITE
 10
6.8344
 20
5.1936
 30
0.0000
 11
6.802199
 21
5.1792
 31
0.0000
 6
CONTINUOUS
 0
ARC
 8
WHITE
 10
6.802799
 20
5.1778
 30
 0
 40
.001523
 50
113.1986
 51
191.3275
 6
CONTINUOUS
 0
LINE
 8
WHITE
 10
6.8013
 20
5.177499
 30
0.0000
 11
6.802999
 21
5.165299
 31
0.0000
 6
CONTINUOUS
 0
ARC
 8
WHITE
 10
6.8045
 20
5.1654
 30
 0
 40
.001503
 50
183.8141
 51
258.6936
 6
CONTINUOUS
 0
LINE
 8
WHITE
 10
6.8042
 20
5.163899
 30
0.0000
 11
6.837399
 21
5.1571
 31
0.0000
 6
CONTINUOUS
 0
LINE
 8
WHITE
 10
6.837399
 20
5.1571
 30
0.0000
 11
7.2701
 21
5.1781
 31
0.0000
 6
CONTINUOUS
 0
LINE
 8
WHITE
 10
7.2701
 20
5.1781
 30
0.0000
 11
7.3312
 21
5.146399
 31
0.0000
 6
CONTINUOUS
 0
LINE
 8
WHITE
 10
7.3312
 20
5.146399
 30
0.0000
 11
7.3933
 21
5.114699
 31
0.0000
 6
CONTINUOUS
 0
LINE
 8
WHITE
 10
7.3933
 20
5.114699
 30
0.0000
 11
7.518799
 21
5.051099
 31
0.0000
 6
CONTINUOUS
 0
LINE
 8
WHITE
 10
7.518799
 20
5.051099
 30
0.0000
 11
7.580999
 21
5.019299
 31
0.0000
 6
CONTINUOUS
 0
LINE
 8
WHITE
 10
7.580999
 20
5.019299
 30
0.0000
 11
7.642499
 21
4.9874
 31
0.0000
 6
CONTINUOUS
 0
LINE
 8
WHITE
 10
7.642499
 20
4.9874
 30
0.0000
 11
7.6427
 21
4.986999
 31
0.0000
 6
CONTINUOUS
 0
LINE
 8
WHITE
 10
6.059999
 20
4.829899
 30
0.0000
 11
6.067299
 21
4.751399
 31
0.0000
 6
CONTINUOUS
 0
LINE
 8
WHITE
 10
6.067299
 20
4.751399
 30
0.0000
 11
6.100999
 21
4.7546
 31
0.0000
 6
CONTINUOUS
 0
LINE
 8
WHITE
 10
6.100999
 20
4.7546
 30
0.0000
 11
6.110899
 21
4.757299
 31
0.0000
 6
CONTINUOUS
 0
LINE
 8
WHITE
 10
6.110899
 20
4.757299
 30
0.0000
 11
6.116399
 21
4.7645
 31
0.0000
 6
CONTINUOUS
 0
LINE
 8
WHITE
 10
6.116399
 20
4.7645
 30
0.0000
 11
6.1177
 21
4.7764
 31
0.0000
 6
CONTINUOUS
 0
LINE
 8
WHITE
 10
6.1177
 20
4.7764
 30
0.0000
 11
6.1166
 21
4.824299
 31
0.0000
 6
CONTINUOUS
 0
LINE
 8
WHITE
 10
6.1166
 20
4.824299
 30
0.0000
 11
6.116499
 21
4.871799
 31
0.0000
 6
CONTINUOUS
 0
LINE
 8
WHITE
 10
6.116499
 20
4.871799
 30
0.0000
 11
6.115399
 21
4.9197
 31
0.0000
 6
CONTINUOUS
 0
LINE
 8
WHITE
 10
6.115399
 20
4.9197
 30
0.0000
 11
6.112899
 21
4.9281
 31
0.0000
 6
CONTINUOUS
 0
LINE
 8
WHITE
 10
6.112899
 20
4.9281
 30
0.0000
 11
6.1041
 21
4.9326
 31
0.0000
 6
CONTINUOUS
 0
LINE
 8
WHITE
 10
6.1041
 20
4.9326
 30
0.0000
 11
6.090499
 21
4.9324
 31
0.0000
 6
CONTINUOUS
 0
LINE
 8
WHITE
 10
6.090499
 20
4.9324
 30
0.0000
 11
6.0194
 21
4.9313
 31
0.0000
 6
CONTINUOUS
 0
LINE
 8
WHITE
 10
6.0194
 20
4.9313
 30
0.0000
 11
6.013299
 21
4.927999
 31
0.0000
 6
CONTINUOUS
 0
LINE
 8
WHITE
 10
6.013299
 20
4.927999
 30
0.0000
 11
6.009799
 21
4.9211
 31
0.0000
 6
CONTINUOUS
 0
LINE
 8
WHITE
 10
6.009799
 20
4.9211
 30
0.0000
 11
6.0088
 21
4.910399
 31
0.0000
 6
CONTINUOUS
 0
LINE
 8
WHITE
 10
6.0088
 20
4.910399
 30
0.0000
 11
6.011499
 21
4.783299
 31
0.0000
 6
CONTINUOUS
 0
LINE
 8
WHITE
 10
6.011499
 20
4.783299
 30
0.0000
 11
6.0144
 21
4.7613
 31
0.0000
 6
CONTINUOUS
 0
LINE
 8
WHITE
 10
6.0144
 20
4.7613
 30
0.0000
 11
6.0208
 21
4.7494
 31
0.0000
 6
CONTINUOUS
 0
ARC
 8
WHITE
 10
6.022099
 20
4.7501
 30
 0
 40
.001476
 50
208.3008
 51
273.8189
 6
CONTINUOUS
 0
LINE
 8
WHITE
 10
6.0222
 20
4.7486
 30
0.0000
 11
6.033699
 21
4.7483
 31
0.0000
 6
CONTINUOUS
 0
LINE
 8
WHITE
 10
6.033699
 20
4.7483
 30
0.0000
 11
6.067299
 21
4.751399
 31
0.0000
 6
CONTINUOUS
 0
LINE
 8
WHITE
 10
6.067299
 20
4.751399
 30
0.0000
 11
6.067599
 21
4.7518
 31
0.0000
 6
CONTINUOUS
 0
LINE
 8
WHITE
 10
6.0966
 20
2.7421
 30
0.0000
 11
6.097499
 21
2.704999
 31
0.0000
 6
CONTINUOUS
 0
LINE
 8
WHITE
 10
6.097499
 20
2.704999
 30
0.0000
 11
6.1338
 21
2.707
 31
0.0000
 6
CONTINUOUS
 0
LINE
 8
WHITE
 10
6.1338
 20
2.707
 30
0.0000
 11
6.188199
 21
2.703799
 31
0.0000
 6
CONTINUOUS
 0
LINE
 8
WHITE
 10
6.188199
 20
2.703799
 30
0.0000
 11
6.2424
 21
2.6944
 31
0.0000
 6
CONTINUOUS
 0
LINE
 8
WHITE
 10
6.2424
 20
2.6944
 30
0.0000
 11
6.2965
 21
2.6788
 31
0.0000
 6
CONTINUOUS
 0
LINE
 8
WHITE
 10
6.2965
 20
2.6788
 30
0.0000
 11
6.350399
 21
2.6568
 31
0.0000
 6
CONTINUOUS
 0
LINE
 8
WHITE
 10
6.350399
 20
2.6568
 30
0.0000
 11
6.366499
 21
2.648999
 31
0.0000
 6
CONTINUOUS
 0
ARC
 8
WHITE
 10
6.367099
 20
2.650399
 30
 0
 40
.001523
 50
246.8014
 51
330.2667
 6
CONTINUOUS
 0
LINE
 8
WHITE
 10
6.3685
 20
2.6496
 30
0.0000
 11
6.3747
 21
2.658299
 31
0.0000
 6
CONTINUOUS
 0
LINE
 8
WHITE
 10
6.3747
 20
2.658299
 30
0.0000
 11
6.3713
 21
2.686599
 31
0.0000
 6
CONTINUOUS
 0
LINE
 8
WHITE
 10
6.3713
 20
2.686599
 30
0.0000
 11
6.320099
 21
2.7216
 31
0.0000
 6
CONTINUOUS
 0
LINE
 8
WHITE
 10
6.320099
 20
2.7216
 30
0.0000
 11
6.254
 21
2.7483
 31
0.0000
 6
CONTINUOUS
 0
LINE
 8
WHITE
 10
6.254
 20
2.7483
 30
0.0000
 11
6.174799
 21
2.766999
 31
0.0000
 6
CONTINUOUS
 0
LINE
 8
WHITE
 10
6.174799
 20
2.766999
 30
0.0000
 11
6.1192
 21
2.7725
 31
0.0000
 6
CONTINUOUS
 0
LINE
 8
WHITE
 10
6.1192
 20
2.7725
 30
0.0000
 11
6.061299
 21
2.7701
 31
0.0000
 6
CONTINUOUS
 0
LINE
 8
WHITE
 10
6.061299
 20
2.7701
 30
0.0000
 11
6.002299
 21
2.7599
 31
0.0000
 6
CONTINUOUS
 0
LINE
 8
WHITE
 10
6.002299
 20
2.7599
 30
0.0000
 11
5.943099
 21
2.7421
 31
0.0000
 6
CONTINUOUS
 0
LINE
 8
WHITE
 10
5.943099
 20
2.7421
 30
0.0000
 11
5.8846
 21
2.716599
 31
0.0000
 6
CONTINUOUS
 0
LINE
 8
WHITE
 10
5.8846
 20
2.716599
 30
0.0000
 11
5.828
 21
2.6837
 31
0.0000
 6
CONTINUOUS
 0
LINE
 8
WHITE
 10
5.828
 20
2.6837
 30
0.0000
 11
5.774099
 21
2.6435
 31
0.0000
 6
CONTINUOUS
 0
LINE
 8
WHITE
 10
5.774099
 20
2.6435
 30
0.0000
 11
5.723999
 21
2.5959
 31
0.0000
 6
CONTINUOUS
 0
LINE
 8
WHITE
 10
5.723999
 20
2.5959
 30
0.0000
 11
5.7147
 21
2.5761
 31
0.0000
 6
CONTINUOUS
 0
ARC
 8
WHITE
 10
5.7161
 20
2.5754
 30
 0
 40
.001565
 50
153.435
 51
219.8056
 6
CONTINUOUS
 0
LINE
 8
WHITE
 10
5.7149
 20
2.574399
 30
0.0000
 11
5.722799
 21
2.565
 31
0.0000
 6
CONTINUOUS
 0
LINE
 8
WHITE
 10
5.722799
 20
2.565
 30
0.0000
 11
5.749599
 21
2.565
 31
0.0000
 6
CONTINUOUS
 0
LINE
 8
WHITE
 10
5.749599
 20
2.565
 30
0.0000
 11
5.8048
 21
2.6022
 31
0.0000
 6
CONTINUOUS
 0
LINE
 8
WHITE
 10
5.8048
 20
2.6022
 30
0.0000
 11
5.86
 21
2.633899
 31
0.0000
 6
CONTINUOUS
 0
LINE
 8
WHITE
 10
5.86
 20
2.633899
 30
0.0000
 11
5.914999
 21
2.66
 31
0.0000
 6
CONTINUOUS
 0
LINE
 8
WHITE
 10
5.914999
 20
2.66
 30
0.0000
 11
5.9699
 21
2.6805
 31
0.0000
 6
CONTINUOUS
 0
LINE
 8
WHITE
 10
5.9699
 20
2.6805
 30
0.0000
 11
6.0247
 21
2.695199
 31
0.0000
 6
CONTINUOUS
 0
LINE
 8
WHITE
 10
6.0247
 20
2.695199
 30
0.0000
 11
6.0794
 21
2.704099
 31
0.0000
 6
CONTINUOUS
 0
LINE
 8
WHITE
 10
6.0794
 20
2.704099
 30
0.0000
 11
6.097499
 21
2.704999
 31
0.0000
 6
CONTINUOUS
 0
LINE
 8
WHITE
 10
6.097499
 20
2.704999
 30
0.0000
 11
6.097799
 21
2.7053
 31
0.0000
 6
CONTINUOUS
 0
LINE
 8
WHITE
 10
5.3722
 20
2.535799
 30
0.0000
 11
5.4232
 21
2.505899
 31
0.0000
 6
CONTINUOUS
 0
LINE
 8
WHITE
 10
5.4232
 20
2.505899
 30
0.0000
 11
5.4375
 21
2.5304
 31
0.0000
 6
CONTINUOUS
 0
LINE
 8
WHITE
 10
5.4375
 20
2.5304
 30
0.0000
 11
5.467899
 21
2.5768
 31
0.0000
 6
CONTINUOUS
 0
LINE
 8
WHITE
 10
5.467899
 20
2.5768
 30
0.0000
 11
5.5
 21
2.6205
 31
0.0000
 6
CONTINUOUS
 0
LINE
 8
WHITE
 10
5.5
 20
2.6205
 30
0.0000
 11
5.533699
 21
2.661299
 31
0.0000
 6
CONTINUOUS
 0
LINE
 8
WHITE
 10
5.533699
 20
2.661299
 30
0.0000
 11
5.568999
 21
2.6993
 31
0.0000
 6
CONTINUOUS
 0
LINE
 8
WHITE
 10
5.568999
 20
2.6993
 30
0.0000
 11
5.605899
 21
2.7344
 31
0.0000
 6
CONTINUOUS
 0
LINE
 8
WHITE
 10
5.605899
 20
2.7344
 30
0.0000
 11
5.644199
 21
2.7664
 31
0.0000
 6
CONTINUOUS
 0
LINE
 8
WHITE
 10
5.644199
 20
2.7664
 30
0.0000
 11
5.684
 21
2.7953
 31
0.0000
 6
CONTINUOUS
 0
LINE
 8
WHITE
 10
5.684
 20
2.7953
 30
0.0000
 11
5.7252
 21
2.821199
 31
0.0000
 6
CONTINUOUS
 0
LINE
 8
WHITE
 10
5.7252
 20
2.821199
 30
0.0000
 11
5.7677
 21
2.843699
 31
0.0000
 6
CONTINUOUS
 0
LINE
 8
WHITE
 10
5.7677
 20
2.843699
 30
0.0000
 11
5.8116
 21
2.862999
 31
0.0000
 6
CONTINUOUS
 0
LINE
 8
WHITE
 10
5.8116
 20
2.862999
 30
0.0000
 11
5.856599
 21
2.878999
 31
0.0000
 6
CONTINUOUS
 0
LINE
 8
WHITE
 10
5.856599
 20
2.878999
 30
0.0000
 11
5.9029
 21
2.891499
 31
0.0000
 6
CONTINUOUS
 0
LINE
 8
WHITE
 10
5.9029
 20
2.891499
 30
0.0000
 11
5.950399
 21
2.9005
 31
0.0000
 6
CONTINUOUS
 0
LINE
 8
WHITE
 10
5.950399
 20
2.9005
 30
0.0000
 11
5.999
 21
2.9059
 31
0.0000
 6
CONTINUOUS
 0
LINE
 8
WHITE
 10
5.999
 20
2.9059
 30
0.0000
 11
6.0486
 21
2.907799
 31
0.0000
 6
CONTINUOUS
 0
LINE
 8
WHITE
 10
6.0486
 20
2.907799
 30
0.0000
 11
6.099199
 21
2.9058
 31
0.0000
 6
CONTINUOUS
 0
LINE
 8
WHITE
 10
6.099199
 20
2.9058
 30
0.0000
 11
6.1508
 21
2.900199
 31
0.0000
 6
CONTINUOUS
 0
LINE
 8
WHITE
 10
6.1508
 20
2.900199
 30
0.0000
 11
6.2034
 21
2.890599
 31
0.0000
 6
CONTINUOUS
 0
LINE
 8
WHITE
 10
6.2034
 20
2.890599
 30
0.0000
 11
6.2568
 21
2.877199
 31
0.0000
 6
CONTINUOUS
 0
LINE
 8
WHITE
 10
6.2568
 20
2.877199
 30
0.0000
 11
6.310999
 21
2.859699
 31
0.0000
 6
CONTINUOUS
 0
LINE
 8
WHITE
 10
6.310999
 20
2.859699
 30
0.0000
 11
6.366
 21
2.8382
 31
0.0000
 6
CONTINUOUS
 0
LINE
 8
WHITE
 10
6.366
 20
2.8382
 30
0.0000
 11
6.4217
 21
2.812599
 31
0.0000
 6
CONTINUOUS
 0
LINE
 8
WHITE
 10
6.4217
 20
2.812599
 30
0.0000
 11
6.4576
 21
2.8118
 31
0.0000
 6
CONTINUOUS
 0
LINE
 8
WHITE
 10
6.4576
 20
2.8118
 30
0.0000
 11
6.4713
 21
2.8236
 31
0.0000
 6
CONTINUOUS
 0
ARC
 8
WHITE
 10
6.4703
 20
2.8247
 30
 0
 40
.001486
 50
312.2737
 51
18.43768
 6
CONTINUOUS
 0
LINE
 8
WHITE
 10
6.471799
 20
2.8252
 30
0.0000
 11
6.4653
 21
2.8498
 31
0.0000
 6
CONTINUOUS
 0
LINE
 8
WHITE
 10
6.4653
 20
2.8498
 30
0.0000
 11
6.423299
 21
2.876199
 31
0.0000
 6
CONTINUOUS
 0
LINE
 8
WHITE
 10
6.423299
 20
2.876199
 30
0.0000
 11
6.379
 21
2.8998
 31
0.0000
 6
CONTINUOUS
 0
LINE
 8
WHITE
 10
6.379
 20
2.8998
 30
0.0000
 11
6.3323
 21
2.9207
 31
0.0000
 6
CONTINUOUS
 0
LINE
 8
WHITE
 10
6.3323
 20
2.9207
 30
0.0000
 11
6.283699
 21
2.938999
 31
0.0000
 6
CONTINUOUS
 0
LINE
 8
WHITE
 10
6.283699
 20
2.938999
 30
0.0000
 11
6.2333
 21
2.954799
 31
0.0000
 6
CONTINUOUS
 0
LINE
 8
WHITE
 10
6.2333
 20
2.954799
 30
0.0000
 11
6.181
 21
2.9683
 31
0.0000
 6
CONTINUOUS
 0
LINE
 8
WHITE
 10
6.181
 20
2.9683
 30
0.0000
 11
6.127299
 21
2.9797
 31
0.0000
 6
CONTINUOUS
 0
LINE
 8
WHITE
 10
6.127299
 20
2.9797
 30
0.0000
 11
6.0721
 21
2.988899
 31
0.0000
 6
CONTINUOUS
 0
LINE
 8
WHITE
 10
6.0721
 20
2.988899
 30
0.0000
 11
6.015799
 21
2.9962
 31
0.0000
 6
CONTINUOUS
 0
LINE
 8
WHITE
 10
6.015799
 20
2.9962
 30
0.0000
 11
5.9583
 21
3.0016
 31
0.0000
 6
CONTINUOUS
 0
LINE
 8
WHITE
 10
5.9583
 20
3.0016
 30
0.0000
 11
5.9
 21
3.0053
 31
0.0000
 6
CONTINUOUS
 0
LINE
 8
WHITE
 10
5.9
 20
3.0053
 30
0.0000
 11
5.841
 21
3.007499
 31
0.0000
 6
CONTINUOUS
 0
LINE
 8
WHITE
 10
5.841
 20
3.007499
 30
0.0000
 11
5.7814
 21
3.008199
 31
0.0000
 6
CONTINUOUS
 0
LINE
 8
WHITE
 10
5.7814
 20
3.008199
 30
0.0000
 11
5.7213
 21
3.007499
 31
0.0000
 6
CONTINUOUS
 0
LINE
 8
WHITE
 10
5.7213
 20
3.007499
 30
0.0000
 11
5.661099
 21
3.0057
 31
0.0000
 6
CONTINUOUS
 0
LINE
 8
WHITE
 10
5.661099
 20
3.0057
 30
0.0000
 11
5.600699
 21
3.0027
 31
0.0000
 6
CONTINUOUS
 0
LINE
 8
WHITE
 10
5.600699
 20
3.0027
 30
0.0000
 11
5.5405
 21
2.998699
 31
0.0000
 6
CONTINUOUS
 0
LINE
 8
WHITE
 10
5.5405
 20
2.998699
 30
0.0000
 11
5.4805
 21
2.993999
 31
0.0000
 6
CONTINUOUS
 0
LINE
 8
WHITE
 10
5.4805
 20
2.993999
 30
0.0000
 11
5.420899
 21
2.9885
 31
0.0000
 6
CONTINUOUS
 0
LINE
 8
WHITE
 10
5.420899
 20
2.9885
 30
0.0000
 11
5.3618
 21
2.982399
 31
0.0000
 6
CONTINUOUS
 0
LINE
 8
WHITE
 10
5.3618
 20
2.982399
 30
0.0000
 11
5.3035
 21
2.9758
 31
0.0000
 6
CONTINUOUS
 0
LINE
 8
WHITE
 10
5.3035
 20
2.9758
 30
0.0000
 11
5.246099
 21
2.9688
 31
0.0000
 6
CONTINUOUS
 0
LINE
 8
WHITE
 10
5.246099
 20
2.9688
 30
0.0000
 11
5.189799
 21
2.961699
 31
0.0000
 6
CONTINUOUS
 0
LINE
 8
WHITE
 10
5.189799
 20
2.961699
 30
0.0000
 11
5.134699
 21
2.9544
 31
0.0000
 6
CONTINUOUS
 0
LINE
 8
WHITE
 10
5.134699
 20
2.9544
 30
0.0000
 11
5.080999
 21
2.9472
 31
0.0000
 6
CONTINUOUS
 0
LINE
 8
WHITE
 10
5.080999
 20
2.9472
 30
0.0000
 11
5.0288
 21
2.940099
 31
0.0000
 6
CONTINUOUS
 0
LINE
 8
WHITE
 10
5.0288
 20
2.940099
 30
0.0000
 11
4.9784
 21
2.9333
 31
0.0000
 6
CONTINUOUS
 0
LINE
 8
WHITE
 10
4.9784
 20
2.9333
 30
0.0000
 11
4.9298
 21
2.9268
 31
0.0000
 6
CONTINUOUS
 0
LINE
 8
WHITE
 10
4.9298
 20
2.9268
 30
0.0000
 11
4.8843
 21
2.921
 31
0.0000
 6
CONTINUOUS
 0
ARC
 8
WHITE
 10
4.8844
 20
2.9195
 30
 0
 40
.001503
 50
93.81407
 51
160.3536
 6
CONTINUOUS
 0
LINE
 8
WHITE
 10
4.882999
 20
2.92
 30
0.0000
 11
4.8579
 21
2.855099
 31
0.0000
 6
CONTINUOUS
 0
LINE
 8
WHITE
 10
4.8579
 20
2.855099
 30
0.0000
 11
4.8294
 21
2.791399
 31
0.0000
 6
CONTINUOUS
 0
LINE
 8
WHITE
 10
4.8294
 20
2.791399
 30
0.0000
 11
4.795
 21
2.731499
 31
0.0000
 6
CONTINUOUS
 0
LINE
 8
WHITE
 10
4.795
 20
2.731499
 30
0.0000
 11
4.752299
 21
2.677299
 31
0.0000
 6
CONTINUOUS
 0
LINE
 8
WHITE
 10
4.752299
 20
2.677299
 30
0.0000
 11
4.6984
 21
2.6307
 31
0.0000
 6
CONTINUOUS
 0
LINE
 8
WHITE
 10
4.6984
 20
2.6307
 30
0.0000
 11
4.665999
 21
2.5741
 31
0.0000
 6
CONTINUOUS
 0
LINE
 8
WHITE
 10
4.665999
 20
2.5741
 30
0.0000
 11
4.649899
 21
2.5208
 31
0.0000
 6
CONTINUOUS
 0
LINE
 8
WHITE
 10
4.649899
 20
2.5208
 30
0.0000
 11
4.6487
 21
2.472199
 31
0.0000
 6
CONTINUOUS
 0
LINE
 8
WHITE
 10
4.6487
 20
2.472199
 30
0.0000
 11
4.6609
 21
2.4298
 31
0.0000
 6
CONTINUOUS
 0
LINE
 8
WHITE
 10
4.6609
 20
2.4298
 30
0.0000
 11
4.6851
 21
2.394999
 31
0.0000
 6
CONTINUOUS
 0
LINE
 8
WHITE
 10
4.6851
 20
2.394999
 30
0.0000
 11
4.719799
 21
2.369299
 31
0.0000
 6
CONTINUOUS
 0
LINE
 8
WHITE
 10
4.719799
 20
2.369299
 30
0.0000
 11
4.7635
 21
2.354199
 31
0.0000
 6
CONTINUOUS
 0
LINE
 8
WHITE
 10
4.7635
 20
2.354199
 30
0.0000
 11
4.814799
 21
2.351099
 31
0.0000
 6
CONTINUOUS
 0
LINE
 8
WHITE
 10
4.814799
 20
2.351099
 30
0.0000
 11
4.8722
 21
2.3615
 31
0.0000
 6
CONTINUOUS
 0
LINE
 8
WHITE
 10
4.8722
 20
2.3615
 30
0.0000
 11
5.4088
 21
2.481499
 31
0.0000
 6
CONTINUOUS
 0
LINE
 8
WHITE
 10
5.4088
 20
2.481499
 30
0.0000
 11
5.4232
 21
2.505899
 31
0.0000
 6
CONTINUOUS
 0
LINE
 8
WHITE
 10
5.4232
 20
2.505899
 30
0.0000
 11
5.423099
 21
2.506299
 31
0.0000
 6
CONTINUOUS
 0
LINE
 8
WHITE
 10
6.333399
 20
2.2095
 30
0.0000
 11
6.3923
 21
2.212899
 31
0.0000
 6
CONTINUOUS
 0
LINE
 8
WHITE
 10
6.3923
 20
2.212899
 30
0.0000
 11
6.390699
 21
2.2427
 31
0.0000
 6
CONTINUOUS
 0
LINE
 8
WHITE
 10
6.390699
 20
2.2427
 30
0.0000
 11
6.377799
 21
2.299099
 31
0.0000
 6
CONTINUOUS
 0
LINE
 8
WHITE
 10
6.377799
 20
2.299099
 30
0.0000
 11
6.3562
 21
2.351399
 31
0.0000
 6
CONTINUOUS
 0
LINE
 8
WHITE
 10
6.3562
 20
2.351399
 30
0.0000
 11
6.3269
 21
2.3986
 31
0.0000
 6
CONTINUOUS
 0
LINE
 8
WHITE
 10
6.3269
 20
2.3986
 30
0.0000
 11
6.290699
 21
2.439599
 31
0.0000
 6
CONTINUOUS
 0
LINE
 8
WHITE
 10
6.290699
 20
2.439599
 30
0.0000
 11
6.2484
 21
2.473599
 31
0.0000
 6
CONTINUOUS
 0
LINE
 8
WHITE
 10
6.2484
 20
2.473599
 30
0.0000
 11
6.2009
 21
2.499399
 31
0.0000
 6
CONTINUOUS
 0
LINE
 8
WHITE
 10
6.2009
 20
2.499399
 30
0.0000
 11
6.149099
 21
2.516299
 31
0.0000
 6
CONTINUOUS
 0
LINE
 8
WHITE
 10
6.149099
 20
2.516299
 30
0.0000
 11
6.0938
 21
2.5232
 31
0.0000
 6
CONTINUOUS
 0
LINE
 8
WHITE
 10
6.0938
 20
2.5232
 30
0.0000
 11
6.038099
 21
2.519299
 31
0.0000
 6
CONTINUOUS
 0
LINE
 8
WHITE
 10
6.038099
 20
2.519299
 30
0.0000
 11
5.985499
 21
2.5053
 31
0.0000
 6
CONTINUOUS
 0
LINE
 8
WHITE
 10
5.985499
 20
2.5053
 30
0.0000
 11
5.936699
 21
2.482
 31
0.0000
 6
CONTINUOUS
 0
LINE
 8
WHITE
 10
5.936699
 20
2.482
 30
0.0000
 11
5.8926
 21
2.450299
 31
0.0000
 6
CONTINUOUS
 0
LINE
 8
WHITE
 10
5.8926
 20
2.450299
 30
0.0000
 11
5.854199
 21
2.411299
 31
0.0000
 6
CONTINUOUS
 0
LINE
 8
WHITE
 10
5.854199
 20
2.411299
 30
0.0000
 11
5.8224
 21
2.365799
 31
0.0000
 6
CONTINUOUS
 0
LINE
 8
WHITE
 10
5.8224
 20
2.365799
 30
0.0000
 11
5.798099
 21
2.314699
 31
0.0000
 6
CONTINUOUS
 0
LINE
 8
WHITE
 10
5.798099
 20
2.314699
 30
0.0000
 11
5.782199
 21
2.259099
 31
0.0000
 6
CONTINUOUS
 0
LINE
 8
WHITE
 10
5.782199
 20
2.259099
 30
0.0000
 11
5.775599
 21
2.1997
 31
0.0000
 6
CONTINUOUS
 0
LINE
 8
WHITE
 10
5.775599
 20
2.1997
 30
0.0000
 11
5.778999
 21
2.14
 31
0.0000
 6
CONTINUOUS
 0
LINE
 8
WHITE
 10
5.778999
 20
2.14
 30
0.0000
 11
5.7919
 21
2.0836
 31
0.0000
 6
CONTINUOUS
 0
LINE
 8
WHITE
 10
5.7919
 20
2.0836
 30
0.0000
 11
5.813399
 21
2.0313
 31
0.0000
 6
CONTINUOUS
 0
LINE
 8
WHITE
 10
5.813399
 20
2.0313
 30
0.0000
 11
5.8427
 21
1.984099
 31
0.0000
 6
CONTINUOUS
 0
LINE
 8
WHITE
 10
5.8427
 20
1.984099
 30
0.0000
 11
5.879
 21
1.943099
 31
0.0000
 6
CONTINUOUS
 0
LINE
 8
WHITE
 10
5.879
 20
1.943099
 30
0.0000
 11
5.921199
 21
1.9091
 31
0.0000
 6
CONTINUOUS
 0
LINE
 8
WHITE
 10
5.921199
 20
1.9091
 30
0.0000
 11
5.9688
 21
1.883299
 31
0.0000
 6
CONTINUOUS
 0
LINE
 8
WHITE
 10
5.9688
 20
1.883299
 30
0.0000
 11
6.020599
 21
1.8664
 31
0.0000
 6
CONTINUOUS
 0
LINE
 8
WHITE
 10
6.020599
 20
1.8664
 30
0.0000
 11
6.0759
 21
1.8595
 31
0.0000
 6
CONTINUOUS
 0
LINE
 8
WHITE
 10
6.0759
 20
1.8595
 30
0.0000
 11
6.131499
 21
1.863399
 31
0.0000
 6
CONTINUOUS
 0
LINE
 8
WHITE
 10
6.131499
 20
1.863399
 30
0.0000
 11
6.184199
 21
1.8774
 31
0.0000
 6
CONTINUOUS
 0
LINE
 8
WHITE
 10
6.184199
 20
1.8774
 30
0.0000
 11
6.232999
 21
1.900699
 31
0.0000
 6
CONTINUOUS
 0
LINE
 8
WHITE
 10
6.232999
 20
1.900699
 30
0.0000
 11
6.276999
 21
1.932399
 31
0.0000
 6
CONTINUOUS
 0
LINE
 8
WHITE
 10
6.276999
 20
1.932399
 30
0.0000
 11
6.3154
 21
1.9714
 31
0.0000
 6
CONTINUOUS
 0
LINE
 8
WHITE
 10
6.3154
 20
1.9714
 30
0.0000
 11
6.347199
 21
2.0169
 31
0.0000
 6
CONTINUOUS
 0
LINE
 8
WHITE
 10
6.347199
 20
2.0169
 30
0.0000
 11
6.3716
 21
2.068
 31
0.0000
 6
CONTINUOUS
 0
LINE
 8
WHITE
 10
6.3716
 20
2.068
 30
0.0000
 11
6.387499
 21
2.123699
 31
0.0000
 6
CONTINUOUS
 0
LINE
 8
WHITE
 10
6.387499
 20
2.123699
 30
0.0000
 11
6.394
 21
2.183
 31
0.0000
 6
CONTINUOUS
 0
LINE
 8
WHITE
 10
6.394
 20
2.183
 30
0.0000
 11
6.3923
 21
2.212899
 31
0.0000
 6
CONTINUOUS
 0
LINE
 8
WHITE
 10
6.3923
 20
2.212899
 30
0.0000
 11
6.392099
 21
2.213099
 31
0.0000
 6
CONTINUOUS
 0
LINE
 8
WHITE
 10
5.444799
 20
1.937899
 30
0.0000
 11
5.467
 21
1.966099
 31
0.0000
 6
CONTINUOUS
 0
LINE
 8
WHITE
 10
5.467
 20
1.966099
 30
0.0000
 11
5.4263
 21
1.9922
 31
0.0000
 6
CONTINUOUS
 0
LINE
 8
WHITE
 10
5.4263
 20
1.9922
 30
0.0000
 11
5.369599
 21
2.0548
 31
0.0000
 6
CONTINUOUS
 0
LINE
 8
WHITE
 10
5.369599
 20
2.0548
 30
0.0000
 11
5.355599
 21
2.065999
 31
0.0000
 6
CONTINUOUS
 0
LINE
 8
WHITE
 10
5.355599
 20
2.065999
 30
0.0000
 11
5.3414
 21
2.062799
 31
0.0000
 6
CONTINUOUS
 0
LINE
 8
WHITE
 10
5.3414
 20
2.062799
 30
0.0000
 11
5.327
 21
2.0452
 31
0.0000
 6
CONTINUOUS
 0
LINE
 8
WHITE
 10
5.327
 20
2.0452
 30
0.0000
 11
5.3326
 21
1.996399
 31
0.0000
 6
CONTINUOUS
 0
LINE
 8
WHITE
 10
5.3326
 20
1.996399
 30
0.0000
 11
5.3776
 21
1.945199
 31
0.0000
 6
CONTINUOUS
 0
LINE
 8
WHITE
 10
5.3776
 20
1.945199
 30
0.0000
 11
5.429299
 21
1.909399
 31
0.0000
 6
CONTINUOUS
 0
LINE
 8
WHITE
 10
5.429299
 20
1.909399
 30
0.0000
 11
5.487699
 21
1.889299
 31
0.0000
 6
CONTINUOUS
 0
LINE
 8
WHITE
 10
5.487699
 20
1.889299
 30
0.0000
 11
5.5527
 21
1.884699
 31
0.0000
 6
CONTINUOUS
 0
LINE
 8
WHITE
 10
5.5527
 20
1.884699
 30
0.0000
 11
5.6244
 21
1.895599
 31
0.0000
 6
CONTINUOUS
 0
LINE
 8
WHITE
 10
5.6244
 20
1.895599
 30
0.0000
 11
5.639599
 21
1.912899
 31
0.0000
 6
CONTINUOUS
 0
LINE
 8
WHITE
 10
5.639599
 20
1.912899
 30
0.0000
 11
5.6366
 21
1.925699
 31
0.0000
 6
CONTINUOUS
 0
LINE
 8
WHITE
 10
5.6366
 20
1.925699
 30
0.0000
 11
5.622799
 21
1.935999
 31
0.0000
 6
CONTINUOUS
 0
LINE
 8
WHITE
 10
5.622799
 20
1.935999
 30
0.0000
 11
5.553299
 21
1.9347
 31
0.0000
 6
CONTINUOUS
 0
LINE
 8
WHITE
 10
5.553299
 20
1.9347
 30
0.0000
 11
5.487699
 21
1.9528
 31
0.0000
 6
CONTINUOUS
 0
LINE
 8
WHITE
 10
5.487699
 20
1.9528
 30
0.0000
 11
5.467
 21
1.966099
 31
0.0000
 6
CONTINUOUS
 0
LINE
 8
WHITE
 10
5.467
 20
1.966099
 30
0.0000
 11
5.466599
 21
1.965899
 31
0.0000
 6
CONTINUOUS
 0
LINE
 8
WHITE
 10
6.9159
 20
.832499
 30
0.0000
 11
6.974899
 21
.830999
 31
0.0000
 6
CONTINUOUS
 0
LINE
 8
WHITE
 10
6.974899
 20
.830999
 30
0.0000
 11
6.9755
 21
.851999
 31
0.0000
 6
CONTINUOUS
 0
LINE
 8
WHITE
 10
6.9755
 20
.851999
 30
0.0000
 11
6.9805
 21
.9174
 31
0.0000
 6
CONTINUOUS
 0
LINE
 8
WHITE
 10
6.9805
 20
.9174
 30
0.0000
 11
6.991199
 21
.984099
 31
0.0000
 6
CONTINUOUS
 0
LINE
 8
WHITE
 10
6.991199
 20
.984099
 30
0.0000
 11
6.971899
 21
.952
 31
0.0000
 6
CONTINUOUS
 0
LINE
 8
WHITE
 10
6.971899
 20
.952
 30
0.0000
 11
6.946199
 21
.9398
 31
0.0000
 6
CONTINUOUS
 0
LINE
 8
WHITE
 10
6.946199
 20
.9398
 30
0.0000
 11
6.914899
 21
.953599
 31
0.0000
 6
CONTINUOUS
 0
ARC
 8
WHITE
 10
6.914299
 20
.952199
 30
 0
 40
.001523
 50
66.80141
 51
158.2009
 6
CONTINUOUS
 0
LINE
 8
WHITE
 10
6.912799
 20
.952799
 30
0.0000
 11
6.8969
 21
.9143
 31
0.0000
 6
CONTINUOUS
 0
LINE
 8
WHITE
 10
6.8969
 20
.9143
 30
0.0000
 11
6.8585
 21
.901
 31
0.0000
 6
CONTINUOUS
 0
LINE
 8
WHITE
 10
6.8585
 20
.901
 30
0.0000
 11
6.798799
 21
.914499
 31
0.0000
 6
CONTINUOUS
 0
LINE
 8
WHITE
 10
6.798799
 20
.914499
 30
0.0000
 11
6.839
 21
.8833
 31
0.0000
 6
CONTINUOUS
 0
LINE
 8
WHITE
 10
6.839
 20
.8833
 30
0.0000
 11
6.8656
 21
.847
 31
0.0000
 6
CONTINUOUS
 0
LINE
 8
WHITE
 10
6.8656
 20
.847
 30
0.0000
 11
6.879
 21
.808899
 31
0.0000
 6
CONTINUOUS
 0
LINE
 8
WHITE
 10
6.879
 20
.808899
 30
0.0000
 11
6.9154
 21
.775099
 31
0.0000
 6
CONTINUOUS
 0
LINE
 8
WHITE
 10
6.9154
 20
.775099
 30
0.0000
 11
6.944499
 21
.7027
 31
0.0000
 6
CONTINUOUS
 0
LINE
 8
WHITE
 10
6.944499
 20
.7027
 30
0.0000
 11
6.9814
 21
.6237
 31
0.0000
 6
CONTINUOUS
 0
LINE
 8
WHITE
 10
6.9814
 20
.6237
 30
0.0000
 11
6.9744
 21
.6743
 31
0.0000
 6
CONTINUOUS
 0
LINE
 8
WHITE
 10
6.9744
 20
.6743
 30
0.0000
 11
6.971799
 21
.7293
 31
0.0000
 6
CONTINUOUS
 0
LINE
 8
WHITE
 10
6.971799
 20
.7293
 30
0.0000
 11
6.9738
 21
.787899
 31
0.0000
 6
CONTINUOUS
 0
LINE
 8
WHITE
 10
6.9738
 20
.787899
 30
0.0000
 11
6.974899
 21
.830999
 31
0.0000
 6
CONTINUOUS
 0
LINE
 8
WHITE
 10
6.974899
 20
.830999
 30
0.0000
 11
6.974599
 21
.8313
 31
0.0000
 6
CONTINUOUS
 0
LINE
 8
WHITE
 10
5.3618
 20
.3215
 30
0.0000
 11
5.3618
 21
.2624
 31
0.0000
 6
CONTINUOUS
 0
LINE
 8
WHITE
 10
5.3618
 20
.2624
 30
0.0000
 11
7.015299
 21
.2624
 31
0.0000
 6
CONTINUOUS
 0
ARC
 8
WHITE
 10
7.015299
 20
.2639
 30
 0
 40
.0015
 50
270
 51
11.30862
 6
CONTINUOUS
 0
LINE
 8
WHITE
 10
7.016799
 20
.2642
 30
0.0000
 11
7.009699
 21
.334399
 31
0.0000
 6
CONTINUOUS
 0
LINE
 8
WHITE
 10
7.009699
 20
.334399
 30
0.0000
 11
6.9977
 21
.391999
 31
0.0000
 6
CONTINUOUS
 0
LINE
 8
WHITE
 10
6.9977
 20
.391999
 30
0.0000
 11
6.9814
 21
.448199
 31
0.0000
 6
CONTINUOUS
 0
LINE
 8
WHITE
 10
6.9814
 20
.448199
 30
0.0000
 11
6.9607
 21
.503099
 31
0.0000
 6
CONTINUOUS
 0
LINE
 8
WHITE
 10
6.9607
 20
.503099
 30
0.0000
 11
6.9358
 21
.5568
 31
0.0000
 6
CONTINUOUS
 0
LINE
 8
WHITE
 10
6.9358
 20
.5568
 30
0.0000
 11
6.9071
 21
.6093
 31
0.0000
 6
CONTINUOUS
 0
LINE
 8
WHITE
 10
6.9071
 20
.6093
 30
0.0000
 11
6.874599
 21
.660499
 31
0.0000
 6
CONTINUOUS
 0
LINE
 8
WHITE
 10
6.874599
 20
.660499
 30
0.0000
 11
6.838399
 21
.710799
 31
0.0000
 6
CONTINUOUS
 0
LINE
 8
WHITE
 10
6.838399
 20
.710799
 30
0.0000
 11
6.7989
 21
.759999
 31
0.0000
 6
CONTINUOUS
 0
LINE
 8
WHITE
 10
6.7989
 20
.759999
 30
0.0000
 11
6.7561
 21
.8082
 31
0.0000
 6
CONTINUOUS
 0
LINE
 8
WHITE
 10
6.7561
 20
.8082
 30
0.0000
 11
6.710299
 21
.855499
 31
0.0000
 6
CONTINUOUS
 0
LINE
 8
WHITE
 10
6.710299
 20
.855499
 30
0.0000
 11
6.6616
 21
.901799
 31
0.0000
 6
CONTINUOUS
 0
LINE
 8
WHITE
 10
6.6616
 20
.901799
 30
0.0000
 11
6.5925
 21
.925499
 31
0.0000
 6
CONTINUOUS
 0
LINE
 8
WHITE
 10
6.5925
 20
.925499
 30
0.0000
 11
6.5258
 21
.9218
 31
0.0000
 6
CONTINUOUS
 0
LINE
 8
WHITE
 10
6.5258
 20
.9218
 30
0.0000
 11
6.464399
 21
.8934
 31
0.0000
 6
CONTINUOUS
 0
LINE
 8
WHITE
 10
6.464399
 20
.8934
 30
0.0000
 11
6.4116
 21
.843299
 31
0.0000
 6
CONTINUOUS
 0
LINE
 8
WHITE
 10
6.4116
 20
.843299
 30
0.0000
 11
6.3646
 21
.8424
 31
0.0000
 6
CONTINUOUS
 0
LINE
 8
WHITE
 10
6.3646
 20
.8424
 30
0.0000
 11
6.3252
 21
.8661
 31
0.0000
 6
CONTINUOUS
 0
LINE
 8
WHITE
 10
6.3252
 20
.8661
 30
0.0000
 11
6.3116
 21
.9167
 31
0.0000
 6
CONTINUOUS
 0
LINE
 8
WHITE
 10
6.3116
 20
.9167
 30
0.0000
 11
6.3417
 21
.995199
 31
0.0000
 6
CONTINUOUS
 0
ARC
 8
WHITE
 10
6.3404
 20
.995799
 30
 0
 40
.001431
 50
335.2249
 51
47.73002
 6
CONTINUOUS
 0
LINE
 8
WHITE
 10
6.3414
 20
.9969
 30
0.0000
 11
6.291399
 21
1.0482
 31
0.0000
 6
CONTINUOUS
 0
LINE
 8
WHITE
 10
6.291399
 20
1.0482
 30
0.0000
 11
6.2918
 21
1.113499
 31
0.0000
 6
CONTINUOUS
 0
LINE
 8
WHITE
 10
6.2918
 20
1.113499
 30
0.0000
 11
6.343299
 21
1.191799
 31
0.0000
 6
CONTINUOUS
 0
LINE
 8
WHITE
 10
6.343299
 20
1.191799
 30
0.0000
 11
6.333799
 21
1.233199
 31
0.0000
 6
CONTINUOUS
 0
LINE
 8
WHITE
 10
6.333799
 20
1.233199
 30
0.0000
 11
6.329899
 21
1.2774
 31
0.0000
 6
CONTINUOUS
 0
LINE
 8
WHITE
 10
6.329899
 20
1.2774
 30
0.0000
 11
6.3315
 21
1.3235
 31
0.0000
 6
CONTINUOUS
 0
ARC
 8
WHITE
 10
6.329999
 20
1.3238
 30
 0
 40
.001529
 50
348.6901
 51
105.9493
 6
CONTINUOUS
 0
LINE
 8
WHITE
 10
6.329599
 20
1.325199
 30
0.0000
 11
1.072999
 21
.2624
 31
0.0000
 6
CONTINUOUS
 0
LINE
 8
WHITE
 10
1.072999
 20
.2624
 30
0.0000
 11
5.3618
 21
.2624
 31
0.0000
 6
CONTINUOUS
 0
LINE
 8
WHITE
 10
5.3618
 20
.2624
 30
0.0000
 11
5.361999
 21
.262699
 31
0.0000
 6
CONTINUOUS
 0
LINE
 8
WHITE
 10
4.3951
 20
1.720399
 30
0.0000
 11
4.382199
 21
1.7781
 31
0.0000
 6
CONTINUOUS
 0
LINE
 8
WHITE
 10
4.382199
 20
1.7781
 30
0.0000
 11
4.355299
 21
1.771999
 31
0.0000
 6
CONTINUOUS
 0
LINE
 8
WHITE
 10
4.355299
 20
1.771999
 30
0.0000
 11
4.286399
 21
1.774299
 31
0.0000
 6
CONTINUOUS
 0
LINE
 8
WHITE
 10
4.286399
 20
1.774299
 30
0.0000
 11
4.2286
 21
1.73
 31
0.0000
 6
CONTINUOUS
 0
LINE
 8
WHITE
 10
4.2286
 20
1.73
 30
0.0000
 11
4.163199
 21
1.6992
 31
0.0000
 6
CONTINUOUS
 0
LINE
 8
WHITE
 10
4.163199
 20
1.6992
 30
0.0000
 11
4.091
 21
1.680799
 31
0.0000
 6
CONTINUOUS
 0
LINE
 8
WHITE
 10
4.091
 20
1.680799
 30
0.0000
 11
4.013199
 21
1.673799
 31
0.0000
 6
CONTINUOUS
 0
LINE
 8
WHITE
 10
4.013199
 20
1.673799
 30
0.0000
 11
4.0453
 21
1.649299
 31
0.0000
 6
CONTINUOUS
 0
LINE
 8
WHITE
 10
4.0453
 20
1.649299
 30
0.0000
 11
4.0836
 21
1.629199
 31
0.0000
 6
CONTINUOUS
 0
LINE
 8
WHITE
 10
4.0836
 20
1.629199
 30
0.0000
 11
4.1272
 21
1.614099
 31
0.0000
 6
CONTINUOUS
 0
LINE
 8
WHITE
 10
4.1272
 20
1.614099
 30
0.0000
 11
4.176099
 21
1.6044
 31
0.0000
 6
CONTINUOUS
 0
LINE
 8
WHITE
 10
4.176099
 20
1.6044
 30
0.0000
 11
4.229599
 21
1.600499
 31
0.0000
 6
CONTINUOUS
 0
LINE
 8
WHITE
 10
4.229599
 20
1.600499
 30
0.0000
 11
4.2877
 21
1.602699
 31
0.0000
 6
CONTINUOUS
 0
LINE
 8
WHITE
 10
4.2877
 20
1.602699
 30
0.0000
 11
4.349999
 21
1.611299
 31
0.0000
 6
CONTINUOUS
 0
LINE
 8
WHITE
 10
4.349999
 20
1.611299
 30
0.0000
 11
4.4161
 21
1.626799
 31
0.0000
 6
CONTINUOUS
 0
LINE
 8
WHITE
 10
4.4161
 20
1.626799
 30
0.0000
 11
4.4857
 21
1.649399
 31
0.0000
 6
CONTINUOUS
 0
LINE
 8
WHITE
 10
4.4857
 20
1.649399
 30
0.0000
 11
4.558499
 21
1.6797
 31
0.0000
 6
CONTINUOUS
 0
LINE
 8
WHITE
 10
4.558499
 20
1.6797
 30
0.0000
 11
4.5738
 21
1.7043
 31
0.0000
 6
CONTINUOUS
 0
LINE
 8
WHITE
 10
4.5738
 20
1.7043
 30
0.0000
 11
4.5766
 21
1.7293
 31
0.0000
 6
CONTINUOUS
 0
LINE
 8
WHITE
 10
4.5766
 20
1.7293
 30
0.0000
 11
4.566599
 21
1.7546
 31
0.0000
 6
CONTINUOUS
 0
LINE
 8
WHITE
 10
4.566599
 20
1.7546
 30
0.0000
 11
4.503099
 21
1.8154
 31
0.0000
 6
CONTINUOUS
 0
LINE
 8
WHITE
 10
4.503099
 20
1.8154
 30
0.0000
 11
4.4972
 21
1.822199
 31
0.0000
 6
CONTINUOUS
 0
LINE
 8
WHITE
 10
4.4972
 20
1.822199
 30
0.0000
 11
4.485899
 21
1.823899
 31
0.0000
 6
CONTINUOUS
 0
LINE
 8
WHITE
 10
4.485899
 20
1.823899
 30
0.0000
 11
4.4688
 21
1.820299
 31
0.0000
 6
CONTINUOUS
 0
LINE
 8
WHITE
 10
4.4688
 20
1.820299
 30
0.0000
 11
4.4169
 21
1.785899
 31
0.0000
 6
CONTINUOUS
 0
LINE
 8
WHITE
 10
4.4169
 20
1.785899
 30
0.0000
 11
4.382199
 21
1.7781
 31
0.0000
 6
CONTINUOUS
 0
LINE
 8
WHITE
 10
4.382199
 20
1.7781
 30
0.0000
 11
4.381899
 21
1.777699
 31
0.0000
 6
CONTINUOUS
 0
LINE
 8
WHITE
 10
4.949699
 20
2.1547
 30
0.0000
 11
4.963099
 21
2.097199
 31
0.0000
 6
CONTINUOUS
 0
LINE
 8
WHITE
 10
4.963099
 20
2.097199
 30
0.0000
 11
5.070099
 21
2.1221
 31
0.0000
 6
CONTINUOUS
 0
LINE
 8
WHITE
 10
5.070099
 20
2.1221
 30
0.0000
 11
5.252699
 21
2.164599
 31
0.0000
 6
CONTINUOUS
 0
LINE
 8
WHITE
 10
5.252699
 20
2.164599
 30
0.0000
 11
5.311999
 21
2.178299
 31
0.0000
 6
CONTINUOUS
 0
ARC
 8
WHITE
 10
5.311699
 20
2.179799
 30
 0
 40
.001529
 50
281.3099
 51
.009106
 6
CONTINUOUS
 0
LINE
 8
WHITE
 10
5.313199
 20
2.1798
 30
0.0000
 11
5.318399
 21
2.2571
 31
0.0000
 6
CONTINUOUS
 0
LINE
 8
WHITE
 10
5.318399
 20
2.2571
 30
0.0000
 11
5.337999
 21
2.3299
 31
0.0000
 6
CONTINUOUS
 0
LINE
 8
WHITE
 10
5.337999
 20
2.3299
 30
0.0000
 11
5.371799
 21
2.3966
 31
0.0000
 6
CONTINUOUS
 0
LINE
 8
WHITE
 10
5.371799
 20
2.3966
 30
0.0000
 11
4.7965
 21
2.269599
 31
0.0000
 6
CONTINUOUS
 0
LINE
 8
WHITE
 10
4.7965
 20
2.269599
 30
0.0000
 11
4.735599
 21
2.268699
 31
0.0000
 6
CONTINUOUS
 0
LINE
 8
WHITE
 10
4.735599
 20
2.268699
 30
0.0000
 11
4.676899
 21
2.2859
 31
0.0000
 6
CONTINUOUS
 0
LINE
 8
WHITE
 10
4.676899
 20
2.2859
 30
0.0000
 11
4.6206
 21
2.321199
 31
0.0000
 6
CONTINUOUS
 0
LINE
 8
WHITE
 10
4.6206
 20
2.321199
 30
0.0000
 11
4.5906
 21
2.349299
 31
0.0000
 6
CONTINUOUS
 0
LINE
 8
WHITE
 10
4.5906
 20
2.349299
 30
0.0000
 11
4.565899
 21
2.3833
 31
0.0000
 6
CONTINUOUS
 0
LINE
 8
WHITE
 10
4.565899
 20
2.3833
 30
0.0000
 11
4.5457
 21
2.422899
 31
0.0000
 6
CONTINUOUS
 0
LINE
 8
WHITE
 10
4.5457
 20
2.422899
 30
0.0000
 11
4.5416
 21
2.439199
 31
0.0000
 6
CONTINUOUS
 0
LINE
 8
WHITE
 10
4.5416
 20
2.439199
 30
0.0000
 11
4.5404
 21
2.455899
 31
0.0000
 6
CONTINUOUS
 0
LINE
 8
WHITE
 10
4.5404
 20
2.455899
 30
0.0000
 11
4.539999
 21
2.4683
 31
0.0000
 6
CONTINUOUS
 0
LINE
 8
WHITE
 10
4.539999
 20
2.4683
 30
0.0000
 11
4.5345
 21
2.453599
 31
0.0000
 6
CONTINUOUS
 0
LINE
 8
WHITE
 10
4.5345
 20
2.453599
 30
0.0000
 11
4.5356
 21
2.4307
 31
0.0000
 6
CONTINUOUS
 0
LINE
 8
WHITE
 10
4.5356
 20
2.4307
 30
0.0000
 11
4.544099
 21
2.4005
 31
0.0000
 6
CONTINUOUS
 0
LINE
 8
WHITE
 10
4.544099
 20
2.4005
 30
0.0000
 11
4.560999
 21
2.336699
 31
0.0000
 6
CONTINUOUS
 0
LINE
 8
WHITE
 10
4.560999
 20
2.336699
 30
0.0000
 11
4.5678
 21
2.269399
 31
0.0000
 6
CONTINUOUS
 0
LINE
 8
WHITE
 10
4.5678
 20
2.269399
 30
0.0000
 11
4.565899
 21
2.2
 31
0.0000
 6
CONTINUOUS
 0
LINE
 8
WHITE
 10
4.565899
 20
2.2
 30
0.0000
 11
4.5566
 21
2.129899
 31
0.0000
 6
CONTINUOUS
 0
LINE
 8
WHITE
 10
4.5566
 20
2.129899
 30
0.0000
 11
4.541299
 21
2.0608
 31
0.0000
 6
CONTINUOUS
 0
LINE
 8
WHITE
 10
4.541299
 20
2.0608
 30
0.0000
 11
4.522099
 21
1.996299
 31
0.0000
 6
CONTINUOUS
 0
ARC
 8
WHITE
 10
4.5232
 20
1.995999
 30
 0
 40
.00114
 50
164.7449
 51
284.0336
 6
CONTINUOUS
 0
LINE
 8
WHITE
 10
4.523499
 20
1.994799
 30
0.0000
 11
4.642399
 21
2.0225
 31
0.0000
 6
CONTINUOUS
 0
LINE
 8
WHITE
 10
4.642399
 20
2.0225
 30
0.0000
 11
4.963099
 21
2.097199
 31
0.0000
 6
CONTINUOUS
 0
LINE
 8
WHITE
 10
4.963099
 20
2.097199
 30
0.0000
 11
4.9633
 21
2.0975
 31
0.0000
 6
CONTINUOUS
 0
LINE
 8
WHITE
 10
4.011799
 20
2.661799
 30
0.0000
 11
4.013
 21
2.7209
 31
0.0000
 6
CONTINUOUS
 0
LINE
 8
WHITE
 10
4.013
 20
2.7209
 30
0.0000
 11
3.931799
 21
2.722599
 31
0.0000
 6
CONTINUOUS
 0
LINE
 8
WHITE
 10
3.931799
 20
2.722599
 30
0.0000
 11
3.917399
 21
2.7125
 31
0.0000
 6
CONTINUOUS
 0
ARC
 8
WHITE
 10
3.918099
 20
2.711199
 30
 0
 40
.001476
 50
118.3008
 51
195.948
 6
CONTINUOUS
 0
LINE
 8
WHITE
 10
3.916699
 20
2.710799
 30
0.0000
 11
3.935199
 21
2.642499
 31
0.0000
 6
CONTINUOUS
 0
LINE
 8
WHITE
 10
3.935199
 20
2.642499
 30
0.0000
 11
3.930399
 21
2.598999
 31
0.0000
 6
CONTINUOUS
 0
LINE
 8
WHITE
 10
3.930399
 20
2.598999
 30
0.0000
 11
3.9084
 21
2.568799
 31
0.0000
 6
CONTINUOUS
 0
LINE
 8
WHITE
 10
3.9084
 20
2.568799
 30
0.0000
 11
3.880899
 21
2.5543
 31
0.0000
 6
CONTINUOUS
 0
LINE
 8
WHITE
 10
3.880899
 20
2.5543
 30
0.0000
 11
3.8536
 21
2.549
 31
0.0000
 6
CONTINUOUS
 0
LINE
 8
WHITE
 10
3.8536
 20
2.549
 30
0.0000
 11
3.8266
 21
2.552599
 31
0.0000
 6
CONTINUOUS
 0
LINE
 8
WHITE
 10
3.8266
 20
2.552599
 30
0.0000
 11
3.7857
 21
2.567399
 31
0.0000
 6
CONTINUOUS
 0
LINE
 8
WHITE
 10
3.7857
 20
2.567399
 30
0.0000
 11
3.746099
 21
2.590699
 31
0.0000
 6
CONTINUOUS
 0
LINE
 8
WHITE
 10
3.746099
 20
2.590699
 30
0.0000
 11
3.7074
 21
2.619899
 31
0.0000
 6
CONTINUOUS
 0
LINE
 8
WHITE
 10
3.7074
 20
2.619899
 30
0.0000
 11
3.695199
 21
2.6226
 31
0.0000
 6
CONTINUOUS
 0
LINE
 8
WHITE
 10
3.695199
 20
2.6226
 30
0.0000
 11
3.6837
 21
2.622499
 31
0.0000
 6
CONTINUOUS
 0
LINE
 8
WHITE
 10
3.6837
 20
2.622499
 30
0.0000
 11
3.673
 21
2.6198
 31
0.0000
 6
CONTINUOUS
 0
LINE
 8
WHITE
 10
3.673
 20
2.6198
 30
0.0000
 11
3.660599
 21
2.608999
 31
0.0000
 6
CONTINUOUS
 0
LINE
 8
WHITE
 10
3.660599
 20
2.608999
 30
0.0000
 11
3.651
 21
2.600199
 31
0.0000
 6
CONTINUOUS
 0
LINE
 8
WHITE
 10
3.651
 20
2.600199
 30
0.0000
 11
3.650399
 21
2.589499
 31
0.0000
 6
CONTINUOUS
 0
LINE
 8
WHITE
 10
3.650399
 20
2.589499
 30
0.0000
 11
3.658699
 21
2.576699
 31
0.0000
 6
CONTINUOUS
 0
LINE
 8
WHITE
 10
3.658699
 20
2.576699
 30
0.0000
 11
3.734999
 21
2.5294
 31
0.0000
 6
CONTINUOUS
 0
LINE
 8
WHITE
 10
3.734999
 20
2.5294
 30
0.0000
 11
3.8127
 21
2.493599
 31
0.0000
 6
CONTINUOUS
 0
LINE
 8
WHITE
 10
3.8127
 20
2.493599
 30
0.0000
 11
3.8914
 21
2.4679
 31
0.0000
 6
CONTINUOUS
 0
LINE
 8
WHITE
 10
3.8914
 20
2.4679
 30
0.0000
 11
3.9546
 21
2.4572
 31
0.0000
 6
CONTINUOUS
 0
LINE
 8
WHITE
 10
3.9546
 20
2.4572
 30
0.0000
 11
4.017899
 21
2.4488
 31
0.0000
 6
CONTINUOUS
 0
LINE
 8
WHITE
 10
4.017899
 20
2.4488
 30
0.0000
 11
4.081299
 21
2.4435
 31
0.0000
 6
CONTINUOUS
 0
LINE
 8
WHITE
 10
4.081299
 20
2.4435
 30
0.0000
 11
4.1447
 21
2.441699
 31
0.0000
 6
CONTINUOUS
 0
LINE
 8
WHITE
 10
4.1447
 20
2.441699
 30
0.0000
 11
4.2083
 21
2.4442
 31
0.0000
 6
CONTINUOUS
 0
LINE
 8
WHITE
 10
4.2083
 20
2.4442
 30
0.0000
 11
4.271999
 21
2.451499
 31
0.0000
 6
CONTINUOUS
 0
LINE
 8
WHITE
 10
4.271999
 20
2.451499
 30
0.0000
 11
4.3055
 21
2.4577
 31
0.0000
 6
CONTINUOUS
 0
LINE
 8
WHITE
 10
4.3055
 20
2.4577
 30
0.0000
 11
4.336599
 21
2.467099
 31
0.0000
 6
CONTINUOUS
 0
LINE
 8
WHITE
 10
4.336599
 20
2.467099
 30
0.0000
 11
4.3631
 21
2.482599
 31
0.0000
 6
CONTINUOUS
 0
LINE
 8
WHITE
 10
4.3631
 20
2.482599
 30
0.0000
 11
4.3705
 21
2.4906
 31
0.0000
 6
CONTINUOUS
 0
ARC
 8
WHITE
 10
4.3694
 20
2.4916
 30
 0
 40
.001486
 50
317.7263
 51
23.19388
 6
CONTINUOUS
 0
LINE
 8
WHITE
 10
4.3708
 20
2.492199
 30
0.0000
 11
4.368299
 21
2.499399
 31
0.0000
 6
CONTINUOUS
 0
LINE
 8
WHITE
 10
4.368299
 20
2.499399
 30
0.0000
 11
4.3548
 21
2.5069
 31
0.0000
 6
CONTINUOUS
 0
LINE
 8
WHITE
 10
4.3548
 20
2.5069
 30
0.0000
 11
4.3038
 21
2.491499
 31
0.0000
 6
CONTINUOUS
 0
LINE
 8
WHITE
 10
4.3038
 20
2.491499
 30
0.0000
 11
4.2479
 21
2.4839
 31
0.0000
 6
CONTINUOUS
 0
LINE
 8
WHITE
 10
4.2479
 20
2.4839
 30
0.0000
 11
4.186399
 21
2.484999
 31
0.0000
 6
CONTINUOUS
 0
LINE
 8
WHITE
 10
4.186399
 20
2.484999
 30
0.0000
 11
4.1665
 21
2.502899
 31
0.0000
 6
CONTINUOUS
 0
LINE
 8
WHITE
 10
4.1665
 20
2.502899
 30
0.0000
 11
4.099899
 21
2.7079
 31
0.0000
 6
CONTINUOUS
 0
LINE
 8
WHITE
 10
4.099899
 20
2.7079
 30
0.0000
 11
4.083099
 21
2.7195
 31
0.0000
 6
CONTINUOUS
 0
LINE
 8
WHITE
 10
4.083099
 20
2.7195
 30
0.0000
 11
4.013
 21
2.7209
 31
0.0000
 6
CONTINUOUS
 0
LINE
 8
WHITE
 10
4.013
 20
2.7209
 30
0.0000
 11
4.0127
 21
2.720599
 31
0.0000
 6
CONTINUOUS
 0
LINE
 8
WHITE
 10
3.840699
 20
2.641599
 30
0.0000
 11
3.8294
 21
2.6735
 31
0.0000
 6
CONTINUOUS
 0
LINE
 8
WHITE
 10
3.8294
 20
2.6735
 30
0.0000
 11
3.794199
 21
2.667299
 31
0.0000
 6
CONTINUOUS
 0
LINE
 8
WHITE
 10
3.794199
 20
2.667299
 30
0.0000
 11
3.7852
 21
2.6626
 31
0.0000
 6
CONTINUOUS
 0
LINE
 8
WHITE
 10
3.7852
 20
2.6626
 30
0.0000
 11
3.7834
 21
2.6561
 31
0.0000
 6
CONTINUOUS
 0
LINE
 8
WHITE
 10
3.7834
 20
2.6561
 30
0.0000
 11
3.788599
 21
2.647399
 31
0.0000
 6
CONTINUOUS
 0
LINE
 8
WHITE
 10
3.788599
 20
2.647399
 30
0.0000
 11
3.845499
 21
2.609299
 31
0.0000
 6
CONTINUOUS
 0
LINE
 8
WHITE
 10
3.845499
 20
2.609299
 30
0.0000
 11
3.860699
 21
2.608299
 31
0.0000
 6
CONTINUOUS
 0
LINE
 8
WHITE
 10
3.860699
 20
2.608299
 30
0.0000
 11
3.8729
 21
2.6143
 31
0.0000
 6
CONTINUOUS
 0
LINE
 8
WHITE
 10
3.8729
 20
2.6143
 30
0.0000
 11
3.8814
 21
2.6296
 31
0.0000
 6
CONTINUOUS
 0
LINE
 8
WHITE
 10
3.8814
 20
2.6296
 30
0.0000
 11
3.882499
 21
2.6391
 31
0.0000
 6
CONTINUOUS
 0
LINE
 8
WHITE
 10
3.882499
 20
2.6391
 30
0.0000
 11
3.8828
 21
2.6496
 31
0.0000
 6
CONTINUOUS
 0
LINE
 8
WHITE
 10
3.8828
 20
2.6496
 30
0.0000
 11
3.8822
 21
2.661
 31
0.0000
 6
CONTINUOUS
 0
LINE
 8
WHITE
 10
3.8822
 20
2.661
 30
0.0000
 11
3.88
 21
2.6707
 31
0.0000
 6
CONTINUOUS
 0
LINE
 8
WHITE
 10
3.88
 20
2.6707
 30
0.0000
 11
3.874099
 21
2.676899
 31
0.0000
 6
CONTINUOUS
 0
LINE
 8
WHITE
 10
3.874099
 20
2.676899
 30
0.0000
 11
3.864599
 21
2.6796
 31
0.0000
 6
CONTINUOUS
 0
LINE
 8
WHITE
 10
3.864599
 20
2.6796
 30
0.0000
 11
3.8294
 21
2.6735
 31
0.0000
 6
CONTINUOUS
 0
LINE
 8
WHITE
 10
3.8294
 20
2.6735
 30
0.0000
 11
3.8292
 21
2.673099
 31
0.0000
 6
CONTINUOUS
 0
LINE
 8
WHITE
 10
3.761399
 20
2.759
 30
0.0000
 11
3.7121
 21
2.717499
 31
0.0000
 6
CONTINUOUS
 0
LINE
 8
WHITE
 10
3.7121
 20
2.717499
 30
0.0000
 11
3.7272
 21
2.7081
 31
0.0000
 6
CONTINUOUS
 0
LINE
 8
WHITE
 10
3.7272
 20
2.7081
 30
0.0000
 11
3.7337
 21
2.704699
 31
0.0000
 6
CONTINUOUS
 0
LINE
 8
WHITE
 10
3.7337
 20
2.704699
 30
0.0000
 11
3.740299
 21
2.704799
 31
0.0000
 6
CONTINUOUS
 0
LINE
 8
WHITE
 10
3.740299
 20
2.704799
 30
0.0000
 11
3.746999
 21
2.7076
 31
0.0000
 6
CONTINUOUS
 0
LINE
 8
WHITE
 10
3.746999
 20
2.7076
 30
0.0000
 11
3.822
 21
2.7392
 31
0.0000
 6
CONTINUOUS
 0
LINE
 8
WHITE
 10
3.822
 20
2.7392
 30
0.0000
 11
3.827899
 21
2.743
 31
0.0000
 6
CONTINUOUS
 0
ARC
 8
WHITE
 10
3.8271
 20
2.7443
 30
 0
 40
.001526
 50
301.6075
 51
3.810447
 6
CONTINUOUS
 0
LINE
 8
WHITE
 10
3.828599
 20
2.7444
 30
0.0000
 11
3.8282
 21
2.7502
 31
0.0000
 6
CONTINUOUS
 0
LINE
 8
WHITE
 10
3.8282
 20
2.7502
 30
0.0000
 11
3.820499
 21
2.759399
 31
0.0000
 6
CONTINUOUS
 0
LINE
 8
WHITE
 10
3.820499
 20
2.759399
 30
0.0000
 11
3.7994
 21
2.777199
 31
0.0000
 6
CONTINUOUS
 0
LINE
 8
WHITE
 10
3.7994
 20
2.777199
 30
0.0000
 11
3.7767
 21
2.7915
 31
0.0000
 6
CONTINUOUS
 0
LINE
 8
WHITE
 10
3.7767
 20
2.7915
 30
0.0000
 11
3.7527
 21
2.802999
 31
0.0000
 6
CONTINUOUS
 0
LINE
 8
WHITE
 10
3.7527
 20
2.802999
 30
0.0000
 11
3.743099
 21
2.806799
 31
0.0000
 6
CONTINUOUS
 0
LINE
 8
WHITE
 10
3.743099
 20
2.806799
 30
0.0000
 11
3.734699
 21
2.805
 31
0.0000
 6
CONTINUOUS
 0
LINE
 8
WHITE
 10
3.734699
 20
2.805
 30
0.0000
 11
3.7276
 21
2.796099
 31
0.0000
 6
CONTINUOUS
 0
LINE
 8
WHITE
 10
3.7276
 20
2.796099
 30
0.0000
 11
3.718199
 21
2.776599
 31
0.0000
 6
CONTINUOUS
 0
LINE
 8
WHITE
 10
3.718199
 20
2.776599
 30
0.0000
 11
3.707499
 21
2.757999
 31
0.0000
 6
CONTINUOUS
 0
LINE
 8
WHITE
 10
3.707499
 20
2.757999
 30
0.0000
 11
3.695399
 21
2.7404
 31
0.0000
 6
CONTINUOUS
 0
LINE
 8
WHITE
 10
3.695399
 20
2.7404
 30
0.0000
 11
3.692199
 21
2.7355
 31
0.0000
 6
CONTINUOUS
 0
LINE
 8
WHITE
 10
3.692199
 20
2.7355
 30
0.0000
 11
3.6921
 21
2.730999
 31
0.0000
 6
CONTINUOUS
 0
LINE
 8
WHITE
 10
3.6921
 20
2.730999
 30
0.0000
 11
3.697
 21
2.726799
 31
0.0000
 6
CONTINUOUS
 0
LINE
 8
WHITE
 10
3.697
 20
2.726799
 30
0.0000
 11
3.7121
 21
2.717499
 31
0.0000
 6
CONTINUOUS
 0
LINE
 8
WHITE
 10
3.7121
 20
2.717499
 30
0.0000
 11
3.7125
 21
2.7176
 31
0.0000
 6
CONTINUOUS
 0
LINE
 8
WHITE
 10
3.6514
 20
2.816499
 30
0.0000
 11
3.6749
 21
2.797899
 31
0.0000
 6
CONTINUOUS
 0
LINE
 8
WHITE
 10
3.6749
 20
2.797899
 30
0.0000
 11
3.677099
 21
2.800699
 31
0.0000
 6
CONTINUOUS
 0
LINE
 8
WHITE
 10
3.677099
 20
2.800699
 30
0.0000
 11
3.6819
 21
2.807199
 31
0.0000
 6
CONTINUOUS
 0
LINE
 8
WHITE
 10
3.6819
 20
2.807199
 30
0.0000
 11
3.686899
 21
2.816099
 31
0.0000
 6
CONTINUOUS
 0
LINE
 8
WHITE
 10
3.686899
 20
2.816099
 30
0.0000
 11
3.686399
 21
2.823299
 31
0.0000
 6
CONTINUOUS
 0
LINE
 8
WHITE
 10
3.686399
 20
2.823299
 30
0.0000
 11
3.6805
 21
2.8289
 31
0.0000
 6
CONTINUOUS
 0
LINE
 8
WHITE
 10
3.6805
 20
2.8289
 30
0.0000
 11
3.6679
 21
2.8361
 31
0.0000
 6
CONTINUOUS
 0
LINE
 8
WHITE
 10
3.6679
 20
2.8361
 30
0.0000
 11
3.6538
 21
2.841799
 31
0.0000
 6
CONTINUOUS
 0
LINE
 8
WHITE
 10
3.6538
 20
2.841799
 30
0.0000
 11
3.6384
 21
2.846299
 31
0.0000
 6
CONTINUOUS
 0
LINE
 8
WHITE
 10
3.6384
 20
2.846299
 30
0.0000
 11
3.622999
 21
2.844799
 31
0.0000
 6
CONTINUOUS
 0
LINE
 8
WHITE
 10
3.622999
 20
2.844799
 30
0.0000
 11
3.616899
 21
2.838
 31
0.0000
 6
CONTINUOUS
 0
LINE
 8
WHITE
 10
3.616899
 20
2.838
 30
0.0000
 11
3.620199
 21
2.8262
 31
0.0000
 6
CONTINUOUS
 0
LINE
 8
WHITE
 10
3.620199
 20
2.8262
 30
0.0000
 11
3.628799
 21
2.8115
 31
0.0000
 6
CONTINUOUS
 0
LINE
 8
WHITE
 10
3.628799
 20
2.8115
 30
0.0000
 11
3.638099
 21
2.7983
 31
0.0000
 6
CONTINUOUS
 0
LINE
 8
WHITE
 10
3.638099
 20
2.7983
 30
0.0000
 11
3.648499
 21
2.786299
 31
0.0000
 6
CONTINUOUS
 0
LINE
 8
WHITE
 10
3.648499
 20
2.786299
 30
0.0000
 11
3.654
 21
2.781399
 31
0.0000
 6
CONTINUOUS
 0
LINE
 8
WHITE
 10
3.654
 20
2.781399
 30
0.0000
 11
3.6605
 21
2.7811
 31
0.0000
 6
CONTINUOUS
 0
LINE
 8
WHITE
 10
3.6605
 20
2.7811
 30
0.0000
 11
3.6672
 21
2.7878
 31
0.0000
 6
CONTINUOUS
 0
LINE
 8
WHITE
 10
3.6672
 20
2.7878
 30
0.0000
 11
3.6723
 21
2.794699
 31
0.0000
 6
CONTINUOUS
 0
LINE
 8
WHITE
 10
3.6723
 20
2.794699
 30
0.0000
 11
3.6749
 21
2.797899
 31
0.0000
 6
CONTINUOUS
 0
LINE
 8
WHITE
 10
3.6749
 20
2.797899
 30
0.0000
 11
3.674799
 21
2.7983
 31
0.0000
 6
CONTINUOUS
 0
LINE
 8
WHITE
 10
3.5143
 20
2.878599
 30
0.0000
 11
3.571099
 21
2.894799
 31
0.0000
 6
CONTINUOUS
 0
LINE
 8
WHITE
 10
3.571099
 20
2.894799
 30
0.0000
 11
3.5957
 21
2.9019
 31
0.0000
 6
CONTINUOUS
 0
LINE
 8
WHITE
 10
3.5957
 20
2.9019
 30
0.0000
 11
3.632499
 21
2.904
 31
0.0000
 6
CONTINUOUS
 0
LINE
 8
WHITE
 10
3.632499
 20
2.904
 30
0.0000
 11
3.7042
 21
2.8879
 31
0.0000
 6
CONTINUOUS
 0
LINE
 8
WHITE
 10
3.7042
 20
2.8879
 30
0.0000
 11
3.7713
 21
2.8636
 31
0.0000
 6
CONTINUOUS
 0
LINE
 8
WHITE
 10
3.7713
 20
2.8636
 30
0.0000
 11
3.839799
 21
2.8324
 31
0.0000
 6
CONTINUOUS
 0
LINE
 8
WHITE
 10
3.839799
 20
2.8324
 30
0.0000
 11
3.8591
 21
2.8405
 31
0.0000
 6
CONTINUOUS
 0
LINE
 8
WHITE
 10
3.8591
 20
2.8405
 30
0.0000
 11
3.877599
 21
2.8487
 31
0.0000
 6
CONTINUOUS
 0
LINE
 8
WHITE
 10
3.877599
 20
2.8487
 30
0.0000
 11
3.8959
 21
2.852999
 31
0.0000
 6
CONTINUOUS
 0
LINE
 8
WHITE
 10
3.8959
 20
2.852999
 30
0.0000
 11
3.9142
 21
2.8543
 31
0.0000
 6
CONTINUOUS
 0
LINE
 8
WHITE
 10
3.9142
 20
2.8543
 30
0.0000
 11
3.9902
 21
2.861799
 31
0.0000
 6
CONTINUOUS
 0
LINE
 8
WHITE
 10
3.9902
 20
2.861799
 30
0.0000
 11
4.0102
 21
2.8622
 31
0.0000
 6
CONTINUOUS
 0
LINE
 8
WHITE
 10
4.0102
 20
2.8622
 30
0.0000
 11
4.027299
 21
2.8668
 31
0.0000
 6
CONTINUOUS
 0
LINE
 8
WHITE
 10
4.027299
 20
2.8668
 30
0.0000
 11
4.046199
 21
2.8766
 31
0.0000
 6
CONTINUOUS
 0
LINE
 8
WHITE
 10
4.046199
 20
2.8766
 30
0.0000
 11
4.057499
 21
2.8787
 31
0.0000
 6
CONTINUOUS
 0
LINE
 8
WHITE
 10
4.057499
 20
2.8787
 30
0.0000
 11
4.068699
 21
2.878999
 31
0.0000
 6
CONTINUOUS
 0
LINE
 8
WHITE
 10
4.068699
 20
2.878999
 30
0.0000
 11
4.0787
 21
2.877799
 31
0.0000
 6
CONTINUOUS
 0
ARC
 8
WHITE
 10
4.078999
 20
2.879299
 30
 0
 40
.001529
 50
258.6901
 51
331.6967
 6
CONTINUOUS
 0
LINE
 8
WHITE
 10
4.080299
 20
2.878599
 30
0.0000
 11
4.0882
 21
2.894
 31
0.0000
 6
CONTINUOUS
 0
LINE
 8
WHITE
 10
4.0882
 20
2.894
 30
0.0000
 11
4.097199
 21
2.9091
 31
0.0000
 6
CONTINUOUS
 0
LINE
 8
WHITE
 10
4.097199
 20
2.9091
 30
0.0000
 11
4.1078
 21
2.9228
 31
0.0000
 6
CONTINUOUS
 0
LINE
 8
WHITE
 10
4.1078
 20
2.9228
 30
0.0000
 11
4.114999
 21
3.0106
 31
0.0000
 6
CONTINUOUS
 0
LINE
 8
WHITE
 10
4.114999
 20
3.0106
 30
0.0000
 11
4.1357
 21
3.0887
 31
0.0000
 6
CONTINUOUS
 0
LINE
 8
WHITE
 10
4.1357
 20
3.0887
 30
0.0000
 11
4.164599
 21
3.155999
 31
0.0000
 6
CONTINUOUS
 0
LINE
 8
WHITE
 10
4.164599
 20
3.155999
 30
0.0000
 11
4.1971
 21
3.2184
 31
0.0000
 6
CONTINUOUS
 0
LINE
 8
WHITE
 10
4.1971
 20
3.2184
 30
0.0000
 11
4.2283
 21
3.2804
 31
0.0000
 6
CONTINUOUS
 0
ARC
 8
WHITE
 10
4.2269
 20
3.2811
 30
 0
 40
.001565
 50
333.4349
 51
39.81005
 6
CONTINUOUS
 0
LINE
 8
WHITE
 10
4.228099
 20
3.282099
 30
0.0000
 11
4.2114
 21
3.3027
 31
0.0000
 6
CONTINUOUS
 0
LINE
 8
WHITE
 10
4.2114
 20
3.3027
 30
0.0000
 11
4.1921
 21
3.3117
 31
0.0000
 6
CONTINUOUS
 0
LINE
 8
WHITE
 10
4.1921
 20
3.3117
 30
0.0000
 11
4.1637
 21
3.317399
 31
0.0000
 6
CONTINUOUS
 0
LINE
 8
WHITE
 10
4.1637
 20
3.317399
 30
0.0000
 11
4.147299
 21
3.319799
 31
0.0000
 6
CONTINUOUS
 0
LINE
 8
WHITE
 10
4.147299
 20
3.319799
 30
0.0000
 11
4.1357
 21
3.326499
 31
0.0000
 6
CONTINUOUS
 0
LINE
 8
WHITE
 10
4.1357
 20
3.326499
 30
0.0000
 11
4.126699
 21
3.3415
 31
0.0000
 6
CONTINUOUS
 0
LINE
 8
WHITE
 10
4.126699
 20
3.3415
 30
0.0000
 11
4.128499
 21
3.355999
 31
0.0000
 6
CONTINUOUS
 0
LINE
 8
WHITE
 10
4.128499
 20
3.355999
 30
0.0000
 11
4.1297
 21
3.377099
 31
0.0000
 6
CONTINUOUS
 0
LINE
 8
WHITE
 10
4.1297
 20
3.377099
 30
0.0000
 11
4.118199
 21
3.390199
 31
0.0000
 6
CONTINUOUS
 0
LINE
 8
WHITE
 10
4.118199
 20
3.390199
 30
0.0000
 11
4.1089
 21
3.3979
 31
0.0000
 6
CONTINUOUS
 0
ARC
 8
WHITE
 10
4.109899
 20
3.3991
 30
 0
 40
.001562
 50
168.6936
 51
230.1944
 6
CONTINUOUS
 0
LINE
 8
WHITE
 10
4.108399
 20
3.399399
 30
0.0000
 11
4.110599
 21
3.4107
 31
0.0000
 6
CONTINUOUS
 0
LINE
 8
WHITE
 10
4.110599
 20
3.4107
 30
0.0000
 11
4.111299
 21
3.419899
 31
0.0000
 6
CONTINUOUS
 0
LINE
 8
WHITE
 10
4.111299
 20
3.419899
 30
0.0000
 11
4.102
 21
3.4284
 31
0.0000
 6
CONTINUOUS
 0
LINE
 8
WHITE
 10
4.102
 20
3.4284
 30
0.0000
 11
4.0952
 21
3.436399
 31
0.0000
 6
CONTINUOUS
 0
LINE
 8
WHITE
 10
4.0952
 20
3.436399
 30
0.0000
 11
4.0966
 21
3.4481
 31
0.0000
 6
CONTINUOUS
 0
LINE
 8
WHITE
 10
4.0966
 20
3.4481
 30
0.0000
 11
4.0967
 21
3.456099
 31
0.0000
 6
CONTINUOUS
 0
LINE
 8
WHITE
 10
4.0967
 20
3.456099
 30
0.0000
 11
4.092599
 21
3.464299
 31
0.0000
 6
CONTINUOUS
 0
LINE
 8
WHITE
 10
4.092599
 20
3.464299
 30
0.0000
 11
4.089
 21
3.472599
 31
0.0000
 6
CONTINUOUS
 0
LINE
 8
WHITE
 10
4.089
 20
3.472599
 30
0.0000
 11
4.0815
 21
3.474499
 31
0.0000
 6
CONTINUOUS
 0
LINE
 8
WHITE
 10
4.0815
 20
3.474499
 30
0.0000
 11
4.072899
 21
3.476
 31
0.0000
 6
CONTINUOUS
 0
LINE
 8
WHITE
 10
4.072899
 20
3.476
 30
0.0000
 11
4.065299
 21
3.477999
 31
0.0000
 6
CONTINUOUS
 0
LINE
 8
WHITE
 10
4.065299
 20
3.477999
 30
0.0000
 11
4.056799
 21
3.486599
 31
0.0000
 6
CONTINUOUS
 0
LINE
 8
WHITE
 10
4.056799
 20
3.486599
 30
0.0000
 11
4.057
 21
3.4972
 31
0.0000
 6
CONTINUOUS
 0
LINE
 8
WHITE
 10
4.057
 20
3.4972
 30
0.0000
 11
4.060299
 21
3.5118
 31
0.0000
 6
CONTINUOUS
 0
LINE
 8
WHITE
 10
4.060299
 20
3.5118
 30
0.0000
 11
4.0675
 21
3.527899
 31
0.0000
 6
CONTINUOUS
 0
LINE
 8
WHITE
 10
4.0675
 20
3.527899
 30
0.0000
 11
4.0776
 21
3.547699
 31
0.0000
 6
CONTINUOUS
 0
LINE
 8
WHITE
 10
4.0776
 20
3.547699
 30
0.0000
 11
4.078599
 21
3.558
 31
0.0000
 6
CONTINUOUS
 0
LINE
 8
WHITE
 10
4.078599
 20
3.558
 30
0.0000
 11
4.076099
 21
3.5617
 31
0.0000
 6
CONTINUOUS
 0
LINE
 8
WHITE
 10
4.076099
 20
3.5617
 30
0.0000
 11
4.066199
 21
3.5645
 31
0.0000
 6
CONTINUOUS
 0
LINE
 8
WHITE
 10
4.066199
 20
3.5645
 30
0.0000
 11
4.0468
 21
3.570199
 31
0.0000
 6
CONTINUOUS
 0
LINE
 8
WHITE
 10
4.0468
 20
3.570199
 30
0.0000
 11
4.027699
 21
3.5764
 31
0.0000
 6
CONTINUOUS
 0
LINE
 8
WHITE
 10
4.027699
 20
3.5764
 30
0.0000
 11
4.0086
 21
3.5829
 31
0.0000
 6
CONTINUOUS
 0
LINE
 8
WHITE
 10
4.0086
 20
3.5829
 30
0.0000
 11
3.986599
 21
3.5989
 31
0.0000
 6
CONTINUOUS
 0
LINE
 8
WHITE
 10
3.986599
 20
3.5989
 30
0.0000
 11
3.971999
 21
3.615499
 31
0.0000
 6
CONTINUOUS
 0
LINE
 8
WHITE
 10
3.971999
 20
3.615499
 30
0.0000
 11
3.9611
 21
3.6398
 31
0.0000
 6
CONTINUOUS
 0
LINE
 8
WHITE
 10
3.9611
 20
3.6398
 30
0.0000
 11
3.9637
 21
3.65
 31
0.0000
 6
CONTINUOUS
 0
LINE
 8
WHITE
 10
3.9637
 20
3.65
 30
0.0000
 11
3.9674
 21
3.6542
 31
0.0000
 6
CONTINUOUS
 0
LINE
 8
WHITE
 10
3.9674
 20
3.6542
 30
0.0000
 11
3.977099
 21
3.6577
 31
0.0000
 6
CONTINUOUS
 0
LINE
 8
WHITE
 10
3.977099
 20
3.6577
 30
0.0000
 11
3.999799
 21
3.6577
 31
0.0000
 6
CONTINUOUS
 0
LINE
 8
WHITE
 10
3.999799
 20
3.6577
 30
0.0000
 11
4.020699
 21
3.6559
 31
0.0000
 6
CONTINUOUS
 0
LINE
 8
WHITE
 10
4.020699
 20
3.6559
 30
0.0000
 11
4.0432
 21
3.652199
 31
0.0000
 6
CONTINUOUS
 0
LINE
 8
WHITE
 10
4.0432
 20
3.652199
 30
0.0000
 11
4.0611
 21
3.651299
 31
0.0000
 6
CONTINUOUS
 0
LINE
 8
WHITE
 10
4.0611
 20
3.651299
 30
0.0000
 11
4.070799
 21
3.657999
 31
0.0000
 6
CONTINUOUS
 0
LINE
 8
WHITE
 10
4.070799
 20
3.657999
 30
0.0000
 11
4.080999
 21
3.674
 31
0.0000
 6
CONTINUOUS
 0
LINE
 8
WHITE
 10
4.080999
 20
3.674
 30
0.0000
 11
4.1076
 21
3.716799
 31
0.0000
 6
CONTINUOUS
 0
LINE
 8
WHITE
 10
4.1076
 20
3.716799
 30
0.0000
 11
4.138899
 21
3.7479
 31
0.0000
 6
CONTINUOUS
 0
LINE
 8
WHITE
 10
4.138899
 20
3.7479
 30
0.0000
 11
4.180699
 21
3.7739
 31
0.0000
 6
CONTINUOUS
 0
LINE
 8
WHITE
 10
4.180699
 20
3.7739
 30
0.0000
 11
4.2237
 21
3.782399
 31
0.0000
 6
CONTINUOUS
 0
LINE
 8
WHITE
 10
4.2237
 20
3.782399
 30
0.0000
 11
4.2638
 21
3.780299
 31
0.0000
 6
CONTINUOUS
 0
LINE
 8
WHITE
 10
4.2638
 20
3.780299
 30
0.0000
 11
4.305399
 21
3.769599
 31
0.0000
 6
CONTINUOUS
 0
LINE
 8
WHITE
 10
4.305399
 20
3.769599
 30
0.0000
 11
4.3431
 21
3.7407
 31
0.0000
 6
CONTINUOUS
 0
LINE
 8
WHITE
 10
4.3431
 20
3.7407
 30
0.0000
 11
4.373
 21
3.713099
 31
0.0000
 6
CONTINUOUS
 0
LINE
 8
WHITE
 10
4.373
 20
3.713099
 30
0.0000
 11
4.383699
 21
3.704799
 31
0.0000
 6
CONTINUOUS
 0
LINE
 8
WHITE
 10
4.383699
 20
3.704799
 30
0.0000
 11
4.3887
 21
3.697
 31
0.0000
 6
CONTINUOUS
 0
LINE
 8
WHITE
 10
4.3887
 20
3.697
 30
0.0000
 11
4.391499
 21
3.6839
 31
0.0000
 6
CONTINUOUS
 0
LINE
 8
WHITE
 10
4.391499
 20
3.6839
 30
0.0000
 11
4.398499
 21
3.6717
 31
0.0000
 6
CONTINUOUS
 0
LINE
 8
WHITE
 10
4.398499
 20
3.6717
 30
0.0000
 11
4.4022
 21
3.660399
 31
0.0000
 6
CONTINUOUS
 0
LINE
 8
WHITE
 10
4.4022
 20
3.660399
 30
0.0000
 11
4.4038
 21
3.6366
 31
0.0000
 6
CONTINUOUS
 0
LINE
 8
WHITE
 10
4.4038
 20
3.6366
 30
0.0000
 11
4.403999
 21
3.625099
 31
0.0000
 6
CONTINUOUS
 0
LINE
 8
WHITE
 10
4.403999
 20
3.625099
 30
0.0000
 11
4.4031
 21
3.6147
 31
0.0000
 6
CONTINUOUS
 0
ARC
 8
WHITE
 10
4.4046
 20
3.6146
 30
 0
 40
.001503
 50
176.1859
 51
243.4388
 6
CONTINUOUS
 0
LINE
 8
WHITE
 10
4.4039
 20
3.613199
 30
0.0000
 11
4.420899
 21
3.603699
 31
0.0000
 6
CONTINUOUS
 0
LINE
 8
WHITE
 10
4.420899
 20
3.603699
 30
0.0000
 11
4.4375
 21
3.589999
 31
0.0000
 6
CONTINUOUS
 0
LINE
 8
WHITE
 10
4.4375
 20
3.589999
 30
0.0000
 11
4.4475
 21
3.5755
 31
0.0000
 6
CONTINUOUS
 0
LINE
 8
WHITE
 10
4.4475
 20
3.5755
 30
0.0000
 11
4.453299
 21
3.555799
 31
0.0000
 6
CONTINUOUS
 0
LINE
 8
WHITE
 10
4.453299
 20
3.555799
 30
0.0000
 11
4.4622
 21
3.5288
 31
0.0000
 6
CONTINUOUS
 0
LINE
 8
WHITE
 10
4.4622
 20
3.5288
 30
0.0000
 11
4.4727
 21
3.5148
 31
0.0000
 6
CONTINUOUS
 0
LINE
 8
WHITE
 10
4.4727
 20
3.5148
 30
0.0000
 11
4.4738
 21
3.506
 31
0.0000
 6
CONTINUOUS
 0
LINE
 8
WHITE
 10
4.4738
 20
3.506
 30
0.0000
 11
4.4622
 21
3.494199
 31
0.0000
 6
CONTINUOUS
 0
LINE
 8
WHITE
 10
4.4622
 20
3.494199
 30
0.0000
 11
4.4608
 21
3.487499
 31
0.0000
 6
CONTINUOUS
 0
LINE
 8
WHITE
 10
4.4608
 20
3.487499
 30
0.0000
 11
4.462399
 21
3.483999
 31
0.0000
 6
CONTINUOUS
 0
LINE
 8
WHITE
 10
4.462399
 20
3.483999
 30
0.0000
 11
4.4675
 21
3.478899
 31
0.0000
 6
CONTINUOUS
 0
LINE
 8
WHITE
 10
4.4675
 20
3.478899
 30
0.0000
 11
4.4835
 21
3.4728
 31
0.0000
 6
CONTINUOUS
 0
LINE
 8
WHITE
 10
4.4835
 20
3.4728
 30
0.0000
 11
4.548799
 21
3.473599
 31
0.0000
 6
CONTINUOUS
 0
LINE
 8
WHITE
 10
4.548799
 20
3.473599
 30
0.0000
 11
4.6107
 21
3.4811
 31
0.0000
 6
CONTINUOUS
 0
LINE
 8
WHITE
 10
4.6107
 20
3.4811
 30
0.0000
 11
4.669799
 21
3.494299
 31
0.0000
 6
CONTINUOUS
 0
LINE
 8
WHITE
 10
4.669799
 20
3.494299
 30
0.0000
 11
4.726799
 21
3.5125
 31
0.0000
 6
CONTINUOUS
 0
LINE
 8
WHITE
 10
4.726799
 20
3.5125
 30
0.0000
 11
4.782299
 21
3.534699
 31
0.0000
 6
CONTINUOUS
 0
LINE
 8
WHITE
 10
4.782299
 20
3.534699
 30
0.0000
 11
4.8369
 21
3.5601
 31
0.0000
 6
CONTINUOUS
 0
LINE
 8
WHITE
 10
4.8369
 20
3.5601
 30
0.0000
 11
4.8913
 21
3.587899
 31
0.0000
 6
CONTINUOUS
 0
LINE
 8
WHITE
 10
4.8913
 20
3.587899
 30
0.0000
 11
4.946
 21
3.6173
 31
0.0000
 6
CONTINUOUS
 0
LINE
 8
WHITE
 10
4.946
 20
3.6173
 30
0.0000
 11
5.0138
 21
3.653899
 31
0.0000
 6
CONTINUOUS
 0
LINE
 8
WHITE
 10
5.0138
 20
3.653899
 30
0.0000
 11
5.080699
 21
3.685499
 31
0.0000
 6
CONTINUOUS
 0
LINE
 8
WHITE
 10
5.080699
 20
3.685499
 30
0.0000
 11
5.1486
 21
3.712899
 31
0.0000
 6
CONTINUOUS
 0
LINE
 8
WHITE
 10
5.1486
 20
3.712899
 30
0.0000
 11
5.219799
 21
3.737299
 31
0.0000
 6
CONTINUOUS
 0
LINE
 8
WHITE
 10
5.219799
 20
3.737299
 30
0.0000
 11
5.302
 21
3.7637
 31
0.0000
 6
CONTINUOUS
 0
LINE
 8
WHITE
 10
5.302
 20
3.7637
 30
0.0000
 11
5.3824
 21
3.781599
 31
0.0000
 6
CONTINUOUS
 0
LINE
 8
WHITE
 10
5.3824
 20
3.781599
 30
0.0000
 11
5.4668
 21
3.7871
 31
0.0000
 6
CONTINUOUS
 0
LINE
 8
WHITE
 10
5.4668
 20
3.7871
 30
0.0000
 11
5.516099
 21
3.7859
 31
0.0000
 6
CONTINUOUS
 0
LINE
 8
WHITE
 10
5.516099
 20
3.7859
 30
0.0000
 11
5.5626
 21
3.781899
 31
0.0000
 6
CONTINUOUS
 0
LINE
 8
WHITE
 10
5.5626
 20
3.781899
 30
0.0000
 11
5.6114
 21
3.7746
 31
0.0000
 6
CONTINUOUS
 0
LINE
 8
WHITE
 10
5.6114
 20
3.7746
 30
0.0000
 11
5.689899
 21
3.769599
 31
0.0000
 6
CONTINUOUS
 0
LINE
 8
WHITE
 10
5.689899
 20
3.769599
 30
0.0000
 11
5.874599
 21
3.7532
 31
0.0000
 6
CONTINUOUS
 0
LINE
 8
WHITE
 10
5.874599
 20
3.7532
 30
0.0000
 11
5.954899
 21
3.756999
 31
0.0000
 6
CONTINUOUS
 0
LINE
 8
WHITE
 10
5.954899
 20
3.756999
 30
0.0000
 11
6.0232
 21
3.767899
 31
0.0000
 6
CONTINUOUS
 0
LINE
 8
WHITE
 10
6.0232
 20
3.767899
 30
0.0000
 11
6.086999
 21
3.790499
 31
0.0000
 6
CONTINUOUS
 0
LINE
 8
WHITE
 10
6.086999
 20
3.790499
 30
0.0000
 11
6.1525
 21
3.828099
 31
0.0000
 6
CONTINUOUS
 0
ARC
 8
WHITE
 10
6.153
 20
3.8271
 30
 0
 40
.001118
 50
4.759872
 51
116.565
 6
CONTINUOUS
 0
LINE
 8
WHITE
 10
6.1542
 20
3.827199
 30
0.0000
 11
6.158599
 21
3.7713
 31
0.0000
 6
CONTINUOUS
 0
LINE
 8
WHITE
 10
6.158599
 20
3.7713
 30
0.0000
 11
6.1803
 21
3.724299
 31
0.0000
 6
CONTINUOUS
 0
LINE
 8
WHITE
 10
6.1803
 20
3.724299
 30
0.0000
 11
6.2182
 21
3.6918
 31
0.0000
 6
CONTINUOUS
 0
LINE
 8
WHITE
 10
6.2182
 20
3.6918
 30
0.0000
 11
6.271399
 21
3.677799
 31
0.0000
 6
CONTINUOUS
 0
LINE
 8
WHITE
 10
6.271399
 20
3.677799
 30
0.0000
 11
6.3396
 21
3.686199
 31
0.0000
 6
CONTINUOUS
 0
LINE
 8
WHITE
 10
6.3396
 20
3.686199
 30
0.0000
 11
6.2869
 21
3.638999
 31
0.0000
 6
CONTINUOUS
 0
LINE
 8
WHITE
 10
6.2869
 20
3.638999
 30
0.0000
 11
6.235199
 21
3.6077
 31
0.0000
 6
CONTINUOUS
 0
LINE
 8
WHITE
 10
6.235199
 20
3.6077
 30
0.0000
 11
6.176
 21
3.5887
 31
0.0000
 6
CONTINUOUS
 0
LINE
 8
WHITE
 10
6.176
 20
3.5887
 30
0.0000
 11
6.1012
 21
3.578299
 31
0.0000
 6
CONTINUOUS
 0
LINE
 8
WHITE
 10
6.1012
 20
3.578299
 30
0.0000
 11
6.0324
 21
3.578599
 31
0.0000
 6
CONTINUOUS
 0
LINE
 8
WHITE
 10
6.0324
 20
3.578599
 30
0.0000
 11
5.965499
 21
3.5799
 31
0.0000
 6
CONTINUOUS
 0
LINE
 8
WHITE
 10
5.965499
 20
3.5799
 30
0.0000
 11
5.9001
 21
3.5833
 31
0.0000
 6
CONTINUOUS
 0
LINE
 8
WHITE
 10
5.9001
 20
3.5833
 30
0.0000
 11
5.835999
 21
3.589799
 31
0.0000
 6
CONTINUOUS
 0
LINE
 8
WHITE
 10
5.835999
 20
3.589799
 30
0.0000
 11
5.7726
 21
3.6005
 31
0.0000
 6
CONTINUOUS
 0
LINE
 8
WHITE
 10
5.7726
 20
3.6005
 30
0.0000
 11
5.710999
 21
3.6133
 31
0.0000
 6
CONTINUOUS
 0
LINE
 8
WHITE
 10
5.710999
 20
3.6133
 30
0.0000
 11
5.6486
 21
3.6256
 31
0.0000
 6
CONTINUOUS
 0
LINE
 8
WHITE
 10
5.6486
 20
3.6256
 30
0.0000
 11
5.5851
 21
3.635999
 31
0.0000
 6
CONTINUOUS
 0
LINE
 8
WHITE
 10
5.5851
 20
3.635999
 30
0.0000
 11
5.519899
 21
3.643199
 31
0.0000
 6
CONTINUOUS
 0
LINE
 8
WHITE
 10
5.519899
 20
3.643199
 30
0.0000
 11
5.4527
 21
3.6459
 31
0.0000
 6
CONTINUOUS
 0
LINE
 8
WHITE
 10
5.4527
 20
3.6459
 30
0.0000
 11
5.3829
 21
3.6426
 31
0.0000
 6
CONTINUOUS
 0
LINE
 8
WHITE
 10
5.3829
 20
3.6426
 30
0.0000
 11
5.3101
 21
3.6321
 31
0.0000
 6
CONTINUOUS
 0
LINE
 8
WHITE
 10
5.3101
 20
3.6321
 30
0.0000
 11
5.236299
 21
3.618299
 31
0.0000
 6
CONTINUOUS
 0
LINE
 8
WHITE
 10
5.236299
 20
3.618299
 30
0.0000
 11
5.165699
 21
3.5954
 31
0.0000
 6
CONTINUOUS
 0
LINE
 8
WHITE
 10
5.165699
 20
3.5954
 30
0.0000
 11
5.0966
 21
3.565799
 31
0.0000
 6
CONTINUOUS
 0
LINE
 8
WHITE
 10
5.0966
 20
3.565799
 30
0.0000
 11
5.027299
 21
3.531599
 31
0.0000
 6
CONTINUOUS
 0
LINE
 8
WHITE
 10
5.027299
 20
3.531599
 30
0.0000
 11
4.969999
 21
3.499
 31
0.0000
 6
CONTINUOUS
 0
LINE
 8
WHITE
 10
4.969999
 20
3.499
 30
0.0000
 11
4.9127
 21
3.4672
 31
0.0000
 6
CONTINUOUS
 0
LINE
 8
WHITE
 10
4.9127
 20
3.4672
 30
0.0000
 11
4.8548
 21
3.437
 31
0.0000
 6
CONTINUOUS
 0
LINE
 8
WHITE
 10
4.8548
 20
3.437
 30
0.0000
 11
4.795599
 21
3.4091
 31
0.0000
 6
CONTINUOUS
 0
LINE
 8
WHITE
 10
4.795599
 20
3.4091
 30
0.0000
 11
4.734499
 21
3.384299
 31
0.0000
 6
CONTINUOUS
 0
LINE
 8
WHITE
 10
4.734499
 20
3.384299
 30
0.0000
 11
4.6563
 21
3.371
 31
0.0000
 6
CONTINUOUS
 0
LINE
 8
WHITE
 10
4.6563
 20
3.371
 30
0.0000
 11
4.584199
 21
3.368299
 31
0.0000
 6
CONTINUOUS
 0
LINE
 8
WHITE
 10
4.584199
 20
3.368299
 30
0.0000
 11
4.511499
 21
3.374799
 31
0.0000
 6
CONTINUOUS
 0
LINE
 8
WHITE
 10
4.511499
 20
3.374799
 30
0.0000
 11
4.4316
 21
3.3886
 31
0.0000
 6
CONTINUOUS
 0
LINE
 8
WHITE
 10
4.4316
 20
3.3886
 30
0.0000
 11
4.4505
 21
3.345299
 31
0.0000
 6
CONTINUOUS
 0
LINE
 8
WHITE
 10
4.4505
 20
3.345299
 30
0.0000
 11
4.4615
 21
3.3361
 31
0.0000
 6
CONTINUOUS
 0
LINE
 8
WHITE
 10
4.4615
 20
3.3361
 30
0.0000
 11
4.471399
 21
3.326499
 31
0.0000
 6
CONTINUOUS
 0
LINE
 8
WHITE
 10
4.471399
 20
3.326499
 30
0.0000
 11
4.4818
 21
3.317899
 31
0.0000
 6
CONTINUOUS
 0
LINE
 8
WHITE
 10
4.4818
 20
3.317899
 30
0.0000
 11
4.5288
 21
3.2834
 31
0.0000
 6
CONTINUOUS
 0
LINE
 8
WHITE
 10
4.5288
 20
3.2834
 30
0.0000
 11
4.5678
 21
3.2483
 31
0.0000
 6
CONTINUOUS
 0
LINE
 8
WHITE
 10
4.5678
 20
3.2483
 30
0.0000
 11
4.6002
 21
3.2093
 31
0.0000
 6
CONTINUOUS
 0
LINE
 8
WHITE
 10
4.6002
 20
3.2093
 30
0.0000
 11
4.6272
 21
3.1631
 31
0.0000
 6
CONTINUOUS
 0
LINE
 8
WHITE
 10
4.6272
 20
3.1631
 30
0.0000
 11
4.650199
 21
3.1063
 31
0.0000
 6
CONTINUOUS
 0
LINE
 8
WHITE
 10
4.650199
 20
3.1063
 30
0.0000
 11
4.670499
 21
3.035799
 31
0.0000
 6
CONTINUOUS
 0
LINE
 8
WHITE
 10
4.670499
 20
3.035799
 30
0.0000
 11
4.6893
 21
2.948299
 31
0.0000
 6
CONTINUOUS
 0
LINE
 8
WHITE
 10
4.6893
 20
2.948299
 30
0.0000
 11
4.6985
 21
2.934099
 31
0.0000
 6
CONTINUOUS
 0
LINE
 8
WHITE
 10
4.6985
 20
2.934099
 30
0.0000
 11
4.706699
 21
2.9279
 31
0.0000
 6
CONTINUOUS
 0
LINE
 8
WHITE
 10
4.706699
 20
2.9279
 30
0.0000
 11
4.720099
 21
2.924599
 31
0.0000
 6
CONTINUOUS
 0
LINE
 8
WHITE
 10
4.720099
 20
2.924599
 30
0.0000
 11
4.800099
 21
2.938699
 31
0.0000
 6
CONTINUOUS
 0
LINE
 8
WHITE
 10
4.800099
 20
2.938699
 30
0.0000
 11
4.886
 21
2.9546
 31
0.0000
 6
CONTINUOUS
 0
LINE
 8
WHITE
 10
4.886
 20
2.9546
 30
0.0000
 11
4.9446
 21
2.958699
 31
0.0000
 6
CONTINUOUS
 0
LINE
 8
WHITE
 10
4.9446
 20
2.958699
 30
0.0000
 11
5.007599
 21
2.970299
 31
0.0000
 6
CONTINUOUS
 0
LINE
 8
WHITE
 10
5.007599
 20
2.970299
 30
0.0000
 11
5.0703
 21
2.9814
 31
0.0000
 6
CONTINUOUS
 0
LINE
 8
WHITE
 10
5.0703
 20
2.9814
 30
0.0000
 11
5.1329
 21
2.991899
 31
0.0000
 6
CONTINUOUS
 0
LINE
 8
WHITE
 10
5.1329
 20
2.991899
 30
0.0000
 11
5.1953
 21
3.0018
 31
0.0000
 6
CONTINUOUS
 0
LINE
 8
WHITE
 10
5.1953
 20
3.0018
 30
0.0000
 11
5.2579
 21
3.0109
 31
0.0000
 6
CONTINUOUS
 0
LINE
 8
WHITE
 10
5.2579
 20
3.0109
 30
0.0000
 11
5.3207
 21
3.0192
 31
0.0000
 6
CONTINUOUS
 0
LINE
 8
WHITE
 10
5.3207
 20
3.0192
 30
0.0000
 11
5.3838
 21
3.026599
 31
0.0000
 6
CONTINUOUS
 0
LINE
 8
WHITE
 10
5.3838
 20
3.026599
 30
0.0000
 11
5.4474
 21
3.032999
 31
0.0000
 6
CONTINUOUS
 0
LINE
 8
WHITE
 10
5.4474
 20
3.032999
 30
0.0000
 11
5.5117
 21
3.0383
 31
0.0000
 6
CONTINUOUS
 0
LINE
 8
WHITE
 10
5.5117
 20
3.0383
 30
0.0000
 11
5.5718
 21
3.043499
 31
0.0000
 6
CONTINUOUS
 0
LINE
 8
WHITE
 10
5.5718
 20
3.043499
 30
0.0000
 11
5.6314
 21
3.046799
 31
0.0000
 6
CONTINUOUS
 0
LINE
 8
WHITE
 10
5.6314
 20
3.046799
 30
0.0000
 11
5.6907
 21
3.048399
 31
0.0000
 6
CONTINUOUS
 0
LINE
 8
WHITE
 10
5.6907
 20
3.048399
 30
0.0000
 11
5.7497
 21
3.048399
 31
0.0000
 6
CONTINUOUS
 0
LINE
 8
WHITE
 10
5.7497
 20
3.048399
 30
0.0000
 11
5.808499
 21
3.0469
 31
0.0000
 6
CONTINUOUS
 0
LINE
 8
WHITE
 10
5.808499
 20
3.0469
 30
0.0000
 11
5.867199
 21
3.0441
 31
0.0000
 6
CONTINUOUS
 0
LINE
 8
WHITE
 10
5.867199
 20
3.0441
 30
0.0000
 11
5.925899
 21
3.0401
 31
0.0000
 6
CONTINUOUS
 0
LINE
 8
WHITE
 10
5.925899
 20
3.0401
 30
0.0000
 11
5.9846
 21
3.035099
 31
0.0000
 6
CONTINUOUS
 0
LINE
 8
WHITE
 10
5.9846
 20
3.035099
 30
0.0000
 11
6.043399
 21
3.0292
 31
0.0000
 6
CONTINUOUS
 0
LINE
 8
WHITE
 10
6.043399
 20
3.0292
 30
0.0000
 11
6.102499
 21
3.022399
 31
0.0000
 6
CONTINUOUS
 0
LINE
 8
WHITE
 10
6.102499
 20
3.022399
 30
0.0000
 11
6.1619
 21
3.015
 31
0.0000
 6
CONTINUOUS
 0
LINE
 8
WHITE
 10
6.1619
 20
3.015
 30
0.0000
 11
6.241099
 21
2.9976
 31
0.0000
 6
CONTINUOUS
 0
LINE
 8
WHITE
 10
6.241099
 20
2.9976
 30
0.0000
 11
6.311399
 21
2.973099
 31
0.0000
 6
CONTINUOUS
 0
LINE
 8
WHITE
 10
6.311399
 20
2.973099
 30
0.0000
 11
6.381999
 21
2.9421
 31
0.0000
 6
CONTINUOUS
 0
LINE
 8
WHITE
 10
6.381999
 20
2.9421
 30
0.0000
 11
6.469099
 21
2.9072
 31
0.0000
 6
CONTINUOUS
 0
LINE
 8
WHITE
 10
6.469099
 20
2.9072
 30
0.0000
 11
6.520299
 21
2.8905
 31
0.0000
 6
CONTINUOUS
 0
LINE
 8
WHITE
 10
6.520299
 20
2.8905
 30
0.0000
 11
6.526299
 21
2.8901
 31
0.0000
 6
CONTINUOUS
 0
LINE
 8
WHITE
 10
6.526299
 20
2.8901
 30
0.0000
 11
6.531199
 21
2.8907
 31
0.0000
 6
CONTINUOUS
 0
LINE
 8
WHITE
 10
6.531199
 20
2.8907
 30
0.0000
 11
6.5355
 21
2.891999
 31
0.0000
 6
CONTINUOUS
 0
LINE
 8
WHITE
 10
6.5355
 20
2.891999
 30
0.0000
 11
6.6229
 21
2.939399
 31
0.0000
 6
CONTINUOUS
 0
LINE
 8
WHITE
 10
6.6229
 20
2.939399
 30
0.0000
 11
6.691199
 21
2.9855
 31
0.0000
 6
CONTINUOUS
 0
LINE
 8
WHITE
 10
6.691199
 20
2.9855
 30
0.0000
 11
6.754899
 21
2.9823
 31
0.0000
 6
CONTINUOUS
 0
ARC
 8
WHITE
 10
6.754899
 20
2.9808
 30
 0
 40
.0015
 50
14.92405
 51
90
 6
CONTINUOUS
 0
LINE
 8
WHITE
 10
6.7564
 20
2.981199
 30
0.0000
 11
6.7705
 21
2.9346
 31
0.0000
 6
CONTINUOUS
 0
LINE
 8
WHITE
 10
6.7705
 20
2.9346
 30
0.0000
 11
6.736199
 21
2.8749
 31
0.0000
 6
CONTINUOUS
 0
LINE
 8
WHITE
 10
6.736199
 20
2.8749
 30
0.0000
 11
6.687399
 21
2.853899
 31
0.0000
 6
CONTINUOUS
 0
LINE
 8
WHITE
 10
6.687399
 20
2.853899
 30
0.0000
 11
6.702099
 21
2.857199
 31
0.0000
 6
CONTINUOUS
 0
LINE
 8
WHITE
 10
6.702099
 20
2.857199
 30
0.0000
 11
6.717599
 21
2.861099
 31
0.0000
 6
CONTINUOUS
 0
LINE
 8
WHITE
 10
6.717599
 20
2.861099
 30
0.0000
 11
6.734
 21
2.8647
 31
0.0000
 6
CONTINUOUS
 0
LINE
 8
WHITE
 10
6.734
 20
2.8647
 30
0.0000
 11
6.753399
 21
2.852099
 31
0.0000
 6
CONTINUOUS
 0
LINE
 8
WHITE
 10
6.753399
 20
2.852099
 30
0.0000
 11
6.764599
 21
2.838399
 31
0.0000
 6
CONTINUOUS
 0
LINE
 8
WHITE
 10
6.764599
 20
2.838399
 30
0.0000
 11
6.770599
 21
2.8182
 31
0.0000
 6
CONTINUOUS
 0
ARC
 8
WHITE
 10
6.771999
 20
2.8186
 30
 0
 40
.001456
 50
195.9454
 51
289.6581
 6
CONTINUOUS
 0
LINE
 8
WHITE
 10
6.7725
 20
2.817199
 30
0.0000
 11
6.827199
 21
2.8287
 31
0.0000
 6
CONTINUOUS
 0
LINE
 8
WHITE
 10
6.827199
 20
2.8287
 30
0.0000
 11
6.883299
 21
2.8405
 31
0.0000
 6
CONTINUOUS
 0
LINE
 8
WHITE
 10
6.883299
 20
2.8405
 30
0.0000
 11
6.939499
 21
2.852299
 31
0.0000
 6
CONTINUOUS
 0
LINE
 8
WHITE
 10
6.939499
 20
2.852299
 30
0.0000
 11
6.995699
 21
2.864
 31
0.0000
 6
CONTINUOUS
 0
LINE
 8
WHITE
 10
6.995699
 20
2.864
 30
0.0000
 11
7.051799
 21
2.8756
 31
0.0000
 6
CONTINUOUS
 0
LINE
 8
WHITE
 10
7.051799
 20
2.8756
 30
0.0000
 11
7.1079
 21
2.8872
 31
0.0000
 6
CONTINUOUS
 0
LINE
 8
WHITE
 10
7.1079
 20
2.8872
 30
0.0000
 11
7.163899
 21
2.898699
 31
0.0000
 6
CONTINUOUS
 0
LINE
 8
WHITE
 10
7.163899
 20
2.898699
 30
0.0000
 11
7.2199
 21
2.9102
 31
0.0000
 6
CONTINUOUS
 0
LINE
 8
WHITE
 10
7.2199
 20
2.9102
 30
0.0000
 11
7.276
 21
2.9217
 31
0.0000
 6
CONTINUOUS
 0
LINE
 8
WHITE
 10
7.276
 20
2.9217
 30
0.0000
 11
7.3319
 21
2.933099
 31
0.0000
 6
CONTINUOUS
 0
LINE
 8
WHITE
 10
7.3319
 20
2.933099
 30
0.0000
 11
7.387899
 21
2.944499
 31
0.0000
 6
CONTINUOUS
 0
LINE
 8
WHITE
 10
7.387899
 20
2.944499
 30
0.0000
 11
7.443799
 21
2.955899
 31
0.0000
 6
CONTINUOUS
 0
LINE
 8
WHITE
 10
7.443799
 20
2.955899
 30
0.0000
 11
7.4997
 21
2.9672
 31
0.0000
 6
CONTINUOUS
 0
LINE
 8
WHITE
 10
7.4997
 20
2.9672
 30
0.0000
 11
7.555699
 21
2.978499
 31
0.0000
 6
CONTINUOUS
 0
LINE
 8
WHITE
 10
7.555699
 20
2.978499
 30
0.0000
 11
7.667399
 21
3.000999
 31
0.0000
 6
CONTINUOUS
 0
LINE
 8
WHITE
 10
7.667399
 20
3.000999
 30
0.0000
 11
7.778999
 21
3.023499
 31
0.0000
 6
CONTINUOUS
 0
LINE
 8
WHITE
 10
7.778999
 20
3.023499
 30
0.0000
 11
7.946499
 21
3.057199
 31
0.0000
 6
CONTINUOUS
 0
LINE
 8
WHITE
 10
7.946499
 20
3.057199
 30
0.0000
 11
8.057999
 21
3.0796
 31
0.0000
 6
CONTINUOUS
 0
LINE
 8
WHITE
 10
8.057999
 20
3.0796
 30
0.0000
 11
8.169599
 21
3.1022
 31
0.0000
 6
CONTINUOUS
 0
LINE
 8
WHITE
 10
8.169599
 20
3.1022
 30
0.0000
 11
8.225299
 21
3.113399
 31
0.0000
 6
CONTINUOUS
 0
LINE
 8
WHITE
 10
8.225299
 20
3.113399
 30
0.0000
 11
8.281
 21
3.1247
 31
0.0000
 6
CONTINUOUS
 0
LINE
 8
WHITE
 10
8.281
 20
3.1247
 30
0.0000
 11
8.336799
 21
3.1361
 31
0.0000
 6
CONTINUOUS
 0
LINE
 8
WHITE
 10
8.336799
 20
3.1361
 30
0.0000
 11
8.392499
 21
3.147399
 31
0.0000
 6
CONTINUOUS
 0
LINE
 8
WHITE
 10
8.392499
 20
3.147399
 30
0.0000
 11
8.4483
 21
3.158799
 31
0.0000
 6
CONTINUOUS
 0
LINE
 8
WHITE
 10
8.4483
 20
3.158799
 30
0.0000
 11
8.502599
 21
3.17
 31
0.0000
 6
CONTINUOUS
 0
ARC
 8
WHITE
 10
8.502299
 20
3.171499
 30
 0
 40
.001529
 50
281.3099
 51
0
 6
CONTINUOUS
 0
LINE
 8
WHITE
 10
8.503899
 20
3.171499
 30
0.0000
 11
8.503899
 21
4.6483
 31
0.0000
 6
CONTINUOUS
 0
ARC
 8
WHITE
 10
8.502399
 20
4.6484
 30
 0
 40
.001503
 50
356.1859
 51
93.78384
 6
CONTINUOUS
 0
LINE
 8
WHITE
 10
8.5023
 20
4.649899
 30
0.0000
 11
6.3825
 21
4.6167
 31
0.0000
 6
CONTINUOUS
 0
ARC
 8
WHITE
 10
6.3824
 20
4.6182
 30
 0
 40
.001503
 50
176.1992
 51
273.8141
 6
CONTINUOUS
 0
LINE
 8
WHITE
 10
6.380899
 20
4.618299
 30
0.0000
 11
6.382699
 21
4.897799
 31
0.0000
 6
CONTINUOUS
 0
ARC
 8
WHITE
 10
6.381199
 20
4.8979
 30
 0
 40
.001503
 50
356.1859
 51
93.80077
 6
CONTINUOUS
 0
LINE
 8
WHITE
 10
6.3811
 20
4.8994
 30
0.0000
 11
6.2526
 21
4.900899
 31
0.0000
 6
CONTINUOUS
 0
ARC
 8
WHITE
 10
6.2525
 20
4.899399
 30
 0
 40
.001503
 50
86.18593
 51
183.8008
 6
CONTINUOUS
 0
LINE
 8
WHITE
 10
6.250999
 20
4.8993
 30
0.0000
 11
6.242499
 21
4.6215
 31
0.0000
 6
CONTINUOUS
 0
ARC
 8
WHITE
 10
6.240999
 20
4.6215
 30
 0
 40
.0015
 50
266.1992
 51
0
 6
CONTINUOUS
 0
LINE
 8
WHITE
 10
6.2409
 20
4.619999
 30
0.0000
 11
.218299
 21
4.5514
 31
0.0000
 6
CONTINUOUS
 0
ARC
 8
WHITE
 10
.218299
 20
4.5499
 30
 0
 40
.0015
 50
90
 51
183.8192
 6
CONTINUOUS
 0
LINE
 8
WHITE
 10
.2168
 20
4.549799
 30
0.0000
 11
.2168
 21
1.551699
 31
0.0000
 6
CONTINUOUS
 0
LINE
 8
WHITE
 10
.2168
 20
1.551699
 30
0.0000
 11
.2211
 21
1.523499
 31
0.0000
 6
CONTINUOUS
 0
LINE
 8
WHITE
 10
.2211
 20
1.523499
 30
0.0000
 11
.226099
 21
1.5095
 31
0.0000
 6
CONTINUOUS
 0
LINE
 8
WHITE
 10
.226099
 20
1.5095
 30
0.0000
 11
.252299
 21
1.489699
 31
0.0000
 6
CONTINUOUS
 0
LINE
 8
WHITE
 10
.252299
 20
1.489699
 30
0.0000
 11
.7006
 21
1.580999
 31
0.0000
 6
CONTINUOUS
 0
LINE
 8
WHITE
 10
.7006
 20
1.580999
 30
0.0000
 11
.722
 21
1.5957
 31
0.0000
 6
CONTINUOUS
 0
LINE
 8
WHITE
 10
.722
 20
1.5957
 30
0.0000
 11
.735499
 21
1.6718
 31
0.0000
 6
CONTINUOUS
 0
LINE
 8
WHITE
 10
.735499
 20
1.6718
 30
0.0000
 11
.7519
 21
1.711599
 31
0.0000
 6
CONTINUOUS
 0
LINE
 8
WHITE
 10
.7519
 20
1.711599
 30
0.0000
 11
.7741
 21
1.751199
 31
0.0000
 6
CONTINUOUS
 0
LINE
 8
WHITE
 10
.7741
 20
1.751199
 30
0.0000
 11
.8413
 21
1.833699
 31
0.0000
 6
CONTINUOUS
 0
LINE
 8
WHITE
 10
.8413
 20
1.833699
 30
0.0000
 11
.8826
 21
1.8746
 31
0.0000
 6
CONTINUOUS
 0
LINE
 8
WHITE
 10
.8826
 20
1.8746
 30
0.0000
 11
.890699
 21
1.8897
 31
0.0000
 6
CONTINUOUS
 0
LINE
 8
WHITE
 10
.890699
 20
1.8897
 30
0.0000
 11
.900399
 21
1.965999
 31
0.0000
 6
CONTINUOUS
 0
LINE
 8
WHITE
 10
.900399
 20
1.965999
 30
0.0000
 11
.932699
 21
2.0264
 31
0.0000
 6
CONTINUOUS
 0
LINE
 8
WHITE
 10
.932699
 20
2.0264
 30
0.0000
 11
.9681
 21
2.0638
 31
0.0000
 6
CONTINUOUS
 0
LINE
 8
WHITE
 10
.9681
 20
2.0638
 30
0.0000
 11
1.0209
 21
2.104399
 31
0.0000
 6
CONTINUOUS
 0
LINE
 8
WHITE
 10
1.0209
 20
2.104399
 30
0.0000
 11
1.0318
 21
2.153899
 31
0.0000
 6
CONTINUOUS
 0
LINE
 8
WHITE
 10
1.0318
 20
2.153899
 30
0.0000
 11
1.0541
 21
2.199199
 31
0.0000
 6
CONTINUOUS
 0
LINE
 8
WHITE
 10
1.0541
 20
2.199199
 30
0.0000
 11
1.079699
 21
2.225399
 31
0.0000
 6
CONTINUOUS
 0
LINE
 8
WHITE
 10
1.079699
 20
2.225399
 30
0.0000
 11
1.1246
 21
2.258699
 31
0.0000
 6
CONTINUOUS
 0
LINE
 8
WHITE
 10
1.1246
 20
2.258699
 30
0.0000
 11
1.159399
 21
2.2692
 31
0.0000
 6
CONTINUOUS
 0
LINE
 8
WHITE
 10
1.159399
 20
2.2692
 30
0.0000
 11
1.1921
 21
2.276
 31
0.0000
 6
CONTINUOUS
 0
LINE
 8
WHITE
 10
1.1921
 20
2.276
 30
0.0000
 11
1.2036
 21
2.2776
 31
0.0000
 6
CONTINUOUS
 0
LINE
 8
WHITE
 10
1.2036
 20
2.2776
 30
0.0000
 11
1.2272
 21
2.2999
 31
0.0000
 6
CONTINUOUS
 0
LINE
 8
WHITE
 10
1.2272
 20
2.2999
 30
0.0000
 11
1.2581
 21
2.3106
 31
0.0000
 6
CONTINUOUS
 0
LINE
 8
WHITE
 10
1.2581
 20
2.3106
 30
0.0000
 11
1.3118
 21
2.3129
 31
0.0000
 6
CONTINUOUS
 0
LINE
 8
WHITE
 10
1.3118
 20
2.3129
 30
0.0000
 11
1.370599
 21
2.2922
 31
0.0000
 6
CONTINUOUS
 0
LINE
 8
WHITE
 10
1.370599
 20
2.2922
 30
0.0000
 11
2.643899
 21
2.6085
 31
0.0000
 6
CONTINUOUS
 0
LINE
 8
WHITE
 10
2.643899
 20
2.6085
 30
0.0000
 11
2.809
 21
2.649399
 31
0.0000
 6
CONTINUOUS
 0
ARC
 8
WHITE
 10
2.8087
 20
2.650899
 30
 0
 40
.001529
 50
281.3099
 51
345.0737
 6
CONTINUOUS
 0
LINE
 8
WHITE
 10
2.810199
 20
2.6505
 30
0.0000
 11
2.813899
 21
2.6637
 31
0.0000
 6
CONTINUOUS
 0
LINE
 8
WHITE
 10
2.813899
 20
2.6637
 30
0.0000
 11
2.8254
 21
2.6742
 31
0.0000
 6
CONTINUOUS
 0
LINE
 8
WHITE
 10
2.8254
 20
2.6742
 30
0.0000
 11
2.841599
 21
2.6812
 31
0.0000
 6
CONTINUOUS
 0
LINE
 8
WHITE
 10
2.841599
 20
2.6812
 30
0.0000
 11
2.858799
 21
2.6796
 31
0.0000
 6
CONTINUOUS
 0
LINE
 8
WHITE
 10
2.858799
 20
2.6796
 30
0.0000
 11
2.872499
 21
2.6737
 31
0.0000
 6
CONTINUOUS
 0
LINE
 8
WHITE
 10
2.872499
 20
2.6737
 30
0.0000
 11
2.882499
 21
2.663899
 31
0.0000
 6
CONTINUOUS
 0
LINE
 8
WHITE
 10
2.882499
 20
2.663899
 30
0.0000
 11
3.164499
 21
2.735899
 31
0.0000
 6
CONTINUOUS
 0
LINE
 8
WHITE
 10
3.164499
 20
2.735899
 30
0.0000
 11
3.234999
 21
2.7539
 31
0.0000
 6
CONTINUOUS
 0
LINE
 8
WHITE
 10
3.234999
 20
2.7539
 30
0.0000
 11
3.3292
 21
2.7973
 31
0.0000
 6
CONTINUOUS
 0
LINE
 8
WHITE
 10
3.3292
 20
2.7973
 30
0.0000
 11
3.4428
 21
2.882299
 31
0.0000
 6
CONTINUOUS
 0
LINE
 8
WHITE
 10
3.4428
 20
2.882299
 30
0.0000
 11
3.4516
 21
2.884
 31
0.0000
 6
CONTINUOUS
 0
LINE
 8
WHITE
 10
3.4516
 20
2.884
 30
0.0000
 11
3.4602
 21
2.8831
 31
0.0000
 6
CONTINUOUS
 0
LINE
 8
WHITE
 10
3.4602
 20
2.8831
 30
0.0000
 11
3.4688
 21
2.879699
 31
0.0000
 6
CONTINUOUS
 0
LINE
 8
WHITE
 10
3.4688
 20
2.879699
 30
0.0000
 11
3.5206
 21
2.8294
 31
0.0000
 6
CONTINUOUS
 0
LINE
 8
WHITE
 10
3.5206
 20
2.8294
 30
0.0000
 11
3.5513
 21
2.7771
 31
0.0000
 6
CONTINUOUS
 0
LINE
 8
WHITE
 10
3.5513
 20
2.7771
 30
0.0000
 11
3.5692
 21
2.718199
 31
0.0000
 6
CONTINUOUS
 0
LINE
 8
WHITE
 10
3.5692
 20
2.718199
 30
0.0000
 11
3.5826
 21
2.647799
 31
0.0000
 6
CONTINUOUS
 0
LINE
 8
WHITE
 10
3.5826
 20
2.647799
 30
0.0000
 11
3.584899
 21
2.6421
 31
0.0000
 6
CONTINUOUS
 0
LINE
 8
WHITE
 10
3.584899
 20
2.6421
 30
0.0000
 11
3.5889
 21
2.6398
 31
0.0000
 6
CONTINUOUS
 0
LINE
 8
WHITE
 10
3.5889
 20
2.6398
 30
0.0000
 11
3.5947
 21
2.640799
 31
0.0000
 6
CONTINUOUS
 0
LINE
 8
WHITE
 10
3.5947
 20
2.640799
 30
0.0000
 11
3.6171
 21
2.648799
 31
0.0000
 6
CONTINUOUS
 0
LINE
 8
WHITE
 10
3.6171
 20
2.648799
 30
0.0000
 11
3.634399
 21
2.659499
 31
0.0000
 6
CONTINUOUS
 0
LINE
 8
WHITE
 10
3.634399
 20
2.659499
 30
0.0000
 11
3.6503
 21
2.678499
 31
0.0000
 6
CONTINUOUS
 0
LINE
 8
WHITE
 10
3.6503
 20
2.678499
 30
0.0000
 11
3.6514
 21
2.687
 31
0.0000
 6
CONTINUOUS
 0
LINE
 8
WHITE
 10
3.6514
 20
2.687
 30
0.0000
 11
3.623399
 21
2.710999
 31
0.0000
 6
CONTINUOUS
 0
LINE
 8
WHITE
 10
3.623399
 20
2.710999
 30
0.0000
 11
3.601099
 21
2.737499
 31
0.0000
 6
CONTINUOUS
 0
LINE
 8
WHITE
 10
3.601099
 20
2.737499
 30
0.0000
 11
3.5799
 21
2.771199
 31
0.0000
 6
CONTINUOUS
 0
LINE
 8
WHITE
 10
3.5799
 20
2.771199
 30
0.0000
 11
3.5662
 21
2.8034
 31
0.0000
 6
CONTINUOUS
 0
LINE
 8
WHITE
 10
3.5662
 20
2.8034
 30
0.0000
 11
3.558599
 21
2.8345
 31
0.0000
 6
CONTINUOUS
 0
LINE
 8
WHITE
 10
3.558599
 20
2.8345
 30
0.0000
 11
3.5585
 21
2.8715
 31
0.0000
 6
CONTINUOUS
 0
LINE
 8
WHITE
 10
3.5585
 20
2.8715
 30
0.0000
 11
3.571099
 21
2.894799
 31
0.0000
 6
CONTINUOUS
 0
LINE
 8
WHITE
 10
3.571099
 20
2.894799
 30
0.0000
 11
3.571399
 21
2.894999
 31
0.0000
 6
CONTINUOUS
 0
LINE
 8
WHITE
 10
3.2383
 20
2.651099
 30
0.0000
 11
3.252599
 21
2.5938
 31
0.0000
 6
CONTINUOUS
 0
LINE
 8
WHITE
 10
3.252599
 20
2.5938
 30
0.0000
 11
3.5011
 21
2.655999
 31
0.0000
 6
CONTINUOUS
 0
LINE
 8
WHITE
 10
3.5011
 20
2.655999
 30
0.0000
 11
3.515
 21
2.661299
 31
0.0000
 6
CONTINUOUS
 0
LINE
 8
WHITE
 10
3.515
 20
2.661299
 30
0.0000
 11
3.5236
 21
2.6705
 31
0.0000
 6
CONTINUOUS
 0
LINE
 8
WHITE
 10
3.5236
 20
2.6705
 30
0.0000
 11
3.5257
 21
2.682899
 31
0.0000
 6
CONTINUOUS
 0
LINE
 8
WHITE
 10
3.5257
 20
2.682899
 30
0.0000
 11
3.522399
 21
2.7242
 31
0.0000
 6
CONTINUOUS
 0
LINE
 8
WHITE
 10
3.522399
 20
2.7242
 30
0.0000
 11
3.508199
 21
2.7732
 31
0.0000
 6
CONTINUOUS
 0
LINE
 8
WHITE
 10
3.508199
 20
2.7732
 30
0.0000
 11
3.4667
 21
2.834599
 31
0.0000
 6
CONTINUOUS
 0
LINE
 8
WHITE
 10
3.4667
 20
2.834599
 30
0.0000
 11
3.458699
 21
2.8382
 31
0.0000
 6
CONTINUOUS
 0
LINE
 8
WHITE
 10
3.458699
 20
2.8382
 30
0.0000
 11
3.4481
 21
2.835299
 31
0.0000
 6
CONTINUOUS
 0
LINE
 8
WHITE
 10
3.4481
 20
2.835299
 30
0.0000
 11
3.437999
 21
2.8287
 31
0.0000
 6
CONTINUOUS
 0
LINE
 8
WHITE
 10
3.437999
 20
2.8287
 30
0.0000
 11
3.406199
 21
2.787699
 31
0.0000
 6
CONTINUOUS
 0
LINE
 8
WHITE
 10
3.406199
 20
2.787699
 30
0.0000
 11
3.360599
 21
2.758699
 31
0.0000
 6
CONTINUOUS
 0
LINE
 8
WHITE
 10
3.360599
 20
2.758699
 30
0.0000
 11
3.300499
 21
2.733799
 31
0.0000
 6
CONTINUOUS
 0
LINE
 8
WHITE
 10
3.300499
 20
2.733799
 30
0.0000
 11
3.234499
 21
2.7105
 31
0.0000
 6
CONTINUOUS
 0
LINE
 8
WHITE
 10
3.234499
 20
2.7105
 30
0.0000
 11
3.169899
 21
2.691699
 31
0.0000
 6
CONTINUOUS
 0
LINE
 8
WHITE
 10
3.169899
 20
2.691699
 30
0.0000
 11
3.1063
 21
2.6758
 31
0.0000
 6
CONTINUOUS
 0
LINE
 8
WHITE
 10
3.1063
 20
2.6758
 30
0.0000
 11
3.0431
 21
2.661299
 31
0.0000
 6
CONTINUOUS
 0
LINE
 8
WHITE
 10
3.0431
 20
2.661299
 30
0.0000
 11
2.980099
 21
2.6463
 31
0.0000
 6
CONTINUOUS
 0
LINE
 8
WHITE
 10
2.980099
 20
2.6463
 30
0.0000
 11
2.917
 21
2.6294
 31
0.0000
 6
CONTINUOUS
 0
LINE
 8
WHITE
 10
2.917
 20
2.6294
 30
0.0000
 11
2.9351
 21
2.614599
 31
0.0000
 6
CONTINUOUS
 0
LINE
 8
WHITE
 10
2.9351
 20
2.614599
 30
0.0000
 11
2.951699
 21
2.5989
 31
0.0000
 6
CONTINUOUS
 0
LINE
 8
WHITE
 10
2.951699
 20
2.5989
 30
0.0000
 11
2.968199
 21
2.584199
 31
0.0000
 6
CONTINUOUS
 0
LINE
 8
WHITE
 10
2.968199
 20
2.584199
 30
0.0000
 11
2.9837
 21
2.569
 31
0.0000
 6
CONTINUOUS
 0
LINE
 8
WHITE
 10
2.9837
 20
2.569
 30
0.0000
 11
2.995699
 21
2.5515
 31
0.0000
 6
CONTINUOUS
 0
LINE
 8
WHITE
 10
2.995699
 20
2.5515
 30
0.0000
 11
3.003599
 21
2.532799
 31
0.0000
 6
CONTINUOUS
 0
ARC
 8
WHITE
 10
3.004999
 20
2.5334
 30
 0
 40
.001523
 50
203.1986
 51
284.9326
 6
CONTINUOUS
 0
LINE
 8
WHITE
 10
3.005399
 20
2.531899
 30
0.0000
 11
3.252599
 21
2.5938
 31
0.0000
 6
CONTINUOUS
 0
LINE
 8
WHITE
 10
3.252599
 20
2.5938
 30
0.0000
 11
3.252799
 21
2.594099
 31
0.0000
 6
CONTINUOUS
 0
LINE
 8
WHITE
 10
3.223299
 20
2.4179
 30
0.0000
 11
3.216799
 21
2.3592
 31
0.0000
 6
CONTINUOUS
 0
LINE
 8
WHITE
 10
3.216799
 20
2.3592
 30
0.0000
 11
3.214999
 21
2.3426
 31
0.0000
 6
CONTINUOUS
 0
LINE
 8
WHITE
 10
3.214999
 20
2.3426
 30
0.0000
 11
3.211299
 21
2.328
 31
0.0000
 6
CONTINUOUS
 0
LINE
 8
WHITE
 10
3.211299
 20
2.328
 30
0.0000
 11
3.206899
 21
2.3134
 31
0.0000
 6
CONTINUOUS
 0
LINE
 8
WHITE
 10
3.206899
 20
2.3134
 30
0.0000
 11
3.2002
 21
2.3029
 31
0.0000
 6
CONTINUOUS
 0
LINE
 8
WHITE
 10
3.2002
 20
2.3029
 30
0.0000
 11
3.191099
 21
2.2967
 31
0.0000
 6
CONTINUOUS
 0
LINE
 8
WHITE
 10
3.191099
 20
2.2967
 30
0.0000
 11
3.1795
 21
2.294899
 31
0.0000
 6
CONTINUOUS
 0
LINE
 8
WHITE
 10
3.1795
 20
2.294899
 30
0.0000
 11
3.152899
 21
2.303299
 31
0.0000
 6
CONTINUOUS
 0
LINE
 8
WHITE
 10
3.152899
 20
2.303299
 30
0.0000
 11
3.1312
 21
2.3008
 31
0.0000
 6
CONTINUOUS
 0
LINE
 8
WHITE
 10
3.1312
 20
2.3008
 30
0.0000
 11
3.120699
 21
2.2887
 31
0.0000
 6
CONTINUOUS
 0
LINE
 8
WHITE
 10
3.120699
 20
2.2887
 30
0.0000
 11
3.1205
 21
2.266999
 31
0.0000
 6
CONTINUOUS
 0
LINE
 8
WHITE
 10
3.1205
 20
2.266999
 30
0.0000
 11
3.1579
 21
2.215699
 31
0.0000
 6
CONTINUOUS
 0
LINE
 8
WHITE
 10
3.1579
 20
2.215699
 30
0.0000
 11
3.206399
 21
2.1902
 31
0.0000
 6
CONTINUOUS
 0
LINE
 8
WHITE
 10
3.206399
 20
2.1902
 30
0.0000
 11
3.2646
 21
2.189599
 31
0.0000
 6
CONTINUOUS
 0
LINE
 8
WHITE
 10
3.2646
 20
2.189599
 30
0.0000
 11
3.279299
 21
2.1998
 31
0.0000
 6
CONTINUOUS
 0
LINE
 8
WHITE
 10
3.279299
 20
2.1998
 30
0.0000
 11
3.2848
 21
2.216099
 31
0.0000
 6
CONTINUOUS
 0
LINE
 8
WHITE
 10
3.2848
 20
2.216099
 30
0.0000
 11
3.281199
 21
2.238699
 31
0.0000
 6
CONTINUOUS
 0
LINE
 8
WHITE
 10
3.281199
 20
2.238699
 30
0.0000
 11
3.275599
 21
2.247999
 31
0.0000
 6
CONTINUOUS
 0
LINE
 8
WHITE
 10
3.275599
 20
2.247999
 30
0.0000
 11
3.270299
 21
2.2565
 31
0.0000
 6
CONTINUOUS
 0
LINE
 8
WHITE
 10
3.270299
 20
2.2565
 30
0.0000
 11
3.264699
 21
2.265899
 31
0.0000
 6
CONTINUOUS
 0
LINE
 8
WHITE
 10
3.264699
 20
2.265899
 30
0.0000
 11
3.2699
 21
2.2839
 31
0.0000
 6
CONTINUOUS
 0
LINE
 8
WHITE
 10
3.2699
 20
2.2839
 30
0.0000
 11
3.276799
 21
2.300199
 31
0.0000
 6
CONTINUOUS
 0
LINE
 8
WHITE
 10
3.276799
 20
2.300199
 30
0.0000
 11
3.286
 21
2.308599
 31
0.0000
 6
CONTINUOUS
 0
ARC
 8
WHITE
 10
3.286999
 20
2.307499
 30
 0
 40
.001486
 50
45
 51
132.2737
 6
CONTINUOUS
 0
LINE
 8
WHITE
 10
3.2881
 20
2.308599
 30
0.0000
 11
3.3224
 21
2.2757
 31
0.0000
 6
CONTINUOUS
 0
LINE
 8
WHITE
 10
3.3224
 20
2.2757
 30
0.0000
 11
3.353499
 21
2.236799
 31
0.0000
 6
CONTINUOUS
 0
LINE
 8
WHITE
 10
3.353499
 20
2.236799
 30
0.0000
 11
3.3815
 21
2.1944
 31
0.0000
 6
CONTINUOUS
 0
LINE
 8
WHITE
 10
3.3815
 20
2.1944
 30
0.0000
 11
3.416199
 21
2.1296
 31
0.0000
 6
CONTINUOUS
 0
LINE
 8
WHITE
 10
3.416199
 20
2.1296
 30
0.0000
 11
3.4435
 21
2.061599
 31
0.0000
 6
CONTINUOUS
 0
LINE
 8
WHITE
 10
3.4435
 20
2.061599
 30
0.0000
 11
3.463799
 21
1.992599
 31
0.0000
 6
CONTINUOUS
 0
LINE
 8
WHITE
 10
3.463799
 20
1.992599
 30
0.0000
 11
3.477499
 21
1.9249
 31
0.0000
 6
CONTINUOUS
 0
LINE
 8
WHITE
 10
3.477499
 20
1.9249
 30
0.0000
 11
3.484999
 21
1.860599
 31
0.0000
 6
CONTINUOUS
 0
LINE
 8
WHITE
 10
3.484999
 20
1.860599
 30
0.0000
 11
3.486599
 21
1.8019
 31
0.0000
 6
CONTINUOUS
 0
LINE
 8
WHITE
 10
3.486599
 20
1.8019
 30
0.0000
 11
3.482899
 21
1.753299
 31
0.0000
 6
CONTINUOUS
 0
ARC
 8
WHITE
 10
3.484399
 20
1.753199
 30
 0
 40
.001503
 50
176.1859
 51
284.9433
 6
CONTINUOUS
 0
LINE
 8
WHITE
 10
3.4848
 20
1.7517
 30
0.0000
 11
3.9251
 21
1.8502
 31
0.0000
 6
CONTINUOUS
 0
LINE
 8
WHITE
 10
3.9251
 20
1.8502
 30
0.0000
 11
3.865799
 21
1.894299
 31
0.0000
 6
CONTINUOUS
 0
LINE
 8
WHITE
 10
3.865799
 20
1.894299
 30
0.0000
 11
3.822299
 21
1.933799
 31
0.0000
 6
CONTINUOUS
 0
LINE
 8
WHITE
 10
3.822299
 20
1.933799
 30
0.0000
 11
3.790999
 21
1.972599
 31
0.0000
 6
CONTINUOUS
 0
LINE
 8
WHITE
 10
3.790999
 20
1.972599
 30
0.0000
 11
3.767899
 21
2.015199
 31
0.0000
 6
CONTINUOUS
 0
LINE
 8
WHITE
 10
3.767899
 20
2.015199
 30
0.0000
 11
3.7492
 21
2.0657
 31
0.0000
 6
CONTINUOUS
 0
LINE
 8
WHITE
 10
3.7492
 20
2.0657
 30
0.0000
 11
3.7309
 21
2.128499
 31
0.0000
 6
CONTINUOUS
 0
LINE
 8
WHITE
 10
3.7309
 20
2.128499
 30
0.0000
 11
3.7091
 21
2.207999
 31
0.0000
 6
CONTINUOUS
 0
LINE
 8
WHITE
 10
3.7091
 20
2.207999
 30
0.0000
 11
3.639699
 21
2.473999
 31
0.0000
 6
CONTINUOUS
 0
LINE
 8
WHITE
 10
3.639699
 20
2.473999
 30
0.0000
 11
3.589799
 21
2.5292
 31
0.0000
 6
CONTINUOUS
 0
LINE
 8
WHITE
 10
3.589799
 20
2.5292
 30
0.0000
 11
3.527499
 21
2.571399
 31
0.0000
 6
CONTINUOUS
 0
LINE
 8
WHITE
 10
3.527499
 20
2.571399
 30
0.0000
 11
3.454699
 21
2.599499
 31
0.0000
 6
CONTINUOUS
 0
LINE
 8
WHITE
 10
3.454699
 20
2.599499
 30
0.0000
 11
3.400199
 21
2.586299
 31
0.0000
 6
CONTINUOUS
 0
LINE
 8
WHITE
 10
3.400199
 20
2.586299
 30
0.0000
 11
3.345599
 21
2.5729
 31
0.0000
 6
CONTINUOUS
 0
LINE
 8
WHITE
 10
3.345599
 20
2.5729
 30
0.0000
 11
3.290999
 21
2.5596
 31
0.0000
 6
CONTINUOUS
 0
LINE
 8
WHITE
 10
3.290999
 20
2.5596
 30
0.0000
 11
3.2365
 21
2.546099
 31
0.0000
 6
CONTINUOUS
 0
LINE
 8
WHITE
 10
3.2365
 20
2.546099
 30
0.0000
 11
3.1819
 21
2.5327
 31
0.0000
 6
CONTINUOUS
 0
LINE
 8
WHITE
 10
3.1819
 20
2.5327
 30
0.0000
 11
3.127399
 21
2.519099
 31
0.0000
 6
CONTINUOUS
 0
LINE
 8
WHITE
 10
3.127399
 20
2.519099
 30
0.0000
 11
3.072799
 21
2.505599
 31
0.0000
 6
CONTINUOUS
 0
LINE
 8
WHITE
 10
3.072799
 20
2.505599
 30
0.0000
 11
3.018199
 21
2.492
 31
0.0000
 6
CONTINUOUS
 0
LINE
 8
WHITE
 10
3.018199
 20
2.492
 30
0.0000
 11
2.9637
 21
2.4783
 31
0.0000
 6
CONTINUOUS
 0
LINE
 8
WHITE
 10
2.9637
 20
2.4783
 30
0.0000
 11
2.9091
 21
2.464699
 31
0.0000
 6
CONTINUOUS
 0
LINE
 8
WHITE
 10
2.9091
 20
2.464699
 30
0.0000
 11
2.854599
 21
2.450999
 31
0.0000
 6
CONTINUOUS
 0
LINE
 8
WHITE
 10
2.854599
 20
2.450999
 30
0.0000
 11
2.799999
 21
2.4372
 31
0.0000
 6
CONTINUOUS
 0
LINE
 8
WHITE
 10
2.799999
 20
2.4372
 30
0.0000
 11
2.7455
 21
2.4235
 31
0.0000
 6
CONTINUOUS
 0
LINE
 8
WHITE
 10
2.7455
 20
2.4235
 30
0.0000
 11
2.6909
 21
2.409699
 31
0.0000
 6
CONTINUOUS
 0
LINE
 8
WHITE
 10
2.6909
 20
2.409699
 30
0.0000
 11
2.636399
 21
2.3959
 31
0.0000
 6
CONTINUOUS
 0
LINE
 8
WHITE
 10
2.636399
 20
2.3959
 30
0.0000
 11
2.581799
 21
2.381999
 31
0.0000
 6
CONTINUOUS
 0
LINE
 8
WHITE
 10
2.581799
 20
2.381999
 30
0.0000
 11
2.527299
 21
2.368099
 31
0.0000
 6
CONTINUOUS
 0
LINE
 8
WHITE
 10
2.527299
 20
2.368099
 30
0.0000
 11
2.4182
 21
2.3403
 31
0.0000
 6
CONTINUOUS
 0
LINE
 8
WHITE
 10
2.4182
 20
2.3403
 30
0.0000
 11
2.309099
 21
2.3124
 31
0.0000
 6
CONTINUOUS
 0
LINE
 8
WHITE
 10
2.309099
 20
2.3124
 30
0.0000
 11
2.2
 21
2.284499
 31
0.0000
 6
CONTINUOUS
 0
LINE
 8
WHITE
 10
2.2
 20
2.284499
 30
0.0000
 11
1.872599
 21
2.2007
 31
0.0000
 6
CONTINUOUS
 0
LINE
 8
WHITE
 10
1.872599
 20
2.2007
 30
0.0000
 11
1.763499
 21
2.172699
 31
0.0000
 6
CONTINUOUS
 0
LINE
 8
WHITE
 10
1.763499
 20
2.172699
 30
0.0000
 11
1.654299
 21
2.144799
 31
0.0000
 6
CONTINUOUS
 0
LINE
 8
WHITE
 10
1.654299
 20
2.144799
 30
0.0000
 11
1.545199
 21
2.117
 31
0.0000
 6
CONTINUOUS
 0
LINE
 8
WHITE
 10
1.545199
 20
2.117
 30
0.0000
 11
1.437399
 21
2.089499
 31
0.0000
 6
CONTINUOUS
 0
ARC
 8
WHITE
 10
1.4377
 20
2.088
 30
 0
 40
.001529
 50
101.3099
 51
183.8192
 6
CONTINUOUS
 0
LINE
 8
WHITE
 10
1.4362
 20
2.087899
 30
0.0000
 11
1.4383
 21
2.0583
 31
0.0000
 6
CONTINUOUS
 0
LINE
 8
WHITE
 10
1.4383
 20
2.0583
 30
0.0000
 11
1.4464
 21
2.0287
 31
0.0000
 6
CONTINUOUS
 0
LINE
 8
WHITE
 10
1.4464
 20
2.0287
 30
0.0000
 11
1.4601
 21
2.0016
 31
0.0000
 6
CONTINUOUS
 0
ARC
 8
WHITE
 10
1.4615
 20
2.0023
 30
 0
 40
.001565
 50
206.565
 51
266.4231
 6
CONTINUOUS
 0
LINE
 8
WHITE
 10
1.4614
 20
2.000699
 30
0.0000
 11
1.535899
 21
1.9982
 31
0.0000
 6
CONTINUOUS
 0
LINE
 8
WHITE
 10
1.535899
 20
1.9982
 30
0.0000
 11
1.6114
 21
1.991999
 31
0.0000
 6
CONTINUOUS
 0
LINE
 8
WHITE
 10
1.6114
 20
1.991999
 30
0.0000
 11
1.686699
 21
1.9814
 31
0.0000
 6
CONTINUOUS
 0
LINE
 8
WHITE
 10
1.686699
 20
1.9814
 30
0.0000
 11
1.761899
 21
1.965899
 31
0.0000
 6
CONTINUOUS
 0
LINE
 8
WHITE
 10
1.761899
 20
1.965899
 30
0.0000
 11
2.525
 21
2.159699
 31
0.0000
 6
CONTINUOUS
 0
LINE
 8
WHITE
 10
2.525
 20
2.159699
 30
0.0000
 11
2.571399
 21
2.2102
 31
0.0000
 6
CONTINUOUS
 0
LINE
 8
WHITE
 10
2.571399
 20
2.2102
 30
0.0000
 11
2.6187
 21
2.2558
 31
0.0000
 6
CONTINUOUS
 0
LINE
 8
WHITE
 10
2.6187
 20
2.2558
 30
0.0000
 11
2.667299
 21
2.2957
 31
0.0000
 6
CONTINUOUS
 0
LINE
 8
WHITE
 10
2.667299
 20
2.2957
 30
0.0000
 11
2.7225
 21
2.3336
 31
0.0000
 6
CONTINUOUS
 0
LINE
 8
WHITE
 10
2.7225
 20
2.3336
 30
0.0000
 11
2.778199
 21
2.3652
 31
0.0000
 6
CONTINUOUS
 0
LINE
 8
WHITE
 10
2.778199
 20
2.3652
 30
0.0000
 11
2.834199
 21
2.3903
 31
0.0000
 6
CONTINUOUS
 0
LINE
 8
WHITE
 10
2.834199
 20
2.3903
 30
0.0000
 11
2.8903
 21
2.4086
 31
0.0000
 6
CONTINUOUS
 0
LINE
 8
WHITE
 10
2.8903
 20
2.4086
 30
0.0000
 11
2.9463
 21
2.4198
 31
0.0000
 6
CONTINUOUS
 0
LINE
 8
WHITE
 10
2.9463
 20
2.4198
 30
0.0000
 11
3.002
 21
2.4237
 31
0.0000
 6
CONTINUOUS
 0
LINE
 8
WHITE
 10
3.002
 20
2.4237
 30
0.0000
 11
3.056999
 21
2.4198
 31
0.0000
 6
CONTINUOUS
 0
LINE
 8
WHITE
 10
3.056999
 20
2.4198
 30
0.0000
 11
3.111299
 21
2.4079
 31
0.0000
 6
CONTINUOUS
 0
LINE
 8
WHITE
 10
3.111299
 20
2.4079
 30
0.0000
 11
3.164599
 21
2.3879
 31
0.0000
 6
CONTINUOUS
 0
LINE
 8
WHITE
 10
3.164599
 20
2.3879
 30
0.0000
 11
3.216799
 21
2.3592
 31
0.0000
 6
CONTINUOUS
 0
LINE
 8
WHITE
 10
3.216799
 20
2.3592
 30
0.0000
 11
3.2169
 21
2.3589
 31
0.0000
 6
CONTINUOUS
 0
LINE
 8
WHITE
 10
2.2097
 20
1.9398
 30
0.0000
 11
2.219099
 21
1.9016
 31
0.0000
 6
CONTINUOUS
 0
LINE
 8
WHITE
 10
2.219099
 20
1.9016
 30
0.0000
 11
2.269799
 21
1.9141
 31
0.0000
 6
CONTINUOUS
 0
LINE
 8
WHITE
 10
2.269799
 20
1.9141
 30
0.0000
 11
2.333499
 21
1.9296
 31
0.0000
 6
CONTINUOUS
 0
LINE
 8
WHITE
 10
2.333499
 20
1.9296
 30
0.0000
 11
2.397099
 21
1.945099
 31
0.0000
 6
CONTINUOUS
 0
LINE
 8
WHITE
 10
2.397099
 20
1.945099
 30
0.0000
 11
2.4591
 21
1.960199
 31
0.0000
 6
CONTINUOUS
 0
ARC
 8
WHITE
 10
2.4588
 20
1.961699
 30
 0
 40
.001529
 50
281.3099
 51
356.185
 6
CONTINUOUS
 0
LINE
 8
WHITE
 10
2.460299
 20
1.961599
 30
0.0000
 11
2.461999
 21
1.996999
 31
0.0000
 6
CONTINUOUS
 0
LINE
 8
WHITE
 10
2.461999
 20
1.996999
 30
0.0000
 11
2.4707
 21
2.032099
 31
0.0000
 6
CONTINUOUS
 0
LINE
 8
WHITE
 10
2.4707
 20
2.032099
 30
0.0000
 11
2.485899
 21
2.064699
 31
0.0000
 6
CONTINUOUS
 0
LINE
 8
WHITE
 10
2.485899
 20
2.064699
 30
0.0000
 11
2.424299
 21
2.050899
 31
0.0000
 6
CONTINUOUS
 0
LINE
 8
WHITE
 10
2.424299
 20
2.050899
 30
0.0000
 11
2.362099
 21
2.036299
 31
0.0000
 6
CONTINUOUS
 0
LINE
 8
WHITE
 10
2.362099
 20
2.036299
 30
0.0000
 11
2.299599
 21
2.0213
 31
0.0000
 6
CONTINUOUS
 0
LINE
 8
WHITE
 10
2.299599
 20
2.0213
 30
0.0000
 11
2.2369
 21
2.0058
 31
0.0000
 6
CONTINUOUS
 0
LINE
 8
WHITE
 10
2.2369
 20
2.0058
 30
0.0000
 11
2.174099
 21
1.989899
 31
0.0000
 6
CONTINUOUS
 0
LINE
 8
WHITE
 10
2.174099
 20
1.989899
 30
0.0000
 11
2.111299
 21
1.9737
 31
0.0000
 6
CONTINUOUS
 0
LINE
 8
WHITE
 10
2.111299
 20
1.9737
 30
0.0000
 11
2.0485
 21
1.9572
 31
0.0000
 6
CONTINUOUS
 0
LINE
 8
WHITE
 10
2.0485
 20
1.9572
 30
0.0000
 11
1.985999
 21
1.9407
 31
0.0000
 6
CONTINUOUS
 0
LINE
 8
WHITE
 10
1.985999
 20
1.9407
 30
0.0000
 11
1.923699
 21
1.924
 31
0.0000
 6
CONTINUOUS
 0
LINE
 8
WHITE
 10
1.923699
 20
1.924
 30
0.0000
 11
1.8621
 21
1.9075
 31
0.0000
 6
CONTINUOUS
 0
LINE
 8
WHITE
 10
1.8621
 20
1.9075
 30
0.0000
 11
1.893399
 21
1.8838
 31
0.0000
 6
CONTINUOUS
 0
LINE
 8
WHITE
 10
1.893399
 20
1.8838
 30
0.0000
 11
1.923699
 21
1.8601
 31
0.0000
 6
CONTINUOUS
 0
LINE
 8
WHITE
 10
1.923699
 20
1.8601
 30
0.0000
 11
1.951799
 21
1.8364
 31
0.0000
 6
CONTINUOUS
 0
LINE
 8
WHITE
 10
1.951799
 20
1.8364
 30
0.0000
 11
2.014899
 21
1.851699
 31
0.0000
 6
CONTINUOUS
 0
LINE
 8
WHITE
 10
2.014899
 20
1.851699
 30
0.0000
 11
2.0785
 21
1.8672
 31
0.0000
 6
CONTINUOUS
 0
LINE
 8
WHITE
 10
2.0785
 20
1.8672
 30
0.0000
 11
2.142199
 21
1.882799
 31
0.0000
 6
CONTINUOUS
 0
LINE
 8
WHITE
 10
2.142199
 20
1.882799
 30
0.0000
 11
2.219099
 21
1.9016
 31
0.0000
 6
CONTINUOUS
 0
LINE
 8
WHITE
 10
2.219099
 20
1.9016
 30
0.0000
 11
2.2193
 21
1.901999
 31
0.0000
 6
CONTINUOUS
 0
LINE
 8
WHITE
 10
2.7388
 20
1.8421
 30
0.0000
 11
2.6798
 21
1.838799
 31
0.0000
 6
CONTINUOUS
 0
LINE
 8
WHITE
 10
2.6798
 20
1.838799
 30
0.0000
 11
2.681499
 21
1.8092
 31
0.0000
 6
CONTINUOUS
 0
LINE
 8
WHITE
 10
2.681499
 20
1.8092
 30
0.0000
 11
2.6942
 21
1.753299
 31
0.0000
 6
CONTINUOUS
 0
LINE
 8
WHITE
 10
2.6942
 20
1.753299
 30
0.0000
 11
2.7153
 21
1.7015
 31
0.0000
 6
CONTINUOUS
 0
LINE
 8
WHITE
 10
2.7153
 20
1.7015
 30
0.0000
 11
2.7441
 21
1.6547
 31
0.0000
 6
CONTINUOUS
 0
LINE
 8
WHITE
 10
2.7441
 20
1.6547
 30
0.0000
 11
2.7797
 21
1.614099
 31
0.0000
 6
CONTINUOUS
 0
LINE
 8
WHITE
 10
2.7797
 20
1.614099
 30
0.0000
 11
2.8213
 21
1.580399
 31
0.0000
 6
CONTINUOUS
 0
LINE
 8
WHITE
 10
2.8213
 20
1.580399
 30
0.0000
 11
2.867899
 21
1.5548
 31
0.0000
 6
CONTINUOUS
 0
LINE
 8
WHITE
 10
2.867899
 20
1.5548
 30
0.0000
 11
2.9189
 21
1.5381
 31
0.0000
 6
CONTINUOUS
 0
LINE
 8
WHITE
 10
2.9189
 20
1.5381
 30
0.0000
 11
2.973299
 21
1.531299
 31
0.0000
 6
CONTINUOUS
 0
LINE
 8
WHITE
 10
2.973299
 20
1.531299
 30
0.0000
 11
3.027899
 21
1.535199
 31
0.0000
 6
CONTINUOUS
 0
LINE
 8
WHITE
 10
3.027899
 20
1.535199
 30
0.0000
 11
3.079699
 21
1.5491
 31
0.0000
 6
CONTINUOUS
 0
LINE
 8
WHITE
 10
3.079699
 20
1.5491
 30
0.0000
 11
3.1277
 21
1.572199
 31
0.0000
 6
CONTINUOUS
 0
LINE
 8
WHITE
 10
3.1277
 20
1.572199
 30
0.0000
 11
3.171
 21
1.6035
 31
0.0000
 6
CONTINUOUS
 0
LINE
 8
WHITE
 10
3.171
 20
1.6035
 30
0.0000
 11
3.208699
 21
1.642199
 31
0.0000
 6
CONTINUOUS
 0
LINE
 8
WHITE
 10
3.208699
 20
1.642199
 30
0.0000
 11
3.24
 21
1.687299
 31
0.0000
 6
CONTINUOUS
 0
LINE
 8
WHITE
 10
3.24
 20
1.687299
 30
0.0000
 11
3.2639
 21
1.7379
 31
0.0000
 6
CONTINUOUS
 0
LINE
 8
WHITE
 10
3.2639
 20
1.7379
 30
0.0000
 11
3.279599
 21
1.793099
 31
0.0000
 6
CONTINUOUS
 0
LINE
 8
WHITE
 10
3.279599
 20
1.793099
 30
0.0000
 11
3.286099
 21
1.851999
 31
0.0000
 6
CONTINUOUS
 0
LINE
 8
WHITE
 10
3.286099
 20
1.851999
 30
0.0000
 11
3.2827
 21
1.9111
 31
0.0000
 6
CONTINUOUS
 0
LINE
 8
WHITE
 10
3.2827
 20
1.9111
 30
0.0000
 11
3.2701
 21
1.967
 31
0.0000
 6
CONTINUOUS
 0
LINE
 8
WHITE
 10
3.2701
 20
1.967
 30
0.0000
 11
3.248899
 21
2.018899
 31
0.0000
 6
CONTINUOUS
 0
LINE
 8
WHITE
 10
3.248899
 20
2.018899
 30
0.0000
 11
3.2202
 21
2.0655
 31
0.0000
 6
CONTINUOUS
 0
LINE
 8
WHITE
 10
3.2202
 20
2.0655
 30
0.0000
 11
3.184499
 21
2.106199
 31
0.0000
 6
CONTINUOUS
 0
LINE
 8
WHITE
 10
3.184499
 20
2.106199
 30
0.0000
 11
3.142999
 21
2.1398
 31
0.0000
 6
CONTINUOUS
 0
LINE
 8
WHITE
 10
3.142999
 20
2.1398
 30
0.0000
 11
3.096299
 21
2.165499
 31
0.0000
 6
CONTINUOUS
 0
LINE
 8
WHITE
 10
3.096299
 20
2.165499
 30
0.0000
 11
3.0453
 21
2.182199
 31
0.0000
 6
CONTINUOUS
 0
LINE
 8
WHITE
 10
3.0453
 20
2.182199
 30
0.0000
 11
2.990999
 21
2.188999
 31
0.0000
 6
CONTINUOUS
 0
LINE
 8
WHITE
 10
2.990999
 20
2.188999
 30
0.0000
 11
2.9363
 21
2.1851
 31
0.0000
 6
CONTINUOUS
 0
LINE
 8
WHITE
 10
2.9363
 20
2.1851
 30
0.0000
 11
2.884599
 21
2.1712
 31
0.0000
 6
CONTINUOUS
 0
LINE
 8
WHITE
 10
2.884599
 20
2.1712
 30
0.0000
 11
2.8366
 21
2.148099
 31
0.0000
 6
CONTINUOUS
 0
LINE
 8
WHITE
 10
2.8366
 20
2.148099
 30
0.0000
 11
2.793299
 21
2.116699
 31
0.0000
 6
CONTINUOUS
 0
LINE
 8
WHITE
 10
2.793299
 20
2.116699
 30
0.0000
 11
2.7555
 21
2.078099
 31
0.0000
 6
CONTINUOUS
 0
LINE
 8
WHITE
 10
2.7555
 20
2.078099
 30
0.0000
 11
2.7242
 21
2.0329
 31
0.0000
 6
CONTINUOUS
 0
LINE
 8
WHITE
 10
2.7242
 20
2.0329
 30
0.0000
 11
2.700299
 21
1.982399
 31
0.0000
 6
CONTINUOUS
 0
LINE
 8
WHITE
 10
2.700299
 20
1.982399
 30
0.0000
 11
2.6847
 21
1.927199
 31
0.0000
 6
CONTINUOUS
 0
LINE
 8
WHITE
 10
2.6847
 20
1.927199
 30
0.0000
 11
2.6782
 21
1.868299
 31
0.0000
 6
CONTINUOUS
 0
LINE
 8
WHITE
 10
2.6782
 20
1.868299
 30
0.0000
 11
2.6798
 21
1.838799
 31
0.0000
 6
CONTINUOUS
 0
LINE
 8
WHITE
 10
2.6798
 20
1.838799
 30
0.0000
 11
2.680099
 21
1.8385
 31
0.0000
 6
CONTINUOUS
 0
LINE
 8
WHITE
 10
2.2555
 20
1.8005
 30
0.0000
 11
2.2644
 21
1.762099
 31
0.0000
 6
CONTINUOUS
 0
LINE
 8
WHITE
 10
2.2644
 20
1.762099
 30
0.0000
 11
2.3222
 21
1.7755
 31
0.0000
 6
CONTINUOUS
 0
LINE
 8
WHITE
 10
2.3222
 20
1.7755
 30
0.0000
 11
2.384399
 21
1.7898
 31
0.0000
 6
CONTINUOUS
 0
LINE
 8
WHITE
 10
2.384399
 20
1.7898
 30
0.0000
 11
2.4453
 21
1.803599
 31
0.0000
 6
CONTINUOUS
 0
ARC
 8
WHITE
 10
2.445
 20
1.805099
 30
 0
 40
.001529
 50
281.3099
 51
0
 6
CONTINUOUS
 0
LINE
 8
WHITE
 10
2.4465
 20
1.805099
 30
0.0000
 11
2.447499
 21
1.830399
 31
0.0000
 6
CONTINUOUS
 0
LINE
 8
WHITE
 10
2.447499
 20
1.830399
 30
0.0000
 11
2.449399
 21
1.8578
 31
0.0000
 6
CONTINUOUS
 0
LINE
 8
WHITE
 10
2.449399
 20
1.8578
 30
0.0000
 11
2.4505
 21
1.885599
 31
0.0000
 6
CONTINUOUS
 0
ARC
 8
WHITE
 10
2.449
 20
1.8858
 30
 0
 40
.001513
 50
352.4054
 51
105.948
 6
CONTINUOUS
 0
LINE
 8
WHITE
 10
2.4486
 20
1.887199
 30
0.0000
 11
2.3893
 21
1.874699
 31
0.0000
 6
CONTINUOUS
 0
LINE
 8
WHITE
 10
2.3893
 20
1.874699
 30
0.0000
 11
2.327199
 21
1.8609
 31
0.0000
 6
CONTINUOUS
 0
LINE
 8
WHITE
 10
2.327199
 20
1.8609
 30
0.0000
 11
2.2646
 21
1.8465
 31
0.0000
 6
CONTINUOUS
 0
LINE
 8
WHITE
 10
2.2646
 20
1.8465
 30
0.0000
 11
2.2018
 21
1.8314
 31
0.0000
 6
CONTINUOUS
 0
LINE
 8
WHITE
 10
2.2018
 20
1.8314
 30
0.0000
 11
2.139199
 21
1.8157
 31
0.0000
 6
CONTINUOUS
 0
LINE
 8
WHITE
 10
2.139199
 20
1.8157
 30
0.0000
 11
2.076999
 21
1.799399
 31
0.0000
 6
CONTINUOUS
 0
LINE
 8
WHITE
 10
2.076999
 20
1.799399
 30
0.0000
 11
2.017699
 21
1.7833
 31
0.0000
 6
CONTINUOUS
 0
ARC
 8
WHITE
 10
2.017999
 20
1.7822
 30
 0
 40
.00114
 50
105.2551
 51
228.3749
 6
CONTINUOUS
 0
LINE
 8
WHITE
 10
2.017199
 20
1.781299
 30
0.0000
 11
2.036299
 21
1.762899
 31
0.0000
 6
CONTINUOUS
 0
LINE
 8
WHITE
 10
2.036299
 20
1.762899
 30
0.0000
 11
2.0557
 21
1.7416
 31
0.0000
 6
CONTINUOUS
 0
LINE
 8
WHITE
 10
2.0557
 20
1.7416
 30
0.0000
 11
2.0724
 21
1.719099
 31
0.0000
 6
CONTINUOUS
 0
ARC
 8
WHITE
 10
2.0736
 20
1.72
 30
 0
 40
.0015
 50
216.8699
 51
284.9252
 6
CONTINUOUS
 0
LINE
 8
WHITE
 10
2.073999
 20
1.7185
 30
0.0000
 11
2.134999
 21
1.732399
 31
0.0000
 6
CONTINUOUS
 0
LINE
 8
WHITE
 10
2.134999
 20
1.732399
 30
0.0000
 11
2.197299
 21
1.7467
 31
0.0000
 6
CONTINUOUS
 0
LINE
 8
WHITE
 10
2.197299
 20
1.7467
 30
0.0000
 11
2.2644
 21
1.762099
 31
0.0000
 6
CONTINUOUS
 0
LINE
 8
WHITE
 10
2.2644
 20
1.762099
 30
0.0000
 11
2.2646
 21
1.7625
 31
0.0000
 6
CONTINUOUS
 0
LINE
 8
WHITE
 10
2.3545
 20
1.559
 30
0.0000
 11
2.368499
 21
1.5017
 31
0.0000
 6
CONTINUOUS
 0
LINE
 8
WHITE
 10
2.368499
 20
1.5017
 30
0.0000
 11
2.5216
 21
1.5391
 31
0.0000
 6
CONTINUOUS
 0
ARC
 8
WHITE
 10
2.5213
 20
1.5406
 30
 0
 40
.001529
 50
281.3099
 51
28.30326
 6
CONTINUOUS
 0
LINE
 8
WHITE
 10
2.522599
 20
1.5413
 30
0.0000
 11
2.4951
 21
1.597599
 31
0.0000
 6
CONTINUOUS
 0
LINE
 8
WHITE
 10
2.4951
 20
1.597599
 30
0.0000
 11
2.476999
 21
1.660599
 31
0.0000
 6
CONTINUOUS
 0
LINE
 8
WHITE
 10
2.476999
 20
1.660599
 30
0.0000
 11
2.4695
 21
1.7265
 31
0.0000
 6
CONTINUOUS
 0
ARC
 8
WHITE
 10
2.468
 20
1.7264
 30
 0
 40
.001503
 50
3.814074
 51
104.9337
 6
CONTINUOUS
 0
LINE
 8
WHITE
 10
2.4676
 20
1.7279
 30
0.0000
 11
2.117199
 21
1.6503
 31
0.0000
 6
CONTINUOUS
 0
ARC
 8
WHITE
 10
2.117399
 20
1.6492
 30
 0
 40
.001118
 50
100.3048
 51
221.6373
 6
CONTINUOUS
 0
LINE
 8
WHITE
 10
2.116499
 20
1.648399
 30
0.0000
 11
2.135799
 21
1.6231
 31
0.0000
 6
CONTINUOUS
 0
LINE
 8
WHITE
 10
2.135799
 20
1.6231
 30
0.0000
 11
2.1537
 21
1.594099
 31
0.0000
 6
CONTINUOUS
 0
LINE
 8
WHITE
 10
2.1537
 20
1.594099
 30
0.0000
 11
2.165699
 21
1.562
 31
0.0000
 6
CONTINUOUS
 0
LINE
 8
WHITE
 10
2.165699
 20
1.562
 30
0.0000
 11
2.175899
 21
1.5303
 31
0.0000
 6
CONTINUOUS
 0
LINE
 8
WHITE
 10
2.175899
 20
1.5303
 30
0.0000
 11
2.1918
 21
1.497699
 31
0.0000
 6
CONTINUOUS
 0
LINE
 8
WHITE
 10
2.1918
 20
1.497699
 30
0.0000
 11
2.212899
 21
1.464699
 31
0.0000
 6
CONTINUOUS
 0
ARC
 8
WHITE
 10
2.2142
 20
1.465499
 30
 0
 40
.001526
 50
211.6075
 51
284.9337
 6
CONTINUOUS
 0
LINE
 8
WHITE
 10
2.2146
 20
1.463999
 30
0.0000
 11
2.368499
 21
1.5017
 31
0.0000
 6
CONTINUOUS
 0
LINE
 8
WHITE
 10
2.368499
 20
1.5017
 30
0.0000
 11
2.3687
 21
1.501999
 31
0.0000
 6
CONTINUOUS
 0
LINE
 8
WHITE
 10
3.715199
 20
1.504999
 30
0.0000
 11
3.7039
 21
1.562999
 31
0.0000
 6
CONTINUOUS
 0
LINE
 8
WHITE
 10
3.7039
 20
1.562999
 30
0.0000
 11
3.3668
 21
1.497699
 31
0.0000
 6
CONTINUOUS
 0
LINE
 8
WHITE
 10
3.3668
 20
1.497699
 30
0.0000
 11
3.3247
 21
1.452999
 31
0.0000
 6
CONTINUOUS
 0
LINE
 8
WHITE
 10
3.3247
 20
1.452999
 30
0.0000
 11
3.2815
 21
1.4132
 31
0.0000
 6
CONTINUOUS
 0
LINE
 8
WHITE
 10
3.2815
 20
1.4132
 30
0.0000
 11
3.236999
 21
1.378499
 31
0.0000
 6
CONTINUOUS
 0
LINE
 8
WHITE
 10
3.236999
 20
1.378499
 30
0.0000
 11
3.191099
 21
1.3493
 31
0.0000
 6
CONTINUOUS
 0
LINE
 8
WHITE
 10
3.191099
 20
1.3493
 30
0.0000
 11
3.143899
 21
1.325799
 31
0.0000
 6
CONTINUOUS
 0
LINE
 8
WHITE
 10
3.143899
 20
1.325799
 30
0.0000
 11
3.0952
 21
1.3083
 31
0.0000
 6
CONTINUOUS
 0
LINE
 8
WHITE
 10
3.0952
 20
1.3083
 30
0.0000
 11
3.045
 21
1.297099
 31
0.0000
 6
CONTINUOUS
 0
LINE
 8
WHITE
 10
3.045
 20
1.297099
 30
0.0000
 11
2.993099
 21
1.2924
 31
0.0000
 6
CONTINUOUS
 0
LINE
 8
WHITE
 10
2.993099
 20
1.2924
 30
0.0000
 11
2.939699
 21
1.2946
 31
0.0000
 6
CONTINUOUS
 0
LINE
 8
WHITE
 10
2.939699
 20
1.2946
 30
0.0000
 11
2.884399
 21
1.303799
 31
0.0000
 6
CONTINUOUS
 0
LINE
 8
WHITE
 10
2.884399
 20
1.303799
 30
0.0000
 11
2.827399
 21
1.3205
 31
0.0000
 6
CONTINUOUS
 0
LINE
 8
WHITE
 10
2.827399
 20
1.3205
 30
0.0000
 11
2.7685
 21
1.344799
 31
0.0000
 6
CONTINUOUS
 0
LINE
 8
WHITE
 10
2.7685
 20
1.344799
 30
0.0000
 11
2.707799
 21
1.376999
 31
0.0000
 6
CONTINUOUS
 0
LINE
 8
WHITE
 10
2.707799
 20
1.376999
 30
0.0000
 11
2.635299
 21
1.360399
 31
0.0000
 6
CONTINUOUS
 0
LINE
 8
WHITE
 10
2.635299
 20
1.360399
 30
0.0000
 11
2.562799
 21
1.344599
 31
0.0000
 6
CONTINUOUS
 0
LINE
 8
WHITE
 10
2.562799
 20
1.344599
 30
0.0000
 11
2.490299
 21
1.329599
 31
0.0000
 6
CONTINUOUS
 0
LINE
 8
WHITE
 10
2.490299
 20
1.329599
 30
0.0000
 11
2.417799
 21
1.315199
 31
0.0000
 6
CONTINUOUS
 0
LINE
 8
WHITE
 10
2.417799
 20
1.315199
 30
0.0000
 11
2.346699
 21
1.301499
 31
0.0000
 6
CONTINUOUS
 0
ARC
 8
WHITE
 10
2.346999
 20
1.299999
 30
 0
 40
.001529
 50
101.3099
 51
180
 6
CONTINUOUS
 0
LINE
 8
WHITE
 10
2.3454
 20
1.299999
 30
0.0000
 11
2.344799
 21
1.281399
 31
0.0000
 6
CONTINUOUS
 0
LINE
 8
WHITE
 10
2.344799
 20
1.281399
 30
0.0000
 11
2.3394
 21
1.2625
 31
0.0000
 6
CONTINUOUS
 0
LINE
 8
WHITE
 10
2.3394
 20
1.2625
 30
0.0000
 11
2.3196
 21
1.246999
 31
0.0000
 6
CONTINUOUS
 0
LINE
 8
WHITE
 10
2.3196
 20
1.246999
 30
0.0000
 11
2.315
 21
1.226799
 31
0.0000
 6
CONTINUOUS
 0
LINE
 8
WHITE
 10
2.315
 20
1.226799
 30
0.0000
 11
2.358799
 21
1.0384
 31
0.0000
 6
CONTINUOUS
 0
LINE
 8
WHITE
 10
2.358799
 20
1.0384
 30
0.0000
 11
2.3645
 21
1.023699
 31
0.0000
 6
CONTINUOUS
 0
LINE
 8
WHITE
 10
2.3645
 20
1.023699
 30
0.0000
 11
2.3703
 21
1.012799
 31
0.0000
 6
CONTINUOUS
 0
LINE
 8
WHITE
 10
2.3703
 20
1.012799
 30
0.0000
 11
2.375499
 21
1.006199
 31
0.0000
 6
CONTINUOUS
 0
ARC
 8
WHITE
 10
2.376699
 20
1.007099
 30
 0
 40
.0015
 50
216.8699
 51
285.948
 6
CONTINUOUS
 0
LINE
 8
WHITE
 10
2.377099
 20
1.005699
 30
0.0000
 11
3.416599
 21
1.232499
 31
0.0000
 6
CONTINUOUS
 0
LINE
 8
WHITE
 10
3.416599
 20
1.232499
 30
0.0000
 11
5.3333
 21
1.650599
 31
0.0000
 6
CONTINUOUS
 0
LINE
 8
WHITE
 10
5.3333
 20
1.650599
 30
0.0000
 11
5.2863
 21
1.680699
 31
0.0000
 6
CONTINUOUS
 0
LINE
 8
WHITE
 10
5.2863
 20
1.680699
 30
0.0000
 11
5.231999
 21
1.728099
 31
0.0000
 6
CONTINUOUS
 0
LINE
 8
WHITE
 10
5.231999
 20
1.728099
 30
0.0000
 11
5.173099
 21
1.7833
 31
0.0000
 6
CONTINUOUS
 0
LINE
 8
WHITE
 10
5.173099
 20
1.7833
 30
0.0000
 11
5.112599
 21
1.837599
 31
0.0000
 6
CONTINUOUS
 0
LINE
 8
WHITE
 10
5.112599
 20
1.837599
 30
0.0000
 11
4.6964
 21
1.7594
 31
0.0000
 6
CONTINUOUS
 0
ARC
 8
WHITE
 10
4.696599
 20
1.757899
 30
 0
 40
.001513
 50
97.59464
 51
168.6892
 6
CONTINUOUS
 0
LINE
 8
WHITE
 10
4.695099
 20
1.7582
 30
0.0000
 11
4.686399
 21
1.71
 31
0.0000
 6
CONTINUOUS
 0
LINE
 8
WHITE
 10
4.686399
 20
1.71
 30
0.0000
 11
4.6633
 21
1.6611
 31
0.0000
 6
CONTINUOUS
 0
LINE
 8
WHITE
 10
4.6633
 20
1.6611
 30
0.0000
 11
4.618
 21
1.612699
 31
0.0000
 6
CONTINUOUS
 0
LINE
 8
WHITE
 10
4.618
 20
1.612699
 30
0.0000
 11
4.5489
 21
1.577
 31
0.0000
 6
CONTINUOUS
 0
LINE
 8
WHITE
 10
4.5489
 20
1.577
 30
0.0000
 11
4.4783
 21
1.5504
 31
0.0000
 6
CONTINUOUS
 0
LINE
 8
WHITE
 10
4.4783
 20
1.5504
 30
0.0000
 11
4.406099
 21
1.532799
 31
0.0000
 6
CONTINUOUS
 0
LINE
 8
WHITE
 10
4.406099
 20
1.532799
 30
0.0000
 11
4.342299
 21
1.5261
 31
0.0000
 6
CONTINUOUS
 0
LINE
 8
WHITE
 10
4.342299
 20
1.5261
 30
0.0000
 11
4.2772
 21
1.524099
 31
0.0000
 6
CONTINUOUS
 0
LINE
 8
WHITE
 10
4.2772
 20
1.524099
 30
0.0000
 11
4.210299
 21
1.5274
 31
0.0000
 6
CONTINUOUS
 0
LINE
 8
WHITE
 10
4.210299
 20
1.5274
 30
0.0000
 11
4.1416
 21
1.537099
 31
0.0000
 6
CONTINUOUS
 0
LINE
 8
WHITE
 10
4.1416
 20
1.537099
 30
0.0000
 11
4.0706
 21
1.5541
 31
0.0000
 6
CONTINUOUS
 0
LINE
 8
WHITE
 10
4.0706
 20
1.5541
 30
0.0000
 11
4.037399
 21
1.566699
 31
0.0000
 6
CONTINUOUS
 0
LINE
 8
WHITE
 10
4.037399
 20
1.566699
 30
0.0000
 11
4.002699
 21
1.586699
 31
0.0000
 6
CONTINUOUS
 0
LINE
 8
WHITE
 10
4.002699
 20
1.586699
 30
0.0000
 11
3.966399
 21
1.613899
 31
0.0000
 6
CONTINUOUS
 0
LINE
 8
WHITE
 10
3.966399
 20
1.613899
 30
0.0000
 11
3.7039
 21
1.562999
 31
0.0000
 6
CONTINUOUS
 0
LINE
 8
WHITE
 10
3.7039
 20
1.562999
 30
0.0000
 11
3.7037
 21
1.5627
 31
0.0000
 6
CONTINUOUS
 0
LINE
 8
WHITE
 10
2.1266
 20
1.015699
 30
0.0000
 11
2.1386
 21
.957899
 31
0.0000
 6
CONTINUOUS
 0
LINE
 8
WHITE
 10
2.1386
 20
.957899
 30
0.0000
 11
2.2801
 21
.9872
 31
0.0000
 6
CONTINUOUS
 0
ARC
 8
WHITE
 10
2.2798
 20
.9887
 30
 0
 40
.001529
 50
281.3099
 51
18.43495
 6
CONTINUOUS
 0
LINE
 8
WHITE
 10
2.2813
 20
.989199
 30
0.0000
 11
2.2172
 21
1.237599
 31
0.0000
 6
CONTINUOUS
 0
LINE
 8
WHITE
 10
2.2172
 20
1.237599
 30
0.0000
 11
2.2153
 21
1.2414
 31
0.0000
 6
CONTINUOUS
 0
LINE
 8
WHITE
 10
2.2153
 20
1.2414
 30
0.0000
 11
2.207999
 21
1.2436
 31
0.0000
 6
CONTINUOUS
 0
LINE
 8
WHITE
 10
2.207999
 20
1.2436
 30
0.0000
 11
2.195199
 21
1.244199
 31
0.0000
 6
CONTINUOUS
 0
LINE
 8
WHITE
 10
2.195199
 20
1.244199
 30
0.0000
 11
2.1507
 21
1.2379
 31
0.0000
 6
CONTINUOUS
 0
LINE
 8
WHITE
 10
2.1507
 20
1.2379
 30
0.0000
 11
2.104199
 21
1.2263
 31
0.0000
 6
CONTINUOUS
 0
LINE
 8
WHITE
 10
2.104199
 20
1.2263
 30
0.0000
 11
2.0569
 21
1.209599
 31
0.0000
 6
CONTINUOUS
 0
ARC
 8
WHITE
 10
2.057399
 20
1.208199
 30
 0
 40
.001486
 50
109.6538
 51
180
 6
CONTINUOUS
 0
LINE
 8
WHITE
 10
2.0559
 20
1.208199
 30
0.0000
 11
2.0518
 21
1.1387
 31
0.0000
 6
CONTINUOUS
 0
LINE
 8
WHITE
 10
2.0518
 20
1.1387
 30
0.0000
 11
2.0399
 21
1.0683
 31
0.0000
 6
CONTINUOUS
 0
LINE
 8
WHITE
 10
2.0399
 20
1.0683
 30
0.0000
 11
2.0209
 21
.998
 31
0.0000
 6
CONTINUOUS
 0
LINE
 8
WHITE
 10
2.0209
 20
.998
 30
0.0000
 11
1.995499
 21
.9282
 31
0.0000
 6
CONTINUOUS
 0
LINE
 8
WHITE
 10
1.995499
 20
.9282
 30
0.0000
 11
2.1386
 21
.957899
 31
0.0000
 6
CONTINUOUS
 0
LINE
 8
WHITE
 10
2.1386
 20
.957899
 30
0.0000
 11
2.138799
 21
.958199
 31
0.0000
 6
CONTINUOUS
 0
LINE
 8
WHITE
 10
3.3171
 20
1.020799
 30
0.0000
 11
3.304899
 21
1.0786
 31
0.0000
 6
CONTINUOUS
 0
LINE
 8
WHITE
 10
3.304899
 20
1.0786
 30
0.0000
 11
1.8881
 21
.7784
 31
0.0000
 6
CONTINUOUS
 0
LINE
 8
WHITE
 10
1.8881
 20
.7784
 30
0.0000
 11
1.8443
 21
.737299
 31
0.0000
 6
CONTINUOUS
 0
LINE
 8
WHITE
 10
1.8443
 20
.737299
 30
0.0000
 11
1.799
 21
.7012
 31
0.0000
 6
CONTINUOUS
 0
LINE
 8
WHITE
 10
1.799
 20
.7012
 30
0.0000
 11
1.751999
 21
.670499
 31
0.0000
 6
CONTINUOUS
 0
LINE
 8
WHITE
 10
1.751999
 20
.670499
 30
0.0000
 11
1.703299
 21
.645399
 31
0.0000
 6
CONTINUOUS
 0
LINE
 8
WHITE
 10
1.703299
 20
.645399
 30
0.0000
 11
1.652799
 21
.626399
 31
0.0000
 6
CONTINUOUS
 0
LINE
 8
WHITE
 10
1.652799
 20
.626399
 30
0.0000
 11
1.600399
 21
.613699
 31
0.0000
 6
CONTINUOUS
 0
LINE
 8
WHITE
 10
1.600399
 20
.613699
 30
0.0000
 11
1.545899
 21
.6078
 31
0.0000
 6
CONTINUOUS
 0
LINE
 8
WHITE
 10
1.545899
 20
.6078
 30
0.0000
 11
1.489199
 21
.608799
 31
0.0000
 6
CONTINUOUS
 0
LINE
 8
WHITE
 10
1.489199
 20
.608799
 30
0.0000
 11
1.4304
 21
.6172
 31
0.0000
 6
CONTINUOUS
 0
LINE
 8
WHITE
 10
1.4304
 20
.6172
 30
0.0000
 11
1.369199
 21
.6333
 31
0.0000
 6
CONTINUOUS
 0
LINE
 8
WHITE
 10
1.369199
 20
.6333
 30
0.0000
 11
1.3056
 21
.6574
 31
0.0000
 6
CONTINUOUS
 0
LINE
 8
WHITE
 10
1.3056
 20
.6574
 30
0.0000
 11
1.1911
 21
.632799
 31
0.0000
 6
CONTINUOUS
 0
LINE
 8
WHITE
 10
1.1911
 20
.632799
 30
0.0000
 11
.217999
 21
.4239
 31
0.0000
 6
CONTINUOUS
 0
ARC
 8
WHITE
 10
.218299
 20
.422399
 30
 0
 40
.001529
 50
101.3099
 51
180
 6
CONTINUOUS
 0
LINE
 8
WHITE
 10
.2168
 20
.422399
 30
0.0000
 11
.2168
 21
.263999
 31
0.0000
 6
CONTINUOUS
 0
ARC
 8
WHITE
 10
.218299
 20
.263999
 30
 0
 40
.0015
 50
180
 51
270
 6
CONTINUOUS
 0
LINE
 8
WHITE
 10
.218299
 20
.2624
 30
0.0000
 11
.592
 21
.2624
 31
0.0000
 6
CONTINUOUS
 0
LINE
 8
WHITE
 10
.592
 20
.2624
 30
0.0000
 11
3.864799
 21
.9143
 31
0.0000
 6
CONTINUOUS
 0
LINE
 8
WHITE
 10
3.864799
 20
.9143
 30
0.0000
 11
5.216199
 21
1.1835
 31
0.0000
 6
CONTINUOUS
 0
LINE
 8
WHITE
 10
5.216199
 20
1.1835
 30
0.0000
 11
6.3512
 21
1.4095
 31
0.0000
 6
CONTINUOUS
 0
LINE
 8
WHITE
 10
6.3512
 20
1.4095
 30
0.0000
 11
6.382299
 21
1.491
 31
0.0000
 6
CONTINUOUS
 0
LINE
 8
WHITE
 10
6.382299
 20
1.491
 30
0.0000
 11
6.427299
 21
1.5468
 31
0.0000
 6
CONTINUOUS
 0
LINE
 8
WHITE
 10
6.427299
 20
1.5468
 30
0.0000
 11
6.4861
 21
1.5769
 31
0.0000
 6
CONTINUOUS
 0
LINE
 8
WHITE
 10
6.4861
 20
1.5769
 30
0.0000
 11
6.538499
 21
1.633999
 31
0.0000
 6
CONTINUOUS
 0
LINE
 8
WHITE
 10
6.538499
 20
1.633999
 30
0.0000
 11
6.602499
 21
1.666499
 31
0.0000
 6
CONTINUOUS
 0
LINE
 8
WHITE
 10
6.602499
 20
1.666499
 30
0.0000
 11
6.676099
 21
1.6784
 31
0.0000
 6
CONTINUOUS
 0
LINE
 8
WHITE
 10
6.676099
 20
1.6784
 30
0.0000
 11
6.756
 21
1.673599
 31
0.0000
 6
CONTINUOUS
 0
ARC
 8
WHITE
 10
6.756199
 20
1.675099
 30
 0
 40
.001513
 50
262.4054
 51
348.6936
 6
CONTINUOUS
 0
LINE
 8
WHITE
 10
6.757699
 20
1.6748
 30
0.0000
 11
6.7719
 21
1.7429
 31
0.0000
 6
CONTINUOUS
 0
LINE
 8
WHITE
 10
6.7719
 20
1.7429
 30
0.0000
 11
6.8115
 21
1.800899
 31
0.0000
 6
CONTINUOUS
 0
LINE
 8
WHITE
 10
6.8115
 20
1.800899
 30
0.0000
 11
6.8755
 21
1.847
 31
0.0000
 6
CONTINUOUS
 0
LINE
 8
WHITE
 10
6.8755
 20
1.847
 30
0.0000
 11
6.392799
 21
1.738
 31
0.0000
 6
CONTINUOUS
 0
LINE
 8
WHITE
 10
6.392799
 20
1.738
 30
0.0000
 11
6.3424
 21
1.704599
 31
0.0000
 6
CONTINUOUS
 0
LINE
 8
WHITE
 10
6.3424
 20
1.704599
 30
0.0000
 11
6.2841
 21
1.6796
 31
0.0000
 6
CONTINUOUS
 0
LINE
 8
WHITE
 10
6.2841
 20
1.6796
 30
0.0000
 11
6.217199
 21
1.663499
 31
0.0000
 6
CONTINUOUS
 0
LINE
 8
WHITE
 10
6.217199
 20
1.663499
 30
0.0000
 11
6.1412
 21
1.657199
 31
0.0000
 6
CONTINUOUS
 0
LINE
 8
WHITE
 10
6.1412
 20
1.657199
 30
0.0000
 11
6.0553
 21
1.661299
 31
0.0000
 6
CONTINUOUS
 0
LINE
 8
WHITE
 10
6.0553
 20
1.661299
 30
0.0000
 11
5.784699
 21
1.603999
 31
0.0000
 6
CONTINUOUS
 0
LINE
 8
WHITE
 10
5.784699
 20
1.603999
 30
0.0000
 11
3.304899
 21
1.0786
 31
0.0000
 6
CONTINUOUS
 0
LINE
 8
WHITE
 10
3.304899
 20
1.0786
 30
0.0000
 11
3.304699
 21
1.078199
 31
0.0000
 6
CONTINUOUS
 0
LINE
 8
WHITE
 10
.275799
 20
.943899
 30
0.0000
 11
.2168
 21
.943899
 31
0.0000
 6
CONTINUOUS
 0
LINE
 8
WHITE
 10
.2168
 20
.943899
 30
0.0000
 11
.2168
 21
.539499
 31
0.0000
 6
CONTINUOUS
 0
ARC
 8
WHITE
 10
.218299
 20
.539499
 30
 0
 40
.0015
 50
180
 51
284.9315
 6
CONTINUOUS
 0
LINE
 8
WHITE
 10
.2187
 20
.537999
 30
0.0000
 11
.274599
 21
.550199
 31
0.0000
 6
CONTINUOUS
 0
LINE
 8
WHITE
 10
.274599
 20
.550199
 30
0.0000
 11
1.108
 21
.7278
 31
0.0000
 6
CONTINUOUS
 0
LINE
 8
WHITE
 10
1.108
 20
.7278
 30
0.0000
 11
1.063099
 21
.7537
 31
0.0000
 6
CONTINUOUS
 0
LINE
 8
WHITE
 10
1.063099
 20
.7537
 30
0.0000
 11
.999599
 21
.8166
 31
0.0000
 6
CONTINUOUS
 0
LINE
 8
WHITE
 10
.999599
 20
.8166
 30
0.0000
 11
.9756
 21
.847899
 31
0.0000
 6
CONTINUOUS
 0
LINE
 8
WHITE
 10
.9756
 20
.847899
 30
0.0000
 11
.9707
 21
.8622
 31
0.0000
 6
CONTINUOUS
 0
ARC
 8
WHITE
 10
.9693
 20
.861699
 30
 0
 40
.001486
 50
19.65383
 51
97.59583
 6
CONTINUOUS
 0
LINE
 8
WHITE
 10
.969099
 20
.8632
 30
0.0000
 11
.9512
 21
.861899
 31
0.0000
 6
CONTINUOUS
 0
LINE
 8
WHITE
 10
.9512
 20
.861899
 30
0.0000
 11
.902199
 21
.893899
 31
0.0000
 6
CONTINUOUS
 0
LINE
 8
WHITE
 10
.902199
 20
.893899
 30
0.0000
 11
.857299
 21
.9315
 31
0.0000
 6
CONTINUOUS
 0
LINE
 8
WHITE
 10
.857299
 20
.9315
 30
0.0000
 11
.831399
 21
.9667
 31
0.0000
 6
CONTINUOUS
 0
LINE
 8
WHITE
 10
.831399
 20
.9667
 30
0.0000
 11
.824699
 21
.986699
 31
0.0000
 6
CONTINUOUS
 0
ARC
 8
WHITE
 10
.8233
 20
.986299
 30
 0
 40
.001456
 50
15.9454
 51
93.81468
 6
CONTINUOUS
 0
LINE
 8
WHITE
 10
.823199
 20
.9878
 30
0.0000
 11
.7536
 21
.9878
 31
0.0000
 6
CONTINUOUS
 0
LINE
 8
WHITE
 10
.7536
 20
.9878
 30
0.0000
 11
.6739
 21
1.0168
 31
0.0000
 6
CONTINUOUS
 0
LINE
 8
WHITE
 10
.6739
 20
1.0168
 30
0.0000
 11
.5989
 21
1.072399
 31
0.0000
 6
CONTINUOUS
 0
LINE
 8
WHITE
 10
.5989
 20
1.072399
 30
0.0000
 11
.554099
 21
1.1157
 31
0.0000
 6
CONTINUOUS
 0
LINE
 8
WHITE
 10
.554099
 20
1.1157
 30
0.0000
 11
.527
 21
1.1797
 31
0.0000
 6
CONTINUOUS
 0
LINE
 8
WHITE
 10
.527
 20
1.1797
 30
0.0000
 11
.5097
 21
1.2472
 31
0.0000
 6
CONTINUOUS
 0
LINE
 8
WHITE
 10
.5097
 20
1.2472
 30
0.0000
 11
.5145
 21
1.283499
 31
0.0000
 6
CONTINUOUS
 0
LINE
 8
WHITE
 10
.5145
 20
1.283499
 30
0.0000
 11
.5266
 21
1.304299
 31
0.0000
 6
CONTINUOUS
 0
LINE
 8
WHITE
 10
.5266
 20
1.304299
 30
0.0000
 11
.547999
 21
1.3133
 31
0.0000
 6
CONTINUOUS
 0
LINE
 8
WHITE
 10
.547999
 20
1.3133
 30
0.0000
 11
.587899
 21
1.298799
 31
0.0000
 6
CONTINUOUS
 0
LINE
 8
WHITE
 10
.587899
 20
1.298799
 30
0.0000
 11
.6782
 21
1.2409
 31
0.0000
 6
CONTINUOUS
 0
LINE
 8
WHITE
 10
.6782
 20
1.2409
 30
0.0000
 11
.698099
 21
1.2367
 31
0.0000
 6
CONTINUOUS
 0
ARC
 8
WHITE
 10
.698399
 20
1.2382
 30
 0
 40
.001529
 50
258.6901
 51
320.1936
 6
CONTINUOUS
 0
LINE
 8
WHITE
 10
.699599
 20
1.2372
 30
0.0000
 11
.706799
 21
1.2458
 31
0.0000
 6
CONTINUOUS
 0
LINE
 8
WHITE
 10
.706799
 20
1.2458
 30
0.0000
 11
.7117
 21
1.285799
 31
0.0000
 6
CONTINUOUS
 0
LINE
 8
WHITE
 10
.7117
 20
1.285799
 30
0.0000
 11
.717999
 21
1.3048
 31
0.0000
 6
CONTINUOUS
 0
LINE
 8
WHITE
 10
.717999
 20
1.3048
 30
0.0000
 11
.7177
 21
1.364099
 31
0.0000
 6
CONTINUOUS
 0
LINE
 8
WHITE
 10
.7177
 20
1.364099
 30
0.0000
 11
.736599
 21
1.428699
 31
0.0000
 6
CONTINUOUS
 0
LINE
 8
WHITE
 10
.736599
 20
1.428699
 30
0.0000
 11
.7415
 21
1.4687
 31
0.0000
 6
CONTINUOUS
 0
LINE
 8
WHITE
 10
.7415
 20
1.4687
 30
0.0000
 11
.7304
 21
1.480399
 31
0.0000
 6
CONTINUOUS
 0
LINE
 8
WHITE
 10
.7304
 20
1.480399
 30
0.0000
 11
.709599
 21
1.484699
 31
0.0000
 6
CONTINUOUS
 0
LINE
 8
WHITE
 10
.709599
 20
1.484699
 30
0.0000
 11
.667299
 21
1.478199
 31
0.0000
 6
CONTINUOUS
 0
LINE
 8
WHITE
 10
.667299
 20
1.478199
 30
0.0000
 11
.217999
 21
1.3852
 31
0.0000
 6
CONTINUOUS
 0
ARC
 8
WHITE
 10
.218299
 20
1.3837
 30
 0
 40
.001529
 50
101.3099
 51
183.8147
 6
CONTINUOUS
 0
LINE
 8
WHITE
 10
.2168
 20
1.383599
 30
0.0000
 11
.2168
 21
.943899
 31
0.0000
 6
CONTINUOUS
 0
LINE
 8
WHITE
 10
.2168
 20
.943899
 30
0.0000
 11
.216999
 21
.9437
 31
0.0000
 6
CONTINUOUS
 0
LINE
 8
WHITE
 10
1.261
 20
1.1215
 30
0.0000
 11
1.202
 21
1.1181
 31
0.0000
 6
CONTINUOUS
 0
LINE
 8
WHITE
 10
1.202
 20
1.1181
 30
0.0000
 11
1.203799
 21
1.0871
 31
0.0000
 6
CONTINUOUS
 0
LINE
 8
WHITE
 10
1.203799
 20
1.0871
 30
0.0000
 11
1.2172
 21
1.028399
 31
0.0000
 6
CONTINUOUS
 0
LINE
 8
WHITE
 10
1.2172
 20
1.028399
 30
0.0000
 11
1.239599
 21
.974099
 31
0.0000
 6
CONTINUOUS
 0
LINE
 8
WHITE
 10
1.239599
 20
.974099
 30
0.0000
 11
1.269999
 21
.925
 31
0.0000
 6
CONTINUOUS
 0
LINE
 8
WHITE
 10
1.269999
 20
.925
 30
0.0000
 11
1.3076
 21
.8823
 31
0.0000
 6
CONTINUOUS
 0
LINE
 8
WHITE
 10
1.3076
 20
.8823
 30
0.0000
 11
1.3516
 21
.847
 31
0.0000
 6
CONTINUOUS
 0
LINE
 8
WHITE
 10
1.3516
 20
.847
 30
0.0000
 11
1.4009
 21
.8201
 31
0.0000
 6
CONTINUOUS
 0
LINE
 8
WHITE
 10
1.4009
 20
.8201
 30
0.0000
 11
1.454699
 21
.8026
 31
0.0000
 6
CONTINUOUS
 0
LINE
 8
WHITE
 10
1.454699
 20
.8026
 30
0.0000
 11
1.512199
 21
.7954
 31
0.0000
 6
CONTINUOUS
 0
LINE
 8
WHITE
 10
1.512199
 20
.7954
 30
0.0000
 11
1.5699
 21
.799499
 31
0.0000
 6
CONTINUOUS
 0
LINE
 8
WHITE
 10
1.5699
 20
.799499
 30
0.0000
 11
1.6246
 21
.8141
 31
0.0000
 6
CONTINUOUS
 0
LINE
 8
WHITE
 10
1.6246
 20
.8141
 30
0.0000
 11
1.6753
 21
.838299
 31
0.0000
 6
CONTINUOUS
 0
LINE
 8
WHITE
 10
1.6753
 20
.838299
 30
0.0000
 11
1.721099
 21
.8712
 31
0.0000
 6
CONTINUOUS
 0
LINE
 8
WHITE
 10
1.721099
 20
.8712
 30
0.0000
 11
1.7609
 21
.9118
 31
0.0000
 6
CONTINUOUS
 0
LINE
 8
WHITE
 10
1.7609
 20
.9118
 30
0.0000
 11
1.794
 21
.9591
 31
0.0000
 6
CONTINUOUS
 0
LINE
 8
WHITE
 10
1.794
 20
.9591
 30
0.0000
 11
1.8192
 21
1.012199
 31
0.0000
 6
CONTINUOUS
 0
LINE
 8
WHITE
 10
1.8192
 20
1.012199
 30
0.0000
 11
1.8358
 21
1.070099
 31
0.0000
 6
CONTINUOUS
 0
LINE
 8
WHITE
 10
1.8358
 20
1.070099
 30
0.0000
 11
1.842599
 21
1.131899
 31
0.0000
 6
CONTINUOUS
 0
LINE
 8
WHITE
 10
1.842599
 20
1.131899
 30
0.0000
 11
1.8391
 21
1.193899
 31
0.0000
 6
CONTINUOUS
 0
LINE
 8
WHITE
 10
1.8391
 20
1.193899
 30
0.0000
 11
1.8257
 21
1.252599
 31
0.0000
 6
CONTINUOUS
 0
LINE
 8
WHITE
 10
1.8257
 20
1.252599
 30
0.0000
 11
1.8033
 21
1.307
 31
0.0000
 6
CONTINUOUS
 0
LINE
 8
WHITE
 10
1.8033
 20
1.307
 30
0.0000
 11
1.772899
 21
1.356099
 31
0.0000
 6
CONTINUOUS
 0
LINE
 8
WHITE
 10
1.772899
 20
1.356099
 30
0.0000
 11
1.735299
 21
1.398699
 31
0.0000
 6
CONTINUOUS
 0
LINE
 8
WHITE
 10
1.735299
 20
1.398699
 30
0.0000
 11
1.6914
 21
1.434
 31
0.0000
 6
CONTINUOUS
 0
LINE
 8
WHITE
 10
1.6914
 20
1.434
 30
0.0000
 11
1.641999
 21
1.460899
 31
0.0000
 6
CONTINUOUS
 0
LINE
 8
WHITE
 10
1.641999
 20
1.460899
 30
0.0000
 11
1.588199
 21
1.4785
 31
0.0000
 6
CONTINUOUS
 0
LINE
 8
WHITE
 10
1.588199
 20
1.4785
 30
0.0000
 11
1.530699
 21
1.485599
 31
0.0000
 6
CONTINUOUS
 0
LINE
 8
WHITE
 10
1.530699
 20
1.485599
 30
0.0000
 11
1.473
 21
1.4816
 31
0.0000
 6
CONTINUOUS
 0
LINE
 8
WHITE
 10
1.473
 20
1.4816
 30
0.0000
 11
1.4183
 21
1.467
 31
0.0000
 6
CONTINUOUS
 0
LINE
 8
WHITE
 10
1.4183
 20
1.467
 30
0.0000
 11
1.367599
 21
1.4428
 31
0.0000
 6
CONTINUOUS
 0
LINE
 8
WHITE
 10
1.367599
 20
1.4428
 30
0.0000
 11
1.321799
 21
1.4098
 31
0.0000
 6
CONTINUOUS
 0
LINE
 8
WHITE
 10
1.321799
 20
1.4098
 30
0.0000
 11
1.281999
 21
1.369199
 31
0.0000
 6
CONTINUOUS
 0
LINE
 8
WHITE
 10
1.281999
 20
1.369199
 30
0.0000
 11
1.2489
 21
1.3219
 31
0.0000
 6
CONTINUOUS
 0
LINE
 8
WHITE
 10
1.2489
 20
1.3219
 30
0.0000
 11
1.2237
 21
1.2688
 31
0.0000
 6
CONTINUOUS
 0
LINE
 8
WHITE
 10
1.2237
 20
1.2688
 30
0.0000
 11
1.2071
 21
1.210899
 31
0.0000
 6
CONTINUOUS
 0
LINE
 8
WHITE
 10
1.2071
 20
1.210899
 30
0.0000
 11
1.200299
 21
1.149199
 31
0.0000
 6
CONTINUOUS
 0
LINE
 8
WHITE
 10
1.200299
 20
1.149199
 30
0.0000
 11
1.202
 21
1.1181
 31
0.0000
 6
CONTINUOUS
 0
LINE
 8
WHITE
 10
1.202
 20
1.1181
 30
0.0000
 11
1.202399
 21
1.1179
 31
0.0000
 6
CONTINUOUS
 0
LINE
 8
WHITE
 10
1.470199
 20
1.765799
 30
0.0000
 11
1.4766
 21
1.746199
 31
0.0000
 6
CONTINUOUS
 0
LINE
 8
WHITE
 10
1.4766
 20
1.746199
 30
0.0000
 11
1.505599
 21
1.7546
 31
0.0000
 6
CONTINUOUS
 0
LINE
 8
WHITE
 10
1.505599
 20
1.7546
 30
0.0000
 11
1.5555
 21
1.761899
 31
0.0000
 6
CONTINUOUS
 0
LINE
 8
WHITE
 10
1.5555
 20
1.761899
 30
0.0000
 11
1.606699
 21
1.7616
 31
0.0000
 6
CONTINUOUS
 0
LINE
 8
WHITE
 10
1.606699
 20
1.7616
 30
0.0000
 11
1.659399
 21
1.753399
 31
0.0000
 6
CONTINUOUS
 0
LINE
 8
WHITE
 10
1.659399
 20
1.753399
 30
0.0000
 11
1.7141
 21
1.736799
 31
0.0000
 6
CONTINUOUS
 0
LINE
 8
WHITE
 10
1.7141
 20
1.736799
 30
0.0000
 11
1.771299
 21
1.7115
 31
0.0000
 6
CONTINUOUS
 0
LINE
 8
WHITE
 10
1.771299
 20
1.7115
 30
0.0000
 11
1.8313
 21
1.677
 31
0.0000
 6
CONTINUOUS
 0
LINE
 8
WHITE
 10
1.8313
 20
1.677
 30
0.0000
 11
1.8937
 21
1.6337
 31
0.0000
 6
CONTINUOUS
 0
ARC
 8
WHITE
 10
1.8946
 20
1.634899
 30
 0
 40
.0015
 50
233.1301
 51
301.6084
 6
CONTINUOUS
 0
LINE
 8
WHITE
 10
1.8954
 20
1.633599
 30
0.0000
 11
1.9031
 21
1.637899
 31
0.0000
 6
CONTINUOUS
 0
ARC
 8
WHITE
 10
1.9024
 20
1.639199
 30
 0
 40
.001476
 50
298.3008
 51
14.93368
 6
CONTINUOUS
 0
LINE
 8
WHITE
 10
1.9039
 20
1.6396
 30
0.0000
 11
1.900799
 21
1.655699
 31
0.0000
 6
CONTINUOUS
 0
LINE
 8
WHITE
 10
1.900799
 20
1.655699
 30
0.0000
 11
1.874899
 21
1.688899
 31
0.0000
 6
CONTINUOUS
 0
LINE
 8
WHITE
 10
1.874899
 20
1.688899
 30
0.0000
 11
1.817
 21
1.724799
 31
0.0000
 6
CONTINUOUS
 0
LINE
 8
WHITE
 10
1.817
 20
1.724799
 30
0.0000
 11
1.760499
 21
1.754099
 31
0.0000
 6
CONTINUOUS
 0
LINE
 8
WHITE
 10
1.760499
 20
1.754099
 30
0.0000
 11
1.705399
 21
1.7766
 31
0.0000
 6
CONTINUOUS
 0
LINE
 8
WHITE
 10
1.705399
 20
1.7766
 30
0.0000
 11
1.6516
 21
1.792199
 31
0.0000
 6
CONTINUOUS
 0
LINE
 8
WHITE
 10
1.6516
 20
1.792199
 30
0.0000
 11
1.598799
 21
1.800999
 31
0.0000
 6
CONTINUOUS
 0
LINE
 8
WHITE
 10
1.598799
 20
1.800999
 30
0.0000
 11
1.547
 21
1.8028
 31
0.0000
 6
CONTINUOUS
 0
LINE
 8
WHITE
 10
1.547
 20
1.8028
 30
0.0000
 11
1.496099
 21
1.7976
 31
0.0000
 6
CONTINUOUS
 0
LINE
 8
WHITE
 10
1.496099
 20
1.7976
 30
0.0000
 11
1.445899
 21
1.7853
 31
0.0000
 6
CONTINUOUS
 0
LINE
 8
WHITE
 10
1.445899
 20
1.7853
 30
0.0000
 11
1.396199
 21
1.765799
 31
0.0000
 6
CONTINUOUS
 0
LINE
 8
WHITE
 10
1.396199
 20
1.765799
 30
0.0000
 11
1.347
 21
1.739099
 31
0.0000
 6
CONTINUOUS
 0
LINE
 8
WHITE
 10
1.347
 20
1.739099
 30
0.0000
 11
1.2982
 21
1.705
 31
0.0000
 6
CONTINUOUS
 0
LINE
 8
WHITE
 10
1.2982
 20
1.705
 30
0.0000
 11
1.2496
 21
1.663499
 31
0.0000
 6
CONTINUOUS
 0
LINE
 8
WHITE
 10
1.2496
 20
1.663499
 30
0.0000
 11
1.225999
 21
1.6402
 31
0.0000
 6
CONTINUOUS
 0
LINE
 8
WHITE
 10
1.225999
 20
1.6402
 30
0.0000
 11
1.2028
 21
1.614599
 31
0.0000
 6
CONTINUOUS
 0
LINE
 8
WHITE
 10
1.2028
 20
1.614599
 30
0.0000
 11
1.179499
 21
1.587
 31
0.0000
 6
CONTINUOUS
 0
LINE
 8
WHITE
 10
1.179499
 20
1.587
 30
0.0000
 11
1.1259
 21
1.5138
 31
0.0000
 6
CONTINUOUS
 0
LINE
 8
WHITE
 10
1.1259
 20
1.5138
 30
0.0000
 11
1.088299
 21
1.446499
 31
0.0000
 6
CONTINUOUS
 0
LINE
 8
WHITE
 10
1.088299
 20
1.446499
 30
0.0000
 11
1.0505
 21
1.378999
 31
0.0000
 6
CONTINUOUS
 0
LINE
 8
WHITE
 10
1.0505
 20
1.378999
 30
0.0000
 11
1.0088
 21
1.3126
 31
0.0000
 6
CONTINUOUS
 0
LINE
 8
WHITE
 10
1.0088
 20
1.3126
 30
0.0000
 11
.9602
 21
1.2489
 31
0.0000
 6
CONTINUOUS
 0
LINE
 8
WHITE
 10
.9602
 20
1.2489
 30
0.0000
 11
1.0038
 21
1.270699
 31
0.0000
 6
CONTINUOUS
 0
LINE
 8
WHITE
 10
1.0038
 20
1.270699
 30
0.0000
 11
1.032099
 21
1.293699
 31
0.0000
 6
CONTINUOUS
 0
LINE
 8
WHITE
 10
1.032099
 20
1.293699
 30
0.0000
 11
1.0555
 21
1.3264
 31
0.0000
 6
CONTINUOUS
 0
LINE
 8
WHITE
 10
1.0555
 20
1.3264
 30
0.0000
 11
1.0835
 21
1.370499
 31
0.0000
 6
CONTINUOUS
 0
LINE
 8
WHITE
 10
1.0835
 20
1.370499
 30
0.0000
 11
1.1115
 21
1.415899
 31
0.0000
 6
CONTINUOUS
 0
LINE
 8
WHITE
 10
1.1115
 20
1.415899
 30
0.0000
 11
1.1394
 21
1.46
 31
0.0000
 6
CONTINUOUS
 0
LINE
 8
WHITE
 10
1.1394
 20
1.46
 30
0.0000
 11
1.1947
 21
1.5345
 31
0.0000
 6
CONTINUOUS
 0
LINE
 8
WHITE
 10
1.1947
 20
1.5345
 30
0.0000
 11
1.249099
 21
1.598199
 31
0.0000
 6
CONTINUOUS
 0
LINE
 8
WHITE
 10
1.249099
 20
1.598199
 30
0.0000
 11
1.3035
 21
1.650799
 31
0.0000
 6
CONTINUOUS
 0
LINE
 8
WHITE
 10
1.3035
 20
1.650799
 30
0.0000
 11
1.358899
 21
1.691699
 31
0.0000
 6
CONTINUOUS
 0
LINE
 8
WHITE
 10
1.358899
 20
1.691699
 30
0.0000
 11
1.407699
 21
1.7192
 31
0.0000
 6
CONTINUOUS
 0
LINE
 8
WHITE
 10
1.407699
 20
1.7192
 30
0.0000
 11
1.4565
 21
1.7403
 31
0.0000
 6
CONTINUOUS
 0
LINE
 8
WHITE
 10
1.4565
 20
1.7403
 30
0.0000
 11
1.4766
 21
1.746199
 31
0.0000
 6
CONTINUOUS
 0
LINE
 8
WHITE
 10
1.4766
 20
1.746199
 30
0.0000
 11
1.476799
 21
1.7465
 31
0.0000
 6
CONTINUOUS
 0
LINE
 8
WHITE
 10
1.1072
 20
1.918499
 30
0.0000
 11
1.067899
 21
1.9183
 31
0.0000
 6
CONTINUOUS
 0
LINE
 8
WHITE
 10
1.067899
 20
1.9183
 30
0.0000
 11
1.067999
 21
1.885699
 31
0.0000
 6
CONTINUOUS
 0
LINE
 8
WHITE
 10
1.067999
 20
1.885699
 30
0.0000
 11
1.0791
 21
1.8406
 31
0.0000
 6
CONTINUOUS
 0
LINE
 8
WHITE
 10
1.0791
 20
1.8406
 30
0.0000
 11
1.1
 21
1.816699
 31
0.0000
 6
CONTINUOUS
 0
LINE
 8
WHITE
 10
1.1
 20
1.816699
 30
0.0000
 11
1.1195
 21
1.8205
 31
0.0000
 6
CONTINUOUS
 0
LINE
 8
WHITE
 10
1.1195
 20
1.8205
 30
0.0000
 11
1.1382
 21
1.840899
 31
0.0000
 6
CONTINUOUS
 0
LINE
 8
WHITE
 10
1.1382
 20
1.840899
 30
0.0000
 11
1.149899
 21
1.887199
 31
0.0000
 6
CONTINUOUS
 0
LINE
 8
WHITE
 10
1.149899
 20
1.887199
 30
0.0000
 11
1.152999
 21
1.933599
 31
0.0000
 6
CONTINUOUS
 0
LINE
 8
WHITE
 10
1.152999
 20
1.933599
 30
0.0000
 11
1.147699
 21
1.980299
 31
0.0000
 6
CONTINUOUS
 0
LINE
 8
WHITE
 10
1.147699
 20
1.980299
 30
0.0000
 11
1.1217
 21
2.014199
 31
0.0000
 6
CONTINUOUS
 0
LINE
 8
WHITE
 10
1.1217
 20
2.014199
 30
0.0000
 11
1.098199
 21
2.014199
 31
0.0000
 6
CONTINUOUS
 0
LINE
 8
WHITE
 10
1.098199
 20
2.014199
 30
0.0000
 11
1.0772
 21
1.980299
 31
0.0000
 6
CONTINUOUS
 0
LINE
 8
WHITE
 10
1.0772
 20
1.980299
 30
0.0000
 11
1.0678
 21
1.932299
 31
0.0000
 6
CONTINUOUS
 0
LINE
 8
WHITE
 10
1.0678
 20
1.932299
 30
0.0000
 11
1.067899
 21
1.9183
 31
0.0000
 6
CONTINUOUS
 0
LINE
 8
WHITE
 10
1.067899
 20
1.9183
 30
0.0000
 11
1.068099
 21
1.918099
 31
0.0000
 6
CONTINUOUS
 0
LINE
 8
WHITE
 10
.9724
 20
1.925799
 30
0.0000
 11
.9979
 21
1.925999
 31
0.0000
 6
CONTINUOUS
 0
LINE
 8
WHITE
 10
.9979
 20
1.925999
 30
0.0000
 11
.9973
 21
2.0109
 31
0.0000
 6
CONTINUOUS
 0
LINE
 8
WHITE
 10
.9973
 20
2.0109
 30
0.0000
 11
.954299
 21
1.978099
 31
0.0000
 6
CONTINUOUS
 0
LINE
 8
WHITE
 10
.954299
 20
1.978099
 30
0.0000
 11
.9426
 21
1.922299
 31
0.0000
 6
CONTINUOUS
 0
LINE
 8
WHITE
 10
.9426
 20
1.922299
 30
0.0000
 11
.958599
 21
1.868399
 31
0.0000
 6
CONTINUOUS
 0
LINE
 8
WHITE
 10
.958599
 20
1.868399
 30
0.0000
 11
.998499
 21
1.841099
 31
0.0000
 6
CONTINUOUS
 0
LINE
 8
WHITE
 10
.998499
 20
1.841099
 30
0.0000
 11
.9979
 21
1.925999
 31
0.0000
 6
CONTINUOUS
 0
LINE
 8
WHITE
 10
.9979
 20
1.925999
 30
0.0000
 11
.9976
 21
1.9263
 31
0.0000
 6
CONTINUOUS
 0
LINE
 8
WHITE
 10
1.353199
 20
2.119999
 30
0.0000
 11
1.314499
 21
2.1131
 31
0.0000
 6
CONTINUOUS
 0
LINE
 8
WHITE
 10
1.314499
 20
2.1131
 30
0.0000
 11
1.323699
 21
2.0611
 31
0.0000
 6
CONTINUOUS
 0
LINE
 8
WHITE
 10
1.323699
 20
2.0611
 30
0.0000
 11
1.326099
 21
1.987699
 31
0.0000
 6
CONTINUOUS
 0
ARC
 8
WHITE
 10
1.3276
 20
1.987699
 30
 0
 40
.0015
 50
180
 51
270
 6
CONTINUOUS
 0
LINE
 8
WHITE
 10
1.3276
 20
1.986199
 30
0.0000
 11
1.344799
 21
1.985499
 31
0.0000
 6
CONTINUOUS
 0
LINE
 8
WHITE
 10
1.344799
 20
1.985499
 30
0.0000
 11
1.3645
 21
1.9845
 31
0.0000
 6
CONTINUOUS
 0
LINE
 8
WHITE
 10
1.3645
 20
1.9845
 30
0.0000
 11
1.3818
 21
1.9838
 31
0.0000
 6
CONTINUOUS
 0
ARC
 8
WHITE
 10
1.3819
 20
1.9853
 30
 0
 40
.001503
 50
266.1859
 51
356.185
 6
CONTINUOUS
 0
LINE
 8
WHITE
 10
1.383399
 20
1.9852
 30
0.0000
 11
1.391199
 21
2.045
 31
0.0000
 6
CONTINUOUS
 0
LINE
 8
WHITE
 10
1.391199
 20
2.045
 30
0.0000
 11
1.3838
 21
2.1108
 31
0.0000
 6
CONTINUOUS
 0
LINE
 8
WHITE
 10
1.3838
 20
2.1108
 30
0.0000
 11
1.357399
 21
2.181799
 31
0.0000
 6
CONTINUOUS
 0
LINE
 8
WHITE
 10
1.357399
 20
2.181799
 30
0.0000
 11
1.3084
 21
2.259099
 31
0.0000
 6
CONTINUOUS
 0
LINE
 8
WHITE
 10
1.3084
 20
2.259099
 30
0.0000
 11
1.289299
 21
2.2609
 31
0.0000
 6
CONTINUOUS
 0
LINE
 8
WHITE
 10
1.289299
 20
2.2609
 30
0.0000
 11
1.2694
 21
2.2576
 31
0.0000
 6
CONTINUOUS
 0
LINE
 8
WHITE
 10
1.2694
 20
2.2576
 30
0.0000
 11
1.251799
 21
2.250099
 31
0.0000
 6
CONTINUOUS
 0
ARC
 8
WHITE
 10
1.252399
 20
2.248699
 30
 0
 40
.001523
 50
113.1986
 51
214.6894
 6
CONTINUOUS
 0
LINE
 8
WHITE
 10
1.251099
 20
2.2478
 30
0.0000
 11
1.2874
 21
2.193599
 31
0.0000
 6
CONTINUOUS
 0
LINE
 8
WHITE
 10
1.2874
 20
2.193599
 30
0.0000
 11
1.3114
 21
2.1305
 31
0.0000
 6
CONTINUOUS
 0
LINE
 8
WHITE
 10
1.3114
 20
2.1305
 30
0.0000
 11
1.314499
 21
2.1131
 31
0.0000
 6
CONTINUOUS
 0
LINE
 8
WHITE
 10
1.314499
 20
2.1131
 30
0.0000
 11
1.3148
 21
2.1129
 31
0.0000
 6
CONTINUOUS
 0
LINE
 8
WHITE
 10
1.1863
 20
2.1277
 30
0.0000
 11
1.1661
 21
2.093899
 31
0.0000
 6
CONTINUOUS
 0
LINE
 8
WHITE
 10
1.1661
 20
2.093899
 30
0.0000
 11
1.205199
 21
2.0706
 31
0.0000
 6
CONTINUOUS
 0
LINE
 8
WHITE
 10
1.205199
 20
2.0706
 30
0.0000
 11
1.256
 21
2.019799
 31
0.0000
 6
CONTINUOUS
 0
LINE
 8
WHITE
 10
1.256
 20
2.019799
 30
0.0000
 11
1.261199
 21
2.044899
 31
0.0000
 6
CONTINUOUS
 0
LINE
 8
WHITE
 10
1.261199
 20
2.044899
 30
0.0000
 11
1.259199
 21
2.073899
 31
0.0000
 6
CONTINUOUS
 0
LINE
 8
WHITE
 10
1.259199
 20
2.073899
 30
0.0000
 11
1.254199
 21
2.0961
 31
0.0000
 6
CONTINUOUS
 0
LINE
 8
WHITE
 10
1.254199
 20
2.0961
 30
0.0000
 11
1.2265
 21
2.1577
 31
0.0000
 6
CONTINUOUS
 0
LINE
 8
WHITE
 10
1.2265
 20
2.1577
 30
0.0000
 11
1.1864
 21
2.1863
 31
0.0000
 6
CONTINUOUS
 0
LINE
 8
WHITE
 10
1.1864
 20
2.1863
 30
0.0000
 11
1.143499
 21
2.186399
 31
0.0000
 6
CONTINUOUS
 0
LINE
 8
WHITE
 10
1.143499
 20
2.186399
 30
0.0000
 11
1.1071
 21
2.1621
 31
0.0000
 6
CONTINUOUS
 0
LINE
 8
WHITE
 10
1.1071
 20
2.1621
 30
0.0000
 11
1.087499
 21
2.1198
 31
0.0000
 6
CONTINUOUS
 0
ARC
 8
WHITE
 10
1.088899
 20
2.1191
 30
 0
 40
.001565
 50
153.435
 51
258.6936
 6
CONTINUOUS
 0
LINE
 8
WHITE
 10
1.0886
 20
2.117599
 30
0.0000
 11
1.148699
 21
2.104199
 31
0.0000
 6
CONTINUOUS
 0
LINE
 8
WHITE
 10
1.148699
 20
2.104199
 30
0.0000
 11
1.1661
 21
2.093899
 31
0.0000
 6
CONTINUOUS
 0
LINE
 8
WHITE
 10
1.1661
 20
2.093899
 30
0.0000
 11
1.166499
 21
2.094
 31
0.0000
 6
CONTINUOUS
 0
LINE
 8
WHITE
 10
2.1842
 20
2.3801
 30
0.0000
 11
2.198699
 21
2.3229
 31
0.0000
 6
CONTINUOUS
 0
LINE
 8
WHITE
 10
2.198699
 20
2.3229
 30
0.0000
 11
2.2704
 21
2.341099
 31
0.0000
 6
CONTINUOUS
 0
LINE
 8
WHITE
 10
2.2704
 20
2.341099
 30
0.0000
 11
2.3833
 21
2.3698
 31
0.0000
 6
CONTINUOUS
 0
LINE
 8
WHITE
 10
2.3833
 20
2.3698
 30
0.0000
 11
2.496099
 21
2.3984
 31
0.0000
 6
CONTINUOUS
 0
LINE
 8
WHITE
 10
2.496099
 20
2.3984
 30
0.0000
 11
2.608999
 21
2.427
 31
0.0000
 6
CONTINUOUS
 0
LINE
 8
WHITE
 10
2.608999
 20
2.427
 30
0.0000
 11
2.665499
 21
2.4412
 31
0.0000
 6
CONTINUOUS
 0
LINE
 8
WHITE
 10
2.665499
 20
2.4412
 30
0.0000
 11
2.721999
 21
2.455399
 31
0.0000
 6
CONTINUOUS
 0
LINE
 8
WHITE
 10
2.721999
 20
2.455399
 30
0.0000
 11
2.778399
 21
2.469599
 31
0.0000
 6
CONTINUOUS
 0
LINE
 8
WHITE
 10
2.778399
 20
2.469599
 30
0.0000
 11
2.834899
 21
2.483799
 31
0.0000
 6
CONTINUOUS
 0
LINE
 8
WHITE
 10
2.834899
 20
2.483799
 30
0.0000
 11
2.8914
 21
2.4979
 31
0.0000
 6
CONTINUOUS
 0
LINE
 8
WHITE
 10
2.8914
 20
2.4979
 30
0.0000
 11
2.945699
 21
2.511499
 31
0.0000
 6
CONTINUOUS
 0
ARC
 8
WHITE
 10
2.945399
 20
2.512999
 30
 0
 40
.001529
 50
281.3099
 51
28.30702
 6
CONTINUOUS
 0
LINE
 8
WHITE
 10
2.9467
 20
2.5137
 30
0.0000
 11
2.931499
 21
2.5411
 31
0.0000
 6
CONTINUOUS
 0
LINE
 8
WHITE
 10
2.931499
 20
2.5411
 30
0.0000
 11
2.904299
 21
2.5736
 31
0.0000
 6
CONTINUOUS
 0
LINE
 8
WHITE
 10
2.904299
 20
2.5736
 30
0.0000
 11
2.8631
 21
2.6126
 31
0.0000
 6
CONTINUOUS
 0
LINE
 8
WHITE
 10
2.8631
 20
2.6126
 30
0.0000
 11
2.8447
 21
2.6229
 31
0.0000
 6
CONTINUOUS
 0
LINE
 8
WHITE
 10
2.8447
 20
2.6229
 30
0.0000
 11
2.8287
 21
2.6235
 31
0.0000
 6
CONTINUOUS
 0
LINE
 8
WHITE
 10
2.8287
 20
2.6235
 30
0.0000
 11
2.8176
 21
2.6163
 31
0.0000
 6
CONTINUOUS
 0
LINE
 8
WHITE
 10
2.8176
 20
2.6163
 30
0.0000
 11
2.8138
 21
2.6124
 31
0.0000
 6
CONTINUOUS
 0
LINE
 8
WHITE
 10
2.8138
 20
2.6124
 30
0.0000
 11
2.809299
 21
2.608299
 31
0.0000
 6
CONTINUOUS
 0
LINE
 8
WHITE
 10
2.809299
 20
2.608299
 30
0.0000
 11
2.805099
 21
2.6036
 31
0.0000
 6
CONTINUOUS
 0
LINE
 8
WHITE
 10
2.805099
 20
2.6036
 30
0.0000
 11
2.749799
 21
2.590199
 31
0.0000
 6
CONTINUOUS
 0
LINE
 8
WHITE
 10
2.749799
 20
2.590199
 30
0.0000
 11
2.694499
 21
2.5768
 31
0.0000
 6
CONTINUOUS
 0
LINE
 8
WHITE
 10
2.694499
 20
2.5768
 30
0.0000
 11
2.639199
 21
2.563299
 31
0.0000
 6
CONTINUOUS
 0
LINE
 8
WHITE
 10
2.639199
 20
2.563299
 30
0.0000
 11
2.584
 21
2.5497
 31
0.0000
 6
CONTINUOUS
 0
LINE
 8
WHITE
 10
2.584
 20
2.5497
 30
0.0000
 11
2.5287
 21
2.536099
 31
0.0000
 6
CONTINUOUS
 0
LINE
 8
WHITE
 10
2.5287
 20
2.536099
 30
0.0000
 11
2.4735
 21
2.5225
 31
0.0000
 6
CONTINUOUS
 0
LINE
 8
WHITE
 10
2.4735
 20
2.5225
 30
0.0000
 11
2.4182
 21
2.5088
 31
0.0000
 6
CONTINUOUS
 0
LINE
 8
WHITE
 10
2.4182
 20
2.5088
 30
0.0000
 11
2.3629
 21
2.494999
 31
0.0000
 6
CONTINUOUS
 0
LINE
 8
WHITE
 10
2.3629
 20
2.494999
 30
0.0000
 11
2.307699
 21
2.4813
 31
0.0000
 6
CONTINUOUS
 0
LINE
 8
WHITE
 10
2.307699
 20
2.4813
 30
0.0000
 11
2.252399
 21
2.4674
 31
0.0000
 6
CONTINUOUS
 0
LINE
 8
WHITE
 10
2.252399
 20
2.4674
 30
0.0000
 11
2.197099
 21
2.453599
 31
0.0000
 6
CONTINUOUS
 0
LINE
 8
WHITE
 10
2.197099
 20
2.453599
 30
0.0000
 11
2.141799
 21
2.439699
 31
0.0000
 6
CONTINUOUS
 0
LINE
 8
WHITE
 10
2.141799
 20
2.439699
 30
0.0000
 11
2.0866
 21
2.425699
 31
0.0000
 6
CONTINUOUS
 0
LINE
 8
WHITE
 10
2.0866
 20
2.425699
 30
0.0000
 11
2.0313
 21
2.411799
 31
0.0000
 6
CONTINUOUS
 0
LINE
 8
WHITE
 10
2.0313
 20
2.411799
 30
0.0000
 11
1.976099
 21
2.397799
 31
0.0000
 6
CONTINUOUS
 0
LINE
 8
WHITE
 10
1.976099
 20
2.397799
 30
0.0000
 11
1.920799
 21
2.383699
 31
0.0000
 6
CONTINUOUS
 0
LINE
 8
WHITE
 10
1.920799
 20
2.383699
 30
0.0000
 11
1.865499
 21
2.3696
 31
0.0000
 6
CONTINUOUS
 0
LINE
 8
WHITE
 10
1.865499
 20
2.3696
 30
0.0000
 11
1.810199
 21
2.355499
 31
0.0000
 6
CONTINUOUS
 0
LINE
 8
WHITE
 10
1.810199
 20
2.355499
 30
0.0000
 11
1.754999
 21
2.341399
 31
0.0000
 6
CONTINUOUS
 0
LINE
 8
WHITE
 10
1.754999
 20
2.341399
 30
0.0000
 11
1.699699
 21
2.327199
 31
0.0000
 6
CONTINUOUS
 0
LINE
 8
WHITE
 10
1.699699
 20
2.327199
 30
0.0000
 11
1.6444
 21
2.312999
 31
0.0000
 6
CONTINUOUS
 0
LINE
 8
WHITE
 10
1.6444
 20
2.312999
 30
0.0000
 11
1.5891
 21
2.298799
 31
0.0000
 6
CONTINUOUS
 0
LINE
 8
WHITE
 10
1.5891
 20
2.298799
 30
0.0000
 11
1.5339
 21
2.2846
 31
0.0000
 6
CONTINUOUS
 0
LINE
 8
WHITE
 10
1.5339
 20
2.2846
 30
0.0000
 11
1.4233
 21
2.256099
 31
0.0000
 6
CONTINUOUS
 0
LINE
 8
WHITE
 10
1.4233
 20
2.256099
 30
0.0000
 11
1.408499
 21
2.250799
 31
0.0000
 6
CONTINUOUS
 0
LINE
 8
WHITE
 10
1.408499
 20
2.250799
 30
0.0000
 11
1.3997
 21
2.2392
 31
0.0000
 6
CONTINUOUS
 0
LINE
 8
WHITE
 10
1.3997
 20
2.2392
 30
0.0000
 11
1.394799
 21
2.2235
 31
0.0000
 6
CONTINUOUS
 0
LINE
 8
WHITE
 10
1.394799
 20
2.2235
 30
0.0000
 11
1.410699
 21
2.1912
 31
0.0000
 6
CONTINUOUS
 0
LINE
 8
WHITE
 10
1.410699
 20
2.1912
 30
0.0000
 11
1.4197
 21
2.1591
 31
0.0000
 6
CONTINUOUS
 0
LINE
 8
WHITE
 10
1.4197
 20
2.1591
 30
0.0000
 11
1.423499
 21
2.1289
 31
0.0000
 6
CONTINUOUS
 0
ARC
 8
WHITE
 10
1.424999
 20
2.128999
 30
 0
 40
.001503
 50
183.8141
 51
289.6569
 6
CONTINUOUS
 0
LINE
 8
WHITE
 10
1.4255
 20
2.127599
 30
0.0000
 11
1.4801
 21
2.141299
 31
0.0000
 6
CONTINUOUS
 0
LINE
 8
WHITE
 10
1.4801
 20
2.141299
 30
0.0000
 11
1.536599
 21
2.1554
 31
0.0000
 6
CONTINUOUS
 0
LINE
 8
WHITE
 10
1.536599
 20
2.1554
 30
0.0000
 11
1.593099
 21
2.1695
 31
0.0000
 6
CONTINUOUS
 0
LINE
 8
WHITE
 10
1.593099
 20
2.1695
 30
0.0000
 11
1.6496
 21
2.1837
 31
0.0000
 6
CONTINUOUS
 0
LINE
 8
WHITE
 10
1.6496
 20
2.1837
 30
0.0000
 11
1.705999
 21
2.1979
 31
0.0000
 6
CONTINUOUS
 0
LINE
 8
WHITE
 10
1.705999
 20
2.1979
 30
0.0000
 11
1.7625
 21
2.212199
 31
0.0000
 6
CONTINUOUS
 0
LINE
 8
WHITE
 10
1.7625
 20
2.212199
 30
0.0000
 11
1.875399
 21
2.240799
 31
0.0000
 6
CONTINUOUS
 0
LINE
 8
WHITE
 10
1.875399
 20
2.240799
 30
0.0000
 11
1.988299
 21
2.269399
 31
0.0000
 6
CONTINUOUS
 0
LINE
 8
WHITE
 10
1.988299
 20
2.269399
 30
0.0000
 11
2.101099
 21
2.298099
 31
0.0000
 6
CONTINUOUS
 0
LINE
 8
WHITE
 10
2.101099
 20
2.298099
 30
0.0000
 11
2.198699
 21
2.3229
 31
0.0000
 6
CONTINUOUS
 0
LINE
 8
WHITE
 10
2.198699
 20
2.3229
 30
0.0000
 11
2.198899
 21
2.323199
 31
0.0000
 6
CONTINUOUS
 0
LINE
 8
WHITE
 10
6.177
 20
5.204199
 30
0.0000
 11
6.2557
 21
5.205399
 31
0.0000
 6
CONTINUOUS
 0
LINE
 8
WHITE
 10
6.2557
 20
5.205399
 30
0.0000
 11
6.322899
 21
5.206399
 31
0.0000
 6
CONTINUOUS
 0
LINE
 8
WHITE
 10
6.322899
 20
5.206399
 30
0.0000
 11
6.391799
 21
5.206399
 31
0.0000
 6
CONTINUOUS
 0
LINE
 8
WHITE
 10
6.391799
 20
5.206399
 30
0.0000
 11
6.5314
 21
5.2055
 31
0.0000
 6
CONTINUOUS
 0
LINE
 8
WHITE
 10
6.5314
 20
5.2055
 30
0.0000
 11
6.600299
 21
5.2055
 31
0.0000
 6
CONTINUOUS
 0
LINE
 8
WHITE
 10
6.600299
 20
5.2055
 30
0.0000
 11
6.6675
 21
5.2065
 31
0.0000
 6
CONTINUOUS
 0
LINE
 8
WHITE
 10
6.6675
 20
5.2065
 30
0.0000
 11
6.6813
 21
5.210199
 31
0.0000
 6
CONTINUOUS
 0
LINE
 8
WHITE
 10
6.6813
 20
5.210199
 30
0.0000
 11
6.6859
 21
5.2164
 31
0.0000
 6
CONTINUOUS
 0
LINE
 8
WHITE
 10
6.6859
 20
5.2164
 30
0.0000
 11
6.6872
 21
5.222199
 31
0.0000
 6
CONTINUOUS
 0
LINE
 8
WHITE
 10
6.6872
 20
5.222199
 30
0.0000
 11
6.6883
 21
5.255799
 31
0.0000
 6
CONTINUOUS
 0
LINE
 8
WHITE
 10
6.6883
 20
5.255799
 30
0.0000
 11
6.689799
 21
5.290299
 31
0.0000
 6
CONTINUOUS
 0
LINE
 8
WHITE
 10
6.689799
 20
5.290299
 30
0.0000
 11
6.690899
 21
5.322299
 31
0.0000
 6
CONTINUOUS
 0
ARC
 8
WHITE
 10
6.689399
 20
5.3224
 30
 0
 40
.001503
 50
356.1859
 51
89.98179
 6
CONTINUOUS
 0
LINE
 8
WHITE
 10
6.6894
 20
5.3239
 30
0.0000
 11
6.674799
 21
5.3248
 31
0.0000
 6
CONTINUOUS
 0
LINE
 8
WHITE
 10
6.674799
 20
5.3248
 30
0.0000
 11
6.6574
 21
5.325099
 31
0.0000
 6
CONTINUOUS
 0
LINE
 8
WHITE
 10
6.6574
 20
5.325099
 30
0.0000
 11
6.642899
 21
5.326099
 31
0.0000
 6
CONTINUOUS
 0
ARC
 8
WHITE
 10
6.642899
 20
5.327199
 30
 0
 40
.001099
 50
142.1187
 51
270
 6
CONTINUOUS
 0
LINE
 8
WHITE
 10
6.642
 20
5.327899
 30
0.0000
 11
6.677899
 21
5.386099
 31
0.0000
 6
CONTINUOUS
 0
LINE
 8
WHITE
 10
6.677899
 20
5.386099
 30
0.0000
 11
6.7147
 21
5.4461
 31
0.0000
 6
CONTINUOUS
 0
LINE
 8
WHITE
 10
6.7147
 20
5.4461
 30
0.0000
 11
6.788099
 21
5.566599
 31
0.0000
 6
CONTINUOUS
 0
LINE
 8
WHITE
 10
6.788099
 20
5.566599
 30
0.0000
 11
6.8249
 21
5.626599
 31
0.0000
 6
CONTINUOUS
 0
LINE
 8
WHITE
 10
6.8249
 20
5.626599
 30
0.0000
 11
6.8617
 21
5.686299
 31
0.0000
 6
CONTINUOUS
 0
LINE
 8
WHITE
 10
6.8617
 20
5.686299
 30
0.0000
 11
6.912199
 21
5.7241
 31
0.0000
 6
CONTINUOUS
 0
LINE
 8
WHITE
 10
6.912199
 20
5.7241
 30
0.0000
 11
6.962399
 21
5.7621
 31
0.0000
 6
CONTINUOUS
 0
LINE
 8
WHITE
 10
6.962399
 20
5.7621
 30
0.0000
 11
7.012499
 21
5.800099
 31
0.0000
 6
CONTINUOUS
 0
LINE
 8
WHITE
 10
7.012499
 20
5.800099
 30
0.0000
 11
7.0626
 21
5.8383
 31
0.0000
 6
CONTINUOUS
 0
LINE
 8
WHITE
 10
7.0626
 20
5.8383
 30
0.0000
 11
7.112699
 21
5.876299
 31
0.0000
 6
CONTINUOUS
 0
LINE
 8
WHITE
 10
7.112699
 20
5.876299
 30
0.0000
 11
7.162899
 21
5.914199
 31
0.0000
 6
CONTINUOUS
 0
LINE
 8
WHITE
 10
7.162899
 20
5.914199
 30
0.0000
 11
7.213399
 21
5.952099
 31
0.0000
 6
CONTINUOUS
 0
LINE
 8
WHITE
 10
7.213399
 20
5.952099
 30
0.0000
 11
7.270899
 21
5.9523
 31
0.0000
 6
CONTINUOUS
 0
LINE
 8
WHITE
 10
7.270899
 20
5.9523
 30
0.0000
 11
7.328499
 21
5.952499
 31
0.0000
 6
CONTINUOUS
 0
LINE
 8
WHITE
 10
7.328499
 20
5.952499
 30
0.0000
 11
7.386099
 21
5.9526
 31
0.0000
 6
CONTINUOUS
 0
LINE
 8
WHITE
 10
7.386099
 20
5.9526
 30
0.0000
 11
7.501599
 21
5.952899
 31
0.0000
 6
CONTINUOUS
 0
LINE
 8
WHITE
 10
7.501599
 20
5.952899
 30
0.0000
 11
7.617199
 21
5.9531
 31
0.0000
 6
CONTINUOUS
 0
LINE
 8
WHITE
 10
7.617199
 20
5.9531
 30
0.0000
 11
7.733099
 21
5.953299
 31
0.0000
 6
CONTINUOUS
 0
LINE
 8
WHITE
 10
7.733099
 20
5.953299
 30
0.0000
 11
7.964799
 21
5.953599
 31
0.0000
 6
CONTINUOUS
 0
LINE
 8
WHITE
 10
7.964799
 20
5.953599
 30
0.0000
 11
8.080699
 21
5.9538
 31
0.0000
 6
CONTINUOUS
 0
LINE
 8
WHITE
 10
8.080699
 20
5.9538
 30
0.0000
 11
8.196399
 21
5.953999
 31
0.0000
 6
CONTINUOUS
 0
LINE
 8
WHITE
 10
8.196399
 20
5.953999
 30
0.0000
 11
8.312
 21
5.954299
 31
0.0000
 6
CONTINUOUS
 0
LINE
 8
WHITE
 10
8.312
 20
5.954299
 30
0.0000
 11
8.4273
 21
5.954599
 31
0.0000
 6
CONTINUOUS
 0
LINE
 8
WHITE
 10
8.4273
 20
5.954599
 30
0.0000
 11
8.4849
 21
5.9548
 31
0.0000
 6
CONTINUOUS
 0
LINE
 8
WHITE
 10
8.4849
 20
5.9548
 30
0.0000
 11
8.5023
 21
5.954999
 31
0.0000
 6
CONTINUOUS
 0
ARC
 8
WHITE
 10
8.5024
 20
5.9565
 30
 0
 40
.001503
 50
266.1859
 51
3.821332
 6
CONTINUOUS
 0
LINE
 8
WHITE
 10
8.503899
 20
5.9566
 30
0.0000
 11
8.503899
 21
6.3365
 31
0.0000
 6
CONTINUOUS
 0
ARC
 8
WHITE
 10
8.502399
 20
6.3366
 30
 0
 40
.001503
 50
356.1859
 51
93.78384
 6
CONTINUOUS
 0
LINE
 8
WHITE
 10
8.5023
 20
6.338099
 30
0.0000
 11
8.4813
 21
6.3386
 31
0.0000
 6
CONTINUOUS
 0
LINE
 8
WHITE
 10
8.4813
 20
6.3386
 30
0.0000
 11
8.371
 21
6.339799
 31
0.0000
 6
CONTINUOUS
 0
LINE
 8
WHITE
 10
8.371
 20
6.339799
 30
0.0000
 11
8.2608
 21
6.340899
 31
0.0000
 6
CONTINUOUS
 0
LINE
 8
WHITE
 10
8.2608
 20
6.340899
 30
0.0000
 11
8.1506
 21
6.342
 31
0.0000
 6
CONTINUOUS
 0
LINE
 8
WHITE
 10
8.1506
 20
6.342
 30
0.0000
 11
8.040399
 21
6.342999
 31
0.0000
 6
CONTINUOUS
 0
LINE
 8
WHITE
 10
8.040399
 20
6.342999
 30
0.0000
 11
7.930099
 21
6.3439
 31
0.0000
 6
CONTINUOUS
 0
LINE
 8
WHITE
 10
7.930099
 20
6.3439
 30
0.0000
 11
7.8199
 21
6.344799
 31
0.0000
 6
CONTINUOUS
 0
LINE
 8
WHITE
 10
7.8199
 20
6.344799
 30
0.0000
 11
7.7097
 21
6.345699
 31
0.0000
 6
CONTINUOUS
 0
LINE
 8
WHITE
 10
7.7097
 20
6.345699
 30
0.0000
 11
7.5994
 21
6.346499
 31
0.0000
 6
CONTINUOUS
 0
LINE
 8
WHITE
 10
7.5994
 20
6.346499
 30
0.0000
 11
7.4892
 21
6.347199
 31
0.0000
 6
CONTINUOUS
 0
LINE
 8
WHITE
 10
7.4892
 20
6.347199
 30
0.0000
 11
7.3789
 21
6.347899
 31
0.0000
 6
CONTINUOUS
 0
LINE
 8
WHITE
 10
7.3789
 20
6.347899
 30
0.0000
 11
7.2687
 21
6.348599
 31
0.0000
 6
CONTINUOUS
 0
LINE
 8
WHITE
 10
7.2687
 20
6.348599
 30
0.0000
 11
7.1584
 21
6.349199
 31
0.0000
 6
CONTINUOUS
 0
LINE
 8
WHITE
 10
7.1584
 20
6.349199
 30
0.0000
 11
7.0482
 21
6.3498
 31
0.0000
 6
CONTINUOUS
 0
LINE
 8
WHITE
 10
7.0482
 20
6.3498
 30
0.0000
 11
6.9379
 21
6.350399
 31
0.0000
 6
CONTINUOUS
 0
LINE
 8
WHITE
 10
6.9379
 20
6.350399
 30
0.0000
 11
6.8276
 21
6.3509
 31
0.0000
 6
CONTINUOUS
 0
LINE
 8
WHITE
 10
6.8276
 20
6.3509
 30
0.0000
 11
6.717299
 21
6.351299
 31
0.0000
 6
CONTINUOUS
 0
LINE
 8
WHITE
 10
6.717299
 20
6.351299
 30
0.0000
 11
6.6071
 21
6.351799
 31
0.0000
 6
CONTINUOUS
 0
LINE
 8
WHITE
 10
6.6071
 20
6.351799
 30
0.0000
 11
6.496799
 21
6.3522
 31
0.0000
 6
CONTINUOUS
 0
LINE
 8
WHITE
 10
6.496799
 20
6.3522
 30
0.0000
 11
6.3866
 21
6.352499
 31
0.0000
 6
CONTINUOUS
 0
LINE
 8
WHITE
 10
6.3866
 20
6.352499
 30
0.0000
 11
6.276299
 21
6.352799
 31
0.0000
 6
CONTINUOUS
 0
LINE
 8
WHITE
 10
6.276299
 20
6.352799
 30
0.0000
 11
6.165999
 21
6.353099
 31
0.0000
 6
CONTINUOUS
 0
LINE
 8
WHITE
 10
6.165999
 20
6.353099
 30
0.0000
 11
6.055699
 21
6.3534
 31
0.0000
 6
CONTINUOUS
 0
LINE
 8
WHITE
 10
6.055699
 20
6.3534
 30
0.0000
 11
5.9454
 21
6.3536
 31
0.0000
 6
CONTINUOUS
 0
LINE
 8
WHITE
 10
5.9454
 20
6.3536
 30
0.0000
 11
5.8351
 21
6.353799
 31
0.0000
 6
CONTINUOUS
 0
LINE
 8
WHITE
 10
5.8351
 20
6.353799
 30
0.0000
 11
5.724899
 21
6.353899
 31
0.0000
 6
CONTINUOUS
 0
LINE
 8
WHITE
 10
5.724899
 20
6.353899
 30
0.0000
 11
5.6146
 21
6.3541
 31
0.0000
 6
CONTINUOUS
 0
LINE
 8
WHITE
 10
5.6146
 20
6.3541
 30
0.0000
 11
5.5043
 21
6.354199
 31
0.0000
 6
CONTINUOUS
 0
LINE
 8
WHITE
 10
5.5043
 20
6.354199
 30
0.0000
 11
5.394
 21
6.354199
 31
0.0000
 6
CONTINUOUS
 0
LINE
 8
WHITE
 10
5.394
 20
6.354199
 30
0.0000
 11
5.283699
 21
6.3543
 31
0.0000
 6
CONTINUOUS
 0
LINE
 8
WHITE
 10
5.283699
 20
6.3543
 30
0.0000
 11
5.173399
 21
6.3544
 31
0.0000
 6
CONTINUOUS
 0
LINE
 8
WHITE
 10
5.173399
 20
6.3544
 30
0.0000
 11
5.0079
 21
6.3544
 31
0.0000
 6
CONTINUOUS
 0
LINE
 8
WHITE
 10
5.0079
 20
6.3544
 30
0.0000
 11
4.897699
 21
6.3543
 31
0.0000
 6
CONTINUOUS
 0
LINE
 8
WHITE
 10
4.897699
 20
6.3543
 30
0.0000
 11
4.787399
 21
6.3543
 31
0.0000
 6
CONTINUOUS
 0
LINE
 8
WHITE
 10
4.787399
 20
6.3543
 30
0.0000
 11
4.6219
 21
6.354199
 31
0.0000
 6
CONTINUOUS
 0
LINE
 8
WHITE
 10
4.6219
 20
6.354199
 30
0.0000
 11
4.5116
 21
6.3541
 31
0.0000
 6
CONTINUOUS
 0
LINE
 8
WHITE
 10
4.5116
 20
6.3541
 30
0.0000
 11
4.346199
 21
6.353899
 31
0.0000
 6
CONTINUOUS
 0
LINE
 8
WHITE
 10
4.346199
 20
6.353899
 30
0.0000
 11
4.180699
 21
6.3537
 31
0.0000
 6
CONTINUOUS
 0
LINE
 8
WHITE
 10
4.180699
 20
6.3537
 30
0.0000
 11
4.015299
 21
6.353499
 31
0.0000
 6
CONTINUOUS
 0
LINE
 8
WHITE
 10
4.015299
 20
6.353499
 30
0.0000
 11
3.8498
 21
6.3533
 31
0.0000
 6
CONTINUOUS
 0
LINE
 8
WHITE
 10
3.8498
 20
6.3533
 30
0.0000
 11
3.6844
 21
6.353
 31
0.0000
 6
CONTINUOUS
 0
LINE
 8
WHITE
 10
3.6844
 20
6.353
 30
0.0000
 11
3.463799
 21
6.3526
 31
0.0000
 6
CONTINUOUS
 0
LINE
 8
WHITE
 10
3.463799
 20
6.3526
 30
0.0000
 11
3.132899
 21
6.352
 31
0.0000
 6
CONTINUOUS
 0
LINE
 8
WHITE
 10
3.132899
 20
6.352
 30
0.0000
 11
2.4711
 21
6.350699
 31
0.0000
 6
CONTINUOUS
 0
LINE
 8
WHITE
 10
2.4711
 20
6.350699
 30
0.0000
 11
2.195399
 21
6.3501
 31
0.0000
 6
CONTINUOUS
 0
LINE
 8
WHITE
 10
2.195399
 20
6.3501
 30
0.0000
 11
1.9749
 21
6.3498
 31
0.0000
 6
CONTINUOUS
 0
LINE
 8
WHITE
 10
1.9749
 20
6.3498
 30
0.0000
 11
1.754299
 21
6.3494
 31
0.0000
 6
CONTINUOUS
 0
LINE
 8
WHITE
 10
1.754299
 20
6.3494
 30
0.0000
 11
1.588899
 21
6.349199
 31
0.0000
 6
CONTINUOUS
 0
LINE
 8
WHITE
 10
1.588899
 20
6.349199
 30
0.0000
 11
1.423499
 21
6.348999
 31
0.0000
 6
CONTINUOUS
 0
LINE
 8
WHITE
 10
1.423499
 20
6.348999
 30
0.0000
 11
1.2581
 21
6.3488
 31
0.0000
 6
CONTINUOUS
 0
LINE
 8
WHITE
 10
1.2581
 20
6.3488
 30
0.0000
 11
1.0928
 21
6.3487
 31
0.0000
 6
CONTINUOUS
 0
LINE
 8
WHITE
 10
1.0928
 20
6.3487
 30
0.0000
 11
.927399
 21
6.348599
 31
0.0000
 6
CONTINUOUS
 0
LINE
 8
WHITE
 10
.927399
 20
6.348599
 30
0.0000
 11
.706799
 21
6.348499
 31
0.0000
 6
CONTINUOUS
 0
LINE
 8
WHITE
 10
.706799
 20
6.348499
 30
0.0000
 11
.541499
 21
6.348499
 31
0.0000
 6
CONTINUOUS
 0
LINE
 8
WHITE
 10
.541499
 20
6.348499
 30
0.0000
 11
.4313
 21
6.348599
 31
0.0000
 6
CONTINUOUS
 0
LINE
 8
WHITE
 10
.4313
 20
6.348599
 30
0.0000
 11
.218299
 21
6.348599
 31
0.0000
 6
CONTINUOUS
 0
ARC
 8
WHITE
 10
.218299
 20
6.347099
 30
 0
 40
.0015
 50
90
 51
180
 6
CONTINUOUS
 0
LINE
 8
WHITE
 10
.2168
 20
6.347099
 30
0.0000
 11
.2168
 21
4.8695
 31
0.0000
 6
CONTINUOUS
 0
ARC
 8
WHITE
 10
.218299
 20
4.8694
 30
 0
 40
.001503
 50
176.1859
 51
270
 6
CONTINUOUS
 0
LINE
 8
WHITE
 10
.218299
 20
4.867899
 30
0.0000
 11
.256399
 21
4.866099
 31
0.0000
 6
CONTINUOUS
 0
LINE
 8
WHITE
 10
.256399
 20
4.866099
 30
0.0000
 11
.287999
 21
4.879
 31
0.0000
 6
CONTINUOUS
 0
LINE
 8
WHITE
 10
.287999
 20
4.879
 30
0.0000
 11
.3194
 21
4.885
 31
0.0000
 6
CONTINUOUS
 0
LINE
 8
WHITE
 10
.3194
 20
4.885
 30
0.0000
 11
.350499
 21
4.875699
 31
0.0000
 6
CONTINUOUS
 0
LINE
 8
WHITE
 10
.350499
 20
4.875699
 30
0.0000
 11
.3702
 21
4.861199
 31
0.0000
 6
CONTINUOUS
 0
LINE
 8
WHITE
 10
.3702
 20
4.861199
 30
0.0000
 11
.3883
 21
4.8593
 31
0.0000
 6
CONTINUOUS
 0
LINE
 8
WHITE
 10
.3883
 20
4.8593
 30
0.0000
 11
.4052
 21
4.8701
 31
0.0000
 6
CONTINUOUS
 0
LINE
 8
WHITE
 10
.4052
 20
4.8701
 30
0.0000
 11
.472799
 21
4.896299
 31
0.0000
 6
CONTINUOUS
 0
LINE
 8
WHITE
 10
.472799
 20
4.896299
 30
0.0000
 11
.5356
 21
4.908599
 31
0.0000
 6
CONTINUOUS
 0
LINE
 8
WHITE
 10
.5356
 20
4.908599
 30
0.0000
 11
.590699
 21
4.898499
 31
0.0000
 6
CONTINUOUS
 0
LINE
 8
WHITE
 10
.590699
 20
4.898499
 30
0.0000
 11
.634999
 21
4.8579
 31
0.0000
 6
CONTINUOUS
 0
LINE
 8
WHITE
 10
.634999
 20
4.8579
 30
0.0000
 11
.6696
 21
4.865799
 31
0.0000
 6
CONTINUOUS
 0
LINE
 8
WHITE
 10
.6696
 20
4.865799
 30
0.0000
 11
.6966
 21
4.8576
 31
0.0000
 6
CONTINUOUS
 0
LINE
 8
WHITE
 10
.6966
 20
4.8576
 30
0.0000
 11
.715799
 21
4.8333
 31
0.0000
 6
CONTINUOUS
 0
LINE
 8
WHITE
 10
.715799
 20
4.8333
 30
0.0000
 11
.7558
 21
4.8316
 31
0.0000
 6
CONTINUOUS
 0
LINE
 8
WHITE
 10
.7558
 20
4.8316
 30
0.0000
 11
.79
 21
4.8137
 31
0.0000
 6
CONTINUOUS
 0
LINE
 8
WHITE
 10
.79
 20
4.8137
 30
0.0000
 11
.818199
 21
4.779699
 31
0.0000
 6
CONTINUOUS
 0
LINE
 8
WHITE
 10
.818199
 20
4.779699
 30
0.0000
 11
.870899
 21
4.7814
 31
0.0000
 6
CONTINUOUS
 0
LINE
 8
WHITE
 10
.870899
 20
4.7814
 30
0.0000
 11
.915899
 21
4.759799
 31
0.0000
 6
CONTINUOUS
 0
LINE
 8
WHITE
 10
.915899
 20
4.759799
 30
0.0000
 11
.952199
 21
4.715799
 31
0.0000
 6
CONTINUOUS
 0
ARC
 8
WHITE
 10
.9534
 20
4.716699
 30
 0
 40
.0015
 50
216.8699
 51
289.6588
 6
CONTINUOUS
 0
LINE
 8
WHITE
 10
.953899
 20
4.7153
 30
0.0000
 11
1.026299
 21
4.736299
 31
0.0000
 6
CONTINUOUS
 0
LINE
 8
WHITE
 10
1.026299
 20
4.736299
 30
0.0000
 11
1.0898
 21
4.7216
 31
0.0000
 6
CONTINUOUS
 0
LINE
 8
WHITE
 10
1.0898
 20
4.7216
 30
0.0000
 11
1.142199
 21
4.671999
 31
0.0000
 6
CONTINUOUS
 0
ARC
 8
WHITE
 10
1.1432
 20
4.673099
 30
 0
 40
.001486
 50
227.7263
 51
304.6954
 6
CONTINUOUS
 0
LINE
 8
WHITE
 10
1.144099
 20
4.6718
 30
0.0000
 11
1.163699
 21
4.682799
 31
0.0000
 6
CONTINUOUS
 0
LINE
 8
WHITE
 10
1.163699
 20
4.682799
 30
0.0000
 11
1.1842
 21
4.689
 31
0.0000
 6
CONTINUOUS
 0
LINE
 8
WHITE
 10
1.1842
 20
4.689
 30
0.0000
 11
1.204599
 21
4.689799
 31
0.0000
 6
CONTINUOUS
 0
LINE
 8
WHITE
 10
1.204599
 20
4.689799
 30
0.0000
 11
1.2309
 21
4.701799
 31
0.0000
 6
CONTINUOUS
 0
LINE
 8
WHITE
 10
1.2309
 20
4.701799
 30
0.0000
 11
1.253399
 21
4.7012
 31
0.0000
 6
CONTINUOUS
 0
LINE
 8
WHITE
 10
1.253399
 20
4.7012
 30
0.0000
 11
1.2719
 21
4.688
 31
0.0000
 6
CONTINUOUS
 0
LINE
 8
WHITE
 10
1.2719
 20
4.688
 30
0.0000
 11
1.297099
 21
4.668399
 31
0.0000
 6
CONTINUOUS
 0
LINE
 8
WHITE
 10
1.297099
 20
4.668399
 30
0.0000
 11
1.322499
 21
4.6742
 31
0.0000
 6
CONTINUOUS
 0
LINE
 8
WHITE
 10
1.322499
 20
4.6742
 30
0.0000
 11
1.345299
 21
4.698299
 31
0.0000
 6
CONTINUOUS
 0
LINE
 8
WHITE
 10
1.345299
 20
4.698299
 30
0.0000
 11
1.375
 21
4.7031
 31
0.0000
 6
CONTINUOUS
 0
LINE
 8
WHITE
 10
1.375
 20
4.7031
 30
0.0000
 11
1.3823
 21
4.722
 31
0.0000
 6
CONTINUOUS
 0
LINE
 8
WHITE
 10
1.3823
 20
4.722
 30
0.0000
 11
1.376299
 21
4.749499
 31
0.0000
 6
CONTINUOUS
 0
LINE
 8
WHITE
 10
1.376299
 20
4.749499
 30
0.0000
 11
1.3686
 21
4.7877
 31
0.0000
 6
CONTINUOUS
 0
LINE
 8
WHITE
 10
1.3686
 20
4.7877
 30
0.0000
 11
1.3894
 21
4.8097
 31
0.0000
 6
CONTINUOUS
 0
LINE
 8
WHITE
 10
1.3894
 20
4.8097
 30
0.0000
 11
1.433599
 21
4.8171
 31
0.0000
 6
CONTINUOUS
 0
ARC
 8
WHITE
 10
1.433399
 20
4.8186
 30
 0
 40
.001513
 50
277.5946
 51
15.92864
 6
CONTINUOUS
 0
LINE
 8
WHITE
 10
1.4348
 20
4.818999
 30
0.0000
 11
1.427399
 21
4.8572
 31
0.0000
 6
CONTINUOUS
 0
LINE
 8
WHITE
 10
1.427399
 20
4.8572
 30
0.0000
 11
1.433599
 21
4.884099
 31
0.0000
 6
CONTINUOUS
 0
LINE
 8
WHITE
 10
1.433599
 20
4.884099
 30
0.0000
 11
1.4578
 21
4.894299
 31
0.0000
 6
CONTINUOUS
 0
LINE
 8
WHITE
 10
1.4578
 20
4.894299
 30
0.0000
 11
1.5289
 21
4.909699
 31
0.0000
 6
CONTINUOUS
 0
LINE
 8
WHITE
 10
1.5289
 20
4.909699
 30
0.0000
 11
1.5726
 21
4.885099
 31
0.0000
 6
CONTINUOUS
 0
LINE
 8
WHITE
 10
1.5726
 20
4.885099
 30
0.0000
 11
1.594799
 21
4.8294
 31
0.0000
 6
CONTINUOUS
 0
LINE
 8
WHITE
 10
1.594799
 20
4.8294
 30
0.0000
 11
1.623299
 21
4.814599
 31
0.0000
 6
CONTINUOUS
 0
LINE
 8
WHITE
 10
1.623299
 20
4.814599
 30
0.0000
 11
1.633299
 21
4.7802
 31
0.0000
 6
CONTINUOUS
 0
LINE
 8
WHITE
 10
1.633299
 20
4.7802
 30
0.0000
 11
1.6246
 21
4.7266
 31
0.0000
 6
CONTINUOUS
 0
LINE
 8
WHITE
 10
1.6246
 20
4.7266
 30
0.0000
 11
1.6397
 21
4.6805
 31
0.0000
 6
CONTINUOUS
 0
LINE
 8
WHITE
 10
1.6397
 20
4.6805
 30
0.0000
 11
1.6663
 21
4.664999
 31
0.0000
 6
CONTINUOUS
 0
LINE
 8
WHITE
 10
1.6663
 20
4.664999
 30
0.0000
 11
1.704699
 21
4.679699
 31
0.0000
 6
CONTINUOUS
 0
LINE
 8
WHITE
 10
1.704699
 20
4.679699
 30
0.0000
 11
1.7374
 21
4.697899
 31
0.0000
 6
CONTINUOUS
 0
LINE
 8
WHITE
 10
1.7374
 20
4.697899
 30
0.0000
 11
1.765699
 21
4.703999
 31
0.0000
 6
CONTINUOUS
 0
LINE
 8
WHITE
 10
1.765699
 20
4.703999
 30
0.0000
 11
1.786599
 21
4.689799
 31
0.0000
 6
CONTINUOUS
 0
LINE
 8
WHITE
 10
1.786599
 20
4.689799
 30
0.0000
 11
1.8413
 21
4.674399
 31
0.0000
 6
CONTINUOUS
 0
LINE
 8
WHITE
 10
1.8413
 20
4.674399
 30
0.0000
 11
1.888299
 21
4.681499
 31
0.0000
 6
CONTINUOUS
 0
LINE
 8
WHITE
 10
1.888299
 20
4.681499
 30
0.0000
 11
1.9296
 21
4.706299
 31
0.0000
 6
CONTINUOUS
 0
LINE
 8
WHITE
 10
1.9296
 20
4.706299
 30
0.0000
 11
1.988899
 21
4.732699
 31
0.0000
 6
CONTINUOUS
 0
LINE
 8
WHITE
 10
1.988899
 20
4.732699
 30
0.0000
 11
2.0529
 21
4.7396
 31
0.0000
 6
CONTINUOUS
 0
LINE
 8
WHITE
 10
2.0529
 20
4.7396
 30
0.0000
 11
2.121299
 21
4.727099
 31
0.0000
 6
CONTINUOUS
 0
LINE
 8
WHITE
 10
2.121299
 20
4.727099
 30
0.0000
 11
2.194299
 21
4.695099
 31
0.0000
 6
CONTINUOUS
 0
LINE
 8
WHITE
 10
2.194299
 20
4.695099
 30
0.0000
 11
2.2532
 21
4.722899
 31
0.0000
 6
CONTINUOUS
 0
LINE
 8
WHITE
 10
2.2532
 20
4.722899
 30
0.0000
 11
2.3192
 21
4.711599
 31
0.0000
 6
CONTINUOUS
 0
LINE
 8
WHITE
 10
2.3192
 20
4.711599
 30
0.0000
 11
2.383699
 21
4.6584
 31
0.0000
 6
CONTINUOUS
 0
ARC
 8
WHITE
 10
2.384799
 20
4.6595
 30
 0
 40
.001555
 50
225
 51
317.73
 6
CONTINUOUS
 0
LINE
 8
WHITE
 10
2.3859
 20
4.6585
 30
0.0000
 11
2.4226
 21
4.6989
 31
0.0000
 6
CONTINUOUS
 0
LINE
 8
WHITE
 10
2.4226
 20
4.6989
 30
0.0000
 11
2.4746
 21
4.7118
 31
0.0000
 6
CONTINUOUS
 0
LINE
 8
WHITE
 10
2.4746
 20
4.7118
 30
0.0000
 11
2.5467
 21
4.683599
 31
0.0000
 6
CONTINUOUS
 0
LINE
 8
WHITE
 10
2.5467
 20
4.683599
 30
0.0000
 11
2.597199
 21
4.655
 31
0.0000
 6
CONTINUOUS
 0
LINE
 8
WHITE
 10
2.597199
 20
4.655
 30
0.0000
 11
2.6609
 21
4.652999
 31
0.0000
 6
CONTINUOUS
 0
LINE
 8
WHITE
 10
2.6609
 20
4.652999
 30
0.0000
 11
2.735399
 21
4.673099
 31
0.0000
 6
CONTINUOUS
 0
LINE
 8
WHITE
 10
2.735399
 20
4.673099
 30
0.0000
 11
2.8183
 21
4.710899
 31
0.0000
 6
CONTINUOUS
 0
LINE
 8
WHITE
 10
2.8183
 20
4.710899
 30
0.0000
 11
2.901
 21
4.751599
 31
0.0000
 6
CONTINUOUS
 0
LINE
 8
WHITE
 10
2.901
 20
4.751599
 30
0.0000
 11
2.982899
 21
4.766799
 31
0.0000
 6
CONTINUOUS
 0
LINE
 8
WHITE
 10
2.982899
 20
4.766799
 30
0.0000
 11
3.064199
 21
4.7532
 31
0.0000
 6
CONTINUOUS
 0
LINE
 8
WHITE
 10
3.064199
 20
4.7532
 30
0.0000
 11
3.1045
 21
4.738999
 31
0.0000
 6
CONTINUOUS
 0
LINE
 8
WHITE
 10
3.1045
 20
4.738999
 30
0.0000
 11
3.1452
 21
4.7392
 31
0.0000
 6
CONTINUOUS
 0
LINE
 8
WHITE
 10
3.1452
 20
4.7392
 30
0.0000
 11
3.186399
 21
4.754
 31
0.0000
 6
CONTINUOUS
 0
LINE
 8
WHITE
 10
3.186399
 20
4.754
 30
0.0000
 11
3.2177
 21
4.754
 31
0.0000
 6
CONTINUOUS
 0
LINE
 8
WHITE
 10
3.2177
 20
4.754
 30
0.0000
 11
3.248899
 21
4.753499
 31
0.0000
 6
CONTINUOUS
 0
LINE
 8
WHITE
 10
3.248899
 20
4.753499
 30
0.0000
 11
3.2802
 21
4.753499
 31
0.0000
 6
CONTINUOUS
 0
LINE
 8
WHITE
 10
3.2802
 20
4.753499
 30
0.0000
 11
3.320199
 21
4.740699
 31
0.0000
 6
CONTINUOUS
 0
LINE
 8
WHITE
 10
3.320199
 20
4.740699
 30
0.0000
 11
3.356899
 21
4.7448
 31
0.0000
 6
CONTINUOUS
 0
LINE
 8
WHITE
 10
3.356899
 20
4.7448
 30
0.0000
 11
3.3905
 21
4.7648
 31
0.0000
 6
CONTINUOUS
 0
LINE
 8
WHITE
 10
3.3905
 20
4.7648
 30
0.0000
 11
3.4442
 21
4.7944
 31
0.0000
 6
CONTINUOUS
 0
LINE
 8
WHITE
 10
3.4442
 20
4.7944
 30
0.0000
 11
3.502199
 21
4.790999
 31
0.0000
 6
CONTINUOUS
 0
LINE
 8
WHITE
 10
3.502199
 20
4.790999
 30
0.0000
 11
3.562
 21
4.772399
 31
0.0000
 6
CONTINUOUS
 0
LINE
 8
WHITE
 10
3.562
 20
4.772399
 30
0.0000
 11
3.598799
 21
4.7589
 31
0.0000
 6
CONTINUOUS
 0
LINE
 8
WHITE
 10
3.598799
 20
4.7589
 30
0.0000
 11
3.628
 21
4.758299
 31
0.0000
 6
CONTINUOUS
 0
LINE
 8
WHITE
 10
3.628
 20
4.758299
 30
0.0000
 11
3.6475
 21
4.774199
 31
0.0000
 6
CONTINUOUS
 0
LINE
 8
WHITE
 10
3.6475
 20
4.774199
 30
0.0000
 11
3.682199
 21
4.799099
 31
0.0000
 6
CONTINUOUS
 0
LINE
 8
WHITE
 10
3.682199
 20
4.799099
 30
0.0000
 11
3.7162
 21
4.797599
 31
0.0000
 6
CONTINUOUS
 0
LINE
 8
WHITE
 10
3.7162
 20
4.797599
 30
0.0000
 11
3.749599
 21
4.775499
 31
0.0000
 6
CONTINUOUS
 0
LINE
 8
WHITE
 10
3.749599
 20
4.775499
 30
0.0000
 11
3.8236
 21
4.7561
 31
0.0000
 6
CONTINUOUS
 0
LINE
 8
WHITE
 10
3.8236
 20
4.7561
 30
0.0000
 11
3.8822
 21
4.7711
 31
0.0000
 6
CONTINUOUS
 0
LINE
 8
WHITE
 10
3.8822
 20
4.7711
 30
0.0000
 11
3.931099
 21
4.808199
 31
0.0000
 6
CONTINUOUS
 0
LINE
 8
WHITE
 10
3.931099
 20
4.808199
 30
0.0000
 11
3.9758
 21
4.855
 31
0.0000
 6
CONTINUOUS
 0
LINE
 8
WHITE
 10
3.9758
 20
4.855
 30
0.0000
 11
4.033699
 21
4.903299
 31
0.0000
 6
CONTINUOUS
 0
LINE
 8
WHITE
 10
4.033699
 20
4.903299
 30
0.0000
 11
4.074299
 21
4.9112
 31
0.0000
 6
CONTINUOUS
 0
ARC
 8
WHITE
 10
4.074699
 20
4.909699
 30
 0
 40
.001552
 50
39.79885
 51
104.9314
 6
CONTINUOUS
 0
LINE
 8
WHITE
 10
4.0759
 20
4.910699
 30
0.0000
 11
4.1005
 21
4.879
 31
0.0000
 6
CONTINUOUS
 0
LINE
 8
WHITE
 10
4.1005
 20
4.879
 30
0.0000
 11
4.109
 21
4.808199
 31
0.0000
 6
CONTINUOUS
 0
ARC
 8
WHITE
 10
4.1105
 20
4.8083
 30
 0
 40
.001503
 50
183.8141
 51
281.2889
 6
CONTINUOUS
 0
LINE
 8
WHITE
 10
4.110799
 20
4.806799
 30
0.0000
 11
4.1559
 21
4.8115
 31
0.0000
 6
CONTINUOUS
 0
LINE
 8
WHITE
 10
4.1559
 20
4.8115
 30
0.0000
 11
4.2031
 21
4.807499
 31
0.0000
 6
CONTINUOUS
 0
LINE
 8
WHITE
 10
4.2031
 20
4.807499
 30
0.0000
 11
4.249199
 21
4.7866
 31
0.0000
 6
CONTINUOUS
 0
LINE
 8
WHITE
 10
4.249199
 20
4.7866
 30
0.0000
 11
4.2905
 21
4.792799
 31
0.0000
 6
CONTINUOUS
 0
LINE
 8
WHITE
 10
4.2905
 20
4.792799
 30
0.0000
 11
4.321899
 21
4.7803
 31
0.0000
 6
CONTINUOUS
 0
LINE
 8
WHITE
 10
4.321899
 20
4.7803
 30
0.0000
 11
4.3434
 21
4.748099
 31
0.0000
 6
CONTINUOUS
 0
ARC
 8
WHITE
 10
4.3446
 20
4.748899
 30
 0
 40
.001442
 50
213.6901
 51
285.9299
 6
CONTINUOUS
 0
LINE
 8
WHITE
 10
4.344999
 20
4.747499
 30
0.0000
 11
4.423999
 21
4.760099
 31
0.0000
 6
CONTINUOUS
 0
LINE
 8
WHITE
 10
4.423999
 20
4.760099
 30
0.0000
 11
4.488699
 21
4.7375
 31
0.0000
 6
CONTINUOUS
 0
LINE
 8
WHITE
 10
4.488699
 20
4.7375
 30
0.0000
 11
4.538099
 21
4.689099
 31
0.0000
 6
CONTINUOUS
 0
LINE
 8
WHITE
 10
4.538099
 20
4.689099
 30
0.0000
 11
4.6023
 21
4.7065
 31
0.0000
 6
CONTINUOUS
 0
LINE
 8
WHITE
 10
4.6023
 20
4.7065
 30
0.0000
 11
4.663499
 21
4.7115
 31
0.0000
 6
CONTINUOUS
 0
LINE
 8
WHITE
 10
4.663499
 20
4.7115
 30
0.0000
 11
4.708899
 21
4.6763
 31
0.0000
 6
CONTINUOUS
 0
LINE
 8
WHITE
 10
4.708899
 20
4.6763
 30
0.0000
 11
4.768099
 21
4.677299
 31
0.0000
 6
CONTINUOUS
 0
LINE
 8
WHITE
 10
4.768099
 20
4.677299
 30
0.0000
 11
4.8274
 21
4.678299
 31
0.0000
 6
CONTINUOUS
 0
LINE
 8
WHITE
 10
4.8274
 20
4.678299
 30
0.0000
 11
4.886899
 21
4.679299
 31
0.0000
 6
CONTINUOUS
 0
LINE
 8
WHITE
 10
4.886899
 20
4.679299
 30
0.0000
 11
4.9464
 21
4.680399
 31
0.0000
 6
CONTINUOUS
 0
LINE
 8
WHITE
 10
4.9464
 20
4.680399
 30
0.0000
 11
5.0061
 21
4.6816
 31
0.0000
 6
CONTINUOUS
 0
LINE
 8
WHITE
 10
5.0061
 20
4.6816
 30
0.0000
 11
5.0658
 21
4.6827
 31
0.0000
 6
CONTINUOUS
 0
LINE
 8
WHITE
 10
5.0658
 20
4.6827
 30
0.0000
 11
5.185299
 21
4.6851
 31
0.0000
 6
CONTINUOUS
 0
LINE
 8
WHITE
 10
5.185299
 20
4.6851
 30
0.0000
 11
5.304999
 21
4.6876
 31
0.0000
 6
CONTINUOUS
 0
LINE
 8
WHITE
 10
5.304999
 20
4.6876
 30
0.0000
 11
5.4246
 21
4.69
 31
0.0000
 6
CONTINUOUS
 0
LINE
 8
WHITE
 10
5.4246
 20
4.69
 30
0.0000
 11
5.4842
 21
4.691199
 31
0.0000
 6
CONTINUOUS
 0
LINE
 8
WHITE
 10
5.4842
 20
4.691199
 30
0.0000
 11
5.5439
 21
4.692299
 31
0.0000
 6
CONTINUOUS
 0
LINE
 8
WHITE
 10
5.5439
 20
4.692299
 30
0.0000
 11
5.603499
 21
4.693399
 31
0.0000
 6
CONTINUOUS
 0
LINE
 8
WHITE
 10
5.603499
 20
4.693399
 30
0.0000
 11
5.662899
 21
4.694399
 31
0.0000
 6
CONTINUOUS
 0
LINE
 8
WHITE
 10
5.662899
 20
4.694399
 30
0.0000
 11
5.7223
 21
4.695499
 31
0.0000
 6
CONTINUOUS
 0
LINE
 8
WHITE
 10
5.7223
 20
4.695499
 30
0.0000
 11
5.779799
 21
4.6964
 31
0.0000
 6
CONTINUOUS
 0
ARC
 8
WHITE
 10
5.7799
 20
4.6979
 30
 0
 40
.001503
 50
266.1859
 51
359.9818
 6
CONTINUOUS
 0
LINE
 8
WHITE
 10
5.7814
 20
4.697899
 30
0.0000
 11
5.7911
 21
4.907999
 31
0.0000
 6
CONTINUOUS
 0
LINE
 8
WHITE
 10
5.7911
 20
4.907999
 30
0.0000
 11
6.2557
 21
5.205399
 31
0.0000
 6
CONTINUOUS
 0
LINE
 8
WHITE
 10
6.2557
 20
5.205399
 30
0.0000
 11
6.2561
 21
5.205299
 31
0.0000
 6
CONTINUOUS
 0
LINE
 8
WHITE
 10
-.009999
 20
6.563799
 30
0.0000
 11
-.000199
 21
6.563799
 31
0.0000
 6
CONTINUOUS
 0
LINE
 8
WHITE
 10
-.000199
 20
6.563799
 30
0.0000
 11
8.702099
 21
6.563799
 31
0.0000
 6
CONTINUOUS
 0
ARC
 8
WHITE
 10
8.702099
 20
6.562299
 30
 0
 40
.0015
 50
356.1992
 51
90
 6
CONTINUOUS
 0
LINE
 8
WHITE
 10
8.703599
 20
6.5622
 30
0.0000
 11
8.703599
 21
.001399
 31
0.0000
 6
CONTINUOUS
 0
ARC
 8
WHITE
 10
8.702099
 20
.001399
 30
 0
 40
.0015
 50
270
 51
0
 6
CONTINUOUS
 0
LINE
 8
WHITE
 10
8.702099
 20
-.000199
 30
0.0000
 11
.001399
 21
-.000199
 31
0.0000
 6
CONTINUOUS
 0
ARC
 8
WHITE
 10
.0013
 20
.0013
 30
 0
 40
.001503
 50
176.1859
 51
273.8141
 6
CONTINUOUS
 0
LINE
 8
WHITE
 10
-.000199
 20
.001399
 30
0.0000
 11
-.000199
 21
6.563799
 31
0.0000
 6
CONTINUOUS
 0
LINE
 8
WHITE
 10
-.000199
 20
6.563799
 30
0.0000
 11
.000099
 21
6.564099
 31
0.0000
 6
CONTINUOUS
 0
ENDSEC
 0
EOF
