999
\"DXF R12 Output\" (www.mydxf.blogspot.com)
 0 
SECTION
 2 
HEADER
 9 
$ACADVER
 1 
AC1009
 9 
$EXTMIN
 10 
 0 
 20 
 0 
 9 
$EXTMAX
 10 
 8.5 
 20 
 11 
 0 
ENDSEC
 0 
SECTION
 2 
ENTITIES
0
LINE
8
Layer 1
10
103.504574
20
48.049076
11
103.350466
21
49.153759
0
LINE
8
Layer 1
10
103.350466
20
49.153759
11
103.356037
21
50.576253
0
LINE
8
Layer 1
10
103.356037
20
50.576253
11
103.510912
21
52.124394
0
LINE
8
Layer 1
10
103.510912
20
52.124394
11
103.804717
21
53.606020
0
LINE
8
Layer 1
10
103.804717
20
53.606020
11
103.916491
21
54.397457
0
LINE
8
Layer 1
10
103.916491
20
54.397457
11
103.722715
21
54.450770
0
LINE
8
Layer 1
10
103.722715
20
54.450770
11
103.304958
21
54.362968
0
LINE
8
Layer 1
10
103.304958
20
54.362968
11
102.259605
21
54.036793
0
LINE
8
Layer 1
10
102.259605
20
54.036793
11
101.287500
21
53.579801
0
LINE
8
Layer 1
10
101.287500
20
53.579801
11
99.141898
21
52.038199
0
LINE
8
Layer 1
10
99.141898
20
52.038199
11
97.703298
21
50.959024
0
LINE
8
Layer 1
10
97.703298
20
50.959024
11
96.482624
21
50.281472
0
LINE
8
Layer 1
10
96.482624
20
50.281472
11
95.561617
21
50.040599
0
LINE
8
Layer 1
10
95.561617
20
50.040599
11
95.239033
21
50.094871
0
LINE
8
Layer 1
10
95.239033
20
50.094871
11
95.022018
21
50.271457
0
LINE
8
Layer 1
10
95.022018
20
50.271457
11
94.821465
21
51.046896
0
LINE
8
Layer 1
10
94.821465
20
51.046896
11
94.935792
21
52.197289
0
LINE
8
Layer 1
10
94.935792
20
52.197289
11
95.339034
21
53.594802
0
LINE
8
Layer 1
10
95.339034
20
53.594802
11
96.005224
21
55.111602
0
LINE
8
Layer 1
10
96.005224
20
55.111602
11
97.025231
21
57.238454
0
LINE
8
Layer 1
10
97.025231
20
57.238454
11
95.085744
21
57.272832
0
LINE
8
Layer 1
10
95.085744
20
57.272832
11
93.314140
21
57.029849
0
LINE
8
Layer 1
10
93.314140
20
57.029849
11
92.036671
21
56.394316
0
LINE
8
Layer 1
10
92.036671
20
56.394316
11
91.190722
21
55.897837
0
LINE
8
Layer 1
10
91.190722
20
55.897837
11
90.470634
21
55.664145
0
LINE
8
Layer 1
10
90.470634
20
55.664145
11
89.887474
21
55.694961
0
LINE
8
Layer 1
10
89.887474
20
55.694961
11
89.452306
21
55.992008
0
LINE
8
Layer 1
10
89.452306
20
55.992008
11
89.364814
21
56.596986
0
LINE
8
Layer 1
10
89.364814
20
56.596986
11
89.810361
21
57.788161
0
LINE
8
Layer 1
10
89.810361
20
57.788161
11
90.653588
21
59.117866
0
LINE
8
Layer 1
10
90.653588
20
59.117866
11
92.069691
21
60.131424
0
LINE
8
Layer 1
10
92.069691
20
60.131424
11
94.459401
21
61.788649
0
LINE
8
Layer 1
10
94.459401
20
61.788649
11
95.127915
21
62.466486
0
LINE
8
Layer 1
10
95.127915
20
62.466486
11
95.240232
21
62.866691
0
LINE
8
Layer 1
10
95.240232
20
62.866691
11
93.048036
21
63.013954
0
LINE
8
Layer 1
10
93.048036
20
63.013954
11
88.059511
21
63.085926
0
LINE
8
Layer 1
10
88.059511
20
63.085926
11
81.815690
21
63.002991
0
LINE
8
Layer 1
10
81.815690
20
63.002991
11
80.250154
21
62.814444
0
LINE
8
Layer 1
10
80.250154
20
62.814444
11
78.847326
21
62.469282
0
LINE
8
Layer 1
10
78.847326
20
62.469282
11
76.910911
21
62.020813
0
LINE
8
Layer 1
10
76.910911
20
62.020813
11
75.390104
21
61.834282
0
LINE
8
Layer 1
10
75.390104
20
61.834282
11
74.364262
21
61.943586
0
LINE
8
Layer 1
10
74.364262
20
61.943586
11
74.201590
21
62.146439
0
LINE
8
Layer 1
10
74.201590
20
62.146439
11
74.165231
21
62.506959
0
LINE
8
Layer 1
10
74.165231
20
62.506959
11
74.118953
21
62.880445
0
LINE
8
Layer 1
10
74.118953
20
62.880445
11
73.885810
21
63.097032
0
LINE
8
Layer 1
10
73.885810
20
63.097032
11
72.293082
21
63.298849
0
LINE
8
Layer 1
10
72.293082
20
63.298849
11
70.681343
21
63.520890
0
LINE
8
Layer 1
10
70.681343
20
63.520890
11
70.235472
21
63.737725
0
LINE
8
Layer 1
10
70.235472
20
63.737725
11
69.894193
21
64.068548
0
LINE
8
Layer 1
10
69.894193
20
64.068548
11
69.367454
21
65.059250
0
LINE
8
Layer 1
10
69.367454
20
65.059250
11
69.737825
21
65.433964
0
LINE
8
Layer 1
10
69.737825
20
65.433964
11
70.754925
21
66.048770
0
LINE
8
Layer 1
10
70.754925
20
66.048770
11
74.165231
21
67.689431
0
LINE
8
Layer 1
10
74.165231
20
67.689431
11
76.085189
21
68.575055
0
LINE
8
Layer 1
10
76.085189
20
68.575055
11
77.017397
21
69.030949
0
LINE
8
Layer 1
10
77.017397
20
69.030949
11
76.146939
21
69.388135
0
LINE
8
Layer 1
10
76.146939
20
69.388135
11
75.019998
21
69.623754
0
LINE
8
Layer 1
10
75.019998
20
69.623754
11
72.292839
21
69.860114
0
LINE
8
Layer 1
10
72.292839
20
69.860114
11
58.501898
21
70.572370
0
LINE
8
Layer 1
10
58.501898
20
70.572370
11
48.882495
21
71.131245
0
LINE
8
Layer 1
10
48.882495
20
71.131245
11
37.758570
21
72.044583
0
LINE
8
Layer 1
10
37.758570
20
72.044583
11
25.551693
21
72.812656
0
LINE
8
Layer 1
10
25.551693
20
72.812656
11
21.007737
21
73.048626
0
LINE
8
Layer 1
10
21.007737
20
73.048626
11
19.842164
21
73.194496
0
LINE
8
Layer 1
10
19.842164
20
73.194496
11
19.342804
21
73.365309
0
LINE
8
Layer 1
10
19.342804
20
73.365309
11
19.177300
21
74.164636
0
LINE
8
Layer 1
10
19.177300
20
74.164636
11
19.071549
21
75.987460
0
LINE
8
Layer 1
10
19.071549
20
75.987460
11
19.028500
21
81.617961
0
LINE
8
Layer 1
10
19.028500
20
81.617961
11
19.192034
21
88.085544
0
LINE
8
Layer 1
10
19.192034
20
88.085544
11
19.540526
21
93.218940
0
LINE
8
Layer 1
10
19.540526
20
93.218940
11
19.933468
21
98.125119
0
LINE
8
Layer 1
10
19.933468
20
98.125119
11
20.253383
21
104.529817
0
LINE
8
Layer 1
10
20.253383
20
104.529817
11
20.791860
21
113.799628
0
LINE
8
Layer 1
10
20.791860
20
113.799628
11
21.252117
21
118.345574
0
LINE
8
Layer 1
10
21.252117
20
118.345574
11
21.441804
21
121.093532
0
LINE
8
Layer 1
10
21.441804
20
121.093532
11
20.569077
21
121.827885
0
LINE
8
Layer 1
10
20.569077
20
121.827885
11
19.952713
21
122.453354
0
LINE
8
Layer 1
10
19.952713
20
122.453354
11
19.696350
21
122.925925
0
LINE
8
Layer 1
10
19.696350
20
122.925925
11
19.497504
21
123.405226
0
LINE
8
Layer 1
10
19.497504
20
123.405226
11
18.752618
21
123.760601
0
LINE
8
Layer 1
10
18.752618
20
123.760601
11
17.239169
21
124.056191
0
LINE
8
Layer 1
10
17.239169
20
124.056191
11
14.734632
21
124.356137
0
LINE
8
Layer 1
10
14.734632
20
124.356137
11
11.938316
21
124.694971
0
LINE
8
Layer 1
10
11.938316
20
124.694971
11
10.046666
21
125.142506
0
LINE
8
Layer 1
10
10.046666
20
125.142506
11
8.352761
21
125.945239
0
LINE
8
Layer 1
10
8.352761
20
125.945239
11
6.149683
21
127.349671
0
LINE
8
Layer 1
10
6.149683
20
127.349671
11
4.299885
21
128.710985
0
LINE
8
Layer 1
10
4.299885
20
128.710985
11
2.992006
21
130.000023
0
LINE
8
Layer 1
10
2.992006
20
130.000023
11
2.170870
21
131.283451
0
LINE
8
Layer 1
10
2.170870
20
131.283451
11
1.781306
21
132.627934
0
LINE
8
Layer 1
10
1.781306
20
132.627934
11
1.752837
21
134.149508
0
LINE
8
Layer 1
10
1.752837
20
134.149508
11
1.911881
21
134.752106
0
LINE
8
Layer 1
10
1.911881
20
134.752106
11
2.198398
21
135.265231
0
LINE
8
Layer 1
10
2.198398
20
135.265231
11
3.189719
21
136.071022
0
LINE
8
Layer 1
10
3.189719
20
136.071022
11
4.798527
21
136.662803
0
LINE
8
Layer 1
10
4.798527
20
136.662803
11
5.579328
21
136.831581
0
LINE
8
Layer 1
10
5.579328
20
136.831581
11
6.294742
21
136.850391
0
LINE
8
Layer 1
10
6.294742
20
136.850391
11
8.467416
21
136.360933
0
LINE
8
Layer 1
10
8.467416
20
136.360933
11
10.428396
21
135.700968
0
LINE
8
Layer 1
10
10.428396
20
135.700968
11
11.858632
21
135.035234
0
LINE
8
Layer 1
10
11.858632
20
135.035234
11
13.301493
21
134.365393
0
LINE
8
Layer 1
10
13.301493
20
134.365393
11
13.893051
21
134.114494
0
LINE
8
Layer 1
10
13.893051
20
134.114494
11
14.766842
21
133.511270
0
LINE
8
Layer 1
10
14.766842
20
133.511270
11
15.614936
21
132.937725
0
LINE
8
Layer 1
10
15.614936
20
132.937725
11
16.144716
21
132.758183
0
LINE
8
Layer 1
10
16.144716
20
132.758183
11
16.454792
21
133.261891
0
LINE
8
Layer 1
10
16.454792
20
133.261891
11
16.774664
21
134.331061
0
LINE
8
Layer 1
10
16.774664
20
134.331061
11
17.215932
21
135.938581
0
LINE
8
Layer 1
10
17.215932
20
135.938581
11
17.778517
21
137.429578
0
LINE
8
Layer 1
10
17.778517
20
137.429578
11
18.396849
21
138.653322
0
LINE
8
Layer 1
10
18.396849
20
138.653322
11
19.005362
21
139.459081
0
LINE
8
Layer 1
10
19.005362
20
139.459081
11
19.794173
21
139.959700
0
LINE
8
Layer 1
10
19.794173
20
139.959700
11
20.737592
21
140.267941
0
LINE
8
Layer 1
10
20.737592
20
140.267941
11
21.637499
21
140.569418
0
LINE
8
Layer 1
10
21.637499
20
140.569418
11
21.843232
21
140.868913
0
LINE
8
Layer 1
10
21.843232
20
140.868913
11
21.976637
21
141.346332
0
LINE
8
Layer 1
10
21.976637
20
141.346332
11
22.559943
21
142.816084
0
LINE
8
Layer 1
10
22.559943
20
142.816084
11
23.561344
21
143.936405
0
LINE
8
Layer 1
10
23.561344
20
143.936405
11
24.845418
21
144.601502
0
LINE
8
Layer 1
10
24.845418
20
144.601502
11
25.551139
21
144.730282
0
LINE
8
Layer 1
10
25.551139
20
144.730282
11
26.276745
21
144.705584
0
LINE
8
Layer 1
10
26.276745
20
144.705584
11
29.506456
21
144.053323
0
LINE
8
Layer 1
10
29.506456
20
144.053323
11
32.224633
21
142.884085
0
LINE
8
Layer 1
10
32.224633
20
142.884085
11
33.801260
21
142.013781
0
LINE
8
Layer 1
10
33.801260
20
142.013781
11
34.884501
21
141.266085
0
LINE
8
Layer 1
10
34.884501
20
141.266085
11
35.634705
21
140.509430
0
LINE
8
Layer 1
10
35.634705
20
140.509430
11
36.212218
21
139.612251
0
LINE
8
Layer 1
10
36.212218
20
139.612251
11
36.714080
21
138.680354
0
LINE
8
Layer 1
10
36.714080
20
138.680354
11
40.765829
21
138.488908
0
LINE
8
Layer 1
10
40.765829
20
138.488908
11
45.216208
21
138.144496
0
LINE
8
Layer 1
10
45.216208
20
138.144496
11
45.415639
21
138.151818
0
LINE
8
Layer 1
10
45.415639
20
138.151818
11
45.568120
21
138.375834
0
LINE
8
Layer 1
10
45.568120
20
138.375834
11
45.795006
21
139.635682
0
LINE
8
Layer 1
10
45.795006
20
139.635682
11
46.102694
21
141.374753
0
LINE
8
Layer 1
10
46.102694
20
141.374753
11
46.735500
21
143.357542
0
LINE
8
Layer 1
10
46.735500
20
143.357542
11
47.829006
21
145.942816
0
LINE
8
Layer 1
10
47.829006
20
145.942816
11
49.518793
21
149.489343
0
LINE
8
Layer 1
10
49.518793
20
149.489343
11
51.596527
21
154.055017
0
LINE
8
Layer 1
10
51.596527
20
154.055017
11
52.088003
21
155.666339
0
LINE
8
Layer 1
10
52.088003
20
155.666339
11
52.473349
21
157.534703
0
LINE
8
Layer 1
10
52.473349
20
157.534703
11
52.933295
21
160.506102
0
LINE
8
Layer 1
10
52.933295
20
160.506102
11
53.178531
21
163.168324
0
LINE
8
Layer 1
10
53.178531
20
163.168324
11
53.204194
21
165.432891
0
LINE
8
Layer 1
10
53.204194
20
165.432891
11
53.005423
21
167.211327
0
LINE
8
Layer 1
10
53.005423
20
167.211327
11
52.716692
21
168.327854
0
LINE
8
Layer 1
10
52.716692
20
168.327854
11
52.484666
21
168.786277
0
LINE
8
Layer 1
10
52.484666
20
168.786277
11
51.728565
21
167.586832
0
LINE
8
Layer 1
10
51.728565
20
167.586832
11
51.080985
21
166.584422
0
LINE
8
Layer 1
10
51.080985
20
166.584422
11
50.684498
21
166.394816
0
LINE
8
Layer 1
10
50.684498
20
166.394816
11
50.109258
21
166.310231
0
LINE
8
Layer 1
10
50.109258
20
166.310231
11
49.524137
21
166.290606
0
LINE
8
Layer 1
10
49.524137
20
166.290606
11
49.144774
21
166.394280
0
LINE
8
Layer 1
10
49.144774
20
166.394280
11
48.864170
21
166.685235
0
LINE
8
Layer 1
10
48.864170
20
166.685235
11
48.575324
21
167.227453
0
LINE
8
Layer 1
10
48.575324
20
167.227453
11
48.189022
21
167.918479
0
LINE
8
Layer 1
10
48.189022
20
167.918479
11
47.883897
21
168.185159
0
LINE
8
Layer 1
10
47.883897
20
168.185159
11
47.647252
21
168.030110
0
LINE
8
Layer 1
10
47.647252
20
168.030110
11
47.466388
21
167.455949
0
LINE
8
Layer 1
10
47.466388
20
167.455949
11
47.235170
21
166.701967
0
LINE
8
Layer 1
10
47.235170
20
166.701967
11
46.876989
21
166.136168
0
LINE
8
Layer 1
10
46.876989
20
166.136168
11
46.381850
21
165.747375
0
LINE
8
Layer 1
10
46.381850
20
165.747375
11
45.739758
21
165.524409
0
LINE
8
Layer 1
10
45.739758
20
165.524409
11
45.276062
21
165.469601
0
LINE
8
Layer 1
10
45.276062
20
165.469601
11
44.922735
21
165.551309
0
LINE
8
Layer 1
10
44.922735
20
165.551309
11
44.217937
21
166.289886
0
LINE
8
Layer 1
10
44.217937
20
166.289886
11
43.244293
21
167.932173
0
LINE
8
Layer 1
10
43.244293
20
167.932173
11
43.065513
21
168.294483
0
LINE
8
Layer 1
10
43.065513
20
168.294483
11
42.915725
21
168.321239
0
LINE
8
Layer 1
10
42.915725
20
168.321239
11
42.441278
21
167.095167
0
LINE
8
Layer 1
10
42.441278
20
167.095167
11
42.029898
21
165.950413
0
LINE
8
Layer 1
10
42.029898
20
165.950413
11
41.660127
21
165.265190
0
LINE
8
Layer 1
10
41.660127
20
165.265190
11
41.249995
21
164.932512
0
LINE
8
Layer 1
10
41.249995
20
164.932512
11
40.717532
21
164.845393
0
LINE
8
Layer 1
10
40.717532
20
164.845393
11
40.133470
21
165.066515
0
LINE
8
Layer 1
10
40.133470
20
165.066515
11
39.686806
21
165.822977
0
LINE
8
Layer 1
10
39.686806
20
165.822977
11
39.296893
21
166.800558
0
LINE
8
Layer 1
10
39.296893
20
166.800558
11
38.229802
21
165.822977
0
LINE
8
Layer 1
10
38.229802
20
165.822977
11
37.344845
21
165.132558
0
LINE
8
Layer 1
10
37.344845
20
165.132558
11
36.715644
21
164.845393
0
LINE
8
Layer 1
10
36.715644
20
164.845393
11
36.282404
21
164.986273
0
LINE
8
Layer 1
10
36.282404
20
164.986273
11
35.897918
21
165.356305
0
LINE
8
Layer 1
10
35.897918
20
165.356305
11
35.620825
21
165.876576
0
LINE
8
Layer 1
10
35.620825
20
165.876576
11
35.509767
21
166.468171
0
LINE
8
Layer 1
10
35.509767
20
166.468171
11
35.316394
21
167.103171
0
LINE
8
Layer 1
10
35.316394
20
167.103171
11
33.620405
21
165.673572
0
LINE
8
Layer 1
10
33.620405
20
165.673572
11
32.261047
21
164.557176
0
LINE
8
Layer 1
10
32.261047
20
164.557176
11
31.781491
21
164.355564
0
LINE
8
Layer 1
10
31.781491
20
164.355564
11
31.335359
21
164.333016
0
LINE
8
Layer 1
10
31.335359
20
164.333016
11
30.692316
21
164.575425
0
LINE
8
Layer 1
10
30.692316
20
164.575425
11
30.475016
21
165.318511
0
LINE
8
Layer 1
10
30.475016
20
165.318511
11
30.583762
21
166.294254
0
LINE
8
Layer 1
10
30.583762
20
166.294254
11
30.987325
21
167.389488
0
LINE
8
Layer 1
10
30.987325
20
167.389488
11
31.586523
21
168.564012
0
LINE
8
Layer 1
10
31.586523
20
168.564012
11
30.974555
21
168.369782
0
LINE
8
Layer 1
10
30.974555
20
168.369782
11
29.364528
21
167.498248
0
LINE
8
Layer 1
10
29.364528
20
167.498248
11
28.544871
21
167.055309
0
LINE
8
Layer 1
10
28.544871
20
167.055309
11
27.792300
21
166.848775
0
LINE
8
Layer 1
10
27.792300
20
166.848775
11
27.203190
21
166.890486
0
LINE
8
Layer 1
10
27.203190
20
166.890486
11
26.873918
21
167.192283
0
LINE
8
Layer 1
10
26.873918
20
167.192283
11
26.899615
21
167.697796
0
LINE
8
Layer 1
10
26.899615
20
167.697796
11
27.161497
21
168.391727
0
LINE
8
Layer 1
10
27.161497
20
168.391727
11
27.393116
21
168.978744
0
LINE
8
Layer 1
10
27.393116
20
168.978744
11
27.319264
21
169.267654
0
LINE
8
Layer 1
10
27.319264
20
169.267654
11
26.935208
21
169.261375
0
LINE
8
Layer 1
10
26.935208
20
169.261375
11
26.236217
21
168.962829
0
LINE
8
Layer 1
10
26.236217
20
168.962829
11
24.241530
21
168.345175
0
LINE
8
Layer 1
10
24.241530
20
168.345175
11
23.263169
21
168.286159
0
LINE
8
Layer 1
10
23.263169
20
168.286159
11
23.114370
21
168.450762
0
LINE
8
Layer 1
10
23.114370
20
168.450762
11
23.083016
21
168.786474
0
LINE
8
Layer 1
10
23.083016
20
168.786474
11
23.138553
21
169.209144
0
LINE
8
Layer 1
10
23.138553
20
169.209144
11
23.378815
21
169.716267
0
LINE
8
Layer 1
10
23.378815
20
169.716267
11
24.855431
21
171.713720
0
LINE
8
Layer 1
10
24.855431
20
171.713720
11
27.000355
21
173.686874
0
LINE
8
Layer 1
10
27.000355
20
173.686874
11
28.222700
21
174.613813
0
LINE
8
Layer 1
10
28.222700
20
174.613813
11
28.931294
21
175.005393
0
LINE
8
Layer 1
10
28.931294
20
175.005393
11
30.806401
21
176.557604
0
LINE
8
Layer 1
10
30.806401
20
176.557604
11
32.434798
21
178.109818
0
LINE
8
Layer 1
10
32.434798
20
178.109818
11
31.780573
21
178.981298
0
LINE
8
Layer 1
10
31.780573
20
178.981298
11
30.875602
21
180.241619
0
LINE
8
Layer 1
10
30.875602
20
180.241619
11
30.384126
21
181.175863
0
LINE
8
Layer 1
10
30.384126
20
181.175863
11
30.180744
21
182.123689
0
LINE
8
Layer 1
10
30.180744
20
182.123689
11
30.140055
21
183.424757
0
LINE
8
Layer 1
10
30.140055
20
183.424757
11
30.308320
21
185.485241
0
LINE
8
Layer 1
10
30.308320
20
185.485241
11
31.026312
21
187.516979
0
LINE
8
Layer 1
10
31.026312
20
187.516979
11
31.938305
21
189.318685
0
LINE
8
Layer 1
10
31.938305
20
189.318685
11
32.884356
21
190.809838
0
LINE
8
Layer 1
10
32.884356
20
190.809838
11
33.854655
21
192.079838
0
LINE
8
Layer 1
10
33.854655
20
192.079838
11
32.887048
21
192.239962
0
LINE
8
Layer 1
10
32.887048
20
192.239962
11
32.003833
21
192.464291
0
LINE
8
Layer 1
10
32.003833
20
192.464291
11
31.205306
21
192.829644
0
LINE
8
Layer 1
10
31.205306
20
192.829644
11
30.493305
21
193.333769
0
LINE
8
Layer 1
10
30.493305
20
193.333769
11
29.869674
21
193.974414
0
LINE
8
Layer 1
10
29.869674
20
193.974414
11
28.894883
21
195.656253
0
LINE
8
Layer 1
10
28.894883
20
195.656253
11
28.295662
21
197.857141
0
LINE
8
Layer 1
10
28.295662
20
197.857141
11
27.993186
21
199.683330
0
LINE
8
Layer 1
10
27.993186
20
199.683330
11
26.748200
21
200.043788
0
LINE
8
Layer 1
10
26.748200
20
200.043788
11
25.813770
21
200.371041
0
LINE
8
Layer 1
10
25.813770
20
200.371041
11
25.215488
21
200.746814
0
LINE
8
Layer 1
10
25.215488
20
200.746814
11
24.877407
21
201.241721
0
LINE
8
Layer 1
10
24.877407
20
201.241721
11
24.723585
21
201.926382
0
LINE
8
Layer 1
10
24.723585
20
201.926382
11
24.710983
21
202.364648
0
LINE
8
Layer 1
10
24.710983
20
202.364648
11
24.822526
21
202.660423
0
LINE
8
Layer 1
10
24.822526
20
202.660423
11
25.623016
21
203.089575
0
LINE
8
Layer 1
10
25.623016
20
203.089575
11
26.610794
21
203.437335
0
LINE
8
Layer 1
10
26.610794
20
203.437335
11
25.340794
21
203.602488
0
LINE
8
Layer 1
10
25.340794
20
203.602488
11
22.541135
21
203.937052
0
LINE
8
Layer 1
10
22.541135
20
203.937052
11
20.569286
21
204.231444
0
LINE
8
Layer 1
10
20.569286
20
204.231444
11
19.025914
21
204.635858
0
LINE
8
Layer 1
10
19.025914
20
204.635858
11
17.876251
21
205.162313
0
LINE
8
Layer 1
10
17.876251
20
205.162313
11
17.085529
21
205.822827
0
LINE
8
Layer 1
10
17.085529
20
205.822827
11
16.505719
21
206.657122
0
LINE
8
Layer 1
10
16.505719
20
206.657122
11
16.533955
21
206.908850
0
LINE
8
Layer 1
10
16.533955
20
206.908850
11
16.744342
21
207.168383
0
LINE
8
Layer 1
10
16.744342
20
207.168383
11
17.581721
21
207.502079
0
LINE
8
Layer 1
10
17.581721
20
207.502079
11
19.412756
21
207.588762
0
LINE
8
Layer 1
10
19.412756
20
207.588762
11
20.867911
21
207.630857
0
LINE
8
Layer 1
10
20.867911
20
207.630857
11
21.354991
21
207.830706
0
LINE
8
Layer 1
10
21.354991
20
207.830706
11
20.874823
21
208.264000
0
LINE
8
Layer 1
10
20.874823
20
208.264000
11
19.428233
21
209.006429
0
LINE
8
Layer 1
10
19.428233
20
209.006429
11
18.511728
21
209.506480
0
LINE
8
Layer 1
10
18.511728
20
209.506480
11
17.962361
21
209.948827
0
LINE
8
Layer 1
10
17.962361
20
209.948827
11
17.772865
21
210.327591
0
LINE
8
Layer 1
10
17.772865
20
210.327591
11
17.935973
21
210.636893
0
LINE
8
Layer 1
10
17.935973
20
210.636893
11
18.444417
21
210.870855
0
LINE
8
Layer 1
10
18.444417
20
210.870855
11
19.290933
21
211.023598
0
LINE
8
Layer 1
10
19.290933
20
211.023598
11
21.969108
21
211.061915
0
LINE
8
Layer 1
10
21.969108
20
211.061915
11
24.665202
21
210.938855
0
LINE
8
Layer 1
10
24.665202
20
210.938855
11
24.549530
21
211.726963
0
LINE
8
Layer 1
10
24.549530
20
211.726963
11
24.597167
21
212.406876
0
LINE
8
Layer 1
10
24.597167
20
212.406876
11
25.212710
21
212.710547
0
LINE
8
Layer 1
10
25.212710
20
212.710547
11
26.361752
21
212.711890
0
LINE
8
Layer 1
10
26.361752
20
212.711890
11
28.083653
21
212.412814
0
LINE
8
Layer 1
10
28.083653
20
212.412814
11
30.155386
21
212.080677
0
LINE
8
Layer 1
10
30.155386
20
212.080677
11
30.384259
21
212.253892
0
LINE
8
Layer 1
10
30.384259
20
212.253892
11
30.154491
21
212.662877
0
LINE
8
Layer 1
10
30.154491
20
212.662877
11
29.963091
21
213.044476
0
LINE
8
Layer 1
10
29.963091
20
213.044476
11
29.989820
21
213.375254
0
LINE
8
Layer 1
10
29.989820
20
213.375254
11
30.366803
21
213.620330
0
LINE
8
Layer 1
10
30.366803
20
213.620330
11
31.024304
21
213.635190
0
LINE
8
Layer 1
10
31.024304
20
213.635190
11
31.923016
21
213.424775
0
LINE
8
Layer 1
10
31.923016
20
213.424775
11
33.023632
21
212.994023
0
LINE
8
Layer 1
10
33.023632
20
212.994023
11
35.013434
21
212.153709
0
LINE
8
Layer 1
10
35.013434
20
212.153709
11
35.368960
21
212.175459
0
LINE
8
Layer 1
10
35.368960
20
212.175459
11
35.184120
21
212.592613
0
LINE
8
Layer 1
10
35.184120
20
212.592613
11
33.542300
21
214.141600
0
LINE
8
Layer 1
10
33.542300
20
214.141600
11
32.552989
21
215.041277
0
LINE
8
Layer 1
10
32.552989
20
215.041277
11
31.920785
21
215.889739
0
LINE
8
Layer 1
10
31.920785
20
215.889739
11
31.710841
21
216.568811
0
LINE
8
Layer 1
10
31.710841
20
216.568811
11
31.784576
21
216.807895
0
LINE
8
Layer 1
10
31.784576
20
216.807895
11
31.988308
21
216.960315
0
LINE
8
Layer 1
10
31.988308
20
216.960315
11
32.503858
21
216.974853
0
LINE
8
Layer 1
10
32.503858
20
216.974853
11
33.252876
21
216.770954
0
LINE
8
Layer 1
10
33.252876
20
216.770954
11
34.979915
21
215.878339
0
LINE
8
Layer 1
10
34.979915
20
215.878339
11
35.652128
21
215.479194
0
LINE
8
Layer 1
10
35.652128
20
215.479194
11
36.066806
21
215.437548
0
LINE
8
Layer 1
10
36.066806
20
215.437548
11
36.293506
21
215.786759
0
LINE
8
Layer 1
10
36.293506
20
215.786759
11
36.401787
21
216.560180
0
LINE
8
Layer 1
10
36.401787
20
216.560180
11
36.613051
21
217.562509
0
LINE
8
Layer 1
10
36.613051
20
217.562509
11
36.814591
21
217.800922
0
LINE
8
Layer 1
10
36.814591
20
217.800922
11
37.089798
21
217.863371
0
LINE
8
Layer 1
10
37.089798
20
217.863371
11
37.890400
21
217.457990
0
LINE
8
Layer 1
10
37.890400
20
217.457990
11
39.073232
21
216.341587
0
LINE
8
Layer 1
10
39.073232
20
216.341587
11
40.203157
21
215.250712
0
LINE
8
Layer 1
10
40.203157
20
215.250712
11
40.773629
21
214.897490
0
LINE
8
Layer 1
10
40.773629
20
214.897490
11
40.717208
21
215.484032
0
LINE
8
Layer 1
10
40.717208
20
215.484032
11
40.339916
21
216.652594
0
LINE
8
Layer 1
10
40.339916
20
216.652594
11
39.913346
21
218.157017
0
LINE
8
Layer 1
10
39.913346
20
218.157017
11
39.738447
21
219.551061
0
LINE
8
Layer 1
10
39.738447
20
219.551061
11
39.806043
21
220.514507
0
LINE
8
Layer 1
10
39.806043
20
220.514507
11
39.980213
21
221.200394
0
LINE
8
Layer 1
10
39.980213
20
221.200394
11
40.228645
21
221.530997
0
LINE
8
Layer 1
10
40.228645
20
221.530997
11
40.519023
21
221.428589
0
LINE
8
Layer 1
10
40.519023
20
221.428589
11
42.684185
21
216.458197
0
LINE
8
Layer 1
10
42.684185
20
216.458197
11
44.531904
21
211.424777
0
LINE
8
Layer 1
10
44.531904
20
211.424777
11
44.599322
21
210.985565
0
LINE
8
Layer 1
10
44.599322
20
210.985565
11
44.786229
21
210.747698
0
LINE
8
Layer 1
10
44.786229
20
210.747698
11
45.069608
21
210.723979
0
LINE
8
Layer 1
10
45.069608
20
210.723979
11
45.426438
21
210.927211
0
LINE
8
Layer 1
10
45.426438
20
210.927211
11
47.003884
21
212.712620
0
LINE
8
Layer 1
10
47.003884
20
212.712620
11
48.857095
21
215.171847
0
LINE
8
Layer 1
10
48.857095
20
215.171847
11
49.586075
21
216.250526
0
LINE
8
Layer 1
10
49.586075
20
216.250526
11
48.046750
21
218.536909
0
LINE
8
Layer 1
10
48.046750
20
218.536909
11
47.116178
21
220.015458
0
LINE
8
Layer 1
10
47.116178
20
220.015458
11
46.618766
21
221.049115
0
LINE
8
Layer 1
10
46.618766
20
221.049115
11
46.548242
21
221.656012
0
LINE
8
Layer 1
10
46.548242
20
221.656012
11
46.898331
21
221.854282
0
LINE
8
Layer 1
10
46.898331
20
221.854282
11
47.267697
21
221.678960
0
LINE
8
Layer 1
10
47.267697
20
221.678960
11
47.726470
21
221.175090
0
LINE
8
Layer 1
10
47.726470
20
221.175090
11
48.812334
21
219.314282
0
LINE
8
Layer 1
10
48.812334
20
219.314282
11
49.831326
21
217.657993
0
LINE
8
Layer 1
10
49.831326
20
217.657993
11
50.382979
21
217.169005
0
LINE
8
Layer 1
10
50.382979
20
217.169005
11
50.978954
21
217.315144
0
LINE
8
Layer 1
10
50.978954
20
217.315144
11
51.391951
21
217.649720
0
LINE
8
Layer 1
10
51.391951
20
217.649720
11
51.555940
21
218.132950
0
LINE
8
Layer 1
10
51.555940
20
218.132950
11
51.476973
21
218.850307
0
LINE
8
Layer 1
10
51.476973
20
218.850307
11
51.161101
21
219.887267
0
LINE
8
Layer 1
10
51.161101
20
219.887267
11
50.866715
21
221.227616
0
LINE
8
Layer 1
10
50.866715
20
221.227616
11
51.160066
21
221.313232
0
LINE
8
Layer 1
10
51.160066
20
221.313232
11
51.496525
21
221.119242
0
LINE
8
Layer 1
10
51.496525
20
221.119242
11
51.804098
21
220.712773
0
LINE
8
Layer 1
10
51.804098
20
220.712773
11
52.010787
21
220.160949
0
LINE
8
Layer 1
10
52.010787
20
220.160949
11
52.261640
21
219.492464
0
LINE
8
Layer 1
10
52.261640
20
219.492464
11
52.591826
21
219.127750
0
LINE
8
Layer 1
10
52.591826
20
219.127750
11
53.176703
21
219.191555
0
LINE
8
Layer 1
10
53.176703
20
219.191555
11
53.871090
21
219.635890
0
LINE
8
Layer 1
10
53.871090
20
219.635890
11
54.487404
21
220.301851
0
LINE
8
Layer 1
10
54.487404
20
220.301851
11
54.838061
21
221.030538
0
LINE
8
Layer 1
10
54.838061
20
221.030538
11
55.070883
21
221.631786
0
LINE
8
Layer 1
10
55.070883
20
221.631786
11
55.410531
21
222.010126
0
LINE
8
Layer 1
10
55.410531
20
222.010126
11
55.776357
21
222.110798
0
LINE
8
Layer 1
10
55.776357
20
222.110798
11
56.087713
21
221.879041
0
LINE
8
Layer 1
10
56.087713
20
221.879041
11
56.545715
21
221.635125
0
LINE
8
Layer 1
10
56.545715
20
221.635125
11
57.268837
21
221.847738
0
LINE
8
Layer 1
10
57.268837
20
221.847738
11
58.180613
21
222.477479
0
LINE
8
Layer 1
10
58.180613
20
222.477479
11
59.204575
21
223.484945
0
LINE
8
Layer 1
10
59.204575
20
223.484945
11
60.356250
21
224.641993
0
LINE
8
Layer 1
10
60.356250
20
224.641993
11
60.630543
21
224.743895
0
LINE
8
Layer 1
10
60.630543
20
224.743895
11
60.780955
21
224.581720
0
LINE
8
Layer 1
10
60.780955
20
224.581720
11
61.057738
21
224.250023
0
LINE
8
Layer 1
10
61.057738
20
224.250023
11
61.470114
21
224.112060
0
LINE
8
Layer 1
10
61.470114
20
224.112060
11
62.152984
21
224.334420
0
LINE
8
Layer 1
10
62.152984
20
224.334420
11
63.094483
21
224.850309
0
LINE
8
Layer 1
10
63.094483
20
224.850309
11
63.928131
21
225.432939
0
LINE
8
Layer 1
10
63.928131
20
225.432939
11
64.287454
21
225.855524
0
LINE
8
Layer 1
10
64.287454
20
225.855524
11
64.411808
21
226.019438
0
LINE
8
Layer 1
10
64.411808
20
226.019438
11
64.710787
21
226.087615
0
LINE
8
Layer 1
10
64.710787
20
226.087615
11
65.009766
21
226.004713
0
LINE
8
Layer 1
10
65.009766
20
226.004713
11
65.134120
21
225.805393
0
LINE
8
Layer 1
10
65.134120
20
225.805393
11
65.239762
21
225.592687
0
LINE
8
Layer 1
10
65.239762
20
225.592687
11
65.526549
21
225.493540
0
LINE
8
Layer 1
10
65.526549
20
225.493540
11
66.462738
21
225.590760
0
LINE
8
Layer 1
10
66.462738
20
225.590760
11
67.581045
21
226.006718
0
LINE
8
Layer 1
10
67.581045
20
226.006718
11
68.519827
21
226.651083
0
LINE
8
Layer 1
10
68.519827
20
226.651083
11
69.038689
21
227.014327
0
LINE
8
Layer 1
10
69.038689
20
227.014327
11
69.448310
21
227.015130
0
LINE
8
Layer 1
10
69.448310
20
227.015130
11
71.067179
21
226.888233
0
LINE
8
Layer 1
10
71.067179
20
226.888233
11
74.478442
21
226.894830
0
LINE
8
Layer 1
10
74.478442
20
226.894830
11
78.011324
21
226.890164
0
LINE
8
Layer 1
10
78.011324
20
226.890164
11
79.699553
21
226.715656
0
LINE
8
Layer 1
10
79.699553
20
226.715656
11
81.647309
21
226.244003
0
LINE
8
Layer 1
10
81.647309
20
226.244003
11
83.061610
21
226.053182
0
LINE
8
Layer 1
10
83.061610
20
226.053182
11
83.605508
21
228.539844
0
LINE
8
Layer 1
10
83.605508
20
228.539844
11
84.208343
21
230.624817
0
LINE
8
Layer 1
10
84.208343
20
230.624817
11
85.063130
21
232.792550
0
LINE
8
Layer 1
10
85.063130
20
232.792550
11
85.993291
21
234.645313
0
LINE
8
Layer 1
10
85.993291
20
234.645313
11
86.822249
21
235.785372
0
LINE
8
Layer 1
10
86.822249
20
235.785372
11
87.502743
21
236.177707
0
LINE
8
Layer 1
10
87.502743
20
236.177707
11
88.384151
21
236.437991
0
LINE
8
Layer 1
10
88.384151
20
236.437991
11
89.410488
21
236.363624
0
LINE
8
Layer 1
10
89.410488
20
236.363624
11
90.478861
21
235.875168
0
LINE
8
Layer 1
10
90.478861
20
235.875168
11
91.475141
21
235.045492
0
LINE
8
Layer 1
10
91.475141
20
235.045492
11
92.285196
21
233.947465
0
LINE
8
Layer 1
10
92.285196
20
233.947465
11
93.105814
21
232.860949
0
LINE
8
Layer 1
10
93.105814
20
232.860949
11
93.432218
21
233.337640
0
LINE
8
Layer 1
10
93.432218
20
233.337640
11
93.922113
21
234.483727
0
LINE
8
Layer 1
10
93.922113
20
234.483727
11
95.107546
21
237.014621
0
LINE
8
Layer 1
10
95.107546
20
237.014621
11
95.721894
21
237.853514
0
LINE
8
Layer 1
10
95.721894
20
237.853514
11
96.353260
21
238.412243
0
LINE
8
Layer 1
10
96.353260
20
238.412243
11
97.058572
21
238.706491
0
LINE
8
Layer 1
10
97.058572
20
238.706491
11
97.863431
21
238.508907
0
LINE
8
Layer 1
10
97.863431
20
238.508907
11
98.565326
21
237.999057
0
LINE
8
Layer 1
10
98.565326
20
237.999057
11
99.337898
21
237.085185
0
LINE
8
Layer 1
10
99.337898
20
237.085185
11
100.082673
21
235.903300
0
LINE
8
Layer 1
10
100.082673
20
235.903300
11
100.701176
21
234.589413
0
LINE
8
Layer 1
10
100.701176
20
234.589413
11
101.074189
21
233.636764
0
LINE
8
Layer 1
10
101.074189
20
233.636764
11
101.868955
21
234.589413
0
LINE
8
Layer 1
10
101.868955
20
234.589413
11
102.513854
21
235.560583
0
LINE
8
Layer 1
10
102.513854
20
235.560583
11
102.948314
21
236.557766
0
LINE
8
Layer 1
10
102.948314
20
236.557766
11
103.670298
21
238.202990
0
LINE
8
Layer 1
10
103.670298
20
238.202990
11
104.758657
21
239.538806
0
LINE
8
Layer 1
10
104.758657
20
239.538806
11
106.073689
21
240.435453
0
LINE
8
Layer 1
10
106.073689
20
240.435453
11
106.772551
21
240.678538
0
LINE
8
Layer 1
10
106.772551
20
240.678538
11
107.475695
21
240.763171
0
LINE
8
Layer 1
10
107.475695
20
240.763171
11
108.478726
21
240.571497
0
LINE
8
Layer 1
10
108.478726
20
240.571497
11
109.312002
21
239.737065
0
LINE
8
Layer 1
10
109.312002
20
239.737065
11
109.928738
21
238.671300
0
LINE
8
Layer 1
10
109.928738
20
238.671300
11
110.312451
21
237.549842
0
LINE
8
Layer 1
10
110.312451
20
237.549842
11
110.846726
21
235.558959
0
LINE
8
Layer 1
10
110.846726
20
235.558959
11
111.163182
21
234.729192
0
LINE
8
Layer 1
10
111.163182
20
234.729192
11
112.208110
21
236.292472
0
LINE
8
Layer 1
10
112.208110
20
236.292472
11
113.588797
21
238.085583
0
LINE
8
Layer 1
10
113.588797
20
238.085583
11
115.090237
21
239.602681
0
LINE
8
Layer 1
10
115.090237
20
239.602681
11
116.496284
21
240.652905
0
LINE
8
Layer 1
10
116.496284
20
240.652905
11
117.590793
21
241.045393
0
LINE
8
Layer 1
10
117.590793
20
241.045393
11
118.131673
21
240.881228
0
LINE
8
Layer 1
10
118.131673
20
240.881228
11
118.676621
21
240.422065
0
LINE
8
Layer 1
10
118.676621
20
240.422065
11
119.685947
21
238.818739
0
LINE
8
Layer 1
10
119.685947
20
238.818739
11
120.433220
21
236.635408
0
LINE
8
Layer 1
10
120.433220
20
236.635408
11
120.732886
21
234.272060
0
LINE
8
Layer 1
10
120.732886
20
234.272060
11
120.832856
21
232.921605
0
LINE
8
Layer 1
10
120.832856
20
232.921605
11
121.005669
21
232.628623
0
LINE
8
Layer 1
10
121.005669
20
232.628623
11
121.310295
21
232.605545
0
LINE
8
Layer 1
10
121.310295
20
232.605545
11
122.464765
21
233.414328
0
LINE
8
Layer 1
10
122.464765
20
233.414328
11
124.595831
21
235.438400
0
LINE
8
Layer 1
10
124.595831
20
235.438400
11
128.626359
21
239.167577
0
LINE
8
Layer 1
10
128.626359
20
239.167577
11
129.373207
21
239.531507
0
LINE
8
Layer 1
10
129.373207
20
239.531507
11
130.087328
21
239.594379
0
LINE
8
Layer 1
10
130.087328
20
239.594379
11
130.783887
21
239.354286
0
LINE
8
Layer 1
10
130.783887
20
239.354286
11
131.478045
21
238.809324
0
LINE
8
Layer 1
10
131.478045
20
238.809324
11
131.943250
21
238.288988
0
LINE
8
Layer 1
10
131.943250
20
238.288988
11
132.189464
21
237.725242
0
LINE
8
Layer 1
10
132.189464
20
237.725242
11
132.303009
21
235.276844
0
LINE
8
Layer 1
10
132.303009
20
235.276844
11
132.303009
21
232.569323
0
LINE
8
Layer 1
10
132.303009
20
232.569323
11
134.631343
21
234.591936
0
LINE
8
Layer 1
10
134.631343
20
234.591936
11
136.410084
21
235.980707
0
LINE
8
Layer 1
10
136.410084
20
235.980707
11
138.227609
21
237.137679
0
LINE
8
Layer 1
10
138.227609
20
237.137679
11
139.848780
21
237.929587
0
LINE
8
Layer 1
10
139.848780
20
237.929587
11
141.038464
21
238.223171
0
LINE
8
Layer 1
10
141.038464
20
238.223171
11
141.706197
21
237.939110
0
LINE
8
Layer 1
10
141.706197
20
237.939110
11
142.192097
21
237.097577
0
LINE
8
Layer 1
10
142.192097
20
237.097577
11
142.490535
21
235.714549
0
LINE
8
Layer 1
10
142.490535
20
235.714549
11
142.595879
21
233.806001
0
LINE
8
Layer 1
10
142.595879
20
233.806001
11
142.622867
21
232.103750
0
LINE
8
Layer 1
10
142.622867
20
232.103750
11
142.716247
21
231.671001
0
LINE
8
Layer 1
10
142.716247
20
231.671001
11
142.920728
21
231.512369
0
LINE
8
Layer 1
10
142.920728
20
231.512369
11
143.836523
21
232.003066
0
LINE
8
Layer 1
10
143.836523
20
232.003066
11
145.717314
21
233.547048
0
LINE
8
Layer 1
10
145.717314
20
233.547048
11
147.691532
21
235.002595
0
LINE
8
Layer 1
10
147.691532
20
235.002595
11
149.274273
21
235.836878
0
LINE
8
Layer 1
10
149.274273
20
235.836878
11
150.533633
21
236.139461
0
LINE
8
Layer 1
10
150.533633
20
236.139461
11
151.463302
21
235.840225
0
LINE
8
Layer 1
10
151.463302
20
235.840225
11
152.165365
21
235.270973
0
LINE
8
Layer 1
10
152.165365
20
235.270973
11
152.504673
21
234.391056
0
LINE
8
Layer 1
10
152.504673
20
234.391056
11
152.567461
21
232.855606
0
LINE
8
Layer 1
10
152.567461
20
232.855606
11
152.102394
21
229.756504
0
LINE
8
Layer 1
10
152.102394
20
229.756504
11
151.882853
21
228.486504
0
LINE
8
Layer 1
10
151.882853
20
228.486504
11
155.286820
21
230.223989
0
LINE
8
Layer 1
10
155.286820
20
230.223989
11
158.068191
21
231.507236
0
LINE
8
Layer 1
10
158.068191
20
231.507236
11
159.975293
21
232.152625
0
LINE
8
Layer 1
10
159.975293
20
232.152625
11
161.117242
21
232.203146
0
LINE
8
Layer 1
10
161.117242
20
232.203146
11
161.379826
21
232.004316
0
LINE
8
Layer 1
10
161.379826
20
232.004316
11
161.598071
21
231.601306
0
LINE
8
Layer 1
10
161.598071
20
231.601306
11
161.850385
21
230.738260
0
LINE
8
Layer 1
10
161.850385
20
230.738260
11
161.919226
21
229.714298
0
LINE
8
Layer 1
10
161.919226
20
229.714298
11
161.806224
21
228.608196
0
LINE
8
Layer 1
10
161.806224
20
228.608196
11
161.513009
21
227.498727
0
LINE
8
Layer 1
10
161.513009
20
227.498727
11
161.109851
21
225.975509
0
LINE
8
Layer 1
10
161.109851
20
225.975509
11
161.170026
21
225.631062
0
LINE
8
Layer 1
10
161.170026
20
225.631062
11
161.402378
21
225.523171
0
LINE
8
Layer 1
10
161.402378
20
225.523171
11
164.377311
21
226.835713
0
LINE
8
Layer 1
10
164.377311
20
226.835713
11
166.534858
21
227.785072
0
LINE
8
Layer 1
10
166.534858
20
227.785072
11
168.206191
21
228.257317
0
LINE
8
Layer 1
10
168.206191
20
228.257317
11
169.430760
21
228.258903
0
LINE
8
Layer 1
10
169.430760
20
228.258903
11
170.248013
21
227.796288
0
LINE
8
Layer 1
10
170.248013
20
227.796288
11
170.521946
21
227.348929
0
LINE
8
Layer 1
10
170.521946
20
227.348929
11
170.705059
21
226.738212
0
LINE
8
Layer 1
10
170.705059
20
226.738212
11
170.805158
21
225.173528
0
LINE
8
Layer 1
10
170.805158
20
225.173528
11
170.560976
21
223.395886
0
LINE
8
Layer 1
10
170.560976
20
223.395886
11
169.985179
21
221.698939
0
LINE
8
Layer 1
10
169.985179
20
221.698939
11
169.502643
21
220.526648
0
LINE
8
Layer 1
10
169.502643
20
220.526648
11
169.399201
21
219.941809
0
LINE
8
Layer 1
10
169.399201
20
219.941809
11
170.253276
21
220.014089
0
LINE
8
Layer 1
10
170.253276
20
220.014089
11
172.072890
21
220.421685
0
LINE
8
Layer 1
10
172.072890
20
220.421685
11
174.306306
21
220.881820
0
LINE
8
Layer 1
10
174.306306
20
220.881820
11
176.365952
21
221.090071
0
LINE
8
Layer 1
10
176.365952
20
221.090071
11
178.083455
21
221.039413
0
LINE
8
Layer 1
10
178.083455
20
221.039413
11
179.290441
21
220.722822
0
LINE
8
Layer 1
10
179.290441
20
220.722822
11
180.106937
21
220.140807
0
LINE
8
Layer 1
10
180.106937
20
220.140807
11
180.582539
21
219.368060
0
LINE
8
Layer 1
10
180.582539
20
219.368060
11
180.731772
21
218.363260
0
LINE
8
Layer 1
10
180.731772
20
218.363260
11
180.569162
21
217.085088
0
LINE
8
Layer 1
10
180.569162
20
217.085088
11
180.166854
21
215.710149
0
LINE
8
Layer 1
10
180.166854
20
215.710149
11
179.686991
21
214.624305
0
LINE
8
Layer 1
10
179.686991
20
214.624305
11
179.151898
21
213.606298
0
LINE
8
Layer 1
10
179.151898
20
213.606298
11
181.362234
21
213.316772
0
LINE
8
Layer 1
10
181.362234
20
213.316772
11
183.112353
21
213.083306
0
LINE
8
Layer 1
10
183.112353
20
213.083306
11
184.519225
21
212.655345
0
LINE
8
Layer 1
10
184.519225
20
212.655345
11
185.545007
21
212.048981
0
LINE
8
Layer 1
10
185.545007
20
212.048981
11
186.151856
21
211.280307
0
LINE
8
Layer 1
10
186.151856
20
211.280307
11
186.487349
21
209.887555
0
LINE
8
Layer 1
10
186.487349
20
209.887555
11
186.383010
21
208.354160
0
LINE
8
Layer 1
10
186.383010
20
208.354160
11
185.882282
21
206.894997
0
LINE
8
Layer 1
10
185.882282
20
206.894997
11
185.028611
21
205.724941
0
LINE
8
Layer 1
10
185.028611
20
205.724941
11
184.231898
21
204.706813
0
LINE
8
Layer 1
10
184.231898
20
204.706813
11
184.740014
21
204.463088
0
LINE
8
Layer 1
10
184.740014
20
204.463088
11
185.961638
21
204.256121
0
LINE
8
Layer 1
10
185.961638
20
204.256121
11
187.470744
21
203.978756
0
LINE
8
Layer 1
10
187.470744
20
203.978756
11
188.598684
21
203.501217
0
LINE
8
Layer 1
10
188.598684
20
203.501217
11
189.347660
21
202.822149
0
LINE
8
Layer 1
10
189.347660
20
202.822149
11
189.719879
21
201.940194
0
LINE
8
Layer 1
10
189.719879
20
201.940194
11
189.810142
21
200.745274
0
LINE
8
Layer 1
10
189.810142
20
200.745274
11
189.663498
21
199.505288
0
LINE
8
Layer 1
10
189.663498
20
199.505288
11
189.297746
21
198.304995
0
LINE
8
Layer 1
10
189.297746
20
198.304995
11
188.730690
21
197.229151
0
LINE
8
Layer 1
10
188.730690
20
197.229151
11
187.933355
21
196.041967
0
LINE
8
Layer 1
10
187.933355
20
196.041967
11
188.975405
21
195.717050
0
LINE
8
Layer 1
10
188.975405
20
195.717050
11
191.003352
21
194.807575
0
LINE
8
Layer 1
10
191.003352
20
194.807575
11
192.919823
21
193.488963
0
LINE
8
Layer 1
10
192.919823
20
193.488963
11
194.398054
21
192.028701
0
LINE
8
Layer 1
10
194.398054
20
192.028701
11
194.870717
21
191.329041
0
LINE
8
Layer 1
10
194.870717
20
191.329041
11
195.111283
21
190.694276
0
LINE
8
Layer 1
10
195.111283
20
190.694276
11
195.114872
21
189.802718
0
LINE
8
Layer 1
10
195.114872
20
189.802718
11
194.861484
21
188.791868
0
LINE
8
Layer 1
10
194.861484
20
188.791868
11
194.398308
21
187.793998
0
LINE
8
Layer 1
10
194.398308
20
187.793998
11
193.772533
21
186.941378
0
LINE
8
Layer 1
10
193.772533
20
186.941378
11
193.180121
21
186.310772
0
LINE
8
Layer 1
10
193.180121
20
186.310772
11
193.856579
21
185.747474
0
LINE
8
Layer 1
10
193.856579
20
185.747474
11
194.825843
21
185.174783
0
LINE
8
Layer 1
10
194.825843
20
185.174783
11
195.407061
21
184.775782
0
LINE
8
Layer 1
10
195.407061
20
184.775782
11
196.380302
21
183.836403
0
LINE
8
Layer 1
10
196.380302
20
183.836403
11
198.108708
21
181.778727
0
LINE
8
Layer 1
10
198.108708
20
181.778727
11
198.669844
21
180.476605
0
LINE
8
Layer 1
10
198.669844
20
180.476605
11
198.768618
21
179.199607
0
LINE
8
Layer 1
10
198.768618
20
179.199607
11
198.408440
21
177.980248
0
LINE
8
Layer 1
10
198.408440
20
177.980248
11
197.592721
21
176.851042
0
LINE
8
Layer 1
10
197.592721
20
176.851042
11
196.861674
21
175.935858
0
LINE
8
Layer 1
10
196.861674
20
175.935858
11
196.812338
21
175.617463
0
LINE
8
Layer 1
10
196.812338
20
175.617463
11
196.930600
21
175.290043
0
LINE
8
Layer 1
10
196.930600
20
175.290043
11
197.223818
21
174.889690
0
LINE
8
Layer 1
10
197.223818
20
174.889690
11
197.502749
21
174.723171
0
LINE
8
Layer 1
10
197.502749
20
174.723171
11
197.900845
21
174.393207
0
LINE
8
Layer 1
10
197.900845
20
174.393207
11
198.480593
21
173.599890
0
LINE
8
Layer 1
10
198.480593
20
173.599890
11
199.036874
21
172.379947
0
LINE
8
Layer 1
10
199.036874
20
172.379947
11
199.189676
21
170.904764
0
LINE
8
Layer 1
10
199.189676
20
170.904764
11
199.093305
21
169.616542
0
LINE
8
Layer 1
10
199.093305
20
169.616542
11
198.746241
21
168.562812
0
LINE
8
Layer 1
10
198.746241
20
168.562812
11
198.061559
21
167.571259
0
LINE
8
Layer 1
10
198.061559
20
167.571259
11
196.952331
21
166.469565
0
LINE
8
Layer 1
10
196.952331
20
166.469565
11
195.538144
21
165.198112
0
LINE
8
Layer 1
10
195.538144
20
165.198112
11
197.246858
21
163.446463
0
LINE
8
Layer 1
10
197.246858
20
163.446463
11
198.516073
21
162.020609
0
LINE
8
Layer 1
10
198.516073
20
162.020609
11
199.291562
21
160.809091
0
LINE
8
Layer 1
10
199.291562
20
160.809091
11
199.633033
21
159.687176
0
LINE
8
Layer 1
10
199.633033
20
159.687176
11
199.600196
21
158.530126
0
LINE
8
Layer 1
10
199.600196
20
158.530126
11
199.292664
21
157.159434
0
LINE
8
Layer 1
10
199.292664
20
157.159434
11
198.828216
21
156.136488
0
LINE
8
Layer 1
10
198.828216
20
156.136488
11
198.105720
21
155.303130
0
LINE
8
Layer 1
10
198.105720
20
155.303130
11
197.024044
21
154.501201
0
LINE
8
Layer 1
10
197.024044
20
154.501201
11
195.316627
21
153.409613
0
LINE
8
Layer 1
10
195.316627
20
153.409613
11
197.371149
21
151.224124
0
LINE
8
Layer 1
10
197.371149
20
151.224124
11
198.868652
21
149.560990
0
LINE
8
Layer 1
10
198.868652
20
149.560990
11
199.863982
21
148.104671
0
LINE
8
Layer 1
10
199.863982
20
148.104671
11
200.418760
21
146.743148
0
LINE
8
Layer 1
10
200.418760
20
146.743148
11
200.594606
21
145.364400
0
LINE
8
Layer 1
10
200.594606
20
145.364400
11
200.402687
21
144.221325
0
LINE
8
Layer 1
10
200.402687
20
144.221325
11
199.857064
21
143.247222
0
LINE
8
Layer 1
10
199.857064
20
143.247222
11
199.020406
21
142.519253
0
LINE
8
Layer 1
10
199.020406
20
142.519253
11
197.955377
21
142.114578
0
LINE
8
Layer 1
10
197.955377
20
142.114578
11
197.125820
21
141.835412
0
LINE
8
Layer 1
10
197.125820
20
141.835412
11
197.044350
21
141.586078
0
LINE
8
Layer 1
10
197.044350
20
141.586078
11
197.107920
21
141.178322
0
LINE
8
Layer 1
10
197.107920
20
141.178322
11
198.304994
21
138.316504
0
LINE
8
Layer 1
10
198.304994
20
138.316504
11
199.153086
21
136.208050
0
LINE
8
Layer 1
10
199.153086
20
136.208050
11
199.330787
21
134.130576
0
LINE
8
Layer 1
10
199.330787
20
134.130576
11
199.200728
21
132.237107
0
LINE
8
Layer 1
10
199.200728
20
132.237107
11
198.925248
21
131.743801
0
LINE
8
Layer 1
10
198.925248
20
131.743801
11
198.409106
21
131.237798
0
LINE
8
Layer 1
10
198.409106
20
131.237798
11
197.863647
21
130.801934
0
LINE
8
Layer 1
10
197.863647
20
130.801934
11
197.338355
21
130.552983
0
LINE
8
Layer 1
10
197.338355
20
130.552983
11
195.680525
21
130.414282
0
LINE
8
Layer 1
10
195.680525
20
130.414282
11
194.147286
21
130.376640
0
LINE
8
Layer 1
10
194.147286
20
130.376640
11
193.367671
21
130.211322
0
LINE
8
Layer 1
10
193.367671
20
130.211322
11
193.217304
21
130.056224
0
LINE
8
Layer 1
10
193.217304
20
130.056224
11
193.203541
21
129.839735
0
LINE
8
Layer 1
10
193.203541
20
129.839735
11
193.516755
21
129.183291
0
LINE
8
Layer 1
10
193.516755
20
129.183291
11
194.112577
21
127.938183
0
LINE
8
Layer 1
10
194.112577
20
127.938183
11
194.577953
21
126.453537
0
LINE
8
Layer 1
10
194.577953
20
126.453537
11
194.853422
21
124.967762
0
LINE
8
Layer 1
10
194.853422
20
124.967762
11
194.879522
21
123.719268
0
LINE
8
Layer 1
10
194.879522
20
123.719268
11
194.711520
21
122.910832
0
LINE
8
Layer 1
10
194.711520
20
122.910832
11
194.402011
21
122.209179
0
LINE
8
Layer 1
10
194.402011
20
122.209179
11
193.951365
21
121.614553
0
LINE
8
Layer 1
10
193.951365
20
121.614553
11
193.359956
21
121.127197
0
LINE
8
Layer 1
10
193.359956
20
121.127197
11
192.628155
21
120.747356
0
LINE
8
Layer 1
10
192.628155
20
120.747356
11
191.756334
21
120.475272
0
LINE
8
Layer 1
10
191.756334
20
120.475272
11
189.594120
21
120.255352
0
LINE
8
Layer 1
10
189.594120
20
120.255352
11
188.041898
21
120.253272
0
LINE
8
Layer 1
10
188.041898
20
120.253272
11
188.005943
21
118.723156
0
LINE
8
Layer 1
10
188.005943
20
118.723156
11
187.912774
21
117.776665
0
LINE
8
Layer 1
10
187.912774
20
117.776665
11
187.682069
21
116.949393
0
LINE
8
Layer 1
10
187.682069
20
116.949393
11
187.316163
21
116.243492
0
LINE
8
Layer 1
10
187.316163
20
116.243492
11
186.817392
21
115.661113
0
LINE
8
Layer 1
10
186.817392
20
115.661113
11
186.188092
21
115.204407
0
LINE
8
Layer 1
10
186.188092
20
115.204407
11
185.430597
21
114.875525
0
LINE
8
Layer 1
10
185.430597
20
114.875525
11
183.540369
21
114.609838
0
LINE
8
Layer 1
10
183.540369
20
114.609838
11
181.974120
21
114.609838
0
LINE
8
Layer 1
10
181.974120
20
114.609838
11
181.974120
21
113.369073
0
LINE
8
Layer 1
10
181.974120
20
113.369073
11
181.799996
21
112.198197
0
LINE
8
Layer 1
10
181.799996
20
112.198197
11
181.004292
21
111.276793
0
LINE
8
Layer 1
10
181.004292
20
111.276793
11
179.988234
21
110.659078
0
LINE
8
Layer 1
10
179.988234
20
110.659078
11
178.563779
21
110.272244
0
LINE
8
Layer 1
10
178.563779
20
110.272244
11
176.645172
21
110.102002
0
LINE
8
Layer 1
10
176.645172
20
110.102002
11
174.146659
21
110.134061
0
LINE
8
Layer 1
10
174.146659
20
110.134061
11
172.138355
21
110.113846
0
LINE
8
Layer 1
10
172.138355
20
110.113846
11
171.726305
21
109.873439
0
LINE
8
Layer 1
10
171.726305
20
109.873439
11
171.370947
21
109.388727
0
LINE
8
Layer 1
10
171.370947
20
109.388727
11
171.021067
21
108.927132
0
LINE
8
Layer 1
10
171.021067
20
108.927132
11
170.621329
21
108.661409
0
LINE
8
Layer 1
10
170.621329
20
108.661409
11
169.012387
21
108.456851
0
LINE
8
Layer 1
10
169.012387
20
108.456851
11
166.941617
21
108.483304
0
LINE
8
Layer 1
10
166.941617
20
108.483304
11
164.916271
21
108.753635
0
LINE
8
Layer 1
10
164.916271
20
108.753635
11
162.977474
21
109.259787
0
LINE
8
Layer 1
10
162.977474
20
109.259787
11
161.166356
21
109.993707
0
LINE
8
Layer 1
10
161.166356
20
109.993707
11
159.846734
21
110.571011
0
LINE
8
Layer 1
10
159.846734
20
110.571011
11
158.946533
21
110.802622
0
LINE
8
Layer 1
10
158.946533
20
110.802622
11
158.431518
21
110.691454
0
LINE
8
Layer 1
10
158.431518
20
110.691454
11
158.267454
21
110.240422
0
LINE
8
Layer 1
10
158.267454
20
110.240422
11
158.018251
21
109.314341
0
LINE
8
Layer 1
10
158.018251
20
109.314341
11
157.061490
21
107.440860
0
LINE
8
Layer 1
10
157.061490
20
107.440860
11
156.187561
21
105.990663
0
LINE
8
Layer 1
10
156.187561
20
105.990663
11
154.935076
21
104.252572
0
LINE
8
Layer 1
10
154.935076
20
104.252572
11
151.759328
21
100.432343
0
LINE
8
Layer 1
10
151.759328
20
100.432343
11
148.464015
21
97.019440
0
LINE
8
Layer 1
10
148.464015
20
97.019440
11
147.062074
21
95.790507
0
LINE
8
Layer 1
10
147.062074
20
95.790507
11
145.978905
21
95.053130
0
LINE
8
Layer 1
10
145.978905
20
95.053130
11
143.810479
21
93.536824
0
LINE
8
Layer 1
10
143.810479
20
93.536824
11
142.071528
21
92.375036
0
LINE
8
Layer 1
10
142.071528
20
92.375036
11
139.730110
21
91.100405
0
LINE
8
Layer 1
10
139.730110
20
91.100405
11
136.226829
21
89.374475
0
LINE
8
Layer 1
10
136.226829
20
89.374475
11
132.981274
21
88.352943
0
LINE
8
Layer 1
10
132.981274
20
88.352943
11
130.393945
21
87.652403
0
LINE
8
Layer 1
10
130.393945
20
87.652403
11
131.086801
21
85.936703
0
LINE
8
Layer 1
10
131.086801
20
85.936703
11
131.517746
21
84.766128
0
LINE
8
Layer 1
10
131.517746
20
84.766128
11
131.768396
21
83.541297
0
LINE
8
Layer 1
10
131.768396
20
83.541297
11
131.842907
21
82.290474
0
LINE
8
Layer 1
10
131.842907
20
82.290474
11
131.745437
21
81.041925
0
LINE
8
Layer 1
10
131.745437
20
81.041925
11
131.480141
21
79.823914
0
LINE
8
Layer 1
10
131.480141
20
79.823914
11
131.051177
21
78.664704
0
LINE
8
Layer 1
10
131.051177
20
78.664704
11
130.462701
21
77.592561
0
LINE
8
Layer 1
10
130.462701
20
77.592561
11
129.718870
21
76.635748
0
LINE
8
Layer 1
10
129.718870
20
76.635748
11
128.574233
21
75.393954
0
LINE
8
Layer 1
10
128.574233
20
75.393954
11
128.765495
21
73.059118
0
LINE
8
Layer 1
10
128.765495
20
73.059118
11
128.938353
21
71.227449
0
LINE
8
Layer 1
10
128.938353
20
71.227449
11
129.169573
21
70.234175
0
LINE
8
Layer 1
10
129.169573
20
70.234175
11
129.608195
21
69.750703
0
LINE
8
Layer 1
10
129.608195
20
69.750703
11
130.403259
21
69.448443
0
LINE
8
Layer 1
10
130.403259
20
69.448443
11
131.305327
21
69.063271
0
LINE
8
Layer 1
10
131.305327
20
69.063271
11
131.988413
21
68.556340
0
LINE
8
Layer 1
10
131.988413
20
68.556340
11
132.422848
21
67.957017
0
LINE
8
Layer 1
10
132.422848
20
67.957017
11
132.578966
21
67.294670
0
LINE
8
Layer 1
10
132.578966
20
67.294670
11
132.371017
21
66.793771
0
LINE
8
Layer 1
10
132.371017
20
66.793771
11
131.762931
21
66.406506
0
LINE
8
Layer 1
10
131.762931
20
66.406506
11
130.795430
21
66.149527
0
LINE
8
Layer 1
10
130.795430
20
66.149527
11
129.509235
21
66.039484
0
LINE
8
Layer 1
10
129.509235
20
66.039484
11
127.744394
21
65.832181
0
LINE
8
Layer 1
10
127.744394
20
65.832181
11
127.121194
21
65.562444
0
LINE
8
Layer 1
10
127.121194
20
65.562444
11
126.636862
21
65.141333
0
LINE
8
Layer 1
10
126.636862
20
65.141333
11
126.265935
21
64.538362
0
LINE
8
Layer 1
10
126.265935
20
64.538362
11
125.982953
21
63.723043
0
LINE
8
Layer 1
10
125.982953
20
63.723043
11
125.578980
21
61.333414
0
LINE
8
Layer 1
10
125.578980
20
61.333414
11
125.279444
21
59.556329
0
LINE
8
Layer 1
10
125.279444
20
59.556329
11
124.944008
21
58.563137
0
LINE
8
Layer 1
10
124.944008
20
58.563137
11
124.285993
21
57.999652
0
LINE
8
Layer 1
10
124.285993
20
57.999652
11
123.335666
21
57.555354
0
LINE
8
Layer 1
10
123.335666
20
57.555354
11
122.070760
21
57.222433
0
LINE
8
Layer 1
10
122.070760
20
57.222433
11
120.469008
21
56.993079
0
LINE
8
Layer 1
10
120.469008
20
56.993079
11
117.078729
21
56.444981
0
LINE
8
Layer 1
10
117.078729
20
56.444981
11
115.127219
21
55.852698
0
LINE
8
Layer 1
10
115.127219
20
55.852698
11
113.570050
21
55.100590
0
LINE
8
Layer 1
10
113.570050
20
55.100590
11
111.728734
21
53.850167
0
LINE
8
Layer 1
10
111.728734
20
53.850167
11
110.104345
21
52.480277
0
LINE
8
Layer 1
10
110.104345
20
52.480277
11
109.197956
21
51.369767
0
LINE
8
Layer 1
10
109.197956
20
51.369767
11
108.029612
21
49.696161
0
LINE
8
Layer 1
10
108.029612
20
49.696161
11
107.185231
21
48.557389
0
LINE
8
Layer 1
10
107.185231
20
48.557389
11
106.839711
21
48.139048
0
LINE
8
Layer 1
10
106.839711
20
48.139048
11
106.034181
21
47.578544
0
LINE
8
Layer 1
10
106.034181
20
47.578544
11
105.115187
21
47.087242
0
LINE
8
Layer 1
10
105.115187
20
47.087242
11
104.429275
21
46.876504
0
LINE
8
Layer 1
10
104.429275
20
46.876504
11
104.118897
21
46.930985
0
LINE
8
Layer 1
10
104.118897
20
46.930985
11
103.881094
21
47.119502
0
LINE
8
Layer 1
10
103.881094
20
47.119502
11
103.504574
21
48.049076
0
LINE
8
Layer 1
10
103.504574
20
48.049076
11
103.504574
21
48.049076
0
LINE
8
Layer 1
10
106.993687
20
51.196099
11
109.394149
21
53.889082
0
LINE
8
Layer 1
10
109.394149
20
53.889082
11
110.637984
21
54.989783
0
LINE
8
Layer 1
10
110.637984
20
54.989783
11
111.744447
21
55.766504
0
LINE
8
Layer 1
10
111.744447
20
55.766504
11
113.767800
21
56.844863
0
LINE
8
Layer 1
10
113.767800
20
56.844863
11
115.540219
21
57.590662
0
LINE
8
Layer 1
10
115.540219
20
57.590662
11
117.127616
21
58.027094
0
LINE
8
Layer 1
10
117.127616
20
58.027094
11
118.595899
21
58.177351
0
LINE
8
Layer 1
10
118.595899
20
58.177351
11
121.038141
21
58.512807
0
LINE
8
Layer 1
10
121.038141
20
58.512807
11
123.064437
21
59.168515
0
LINE
8
Layer 1
10
123.064437
20
59.168515
11
123.315153
21
59.444076
0
LINE
8
Layer 1
10
123.315153
20
59.444076
11
123.547481
21
59.979801
0
LINE
8
Layer 1
10
123.547481
20
59.979801
11
123.996786
21
61.950529
0
LINE
8
Layer 1
10
123.996786
20
61.950529
11
124.576283
21
64.668408
0
LINE
8
Layer 1
10
124.576283
20
64.668408
11
124.898085
21
65.587293
0
LINE
8
Layer 1
10
124.898085
20
65.587293
11
125.276216
21
66.260115
0
LINE
8
Layer 1
10
125.276216
20
66.260115
11
125.736892
21
66.722353
0
LINE
8
Layer 1
10
125.736892
20
66.722353
11
126.306332
21
67.009486
0
LINE
8
Layer 1
10
126.306332
20
67.009486
11
127.876382
21
67.200357
0
LINE
8
Layer 1
10
127.876382
20
67.200357
11
129.619580
21
67.367067
0
LINE
8
Layer 1
10
129.619580
20
67.367067
11
130.138597
21
67.545701
0
LINE
8
Layer 1
10
130.138597
20
67.545701
11
130.327454
21
67.765910
0
LINE
8
Layer 1
10
130.327454
20
67.765910
11
129.951590
21
68.075530
0
LINE
8
Layer 1
10
129.951590
20
68.075530
11
129.047915
21
68.509103
0
LINE
8
Layer 1
10
129.047915
20
68.509103
11
128.025794
21
69.073591
0
LINE
8
Layer 1
10
128.025794
20
69.073591
11
127.597885
21
69.736504
0
LINE
8
Layer 1
10
127.597885
20
69.736504
11
127.346332
21
70.472744
0
LINE
8
Layer 1
10
127.346332
20
70.472744
11
126.944043
21
70.898580
0
LINE
8
Layer 1
10
126.944043
20
70.898580
11
126.254792
21
71.091197
0
LINE
8
Layer 1
10
126.254792
20
71.091197
11
125.142354
21
71.127778
0
LINE
8
Layer 1
10
125.142354
20
71.127778
11
122.900465
21
70.905872
0
LINE
8
Layer 1
10
122.900465
20
70.905872
11
122.341337
21
70.278136
0
LINE
8
Layer 1
10
122.341337
20
70.278136
11
121.716825
21
69.052657
0
LINE
8
Layer 1
10
121.716825
20
69.052657
11
120.671777
21
67.142723
0
LINE
8
Layer 1
10
120.671777
20
67.142723
11
119.243458
21
65.614842
0
LINE
8
Layer 1
10
119.243458
20
65.614842
11
117.429758
21
64.467268
0
LINE
8
Layer 1
10
117.429758
20
64.467268
11
115.228565
21
63.698255
0
LINE
8
Layer 1
10
115.228565
20
63.698255
11
112.524714
21
63.329798
0
LINE
8
Layer 1
10
112.524714
20
63.329798
11
107.608565
21
63.295759
0
LINE
8
Layer 1
10
107.608565
20
63.295759
11
102.375805
21
63.254864
0
LINE
8
Layer 1
10
102.375805
20
63.254864
11
100.976283
21
63.023322
0
LINE
8
Layer 1
10
100.976283
20
63.023322
11
99.426632
21
62.565212
0
LINE
8
Layer 1
10
99.426632
20
62.565212
11
97.309968
21
61.811749
0
LINE
8
Layer 1
10
97.309968
20
61.811749
11
95.483518
21
60.987651
0
LINE
8
Layer 1
10
95.483518
20
60.987651
11
93.934664
21
60.086470
0
LINE
8
Layer 1
10
93.934664
20
60.086470
11
92.650787
21
59.101756
0
LINE
8
Layer 1
10
92.650787
20
59.101756
11
91.521898
21
58.096884
0
LINE
8
Layer 1
10
91.521898
20
58.096884
11
92.509676
21
58.282228
0
LINE
8
Layer 1
10
92.509676
20
58.282228
11
96.032148
21
58.636346
0
LINE
8
Layer 1
10
96.032148
20
58.636346
11
97.500535
21
58.755632
0
LINE
8
Layer 1
10
97.500535
20
58.755632
11
98.429883
21
58.947669
0
LINE
8
Layer 1
10
98.429883
20
58.947669
11
99.172251
21
59.334328
0
LINE
8
Layer 1
10
99.172251
20
59.334328
11
100.079694
21
60.037478
0
LINE
8
Layer 1
10
100.079694
20
60.037478
11
101.172711
21
60.803105
0
LINE
8
Layer 1
10
101.172711
20
60.803105
11
102.088450
21
61.213573
0
LINE
8
Layer 1
10
102.088450
20
61.213573
11
102.717861
21
61.238180
0
LINE
8
Layer 1
10
102.717861
20
61.238180
11
102.891117
21
61.096189
0
LINE
8
Layer 1
10
102.891117
20
61.096189
11
102.951898
21
60.846219
0
LINE
8
Layer 1
10
102.951898
20
60.846219
11
102.393797
21
60.028979
0
LINE
8
Layer 1
10
102.393797
20
60.028979
11
101.051978
21
58.658997
0
LINE
8
Layer 1
10
101.051978
20
58.658997
11
97.894652
21
55.589114
0
LINE
8
Layer 1
10
97.894652
20
55.589114
11
97.282999
21
54.739257
0
LINE
8
Layer 1
10
97.282999
20
54.739257
11
96.890781
21
53.855214
0
LINE
8
Layer 1
10
96.890781
20
53.855214
11
96.575260
21
52.858285
0
LINE
8
Layer 1
10
96.575260
20
52.858285
11
96.534927
21
52.352736
0
LINE
8
Layer 1
10
96.534927
20
52.352736
11
96.914152
21
52.379764
0
LINE
8
Layer 1
10
96.914152
20
52.379764
11
97.558638
21
52.651025
0
LINE
8
Layer 1
10
97.558638
20
52.651025
11
98.166623
21
53.013765
0
LINE
8
Layer 1
10
98.166623
20
53.013765
11
98.436343
21
53.315232
0
LINE
8
Layer 1
10
98.436343
20
53.315232
11
98.638935
21
53.631644
0
LINE
8
Layer 1
10
98.638935
20
53.631644
11
99.185448
21
54.046592
0
LINE
8
Layer 1
10
99.185448
20
54.046592
11
100.942631
21
54.999240
0
LINE
8
Layer 1
10
100.942631
20
54.999240
11
102.972695
21
55.827464
0
LINE
8
Layer 1
10
102.972695
20
55.827464
11
104.540442
21
56.185554
0
LINE
8
Layer 1
10
104.540442
20
56.185554
11
105.077102
21
56.399271
0
LINE
8
Layer 1
10
105.077102
20
56.399271
11
105.487439
21
57.025715
0
LINE
8
Layer 1
10
105.487439
20
57.025715
11
106.007843
21
57.826479
0
LINE
8
Layer 1
10
106.007843
20
57.826479
11
106.772848
21
58.577937
0
LINE
8
Layer 1
10
106.772848
20
58.577937
11
107.904786
21
59.265304
0
LINE
8
Layer 1
10
107.904786
20
59.265304
11
108.199262
21
59.280240
0
LINE
8
Layer 1
10
108.199262
20
59.280240
11
108.312106
21
59.084712
0
LINE
8
Layer 1
10
108.312106
20
59.084712
11
107.990981
21
58.088365
0
LINE
8
Layer 1
10
107.990981
20
58.088365
11
106.937581
21
56.328465
0
LINE
8
Layer 1
10
106.937581
20
56.328465
11
105.760821
21
54.261526
0
LINE
8
Layer 1
10
105.760821
20
54.261526
11
105.094219
21
52.172021
0
LINE
8
Layer 1
10
105.094219
20
52.172021
11
104.795455
21
49.912279
0
LINE
8
Layer 1
10
104.795455
20
49.912279
11
104.915677
21
49.331102
0
LINE
8
Layer 1
10
104.915677
20
49.331102
11
105.214897
21
49.134282
0
LINE
8
Layer 1
10
105.214897
20
49.134282
11
106.993687
21
51.196099
0
LINE
8
Layer 1
10
106.993687
20
51.196099
11
106.993687
21
51.196099
0
LINE
8
Layer 1
10
99.086244
20
64.227210
11
100.780847
21
64.573324
0
LINE
8
Layer 1
10
100.780847
20
64.573324
11
102.951701
21
64.827954
0
LINE
8
Layer 1
10
102.951701
20
64.827954
11
104.847786
21
65.060871
0
LINE
8
Layer 1
10
104.847786
20
65.060871
11
105.598860
21
65.374802
0
LINE
8
Layer 1
10
105.598860
20
65.374802
11
105.960514
21
65.685355
0
LINE
8
Layer 1
10
105.960514
20
65.685355
11
106.637466
21
65.930170
0
LINE
8
Layer 1
10
106.637466
20
65.930170
11
107.538969
21
66.128169
0
LINE
8
Layer 1
10
107.538969
20
66.128169
11
107.401216
21
68.053461
0
LINE
8
Layer 1
10
107.401216
20
68.053461
11
107.401925
21
69.820577
0
LINE
8
Layer 1
10
107.401925
20
69.820577
11
107.867137
21
71.057073
0
LINE
8
Layer 1
10
107.867137
20
71.057073
11
108.246997
21
71.679137
0
LINE
8
Layer 1
10
108.246997
20
71.679137
11
108.644380
21
72.008977
0
LINE
8
Layer 1
10
108.644380
20
72.008977
11
109.296002
21
72.153677
0
LINE
8
Layer 1
10
109.296002
20
72.153677
11
110.438576
21
72.220322
0
LINE
8
Layer 1
10
110.438576
20
72.220322
11
111.891993
21
72.343902
0
LINE
8
Layer 1
10
111.891993
20
72.343902
11
112.623117
21
72.521761
0
LINE
8
Layer 1
10
112.623117
20
72.521761
11
112.445127
21
72.940743
0
LINE
8
Layer 1
10
112.445127
20
72.940743
11
111.712781
21
73.644043
0
LINE
8
Layer 1
10
111.712781
20
73.644043
11
110.585671
21
74.549816
0
LINE
8
Layer 1
10
110.585671
20
74.549816
11
108.250451
21
73.947285
0
LINE
8
Layer 1
10
108.250451
20
73.947285
11
106.151504
21
73.509930
0
LINE
8
Layer 1
10
106.151504
20
73.509930
11
104.384345
21
73.304519
0
LINE
8
Layer 1
10
104.384345
20
73.304519
11
103.535276
21
73.249790
0
LINE
8
Layer 1
10
103.535276
20
73.249790
11
102.921788
21
73.092574
0
LINE
8
Layer 1
10
102.921788
20
73.092574
11
101.734166
21
72.190015
0
LINE
8
Layer 1
10
101.734166
20
72.190015
11
100.398675
21
71.117438
0
LINE
8
Layer 1
10
100.398675
20
71.117438
11
98.873840
21
70.256935
0
LINE
8
Layer 1
10
98.873840
20
70.256935
11
97.234488
21
69.643364
0
LINE
8
Layer 1
10
97.234488
20
69.643364
11
95.555446
21
69.311585
0
LINE
8
Layer 1
10
95.555446
20
69.311585
11
93.937131
21
69.029060
0
LINE
8
Layer 1
10
93.937131
20
69.029060
11
93.677406
21
68.780684
0
LINE
8
Layer 1
10
93.677406
20
68.780684
11
93.583757
21
68.364755
0
LINE
8
Layer 1
10
93.583757
20
68.364755
11
93.500617
21
67.973186
0
LINE
8
Layer 1
10
93.500617
20
67.973186
11
93.318793
21
67.734619
0
LINE
8
Layer 1
10
93.318793
20
67.734619
11
92.392328
21
67.529456
0
LINE
8
Layer 1
10
92.392328
20
67.529456
11
90.923026
21
67.641310
0
LINE
8
Layer 1
10
90.923026
20
67.641310
11
88.942359
21
68.037157
0
LINE
8
Layer 1
10
88.942359
20
68.037157
11
86.597515
21
68.635242
0
LINE
8
Layer 1
10
86.597515
20
68.635242
11
85.814151
21
68.071373
0
LINE
8
Layer 1
10
85.814151
20
68.071373
11
84.390425
21
67.331650
0
LINE
8
Layer 1
10
84.390425
20
67.331650
11
82.067454
21
66.344983
0
LINE
8
Layer 1
10
82.067454
20
66.344983
11
79.808794
21
65.353628
0
LINE
8
Layer 1
10
79.808794
20
65.353628
11
78.539676
21
64.602634
0
LINE
8
Layer 1
10
78.539676
20
64.602634
11
77.975231
21
64.022803
0
LINE
8
Layer 1
10
77.975231
20
64.022803
11
79.104120
21
64.197659
0
LINE
8
Layer 1
10
79.104120
20
64.197659
11
83.911857
21
64.703178
0
LINE
8
Layer 1
10
83.911857
20
64.703178
11
89.079723
21
64.893255
0
LINE
8
Layer 1
10
89.079723
20
64.893255
11
93.528399
21
64.761358
0
LINE
8
Layer 1
10
93.528399
20
64.761358
11
95.145753
21
64.572629
0
LINE
8
Layer 1
10
95.145753
20
64.572629
11
96.178565
21
64.300958
0
LINE
8
Layer 1
10
96.178565
20
64.300958
11
96.933792
21
63.981929
0
LINE
8
Layer 1
10
96.933792
20
63.981929
11
97.494503
21
63.867750
0
LINE
8
Layer 1
10
97.494503
20
63.867750
11
99.086244
21
64.227210
0
LINE
8
Layer 1
10
99.086244
20
64.227210
11
99.086244
21
64.227210
0
LINE
8
Layer 1
10
76.962054
20
65.294152
11
79.502054
21
66.849704
0
LINE
8
Layer 1
10
79.502054
20
66.849704
11
80.938565
21
67.649742
0
LINE
8
Layer 1
10
80.938565
20
67.649742
11
82.978633
21
68.516788
0
LINE
8
Layer 1
10
82.978633
20
68.516788
11
83.210107
21
68.755989
0
LINE
8
Layer 1
10
83.210107
20
68.755989
11
83.014620
21
68.926363
0
LINE
8
Layer 1
10
83.014620
20
68.926363
11
82.305707
21
69.100338
0
LINE
8
Layer 1
10
82.305707
20
69.100338
11
81.528176
21
69.142663
0
LINE
8
Layer 1
10
81.528176
20
69.142663
11
80.863390
21
69.058588
0
LINE
8
Layer 1
10
80.863390
20
69.058588
11
80.492710
21
68.853363
0
LINE
8
Layer 1
10
80.492710
20
68.853363
11
79.557987
21
68.225308
0
LINE
8
Layer 1
10
79.557987
20
68.225308
11
77.573336
21
67.284003
0
LINE
8
Layer 1
10
77.573336
20
67.284003
11
72.401343
21
65.313473
0
LINE
8
Layer 1
10
72.401343
20
65.313473
11
72.052533
21
65.133167
0
LINE
8
Layer 1
10
72.052533
20
65.133167
11
71.907454
21
64.922039
0
LINE
8
Layer 1
10
71.907454
20
64.922039
11
72.031424
21
64.786494
0
LINE
8
Layer 1
10
72.031424
20
64.786494
11
72.484986
21
64.672339
0
LINE
8
Layer 1
10
72.484986
20
64.672339
11
74.870787
21
64.426236
0
LINE
8
Layer 1
10
74.870787
20
64.426236
11
75.717930
21
64.661941
0
LINE
8
Layer 1
10
75.717930
20
64.661941
11
76.962054
21
65.294152
0
LINE
8
Layer 1
10
76.962054
20
65.294152
11
76.962054
21
65.294152
0
LINE
8
Layer 1
10
114.957603
20
64.804623
11
116.194070
21
65.208735
0
LINE
8
Layer 1
10
116.194070
20
65.208735
11
117.293835
21
65.749261
0
LINE
8
Layer 1
10
117.293835
20
65.749261
11
118.250017
21
66.418195
0
LINE
8
Layer 1
10
118.250017
20
66.418195
11
119.055731
21
67.207532
0
LINE
8
Layer 1
10
119.055731
20
67.207532
11
119.704095
21
68.109267
0
LINE
8
Layer 1
10
119.704095
20
68.109267
11
120.188225
21
69.115394
0
LINE
8
Layer 1
10
120.188225
20
69.115394
11
120.501239
21
70.217908
0
LINE
8
Layer 1
10
120.501239
20
70.217908
11
120.636253
21
71.408804
0
LINE
8
Layer 1
10
120.636253
20
71.408804
11
120.621466
21
72.592062
0
LINE
8
Layer 1
10
120.621466
20
72.592062
11
120.467900
21
73.385407
0
LINE
8
Layer 1
10
120.467900
20
73.385407
11
120.159955
21
73.830708
0
LINE
8
Layer 1
10
120.159955
20
73.830708
11
119.682031
21
73.969838
0
LINE
8
Layer 1
10
119.682031
20
73.969838
11
116.118242
21
75.070267
0
LINE
8
Layer 1
10
116.118242
20
75.070267
11
112.220986
21
76.369885
0
LINE
8
Layer 1
10
112.220986
20
76.369885
11
111.757816
21
76.373577
0
LINE
8
Layer 1
10
111.757816
20
76.373577
11
111.700787
21
76.080058
0
LINE
8
Layer 1
10
111.700787
20
76.080058
11
111.965190
21
75.529160
0
LINE
8
Layer 1
10
111.965190
20
75.529160
11
112.600878
21
74.861595
0
LINE
8
Layer 1
10
112.600878
20
74.861595
11
114.303202
21
73.323356
0
LINE
8
Layer 1
10
114.303202
20
73.323356
11
115.060149
21
72.275851
0
LINE
8
Layer 1
10
115.060149
20
72.275851
11
115.098383
21
71.895840
0
LINE
8
Layer 1
10
115.098383
20
71.895840
11
114.917406
21
71.590172
0
LINE
8
Layer 1
10
114.917406
20
71.590172
11
113.920662
21
71.137410
0
LINE
8
Layer 1
10
113.920662
20
71.137410
11
112.901269
21
70.964550
0
LINE
8
Layer 1
10
112.901269
20
70.964550
11
112.088843
21
70.990141
0
LINE
8
Layer 1
10
112.088843
20
70.990141
11
111.253592
21
71.015977
0
LINE
8
Layer 1
10
111.253592
20
71.015977
11
110.179327
21
70.843699
0
LINE
8
Layer 1
10
110.179327
20
70.843699
11
109.132258
21
70.436829
0
LINE
8
Layer 1
10
109.132258
20
70.436829
11
108.918792
21
70.136503
0
LINE
8
Layer 1
10
108.918792
20
70.136503
11
108.810973
21
69.686083
0
LINE
8
Layer 1
10
108.810973
20
69.686083
11
108.960183
21
67.460509
0
LINE
8
Layer 1
10
108.960183
20
67.460509
11
109.091946
21
66.217455
0
LINE
8
Layer 1
10
109.091946
20
66.217455
11
108.788395
21
65.400199
0
LINE
8
Layer 1
10
108.788395
20
65.400199
11
108.525145
21
64.869702
0
LINE
8
Layer 1
10
108.525145
20
64.869702
11
108.516953
21
64.547742
0
LINE
8
Layer 1
10
108.516953
20
64.547742
11
109.435929
21
64.384159
0
LINE
8
Layer 1
10
109.435929
20
64.384159
11
111.247524
21
64.389668
0
LINE
8
Layer 1
10
111.247524
20
64.389668
11
113.303996
21
64.538435
0
LINE
8
Layer 1
10
113.303996
20
64.538435
11
114.957603
21
64.804623
0
LINE
8
Layer 1
10
114.957603
20
64.804623
11
114.957603
21
64.804623
0
LINE
8
Layer 1
10
92.001337
20
84.121600
11
92.262259
21
97.055458
0
LINE
8
Layer 1
10
92.262259
20
97.055458
11
92.468149
21
99.892803
0
LINE
8
Layer 1
10
92.468149
20
99.892803
11
92.796865
21
101.934766
0
LINE
8
Layer 1
10
92.796865
20
101.934766
11
93.242730
21
104.670854
0
LINE
8
Layer 1
10
93.242730
20
104.670854
11
93.169130
21
105.356478
0
LINE
8
Layer 1
10
93.169130
20
105.356478
11
92.910234
21
106.035227
0
LINE
8
Layer 1
10
92.910234
20
106.035227
11
92.662155
21
106.925087
0
LINE
8
Layer 1
10
92.662155
20
106.925087
11
92.470082
21
108.272297
0
LINE
8
Layer 1
10
92.470082
20
108.272297
11
92.263790
21
111.868243
0
LINE
8
Layer 1
10
92.263790
20
111.868243
11
92.311032
21
115.882020
0
LINE
8
Layer 1
10
92.311032
20
115.882020
11
92.631483
21
119.372586
0
LINE
8
Layer 1
10
92.631483
20
119.372586
11
92.986462
21
122.411586
0
LINE
8
Layer 1
10
92.986462
20
122.411586
11
92.647336
21
122.164758
0
LINE
8
Layer 1
10
92.647336
20
122.164758
11
92.063221
21
121.327552
0
LINE
8
Layer 1
10
92.063221
20
121.327552
11
90.935892
21
119.125393
0
LINE
8
Layer 1
10
90.935892
20
119.125393
11
89.920146
21
115.738727
0
LINE
8
Layer 1
10
89.920146
20
115.738727
11
88.474048
21
110.303037
0
LINE
8
Layer 1
10
88.474048
20
110.303037
11
87.477516
21
107.162403
0
LINE
8
Layer 1
10
87.477516
20
107.162403
11
86.635866
21
105.555760
0
LINE
8
Layer 1
10
86.635866
20
105.555760
11
85.654413
21
104.722044
0
LINE
8
Layer 1
10
85.654413
20
104.722044
11
84.666442
21
104.353187
0
LINE
8
Layer 1
10
84.666442
20
104.353187
11
83.400805
21
104.175125
0
LINE
8
Layer 1
10
83.400805
20
104.175125
11
82.148832
21
104.205005
0
LINE
8
Layer 1
10
82.148832
20
104.205005
11
81.201850
21
104.459972
0
LINE
8
Layer 1
10
81.201850
20
104.459972
11
80.542880
21
105.120359
0
LINE
8
Layer 1
10
80.542880
20
105.120359
11
79.919224
21
106.273500
0
LINE
8
Layer 1
10
79.919224
20
106.273500
11
79.418615
21
107.716788
0
LINE
8
Layer 1
10
79.418615
20
107.716788
11
79.128787
21
109.247615
0
LINE
8
Layer 1
10
79.128787
20
109.247615
11
79.114580
21
111.734729
0
LINE
8
Layer 1
10
79.114580
20
111.734729
11
79.384282
21
115.282365
0
LINE
8
Layer 1
10
79.384282
20
115.282365
11
79.743100
21
119.568262
0
LINE
8
Layer 1
10
79.743100
20
119.568262
11
78.013557
21
116.758587
0
LINE
8
Layer 1
10
78.013557
20
116.758587
11
76.463102
21
114.272110
0
LINE
8
Layer 1
10
76.463102
20
114.272110
11
75.043902
21
112.359669
0
LINE
8
Layer 1
10
75.043902
20
112.359669
11
74.273799
21
111.525139
0
LINE
8
Layer 1
10
74.273799
20
111.525139
11
73.686575
21
111.059291
0
LINE
8
Layer 1
10
73.686575
20
111.059291
11
73.061496
21
110.836790
0
LINE
8
Layer 1
10
73.061496
20
110.836790
11
72.177823
21
110.732299
0
LINE
8
Layer 1
10
72.177823
20
110.732299
11
70.637454
21
110.608587
0
LINE
8
Layer 1
10
70.637454
20
110.608587
11
69.873535
21
111.800251
0
LINE
8
Layer 1
10
69.873535
20
111.800251
11
68.998435
21
113.710016
0
LINE
8
Layer 1
10
68.998435
20
113.710016
11
68.617519
21
115.910661
0
LINE
8
Layer 1
10
68.617519
20
115.910661
11
68.733384
21
118.356747
0
LINE
8
Layer 1
10
68.733384
20
118.356747
11
69.348629
21
121.002834
0
LINE
8
Layer 1
10
69.348629
20
121.002834
11
70.146931
21
123.046994
0
LINE
8
Layer 1
10
70.146931
20
123.046994
11
71.348502
21
125.605282
0
LINE
8
Layer 1
10
71.348502
20
125.605282
11
72.705251
21
128.179931
0
LINE
8
Layer 1
10
72.705251
20
128.179931
11
73.969087
21
130.273171
0
LINE
8
Layer 1
10
73.969087
20
130.273171
11
76.051689
21
133.376969
0
LINE
8
Layer 1
10
76.051689
20
133.376969
11
76.995074
21
134.787437
0
LINE
8
Layer 1
10
76.995074
20
134.787437
11
76.215153
21
134.972676
0
LINE
8
Layer 1
10
76.215153
20
134.972676
11
69.931898
21
135.476928
0
LINE
8
Layer 1
10
69.931898
20
135.476928
11
60.336343
21
136.067701
0
LINE
8
Layer 1
10
60.336343
20
136.067701
11
47.918565
21
136.760207
0
LINE
8
Layer 1
10
47.918565
20
136.760207
11
37.123570
21
137.355357
0
LINE
8
Layer 1
10
37.123570
20
137.355357
11
35.425607
21
137.417669
0
LINE
8
Layer 1
10
35.425607
20
137.417669
11
34.949238
21
137.332590
0
LINE
8
Layer 1
10
34.949238
20
137.332590
11
34.700628
21
137.129956
0
LINE
8
Layer 1
10
34.700628
20
137.129956
11
34.664289
21
136.779717
0
LINE
8
Layer 1
10
34.664289
20
136.779717
11
34.824735
21
136.251822
0
LINE
8
Layer 1
10
34.824735
20
136.251822
11
35.674029
21
134.542871
0
LINE
8
Layer 1
10
35.674029
20
134.542871
11
36.494127
21
132.814671
0
LINE
8
Layer 1
10
36.494127
20
132.814671
11
37.051518
21
131.185134
0
LINE
8
Layer 1
10
37.051518
20
131.185134
11
37.369643
21
129.567318
0
LINE
8
Layer 1
10
37.369643
20
129.567318
11
37.471943
21
127.874282
0
LINE
8
Layer 1
10
37.471943
20
127.874282
11
37.370132
21
126.467685
0
LINE
8
Layer 1
10
37.370132
20
126.467685
11
37.023240
21
125.345975
0
LINE
8
Layer 1
10
37.023240
20
125.345975
11
36.375042
21
124.391861
0
LINE
8
Layer 1
10
36.375042
20
124.391861
11
35.369314
21
123.488052
0
LINE
8
Layer 1
10
35.369314
20
123.488052
11
34.738873
21
123.060878
0
LINE
8
Layer 1
10
34.738873
20
123.060878
11
34.088664
21
122.821448
0
LINE
8
Layer 1
10
34.088664
20
122.821448
11
31.672767
21
122.672921
0
LINE
8
Layer 1
10
31.672767
20
122.672921
11
29.002420
21
122.640513
0
LINE
8
Layer 1
10
29.002420
20
122.640513
11
28.425817
21
121.475096
0
LINE
8
Layer 1
10
28.425817
20
121.475096
11
27.799521
21
120.514647
0
LINE
8
Layer 1
10
27.799521
20
120.514647
11
27.024258
21
119.969824
0
LINE
8
Layer 1
10
27.024258
20
119.969824
11
26.002256
21
119.801853
0
LINE
8
Layer 1
10
26.002256
20
119.801853
11
24.635741
21
119.971955
0
LINE
8
Layer 1
10
24.635741
20
119.971955
11
22.930100
21
120.195442
0
LINE
8
Layer 1
10
22.930100
20
120.195442
11
22.352125
21
114.098383
0
LINE
8
Layer 1
10
22.352125
20
114.098383
11
21.813595
21
104.167615
0
LINE
8
Layer 1
10
21.813595
20
104.167615
11
21.372623
21
95.277615
0
LINE
8
Layer 1
10
21.372623
20
95.277615
11
20.678431
21
83.918114
0
LINE
8
Layer 1
10
20.678431
20
83.918114
11
20.386120
21
76.159848
0
LINE
8
Layer 1
10
20.386120
20
76.159848
11
20.665932
21
75.028171
0
LINE
8
Layer 1
10
20.665932
20
75.028171
11
20.797590
21
74.596348
0
LINE
8
Layer 1
10
20.797590
20
74.596348
11
21.045042
21
74.363499
0
LINE
8
Layer 1
10
21.045042
20
74.363499
11
22.453393
21
74.247485
0
LINE
8
Layer 1
10
22.453393
20
74.247485
11
31.267459
21
73.690790
0
LINE
8
Layer 1
10
31.267459
20
73.690790
11
50.599676
21
72.286537
0
LINE
8
Layer 1
10
50.599676
20
72.286537
11
75.435231
21
70.559837
0
LINE
8
Layer 1
10
75.435231
20
70.559837
11
88.417454
21
69.469573
0
LINE
8
Layer 1
10
88.417454
20
69.469573
11
90.957454
21
69.273397
0
LINE
8
Layer 1
10
90.957454
20
69.273397
11
91.804120
21
69.313171
0
LINE
8
Layer 1
10
91.804120
20
69.313171
11
92.001337
21
84.121600
0
LINE
8
Layer 1
10
92.001337
20
84.121600
11
92.001337
21
84.121600
0
LINE
8
Layer 1
10
97.382158
20
71.430698
11
98.675666
21
71.998609
0
LINE
8
Layer 1
10
98.675666
20
71.998609
11
99.748778
21
72.705027
0
LINE
8
Layer 1
10
99.748778
20
72.705027
11
100.572870
21
73.526894
0
LINE
8
Layer 1
10
100.572870
20
73.526894
11
101.119316
21
74.441152
0
LINE
8
Layer 1
10
101.119316
20
74.441152
11
101.427465
21
75.302099
0
LINE
8
Layer 1
10
101.427465
20
75.302099
11
101.514579
21
75.921489
0
LINE
8
Layer 1
10
101.514579
20
75.921489
11
101.378083
21
76.354067
0
LINE
8
Layer 1
10
101.378083
20
76.354067
11
101.015402
21
76.654581
0
LINE
8
Layer 1
10
101.015402
20
76.654581
11
98.510172
21
77.977540
0
LINE
8
Layer 1
10
98.510172
20
77.977540
11
97.124494
21
78.826077
0
LINE
8
Layer 1
10
97.124494
20
78.826077
11
95.992125
21
79.790673
0
LINE
8
Layer 1
10
95.992125
20
79.790673
11
95.068603
21
80.916535
0
LINE
8
Layer 1
10
95.068603
20
80.916535
11
94.309463
21
82.248869
0
LINE
8
Layer 1
10
94.309463
20
82.248869
11
93.849159
21
83.047094
0
LINE
8
Layer 1
10
93.849159
20
83.047094
11
93.717143
21
83.010125
0
LINE
8
Layer 1
10
93.717143
20
83.010125
11
93.585705
21
82.725105
0
LINE
8
Layer 1
10
93.585705
20
82.725105
11
93.485410
21
80.608628
0
LINE
8
Layer 1
10
93.485410
20
80.608628
11
93.548987
21
76.343724
0
LINE
8
Layer 1
10
93.548987
20
76.343724
11
93.729271
21
70.548881
0
LINE
8
Layer 1
10
93.729271
20
70.548881
11
94.833409
21
70.735424
0
LINE
8
Layer 1
10
94.833409
20
70.735424
11
97.382158
21
71.430698
0
LINE
8
Layer 1
10
97.382158
20
71.430698
11
97.382158
21
71.430698
0
LINE
8
Layer 1
10
126.528940
20
76.386388
11
127.731566
21
77.108564
0
LINE
8
Layer 1
10
127.731566
20
77.108564
11
128.737063
21
78.022716
0
LINE
8
Layer 1
10
128.737063
20
78.022716
11
129.531235
21
79.090242
0
LINE
8
Layer 1
10
129.531235
20
79.090242
11
130.099887
21
80.272539
0
LINE
8
Layer 1
10
130.099887
20
80.272539
11
130.428823
21
81.531003
0
LINE
8
Layer 1
10
130.428823
20
81.531003
11
130.503846
21
82.827032
0
LINE
8
Layer 1
10
130.503846
20
82.827032
11
130.310760
21
84.122023
0
LINE
8
Layer 1
10
130.310760
20
84.122023
11
129.835371
21
85.377373
0
LINE
8
Layer 1
10
129.835371
20
85.377373
11
129.416553
21
86.201577
0
LINE
8
Layer 1
10
129.416553
20
86.201577
11
127.452936
21
84.174742
0
LINE
8
Layer 1
10
127.452936
20
84.174742
11
125.821017
21
82.616533
0
LINE
8
Layer 1
10
125.821017
20
82.616533
11
124.654872
21
81.716400
0
LINE
8
Layer 1
10
124.654872
20
81.716400
11
123.514015
21
81.354890
0
LINE
8
Layer 1
10
123.514015
20
81.354890
11
122.020320
21
81.117271
0
LINE
8
Layer 1
10
122.020320
20
81.117271
11
120.722047
21
81.061212
0
LINE
8
Layer 1
10
120.722047
20
81.061212
11
120.317524
21
81.119288
0
LINE
8
Layer 1
10
120.317524
20
81.119288
11
120.167454
21
81.244381
0
LINE
8
Layer 1
10
120.167454
20
81.244381
11
120.436888
21
81.512895
0
LINE
8
Layer 1
10
120.436888
20
81.512895
11
121.084676
21
81.736342
0
LINE
8
Layer 1
10
121.084676
20
81.736342
11
122.426193
21
82.210324
0
LINE
8
Layer 1
10
122.426193
20
82.210324
11
123.962267
21
83.036468
0
LINE
8
Layer 1
10
123.962267
20
83.036468
11
125.408990
21
84.040565
0
LINE
8
Layer 1
10
125.408990
20
84.040565
11
126.482458
21
85.048409
0
LINE
8
Layer 1
10
126.482458
20
85.048409
11
127.124016
21
85.916750
0
LINE
8
Layer 1
10
127.124016
20
85.916750
11
127.265935
21
86.322033
0
LINE
8
Layer 1
10
127.265935
20
86.322033
11
124.809219
21
85.809647
0
LINE
8
Layer 1
10
124.809219
20
85.809647
11
121.578565
21
84.965134
0
LINE
8
Layer 1
10
121.578565
20
84.965134
11
118.050787
21
84.536390
0
LINE
8
Layer 1
10
118.050787
20
84.536390
11
116.153503
21
84.511725
0
LINE
8
Layer 1
10
116.153503
20
84.511725
11
114.631781
21
84.694968
0
LINE
8
Layer 1
10
114.631781
20
84.694968
11
113.620118
21
85.057161
0
LINE
8
Layer 1
10
113.620118
20
85.057161
11
113.347588
21
85.296315
0
LINE
8
Layer 1
10
113.347588
20
85.296315
11
113.253009
21
85.569349
0
LINE
8
Layer 1
10
113.253009
20
85.569349
11
113.397998
21
85.767420
0
LINE
8
Layer 1
10
113.397998
20
85.767420
11
113.886591
21
85.920076
0
LINE
8
Layer 1
10
113.886591
20
85.920076
11
116.216343
21
86.152454
0
LINE
8
Layer 1
10
116.216343
20
86.152454
11
121.155231
21
86.676298
0
LINE
8
Layer 1
10
121.155231
20
86.676298
11
126.492403
21
87.940384
0
LINE
8
Layer 1
10
126.492403
20
87.940384
11
131.033009
21
89.330942
0
LINE
8
Layer 1
10
131.033009
20
89.330942
11
133.573009
21
90.350789
0
LINE
8
Layer 1
10
133.573009
20
90.350789
11
136.918076
21
91.791973
0
LINE
8
Layer 1
10
136.918076
20
91.791973
11
138.834224
21
92.596504
0
LINE
8
Layer 1
10
138.834224
20
92.596504
11
140.565375
21
93.584282
0
LINE
8
Layer 1
10
140.565375
20
93.584282
11
142.238784
21
94.572060
0
LINE
8
Layer 1
10
142.238784
20
94.572060
11
143.254705
21
95.055080
0
LINE
8
Layer 1
10
143.254705
20
95.055080
11
144.989928
21
96.286519
0
LINE
8
Layer 1
10
144.989928
20
96.286519
11
147.018564
21
97.939944
0
LINE
8
Layer 1
10
147.018564
20
97.939944
11
148.914722
21
99.688924
0
LINE
8
Layer 1
10
148.914722
20
99.688924
11
152.116115
21
103.270846
0
LINE
8
Layer 1
10
152.116115
20
103.270846
11
154.862411
21
107.153564
0
LINE
8
Layer 1
10
154.862411
20
107.153564
11
157.140707
21
111.316412
0
LINE
8
Layer 1
10
157.140707
20
111.316412
11
158.938098
21
115.738727
0
LINE
8
Layer 1
10
158.938098
20
115.738727
11
159.856749
21
118.953140
0
LINE
8
Layer 1
10
159.856749
20
118.953140
11
161.004886
21
123.600257
0
LINE
8
Layer 1
10
161.004886
20
123.600257
11
162.053460
21
128.282587
0
LINE
8
Layer 1
10
162.053460
20
128.282587
11
162.673422
21
131.602641
0
LINE
8
Layer 1
10
162.673422
20
131.602641
11
162.713201
21
133.719250
0
LINE
8
Layer 1
10
162.713201
20
133.719250
11
162.483861
21
136.734064
0
LINE
8
Layer 1
10
162.483861
20
136.734064
11
162.054337
21
139.990931
0
LINE
8
Layer 1
10
162.054337
20
139.990931
11
161.493564
21
142.833702
0
LINE
8
Layer 1
10
161.493564
20
142.833702
11
160.621425
21
145.591022
0
LINE
8
Layer 1
10
160.621425
20
145.591022
11
159.356259
21
148.585065
0
LINE
8
Layer 1
10
159.356259
20
148.585065
11
157.781649
21
151.682487
0
LINE
8
Layer 1
10
157.781649
20
151.682487
11
155.981182
21
154.749942
0
LINE
8
Layer 1
10
155.981182
20
154.749942
11
154.038442
21
157.654085
0
LINE
8
Layer 1
10
154.038442
20
157.654085
11
152.037013
21
160.261570
0
LINE
8
Layer 1
10
152.037013
20
160.261570
11
150.060481
21
162.439054
0
LINE
8
Layer 1
10
150.060481
20
162.439054
11
148.192431
21
164.053190
0
LINE
8
Layer 1
10
148.192431
20
164.053190
11
144.946875
21
166.571306
0
LINE
8
Layer 1
10
144.946875
20
166.571306
11
142.753437
21
168.164991
0
LINE
8
Layer 1
10
142.753437
20
168.164991
11
140.769676
21
169.374840
0
LINE
8
Layer 1
10
140.769676
20
169.374840
11
137.383009
21
171.103764
0
LINE
8
Layer 1
10
137.383009
20
171.103764
11
132.455642
21
173.121038
0
LINE
8
Layer 1
10
132.455642
20
173.121038
11
125.106343
21
175.610918
0
LINE
8
Layer 1
10
125.106343
20
175.610918
11
119.719503
21
176.717306
0
LINE
8
Layer 1
10
119.719503
20
176.717306
11
112.688565
21
177.703353
0
LINE
8
Layer 1
10
112.688565
20
177.703353
11
109.695456
21
177.906468
0
LINE
8
Layer 1
10
109.695456
20
177.906468
11
106.586633
21
177.927588
0
LINE
8
Layer 1
10
106.586633
20
177.927588
11
103.454444
21
177.778505
0
LINE
8
Layer 1
10
103.454444
20
177.778505
11
100.391239
21
177.471009
0
LINE
8
Layer 1
10
100.391239
20
177.471009
11
97.489367
21
177.016891
0
LINE
8
Layer 1
10
97.489367
20
177.016891
11
94.841175
21
176.427943
0
LINE
8
Layer 1
10
94.841175
20
176.427943
11
92.539014
21
175.715955
0
LINE
8
Layer 1
10
92.539014
20
175.715955
11
90.675231
21
174.892719
0
LINE
8
Layer 1
10
90.675231
20
174.892719
11
85.599013
21
172.272274
0
LINE
8
Layer 1
10
85.599013
20
172.272274
11
83.636577
21
171.007930
0
LINE
8
Layer 1
10
83.636577
20
171.007930
11
81.041915
21
168.655393
0
LINE
8
Layer 1
10
81.041915
20
168.655393
11
78.576562
21
166.036491
0
LINE
8
Layer 1
10
78.576562
20
166.036491
11
78.028840
21
165.155394
0
LINE
8
Layer 1
10
78.028840
20
165.155394
11
77.668823
21
164.205045
0
LINE
8
Layer 1
10
77.668823
20
164.205045
11
77.163222
21
162.576916
0
LINE
8
Layer 1
10
77.163222
20
162.576916
11
78.410729
21
161.523934
0
LINE
8
Layer 1
10
78.410729
20
161.523934
11
80.614101
21
159.469007
0
LINE
8
Layer 1
10
80.614101
20
159.469007
11
82.004208
21
157.660094
0
LINE
8
Layer 1
10
82.004208
20
157.660094
11
82.669211
21
156.336055
0
LINE
8
Layer 1
10
82.669211
20
156.336055
11
83.234707
21
154.814188
0
LINE
8
Layer 1
10
83.234707
20
154.814188
11
83.609698
21
153.380473
0
LINE
8
Layer 1
10
83.609698
20
153.380473
11
83.703185
21
152.320890
0
LINE
8
Layer 1
10
83.703185
20
152.320890
11
83.615217
21
151.439838
0
LINE
8
Layer 1
10
83.615217
20
151.439838
11
82.869247
21
152.857039
0
LINE
8
Layer 1
10
82.869247
20
152.857039
11
81.523103
21
156.102595
0
LINE
8
Layer 1
10
81.523103
20
156.102595
11
80.796473
21
157.766228
0
LINE
8
Layer 1
10
80.796473
20
157.766228
11
79.731303
21
158.988893
0
LINE
8
Layer 1
10
79.731303
20
158.988893
11
78.362469
21
160.047226
0
LINE
8
Layer 1
10
78.362469
20
160.047226
11
78.595245
21
158.142615
0
LINE
8
Layer 1
10
78.595245
20
158.142615
11
78.867699
21
156.023186
0
LINE
8
Layer 1
10
78.867699
20
156.023186
11
78.826950
21
153.415393
0
LINE
8
Layer 1
10
78.826950
20
153.415393
11
78.508988
21
150.245483
0
LINE
8
Layer 1
10
78.508988
20
150.245483
11
78.264423
21
149.726677
0
LINE
8
Layer 1
10
78.264423
20
149.726677
11
77.885654
21
149.606474
0
LINE
8
Layer 1
10
77.885654
20
149.606474
11
77.632673
21
149.734063
0
LINE
8
Layer 1
10
77.632673
20
149.734063
11
77.483995
21
150.281131
0
LINE
8
Layer 1
10
77.483995
20
150.281131
11
77.372743
21
153.628141
0
LINE
8
Layer 1
10
77.372743
20
153.628141
11
77.228281
21
157.193593
0
LINE
8
Layer 1
10
77.228281
20
157.193593
11
76.745194
21
159.311097
0
LINE
8
Layer 1
10
76.745194
20
159.311097
11
76.002413
21
161.126726
0
LINE
8
Layer 1
10
76.002413
20
161.126726
11
75.714625
21
161.141643
0
LINE
8
Layer 1
10
75.714625
20
161.141643
11
75.390457
21
160.630049
0
LINE
8
Layer 1
10
75.390457
20
160.630049
11
74.601462
21
157.956033
0
LINE
8
Layer 1
10
74.601462
20
157.956033
11
74.129721
21
156.239930
0
LINE
8
Layer 1
10
74.129721
20
156.239930
11
73.641917
21
155.045717
0
LINE
8
Layer 1
10
73.641917
20
155.045717
11
73.124496
21
154.347890
0
LINE
8
Layer 1
10
73.124496
20
154.347890
11
72.563903
21
154.120949
0
LINE
8
Layer 1
10
72.563903
20
154.120949
11
72.355991
21
154.258550
0
LINE
8
Layer 1
10
72.355991
20
154.258550
11
72.328279
21
154.676035
0
LINE
8
Layer 1
10
72.328279
20
154.676035
11
72.816576
21
156.378727
0
LINE
8
Layer 1
10
72.816576
20
156.378727
11
73.790977
21
160.601759
0
LINE
8
Layer 1
10
73.790977
20
160.601759
11
74.447454
21
164.743093
0
LINE
8
Layer 1
10
74.447454
20
164.743093
11
74.364551
21
165.413301
0
LINE
8
Layer 1
10
74.364551
20
165.413301
11
74.165231
21
165.692060
0
LINE
8
Layer 1
10
74.165231
20
165.692060
11
73.965912
21
165.561116
0
LINE
8
Layer 1
10
73.965912
20
165.561116
11
73.883009
21
165.246293
0
LINE
8
Layer 1
10
73.883009
20
165.246293
11
73.489016
21
164.109581
0
LINE
8
Layer 1
10
73.489016
20
164.109581
11
72.576860
21
162.184797
0
LINE
8
Layer 1
10
72.576860
20
162.184797
11
71.551277
21
160.273230
0
LINE
8
Layer 1
10
71.551277
20
160.273230
11
70.817003
21
159.176170
0
LINE
8
Layer 1
10
70.817003
20
159.176170
11
69.698557
21
158.510901
0
LINE
8
Layer 1
10
69.698557
20
158.510901
11
69.237156
21
158.465196
0
LINE
8
Layer 1
10
69.237156
20
158.465196
11
69.100122
21
158.720964
0
LINE
8
Layer 1
10
69.100122
20
158.720964
11
69.287176
21
159.273697
0
LINE
8
Layer 1
10
69.287176
20
159.273697
11
69.798040
21
160.118891
0
LINE
8
Layer 1
10
69.798040
20
160.118891
11
71.348223
21
162.958868
0
LINE
8
Layer 1
10
71.348223
20
162.958868
11
72.779806
21
166.577131
0
LINE
8
Layer 1
10
72.779806
20
166.577131
11
73.922448
21
170.476232
0
LINE
8
Layer 1
10
73.922448
20
170.476232
11
74.605809
21
174.158727
0
LINE
8
Layer 1
10
74.605809
20
174.158727
11
75.103814
21
177.091103
0
LINE
8
Layer 1
10
75.103814
20
177.091103
11
75.749627
21
179.873727
0
LINE
8
Layer 1
10
75.749627
20
179.873727
11
75.774977
21
180.130973
0
LINE
8
Layer 1
10
75.774977
20
180.130973
11
75.608787
21
180.277878
0
LINE
8
Layer 1
10
75.608787
20
180.277878
11
74.395920
21
180.347778
0
LINE
8
Layer 1
10
74.395920
20
180.347778
11
72.357796
21
180.117138
0
LINE
8
Layer 1
10
72.357796
20
180.117138
11
71.964949
21
179.861899
0
LINE
8
Layer 1
10
71.964949
20
179.861899
11
72.372076
21
179.360864
0
LINE
8
Layer 1
10
72.372076
20
179.360864
11
73.264297
21
178.235336
0
LINE
8
Layer 1
10
73.264297
20
178.235336
11
73.781360
21
177.074947
0
LINE
8
Layer 1
10
73.781360
20
177.074947
11
73.876201
21
176.047936
0
LINE
8
Layer 1
10
73.876201
20
176.047936
11
73.750580
21
175.637021
0
LINE
8
Layer 1
10
73.750580
20
175.637021
11
73.501755
21
175.322540
0
LINE
8
Layer 1
10
73.501755
20
175.322540
11
72.866628
21
175.048928
0
LINE
8
Layer 1
10
72.866628
20
175.048928
11
71.874970
21
174.835411
0
LINE
8
Layer 1
10
71.874970
20
174.835411
11
70.629439
21
174.664692
0
LINE
8
Layer 1
10
70.629439
20
174.664692
11
70.734849
21
172.577266
0
LINE
8
Layer 1
10
70.734849
20
172.577266
11
70.840259
21
170.489838
0
LINE
8
Layer 1
10
70.840259
20
170.489838
11
69.810401
21
170.489838
0
LINE
8
Layer 1
10
69.810401
20
170.489838
11
68.754753
21
170.657328
0
LINE
8
Layer 1
10
68.754753
20
170.657328
11
67.662888
21
171.060017
0
LINE
8
Layer 1
10
67.662888
20
171.060017
11
66.545231
21
171.630199
0
LINE
8
Layer 1
10
66.545231
20
171.630199
11
66.545231
21
170.530131
0
LINE
8
Layer 1
10
66.545231
20
170.530131
11
66.445233
21
169.665751
0
LINE
8
Layer 1
10
66.445233
20
169.665751
11
66.134729
21
169.123053
0
LINE
8
Layer 1
10
66.134729
20
169.123053
11
65.597958
21
168.887565
0
LINE
8
Layer 1
10
65.597958
20
168.887565
11
64.819160
21
168.944809
0
LINE
8
Layer 1
10
64.819160
20
168.944809
11
63.916614
21
169.143039
0
LINE
8
Layer 1
10
63.916614
20
169.143039
11
64.090406
21
166.889410
0
LINE
8
Layer 1
10
64.090406
20
166.889410
11
64.424996
21
164.039461
0
LINE
8
Layer 1
10
64.424996
20
164.039461
11
65.094602
21
161.394902
0
LINE
8
Layer 1
10
65.094602
20
161.394902
11
66.336607
21
158.234926
0
LINE
8
Layer 1
10
66.336607
20
158.234926
11
68.388397
21
153.838727
0
LINE
8
Layer 1
10
68.388397
20
153.838727
11
70.779075
21
148.604522
0
LINE
8
Layer 1
10
70.779075
20
148.604522
11
72.327993
21
144.491419
0
LINE
8
Layer 1
10
72.327993
20
144.491419
11
73.122107
21
141.225555
0
LINE
8
Layer 1
10
73.122107
20
141.225555
11
73.263287
21
139.824757
0
LINE
8
Layer 1
10
73.263287
20
139.824757
11
73.248376
21
138.533070
0
LINE
8
Layer 1
10
73.248376
20
138.533070
11
73.111724
21
136.623171
0
LINE
8
Layer 1
10
73.111724
20
136.623171
11
74.584134
21
136.623171
0
LINE
8
Layer 1
10
74.584134
20
136.623171
11
75.888579
21
136.530950
0
LINE
8
Layer 1
10
75.888579
20
136.530950
11
76.957143
21
136.309227
0
LINE
8
Layer 1
10
76.957143
20
136.309227
11
77.495340
21
136.164011
0
LINE
8
Layer 1
10
77.495340
20
136.164011
11
77.942899
21
136.248778
0
LINE
8
Layer 1
10
77.942899
20
136.248778
11
79.372373
21
137.508671
0
LINE
8
Layer 1
10
79.372373
20
137.508671
11
82.283745
21
140.228629
0
LINE
8
Layer 1
10
82.283745
20
140.228629
11
84.748565
21
142.163986
0
LINE
8
Layer 1
10
84.748565
20
142.163986
11
85.602550
21
142.610745
0
LINE
8
Layer 1
10
85.602550
20
142.610745
11
86.551103
21
142.871511
0
LINE
8
Layer 1
10
86.551103
20
142.871511
11
87.575080
21
142.949583
0
LINE
8
Layer 1
10
87.575080
20
142.949583
11
88.655342
21
142.848258
0
LINE
8
Layer 1
10
88.655342
20
142.848258
11
89.772748
21
142.570837
0
LINE
8
Layer 1
10
89.772748
20
142.570837
11
90.908156
21
142.120618
0
LINE
8
Layer 1
10
90.908156
20
142.120618
11
92.042426
21
141.500899
0
LINE
8
Layer 1
10
92.042426
20
141.500899
11
93.156416
21
140.714978
0
LINE
8
Layer 1
10
93.156416
20
140.714978
11
94.918725
21
138.967368
0
LINE
8
Layer 1
10
94.918725
20
138.967368
11
97.653091
21
135.954019
0
LINE
8
Layer 1
10
97.653091
20
135.954019
11
101.079692
21
132.039315
0
LINE
8
Layer 1
10
101.079692
20
132.039315
11
102.627851
21
132.199098
0
LINE
8
Layer 1
10
102.627851
20
132.199098
11
103.699906
21
132.397371
0
LINE
8
Layer 1
10
103.699906
20
132.397371
11
104.521639
21
132.845849
0
LINE
8
Layer 1
10
104.521639
20
132.845849
11
105.302955
21
133.717381
0
LINE
8
Layer 1
10
105.302955
20
133.717381
11
106.253757
21
135.184814
0
LINE
8
Layer 1
10
106.253757
20
135.184814
11
107.039441
21
136.701997
0
LINE
8
Layer 1
10
107.039441
20
136.701997
11
107.594249
21
138.288718
0
LINE
8
Layer 1
10
107.594249
20
138.288718
11
107.923347
21
139.964029
0
LINE
8
Layer 1
10
107.923347
20
139.964029
11
108.031898
21
141.746980
0
LINE
8
Layer 1
10
108.031898
20
141.746980
11
108.087552
21
143.310595
0
LINE
8
Layer 1
10
108.087552
20
143.310595
11
108.221354
21
143.960949
0
LINE
8
Layer 1
10
108.221354
20
143.960949
11
108.926909
21
143.493874
0
LINE
8
Layer 1
10
108.926909
20
143.493874
11
109.295311
21
142.657330
0
LINE
8
Layer 1
10
109.295311
20
142.657330
11
109.441736
21
141.263066
0
LINE
8
Layer 1
10
109.441736
20
141.263066
11
109.358158
21
139.689863
0
LINE
8
Layer 1
10
109.358158
20
139.689863
11
109.036553
21
138.316504
0
LINE
8
Layer 1
10
109.036553
20
138.316504
11
107.810890
21
135.022483
0
LINE
8
Layer 1
10
107.810890
20
135.022483
11
106.966904
21
132.716239
0
LINE
8
Layer 1
10
106.966904
20
132.716239
11
108.416623
21
132.532366
0
LINE
8
Layer 1
10
108.416623
20
132.532366
11
109.651078
21
132.282682
0
LINE
8
Layer 1
10
109.651078
20
132.282682
11
110.854064
21
131.881030
0
LINE
8
Layer 1
10
110.854064
20
131.881030
11
111.860792
21
131.393705
0
LINE
8
Layer 1
10
111.860792
20
131.393705
11
112.506475
21
130.887004
0
LINE
8
Layer 1
10
112.506475
20
130.887004
11
112.711060
21
130.495802
0
LINE
8
Layer 1
10
112.711060
20
130.495802
11
112.513178
21
130.314766
0
LINE
8
Layer 1
10
112.513178
20
130.314766
11
110.972851
21
130.595156
0
LINE
8
Layer 1
10
110.972851
20
130.595156
11
108.637857
21
130.982521
0
LINE
8
Layer 1
10
108.637857
20
130.982521
11
105.897790
21
131.013712
0
LINE
8
Layer 1
10
105.897790
20
131.013712
11
103.619813
21
130.732018
0
LINE
8
Layer 1
10
103.619813
20
130.732018
11
102.925096
21
130.487367
0
LINE
8
Layer 1
10
102.925096
20
130.487367
11
102.671087
21
130.180729
0
LINE
8
Layer 1
10
102.671087
20
130.180729
11
103.306087
21
129.253274
0
LINE
8
Layer 1
10
103.306087
20
129.253274
11
104.259684
21
128.571681
0
LINE
8
Layer 1
10
104.259684
20
128.571681
11
105.915231
21
128.013113
0
LINE
8
Layer 1
10
105.915231
20
128.013113
11
108.737454
21
127.100257
0
LINE
8
Layer 1
10
108.737454
20
127.100257
11
109.722066
21
126.352917
0
LINE
8
Layer 1
10
109.722066
20
126.352917
11
111.088665
21
125.064368
0
LINE
8
Layer 1
10
111.088665
20
125.064368
11
112.302213
21
123.770186
0
LINE
8
Layer 1
10
112.302213
20
123.770186
11
112.827672
21
123.005949
0
LINE
8
Layer 1
10
112.827672
20
123.005949
11
112.774003
21
122.825432
0
LINE
8
Layer 1
10
112.774003
20
122.825432
11
112.616422
21
122.755468
0
LINE
8
Layer 1
10
112.616422
20
122.755468
11
112.037252
21
122.923595
0
LINE
8
Layer 1
10
112.037252
20
122.923595
11
111.185626
21
123.463115
0
LINE
8
Layer 1
10
111.185626
20
123.463115
11
110.157003
21
124.326814
0
LINE
8
Layer 1
10
110.157003
20
124.326814
11
108.469851
21
125.660636
0
LINE
8
Layer 1
10
108.469851
20
125.660636
11
106.648332
21
126.334046
0
LINE
8
Layer 1
10
106.648332
20
126.334046
11
103.560221
21
127.240856
0
LINE
8
Layer 1
10
103.560221
20
127.240856
11
102.954259
21
127.636305
0
LINE
8
Layer 1
10
102.954259
20
127.636305
11
102.559525
21
128.180112
0
LINE
8
Layer 1
10
102.559525
20
128.180112
11
100.447585
21
131.123012
0
LINE
8
Layer 1
10
100.447585
20
131.123012
11
97.432101
21
134.628139
0
LINE
8
Layer 1
10
97.432101
20
134.628139
11
94.255268
21
137.885012
0
LINE
8
Layer 1
10
94.255268
20
137.885012
11
91.659284
21
140.083151
0
LINE
8
Layer 1
10
91.659284
20
140.083151
11
90.283469
21
140.844633
0
LINE
8
Layer 1
10
90.283469
20
140.844633
11
88.792471
21
141.389043
0
LINE
8
Layer 1
10
88.792471
20
141.389043
11
87.380551
21
141.661701
0
LINE
8
Layer 1
10
87.380551
20
141.661701
11
86.241972
21
141.607929
0
LINE
8
Layer 1
10
86.241972
20
141.607929
11
84.897991
21
140.667800
0
LINE
8
Layer 1
10
84.897991
20
140.667800
11
82.710582
21
138.669485
0
LINE
8
Layer 1
10
82.710582
20
138.669485
11
78.221337
21
133.908665
0
LINE
8
Layer 1
10
78.221337
20
133.908665
11
76.430462
21
131.707062
0
LINE
8
Layer 1
10
76.430462
20
131.707062
11
74.905324
21
129.569052
0
LINE
8
Layer 1
10
74.905324
20
129.569052
11
73.618350
21
127.452924
0
LINE
8
Layer 1
10
73.618350
20
127.452924
11
72.541969
21
125.316967
0
LINE
8
Layer 1
10
72.541969
20
125.316967
11
71.648610
21
123.119471
0
LINE
8
Layer 1
10
71.648610
20
123.119471
11
70.910701
21
120.818727
0
LINE
8
Layer 1
10
70.910701
20
120.818727
11
70.315396
21
118.187109
0
LINE
8
Layer 1
10
70.315396
20
118.187109
11
70.324018
21
115.738727
0
LINE
8
Layer 1
10
70.324018
20
115.738727
11
70.496337
21
113.743547
0
LINE
8
Layer 1
10
70.496337
20
113.743547
11
70.715294
21
112.640357
0
LINE
8
Layer 1
10
70.715294
20
112.640357
11
71.076751
21
112.169130
0
LINE
8
Layer 1
10
71.076751
20
112.169130
11
71.676568
21
112.069838
0
LINE
8
Layer 1
10
71.676568
20
112.069838
11
72.673570
21
112.468932
0
LINE
8
Layer 1
10
72.673570
20
112.468932
11
73.937884
21
113.488640
0
LINE
8
Layer 1
10
73.937884
20
113.488640
11
75.189534
21
114.862597
0
LINE
8
Layer 1
10
75.189534
20
114.862597
11
76.148548
21
116.324442
0
LINE
8
Layer 1
10
76.148548
20
116.324442
11
77.554241
21
118.702060
0
LINE
8
Layer 1
10
77.554241
20
118.702060
11
80.199340
21
123.499838
0
LINE
8
Layer 1
10
80.199340
20
123.499838
11
83.504483
21
129.670747
0
LINE
8
Layer 1
10
83.504483
20
129.670747
11
85.498288
21
132.837168
0
LINE
8
Layer 1
10
85.498288
20
132.837168
11
85.887696
21
133.096966
0
LINE
8
Layer 1
10
85.887696
20
133.096966
11
86.236133
21
133.107574
0
LINE
8
Layer 1
10
86.236133
20
133.107574
11
86.486828
21
132.888726
0
LINE
8
Layer 1
10
86.486828
20
132.888726
11
86.583009
21
132.460153
0
LINE
8
Layer 1
10
86.583009
20
132.460153
11
86.248357
21
131.571389
0
LINE
8
Layer 1
10
86.248357
20
131.571389
11
85.443763
21
130.081678
0
LINE
8
Layer 1
10
85.443763
20
130.081678
11
83.727573
21
126.724583
0
LINE
8
Layer 1
10
83.727573
20
126.724583
11
82.074227
21
122.613666
0
LINE
8
Layer 1
10
82.074227
20
122.613666
11
81.585385
21
120.942656
0
LINE
8
Layer 1
10
81.585385
20
120.942656
11
81.202358
21
119.009089
0
LINE
8
Layer 1
10
81.202358
20
119.009089
11
80.770632
21
114.723315
0
LINE
8
Layer 1
10
80.770632
20
114.723315
11
80.812811
21
110.494397
0
LINE
8
Layer 1
10
80.812811
20
110.494397
11
81.022167
21
108.631903
0
LINE
8
Layer 1
10
81.022167
20
108.631903
11
81.362660
21
107.060393
0
LINE
8
Layer 1
10
81.362660
20
107.060393
11
81.877772
21
105.296504
0
LINE
8
Layer 1
10
81.877772
20
105.296504
11
83.063444
21
105.296504
0
LINE
8
Layer 1
10
83.063444
20
105.296504
11
83.853880
21
105.354653
0
LINE
8
Layer 1
10
83.853880
20
105.354653
11
84.519537
21
105.555415
0
LINE
8
Layer 1
10
84.519537
20
105.555415
11
85.085470
21
105.938270
0
LINE
8
Layer 1
10
85.085470
20
105.938270
11
85.576735
21
106.542694
0
LINE
8
Layer 1
10
85.576735
20
106.542694
11
86.435481
21
108.574158
0
LINE
8
Layer 1
10
86.435481
20
108.574158
11
87.296213
21
111.965627
0
LINE
8
Layer 1
10
87.296213
20
111.965627
11
88.363371
21
116.168120
0
LINE
8
Layer 1
10
88.363371
20
116.168120
11
89.510723
21
119.362080
0
LINE
8
Layer 1
10
89.510723
20
119.362080
11
90.855003
21
121.811922
0
LINE
8
Layer 1
10
90.855003
20
121.811922
11
92.512950
21
123.782060
0
LINE
8
Layer 1
10
92.512950
20
123.782060
11
93.687467
21
125.135369
0
LINE
8
Layer 1
10
93.687467
20
125.135369
11
94.491271
21
126.407511
0
LINE
8
Layer 1
10
94.491271
20
126.407511
11
95.036718
21
127.370333
0
LINE
8
Layer 1
10
95.036718
20
127.370333
11
95.282580
21
127.441052
0
LINE
8
Layer 1
10
95.282580
20
127.441052
11
95.604835
21
127.314805
0
LINE
8
Layer 1
10
95.604835
20
127.314805
11
96.011554
21
126.981567
0
LINE
8
Layer 1
10
96.011554
20
126.981567
11
96.143964
21
126.481461
0
LINE
8
Layer 1
10
96.143964
20
126.481461
11
96.001059
21
125.691230
0
LINE
8
Layer 1
10
96.001059
20
125.691230
11
95.581834
21
124.487615
0
LINE
8
Layer 1
10
95.581834
20
124.487615
11
94.294403
21
120.385559
0
LINE
8
Layer 1
10
94.294403
20
120.385559
11
93.583849
21
116.294949
0
LINE
8
Layer 1
10
93.583849
20
116.294949
11
93.453060
21
112.243753
0
LINE
8
Layer 1
10
93.453060
20
112.243753
11
93.904926
21
108.259936
0
LINE
8
Layer 1
10
93.904926
20
108.259936
11
94.740267
21
105.017987
0
LINE
8
Layer 1
10
94.740267
20
105.017987
11
95.224987
21
103.910637
0
LINE
8
Layer 1
10
95.224987
20
103.910637
11
95.750691
21
103.149701
0
LINE
8
Layer 1
10
95.750691
20
103.149701
11
96.314591
21
102.738180
0
LINE
8
Layer 1
10
96.314591
20
102.738180
11
96.913901
21
102.679071
0
LINE
8
Layer 1
10
96.913901
20
102.679071
11
97.545834
21
102.975373
0
LINE
8
Layer 1
10
97.545834
20
102.975373
11
98.207601
21
103.630087
0
LINE
8
Layer 1
10
98.207601
20
103.630087
11
98.724122
21
104.376219
0
LINE
8
Layer 1
10
98.724122
20
104.376219
11
99.176939
21
105.391229
0
LINE
8
Layer 1
10
99.176939
20
105.391229
11
100.419941
21
109.670949
0
LINE
8
Layer 1
10
100.419941
20
109.670949
11
102.046173
21
115.221493
0
LINE
8
Layer 1
10
102.046173
20
115.221493
11
102.579771
21
116.475215
0
LINE
8
Layer 1
10
102.579771
20
116.475215
11
102.981503
21
116.867615
0
LINE
8
Layer 1
10
102.981503
20
116.867615
11
103.233743
21
116.556237
0
LINE
8
Layer 1
10
103.233743
20
116.556237
11
103.499702
21
115.789603
0
LINE
8
Layer 1
10
103.499702
20
115.789603
11
103.796984
21
113.895581
0
LINE
8
Layer 1
10
103.796984
20
113.895581
11
104.510019
21
109.326547
0
LINE
8
Layer 1
10
104.510019
20
109.326547
11
105.041961
21
106.917895
0
LINE
8
Layer 1
10
105.041961
20
106.917895
11
105.660875
21
104.962643
0
LINE
8
Layer 1
10
105.660875
20
104.962643
11
106.465267
21
103.203729
0
LINE
8
Layer 1
10
106.465267
20
103.203729
11
107.553644
21
101.384092
0
LINE
8
Layer 1
10
107.553644
20
101.384092
11
109.963155
21
98.462266
0
LINE
8
Layer 1
10
109.963155
20
98.462266
11
112.950072
21
95.489282
0
LINE
8
Layer 1
10
112.950072
20
95.489282
11
114.318998
21
94.508429
0
LINE
8
Layer 1
10
114.318998
20
94.508429
11
114.898331
21
94.334327
0
LINE
8
Layer 1
10
114.898331
20
94.334327
11
115.586197
21
94.289838
0
LINE
8
Layer 1
10
115.586197
20
94.289838
11
116.750660
21
94.458691
0
LINE
8
Layer 1
10
116.750660
20
94.458691
11
117.686607
21
95.152241
0
LINE
8
Layer 1
10
117.686607
20
95.152241
11
118.154322
21
95.661512
0
LINE
8
Layer 1
10
118.154322
20
95.661512
11
118.391771
21
96.102169
0
LINE
8
Layer 1
10
118.391771
20
96.102169
11
118.378814
21
97.451822
0
LINE
8
Layer 1
10
118.378814
20
97.451822
11
118.103344
21
98.652772
0
LINE
8
Layer 1
10
118.103344
20
98.652772
11
117.635807
21
99.422636
0
LINE
8
Layer 1
10
117.635807
20
99.422636
11
117.261685
21
99.921963
0
LINE
8
Layer 1
10
117.261685
20
99.921963
11
117.081269
21
100.458898
0
LINE
8
Layer 1
10
117.081269
20
100.458898
11
117.116457
21
100.887835
0
LINE
8
Layer 1
10
117.116457
20
100.887835
11
117.389145
21
101.063171
0
LINE
8
Layer 1
10
117.389145
20
101.063171
11
118.588590
21
100.404526
0
LINE
8
Layer 1
10
118.588590
20
100.404526
11
121.128470
21
98.814249
0
LINE
8
Layer 1
10
121.128470
20
98.814249
11
122.204923
21
98.388324
0
LINE
8
Layer 1
10
122.204923
20
98.388324
11
123.085039
21
98.240949
0
LINE
8
Layer 1
10
123.085039
20
98.240949
11
123.764297
21
98.288138
0
LINE
8
Layer 1
10
123.764297
20
98.288138
11
124.053364
21
98.547299
0
LINE
8
Layer 1
10
124.053364
20
98.547299
11
123.997637
21
99.194822
0
LINE
8
Layer 1
10
123.997637
20
99.194822
11
123.642512
21
100.407095
0
LINE
8
Layer 1
10
123.642512
20
100.407095
11
123.359999
21
101.542676
0
LINE
8
Layer 1
10
123.359999
20
101.542676
11
123.449201
21
102.143213
0
LINE
8
Layer 1
10
123.449201
20
102.143213
11
123.966747
21
102.277269
0
LINE
8
Layer 1
10
123.966747
20
102.277269
11
124.969267
21
102.013408
0
LINE
8
Layer 1
10
124.969267
20
102.013408
11
126.567342
21
101.633304
0
LINE
8
Layer 1
10
126.567342
20
101.633304
11
128.407154
21
101.440282
0
LINE
8
Layer 1
10
128.407154
20
101.440282
11
130.079235
21
101.455116
0
LINE
8
Layer 1
10
130.079235
20
101.455116
11
131.174120
21
101.698583
0
LINE
8
Layer 1
10
131.174120
20
101.698583
11
131.716889
21
102.249233
0
LINE
8
Layer 1
10
131.716889
20
102.249233
11
131.845883
21
103.038258
0
LINE
8
Layer 1
10
131.845883
20
103.038258
11
131.566832
21
103.998932
0
LINE
8
Layer 1
10
131.566832
20
103.998932
11
130.885463
21
105.064529
0
LINE
8
Layer 1
10
130.885463
20
105.064529
11
130.245263
21
106.019589
0
LINE
8
Layer 1
10
130.245263
20
106.019589
11
130.196457
21
106.307430
0
LINE
8
Layer 1
10
130.196457
20
106.307430
11
130.308263
21
106.519870
0
LINE
8
Layer 1
10
130.308263
20
106.519870
11
131.385106
21
106.795841
0
LINE
8
Layer 1
10
131.385106
20
106.795841
11
133.570554
21
106.993512
0
LINE
8
Layer 1
10
133.570554
20
106.993512
11
136.087073
21
107.224927
0
LINE
8
Layer 1
10
136.087073
20
107.224927
11
136.778367
21
107.427133
0
LINE
8
Layer 1
10
136.778367
20
107.427133
11
137.296677
21
107.727380
0
LINE
8
Layer 1
10
137.296677
20
107.727380
11
137.967700
21
108.376102
0
LINE
8
Layer 1
10
137.967700
20
108.376102
11
138.122791
21
109.033063
0
LINE
8
Layer 1
10
138.122791
20
109.033063
11
137.742503
21
109.823211
0
LINE
8
Layer 1
10
137.742503
20
109.823211
11
136.807389
21
110.871494
0
LINE
8
Layer 1
10
136.807389
20
110.871494
11
135.723846
21
112.087195
0
LINE
8
Layer 1
10
135.723846
20
112.087195
11
135.487634
21
112.517214
0
LINE
8
Layer 1
10
135.487634
20
112.517214
11
135.460617
21
112.848630
0
LINE
8
Layer 1
10
135.460617
20
112.848630
11
135.646910
21
113.096406
0
LINE
8
Layer 1
10
135.646910
20
113.096406
11
136.050627
21
113.275506
0
LINE
8
Layer 1
10
136.050627
20
113.275506
11
137.526801
21
113.487527
0
LINE
8
Layer 1
10
137.526801
20
113.487527
11
139.078769
21
113.726476
0
LINE
8
Layer 1
10
139.078769
20
113.726476
11
140.495903
21
114.178374
0
LINE
8
Layer 1
10
140.495903
20
114.178374
11
141.678610
21
114.802017
0
LINE
8
Layer 1
10
141.678610
20
114.802017
11
142.527299
21
115.556205
0
LINE
8
Layer 1
10
142.527299
20
115.556205
11
142.890725
21
116.257701
0
LINE
8
Layer 1
10
142.890725
20
116.257701
11
142.999736
21
117.073183
0
LINE
8
Layer 1
10
142.999736
20
117.073183
11
142.856456
21
117.900614
0
LINE
8
Layer 1
10
142.856456
20
117.900614
11
142.463009
21
118.637959
0
LINE
8
Layer 1
10
142.463009
20
118.637959
11
142.013993
21
119.375849
0
LINE
8
Layer 1
10
142.013993
20
119.375849
11
141.923831
21
120.000145
0
LINE
8
Layer 1
10
141.923831
20
120.000145
11
142.194190
21
120.521475
0
LINE
8
Layer 1
10
142.194190
20
120.521475
11
142.826737
21
120.950468
0
LINE
8
Layer 1
10
142.826737
20
120.950468
11
144.802293
21
122.254258
0
LINE
8
Layer 1
10
144.802293
20
122.254258
11
145.593512
21
123.095267
0
LINE
8
Layer 1
10
145.593512
20
123.095267
11
145.867533
21
123.903463
0
LINE
8
Layer 1
10
145.867533
20
123.903463
11
145.624824
21
124.703029
0
LINE
8
Layer 1
10
145.624824
20
124.703029
11
144.865849
21
125.518153
0
LINE
8
Layer 1
10
144.865849
20
125.518153
11
142.988891
21
127.126988
0
LINE
8
Layer 1
10
142.988891
20
127.126988
11
141.812184
21
128.308621
0
LINE
8
Layer 1
10
141.812184
20
128.308621
11
141.358117
21
129.036830
0
LINE
8
Layer 1
10
141.358117
20
129.036830
11
141.409071
21
129.222706
0
LINE
8
Layer 1
10
141.409071
20
129.222706
11
141.649080
21
129.285393
0
LINE
8
Layer 1
10
141.649080
20
129.285393
11
142.364808
21
128.959114
0
LINE
8
Layer 1
10
142.364808
20
128.959114
11
143.512830
21
128.129364
0
LINE
8
Layer 1
10
143.512830
20
128.129364
11
145.977438
21
125.853975
0
LINE
8
Layer 1
10
145.977438
20
125.853975
11
146.994005
21
124.492132
0
LINE
8
Layer 1
10
146.994005
20
124.492132
11
147.226520
21
123.915732
0
LINE
8
Layer 1
10
147.226520
20
123.915732
11
147.273057
21
123.385763
0
LINE
8
Layer 1
10
147.273057
20
123.385763
11
147.132017
21
122.884788
0
LINE
8
Layer 1
10
147.132017
20
122.884788
11
146.801803
21
122.395369
0
LINE
8
Layer 1
10
146.801803
20
122.395369
11
145.567454
21
121.381452
0
LINE
8
Layer 1
10
145.567454
20
121.381452
11
144.111018
21
120.150320
0
LINE
8
Layer 1
10
144.111018
20
120.150320
11
143.866537
21
119.806888
0
LINE
8
Layer 1
10
143.866537
20
119.806888
11
143.798382
21
119.508100
0
LINE
8
Layer 1
10
143.798382
20
119.508100
11
144.226221
21
118.558414
0
LINE
8
Layer 1
10
144.226221
20
118.558414
11
144.602219
21
117.651119
0
LINE
8
Layer 1
10
144.602219
20
117.651119
11
144.602007
21
116.797336
0
LINE
8
Layer 1
10
144.602007
20
116.797336
11
144.203004
21
115.897930
0
LINE
8
Layer 1
10
144.203004
20
115.897930
11
143.382630
21
114.853765
0
LINE
8
Layer 1
10
143.382630
20
114.853765
11
142.357249
21
113.994591
0
LINE
8
Layer 1
10
142.357249
20
113.994591
11
140.923088
21
113.084748
0
LINE
8
Layer 1
10
140.923088
20
113.084748
11
139.499252
21
112.363431
0
LINE
8
Layer 1
10
139.499252
20
112.363431
11
138.504843
21
112.069838
0
LINE
8
Layer 1
10
138.504843
20
112.069838
11
138.289613
21
112.003886
0
LINE
8
Layer 1
10
138.289613
20
112.003886
11
138.262004
21
111.788133
0
LINE
8
Layer 1
10
138.262004
20
111.788133
11
138.794120
21
110.799838
0
LINE
8
Layer 1
10
138.794120
20
110.799838
11
139.155151
21
109.990221
0
LINE
8
Layer 1
10
139.155151
20
109.990221
11
139.333736
21
109.024471
0
LINE
8
Layer 1
10
139.333736
20
109.024471
11
139.315884
21
108.069721
0
LINE
8
Layer 1
10
139.315884
20
108.069721
11
139.087603
21
107.293105
0
LINE
8
Layer 1
10
139.087603
20
107.293105
11
138.454688
21
106.720671
0
LINE
8
Layer 1
10
138.454688
20
106.720671
11
137.294787
21
106.151082
0
LINE
8
Layer 1
10
137.294787
20
106.151082
11
135.845642
21
105.679235
0
LINE
8
Layer 1
10
135.845642
20
105.679235
11
134.345000
21
105.400026
0
LINE
8
Layer 1
10
134.345000
20
105.400026
11
132.696483
21
105.227724
0
LINE
8
Layer 1
10
132.696483
20
105.227724
11
133.114821
21
103.622035
0
LINE
8
Layer 1
10
133.114821
20
103.622035
11
133.355120
21
102.344275
0
LINE
8
Layer 1
10
133.355120
20
102.344275
11
133.345397
21
101.527015
0
LINE
8
Layer 1
10
133.345397
20
101.527015
11
132.817601
21
100.910016
0
LINE
8
Layer 1
10
132.817601
20
100.910016
11
131.784694
21
100.493596
0
LINE
8
Layer 1
10
131.784694
20
100.493596
11
130.246645
21
100.277744
0
LINE
8
Layer 1
10
130.246645
20
100.277744
11
128.203421
21
100.262453
0
LINE
8
Layer 1
10
128.203421
20
100.262453
11
125.356815
21
100.367826
0
LINE
8
Layer 1
10
125.356815
20
100.367826
11
125.549798
21
99.096266
0
LINE
8
Layer 1
10
125.549798
20
99.096266
11
125.612649
21
97.485626
0
LINE
8
Layer 1
10
125.612649
20
97.485626
11
125.388483
21
97.223834
0
LINE
8
Layer 1
10
125.388483
20
97.223834
11
124.971887
21
97.040212
0
LINE
8
Layer 1
10
124.971887
20
97.040212
11
123.710616
21
96.905513
0
LINE
8
Layer 1
10
123.710616
20
96.905513
11
122.127257
21
97.077607
0
LINE
8
Layer 1
10
122.127257
20
97.077607
11
120.520231
21
97.552569
0
LINE
8
Layer 1
10
120.520231
20
97.552569
11
119.603009
21
97.929926
0
LINE
8
Layer 1
10
119.603009
20
97.929926
11
119.603009
21
96.660310
0
LINE
8
Layer 1
10
119.603009
20
96.660310
11
119.375289
21
95.152331
0
LINE
8
Layer 1
10
119.375289
20
95.152331
11
118.743759
21
93.954581
0
LINE
8
Layer 1
10
118.743759
20
93.954581
11
117.785865
21
93.163951
0
LINE
8
Layer 1
10
117.785865
20
93.163951
11
116.579055
21
92.877330
0
LINE
8
Layer 1
10
116.579055
20
92.877330
11
115.589548
21
92.970763
0
LINE
8
Layer 1
10
115.589548
20
92.970763
11
114.590299
21
93.259613
0
LINE
8
Layer 1
10
114.590299
20
93.259613
11
113.571352
21
93.751440
0
LINE
8
Layer 1
10
113.571352
20
93.751440
11
112.522749
21
94.453807
0
LINE
8
Layer 1
10
112.522749
20
94.453807
11
110.296749
21
96.520407
0
LINE
8
Layer 1
10
110.296749
20
96.520407
11
107.832649
21
99.519907
0
LINE
8
Layer 1
10
107.832649
20
99.519907
11
105.852396
21
102.221949
0
LINE
8
Layer 1
10
105.852396
20
102.221949
11
104.668098
21
104.206046
0
LINE
8
Layer 1
10
104.668098
20
104.206046
11
103.804042
21
106.455390
0
LINE
8
Layer 1
10
103.804042
20
106.455390
11
102.784512
21
109.953171
0
LINE
8
Layer 1
10
102.784512
20
109.953171
11
102.306597
21
111.646504
0
LINE
8
Layer 1
10
102.306597
20
111.646504
11
101.624438
21
109.106504
0
LINE
8
Layer 1
10
101.624438
20
109.106504
11
100.267400
21
104.451478
0
LINE
8
Layer 1
10
100.267400
20
104.451478
11
99.762308
21
103.337973
0
LINE
8
Layer 1
10
99.762308
20
103.337973
11
99.139217
21
102.403727
0
LINE
8
Layer 1
10
99.139217
20
102.403727
11
98.147160
21
101.298356
0
LINE
8
Layer 1
10
98.147160
20
101.298356
11
97.704692
21
101.109473
0
LINE
8
Layer 1
10
97.704692
20
101.109473
11
97.149579
21
101.063171
0
LINE
8
Layer 1
10
97.149579
20
101.063171
11
96.209676
21
101.184349
0
LINE
8
Layer 1
10
96.209676
20
101.184349
11
95.352811
21
101.475692
0
LINE
8
Layer 1
10
95.352811
20
101.475692
11
94.555081
21
101.888211
0
LINE
8
Layer 1
10
94.555081
20
101.888211
11
94.356679
21
100.417359
0
LINE
8
Layer 1
10
94.356679
20
100.417359
11
93.931681
21
94.572060
0
LINE
8
Layer 1
10
93.931681
20
94.572060
11
93.705085
21
90.197615
0
LINE
8
Layer 1
10
93.705085
20
90.197615
11
94.865611
21
88.991942
0
LINE
8
Layer 1
10
94.865611
20
88.991942
11
95.885740
21
88.075255
0
LINE
8
Layer 1
10
95.885740
20
88.075255
11
97.011187
21
87.358623
0
LINE
8
Layer 1
10
97.011187
20
87.358623
11
98.309307
21
86.806793
0
LINE
8
Layer 1
10
98.309307
20
86.806793
11
99.847454
21
86.384514
0
LINE
8
Layer 1
10
99.847454
20
86.384514
11
103.516343
21
85.327391
0
LINE
8
Layer 1
10
103.516343
20
85.327391
11
104.754511
21
84.862108
0
LINE
8
Layer 1
10
104.754511
20
84.862108
11
105.737005
21
84.291417
0
LINE
8
Layer 1
10
105.737005
20
84.291417
11
106.843889
21
83.338089
0
LINE
8
Layer 1
10
106.843889
20
83.338089
11
108.455231
21
81.724898
0
LINE
8
Layer 1
10
108.455231
20
81.724898
11
110.837794
21
79.426310
0
LINE
8
Layer 1
10
110.837794
20
79.426310
11
112.602967
21
77.953181
0
LINE
8
Layer 1
10
112.602967
20
77.953181
11
114.406798
21
77.028032
0
LINE
8
Layer 1
10
114.406798
20
77.028032
11
116.664007
21
76.317562
0
LINE
8
Layer 1
10
116.664007
20
76.317562
11
119.227164
21
75.857569
0
LINE
8
Layer 1
10
119.227164
20
75.857569
11
121.948840
21
75.683849
0
LINE
8
Layer 1
10
121.948840
20
75.683849
11
124.746657
21
75.787038
0
LINE
8
Layer 1
10
124.746657
20
75.787038
11
125.621347
21
76.002698
0
LINE
8
Layer 1
10
125.621347
20
76.002698
11
126.528940
21
76.386388
0
LINE
8
Layer 1
10
126.528940
20
76.386388
11
126.528940
21
76.386388
0
LINE
8
Layer 1
10
139.406994
20
99.647011
11
138.975811
21
100.176830
0
LINE
8
Layer 1
10
138.975811
20
100.176830
11
138.855733
21
100.681505
0
LINE
8
Layer 1
10
138.855733
20
100.681505
11
139.037158
21
101.027818
0
LINE
8
Layer 1
10
139.037158
20
101.027818
11
139.510485
21
101.082548
0
LINE
8
Layer 1
10
139.510485
20
101.082548
11
142.130721
21
100.947212
0
LINE
8
Layer 1
10
142.130721
20
100.947212
11
143.953097
21
101.047554
0
LINE
8
Layer 1
10
143.953097
20
101.047554
11
144.385943
21
101.256556
0
LINE
8
Layer 1
10
144.385943
20
101.256556
11
144.734983
21
101.633390
0
LINE
8
Layer 1
10
144.734983
20
101.633390
11
145.141685
21
102.337209
0
LINE
8
Layer 1
10
145.141685
20
102.337209
11
145.247220
21
102.993266
0
LINE
8
Layer 1
10
145.247220
20
102.993266
11
145.052066
21
103.594854
0
LINE
8
Layer 1
10
145.052066
20
103.594854
11
144.556703
21
104.135267
0
LINE
8
Layer 1
10
144.556703
20
104.135267
11
143.984939
21
104.751717
0
LINE
8
Layer 1
10
143.984939
20
104.751717
11
143.944249
21
105.270597
0
LINE
8
Layer 1
10
143.944249
20
105.270597
11
144.427746
21
105.677497
0
LINE
8
Layer 1
10
144.427746
20
105.677497
11
145.428544
21
105.958005
0
LINE
8
Layer 1
10
145.428544
20
105.958005
11
146.931228
21
106.254417
0
LINE
8
Layer 1
10
146.931228
20
106.254417
11
147.745609
21
106.588158
0
LINE
8
Layer 1
10
147.745609
20
106.588158
11
148.049737
21
107.092663
0
LINE
8
Layer 1
10
148.049737
20
107.092663
11
148.021658
21
107.901367
0
LINE
8
Layer 1
10
148.021658
20
107.901367
11
147.741909
21
108.894328
0
LINE
8
Layer 1
10
147.741909
20
108.894328
11
147.233496
21
109.550437
0
LINE
8
Layer 1
10
147.233496
20
109.550437
11
146.602673
21
110.026261
0
LINE
8
Layer 1
10
146.602673
20
110.026261
11
147.342236
21
110.765827
0
LINE
8
Layer 1
10
147.342236
20
110.765827
11
148.157552
21
111.337430
0
LINE
8
Layer 1
10
148.157552
20
111.337430
11
149.152974
21
111.509714
0
LINE
8
Layer 1
10
149.152974
20
111.509714
11
150.453275
21
111.687849
0
LINE
8
Layer 1
10
150.453275
20
111.687849
11
150.766238
21
111.920177
0
LINE
8
Layer 1
10
150.766238
20
111.920177
11
150.853553
21
112.261301
0
LINE
8
Layer 1
10
150.853553
20
112.261301
11
150.348671
21
113.309802
0
LINE
8
Layer 1
10
150.348671
20
113.309802
11
148.933490
21
114.913085
0
LINE
8
Layer 1
10
148.933490
20
114.913085
11
147.639315
21
116.316165
0
LINE
8
Layer 1
10
147.639315
20
116.316165
11
147.218736
21
117.014592
0
LINE
8
Layer 1
10
147.218736
20
117.014592
11
147.336387
21
117.106834
0
LINE
8
Layer 1
10
147.336387
20
117.106834
11
147.672848
21
117.031642
0
LINE
8
Layer 1
10
147.672848
20
117.031642
11
149.002747
21
116.390589
0
LINE
8
Layer 1
10
149.002747
20
116.390589
11
150.157672
21
115.565215
0
LINE
8
Layer 1
10
150.157672
20
115.565215
11
151.132837
21
114.507373
0
LINE
8
Layer 1
10
151.132837
20
114.507373
11
151.806911
21
113.377970
0
LINE
8
Layer 1
10
151.806911
20
113.377970
11
152.058565
21
112.337912
0
LINE
8
Layer 1
10
152.058565
20
112.337912
11
151.911716
21
111.597747
0
LINE
8
Layer 1
10
151.911716
20
111.597747
11
151.493521
21
110.975899
0
LINE
8
Layer 1
10
151.493521
20
110.975899
11
150.837507
21
110.506428
0
LINE
8
Layer 1
10
150.837507
20
110.506428
11
149.977204
21
110.223393
0
LINE
8
Layer 1
10
149.977204
20
110.223393
11
149.282080
21
110.012156
0
LINE
8
Layer 1
10
149.282080
20
110.012156
11
148.904287
21
109.700003
0
LINE
8
Layer 1
10
148.904287
20
109.700003
11
148.845063
21
109.288986
0
LINE
8
Layer 1
10
148.845063
20
109.288986
11
149.105645
21
108.781159
0
LINE
8
Layer 1
10
149.105645
20
108.781159
11
149.446520
21
108.093333
0
LINE
8
Layer 1
10
149.446520
20
108.093333
11
149.480895
21
107.359797
0
LINE
8
Layer 1
10
149.480895
20
107.359797
11
149.213762
21
106.612292
0
LINE
8
Layer 1
10
149.213762
20
106.612292
11
148.650111
21
105.882561
0
LINE
8
Layer 1
10
148.650111
20
105.882561
11
147.835899
21
105.218793
0
LINE
8
Layer 1
10
147.835899
20
105.218793
11
147.097888
21
104.842479
0
LINE
8
Layer 1
10
147.097888
20
104.842479
11
146.746102
21
104.712703
0
LINE
8
Layer 1
10
146.746102
20
104.712703
11
146.538273
21
104.497552
0
LINE
8
Layer 1
10
146.538273
20
104.497552
11
146.414120
21
103.544672
0
LINE
8
Layer 1
10
146.414120
20
103.544672
11
146.344984
21
102.633740
0
LINE
8
Layer 1
10
146.344984
20
102.633740
11
146.134244
21
101.839374
0
LINE
8
Layer 1
10
146.134244
20
101.839374
11
145.776905
21
101.157127
0
LINE
8
Layer 1
10
145.776905
20
101.157127
11
145.267970
21
100.582548
0
LINE
8
Layer 1
10
145.267970
20
100.582548
11
144.602442
21
100.111188
0
LINE
8
Layer 1
10
144.602442
20
100.111188
11
143.775326
21
99.738597
0
LINE
8
Layer 1
10
143.775326
20
99.738597
11
141.616343
21
99.271929
0
LINE
8
Layer 1
10
141.616343
20
99.271929
11
140.230840
21
99.229093
0
LINE
8
Layer 1
10
140.230840
20
99.229093
11
139.406994
21
99.647011
0
LINE
8
Layer 1
10
139.406994
20
99.647011
11
139.406994
21
99.647011
0
LINE
8
Layer 1
10
120.020952
20
104.165098
11
118.444397
21
105.232076
0
LINE
8
Layer 1
10
118.444397
20
105.232076
11
117.079604
21
106.634653
0
LINE
8
Layer 1
10
117.079604
20
106.634653
11
116.191188
21
108.042742
0
LINE
8
Layer 1
10
116.191188
20
108.042742
11
116.008313
21
108.645702
0
LINE
8
Layer 1
10
116.008313
20
108.645702
11
116.043764
21
109.126257
0
LINE
8
Layer 1
10
116.043764
20
109.126257
11
116.270843
21
109.462054
0
LINE
8
Layer 1
10
116.270843
20
109.462054
11
116.575118
21
109.467779
0
LINE
8
Layer 1
10
116.575118
20
109.467779
11
116.966006
21
109.139055
0
LINE
8
Layer 1
10
116.966006
20
109.139055
11
117.452927
21
108.471504
0
LINE
8
Layer 1
10
117.452927
20
108.471504
11
118.359710
21
107.249129
0
LINE
8
Layer 1
10
118.359710
20
107.249129
11
119.341360
21
106.255227
0
LINE
8
Layer 1
10
119.341360
20
106.255227
11
120.352783
21
105.506109
0
LINE
8
Layer 1
10
120.352783
20
105.506109
11
121.348889
21
105.018081
0
LINE
8
Layer 1
10
121.348889
20
105.018081
11
122.284583
21
104.807452
0
LINE
8
Layer 1
10
122.284583
20
104.807452
11
123.114774
21
104.890530
0
LINE
8
Layer 1
10
123.114774
20
104.890530
11
123.794369
21
105.283623
0
LINE
8
Layer 1
10
123.794369
20
105.283623
11
124.278274
21
106.003039
0
LINE
8
Layer 1
10
124.278274
20
106.003039
11
124.588315
21
106.970251
0
LINE
8
Layer 1
10
124.588315
20
106.970251
11
124.647439
21
107.851467
0
LINE
8
Layer 1
10
124.647439
20
107.851467
11
124.449244
21
108.727597
0
LINE
8
Layer 1
10
124.449244
20
108.727597
11
123.987331
21
109.679551
0
LINE
8
Layer 1
10
123.987331
20
109.679551
11
123.548388
21
110.570294
0
LINE
8
Layer 1
10
123.548388
20
110.570294
11
123.469933
21
111.044903
0
LINE
8
Layer 1
10
123.469933
20
111.044903
11
123.805856
21
111.214104
0
LINE
8
Layer 1
10
123.805856
20
111.214104
11
124.239384
21
111.168754
0
LINE
8
Layer 1
10
124.239384
20
111.168754
11
125.302289
21
110.465088
0
LINE
8
Layer 1
10
125.302289
20
110.465088
11
126.345060
21
109.844852
0
LINE
8
Layer 1
10
126.345060
20
109.844852
11
127.679962
21
109.560287
0
LINE
8
Layer 1
10
127.679962
20
109.560287
11
129.064680
21
109.630494
0
LINE
8
Layer 1
10
129.064680
20
109.630494
11
130.256898
21
110.074572
0
LINE
8
Layer 1
10
130.256898
20
110.074572
11
131.005397
21
110.741905
0
LINE
8
Layer 1
10
131.005397
20
110.741905
11
131.174120
21
111.723574
0
LINE
8
Layer 1
10
131.174120
20
111.723574
11
130.989673
21
112.685653
0
LINE
8
Layer 1
10
130.989673
20
112.685653
11
130.470593
21
113.616826
0
LINE
8
Layer 1
10
130.470593
20
113.616826
11
129.668277
21
114.448524
0
LINE
8
Layer 1
10
129.668277
20
114.448524
11
128.634120
21
115.112179
0
LINE
8
Layer 1
10
128.634120
20
115.112179
11
127.936502
21
115.537922
0
LINE
8
Layer 1
10
127.936502
20
115.537922
11
127.646343
21
115.879838
0
LINE
8
Layer 1
10
127.646343
20
115.879838
11
128.392468
21
116.133534
0
LINE
8
Layer 1
10
128.392468
20
116.133534
11
130.186343
21
116.347172
0
LINE
8
Layer 1
10
130.186343
20
116.347172
11
132.068264
21
116.527418
0
LINE
8
Layer 1
10
132.068264
20
116.527418
11
133.432385
21
116.790085
0
LINE
8
Layer 1
10
133.432385
20
116.790085
11
134.530854
21
117.204504
0
LINE
8
Layer 1
10
134.530854
20
117.204504
11
135.615818
21
117.840004
0
LINE
8
Layer 1
10
135.615818
20
117.840004
11
136.296169
21
118.392499
0
LINE
8
Layer 1
10
136.296169
20
118.392499
11
136.753335
21
118.989035
0
LINE
8
Layer 1
10
136.753335
20
118.989035
11
136.989815
21
119.612093
0
LINE
8
Layer 1
10
136.989815
20
119.612093
11
137.008109
21
120.244155
0
LINE
8
Layer 1
10
137.008109
20
120.244155
11
136.810715
21
120.867701
0
LINE
8
Layer 1
10
136.810715
20
120.867701
11
136.400135
21
121.465213
0
LINE
8
Layer 1
10
136.400135
20
121.465213
11
135.778865
21
122.019172
0
LINE
8
Layer 1
10
135.778865
20
122.019172
11
134.949407
21
122.512060
0
LINE
8
Layer 1
10
134.949407
20
122.512060
11
132.999823
21
123.649812
0
LINE
8
Layer 1
10
132.999823
20
123.649812
11
132.771635
21
124.046386
0
LINE
8
Layer 1
10
132.771635
20
124.046386
11
132.934538
21
124.429582
0
LINE
8
Layer 1
10
132.934538
20
124.429582
11
133.599814
21
124.907921
0
LINE
8
Layer 1
10
133.599814
20
124.907921
11
134.720768
21
125.487210
0
LINE
8
Layer 1
10
134.720768
20
125.487210
11
135.886347
21
125.975527
0
LINE
8
Layer 1
10
135.886347
20
125.975527
11
136.685497
21
126.180949
0
LINE
8
Layer 1
10
136.685497
20
126.180949
11
136.978803
21
126.112497
0
LINE
8
Layer 1
10
136.978803
20
126.112497
11
137.100787
21
125.947921
0
LINE
8
Layer 1
10
137.100787
20
125.947921
11
136.473834
21
125.154352
0
LINE
8
Layer 1
10
136.473834
20
125.154352
11
135.310369
21
124.288426
0
LINE
8
Layer 1
10
135.310369
20
124.288426
11
135.081407
21
124.100539
0
LINE
8
Layer 1
10
135.081407
20
124.100539
11
135.132763
21
123.838957
0
LINE
8
Layer 1
10
135.132763
20
123.838957
11
136.334441
21
122.692662
0
LINE
8
Layer 1
10
136.334441
20
122.692662
11
137.390702
21
121.653405
0
LINE
8
Layer 1
10
137.390702
20
121.653405
11
137.969799
21
120.706858
0
LINE
8
Layer 1
10
137.969799
20
120.706858
11
138.106289
21
119.761663
0
LINE
8
Layer 1
10
138.106289
20
119.761663
11
137.834734
21
118.726464
0
LINE
8
Layer 1
10
137.834734
20
118.726464
11
137.342810
21
117.904589
0
LINE
8
Layer 1
10
137.342810
20
117.904589
11
136.561453
21
117.207501
0
LINE
8
Layer 1
10
136.561453
20
117.207501
11
135.397033
21
116.571032
0
LINE
8
Layer 1
10
135.397033
20
116.571032
11
133.755917
21
115.931016
0
LINE
8
Layer 1
10
133.755917
20
115.931016
11
131.519673
21
115.049458
0
LINE
8
Layer 1
10
131.519673
20
115.049458
11
131.585900
21
114.574649
0
LINE
8
Layer 1
10
131.585900
20
114.574649
11
131.971765
21
113.659711
0
LINE
8
Layer 1
10
131.971765
20
113.659711
11
132.405022
21
112.625091
0
LINE
8
Layer 1
10
132.405022
20
112.625091
11
132.585231
21
111.862537
0
LINE
8
Layer 1
10
132.585231
20
111.862537
11
132.362361
21
110.224939
0
LINE
8
Layer 1
10
132.362361
20
110.224939
11
132.064043
21
109.624893
0
LINE
8
Layer 1
10
132.064043
20
109.624893
11
131.623598
21
109.156901
0
LINE
8
Layer 1
10
131.623598
20
109.156901
11
131.027873
21
108.810626
0
LINE
8
Layer 1
10
131.027873
20
108.810626
11
130.263715
21
108.575732
0
LINE
8
Layer 1
10
130.263715
20
108.575732
11
128.177485
21
108.398742
0
LINE
8
Layer 1
10
128.177485
20
108.398742
11
125.953009
21
108.396538
0
LINE
8
Layer 1
10
125.953009
20
108.396538
11
125.900770
21
106.966021
0
LINE
8
Layer 1
10
125.900770
20
106.966021
11
125.758846
21
105.787055
0
LINE
8
Layer 1
10
125.758846
20
105.787055
11
125.405505
21
104.930407
0
LINE
8
Layer 1
10
125.405505
20
104.930407
11
124.800228
21
104.334699
0
LINE
8
Layer 1
10
124.800228
20
104.334699
11
123.902495
21
103.938553
0
LINE
8
Layer 1
10
123.902495
20
103.938553
11
122.809289
21
103.682696
0
LINE
8
Layer 1
10
122.809289
20
103.682696
11
121.854462
21
103.631870
0
LINE
8
Layer 1
10
121.854462
20
103.631870
11
120.953266
21
103.791022
0
LINE
8
Layer 1
10
120.953266
20
103.791022
11
120.020952
21
104.165098
0
LINE
8
Layer 1
10
120.020952
20
104.165098
11
120.020952
21
104.165098
0
LINE
8
Layer 1
10
123.099489
20
121.095222
11
122.673326
21
121.367508
0
LINE
8
Layer 1
10
122.673326
20
121.367508
11
122.365298
21
121.750284
0
LINE
8
Layer 1
10
122.365298
20
121.750284
11
122.221835
21
122.161862
0
LINE
8
Layer 1
10
122.221835
20
122.161862
11
122.289370
21
122.520552
0
LINE
8
Layer 1
10
122.289370
20
122.520552
11
122.697932
21
122.562918
0
LINE
8
Layer 1
10
122.697932
20
122.562918
11
123.472107
21
122.328068
0
LINE
8
Layer 1
10
123.472107
20
122.328068
11
124.641092
21
122.064151
0
LINE
8
Layer 1
10
124.641092
20
122.064151
11
126.008642
21
122.082233
0
LINE
8
Layer 1
10
126.008642
20
122.082233
11
127.335161
21
122.356328
0
LINE
8
Layer 1
10
127.335161
20
122.356328
11
128.381052
21
122.860452
0
LINE
8
Layer 1
10
128.381052
20
122.860452
11
129.294791
21
123.794002
0
LINE
8
Layer 1
10
129.294791
20
123.794002
11
129.617488
21
124.822303
0
LINE
8
Layer 1
10
129.617488
20
124.822303
11
129.349752
21
125.969406
0
LINE
8
Layer 1
10
129.349752
20
125.969406
11
128.492191
21
127.259359
0
LINE
8
Layer 1
10
128.492191
20
127.259359
11
128.030671
21
127.978598
0
LINE
8
Layer 1
10
128.030671
20
127.978598
11
127.893008
21
128.566285
0
LINE
8
Layer 1
10
127.893008
20
128.566285
11
128.073380
21
128.897085
0
LINE
8
Layer 1
10
128.073380
20
128.897085
11
128.565964
21
128.845666
0
LINE
8
Layer 1
10
128.565964
20
128.845666
11
129.369627
21
128.606484
0
LINE
8
Layer 1
10
129.369627
20
128.606484
11
130.270977
21
128.501661
0
LINE
8
Layer 1
10
130.270977
20
128.501661
11
131.079020
21
128.538762
0
LINE
8
Layer 1
10
131.079020
20
128.538762
11
131.602759
21
128.725354
0
LINE
8
Layer 1
10
131.602759
20
128.725354
11
131.924280
21
129.267436
0
LINE
8
Layer 1
10
131.924280
20
129.267436
11
132.001656
21
130.041564
0
LINE
8
Layer 1
10
132.001656
20
130.041564
11
131.843262
21
130.880934
0
LINE
8
Layer 1
10
131.843262
20
130.880934
11
131.457471
21
131.618742
0
LINE
8
Layer 1
10
131.457471
20
131.618742
11
130.732015
21
132.314079
0
LINE
8
Layer 1
10
130.732015
20
132.314079
11
129.718961
21
133.005126
0
LINE
8
Layer 1
10
129.718961
20
133.005126
11
128.604742
21
133.580864
0
LINE
8
Layer 1
10
128.604742
20
133.580864
11
127.575787
21
133.930274
0
LINE
8
Layer 1
10
127.575787
20
133.930274
11
126.910452
21
134.192852
0
LINE
8
Layer 1
10
126.910452
20
134.192852
11
126.658565
21
134.561845
0
LINE
8
Layer 1
10
126.658565
20
134.561845
11
126.804721
21
134.856653
0
LINE
8
Layer 1
10
126.804721
20
134.856653
11
127.293565
21
134.825497
0
LINE
8
Layer 1
10
127.293565
20
134.825497
11
128.537713
21
134.651468
0
LINE
8
Layer 1
10
128.537713
20
134.651468
11
129.441786
21
134.270095
0
LINE
8
Layer 1
10
129.441786
20
134.270095
11
130.715675
21
133.355397
0
LINE
8
Layer 1
10
130.715675
20
133.355397
11
131.948072
21
132.240461
0
LINE
8
Layer 1
10
131.948072
20
132.240461
11
132.727669
21
131.258372
0
LINE
8
Layer 1
10
132.727669
20
131.258372
11
133.075092
21
130.312256
0
LINE
8
Layer 1
10
133.075092
20
130.312256
11
133.132792
21
129.402742
0
LINE
8
Layer 1
10
133.132792
20
129.402742
11
132.903842
21
128.561243
0
LINE
8
Layer 1
10
132.903842
20
128.561243
11
132.391317
21
127.819170
0
LINE
8
Layer 1
10
132.391317
20
127.819170
11
131.707019
21
127.260134
0
LINE
8
Layer 1
10
131.707019
20
127.260134
11
131.126735
21
127.027615
0
LINE
8
Layer 1
10
131.126735
20
127.027615
11
130.870178
21
126.984226
0
LINE
8
Layer 1
10
130.870178
20
126.984226
11
130.740408
21
126.810039
0
LINE
8
Layer 1
10
130.740408
20
126.810039
11
130.788040
21
125.805176
0
LINE
8
Layer 1
10
130.788040
20
125.805176
11
130.721748
21
124.350702
0
LINE
8
Layer 1
10
130.721748
20
124.350702
11
130.128314
21
123.076037
0
LINE
8
Layer 1
10
130.128314
20
123.076037
11
129.044041
21
122.031376
0
LINE
8
Layer 1
10
129.044041
20
122.031376
11
127.505231
21
121.266912
0
LINE
8
Layer 1
10
127.505231
20
121.266912
11
126.371147
21
120.985016
0
LINE
8
Layer 1
10
126.371147
20
120.985016
11
125.144658
21
120.857986
0
LINE
8
Layer 1
10
125.144658
20
120.857986
11
123.997019
21
120.892497
0
LINE
8
Layer 1
10
123.997019
20
120.892497
11
123.099489
21
121.095222
0
LINE
8
Layer 1
10
123.099489
20
121.095222
11
123.099489
21
121.095222
0
LINE
8
Layer 1
10
146.978565
20
139.159384
11
147.250077
21
139.469472
0
LINE
8
Layer 1
10
147.250077
20
139.469472
11
147.902843
21
139.824008
0
LINE
8
Layer 1
10
147.902843
20
139.824008
11
148.820305
21
140.361672
0
LINE
8
Layer 1
10
148.820305
20
140.361672
11
149.811388
21
141.152844
0
LINE
8
Layer 1
10
149.811388
20
141.152844
11
150.604906
21
141.955348
0
LINE
8
Layer 1
10
150.604906
20
141.955348
11
150.929676
21
142.527006
0
LINE
8
Layer 1
10
150.929676
20
142.527006
11
150.616212
21
142.935974
0
LINE
8
Layer 1
10
150.616212
20
142.935974
11
149.803426
21
143.306432
0
LINE
8
Layer 1
10
149.803426
20
143.306432
11
148.682728
21
143.575108
0
LINE
8
Layer 1
10
148.682728
20
143.575108
11
147.445530
21
143.678727
0
LINE
8
Layer 1
10
147.445530
20
143.678727
11
146.231911
21
143.782957
0
LINE
8
Layer 1
10
146.231911
20
143.782957
11
145.588310
21
144.076934
0
LINE
8
Layer 1
10
145.588310
20
144.076934
11
145.408415
21
144.325788
0
LINE
8
Layer 1
10
145.408415
20
144.325788
11
145.436548
21
144.527501
0
LINE
8
Layer 1
10
145.436548
20
144.527501
11
146.444318
21
145.230870
0
LINE
8
Layer 1
10
146.444318
20
145.230870
11
148.106732
21
146.352681
0
LINE
8
Layer 1
10
148.106732
20
146.352681
11
149.105028
21
147.267022
0
LINE
8
Layer 1
10
149.105028
20
147.267022
11
149.519468
21
148.071541
0
LINE
8
Layer 1
10
149.519468
20
148.071541
11
149.430314
21
148.863885
0
LINE
8
Layer 1
10
149.430314
20
148.863885
11
149.024792
21
149.216826
0
LINE
8
Layer 1
10
149.024792
20
149.216826
11
148.198304
21
149.404892
0
LINE
8
Layer 1
10
148.198304
20
149.404892
11
147.038130
21
149.419192
0
LINE
8
Layer 1
10
147.038130
20
149.419192
11
145.631546
21
149.250837
0
LINE
8
Layer 1
10
145.631546
20
149.250837
11
144.131925
21
149.080421
0
LINE
8
Layer 1
10
144.131925
20
149.080421
11
143.705155
21
149.129973
0
LINE
8
Layer 1
10
143.705155
20
149.129973
11
143.489561
21
149.276805
0
LINE
8
Layer 1
10
143.489561
20
149.276805
11
143.482002
21
149.526497
0
LINE
8
Layer 1
10
143.482002
20
149.526497
11
143.679338
21
149.884629
0
LINE
8
Layer 1
10
143.679338
20
149.884629
11
144.676139
21
150.948531
0
LINE
8
Layer 1
10
144.676139
20
150.948531
11
145.848191
21
152.230980
0
LINE
8
Layer 1
10
145.848191
20
152.230980
11
146.071000
21
152.725685
0
LINE
8
Layer 1
10
146.071000
20
152.725685
11
146.131898
21
153.249517
0
LINE
8
Layer 1
10
146.131898
20
153.249517
11
146.114055
21
153.782228
0
LINE
8
Layer 1
10
146.114055
20
153.782228
11
145.997215
21
154.038115
0
LINE
8
Layer 1
10
145.997215
20
154.038115
11
145.686414
21
154.084244
0
LINE
8
Layer 1
10
145.686414
20
154.084244
11
145.086688
21
153.987683
0
LINE
8
Layer 1
10
145.086688
20
153.987683
11
142.981282
21
153.250719
0
LINE
8
Layer 1
10
142.981282
20
153.250719
11
141.853427
21
152.755583
0
LINE
8
Layer 1
10
141.853427
20
152.755583
11
141.537336
21
152.706053
0
LINE
8
Layer 1
10
141.537336
20
152.706053
11
141.382691
21
152.796770
0
LINE
8
Layer 1
10
141.382691
20
152.796770
11
141.546404
21
153.423601
0
LINE
8
Layer 1
10
141.546404
20
153.423601
11
142.321898
21
154.685393
0
LINE
8
Layer 1
10
142.321898
20
154.685393
11
142.977889
21
155.918881
0
LINE
8
Layer 1
10
142.977889
20
155.918881
11
143.311052
21
157.094163
0
LINE
8
Layer 1
10
143.311052
20
157.094163
11
143.293662
21
158.026207
0
LINE
8
Layer 1
10
143.293662
20
158.026207
11
143.144847
21
158.343192
0
LINE
8
Layer 1
10
143.144847
20
158.343192
11
142.897998
21
158.529980
0
LINE
8
Layer 1
10
142.897998
20
158.529980
11
142.214504
21
158.562102
0
LINE
8
Layer 1
10
142.214504
20
158.562102
11
141.342679
21
158.271650
0
LINE
8
Layer 1
10
141.342679
20
158.271650
11
140.397860
21
157.712559
0
LINE
8
Layer 1
10
140.397860
20
157.712559
11
139.495386
21
156.938768
0
LINE
8
Layer 1
10
139.495386
20
156.938768
11
138.730499
21
156.271778
0
LINE
8
Layer 1
10
138.730499
20
156.271778
11
138.052684
21
155.882106
0
LINE
8
Layer 1
10
138.052684
20
155.882106
11
137.568125
21
155.811775
0
LINE
8
Layer 1
10
137.568125
20
155.811775
11
137.383009
21
156.102809
0
LINE
8
Layer 1
10
137.383009
20
156.102809
11
138.564674
21
157.673297
0
LINE
8
Layer 1
10
138.564674
20
157.673297
11
140.042373
21
158.959538
0
LINE
8
Layer 1
10
140.042373
20
158.959538
11
141.491255
21
159.641157
0
LINE
8
Layer 1
10
141.491255
20
159.641157
11
142.170393
21
159.746112
0
LINE
8
Layer 1
10
142.170393
20
159.746112
11
142.800933
21
159.688965
0
LINE
8
Layer 1
10
142.800933
20
159.688965
11
143.369077
21
159.466069
0
LINE
8
Layer 1
10
143.369077
20
159.466069
11
143.861025
21
159.073774
0
LINE
8
Layer 1
10
143.861025
20
159.073774
11
144.194114
21
158.659373
0
LINE
8
Layer 1
10
144.194114
20
158.659373
11
144.372807
21
158.227389
0
LINE
8
Layer 1
10
144.372807
20
158.227389
11
144.380907
21
156.815996
0
LINE
8
Layer 1
10
144.380907
20
156.815996
11
144.251028
21
155.249838
0
LINE
8
Layer 1
10
144.251028
20
155.249838
11
145.600784
21
155.249838
0
LINE
8
Layer 1
10
145.600784
20
155.249838
11
146.747540
21
155.085238
0
LINE
8
Layer 1
10
146.747540
20
155.085238
11
147.093942
21
154.859630
0
LINE
8
Layer 1
10
147.093942
20
154.859630
11
147.294742
21
154.520831
0
LINE
8
Layer 1
10
147.294742
20
154.520831
11
147.276672
21
153.450700
0
LINE
8
Layer 1
10
147.276672
20
153.450700
11
146.727613
21
151.768931
0
LINE
8
Layer 1
10
146.727613
20
151.768931
11
146.535786
21
151.107008
0
LINE
8
Layer 1
10
146.535786
20
151.107008
11
146.639485
21
150.705018
0
LINE
8
Layer 1
10
146.639485
20
150.705018
11
147.091583
21
150.505767
0
LINE
8
Layer 1
10
147.091583
20
150.505767
11
147.944950
21
150.452060
0
LINE
8
Layer 1
10
147.944950
20
150.452060
11
148.872077
21
150.356356
0
LINE
8
Layer 1
10
148.872077
20
150.356356
11
149.616663
21
150.086465
0
LINE
8
Layer 1
10
149.616663
20
150.086465
11
150.168152
21
149.668222
0
LINE
8
Layer 1
10
150.168152
20
149.668222
11
150.515987
21
149.127460
0
LINE
8
Layer 1
10
150.515987
20
149.127460
11
150.649614
21
148.490012
0
LINE
8
Layer 1
10
150.649614
20
148.490012
11
150.558475
21
147.781712
0
LINE
8
Layer 1
10
150.558475
20
147.781712
11
150.232014
21
147.028393
0
LINE
8
Layer 1
10
150.232014
20
147.028393
11
149.659676
21
146.255890
0
LINE
8
Layer 1
10
149.659676
20
146.255890
11
148.671898
21
145.021754
0
LINE
8
Layer 1
10
148.671898
20
145.021754
11
149.953949
21
144.522021
0
LINE
8
Layer 1
10
149.953949
20
144.522021
11
151.272440
21
143.910330
0
LINE
8
Layer 1
10
151.272440
20
143.910330
11
151.691192
21
143.498984
0
LINE
8
Layer 1
10
151.691192
20
143.498984
11
151.946540
21
143.026225
0
LINE
8
Layer 1
10
151.946540
20
143.026225
11
152.036175
21
142.498744
0
LINE
8
Layer 1
10
152.036175
20
142.498744
11
151.957791
21
141.923232
0
LINE
8
Layer 1
10
151.957791
20
141.923232
11
151.287731
21
140.654882
0
LINE
8
Layer 1
10
151.287731
20
140.654882
11
150.475005
21
139.829018
0
LINE
8
Layer 1
10
150.475005
20
139.829018
11
149.603457
21
139.262604
0
LINE
8
Layer 1
10
149.603457
20
139.262604
11
148.744119
21
139.002110
0
LINE
8
Layer 1
10
148.744119
20
139.002110
11
147.891723
21
138.893024
0
LINE
8
Layer 1
10
147.891723
20
138.893024
11
147.238971
21
138.942922
0
LINE
8
Layer 1
10
147.238971
20
138.942922
11
146.978565
21
139.159384
0
LINE
8
Layer 1
10
146.978565
20
139.159384
11
146.978565
21
139.159384
0
LINE
8
Layer 1
10
104.965610
20
159.130393
11
104.917516
21
159.801253
0
LINE
8
Layer 1
10
104.917516
20
159.801253
11
105.379009
21
160.889916
0
LINE
8
Layer 1
10
105.379009
20
160.889916
11
105.951603
21
162.156032
0
LINE
8
Layer 1
10
105.951603
20
162.156032
11
106.027246
21
162.573267
0
LINE
8
Layer 1
10
106.027246
20
162.573267
11
105.954351
21
162.858709
0
LINE
8
Layer 1
10
105.954351
20
162.858709
11
105.726840
21
163.021422
0
LINE
8
Layer 1
10
105.726840
20
163.021422
11
105.338635
21
163.070474
0
LINE
8
Layer 1
10
105.338635
20
163.070474
11
104.055839
21
162.863855
0
LINE
8
Layer 1
10
104.055839
20
162.863855
11
102.757535
21
162.365766
0
LINE
8
Layer 1
10
102.757535
20
162.365766
11
101.764222
21
161.427806
0
LINE
8
Layer 1
10
101.764222
20
161.427806
11
101.159574
21
160.770071
0
LINE
8
Layer 1
10
101.159574
20
160.770071
11
100.629992
21
160.421616
0
LINE
8
Layer 1
10
100.629992
20
160.421616
11
100.128764
21
160.364037
0
LINE
8
Layer 1
10
100.128764
20
160.364037
11
99.609173
21
160.578930
0
LINE
8
Layer 1
10
99.609173
20
160.578930
11
99.387467
21
160.939096
0
LINE
8
Layer 1
10
99.387467
20
160.939096
11
99.679729
21
161.689483
0
LINE
8
Layer 1
10
99.679729
20
161.689483
11
100.045260
21
162.737514
0
LINE
8
Layer 1
10
100.045260
20
162.737514
11
100.058175
21
163.658787
0
LINE
8
Layer 1
10
100.058175
20
163.658787
11
99.745039
21
164.313830
0
LINE
8
Layer 1
10
99.745039
20
164.313830
11
99.132415
21
164.563171
0
LINE
8
Layer 1
10
99.132415
20
164.563171
11
98.635380
21
164.282574
0
LINE
8
Layer 1
10
98.635380
20
164.282574
11
97.807915
21
163.585130
0
LINE
8
Layer 1
10
97.807915
20
163.585130
11
96.110775
21
161.805798
0
LINE
8
Layer 1
10
96.110775
20
161.805798
11
95.477080
21
161.222594
0
LINE
8
Layer 1
10
95.477080
20
161.222594
11
95.186398
21
161.232450
0
LINE
8
Layer 1
10
95.186398
20
161.232450
11
94.825648
21
161.416786
0
LINE
8
Layer 1
10
94.825648
20
161.416786
11
94.663403
21
161.588673
0
LINE
8
Layer 1
10
94.663403
20
161.588673
11
94.621478
21
161.865001
0
LINE
8
Layer 1
10
94.621478
20
161.865001
11
94.912375
21
162.979331
0
LINE
8
Layer 1
10
94.912375
20
162.979331
11
95.208835
21
164.197259
0
LINE
8
Layer 1
10
95.208835
20
164.197259
11
95.272924
21
165.295284
0
LINE
8
Layer 1
10
95.272924
20
165.295284
11
95.112832
21
166.110210
0
LINE
8
Layer 1
10
95.112832
20
166.110210
11
94.736748
21
166.478845
0
LINE
8
Layer 1
10
94.736748
20
166.478845
11
94.015402
21
166.114518
0
LINE
8
Layer 1
10
94.015402
20
166.114518
11
92.902303
21
165.090263
0
LINE
8
Layer 1
10
92.902303
20
165.090263
11
91.135070
21
163.273577
0
LINE
8
Layer 1
10
91.135070
20
163.273577
11
89.966684
21
162.256731
0
LINE
8
Layer 1
10
89.966684
20
162.256731
11
89.321284
21
161.985865
0
LINE
8
Layer 1
10
89.321284
20
161.985865
11
89.170998
21
162.113343
0
LINE
8
Layer 1
10
89.170998
20
162.113343
11
89.123009
21
162.407120
0
LINE
8
Layer 1
10
89.123009
20
162.407120
11
89.559604
21
163.459324
0
LINE
8
Layer 1
10
89.559604
20
163.459324
11
90.621235
21
164.921272
0
LINE
8
Layer 1
10
90.621235
20
164.921272
11
91.935670
21
166.341454
0
LINE
8
Layer 1
10
91.935670
20
166.341454
11
93.130678
21
167.268361
0
LINE
8
Layer 1
10
93.130678
20
167.268361
11
94.409122
21
167.637427
0
LINE
8
Layer 1
10
94.409122
20
167.637427
11
95.571526
21
167.467933
0
LINE
8
Layer 1
10
95.571526
20
167.467933
11
96.416588
21
166.839855
0
LINE
8
Layer 1
10
96.416588
20
166.839855
11
96.657210
21
166.378840
0
LINE
8
Layer 1
10
96.657210
20
166.378840
11
96.743009
21
165.833171
0
LINE
8
Layer 1
10
96.743009
20
165.833171
11
96.827880
21
165.359758
0
LINE
8
Layer 1
10
96.827880
20
165.359758
11
97.101876
21
165.158088
0
LINE
8
Layer 1
10
97.101876
20
165.158088
11
97.594068
21
165.222969
0
LINE
8
Layer 1
10
97.594068
20
165.222969
11
98.333529
21
165.549210
0
LINE
8
Layer 1
10
98.333529
20
165.549210
11
99.615298
21
165.972544
0
LINE
8
Layer 1
10
99.615298
20
165.972544
11
100.110326
21
165.761667
0
LINE
8
Layer 1
10
100.110326
20
165.761667
11
100.648725
21
165.244913
0
LINE
8
Layer 1
10
100.648725
20
165.244913
11
101.081227
21
164.600765
0
LINE
8
Layer 1
10
101.081227
20
164.600765
11
101.258565
21
164.007704
0
LINE
8
Layer 1
10
101.258565
20
164.007704
11
101.330919
21
163.545311
0
LINE
8
Layer 1
10
101.330919
20
163.545311
11
101.638683
21
163.379002
0
LINE
8
Layer 1
10
101.638683
20
163.379002
11
103.504659
21
163.911266
0
LINE
8
Layer 1
10
103.504659
20
163.911266
11
105.264744
21
164.454920
0
LINE
8
Layer 1
10
105.264744
20
164.454920
11
105.714752
21
164.390346
0
LINE
8
Layer 1
10
105.714752
20
164.390346
11
106.179476
21
164.125662
0
LINE
8
Layer 1
10
106.179476
20
164.125662
11
106.759732
21
163.540245
0
LINE
8
Layer 1
10
106.759732
20
163.540245
11
107.095005
21
162.827163
0
LINE
8
Layer 1
10
107.095005
20
162.827163
11
107.391748
21
162.080117
0
LINE
8
Layer 1
10
107.391748
20
162.080117
11
107.609665
21
162.060995
0
LINE
8
Layer 1
10
107.609665
20
162.060995
11
107.904898
21
162.256320
0
LINE
8
Layer 1
10
107.904898
20
162.256320
11
109.381682
21
162.868983
0
LINE
8
Layer 1
10
109.381682
20
162.868983
11
110.519204
21
163.100834
0
LINE
8
Layer 1
10
110.519204
20
163.100834
11
111.344792
21
162.685230
0
LINE
8
Layer 1
10
111.344792
20
162.685230
11
111.985265
21
162.002219
0
LINE
8
Layer 1
10
111.985265
20
162.002219
11
112.347302
21
161.191429
0
LINE
8
Layer 1
10
112.347302
20
161.191429
11
112.395987
21
160.389919
0
LINE
8
Layer 1
10
112.395987
20
160.389919
11
112.096406
21
159.734750
0
LINE
8
Layer 1
10
112.096406
20
159.734750
11
111.579569
21
159.294829
0
LINE
8
Layer 1
10
111.579569
20
159.294829
11
111.182560
21
159.198114
0
LINE
8
Layer 1
10
111.182560
20
159.198114
11
110.963610
21
159.431668
0
LINE
8
Layer 1
10
110.963610
20
159.431668
11
110.980951
21
159.982552
0
LINE
8
Layer 1
10
110.980951
20
159.982552
11
111.017198
21
160.792200
0
LINE
8
Layer 1
10
111.017198
20
160.792200
11
110.739097
21
161.355313
0
LINE
8
Layer 1
10
110.739097
20
161.355313
11
110.174838
21
161.643400
0
LINE
8
Layer 1
10
110.174838
20
161.643400
11
109.352613
21
161.627972
0
LINE
8
Layer 1
10
109.352613
20
161.627972
11
108.285443
21
161.165141
0
LINE
8
Layer 1
10
108.285443
20
161.165141
11
107.120207
21
160.036005
0
LINE
8
Layer 1
10
107.120207
20
160.036005
11
106.297630
21
159.152261
0
LINE
8
Layer 1
10
106.297630
20
159.152261
11
105.715323
21
158.728175
0
LINE
8
Layer 1
10
105.715323
20
158.728175
11
105.296809
21
158.731600
0
LINE
8
Layer 1
10
105.296809
20
158.731600
11
104.965610
21
159.130393
0
LINE
8
Layer 1
10
104.965610
20
159.130393
11
104.965610
21
159.130393
0
LINE
8
Layer 1
10
107.255787
20
78.398638
11
108.268245
21
78.883619
0
LINE
8
Layer 1
10
108.268245
20
78.883619
11
108.596343
21
79.377992
0
LINE
8
Layer 1
10
108.596343
20
79.377992
11
108.392669
21
80.033055
0
LINE
8
Layer 1
10
108.392669
20
80.033055
11
107.805803
21
80.751698
0
LINE
8
Layer 1
10
107.805803
20
80.751698
11
106.871974
21
81.513340
0
LINE
8
Layer 1
10
106.871974
20
81.513340
11
105.627411
21
82.297399
0
LINE
8
Layer 1
10
105.627411
20
82.297399
11
102.351002
21
83.850448
0
LINE
8
Layer 1
10
102.351002
20
83.850448
11
98.266417
21
85.246193
0
LINE
8
Layer 1
10
98.266417
20
85.246193
11
96.610576
21
85.862765
0
LINE
8
Layer 1
10
96.610576
20
85.862765
11
95.444194
21
86.536273
0
LINE
8
Layer 1
10
95.444194
20
86.536273
11
94.234107
21
87.558457
0
LINE
8
Layer 1
10
94.234107
20
87.558457
11
93.791586
21
87.798727
0
LINE
8
Layer 1
10
93.791586
20
87.798727
11
93.659463
21
87.628992
0
LINE
8
Layer 1
10
93.659463
20
87.628992
11
93.643458
21
87.248106
0
LINE
8
Layer 1
10
93.643458
20
87.248106
11
93.726931
21
86.848549
0
LINE
8
Layer 1
10
93.726931
20
86.848549
11
93.893242
21
86.622800
0
LINE
8
Layer 1
10
93.893242
20
86.622800
11
95.312058
21
84.071302
0
LINE
8
Layer 1
10
95.312058
20
84.071302
11
96.412654
21
82.058771
0
LINE
8
Layer 1
10
96.412654
20
82.058771
11
97.603148
21
80.531355
0
LINE
8
Layer 1
10
97.603148
20
80.531355
11
98.958335
21
79.411265
0
LINE
8
Layer 1
10
98.958335
20
79.411265
11
100.553009
21
78.620710
0
LINE
8
Layer 1
10
100.553009
20
78.620710
11
102.234136
21
78.158027
0
LINE
8
Layer 1
10
102.234136
20
78.158027
11
104.005829
21
77.963666
0
LINE
8
Layer 1
10
104.005829
20
77.963666
11
105.726807
21
78.042310
0
LINE
8
Layer 1
10
105.726807
20
78.042310
11
107.255787
21
78.398638
0
LINE
8
Layer 1
10
107.255787
20
78.398638
11
107.255787
21
78.398638
0
LINE
8
Layer 1
10
169.794030
20
110.060780
11
170.031079
21
110.367929
0
LINE
8
Layer 1
10
170.031079
20
110.367929
11
169.801086
21
110.896081
0
LINE
8
Layer 1
10
169.801086
20
110.896081
11
169.557878
21
111.529419
0
LINE
8
Layer 1
10
169.557878
20
111.529419
11
169.824118
21
111.879298
0
LINE
8
Layer 1
10
169.824118
20
111.879298
11
170.633162
21
111.959044
0
LINE
8
Layer 1
10
170.633162
20
111.959044
11
172.018365
21
111.781988
0
LINE
8
Layer 1
10
172.018365
20
111.781988
11
174.333214
21
111.540472
0
LINE
8
Layer 1
10
174.333214
20
111.540472
11
176.763356
21
111.546284
0
LINE
8
Layer 1
10
176.763356
20
111.546284
11
178.812059
21
111.773571
0
LINE
8
Layer 1
10
178.812059
20
111.773571
11
179.982591
21
112.196479
0
LINE
8
Layer 1
10
179.982591
20
112.196479
11
180.334665
21
112.646772
0
LINE
8
Layer 1
10
180.334665
20
112.646772
11
180.525738
21
113.194074
0
LINE
8
Layer 1
10
180.525738
20
113.194074
11
180.548912
21
113.801245
0
LINE
8
Layer 1
10
180.548912
20
113.801245
11
180.397288
21
114.431143
0
LINE
8
Layer 1
10
180.397288
20
114.431143
11
179.872161
21
114.871723
0
LINE
8
Layer 1
10
179.872161
20
114.871723
11
178.842357
21
115.324467
0
LINE
8
Layer 1
10
178.842357
20
115.324467
11
178.038097
21
115.663644
0
LINE
8
Layer 1
10
178.038097
20
115.663644
11
177.423929
21
116.072595
0
LINE
8
Layer 1
10
177.423929
20
116.072595
11
177.031916
21
116.523908
0
LINE
8
Layer 1
10
177.031916
20
116.523908
11
176.894120
21
116.990173
0
LINE
8
Layer 1
10
176.894120
20
116.990173
11
177.136217
21
117.139531
0
LINE
8
Layer 1
10
177.136217
20
117.139531
11
177.745571
21
117.130396
0
LINE
8
Layer 1
10
177.745571
20
117.130396
11
179.364440
21
116.714846
0
LINE
8
Layer 1
10
179.364440
20
116.714846
11
180.859283
21
116.357739
0
LINE
8
Layer 1
10
180.859283
20
116.357739
11
182.991306
21
116.110001
0
LINE
8
Layer 1
10
182.991306
20
116.110001
11
185.305076
21
116.057141
0
LINE
8
Layer 1
10
185.305076
20
116.057141
11
185.738054
21
116.256766
0
LINE
8
Layer 1
10
185.738054
20
116.256766
11
186.058779
21
116.675352
0
LINE
8
Layer 1
10
186.058779
20
116.675352
11
186.444192
21
117.531534
0
LINE
8
Layer 1
10
186.444192
20
117.531534
11
186.694372
21
118.557602
0
LINE
8
Layer 1
10
186.694372
20
118.557602
11
186.748057
21
119.213725
0
LINE
8
Layer 1
10
186.748057
20
119.213725
11
186.646292
21
119.699011
0
LINE
8
Layer 1
10
186.646292
20
119.699011
11
185.681166
21
120.814826
0
LINE
8
Layer 1
10
185.681166
20
120.814826
11
184.687124
21
121.969086
0
LINE
8
Layer 1
10
184.687124
20
121.969086
11
184.519402
21
122.366365
0
LINE
8
Layer 1
10
184.519402
20
122.366365
11
184.562278
21
122.631720
0
LINE
8
Layer 1
10
184.562278
20
122.631720
11
184.809051
21
122.756135
0
LINE
8
Layer 1
10
184.809051
20
122.756135
11
185.253021
21
122.730591
0
LINE
8
Layer 1
10
185.253021
20
122.730591
11
186.705745
21
122.193558
0
LINE
8
Layer 1
10
186.705745
20
122.193558
11
188.086983
21
121.734058
0
LINE
8
Layer 1
10
188.086983
20
121.734058
11
189.925082
21
121.734388
0
LINE
8
Layer 1
10
189.925082
20
121.734388
11
191.603843
21
121.964765
0
LINE
8
Layer 1
10
191.603843
20
121.964765
11
192.675673
21
122.428025
0
LINE
8
Layer 1
10
192.675673
20
122.428025
11
193.263099
21
123.216604
0
LINE
8
Layer 1
10
193.263099
20
123.216604
11
193.488646
21
124.422939
0
LINE
8
Layer 1
10
193.488646
20
124.422939
11
193.484278
21
125.269239
0
LINE
8
Layer 1
10
193.484278
20
125.269239
11
193.308521
21
126.103763
0
LINE
8
Layer 1
10
193.308521
20
126.103763
11
192.129859
21
128.729446
0
LINE
8
Layer 1
10
192.129859
20
128.729446
11
191.151274
21
130.866877
0
LINE
8
Layer 1
10
191.151274
20
130.866877
11
190.825258
21
131.967018
0
LINE
8
Layer 1
10
190.825258
20
131.967018
11
190.970041
21
132.130660
0
LINE
8
Layer 1
10
190.970041
20
132.130660
11
191.287415
21
132.182230
0
LINE
8
Layer 1
10
191.287415
20
132.182230
11
192.748490
21
131.945741
0
LINE
8
Layer 1
10
192.748490
20
131.945741
11
194.507090
21
131.629657
0
LINE
8
Layer 1
10
194.507090
20
131.629657
11
195.771298
21
131.575346
0
LINE
8
Layer 1
10
195.771298
20
131.575346
11
196.714720
21
131.795881
0
LINE
8
Layer 1
10
196.714720
20
131.795881
11
197.510962
21
132.304333
0
LINE
8
Layer 1
10
197.510962
20
132.304333
11
198.024114
21
132.772433
0
LINE
8
Layer 1
10
198.024114
20
132.772433
11
198.275674
21
133.210935
0
LINE
8
Layer 1
10
198.275674
20
133.210935
11
198.259274
21
134.929702
0
LINE
8
Layer 1
10
198.259274
20
134.929702
11
197.946841
21
136.781068
0
LINE
8
Layer 1
10
197.946841
20
136.781068
11
197.339476
21
138.474696
0
LINE
8
Layer 1
10
197.339476
20
138.474696
11
196.448659
21
139.986024
0
LINE
8
Layer 1
10
196.448659
20
139.986024
11
195.285865
21
141.290492
0
LINE
8
Layer 1
10
195.285865
20
141.290492
11
194.260016
21
142.401346
0
LINE
8
Layer 1
10
194.260016
20
142.401346
11
193.756813
21
143.263696
0
LINE
8
Layer 1
10
193.756813
20
143.263696
11
193.625778
21
143.949076
0
LINE
8
Layer 1
10
193.625778
20
143.949076
11
196.059747
21
143.776308
0
LINE
8
Layer 1
10
196.059747
20
143.776308
11
198.134242
21
143.720453
0
LINE
8
Layer 1
10
198.134242
20
143.720453
11
198.602445
21
143.843771
0
LINE
8
Layer 1
10
198.602445
20
143.843771
11
198.898140
21
144.090839
0
LINE
8
Layer 1
10
198.898140
20
144.090839
11
199.241163
21
144.910007
0
LINE
8
Layer 1
10
199.241163
20
144.910007
11
199.170935
21
145.953116
0
LINE
8
Layer 1
10
199.170935
20
145.953116
11
198.738150
21
147.146515
0
LINE
8
Layer 1
10
198.738150
20
147.146515
11
197.993505
21
148.416553
0
LINE
8
Layer 1
10
197.993505
20
148.416553
11
196.987695
21
149.689579
0
LINE
8
Layer 1
10
196.987695
20
149.689579
11
195.771416
21
150.891943
0
LINE
8
Layer 1
10
195.771416
20
150.891943
11
194.395363
21
151.949994
0
LINE
8
Layer 1
10
194.395363
20
151.949994
11
192.910231
21
152.790082
0
LINE
8
Layer 1
10
192.910231
20
152.790082
11
191.857726
21
153.415237
0
LINE
8
Layer 1
10
191.857726
20
153.415237
11
191.635802
21
153.714367
0
LINE
8
Layer 1
10
191.635802
20
153.714367
11
191.569676
21
154.048742
0
LINE
8
Layer 1
10
191.569676
20
154.048742
11
191.607112
21
154.379149
0
LINE
8
Layer 1
10
191.607112
20
154.379149
11
191.757699
21
154.572569
0
LINE
8
Layer 1
10
191.757699
20
154.572569
11
192.628009
21
154.686968
0
LINE
8
Layer 1
10
192.628009
20
154.686968
11
193.911928
21
154.802791
0
LINE
8
Layer 1
10
193.911928
20
154.802791
11
195.080286
21
155.129721
0
LINE
8
Layer 1
10
195.080286
20
155.129721
11
196.107502
21
155.642896
0
LINE
8
Layer 1
10
196.107502
20
155.642896
11
196.967994
21
156.317454
0
LINE
8
Layer 1
10
196.967994
20
156.317454
11
197.636183
21
157.128535
0
LINE
8
Layer 1
10
197.636183
20
157.128535
11
198.086485
21
158.051277
0
LINE
8
Layer 1
10
198.086485
20
158.051277
11
198.293321
21
159.060818
0
LINE
8
Layer 1
10
198.293321
20
159.060818
11
198.231108
21
160.132296
0
LINE
8
Layer 1
10
198.231108
20
160.132296
11
197.784109
21
161.055688
0
LINE
8
Layer 1
10
197.784109
20
161.055688
11
196.925195
21
162.145473
0
LINE
8
Layer 1
10
196.925195
20
162.145473
11
195.969825
21
163.054166
0
LINE
8
Layer 1
10
195.969825
20
163.054166
11
195.233457
21
163.434282
0
LINE
8
Layer 1
10
195.233457
20
163.434282
11
194.069950
21
164.045410
0
LINE
8
Layer 1
10
194.069950
20
164.045410
11
192.914549
21
164.986504
0
LINE
8
Layer 1
10
192.914549
20
164.986504
11
192.678114
21
165.482151
0
LINE
8
Layer 1
10
192.678114
20
165.482151
11
192.763642
21
165.881587
0
LINE
8
Layer 1
10
192.763642
20
165.881587
11
193.168125
21
166.180518
0
LINE
8
Layer 1
10
193.168125
20
166.180518
11
193.888555
21
166.374651
0
LINE
8
Layer 1
10
193.888555
20
166.374651
11
194.983062
21
166.689351
0
LINE
8
Layer 1
10
194.983062
20
166.689351
11
195.942169
21
167.258960
0
LINE
8
Layer 1
10
195.942169
20
167.258960
11
196.759116
21
168.078193
0
LINE
8
Layer 1
10
196.759116
20
168.078193
11
197.427142
21
169.141761
0
LINE
8
Layer 1
10
197.427142
20
169.141761
11
197.810809
21
170.085042
0
LINE
8
Layer 1
10
197.810809
20
170.085042
11
197.995665
21
170.971590
0
LINE
8
Layer 1
10
197.995665
20
170.971590
11
197.984704
21
171.794262
0
LINE
8
Layer 1
10
197.984704
20
171.794262
11
197.780921
21
172.545915
0
LINE
8
Layer 1
10
197.780921
20
172.545915
11
197.387310
21
173.219407
0
LINE
8
Layer 1
10
197.387310
20
173.219407
11
196.806866
21
173.807592
0
LINE
8
Layer 1
10
196.806866
20
173.807592
11
196.042582
21
174.303330
0
LINE
8
Layer 1
10
196.042582
20
174.303330
11
195.097454
21
174.699476
0
LINE
8
Layer 1
10
195.097454
20
174.699476
11
193.580356
21
175.426020
0
LINE
8
Layer 1
10
193.580356
20
175.426020
11
193.182411
21
175.804397
0
LINE
8
Layer 1
10
193.182411
20
175.804397
11
193.027622
21
176.163836
0
LINE
8
Layer 1
10
193.027622
20
176.163836
11
193.118054
21
176.482581
0
LINE
8
Layer 1
10
193.118054
20
176.482581
11
193.455772
21
176.738877
0
LINE
8
Layer 1
10
193.455772
20
176.738877
11
194.042842
21
176.910967
0
LINE
8
Layer 1
10
194.042842
20
176.910967
11
194.881328
21
176.977096
0
LINE
8
Layer 1
10
194.881328
20
176.977096
11
195.725255
21
177.223205
0
LINE
8
Layer 1
10
195.725255
20
177.223205
11
196.504864
21
177.864540
0
LINE
8
Layer 1
10
196.504864
20
177.864540
11
197.104213
21
178.770961
0
LINE
8
Layer 1
10
197.104213
20
178.770961
11
197.407358
21
179.812326
0
LINE
8
Layer 1
10
197.407358
20
179.812326
11
197.451184
21
180.525180
0
LINE
8
Layer 1
10
197.451184
20
180.525180
11
197.355884
21
181.063861
0
LINE
8
Layer 1
10
197.355884
20
181.063861
11
196.507887
21
182.276205
0
LINE
8
Layer 1
10
196.507887
20
182.276205
11
195.413449
21
183.275540
0
LINE
8
Layer 1
10
195.413449
20
183.275540
11
194.032679
21
184.133758
0
LINE
8
Layer 1
10
194.032679
20
184.133758
11
192.521659
21
184.770190
0
LINE
8
Layer 1
10
192.521659
20
184.770190
11
191.036473
21
185.104165
0
LINE
8
Layer 1
10
191.036473
20
185.104165
11
189.732501
21
185.435340
0
LINE
8
Layer 1
10
189.732501
20
185.435340
11
189.421716
21
185.716051
0
LINE
8
Layer 1
10
189.421716
20
185.716051
11
189.316216
21
186.086174
0
LINE
8
Layer 1
10
189.316216
20
186.086174
11
189.748408
21
186.435267
0
LINE
8
Layer 1
10
189.748408
20
186.435267
11
190.793565
21
186.972344
0
LINE
8
Layer 1
10
190.793565
20
186.972344
11
192.115765
21
187.705147
0
LINE
8
Layer 1
10
192.115765
20
187.705147
11
193.214044
21
188.524814
0
LINE
8
Layer 1
10
193.214044
20
188.524814
11
193.955388
21
189.411909
0
LINE
8
Layer 1
10
193.955388
20
189.411909
11
194.028824
21
189.812460
0
LINE
8
Layer 1
10
194.028824
20
189.812460
11
193.960409
21
190.319756
0
LINE
8
Layer 1
10
193.960409
20
190.319756
11
193.653794
21
191.083341
0
LINE
8
Layer 1
10
193.653794
20
191.083341
11
193.125641
21
191.888867
0
LINE
8
Layer 1
10
193.125641
20
191.888867
11
192.538354
21
192.526247
0
LINE
8
Layer 1
10
192.538354
20
192.526247
11
192.054336
21
192.785393
0
LINE
8
Layer 1
10
192.054336
20
192.785393
11
190.977122
21
193.369864
0
LINE
8
Layer 1
10
190.977122
20
193.369864
11
190.131940
21
193.874741
0
LINE
8
Layer 1
10
190.131940
20
193.874741
11
189.162274
21
194.249916
0
LINE
8
Layer 1
10
189.162274
20
194.249916
11
186.492696
21
194.718457
0
LINE
8
Layer 1
10
186.492696
20
194.718457
11
185.186209
21
194.956743
0
LINE
8
Layer 1
10
185.186209
20
194.956743
11
184.554774
21
195.328424
0
LINE
8
Layer 1
10
184.554774
20
195.328424
11
184.496764
21
195.557482
0
LINE
8
Layer 1
10
184.496764
20
195.557482
11
184.612992
21
195.811721
0
LINE
8
Layer 1
10
184.612992
20
195.811721
11
185.375463
21
196.384853
0
LINE
8
Layer 1
10
185.375463
20
196.384853
11
186.523455
21
197.095275
0
LINE
8
Layer 1
10
186.523455
20
197.095275
11
187.352955
21
197.829110
0
LINE
8
Layer 1
10
187.352955
20
197.829110
11
187.940906
21
198.671946
0
LINE
8
Layer 1
10
187.940906
20
198.671946
11
188.364252
21
199.709371
0
LINE
8
Layer 1
10
188.364252
20
199.709371
11
188.664536
21
201.012888
0
LINE
8
Layer 1
10
188.664536
20
201.012888
11
188.552424
21
201.899152
0
LINE
8
Layer 1
10
188.552424
20
201.899152
11
187.974370
21
202.482147
0
LINE
8
Layer 1
10
187.974370
20
202.482147
11
186.876828
21
202.875856
0
LINE
8
Layer 1
10
186.876828
20
202.875856
11
185.254121
21
203.074667
0
LINE
8
Layer 1
10
185.254121
20
203.074667
11
183.103009
21
202.978769
0
LINE
8
Layer 1
10
183.103009
20
202.978769
11
181.338383
21
202.876021
0
LINE
8
Layer 1
10
181.338383
20
202.876021
11
180.464429
21
202.957732
0
LINE
8
Layer 1
10
180.464429
20
202.957732
11
180.310497
21
203.334269
0
LINE
8
Layer 1
10
180.310497
20
203.334269
11
180.459497
21
203.812703
0
LINE
8
Layer 1
10
180.459497
20
203.812703
11
180.850168
21
204.285098
0
LINE
8
Layer 1
10
180.850168
20
204.285098
11
181.421247
21
204.643519
0
LINE
8
Layer 1
10
181.421247
20
204.643519
11
182.439033
21
205.255048
0
LINE
8
Layer 1
10
182.439033
20
205.255048
11
183.457547
21
206.185301
0
LINE
8
Layer 1
10
183.457547
20
206.185301
11
184.336060
21
207.283782
0
LINE
8
Layer 1
10
184.336060
20
207.283782
11
184.933841
21
208.399995
0
LINE
8
Layer 1
10
184.933841
20
208.399995
11
185.216508
21
209.339481
0
LINE
8
Layer 1
10
185.216508
20
209.339481
11
185.283702
21
210.125581
0
LINE
8
Layer 1
10
185.283702
20
210.125581
11
185.130165
21
210.762785
0
LINE
8
Layer 1
10
185.130165
20
210.762785
11
184.750640
21
211.255582
0
LINE
8
Layer 1
10
184.750640
20
211.255582
11
184.139871
21
211.608460
0
LINE
8
Layer 1
10
184.139871
20
211.608460
11
183.292600
21
211.825908
0
LINE
8
Layer 1
10
183.292600
20
211.825908
11
180.867527
21
211.872472
0
LINE
8
Layer 1
10
180.867527
20
211.872472
11
177.415808
21
211.530404
0
LINE
8
Layer 1
10
177.415808
20
211.530404
11
176.530812
21
211.496281
0
LINE
8
Layer 1
10
176.530812
20
211.496281
11
176.325946
21
211.661077
0
LINE
8
Layer 1
10
176.325946
20
211.661077
11
176.187154
21
211.980978
0
LINE
8
Layer 1
10
176.187154
20
211.980978
11
176.150103
21
212.352912
0
LINE
8
Layer 1
10
176.150103
20
212.352912
11
176.310231
21
212.768536
0
LINE
8
Layer 1
10
176.310231
20
212.768536
11
177.413579
21
214.054721
0
LINE
8
Layer 1
10
177.413579
20
214.054721
11
178.380465
21
215.132944
0
LINE
8
Layer 1
10
178.380465
20
215.132944
11
179.002673
21
216.084411
0
LINE
8
Layer 1
10
179.002673
20
216.084411
11
179.335470
21
217.018213
0
LINE
8
Layer 1
10
179.335470
20
217.018213
11
179.434120
21
218.043438
0
LINE
8
Layer 1
10
179.434120
20
218.043438
11
179.253731
21
218.923686
0
LINE
8
Layer 1
10
179.253731
20
218.923686
11
178.570125
21
219.608840
0
LINE
8
Layer 1
10
178.570125
20
219.608840
11
177.706130
21
220.224059
0
LINE
8
Layer 1
10
177.706130
20
220.224059
11
174.125125
21
219.504858
0
LINE
8
Layer 1
10
174.125125
20
219.504858
11
169.046565
21
218.444984
0
LINE
8
Layer 1
10
169.046565
20
218.444984
11
167.867200
21
218.263304
0
LINE
8
Layer 1
10
167.867200
20
218.263304
11
167.277201
21
218.376096
0
LINE
8
Layer 1
10
167.277201
20
218.376096
11
167.190899
21
218.918828
0
LINE
8
Layer 1
10
167.190899
20
218.918828
11
167.457989
21
219.903487
0
LINE
8
Layer 1
10
167.457989
20
219.903487
11
168.031037
21
221.201211
0
LINE
8
Layer 1
10
168.031037
20
221.201211
11
168.862612
21
222.683143
0
LINE
8
Layer 1
10
168.862612
20
222.683143
11
169.663157
21
224.244940
0
LINE
8
Layer 1
10
169.663157
20
224.244940
11
169.785987
21
225.557865
0
LINE
8
Layer 1
10
169.785987
20
225.557865
11
169.688182
21
226.219042
0
LINE
8
Layer 1
10
169.688182
20
226.219042
11
169.470611
21
226.663810
0
LINE
8
Layer 1
10
169.470611
20
226.663810
11
169.082289
21
226.882674
0
LINE
8
Layer 1
10
169.082289
20
226.882674
11
168.472232
21
226.866143
0
LINE
8
Layer 1
10
168.472232
20
226.866143
11
166.382970
21
226.088923
0
LINE
8
Layer 1
10
166.382970
20
226.088923
11
162.794947
21
224.256208
0
LINE
8
Layer 1
10
162.794947
20
224.256208
11
160.888801
21
223.357125
0
LINE
8
Layer 1
10
160.888801
20
223.357125
11
159.657850
21
222.983171
0
LINE
8
Layer 1
10
159.657850
20
222.983171
11
159.242632
21
223.006155
0
LINE
8
Layer 1
10
159.242632
20
223.006155
11
159.044598
21
223.132657
0
LINE
8
Layer 1
10
159.044598
20
223.132657
11
159.126820
21
224.041504
0
LINE
8
Layer 1
10
159.126820
20
224.041504
11
160.070769
21
227.075393
0
LINE
8
Layer 1
10
160.070769
20
227.075393
11
160.523758
21
228.504902
0
LINE
8
Layer 1
10
160.523758
20
228.504902
11
160.761003
21
229.696553
0
LINE
8
Layer 1
10
160.761003
20
229.696553
11
160.771876
21
230.562231
0
LINE
8
Layer 1
10
160.771876
20
230.562231
11
160.545749
21
231.013821
0
LINE
8
Layer 1
10
160.545749
20
231.013821
11
159.863222
21
230.967688
0
LINE
8
Layer 1
10
159.863222
20
230.967688
11
158.581253
21
230.476678
0
LINE
8
Layer 1
10
158.581253
20
230.476678
11
154.895717
21
228.465264
0
LINE
8
Layer 1
10
154.895717
20
228.465264
11
152.612574
21
227.200368
0
LINE
8
Layer 1
10
152.612574
20
227.200368
11
151.012311
21
226.715210
0
LINE
8
Layer 1
10
151.012311
20
226.715210
11
150.000050
21
226.677021
0
LINE
8
Layer 1
10
150.000050
20
226.677021
11
149.841156
21
226.774893
0
LINE
8
Layer 1
10
149.841156
20
226.774893
11
149.856977
21
226.962916
0
LINE
8
Layer 1
10
149.856977
20
226.962916
11
150.920412
21
230.953819
0
LINE
8
Layer 1
10
150.920412
20
230.953819
11
151.300555
21
232.978369
0
LINE
8
Layer 1
10
151.300555
20
232.978369
11
151.384110
21
234.107502
0
LINE
8
Layer 1
10
151.384110
20
234.107502
11
151.203683
21
234.614544
0
LINE
8
Layer 1
10
151.203683
20
234.614544
11
150.888327
21
234.785507
0
LINE
8
Layer 1
10
150.888327
20
234.785507
11
150.268292
21
234.621690
0
LINE
8
Layer 1
10
150.268292
20
234.621690
11
149.173830
21
234.124387
0
LINE
8
Layer 1
10
149.173830
20
234.124387
11
147.707132
21
233.392774
0
LINE
8
Layer 1
10
147.707132
20
233.392774
11
146.626447
21
232.723417
0
LINE
8
Layer 1
10
146.626447
20
232.723417
11
144.097161
21
230.474328
0
LINE
8
Layer 1
10
144.097161
20
230.474328
11
142.205436
21
228.804375
0
LINE
8
Layer 1
10
142.205436
20
228.804375
11
141.670909
21
228.512995
0
LINE
8
Layer 1
10
141.670909
20
228.512995
11
141.291335
21
228.500088
0
LINE
8
Layer 1
10
141.291335
20
228.500088
11
140.999657
21
228.638840
0
LINE
8
Layer 1
10
140.999657
20
228.638840
11
140.849746
21
228.877067
0
LINE
8
Layer 1
10
140.849746
20
228.877067
11
140.881210
21
229.994449
0
LINE
8
Layer 1
10
140.881210
20
229.994449
11
141.259173
21
234.104497
0
LINE
8
Layer 1
10
141.259173
20
234.104497
11
141.228932
21
235.262009
0
LINE
8
Layer 1
10
141.228932
20
235.262009
11
141.060195
21
236.081361
0
LINE
8
Layer 1
10
141.060195
20
236.081361
11
140.595432
21
237.094282
0
LINE
8
Layer 1
10
140.595432
20
237.094282
11
139.860023
21
236.826956
0
LINE
8
Layer 1
10
139.860023
20
236.826956
11
138.740689
21
236.107069
0
LINE
8
Layer 1
10
138.740689
20
236.107069
11
136.032886
21
233.802168
0
LINE
8
Layer 1
10
136.032886
20
233.802168
11
134.548072
21
232.430332
0
LINE
8
Layer 1
10
134.548072
20
232.430332
11
133.336302
21
231.529478
0
LINE
8
Layer 1
10
133.336302
20
231.529478
11
132.294427
21
231.035776
0
LINE
8
Layer 1
10
132.294427
20
231.035776
11
131.319295
21
230.885393
0
LINE
8
Layer 1
10
131.319295
20
230.885393
11
130.599657
21
230.885393
0
LINE
8
Layer 1
10
130.599657
20
230.885393
11
130.775369
21
233.919282
0
LINE
8
Layer 1
10
130.775369
20
233.919282
11
130.835228
21
236.165715
0
LINE
8
Layer 1
10
130.835228
20
236.165715
11
130.689178
21
237.592902
0
LINE
8
Layer 1
10
130.689178
20
237.592902
11
130.315438
21
238.289847
0
LINE
8
Layer 1
10
130.315438
20
238.289847
11
130.036378
21
238.392290
0
LINE
8
Layer 1
10
130.036378
20
238.392290
11
129.692228
21
238.345548
0
LINE
8
Layer 1
10
129.692228
20
238.345548
11
128.824439
21
237.909118
0
LINE
8
Layer 1
10
128.824439
20
237.909118
11
127.780917
21
237.114445
0
LINE
8
Layer 1
10
127.780917
20
237.114445
11
125.480287
21
234.720285
0
LINE
8
Layer 1
10
125.480287
20
234.720285
11
123.997362
21
233.049374
0
LINE
8
Layer 1
10
123.997362
20
233.049374
11
122.670969
21
231.844565
0
LINE
8
Layer 1
10
122.670969
20
231.844565
11
121.535977
21
231.133010
0
LINE
8
Layer 1
10
121.535977
20
231.133010
11
120.627250
21
230.941860
0
LINE
8
Layer 1
10
120.627250
20
230.941860
11
120.162064
21
231.029620
0
LINE
8
Layer 1
10
120.162064
20
231.029620
11
119.857111
21
231.243595
0
LINE
8
Layer 1
10
119.857111
20
231.243595
11
119.413553
21
232.437615
0
LINE
8
Layer 1
10
119.413553
20
232.437615
11
119.154805
21
234.004746
0
LINE
8
Layer 1
10
119.154805
20
234.004746
11
119.044012
21
235.790971
0
LINE
8
Layer 1
10
119.044012
20
235.790971
11
118.907686
21
237.388460
0
LINE
8
Layer 1
10
118.907686
20
237.388460
11
118.527104
21
238.598823
0
LINE
8
Layer 1
10
118.527104
20
238.598823
11
117.929940
21
239.366088
0
LINE
8
Layer 1
10
117.929940
20
239.366088
11
117.143866
21
239.634282
0
LINE
8
Layer 1
10
117.143866
20
239.634282
11
116.373421
21
239.353740
0
LINE
8
Layer 1
10
116.373421
20
239.353740
11
115.484004
21
238.628054
0
LINE
8
Layer 1
10
115.484004
20
238.628054
11
114.649641
21
237.631137
0
LINE
8
Layer 1
10
114.649641
20
237.631137
11
114.044360
21
236.536899
0
LINE
8
Layer 1
10
114.044360
20
236.536899
11
112.815529
21
233.951608
0
LINE
8
Layer 1
10
112.815529
20
233.951608
11
111.750994
21
232.367060
0
LINE
8
Layer 1
10
111.750994
20
232.367060
11
111.129789
21
232.012468
0
LINE
8
Layer 1
10
111.129789
20
232.012468
11
110.635592
21
232.087129
0
LINE
8
Layer 1
10
110.635592
20
232.087129
11
110.226395
21
232.619255
0
LINE
8
Layer 1
10
110.226395
20
232.619255
11
109.860190
21
233.637060
0
LINE
8
Layer 1
10
109.860190
20
233.637060
11
108.491462
21
238.167743
0
LINE
8
Layer 1
10
108.491462
20
238.167743
11
108.095033
21
239.015286
0
LINE
8
Layer 1
10
108.095033
20
239.015286
11
107.723232
21
239.366222
0
LINE
8
Layer 1
10
107.723232
20
239.366222
11
107.163521
21
239.525353
0
LINE
8
Layer 1
10
107.163521
20
239.525353
11
106.603261
21
239.487608
0
LINE
8
Layer 1
10
106.603261
20
239.487608
11
105.801534
21
238.879523
0
LINE
8
Layer 1
10
105.801534
20
238.879523
11
104.827187
21
237.668227
0
LINE
8
Layer 1
10
104.827187
20
237.668227
11
103.895057
21
236.160155
0
LINE
8
Layer 1
10
103.895057
20
236.160155
11
103.219981
21
234.661744
0
LINE
8
Layer 1
10
103.219981
20
234.661744
11
102.569683
21
233.003086
0
LINE
8
Layer 1
10
102.569683
20
233.003086
11
101.857440
21
231.568915
0
LINE
8
Layer 1
10
101.857440
20
231.568915
11
101.196506
21
230.560682
0
LINE
8
Layer 1
10
101.196506
20
230.560682
11
100.700132
21
230.179838
0
LINE
8
Layer 1
10
100.700132
20
230.179838
11
100.489504
21
230.299358
0
LINE
8
Layer 1
10
100.489504
20
230.299358
11
100.293005
21
230.674948
0
LINE
8
Layer 1
10
100.293005
20
230.674948
11
99.903955
21
232.296504
0
LINE
8
Layer 1
10
99.903955
20
232.296504
11
99.429896
21
234.226578
0
LINE
8
Layer 1
10
99.429896
20
234.226578
11
98.794169
21
235.897527
0
LINE
8
Layer 1
10
98.794169
20
235.897527
11
98.106535
21
237.073242
0
LINE
8
Layer 1
10
98.106535
20
237.073242
11
97.777555
21
237.401603
0
LINE
8
Layer 1
10
97.777555
20
237.401603
11
97.476759
21
237.517615
0
LINE
8
Layer 1
10
97.476759
20
237.517615
11
96.830233
21
237.058980
0
LINE
8
Layer 1
10
96.830233
20
237.058980
11
96.013359
21
235.855945
0
LINE
8
Layer 1
10
96.013359
20
235.855945
11
95.174630
21
234.167819
0
LINE
8
Layer 1
10
95.174630
20
234.167819
11
94.462541
21
232.253911
0
LINE
8
Layer 1
10
94.462541
20
232.253911
11
93.976132
21
230.820260
0
LINE
8
Layer 1
10
93.976132
20
230.820260
11
93.555687
21
229.985412
0
LINE
8
Layer 1
10
93.555687
20
229.985412
11
93.118091
21
229.634514
0
LINE
8
Layer 1
10
93.118091
20
229.634514
11
92.580231
21
229.652714
0
LINE
8
Layer 1
10
92.580231
20
229.652714
11
92.086043
21
229.963906
0
LINE
8
Layer 1
10
92.086043
20
229.963906
11
91.945231
21
230.630374
0
LINE
8
Layer 1
10
91.945231
20
230.630374
11
91.634470
21
232.239836
0
LINE
8
Layer 1
10
91.634470
20
232.239836
11
90.846424
21
233.783714
0
LINE
8
Layer 1
10
90.846424
20
233.783714
11
89.797451
21
234.943566
0
LINE
8
Layer 1
10
89.797451
20
234.943566
11
89.242729
21
235.279969
0
LINE
8
Layer 1
10
89.242729
20
235.279969
11
88.703909
21
235.400949
0
LINE
8
Layer 1
10
88.703909
20
235.400949
11
87.991139
21
235.197251
0
LINE
8
Layer 1
10
87.991139
20
235.197251
11
87.213324
21
234.707512
0
LINE
8
Layer 1
10
87.213324
20
234.707512
11
86.439064
21
233.700743
0
LINE
8
Layer 1
10
86.439064
20
233.700743
11
85.596770
21
232.089013
0
LINE
8
Layer 1
10
85.596770
20
232.089013
11
84.868309
21
230.269589
0
LINE
8
Layer 1
10
84.868309
20
230.269589
11
84.435552
21
228.639734
0
LINE
8
Layer 1
10
84.435552
20
228.639734
11
84.420496
21
227.451725
0
LINE
8
Layer 1
10
84.420496
20
227.451725
11
84.738796
21
226.369952
0
LINE
8
Layer 1
10
84.738796
20
226.369952
11
85.352980
21
225.473894
0
LINE
8
Layer 1
10
85.352980
20
225.473894
11
86.225575
21
224.843032
0
LINE
8
Layer 1
10
86.225575
20
224.843032
11
86.890312
21
224.559814
0
LINE
8
Layer 1
10
86.890312
20
224.559814
11
87.344875
21
224.606042
0
LINE
8
Layer 1
10
87.344875
20
224.606042
11
87.813694
21
225.117188
0
LINE
8
Layer 1
10
87.813694
20
225.117188
11
88.521199
21
226.228727
0
LINE
8
Layer 1
10
88.521199
20
226.228727
11
89.187165
21
227.166041
0
LINE
8
Layer 1
10
89.187165
20
227.166041
11
89.346516
21
227.242808
0
LINE
8
Layer 1
10
89.346516
20
227.242808
11
89.399869
21
227.067635
0
LINE
8
Layer 1
10
89.399869
20
227.067635
11
89.289901
21
226.499988
0
LINE
8
Layer 1
10
89.289901
20
226.499988
11
89.017966
21
225.938746
0
LINE
8
Layer 1
10
89.017966
20
225.938746
11
88.442176
21
224.515305
0
LINE
8
Layer 1
10
88.442176
20
224.515305
11
88.416875
21
223.741478
0
LINE
8
Layer 1
10
88.416875
20
223.741478
11
88.994570
21
223.310972
0
LINE
8
Layer 1
10
88.994570
20
223.310972
11
89.755363
21
223.153218
0
LINE
8
Layer 1
10
89.755363
20
223.153218
11
90.593585
21
223.695438
0
LINE
8
Layer 1
10
90.593585
20
223.695438
11
91.222824
21
224.166857
0
LINE
8
Layer 1
10
91.222824
20
224.166857
11
91.540260
21
224.257068
0
LINE
8
Layer 1
10
91.540260
20
224.257068
11
91.548668
21
223.964344
0
LINE
8
Layer 1
10
91.548668
20
223.964344
11
91.250824
21
223.286958
0
LINE
8
Layer 1
10
91.250824
20
223.286958
11
90.941734
21
222.437444
0
LINE
8
Layer 1
10
90.941734
20
222.437444
11
91.300579
21
221.717376
0
LINE
8
Layer 1
10
91.300579
20
221.717376
11
91.775620
21
221.252845
0
LINE
8
Layer 1
10
91.775620
20
221.252845
11
92.342636
21
221.049530
0
LINE
8
Layer 1
10
92.342636
20
221.049530
11
93.014754
21
221.105873
0
LINE
8
Layer 1
10
93.014754
20
221.105873
11
93.805104
21
221.420317
0
LINE
8
Layer 1
10
93.805104
20
221.420317
11
94.469335
21
221.694207
0
LINE
8
Layer 1
10
94.469335
20
221.694207
11
94.728521
21
221.643337
0
LINE
8
Layer 1
10
94.728521
20
221.643337
11
94.573264
21
221.303063
0
LINE
8
Layer 1
10
94.573264
20
221.303063
11
93.994165
21
220.708739
0
LINE
8
Layer 1
10
93.994165
20
220.708739
11
93.411024
21
220.110858
0
LINE
8
Layer 1
10
93.411024
20
220.110858
11
93.298150
21
219.812532
0
LINE
8
Layer 1
10
93.298150
20
219.812532
11
93.321051
21
219.439337
0
LINE
8
Layer 1
10
93.321051
20
219.439337
11
93.824104
21
218.242514
0
LINE
8
Layer 1
10
93.824104
20
218.242514
11
95.020043
21
216.068727
0
LINE
8
Layer 1
10
95.020043
20
216.068727
11
97.424036
21
212.047387
0
LINE
8
Layer 1
10
97.424036
20
212.047387
11
98.079754
21
211.319578
0
LINE
8
Layer 1
10
98.079754
20
211.319578
11
98.601273
21
211.129838
0
LINE
8
Layer 1
10
98.601273
20
211.129838
11
99.224633
21
211.386665
0
LINE
8
Layer 1
10
99.224633
20
211.386665
11
99.971825
21
212.080111
0
LINE
8
Layer 1
10
99.971825
20
212.080111
11
100.740306
21
213.094618
0
LINE
8
Layer 1
10
100.740306
20
213.094618
11
101.427531
21
214.314631
0
LINE
8
Layer 1
10
101.427531
20
214.314631
11
101.848226
21
215.055163
0
LINE
8
Layer 1
10
101.848226
20
215.055163
11
102.157499
21
215.363171
0
LINE
8
Layer 1
10
102.157499
20
215.363171
11
102.319911
21
215.596034
0
LINE
8
Layer 1
10
102.319911
20
215.596034
11
102.387454
21
216.155897
0
LINE
8
Layer 1
10
102.387454
20
216.155897
11
102.502837
21
216.873554
0
LINE
8
Layer 1
10
102.502837
20
216.873554
11
102.780251
21
217.485798
0
LINE
8
Layer 1
10
102.780251
20
217.485798
11
103.187744
21
217.861438
0
LINE
8
Layer 1
10
103.187744
20
217.861438
11
103.650821
21
217.626469
0
LINE
8
Layer 1
10
103.650821
20
217.626469
11
103.992173
21
217.063649
0
LINE
8
Layer 1
10
103.992173
20
217.063649
11
103.948905
21
216.031851
0
LINE
8
Layer 1
10
103.948905
20
216.031851
11
103.966231
21
214.934556
0
LINE
8
Layer 1
10
103.966231
20
214.934556
11
104.280385
21
213.823000
0
LINE
8
Layer 1
10
104.280385
20
213.823000
11
104.820065
21
212.869640
0
LINE
8
Layer 1
10
104.820065
20
212.869640
11
105.513968
21
212.246927
0
LINE
8
Layer 1
10
105.513968
20
212.246927
11
106.280174
21
212.011201
0
LINE
8
Layer 1
10
106.280174
20
212.011201
11
107.095925
21
212.064622
0
LINE
8
Layer 1
10
107.095925
20
212.064622
11
107.924846
21
212.377137
0
LINE
8
Layer 1
10
107.924846
20
212.377137
11
108.730560
21
212.918694
0
LINE
8
Layer 1
10
108.730560
20
212.918694
11
109.476694
21
213.659240
0
LINE
8
Layer 1
10
109.476694
20
213.659240
11
110.126870
21
214.568722
0
LINE
8
Layer 1
10
110.126870
20
214.568722
11
110.644713
21
215.617087
0
LINE
8
Layer 1
10
110.644713
20
215.617087
11
110.993849
21
216.774282
0
LINE
8
Layer 1
10
110.993849
20
216.774282
11
111.448245
21
218.051070
0
LINE
8
Layer 1
10
111.448245
20
218.051070
11
111.705883
21
218.315619
0
LINE
8
Layer 1
10
111.705883
20
218.315619
11
111.958780
21
218.340436
0
LINE
8
Layer 1
10
111.958780
20
218.340436
11
112.188162
21
218.132645
0
LINE
8
Layer 1
10
112.188162
20
218.132645
11
112.375251
21
217.699369
0
LINE
8
Layer 1
10
112.375251
20
217.699369
11
112.547454
21
216.184855
0
LINE
8
Layer 1
10
112.547454
20
216.184855
11
112.754938
21
214.282721
0
LINE
8
Layer 1
10
112.754938
20
214.282721
11
113.020810
21
213.556870
0
LINE
8
Layer 1
10
113.020810
20
213.556870
11
113.400562
21
212.974387
0
LINE
8
Layer 1
10
113.400562
20
212.974387
11
113.898537
21
212.530191
0
LINE
8
Layer 1
10
113.898537
20
212.530191
11
114.519081
21
212.219199
0
LINE
8
Layer 1
10
114.519081
20
212.219199
11
116.145251
21
211.976504
0
LINE
8
Layer 1
10
116.145251
20
211.976504
11
117.073290
21
212.100405
0
LINE
8
Layer 1
10
117.073290
20
212.100405
11
118.023471
21
212.421685
0
LINE
8
Layer 1
10
118.023471
20
212.421685
11
118.822677
21
212.864711
0
LINE
8
Layer 1
10
118.822677
20
212.864711
11
119.297786
21
213.353848
0
LINE
8
Layer 1
10
119.297786
20
213.353848
11
119.731082
21
215.080949
0
LINE
8
Layer 1
10
119.731082
20
215.080949
11
120.282618
21
217.456105
0
LINE
8
Layer 1
10
120.282618
20
217.456105
11
120.606957
21
217.998471
0
LINE
8
Layer 1
10
120.606957
20
217.998471
11
120.970573
21
218.127662
0
LINE
8
Layer 1
10
120.970573
20
218.127662
11
121.201744
21
217.996804
0
LINE
8
Layer 1
10
121.201744
20
217.996804
11
121.368623
21
217.669808
0
LINE
8
Layer 1
10
121.368623
20
217.669808
11
121.579327
21
216.207168
0
LINE
8
Layer 1
10
121.579327
20
216.207168
11
121.854220
21
214.524593
0
LINE
8
Layer 1
10
121.854220
20
214.524593
11
122.390194
21
213.189644
0
LINE
8
Layer 1
10
122.390194
20
213.189644
11
123.185226
21
212.205846
0
LINE
8
Layer 1
10
123.185226
20
212.205846
11
124.237296
21
211.576720
0
LINE
8
Layer 1
10
124.237296
20
211.576720
11
125.279736
21
211.272220
0
LINE
8
Layer 1
10
125.279736
20
211.272220
11
126.327638
21
211.149376
0
LINE
8
Layer 1
10
126.327638
20
211.149376
11
127.366131
21
211.208638
0
LINE
8
Layer 1
10
127.366131
20
211.208638
11
128.380346
21
211.450459
0
LINE
8
Layer 1
10
128.380346
20
211.450459
11
129.197079
21
211.843604
0
LINE
8
Layer 1
10
129.197079
20
211.843604
11
130.013280
21
212.416904
0
LINE
8
Layer 1
10
130.013280
20
212.416904
11
130.640902
21
213.017472
0
LINE
8
Layer 1
10
130.640902
20
213.017472
11
130.891898
21
213.492424
0
LINE
8
Layer 1
10
130.891898
20
213.492424
11
131.088338
21
214.198811
0
LINE
8
Layer 1
10
131.088338
20
214.198811
11
131.550266
21
215.101612
0
LINE
8
Layer 1
10
131.550266
20
215.101612
11
132.086595
21
215.879172
0
LINE
8
Layer 1
10
132.086595
20
215.879172
11
132.506237
21
216.209838
0
LINE
8
Layer 1
10
132.506237
20
216.209838
11
132.713167
21
216.164034
0
LINE
8
Layer 1
10
132.713167
20
216.164034
11
132.815814
21
215.999500
0
LINE
8
Layer 1
10
132.815814
20
215.999500
11
132.744941
21
215.151504
0
LINE
8
Layer 1
10
132.744941
20
215.151504
11
132.427549
21
212.873938
0
LINE
8
Layer 1
10
132.427549
20
212.873938
11
132.520864
21
211.332113
0
LINE
8
Layer 1
10
132.520864
20
211.332113
11
132.738833
21
210.769109
0
LINE
8
Layer 1
10
132.738833
20
210.769109
11
133.080237
21
210.308447
0
LINE
8
Layer 1
10
133.080237
20
210.308447
11
134.161019
21
209.585354
0
LINE
8
Layer 1
10
134.161019
20
209.585354
11
135.058490
21
209.308073
0
LINE
8
Layer 1
10
135.058490
20
209.308073
11
136.037745
21
209.263961
0
LINE
8
Layer 1
10
136.037745
20
209.263961
11
137.058098
21
209.434496
0
LINE
8
Layer 1
10
137.058098
20
209.434496
11
138.078860
21
209.801159
0
LINE
8
Layer 1
10
138.078860
20
209.801159
11
139.059343
21
210.345429
0
LINE
8
Layer 1
10
139.059343
20
210.345429
11
139.958859
21
211.048784
0
LINE
8
Layer 1
10
139.958859
20
211.048784
11
140.736720
21
211.892705
0
LINE
8
Layer 1
10
140.736720
20
211.892705
11
141.352239
21
212.858672
0
LINE
8
Layer 1
10
141.352239
20
212.858672
11
141.919195
21
213.685840
0
LINE
8
Layer 1
10
141.919195
20
213.685840
11
142.505455
21
213.952060
0
LINE
8
Layer 1
10
142.505455
20
213.952060
11
142.825340
21
213.916787
0
LINE
8
Layer 1
10
142.825340
20
213.916787
11
142.978855
21
213.746286
0
LINE
8
Layer 1
10
142.978855
20
213.746286
11
142.901413
21
212.611504
0
LINE
8
Layer 1
10
142.901413
20
212.611504
11
142.600127
21
210.533718
0
LINE
8
Layer 1
10
142.600127
20
210.533718
11
142.534112
21
209.441063
0
LINE
8
Layer 1
10
142.534112
20
209.441063
11
142.743469
21
208.867319
0
LINE
8
Layer 1
10
142.743469
20
208.867319
11
143.268302
21
208.346269
0
LINE
8
Layer 1
10
143.268302
20
208.346269
11
144.123526
21
207.745178
0
LINE
8
Layer 1
10
144.123526
20
207.745178
11
145.122403
21
207.407752
0
LINE
8
Layer 1
10
145.122403
20
207.407752
11
146.269447
21
207.333124
0
LINE
8
Layer 1
10
146.269447
20
207.333124
11
147.569171
21
207.520427
0
LINE
8
Layer 1
10
147.569171
20
207.520427
11
149.013588
21
208.114455
0
LINE
8
Layer 1
10
149.013588
20
208.114455
11
150.662835
21
209.495641
0
LINE
8
Layer 1
10
150.662835
20
209.495641
11
152.123582
21
210.749276
0
LINE
8
Layer 1
10
152.123582
20
210.749276
11
152.582916
21
210.977099
0
LINE
8
Layer 1
10
152.582916
20
210.977099
11
152.926934
21
210.981838
0
LINE
8
Layer 1
10
152.926934
20
210.981838
11
153.328311
21
210.762930
0
LINE
8
Layer 1
10
153.328311
20
210.762930
11
153.419045
21
210.399955
0
LINE
8
Layer 1
10
153.419045
20
210.399955
11
153.186459
21
209.807499
0
LINE
8
Layer 1
10
153.186459
20
209.807499
11
152.617873
21
208.900147
0
LINE
8
Layer 1
10
152.617873
20
208.900147
11
152.138605
21
208.063207
0
LINE
8
Layer 1
10
152.138605
20
208.063207
11
151.858965
21
207.276291
0
LINE
8
Layer 1
10
151.858965
20
207.276291
11
151.774039
21
206.554212
0
LINE
8
Layer 1
10
151.774039
20
206.554212
11
151.878916
21
205.911788
0
LINE
8
Layer 1
10
151.878916
20
205.911788
11
152.168684
21
205.363832
0
LINE
8
Layer 1
10
152.168684
20
205.363832
11
152.638431
21
204.925160
0
LINE
8
Layer 1
10
152.638431
20
204.925160
11
153.283244
21
204.610587
0
LINE
8
Layer 1
10
153.283244
20
204.610587
11
154.098213
21
204.434928
0
LINE
8
Layer 1
10
154.098213
20
204.434928
11
155.443812
21
204.471955
0
LINE
8
Layer 1
10
155.443812
20
204.471955
11
157.205963
21
204.732039
0
LINE
8
Layer 1
10
157.205963
20
204.732039
11
158.850073
21
205.114357
0
LINE
8
Layer 1
10
158.850073
20
205.114357
11
159.841548
21
205.518089
0
LINE
8
Layer 1
10
159.841548
20
205.518089
11
162.061931
21
206.347780
0
LINE
8
Layer 1
10
162.061931
20
206.347780
11
164.368393
21
207.089389
0
LINE
8
Layer 1
10
164.368393
20
207.089389
11
164.591754
21
207.115890
0
LINE
8
Layer 1
10
164.591754
20
207.115890
11
164.730536
21
207.012602
0
LINE
8
Layer 1
10
164.730536
20
207.012602
11
164.777354
21
206.552012
0
LINE
8
Layer 1
10
164.777354
20
206.552012
11
164.554836
21
205.978323
0
LINE
8
Layer 1
10
164.554836
20
205.978323
11
164.108974
21
205.562240
0
LINE
8
Layer 1
10
164.108974
20
205.562240
11
163.447216
21
204.970123
0
LINE
8
Layer 1
10
163.447216
20
204.970123
11
162.768418
21
203.962155
0
LINE
8
Layer 1
10
162.768418
20
203.962155
11
162.077454
21
202.658051
0
LINE
8
Layer 1
10
162.077454
20
202.658051
11
162.641898
21
201.620205
0
LINE
8
Layer 1
10
162.641898
20
201.620205
11
163.437339
21
200.597785
0
LINE
8
Layer 1
10
163.437339
20
200.597785
11
164.549904
21
199.865493
0
LINE
8
Layer 1
10
164.549904
20
199.865493
11
165.971925
21
199.426876
0
LINE
8
Layer 1
10
165.971925
20
199.426876
11
167.695736
21
199.285479
0
LINE
8
Layer 1
10
167.695736
20
199.285479
11
169.327591
21
199.397583
0
LINE
8
Layer 1
10
169.327591
20
199.397583
11
170.245303
21
199.708812
0
LINE
8
Layer 1
10
170.245303
20
199.708812
11
170.777264
21
200.001453
0
LINE
8
Layer 1
10
170.777264
20
200.001453
11
171.286957
21
200.123171
0
LINE
8
Layer 1
10
171.286957
20
200.123171
11
171.665480
21
200.059737
0
LINE
8
Layer 1
10
171.665480
20
200.059737
11
171.914781
21
199.888006
0
LINE
8
Layer 1
10
171.914781
20
199.888006
11
172.044297
21
199.331073
0
LINE
8
Layer 1
10
172.044297
20
199.331073
11
171.712649
21
198.675214
0
LINE
8
Layer 1
10
171.712649
20
198.675214
11
170.956983
21
198.143272
0
LINE
8
Layer 1
10
170.956983
20
198.143272
11
170.132226
21
197.576411
0
LINE
8
Layer 1
10
170.132226
20
197.576411
11
169.310425
21
196.672258
0
LINE
8
Layer 1
10
169.310425
20
196.672258
11
168.679520
21
195.676597
0
LINE
8
Layer 1
10
168.679520
20
195.676597
11
168.427454
21
194.835218
0
LINE
8
Layer 1
10
168.427454
20
194.835218
11
168.602751
21
193.956412
0
LINE
8
Layer 1
10
168.602751
20
193.956412
11
169.064891
21
192.969225
0
LINE
8
Layer 1
10
169.064891
20
192.969225
11
169.718246
21
192.038104
0
LINE
8
Layer 1
10
169.718246
20
192.038104
11
170.467187
21
191.327492
0
LINE
8
Layer 1
10
170.467187
20
191.327492
11
171.058221
21
190.972710
0
LINE
8
Layer 1
10
171.058221
20
190.972710
11
171.763941
21
190.772424
0
LINE
8
Layer 1
10
171.763941
20
190.772424
11
174.636343
21
190.655245
0
LINE
8
Layer 1
10
174.636343
20
190.655245
11
177.388785
21
190.561133
0
LINE
8
Layer 1
10
177.388785
20
190.561133
11
177.798404
21
190.396049
0
LINE
8
Layer 1
10
177.798404
20
190.396049
11
177.881898
21
190.097596
0
LINE
8
Layer 1
10
177.881898
20
190.097596
11
177.668760
21
189.626725
0
LINE
8
Layer 1
10
177.668760
20
189.626725
11
177.035231
21
189.300420
0
LINE
8
Layer 1
10
177.035231
20
189.300420
11
175.586983
21
188.727310
0
LINE
8
Layer 1
10
175.586983
20
188.727310
11
174.376522
21
187.928430
0
LINE
8
Layer 1
10
174.376522
20
187.928430
11
173.358645
21
186.866026
0
LINE
8
Layer 1
10
173.358645
20
186.866026
11
172.488152
21
185.502344
0
LINE
8
Layer 1
10
172.488152
20
185.502344
11
172.046557
21
184.592859
0
LINE
8
Layer 1
10
172.046557
20
184.592859
11
171.859925
21
183.896680
0
LINE
8
Layer 1
10
171.859925
20
183.896680
11
171.908158
21
183.213540
0
LINE
8
Layer 1
10
171.908158
20
183.213540
11
172.171160
21
182.343171
0
LINE
8
Layer 1
10
172.171160
20
182.343171
11
172.919323
21
180.853668
0
LINE
8
Layer 1
10
172.919323
20
180.853668
11
173.404775
21
180.306664
0
LINE
8
Layer 1
10
173.404775
20
180.306664
11
173.980366
21
179.882194
0
LINE
8
Layer 1
10
173.980366
20
179.882194
11
175.449641
21
179.372951
0
LINE
8
Layer 1
10
175.449641
20
179.372951
11
177.422497
21
179.270138
0
LINE
8
Layer 1
10
177.422497
20
179.270138
11
179.027932
21
179.235679
0
LINE
8
Layer 1
10
179.027932
20
179.235679
11
179.252059
21
179.048326
0
LINE
8
Layer 1
10
179.252059
20
179.048326
11
179.293009
21
178.684098
0
LINE
8
Layer 1
10
179.293009
20
178.684098
11
179.224066
21
178.241548
0
LINE
8
Layer 1
10
179.224066
20
178.241548
11
178.972860
21
177.896030
0
LINE
8
Layer 1
10
178.972860
20
177.896030
11
177.657390
21
177.265099
0
LINE
8
Layer 1
10
177.657390
20
177.265099
11
176.929253
21
176.754918
0
LINE
8
Layer 1
10
176.929253
20
176.754918
11
176.323015
21
175.783601
0
LINE
8
Layer 1
10
176.323015
20
175.783601
11
175.930082
21
174.678799
0
LINE
8
Layer 1
10
175.930082
20
174.678799
11
175.798544
21
173.645710
0
LINE
8
Layer 1
10
175.798544
20
173.645710
11
175.928367
21
172.645324
0
LINE
8
Layer 1
10
175.928367
20
172.645324
11
176.319516
21
171.638632
0
LINE
8
Layer 1
10
176.319516
20
171.638632
11
176.897219
21
170.816975
0
LINE
8
Layer 1
10
176.897219
20
170.816975
11
177.702997
21
170.289601
0
LINE
8
Layer 1
10
177.702997
20
170.289601
11
178.853158
21
170.008432
0
LINE
8
Layer 1
10
178.853158
20
170.008432
11
180.464006
21
169.925393
0
LINE
8
Layer 1
10
180.464006
20
169.925393
11
182.006551
21
169.827063
0
LINE
8
Layer 1
10
182.006551
20
169.827063
11
182.218681
21
169.616334
0
LINE
8
Layer 1
10
182.218681
20
169.616334
11
182.256343
21
169.219838
0
LINE
8
Layer 1
10
182.256343
20
169.219838
11
182.136239
21
168.685473
0
LINE
8
Layer 1
10
182.136239
20
168.685473
11
181.762454
21
168.512707
0
LINE
8
Layer 1
10
181.762454
20
168.512707
11
180.820440
21
168.390668
0
LINE
8
Layer 1
10
180.820440
20
168.390668
11
179.823682
21
168.062624
0
LINE
8
Layer 1
10
179.823682
20
168.062624
11
178.887963
21
167.577306
0
LINE
8
Layer 1
10
178.887963
20
167.577306
11
178.129068
21
166.983450
0
LINE
8
Layer 1
10
178.129068
20
166.983450
11
177.419103
21
166.065000
0
LINE
8
Layer 1
10
177.419103
20
166.065000
11
177.044693
21
165.064327
0
LINE
8
Layer 1
10
177.044693
20
165.064327
11
177.005531
21
163.979917
0
LINE
8
Layer 1
10
177.005531
20
163.979917
11
177.301311
21
162.810261
0
LINE
8
Layer 1
10
177.301311
20
162.810261
11
177.835369
21
161.830875
0
LINE
8
Layer 1
10
177.835369
20
161.830875
11
178.644124
21
161.023169
0
LINE
8
Layer 1
10
178.644124
20
161.023169
11
179.770421
21
160.354454
0
LINE
8
Layer 1
10
179.770421
20
160.354454
11
181.257107
21
159.792038
0
LINE
8
Layer 1
10
181.257107
20
159.792038
11
182.469632
21
159.344697
0
LINE
8
Layer 1
10
182.469632
20
159.344697
11
183.177629
21
158.952108
0
LINE
8
Layer 1
10
183.177629
20
158.952108
11
183.300979
21
158.556559
0
LINE
8
Layer 1
10
183.300979
20
158.556559
11
182.950944
21
158.173818
0
LINE
8
Layer 1
10
182.950944
20
158.173818
11
182.194335
21
157.846739
0
LINE
8
Layer 1
10
182.194335
20
157.846739
11
181.097961
21
157.618176
0
LINE
8
Layer 1
10
181.097961
20
157.618176
11
179.856903
21
157.276425
0
LINE
8
Layer 1
10
179.856903
20
157.276425
11
178.933430
21
156.415599
0
LINE
8
Layer 1
10
178.933430
20
156.415599
11
177.638940
21
154.449634
0
LINE
8
Layer 1
10
177.638940
20
154.449634
11
177.294908
21
153.598096
0
LINE
8
Layer 1
10
177.294908
20
153.598096
11
177.176343
21
152.881096
0
LINE
8
Layer 1
10
177.176343
20
152.881096
11
177.346793
21
152.142476
0
LINE
8
Layer 1
10
177.346793
20
152.142476
11
177.756609
21
151.204069
0
LINE
8
Layer 1
10
177.756609
20
151.204069
11
178.253489
21
150.364530
0
LINE
8
Layer 1
10
178.253489
20
150.364530
11
178.685131
21
149.922512
0
LINE
8
Layer 1
10
178.685131
20
149.922512
11
180.098076
21
148.694862
0
LINE
8
Layer 1
10
180.098076
20
148.694862
11
181.016389
21
147.673664
0
LINE
8
Layer 1
10
181.016389
20
147.673664
11
180.989112
21
147.421187
0
LINE
8
Layer 1
10
180.989112
20
147.421187
11
180.704769
21
147.172070
0
LINE
8
Layer 1
10
180.704769
20
147.172070
11
180.190381
21
146.942963
0
LINE
8
Layer 1
10
180.190381
20
146.942963
11
179.724442
21
146.955736
0
LINE
8
Layer 1
10
179.724442
20
146.955736
11
179.194514
21
147.101319
0
LINE
8
Layer 1
10
179.194514
20
147.101319
11
178.668035
21
147.090389
0
LINE
8
Layer 1
10
178.668035
20
147.090389
11
178.165867
21
146.926490
0
LINE
8
Layer 1
10
178.165867
20
146.926490
11
177.708868
21
146.613166
0
LINE
8
Layer 1
10
177.708868
20
146.613166
11
177.082551
21
145.787659
0
LINE
8
Layer 1
10
177.082551
20
145.787659
11
176.450273
21
144.570679
0
LINE
8
Layer 1
10
176.450273
20
144.570679
11
175.961383
21
143.294351
0
LINE
8
Layer 1
10
175.961383
20
143.294351
11
175.765231
21
142.290803
0
LINE
8
Layer 1
10
175.765231
20
142.290803
11
175.915077
21
141.153705
0
LINE
8
Layer 1
10
175.915077
20
141.153705
11
176.339582
21
140.067254
0
LINE
8
Layer 1
10
176.339582
20
140.067254
11
177.001195
21
139.102361
0
LINE
8
Layer 1
10
177.001195
20
139.102361
11
177.862368
21
138.329938
0
LINE
8
Layer 1
10
177.862368
20
138.329938
11
179.195134
21
137.264582
0
LINE
8
Layer 1
10
179.195134
20
137.264582
11
179.528722
21
136.842429
0
LINE
8
Layer 1
10
179.528722
20
136.842429
11
179.640464
21
136.487595
0
LINE
8
Layer 1
10
179.640464
20
136.487595
11
179.530372
21
136.195310
0
LINE
8
Layer 1
10
179.530372
20
136.195310
11
179.198460
21
135.960800
0
LINE
8
Layer 1
10
179.198460
20
135.960800
11
177.869226
21
135.646019
0
LINE
8
Layer 1
10
177.869226
20
135.646019
11
176.659068
21
135.411116
0
LINE
8
Layer 1
10
176.659068
20
135.411116
11
175.508371
21
135.024254
0
LINE
8
Layer 1
10
175.508371
20
135.024254
11
174.435922
21
134.499811
0
LINE
8
Layer 1
10
174.435922
20
134.499811
11
173.460509
21
133.852162
0
LINE
8
Layer 1
10
173.460509
20
133.852162
11
172.600923
21
133.095685
0
LINE
8
Layer 1
10
172.600923
20
133.095685
11
171.875949
21
132.244756
0
LINE
8
Layer 1
10
171.875949
20
132.244756
11
171.304378
21
131.313753
0
LINE
8
Layer 1
10
171.304378
20
131.313753
11
170.904998
21
130.317051
0
LINE
8
Layer 1
10
170.904998
20
130.317051
11
170.718163
21
129.383171
0
LINE
8
Layer 1
10
170.718163
20
129.383171
11
170.801640
21
129.149862
0
LINE
8
Layer 1
10
170.801640
20
129.149862
11
171.009928
21
128.985010
0
LINE
8
Layer 1
10
171.009928
20
128.985010
11
172.248432
21
128.052002
0
LINE
8
Layer 1
10
172.248432
20
128.052002
11
172.507679
21
127.620841
0
LINE
8
Layer 1
10
172.507679
20
127.620841
11
172.506750
21
127.236810
0
LINE
8
Layer 1
10
172.506750
20
127.236810
11
172.247872
21
126.893334
0
LINE
8
Layer 1
10
172.247872
20
126.893334
11
171.847712
21
126.764591
0
LINE
8
Layer 1
10
171.847712
20
126.764591
11
171.352820
21
126.852692
0
LINE
8
Layer 1
10
171.352820
20
126.852692
11
170.809748
21
127.159752
0
LINE
8
Layer 1
10
170.809748
20
127.159752
11
170.215841
21
127.475167
0
LINE
8
Layer 1
10
170.215841
20
127.475167
11
169.558339
21
127.556242
0
LINE
8
Layer 1
10
169.558339
20
127.556242
11
168.809641
21
127.401535
0
LINE
8
Layer 1
10
168.809641
20
127.401535
11
167.942144
21
127.009601
0
LINE
8
Layer 1
10
167.942144
20
127.009601
11
166.979943
21
126.401272
0
LINE
8
Layer 1
10
166.979943
20
126.401272
11
166.362233
21
125.802652
0
LINE
8
Layer 1
10
166.362233
20
125.802652
11
166.065572
21
125.182501
0
LINE
8
Layer 1
10
166.065572
20
125.182501
11
166.066524
21
124.509578
0
LINE
8
Layer 1
10
166.066524
20
124.509578
11
166.063689
21
123.951688
0
LINE
8
Layer 1
10
166.063689
20
123.951688
11
165.731720
21
123.601174
0
LINE
8
Layer 1
10
165.731720
20
123.601174
11
164.990298
21
123.418113
0
LINE
8
Layer 1
10
164.990298
20
123.418113
11
163.759103
21
123.362579
0
LINE
8
Layer 1
10
163.759103
20
123.362579
11
162.618530
21
123.358727
0
LINE
8
Layer 1
10
162.618530
20
123.358727
11
161.859127
21
121.030393
0
LINE
8
Layer 1
10
161.859127
20
121.030393
11
160.324236
21
116.212011
0
LINE
8
Layer 1
10
160.324236
20
116.212011
11
159.559622
21
113.409717
0
LINE
8
Layer 1
10
159.559622
20
113.409717
11
159.456064
21
112.107067
0
LINE
8
Layer 1
10
159.456064
20
112.107067
11
159.618050
21
111.856719
0
LINE
8
Layer 1
10
159.618050
20
111.856719
11
159.904343
21
111.787615
0
LINE
8
Layer 1
10
159.904343
20
111.787615
11
160.680454
21
111.550557
0
LINE
8
Layer 1
10
160.680454
20
111.550557
11
162.922321
21
110.763090
0
LINE
8
Layer 1
10
162.922321
20
110.763090
11
165.887454
21
110.005628
0
LINE
8
Layer 1
10
165.887454
20
110.005628
11
168.190849
21
109.861179
0
LINE
8
Layer 1
10
168.190849
20
109.861179
11
169.794030
21
110.060780
0
LINE
8
Layer 1
10
169.794030
20
110.060780
11
169.794030
21
110.060780
0
LINE
8
Layer 1
10
26.667442
20
121.735949
11
27.446041
21
122.692605
0
LINE
8
Layer 1
10
27.446041
20
122.692605
11
27.617152
21
123.088543
0
LINE
8
Layer 1
10
27.617152
20
123.088543
11
27.633548
21
123.491207
0
LINE
8
Layer 1
10
27.633548
20
123.491207
11
27.174422
21
124.501668
0
LINE
8
Layer 1
10
27.174422
20
124.501668
11
26.013124
21
126.093900
0
LINE
8
Layer 1
10
26.013124
20
126.093900
11
24.450041
21
128.325688
0
LINE
8
Layer 1
10
24.450041
20
128.325688
11
23.264128
21
130.438270
0
LINE
8
Layer 1
10
23.264128
20
130.438270
11
22.437816
21
132.467811
0
LINE
8
Layer 1
10
22.437816
20
132.467811
11
21.953535
21
134.450478
0
LINE
8
Layer 1
10
21.953535
20
134.450478
11
21.357025
21
137.697407
0
LINE
8
Layer 1
10
21.357025
20
137.697407
11
21.139390
21
138.309500
0
LINE
8
Layer 1
10
21.139390
20
138.309500
11
20.903854
21
138.525484
0
LINE
8
Layer 1
10
20.903854
20
138.525484
11
20.473436
21
138.435131
0
LINE
8
Layer 1
10
20.473436
20
138.435131
11
19.995199
21
137.906083
0
LINE
8
Layer 1
10
19.995199
20
137.906083
11
18.938100
21
135.595741
0
LINE
8
Layer 1
10
18.938100
20
135.595741
11
18.393647
21
133.519988
0
LINE
8
Layer 1
10
18.393647
20
133.519988
11
18.339360
21
130.959008
0
LINE
8
Layer 1
10
18.339360
20
130.959008
11
18.566577
21
128.403156
0
LINE
8
Layer 1
10
18.566577
20
128.403156
11
18.863012
21
127.495064
0
LINE
8
Layer 1
10
18.863012
20
127.495064
11
19.370397
21
126.443452
0
LINE
8
Layer 1
10
19.370397
20
126.443452
11
20.175377
21
125.034708
0
LINE
8
Layer 1
10
20.175377
20
125.034708
11
21.000621
21
123.930680
0
LINE
8
Layer 1
10
21.000621
20
123.930680
11
21.973243
21
122.986555
0
LINE
8
Layer 1
10
21.973243
20
122.986555
11
23.220360
21
122.057524
0
LINE
8
Layer 1
10
23.220360
20
122.057524
11
24.337265
21
121.412402
0
LINE
8
Layer 1
10
24.337265
20
121.412402
11
25.256121
21
121.146374
0
LINE
8
Layer 1
10
25.256121
20
121.146374
11
26.018866
21
121.255527
0
LINE
8
Layer 1
10
26.018866
20
121.255527
11
26.667442
21
121.735949
0
LINE
8
Layer 1
10
26.667442
20
121.735949
11
26.667442
21
121.735949
0
LINE
8
Layer 1
10
33.848969
20
124.323077
11
34.933606
21
125.069049
0
LINE
8
Layer 1
10
34.933606
20
125.069049
11
35.651224
21
126.191253
0
LINE
8
Layer 1
10
35.651224
20
126.191253
11
36.009644
21
127.608988
0
LINE
8
Layer 1
10
36.009644
20
127.608988
11
36.016688
21
129.241552
0
LINE
8
Layer 1
10
36.016688
20
129.241552
11
35.680178
21
131.008243
0
LINE
8
Layer 1
10
35.680178
20
131.008243
11
35.007936
21
132.828359
0
LINE
8
Layer 1
10
35.007936
20
132.828359
11
34.007783
21
134.621199
0
LINE
8
Layer 1
10
34.007783
20
134.621199
11
32.687542
21
136.306060
0
LINE
8
Layer 1
10
32.687542
20
136.306060
11
31.900564
21
137.223838
0
LINE
8
Layer 1
10
31.900564
20
137.223838
11
31.601984
21
137.766447
0
LINE
8
Layer 1
10
31.601984
20
137.766447
11
31.784113
21
137.984078
0
LINE
8
Layer 1
10
31.784113
20
137.984078
11
32.439263
21
137.926922
0
LINE
8
Layer 1
10
32.439263
20
137.926922
11
33.227366
21
137.902076
0
LINE
8
Layer 1
10
33.227366
20
137.902076
11
33.725265
21
138.314978
0
LINE
8
Layer 1
10
33.725265
20
138.314978
11
34.127021
21
138.714694
0
LINE
8
Layer 1
10
34.127021
20
138.714694
11
34.536264
21
138.880949
0
LINE
8
Layer 1
10
34.536264
20
138.880949
11
34.809632
21
139.014872
0
LINE
8
Layer 1
10
34.809632
20
139.014872
11
34.547076
21
139.657060
0
LINE
8
Layer 1
10
34.547076
20
139.657060
11
34.070018
21
140.388196
0
LINE
8
Layer 1
10
34.070018
20
140.388196
11
33.465967
21
141.032165
0
LINE
8
Layer 1
10
33.465967
20
141.032165
11
32.794233
21
141.535623
0
LINE
8
Layer 1
10
32.794233
20
141.535623
11
32.114126
21
141.845228
0
LINE
8
Layer 1
10
32.114126
20
141.845228
11
30.985237
21
142.402145
0
LINE
8
Layer 1
10
30.985237
20
142.402145
11
30.297820
21
142.807237
0
LINE
8
Layer 1
10
30.297820
20
142.807237
11
29.309714
21
143.144964
0
LINE
8
Layer 1
10
29.309714
20
143.144964
11
26.543930
21
143.588280
0
LINE
8
Layer 1
10
26.543930
20
143.588280
11
24.498849
21
143.761152
0
LINE
8
Layer 1
10
24.498849
20
143.761152
11
23.947988
21
142.515836
0
LINE
8
Layer 1
10
23.947988
20
142.515836
11
23.460059
21
141.057673
0
LINE
8
Layer 1
10
23.460059
20
141.057673
11
23.096593
21
139.307435
0
LINE
8
Layer 1
10
23.096593
20
139.307435
11
22.908451
21
137.585288
0
LINE
8
Layer 1
10
22.908451
20
137.585288
11
22.946494
21
136.211400
0
LINE
8
Layer 1
10
22.946494
20
136.211400
11
23.349449
21
134.298955
0
LINE
8
Layer 1
10
23.349449
20
134.298955
11
23.953584
21
132.376172
0
LINE
8
Layer 1
10
23.953584
20
132.376172
11
24.721613
21
130.508678
0
LINE
8
Layer 1
10
24.721613
20
130.508678
11
25.616253
21
128.762097
0
LINE
8
Layer 1
10
25.616253
20
128.762097
11
26.600219
21
127.202055
0
LINE
8
Layer 1
10
26.600219
20
127.202055
11
27.636228
21
125.894178
0
LINE
8
Layer 1
10
27.636228
20
125.894178
11
28.686996
21
124.904091
0
LINE
8
Layer 1
10
28.686996
20
124.904091
11
29.715237
21
124.297420
0
LINE
8
Layer 1
10
29.715237
20
124.297420
11
30.697843
21
124.040334
0
LINE
8
Layer 1
10
30.697843
20
124.040334
11
31.797228
21
123.959429
0
LINE
8
Layer 1
10
31.797228
20
123.959429
11
32.889051
21
124.053934
0
LINE
8
Layer 1
10
32.889051
20
124.053934
11
33.848969
21
124.323077
0
LINE
8
Layer 1
10
33.848969
20
124.323077
11
33.848969
21
124.323077
0
LINE
8
Layer 1
10
165.456049
20
126.146614
11
167.533628
21
128.076918
0
LINE
8
Layer 1
10
167.533628
20
128.076918
11
168.740495
21
128.871839
0
LINE
8
Layer 1
10
168.740495
20
128.871839
11
169.164107
21
129.213619
0
LINE
8
Layer 1
10
169.164107
20
129.213619
11
169.435043
21
129.798092
0
LINE
8
Layer 1
10
169.435043
20
129.798092
11
170.169809
21
131.809919
0
LINE
8
Layer 1
10
170.169809
20
131.809919
11
171.413019
21
133.605681
0
LINE
8
Layer 1
10
171.413019
20
133.605681
11
173.060227
21
135.067657
0
LINE
8
Layer 1
10
173.060227
20
135.067657
11
175.006985
21
136.078124
0
LINE
8
Layer 1
10
175.006985
20
136.078124
11
175.975281
21
136.498464
0
LINE
8
Layer 1
10
175.975281
20
136.498464
11
176.418484
21
136.933920
0
LINE
8
Layer 1
10
176.418484
20
136.933920
11
176.382887
21
137.498031
0
LINE
8
Layer 1
10
176.382887
20
137.498031
11
175.914781
21
138.304338
0
LINE
8
Layer 1
10
175.914781
20
138.304338
11
174.811578
21
140.391680
0
LINE
8
Layer 1
10
174.811578
20
140.391680
11
174.489996
21
141.417224
0
LINE
8
Layer 1
10
174.489996
20
141.417224
11
174.366510
21
142.314772
0
LINE
8
Layer 1
10
174.366510
20
142.314772
11
174.530626
21
143.318439
0
LINE
8
Layer 1
10
174.530626
20
143.318439
11
175.006830
21
144.535462
0
LINE
8
Layer 1
10
175.006830
20
144.535462
11
175.728926
21
145.827253
0
LINE
8
Layer 1
10
175.728926
20
145.827253
11
176.630722
21
147.055225
0
LINE
8
Layer 1
10
176.630722
20
147.055225
11
177.784475
21
148.423509
0
LINE
8
Layer 1
10
177.784475
20
148.423509
11
176.915964
21
150.402310
0
LINE
8
Layer 1
10
176.915964
20
150.402310
11
176.304399
21
152.034652
0
LINE
8
Layer 1
10
176.304399
20
152.034652
11
176.053663
21
153.180474
0
LINE
8
Layer 1
10
176.053663
20
153.180474
11
176.216306
21
154.141758
0
LINE
8
Layer 1
10
176.216306
20
154.141758
11
176.655822
21
155.247037
0
LINE
8
Layer 1
10
176.655822
20
155.247037
11
177.319468
21
156.388866
0
LINE
8
Layer 1
10
177.319468
20
156.388866
11
178.154497
21
157.459801
0
LINE
8
Layer 1
10
178.154497
20
157.459801
11
178.789528
21
158.261047
0
LINE
8
Layer 1
10
178.789528
20
158.261047
11
178.966975
21
158.885867
0
LINE
8
Layer 1
10
178.966975
20
158.885867
11
178.669533
21
159.515163
0
LINE
8
Layer 1
10
178.669533
20
159.515163
11
177.879894
21
160.329838
0
LINE
8
Layer 1
10
177.879894
20
160.329838
11
177.124663
21
161.234235
0
LINE
8
Layer 1
10
177.124663
20
161.234235
11
176.444950
21
162.392826
0
LINE
8
Layer 1
10
176.444950
20
162.392826
11
175.954042
21
163.578722
0
LINE
8
Layer 1
10
175.954042
20
163.578722
11
175.765231
21
164.565031
0
LINE
8
Layer 1
10
175.765231
20
164.565031
11
175.909816
21
165.389950
0
LINE
8
Layer 1
10
175.909816
20
165.389950
11
176.282700
21
166.421167
0
LINE
8
Layer 1
10
176.282700
20
166.421167
11
176.792574
21
167.446015
0
LINE
8
Layer 1
10
176.792574
20
167.446015
11
177.348131
21
168.251827
0
LINE
8
Layer 1
10
177.348131
20
168.251827
11
177.510588
21
168.515278
0
LINE
8
Layer 1
10
177.510588
20
168.515278
11
177.456423
21
168.778115
0
LINE
8
Layer 1
10
177.456423
20
168.778115
11
176.501069
21
169.620489
0
LINE
8
Layer 1
10
176.501069
20
169.620489
11
175.309463
21
170.716952
0
LINE
8
Layer 1
10
175.309463
20
170.716952
11
174.948277
21
171.283965
0
LINE
8
Layer 1
10
174.948277
20
171.283965
11
174.733910
21
171.907881
0
LINE
8
Layer 1
10
174.733910
20
171.907881
11
174.716866
21
173.459565
0
LINE
8
Layer 1
10
174.716866
20
173.459565
11
175.200787
21
175.638293
0
LINE
8
Layer 1
10
175.200787
20
175.638293
11
175.725851
21
177.790892
0
LINE
8
Layer 1
10
175.725851
20
177.790892
11
175.637830
21
178.067469
0
LINE
8
Layer 1
10
175.637830
20
178.067469
11
175.331964
21
178.109838
0
LINE
8
Layer 1
10
175.331964
20
178.109838
11
174.132519
21
178.591628
0
LINE
8
Layer 1
10
174.132519
20
178.591628
11
172.500363
21
179.785459
0
LINE
8
Layer 1
10
172.500363
20
179.785459
11
171.436860
21
181.009692
0
LINE
8
Layer 1
10
171.436860
20
181.009692
11
170.859364
21
182.395796
0
LINE
8
Layer 1
10
170.859364
20
182.395796
11
170.685231
21
184.075242
0
LINE
8
Layer 1
10
170.685231
20
184.075242
11
170.685231
21
185.706523
0
LINE
8
Layer 1
10
170.685231
20
185.706523
11
169.344676
21
184.880445
0
LINE
8
Layer 1
10
169.344676
20
184.880445
11
166.910848
21
183.603711
0
LINE
8
Layer 1
10
166.910848
20
183.603711
11
165.817575
21
183.153058
0
LINE
8
Layer 1
10
165.817575
20
183.153058
11
166.437392
21
183.941057
0
LINE
8
Layer 1
10
166.437392
20
183.941057
11
167.345848
21
184.822298
0
LINE
8
Layer 1
10
167.345848
20
184.822298
11
168.659581
21
185.834474
0
LINE
8
Layer 1
10
168.659581
20
185.834474
11
170.786944
21
187.486517
0
LINE
8
Layer 1
10
170.786944
20
187.486517
11
171.343496
21
188.123855
0
LINE
8
Layer 1
10
171.343496
20
188.123855
11
171.635841
21
188.706698
0
LINE
8
Layer 1
10
171.635841
20
188.706698
11
171.685604
21
189.010118
0
LINE
8
Layer 1
10
171.685604
20
189.010118
11
171.593172
21
189.240063
0
LINE
8
Layer 1
10
171.593172
20
189.240063
11
170.851432
21
189.633448
0
LINE
8
Layer 1
10
170.851432
20
189.633448
11
169.516782
21
190.451364
0
LINE
8
Layer 1
10
169.516782
20
190.451364
11
168.382097
21
191.756685
0
LINE
8
Layer 1
10
168.382097
20
191.756685
11
167.593862
21
193.330109
0
LINE
8
Layer 1
10
167.593862
20
193.330109
11
167.298565
21
194.952335
0
LINE
8
Layer 1
10
167.298565
20
194.952335
11
167.138912
21
195.607615
0
LINE
8
Layer 1
10
167.138912
20
195.607615
11
166.265233
21
195.231215
0
LINE
8
Layer 1
10
166.265233
20
195.231215
11
165.181898
21
194.482057
0
LINE
8
Layer 1
10
165.181898
20
194.482057
11
162.941237
21
193.093002
0
LINE
8
Layer 1
10
162.941237
20
193.093002
11
161.684024
21
192.477309
0
LINE
8
Layer 1
10
161.684024
20
192.477309
11
160.914529
21
192.220949
0
LINE
8
Layer 1
10
160.914529
20
192.220949
11
160.631350
21
192.322781
0
LINE
8
Layer 1
10
160.631350
20
192.322781
11
160.847854
21
192.667842
0
LINE
8
Layer 1
10
160.847854
20
192.667842
11
163.017141
21
194.325042
0
LINE
8
Layer 1
10
163.017141
20
194.325042
11
166.258773
21
196.808756
0
LINE
8
Layer 1
10
166.258773
20
196.808756
11
167.335621
21
197.771588
0
LINE
8
Layer 1
10
167.335621
20
197.771588
11
165.479925
21
198.273899
0
LINE
8
Layer 1
10
165.479925
20
198.273899
11
164.135118
21
198.715143
0
LINE
8
Layer 1
10
164.135118
20
198.715143
11
163.095531
21
199.245651
0
LINE
8
Layer 1
10
163.095531
20
199.245651
11
162.291895
21
199.910336
0
LINE
8
Layer 1
10
162.291895
20
199.910336
11
161.654939
21
200.754110
0
LINE
8
Layer 1
10
161.654939
20
200.754110
11
161.154982
21
201.576226
0
LINE
8
Layer 1
10
161.154982
20
201.576226
11
158.935107
21
199.362735
0
LINE
8
Layer 1
10
158.935107
20
199.362735
11
156.154117
21
196.731207
0
LINE
8
Layer 1
10
156.154117
20
196.731207
11
155.731285
21
196.458092
0
LINE
8
Layer 1
10
155.731285
20
196.458092
11
156.013006
21
196.923189
0
LINE
8
Layer 1
10
156.013006
20
196.923189
11
159.521000
21
201.816504
0
LINE
8
Layer 1
10
159.521000
20
201.816504
11
160.621441
21
203.298171
0
LINE
8
Layer 1
10
160.621441
20
203.298171
11
160.959363
21
203.964874
0
LINE
8
Layer 1
10
160.959363
20
203.964874
11
160.567226
21
204.074282
0
LINE
8
Layer 1
10
160.567226
20
204.074282
11
158.831898
21
203.650949
0
LINE
8
Layer 1
10
158.831898
20
203.650949
11
157.357869
21
203.351831
0
LINE
8
Layer 1
10
157.357869
20
203.351831
11
155.497781
21
203.227615
0
LINE
8
Layer 1
10
155.497781
20
203.227615
11
153.842541
21
203.347619
0
LINE
8
Layer 1
10
153.842541
20
203.347619
11
152.604284
21
203.753411
0
LINE
8
Layer 1
10
152.604284
20
203.753411
11
151.654126
21
204.513667
0
LINE
8
Layer 1
10
151.654126
20
204.513667
11
150.863184
21
205.697060
0
LINE
8
Layer 1
10
150.863184
20
205.697060
11
150.047506
21
206.896504
0
LINE
8
Layer 1
10
150.047506
20
206.896504
11
149.788959
21
206.771485
0
LINE
8
Layer 1
10
149.788959
20
206.771485
11
149.496869
21
206.410063
0
LINE
8
Layer 1
10
149.496869
20
206.410063
11
148.864741
21
205.059836
0
LINE
8
Layer 1
10
148.864741
20
205.059836
11
147.456727
21
201.486310
0
LINE
8
Layer 1
10
147.456727
20
201.486310
11
146.353640
21
199.511023
0
LINE
8
Layer 1
10
146.353640
20
199.511023
11
145.359484
21
198.261532
0
LINE
8
Layer 1
10
145.359484
20
198.261532
11
145.779328
21
200.277154
0
LINE
8
Layer 1
10
145.779328
20
200.277154
11
146.844989
21
203.529060
0
LINE
8
Layer 1
10
146.844989
20
203.529060
11
147.370754
21
204.953182
0
LINE
8
Layer 1
10
147.370754
20
204.953182
11
147.475555
21
205.706650
0
LINE
8
Layer 1
10
147.475555
20
205.706650
11
147.352920
21
205.899833
0
LINE
8
Layer 1
10
147.352920
20
205.899833
11
147.104438
21
206.006886
0
LINE
8
Layer 1
10
147.104438
20
206.006886
11
146.202454
21
206.071309
0
LINE
8
Layer 1
10
146.202454
20
206.071309
11
144.567764
21
206.258858
0
LINE
8
Layer 1
10
144.567764
20
206.258858
11
143.232590
21
206.758843
0
LINE
8
Layer 1
10
143.232590
20
206.758843
11
142.212276
21
207.562771
0
LINE
8
Layer 1
10
142.212276
20
207.562771
11
141.522165
21
208.662146
0
LINE
8
Layer 1
10
141.522165
20
208.662146
11
141.206692
21
209.314138
0
LINE
8
Layer 1
10
141.206692
20
209.314138
11
140.815749
21
209.543546
0
LINE
8
Layer 1
10
140.815749
20
209.543546
11
140.096003
21
209.361075
0
LINE
8
Layer 1
10
140.096003
20
209.361075
11
138.794120
21
208.777431
0
LINE
8
Layer 1
10
138.794120
20
208.777431
11
137.382522
21
208.326914
0
LINE
8
Layer 1
10
137.382522
20
208.326914
11
135.772085
21
208.073758
0
LINE
8
Layer 1
10
135.772085
20
208.073758
11
134.763992
21
208.032840
0
LINE
8
Layer 1
10
134.763992
20
208.032840
11
134.096524
21
208.122365
0
LINE
8
Layer 1
10
134.096524
20
208.122365
11
133.526836
21
208.417922
0
LINE
8
Layer 1
10
133.526836
20
208.417922
11
132.812082
21
208.995100
0
LINE
8
Layer 1
10
132.812082
20
208.995100
11
132.031074
21
209.643751
0
LINE
8
Layer 1
10
132.031074
20
209.643751
11
131.779921
21
209.759275
0
LINE
8
Layer 1
10
131.779921
20
209.759275
11
131.582425
21
209.702855
0
LINE
8
Layer 1
10
131.582425
20
209.702855
11
131.230678
21
208.975958
0
LINE
8
Layer 1
10
131.230678
20
208.975958
11
130.740373
21
207.266608
0
LINE
8
Layer 1
10
130.740373
20
207.266608
11
130.239376
21
205.800027
0
LINE
8
Layer 1
10
130.239376
20
205.800027
11
129.725445
21
204.726608
0
LINE
8
Layer 1
10
129.725445
20
204.726608
11
129.202290
21
203.933171
0
LINE
8
Layer 1
10
129.202290
20
203.933171
11
129.200427
21
204.757534
0
LINE
8
Layer 1
10
129.200427
20
204.757534
11
129.456093
21
205.867221
0
LINE
8
Layer 1
10
129.456093
20
205.867221
11
130.073369
21
207.377575
0
LINE
8
Layer 1
10
130.073369
20
207.377575
11
130.659587
21
208.781217
0
LINE
8
Layer 1
10
130.659587
20
208.781217
11
131.042668
21
210.082154
0
LINE
8
Layer 1
10
131.042668
20
210.082154
11
131.168331
21
211.039423
0
LINE
8
Layer 1
10
131.168331
20
211.039423
11
131.117668
21
211.313881
0
LINE
8
Layer 1
10
131.117668
20
211.313881
11
130.982294
21
211.412060
0
LINE
8
Layer 1
10
130.982294
20
211.412060
11
130.040942
21
210.783035
0
LINE
8
Layer 1
10
130.040942
20
210.783035
11
129.109894
21
210.262370
0
LINE
8
Layer 1
10
129.109894
20
210.262370
11
127.459624
21
210.046305
0
LINE
8
Layer 1
10
127.459624
20
210.046305
11
125.630951
21
210.091538
0
LINE
8
Layer 1
10
125.630951
20
210.091538
11
124.075074
21
210.675330
0
LINE
8
Layer 1
10
124.075074
20
210.675330
11
122.259172
21
211.412060
0
LINE
8
Layer 1
10
122.259172
20
211.412060
11
122.099000
21
211.234758
0
LINE
8
Layer 1
10
122.099000
20
211.234758
11
121.959487
21
210.698191
0
LINE
8
Layer 1
10
121.959487
20
210.698191
11
121.737399
21
208.519282
0
LINE
8
Layer 1
10
121.737399
20
208.519282
11
121.239757
21
204.220408
0
LINE
8
Layer 1
10
121.239757
20
204.220408
11
120.915846
21
203.226052
0
LINE
8
Layer 1
10
120.915846
20
203.226052
11
120.786674
21
203.219953
0
LINE
8
Layer 1
10
120.786674
20
203.219953
11
120.679387
21
203.541097
0
LINE
8
Layer 1
10
120.679387
20
203.541097
11
120.469516
21
208.095949
0
LINE
8
Layer 1
10
120.469516
20
208.095949
11
120.393334
21
211.033604
0
LINE
8
Layer 1
10
120.393334
20
211.033604
11
120.238009
21
212.250875
0
LINE
8
Layer 1
10
120.238009
20
212.250875
11
118.917745
21
211.404208
0
LINE
8
Layer 1
10
118.917745
20
211.404208
11
117.829125
21
210.801974
0
LINE
8
Layer 1
10
117.829125
20
210.801974
11
116.645864
21
210.563157
0
LINE
8
Layer 1
10
116.645864
20
210.563157
11
115.384613
21
210.688531
0
LINE
8
Layer 1
10
115.384613
20
210.688531
11
114.062027
21
211.178868
0
LINE
8
Layer 1
10
114.062027
20
211.178868
11
113.140716
21
211.558342
0
LINE
8
Layer 1
10
113.140716
20
211.558342
11
112.650549
21
211.609223
0
LINE
8
Layer 1
10
112.650549
20
211.609223
11
112.654335
21
210.793884
0
LINE
8
Layer 1
10
112.654335
20
210.793884
11
112.920608
21
209.090748
0
LINE
8
Layer 1
10
112.920608
20
209.090748
11
113.569140
21
204.224121
0
LINE
8
Layer 1
10
113.569140
20
204.224121
11
113.616869
21
202.492041
0
LINE
8
Layer 1
10
113.616869
20
202.492041
11
113.438316
21
201.816504
0
LINE
8
Layer 1
10
113.438316
20
201.816504
11
113.209802
21
201.894457
0
LINE
8
Layer 1
10
113.209802
20
201.894457
11
112.973380
21
202.539810
0
LINE
8
Layer 1
10
112.973380
20
202.539810
11
111.838032
21
208.001687
0
LINE
8
Layer 1
10
111.838032
20
208.001687
11
110.745719
21
213.025651
0
LINE
8
Layer 1
10
110.745719
20
213.025651
11
109.802052
21
212.121583
0
LINE
8
Layer 1
10
109.802052
20
212.121583
11
108.926729
21
211.315381
0
LINE
8
Layer 1
10
108.926729
20
211.315381
11
107.940324
21
210.936174
0
LINE
8
Layer 1
10
107.940324
20
210.936174
11
106.771261
21
210.972580
0
LINE
8
Layer 1
10
106.771261
20
210.972580
11
105.347965
21
211.413214
0
LINE
8
Layer 1
10
105.347965
20
211.413214
11
103.675290
21
211.942844
0
LINE
8
Layer 1
10
103.675290
20
211.942844
11
104.237618
21
208.166504
0
LINE
8
Layer 1
10
104.237618
20
208.166504
11
104.647936
21
205.284143
0
LINE
8
Layer 1
10
104.647936
20
205.284143
11
104.883642
21
202.479601
0
LINE
8
Layer 1
10
104.883642
20
202.479601
11
104.904237
21
200.507677
0
LINE
8
Layer 1
10
104.904237
20
200.507677
11
104.821211
21
200.069822
0
LINE
8
Layer 1
10
104.821211
20
200.069822
11
104.669220
21
200.123171
0
LINE
8
Layer 1
10
104.669220
20
200.123171
11
103.684716
21
205.062060
0
LINE
8
Layer 1
10
103.684716
20
205.062060
11
102.637277
21
211.093434
0
LINE
8
Layer 1
10
102.637277
20
211.093434
11
102.333267
21
212.609255
0
LINE
8
Layer 1
10
102.333267
20
212.609255
11
100.837009
21
211.131593
0
LINE
8
Layer 1
10
100.837009
20
211.131593
11
99.391954
21
209.894111
0
LINE
8
Layer 1
10
99.391954
20
209.894111
11
98.856254
21
209.741399
0
LINE
8
Layer 1
10
98.856254
20
209.741399
11
98.182992
21
209.764342
0
LINE
8
Layer 1
10
98.182992
20
209.764342
11
97.210814
21
209.754077
0
LINE
8
Layer 1
10
97.210814
20
209.754077
11
97.058645
21
209.575025
0
LINE
8
Layer 1
10
97.058645
20
209.575025
11
97.025231
21
209.232297
0
LINE
8
Layer 1
10
97.025231
20
209.232297
11
97.143521
21
208.764700
0
LINE
8
Layer 1
10
97.143521
20
208.764700
11
97.459825
21
208.589838
0
LINE
8
Layer 1
10
97.459825
20
208.589838
11
98.183131
21
208.410027
0
LINE
8
Layer 1
10
98.183131
20
208.410027
11
99.104482
21
207.955742
0
LINE
8
Layer 1
10
99.104482
20
207.955742
11
100.003556
21
207.354705
0
LINE
8
Layer 1
10
100.003556
20
207.354705
11
100.660028
21
206.734636
0
LINE
8
Layer 1
10
100.660028
20
206.734636
11
101.169575
21
205.884910
0
LINE
8
Layer 1
10
101.169575
20
205.884910
11
101.419692
21
204.986635
0
LINE
8
Layer 1
10
101.419692
20
204.986635
11
101.404391
21
204.085716
0
LINE
8
Layer 1
10
101.404391
20
204.085716
11
101.117679
21
203.228059
0
LINE
8
Layer 1
10
101.117679
20
203.228059
11
100.749570
21
202.668742
0
LINE
8
Layer 1
10
100.749570
20
202.668742
11
100.228196
21
202.434273
0
LINE
8
Layer 1
10
100.228196
20
202.434273
11
99.292035
21
202.493144
0
LINE
8
Layer 1
10
99.292035
20
202.493144
11
97.679564
21
202.813849
0
LINE
8
Layer 1
10
97.679564
20
202.813849
11
97.165261
21
202.899753
0
LINE
8
Layer 1
10
97.165261
20
202.899753
11
96.862297
21
202.814910
0
LINE
8
Layer 1
10
96.862297
20
202.814910
11
96.478144
21
201.777360
0
LINE
8
Layer 1
10
96.478144
20
201.777360
11
95.287235
21
197.961393
0
LINE
8
Layer 1
10
95.287235
20
197.961393
11
94.540802
21
196.299904
0
LINE
8
Layer 1
10
94.540802
20
196.299904
11
93.658313
21
194.746918
0
LINE
8
Layer 1
10
93.658313
20
194.746918
11
92.613214
21
193.260567
0
LINE
8
Layer 1
10
92.613214
20
193.260567
11
91.378951
21
191.798981
0
LINE
8
Layer 1
10
91.378951
20
191.798981
11
88.236719
21
188.782630
0
LINE
8
Layer 1
10
88.236719
20
188.782630
11
84.080319
21
185.434882
0
LINE
8
Layer 1
10
84.080319
20
185.434882
11
80.968791
21
183.318215
0
LINE
8
Layer 1
10
80.968791
20
183.318215
11
78.657899
21
181.637615
0
LINE
8
Layer 1
10
78.657899
20
181.637615
11
78.846423
21
180.085393
0
LINE
8
Layer 1
10
78.846423
20
180.085393
11
79.086266
21
178.781879
0
LINE
8
Layer 1
10
79.086266
20
178.781879
11
79.398224
21
177.827615
0
LINE
8
Layer 1
10
79.398224
20
177.827615
11
80.348080
21
176.585751
0
LINE
8
Layer 1
10
80.348080
20
176.585751
11
81.778811
21
175.296946
0
LINE
8
Layer 1
10
81.778811
20
175.296946
11
83.277169
21
174.285698
0
LINE
8
Layer 1
10
83.277169
20
174.285698
11
84.429908
21
173.876504
0
LINE
8
Layer 1
10
84.429908
20
173.876504
11
85.186884
21
173.876504
0
LINE
8
Layer 1
10
85.186884
20
173.876504
11
84.052125
21
176.063727
0
LINE
8
Layer 1
10
84.052125
20
176.063727
11
83.201976
21
177.898612
0
LINE
8
Layer 1
10
83.201976
20
177.898612
11
82.751476
21
179.238727
0
LINE
8
Layer 1
10
82.751476
20
179.238727
11
82.691678
21
179.723981
0
LINE
8
Layer 1
10
82.691678
20
179.723981
11
82.781959
21
179.788900
0
LINE
8
Layer 1
10
82.781959
20
179.788900
11
83.667089
21
178.434283
0
LINE
8
Layer 1
10
83.667089
20
178.434283
11
85.055848
21
176.107892
0
LINE
8
Layer 1
10
85.055848
20
176.107892
11
85.580968
21
175.306238
0
LINE
8
Layer 1
10
85.580968
20
175.306238
11
86.059409
21
174.837472
0
LINE
8
Layer 1
10
86.059409
20
174.837472
11
86.532104
21
174.674406
0
LINE
8
Layer 1
10
86.532104
20
174.674406
11
87.039983
21
174.789849
0
LINE
8
Layer 1
10
87.039983
20
174.789849
11
87.724993
21
175.101958
0
LINE
8
Layer 1
10
87.724993
20
175.101958
11
87.049438
21
175.829787
0
LINE
8
Layer 1
10
87.049438
20
175.829787
11
85.917868
21
177.278267
0
LINE
8
Layer 1
10
85.917868
20
177.278267
11
84.918819
21
179.592553
0
LINE
8
Layer 1
10
84.918819
20
179.592553
11
84.522134
21
180.814944
0
LINE
8
Layer 1
10
84.522134
20
180.814944
11
84.432702
21
181.415834
0
LINE
8
Layer 1
10
84.432702
20
181.415834
11
85.016761
21
180.799558
0
LINE
8
Layer 1
10
85.016761
20
180.799558
11
86.094133
21
179.132002
0
LINE
8
Layer 1
10
86.094133
20
179.132002
11
87.181438
21
177.213864
0
LINE
8
Layer 1
10
87.181438
20
177.213864
11
87.795295
21
175.845840
0
LINE
8
Layer 1
10
87.795295
20
175.845840
11
88.036634
21
175.404586
0
LINE
8
Layer 1
10
88.036634
20
175.404586
11
88.608236
21
175.586952
0
LINE
8
Layer 1
10
88.608236
20
175.586952
11
89.332559
21
175.982232
0
LINE
8
Layer 1
10
89.332559
20
175.982232
11
88.127837
21
179.667637
0
LINE
8
Layer 1
10
88.127837
20
179.667637
11
86.951281
21
183.589106
0
LINE
8
Layer 1
10
86.951281
20
183.589106
11
87.552280
21
182.739531
0
LINE
8
Layer 1
10
87.552280
20
182.739531
11
88.861559
21
180.290018
0
LINE
8
Layer 1
10
88.861559
20
180.290018
11
90.250215
21
177.755028
0
LINE
8
Layer 1
10
90.250215
20
177.755028
11
91.042036
21
176.699940
0
LINE
8
Layer 1
10
91.042036
20
176.699940
11
92.206372
21
177.111158
0
LINE
8
Layer 1
10
92.206372
20
177.111158
11
93.003932
21
177.523589
0
LINE
8
Layer 1
10
93.003932
20
177.523589
11
92.580485
21
178.875047
0
LINE
8
Layer 1
10
92.580485
20
178.875047
11
91.035996
21
183.264054
0
LINE
8
Layer 1
10
91.035996
20
183.264054
11
89.865367
21
187.007126
0
LINE
8
Layer 1
10
89.865367
20
187.007126
11
89.677255
21
188.137960
0
LINE
8
Layer 1
10
89.677255
20
188.137960
11
89.805818
21
188.552060
0
LINE
8
Layer 1
10
89.805818
20
188.552060
11
90.417929
21
187.548198
0
LINE
8
Layer 1
10
90.417929
20
187.548198
11
92.355611
21
183.448023
0
LINE
8
Layer 1
10
92.355611
20
183.448023
11
93.484299
21
180.927327
0
LINE
8
Layer 1
10
93.484299
20
180.927327
11
94.065934
21
179.214944
0
LINE
8
Layer 1
10
94.065934
20
179.214944
11
94.360087
21
178.257167
0
LINE
8
Layer 1
10
94.360087
20
178.257167
11
94.650166
21
178.143549
0
LINE
8
Layer 1
10
94.650166
20
178.143549
11
95.147720
21
178.164561
0
LINE
8
Layer 1
10
95.147720
20
178.164561
11
95.654757
21
178.239421
0
LINE
8
Layer 1
10
95.654757
20
178.239421
11
95.915266
21
178.425337
0
LINE
8
Layer 1
10
95.915266
20
178.425337
11
95.998959
21
179.662060
0
LINE
8
Layer 1
10
95.998959
20
179.662060
11
95.751383
21
181.479262
0
LINE
8
Layer 1
10
95.751383
20
181.479262
11
95.210204
21
183.866719
0
LINE
8
Layer 1
10
95.210204
20
183.866719
11
94.674755
21
186.090188
0
LINE
8
Layer 1
10
94.674755
20
186.090188
11
94.574071
21
187.027638
0
LINE
8
Layer 1
10
94.574071
20
187.027638
11
94.877793
21
186.602463
0
LINE
8
Layer 1
10
94.877793
20
186.602463
11
95.555559
21
184.738061
0
LINE
8
Layer 1
10
95.555559
20
184.738061
11
97.313772
21
179.705822
0
LINE
8
Layer 1
10
97.313772
20
179.705822
11
97.782715
21
178.871616
0
LINE
8
Layer 1
10
97.782715
20
178.871616
11
98.188551
21
178.674282
0
LINE
8
Layer 1
10
98.188551
20
178.674282
11
98.451127
21
178.720876
0
LINE
8
Layer 1
10
98.451127
20
178.720876
11
98.613345
21
178.888417
0
LINE
8
Layer 1
10
98.613345
20
178.888417
11
98.718565
21
179.752896
0
LINE
8
Layer 1
10
98.718565
20
179.752896
11
98.601266
21
180.881771
0
LINE
8
Layer 1
10
98.601266
20
180.881771
11
98.319249
21
182.081229
0
LINE
8
Layer 1
10
98.319249
20
182.081229
11
97.764625
21
184.438044
0
LINE
8
Layer 1
10
97.764625
20
184.438044
11
97.690196
21
185.312606
0
LINE
8
Layer 1
10
97.690196
20
185.312606
11
98.065305
21
184.894164
0
LINE
8
Layer 1
10
98.065305
20
184.894164
11
98.606836
21
183.720106
0
LINE
8
Layer 1
10
98.606836
20
183.720106
11
99.268531
21
181.811512
0
LINE
8
Layer 1
10
99.268531
20
181.811512
11
100.037382
21
179.703402
0
LINE
8
Layer 1
10
100.037382
20
179.703402
11
100.394958
21
179.391153
0
LINE
8
Layer 1
10
100.394958
20
179.391153
11
100.919390
21
179.291401
0
LINE
8
Layer 1
10
100.919390
20
179.291401
11
101.676899
21
179.340354
0
LINE
8
Layer 1
10
101.676899
20
179.340354
11
101.823009
21
179.964213
0
LINE
8
Layer 1
10
101.823009
20
179.964213
11
101.545980
21
181.745983
0
LINE
8
Layer 1
10
101.545980
20
181.745983
11
100.222372
21
187.222058
0
LINE
8
Layer 1
10
100.222372
20
187.222058
11
99.431740
21
191.374282
0
LINE
8
Layer 1
10
99.431740
20
191.374282
11
99.276829
21
192.926504
0
LINE
8
Layer 1
10
99.276829
20
192.926504
11
100.132696
21
191.233171
0
LINE
8
Layer 1
10
100.132696
20
191.233171
11
101.386930
21
188.104530
0
LINE
8
Layer 1
10
101.386930
20
188.104530
11
102.576881
21
183.613171
0
LINE
8
Layer 1
10
102.576881
20
183.613171
11
103.093009
21
181.355393
0
LINE
8
Layer 1
10
103.093009
20
181.355393
11
103.234120
21
187.423171
0
LINE
8
Layer 1
10
103.234120
20
187.423171
11
103.375231
21
193.490949
0
LINE
8
Layer 1
10
103.375231
20
193.490949
11
104.157354
21
188.128727
0
LINE
8
Layer 1
10
104.157354
20
188.128727
11
104.937303
21
181.637615
0
LINE
8
Layer 1
10
104.937303
20
181.637615
11
105.114906
21
179.837148
0
LINE
8
Layer 1
10
105.114906
20
179.837148
11
105.256332
21
179.461592
0
LINE
8
Layer 1
10
105.256332
20
179.461592
11
105.542077
21
179.282791
0
LINE
8
Layer 1
10
105.542077
20
179.282791
11
107.281751
21
179.350249
0
LINE
8
Layer 1
10
107.281751
20
179.350249
11
109.410300
21
179.676391
0
LINE
8
Layer 1
10
109.410300
20
179.676391
11
109.247729
21
183.533832
0
LINE
8
Layer 1
10
109.247729
20
183.533832
11
108.725770
21
189.822060
0
LINE
8
Layer 1
10
108.725770
20
189.822060
11
108.748979
21
190.010250
0
LINE
8
Layer 1
10
108.748979
20
190.010250
11
108.920217
21
189.489740
0
LINE
8
Layer 1
10
108.920217
20
189.489740
11
109.558124
21
186.952127
0
LINE
8
Layer 1
10
109.558124
20
186.952127
11
110.975081
21
180.297060
0
LINE
8
Layer 1
10
110.975081
20
180.297060
11
111.161940
21
179.238727
0
LINE
8
Layer 1
10
111.161940
20
179.238727
11
114.105207
21
179.238727
0
LINE
8
Layer 1
10
114.105207
20
179.238727
11
117.048475
21
179.238727
0
LINE
8
Layer 1
10
117.048475
20
179.238727
11
116.985201
21
183.824838
0
LINE
8
Layer 1
10
116.985201
20
183.824838
11
117.018323
21
187.184811
0
LINE
8
Layer 1
10
117.018323
20
187.184811
11
117.186848
21
188.822976
0
LINE
8
Layer 1
10
117.186848
20
188.822976
11
117.351988
21
188.978993
0
LINE
8
Layer 1
10
117.351988
20
188.978993
11
117.500399
21
188.901306
0
LINE
8
Layer 1
10
117.500399
20
188.901306
11
117.751727
21
188.015670
0
LINE
8
Layer 1
10
117.751727
20
188.015670
11
118.105256
21
183.119282
0
LINE
8
Layer 1
10
118.105256
20
183.119282
11
118.296514
21
179.980001
0
LINE
8
Layer 1
10
118.296514
20
179.980001
11
118.516284
21
178.674282
0
LINE
8
Layer 1
10
118.516284
20
178.674282
11
118.689396
21
179.109522
0
LINE
8
Layer 1
10
118.689396
20
179.109522
11
118.768506
21
180.155949
0
LINE
8
Layer 1
10
118.768506
20
180.155949
11
119.008589
21
182.259781
0
LINE
8
Layer 1
10
119.008589
20
182.259781
11
119.550886
21
185.360320
0
LINE
8
Layer 1
10
119.550886
20
185.360320
11
120.157874
21
188.224789
0
LINE
8
Layer 1
10
120.157874
20
188.224789
11
120.592029
21
189.620406
0
LINE
8
Layer 1
10
120.592029
20
189.620406
11
120.694658
21
188.144705
0
LINE
8
Layer 1
10
120.694658
20
188.144705
11
120.645686
21
184.608433
0
LINE
8
Layer 1
10
120.645686
20
184.608433
11
120.496564
21
180.894533
0
LINE
8
Layer 1
10
120.496564
20
180.894533
11
120.298743
21
178.885949
0
LINE
8
Layer 1
10
120.298743
20
178.885949
11
120.272775
21
178.500474
0
LINE
8
Layer 1
10
120.272775
20
178.500474
11
120.670289
21
178.392060
0
LINE
8
Layer 1
10
120.670289
20
178.392060
11
121.091603
21
178.554841
0
LINE
8
Layer 1
10
121.091603
20
178.554841
11
121.366898
21
179.256942
0
LINE
8
Layer 1
10
121.366898
20
179.256942
11
121.746431
21
183.561643
0
LINE
8
Layer 1
10
121.746431
20
183.561643
11
122.139256
21
187.794976
0
LINE
8
Layer 1
10
122.139256
20
187.794976
11
122.335587
21
188.415113
0
LINE
8
Layer 1
10
122.335587
20
188.415113
11
122.513990
21
187.423171
0
LINE
8
Layer 1
10
122.513990
20
187.423171
11
122.910061
21
181.937036
0
LINE
8
Layer 1
10
122.910061
20
181.937036
11
123.130787
21
177.720902
0
LINE
8
Layer 1
10
123.130787
20
177.720902
11
124.462340
21
177.382464
0
LINE
8
Layer 1
10
124.462340
20
177.382464
11
125.357095
21
177.158534
0
LINE
8
Layer 1
10
125.357095
20
177.158534
11
125.636429
21
177.224992
0
LINE
8
Layer 1
10
125.636429
20
177.224992
11
125.851935
21
177.516455
0
LINE
8
Layer 1
10
125.851935
20
177.516455
11
126.236057
21
179.092562
0
LINE
8
Layer 1
10
126.236057
20
179.092562
11
126.798660
21
182.523189
0
LINE
8
Layer 1
10
126.798660
20
182.523189
11
128.063495
21
188.732078
0
LINE
8
Layer 1
10
128.063495
20
188.732078
11
128.582643
21
190.386504
0
LINE
8
Layer 1
10
128.582643
20
190.386504
11
128.601665
21
188.693171
0
LINE
8
Layer 1
10
128.601665
20
188.693171
11
128.364542
21
185.895575
0
LINE
8
Layer 1
10
128.364542
20
185.895575
11
127.940700
21
181.944464
0
LINE
8
Layer 1
10
127.940700
20
181.944464
11
127.773004
21
179.097615
0
LINE
8
Layer 1
10
127.773004
20
179.097615
11
128.346084
21
180.530144
0
LINE
8
Layer 1
10
128.346084
20
180.530144
11
128.944759
21
182.535458
0
LINE
8
Layer 1
10
128.944759
20
182.535458
11
129.579395
21
185.345107
0
LINE
8
Layer 1
10
129.579395
20
185.345107
11
130.142979
21
187.894708
0
LINE
8
Layer 1
10
130.142979
20
187.894708
11
130.570757
21
189.274800
0
LINE
8
Layer 1
10
130.570757
20
189.274800
11
130.680322
21
189.390914
0
LINE
8
Layer 1
10
130.680322
20
189.390914
11
130.755137
21
189.327837
0
LINE
8
Layer 1
10
130.755137
20
189.327837
11
130.808153
21
188.726193
0
LINE
8
Layer 1
10
130.808153
20
188.726193
11
130.581203
21
186.055538
0
LINE
8
Layer 1
10
130.581203
20
186.055538
11
130.012120
21
182.256190
0
LINE
8
Layer 1
10
130.012120
20
182.256190
11
129.223118
21
178.321504
0
LINE
8
Layer 1
10
129.223118
20
178.321504
11
128.894566
21
176.593263
0
LINE
8
Layer 1
10
128.894566
20
176.593263
11
128.922084
21
176.238049
0
LINE
8
Layer 1
10
128.922084
20
176.238049
11
129.071367
21
176.134282
0
LINE
8
Layer 1
10
129.071367
20
176.134282
11
129.490827
21
176.610973
0
LINE
8
Layer 1
10
129.490827
20
176.610973
11
129.994403
21
177.757060
0
LINE
8
Layer 1
10
129.994403
20
177.757060
11
131.325081
21
181.355393
0
LINE
8
Layer 1
10
131.325081
20
181.355393
11
132.744207
21
185.165393
0
LINE
8
Layer 1
10
132.744207
20
185.165393
11
133.209888
21
186.283596
0
LINE
8
Layer 1
10
133.209888
20
186.283596
11
133.355641
21
186.485719
0
LINE
8
Layer 1
10
133.355641
20
186.485719
11
133.414033
21
186.396015
0
LINE
8
Layer 1
10
133.414033
20
186.396015
11
132.962563
21
183.353697
0
LINE
8
Layer 1
10
132.962563
20
183.353697
11
132.121202
21
180.024924
0
LINE
8
Layer 1
10
132.121202
20
180.024924
11
131.325914
21
177.199544
0
LINE
8
Layer 1
10
131.325914
20
177.199544
11
131.047007
21
175.320650
0
LINE
8
Layer 1
10
131.047007
20
175.320650
11
131.275544
21
175.344554
0
LINE
8
Layer 1
10
131.275544
20
175.344554
11
131.636757
21
175.612518
0
LINE
8
Layer 1
10
131.636757
20
175.612518
11
132.355136
21
176.513865
0
LINE
8
Layer 1
10
132.355136
20
176.513865
11
133.046608
21
178.744039
0
LINE
8
Layer 1
10
133.046608
20
178.744039
11
133.845269
21
181.163465
0
LINE
8
Layer 1
10
133.845269
20
181.163465
11
134.080709
21
181.571806
0
LINE
8
Layer 1
10
134.080709
20
181.571806
11
134.204153
21
181.636103
0
LINE
8
Layer 1
10
134.204153
20
181.636103
11
134.267276
21
180.489394
0
LINE
8
Layer 1
10
134.267276
20
180.489394
11
134.156680
21
179.070310
0
LINE
8
Layer 1
10
134.156680
20
179.070310
11
133.874931
21
177.667172
0
LINE
8
Layer 1
10
133.874931
20
177.667172
11
133.381042
21
175.296853
0
LINE
8
Layer 1
10
133.381042
20
175.296853
11
133.360055
21
174.736214
0
LINE
8
Layer 1
10
133.360055
20
174.736214
11
133.499832
21
174.381965
0
LINE
8
Layer 1
10
133.499832
20
174.381965
11
134.697552
21
173.795594
0
LINE
8
Layer 1
10
134.697552
20
173.795594
11
135.990602
21
173.415316
0
LINE
8
Layer 1
10
135.990602
20
173.415316
11
136.292537
21
173.540770
0
LINE
8
Layer 1
10
136.292537
20
173.540770
11
136.602552
21
173.888177
0
LINE
8
Layer 1
10
136.602552
20
173.888177
11
137.100787
21
174.905478
0
LINE
8
Layer 1
10
137.100787
20
174.905478
11
137.435047
21
175.757223
0
LINE
8
Layer 1
10
137.435047
20
175.757223
11
138.364642
21
177.140892
0
LINE
8
Layer 1
10
138.364642
20
177.140892
11
141.570707
21
180.913758
0
LINE
8
Layer 1
10
141.570707
20
180.913758
11
142.900200
21
182.766504
0
LINE
8
Layer 1
10
142.900200
20
182.766504
11
143.227817
21
183.374832
0
LINE
8
Layer 1
10
143.227817
20
183.374832
11
143.298641
21
182.959341
0
LINE
8
Layer 1
10
143.298641
20
182.959341
11
143.180996
21
182.399004
0
LINE
8
Layer 1
10
143.180996
20
182.399004
11
142.762401
21
181.619137
0
LINE
8
Layer 1
10
142.762401
20
181.619137
11
140.727455
21
178.939814
0
LINE
8
Layer 1
10
140.727455
20
178.939814
11
139.695376
21
177.468088
0
LINE
8
Layer 1
10
139.695376
20
177.468088
11
138.705206
21
175.731574
0
LINE
8
Layer 1
10
138.705206
20
175.731574
11
137.960951
21
174.123645
0
LINE
8
Layer 1
10
137.960951
20
174.123645
11
137.666614
21
173.037678
0
LINE
8
Layer 1
10
137.666614
20
173.037678
11
137.735512
21
172.499226
0
LINE
8
Layer 1
10
137.735512
20
172.499226
11
138.217286
21
172.896567
0
LINE
8
Layer 1
10
138.217286
20
172.896567
11
140.217790
21
176.134282
0
LINE
8
Layer 1
10
140.217790
20
176.134282
11
142.151887
21
179.379838
0
LINE
8
Layer 1
10
142.151887
20
179.379838
11
142.957039
21
180.697305
0
LINE
8
Layer 1
10
142.957039
20
180.697305
11
144.946148
21
183.627147
0
LINE
8
Layer 1
10
144.946148
20
183.627147
11
146.874509
21
186.012060
0
LINE
8
Layer 1
10
146.874509
20
186.012060
11
146.515325
21
184.894498
0
LINE
8
Layer 1
10
146.515325
20
184.894498
11
145.591330
21
183.048727
0
LINE
8
Layer 1
10
145.591330
20
183.048727
11
142.192217
21
177.686504
0
LINE
8
Layer 1
10
142.192217
20
177.686504
11
140.573877
21
175.020467
0
LINE
8
Layer 1
10
140.573877
20
175.020467
11
139.348094
21
172.253727
0
LINE
8
Layer 1
10
139.348094
20
172.253727
11
139.305017
21
171.445081
0
LINE
8
Layer 1
10
139.305017
20
171.445081
11
139.432975
21
171.302016
0
LINE
8
Layer 1
10
139.432975
20
171.302016
11
139.641821
21
171.325122
0
LINE
8
Layer 1
10
139.641821
20
171.325122
11
140.245837
21
171.845854
0
LINE
8
Layer 1
10
140.245837
20
171.845854
11
141.004400
21
172.959282
0
LINE
8
Layer 1
10
141.004400
20
172.959282
11
142.714455
21
175.659673
0
LINE
8
Layer 1
10
142.714455
20
175.659673
11
144.310041
21
177.460450
0
LINE
8
Layer 1
10
144.310041
20
177.460450
11
145.147510
21
178.145927
0
LINE
8
Layer 1
10
145.147510
20
178.145927
11
145.264061
21
178.063677
0
LINE
8
Layer 1
10
145.264061
20
178.063677
11
145.285231
21
177.727105
0
LINE
8
Layer 1
10
145.285231
20
177.727105
11
144.746363
21
176.454748
0
LINE
8
Layer 1
10
144.746363
20
176.454748
11
143.450787
21
174.289031
0
LINE
8
Layer 1
10
143.450787
20
174.289031
11
142.155211
21
172.163714
0
LINE
8
Layer 1
10
142.155211
20
172.163714
11
141.616343
21
170.988485
0
LINE
8
Layer 1
10
141.616343
20
170.988485
11
141.743957
21
170.528535
0
LINE
8
Layer 1
10
141.743957
20
170.528535
11
142.096410
21
170.596048
0
LINE
8
Layer 1
10
142.096410
20
170.596048
11
142.628112
21
171.158543
0
LINE
8
Layer 1
10
142.628112
20
171.158543
11
143.293476
21
172.183541
0
LINE
8
Layer 1
10
143.293476
20
172.183541
11
144.255886
21
173.643148
0
LINE
8
Layer 1
10
144.255886
20
173.643148
11
145.205447
21
174.782607
0
LINE
8
Layer 1
10
145.205447
20
174.782607
11
146.145868
21
175.694083
0
LINE
8
Layer 1
10
146.145868
20
175.694083
11
145.815527
21
174.746499
0
LINE
8
Layer 1
10
145.815527
20
174.746499
11
144.538556
21
171.982757
0
LINE
8
Layer 1
10
144.538556
20
171.982757
11
143.869975
21
170.540315
0
LINE
8
Layer 1
10
143.869975
20
170.540315
11
143.591898
21
169.622665
0
LINE
8
Layer 1
10
143.591898
20
169.622665
11
143.713433
21
169.159489
0
LINE
8
Layer 1
10
143.713433
20
169.159489
11
144.042247
21
169.136700
0
LINE
8
Layer 1
10
144.042247
20
169.136700
11
144.524658
21
169.529794
0
LINE
8
Layer 1
10
144.524658
20
169.529794
11
145.106980
21
170.314264
0
LINE
8
Layer 1
10
145.106980
20
170.314264
11
146.698657
21
172.326498
0
LINE
8
Layer 1
10
146.698657
20
172.326498
11
147.387805
21
172.920232
0
LINE
8
Layer 1
10
147.387805
20
172.920232
11
147.357815
21
172.431515
0
LINE
8
Layer 1
10
147.357815
20
172.431515
11
146.386858
21
170.168110
0
LINE
8
Layer 1
10
146.386858
20
170.168110
11
145.567454
21
168.117433
0
LINE
8
Layer 1
10
145.567454
20
168.117433
11
145.853595
21
167.656849
0
LINE
8
Layer 1
10
145.853595
20
167.656849
11
146.541544
21
167.193970
0
LINE
8
Layer 1
10
146.541544
20
167.193970
11
147.515662
21
166.729455
0
LINE
8
Layer 1
10
147.515662
20
166.729455
11
151.088369
21
170.294393
0
LINE
8
Layer 1
10
151.088369
20
170.294393
11
154.271039
21
173.287636
0
LINE
8
Layer 1
10
154.271039
20
173.287636
11
155.276694
21
173.999636
0
LINE
8
Layer 1
10
155.276694
20
173.999636
11
156.192641
21
174.432361
0
LINE
8
Layer 1
10
156.192641
20
174.432361
11
157.869436
21
175.005393
0
LINE
8
Layer 1
10
157.869436
20
175.005393
11
154.776019
21
171.899921
0
LINE
8
Layer 1
10
154.776019
20
171.899921
11
150.035539
21
167.498031
0
LINE
8
Layer 1
10
150.035539
20
167.498031
11
148.412762
21
165.925381
0
LINE
8
Layer 1
10
148.412762
20
165.925381
11
148.625032
21
165.473338
0
LINE
8
Layer 1
10
148.625032
20
165.473338
11
149.163042
21
164.827829
0
LINE
8
Layer 1
10
149.163042
20
164.827829
11
149.780734
21
164.249432
0
LINE
8
Layer 1
10
149.780734
20
164.249432
11
150.232051
21
163.998727
0
LINE
8
Layer 1
10
150.232051
20
163.998727
11
150.885716
21
164.331526
0
LINE
8
Layer 1
10
150.885716
20
164.331526
11
151.922139
21
165.131663
0
LINE
8
Layer 1
10
151.922139
20
165.131663
11
153.920385
21
166.600492
0
LINE
8
Layer 1
10
153.920385
20
166.600492
11
154.670506
21
166.980603
0
LINE
8
Layer 1
10
154.670506
20
166.980603
11
155.066207
21
167.011835
0
LINE
8
Layer 1
10
155.066207
20
167.011835
11
154.591283
21
166.326114
0
LINE
8
Layer 1
10
154.591283
20
166.326114
11
153.262751
21
164.864167
0
LINE
8
Layer 1
10
153.262751
20
164.864167
11
151.933628
21
163.402818
0
LINE
8
Layer 1
10
151.933628
20
163.402818
11
151.457290
21
162.718536
0
LINE
8
Layer 1
10
151.457290
20
162.718536
11
151.824094
21
162.575223
0
LINE
8
Layer 1
10
151.824094
20
162.575223
11
152.354916
21
162.701713
0
LINE
8
Layer 1
10
152.354916
20
162.701713
11
153.853272
21
163.740490
0
LINE
8
Layer 1
10
153.853272
20
163.740490
11
154.828709
21
164.458629
0
LINE
8
Layer 1
10
154.828709
20
164.458629
11
155.086285
21
164.530745
0
LINE
8
Layer 1
10
155.086285
20
164.530745
11
155.188293
21
164.428324
0
LINE
8
Layer 1
10
155.188293
20
164.428324
11
154.919179
21
163.750173
0
LINE
8
Layer 1
10
154.919179
20
163.750173
11
154.008523
21
162.524773
0
LINE
8
Layer 1
10
154.008523
20
162.524773
11
153.074113
21
161.247758
0
LINE
8
Layer 1
10
153.074113
20
161.247758
11
153.075263
21
160.880603
0
LINE
8
Layer 1
10
153.075263
20
160.880603
11
153.309458
21
160.460498
0
LINE
8
Layer 1
10
153.309458
20
160.460498
11
153.684190
21
160.090816
0
LINE
8
Layer 1
10
153.684190
20
160.090816
11
154.216635
21
159.877946
0
LINE
8
Layer 1
10
154.216635
20
159.877946
11
154.900737
21
159.820717
0
LINE
8
Layer 1
10
154.900737
20
159.820717
11
155.730438
21
159.917958
0
LINE
8
Layer 1
10
155.730438
20
159.917958
11
157.802417
21
160.571168
0
LINE
8
Layer 1
10
157.802417
20
160.571168
11
160.384120
21
161.828209
0
LINE
8
Layer 1
10
160.384120
20
161.828209
11
163.693906
21
163.314283
0
LINE
8
Layer 1
10
163.693906
20
163.314283
11
165.126876
21
163.796396
0
LINE
8
Layer 1
10
165.126876
20
163.796396
11
165.817829
21
163.880213
0
LINE
8
Layer 1
10
165.817829
20
163.880213
11
165.522469
21
163.526108
0
LINE
8
Layer 1
10
165.522469
20
163.526108
11
164.697453
21
162.894854
0
LINE
8
Layer 1
10
164.697453
20
162.894854
11
163.188817
21
162.023171
0
LINE
8
Layer 1
10
163.188817
20
162.023171
11
162.186081
21
161.515315
0
LINE
8
Layer 1
10
162.186081
20
161.515315
11
159.537454
21
160.184431
0
LINE
8
Layer 1
10
159.537454
20
160.184431
11
156.749617
21
158.828066
0
LINE
8
Layer 1
10
156.749617
20
158.828066
11
156.004079
21
158.284488
0
LINE
8
Layer 1
10
156.004079
20
158.284488
11
155.739420
21
157.860393
0
LINE
8
Layer 1
10
155.739420
20
157.860393
11
155.807136
21
157.630173
0
LINE
8
Layer 1
10
155.807136
20
157.630173
11
156.023357
21
157.515106
0
LINE
8
Layer 1
10
156.023357
20
157.515106
11
156.862396
21
157.618983
0
LINE
8
Layer 1
10
156.862396
20
157.618983
11
158.178701
21
158.149127
0
LINE
8
Layer 1
10
158.178701
20
158.149127
11
159.894437
21
159.082641
0
LINE
8
Layer 1
10
159.894437
20
159.082641
11
164.002784
21
161.234321
0
LINE
8
Layer 1
10
164.002784
20
161.234321
11
165.781573
21
162.004452
0
LINE
8
Layer 1
10
165.781573
20
162.004452
11
166.807498
21
162.305393
0
LINE
8
Layer 1
10
166.807498
20
162.305393
11
166.913486
21
162.159378
0
LINE
8
Layer 1
10
166.913486
20
162.159378
11
166.628160
21
161.777588
0
LINE
8
Layer 1
10
166.628160
20
161.777588
11
165.208455
21
160.644230
0
LINE
8
Layer 1
10
165.208455
20
160.644230
11
160.920918
21
158.103808
0
LINE
8
Layer 1
10
160.920918
20
158.103808
11
157.527269
21
156.410087
0
LINE
8
Layer 1
10
157.527269
20
156.410087
11
157.090037
21
156.144992
0
LINE
8
Layer 1
10
157.090037
20
156.144992
11
157.172911
21
155.582279
0
LINE
8
Layer 1
10
157.172911
20
155.582279
11
157.417654
21
154.926942
0
LINE
8
Layer 1
10
157.417654
20
154.926942
11
158.237736
21
155.510899
0
LINE
8
Layer 1
10
158.237736
20
155.510899
11
160.961473
21
156.942067
0
LINE
8
Layer 1
10
160.961473
20
156.942067
11
162.434518
21
157.543141
0
LINE
8
Layer 1
10
162.434518
20
157.543141
11
163.357106
21
157.789838
0
LINE
8
Layer 1
10
163.357106
20
157.789838
11
163.776643
21
157.872740
0
LINE
8
Layer 1
10
163.776643
20
157.872740
11
164.053009
21
158.072060
0
LINE
8
Layer 1
10
164.053009
20
158.072060
11
164.388713
21
158.271379
0
LINE
8
Layer 1
10
164.388713
20
158.271379
11
164.950899
21
158.354282
0
LINE
8
Layer 1
10
164.950899
20
158.354282
11
165.481939
21
158.276414
0
LINE
8
Layer 1
10
165.481939
20
158.276414
11
165.308447
21
157.913406
0
LINE
8
Layer 1
10
165.308447
20
157.913406
11
164.386188
21
157.208368
0
LINE
8
Layer 1
10
164.386188
20
157.208368
11
162.790837
21
156.291262
0
LINE
8
Layer 1
10
162.790837
20
156.291262
11
160.996578
21
155.413219
0
LINE
8
Layer 1
10
160.996578
20
155.413219
11
159.477594
21
154.825367
0
LINE
8
Layer 1
10
159.477594
20
154.825367
11
158.369713
21
154.396555
0
LINE
8
Layer 1
10
158.369713
20
154.396555
11
158.168792
21
154.193650
0
LINE
8
Layer 1
10
158.168792
20
154.193650
11
158.167237
21
153.975062
0
LINE
8
Layer 1
10
158.167237
20
153.975062
11
158.386189
21
153.662695
0
LINE
8
Layer 1
10
158.386189
20
153.662695
11
158.788238
21
153.594818
0
LINE
8
Layer 1
10
158.788238
20
153.594818
11
160.594997
21
154.242471
0
LINE
8
Layer 1
10
160.594997
20
154.242471
11
163.240661
21
155.115048
0
LINE
8
Layer 1
10
163.240661
20
155.115048
11
164.335231
21
155.301656
0
LINE
8
Layer 1
10
164.335231
20
155.301656
11
163.488565
21
154.580892
0
LINE
8
Layer 1
10
163.488565
20
154.580892
11
162.106149
21
153.623911
0
LINE
8
Layer 1
10
162.106149
20
153.623911
11
160.097665
21
152.677684
0
LINE
8
Layer 1
10
160.097665
20
152.677684
11
159.506896
21
152.311106
0
LINE
8
Layer 1
10
159.506896
20
152.311106
11
159.910809
21
152.195616
0
LINE
8
Layer 1
10
159.910809
20
152.195616
11
161.020911
21
152.327997
0
LINE
8
Layer 1
10
161.020911
20
152.327997
11
162.548708
21
152.705029
0
LINE
8
Layer 1
10
162.548708
20
152.705029
11
164.556158
21
153.140604
0
LINE
8
Layer 1
10
164.556158
20
153.140604
11
164.724214
21
152.982648
0
LINE
8
Layer 1
10
164.724214
20
152.982648
11
164.314629
21
152.575700
0
LINE
8
Layer 1
10
164.314629
20
152.575700
11
162.304297
21
151.464700
0
LINE
8
Layer 1
10
162.304297
20
151.464700
11
160.517527
21
150.734282
0
LINE
8
Layer 1
10
160.517527
20
150.734282
11
160.328689
21
150.680352
0
LINE
8
Layer 1
10
160.328689
20
150.680352
11
160.258687
21
150.525561
0
LINE
8
Layer 1
10
160.258687
20
150.525561
11
160.477367
21
149.955414
0
LINE
8
Layer 1
10
160.477367
20
149.955414
11
160.663257
21
149.808455
0
LINE
8
Layer 1
10
160.663257
20
149.808455
11
160.996772
21
149.790207
0
LINE
8
Layer 1
10
160.996772
20
149.790207
11
162.353806
21
150.167811
0
LINE
8
Layer 1
10
162.353806
20
150.167811
11
164.105954
21
150.634296
0
LINE
8
Layer 1
10
164.105954
20
150.634296
11
164.149909
21
150.345593
0
LINE
8
Layer 1
10
164.149909
20
150.345593
11
163.909164
21
149.923496
0
LINE
8
Layer 1
10
163.909164
20
149.923496
11
162.761843
21
148.919319
0
LINE
8
Layer 1
10
162.761843
20
148.919319
11
161.735945
21
148.012099
0
LINE
8
Layer 1
10
161.735945
20
148.012099
11
161.619581
21
147.692848
0
LINE
8
Layer 1
10
161.619581
20
147.692848
11
161.738586
21
147.482319
0
LINE
8
Layer 1
10
161.738586
20
147.482319
11
162.071193
21
147.394872
0
LINE
8
Layer 1
10
162.071193
20
147.394872
11
162.595635
21
147.444870
0
LINE
8
Layer 1
10
162.595635
20
147.444870
11
164.132963
21
148.014642
0
LINE
8
Layer 1
10
164.132963
20
148.014642
11
166.510064
21
149.010082
0
LINE
8
Layer 1
10
166.510064
20
149.010082
11
167.425779
21
149.246842
0
LINE
8
Layer 1
10
167.425779
20
149.246842
11
168.048034
21
149.273748
0
LINE
8
Layer 1
10
168.048034
20
149.273748
11
168.139838
21
149.180756
0
LINE
8
Layer 1
10
168.139838
20
149.180756
11
168.019200
21
148.991724
0
LINE
8
Layer 1
10
168.019200
20
148.991724
11
167.231914
21
148.385664
0
LINE
8
Layer 1
10
167.231914
20
148.385664
11
164.112502
21
146.682432
0
LINE
8
Layer 1
10
164.112502
20
146.682432
11
162.730763
21
145.879023
0
LINE
8
Layer 1
10
162.730763
20
145.879023
11
162.538075
21
145.473333
0
LINE
8
Layer 1
10
162.538075
20
145.473333
11
162.504428
21
144.869902
0
LINE
8
Layer 1
10
162.504428
20
144.869902
11
162.671736
21
143.602766
0
LINE
8
Layer 1
10
162.671736
20
143.602766
11
163.068872
21
142.030806
0
LINE
8
Layer 1
10
163.068872
20
142.030806
11
163.629676
21
139.411391
0
LINE
8
Layer 1
10
163.629676
20
139.411391
11
163.734959
21
138.784536
0
LINE
8
Layer 1
10
163.734959
20
138.784536
11
163.988070
21
138.443485
0
LINE
8
Layer 1
10
163.988070
20
138.443485
11
164.837559
21
138.549193
0
LINE
8
Layer 1
10
164.837559
20
138.549193
11
166.376658
21
138.996471
0
LINE
8
Layer 1
10
166.376658
20
138.996471
11
168.040739
21
139.497791
0
LINE
8
Layer 1
10
168.040739
20
139.497791
11
168.201576
21
139.427144
0
LINE
8
Layer 1
10
168.201576
20
139.427144
11
168.076256
21
139.157583
0
LINE
8
Layer 1
10
168.076256
20
139.157583
11
167.279681
21
138.524155
0
LINE
8
Layer 1
10
167.279681
20
138.524155
11
165.828780
21
137.744640
0
LINE
8
Layer 1
10
165.828780
20
137.744640
11
164.452668
21
136.991812
0
LINE
8
Layer 1
10
164.452668
20
136.991812
11
163.911898
21
136.440895
0
LINE
8
Layer 1
10
163.911898
20
136.440895
11
164.041018
21
136.168480
0
LINE
8
Layer 1
10
164.041018
20
136.168480
11
164.405787
21
136.165771
0
LINE
8
Layer 1
10
164.405787
20
136.165771
11
166.028565
21
136.484510
0
LINE
8
Layer 1
10
166.028565
20
136.484510
11
166.904851
21
136.567931
0
LINE
8
Layer 1
10
166.904851
20
136.567931
11
166.593009
21
136.226959
0
LINE
8
Layer 1
10
166.593009
20
136.226959
11
164.884267
21
135.042125
0
LINE
8
Layer 1
10
164.884267
20
135.042125
11
164.506049
21
134.668283
0
LINE
8
Layer 1
10
164.506049
20
134.668283
11
164.263268
21
134.159705
0
LINE
8
Layer 1
10
164.263268
20
134.159705
11
164.215227
21
133.711487
0
LINE
8
Layer 1
10
164.215227
20
133.711487
11
164.421225
21
133.518727
0
LINE
8
Layer 1
10
164.421225
20
133.518727
11
165.887454
21
133.942060
0
LINE
8
Layer 1
10
165.887454
20
133.942060
11
167.545735
21
134.357121
0
LINE
8
Layer 1
10
167.545735
20
134.357121
11
167.697061
21
134.280962
0
LINE
8
Layer 1
10
167.697061
20
134.280962
11
167.638157
21
134.086638
0
LINE
8
Layer 1
10
167.638157
20
134.086638
11
167.064197
21
133.489745
0
LINE
8
Layer 1
10
167.064197
20
133.489745
11
166.172932
21
132.858935
0
LINE
8
Layer 1
10
166.172932
20
132.858935
11
165.313442
21
132.486699
0
LINE
8
Layer 1
10
165.313442
20
132.486699
11
164.625698
21
132.241904
0
LINE
8
Layer 1
10
164.625698
20
132.241904
11
164.129915
21
131.884894
0
LINE
8
Layer 1
10
164.129915
20
131.884894
11
163.984235
21
131.553026
0
LINE
8
Layer 1
10
163.984235
20
131.553026
11
164.655102
21
131.623043
0
LINE
8
Layer 1
10
164.655102
20
131.623043
11
166.277880
21
131.983460
0
LINE
8
Layer 1
10
166.277880
20
131.983460
11
166.836092
21
132.036275
0
LINE
8
Layer 1
10
166.836092
20
132.036275
11
166.998859
21
131.858200
0
LINE
8
Layer 1
10
166.998859
20
131.858200
11
166.774085
21
131.515626
0
LINE
8
Layer 1
10
166.774085
20
131.515626
11
166.169676
21
131.074945
0
LINE
8
Layer 1
10
166.169676
20
131.074945
11
165.361427
21
130.400358
0
LINE
8
Layer 1
10
165.361427
20
130.400358
11
165.399254
21
130.203207
0
LINE
8
Layer 1
10
165.399254
20
130.203207
11
165.746343
21
130.132060
0
LINE
8
Layer 1
10
165.746343
20
130.132060
11
166.045322
21
130.017763
0
LINE
8
Layer 1
10
166.045322
20
130.017763
11
166.169676
21
129.742966
0
LINE
8
Layer 1
10
166.169676
20
129.742966
11
166.063323
21
129.488183
0
LINE
8
Layer 1
10
166.063323
20
129.488183
11
165.715559
21
129.231107
0
LINE
8
Layer 1
10
165.715559
20
129.231107
11
164.123565
21
128.615149
0
LINE
8
Layer 1
10
164.123565
20
128.615149
11
163.678332
21
128.384778
0
LINE
8
Layer 1
10
163.678332
20
128.384778
11
163.652758
21
128.172417
0
LINE
8
Layer 1
10
163.652758
20
128.172417
11
163.986059
21
128.045151
0
LINE
8
Layer 1
10
163.986059
20
128.045151
11
164.617454
21
128.070062
0
LINE
8
Layer 1
10
164.617454
20
128.070062
11
165.315072
21
128.116775
0
LINE
8
Layer 1
10
165.315072
20
128.116775
11
165.605231
21
128.003986
0
LINE
8
Layer 1
10
165.605231
20
128.003986
11
165.456603
21
127.646414
0
LINE
8
Layer 1
10
165.456603
20
127.646414
11
165.099891
21
127.231653
0
LINE
8
Layer 1
10
165.099891
20
127.231653
11
164.668852
21
126.888409
0
LINE
8
Layer 1
10
164.668852
20
126.888409
11
164.297244
21
126.745393
0
LINE
8
Layer 1
10
164.297244
20
126.745393
11
163.860304
21
126.406478
0
LINE
8
Layer 1
10
163.860304
20
126.406478
11
163.334782
21
125.591641
0
LINE
8
Layer 1
10
163.334782
20
125.591641
11
162.746179
21
124.437885
0
LINE
8
Layer 1
10
162.746179
20
124.437885
11
163.399608
21
124.640080
0
LINE
8
Layer 1
10
163.399608
20
124.640080
11
164.273217
21
125.166031
0
LINE
8
Layer 1
10
164.273217
20
125.166031
11
165.456049
21
126.146614
0
LINE
8
Layer 1
10
165.456049
20
126.146614
11
165.456049
21
126.146614
0
LINE
8
Layer 1
10
164.327611
20
140.022199
11
164.276979
21
140.375849
0
LINE
8
Layer 1
10
164.276979
20
140.375849
11
164.535983
21
140.739381
0
LINE
8
Layer 1
10
164.535983
20
140.739381
11
165.905008
21
141.426737
0
LINE
8
Layer 1
10
165.905008
20
141.426737
11
166.861219
21
141.656408
0
LINE
8
Layer 1
10
166.861219
20
141.656408
11
167.269552
21
141.467908
0
LINE
8
Layer 1
10
167.269552
20
141.467908
11
167.694946
21
141.292003
0
LINE
8
Layer 1
10
167.694946
20
141.292003
11
168.703100
21
141.559740
0
LINE
8
Layer 1
10
168.703100
20
141.559740
11
169.864554
21
141.845943
0
LINE
8
Layer 1
10
169.864554
20
141.845943
11
170.117116
21
141.803048
0
LINE
8
Layer 1
10
170.117116
20
141.803048
11
170.158368
21
141.658767
0
LINE
8
Layer 1
10
170.158368
20
141.658767
11
169.629355
21
141.133872
0
LINE
8
Layer 1
10
169.629355
20
141.133872
11
168.322326
21
140.406922
0
LINE
8
Layer 1
10
168.322326
20
140.406922
11
167.114122
21
139.980728
0
LINE
8
Layer 1
10
167.114122
20
139.980728
11
165.886152
21
139.759187
0
LINE
8
Layer 1
10
165.886152
20
139.759187
11
164.877590
21
139.765333
0
LINE
8
Layer 1
10
164.877590
20
139.765333
11
164.327611
21
140.022199
0
LINE
8
Layer 1
10
164.327611
20
140.022199
11
164.327611
21
140.022199
0
LINE
8
Layer 1
10
149.951550
20
166.006407
11
150.275698
21
166.755658
0
LINE
8
Layer 1
10
150.275698
20
166.755658
11
150.773886
21
167.440552
0
LINE
8
Layer 1
10
150.773886
20
167.440552
11
152.481898
21
168.828686
0
LINE
8
Layer 1
10
152.481898
20
168.828686
11
154.457454
21
170.224947
0
LINE
8
Layer 1
10
154.457454
20
170.224947
11
155.533567
21
170.869077
0
LINE
8
Layer 1
10
155.533567
20
170.869077
11
155.865129
21
170.884765
0
LINE
8
Layer 1
10
155.865129
20
170.884765
11
155.450396
21
170.214840
0
LINE
8
Layer 1
10
155.450396
20
170.214840
11
154.258478
21
168.754571
0
LINE
8
Layer 1
10
154.258478
20
168.754571
11
152.815531
21
167.266972
0
LINE
8
Layer 1
10
152.815531
20
167.266972
11
151.463838
21
166.079662
0
LINE
8
Layer 1
10
151.463838
20
166.079662
11
150.545684
21
165.520263
0
LINE
8
Layer 1
10
150.545684
20
165.520263
11
149.892774
21
165.463210
0
LINE
8
Layer 1
10
149.892774
20
165.463210
11
149.951550
21
166.006407
0
LINE
8
Layer 1
10
149.951550
20
166.006407
11
149.951550
21
166.006407
0
LINE
8
Layer 1
10
106.230784
20
181.122506
11
105.845178
21
182.555706
0
LINE
8
Layer 1
10
105.845178
20
182.555706
11
105.521831
21
184.895759
0
LINE
8
Layer 1
10
105.521831
20
184.895759
11
105.303307
21
187.735741
0
LINE
8
Layer 1
10
105.303307
20
187.735741
11
105.232169
21
190.668727
0
LINE
8
Layer 1
10
105.232169
20
190.668727
11
105.298369
21
192.104890
0
LINE
8
Layer 1
10
105.298369
20
192.104890
11
105.376754
21
192.362050
0
LINE
8
Layer 1
10
105.376754
20
192.362050
11
105.489464
21
192.305118
0
LINE
8
Layer 1
10
105.489464
20
192.305118
11
105.830260
21
191.228539
0
LINE
8
Layer 1
10
105.830260
20
191.228539
11
106.345564
21
188.834282
0
LINE
8
Layer 1
10
106.345564
20
188.834282
11
107.749676
21
180.176794
0
LINE
8
Layer 1
10
107.749676
20
180.176794
11
107.237499
21
180.085393
0
LINE
8
Layer 1
10
107.237499
20
180.085393
11
106.730109
21
180.366949
0
LINE
8
Layer 1
10
106.730109
20
180.366949
11
106.230784
21
181.122506
0
LINE
8
Layer 1
10
106.230784
20
181.122506
11
106.230784
21
181.122506
0
LINE
8
Layer 1
10
120.754194
20
190.645209
11
120.788544
21
190.977150
0
LINE
8
Layer 1
10
120.788544
20
190.977150
11
120.902417
21
191.015626
0
LINE
8
Layer 1
10
120.902417
20
191.015626
11
120.924684
21
190.474699
0
LINE
8
Layer 1
10
120.924684
20
190.474699
11
120.810737
21
190.352237
0
LINE
8
Layer 1
10
120.810737
20
190.352237
11
120.754194
21
190.645209
0
LINE
8
Layer 1
10
120.754194
20
190.645209
11
120.754194
21
190.645209
0
LINE
8
Layer 1
10
138.001810
20
204.003727
11
138.797549
21
206.037546
0
LINE
8
Layer 1
10
138.797549
20
206.037546
11
139.626732
21
207.311145
0
LINE
8
Layer 1
10
139.626732
20
207.311145
11
139.713844
21
207.159207
0
LINE
8
Layer 1
10
139.713844
20
207.159207
11
139.535377
21
206.554183
0
LINE
8
Layer 1
10
139.535377
20
206.554183
11
138.675418
21
204.285949
0
LINE
8
Layer 1
10
138.675418
20
204.285949
11
138.265180
21
203.357860
0
LINE
8
Layer 1
10
138.265180
20
203.357860
11
137.963043
21
202.979202
0
LINE
8
Layer 1
10
137.963043
20
202.979202
11
137.848691
21
203.183362
0
LINE
8
Layer 1
10
137.848691
20
203.183362
11
138.001810
21
204.003727
0
LINE
8
Layer 1
10
138.001810
20
204.003727
11
138.001810
21
204.003727
0
LINE
8
Layer 1
10
17.806604
20
126.674838
11
17.099977
21
128.656081
0
LINE
8
Layer 1
10
17.099977
20
128.656081
11
16.483323
21
129.930659
0
LINE
8
Layer 1
10
16.483323
20
129.930659
11
15.727833
21
130.867293
0
LINE
8
Layer 1
10
15.727833
20
130.867293
11
14.604702
21
131.834704
0
LINE
8
Layer 1
10
14.604702
20
131.834704
11
13.179331
21
132.906594
0
LINE
8
Layer 1
10
13.179331
20
132.906594
11
11.853266
21
133.723532
0
LINE
8
Layer 1
10
11.853266
20
133.723532
11
10.391838
21
134.412272
0
LINE
8
Layer 1
10
10.391838
20
134.412272
11
8.560380
21
135.099572
0
LINE
8
Layer 1
10
8.560380
20
135.099572
11
6.669294
21
135.628150
0
LINE
8
Layer 1
10
6.669294
20
135.628150
11
6.018937
21
135.567357
0
LINE
8
Layer 1
10
6.018937
20
135.567357
11
5.173713
21
135.314724
0
LINE
8
Layer 1
10
5.173713
20
135.314724
11
4.107869
21
134.892712
0
LINE
8
Layer 1
10
4.107869
20
134.892712
11
3.543448
21
134.535443
0
LINE
8
Layer 1
10
3.543448
20
134.535443
11
3.326939
21
133.823333
0
LINE
8
Layer 1
10
3.326939
20
133.823333
11
3.351615
21
132.855449
0
LINE
8
Layer 1
10
3.351615
20
132.855449
11
3.591492
21
131.827801
0
LINE
8
Layer 1
10
3.591492
20
131.827801
11
4.020584
21
130.936396
0
LINE
8
Layer 1
10
4.020584
20
130.936396
11
4.932369
21
129.937282
0
LINE
8
Layer 1
10
4.932369
20
129.937282
11
6.301509
21
128.738704
0
LINE
8
Layer 1
10
6.301509
20
128.738704
11
7.645980
21
127.732332
0
LINE
8
Layer 1
10
7.645980
20
127.732332
11
8.483757
21
127.309838
0
LINE
8
Layer 1
10
8.483757
20
127.309838
11
9.303364
21
126.841944
0
LINE
8
Layer 1
10
9.303364
20
126.841944
11
10.379604
21
126.430356
0
LINE
8
Layer 1
10
10.379604
20
126.430356
11
12.729528
21
126.147006
0
LINE
8
Layer 1
10
12.729528
20
126.147006
11
16.326955
21
125.645009
0
LINE
8
Layer 1
10
16.326955
20
125.645009
11
17.636726
21
125.352172
0
LINE
8
Layer 1
10
17.636726
20
125.352172
11
17.986677
21
125.364154
0
LINE
8
Layer 1
10
17.986677
20
125.364154
11
18.121247
21
125.507669
0
LINE
8
Layer 1
10
18.121247
20
125.507669
11
17.806604
21
126.674838
0
LINE
8
Layer 1
10
17.806604
20
126.674838
11
17.806604
21
126.674838
0
LINE
8
Layer 1
10
71.276292
20
140.080393
11
71.007031
21
143.063355
0
LINE
8
Layer 1
10
71.007031
20
143.063355
11
70.276125
21
145.372060
0
LINE
8
Layer 1
10
70.276125
20
145.372060
11
66.118935
21
155.249838
0
LINE
8
Layer 1
10
66.118935
20
155.249838
11
64.592358
21
158.995670
0
LINE
8
Layer 1
10
64.592358
20
158.995670
11
63.489128
21
162.235703
0
LINE
8
Layer 1
10
63.489128
20
162.235703
11
62.819598
21
164.935260
0
LINE
8
Layer 1
10
62.819598
20
164.935260
11
62.594120
21
167.059661
0
LINE
8
Layer 1
10
62.594120
20
167.059661
11
62.551135
21
168.060925
0
LINE
8
Layer 1
10
62.551135
20
168.060925
11
62.402068
21
168.538335
0
LINE
8
Layer 1
10
62.402068
20
168.538335
11
62.116751
21
168.524056
0
LINE
8
Layer 1
10
62.116751
20
168.524056
11
61.665017
21
168.050250
0
LINE
8
Layer 1
10
61.665017
20
168.050250
11
61.010681
21
167.485828
0
LINE
8
Layer 1
10
61.010681
20
167.485828
11
60.079718
21
167.467568
0
LINE
8
Layer 1
10
60.079718
20
167.467568
11
58.523460
21
167.829916
0
LINE
8
Layer 1
10
58.523460
20
167.829916
11
58.128331
21
167.910746
0
LINE
8
Layer 1
10
58.128331
20
167.910746
11
58.150842
21
167.604096
0
LINE
8
Layer 1
10
58.150842
20
167.604096
11
58.655822
21
163.815655
0
LINE
8
Layer 1
10
58.655822
20
163.815655
11
58.817056
21
161.753859
0
LINE
8
Layer 1
10
58.817056
20
161.753859
11
58.803558
21
159.638595
0
LINE
8
Layer 1
10
58.803558
20
159.638595
11
58.079694
21
151.580949
0
LINE
8
Layer 1
10
58.079694
20
151.580949
11
57.426649
21
144.266024
0
LINE
8
Layer 1
10
57.426649
20
144.266024
11
57.306772
21
140.209199
0
LINE
8
Layer 1
10
57.306772
20
140.209199
11
57.549963
21
137.624464
0
LINE
8
Layer 1
10
57.549963
20
137.624464
11
62.196667
21
137.257694
0
LINE
8
Layer 1
10
62.196667
20
137.257694
11
69.050208
21
136.948472
0
LINE
8
Layer 1
10
69.050208
20
136.948472
11
71.414045
21
136.905393
0
LINE
8
Layer 1
10
71.414045
20
136.905393
11
71.276292
21
140.080393
0
LINE
8
Layer 1
10
71.276292
20
140.080393
11
71.276292
21
140.080393
0
LINE
8
Layer 1
10
55.950553
20
139.657060
11
56.409615
21
144.243171
0
LINE
8
Layer 1
10
56.409615
20
144.243171
11
57.351233
21
153.887878
0
LINE
8
Layer 1
10
57.351233
20
153.887878
11
57.741232
21
160.334193
0
LINE
8
Layer 1
10
57.741232
20
160.334193
11
57.600867
21
164.484155
0
LINE
8
Layer 1
10
57.600867
20
164.484155
11
57.338442
21
165.979892
0
LINE
8
Layer 1
10
57.338442
20
165.979892
11
56.951397
21
167.239806
0
LINE
8
Layer 1
10
56.951397
20
167.239806
11
56.689552
21
167.928502
0
LINE
8
Layer 1
10
56.689552
20
167.928502
11
55.805321
21
167.044291
0
LINE
8
Layer 1
10
55.805321
20
167.044291
11
55.323350
21
166.498415
0
LINE
8
Layer 1
10
55.323350
20
166.498415
11
55.026233
21
165.912368
0
LINE
8
Layer 1
10
55.026233
20
165.912368
11
54.689104
21
163.738848
0
LINE
8
Layer 1
10
54.689104
20
163.738848
11
53.848653
21
157.823702
0
LINE
8
Layer 1
10
53.848653
20
157.823702
11
52.856946
21
153.272843
0
LINE
8
Layer 1
10
52.856946
20
153.272843
11
51.606588
21
150.489175
0
LINE
8
Layer 1
10
51.606588
20
150.489175
11
49.782545
21
146.678543
0
LINE
8
Layer 1
10
49.782545
20
146.678543
11
48.418902
21
143.202394
0
LINE
8
Layer 1
10
48.418902
20
143.202394
11
47.633830
21
140.405711
0
LINE
8
Layer 1
10
47.633830
20
140.405711
11
47.495185
21
139.369976
0
LINE
8
Layer 1
10
47.495185
20
139.369976
11
47.545495
21
138.633477
0
LINE
8
Layer 1
10
47.545495
20
138.633477
11
47.819951
21
138.244785
0
LINE
8
Layer 1
10
47.819951
20
138.244785
11
48.609759
21
138.009791
0
LINE
8
Layer 1
10
48.609759
20
138.009791
11
53.046655
21
137.802930
0
LINE
8
Layer 1
10
53.046655
20
137.802930
11
55.775857
21
137.752060
0
LINE
8
Layer 1
10
55.775857
20
137.752060
11
55.950553
21
139.657060
0
LINE
8
Layer 1
10
55.950553
20
139.657060
11
55.950553
21
139.657060
0
LINE
8
Layer 1
10
77.115441
20
166.609282
11
78.406248
21
168.175082
0
LINE
8
Layer 1
10
78.406248
20
168.175082
11
80.432004
21
170.255339
0
LINE
8
Layer 1
10
80.432004
20
170.255339
11
82.981148
21
172.701952
0
LINE
8
Layer 1
10
82.981148
20
172.701952
11
81.889315
21
173.260207
0
LINE
8
Layer 1
10
81.889315
20
173.260207
11
80.523832
21
174.119582
0
LINE
8
Layer 1
10
80.523832
20
174.119582
11
78.469120
21
175.899702
0
LINE
8
Layer 1
10
78.469120
20
175.899702
11
78.017720
21
176.442913
0
LINE
8
Layer 1
10
78.017720
20
176.442913
11
77.824130
21
176.940015
0
LINE
8
Layer 1
10
77.824130
20
176.940015
11
77.437993
21
178.083032
0
LINE
8
Layer 1
10
77.437993
20
178.083032
11
77.214797
21
178.446585
0
LINE
8
Layer 1
10
77.214797
20
178.446585
11
77.051095
21
178.492288
0
LINE
8
Layer 1
10
77.051095
20
178.492288
11
76.603236
21
177.377477
0
LINE
8
Layer 1
10
76.603236
20
177.377477
11
76.176744
21
175.626110
0
LINE
8
Layer 1
10
76.176744
20
175.626110
11
75.755151
21
173.186409
0
LINE
8
Layer 1
10
75.755151
20
173.186409
11
75.299285
21
168.716884
0
LINE
8
Layer 1
10
75.299285
20
168.716884
11
75.636974
21
166.621720
0
LINE
8
Layer 1
10
75.636974
20
166.621720
11
75.942211
21
165.760948
0
LINE
8
Layer 1
10
75.942211
20
165.760948
11
76.229997
21
165.409838
0
LINE
8
Layer 1
10
76.229997
20
165.409838
11
77.115441
21
166.609282
0
LINE
8
Layer 1
10
77.115441
20
166.609282
11
77.115441
21
166.609282
0
LINE
8
Layer 1
10
43.289025
20
178.351601
11
47.275521
21
180.044934
0
LINE
8
Layer 1
10
47.275521
20
180.044934
11
48.709843
21
180.653810
0
LINE
8
Layer 1
10
48.709843
20
180.653810
11
50.075085
21
180.896247
0
LINE
8
Layer 1
10
50.075085
20
180.896247
11
51.696554
21
180.786722
0
LINE
8
Layer 1
10
51.696554
20
180.786722
11
53.899559
21
180.339712
0
LINE
8
Layer 1
10
53.899559
20
180.339712
11
55.851280
21
179.968630
0
LINE
8
Layer 1
10
55.851280
20
179.968630
11
57.280472
21
179.950217
0
LINE
8
Layer 1
10
57.280472
20
179.950217
11
58.413103
21
180.315028
0
LINE
8
Layer 1
10
58.413103
20
180.315028
11
59.475141
21
181.093618
0
LINE
8
Layer 1
10
59.475141
20
181.093618
11
60.326970
21
182.103057
0
LINE
8
Layer 1
10
60.326970
20
182.103057
11
60.754578
21
183.214714
0
LINE
8
Layer 1
10
60.754578
20
183.214714
11
60.759885
21
184.438949
0
LINE
8
Layer 1
10
60.759885
20
184.438949
11
60.344809
21
185.786118
0
LINE
8
Layer 1
10
60.344809
20
185.786118
11
59.725098
21
186.847907
0
LINE
8
Layer 1
10
59.725098
20
186.847907
11
58.892296
21
187.822101
0
LINE
8
Layer 1
10
58.892296
20
187.822101
11
57.975124
21
188.581205
0
LINE
8
Layer 1
10
57.975124
20
188.581205
11
57.102302
21
188.997725
0
LINE
8
Layer 1
10
57.102302
20
188.997725
11
56.220735
21
189.021349
0
LINE
8
Layer 1
10
56.220735
20
189.021349
11
55.061355
21
188.837172
0
LINE
8
Layer 1
10
55.061355
20
188.837172
11
52.783765
21
188.356184
0
LINE
8
Layer 1
10
52.783765
20
188.356184
11
52.074710
21
188.353025
0
LINE
8
Layer 1
10
52.074710
20
188.353025
11
51.973171
21
188.463951
0
LINE
8
Layer 1
10
51.973171
20
188.463951
11
52.032148
21
188.637867
0
LINE
8
Layer 1
10
52.032148
20
188.637867
11
52.607223
21
189.138628
0
LINE
8
Layer 1
10
52.607223
20
189.138628
11
53.751082
21
189.783223
0
LINE
8
Layer 1
10
53.751082
20
189.783223
11
55.331414
21
190.558301
0
LINE
8
Layer 1
10
55.331414
20
190.558301
11
55.138995
21
192.730182
0
LINE
8
Layer 1
10
55.138995
20
192.730182
11
54.532226
21
196.333899
0
LINE
8
Layer 1
10
54.532226
20
196.333899
11
53.428985
21
199.791321
0
LINE
8
Layer 1
10
53.428985
20
199.791321
11
51.955482
21
202.786396
0
LINE
8
Layer 1
10
51.955482
20
202.786396
11
51.119321
21
204.011786
0
LINE
8
Layer 1
10
51.119321
20
204.011786
11
50.237923
21
205.003070
0
LINE
8
Layer 1
10
50.237923
20
205.003070
11
49.416297
21
205.590271
0
LINE
8
Layer 1
10
49.416297
20
205.590271
11
48.473555
21
205.482681
0
LINE
8
Layer 1
10
48.473555
20
205.482681
11
46.784735
21
204.730119
0
LINE
8
Layer 1
10
46.784735
20
204.730119
11
45.065854
21
203.420419
0
LINE
8
Layer 1
10
45.065854
20
203.420419
11
43.288094
21
201.527184
0
LINE
8
Layer 1
10
43.288094
20
201.527184
11
41.422636
21
199.024014
0
LINE
8
Layer 1
10
41.422636
20
199.024014
11
39.633504
21
196.787322
0
LINE
8
Layer 1
10
39.633504
20
196.787322
11
37.058338
21
193.944014
0
LINE
8
Layer 1
10
37.058338
20
193.944014
11
34.821357
21
191.504345
0
LINE
8
Layer 1
10
34.821357
20
191.504345
11
33.270893
21
189.540663
0
LINE
8
Layer 1
10
33.270893
20
189.540663
11
32.265762
21
187.851149
0
LINE
8
Layer 1
10
32.265762
20
187.851149
11
31.664783
21
186.233983
0
LINE
8
Layer 1
10
31.664783
20
186.233983
11
31.424262
21
184.919618
0
LINE
8
Layer 1
10
31.424262
20
184.919618
11
31.457737
21
183.665152
0
LINE
8
Layer 1
10
31.457737
20
183.665152
11
31.779263
21
182.369621
0
LINE
8
Layer 1
10
31.779263
20
182.369621
11
32.402896
21
180.932060
0
LINE
8
Layer 1
10
32.402896
20
180.932060
11
33.072976
21
179.838360
0
LINE
8
Layer 1
10
33.072976
20
179.838360
11
33.876717
21
179.032242
0
LINE
8
Layer 1
10
33.876717
20
179.032242
11
34.921946
21
178.431674
0
LINE
8
Layer 1
10
34.921946
20
178.431674
11
36.316488
21
177.954624
0
LINE
8
Layer 1
10
36.316488
20
177.954624
11
38.012688
21
177.627864
0
LINE
8
Layer 1
10
38.012688
20
177.627864
11
39.724166
21
177.584196
0
LINE
8
Layer 1
10
39.724166
20
177.584196
11
41.474939
21
177.824985
0
LINE
8
Layer 1
10
41.474939
20
177.824985
11
43.289025
21
178.351601
0
LINE
8
Layer 1
10
43.289025
20
178.351601
11
43.289025
21
178.351601
0
LINE
8
Layer 1
10
39.574394
20
180.200218
11
39.544261
21
180.827293
0
LINE
8
Layer 1
10
39.544261
20
180.827293
11
39.715658
21
181.429549
0
LINE
8
Layer 1
10
39.715658
20
181.429549
11
40.031064
21
181.882322
0
LINE
8
Layer 1
10
40.031064
20
181.882322
11
40.432956
21
182.060949
0
LINE
8
Layer 1
10
40.432956
20
182.060949
11
40.817407
21
181.965599
0
LINE
8
Layer 1
10
40.817407
20
181.965599
11
41.016193
21
181.676871
0
LINE
8
Layer 1
10
41.016193
20
181.676871
11
41.030421
21
181.190747
0
LINE
8
Layer 1
10
41.030421
20
181.190747
11
40.861194
21
180.503209
0
LINE
8
Layer 1
10
40.861194
20
180.503209
11
40.537043
21
179.838314
0
LINE
8
Layer 1
10
40.537043
20
179.838314
11
40.170372
21
179.555788
0
LINE
8
Layer 1
10
40.170372
20
179.555788
11
39.827413
21
179.671224
0
LINE
8
Layer 1
10
39.827413
20
179.671224
11
39.574394
21
180.200218
0
LINE
8
Layer 1
10
39.574394
20
180.200218
11
39.574394
21
180.200218
0
LINE
8
Layer 1
10
37.634796
20
180.283090
11
37.655050
21
180.782890
0
LINE
8
Layer 1
10
37.655050
20
180.782890
11
37.939745
21
181.399154
0
LINE
8
Layer 1
10
37.939745
20
181.399154
11
38.382494
21
181.959769
0
LINE
8
Layer 1
10
38.382494
20
181.959769
11
38.876913
21
182.292619
0
LINE
8
Layer 1
10
38.876913
20
182.292619
11
39.048663
21
182.307389
0
LINE
8
Layer 1
10
39.048663
20
182.307389
11
39.134588
21
182.193045
0
LINE
8
Layer 1
10
39.134588
20
182.193045
11
39.069732
21
181.490645
0
LINE
8
Layer 1
10
39.069732
20
181.490645
11
38.769282
21
180.530813
0
LINE
8
Layer 1
10
38.769282
20
180.530813
11
38.375639
21
179.963881
0
LINE
8
Layer 1
10
38.375639
20
179.963881
11
37.970308
21
179.858443
0
LINE
8
Layer 1
10
37.970308
20
179.858443
11
37.634796
21
180.283090
0
LINE
8
Layer 1
10
37.634796
20
180.283090
11
37.634796
21
180.283090
0
LINE
8
Layer 1
10
36.065237
20
180.893999
11
36.232380
21
181.464185
0
LINE
8
Layer 1
10
36.232380
20
181.464185
11
36.633190
21
182.127970
0
LINE
8
Layer 1
10
36.633190
20
182.127970
11
37.116742
21
182.678174
0
LINE
8
Layer 1
10
37.116742
20
182.678174
11
37.532110
21
182.907615
0
LINE
8
Layer 1
10
37.532110
20
182.907615
11
37.690157
21
182.647392
0
LINE
8
Layer 1
10
37.690157
20
182.647392
11
37.651553
21
182.033659
0
LINE
8
Layer 1
10
37.651553
20
182.033659
11
37.459674
21
181.316824
0
LINE
8
Layer 1
10
37.459674
20
181.316824
11
37.157894
21
180.747292
0
LINE
8
Layer 1
10
37.157894
20
180.747292
11
36.794344
21
180.451802
0
LINE
8
Layer 1
10
36.794344
20
180.451802
11
36.440168
21
180.384588
0
LINE
8
Layer 1
10
36.440168
20
180.384588
11
36.171690
21
180.535403
0
LINE
8
Layer 1
10
36.171690
20
180.535403
11
36.065237
21
180.893999
0
LINE
8
Layer 1
10
36.065237
20
180.893999
11
36.065237
21
180.893999
0
LINE
8
Layer 1
10
41.427459
20
181.073171
11
41.555345
21
181.621339
0
LINE
8
Layer 1
10
41.555345
20
181.621339
11
42.000760
21
181.778727
0
LINE
8
Layer 1
10
42.000760
20
181.778727
11
42.454774
21
181.646936
0
LINE
8
Layer 1
10
42.454774
20
181.646936
11
42.730144
21
181.331197
0
LINE
8
Layer 1
10
42.730144
20
181.331197
11
42.772361
21
180.950960
0
LINE
8
Layer 1
10
42.772361
20
180.950960
11
42.526918
21
180.625677
0
LINE
8
Layer 1
10
42.526918
20
180.625677
11
42.061549
21
180.407911
0
LINE
8
Layer 1
10
42.061549
20
180.407911
11
41.716230
21
180.412734
0
LINE
8
Layer 1
10
41.716230
20
180.412734
11
41.501390
21
180.635903
0
LINE
8
Layer 1
10
41.501390
20
180.635903
11
41.427459
21
181.073171
0
LINE
8
Layer 1
10
41.427459
20
181.073171
11
41.427459
21
181.073171
0
LINE
8
Layer 1
10
43.456741
20
181.708171
11
43.687450
21
182.056980
0
LINE
8
Layer 1
10
43.687450
20
182.056980
11
44.108570
21
182.202060
0
LINE
8
Layer 1
10
44.108570
20
182.202060
11
44.529690
21
182.056980
0
LINE
8
Layer 1
10
44.529690
20
182.056980
11
44.760399
21
181.708171
0
LINE
8
Layer 1
10
44.760399
20
181.708171
11
44.670998
21
181.322506
0
LINE
8
Layer 1
10
44.670998
20
181.322506
11
44.108570
21
181.214282
0
LINE
8
Layer 1
10
44.108570
20
181.214282
11
43.546143
21
181.322506
0
LINE
8
Layer 1
10
43.546143
20
181.322506
11
43.456741
21
181.708171
0
LINE
8
Layer 1
10
43.456741
20
181.708171
11
43.456741
21
181.708171
0
LINE
8
Layer 1
10
34.654126
20
182.305111
11
34.813923
21
183.053546
0
LINE
8
Layer 1
10
34.813923
20
183.053546
11
35.213861
21
183.799439
0
LINE
8
Layer 1
10
35.213861
20
183.799439
11
35.734756
21
184.372128
0
LINE
8
Layer 1
10
35.734756
20
184.372128
11
36.257428
21
184.600949
0
LINE
8
Layer 1
10
36.257428
20
184.600949
11
36.530130
21
184.402536
0
LINE
8
Layer 1
10
36.530130
20
184.402536
11
36.513546
21
183.881340
0
LINE
8
Layer 1
10
36.513546
20
183.881340
11
36.233911
21
183.148426
0
LINE
8
Layer 1
10
36.233911
20
183.148426
11
35.717457
21
182.314858
0
LINE
8
Layer 1
10
35.717457
20
182.314858
11
35.229044
21
181.733133
0
LINE
8
Layer 1
10
35.229044
20
181.733133
11
34.899332
21
181.537695
0
LINE
8
Layer 1
10
34.899332
20
181.537695
11
34.712849
21
181.728402
0
LINE
8
Layer 1
10
34.712849
20
181.728402
11
34.654126
21
182.305111
0
LINE
8
Layer 1
10
34.654126
20
182.305111
11
34.654126
21
182.305111
0
LINE
8
Layer 1
10
33.525237
20
183.473082
11
34.082934
21
184.796867
0
LINE
8
Layer 1
10
34.082934
20
184.796867
11
34.494035
21
185.917419
0
LINE
8
Layer 1
10
34.494035
20
185.917419
11
34.304103
21
185.960976
0
LINE
8
Layer 1
10
34.304103
20
185.960976
11
33.857523
21
185.634035
0
LINE
8
Layer 1
10
33.857523
20
185.634035
11
33.073988
21
185.186399
0
LINE
8
Layer 1
10
33.073988
20
185.186399
11
32.790010
21
185.181328
0
LINE
8
Layer 1
10
32.790010
20
185.181328
11
32.678570
21
185.346634
0
LINE
8
Layer 1
10
32.678570
20
185.346634
11
33.970392
21
187.039967
0
LINE
8
Layer 1
10
33.970392
20
187.039967
11
34.832759
21
188.178205
0
LINE
8
Layer 1
10
34.832759
20
188.178205
11
34.933792
21
188.459117
0
LINE
8
Layer 1
10
34.933792
20
188.459117
11
34.817058
21
188.552060
0
LINE
8
Layer 1
10
34.817058
20
188.552060
11
34.481498
21
188.601125
0
LINE
8
Layer 1
10
34.481498
20
188.601125
11
34.424384
21
188.802989
0
LINE
8
Layer 1
10
34.424384
20
188.802989
11
35.242286
21
189.993115
0
LINE
8
Layer 1
10
35.242286
20
189.993115
11
36.112958
21
190.821681
0
LINE
8
Layer 1
10
36.112958
20
190.821681
11
36.837965
21
191.136655
0
LINE
8
Layer 1
10
36.837965
20
191.136655
11
37.061228
21
191.093996
0
LINE
8
Layer 1
10
37.061228
20
191.093996
11
37.146535
21
190.913881
0
LINE
8
Layer 1
10
37.146535
20
190.913881
11
36.767894
21
190.129205
0
LINE
8
Layer 1
10
36.767894
20
190.129205
11
36.523897
21
189.571454
0
LINE
8
Layer 1
10
36.523897
20
189.571454
11
36.510598
21
188.988102
0
LINE
8
Layer 1
10
36.510598
20
188.988102
11
36.465856
21
188.354009
0
LINE
8
Layer 1
10
36.465856
20
188.354009
11
36.094577
21
187.665682
0
LINE
8
Layer 1
10
36.094577
20
187.665682
11
35.758326
21
187.076989
0
LINE
8
Layer 1
10
35.758326
20
187.076989
11
35.774511
21
186.690119
0
LINE
8
Layer 1
10
35.774511
20
186.690119
11
35.847789
21
186.147434
0
LINE
8
Layer 1
10
35.847789
20
186.147434
11
35.607254
21
185.268432
0
LINE
8
Layer 1
10
35.607254
20
185.268432
11
35.165085
21
184.348675
0
LINE
8
Layer 1
10
35.165085
20
184.348675
11
34.633462
21
183.683727
0
LINE
8
Layer 1
10
34.633462
20
183.683727
11
33.824568
21
183.211753
0
LINE
8
Layer 1
10
33.824568
20
183.211753
11
33.602854
21
183.249167
0
LINE
8
Layer 1
10
33.602854
20
183.249167
11
33.525237
21
183.473082
0
LINE
8
Layer 1
10
33.525237
20
183.473082
11
33.525237
21
183.473082
0
LINE
8
Layer 1
10
103.900645
20
179.662060
11
103.627256
21
180.085393
0
LINE
8
Layer 1
10
103.627256
20
180.085393
11
103.516343
21
179.662060
0
LINE
8
Layer 1
10
103.516343
20
179.662060
11
103.596645
21
179.363081
0
LINE
8
Layer 1
10
103.596645
20
179.363081
11
103.789703
21
179.238727
0
LINE
8
Layer 1
10
103.789703
20
179.238727
11
103.935058
21
179.363081
0
LINE
8
Layer 1
10
103.935058
20
179.363081
11
103.900645
21
179.662060
0
LINE
8
Layer 1
10
103.900645
20
179.662060
11
103.900645
21
179.662060
0
LINE
8
Layer 1
10
78.918221
20
183.472060
11
80.268400
21
184.318727
0
LINE
8
Layer 1
10
80.268400
20
184.318727
11
83.196512
21
186.389438
0
LINE
8
Layer 1
10
83.196512
20
186.389438
11
86.611288
21
189.112677
0
LINE
8
Layer 1
10
86.611288
20
189.112677
11
88.661632
21
191.048172
0
LINE
8
Layer 1
10
88.661632
20
191.048172
11
90.033582
21
192.494847
0
LINE
8
Layer 1
10
90.033582
20
192.494847
11
91.490289
21
194.309460
0
LINE
8
Layer 1
10
91.490289
20
194.309460
11
92.849291
21
196.248756
0
LINE
8
Layer 1
10
92.849291
20
196.248756
11
93.928125
21
198.069485
0
LINE
8
Layer 1
10
93.928125
20
198.069485
11
94.666064
21
199.969500
0
LINE
8
Layer 1
10
94.666064
20
199.969500
11
95.163757
21
202.124568
0
LINE
8
Layer 1
10
95.163757
20
202.124568
11
95.326688
21
203.963313
0
LINE
8
Layer 1
10
95.326688
20
203.963313
11
95.253083
21
204.585508
0
LINE
8
Layer 1
10
95.253083
20
204.585508
11
95.060344
21
204.914356
0
LINE
8
Layer 1
10
95.060344
20
204.914356
11
94.299752
21
205.186420
0
LINE
8
Layer 1
10
94.299752
20
205.186420
11
93.149569
21
205.357962
0
LINE
8
Layer 1
10
93.149569
20
205.357962
11
90.302359
21
205.343402
0
LINE
8
Layer 1
10
90.302359
20
205.343402
11
83.038873
21
204.430847
0
LINE
8
Layer 1
10
83.038873
20
204.430847
11
77.774854
21
203.614316
0
LINE
8
Layer 1
10
77.774854
20
203.614316
11
77.616763
21
203.211008
0
LINE
8
Layer 1
10
77.616763
20
203.211008
11
77.549753
21
202.434848
0
LINE
8
Layer 1
10
77.549753
20
202.434848
11
77.395960
21
201.145641
0
LINE
8
Layer 1
10
77.395960
20
201.145641
11
76.990389
21
199.609751
0
LINE
8
Layer 1
10
76.990389
20
199.609751
11
76.410023
21
198.067516
0
LINE
8
Layer 1
10
76.410023
20
198.067516
11
75.731847
21
196.759277
0
LINE
8
Layer 1
10
75.731847
20
196.759277
11
74.571889
21
195.225604
0
LINE
8
Layer 1
10
74.571889
20
195.225604
11
73.196733
21
194.041612
0
LINE
8
Layer 1
10
73.196733
20
194.041612
11
71.468628
21
193.113549
0
LINE
8
Layer 1
10
71.468628
20
193.113549
11
69.249823
21
192.347664
0
LINE
8
Layer 1
10
69.249823
20
192.347664
11
67.869732
21
192.067616
0
LINE
8
Layer 1
10
67.869732
20
192.067616
11
66.310572
21
191.941234
0
LINE
8
Layer 1
10
66.310572
20
191.941234
11
62.982112
21
192.107459
0
LINE
8
Layer 1
10
62.982112
20
192.107459
11
59.918586
21
192.762310
0
LINE
8
Layer 1
10
59.918586
20
192.762310
11
58.690591
21
193.246713
0
LINE
8
Layer 1
10
58.690591
20
193.246713
11
57.774132
21
193.821761
0
LINE
8
Layer 1
10
57.774132
20
193.821761
11
57.240228
21
194.167165
0
LINE
8
Layer 1
10
57.240228
20
194.167165
11
56.900361
21
194.099004
0
LINE
8
Layer 1
10
56.900361
20
194.099004
11
56.721790
21
193.580213
0
LINE
8
Layer 1
10
56.721790
20
193.580213
11
56.671772
21
192.573727
0
LINE
8
Layer 1
10
56.671772
20
192.573727
11
56.710894
21
191.431827
0
LINE
8
Layer 1
10
56.710894
20
191.431827
11
56.889499
21
190.745073
0
LINE
8
Layer 1
10
56.889499
20
190.745073
11
57.310939
21
190.322389
0
LINE
8
Layer 1
10
57.310939
20
190.322389
11
58.078565
21
189.972696
0
LINE
8
Layer 1
10
58.078565
20
189.972696
11
59.037705
21
189.483031
0
LINE
8
Layer 1
10
59.037705
20
189.483031
11
59.910430
21
188.786937
0
LINE
8
Layer 1
10
59.910430
20
188.786937
11
60.701627
21
187.879709
0
LINE
8
Layer 1
10
60.701627
20
187.879709
11
61.416181
21
186.756641
0
LINE
8
Layer 1
10
61.416181
20
186.756641
11
62.170787
21
185.384556
0
LINE
8
Layer 1
10
62.170787
20
185.384556
11
66.173037
21
185.565717
0
LINE
8
Layer 1
10
66.173037
20
185.565717
11
69.532271
21
185.629204
0
LINE
8
Layer 1
10
69.532271
20
185.629204
11
72.033297
21
185.442628
0
LINE
8
Layer 1
10
72.033297
20
185.442628
11
73.937380
21
184.966697
0
LINE
8
Layer 1
10
73.937380
20
184.966697
11
75.505787
21
184.162119
0
LINE
8
Layer 1
10
75.505787
20
184.162119
11
76.552214
21
183.389318
0
LINE
8
Layer 1
10
76.552214
20
183.389318
11
76.987454
21
182.904734
0
LINE
8
Layer 1
10
76.987454
20
182.904734
11
77.122710
21
182.657851
0
LINE
8
Layer 1
10
77.122710
20
182.657851
11
77.509036
21
182.675824
0
LINE
8
Layer 1
10
77.509036
20
182.675824
11
78.918221
21
183.472060
0
LINE
8
Layer 1
10
78.918221
20
183.472060
11
78.918221
21
183.472060
0
LINE
8
Layer 1
10
87.147454
20
194.781641
11
87.265775
21
195.202882
0
LINE
8
Layer 1
10
87.265775
20
195.202882
11
87.638097
21
195.272290
0
LINE
8
Layer 1
10
87.638097
20
195.272290
11
88.064940
21
195.044428
0
LINE
8
Layer 1
10
88.064940
20
195.044428
11
88.232446
21
194.681268
0
LINE
8
Layer 1
10
88.232446
20
194.681268
11
88.126400
21
194.344672
0
LINE
8
Layer 1
10
88.126400
20
194.344672
11
87.732585
21
194.196504
0
LINE
8
Layer 1
10
87.732585
20
194.196504
11
87.288572
21
194.337616
0
LINE
8
Layer 1
10
87.288572
20
194.337616
11
87.147454
21
194.781641
0
LINE
8
Layer 1
10
87.147454
20
194.781641
11
87.147454
21
194.781641
0
LINE
8
Layer 1
10
90.295501
20
197.174505
11
90.475912
21
197.566894
0
LINE
8
Layer 1
10
90.475912
20
197.566894
11
90.772739
21
197.803953
0
LINE
8
Layer 1
10
90.772739
20
197.803953
11
91.028330
21
197.766655
0
LINE
8
Layer 1
10
91.028330
20
197.766655
11
91.054961
21
197.427393
0
LINE
8
Layer 1
10
91.054961
20
197.427393
11
90.874551
21
197.035004
0
LINE
8
Layer 1
10
90.874551
20
197.035004
11
90.577724
21
196.797944
0
LINE
8
Layer 1
10
90.577724
20
196.797944
11
90.322143
21
196.835243
0
LINE
8
Layer 1
10
90.322143
20
196.835243
11
90.295501
21
197.174505
0
LINE
8
Layer 1
10
90.295501
20
197.174505
11
90.295501
21
197.174505
0
LINE
8
Layer 1
10
90.534120
20
199.793911
11
90.588156
21
200.238546
0
LINE
8
Layer 1
10
90.588156
20
200.238546
11
90.740728
21
200.489805
0
LINE
8
Layer 1
10
90.740728
20
200.489805
11
90.977533
21
200.536736
0
LINE
8
Layer 1
10
90.977533
20
200.536736
11
91.284267
21
200.368388
0
LINE
8
Layer 1
10
91.284267
20
200.368388
11
91.583661
21
200.000331
0
LINE
8
Layer 1
10
91.583661
20
200.000331
11
91.644224
21
199.646934
0
LINE
8
Layer 1
10
91.644224
20
199.646934
11
91.478382
21
199.381294
0
LINE
8
Layer 1
10
91.478382
20
199.381294
11
91.098565
21
199.276504
0
LINE
8
Layer 1
10
91.098565
20
199.276504
11
90.681648
21
199.411736
0
LINE
8
Layer 1
10
90.681648
20
199.411736
11
90.534120
21
199.793911
0
LINE
8
Layer 1
10
90.534120
20
199.793911
11
90.534120
21
199.793911
0
LINE
8
Layer 1
10
35.969344
20
194.147299
11
37.264325
21
195.311342
0
LINE
8
Layer 1
10
37.264325
20
195.311342
11
38.649287
21
196.769454
0
LINE
8
Layer 1
10
38.649287
20
196.769454
11
39.862692
21
198.228051
0
LINE
8
Layer 1
10
39.862692
20
198.228051
11
40.642997
21
199.393550
0
LINE
8
Layer 1
10
40.642997
20
199.393550
11
40.902876
21
200.190807
0
LINE
8
Layer 1
10
40.902876
20
200.190807
11
40.330817
21
200.860849
0
LINE
8
Layer 1
10
40.330817
20
200.860849
11
39.914836
21
201.246476
0
LINE
8
Layer 1
10
39.914836
20
201.246476
11
39.751043
21
201.537372
0
LINE
8
Layer 1
10
39.751043
20
201.537372
11
40.092644
21
202.399454
0
LINE
8
Layer 1
10
40.092644
20
202.399454
11
40.592276
21
203.293365
0
LINE
8
Layer 1
10
40.592276
20
203.293365
11
39.810422
21
203.158384
0
LINE
8
Layer 1
10
39.810422
20
203.158384
11
34.934159
21
202.000032
0
LINE
8
Layer 1
10
34.934159
20
202.000032
11
30.740875
21
200.668659
0
LINE
8
Layer 1
10
30.740875
20
200.668659
11
29.508738
21
200.125985
0
LINE
8
Layer 1
10
29.508738
20
200.125985
11
29.709372
21
198.520163
0
LINE
8
Layer 1
10
29.709372
20
198.520163
11
29.924798
21
197.150578
0
LINE
8
Layer 1
10
29.924798
20
197.150578
11
30.237515
21
196.171347
0
LINE
8
Layer 1
10
30.237515
20
196.171347
11
30.765745
21
195.325961
0
LINE
8
Layer 1
10
30.765745
20
195.325961
11
31.627710
21
194.357916
0
LINE
8
Layer 1
10
31.627710
20
194.357916
11
32.713694
21
193.410722
0
LINE
8
Layer 1
10
32.713694
20
193.410722
11
33.686971
21
193.065336
0
LINE
8
Layer 1
10
33.686971
20
193.065336
11
34.716026
21
193.313586
0
LINE
8
Layer 1
10
34.716026
20
193.313586
11
35.969344
21
194.147299
0
LINE
8
Layer 1
10
35.969344
20
194.147299
11
35.969344
21
194.147299
0
LINE
8
Layer 1
10
70.364432
20
194.095903
11
71.801047
21
194.983642
0
LINE
8
Layer 1
10
71.801047
20
194.983642
11
73.200314
21
196.244184
0
LINE
8
Layer 1
10
73.200314
20
196.244184
11
74.383934
21
197.690663
0
LINE
8
Layer 1
10
74.383934
20
197.690663
11
75.173611
21
199.136214
0
LINE
8
Layer 1
10
75.173611
20
199.136214
11
75.611151
21
201.024668
0
LINE
8
Layer 1
10
75.611151
20
201.024668
11
75.717454
21
204.403068
0
LINE
8
Layer 1
10
75.717454
20
204.403068
11
75.576343
21
208.400718
0
LINE
8
Layer 1
10
75.576343
20
208.400718
11
67.631635
21
208.025312
0
LINE
8
Layer 1
10
67.631635
20
208.025312
11
55.891343
21
207.153033
0
LINE
8
Layer 1
10
55.891343
20
207.153033
11
53.449679
21
206.858123
0
LINE
8
Layer 1
10
53.449679
20
206.858123
11
52.434120
21
206.615659
0
LINE
8
Layer 1
10
52.434120
20
206.615659
11
53.212461
21
203.984447
0
LINE
8
Layer 1
10
53.212461
20
203.984447
11
54.503712
21
200.517667
0
LINE
8
Layer 1
10
54.503712
20
200.517667
11
55.525949
21
197.724282
0
LINE
8
Layer 1
10
55.525949
20
197.724282
11
56.032397
21
196.296844
0
LINE
8
Layer 1
10
56.032397
20
196.296844
11
56.820578
21
195.757737
0
LINE
8
Layer 1
10
56.820578
20
195.757737
11
58.376355
21
194.980336
0
LINE
8
Layer 1
10
58.376355
20
194.980336
11
61.888565
21
193.589879
0
LINE
8
Layer 1
10
61.888565
20
193.589879
11
63.903208
21
193.241200
0
LINE
8
Layer 1
10
63.903208
20
193.241200
11
66.216552
21
193.222991
0
LINE
8
Layer 1
10
66.216552
20
193.222991
11
68.484869
21
193.514733
0
LINE
8
Layer 1
10
68.484869
20
193.514733
11
70.364432
21
194.095903
0
LINE
8
Layer 1
10
70.364432
20
194.095903
11
70.364432
21
194.095903
0
LINE
8
Layer 1
10
71.798798
20
204.205465
11
71.443124
21
204.917177
0
LINE
8
Layer 1
10
71.443124
20
204.917177
11
71.388232
21
205.545052
0
LINE
8
Layer 1
10
71.388232
20
205.545052
11
71.641457
21
206.134089
0
LINE
8
Layer 1
10
71.641457
20
206.134089
11
72.210137
21
206.729290
0
LINE
8
Layer 1
10
72.210137
20
206.729290
11
72.833061
21
207.157022
0
LINE
8
Layer 1
10
72.833061
20
207.157022
11
73.365093
21
207.250734
0
LINE
8
Layer 1
10
73.365093
20
207.250734
11
73.904051
21
206.995690
0
LINE
8
Layer 1
10
73.904051
20
206.995690
11
74.547755
21
206.377156
0
LINE
8
Layer 1
10
74.547755
20
206.377156
11
74.906968
21
205.739341
0
LINE
8
Layer 1
10
74.906968
20
205.739341
11
74.874428
21
204.937558
0
LINE
8
Layer 1
10
74.874428
20
204.937558
11
74.680031
21
204.419462
0
LINE
8
Layer 1
10
74.680031
20
204.419462
11
74.367901
21
204.008149
0
LINE
8
Layer 1
10
74.367901
20
204.008149
11
73.517302
21
203.536068
0
LINE
8
Layer 1
10
73.517302
20
203.536068
11
72.576359
21
203.581709
0
LINE
8
Layer 1
10
72.576359
20
203.581709
11
72.151298
21
203.817548
0
LINE
8
Layer 1
10
72.151298
20
203.817548
11
71.798798
21
204.205465
0
LINE
8
Layer 1
10
71.798798
20
204.205465
11
71.798798
21
204.205465
0
LINE
8
Layer 1
10
43.839627
20
203.529684
11
44.955237
21
204.678415
0
LINE
8
Layer 1
10
44.955237
20
204.678415
11
44.108570
21
204.494519
0
LINE
8
Layer 1
10
44.108570
20
204.494519
11
41.458035
21
203.609298
0
LINE
8
Layer 1
10
41.458035
20
203.609298
11
41.856764
21
203.116233
0
LINE
8
Layer 1
10
41.856764
20
203.116233
11
42.710738
21
202.390338
0
LINE
8
Layer 1
10
42.710738
20
202.390338
11
43.839627
21
203.529684
0
LINE
8
Layer 1
10
43.839627
20
203.529684
11
43.839627
21
203.529684
0
LINE
8
Layer 1
10
33.101904
20
204.945669
11
33.508529
21
205.139760
0
LINE
8
Layer 1
10
33.508529
20
205.139760
11
33.066626
21
205.185281
0
LINE
8
Layer 1
10
33.066626
20
205.185281
11
31.525581
21
205.006683
0
LINE
8
Layer 1
10
31.525581
20
205.006683
11
30.937614
21
204.814666
0
LINE
8
Layer 1
10
30.937614
20
204.814666
11
30.703015
21
204.610504
0
LINE
8
Layer 1
10
30.703015
20
204.610504
11
30.939485
21
204.503469
0
LINE
8
Layer 1
10
30.939485
20
204.503469
11
31.533509
21
204.539772
0
LINE
8
Layer 1
10
31.533509
20
204.539772
11
33.101904
21
204.945669
0
LINE
8
Layer 1
10
33.101904
20
204.945669
11
33.101904
21
204.945669
0
LINE
8
Layer 1
10
37.184183
20
205.765589
11
39.371923
21
206.287236
0
LINE
8
Layer 1
10
39.371923
20
206.287236
11
40.756295
21
206.751628
0
LINE
8
Layer 1
10
40.756295
20
206.751628
11
41.568570
21
207.175250
0
LINE
8
Layer 1
10
41.568570
20
207.175250
11
40.439681
21
207.163134
0
LINE
8
Layer 1
10
40.439681
20
207.163134
11
38.880211
21
206.863221
0
LINE
8
Layer 1
10
38.880211
20
206.863221
11
36.534818
21
206.210452
0
LINE
8
Layer 1
10
36.534818
20
206.210452
11
34.543273
21
205.549960
0
LINE
8
Layer 1
10
34.543273
20
205.549960
11
34.036373
21
205.324672
0
LINE
8
Layer 1
10
34.036373
20
205.324672
11
33.967473
21
205.257142
0
LINE
8
Layer 1
10
33.967473
20
205.257142
11
34.045350
21
205.226878
0
LINE
8
Layer 1
10
34.045350
20
205.226878
11
37.184183
21
205.765589
0
LINE
8
Layer 1
10
37.184183
20
205.765589
11
37.184183
21
205.765589
0
LINE
8
Layer 1
10
83.196343
20
206.604210
11
91.373675
21
207.868449
0
LINE
8
Layer 1
10
91.373675
20
207.868449
11
95.536453
21
208.589838
0
LINE
8
Layer 1
10
95.536453
20
208.589838
11
95.614120
21
209.539095
0
LINE
8
Layer 1
10
95.614120
20
209.539095
11
95.344007
21
211.890428
0
LINE
8
Layer 1
10
95.344007
20
211.890428
11
94.546749
21
214.345248
0
LINE
8
Layer 1
10
94.546749
20
214.345248
11
93.241967
21
216.857184
0
LINE
8
Layer 1
10
93.241967
20
216.857184
11
91.449282
21
219.379862
0
LINE
8
Layer 1
10
91.449282
20
219.379862
11
90.060989
21
220.938205
0
LINE
8
Layer 1
10
90.060989
20
220.938205
11
89.716558
21
221.056854
0
LINE
8
Layer 1
10
89.716558
20
221.056854
11
89.414799
21
220.875152
0
LINE
8
Layer 1
10
89.414799
20
220.875152
11
88.925148
21
220.529741
0
LINE
8
Layer 1
10
88.925148
20
220.529741
11
88.555093
21
220.451986
0
LINE
8
Layer 1
10
88.555093
20
220.451986
11
88.354373
21
220.632896
0
LINE
8
Layer 1
10
88.354373
20
220.632896
11
88.372721
21
221.063484
0
LINE
8
Layer 1
10
88.372721
20
221.063484
11
88.405732
21
221.604703
0
LINE
8
Layer 1
10
88.405732
20
221.604703
11
88.216857
21
222.033961
0
LINE
8
Layer 1
10
88.216857
20
222.033961
11
87.833789
21
222.316791
0
LINE
8
Layer 1
10
87.833789
20
222.316791
11
87.284219
21
222.418727
0
LINE
8
Layer 1
10
87.284219
20
222.418727
11
86.789730
21
222.527972
0
LINE
8
Layer 1
10
86.789730
20
222.527972
11
86.500685
21
222.790625
0
LINE
8
Layer 1
10
86.500685
20
222.790625
11
85.726543
21
223.303775
0
LINE
8
Layer 1
10
85.726543
20
223.303775
11
84.036673
21
224.024009
0
LINE
8
Layer 1
10
84.036673
20
224.024009
11
81.990780
21
224.736651
0
LINE
8
Layer 1
10
81.990780
20
224.736651
11
80.148568
21
225.227024
0
LINE
8
Layer 1
10
80.148568
20
225.227024
11
76.877754
21
225.523171
0
LINE
8
Layer 1
10
76.877754
20
225.523171
11
75.314550
21
225.408011
0
LINE
8
Layer 1
10
75.314550
20
225.408011
11
74.990657
21
225.175335
0
LINE
8
Layer 1
10
74.990657
20
225.175335
11
74.756318
21
224.747060
0
LINE
8
Layer 1
10
74.756318
20
224.747060
11
73.312751
21
222.136504
0
LINE
8
Layer 1
10
73.312751
20
222.136504
11
71.755900
21
219.173171
0
LINE
8
Layer 1
10
71.755900
20
219.173171
11
71.539799
21
218.575727
0
LINE
8
Layer 1
10
71.539799
20
218.575727
11
71.552657
21
218.467289
0
LINE
8
Layer 1
10
71.552657
20
218.467289
11
71.673520
21
218.502472
0
LINE
8
Layer 1
10
71.673520
20
218.502472
11
73.648031
21
220.330897
0
LINE
8
Layer 1
10
73.648031
20
220.330897
11
76.497237
21
222.831038
0
LINE
8
Layer 1
10
76.497237
20
222.831038
11
77.560302
21
223.564630
0
LINE
8
Layer 1
10
77.560302
20
223.564630
11
78.220229
21
223.829838
0
LINE
8
Layer 1
10
78.220229
20
223.829838
11
78.383707
21
223.719208
0
LINE
8
Layer 1
10
78.383707
20
223.719208
11
78.358131
21
223.406197
0
LINE
8
Layer 1
10
78.358131
20
223.406197
11
77.808720
21
222.286295
0
LINE
8
Layer 1
10
77.808720
20
222.286295
11
76.709802
21
220.696657
0
LINE
8
Layer 1
10
76.709802
20
220.696657
11
75.199181
21
218.863810
0
LINE
8
Layer 1
10
75.199181
20
218.863810
11
74.620731
21
218.122420
0
LINE
8
Layer 1
10
74.620731
20
218.122420
11
74.342174
21
217.552158
0
LINE
8
Layer 1
10
74.342174
20
217.552158
11
74.372232
21
217.185896
0
LINE
8
Layer 1
10
74.372232
20
217.185896
11
74.719629
21
217.056504
0
LINE
8
Layer 1
10
74.719629
20
217.056504
11
76.140787
21
218.044282
0
LINE
8
Layer 1
10
76.140787
20
218.044282
11
77.527324
21
218.955252
0
LINE
8
Layer 1
10
77.527324
20
218.955252
11
77.957197
21
219.050064
0
LINE
8
Layer 1
10
77.957197
20
219.050064
11
78.116343
21
218.864908
0
LINE
8
Layer 1
10
78.116343
20
218.864908
11
77.531663
21
217.954437
0
LINE
8
Layer 1
10
77.531663
20
217.954437
11
77.210781
21
217.411668
0
LINE
8
Layer 1
10
77.210781
20
217.411668
11
77.255840
21
217.125654
0
LINE
8
Layer 1
10
77.255840
20
217.125654
11
77.620039
21
217.128749
0
LINE
8
Layer 1
10
77.620039
20
217.128749
11
78.256579
21
217.453306
0
LINE
8
Layer 1
10
78.256579
20
217.453306
11
79.284517
21
217.903171
0
LINE
8
Layer 1
10
79.284517
20
217.903171
11
79.405348
21
217.840836
0
LINE
8
Layer 1
10
79.405348
20
217.840836
11
79.352142
21
217.666165
0
LINE
8
Layer 1
10
79.352142
20
217.666165
11
78.802961
21
217.053829
0
LINE
8
Layer 1
10
78.802961
20
217.053829
11
76.488880
21
215.295263
0
LINE
8
Layer 1
10
76.488880
20
215.295263
11
74.837231
21
214.032671
0
LINE
8
Layer 1
10
74.837231
20
214.032671
11
77.404409
21
214.780563
0
LINE
8
Layer 1
10
77.404409
20
214.780563
11
80.145439
21
215.591649
0
LINE
8
Layer 1
10
80.145439
20
215.591649
11
80.751585
21
215.590062
0
LINE
8
Layer 1
10
80.751585
20
215.590062
11
80.938565
21
215.331139
0
LINE
8
Layer 1
10
80.938565
20
215.331139
11
81.173695
21
215.137403
0
LINE
8
Layer 1
10
81.173695
20
215.137403
11
81.797677
21
215.142973
0
LINE
8
Layer 1
10
81.797677
20
215.142973
11
82.442686
21
215.170081
0
LINE
8
Layer 1
10
82.442686
20
215.170081
11
82.787064
21
215.058196
0
LINE
8
Layer 1
10
82.787064
20
215.058196
11
82.359508
21
214.653569
0
LINE
8
Layer 1
10
82.359508
20
214.653569
11
81.131174
21
213.996814
0
LINE
8
Layer 1
10
81.131174
20
213.996814
11
78.116343
21
212.813290
0
LINE
8
Layer 1
10
78.116343
20
212.813290
11
76.368639
21
212.322388
0
LINE
8
Layer 1
10
76.368639
20
212.322388
11
76.157518
21
212.210512
0
LINE
8
Layer 1
10
76.157518
20
212.210512
11
76.189640
21
212.115798
0
LINE
8
Layer 1
10
76.189640
20
212.115798
11
77.218340
21
212.244006
0
LINE
8
Layer 1
10
77.218340
20
212.244006
11
77.923659
21
212.323598
0
LINE
8
Layer 1
10
77.923659
20
212.323598
11
78.383233
21
211.991148
0
LINE
8
Layer 1
10
78.383233
20
211.991148
11
78.673569
21
211.124308
0
LINE
8
Layer 1
10
78.673569
20
211.124308
11
78.871174
21
209.600729
0
LINE
8
Layer 1
10
78.871174
20
209.600729
11
78.924045
21
208.028389
0
LINE
8
Layer 1
10
78.924045
20
208.028389
11
78.742837
21
207.787847
0
LINE
8
Layer 1
10
78.742837
20
207.787847
11
78.366533
21
207.697290
0
LINE
8
Layer 1
10
78.366533
20
207.697290
11
77.824013
21
207.449390
0
LINE
8
Layer 1
10
77.824013
20
207.449390
11
77.603714
21
206.825949
0
LINE
8
Layer 1
10
77.603714
20
206.825949
11
77.641819
21
206.280634
0
LINE
8
Layer 1
10
77.641819
20
206.280634
11
78.254437
21
206.075076
0
LINE
8
Layer 1
10
78.254437
20
206.075076
11
79.939851
21
206.189520
0
LINE
8
Layer 1
10
79.939851
20
206.189520
11
83.196343
21
206.604210
0
LINE
8
Layer 1
10
83.196343
20
206.604210
11
83.196343
21
206.604210
0
LINE
8
Layer 1
10
90.075086
20
212.108929
11
90.007067
21
212.486905
0
LINE
8
Layer 1
10
90.007067
20
212.486905
11
90.089479
21
212.754805
0
LINE
8
Layer 1
10
90.089479
20
212.754805
11
90.347183
21
212.806877
0
LINE
8
Layer 1
10
90.347183
20
212.806877
11
90.698952
21
212.671361
0
LINE
8
Layer 1
10
90.698952
20
212.671361
11
91.021342
21
212.419236
0
LINE
8
Layer 1
10
91.021342
20
212.419236
11
91.190908
21
212.121482
0
LINE
8
Layer 1
10
91.190908
20
212.121482
11
91.077961
21
211.849338
0
LINE
8
Layer 1
10
91.077961
20
211.849338
11
90.733570
21
211.755173
0
LINE
8
Layer 1
10
90.733570
20
211.755173
11
90.338893
21
211.841024
0
LINE
8
Layer 1
10
90.338893
20
211.841024
11
90.075086
21
212.108929
0
LINE
8
Layer 1
10
90.075086
20
212.108929
11
90.075086
21
212.108929
0
LINE
8
Layer 1
10
92.133389
20
212.729098
11
91.967956
21
213.016536
0
LINE
8
Layer 1
10
91.967956
20
213.016536
11
91.958997
21
213.324310
0
LINE
8
Layer 1
10
91.958997
20
213.324310
11
92.088479
21
213.569663
0
LINE
8
Layer 1
10
92.088479
20
213.569663
11
92.338367
21
213.669838
0
LINE
8
Layer 1
10
92.338367
20
213.669838
11
92.829254
21
213.333404
0
LINE
8
Layer 1
10
92.829254
20
213.333404
11
93.074120
21
212.658977
0
LINE
8
Layer 1
10
93.074120
20
212.658977
11
92.680833
21
212.545628
0
LINE
8
Layer 1
10
92.680833
20
212.545628
11
92.133389
21
212.729098
0
LINE
8
Layer 1
10
92.133389
20
212.729098
11
92.133389
21
212.729098
0
LINE
8
Layer 1
10
87.761767
20
214.704783
11
87.944202
21
215.118557
0
LINE
8
Layer 1
10
87.944202
20
215.118557
11
88.211664
21
215.286946
0
LINE
8
Layer 1
10
88.211664
20
215.286946
11
88.453377
21
215.193619
0
LINE
8
Layer 1
10
88.453377
20
215.193619
11
88.558565
21
214.822244
0
LINE
8
Layer 1
10
88.558565
20
214.822244
11
88.434726
21
214.398265
0
LINE
8
Layer 1
10
88.434726
20
214.398265
11
88.114545
21
214.234282
0
LINE
8
Layer 1
10
88.114545
20
214.234282
11
87.819347
21
214.365101
0
LINE
8
Layer 1
10
87.819347
20
214.365101
11
87.761767
21
214.704783
0
LINE
8
Layer 1
10
87.761767
20
214.704783
11
87.761767
21
214.704783
0
LINE
8
Layer 1
10
90.393009
20
216.774282
11
90.294256
21
217.119058
0
LINE
8
Layer 1
10
90.294256
20
217.119058
11
90.407568
21
217.368808
0
LINE
8
Layer 1
10
90.407568
20
217.368808
11
90.660999
21
217.457193
0
LINE
8
Layer 1
10
90.660999
20
217.457193
11
90.982600
21
217.317873
0
LINE
8
Layer 1
10
90.982600
20
217.317873
11
91.380787
21
216.739727
0
LINE
8
Layer 1
10
91.380787
20
216.739727
11
91.256673
21
216.552682
0
LINE
8
Layer 1
10
91.256673
20
216.552682
11
90.967501
21
216.499003
0
LINE
8
Layer 1
10
90.967501
20
216.499003
11
90.638027
21
216.574325
0
LINE
8
Layer 1
10
90.638027
20
216.574325
11
90.393009
21
216.774282
0
LINE
8
Layer 1
10
90.393009
20
216.774282
11
90.393009
21
216.774282
0
LINE
8
Layer 1
10
43.473570
20
207.475788
11
44.230812
21
207.803825
0
LINE
8
Layer 1
10
44.230812
20
207.803825
11
44.531904
21
208.183556
0
LINE
8
Layer 1
10
44.531904
20
208.183556
11
44.499565
21
208.387947
0
LINE
8
Layer 1
10
44.499565
20
208.387947
11
44.363574
21
208.456363
0
LINE
8
Layer 1
10
44.363574
20
208.456363
11
43.546787
21
208.185803
0
LINE
8
Layer 1
10
43.546787
20
208.185803
11
42.065121
21
207.485042
0
LINE
8
Layer 1
10
42.065121
20
207.485042
11
41.801634
21
207.262174
0
LINE
8
Layer 1
10
41.801634
20
207.262174
11
41.988384
21
207.186081
0
LINE
8
Layer 1
10
41.988384
20
207.186081
11
43.473570
21
207.475788
0
LINE
8
Layer 1
10
43.473570
20
207.475788
11
43.473570
21
207.475788
0
LINE
8
Layer 1
10
49.269337
20
208.748811
11
53.203797
21
209.599239
0
LINE
8
Layer 1
10
53.203797
20
209.599239
11
53.683017
21
209.814183
0
LINE
8
Layer 1
10
53.683017
20
209.814183
11
53.344908
21
210.510357
0
LINE
8
Layer 1
10
53.344908
20
210.510357
11
51.446343
21
213.200104
0
LINE
8
Layer 1
10
51.446343
20
213.200104
11
50.035231
21
215.105745
0
LINE
8
Layer 1
10
50.035231
20
215.105745
11
49.226891
21
214.176125
0
LINE
8
Layer 1
10
49.226891
20
214.176125
11
47.200326
21
211.367206
0
LINE
8
Layer 1
10
47.200326
20
211.367206
11
46.497094
21
210.084525
0
LINE
8
Layer 1
10
46.497094
20
210.084525
11
46.225237
21
209.251637
0
LINE
8
Layer 1
10
46.225237
20
209.251637
11
46.142334
21
208.784241
0
LINE
8
Layer 1
10
46.142334
20
208.784241
11
45.943015
21
208.589838
0
LINE
8
Layer 1
10
45.943015
20
208.589838
11
45.743695
21
208.506935
0
LINE
8
Layer 1
10
45.743695
20
208.506935
11
45.660793
21
208.307615
0
LINE
8
Layer 1
10
45.660793
20
208.307615
11
45.689412
21
208.104389
0
LINE
8
Layer 1
10
45.689412
20
208.104389
11
46.037823
21
208.078078
0
LINE
8
Layer 1
10
46.037823
20
208.078078
11
49.269337
21
208.748811
0
LINE
8
Layer 1
10
49.269337
20
208.748811
11
49.269337
21
208.748811
0
LINE
8
Layer 1
10
52.558383
20
216.035424
11
52.342020
21
216.518509
0
LINE
8
Layer 1
10
52.342020
20
216.518509
11
52.043504
21
216.747929
0
LINE
8
Layer 1
10
52.043504
20
216.747929
11
51.734923
21
216.701910
0
LINE
8
Layer 1
10
51.734923
20
216.701910
11
51.488365
21
216.358673
0
LINE
8
Layer 1
10
51.488365
20
216.358673
11
51.546369
21
215.940519
0
LINE
8
Layer 1
10
51.546369
20
215.940519
11
51.935039
21
215.518498
0
LINE
8
Layer 1
10
51.935039
20
215.518498
11
52.380900
21
215.245590
0
LINE
8
Layer 1
10
52.380900
20
215.245590
11
52.615794
21
215.226165
0
LINE
8
Layer 1
10
52.615794
20
215.226165
11
52.558383
21
216.035424
0
LINE
8
Layer 1
10
52.558383
20
216.035424
11
52.558383
21
216.035424
0
LINE
8
Layer 1
10
54.858748
20
218.361201
11
54.701204
21
218.631108
0
LINE
8
Layer 1
10
54.701204
20
218.631108
11
54.486553
21
218.720526
0
LINE
8
Layer 1
10
54.486553
20
218.720526
11
53.775438
21
218.357515
0
LINE
8
Layer 1
10
53.775438
20
218.357515
11
53.428167
21
217.878259
0
LINE
8
Layer 1
10
53.428167
20
217.878259
11
53.599839
21
217.025934
0
LINE
8
Layer 1
10
53.599839
20
217.025934
11
53.958604
21
216.242092
0
LINE
8
Layer 1
10
53.958604
20
216.242092
11
54.375217
21
215.701699
0
LINE
8
Layer 1
10
54.375217
20
215.701699
11
54.621424
21
215.547431
0
LINE
8
Layer 1
10
54.621424
20
215.547431
11
54.771495
21
215.614733
0
LINE
8
Layer 1
10
54.771495
20
215.614733
11
54.920442
21
216.653618
0
LINE
8
Layer 1
10
54.920442
20
216.653618
11
54.858748
21
218.361201
0
LINE
8
Layer 1
10
54.858748
20
218.361201
11
54.858748
21
218.361201
0
LINE
8
Layer 1
10
58.459339
20
217.268171
11
59.132947
21
219.869642
0
LINE
8
Layer 1
10
59.132947
20
219.869642
11
59.380597
21
221.493009
0
LINE
8
Layer 1
10
59.380597
20
221.493009
11
58.392918
21
221.211320
0
LINE
8
Layer 1
10
58.392918
20
221.211320
11
57.514120
21
220.663519
0
LINE
8
Layer 1
10
57.514120
20
220.663519
11
57.378251
21
220.507898
0
LINE
8
Layer 1
10
57.378251
20
220.507898
11
57.051586
21
220.443171
0
LINE
8
Layer 1
10
57.051586
20
220.443171
11
56.819014
21
220.382335
0
LINE
8
Layer 1
10
56.819014
20
220.382335
11
56.700146
21
220.142985
0
LINE
8
Layer 1
10
56.700146
20
220.142985
11
56.739166
21
218.787706
0
LINE
8
Layer 1
10
56.739166
20
218.787706
11
57.146166
21
216.730824
0
LINE
8
Layer 1
10
57.146166
20
216.730824
11
57.448152
21
216.139441
0
LINE
8
Layer 1
10
57.448152
20
216.139441
11
57.783586
21
215.927615
0
LINE
8
Layer 1
10
57.783586
20
215.927615
11
58.085056
21
216.321404
0
LINE
8
Layer 1
10
58.085056
20
216.321404
11
58.459339
21
217.268171
0
LINE
8
Layer 1
10
58.459339
20
217.268171
11
58.459339
21
217.268171
0
LINE
8
Layer 1
10
61.161109
20
218.144482
11
62.271202
21
220.942010
0
LINE
8
Layer 1
10
62.271202
20
220.942010
11
63.101104
21
223.216002
0
LINE
8
Layer 1
10
63.101104
20
223.216002
11
62.212612
21
222.917526
0
LINE
8
Layer 1
10
62.212612
20
222.917526
11
61.331440
21
222.560425
0
LINE
8
Layer 1
10
61.331440
20
222.560425
11
60.853719
21
222.086649
0
LINE
8
Layer 1
10
60.853719
20
222.086649
11
60.656934
21
221.259973
0
LINE
8
Layer 1
10
60.656934
20
221.259973
11
60.618565
21
219.844171
0
LINE
8
Layer 1
10
60.618565
20
219.844171
11
60.749742
21
217.620949
0
LINE
8
Layer 1
10
60.749742
20
217.620949
11
61.161109
21
218.144482
0
LINE
8
Layer 1
10
61.161109
20
218.144482
11
61.161109
21
218.144482
0
LINE
8
Layer 1
10
65.384593
20
220.999352
11
66.827454
21
224.110553
0
LINE
8
Layer 1
10
66.827454
20
224.110553
11
66.534392
21
224.159044
0
LINE
8
Layer 1
10
66.534392
20
224.159044
11
65.862014
21
223.992795
0
LINE
8
Layer 1
10
65.862014
20
223.992795
11
64.620137
21
223.409933
0
LINE
8
Layer 1
10
64.620137
20
223.409933
11
63.451907
21
218.098181
0
LINE
8
Layer 1
10
63.451907
20
218.098181
11
63.557860
21
217.925510
0
LINE
8
Layer 1
10
63.557860
20
217.925510
11
63.918748
21
218.356666
0
LINE
8
Layer 1
10
63.918748
20
218.356666
11
65.384593
21
220.999352
0
LINE
8
Layer 1
10
65.384593
20
220.999352
11
65.384593
21
220.999352
0
LINE
8
Layer 1
10
69.955746
20
221.015574
11
72.395134
21
223.782314
0
LINE
8
Layer 1
10
72.395134
20
223.782314
11
73.594578
21
225.349864
0
LINE
8
Layer 1
10
73.594578
20
225.349864
11
73.214333
21
225.473726
0
LINE
8
Layer 1
10
73.214333
20
225.473726
11
72.291417
21
225.420420
0
LINE
8
Layer 1
10
72.291417
20
225.420420
11
70.353651
21
225.240949
0
LINE
8
Layer 1
10
70.353651
20
225.240949
11
70.003859
21
225.158799
0
LINE
8
Layer 1
10
70.003859
20
225.158799
11
69.697978
21
224.844842
0
LINE
8
Layer 1
10
69.697978
20
224.844842
11
68.950442
21
223.116462
0
LINE
8
Layer 1
10
68.950442
20
223.116462
11
67.956117
21
220.018816
0
LINE
8
Layer 1
10
67.956117
20
220.018816
11
67.853875
21
219.250503
0
LINE
8
Layer 1
10
67.853875
20
219.250503
11
67.971150
21
219.197713
0
LINE
8
Layer 1
10
67.971150
20
219.197713
11
68.223099
21
219.306007
0
LINE
8
Layer 1
10
68.223099
20
219.306007
11
69.955746
21
221.015574
0
LINE
8
Layer 1
10
69.955746
20
221.015574
11
69.955746
21
221.015574
0
LINE
8
Layer 1
10
40.373876
20
110.367222
11
40.235291
21
110.038450
0
LINE
8
Layer 1
10
40.235291
20
110.038450
11
39.871009
21
109.712619
0
LINE
8
Layer 1
10
39.871009
20
109.712619
11
38.812919
21
109.274977
0
LINE
8
Layer 1
10
38.812919
20
109.274977
11
36.307642
21
109.919658
0
LINE
8
Layer 1
10
36.307642
20
109.919658
11
32.772598
21
110.351948
0
LINE
8
Layer 1
10
32.772598
20
110.351948
11
30.210241
21
110.545776
0
LINE
8
Layer 1
10
30.210241
20
110.545776
11
29.664652
21
110.466666
0
LINE
8
Layer 1
10
29.664652
20
110.466666
11
29.119790
21
110.399734
0
LINE
8
Layer 1
10
29.119790
20
110.399734
11
28.334390
21
110.570608
0
LINE
8
Layer 1
10
28.334390
20
110.570608
11
27.773711
21
110.938708
0
LINE
8
Layer 1
10
27.773711
20
110.938708
11
27.525891
21
111.361722
0
LINE
8
Layer 1
10
27.525891
20
111.361722
11
27.471316
21
111.861081
0
LINE
8
Layer 1
10
27.471316
20
111.861081
11
27.920616
21
113.805826
0
LINE
8
Layer 1
10
27.920616
20
113.805826
11
28.370129
21
115.750427
0
LINE
8
Layer 1
10
28.370129
20
115.750427
11
28.129938
21
116.766097
0
LINE
8
Layer 1
10
28.129938
20
116.766097
11
27.889978
21
117.781874
0
LINE
8
Layer 1
10
27.889978
20
117.781874
11
28.126400
21
118.252620
0
LINE
8
Layer 1
10
28.126400
20
118.252620
11
28.748744
21
118.552352
0
LINE
8
Layer 1
10
28.748744
20
118.552352
11
29.756989
21
118.681072
0
LINE
8
Layer 1
10
29.756989
20
118.681072
11
31.151116
21
118.638786
0
LINE
8
Layer 1
10
31.151116
20
118.638786
11
32.429899
21
118.511213
0
LINE
8
Layer 1
10
32.429899
20
118.511213
11
33.489519
21
118.401409
0
LINE
8
Layer 1
10
33.489519
20
118.401409
11
34.998931
21
118.402789
0
LINE
8
Layer 1
10
34.998931
20
118.402789
11
36.507668
21
118.404219
0
LINE
8
Layer 1
10
36.507668
20
118.404219
11
38.583610
21
117.905166
0
LINE
8
Layer 1
10
38.583610
20
117.905166
11
39.604171
21
117.435312
0
LINE
8
Layer 1
10
39.604171
20
117.435312
11
39.921406
21
116.985367
0
LINE
8
Layer 1
10
39.921406
20
116.985367
11
39.765187
21
116.730402
0
LINE
8
Layer 1
10
39.765187
20
116.730402
11
39.342375
21
116.552249
0
LINE
8
Layer 1
10
39.342375
20
116.552249
11
37.697066
21
116.426465
0
LINE
8
Layer 1
10
37.697066
20
116.426465
11
33.629829
21
116.532358
0
LINE
8
Layer 1
10
33.629829
20
116.532358
11
31.973579
21
116.269063
0
LINE
8
Layer 1
10
31.973579
20
116.269063
11
31.543043
21
115.992351
0
LINE
8
Layer 1
10
31.543043
20
115.992351
11
31.377568
21
115.618943
0
LINE
8
Layer 1
10
31.377568
20
115.618943
11
31.534723
21
115.374876
0
LINE
8
Layer 1
10
31.534723
20
115.374876
11
32.047245
21
115.168285
0
LINE
8
Layer 1
10
32.047245
20
115.168285
11
34.138402
21
114.867617
0
LINE
8
Layer 1
10
34.138402
20
114.867617
11
35.853093
21
115.098689
0
LINE
8
Layer 1
10
35.853093
20
115.098689
11
37.588879
21
115.327918
0
LINE
8
Layer 1
10
37.588879
20
115.327918
11
38.511511
21
115.078323
0
LINE
8
Layer 1
10
38.511511
20
115.078323
11
39.264268
21
114.491736
0
LINE
8
Layer 1
10
39.264268
20
114.491736
11
39.692477
21
113.842015
0
LINE
8
Layer 1
10
39.692477
20
113.842015
11
39.803389
21
113.218031
0
LINE
8
Layer 1
10
39.803389
20
113.218031
11
39.590018
21
112.743034
0
LINE
8
Layer 1
10
39.590018
20
112.743034
11
39.314816
21
112.534522
0
LINE
8
Layer 1
10
39.314816
20
112.534522
11
38.975086
21
112.485006
0
LINE
8
Layer 1
10
38.975086
20
112.485006
11
37.779545
21
112.685889
0
LINE
8
Layer 1
10
37.779545
20
112.685889
11
36.583533
21
112.886682
0
LINE
8
Layer 1
10
36.583533
20
112.886682
11
33.972864
21
113.023323
0
LINE
8
Layer 1
10
33.972864
20
113.023323
11
32.369778
21
113.020007
0
LINE
8
Layer 1
10
32.369778
20
113.020007
11
31.823361
21
112.864124
0
LINE
8
Layer 1
10
31.823361
20
112.864124
11
31.912283
21
112.539516
0
LINE
8
Layer 1
10
31.912283
20
112.539516
11
32.235383
21
112.286736
0
LINE
8
Layer 1
10
32.235383
20
112.286736
11
33.584210
21
111.996705
0
LINE
8
Layer 1
10
33.584210
20
111.996705
11
35.491592
21
112.021439
0
LINE
8
Layer 1
10
35.491592
20
112.021439
11
37.399186
21
112.046159
0
LINE
8
Layer 1
10
37.399186
20
112.046159
11
38.212293
21
111.848446
0
LINE
8
Layer 1
10
38.212293
20
111.848446
11
39.251430
21
111.367993
0
LINE
8
Layer 1
10
39.251430
20
111.367993
11
40.108069
21
110.806956
0
LINE
8
Layer 1
10
40.108069
20
110.806956
11
40.373876
21
110.367222
0
LINE
8
Layer 1
10
40.373876
20
110.367222
11
40.373876
21
110.367222
0
LINE
8
Layer 1
10
40.373876
20
110.367222
11
40.373876
21
110.367222
0
LINE
8
Layer 1
10
50.193541
20
110.671308
11
49.848606
21
110.483916
0
LINE
8
Layer 1
10
49.848606
20
110.483916
11
49.715750
21
110.193125
0
LINE
8
Layer 1
10
49.715750
20
110.193125
11
49.799102
21
109.706610
0
LINE
8
Layer 1
10
49.799102
20
109.706610
11
49.882448
21
109.220102
0
LINE
8
Layer 1
10
49.882448
20
109.220102
11
49.751649
21
109.027608
0
LINE
8
Layer 1
10
49.751649
20
109.027608
11
49.401295
21
108.988146
0
LINE
8
Layer 1
10
49.401295
20
108.988146
11
48.815470
21
109.096900
0
LINE
8
Layer 1
10
48.815470
20
109.096900
11
48.490951
21
109.562816
0
LINE
8
Layer 1
10
48.490951
20
109.562816
11
47.970637
21
109.989140
0
LINE
8
Layer 1
10
47.970637
20
109.989140
11
46.342625
21
110.723053
0
LINE
8
Layer 1
10
46.342625
20
110.723053
11
42.785902
21
111.723218
0
LINE
8
Layer 1
10
42.785902
20
111.723218
11
41.817510
21
110.324934
0
LINE
8
Layer 1
10
41.817510
20
110.324934
11
41.066144
21
108.884438
0
LINE
8
Layer 1
10
41.066144
20
108.884438
11
39.806403
21
109.391724
0
LINE
8
Layer 1
10
39.806403
20
109.391724
11
39.535216
21
109.730409
0
LINE
8
Layer 1
10
39.535216
20
109.730409
11
39.474143
21
110.218192
0
LINE
8
Layer 1
10
39.474143
20
110.218192
11
39.827258
21
111.564432
0
LINE
8
Layer 1
10
39.827258
20
111.564432
11
40.689903
21
113.085062
0
LINE
8
Layer 1
10
40.689903
20
113.085062
11
42.664315
21
115.804899
0
LINE
8
Layer 1
10
42.664315
20
115.804899
11
43.788906
21
116.243368
0
LINE
8
Layer 1
10
43.788906
20
116.243368
11
44.777347
21
116.631215
0
LINE
8
Layer 1
10
44.777347
20
116.631215
11
45.254019
21
116.439812
0
LINE
8
Layer 1
10
45.254019
20
116.439812
11
45.895778
21
115.929084
0
LINE
8
Layer 1
10
45.895778
20
115.929084
11
47.674400
21
113.949711
0
LINE
8
Layer 1
10
47.674400
20
113.949711
11
50.193541
21
110.671308
0
LINE
8
Layer 1
10
50.193541
20
110.671308
11
50.193541
21
110.671308
0
LINE
8
Layer 1
10
50.193541
20
110.671308
11
50.193541
21
110.671308
0
LINE
8
Layer 1
10
45.918490
20
112.910391
11
45.630428
21
113.662252
0
LINE
8
Layer 1
10
45.630428
20
113.662252
11
45.140115
21
113.944662
0
LINE
8
Layer 1
10
45.140115
20
113.944662
11
44.526841
21
113.704918
0
LINE
8
Layer 1
10
44.526841
20
113.704918
11
44.143586
21
113.311508
0
LINE
8
Layer 1
10
44.143586
20
113.311508
11
44.401542
21
113.087717
0
LINE
8
Layer 1
10
44.401542
20
113.087717
11
45.217548
21
112.954339
0
LINE
8
Layer 1
10
45.217548
20
112.954339
11
45.918490
21
112.910391
0
LINE
8
Layer 1
10
45.918490
20
112.910391
11
45.918490
21
112.910391
0
LINE
8
Layer 1
10
45.918490
20
112.910391
11
45.918490
21
112.910391
0
LINE
8
Layer 1
10
58.539826
20
114.010082
11
57.529847
21
113.977539
0
LINE
8
Layer 1
10
57.529847
20
113.977539
11
57.268538
21
113.856250
0
LINE
8
Layer 1
10
57.268538
20
113.856250
11
57.169654
21
113.664952
0
LINE
8
Layer 1
10
57.169654
20
113.664952
11
57.382574
21
111.316561
0
LINE
8
Layer 1
10
57.382574
20
111.316561
11
57.596459
21
108.980458
0
LINE
8
Layer 1
10
57.596459
20
108.980458
11
57.428288
21
108.514199
0
LINE
8
Layer 1
10
57.428288
20
108.514199
11
56.627420
21
108.418667
0
LINE
8
Layer 1
10
56.627420
20
108.418667
11
55.291608
21
108.592361
0
LINE
8
Layer 1
10
55.291608
20
108.592361
11
54.349163
21
108.866639
0
LINE
8
Layer 1
10
54.349163
20
108.866639
11
53.800106
21
109.241488
0
LINE
8
Layer 1
10
53.800106
20
109.241488
11
53.644459
21
109.716895
0
LINE
8
Layer 1
10
53.644459
20
109.716895
11
53.955466
21
110.454622
0
LINE
8
Layer 1
10
53.955466
20
110.454622
11
54.789146
21
111.396159
0
LINE
8
Layer 1
10
54.789146
20
111.396159
11
55.622639
21
112.337823
0
LINE
8
Layer 1
10
55.622639
20
112.337823
11
55.933617
21
113.075568
0
LINE
8
Layer 1
10
55.933617
20
113.075568
11
55.790574
21
113.517734
0
LINE
8
Layer 1
10
55.790574
20
113.517734
11
55.285005
21
113.866050
0
LINE
8
Layer 1
10
55.285005
20
113.866050
11
54.416867
21
114.120518
0
LINE
8
Layer 1
10
54.416867
20
114.120518
11
53.186118
21
114.281139
0
LINE
8
Layer 1
10
53.186118
20
114.281139
11
52.320359
21
114.338478
0
LINE
8
Layer 1
10
52.320359
20
114.338478
11
51.564184
21
114.386995
0
LINE
8
Layer 1
10
51.564184
20
114.386995
11
50.834143
21
114.541115
0
LINE
8
Layer 1
10
50.834143
20
114.541115
11
50.329601
21
114.867746
0
LINE
8
Layer 1
10
50.329601
20
114.867746
11
50.050557
21
115.366888
0
LINE
8
Layer 1
10
50.050557
20
115.366888
11
49.997010
21
116.038543
0
LINE
8
Layer 1
10
49.997010
20
116.038543
11
50.318755
21
116.775625
0
LINE
8
Layer 1
10
50.318755
20
116.775625
11
50.741688
21
117.110697
0
LINE
8
Layer 1
10
50.741688
20
117.110697
11
51.232765
21
117.194200
0
LINE
8
Layer 1
10
51.232765
20
117.194200
11
52.634848
21
116.816796
0
LINE
8
Layer 1
10
52.634848
20
116.816796
11
54.037834
21
116.439312
0
LINE
8
Layer 1
10
54.037834
20
116.439312
11
57.101006
21
116.457177
0
LINE
8
Layer 1
10
57.101006
20
116.457177
11
60.186401
21
116.473252
0
LINE
8
Layer 1
10
60.186401
20
116.473252
11
61.338391
21
116.275924
0
LINE
8
Layer 1
10
61.338391
20
116.275924
11
62.386566
21
115.877873
0
LINE
8
Layer 1
10
62.386566
20
115.877873
11
63.185096
21
115.305966
0
LINE
8
Layer 1
10
63.185096
20
115.305966
11
63.416866
21
114.675293
0
LINE
8
Layer 1
10
63.416866
20
114.675293
11
63.219649
21
114.195945
0
LINE
8
Layer 1
10
63.219649
20
114.195945
11
62.715897
21
113.882803
0
LINE
8
Layer 1
10
62.715897
20
113.882803
11
61.905648
21
113.735839
0
LINE
8
Layer 1
10
61.905648
20
113.735839
11
60.788942
21
113.755026
0
LINE
8
Layer 1
10
60.788942
20
113.755026
11
59.609931
21
113.886937
0
LINE
8
Layer 1
10
59.609931
20
113.886937
11
58.539826
21
114.010082
0
LINE
8
Layer 1
10
58.539826
20
114.010082
11
58.539826
21
114.010082
0
LINE
8
Layer 1
10
58.539826
20
114.010082
11
58.539826
21
114.010082
0
LINE
8
Layer 1
10
39.026242
20
95.085309
11
38.842089
21
94.706649
0
LINE
8
Layer 1
10
38.842089
20
94.706649
11
38.298907
21
94.516547
0
LINE
8
Layer 1
10
38.298907
20
94.516547
11
37.586519
21
94.709062
0
LINE
8
Layer 1
10
37.586519
20
94.709062
11
36.937599
21
95.493372
0
LINE
8
Layer 1
10
36.937599
20
95.493372
11
36.474696
21
96.545795
0
LINE
8
Layer 1
10
36.474696
20
96.545795
11
35.741170
21
98.437754
0
LINE
8
Layer 1
10
35.741170
20
98.437754
11
35.014011
21
98.291768
0
LINE
8
Layer 1
10
35.014011
20
98.291768
11
34.284463
21
97.835342
0
LINE
8
Layer 1
10
34.284463
20
97.835342
11
33.550146
21
97.391600
0
LINE
8
Layer 1
10
33.550146
20
97.391600
11
32.809347
21
97.283626
0
LINE
8
Layer 1
10
32.809347
20
97.283626
11
32.056731
21
97.518003
0
LINE
8
Layer 1
10
32.056731
20
97.518003
11
31.243516
21
98.104808
0
LINE
8
Layer 1
10
31.243516
20
98.104808
11
30.386285
21
98.695153
0
LINE
8
Layer 1
10
30.386285
20
98.695153
11
29.502077
21
98.940120
0
LINE
8
Layer 1
10
29.502077
20
98.940120
11
29.013717
21
98.893506
0
LINE
8
Layer 1
10
29.013717
20
98.893506
11
28.878332
21
98.572131
0
LINE
8
Layer 1
10
28.878332
20
98.572131
11
28.969279
21
97.057631
0
LINE
8
Layer 1
10
28.969279
20
97.057631
11
29.060487
21
95.543483
0
LINE
8
Layer 1
10
29.060487
20
95.543483
11
28.935329
21
94.875360
0
LINE
8
Layer 1
10
28.935329
20
94.875360
11
28.680177
21
94.411462
0
LINE
8
Layer 1
10
28.680177
20
94.411462
11
28.295012
21
94.151801
0
LINE
8
Layer 1
10
28.295012
20
94.151801
11
27.779813
21
94.096391
0
LINE
8
Layer 1
10
27.779813
20
94.096391
11
27.095775
21
94.222219
0
LINE
8
Layer 1
10
27.095775
20
94.222219
11
26.619756
21
94.472798
0
LINE
8
Layer 1
10
26.619756
20
94.472798
11
26.351734
21
94.848128
0
LINE
8
Layer 1
10
26.351734
20
94.848128
11
26.291689
21
95.348211
0
LINE
8
Layer 1
10
26.291689
20
95.348211
11
26.343304
21
95.731223
0
LINE
8
Layer 1
10
26.343304
20
95.731223
11
26.393261
21
96.090145
0
LINE
8
Layer 1
10
26.393261
20
96.090145
11
26.401129
21
97.455098
0
LINE
8
Layer 1
10
26.401129
20
97.455098
11
26.408788
21
98.820193
0
LINE
8
Layer 1
10
26.408788
20
98.820193
11
26.575159
21
99.750914
0
LINE
8
Layer 1
10
26.575159
20
99.750914
11
26.913642
21
100.489645
0
LINE
8
Layer 1
10
26.913642
20
100.489645
11
26.605299
21
100.775751
0
LINE
8
Layer 1
10
26.605299
20
100.775751
11
26.520390
21
101.099425
0
LINE
8
Layer 1
10
26.520390
20
101.099425
11
26.790644
21
101.735653
0
LINE
8
Layer 1
10
26.790644
20
101.735653
11
27.059742
21
102.359993
0
LINE
8
Layer 1
10
27.059742
20
102.359993
11
27.720347
21
102.639013
0
LINE
8
Layer 1
10
27.720347
20
102.639013
11
28.363596
21
102.697957
0
LINE
8
Layer 1
10
28.363596
20
102.697957
11
29.041934
21
102.498810
0
LINE
8
Layer 1
10
29.041934
20
102.498810
11
29.719555
21
102.010664
0
LINE
8
Layer 1
10
29.719555
20
102.010664
11
30.819028
21
100.851727
0
LINE
8
Layer 1
10
30.819028
20
100.851727
11
31.409233
21
100.370512
0
LINE
8
Layer 1
10
31.409233
20
100.370512
11
31.956028
21
100.181941
0
LINE
8
Layer 1
10
31.956028
20
100.181941
11
32.638243
21
100.240776
0
LINE
8
Layer 1
10
32.638243
20
100.240776
11
33.239261
21
100.533683
0
LINE
8
Layer 1
10
33.239261
20
100.533683
11
34.172361
21
101.196679
0
LINE
8
Layer 1
10
34.172361
20
101.196679
11
34.267769
21
101.624927
0
LINE
8
Layer 1
10
34.267769
20
101.624927
11
34.520455
21
101.915930
0
LINE
8
Layer 1
10
34.520455
20
101.915930
11
34.930463
21
102.069708
0
LINE
8
Layer 1
10
34.930463
20
102.069708
11
35.497838
21
102.086280
0
LINE
8
Layer 1
10
35.497838
20
102.086280
11
36.036182
21
101.966813
0
LINE
8
Layer 1
10
36.036182
20
101.966813
11
36.513657
21
101.700018
0
LINE
8
Layer 1
10
36.513657
20
101.700018
11
37.285834
21
100.724504
0
LINE
8
Layer 1
10
37.285834
20
100.724504
11
37.664397
21
99.651570
0
LINE
8
Layer 1
10
37.664397
20
99.651570
11
37.733247
21
98.560410
0
LINE
8
Layer 1
10
37.733247
20
98.560410
11
37.574008
21
97.933538
0
LINE
8
Layer 1
10
37.574008
20
97.933538
11
38.566787
21
96.536981
0
LINE
8
Layer 1
10
38.566787
20
96.536981
11
38.935260
21
95.753974
0
LINE
8
Layer 1
10
38.935260
20
95.753974
11
39.026242
21
95.085309
0
LINE
8
Layer 1
10
39.026242
20
95.085309
11
39.026242
21
95.085309
0
LINE
8
Layer 1
10
39.026242
20
95.085309
11
39.026242
21
95.085309
0
LINE
8
Layer 1
10
46.140181
20
100.540447
11
47.500473
21
100.347130
0
LINE
8
Layer 1
10
47.500473
20
100.347130
11
48.691861
21
99.999837
0
LINE
8
Layer 1
10
48.691861
20
99.999837
11
49.714322
21
99.498572
0
LINE
8
Layer 1
10
49.714322
20
99.498572
11
50.567836
21
98.843338
0
LINE
8
Layer 1
10
50.567836
20
98.843338
11
51.151893
21
98.179654
0
LINE
8
Layer 1
10
51.151893
20
98.179654
11
51.550385
21
97.466326
0
LINE
8
Layer 1
10
51.550385
20
97.466326
11
51.763315
21
96.703366
0
LINE
8
Layer 1
10
51.763315
20
96.703366
11
51.790685
21
95.890786
0
LINE
8
Layer 1
10
51.790685
20
95.890786
11
51.672788
21
95.333454
0
LINE
8
Layer 1
10
51.672788
20
95.333454
11
51.412717
21
94.859916
0
LINE
8
Layer 1
10
51.412717
20
94.859916
11
51.010470
21
94.470160
0
LINE
8
Layer 1
10
51.010470
20
94.470160
11
50.466044
21
94.164175
0
LINE
8
Layer 1
10
50.466044
20
94.164175
11
49.001144
21
93.811635
0
LINE
8
Layer 1
10
49.001144
20
93.811635
11
47.067955
21
93.810463
0
LINE
8
Layer 1
10
47.067955
20
93.810463
11
43.577833
21
94.180645
0
LINE
8
Layer 1
10
43.577833
20
94.180645
11
41.382247
21
94.624912
0
LINE
8
Layer 1
10
41.382247
20
94.624912
11
40.234777
21
95.109554
0
LINE
8
Layer 1
10
40.234777
20
95.109554
11
39.437010
21
95.735152
0
LINE
8
Layer 1
10
39.437010
20
95.735152
11
38.988926
21
96.501730
0
LINE
8
Layer 1
10
38.988926
20
96.501730
11
38.890504
21
97.409310
0
LINE
8
Layer 1
10
38.890504
20
97.409310
11
39.078796
21
98.180607
0
LINE
8
Layer 1
10
39.078796
20
98.180607
11
39.515710
21
98.856589
0
LINE
8
Layer 1
10
39.515710
20
98.856589
11
40.201225
21
99.437261
0
LINE
8
Layer 1
10
40.201225
20
99.437261
11
41.135323
21
99.922626
0
LINE
8
Layer 1
10
41.135323
20
99.922626
11
42.216667
21
100.282180
0
LINE
8
Layer 1
10
42.216667
20
100.282180
11
43.411243
21
100.504994
0
LINE
8
Layer 1
10
43.411243
20
100.504994
11
46.140181
21
100.540447
0
LINE
8
Layer 1
10
46.140181
20
100.540447
11
46.140181
21
100.540447
0
LINE
8
Layer 1
10
46.140181
20
100.540447
11
46.140181
21
100.540447
0
LINE
8
Layer 1
10
48.557781
20
96.237041
11
48.385038
21
96.564535
0
LINE
8
Layer 1
10
48.385038
20
96.564535
11
47.813248
21
96.862736
0
LINE
8
Layer 1
10
47.813248
20
96.862736
11
46.493066
21
97.166159
0
LINE
8
Layer 1
10
46.493066
20
97.166159
11
45.437544
21
97.189564
0
LINE
8
Layer 1
10
45.437544
20
97.189564
11
44.331803
21
96.989606
0
LINE
8
Layer 1
10
44.331803
20
96.989606
11
42.826206
21
96.747765
0
LINE
8
Layer 1
10
42.826206
20
96.747765
11
42.015545
21
96.524015
0
LINE
8
Layer 1
10
42.015545
20
96.524015
11
41.731322
21
96.270183
0
LINE
8
Layer 1
10
41.731322
20
96.270183
11
41.994218
21
95.901291
0
LINE
8
Layer 1
10
41.994218
20
95.901291
11
42.844172
21
95.577601
0
LINE
8
Layer 1
10
42.844172
20
95.577601
11
44.650863
21
95.296970
0
LINE
8
Layer 1
10
44.650863
20
95.296970
11
47.099965
21
95.345603
0
LINE
8
Layer 1
10
47.099965
20
95.345603
11
48.167043
21
95.678057
0
LINE
8
Layer 1
10
48.167043
20
95.678057
11
48.446965
21
95.929220
0
LINE
8
Layer 1
10
48.446965
20
95.929220
11
48.557781
21
96.237041
0
LINE
8
Layer 1
10
48.557781
20
96.237041
11
48.557781
21
96.237041
0
LINE
8
Layer 1
10
48.557781
20
96.237041
11
48.557781
21
96.237041
0
LINE
8
Layer 1
10
62.638367
20
94.106819
11
62.280806
21
93.686520
0
LINE
8
Layer 1
10
62.280806
20
93.686520
11
62.134840
21
93.015494
0
LINE
8
Layer 1
10
62.134840
20
93.015494
11
61.761091
21
92.738047
0
LINE
8
Layer 1
10
61.761091
20
92.738047
11
60.645484
21
93.089402
0
LINE
8
Layer 1
10
60.645484
20
93.089402
11
58.873633
21
93.991735
0
LINE
8
Layer 1
10
58.873633
20
93.991735
11
57.035882
21
94.896359
0
LINE
8
Layer 1
10
57.035882
20
94.896359
11
55.722692
21
95.254270
0
LINE
8
Layer 1
10
55.722692
20
95.254270
11
55.016352
21
95.092759
0
LINE
8
Layer 1
10
55.016352
20
95.092759
11
54.735727
21
94.460074
0
LINE
8
Layer 1
10
54.735727
20
94.460074
11
54.728138
21
94.079441
0
LINE
8
Layer 1
10
54.728138
20
94.079441
11
54.726264
21
93.771923
0
LINE
8
Layer 1
10
54.726264
20
93.771923
11
54.627577
21
93.513160
0
LINE
8
Layer 1
10
54.627577
20
93.513160
11
54.379229
21
93.347878
0
LINE
8
Layer 1
10
54.379229
20
93.347878
11
53.433478
21
93.297911
0
LINE
8
Layer 1
10
53.433478
20
93.297911
11
52.974751
21
93.347213
0
LINE
8
Layer 1
10
52.974751
20
93.347213
11
52.143986
21
94.136726
0
LINE
8
Layer 1
10
52.143986
20
94.136726
11
51.957258
21
94.603125
0
LINE
8
Layer 1
10
51.957258
20
94.603125
11
51.923021
21
95.117265
0
LINE
8
Layer 1
10
51.923021
20
95.117265
11
52.293427
21
96.471449
0
LINE
8
Layer 1
10
52.293427
20
96.471449
11
52.663824
21
97.825633
0
LINE
8
Layer 1
10
52.663824
20
97.825633
11
52.490777
21
98.712967
0
LINE
8
Layer 1
10
52.490777
20
98.712967
11
51.820775
21
99.443729
0
LINE
8
Layer 1
10
51.820775
20
99.443729
11
51.817863
21
99.689923
0
LINE
8
Layer 1
10
51.817863
20
99.689923
11
51.961625
21
100.155804
0
LINE
8
Layer 1
10
51.961625
20
100.155804
11
52.402181
21
100.543955
0
LINE
8
Layer 1
10
52.402181
20
100.543955
11
53.139532
21
100.854401
0
LINE
8
Layer 1
10
53.139532
20
100.854401
11
54.173679
21
101.087166
0
LINE
8
Layer 1
10
54.173679
20
101.087166
11
56.088539
21
101.274237
0
LINE
8
Layer 1
10
56.088539
20
101.274237
11
58.127892
21
101.223843
0
LINE
8
Layer 1
10
58.127892
20
101.223843
11
59.868663
21
100.948376
0
LINE
8
Layer 1
10
59.868663
20
100.948376
11
61.369488
21
100.421821
0
LINE
8
Layer 1
10
61.369488
20
100.421821
11
62.529983
21
99.623895
0
LINE
8
Layer 1
10
62.529983
20
99.623895
11
62.800531
21
99.173814
0
LINE
8
Layer 1
10
62.800531
20
99.173814
11
62.864611
21
98.689637
0
LINE
8
Layer 1
10
62.864611
20
98.689637
11
62.523213
21
97.914337
0
LINE
8
Layer 1
10
62.523213
20
97.914337
11
61.617468
21
97.104688
0
LINE
8
Layer 1
10
61.617468
20
97.104688
11
60.436678
21
96.446195
0
LINE
8
Layer 1
10
60.436678
20
96.446195
11
59.175997
21
96.034253
0
LINE
8
Layer 1
10
59.175997
20
96.034253
11
61.182775
21
95.208107
0
LINE
8
Layer 1
10
61.182775
20
95.208107
11
62.098765
21
94.667011
0
LINE
8
Layer 1
10
62.098765
20
94.667011
11
62.638367
21
94.106819
0
LINE
8
Layer 1
10
62.638367
20
94.106819
11
62.638367
21
94.106819
0
LINE
8
Layer 1
10
62.638367
20
94.106819
11
62.638367
21
94.106819
0
LINE
8
Layer 1
10
56.453941
20
97.840365
11
55.576871
21
97.824841
0
LINE
8
Layer 1
10
55.576871
20
97.824841
11
55.266641
21
97.591321
0
LINE
8
Layer 1
10
55.266641
20
97.591321
11
55.360059
21
97.092005
0
LINE
8
Layer 1
10
55.360059
20
97.092005
11
55.541738
21
96.809510
0
LINE
8
Layer 1
10
55.541738
20
96.809510
11
55.792017
21
96.700092
0
LINE
8
Layer 1
10
55.792017
20
96.700092
11
56.608015
21
96.714395
0
LINE
8
Layer 1
10
56.608015
20
96.714395
11
57.719239
21
96.981803
0
LINE
8
Layer 1
10
57.719239
20
96.981803
11
58.223733
21
97.198010
0
LINE
8
Layer 1
10
58.223733
20
97.198010
11
58.402079
21
97.400440
0
LINE
8
Layer 1
10
58.402079
20
97.400440
11
58.029864
21
97.642692
0
LINE
8
Layer 1
10
58.029864
20
97.642692
11
56.869386
21
97.806911
0
LINE
8
Layer 1
10
56.869386
20
97.806911
11
56.453941
21
97.840365
0
LINE
8
Layer 1
10
56.453941
20
97.840365
11
56.453941
21
97.840365
0
LINE
8
Layer 1
10
35.549185
20
81.315955
11
35.404126
21
80.904010
0
LINE
8
Layer 1
10
35.404126
20
80.904010
11
35.037690
21
80.548342
0
LINE
8
Layer 1
10
35.037690
20
80.548342
11
33.640593
21
80.005747
0
LINE
8
Layer 1
10
33.640593
20
80.005747
11
32.030076
21
79.766295
0
LINE
8
Layer 1
10
32.030076
20
79.766295
11
30.340133
21
79.779328
0
LINE
8
Layer 1
10
30.340133
20
79.779328
11
28.376909
21
80.165020
0
LINE
8
Layer 1
10
28.376909
20
80.165020
11
26.689529
21
80.983661
0
LINE
8
Layer 1
10
26.689529
20
80.983661
11
26.017399
21
81.509176
0
LINE
8
Layer 1
10
26.017399
20
81.509176
11
25.550240
21
82.050462
0
LINE
8
Layer 1
10
25.550240
20
82.050462
11
25.288074
21
82.607518
0
LINE
8
Layer 1
10
25.288074
20
82.607518
11
25.230923
21
83.180341
0
LINE
8
Layer 1
10
25.230923
20
83.180341
11
25.402384
21
84.036112
0
LINE
8
Layer 1
10
25.402384
20
84.036112
11
25.781168
21
84.867513
0
LINE
8
Layer 1
10
25.781168
20
84.867513
11
26.367274
21
85.674530
0
LINE
8
Layer 1
10
26.367274
20
85.674530
11
27.160702
21
86.457149
0
LINE
8
Layer 1
10
27.160702
20
86.457149
11
28.258522
21
87.235353
0
LINE
8
Layer 1
10
28.258522
20
87.235353
11
29.449229
21
87.758476
0
LINE
8
Layer 1
10
29.449229
20
87.758476
11
30.732843
21
88.026517
0
LINE
8
Layer 1
10
30.732843
20
88.026517
11
32.109387
21
88.039476
0
LINE
8
Layer 1
10
32.109387
20
88.039476
11
33.699314
21
87.736153
0
LINE
8
Layer 1
10
33.699314
20
87.736153
11
35.054018
21
87.101099
0
LINE
8
Layer 1
10
35.054018
20
87.101099
11
35.962972
21
86.262016
0
LINE
8
Layer 1
10
35.962972
20
86.262016
11
36.171613
21
85.813857
0
LINE
8
Layer 1
10
36.171613
20
85.813857
11
36.216336
21
85.346622
0
LINE
8
Layer 1
10
36.216336
20
85.346622
11
35.932017
21
84.877455
0
LINE
8
Layer 1
10
35.932017
20
84.877455
11
35.166681
21
84.594576
0
LINE
8
Layer 1
10
35.166681
20
84.594576
11
33.905297
21
85.089627
0
LINE
8
Layer 1
10
33.905297
20
85.089627
11
32.569266
21
85.467901
0
LINE
8
Layer 1
10
32.569266
20
85.467901
11
30.981061
21
85.334379
0
LINE
8
Layer 1
10
30.981061
20
85.334379
11
29.018126
21
84.708289
0
LINE
8
Layer 1
10
29.018126
20
84.708289
11
27.390274
21
83.858318
0
LINE
8
Layer 1
10
27.390274
20
83.858318
11
26.968036
21
83.450249
0
LINE
8
Layer 1
10
26.968036
20
83.450249
11
26.806919
21
83.053439
0
LINE
8
Layer 1
10
26.806919
20
83.053439
11
26.999940
21
82.493419
0
LINE
8
Layer 1
10
26.999940
20
82.493419
11
27.672622
21
82.011766
0
LINE
8
Layer 1
10
27.672622
20
82.011766
11
28.573731
21
81.699270
0
LINE
8
Layer 1
10
28.573731
20
81.699270
11
29.618796
21
81.535143
0
LINE
8
Layer 1
10
29.618796
20
81.535143
11
30.507743
21
81.568135
0
LINE
8
Layer 1
10
30.507743
20
81.568135
11
31.424203
21
81.807990
0
LINE
8
Layer 1
10
31.424203
20
81.807990
11
32.920136
21
82.487256
0
LINE
8
Layer 1
10
32.920136
20
82.487256
11
33.630596
21
82.734439
0
LINE
8
Layer 1
10
33.630596
20
82.734439
11
34.232334
21
82.787450
0
LINE
8
Layer 1
10
34.232334
20
82.787450
11
34.780367
21
82.611081
0
LINE
8
Layer 1
10
34.780367
20
82.611081
11
35.242009
21
82.177128
0
LINE
8
Layer 1
10
35.242009
20
82.177128
11
35.487702
21
81.726917
0
LINE
8
Layer 1
10
35.487702
20
81.726917
11
35.549185
21
81.315955
0
LINE
8
Layer 1
10
35.549185
20
81.315955
11
35.549185
21
81.315955
0
LINE
8
Layer 1
10
35.549185
20
81.315955
11
35.549185
21
81.315955
0
LINE
8
Layer 1
10
46.024506
20
78.430481
11
44.347669
21
79.174340
0
LINE
8
Layer 1
10
44.347669
20
79.174340
11
43.943457
21
79.552917
0
LINE
8
Layer 1
10
43.943457
20
79.552917
11
43.828770
21
79.935891
0
LINE
8
Layer 1
10
43.828770
20
79.935891
11
43.981342
21
80.335639
0
LINE
8
Layer 1
10
43.981342
20
80.335639
11
44.133925
21
80.735390
0
LINE
8
Layer 1
10
44.133925
20
80.735390
11
43.964081
21
81.099674
0
LINE
8
Layer 1
10
43.964081
20
81.099674
11
43.381981
21
81.263374
0
LINE
8
Layer 1
10
43.381981
20
81.263374
11
41.619370
21
81.257767
0
LINE
8
Layer 1
10
41.619370
20
81.257767
11
39.838119
21
81.302891
0
LINE
8
Layer 1
10
39.838119
20
81.302891
11
39.496687
21
80.874935
0
LINE
8
Layer 1
10
39.496687
20
80.874935
11
39.757641
21
80.269757
0
LINE
8
Layer 1
10
39.757641
20
80.269757
11
40.019534
21
79.676487
0
LINE
8
Layer 1
10
40.019534
20
79.676487
11
39.920511
21
79.430709
0
LINE
8
Layer 1
10
39.920511
20
79.430709
11
39.665458
21
79.231377
0
LINE
8
Layer 1
10
39.665458
20
79.231377
11
38.872710
21
79.092287
0
LINE
8
Layer 1
10
38.872710
20
79.092287
11
38.192257
21
79.263947
0
LINE
8
Layer 1
10
38.192257
20
79.263947
11
37.639077
21
79.659054
0
LINE
8
Layer 1
10
37.639077
20
79.659054
11
37.310635
21
80.108357
0
LINE
8
Layer 1
10
37.310635
20
80.108357
11
37.223754
21
80.547484
0
LINE
8
Layer 1
10
37.223754
20
80.547484
11
37.080223
21
81.035861
0
LINE
8
Layer 1
10
37.080223
20
81.035861
11
36.581783
21
81.632603
0
LINE
8
Layer 1
10
36.581783
20
81.632603
11
36.082267
21
82.215652
0
LINE
8
Layer 1
10
36.082267
20
82.215652
11
35.935497
21
82.662677
0
LINE
8
Layer 1
10
35.935497
20
82.662677
11
36.148637
21
83.137688
0
LINE
8
Layer 1
10
36.148637
20
83.137688
11
35.909038
21
83.452154
0
LINE
8
Layer 1
10
35.909038
20
83.452154
11
36.123301
21
84.222124
0
LINE
8
Layer 1
10
36.123301
20
84.222124
11
35.937921
21
85.233631
0
LINE
8
Layer 1
10
35.937921
20
85.233631
11
35.752766
21
86.245121
0
LINE
8
Layer 1
10
35.752766
20
86.245121
11
36.079396
21
86.901583
0
LINE
8
Layer 1
10
36.079396
20
86.901583
11
36.944472
21
87.403951
0
LINE
8
Layer 1
10
36.944472
20
87.403951
11
37.598873
21
87.127577
0
LINE
8
Layer 1
10
37.598873
20
87.127577
11
38.100282
21
86.760473
0
LINE
8
Layer 1
10
38.100282
20
86.760473
11
38.448716
21
86.302613
0
LINE
8
Layer 1
10
38.448716
20
86.302613
11
38.644195
21
85.753973
0
LINE
8
Layer 1
10
38.644195
20
85.753973
11
38.776151
21
83.775048
0
LINE
8
Layer 1
10
38.776151
20
83.775048
11
40.211733
21
83.548655
0
LINE
8
Layer 1
10
40.211733
20
83.548655
11
41.895512
21
83.526845
0
LINE
8
Layer 1
10
41.895512
20
83.526845
11
43.487312
21
83.739973
0
LINE
8
Layer 1
10
43.487312
20
83.739973
11
43.591726
21
84.506796
0
LINE
8
Layer 1
10
43.591726
20
84.506796
11
43.348425
21
85.627337
0
LINE
8
Layer 1
10
43.348425
20
85.627337
11
43.082831
21
86.737303
0
LINE
8
Layer 1
10
43.082831
20
86.737303
11
43.291165
21
87.360457
0
LINE
8
Layer 1
10
43.291165
20
87.360457
11
43.811066
21
87.884604
0
LINE
8
Layer 1
10
43.811066
20
87.884604
11
44.760063
21
87.695038
0
LINE
8
Layer 1
10
44.760063
20
87.695038
11
45.420759
21
87.339648
0
LINE
8
Layer 1
10
45.420759
20
87.339648
11
45.793133
21
86.818414
0
LINE
8
Layer 1
10
45.793133
20
86.818414
11
45.877161
21
86.131313
0
LINE
8
Layer 1
10
45.877161
20
86.131313
11
45.751679
21
85.372493
0
LINE
8
Layer 1
10
45.751679
20
85.372493
11
45.632864
21
84.699080
0
LINE
8
Layer 1
10
45.632864
20
84.699080
11
45.716021
21
83.648223
0
LINE
8
Layer 1
10
45.716021
20
83.648223
11
46.097275
21
82.182660
0
LINE
8
Layer 1
10
46.097275
20
82.182660
11
46.478585
21
80.720306
0
LINE
8
Layer 1
10
46.478585
20
80.720306
11
46.562436
21
79.678674
0
LINE
8
Layer 1
10
46.562436
20
79.678674
11
46.398796
21
78.993710
0
LINE
8
Layer 1
10
46.398796
20
78.993710
11
46.024506
21
78.430481
0
LINE
8
Layer 1
10
46.024506
20
78.430481
11
46.024506
21
78.430481
0
LINE
8
Layer 1
10
46.024506
20
78.430481
11
46.024506
21
78.430481
0
LINE
8
Layer 1
10
56.385203
20
77.682180
11
54.516790
21
78.017376
0
LINE
8
Layer 1
10
54.516790
20
78.017376
11
52.462707
21
78.090395
0
LINE
8
Layer 1
10
52.462707
20
78.090395
11
50.408403
21
78.163431
0
LINE
8
Layer 1
10
50.408403
20
78.163431
11
49.063851
21
78.363959
0
LINE
8
Layer 1
10
49.063851
20
78.363959
11
47.919894
21
78.732809
0
LINE
8
Layer 1
10
47.919894
20
78.732809
11
47.006899
21
79.316947
0
LINE
8
Layer 1
10
47.006899
20
79.316947
11
46.793242
21
79.649447
0
LINE
8
Layer 1
10
46.793242
20
79.649447
11
46.741450
21
80.008905
0
LINE
8
Layer 1
10
46.741450
20
80.008905
11
46.850248
21
80.203020
0
LINE
8
Layer 1
10
46.850248
20
80.203020
11
47.142275
21
80.345551
0
LINE
8
Layer 1
10
47.142275
20
80.345551
11
48.275923
21
80.475825
0
LINE
8
Layer 1
10
48.275923
20
80.475825
11
50.473525
21
80.692360
0
LINE
8
Layer 1
10
50.473525
20
80.692360
11
50.769057
21
81.935712
0
LINE
8
Layer 1
10
50.769057
20
81.935712
11
51.065551
21
83.191356
0
LINE
8
Layer 1
10
51.065551
20
83.191356
11
51.018088
21
83.853347
0
LINE
8
Layer 1
10
51.018088
20
83.853347
11
50.766718
21
84.445726
0
LINE
8
Layer 1
10
50.766718
20
84.445726
11
49.576457
21
84.430757
0
LINE
8
Layer 1
10
49.576457
20
84.430757
11
48.363959
21
84.417589
0
LINE
8
Layer 1
10
48.363959
20
84.417589
11
47.602157
21
84.608107
0
LINE
8
Layer 1
10
47.602157
20
84.608107
11
47.068579
21
85.038542
0
LINE
8
Layer 1
10
47.068579
20
85.038542
11
46.839856
21
85.493746
0
LINE
8
Layer 1
10
46.839856
20
85.493746
11
46.792972
21
86.020340
0
LINE
8
Layer 1
10
46.792972
20
86.020340
11
47.008979
21
86.531966
0
LINE
8
Layer 1
10
47.008979
20
86.531966
11
49.258059
21
86.559983
0
LINE
8
Layer 1
10
49.258059
20
86.559983
11
50.404589
21
86.713735
0
LINE
8
Layer 1
10
50.404589
20
86.713735
11
51.146905
21
87.047584
0
LINE
8
Layer 1
10
51.146905
20
87.047584
11
52.019183
21
86.940627
0
LINE
8
Layer 1
10
52.019183
20
86.940627
11
53.187848
21
86.951018
0
LINE
8
Layer 1
10
53.187848
20
86.951018
11
54.377627
21
86.959835
0
LINE
8
Layer 1
10
54.377627
20
86.959835
11
55.229529
21
86.866761
0
LINE
8
Layer 1
10
55.229529
20
86.866761
11
56.242415
21
85.871563
0
LINE
8
Layer 1
10
56.242415
20
85.871563
11
56.473436
21
85.338570
0
LINE
8
Layer 1
10
56.473436
20
85.338570
11
56.520842
21
84.781980
0
LINE
8
Layer 1
10
56.520842
20
84.781980
11
56.270390
21
84.396303
0
LINE
8
Layer 1
10
56.270390
20
84.396303
11
55.738878
21
84.500305
0
LINE
8
Layer 1
10
55.738878
20
84.500305
11
55.162419
21
84.595936
0
LINE
8
Layer 1
10
55.162419
20
84.595936
11
54.553483
21
84.571166
0
LINE
8
Layer 1
10
54.553483
20
84.571166
11
54.105409
21
84.385853
0
LINE
8
Layer 1
10
54.105409
20
84.385853
11
53.818219
21
84.040006
0
LINE
8
Layer 1
10
53.818219
20
84.040006
11
53.691934
21
83.533635
0
LINE
8
Layer 1
10
53.691934
20
83.533635
11
53.750958
21
82.741539
0
LINE
8
Layer 1
10
53.750958
20
82.741539
11
53.809245
21
81.937126
0
LINE
8
Layer 1
10
53.809245
20
81.937126
11
53.594452
21
81.443830
0
LINE
8
Layer 1
10
53.594452
20
81.443830
11
53.378916
21
80.938220
0
LINE
8
Layer 1
10
53.378916
20
80.938220
11
53.486754
21
80.628176
0
LINE
8
Layer 1
10
53.486754
20
80.628176
11
53.865743
21
80.406852
0
LINE
8
Layer 1
10
53.865743
20
80.406852
11
54.973423
21
80.194870
0
LINE
8
Layer 1
10
54.973423
20
80.194870
11
55.926598
21
79.853482
0
LINE
8
Layer 1
10
55.926598
20
79.853482
11
56.414879
21
79.051429
0
LINE
8
Layer 1
10
56.414879
20
79.051429
11
56.621282
21
78.167326
0
LINE
8
Layer 1
10
56.621282
20
78.167326
11
56.385203
21
77.682180
0
LINE
8
Layer 1
10
56.385203
20
77.682180
11
56.385203
21
77.682180
0
LINE
8
Layer 1
10
56.385203
20
77.682180
11
56.385203
21
77.682180
0
LINE
8
Layer 1
10
67.186460
20
76.837196
11
65.778658
21
77.150417
0
LINE
8
Layer 1
10
65.778658
20
77.150417
11
64.752697
21
77.832495
0
LINE
8
Layer 1
10
64.752697
20
77.832495
11
63.692394
21
79.492816
0
LINE
8
Layer 1
10
63.692394
20
79.492816
11
63.000820
21
80.292739
0
LINE
8
Layer 1
10
63.000820
20
80.292739
11
62.136994
21
80.725193
0
LINE
8
Layer 1
10
62.136994
20
80.725193
11
60.901927
21
80.148221
0
LINE
8
Layer 1
10
60.901927
20
80.148221
11
59.482956
21
79.745445
0
LINE
8
Layer 1
10
59.482956
20
79.745445
11
59.321553
21
79.377323
0
LINE
8
Layer 1
10
59.321553
20
79.377323
11
59.639945
21
78.515128
0
LINE
8
Layer 1
10
59.639945
20
78.515128
11
59.958105
21
77.652812
0
LINE
8
Layer 1
10
59.958105
20
77.652812
11
59.604986
21
77.219996
0
LINE
8
Layer 1
10
59.604986
20
77.219996
11
58.833283
21
77.066837
0
LINE
8
Layer 1
10
58.833283
20
77.066837
11
58.182951
21
77.236829
0
LINE
8
Layer 1
10
58.182951
20
77.236829
11
57.632880
21
77.634007
0
LINE
8
Layer 1
10
57.632880
20
77.634007
11
57.183050
21
78.258385
0
LINE
8
Layer 1
10
57.183050
20
78.258385
11
56.833443
21
79.109976
0
LINE
8
Layer 1
10
56.833443
20
79.109976
11
56.503943
21
80.703615
0
LINE
8
Layer 1
10
56.503943
20
80.703615
11
56.326642
21
82.909201
0
LINE
8
Layer 1
10
56.326642
20
82.909201
11
56.138580
21
85.723281
0
LINE
8
Layer 1
10
56.138580
20
85.723281
11
57.206732
21
85.858751
0
LINE
8
Layer 1
10
57.206732
20
85.858751
11
58.124828
21
85.557210
0
LINE
8
Layer 1
10
58.124828
20
85.557210
11
58.821647
21
84.818324
0
LINE
8
Layer 1
10
58.821647
20
84.818324
11
59.169333
21
84.122840
0
LINE
8
Layer 1
10
59.169333
20
84.122840
11
59.346425
21
83.361019
0
LINE
8
Layer 1
10
59.346425
20
83.361019
11
59.448112
21
82.965356
0
LINE
8
Layer 1
10
59.448112
20
82.965356
11
59.657087
21
82.819350
0
LINE
8
Layer 1
10
59.657087
20
82.819350
11
60.192646
21
82.911764
0
LINE
8
Layer 1
10
60.192646
20
82.911764
11
60.329767
21
83.185167
0
LINE
8
Layer 1
10
60.329767
20
83.185167
11
60.675005
21
83.444900
0
LINE
8
Layer 1
10
60.675005
20
83.444900
11
61.989998
21
83.923384
0
LINE
8
Layer 1
10
61.989998
20
83.923384
11
63.719427
21
84.417615
0
LINE
8
Layer 1
10
63.719427
20
84.417615
11
64.591398
21
84.796322
0
LINE
8
Layer 1
10
64.591398
20
84.796322
11
65.283218
21
85.119052
0
LINE
8
Layer 1
10
65.283218
20
85.119052
11
66.053637
21
85.183119
0
LINE
8
Layer 1
10
66.053637
20
85.183119
11
67.048397
21
84.943132
0
LINE
8
Layer 1
10
67.048397
20
84.943132
11
67.345698
21
84.731584
0
LINE
8
Layer 1
10
67.345698
20
84.731584
11
67.430867
21
84.481743
0
LINE
8
Layer 1
10
67.430867
20
84.481743
11
67.301226
21
84.233862
0
LINE
8
Layer 1
10
67.301226
20
84.233862
11
67.645161
21
83.557226
0
LINE
8
Layer 1
10
67.645161
20
83.557226
11
67.738103
21
83.054325
0
LINE
8
Layer 1
10
67.738103
20
83.054325
11
67.600327
21
82.702661
0
LINE
8
Layer 1
10
67.600327
20
82.702661
11
67.255833
21
82.527408
0
LINE
8
Layer 1
10
67.255833
20
82.527408
11
66.088545
21
82.523093
0
LINE
8
Layer 1
10
66.088545
20
82.523093
11
65.752976
21
82.425511
0
LINE
8
Layer 1
10
65.752976
20
82.425511
11
65.403798
21
82.080001
0
LINE
8
Layer 1
10
65.403798
20
82.080001
11
64.963047
21
81.760198
0
LINE
8
Layer 1
10
64.963047
20
81.760198
11
64.352655
21
81.739986
0
LINE
8
Layer 1
10
64.352655
20
81.739986
11
64.791429
21
81.009652
0
LINE
8
Layer 1
10
64.791429
20
81.009652
11
65.591744
21
80.114862
0
LINE
8
Layer 1
10
65.591744
20
80.114862
11
67.054106
21
78.533221
0
LINE
8
Layer 1
10
67.054106
20
78.533221
11
67.456106
21
78.319347
0
LINE
8
Layer 1
10
67.456106
20
78.319347
11
67.673708
21
78.003524
0
LINE
8
Layer 1
10
67.673708
20
78.003524
11
67.823848
21
77.388466
0
LINE
8
Layer 1
10
67.823848
20
77.388466
11
67.650715
21
77.073427
0
LINE
8
Layer 1
10
67.650715
20
77.073427
11
67.186460
21
76.837196
0
LINE
8
Layer 1
10
67.186460
20
76.837196
11
67.186460
21
76.837196
0
LINE
8
Layer 1
10
67.186460
20
76.837196
11
67.186460
21
76.837196
0
LINE
8
Layer 1
10
77.250682
20
76.002089
11
75.382267
21
76.337287
0
LINE
8
Layer 1
10
75.382267
20
76.337287
11
73.328189
21
76.410304
0
LINE
8
Layer 1
10
73.328189
20
76.410304
11
71.273882
21
76.483340
0
LINE
8
Layer 1
10
71.273882
20
76.483340
11
69.929243
21
76.683880
0
LINE
8
Layer 1
10
69.929243
20
76.683880
11
68.785370
21
77.052720
0
LINE
8
Layer 1
10
68.785370
20
77.052720
11
67.872376
21
77.636856
0
LINE
8
Layer 1
10
67.872376
20
77.636856
11
67.658718
21
77.969356
0
LINE
8
Layer 1
10
67.658718
20
77.969356
11
67.606923
21
78.328811
0
LINE
8
Layer 1
10
67.606923
20
78.328811
11
67.715718
21
78.522928
0
LINE
8
Layer 1
10
67.715718
20
78.522928
11
68.007722
21
78.665463
0
LINE
8
Layer 1
10
68.007722
20
78.665463
11
69.141179
21
78.795756
0
LINE
8
Layer 1
10
69.141179
20
78.795756
11
71.338999
21
79.012274
0
LINE
8
Layer 1
10
71.338999
20
79.012274
11
71.634536
21
80.255624
0
LINE
8
Layer 1
10
71.634536
20
80.255624
11
71.931030
21
81.511270
0
LINE
8
Layer 1
10
71.931030
20
81.511270
11
71.883480
21
82.173266
0
LINE
8
Layer 1
10
71.883480
20
82.173266
11
71.632194
21
82.765632
0
LINE
8
Layer 1
10
71.632194
20
82.765632
11
70.441933
21
82.750668
0
LINE
8
Layer 1
10
70.441933
20
82.750668
11
69.229436
21
82.737500
0
LINE
8
Layer 1
10
69.229436
20
82.737500
11
68.467551
21
82.928026
0
LINE
8
Layer 1
10
68.467551
20
82.928026
11
67.934053
21
83.358457
0
LINE
8
Layer 1
10
67.934053
20
83.358457
11
67.705332
21
83.813658
0
LINE
8
Layer 1
10
67.705332
20
83.813658
11
67.658448
21
84.340251
0
LINE
8
Layer 1
10
67.658448
20
84.340251
11
67.874450
21
84.851881
0
LINE
8
Layer 1
10
67.874450
20
84.851881
11
70.123533
21
84.879894
0
LINE
8
Layer 1
10
70.123533
20
84.879894
11
71.270067
21
85.033642
0
LINE
8
Layer 1
10
71.270067
20
85.033642
11
72.012384
21
85.367498
0
LINE
8
Layer 1
10
72.012384
20
85.367498
11
72.884659
21
85.260541
0
LINE
8
Layer 1
10
72.884659
20
85.260541
11
74.053325
21
85.270930
0
LINE
8
Layer 1
10
74.053325
20
85.270930
11
75.243106
21
85.279749
0
LINE
8
Layer 1
10
75.243106
20
85.279749
11
76.095002
21
85.186670
0
LINE
8
Layer 1
10
76.095002
20
85.186670
11
77.107888
21
84.191474
0
LINE
8
Layer 1
10
77.107888
20
84.191474
11
77.338911
21
83.658483
0
LINE
8
Layer 1
10
77.338911
20
83.658483
11
77.386321
21
83.101897
0
LINE
8
Layer 1
10
77.386321
20
83.101897
11
77.135640
21
82.716229
0
LINE
8
Layer 1
10
77.135640
20
82.716229
11
76.604354
21
82.820216
0
LINE
8
Layer 1
10
76.604354
20
82.820216
11
76.027898
21
82.915845
0
LINE
8
Layer 1
10
76.027898
20
82.915845
11
75.418963
21
82.891076
0
LINE
8
Layer 1
10
75.418963
20
82.891076
11
74.970888
21
82.705763
0
LINE
8
Layer 1
10
74.970888
20
82.705763
11
74.683696
21
82.359915
0
LINE
8
Layer 1
10
74.683696
20
82.359915
11
74.557410
21
81.853540
0
LINE
8
Layer 1
10
74.557410
20
81.853540
11
74.616437
21
81.061447
0
LINE
8
Layer 1
10
74.616437
20
81.061447
11
74.674724
21
80.257035
0
LINE
8
Layer 1
10
74.674724
20
80.257035
11
74.459928
21
79.763744
0
LINE
8
Layer 1
10
74.459928
20
79.763744
11
74.244395
21
79.258132
0
LINE
8
Layer 1
10
74.244395
20
79.258132
11
74.352231
21
78.948088
0
LINE
8
Layer 1
10
74.352231
20
78.948088
11
74.731220
21
78.726758
0
LINE
8
Layer 1
10
74.731220
20
78.726758
11
75.838679
21
78.514798
0
LINE
8
Layer 1
10
75.838679
20
78.514798
11
76.792071
21
78.173394
0
LINE
8
Layer 1
10
76.792071
20
78.173394
11
77.280358
21
77.371341
0
LINE
8
Layer 1
10
77.280358
20
77.371341
11
77.486761
21
76.487240
0
LINE
8
Layer 1
10
77.486761
20
76.487240
11
77.250682
21
76.002089
0
LINE
8
Layer 1
10
77.250682
20
76.002089
11
77.250682
21
76.002089
0
LINE
8
Layer 1
10
77.250682
20
76.002089
11
77.250682
21
76.002089
0
LINE
8
Layer 1
10
88.339521
20
75.453864
11
87.830732
21
75.217760
0
LINE
8
Layer 1
10
87.830732
20
75.217760
11
87.369469
21
75.162588
0
LINE
8
Layer 1
10
87.369469
20
75.162588
11
87.086635
21
75.210097
0
LINE
8
Layer 1
10
87.086635
20
75.210097
11
85.747349
21
76.326730
0
LINE
8
Layer 1
10
85.747349
20
76.326730
11
83.935725
21
77.456594
0
LINE
8
Layer 1
10
83.935725
20
77.456594
11
80.118709
21
79.351003
0
LINE
8
Layer 1
10
80.118709
20
79.351003
11
79.896098
21
78.766331
0
LINE
8
Layer 1
10
79.896098
20
78.766331
11
80.225098
21
77.478752
0
LINE
8
Layer 1
10
80.225098
20
77.478752
11
80.554105
21
76.191164
0
LINE
8
Layer 1
10
80.554105
20
76.191164
11
80.294508
21
75.686313
0
LINE
8
Layer 1
10
80.294508
20
75.686313
11
79.624555
21
75.564986
0
LINE
8
Layer 1
10
79.624555
20
75.564986
11
78.862162
21
75.749385
0
LINE
8
Layer 1
10
78.862162
20
75.749385
11
78.195655
21
76.171961
0
LINE
8
Layer 1
10
78.195655
20
76.171961
11
77.755270
21
76.665770
0
LINE
8
Layer 1
10
77.755270
20
76.665770
11
77.632664
21
77.140048
0
LINE
8
Layer 1
10
77.632664
20
77.140048
11
77.447292
21
79.418708
0
LINE
8
Layer 1
10
77.447292
20
79.418708
11
77.261915
21
81.697364
0
LINE
8
Layer 1
10
77.261915
20
81.697364
11
77.423735
21
82.643562
0
LINE
8
Layer 1
10
77.423735
20
82.643562
11
78.104620
21
82.902670
0
LINE
8
Layer 1
10
78.104620
20
82.902670
11
78.900638
21
82.943240
0
LINE
8
Layer 1
10
78.900638
20
82.943240
11
79.904757
21
82.542476
0
LINE
8
Layer 1
10
79.904757
20
82.542476
11
82.684166
21
80.608576
0
LINE
8
Layer 1
10
82.684166
20
80.608576
11
85.854103
21
78.889185
0
LINE
8
Layer 1
10
85.854103
20
78.889185
11
86.173939
21
79.601814
0
LINE
8
Layer 1
10
86.173939
20
79.601814
11
86.023895
21
80.184454
0
LINE
8
Layer 1
10
86.023895
20
80.184454
11
85.499389
21
80.978683
0
LINE
8
Layer 1
10
85.499389
20
80.978683
11
84.974665
21
81.772818
0
LINE
8
Layer 1
10
84.974665
20
81.772818
11
84.824590
21
82.355439
0
LINE
8
Layer 1
10
84.824590
20
82.355439
11
84.955512
21
82.638568
0
LINE
8
Layer 1
10
84.955512
20
82.638568
11
85.303385
21
82.913443
0
LINE
8
Layer 1
10
85.303385
20
82.913443
11
86.649896
21
83.438390
0
LINE
8
Layer 1
10
86.649896
20
83.438390
11
87.153101
21
83.255710
0
LINE
8
Layer 1
10
87.153101
20
83.255710
11
87.574346
21
82.868928
0
LINE
8
Layer 1
10
87.574346
20
82.868928
11
87.913634
21
82.278034
0
LINE
8
Layer 1
10
87.913634
20
82.278034
11
88.170964
21
81.483017
0
LINE
8
Layer 1
10
88.170964
20
81.483017
11
88.383029
21
79.965109
0
LINE
8
Layer 1
10
88.383029
20
79.965109
11
88.427580
21
77.992932
0
LINE
8
Layer 1
10
88.427580
20
77.992932
11
88.339521
21
75.453864
0
LINE
8
Layer 1
10
88.339521
20
75.453864
11
88.339521
21
75.453864
0
LINE
8
Layer 1
10
88.339521
20
75.453864
11
88.339521
21
75.453864
 0 
ENDSEC
 0 
EOF
