999
DXF created by Inkscape
  0
SECTION
  2
HEADER
  9
$ACADVER
  1
AC1014
  9
$HANDSEED
  5
FFFF
  9
$MEASUREMENT
 70
     1
  0
ENDSEC
  0
SECTION
  2
TABLES
  0
TABLE
  2
VPORT
  5
8
330
0
100
AcDbSymbolTable
 70
     4
  0
VPORT
  5
2E
330
8
100
AcDbSymbolTableRecord
100
AcDbViewportTableRecord
  2
*ACTIVE
 70
     0
 10
0.0
 20
0.0
 11
1.0
 21
1.0
 12
210.0
 22
148.5
 13
0.0
 23
0.0
 14
10.0
 24
10.0
 15
10.0
 25
10.0
 16
0.0
 26
0.0
 36
1.0
 17
0.0
 27
0.0
 37
0.0
 40
341.0
 41
1.24
 42
50.0
 43
0.0
 44
0.0
 50
0.0
 51
0.0
 71
     0
 72
   100
 73
     1
 74
     3
 75
     0
 76
     0
 77
     0
 78
     0
  0
ENDTAB
  0
TABLE
  2
LTYPE
  5
5
330
0
100
AcDbSymbolTable
 70
     1
  0
LTYPE
  5
14
330
5
100
AcDbSymbolTableRecord
100
AcDbLinetypeTableRecord
  2
BYBLOCK
 70
     0
  3

 72
    65
 73
     0
 40
0.0
  0
LTYPE
  5
15
330
5
100
AcDbSymbolTableRecord
100
AcDbLinetypeTableRecord
  2
BYLAYER
 70
     0
  3

 72
    65
 73
     0
 40
0.0
  0
LTYPE
  5
16
330
5
100
AcDbSymbolTableRecord
100
AcDbLinetypeTableRecord
  2
CONTINUOUS
 70
     0
  3
Solid line
 72
    65
 73
     0
 40
0.0
  0
ENDTAB
  0
TABLE
  2
LAYER
  5
2
100
AcDbSymbolTable
 70
2
  0
LAYER
  5
50
100
AcDbSymbolTableRecord
100
AcDbLayerTableRecord
  2
0
 70
0
  6
CONTINUOUS
  0
LAYER
  5
51
100
AcDbSymbolTableRecord
100
AcDbLayerTableRecord
  2
Layer_1
 70
0
  6
CONTINUOUS
  0
ENDTAB
  0
TABLE
  2
STYLE
  5
3
330
0
100
AcDbSymbolTable
 70
     1
  0
STYLE
  5
11
330
3
100
AcDbSymbolTableRecord
100
AcDbTextStyleTableRecord
  2
STANDARD
 70
     0
 40
0.0
 41
1.0
 50
0.0
 71
     0
 42
2.5
  3
txt
  4

  0
ENDTAB
  0
TABLE
  2
VIEW
  5
6
330
0
100
AcDbSymbolTable
 70
     0
  0
ENDTAB
  0
TABLE
  2
UCS
  5
7
330
0
100
AcDbSymbolTable
 70
     0
  0
ENDTAB
  0
TABLE
  2
APPID
  5
9
330
0
100
AcDbSymbolTable
 70
     2
  0
APPID
  5
12
330
9
100
AcDbSymbolTableRecord
100
AcDbRegAppTableRecord
  2
ACAD
 70
     0
  0
ENDTAB
  0
TABLE
  2
DIMSTYLE
  5
A
330
0
100
AcDbSymbolTable
 70
     1
  0
DIMSTYLE
105
27
330
A
100
AcDbSymbolTableRecord
100
AcDbDimStyleTableRecord
  2
ISO-25
 70
     0
  3

  4

  5

  6

  7

 40
1.0
 41
2.5
 42
0.625
 43
3.75
 44
1.25
 45
0.0
 46
0.0
 47
0.0
 48
0.0
140
2.5
141
2.5
142
0.0
143
0.03937007874016
144
1.0
145
0.0
146
1.0
147
0.625
 71
     0
 72
     0
 73
     0
 74
     0
 75
     0
 76
     0
 77
     1
 78
     8
170
     0
171
     3
172
     1
173
     0
174
     0
175
     0
176
     0
177
     0
178
     0
270
     2
271
     2
272
     2
273
     2
274
     3
340
11
275
     0
280
     0
281
     0
282
     0
283
     0
284
     8
285
     0
286
     0
287
     3
288
     0
  0
ENDTAB
  0
TABLE
  2
BLOCK_RECORD
  5
1
330
0
100
AcDbSymbolTable
 70
     1
  0
BLOCK_RECORD
  5
1F
330
1
100
AcDbSymbolTableRecord
100
AcDbBlockTableRecord
  2
*MODEL_SPACE
  0
BLOCK_RECORD
  5
1B
330
1
100
AcDbSymbolTableRecord
100
AcDbBlockTableRecord
  2
*PAPER_SPACE
  0
ENDTAB
  0
ENDSEC
  0
SECTION
  2
BLOCKS
  0
BLOCK
  5
20
330
1F
100
AcDbEntity
  8
0
100
AcDbBlockBegin
  2
*MODEL_SPACE
 70
     0
 10
0.0
 20
0.0
 30
0.0
  3
*MODEL_SPACE
  1

  0
ENDBLK
  5
21
330
1F
100
AcDbEntity
  8
0
100
AcDbBlockEnd
  0
BLOCK
  5
1C
330
1B
100
AcDbEntity
 67
     1
  8
0
100
AcDbBlockBegin
  2
*PAPER_SPACE
  1

  0
ENDBLK
  5
1D
330
1B
100
AcDbEntity
 67
     1
  8
0
100
AcDbBlockEnd
  0
ENDSEC
  0
SECTION
  2
ENTITIES
  0
SPLINE
  5
100
100
AcDbEntity
  8
Layer_1
 62
7
100
AcDbSpline
 70
8
 71
3
 72
8
 73
4
 74
0
 40
0
 40
0
 40
0
 40
0
 40
1
 40
1
 40
1
 40
1
 10
92.886558
 20
121.802063
 30
0.0
 10
90.081512
 20
123.650501
 30
0.0
 10
86.607870
 20
124.878181
 30
0.0
 10
83.020916
 20
125.288846
 30
0.0
  0
SPLINE
  5
101
100
AcDbEntity
  8
Layer_1
 62
7
100
AcDbSpline
 70
8
 71
3
 72
8
 73
4
 74
0
 40
0
 40
0
 40
0
 40
0
 40
1
 40
1
 40
1
 40
1
 10
83.020916
 20
125.288846
 30
0.0
 10
82.004188
 20
125.405251
 30
0.0
 10
80.074722
 20
125.452297
 30
0.0
 10
79.355346
 20
125.378228
 30
0.0
  0
SPLINE
  5
102
100
AcDbEntity
  8
Layer_1
 62
7
100
AcDbSpline
 70
8
 71
3
 72
8
 73
4
 74
0
 40
0
 40
0
 40
0
 40
0
 40
1
 40
1
 40
1
 40
1
 10
79.355346
 20
125.378228
 30
0.0
 10
77.799130
 20
125.217997
 30
0.0
 10
76.483614
 20
124.756484
 30
0.0
 10
75.270916
 20
123.945327
 30
0.0
  0
SPLINE
  5
103
100
AcDbEntity
  8
Layer_1
 62
7
100
AcDbSpline
 70
8
 71
3
 72
8
 73
4
 74
0
 40
0
 40
0
 40
0
 40
0
 40
1
 40
1
 40
1
 40
1
 10
75.270916
 20
123.945327
 30
0.0
 10
74.423699
 20
123.311202
 30
0.0
 10
73.695554
 20
122.600004
 30
0.0
 10
73.064971
 20
121.773170
 30
0.0
  0
SPLINE
  5
104
100
AcDbEntity
  8
Layer_1
 62
7
100
AcDbSpline
 70
8
 71
3
 72
8
 73
4
 74
0
 40
0
 40
0
 40
0
 40
0
 40
1
 40
1
 40
1
 40
1
 10
73.064971
 20
121.773170
 30
0.0
 10
72.067697
 20
123.285869
 30
0.0
 10
70.698958
 20
124.703026
 30
0.0
 10
69.361730
 20
125.523322
 30
0.0
  0
SPLINE
  5
105
100
AcDbEntity
  8
Layer_1
 62
7
100
AcDbSpline
 70
8
 71
3
 72
8
 73
4
 74
0
 40
0
 40
0
 40
0
 40
0
 40
1
 40
1
 40
1
 40
1
 10
69.361730
 20
125.523322
 30
0.0
 10
67.315323
 20
126.752374
 30
0.0
 10
64.738843
 20
127.437923
 30
0.0
 10
61.758703
 20
127.546341
 30
0.0
  0
SPLINE
  5
106
100
AcDbEntity
  8
Layer_1
 62
7
100
AcDbSpline
 70
8
 71
3
 72
8
 73
4
 74
0
 40
0
 40
0
 40
0
 40
0
 40
1
 40
1
 40
1
 40
1
 10
61.758703
 20
127.546341
 30
0.0
 10
59.447963
 20
127.630407
 30
0.0
 10
56.845945
 20
127.432967
 30
0.0
 10
53.926836
 20
126.952052
 30
0.0
  0
SPLINE
  5
107
100
AcDbEntity
  8
Layer_1
 62
7
100
AcDbSpline
 70
8
 71
3
 72
8
 73
4
 74
0
 40
0
 40
0
 40
0
 40
0
 40
1
 40
1
 40
1
 40
1
 10
53.926836
 20
126.952052
 30
0.0
 10
51.619568
 20
126.571938
 30
0.0
 10
49.775762
 20
126.169379
 30
0.0
 10
45.272063
 20
125.062467
 30
0.0
  0
SPLINE
  5
108
100
AcDbEntity
  8
Layer_1
 62
7
100
AcDbSpline
 70
8
 71
3
 72
8
 73
4
 74
0
 40
0
 40
0
 40
0
 40
0
 40
1
 40
1
 40
1
 40
1
 10
45.272063
 20
125.062467
 30
0.0
 10
43.500568
 20
124.627071
 30
0.0
 10
41.535274
 20
124.151214
 30
0.0
 10
40.904741
 20
124.005014
 30
0.0
  0
SPLINE
  5
109
100
AcDbEntity
  8
Layer_1
 62
7
100
AcDbSpline
 70
8
 71
3
 72
8
 73
4
 74
0
 40
0
 40
0
 40
0
 40
0
 40
1
 40
1
 40
1
 40
1
 10
40.904741
 20
124.005014
 30
0.0
 10
34.233663
 20
122.458154
 30
0.0
 10
30.438392
 20
122.320088
 30
0.0
 10
26.902016
 20
123.495597
 30
0.0
  0
SPLINE
  5
10a
100
AcDbEntity
  8
Layer_1
 62
7
100
AcDbSpline
 70
8
 71
3
 72
8
 73
4
 74
0
 40
0
 40
0
 40
0
 40
0
 40
1
 40
1
 40
1
 40
1
 10
26.902016
 20
123.495597
 30
0.0
 10
22.970955
 20
124.802297
 30
0.0
 10
20.194704
 20
127.807693
 30
0.0
 10
19.171860
 20
131.863757
 30
0.0
  0
SPLINE
  5
10b
100
AcDbEntity
  8
Layer_1
 62
7
100
AcDbSpline
 70
8
 71
3
 72
8
 73
4
 74
0
 40
0
 40
0
 40
0
 40
0
 40
1
 40
1
 40
1
 40
1
 10
19.171860
 20
131.863757
 30
0.0
 10
18.870410
 20
133.059137
 30
0.0
 10
18.763781
 20
133.908559
 30
0.0
 10
18.729497
 20
135.387589
 30
0.0
  0
SPLINE
  5
10c
100
AcDbEntity
  8
Layer_1
 62
7
100
AcDbSpline
 70
8
 71
3
 72
8
 73
4
 74
0
 40
0
 40
0
 40
0
 40
0
 40
1
 40
1
 40
1
 40
1
 10
18.729497
 20
135.387589
 30
0.0
 10
18.553856
 20
142.965160
 30
0.0
 10
21.890995
 20
151.372391
 30
0.0
 10
28.175168
 20
159.184005
 30
0.0
  0
SPLINE
  5
10d
100
AcDbEntity
  8
Layer_1
 62
7
100
AcDbSpline
 70
8
 71
3
 72
8
 73
4
 74
0
 40
0
 40
0
 40
0
 40
0
 40
1
 40
1
 40
1
 40
1
 10
28.175168
 20
159.184005
 30
0.0
 10
30.726132
 20
162.355015
 30
0.0
 10
33.917814
 20
165.546694
 30
0.0
 10
37.088820
 20
168.097661
 30
0.0
  0
SPLINE
  5
10e
100
AcDbEntity
  8
Layer_1
 62
7
100
AcDbSpline
 70
8
 71
3
 72
8
 73
4
 74
0
 40
0
 40
0
 40
0
 40
0
 40
1
 40
1
 40
1
 40
1
 10
37.088820
 20
168.097661
 30
0.0
 10
42.283767
 20
172.276814
 30
0.0
 10
47.044503
 20
174.688058
 30
0.0
 10
51.522794
 20
175.408258
 30
0.0
  0
SPLINE
  5
10f
100
AcDbEntity
  8
Layer_1
 62
7
100
AcDbSpline
 70
8
 71
3
 72
8
 73
4
 74
0
 40
0
 40
0
 40
0
 40
0
 40
1
 40
1
 40
1
 40
1
 10
51.522794
 20
175.408258
 30
0.0
 10
52.252911
 20
175.525677
 30
0.0
 10
54.011889
 20
175.571414
 30
0.0
 10
54.583454
 20
175.487839
 30
0.0
  0
SPLINE
  5
110
100
AcDbEntity
  8
Layer_1
 62
7
100
AcDbSpline
 70
8
 71
3
 72
8
 73
4
 74
0
 40
0
 40
0
 40
0
 40
0
 40
1
 40
1
 40
1
 40
1
 10
54.583454
 20
175.487839
 30
0.0
 10
56.413567
 20
175.220239
 30
0.0
 10
57.891545
 20
173.797170
 30
0.0
 10
58.214999
 20
171.991205
 30
0.0
  0
SPLINE
  5
111
100
AcDbEntity
  8
Layer_1
 62
7
100
AcDbSpline
 70
8
 71
3
 72
8
 73
4
 74
0
 40
0
 40
0
 40
0
 40
0
 40
1
 40
1
 40
1
 40
1
 10
58.214999
 20
171.991205
 30
0.0
 10
58.411974
 20
170.891436
 30
0.0
 10
58.202751
 20
169.843242
 30
0.0
 10
57.501005
 20
168.413911
 30
0.0
  0
SPLINE
  5
112
100
AcDbEntity
  8
Layer_1
 62
7
100
AcDbSpline
 70
8
 71
3
 72
8
 73
4
 74
0
 40
0
 40
0
 40
0
 40
0
 40
1
 40
1
 40
1
 40
1
 10
57.501005
 20
168.413911
 30
0.0
 10
56.640803
 20
166.661867
 30
0.0
 10
55.563019
 20
165.404657
 30
0.0
 10
54.472321
 20
164.881028
 30
0.0
  0
SPLINE
  5
113
100
AcDbEntity
  8
Layer_1
 62
7
100
AcDbSpline
 70
8
 71
3
 72
8
 73
4
 74
0
 40
0
 40
0
 40
0
 40
0
 40
1
 40
1
 40
1
 40
1
 10
54.472321
 20
164.881028
 30
0.0
 10
54.179253
 20
164.740329
 30
0.0
 10
54.031066
 20
164.705706
 30
0.0
 10
53.638721
 20
164.686272
 30
0.0
  0
SPLINE
  5
114
100
AcDbEntity
  8
Layer_1
 62
7
100
AcDbSpline
 70
8
 71
3
 72
8
 73
4
 74
0
 40
0
 40
0
 40
0
 40
0
 40
1
 40
1
 40
1
 40
1
 10
53.638721
 20
164.686272
 30
0.0
 10
53.203712
 20
164.664710
 30
0.0
 10
53.134647
 20
164.675802
 30
0.0
 10
52.857095
 20
164.811587
 30
0.0
  0
SPLINE
  5
115
100
AcDbEntity
  8
Layer_1
 62
7
100
AcDbSpline
 70
8
 71
3
 72
8
 73
4
 74
0
 40
0
 40
0
 40
0
 40
0
 40
1
 40
1
 40
1
 40
1
 10
52.857095
 20
164.811587
 30
0.0
 10
52.144851
 20
165.160055
 30
0.0
 10
51.865064
 20
166.033426
 30
0.0
 10
52.100514
 20
167.173305
 30
0.0
  0
SPLINE
  5
116
100
AcDbEntity
  8
Layer_1
 62
7
100
AcDbSpline
 70
8
 71
3
 72
8
 73
4
 74
0
 40
0
 40
0
 40
0
 40
0
 40
1
 40
1
 40
1
 40
1
 10
52.100514
 20
167.173305
 30
0.0
 10
52.267316
 20
167.980838
 30
0.0
 10
52.661924
 20
168.653233
 30
0.0
 10
53.358240
 20
169.316421
 30
0.0
  0
SPLINE
  5
117
100
AcDbEntity
  8
Layer_1
 62
7
100
AcDbSpline
 70
8
 71
3
 72
8
 73
4
 74
0
 40
0
 40
0
 40
0
 40
0
 40
1
 40
1
 40
1
 40
1
 10
53.358240
 20
169.316421
 30
0.0
 10
54.121516
 20
170.043380
 30
0.0
 10
54.546489
 20
170.244546
 30
0.0
 10
55.581327
 20
170.368754
 30
0.0
  0
SPLINE
  5
118
100
AcDbEntity
  8
Layer_1
 62
7
100
AcDbSpline
 70
8
 71
3
 72
8
 73
4
 74
0
 40
0
 40
0
 40
0
 40
0
 40
1
 40
1
 40
1
 40
1
 10
55.581327
 20
170.368754
 30
0.0
 10
56.070497
 20
170.427468
 30
0.0
 10
56.125141
 20
170.445691
 30
0.0
 10
56.190396
 20
170.571881
 30
0.0
  0
SPLINE
  5
119
100
AcDbEntity
  8
Layer_1
 62
7
100
AcDbSpline
 70
8
 71
3
 72
8
 73
4
 74
0
 40
0
 40
0
 40
0
 40
0
 40
1
 40
1
 40
1
 40
1
 10
56.190396
 20
170.571881
 30
0.0
 10
56.315937
 20
170.814651
 30
0.0
 10
56.380270
 20
171.308106
 30
0.0
 10
56.328141
 20
171.628414
 30
0.0
  0
SPLINE
  5
11a
100
AcDbEntity
  8
Layer_1
 62
7
100
AcDbSpline
 70
8
 71
3
 72
8
 73
4
 74
0
 40
0
 40
0
 40
0
 40
0
 40
1
 40
1
 40
1
 40
1
 10
56.328141
 20
171.628414
 30
0.0
 10
56.046161
 20
173.360948
 30
0.0
 10
53.787040
 20
173.447788
 30
0.0
 10
50.512850
 20
171.851948
 30
0.0
  0
SPLINE
  5
11b
100
AcDbEntity
  8
Layer_1
 62
7
100
AcDbSpline
 70
8
 71
3
 72
8
 73
4
 74
0
 40
0
 40
0
 40
0
 40
0
 40
1
 40
1
 40
1
 40
1
 10
50.512850
 20
171.851948
 30
0.0
 10
44.899165
 20
169.115840
 30
0.0
 10
37.074639
 20
160.931980
 30
0.0
 10
32.059592
 20
152.551233
 30
0.0
  0
SPLINE
  5
11c
100
AcDbEntity
  8
Layer_1
 62
7
100
AcDbSpline
 70
8
 71
3
 72
8
 73
4
 74
0
 40
0
 40
0
 40
0
 40
0
 40
1
 40
1
 40
1
 40
1
 10
32.059592
 20
152.551233
 30
0.0
 10
29.433193
 20
148.162206
 30
0.0
 10
27.682445
 20
144.002044
 30
0.0
 10
26.766323
 20
139.973277
 30
0.0
  0
SPLINE
  5
11d
100
AcDbEntity
  8
Layer_1
 62
7
100
AcDbSpline
 70
8
 71
3
 72
8
 73
4
 74
0
 40
0
 40
0
 40
0
 40
0
 40
1
 40
1
 40
1
 40
1
 10
26.766323
 20
139.973277
 30
0.0
 10
26.374414
 20
138.249805
 30
0.0
 10
26.246706
 20
137.197139
 30
0.0
 10
26.247366
 20
135.695705
 30
0.0
  0
SPLINE
  5
11e
100
AcDbEntity
  8
Layer_1
 62
7
100
AcDbSpline
 70
8
 71
3
 72
8
 73
4
 74
0
 40
0
 40
0
 40
0
 40
0
 40
1
 40
1
 40
1
 40
1
 10
26.247366
 20
135.695705
 30
0.0
 10
26.248213
 20
134.108716
 30
0.0
 10
26.404657
 20
133.038182
 30
0.0
 10
26.821314
 20
131.772009
 30
0.0
  0
SPLINE
  5
11f
100
AcDbEntity
  8
Layer_1
 62
7
100
AcDbSpline
 70
8
 71
3
 72
8
 73
4
 74
0
 40
0
 40
0
 40
0
 40
0
 40
1
 40
1
 40
1
 40
1
 10
26.821314
 20
131.772009
 30
0.0
 10
27.807368
 20
128.775487
 30
0.0
 10
30.009510
 20
126.839702
 30
0.0
 10
33.316520
 20
126.062437
 30
0.0
  0
SPLINE
  5
120
100
AcDbEntity
  8
Layer_1
 62
7
100
AcDbSpline
 70
8
 71
3
 72
8
 73
4
 74
0
 40
0
 40
0
 40
0
 40
0
 40
1
 40
1
 40
1
 40
1
 10
33.316520
 20
126.062437
 30
0.0
 10
34.398435
 20
125.808140
 30
0.0
 10
34.985932
 20
125.743494
 30
0.0
 10
36.492536
 20
125.712952
 30
0.0
  0
SPLINE
  5
121
100
AcDbEntity
  8
Layer_1
 62
7
100
AcDbSpline
 70
8
 71
3
 72
8
 73
4
 74
0
 40
0
 40
0
 40
0
 40
0
 40
1
 40
1
 40
1
 40
1
 10
36.492536
 20
125.712952
 30
0.0
 10
40.165271
 20
125.638499
 30
0.0
 10
43.146797
 20
126.167928
 30
0.0
 10
53.160538
 20
128.672690
 30
0.0
  0
SPLINE
  5
122
100
AcDbEntity
  8
Layer_1
 62
7
100
AcDbSpline
 70
8
 71
3
 72
8
 73
4
 74
0
 40
0
 40
0
 40
0
 40
0
 40
1
 40
1
 40
1
 40
1
 10
53.160538
 20
128.672690
 30
0.0
 10
61.381888
 20
130.729119
 30
0.0
 10
65.861500
 20
131.503879
 30
0.0
 10
70.732602
 20
131.711831
 30
0.0
  0
SPLINE
  5
123
100
AcDbEntity
  8
Layer_1
 62
7
100
AcDbSpline
 70
8
 71
3
 72
8
 73
4
 74
0
 40
0
 40
0
 40
0
 40
0
 40
1
 40
1
 40
1
 40
1
 10
70.732602
 20
131.711831
 30
0.0
 10
75.376859
 20
131.910098
 30
0.0
 10
79.394442
 20
131.151685
 30
0.0
 10
83.049398
 20
129.386752
 30
0.0
  0
SPLINE
  5
124
100
AcDbEntity
  8
Layer_1
 62
7
100
AcDbSpline
 70
8
 71
3
 72
8
 73
4
 74
0
 40
0
 40
0
 40
0
 40
0
 40
1
 40
1
 40
1
 40
1
 10
83.049398
 20
129.386752
 30
0.0
 10
86.259430
 20
127.836666
 30
0.0
 10
91.491370
 20
123.950748
 30
0.0
 10
93.145325
 20
121.888203
 30
0.0
  0
SPLINE
  5
125
100
AcDbEntity
  8
Layer_1
 62
7
100
AcDbSpline
 70
8
 71
3
 72
8
 73
4
 74
0
 40
0
 40
0
 40
0
 40
0
 40
1
 40
1
 40
1
 40
1
 10
93.145325
 20
121.888203
 30
0.0
 10
93.320599
 20
121.669625
 30
0.0
 10
93.454516
 20
121.481465
 30
0.0
 10
93.442900
 20
121.470077
 30
0.0
  0
SPLINE
  5
126
100
AcDbEntity
  8
Layer_1
 62
7
100
AcDbSpline
 70
8
 71
3
 72
8
 73
4
 74
0
 40
0
 40
0
 40
0
 40
0
 40
1
 40
1
 40
1
 40
1
 10
93.442900
 20
121.470077
 30
0.0
 10
93.431301
 20
121.458675
 30
0.0
 10
93.180924
 20
121.608078
 30
0.0
 10
92.886558
 20
121.802063
 30
0.0
  0
SPLINE
  5
127
100
AcDbEntity
  8
Layer_1
 62
7
100
AcDbSpline
 70
8
 71
3
 72
8
 73
4
 74
0
 40
0
 40
0
 40
0
 40
0
 40
1
 40
1
 40
1
 40
1
 10
173.725922
 20
124.360103
 30
0.0
 10
173.763091
 20
125.399782
 30
0.0
 10
174.498793
 20
126.097632
 30
0.0
 10
175.418267
 20
126.107030
 30
0.0
  0
SPLINE
  5
128
100
AcDbEntity
  8
Layer_1
 62
7
100
AcDbSpline
 70
8
 71
3
 72
8
 73
4
 74
0
 40
0
 40
0
 40
0
 40
0
 40
1
 40
1
 40
1
 40
1
 10
175.418267
 20
126.107030
 30
0.0
 10
176.504882
 20
126.057633
 30
0.0
 10
177.212083
 20
125.251705
 30
0.0
 10
177.215882
 20
124.332807
 30
0.0
  0
SPLINE
  5
129
100
AcDbEntity
  8
Layer_1
 62
7
100
AcDbSpline
 70
8
 71
3
 72
8
 73
4
 74
0
 40
0
 40
0
 40
0
 40
0
 40
1
 40
1
 40
1
 40
1
 10
177.215882
 20
124.332807
 30
0.0
 10
177.156302
 20
123.310685
 30
0.0
 10
176.419674
 20
122.638339
 30
0.0
 10
175.527431
 20
122.599821
 30
0.0
  0
SPLINE
  5
12a
100
AcDbEntity
  8
Layer_1
 62
7
100
AcDbSpline
 70
8
 71
3
 72
8
 73
4
 74
0
 40
0
 40
0
 40
0
 40
0
 40
1
 40
1
 40
1
 40
1
 10
175.527431
 20
122.599821
 30
0.0
 10
174.523945
 20
122.534360
 30
0.0
 10
173.742370
 20
123.571238
 30
0.0
 10
173.725922
 20
124.360103
 30
0.0
  0
LWPOLYLINE
  5
12b
100
AcDbEntity
  8
Layer_1
 62
7
100
AcDbPolyline
 90
2
 70
0
 10
92.886558
 20
121.802063
 30
0.0
 10
92.886558
 20
121.802063
 30
0.0
  0
SPLINE
  5
12c
100
AcDbEntity
  8
Layer_1
 62
7
100
AcDbSpline
 70
8
 71
3
 72
8
 73
4
 74
0
 40
0
 40
0
 40
0
 40
0
 40
1
 40
1
 40
1
 40
1
 10
176.122666
 20
122.993817
 30
0.0
 10
176.774232
 20
123.311111
 30
0.0
 10
177.103388
 20
124.078572
 30
0.0
 10
176.895136
 20
124.794886
 30
0.0
  0
SPLINE
  5
12d
100
AcDbEntity
  8
Layer_1
 62
7
100
AcDbSpline
 70
8
 71
3
 72
8
 73
4
 74
0
 40
0
 40
0
 40
0
 40
0
 40
1
 40
1
 40
1
 40
1
 10
176.895136
 20
124.794886
 30
0.0
 10
176.772454
 20
125.216916
 30
0.0
 10
176.364389
 20
125.637483
 30
0.0
 10
175.941225
 20
125.778041
 30
0.0
  0
SPLINE
  5
12e
100
AcDbEntity
  8
Layer_1
 62
7
100
AcDbSpline
 70
8
 71
3
 72
8
 73
4
 74
0
 40
0
 40
0
 40
0
 40
0
 40
1
 40
1
 40
1
 40
1
 10
175.941225
 20
125.778041
 30
0.0
 10
175.392839
 20
125.960185
 30
0.0
 10
174.794726
 20
125.812232
 30
0.0
 10
174.388495
 20
125.393945
 30
0.0
  0
SPLINE
  5
12f
100
AcDbEntity
  8
Layer_1
 62
7
100
AcDbSpline
 70
8
 71
3
 72
8
 73
4
 74
0
 40
0
 40
0
 40
0
 40
0
 40
1
 40
1
 40
1
 40
1
 10
174.388495
 20
125.393945
 30
0.0
 10
174.125831
 20
125.123494
 30
0.0
 10
174.008850
 20
124.854729
 30
0.0
 10
173.982208
 20
124.460619
 30
0.0
  0
SPLINE
  5
130
100
AcDbEntity
  8
Layer_1
 62
7
100
AcDbSpline
 70
8
 71
3
 72
8
 73
4
 74
0
 40
0
 40
0
 40
0
 40
0
 40
1
 40
1
 40
1
 40
1
 10
173.982208
 20
124.460619
 30
0.0
 10
174.080018
 20
123.450984
 30
0.0
 10
174.692406
 20
122.835310
 30
0.0
 10
175.500140
 20
122.870929
 30
0.0
  0
SPLINE
  5
131
100
AcDbEntity
  8
Layer_1
 62
7
100
AcDbSpline
 70
8
 71
3
 72
8
 73
4
 74
0
 40
0
 40
0
 40
0
 40
0
 40
1
 40
1
 40
1
 40
1
 10
175.500140
 20
122.870929
 30
0.0
 10
175.756906
 20
122.882924
 30
0.0
 10
175.989034
 20
122.928740
 30
0.0
 10
176.122666
 20
122.993817
 30
0.0
  0
LWPOLYLINE
  5
132
100
AcDbEntity
  8
Layer_1
 62
7
100
AcDbPolyline
 90
2
 70
0
 10
173.725922
 20
124.360103
 30
0.0
 10
173.725922
 20
124.360103
 30
0.0
  0
LWPOLYLINE
  5
133
100
AcDbEntity
  8
Layer_1
 62
7
100
AcDbPolyline
 90
2
 70
0
 10
176.122666
 20
122.993817
 30
0.0
 10
176.122666
 20
122.993817
 30
0.0
  0
SPLINE
  5
134
100
AcDbEntity
  8
Layer_1
 62
7
100
AcDbSpline
 70
8
 71
3
 72
8
 73
4
 74
0
 40
0
 40
0
 40
0
 40
0
 40
1
 40
1
 40
1
 40
1
 10
175.077061
 20
125.366064
 30
0.0
 10
175.970012
 20
125.355622
 30
0.0
 10
176.264426
 20
125.208170
 30
0.0
 10
176.264426
 20
124.771352
 30
0.0
  0
SPLINE
  5
135
100
AcDbEntity
  8
Layer_1
 62
7
100
AcDbSpline
 70
8
 71
3
 72
8
 73
4
 74
0
 40
0
 40
0
 40
0
 40
0
 40
1
 40
1
 40
1
 40
1
 10
176.264426
 20
124.771352
 30
0.0
 10
176.264426
 20
124.605058
 30
0.0
 10
176.230447
 20
124.532290
 30
0.0
 10
176.102543
 20
124.424667
 30
0.0
  0
SPLINE
  5
136
100
AcDbEntity
  8
Layer_1
 62
7
100
AcDbSpline
 70
8
 71
3
 72
8
 73
4
 74
0
 40
0
 40
0
 40
0
 40
0
 40
1
 40
1
 40
1
 40
1
 10
176.102543
 20
124.424667
 30
0.0
 10
175.961207
 20
124.305750
 30
0.0
 10
175.951188
 20
124.279698
 30
0.0
 10
176.023634
 20
124.219582
 30
0.0
  0
SPLINE
  5
137
100
AcDbEntity
  8
Layer_1
 62
7
100
AcDbSpline
 70
8
 71
3
 72
8
 73
4
 74
0
 40
0
 40
0
 40
0
 40
0
 40
1
 40
1
 40
1
 40
1
 10
176.023634
 20
124.219582
 30
0.0
 10
176.158367
 20
124.107768
 30
0.0
 10
176.210381
 20
123.971791
 30
0.0
 10
176.240719
 20
123.651900
 30
0.0
  0
LWPOLYLINE
  5
138
100
AcDbEntity
  8
Layer_1
 62
7
100
AcDbPolyline
 90
3
 70
0
 10
174.735854
 20
124.356640
 30
0.0
 10
174.735854
 20
125.370044
 30
0.0
 10
175.077061
 20
125.366064
 30
0.0
  0
SPLINE
  5
139
100
AcDbEntity
  8
Layer_1
 62
7
100
AcDbSpline
 70
8
 71
3
 72
8
 73
4
 74
0
 40
0
 40
0
 40
0
 40
0
 40
1
 40
1
 40
1
 40
1
 10
176.108950
 20
123.350162
 30
0.0
 10
175.927227
 20
123.350162
 30
0.0
 10
175.882297
 20
123.425129
 30
0.0
 10
175.882297
 20
123.728306
 30
0.0
  0
SPLINE
  5
13a
100
AcDbEntity
  8
Layer_1
 62
7
100
AcDbSpline
 70
8
 71
3
 72
8
 73
4
 74
0
 40
0
 40
0
 40
0
 40
0
 40
1
 40
1
 40
1
 40
1
 10
175.882297
 20
123.728306
 30
0.0
 10
175.882297
 20
123.994448
 30
0.0
 10
175.764893
 20
124.097287
 30
0.0
 10
175.406894
 20
124.144782
 30
0.0
  0
LWPOLYLINE
  5
13b
100
AcDbEntity
  8
Layer_1
 62
7
100
AcDbPolyline
 90
3
 70
0
 10
176.240719
 20
123.651900
 30
0.0
 10
176.269337
 20
123.350162
 30
0.0
 10
176.108950
 20
123.350162
 30
0.0
  0
SPLINE
  5
13c
100
AcDbEntity
  8
Layer_1
 62
7
100
AcDbSpline
 70
8
 71
3
 72
8
 73
4
 74
0
 40
0
 40
0
 40
0
 40
0
 40
1
 40
1
 40
1
 40
1
 10
175.804150
 20
124.499707
 30
0.0
 10
175.908375
 20
124.586191
 30
0.0
 10
175.903803
 20
124.902071
 30
0.0
 10
175.797094
 20
124.990652
 30
0.0
  0
SPLINE
  5
13d
100
AcDbEntity
  8
Layer_1
 62
7
100
AcDbSpline
 70
8
 71
3
 72
8
 73
4
 74
0
 40
0
 40
0
 40
0
 40
0
 40
1
 40
1
 40
1
 40
1
 10
175.797094
 20
124.990652
 30
0.0
 10
175.750217
 20
125.029543
 30
0.0
 10
175.578259
 20
125.072438
 30
0.0
 10
175.414937
 20
125.085984
 30
0.0
  0
LWPOLYLINE
  5
13e
100
AcDbEntity
  8
Layer_1
 62
7
100
AcDbPolyline
 90
8
 70
0
 10
175.406894
 20
124.144782
 30
0.0
 10
175.123063
 20
124.182433
 30
0.0
 10
175.106976
 20
123.779947
 30
0.0
 10
175.090890
 20
123.377459
 30
0.0
 10
174.913457
 20
123.360356
 30
0.0
 10
174.736023
 20
123.343254
 30
0.0
 10
174.736023
 20
124.356654
 30
0.0
 10
174.735854
 20
124.356640
 30
0.0
  0
SPLINE
  5
13f
100
AcDbEntity
  8
Layer_1
 62
7
100
AcDbSpline
 70
8
 71
3
 72
8
 73
4
 74
0
 40
0
 40
0
 40
0
 40
0
 40
1
 40
1
 40
1
 40
1
 10
175.422021
 20
124.403489
 30
0.0
 10
175.589238
 20
124.420733
 30
0.0
 10
175.761196
 20
124.464037
 30
0.0
 10
175.804150
 20
124.499696
 30
0.0
  0
LWPOLYLINE
  5
140
100
AcDbEntity
  8
Layer_1
 62
7
100
AcDbPolyline
 90
5
 70
0
 10
175.414937
 20
125.085984
 30
0.0
 10
175.117983
 20
125.110594
 30
0.0
 10
175.117983
 20
124.741351
 30
0.0
 10
175.117983
 20
124.372112
 30
0.0
 10
175.422021
 20
124.403489
 30
0.0
  0
SPLINE
  5
141
100
AcDbEntity
  8
Layer_1
 62
7
100
AcDbSpline
 70
8
 71
3
 72
8
 73
4
 74
0
 40
0
 40
0
 40
0
 40
0
 40
1
 40
1
 40
1
 40
1
 10
125.555925
 20
122.698274
 30
0.0
 10
124.884293
 20
122.818264
 30
0.0
 10
124.166085
 20
123.210431
 30
0.0
 10
123.691142
 20
123.716518
 30
0.0
  0
SPLINE
  5
142
100
AcDbEntity
  8
Layer_1
 62
7
100
AcDbSpline
 70
8
 71
3
 72
8
 73
4
 74
0
 40
0
 40
0
 40
0
 40
0
 40
1
 40
1
 40
1
 40
1
 10
123.691142
 20
123.716518
 30
0.0
 10
123.085250
 20
124.362161
 30
0.0
 10
122.766655
 20
125.160943
 30
0.0
 10
122.647924
 20
126.332094
 30
0.0
  0
SPLINE
  5
143
100
AcDbEntity
  8
Layer_1
 62
7
100
AcDbSpline
 70
8
 71
3
 72
8
 73
4
 74
0
 40
0
 40
0
 40
0
 40
0
 40
1
 40
1
 40
1
 40
1
 10
122.647924
 20
126.332094
 30
0.0
 10
122.427831
 20
128.503058
 30
0.0
 10
123.344652
 20
131.929278
 30
0.0
 10
124.998043
 20
135.114632
 30
0.0
  0
SPLINE
  5
144
100
AcDbEntity
  8
Layer_1
 62
7
100
AcDbSpline
 70
8
 71
3
 72
8
 73
4
 74
0
 40
0
 40
0
 40
0
 40
0
 40
1
 40
1
 40
1
 40
1
 10
124.998043
 20
135.114632
 30
0.0
 10
127.321268
 20
139.590479
 30
0.0
 10
131.687186
 20
144.646313
 30
0.0
 10
135.539150
 20
147.321491
 30
0.0
  0
SPLINE
  5
145
100
AcDbEntity
  8
Layer_1
 62
7
100
AcDbSpline
 70
8
 71
3
 72
8
 73
4
 74
0
 40
0
 40
0
 40
0
 40
0
 40
1
 40
1
 40
1
 40
1
 10
135.539150
 20
147.321491
 30
0.0
 10
137.623039
 20
148.768755
 30
0.0
 10
139.385635
 20
149.468624
 30
0.0
 10
140.943714
 20
149.467461
 30
0.0
  0
SPLINE
  5
146
100
AcDbEntity
  8
Layer_1
 62
7
100
AcDbSpline
 70
8
 71
3
 72
8
 73
4
 74
0
 40
0
 40
0
 40
0
 40
0
 40
1
 40
1
 40
1
 40
1
 10
140.943714
 20
149.467461
 30
0.0
 10
142.635391
 20
149.466050
 30
0.0
 10
143.767325
 20
148.660986
 30
0.0
 10
144.174554
 20
147.169202
 30
0.0
  0
SPLINE
  5
147
100
AcDbEntity
  8
Layer_1
 62
7
100
AcDbSpline
 70
8
 71
3
 72
8
 73
4
 74
0
 40
0
 40
0
 40
0
 40
0
 40
1
 40
1
 40
1
 40
1
 10
144.174554
 20
147.169202
 30
0.0
 10
144.327643
 20
146.608389
 30
0.0
 10
144.340405
 20
145.218611
 30
0.0
 10
144.200039
 20
144.395189
 30
0.0
  0
SPLINE
  5
148
100
AcDbEntity
  8
Layer_1
 62
7
100
AcDbSpline
 70
8
 71
3
 72
8
 73
4
 74
0
 40
0
 40
0
 40
0
 40
0
 40
1
 40
1
 40
1
 40
1
 10
144.200039
 20
144.395189
 30
0.0
 10
143.932921
 20
142.828175
 30
0.0
 10
143.133168
 20
140.495955
 30
0.0
 10
142.281309
 20
138.799808
 30
0.0
  0
SPLINE
  5
149
100
AcDbEntity
  8
Layer_1
 62
7
100
AcDbSpline
 70
8
 71
3
 72
8
 73
4
 74
0
 40
0
 40
0
 40
0
 40
0
 40
1
 40
1
 40
1
 40
1
 10
142.281309
 20
138.799808
 30
0.0
 10
142.046232
 20
138.331737
 30
0.0
 10
142.041759
 20
138.313619
 30
0.0
 10
142.152150
 20
138.278578
 30
0.0
  0
SPLINE
  5
14a
100
AcDbEntity
  8
Layer_1
 62
7
100
AcDbSpline
 70
8
 71
3
 72
8
 73
4
 74
0
 40
0
 40
0
 40
0
 40
0
 40
1
 40
1
 40
1
 40
1
 10
142.152150
 20
138.278578
 30
0.0
 10
142.427393
 20
138.191224
 30
0.0
 10
143.771149
 20
138.461720
 30
0.0
 10
144.646478
 20
138.780682
 30
0.0
  0
LWPOLYLINE
  5
14b
100
AcDbEntity
  8
Layer_1
 62
7
100
AcDbPolyline
 90
2
 70
0
 10
175.804150
 20
124.499696
 30
0.0
 10
175.804150
 20
124.499707
 30
0.0
  0
SPLINE
  5
14c
100
AcDbEntity
  8
Layer_1
 62
7
100
AcDbSpline
 70
8
 71
3
 72
8
 73
4
 74
0
 40
0
 40
0
 40
0
 40
0
 40
1
 40
1
 40
1
 40
1
 10
145.692360
 20
140.217340
 30
0.0
 10
149.037015
 20
146.902188
 30
0.0
 10
153.028018
 20
153.390776
 30
0.0
 10
156.304053
 20
157.469861
 30
0.0
  0
SPLINE
  5
14d
100
AcDbEntity
  8
Layer_1
 62
7
100
AcDbSpline
 70
8
 71
3
 72
8
 73
4
 74
0
 40
0
 40
0
 40
0
 40
0
 40
1
 40
1
 40
1
 40
1
 10
156.304053
 20
157.469861
 30
0.0
 10
160.276557
 20
162.416091
 30
0.0
 10
164.942904
 20
167.320018
 30
0.0
 10
168.594295
 20
170.385820
 30
0.0
  0
SPLINE
  5
14e
100
AcDbEntity
  8
Layer_1
 62
7
100
AcDbSpline
 70
8
 71
3
 72
8
 73
4
 74
0
 40
0
 40
0
 40
0
 40
0
 40
1
 40
1
 40
1
 40
1
 10
168.594295
 20
170.385820
 30
0.0
 10
171.572050
 20
172.886002
 30
0.0
 10
174.138212
 20
174.403093
 30
0.0
 10
176.057408
 20
174.797978
 30
0.0
  0
SPLINE
  5
14f
100
AcDbEntity
  8
Layer_1
 62
7
100
AcDbSpline
 70
8
 71
3
 72
8
 73
4
 74
0
 40
0
 40
0
 40
0
 40
0
 40
1
 40
1
 40
1
 40
1
 10
176.057408
 20
174.797978
 30
0.0
 10
176.606556
 20
174.910969
 30
0.0
 10
177.445489
 20
174.904842
 30
0.0
 10
177.906584
 20
174.784488
 30
0.0
  0
SPLINE
  5
150
100
AcDbEntity
  8
Layer_1
 62
7
100
AcDbSpline
 70
8
 71
3
 72
8
 73
4
 74
0
 40
0
 40
0
 40
0
 40
0
 40
1
 40
1
 40
1
 40
1
 10
177.906584
 20
174.784488
 30
0.0
 10
178.365506
 20
174.664696
 30
0.0
 10
178.847880
 20
174.372520
 30
0.0
 10
179.022547
 20
174.108571
 30
0.0
  0
SPLINE
  5
151
100
AcDbEntity
  8
Layer_1
 62
7
100
AcDbSpline
 70
8
 71
3
 72
8
 73
4
 74
0
 40
0
 40
0
 40
0
 40
0
 40
1
 40
1
 40
1
 40
1
 10
179.022547
 20
174.108571
 30
0.0
 10
179.634264
 20
173.184231
 30
0.0
 10
179.268814
 20
171.092954
 30
0.0
 10
178.022182
 20
168.384046
 30
0.0
  0
LWPOLYLINE
  5
152
100
AcDbEntity
  8
Layer_1
 62
7
100
AcDbPolyline
 90
3
 70
0
 10
144.646478
 20
138.780682
 30
0.0
 10
145.046486
 20
138.926436
 30
0.0
 10
145.692360
 20
140.217340
 30
0.0
  0
SPLINE
  5
153
100
AcDbEntity
  8
Layer_1
 62
7
100
AcDbSpline
 70
8
 71
3
 72
8
 73
4
 74
0
 40
0
 40
0
 40
0
 40
0
 40
1
 40
1
 40
1
 40
1
 10
177.103803
 20
167.717675
 30
0.0
 10
176.217738
 20
167.467812
 30
0.0
 10
175.718487
 20
167.354666
 30
0.0
 10
175.718487
 20
167.403702
 30
0.0
  0
SPLINE
  5
154
100
AcDbEntity
  8
Layer_1
 62
7
100
AcDbSpline
 70
8
 71
3
 72
8
 73
4
 74
0
 40
0
 40
0
 40
0
 40
0
 40
1
 40
1
 40
1
 40
1
 10
175.718487
 20
167.403702
 30
0.0
 10
175.718487
 20
167.424671
 30
0.0
 10
175.914180
 20
167.821648
 30
0.0
 10
176.153335
 20
168.285844
 30
0.0
  0
SPLINE
  5
155
100
AcDbEntity
  8
Layer_1
 62
7
100
AcDbSpline
 70
8
 71
3
 72
8
 73
4
 74
0
 40
0
 40
0
 40
0
 40
0
 40
1
 40
1
 40
1
 40
1
 10
176.153335
 20
168.285844
 30
0.0
 10
176.929785
 20
169.793004
 30
0.0
 10
177.458754
 20
171.147408
 30
0.0
 10
177.581097
 20
171.941748
 30
0.0
  0
SPLINE
  5
156
100
AcDbEntity
  8
Layer_1
 62
7
100
AcDbSpline
 70
8
 71
3
 72
8
 73
4
 74
0
 40
0
 40
0
 40
0
 40
0
 40
1
 40
1
 40
1
 40
1
 10
177.581097
 20
171.941748
 30
0.0
 10
177.634042
 20
172.285351
 30
0.0
 10
177.630430
 20
172.376856
 30
0.0
 10
177.557108
 20
172.551131
 30
0.0
  0
SPLINE
  5
157
100
AcDbEntity
  8
Layer_1
 62
7
100
AcDbSpline
 70
8
 71
3
 72
8
 73
4
 74
0
 40
0
 40
0
 40
0
 40
0
 40
1
 40
1
 40
1
 40
1
 10
177.557108
 20
172.551131
 30
0.0
 10
177.435047
 20
172.841080
 30
0.0
 10
177.256683
 20
172.898786
 30
0.0
 10
176.837696
 20
172.783927
 30
0.0
  0
SPLINE
  5
158
100
AcDbEntity
  8
Layer_1
 62
7
100
AcDbSpline
 70
8
 71
3
 72
8
 73
4
 74
0
 40
0
 40
0
 40
0
 40
0
 40
1
 40
1
 40
1
 40
1
 10
176.837696
 20
172.783927
 30
0.0
 10
174.847747
 20
172.238437
 30
0.0
 10
169.674670
 20
167.328276
 30
0.0
 10
165.132303
 20
161.673420
 30
0.0
  0
SPLINE
  5
159
100
AcDbEntity
  8
Layer_1
 62
7
100
AcDbSpline
 70
8
 71
3
 72
8
 73
4
 74
0
 40
0
 40
0
 40
0
 40
0
 40
1
 40
1
 40
1
 40
1
 10
165.132303
 20
161.673420
 30
0.0
 10
161.799541
 20
157.524432
 30
0.0
 10
158.131781
 20
152.002734
 30
0.0
 10
155.015201
 20
146.442386
 30
0.0
  0
SPLINE
  5
15a
100
AcDbEntity
  8
Layer_1
 62
7
100
AcDbSpline
 70
8
 71
3
 72
8
 73
4
 74
0
 40
0
 40
0
 40
0
 40
0
 40
1
 40
1
 40
1
 40
1
 10
155.015201
 20
146.442386
 30
0.0
 10
154.245778
 20
145.069680
 30
0.0
 10
153.041000
 20
142.788624
 30
0.0
 10
153.070069
 20
142.759575
 30
0.0
  0
SPLINE
  5
15b
100
AcDbEntity
  8
Layer_1
 62
7
100
AcDbSpline
 70
8
 71
3
 72
8
 73
4
 74
0
 40
0
 40
0
 40
0
 40
0
 40
1
 40
1
 40
1
 40
1
 10
153.070069
 20
142.759575
 30
0.0
 10
153.104641
 20
142.724992
 30
0.0
 10
154.484228
 20
143.662983
 30
0.0
 10
155.265109
 20
144.251995
 30
0.0
  0
SPLINE
  5
15c
100
AcDbEntity
  8
Layer_1
 62
7
100
AcDbSpline
 70
8
 71
3
 72
8
 73
4
 74
0
 40
0
 40
0
 40
0
 40
0
 40
1
 40
1
 40
1
 40
1
 10
155.265109
 20
144.251995
 30
0.0
 10
158.739405
 20
146.872657
 30
0.0
 10
164.240650
 20
152.213673
 30
0.0
 10
168.166418
 20
156.777514
 30
0.0
  0
SPLINE
  5
15d
100
AcDbEntity
  8
Layer_1
 62
7
100
AcDbSpline
 70
8
 71
3
 72
8
 73
4
 74
0
 40
0
 40
0
 40
0
 40
0
 40
1
 40
1
 40
1
 40
1
 10
168.166418
 20
156.777514
 30
0.0
 10
168.898135
 20
157.628168
 30
0.0
 10
170.787331
 20
159.948760
 30
0.0
 10
171.028913
 20
160.293709
 30
0.0
  0
SPLINE
  5
15e
100
AcDbEntity
  8
Layer_1
 62
7
100
AcDbSpline
 70
8
 71
3
 72
8
 73
4
 74
0
 40
0
 40
0
 40
0
 40
0
 40
1
 40
1
 40
1
 40
1
 10
171.028913
 20
160.293709
 30
0.0
 10
171.096872
 20
160.390714
 30
0.0
 10
171.203439
 20
160.414974
 30
0.0
 10
171.797517
 20
160.468678
 30
0.0
  0
SPLINE
  5
15f
100
AcDbEntity
  8
Layer_1
 62
7
100
AcDbSpline
 70
8
 71
3
 72
8
 73
4
 74
0
 40
0
 40
0
 40
0
 40
0
 40
1
 40
1
 40
1
 40
1
 10
171.797517
 20
160.468678
 30
0.0
 10
172.176852
 20
160.502968
 30
0.0
 10
172.629311
 20
160.554152
 30
0.0
 10
172.802990
 20
160.582417
 30
0.0
  0
SPLINE
  5
160
100
AcDbEntity
  8
Layer_1
 62
7
100
AcDbSpline
 70
8
 71
3
 72
8
 73
4
 74
0
 40
0
 40
0
 40
0
 40
0
 40
1
 40
1
 40
1
 40
1
 10
172.802990
 20
160.582417
 30
0.0
 10
172.976642
 20
160.610681
 30
0.0
 10
173.127010
 20
160.625537
 30
0.0
 10
173.137113
 20
160.615434
 30
0.0
  0
SPLINE
  5
161
100
AcDbEntity
  8
Layer_1
 62
7
100
AcDbSpline
 70
8
 71
3
 72
8
 73
4
 74
0
 40
0
 40
0
 40
0
 40
0
 40
1
 40
1
 40
1
 40
1
 10
173.137113
 20
160.615434
 30
0.0
 10
173.188619
 20
160.563928
 30
0.0
 10
170.605015
 20
157.284077
 30
0.0
 10
169.304705
 20
155.750242
 30
0.0
  0
SPLINE
  5
162
100
AcDbEntity
  8
Layer_1
 62
7
100
AcDbSpline
 70
8
 71
3
 72
8
 73
4
 74
0
 40
0
 40
0
 40
0
 40
0
 40
1
 40
1
 40
1
 40
1
 10
169.304705
 20
155.750242
 30
0.0
 10
166.495267
 20
152.436247
 30
0.0
 10
161.428786
 20
147.330469
 30
0.0
 10
158.221979
 20
144.581498
 30
0.0
  0
SPLINE
  5
163
100
AcDbEntity
  8
Layer_1
 62
7
100
AcDbSpline
 70
8
 71
3
 72
8
 73
4
 74
0
 40
0
 40
0
 40
0
 40
0
 40
1
 40
1
 40
1
 40
1
 10
158.221979
 20
144.581498
 30
0.0
 10
156.388833
 20
143.010084
 30
0.0
 10
153.309365
 20
140.688753
 30
0.0
 10
151.718761
 20
139.679314
 30
0.0
  0
LWPOLYLINE
  5
164
100
AcDbEntity
  8
Layer_1
 62
7
100
AcDbPolyline
 90
3
 70
0
 10
178.022182
 20
168.384046
 30
0.0
 10
177.806734
 20
167.915882
 30
0.0
 10
177.103803
 20
167.717675
 30
0.0
  0
SPLINE
  5
165
100
AcDbEntity
  8
Layer_1
 62
7
100
AcDbSpline
 70
8
 71
3
 72
8
 73
4
 74
0
 40
0
 40
0
 40
0
 40
0
 40
1
 40
1
 40
1
 40
1
 10
150.782364
 20
138.320767
 30
0.0
 10
148.507458
 20
133.349259
 30
0.0
 10
147.524716
 20
129.851803
 30
0.0
 10
147.984475
 20
128.363296
 30
0.0
  0
SPLINE
  5
166
100
AcDbEntity
  8
Layer_1
 62
7
100
AcDbSpline
 70
8
 71
3
 72
8
 73
4
 74
0
 40
0
 40
0
 40
0
 40
0
 40
1
 40
1
 40
1
 40
1
 10
147.984475
 20
128.363296
 30
0.0
 10
148.152352
 20
127.819784
 30
0.0
 10
148.479171
 20
127.553687
 30
0.0
 10
148.978784
 20
127.553764
 30
0.0
  0
SPLINE
  5
167
100
AcDbEntity
  8
Layer_1
 62
7
100
AcDbSpline
 70
8
 71
3
 72
8
 73
4
 74
0
 40
0
 40
0
 40
0
 40
0
 40
1
 40
1
 40
1
 40
1
 10
148.978784
 20
127.553764
 30
0.0
 10
149.525663
 20
127.553817
 30
0.0
 10
150.208398
 20
127.981536
 30
0.0
 10
151.125270
 20
128.898403
 30
0.0
  0
SPLINE
  5
168
100
AcDbEntity
  8
Layer_1
 62
7
100
AcDbSpline
 70
8
 71
3
 72
8
 73
4
 74
0
 40
0
 40
0
 40
0
 40
0
 40
1
 40
1
 40
1
 40
1
 10
151.125270
 20
128.898403
 30
0.0
 10
152.167536
 20
129.940664
 30
0.0
 10
153.022797
 20
131.051781
 30
0.0
 10
154.607474
 20
133.422309
 30
0.0
  0
SPLINE
  5
169
100
AcDbEntity
  8
Layer_1
 62
7
100
AcDbSpline
 70
8
 71
3
 72
8
 73
4
 74
0
 40
0
 40
0
 40
0
 40
0
 40
1
 40
1
 40
1
 40
1
 10
154.607474
 20
133.422309
 30
0.0
 10
157.952034
 20
138.425390
 30
0.0
 10
160.122210
 20
141.338696
 30
0.0
 10
162.151105
 20
143.549035
 30
0.0
  0
SPLINE
  5
16a
100
AcDbEntity
  8
Layer_1
 62
7
100
AcDbSpline
 70
8
 71
3
 72
8
 73
4
 74
0
 40
0
 40
0
 40
0
 40
0
 40
1
 40
1
 40
1
 40
1
 10
162.151105
 20
143.549035
 30
0.0
 10
164.817371
 20
146.453768
 30
0.0
 10
167.159957
 20
148.241460
 30
0.0
 10
169.256219
 20
148.971109
 30
0.0
  0
SPLINE
  5
16b
100
AcDbEntity
  8
Layer_1
 62
7
100
AcDbSpline
 70
8
 71
3
 72
8
 73
4
 74
0
 40
0
 40
0
 40
0
 40
0
 40
1
 40
1
 40
1
 40
1
 10
169.256219
 20
148.971109
 30
0.0
 10
170.089988
 20
149.261332
 30
0.0
 10
170.624009
 20
149.356751
 30
0.0
 10
171.433140
 20
149.360098
 30
0.0
  0
SPLINE
  5
16c
100
AcDbEntity
  8
Layer_1
 62
7
100
AcDbSpline
 70
8
 71
3
 72
8
 73
4
 74
0
 40
0
 40
0
 40
0
 40
0
 40
1
 40
1
 40
1
 40
1
 10
171.433140
 20
149.360098
 30
0.0
 10
172.247351
 20
149.363457
 30
0.0
 10
172.531351
 20
149.286071
 30
0.0
 10
173.125598
 20
148.898910
 30
0.0
  0
SPLINE
  5
16d
100
AcDbEntity
  8
Layer_1
 62
7
100
AcDbSpline
 70
8
 71
3
 72
8
 73
4
 74
0
 40
0
 40
0
 40
0
 40
0
 40
1
 40
1
 40
1
 40
1
 10
173.125598
 20
148.898910
 30
0.0
 10
173.498668
 20
148.655841
 30
0.0
 10
174.085549
 20
148.074745
 30
0.0
 10
174.324676
 20
147.711638
 30
0.0
  0
SPLINE
  5
16e
100
AcDbEntity
  8
Layer_1
 62
7
100
AcDbSpline
 70
8
 71
3
 72
8
 73
4
 74
0
 40
0
 40
0
 40
0
 40
0
 40
1
 40
1
 40
1
 40
1
 10
174.324676
 20
147.711638
 30
0.0
 10
174.408722
 20
147.584032
 30
0.0
 10
174.492626
 20
147.480301
 30
0.0
 10
174.511168
 20
147.481125
 30
0.0
  0
SPLINE
  5
16f
100
AcDbEntity
  8
Layer_1
 62
7
100
AcDbSpline
 70
8
 71
3
 72
8
 73
4
 74
0
 40
0
 40
0
 40
0
 40
0
 40
1
 40
1
 40
1
 40
1
 10
174.511168
 20
147.481125
 30
0.0
 10
174.529795
 20
147.481971
 30
0.0
 10
174.729100
 20
147.775706
 30
0.0
 10
174.954286
 20
148.133913
 30
0.0
  0
LWPOLYLINE
  5
170
100
AcDbEntity
  8
Layer_1
 62
7
100
AcDbPolyline
 90
3
 70
0
 10
151.718761
 20
139.679314
 30
0.0
 10
151.275217
 20
139.397823
 30
0.0
 10
150.782364
 20
138.320767
 30
0.0
  0
SPLINE
  5
171
100
AcDbEntity
  8
Layer_1
 62
7
100
AcDbSpline
 70
8
 71
3
 72
8
 73
4
 74
0
 40
0
 40
0
 40
0
 40
0
 40
1
 40
1
 40
1
 40
1
 10
180.709446
 20
148.530410
 30
0.0
 10
179.697171
 20
146.793143
 30
0.0
 10
171.905806
 20
133.598772
 30
0.0
 10
170.489953
 20
131.224103
 30
0.0
  0
SPLINE
  5
172
100
AcDbEntity
  8
Layer_1
 62
7
100
AcDbSpline
 70
8
 71
3
 72
8
 73
4
 74
0
 40
0
 40
0
 40
0
 40
0
 40
1
 40
1
 40
1
 40
1
 10
170.489953
 20
131.224103
 30
0.0
 10
169.420557
 20
129.430502
 30
0.0
 10
169.161251
 20
128.865479
 30
0.0
 10
169.147817
 20
128.299637
 30
0.0
  0
SPLINE
  5
173
100
AcDbEntity
  8
Layer_1
 62
7
100
AcDbSpline
 70
8
 71
3
 72
8
 73
4
 74
0
 40
0
 40
0
 40
0
 40
0
 40
1
 40
1
 40
1
 40
1
 10
169.147817
 20
128.299637
 30
0.0
 10
169.141326
 20
128.021369
 30
0.0
 10
169.157413
 20
127.967197
 30
0.0
 10
169.276116
 20
127.870919
 30
0.0
  0
SPLINE
  5
174
100
AcDbEntity
  8
Layer_1
 62
7
100
AcDbSpline
 70
8
 71
3
 72
8
 73
4
 74
0
 40
0
 40
0
 40
0
 40
0
 40
1
 40
1
 40
1
 40
1
 10
169.276116
 20
127.870919
 30
0.0
 10
169.472260
 20
127.711791
 30
0.0
 10
169.778725
 20
127.763712
 30
0.0
 10
170.384176
 20
128.058659
 30
0.0
  0
SPLINE
  5
175
100
AcDbEntity
  8
Layer_1
 62
7
100
AcDbSpline
 70
8
 71
3
 72
8
 73
4
 74
0
 40
0
 40
0
 40
0
 40
0
 40
1
 40
1
 40
1
 40
1
 10
170.384176
 20
128.058659
 30
0.0
 10
170.979976
 20
128.348905
 30
0.0
 10
171.437204
 20
128.676133
 30
0.0
 10
172.204340
 20
129.361324
 30
0.0
  0
SPLINE
  5
176
100
AcDbEntity
  8
Layer_1
 62
7
100
AcDbSpline
 70
8
 71
3
 72
8
 73
4
 74
0
 40
0
 40
0
 40
0
 40
0
 40
1
 40
1
 40
1
 40
1
 10
172.204340
 20
129.361324
 30
0.0
 10
173.614492
 20
130.620859
 30
0.0
 10
175.916776
 20
133.413417
 30
0.0
 10
177.566309
 20
135.865180
 30
0.0
  0
LWPOLYLINE
  5
177
100
AcDbEntity
  8
Layer_1
 62
7
100
AcDbPolyline
 90
5
 70
0
 10
174.954286
 20
148.133913
 30
0.0
 10
175.363705
 20
148.785206
 30
0.0
 10
178.112126
 20
148.787464
 30
0.0
 10
180.860548
 20
148.789722
 30
0.0
 10
180.709446
 20
148.530410
 30
0.0
  0
SPLINE
  5
178
100
AcDbEntity
  8
Layer_1
 62
7
100
AcDbSpline
 70
8
 71
3
 72
8
 73
4
 74
0
 40
0
 40
0
 40
0
 40
0
 40
1
 40
1
 40
1
 40
1
 10
178.804643
 20
136.288262
 30
0.0
 10
179.329182
 20
136.288262
 30
0.0
 10
179.758329
 20
136.274659
 30
0.0
 10
179.758329
 20
136.257994
 30
0.0
  0
SPLINE
  5
179
100
AcDbEntity
  8
Layer_1
 62
7
100
AcDbSpline
 70
8
 71
3
 72
8
 73
4
 74
0
 40
0
 40
0
 40
0
 40
0
 40
1
 40
1
 40
1
 40
1
 10
179.758329
 20
136.257994
 30
0.0
 10
179.758329
 20
136.198673
 30
0.0
 10
178.526654
 20
134.398671
 30
0.0
 10
177.858522
 20
133.481542
 30
0.0
  0
SPLINE
  5
17a
100
AcDbEntity
  8
Layer_1
 62
7
100
AcDbSpline
 70
8
 71
3
 72
8
 73
4
 74
0
 40
0
 40
0
 40
0
 40
0
 40
1
 40
1
 40
1
 40
1
 10
177.858522
 20
133.481542
 30
0.0
 10
176.018771
 20
130.956229
 30
0.0
 10
174.371497
 20
128.990941
 30
0.0
 10
172.635209
 20
127.249870
 30
0.0
  0
SPLINE
  5
17b
100
AcDbEntity
  8
Layer_1
 62
7
100
AcDbSpline
 70
8
 71
3
 72
8
 73
4
 74
0
 40
0
 40
0
 40
0
 40
0
 40
1
 40
1
 40
1
 40
1
 10
172.635209
 20
127.249870
 30
0.0
 10
168.917891
 20
123.522267
 30
0.0
 10
165.840794
 20
121.988296
 30
0.0
 10
163.942200
 20
122.916314
 30
0.0
  0
SPLINE
  5
17c
100
AcDbEntity
  8
Layer_1
 62
7
100
AcDbSpline
 70
8
 71
3
 72
8
 73
4
 74
0
 40
0
 40
0
 40
0
 40
0
 40
1
 40
1
 40
1
 40
1
 10
163.942200
 20
122.916314
 30
0.0
 10
163.030397
 20
123.361979
 30
0.0
 10
162.613329
 20
124.229081
 30
0.0
 10
162.619848
 20
125.665296
 30
0.0
  0
SPLINE
  5
17d
100
AcDbEntity
  8
Layer_1
 62
7
100
AcDbSpline
 70
8
 71
3
 72
8
 73
4
 74
0
 40
0
 40
0
 40
0
 40
0
 40
1
 40
1
 40
1
 40
1
 10
162.619848
 20
125.665296
 30
0.0
 10
162.622670
 20
126.058327
 30
0.0
 10
162.642426
 20
126.497335
 30
0.0
 10
162.666020
 20
126.640871
 30
0.0
  0
LWPOLYLINE
  5
17e
100
AcDbEntity
  8
Layer_1
 62
7
100
AcDbPolyline
 90
3
 70
0
 10
177.566309
 20
135.865180
 30
0.0
 10
177.850958
 20
136.288262
 30
0.0
 10
178.804643
 20
136.288262
 30
0.0
  0
SPLINE
  5
17f
100
AcDbEntity
  8
Layer_1
 62
7
100
AcDbSpline
 70
8
 71
3
 72
8
 73
4
 74
0
 40
0
 40
0
 40
0
 40
0
 40
1
 40
1
 40
1
 40
1
 10
162.239695
 20
126.448172
 30
0.0
 10
160.768640
 20
125.026035
 30
0.0
 10
159.278168
 20
123.927970
 30
0.0
 10
157.954291
 20
123.290995
 30
0.0
  0
SPLINE
  5
180
100
AcDbEntity
  8
Layer_1
 62
7
100
AcDbSpline
 70
8
 71
3
 72
8
 73
4
 74
0
 40
0
 40
0
 40
0
 40
0
 40
1
 40
1
 40
1
 40
1
 10
157.954291
 20
123.290995
 30
0.0
 10
157.153853
 20
122.905874
 30
0.0
 10
156.633604
 20
122.753542
 30
0.0
 10
155.983703
 20
122.714008
 30
0.0
  0
SPLINE
  5
181
100
AcDbEntity
  8
Layer_1
 62
7
100
AcDbSpline
 70
8
 71
3
 72
8
 73
4
 74
0
 40
0
 40
0
 40
0
 40
0
 40
1
 40
1
 40
1
 40
1
 10
155.983703
 20
122.714008
 30
0.0
 10
154.285064
 20
122.610675
 30
0.0
 10
152.973888
 20
123.626362
 30
0.0
 10
152.625541
 20
125.315363
 30
0.0
  0
SPLINE
  5
182
100
AcDbEntity
  8
Layer_1
 62
7
100
AcDbSpline
 70
8
 71
3
 72
8
 73
4
 74
0
 40
0
 40
0
 40
0
 40
0
 40
1
 40
1
 40
1
 40
1
 10
152.625541
 20
125.315363
 30
0.0
 10
152.504157
 20
125.903997
 30
0.0
 10
152.482482
 20
126.859754
 30
0.0
 10
152.575418
 20
127.527811
 30
0.0
  0
SPLINE
  5
183
100
AcDbEntity
  8
Layer_1
 62
7
100
AcDbSpline
 70
8
 71
3
 72
8
 73
4
 74
0
 40
0
 40
0
 40
0
 40
0
 40
1
 40
1
 40
1
 40
1
 10
152.575418
 20
127.527811
 30
0.0
 10
152.607450
 20
127.758160
 30
0.0
 10
152.624807
 20
127.955507
 30
0.0
 10
152.613941
 20
127.966356
 30
0.0
  0
SPLINE
  5
184
100
AcDbEntity
  8
Layer_1
 62
7
100
AcDbSpline
 70
8
 71
3
 72
8
 73
4
 74
0
 40
0
 40
0
 40
0
 40
0
 40
1
 40
1
 40
1
 40
1
 10
152.613941
 20
127.966356
 30
0.0
 10
152.603217
 20
127.977193
 30
0.0
 10
152.423337
 20
127.785621
 30
0.0
 10
152.214493
 20
127.540612
 30
0.0
  0
SPLINE
  5
185
100
AcDbEntity
  8
Layer_1
 62
7
100
AcDbSpline
 70
8
 71
3
 72
8
 73
4
 74
0
 40
0
 40
0
 40
0
 40
0
 40
1
 40
1
 40
1
 40
1
 10
152.214493
 20
127.540612
 30
0.0
 10
151.609899
 20
126.831354
 30
0.0
 10
150.258805
 20
125.502781
 30
0.0
 10
149.487326
 20
124.858897
 30
0.0
  0
SPLINE
  5
186
100
AcDbEntity
  8
Layer_1
 62
7
100
AcDbSpline
 70
8
 71
3
 72
8
 73
4
 74
0
 40
0
 40
0
 40
0
 40
0
 40
1
 40
1
 40
1
 40
1
 10
149.487326
 20
124.858897
 30
0.0
 10
148.601455
 20
124.119537
 30
0.0
 10
147.746257
 20
123.546030
 30
0.0
 10
147.003412
 20
123.193157
 30
0.0
  0
SPLINE
  5
187
100
AcDbEntity
  8
Layer_1
 62
7
100
AcDbSpline
 70
8
 71
3
 72
8
 73
4
 74
0
 40
0
 40
0
 40
0
 40
0
 40
1
 40
1
 40
1
 40
1
 10
147.003412
 20
123.193157
 30
0.0
 10
146.206978
 20
122.814826
 30
0.0
 10
145.845603
 20
122.725249
 30
0.0
 10
145.147295
 20
122.733050
 30
0.0
  0
SPLINE
  5
188
100
AcDbEntity
  8
Layer_1
 62
7
100
AcDbSpline
 70
8
 71
3
 72
8
 73
4
 74
0
 40
0
 40
0
 40
0
 40
0
 40
1
 40
1
 40
1
 40
1
 10
145.147295
 20
122.733050
 30
0.0
 10
143.391805
 20
122.752664
 30
0.0
 10
142.193227
 20
123.675418
 30
0.0
 10
141.757626
 20
125.342660
 30
0.0
  0
SPLINE
  5
189
100
AcDbEntity
  8
Layer_1
 62
7
100
AcDbSpline
 70
8
 71
3
 72
8
 73
4
 74
0
 40
0
 40
0
 40
0
 40
0
 40
1
 40
1
 40
1
 40
1
 10
141.757626
 20
125.342660
 30
0.0
 10
141.609143
 20
125.910926
 30
0.0
 10
141.555888
 20
127.340706
 30
0.0
 10
141.650458
 20
128.218945
 30
0.0
  0
SPLINE
  5
18a
100
AcDbEntity
  8
Layer_1
 62
7
100
AcDbSpline
 70
8
 71
3
 72
8
 73
4
 74
0
 40
0
 40
0
 40
0
 40
0
 40
1
 40
1
 40
1
 40
1
 10
141.650458
 20
128.218945
 30
0.0
 10
141.778301
 20
129.406104
 30
0.0
 10
142.087208
 20
130.803674
 30
0.0
 10
142.583893
 20
132.442146
 30
0.0
  0
SPLINE
  5
18b
100
AcDbEntity
  8
Layer_1
 62
7
100
AcDbSpline
 70
8
 71
3
 72
8
 73
4
 74
0
 40
0
 40
0
 40
0
 40
0
 40
1
 40
1
 40
1
 40
1
 10
142.583893
 20
132.442146
 30
0.0
 10
142.835517
 20
133.272164
 30
0.0
 10
143.685762
 20
135.751628
 30
0.0
 10
144.021759
 20
136.635189
 30
0.0
  0
SPLINE
  5
18c
100
AcDbEntity
  8
Layer_1
 62
7
100
AcDbSpline
 70
8
 71
3
 72
8
 73
4
 74
0
 40
0
 40
0
 40
0
 40
0
 40
1
 40
1
 40
1
 40
1
 10
144.021759
 20
136.635189
 30
0.0
 10
144.146016
 20
136.961941
 30
0.0
 10
144.151988
 20
137.004745
 30
0.0
 10
144.068831
 20
136.972631
 30
0.0
  0
SPLINE
  5
18d
100
AcDbEntity
  8
Layer_1
 62
7
100
AcDbSpline
 70
8
 71
3
 72
8
 73
4
 74
0
 40
0
 40
0
 40
0
 40
0
 40
1
 40
1
 40
1
 40
1
 10
144.068831
 20
136.972631
 30
0.0
 10
143.849065
 20
136.887770
 30
0.0
 10
142.362154
 20
136.667710
 30
0.0
 10
141.786277
 20
136.634820
 30
0.0
  0
LWPOLYLINE
  5
18e
100
AcDbEntity
  8
Layer_1
 62
7
100
AcDbPolyline
 90
3
 70
0
 10
162.666020
 20
126.640871
 30
0.0
 10
162.708974
 20
126.901833
 30
0.0
 10
162.239695
 20
126.448172
 30
0.0
  0
SPLINE
  5
18f
100
AcDbEntity
  8
Layer_1
 62
7
100
AcDbSpline
 70
8
 71
3
 72
8
 73
4
 74
0
 40
0
 40
0
 40
0
 40
0
 40
1
 40
1
 40
1
 40
1
 10
140.717761
 20
135.829606
 30
0.0
 10
139.657257
 20
133.999008
 30
0.0
 10
138.167714
 20
131.703664
 30
0.0
 10
137.405262
 20
130.725117
 30
0.0
  0
SPLINE
  5
190
100
AcDbEntity
  8
Layer_1
 62
7
100
AcDbSpline
 70
8
 71
3
 72
8
 73
4
 74
0
 40
0
 40
0
 40
0
 40
0
 40
1
 40
1
 40
1
 40
1
 10
137.405262
 20
130.725117
 30
0.0
 10
136.758401
 20
129.894927
 30
0.0
 10
135.971130
 20
129.023013
 30
0.0
 10
134.911397
 20
127.963147
 30
0.0
  0
SPLINE
  5
191
100
AcDbEntity
  8
Layer_1
 62
7
100
AcDbSpline
 70
8
 71
3
 72
8
 73
4
 74
0
 40
0
 40
0
 40
0
 40
0
 40
1
 40
1
 40
1
 40
1
 10
134.911397
 20
127.963147
 30
0.0
 10
132.138705
 20
125.190093
 30
0.0
 10
129.471587
 20
123.362665
 30
0.0
 10
127.418485
 20
122.829223
 30
0.0
  0
SPLINE
  5
192
100
AcDbEntity
  8
Layer_1
 62
7
100
AcDbSpline
 70
8
 71
3
 72
8
 73
4
 74
0
 40
0
 40
0
 40
0
 40
0
 40
1
 40
1
 40
1
 40
1
 10
127.418485
 20
122.829223
 30
0.0
 10
126.832775
 20
122.677043
 30
0.0
 10
126.001639
 20
122.618572
 30
0.0
 10
125.555973
 20
122.698187
 30
0.0
  0
LWPOLYLINE
  5
193
100
AcDbEntity
  8
Layer_1
 62
7
100
AcDbPolyline
 90
3
 70
0
 10
141.786277
 20
136.634820
 30
0.0
 10
141.163641
 20
136.599257
 30
0.0
 10
140.717761
 20
135.829606
 30
0.0
  0
SPLINE
  5
194
100
AcDbEntity
  8
Layer_1
 62
7
100
AcDbSpline
 70
8
 71
3
 72
8
 73
4
 74
0
 40
0
 40
0
 40
0
 40
0
 40
1
 40
1
 40
1
 40
1
 10
161.279047
 20
128.072079
 30
0.0
 10
162.606507
 20
128.731858
 30
0.0
 10
164.640060
 20
131.303969
 30
0.0
 10
167.667091
 20
136.151870
 30
0.0
  0
SPLINE
  5
195
100
AcDbEntity
  8
Layer_1
 62
7
100
AcDbSpline
 70
8
 71
3
 72
8
 73
4
 74
0
 40
0
 40
0
 40
0
 40
0
 40
1
 40
1
 40
1
 40
1
 10
167.667091
 20
136.151870
 30
0.0
 10
169.205569
 20
138.615768
 30
0.0
 10
173.015597
 20
145.007597
 30
0.0
 10
173.323106
 20
145.640548
 30
0.0
  0
LWPOLYLINE
  5
196
100
AcDbEntity
  8
Layer_1
 62
7
100
AcDbPolyline
 90
2
 70
0
 10
125.555973
 20
122.698187
 30
0.0
 10
125.555925
 20
122.698274
 30
0.0
  0
SPLINE
  5
197
100
AcDbEntity
  8
Layer_1
 62
7
100
AcDbSpline
 70
8
 71
3
 72
8
 73
4
 74
0
 40
0
 40
0
 40
0
 40
0
 40
1
 40
1
 40
1
 40
1
 10
173.310547
 20
146.119815
 30
0.0
 10
173.117197
 20
146.470038
 30
0.0
 10
172.882473
 20
146.606439
 30
0.0
 10
172.475903
 20
146.604811
 30
0.0
  0
SPLINE
  5
198
100
AcDbEntity
  8
Layer_1
 62
7
100
AcDbSpline
 70
8
 71
3
 72
8
 73
4
 74
0
 40
0
 40
0
 40
0
 40
0
 40
1
 40
1
 40
1
 40
1
 10
172.475903
 20
146.604811
 30
0.0
 10
172.013369
 20
146.602835
 30
0.0
 10
171.721862
 20
146.527163
 30
0.0
 10
171.214709
 20
146.276891
 30
0.0
  0
SPLINE
  5
199
100
AcDbEntity
  8
Layer_1
 62
7
100
AcDbSpline
 70
8
 71
3
 72
8
 73
4
 74
0
 40
0
 40
0
 40
0
 40
0
 40
1
 40
1
 40
1
 40
1
 10
171.214709
 20
146.276891
 30
0.0
 10
170.575249
 20
145.961324
 30
0.0
 10
169.905931
 20
145.434715
 30
0.0
 10
168.929188
 20
144.478681
 30
0.0
  0
SPLINE
  5
19a
100
AcDbEntity
  8
Layer_1
 62
7
100
AcDbSpline
 70
8
 71
3
 72
8
 73
4
 74
0
 40
0
 40
0
 40
0
 40
0
 40
1
 40
1
 40
1
 40
1
 10
168.929188
 20
144.478681
 30
0.0
 10
165.820990
 20
141.436334
 30
0.0
 10
162.833809
 20
137.267345
 30
0.0
 10
160.689767
 20
132.979525
 30
0.0
  0
SPLINE
  5
19b
100
AcDbEntity
  8
Layer_1
 62
7
100
AcDbSpline
 70
8
 71
3
 72
8
 73
4
 74
0
 40
0
 40
0
 40
0
 40
0
 40
1
 40
1
 40
1
 40
1
 10
160.689767
 20
132.979525
 30
0.0
 10
159.698687
 20
130.997465
 30
0.0
 10
159.261215
 20
129.547633
 30
0.0
 10
159.398939
 20
128.701251
 30
0.0
  0
SPLINE
  5
19c
100
AcDbEntity
  8
Layer_1
 62
7
100
AcDbSpline
 70
8
 71
3
 72
8
 73
4
 74
0
 40
0
 40
0
 40
0
 40
0
 40
1
 40
1
 40
1
 40
1
 10
159.398939
 20
128.701251
 30
0.0
 10
159.533418
 20
127.874628
 30
0.0
 10
160.339247
 20
127.604973
 30
0.0
 10
161.279047
 20
128.072079
 30
0.0
  0
LWPOLYLINE
  5
19d
100
AcDbEntity
  8
Layer_1
 62
7
100
AcDbPolyline
 90
3
 70
0
 10
173.323106
 20
145.640548
 30
0.0
 10
173.441075
 20
145.883372
 30
0.0
 10
173.310547
 20
146.119815
 30
0.0
  0
SPLINE
  5
19e
100
AcDbEntity
  8
Layer_1
 62
7
100
AcDbSpline
 70
8
 71
3
 72
8
 73
4
 74
0
 40
0
 40
0
 40
0
 40
0
 40
1
 40
1
 40
1
 40
1
 10
131.586103
 20
128.068212
 30
0.0
 10
132.850041
 20
128.526996
 30
0.0
 10
134.627408
 20
130.109478
 30
0.0
 10
136.434576
 20
132.385061
 30
0.0
  0
SPLINE
  5
19f
100
AcDbEntity
  8
Layer_1
 62
7
100
AcDbSpline
 70
8
 71
3
 72
8
 73
4
 74
0
 40
0
 40
0
 40
0
 40
0
 40
1
 40
1
 40
1
 40
1
 10
136.434576
 20
132.385061
 30
0.0
 10
137.247387
 20
133.408565
 30
0.0
 10
139.360554
 20
136.655464
 30
0.0
 10
139.360554
 20
136.880875
 30
0.0
  0
SPLINE
  5
1a0
100
AcDbEntity
  8
Layer_1
 62
7
100
AcDbSpline
 70
8
 71
3
 72
8
 73
4
 74
0
 40
0
 40
0
 40
0
 40
0
 40
1
 40
1
 40
1
 40
1
 10
139.360554
 20
136.880875
 30
0.0
 10
139.360554
 20
136.914688
 30
0.0
 10
139.145591
 20
137.050468
 30
0.0
 10
138.882882
 20
137.182607
 30
0.0
  0
SPLINE
  5
1a1
100
AcDbEntity
  8
Layer_1
 62
7
100
AcDbSpline
 70
8
 71
3
 72
8
 73
4
 74
0
 40
0
 40
0
 40
0
 40
0
 40
1
 40
1
 40
1
 40
1
 10
138.882882
 20
137.182607
 30
0.0
 10
138.305540
 20
137.472986
 30
0.0
 10
137.410311
 20
138.058461
 30
0.0
 10
136.838120
 20
138.519889
 30
0.0
  0
SPLINE
  5
1a2
100
AcDbEntity
  8
Layer_1
 62
7
100
AcDbSpline
 70
8
 71
3
 72
8
 73
4
 74
0
 40
0
 40
0
 40
0
 40
0
 40
1
 40
1
 40
1
 40
1
 10
136.838120
 20
138.519889
 30
0.0
 10
136.239216
 20
139.002850
 30
0.0
 10
135.643801
 20
139.662353
 30
0.0
 10
135.192282
 20
140.342861
 30
0.0
  0
LWPOLYLINE
  5
1a3
100
AcDbEntity
  8
Layer_1
 62
7
100
AcDbPolyline
 90
2
 70
0
 10
161.279047
 20
128.072079
 30
0.0
 10
161.279047
 20
128.072079
 30
0.0
  0
SPLINE
  5
1a4
100
AcDbEntity
  8
Layer_1
 62
7
100
AcDbSpline
 70
8
 71
3
 72
8
 73
4
 74
0
 40
0
 40
0
 40
0
 40
0
 40
1
 40
1
 40
1
 40
1
 10
134.676272
 20
140.779594
 30
0.0
 10
134.161462
 20
140.161285
 30
0.0
 10
132.208885
 20
137.313460
 30
0.0
 10
131.647712
 20
136.362455
 30
0.0
  0
SPLINE
  5
1a5
100
AcDbEntity
  8
Layer_1
 62
7
100
AcDbSpline
 70
8
 71
3
 72
8
 73
4
 74
0
 40
0
 40
0
 40
0
 40
0
 40
1
 40
1
 40
1
 40
1
 10
131.647712
 20
136.362455
 30
0.0
 10
130.543277
 20
134.490794
 30
0.0
 10
129.727816
 20
132.629505
 30
0.0
 10
129.367018
 20
131.156751
 30
0.0
  0
SPLINE
  5
1a6
100
AcDbEntity
  8
Layer_1
 62
7
100
AcDbSpline
 70
8
 71
3
 72
8
 73
4
 74
0
 40
0
 40
0
 40
0
 40
0
 40
1
 40
1
 40
1
 40
1
 10
129.367018
 20
131.156751
 30
0.0
 10
129.267167
 20
130.749185
 30
0.0
 10
129.239289
 20
130.480061
 30
0.0
 10
129.236888
 20
129.899976
 30
0.0
  0
SPLINE
  5
1a7
100
AcDbEntity
  8
Layer_1
 62
7
100
AcDbSpline
 70
8
 71
3
 72
8
 73
4
 74
0
 40
0
 40
0
 40
0
 40
0
 40
1
 40
1
 40
1
 40
1
 10
129.236888
 20
129.899976
 30
0.0
 10
129.233755
 20
129.162309
 30
0.0
 10
129.233924
 20
129.161561
 30
0.0
 10
129.424896
 20
128.782952
 30
0.0
  0
SPLINE
  5
1a8
100
AcDbEntity
  8
Layer_1
 62
7
100
AcDbSpline
 70
8
 71
3
 72
8
 73
4
 74
0
 40
0
 40
0
 40
0
 40
0
 40
1
 40
1
 40
1
 40
1
 10
129.424896
 20
128.782952
 30
0.0
 10
129.841334
 20
127.957223
 30
0.0
 10
130.594295
 20
127.708210
 30
0.0
 10
131.586103
 20
128.068212
 30
0.0
  0
LWPOLYLINE
  5
1a9
100
AcDbEntity
  8
Layer_1
 62
7
100
AcDbPolyline
 90
3
 70
0
 10
135.192282
 20
140.342861
 30
0.0
 10
134.802158
 20
140.930806
 30
0.0
 10
134.676272
 20
140.779594
 30
0.0
  0
SPLINE
  5
1aa
100
AcDbEntity
  8
Layer_1
 62
7
100
AcDbSpline
 70
8
 71
3
 72
8
 73
4
 74
0
 40
0
 40
0
 40
0
 40
0
 40
1
 40
1
 40
1
 40
1
 10
140.444133
 20
138.790944
 30
0.0
 10
140.612684
 20
138.971625
 30
0.0
 10
141.552995
 20
140.787779
 30
0.0
 10
141.844468
 20
141.495618
 30
0.0
  0
SPLINE
  5
1ab
100
AcDbEntity
  8
Layer_1
 62
7
100
AcDbSpline
 70
8
 71
3
 72
8
 73
4
 74
0
 40
0
 40
0
 40
0
 40
0
 40
1
 40
1
 40
1
 40
1
 10
141.844468
 20
141.495618
 30
0.0
 10
142.089234
 20
142.089964
 30
0.0
 10
142.317682
 20
142.823321
 30
0.0
 10
142.450131
 20
143.439844
 30
0.0
  0
SPLINE
  5
1ac
100
AcDbEntity
  8
Layer_1
 62
7
100
AcDbSpline
 70
8
 71
3
 72
8
 73
4
 74
0
 40
0
 40
0
 40
0
 40
0
 40
1
 40
1
 40
1
 40
1
 10
142.450131
 20
143.439844
 30
0.0
 10
142.591640
 20
144.098590
 30
0.0
 10
142.592792
 20
145.318583
 30
0.0
 10
142.452389
 20
145.732688
 30
0.0
  0
SPLINE
  5
1ad
100
AcDbEntity
  8
Layer_1
 62
7
100
AcDbSpline
 70
8
 71
3
 72
8
 73
4
 74
0
 40
0
 40
0
 40
0
 40
0
 40
1
 40
1
 40
1
 40
1
 10
142.452389
 20
145.732688
 30
0.0
 10
142.130391
 20
146.681691
 30
0.0
 10
141.497589
 20
147.096117
 30
0.0
 10
140.604384
 20
146.942950
 30
0.0
  0
SPLINE
  5
1ae
100
AcDbEntity
  8
Layer_1
 62
7
100
AcDbSpline
 70
8
 71
3
 72
8
 73
4
 74
0
 40
0
 40
0
 40
0
 40
0
 40
1
 40
1
 40
1
 40
1
 10
140.604384
 20
146.942950
 30
0.0
 10
138.995173
 20
146.667001
 30
0.0
 10
137.195947
 20
144.973391
 30
0.0
 10
136.824805
 20
143.385253
 30
0.0
  0
SPLINE
  5
1af
100
AcDbEntity
  8
Layer_1
 62
7
100
AcDbSpline
 70
8
 71
3
 72
8
 73
4
 74
0
 40
0
 40
0
 40
0
 40
0
 40
1
 40
1
 40
1
 40
1
 10
136.824805
 20
143.385253
 30
0.0
 10
136.501110
 20
142.000084
 30
0.0
 10
137.124257
 20
140.489278
 30
0.0
 10
138.427468
 20
139.499624
 30
0.0
  0
SPLINE
  5
1b0
100
AcDbEntity
  8
Layer_1
 62
7
100
AcDbSpline
 70
8
 71
3
 72
8
 73
4
 74
0
 40
0
 40
0
 40
0
 40
0
 40
1
 40
1
 40
1
 40
1
 10
138.427468
 20
139.499624
 30
0.0
 10
138.792413
 20
139.222487
 30
0.0
 10
139.765947
 20
138.716347
 30
0.0
 10
140.015762
 20
138.673867
 30
0.0
  0
SPLINE
  5
1b1
100
AcDbEntity
  8
Layer_1
 62
7
100
AcDbSpline
 70
8
 71
3
 72
8
 73
4
 74
0
 40
0
 40
0
 40
0
 40
0
 40
1
 40
1
 40
1
 40
1
 10
140.015762
 20
138.673867
 30
0.0
 10
140.275426
 20
138.629713
 30
0.0
 10
140.300146
 20
138.636469
 30
0.0
 10
140.444240
 20
138.790944
 30
0.0
  0
LWPOLYLINE
  5
1b2
100
AcDbEntity
  8
Layer_1
 62
7
100
AcDbPolyline
 90
2
 70
0
 10
131.586103
 20
128.068212
 30
0.0
 10
131.586103
 20
128.068212
 30
0.0
  0
SPLINE
  5
1b3
100
AcDbEntity
  8
Layer_1
 62
7
100
AcDbSpline
 70
8
 71
3
 72
8
 73
4
 74
0
 40
0
 40
0
 40
0
 40
0
 40
1
 40
1
 40
1
 40
1
 10
104.995181
 20
122.781739
 30
0.0
 10
103.485360
 20
122.998988
 30
0.0
 10
102.525604
 20
123.335461
 30
0.0
 10
101.528632
 20
123.997055
 30
0.0
  0
SPLINE
  5
1b4
100
AcDbEntity
  8
Layer_1
 62
7
100
AcDbSpline
 70
8
 71
3
 72
8
 73
4
 74
0
 40
0
 40
0
 40
0
 40
0
 40
1
 40
1
 40
1
 40
1
 10
101.528632
 20
123.997055
 30
0.0
 10
99.579715
 20
125.290356
 30
0.0
 10
98.346029
 20
127.442540
 30
0.0
 10
97.887330
 20
130.349347
 30
0.0
  0
SPLINE
  5
1b5
100
AcDbEntity
  8
Layer_1
 62
7
100
AcDbSpline
 70
8
 71
3
 72
8
 73
4
 74
0
 40
0
 40
0
 40
0
 40
0
 40
1
 40
1
 40
1
 40
1
 10
97.887330
 20
130.349347
 30
0.0
 10
97.767688
 20
131.107520
 30
0.0
 10
97.750311
 20
133.662221
 30
0.0
 10
97.859192
 20
134.486838
 30
0.0
  0
SPLINE
  5
1b6
100
AcDbEntity
  8
Layer_1
 62
7
100
AcDbSpline
 70
8
 71
3
 72
8
 73
4
 74
0
 40
0
 40
0
 40
0
 40
0
 40
1
 40
1
 40
1
 40
1
 10
97.859192
 20
134.486838
 30
0.0
 10
98.189234
 20
136.986564
 30
0.0
 10
98.745449
 20
139.087582
 30
0.0
 10
99.752029
 20
141.636729
 30
0.0
  0
SPLINE
  5
1b7
100
AcDbEntity
  8
Layer_1
 62
7
100
AcDbSpline
 70
8
 71
3
 72
8
 73
4
 74
0
 40
0
 40
0
 40
0
 40
0
 40
1
 40
1
 40
1
 40
1
 10
99.752029
 20
141.636729
 30
0.0
 10
100.930134
 20
144.620278
 30
0.0
 10
102.458514
 20
147.503000
 30
0.0
 10
104.673756
 20
150.919729
 30
0.0
  0
SPLINE
  5
1b8
100
AcDbEntity
  8
Layer_1
 62
7
100
AcDbSpline
 70
8
 71
3
 72
8
 73
4
 74
0
 40
0
 40
0
 40
0
 40
0
 40
1
 40
1
 40
1
 40
1
 10
104.673756
 20
150.919729
 30
0.0
 10
108.698086
 20
157.126766
 30
0.0
 10
113.362108
 20
162.492482
 30
0.0
 10
118.370116
 20
166.676726
 30
0.0
  0
SPLINE
  5
1b9
100
AcDbEntity
  8
Layer_1
 62
7
100
AcDbSpline
 70
8
 71
3
 72
8
 73
4
 74
0
 40
0
 40
0
 40
0
 40
0
 40
1
 40
1
 40
1
 40
1
 10
118.370116
 20
166.676726
 30
0.0
 10
123.918740
 20
171.312661
 30
0.0
 10
130.326573
 20
174.703437
 30
0.0
 10
134.555504
 20
175.241386
 30
0.0
  0
SPLINE
  5
1ba
100
AcDbEntity
  8
Layer_1
 62
7
100
AcDbSpline
 70
8
 71
3
 72
8
 73
4
 74
0
 40
0
 40
0
 40
0
 40
0
 40
1
 40
1
 40
1
 40
1
 10
134.555504
 20
175.241386
 30
0.0
 10
135.444317
 20
175.354450
 30
0.0
 10
137.078415
 20
175.326120
 30
0.0
 10
137.695522
 20
175.186945
 30
0.0
  0
SPLINE
  5
1bb
100
AcDbEntity
  8
Layer_1
 62
7
100
AcDbSpline
 70
8
 71
3
 72
8
 73
4
 74
0
 40
0
 40
0
 40
0
 40
0
 40
1
 40
1
 40
1
 40
1
 10
137.695522
 20
175.186945
 30
0.0
 10
138.621688
 20
174.978061
 30
0.0
 10
139.373156
 20
174.640038
 30
0.0
 10
139.956647
 20
174.169859
 30
0.0
  0
LWPOLYLINE
  5
1bc
100
AcDbEntity
  8
Layer_1
 62
7
100
AcDbPolyline
 90
2
 70
0
 10
140.444240
 20
138.790944
 30
0.0
 10
140.444133
 20
138.790944
 30
0.0
  0
SPLINE
  5
1bd
100
AcDbEntity
  8
Layer_1
 62
7
100
AcDbSpline
 70
8
 71
3
 72
8
 73
4
 74
0
 40
0
 40
0
 40
0
 40
0
 40
1
 40
1
 40
1
 40
1
 10
140.897926
 20
174.118745
 30
0.0
 10
142.957474
 20
174.890663
 30
0.0
 10
145.370321
 20
175.319590
 30
0.0
 10
147.658466
 20
175.320546
 30
0.0
  0
SPLINE
  5
1be
100
AcDbEntity
  8
Layer_1
 62
7
100
AcDbSpline
 70
8
 71
3
 72
8
 73
4
 74
0
 40
0
 40
0
 40
0
 40
0
 40
1
 40
1
 40
1
 40
1
 10
147.658466
 20
175.320546
 30
0.0
 10
150.293792
 20
175.321675
 30
0.0
 10
152.406680
 20
174.777012
 30
0.0
 10
155.213671
 20
173.373047
 30
0.0
  0
SPLINE
  5
1bf
100
AcDbEntity
  8
Layer_1
 62
7
100
AcDbSpline
 70
8
 71
3
 72
8
 73
4
 74
0
 40
0
 40
0
 40
0
 40
0
 40
1
 40
1
 40
1
 40
1
 10
155.213671
 20
173.373047
 30
0.0
 10
156.222220
 20
172.868603
 30
0.0
 10
157.152735
 20
172.342484
 30
0.0
 10
159.422931
 20
170.993132
 30
0.0
  0
SPLINE
  5
1c0
100
AcDbEntity
  8
Layer_1
 62
7
100
AcDbSpline
 70
8
 71
3
 72
8
 73
4
 74
0
 40
0
 40
0
 40
0
 40
0
 40
1
 40
1
 40
1
 40
1
 10
159.422931
 20
170.993132
 30
0.0
 10
161.534602
 20
169.738024
 30
0.0
 10
162.626012
 20
169.121188
 30
0.0
 10
163.585567
 20
168.640538
 30
0.0
  0
SPLINE
  5
1c1
100
AcDbEntity
  8
Layer_1
 62
7
100
AcDbSpline
 70
8
 71
3
 72
8
 73
4
 74
0
 40
0
 40
0
 40
0
 40
0
 40
1
 40
1
 40
1
 40
1
 10
163.585567
 20
168.640538
 30
0.0
 10
163.983388
 20
168.441258
 30
0.0
 10
164.308875
 20
168.260563
 30
0.0
 10
164.308875
 20
168.238995
 30
0.0
  0
SPLINE
  5
1c2
100
AcDbEntity
  8
Layer_1
 62
7
100
AcDbSpline
 70
8
 71
3
 72
8
 73
4
 74
0
 40
0
 40
0
 40
0
 40
0
 40
1
 40
1
 40
1
 40
1
 10
164.308875
 20
168.238995
 30
0.0
 10
164.308875
 20
168.217434
 30
0.0
 10
163.674806
 20
167.560460
 30
0.0
 10
162.899824
 20
166.779063
 30
0.0
  0
SPLINE
  5
1c3
100
AcDbEntity
  8
Layer_1
 62
7
100
AcDbSpline
 70
8
 71
3
 72
8
 73
4
 74
0
 40
0
 40
0
 40
0
 40
0
 40
1
 40
1
 40
1
 40
1
 10
162.899824
 20
166.779063
 30
0.0
 10
162.124813
 20
165.997668
 30
0.0
 10
161.194496
 20
165.040746
 30
0.0
 10
160.832405
 20
164.652572
 30
0.0
  0
LWPOLYLINE
  5
1c4
100
AcDbEntity
  8
Layer_1
 62
7
100
AcDbPolyline
 90
3
 70
0
 10
139.956647
 20
174.169859
 30
0.0
 10
140.298763
 20
173.894178
 30
0.0
 10
140.897926
 20
174.118745
 30
0.0
  0
SPLINE
  5
1c5
100
AcDbEntity
  8
Layer_1
 62
7
100
AcDbSpline
 70
8
 71
3
 72
8
 73
4
 74
0
 40
0
 40
0
 40
0
 40
0
 40
1
 40
1
 40
1
 40
1
 10
159.389064
 20
164.372867
 30
0.0
 10
158.113617
 20
165.065124
 30
0.0
 10
157.107692
 20
165.690526
 30
0.0
 10
154.509696
 20
167.406493
 30
0.0
  0
SPLINE
  5
1c6
100
AcDbEntity
  8
Layer_1
 62
7
100
AcDbSpline
 70
8
 71
3
 72
8
 73
4
 74
0
 40
0
 40
0
 40
0
 40
0
 40
1
 40
1
 40
1
 40
1
 10
154.509696
 20
167.406493
 30
0.0
 10
151.506781
 20
169.389909
 30
0.0
 10
150.811103
 20
169.810513
 30
0.0
 10
149.241626
 20
170.591589
 30
0.0
  0
SPLINE
  5
1c7
100
AcDbEntity
  8
Layer_1
 62
7
100
AcDbSpline
 70
8
 71
3
 72
8
 73
4
 74
0
 40
0
 40
0
 40
0
 40
0
 40
1
 40
1
 40
1
 40
1
 10
149.241626
 20
170.591589
 30
0.0
 10
146.937792
 20
171.738119
 30
0.0
 10
145.546024
 20
172.185656
 30
0.0
 10
143.946256
 20
172.294393
 30
0.0
  0
SPLINE
  5
1c8
100
AcDbEntity
  8
Layer_1
 62
7
100
AcDbSpline
 70
8
 71
3
 72
8
 73
4
 74
0
 40
0
 40
0
 40
0
 40
0
 40
1
 40
1
 40
1
 40
1
 10
143.946256
 20
172.294393
 30
0.0
 10
142.964301
 20
172.361136
 30
0.0
 10
141.272178
 20
172.100653
 30
0.0
 10
141.351124
 20
171.894905
 30
0.0
  0
SPLINE
  5
1c9
100
AcDbEntity
  8
Layer_1
 62
7
100
AcDbSpline
 70
8
 71
3
 72
8
 73
4
 74
0
 40
0
 40
0
 40
0
 40
0
 40
1
 40
1
 40
1
 40
1
 10
141.351124
 20
171.894905
 30
0.0
 10
141.432669
 20
171.682409
 30
0.0
 10
141.479609
 20
170.532652
 30
0.0
 10
141.432226
 20
169.908430
 30
0.0
  0
SPLINE
  5
1ca
100
AcDbEntity
  8
Layer_1
 62
7
100
AcDbSpline
 70
8
 71
3
 72
8
 73
4
 74
0
 40
0
 40
0
 40
0
 40
0
 40
1
 40
1
 40
1
 40
1
 10
141.432226
 20
169.908430
 30
0.0
 10
141.222132
 20
167.140567
 30
0.0
 10
140.096313
 20
164.252612
 30
0.0
 10
137.966588
 20
161.018317
 30
0.0
  0
SPLINE
  5
1cb
100
AcDbEntity
  8
Layer_1
 62
7
100
AcDbSpline
 70
8
 71
3
 72
8
 73
4
 74
0
 40
0
 40
0
 40
0
 40
0
 40
1
 40
1
 40
1
 40
1
 10
137.966588
 20
161.018317
 30
0.0
 10
135.607323
 20
157.435464
 30
0.0
 10
133.050353
 20
155.071384
 30
0.0
 10
130.680497
 20
154.281899
 30
0.0
  0
SPLINE
  5
1cc
100
AcDbEntity
  8
Layer_1
 62
7
100
AcDbSpline
 70
8
 71
3
 72
8
 73
4
 74
0
 40
0
 40
0
 40
0
 40
0
 40
1
 40
1
 40
1
 40
1
 10
130.680497
 20
154.281899
 30
0.0
 10
128.480493
 20
153.548990
 30
0.0
 10
126.769176
 20
154.140962
 30
0.0
 10
126.214403
 20
155.826794
 30
0.0
  0
SPLINE
  5
1cd
100
AcDbEntity
  8
Layer_1
 62
7
100
AcDbSpline
 70
8
 71
3
 72
8
 73
4
 74
0
 40
0
 40
0
 40
0
 40
0
 40
1
 40
1
 40
1
 40
1
 10
126.214403
 20
155.826794
 30
0.0
 10
126.096739
 20
156.184347
 30
0.0
 10
126.077596
 20
156.343216
 30
0.0
 10
126.075671
 20
156.978546
 30
0.0
  0
SPLINE
  5
1ce
100
AcDbEntity
  8
Layer_1
 62
7
100
AcDbSpline
 70
8
 71
3
 72
8
 73
4
 74
0
 40
0
 40
0
 40
0
 40
0
 40
1
 40
1
 40
1
 40
1
 10
126.075671
 20
156.978546
 30
0.0
 10
126.073131
 20
157.760807
 30
0.0
 10
126.153793
 20
158.302789
 30
0.0
 10
126.388461
 20
159.083966
 30
0.0
  0
SPLINE
  5
1cf
100
AcDbEntity
  8
Layer_1
 62
7
100
AcDbSpline
 70
8
 71
3
 72
8
 73
4
 74
0
 40
0
 40
0
 40
0
 40
0
 40
1
 40
1
 40
1
 40
1
 10
126.388461
 20
159.083966
 30
0.0
 10
127.070536
 20
161.354582
 30
0.0
 10
128.672807
 20
164.117456
 30
0.0
 10
130.629135
 20
166.396389
 30
0.0
  0
SPLINE
  5
1d0
100
AcDbEntity
  8
Layer_1
 62
7
100
AcDbSpline
 70
8
 71
3
 72
8
 73
4
 74
0
 40
0
 40
0
 40
0
 40
0
 40
1
 40
1
 40
1
 40
1
 10
130.629135
 20
166.396389
 30
0.0
 10
132.218692
 20
168.248066
 30
0.0
 10
134.979952
 20
170.601980
 30
0.0
 10
137.555478
 20
172.300972
 30
0.0
  0
SPLINE
  5
1d1
100
AcDbEntity
  8
Layer_1
 62
7
100
AcDbSpline
 70
8
 71
3
 72
8
 73
4
 74
0
 40
0
 40
0
 40
0
 40
0
 40
1
 40
1
 40
1
 40
1
 10
137.555478
 20
172.300972
 30
0.0
 10
138.002704
 20
172.595999
 30
0.0
 10
138.370725
 20
172.853405
 30
0.0
 10
138.373273
 20
172.872986
 30
0.0
  0
SPLINE
  5
1d2
100
AcDbEntity
  8
Layer_1
 62
7
100
AcDbSpline
 70
8
 71
3
 72
8
 73
4
 74
0
 40
0
 40
0
 40
0
 40
0
 40
1
 40
1
 40
1
 40
1
 10
138.373273
 20
172.872986
 30
0.0
 10
138.396980
 20
173.054968
 30
0.0
 10
137.018612
 20
173.141455
 30
0.0
 10
136.276128
 20
173.004577
 30
0.0
  0
SPLINE
  5
1d3
100
AcDbEntity
  8
Layer_1
 62
7
100
AcDbSpline
 70
8
 71
3
 72
8
 73
4
 74
0
 40
0
 40
0
 40
0
 40
0
 40
1
 40
1
 40
1
 40
1
 10
136.276128
 20
173.004577
 30
0.0
 10
135.019508
 20
172.772912
 30
0.0
 10
133.739780
 20
172.254555
 30
0.0
 10
132.152509
 20
171.334287
 30
0.0
  0
SPLINE
  5
1d4
100
AcDbEntity
  8
Layer_1
 62
7
100
AcDbSpline
 70
8
 71
3
 72
8
 73
4
 74
0
 40
0
 40
0
 40
0
 40
0
 40
1
 40
1
 40
1
 40
1
 10
132.152509
 20
171.334287
 30
0.0
 10
129.983224
 20
170.076595
 30
0.0
 10
127.084088
 20
167.898237
 30
0.0
 10
124.675437
 20
165.716157
 30
0.0
  0
SPLINE
  5
1d5
100
AcDbEntity
  8
Layer_1
 62
7
100
AcDbSpline
 70
8
 71
3
 72
8
 73
4
 74
0
 40
0
 40
0
 40
0
 40
0
 40
1
 40
1
 40
1
 40
1
 10
124.675437
 20
165.716157
 30
0.0
 10
123.635852
 20
164.774368
 30
0.0
 10
121.375830
 20
162.522161
 30
0.0
 10
120.391953
 20
161.447495
 30
0.0
  0
SPLINE
  5
1d6
100
AcDbEntity
  8
Layer_1
 62
7
100
AcDbSpline
 70
8
 71
3
 72
8
 73
4
 74
0
 40
0
 40
0
 40
0
 40
0
 40
1
 40
1
 40
1
 40
1
 10
120.391953
 20
161.447495
 30
0.0
 10
117.686627
 20
158.492550
 30
0.0
 10
115.321771
 20
155.433422
 30
0.0
 10
112.917526
 20
151.778715
 30
0.0
  0
SPLINE
  5
1d7
100
AcDbEntity
  8
Layer_1
 62
7
100
AcDbSpline
 70
8
 71
3
 72
8
 73
4
 74
0
 40
0
 40
0
 40
0
 40
0
 40
1
 40
1
 40
1
 40
1
 10
112.917526
 20
151.778715
 30
0.0
 10
109.985217
 20
147.321322
 30
0.0
 10
108.012411
 20
143.453311
 30
0.0
 10
106.761351
 20
139.708536
 30
0.0
  0
SPLINE
  5
1d8
100
AcDbEntity
  8
Layer_1
 62
7
100
AcDbSpline
 70
8
 71
3
 72
8
 73
4
 74
0
 40
0
 40
0
 40
0
 40
0
 40
1
 40
1
 40
1
 40
1
 10
106.761351
 20
139.708536
 30
0.0
 10
106.262396
 20
138.215013
 30
0.0
 10
105.593315
 20
135.650654
 30
0.0
 10
105.379173
 20
134.411179
 30
0.0
  0
SPLINE
  5
1d9
100
AcDbEntity
  8
Layer_1
 62
7
100
AcDbSpline
 70
8
 71
3
 72
8
 73
4
 74
0
 40
0
 40
0
 40
0
 40
0
 40
1
 40
1
 40
1
 40
1
 10
105.379173
 20
134.411179
 30
0.0
 10
105.099821
 20
132.794317
 30
0.0
 10
105.178716
 20
131.127112
 30
0.0
 10
105.592112
 20
129.911677
 30
0.0
  0
SPLINE
  5
1da
100
AcDbEntity
  8
Layer_1
 62
7
100
AcDbSpline
 70
8
 71
3
 72
8
 73
4
 74
0
 40
0
 40
0
 40
0
 40
0
 40
1
 40
1
 40
1
 40
1
 10
105.592112
 20
129.911677
 30
0.0
 10
106.112778
 20
128.380853
 30
0.0
 10
107.126540
 20
127.400051
 30
0.0
 10
108.601183
 20
127.000436
 30
0.0
  0
SPLINE
  5
1db
100
AcDbEntity
  8
Layer_1
 62
7
100
AcDbSpline
 70
8
 71
3
 72
8
 73
4
 74
0
 40
0
 40
0
 40
0
 40
0
 40
1
 40
1
 40
1
 40
1
 10
108.601183
 20
127.000436
 30
0.0
 10
109.248324
 20
126.825066
 30
0.0
 10
110.596209
 20
126.823739
 30
0.0
 10
111.236492
 20
126.997896
 30
0.0
  0
SPLINE
  5
1dc
100
AcDbEntity
  8
Layer_1
 62
7
100
AcDbSpline
 70
8
 71
3
 72
8
 73
4
 74
0
 40
0
 40
0
 40
0
 40
0
 40
1
 40
1
 40
1
 40
1
 10
111.236492
 20
126.997896
 30
0.0
 10
112.997197
 20
127.476669
 30
0.0
 10
114.718609
 20
128.595415
 30
0.0
 10
116.753307
 20
130.583256
 30
0.0
  0
SPLINE
  5
1dd
100
AcDbEntity
  8
Layer_1
 62
7
100
AcDbSpline
 70
8
 71
3
 72
8
 73
4
 74
0
 40
0
 40
0
 40
0
 40
0
 40
1
 40
1
 40
1
 40
1
 10
116.753307
 20
130.583256
 30
0.0
 10
118.514012
 20
132.303439
 30
0.0
 10
120.330539
 20
134.548701
 30
0.0
 10
121.399842
 20
136.326447
 30
0.0
  0
SPLINE
  5
1de
100
AcDbEntity
  8
Layer_1
 62
7
100
AcDbSpline
 70
8
 71
3
 72
8
 73
4
 74
0
 40
0
 40
0
 40
0
 40
0
 40
1
 40
1
 40
1
 40
1
 10
121.399842
 20
136.326447
 30
0.0
 10
123.071800
 20
139.106161
 30
0.0
 10
124.232221
 20
142.426344
 30
0.0
 10
124.249507
 20
144.479895
 30
0.0
  0
SPLINE
  5
1df
100
AcDbEntity
  8
Layer_1
 62
7
100
AcDbSpline
 70
8
 71
3
 72
8
 73
4
 74
0
 40
0
 40
0
 40
0
 40
0
 40
1
 40
1
 40
1
 40
1
 10
124.249507
 20
144.479895
 30
0.0
 10
124.257551
 20
145.441223
 30
0.0
 10
124.070234
 20
146.039864
 30
0.0
 10
123.653728
 20
146.383438
 30
0.0
  0
SPLINE
  5
1e0
100
AcDbEntity
  8
Layer_1
 62
7
100
AcDbSpline
 70
8
 71
3
 72
8
 73
4
 74
0
 40
0
 40
0
 40
0
 40
0
 40
1
 40
1
 40
1
 40
1
 10
123.653728
 20
146.383438
 30
0.0
 10
122.979451
 20
146.939642
 30
0.0
 10
121.680117
 20
146.659054
 30
0.0
 10
120.478694
 20
145.697796
 30
0.0
  0
SPLINE
  5
1e1
100
AcDbEntity
  8
Layer_1
 62
7
100
AcDbSpline
 70
8
 71
3
 72
8
 73
4
 74
0
 40
0
 40
0
 40
0
 40
0
 40
1
 40
1
 40
1
 40
1
 10
120.478694
 20
145.697796
 30
0.0
 10
119.435211
 20
144.862901
 30
0.0
 10
118.369393
 20
143.329913
 30
0.0
 10
117.599457
 20
141.556493
 30
0.0
  0
SPLINE
  5
1e2
100
AcDbEntity
  8
Layer_1
 62
7
100
AcDbSpline
 70
8
 71
3
 72
8
 73
4
 74
0
 40
0
 40
0
 40
0
 40
0
 40
1
 40
1
 40
1
 40
1
 10
117.599457
 20
141.556493
 30
0.0
 10
117.268199
 20
140.793477
 30
0.0
 10
116.722319
 20
139.192913
 30
0.0
 10
116.566140
 20
138.526662
 30
0.0
  0
LWPOLYLINE
  5
1e3
100
AcDbEntity
  8
Layer_1
 62
7
100
AcDbPolyline
 90
3
 70
0
 10
160.832405
 20
164.652572
 30
0.0
 10
160.174065
 20
163.946802
 30
0.0
 10
159.389064
 20
164.372867
 30
0.0
  0
SPLINE
  5
1e4
100
AcDbEntity
  8
Layer_1
 62
7
100
AcDbSpline
 70
8
 71
3
 72
8
 73
4
 74
0
 40
0
 40
0
 40
0
 40
0
 40
1
 40
1
 40
1
 40
1
 10
115.560023
 20
137.669503
 30
0.0
 10
113.772002
 20
136.789918
 30
0.0
 10
111.781957
 20
135.310811
 30
0.0
 10
109.841798
 20
133.419394
 30
0.0
  0
LWPOLYLINE
  5
1e5
100
AcDbEntity
  8
Layer_1
 62
7
100
AcDbPolyline
 90
3
 70
0
 10
116.566140
 20
138.526662
 30
0.0
 10
116.470153
 20
138.117226
 30
0.0
 10
115.560023
 20
137.669503
 30
0.0
  0
SPLINE
  5
1e6
100
AcDbEntity
  8
Layer_1
 62
7
100
AcDbSpline
 70
8
 71
3
 72
8
 73
4
 74
0
 40
0
 40
0
 40
0
 40
0
 40
1
 40
1
 40
1
 40
1
 10
109.300247
 20
133.313939
 30
0.0
 10
109.497512
 20
135.880341
 30
0.0
 10
111.119931
 20
140.428936
 30
0.0
 10
112.744208
 20
142.969436
 30
0.0
  0
SPLINE
  5
1e7
100
AcDbEntity
  8
Layer_1
 62
7
100
AcDbSpline
 70
8
 71
3
 72
8
 73
4
 74
0
 40
0
 40
0
 40
0
 40
0
 40
1
 40
1
 40
1
 40
1
 10
112.744208
 20
142.969436
 30
0.0
 10
113.598698
 20
144.305905
 30
0.0
 10
114.769827
 20
145.638163
 30
0.0
 10
115.929342
 20
146.592760
 30
0.0
  0
SPLINE
  5
1e8
100
AcDbEntity
  8
Layer_1
 62
7
100
AcDbSpline
 70
8
 71
3
 72
8
 73
4
 74
0
 40
0
 40
0
 40
0
 40
0
 40
1
 40
1
 40
1
 40
1
 10
115.929342
 20
146.592760
 30
0.0
 10
117.535133
 20
147.914796
 30
0.0
 10
119.538234
 20
148.942277
 30
0.0
 10
121.236178
 20
149.314878
 30
0.0
  0
SPLINE
  5
1e9
100
AcDbEntity
  8
Layer_1
 62
7
100
AcDbSpline
 70
8
 71
3
 72
8
 73
4
 74
0
 40
0
 40
0
 40
0
 40
0
 40
1
 40
1
 40
1
 40
1
 10
121.236178
 20
149.314878
 30
0.0
 10
121.754621
 20
149.428650
 30
0.0
 10
122.798270
 20
149.443365
 30
0.0
 10
123.201470
 20
149.342592
 30
0.0
  0
SPLINE
  5
1ea
100
AcDbEntity
  8
Layer_1
 62
7
100
AcDbSpline
 70
8
 71
3
 72
8
 73
4
 74
0
 40
0
 40
0
 40
0
 40
0
 40
1
 40
1
 40
1
 40
1
 10
123.201470
 20
149.342592
 30
0.0
 10
124.538054
 20
149.008523
 30
0.0
 10
125.450354
 20
148.028656
 30
0.0
 10
125.835529
 20
146.513481
 30
0.0
  0
SPLINE
  5
1eb
100
AcDbEntity
  8
Layer_1
 62
7
100
AcDbSpline
 70
8
 71
3
 72
8
 73
4
 74
0
 40
0
 40
0
 40
0
 40
0
 40
1
 40
1
 40
1
 40
1
 10
125.835529
 20
146.513481
 30
0.0
 10
125.943603
 20
146.088389
 30
0.0
 10
125.957516
 20
145.897694
 30
0.0
 10
125.956348
 20
144.859283
 30
0.0
  0
SPLINE
  5
1ec
100
AcDbEntity
  8
Layer_1
 62
7
100
AcDbSpline
 70
8
 71
3
 72
8
 73
4
 74
0
 40
0
 40
0
 40
0
 40
0
 40
1
 40
1
 40
1
 40
1
 10
125.956348
 20
144.859283
 30
0.0
 10
125.954655
 20
143.609363
 30
0.0
 10
125.892187
 20
143.116039
 30
0.0
 10
125.570945
 20
141.829453
 30
0.0
  0
SPLINE
  5
1ed
100
AcDbEntity
  8
Layer_1
 62
7
100
AcDbSpline
 70
8
 71
3
 72
8
 73
4
 74
0
 40
0
 40
0
 40
0
 40
0
 40
1
 40
1
 40
1
 40
1
 10
125.570945
 20
141.829453
 30
0.0
 10
124.054526
 20
135.755872
 30
0.0
 10
119.300148
 20
129.055652
 30
0.0
 10
114.030088
 20
125.565260
 30
0.0
  0
SPLINE
  5
1ee
100
AcDbEntity
  8
Layer_1
 62
7
100
AcDbSpline
 70
8
 71
3
 72
8
 73
4
 74
0
 40
0
 40
0
 40
0
 40
0
 40
1
 40
1
 40
1
 40
1
 10
114.030088
 20
125.565260
 30
0.0
 10
111.744229
 20
124.051318
 30
0.0
 10
109.758675
 20
123.229050
 30
0.0
 10
107.560988
 20
122.886246
 30
0.0
  0
SPLINE
  5
1ef
100
AcDbEntity
  8
Layer_1
 62
7
100
AcDbSpline
 70
8
 71
3
 72
8
 73
4
 74
0
 40
0
 40
0
 40
0
 40
0
 40
1
 40
1
 40
1
 40
1
 10
107.560988
 20
122.886246
 30
0.0
 10
107.031130
 20
122.803594
 30
0.0
 10
105.326098
 20
122.734187
 30
0.0
 10
104.995184
 20
122.781795
 30
0.0
  0
LWPOLYLINE
  5
1f0
100
AcDbEntity
  8
Layer_1
 62
7
100
AcDbPolyline
 90
3
 70
0
 10
109.841798
 20
133.419394
 30
0.0
 10
109.265133
 20
132.857222
 30
0.0
 10
109.300247
 20
133.313939
 30
0.0
  0
SPLINE
  5
1f1
100
AcDbEntity
  8
Layer_1
 62
7
100
AcDbSpline
 70
8
 71
3
 72
8
 73
4
 74
0
 40
0
 40
0
 40
0
 40
0
 40
1
 40
1
 40
1
 40
1
 10
129.976299
 20
155.838188
 30
0.0
 10
131.044665
 20
156.188917
 30
0.0
 10
132.134528
 20
156.966456
 30
0.0
 10
133.675651
 20
158.477403
 30
0.0
  0
SPLINE
  5
1f2
100
AcDbEntity
  8
Layer_1
 62
7
100
AcDbSpline
 70
8
 71
3
 72
8
 73
4
 74
0
 40
0
 40
0
 40
0
 40
0
 40
1
 40
1
 40
1
 40
1
 10
133.675651
 20
158.477403
 30
0.0
 10
134.688656
 20
159.470585
 30
0.0
 10
135.343067
 20
160.207865
 30
0.0
 10
136.022134
 20
161.121009
 30
0.0
  0
SPLINE
  5
1f3
100
AcDbEntity
  8
Layer_1
 62
7
100
AcDbSpline
 70
8
 71
3
 72
8
 73
4
 74
0
 40
0
 40
0
 40
0
 40
0
 40
1
 40
1
 40
1
 40
1
 10
136.022134
 20
161.121009
 30
0.0
 10
137.770370
 20
163.471912
 30
0.0
 10
139.166199
 20
166.681419
 30
0.0
 10
139.550665
 20
169.234342
 30
0.0
  0
SPLINE
  5
1f4
100
AcDbEntity
  8
Layer_1
 62
7
100
AcDbSpline
 70
8
 71
3
 72
8
 73
4
 74
0
 40
0
 40
0
 40
0
 40
0
 40
1
 40
1
 40
1
 40
1
 10
139.550665
 20
169.234342
 30
0.0
 10
139.634841
 20
169.793363
 30
0.0
 10
139.657489
 20
171.119132
 30
0.0
 10
139.585977
 20
171.300991
 30
0.0
  0
SPLINE
  5
1f5
100
AcDbEntity
  8
Layer_1
 62
7
100
AcDbSpline
 70
8
 71
3
 72
8
 73
4
 74
0
 40
0
 40
0
 40
0
 40
0
 40
1
 40
1
 40
1
 40
1
 10
139.585977
 20
171.300991
 30
0.0
 10
139.549660
 20
171.393314
 30
0.0
 10
139.493444
 20
171.374846
 30
0.0
 10
138.955018
 20
171.093755
 30
0.0
  0
SPLINE
  5
1f6
100
AcDbEntity
  8
Layer_1
 62
7
100
AcDbSpline
 70
8
 71
3
 72
8
 73
4
 74
0
 40
0
 40
0
 40
0
 40
0
 40
1
 40
1
 40
1
 40
1
 10
138.955018
 20
171.093755
 30
0.0
 10
135.557373
 20
169.319923
 30
0.0
 10
131.700163
 20
165.529944
 30
0.0
 10
129.395389
 20
161.700714
 30
0.0
  0
SPLINE
  5
1f7
100
AcDbEntity
  8
Layer_1
 62
7
100
AcDbSpline
 70
8
 71
3
 72
8
 73
4
 74
0
 40
0
 40
0
 40
0
 40
0
 40
1
 40
1
 40
1
 40
1
 10
129.395389
 20
161.700714
 30
0.0
 10
128.213242
 20
159.736647
 30
0.0
 10
127.587677
 20
157.872304
 30
0.0
 10
127.774237
 20
156.869193
 30
0.0
  0
SPLINE
  5
1f8
100
AcDbEntity
  8
Layer_1
 62
7
100
AcDbSpline
 70
8
 71
3
 72
8
 73
4
 74
0
 40
0
 40
0
 40
0
 40
0
 40
1
 40
1
 40
1
 40
1
 10
127.774237
 20
156.869193
 30
0.0
 10
127.887606
 20
156.259585
 30
0.0
 10
128.241512
 20
155.857531
 30
0.0
 10
128.787917
 20
155.717634
 30
0.0
  0
SPLINE
  5
1f9
100
AcDbEntity
  8
Layer_1
 62
7
100
AcDbSpline
 70
8
 71
3
 72
8
 73
4
 74
0
 40
0
 40
0
 40
0
 40
0
 40
1
 40
1
 40
1
 40
1
 10
128.787917
 20
155.717634
 30
0.0
 10
129.039837
 20
155.653135
 30
0.0
 10
129.579283
 20
155.707869
 30
0.0
 10
129.976299
 20
155.838188
 30
0.0
  0
LWPOLYLINE
  5
1fa
100
AcDbEntity
  8
Layer_1
 62
7
100
AcDbPolyline
 90
2
 70
0
 10
104.995184
 20
122.781795
 30
0.0
 10
104.995181
 20
122.781739
 30
0.0
  0
SPLINE
  5
1fb
100
AcDbEntity
  8
Layer_1
 62
7
100
AcDbSpline
 70
8
 71
3
 72
8
 73
4
 74
0
 40
0
 40
0
 40
0
 40
0
 40
1
 40
1
 40
1
 40
1
 10
59.575042
 20
135.710432
 30
0.0
 10
58.887577
 20
135.845303
 30
0.0
 10
58.214288
 20
136.121124
 30
0.0
 10
57.600125
 20
136.519487
 30
0.0
  0
SPLINE
  5
1fc
100
AcDbEntity
  8
Layer_1
 62
7
100
AcDbSpline
 70
8
 71
3
 72
8
 73
4
 74
0
 40
0
 40
0
 40
0
 40
0
 40
1
 40
1
 40
1
 40
1
 10
57.600125
 20
136.519487
 30
0.0
 10
56.534160
 20
137.210900
 30
0.0
 10
55.841073
 20
138.237986
 30
0.0
 10
55.527344
 20
139.591145
 30
0.0
  0
SPLINE
  5
1fd
100
AcDbEntity
  8
Layer_1
 62
7
100
AcDbSpline
 70
8
 71
3
 72
8
 73
4
 74
0
 40
0
 40
0
 40
0
 40
0
 40
1
 40
1
 40
1
 40
1
 10
55.527344
 20
139.591145
 30
0.0
 10
55.374091
 20
140.252141
 30
0.0
 10
55.386035
 20
142.031905
 30
0.0
 10
55.549498
 20
142.893933
 30
0.0
  0
SPLINE
  5
1fe
100
AcDbEntity
  8
Layer_1
 62
7
100
AcDbSpline
 70
8
 71
3
 72
8
 73
4
 74
0
 40
0
 40
0
 40
0
 40
0
 40
1
 40
1
 40
1
 40
1
 10
55.549498
 20
142.893933
 30
0.0
 10
55.793135
 20
144.178699
 30
0.0
 10
56.255971
 20
145.625265
 30
0.0
 10
56.838997
 20
146.924199
 30
0.0
  0
SPLINE
  5
1ff
100
AcDbEntity
  8
Layer_1
 62
7
100
AcDbSpline
 70
8
 71
3
 72
8
 73
4
 74
0
 40
0
 40
0
 40
0
 40
0
 40
1
 40
1
 40
1
 40
1
 10
56.838997
 20
146.924199
 30
0.0
 10
57.123666
 20
147.558420
 30
0.0
 10
58.265094
 20
149.769668
 30
0.0
 10
58.717855
 20
150.564044
 30
0.0
  0
SPLINE
  5
200
100
AcDbEntity
  8
Layer_1
 62
7
100
AcDbSpline
 70
8
 71
3
 72
8
 73
4
 74
0
 40
0
 40
0
 40
0
 40
0
 40
1
 40
1
 40
1
 40
1
 10
58.717855
 20
150.564044
 30
0.0
 10
58.837647
 20
150.774221
 30
0.0
 10
58.929992
 20
150.952407
 30
0.0
 10
58.923070
 20
150.960010
 30
0.0
  0
SPLINE
  5
201
100
AcDbEntity
  8
Layer_1
 62
7
100
AcDbSpline
 70
8
 71
3
 72
8
 73
4
 74
0
 40
0
 40
0
 40
0
 40
0
 40
1
 40
1
 40
1
 40
1
 10
58.923070
 20
150.960010
 30
0.0
 10
58.916155
 20
150.967630
 30
0.0
 10
58.531836
 20
150.877604
 30
0.0
 10
58.069043
 20
150.759988
 30
0.0
  0
SPLINE
  5
202
100
AcDbEntity
  8
Layer_1
 62
7
100
AcDbSpline
 70
8
 71
3
 72
8
 73
4
 74
0
 40
0
 40
0
 40
0
 40
0
 40
1
 40
1
 40
1
 40
1
 10
58.069043
 20
150.759988
 30
0.0
 10
57.606252
 20
150.642372
 30
0.0
 10
57.012908
 20
150.503869
 30
0.0
 10
56.750506
 20
150.452202
 30
0.0
  0
LWPOLYLINE
  5
203
100
AcDbEntity
  8
Layer_1
 62
7
100
AcDbPolyline
 90
2
 70
0
 10
129.976299
 20
155.838188
 30
0.0
 10
129.976299
 20
155.838188
 30
0.0
  0
SPLINE
  5
204
100
AcDbEntity
  8
Layer_1
 62
7
100
AcDbSpline
 70
8
 71
3
 72
8
 73
4
 74
0
 40
0
 40
0
 40
0
 40
0
 40
1
 40
1
 40
1
 40
1
 10
55.496031
 20
149.123661
 30
0.0
 10
54.006843
 20
146.758599
 30
0.0
 10
52.413831
 20
144.405625
 30
0.0
 10
51.721899
 20
143.549033
 30
0.0
  0
SPLINE
  5
205
100
AcDbEntity
  8
Layer_1
 62
7
100
AcDbSpline
 70
8
 71
3
 72
8
 73
4
 74
0
 40
0
 40
0
 40
0
 40
0
 40
1
 40
1
 40
1
 40
1
 10
51.721899
 20
143.549033
 30
0.0
 10
50.826611
 20
142.440690
 30
0.0
 10
48.905462
 20
140.455869
 30
0.0
 10
47.769484
 20
139.465619
 30
0.0
  0
SPLINE
  5
206
100
AcDbEntity
  8
Layer_1
 62
7
100
AcDbSpline
 70
8
 71
3
 72
8
 73
4
 74
0
 40
0
 40
0
 40
0
 40
0
 40
1
 40
1
 40
1
 40
1
 10
47.769484
 20
139.465619
 30
0.0
 10
45.484065
 20
137.473389
 30
0.0
 10
43.398796
 20
136.222973
 30
0.0
 10
41.675634
 20
135.811496
 30
0.0
  0
SPLINE
  5
207
100
AcDbEntity
  8
Layer_1
 62
7
100
AcDbSpline
 70
8
 71
3
 72
8
 73
4
 74
0
 40
0
 40
0
 40
0
 40
0
 40
1
 40
1
 40
1
 40
1
 10
41.675634
 20
135.811496
 30
0.0
 10
41.085968
 20
135.670686
 30
0.0
 10
40.080658
 20
135.687411
 30
0.0
 10
39.627347
 20
135.845571
 30
0.0
  0
SPLINE
  5
208
100
AcDbEntity
  8
Layer_1
 62
7
100
AcDbSpline
 70
8
 71
3
 72
8
 73
4
 74
0
 40
0
 40
0
 40
0
 40
0
 40
1
 40
1
 40
1
 40
1
 10
39.627347
 20
135.845571
 30
0.0
 10
38.065112
 20
136.390635
 30
0.0
 10
37.144675
 20
137.506604
 30
0.0
 10
36.830714
 20
139.236302
 30
0.0
  0
SPLINE
  5
209
100
AcDbEntity
  8
Layer_1
 62
7
100
AcDbSpline
 70
8
 71
3
 72
8
 73
4
 74
0
 40
0
 40
0
 40
0
 40
0
 40
1
 40
1
 40
1
 40
1
 10
36.830714
 20
139.236302
 30
0.0
 10
36.727268
 20
139.806218
 30
0.0
 10
36.739903
 20
141.244279
 30
0.0
 10
36.854957
 20
141.995408
 30
0.0
  0
SPLINE
  5
20a
100
AcDbEntity
  8
Layer_1
 62
7
100
AcDbSpline
 70
8
 71
3
 72
8
 73
4
 74
0
 40
0
 40
0
 40
0
 40
0
 40
1
 40
1
 40
1
 40
1
 10
36.854957
 20
141.995408
 30
0.0
 10
37.340074
 20
145.162604
 30
0.0
 10
39.058099
 20
148.769080
 30
0.0
 10
41.899843
 20
152.585616
 30
0.0
  0
SPLINE
  5
20b
100
AcDbEntity
  8
Layer_1
 62
7
100
AcDbSpline
 70
8
 71
3
 72
8
 73
4
 74
0
 40
0
 40
0
 40
0
 40
0
 40
1
 40
1
 40
1
 40
1
 10
41.899843
 20
152.585616
 30
0.0
 10
44.472950
 20
156.041371
 30
0.0
 10
47.585195
 20
159.072658
 30
0.0
 10
50.332259
 20
160.798681
 30
0.0
  0
SPLINE
  5
20c
100
AcDbEntity
  8
Layer_1
 62
7
100
AcDbSpline
 70
8
 71
3
 72
8
 73
4
 74
0
 40
0
 40
0
 40
0
 40
0
 40
1
 40
1
 40
1
 40
1
 10
50.332259
 20
160.798681
 30
0.0
 10
51.676960
 20
161.643581
 30
0.0
 10
53.211468
 20
162.283694
 30
0.0
 10
54.334890
 20
162.468364
 30
0.0
  0
SPLINE
  5
20d
100
AcDbEntity
  8
Layer_1
 62
7
100
AcDbSpline
 70
8
 71
3
 72
8
 73
4
 74
0
 40
0
 40
0
 40
0
 40
0
 40
1
 40
1
 40
1
 40
1
 10
54.334890
 20
162.468364
 30
0.0
 10
54.977213
 20
162.573949
 30
0.0
 10
55.949015
 20
162.546771
 30
0.0
 10
56.463325
 20
162.408837
 30
0.0
  0
SPLINE
  5
20e
100
AcDbEntity
  8
Layer_1
 62
7
100
AcDbSpline
 70
8
 71
3
 72
8
 73
4
 74
0
 40
0
 40
0
 40
0
 40
0
 40
1
 40
1
 40
1
 40
1
 10
56.463325
 20
162.408837
 30
0.0
 10
57.726363
 20
162.070097
 30
0.0
 10
58.586867
 20
161.179317
 30
0.0
 10
58.902067
 20
159.884278
 30
0.0
  0
SPLINE
  5
20f
100
AcDbEntity
  8
Layer_1
 62
7
100
AcDbSpline
 70
8
 71
3
 72
8
 73
4
 74
0
 40
0
 40
0
 40
0
 40
0
 40
1
 40
1
 40
1
 40
1
 10
58.902067
 20
159.884278
 30
0.0
 10
59.279316
 20
158.334313
 30
0.0
 10
58.787563
 20
155.672455
 30
0.0
 10
57.654249
 20
153.129845
 30
0.0
  0
SPLINE
  5
210
100
AcDbEntity
  8
Layer_1
 62
7
100
AcDbSpline
 70
8
 71
3
 72
8
 73
4
 74
0
 40
0
 40
0
 40
0
 40
0
 40
1
 40
1
 40
1
 40
1
 10
57.654249
 20
153.129845
 30
0.0
 10
57.520417
 20
152.829592
 30
0.0
 10
57.397754
 20
152.553223
 30
0.0
 10
57.381662
 20
152.515690
 30
0.0
  0
SPLINE
  5
211
100
AcDbEntity
  8
Layer_1
 62
7
100
AcDbSpline
 70
8
 71
3
 72
8
 73
4
 74
0
 40
0
 40
0
 40
0
 40
0
 40
1
 40
1
 40
1
 40
1
 10
57.381662
 20
152.515690
 30
0.0
 10
57.289632
 20
152.301040
 30
0.0
 10
58.292094
 20
152.594529
 30
0.0
 10
59.221689
 20
153.054387
 30
0.0
  0
SPLINE
  5
212
100
AcDbEntity
  8
Layer_1
 62
7
100
AcDbSpline
 70
8
 71
3
 72
8
 73
4
 74
0
 40
0
 40
0
 40
0
 40
0
 40
1
 40
1
 40
1
 40
1
 10
59.221689
 20
153.054387
 30
0.0
 10
60.118148
 20
153.497857
 30
0.0
 10
61.201077
 20
154.209963
 30
0.0
 10
62.031660
 20
154.902150
 30
0.0
  0
SPLINE
  5
213
100
AcDbEntity
  8
Layer_1
 62
7
100
AcDbSpline
 70
8
 71
3
 72
8
 73
4
 74
0
 40
0
 40
0
 40
0
 40
0
 40
1
 40
1
 40
1
 40
1
 10
62.031660
 20
154.902150
 30
0.0
 10
62.361939
 20
155.177395
 30
0.0
 10
63.307739
 20
156.023929
 30
0.0
 10
64.133434
 20
156.783336
 30
0.0
  0
SPLINE
  5
214
100
AcDbEntity
  8
Layer_1
 62
7
100
AcDbSpline
 70
8
 71
3
 72
8
 73
4
 74
0
 40
0
 40
0
 40
0
 40
0
 40
1
 40
1
 40
1
 40
1
 10
64.133434
 20
156.783336
 30
0.0
 10
66.006675
 20
158.506181
 30
0.0
 10
66.543270
 20
158.978788
 30
0.0
 10
67.436221
 20
159.692251
 30
0.0
  0
SPLINE
  5
215
100
AcDbEntity
  8
Layer_1
 62
7
100
AcDbSpline
 70
8
 71
3
 72
8
 73
4
 74
0
 40
0
 40
0
 40
0
 40
0
 40
1
 40
1
 40
1
 40
1
 10
67.436221
 20
159.692251
 30
0.0
 10
70.255765
 20
161.945050
 30
0.0
 10
72.679004
 20
162.828383
 30
0.0
 10
74.824855
 20
162.385599
 30
0.0
  0
SPLINE
  5
216
100
AcDbEntity
  8
Layer_1
 62
7
100
AcDbSpline
 70
8
 71
3
 72
8
 73
4
 74
0
 40
0
 40
0
 40
0
 40
0
 40
1
 40
1
 40
1
 40
1
 10
74.824855
 20
162.385599
 30
0.0
 10
75.601576
 20
162.225328
 30
0.0
 10
76.176025
 20
161.918688
 30
0.0
 10
76.717392
 20
161.375359
 30
0.0
  0
SPLINE
  5
217
100
AcDbEntity
  8
Layer_1
 62
7
100
AcDbSpline
 70
8
 71
3
 72
8
 73
4
 74
0
 40
0
 40
0
 40
0
 40
0
 40
1
 40
1
 40
1
 40
1
 10
76.717392
 20
161.375359
 30
0.0
 10
77.426258
 20
160.663942
 30
0.0
 10
77.693037
 20
159.992671
 30
0.0
 10
77.694621
 20
158.916546
 30
0.0
  0
SPLINE
  5
218
100
AcDbEntity
  8
Layer_1
 62
7
100
AcDbSpline
 70
8
 71
3
 72
8
 73
4
 74
0
 40
0
 40
0
 40
0
 40
0
 40
1
 40
1
 40
1
 40
1
 10
77.694621
 20
158.916546
 30
0.0
 10
77.695467
 20
158.254165
 30
0.0
 10
77.599388
 20
157.739448
 30
0.0
 10
77.332431
 20
156.978546
 30
0.0
  0
SPLINE
  5
219
100
AcDbEntity
  8
Layer_1
 62
7
100
AcDbSpline
 70
8
 71
3
 72
8
 73
4
 74
0
 40
0
 40
0
 40
0
 40
0
 40
1
 40
1
 40
1
 40
1
 10
77.332431
 20
156.978546
 30
0.0
 10
76.971237
 20
155.949090
 30
0.0
 10
76.134812
 20
154.546801
 30
0.0
 10
75.435003
 20
153.797447
 30
0.0
  0
SPLINE
  5
21a
100
AcDbEntity
  8
Layer_1
 62
7
100
AcDbSpline
 70
8
 71
3
 72
8
 73
4
 74
0
 40
0
 40
0
 40
0
 40
0
 40
1
 40
1
 40
1
 40
1
 10
75.435003
 20
153.797447
 30
0.0
 10
74.282943
 20
152.563843
 30
0.0
 10
73.103034
 20
152.330075
 30
0.0
 10
72.263920
 20
153.169192
 30
0.0
  0
SPLINE
  5
21b
100
AcDbEntity
  8
Layer_1
 62
7
100
AcDbSpline
 70
8
 71
3
 72
8
 73
4
 74
0
 40
0
 40
0
 40
0
 40
0
 40
1
 40
1
 40
1
 40
1
 10
72.263920
 20
153.169192
 30
0.0
 10
71.647708
 20
153.785402
 30
0.0
 10
71.781385
 20
154.947339
 30
0.0
 10
72.611107
 20
156.186969
 30
0.0
  0
SPLINE
  5
21c
100
AcDbEntity
  8
Layer_1
 62
7
100
AcDbSpline
 70
8
 71
3
 72
8
 73
4
 74
0
 40
0
 40
0
 40
0
 40
0
 40
1
 40
1
 40
1
 40
1
 10
72.611107
 20
156.186969
 30
0.0
 10
73.110031
 20
156.932377
 30
0.0
 10
73.521615
 20
157.315099
 30
0.0
 10
74.156765
 20
157.624237
 30
0.0
  0
SPLINE
  5
21d
100
AcDbEntity
  8
Layer_1
 62
7
100
AcDbSpline
 70
8
 71
3
 72
8
 73
4
 74
0
 40
0
 40
0
 40
0
 40
0
 40
1
 40
1
 40
1
 40
1
 10
74.156765
 20
157.624237
 30
0.0
 10
74.566111
 20
157.823471
 30
0.0
 10
74.879372
 20
157.907286
 30
0.0
 10
75.383557
 20
157.952470
 30
0.0
  0
LWPOLYLINE
  5
21e
100
AcDbEntity
  8
Layer_1
 62
7
100
AcDbPolyline
 90
3
 70
0
 10
56.750506
 20
150.452202
 30
0.0
 10
56.273412
 20
150.358262
 30
0.0
 10
55.496031
 20
149.123661
 30
0.0
  0
SPLINE
  5
21f
100
AcDbEntity
  8
Layer_1
 62
7
100
AcDbSpline
 70
8
 71
3
 72
8
 73
4
 74
0
 40
0
 40
0
 40
0
 40
0
 40
1
 40
1
 40
1
 40
1
 10
75.851148
 20
158.206856
 30
0.0
 10
75.961683
 20
158.574445
 30
0.0
 10
75.941236
 20
159.004967
 30
0.0
 10
75.800328
 20
159.276453
 30
0.0
  0
SPLINE
  5
220
100
AcDbEntity
  8
Layer_1
 62
7
100
AcDbSpline
 70
8
 71
3
 72
8
 73
4
 74
0
 40
0
 40
0
 40
0
 40
0
 40
1
 40
1
 40
1
 40
1
 10
75.800328
 20
159.276453
 30
0.0
 10
75.573924
 20
159.712695
 30
0.0
 10
74.855471
 20
159.957190
 30
0.0
 10
74.191687
 20
159.823882
 30
0.0
  0
SPLINE
  5
221
100
AcDbEntity
  8
Layer_1
 62
7
100
AcDbSpline
 70
8
 71
3
 72
8
 73
4
 74
0
 40
0
 40
0
 40
0
 40
0
 40
1
 40
1
 40
1
 40
1
 10
74.191687
 20
159.823882
 30
0.0
 10
72.287192
 20
159.441406
 30
0.0
 10
68.295418
 20
155.632346
 30
0.0
 10
65.945089
 20
151.954742
 30
0.0
  0
SPLINE
  5
222
100
AcDbEntity
  8
Layer_1
 62
7
100
AcDbSpline
 70
8
 71
3
 72
8
 73
4
 74
0
 40
0
 40
0
 40
0
 40
0
 40
1
 40
1
 40
1
 40
1
 10
65.945089
 20
151.954742
 30
0.0
 10
64.904047
 20
150.325809
 30
0.0
 10
63.595484
 20
147.885792
 30
0.0
 10
62.944939
 20
146.360497
 30
0.0
  0
SPLINE
  5
223
100
AcDbEntity
  8
Layer_1
 62
7
100
AcDbSpline
 70
8
 71
3
 72
8
 73
4
 74
0
 40
0
 40
0
 40
0
 40
0
 40
1
 40
1
 40
1
 40
1
 10
62.944939
 20
146.360497
 30
0.0
 10
62.135549
 20
144.462767
 30
0.0
 10
61.777064
 20
142.912732
 30
0.0
 10
61.898050
 20
141.833898
 30
0.0
  0
SPLINE
  5
224
100
AcDbEntity
  8
Layer_1
 62
7
100
AcDbSpline
 70
8
 71
3
 72
8
 73
4
 74
0
 40
0
 40
0
 40
0
 40
0
 40
1
 40
1
 40
1
 40
1
 10
61.898050
 20
141.833898
 30
0.0
 10
61.978405
 20
141.117386
 30
0.0
 10
62.140883
 20
140.738822
 30
0.0
 10
62.556799
 20
140.299052
 30
0.0
  0
SPLINE
  5
225
100
AcDbEntity
  8
Layer_1
 62
7
100
AcDbSpline
 70
8
 71
3
 72
8
 73
4
 74
0
 40
0
 40
0
 40
0
 40
0
 40
1
 40
1
 40
1
 40
1
 10
62.556799
 20
140.299052
 30
0.0
 10
63.133616
 20
139.689150
 30
0.0
 10
64.034650
 20
139.475251
 30
0.0
 10
64.999354
 20
139.719207
 30
0.0
  0
SPLINE
  5
226
100
AcDbEntity
  8
Layer_1
 62
7
100
AcDbSpline
 70
8
 71
3
 72
8
 73
4
 74
0
 40
0
 40
0
 40
0
 40
0
 40
1
 40
1
 40
1
 40
1
 10
64.999354
 20
139.719207
 30
0.0
 10
67.517857
 20
140.356081
 30
0.0
 10
71.496524
 20
144.093964
 30
0.0
 10
75.787383
 20
149.854354
 30
0.0
  0
SPLINE
  5
227
100
AcDbEntity
  8
Layer_1
 62
7
100
AcDbSpline
 70
8
 71
3
 72
8
 73
4
 74
0
 40
0
 40
0
 40
0
 40
0
 40
1
 40
1
 40
1
 40
1
 10
75.787383
 20
149.854354
 30
0.0
 10
79.583365
 20
154.950381
 30
0.0
 10
82.467275
 20
158.110858
 30
0.0
 10
85.178471
 20
160.146030
 30
0.0
  0
SPLINE
  5
228
100
AcDbEntity
  8
Layer_1
 62
7
100
AcDbSpline
 70
8
 71
3
 72
8
 73
4
 74
0
 40
0
 40
0
 40
0
 40
0
 40
1
 40
1
 40
1
 40
1
 10
85.178471
 20
160.146030
 30
0.0
 10
87.320732
 20
161.754136
 30
0.0
 10
89.246800
 20
162.556838
 30
0.0
 10
90.774097
 20
162.478052
 30
0.0
  0
SPLINE
  5
229
100
AcDbEntity
  8
Layer_1
 62
7
100
AcDbSpline
 70
8
 71
3
 72
8
 73
4
 74
0
 40
0
 40
0
 40
0
 40
0
 40
1
 40
1
 40
1
 40
1
 10
90.774097
 20
162.478052
 30
0.0
 10
91.632351
 20
162.433780
 30
0.0
 10
92.373834
 20
162.065621
 30
0.0
 10
93.076618
 20
161.334815
 30
0.0
  0
LWPOLYLINE
  5
22a
100
AcDbEntity
  8
Layer_1
 62
7
100
AcDbPolyline
 90
3
 70
0
 10
75.383557
 20
157.952470
 30
0.0
 10
75.785480
 20
157.988490
 30
0.0
 10
75.851148
 20
158.206856
 30
0.0
  0
SPLINE
  5
22b
100
AcDbEntity
  8
Layer_1
 62
7
100
AcDbSpline
 70
8
 71
3
 72
8
 73
4
 74
0
 40
0
 40
0
 40
0
 40
0
 40
1
 40
1
 40
1
 40
1
 10
93.694374
 20
161.355533
 30
0.0
 10
93.833656
 20
161.575407
 30
0.0
 10
93.966010
 20
161.786241
 30
0.0
 10
93.988486
 20
161.824056
 30
0.0
  0
SPLINE
  5
22c
100
AcDbEntity
  8
Layer_1
 62
7
100
AcDbSpline
 70
8
 71
3
 72
8
 73
4
 74
0
 40
0
 40
0
 40
0
 40
0
 40
1
 40
1
 40
1
 40
1
 10
93.988486
 20
161.824056
 30
0.0
 10
94.020665
 20
161.878172
 30
0.0
 10
94.612344
 20
161.889791
 30
0.0
 10
96.768790
 20
161.878646
 30
0.0
  0
LWPOLYLINE
  5
22d
100
AcDbEntity
  8
Layer_1
 62
7
100
AcDbPolyline
 90
3
 70
0
 10
93.076618
 20
161.334815
 30
0.0
 10
93.441136
 20
160.955760
 30
0.0
 10
93.694374
 20
161.355533
 30
0.0
  0
SPLINE
  5
22e
100
AcDbEntity
  8
Layer_1
 62
7
100
AcDbSpline
 70
8
 71
3
 72
8
 73
4
 74
0
 40
0
 40
0
 40
0
 40
0
 40
1
 40
1
 40
1
 40
1
 10
93.986415
 20
152.665807
 30
0.0
 10
90.949416
 20
147.606539
 30
0.0
 10
88.371903
 20
143.295174
 30
0.0
 10
88.258605
 20
143.084994
 30
0.0
  0
SPLINE
  5
22f
100
AcDbEntity
  8
Layer_1
 62
7
100
AcDbSpline
 70
8
 71
3
 72
8
 73
4
 74
0
 40
0
 40
0
 40
0
 40
0
 40
1
 40
1
 40
1
 40
1
 10
88.258605
 20
143.084994
 30
0.0
 10
87.980466
 20
142.569041
 30
0.0
 10
87.771565
 20
141.925764
 30
0.0
 10
87.771565
 20
141.585268
 30
0.0
  0
SPLINE
  5
230
100
AcDbEntity
  8
Layer_1
 62
7
100
AcDbSpline
 70
8
 71
3
 72
8
 73
4
 74
0
 40
0
 40
0
 40
0
 40
0
 40
1
 40
1
 40
1
 40
1
 10
87.771565
 20
141.585268
 30
0.0
 10
87.771565
 20
141.357667
 30
0.0
 10
87.797699
 20
141.279675
 30
0.0
 10
87.912389
 20
141.164986
 30
0.0
  0
SPLINE
  5
231
100
AcDbEntity
  8
Layer_1
 62
7
100
AcDbSpline
 70
8
 71
3
 72
8
 73
4
 74
0
 40
0
 40
0
 40
0
 40
0
 40
1
 40
1
 40
1
 40
1
 10
87.912389
 20
141.164986
 30
0.0
 10
88.036569
 20
141.040797
 30
0.0
 10
88.083328
 20
141.028085
 30
0.0
 10
88.308180
 20
141.057375
 30
0.0
  0
SPLINE
  5
232
100
AcDbEntity
  8
Layer_1
 62
7
100
AcDbSpline
 70
8
 71
3
 72
8
 73
4
 74
0
 40
0
 40
0
 40
0
 40
0
 40
1
 40
1
 40
1
 40
1
 10
88.308180
 20
141.057375
 30
0.0
 10
88.693337
 20
141.107542
 30
0.0
 10
89.587406
 20
141.581605
 30
0.0
 10
90.146299
 20
142.032004
 30
0.0
  0
SPLINE
  5
233
100
AcDbEntity
  8
Layer_1
 62
7
100
AcDbSpline
 70
8
 71
3
 72
8
 73
4
 74
0
 40
0
 40
0
 40
0
 40
0
 40
1
 40
1
 40
1
 40
1
 10
90.146299
 20
142.032004
 30
0.0
 10
91.412960
 20
143.052784
 30
0.0
 10
93.732251
 20
145.570760
 30
0.0
 10
96.006268
 20
148.394021
 30
0.0
  0
LWPOLYLINE
  5
234
100
AcDbEntity
  8
Layer_1
 62
7
100
AcDbPolyline
 90
3
 70
0
 10
96.768790
 20
161.878646
 30
0.0
 10
99.508225
 20
161.864479
 30
0.0
 10
93.986415
 20
152.665807
 30
0.0
  0
SPLINE
  5
235
100
AcDbEntity
  8
Layer_1
 62
7
100
AcDbSpline
 70
8
 71
3
 72
8
 73
4
 74
0
 40
0
 40
0
 40
0
 40
0
 40
1
 40
1
 40
1
 40
1
 10
97.382350
 20
148.953583
 30
0.0
 10
98.087654
 20
148.953583
 30
0.0
 10
98.307725
 20
148.937298
 30
0.0
 10
98.307725
 20
148.885149
 30
0.0
  0
SPLINE
  5
236
100
AcDbEntity
  8
Layer_1
 62
7
100
AcDbSpline
 70
8
 71
3
 72
8
 73
4
 74
0
 40
0
 40
0
 40
0
 40
0
 40
1
 40
1
 40
1
 40
1
 10
98.307725
 20
148.885149
 30
0.0
 10
98.307725
 20
148.784785
 30
0.0
 10
96.104902
 20
145.866845
 30
0.0
 10
95.154668
 20
144.708495
 30
0.0
  0
SPLINE
  5
237
100
AcDbEntity
  8
Layer_1
 62
7
100
AcDbSpline
 70
8
 71
3
 72
8
 73
4
 74
0
 40
0
 40
0
 40
0
 40
0
 40
1
 40
1
 40
1
 40
1
 10
95.154668
 20
144.708495
 30
0.0
 10
91.134249
 20
139.807553
 30
0.0
 10
87.780780
 20
136.875185
 30
0.0
 10
85.212383
 20
136.014696
 30
0.0
  0
SPLINE
  5
238
100
AcDbEntity
  8
Layer_1
 62
7
100
AcDbSpline
 70
8
 71
3
 72
8
 73
4
 74
0
 40
0
 40
0
 40
0
 40
0
 40
1
 40
1
 40
1
 40
1
 10
85.212383
 20
136.014696
 30
0.0
 10
83.713853
 20
135.512642
 30
0.0
 10
82.337399
 20
135.818537
 30
0.0
 10
81.707135
 20
136.793680
 30
0.0
  0
SPLINE
  5
239
100
AcDbEntity
  8
Layer_1
 62
7
100
AcDbSpline
 70
8
 71
3
 72
8
 73
4
 74
0
 40
0
 40
0
 40
0
 40
0
 40
1
 40
1
 40
1
 40
1
 10
81.707135
 20
136.793680
 30
0.0
 10
81.347928
 20
137.349440
 30
0.0
 10
81.247968
 20
137.762447
 30
0.0
 10
81.248095
 20
138.690377
 30
0.0
  0
SPLINE
  5
23a
100
AcDbEntity
  8
Layer_1
 62
7
100
AcDbSpline
 70
8
 71
3
 72
8
 73
4
 74
0
 40
0
 40
0
 40
0
 40
0
 40
1
 40
1
 40
1
 40
1
 10
81.248095
 20
138.690377
 30
0.0
 10
81.248095
 20
139.125744
 30
0.0
 10
81.267229
 20
139.550282
 30
0.0
 10
81.290456
 20
139.633792
 30
0.0
  0
SPLINE
  5
23b
100
AcDbEntity
  8
Layer_1
 62
7
100
AcDbSpline
 70
8
 71
3
 72
8
 73
4
 74
0
 40
0
 40
0
 40
0
 40
0
 40
1
 40
1
 40
1
 40
1
 10
81.290456
 20
139.633792
 30
0.0
 10
81.324368
 20
139.755689
 30
0.0
 10
81.254366
 20
139.703120
 30
0.0
 10
80.935438
 20
139.367199
 30
0.0
  0
SPLINE
  5
23c
100
AcDbEntity
  8
Layer_1
 62
7
100
AcDbSpline
 70
8
 71
3
 72
8
 73
4
 74
0
 40
0
 40
0
 40
0
 40
0
 40
1
 40
1
 40
1
 40
1
 10
80.935438
 20
139.367199
 30
0.0
 10
79.779015
 20
138.149131
 30
0.0
 10
78.041647
 20
136.879151
 30
0.0
 10
76.787694
 20
136.335283
 30
0.0
  0
SPLINE
  5
23d
100
AcDbEntity
  8
Layer_1
 62
7
100
AcDbSpline
 70
8
 71
3
 72
8
 73
4
 74
0
 40
0
 40
0
 40
0
 40
0
 40
1
 40
1
 40
1
 40
1
 10
76.787694
 20
136.335283
 30
0.0
 10
74.676689
 20
135.419686
 30
0.0
 10
72.709481
 20
135.621921
 30
0.0
 10
71.869983
 20
136.840836
 30
0.0
  0
SPLINE
  5
23e
100
AcDbEntity
  8
Layer_1
 62
7
100
AcDbSpline
 70
8
 71
3
 72
8
 73
4
 74
0
 40
0
 40
0
 40
0
 40
0
 40
1
 40
1
 40
1
 40
1
 10
71.869983
 20
136.840836
 30
0.0
 10
71.156079
 20
137.877390
 30
0.0
 10
71.137461
 20
139.765855
 30
0.0
 10
71.818810
 20
142.031682
 30
0.0
  0
LWPOLYLINE
  5
23f
100
AcDbEntity
  8
Layer_1
 62
7
100
AcDbPolyline
 90
3
 70
0
 10
96.006268
 20
148.394021
 30
0.0
 10
96.456985
 20
148.953583
 30
0.0
 10
97.382350
 20
148.953583
 30
0.0
  0
SPLINE
  5
240
100
AcDbEntity
  8
Layer_1
 62
7
100
AcDbSpline
 70
8
 71
3
 72
8
 73
4
 74
0
 40
0
 40
0
 40
0
 40
0
 40
1
 40
1
 40
1
 40
1
 10
71.526900
 20
142.140865
 30
0.0
 10
69.969301
 20
140.688821
 30
0.0
 10
69.549024
 20
140.308058
 30
0.0
 10
68.937488
 20
139.794913
 30
0.0
  0
SPLINE
  5
241
100
AcDbEntity
  8
Layer_1
 62
7
100
AcDbSpline
 70
8
 71
3
 72
8
 73
4
 74
0
 40
0
 40
0
 40
0
 40
0
 40
1
 40
1
 40
1
 40
1
 10
68.937488
 20
139.794913
 30
0.0
 10
66.371298
 20
137.641591
 30
0.0
 10
63.994662
 20
136.277583
 30
0.0
 10
62.004784
 20
135.816059
 30
0.0
  0
SPLINE
  5
242
100
AcDbEntity
  8
Layer_1
 62
7
100
AcDbSpline
 70
8
 71
3
 72
8
 73
4
 74
0
 40
0
 40
0
 40
0
 40
0
 40
1
 40
1
 40
1
 40
1
 10
62.004784
 20
135.816059
 30
0.0
 10
61.282320
 20
135.648495
 30
0.0
 10
60.143153
 20
135.598968
 30
0.0
 10
59.575042
 20
135.710421
 30
0.0
  0
LWPOLYLINE
  5
243
100
AcDbEntity
  8
Layer_1
 62
7
100
AcDbPolyline
 90
3
 70
0
 10
71.818810
 20
142.031682
 30
0.0
 10
71.978136
 20
142.561523
 30
0.0
 10
71.526900
 20
142.140865
 30
0.0
  0
SPLINE
  5
244
100
AcDbEntity
  8
Layer_1
 62
7
100
AcDbSpline
 70
8
 71
3
 72
8
 73
4
 74
0
 40
0
 40
0
 40
0
 40
0
 40
1
 40
1
 40
1
 40
1
 10
79.719311
 20
140.972454
 30
0.0
 10
80.145797
 20
141.120637
 30
0.0
 10
80.594759
 20
141.447843
 30
0.0
 10
81.267639
 20
142.100888
 30
0.0
  0
SPLINE
  5
245
100
AcDbEntity
  8
Layer_1
 62
7
100
AcDbSpline
 70
8
 71
3
 72
8
 73
4
 74
0
 40
0
 40
0
 40
0
 40
0
 40
1
 40
1
 40
1
 40
1
 10
81.267639
 20
142.100888
 30
0.0
 10
82.616856
 20
143.410309
 30
0.0
 10
84.159807
 20
145.486483
 30
0.0
 10
86.120351
 20
148.630647
 30
0.0
  0
SPLINE
  5
246
100
AcDbEntity
  8
Layer_1
 62
7
100
AcDbSpline
 70
8
 71
3
 72
8
 73
4
 74
0
 40
0
 40
0
 40
0
 40
0
 40
1
 40
1
 40
1
 40
1
 10
86.120351
 20
148.630647
 30
0.0
 10
87.480098
 20
150.811288
 30
0.0
 10
91.840022
 20
158.153237
 30
0.0
 10
92.265667
 20
158.979104
 30
0.0
  0
SPLINE
  5
247
100
AcDbEntity
  8
Layer_1
 62
7
100
AcDbSpline
 70
8
 71
3
 72
8
 73
4
 74
0
 40
0
 40
0
 40
0
 40
0
 40
1
 40
1
 40
1
 40
1
 10
92.265667
 20
158.979104
 30
0.0
 10
92.349814
 20
159.142364
 30
0.0
 10
92.348073
 20
159.162582
 30
0.0
 10
92.230490
 20
159.388540
 30
0.0
  0
SPLINE
  5
248
100
AcDbEntity
  8
Layer_1
 62
7
100
AcDbSpline
 70
8
 71
3
 72
8
 73
4
 74
0
 40
0
 40
0
 40
0
 40
0
 40
1
 40
1
 40
1
 40
1
 10
92.230490
 20
159.388540
 30
0.0
 10
92.047339
 20
159.740525
 30
0.0
 10
91.732749
 20
159.890379
 30
0.0
 10
91.270108
 20
159.846009
 30
0.0
  0
SPLINE
  5
249
100
AcDbEntity
  8
Layer_1
 62
7
100
AcDbSpline
 70
8
 71
3
 72
8
 73
4
 74
0
 40
0
 40
0
 40
0
 40
0
 40
1
 40
1
 40
1
 40
1
 10
91.270108
 20
159.846009
 30
0.0
 10
89.609563
 20
159.686759
 30
0.0
 10
88.048694
 20
158.197156
 30
0.0
 10
84.013427
 20
152.920665
 30
0.0
  0
SPLINE
  5
24a
100
AcDbEntity
  8
Layer_1
 62
7
100
AcDbSpline
 70
8
 71
3
 72
8
 73
4
 74
0
 40
0
 40
0
 40
0
 40
0
 40
1
 40
1
 40
1
 40
1
 10
84.013427
 20
152.920665
 30
0.0
 10
81.824937
 20
150.058996
 30
0.0
 10
80.518296
 20
148.035945
 30
0.0
 10
79.370894
 20
145.732693
 30
0.0
  0
SPLINE
  5
24b
100
AcDbEntity
  8
Layer_1
 62
7
100
AcDbSpline
 70
8
 71
3
 72
8
 73
4
 74
0
 40
0
 40
0
 40
0
 40
0
 40
1
 40
1
 40
1
 40
1
 10
79.370894
 20
145.732693
 30
0.0
 10
78.242947
 20
143.468492
 30
0.0
 10
77.877303
 20
142.066065
 30
0.0
 10
78.231695
 20
141.363292
 30
0.0
  0
SPLINE
  5
24c
100
AcDbEntity
  8
Layer_1
 62
7
100
AcDbSpline
 70
8
 71
3
 72
8
 73
4
 74
0
 40
0
 40
0
 40
0
 40
0
 40
1
 40
1
 40
1
 40
1
 10
78.231695
 20
141.363292
 30
0.0
 10
78.459671
 20
140.911206
 30
0.0
 10
79.076578
 20
140.749129
 30
0.0
 10
79.719311
 20
140.972454
 30
0.0
  0
LWPOLYLINE
  5
24d
100
AcDbEntity
  8
Layer_1
 62
7
100
AcDbPolyline
 90
2
 70
0
 10
59.575042
 20
135.710421
 30
0.0
 10
59.575042
 20
135.710432
 30
0.0
  0
SPLINE
  5
24e
100
AcDbEntity
  8
Layer_1
 62
7
100
AcDbSpline
 70
8
 71
3
 72
8
 73
4
 74
0
 40
0
 40
0
 40
0
 40
0
 40
1
 40
1
 40
1
 40
1
 10
45.813839
 20
141.120925
 30
0.0
 10
46.262790
 20
141.237861
 30
0.0
 10
46.988309
 20
141.627142
 30
0.0
 10
47.564906
 20
142.060466
 30
0.0
  0
SPLINE
  5
24f
100
AcDbEntity
  8
Layer_1
 62
7
100
AcDbSpline
 70
8
 71
3
 72
8
 73
4
 74
0
 40
0
 40
0
 40
0
 40
0
 40
1
 40
1
 40
1
 40
1
 10
47.564906
 20
142.060466
 30
0.0
 10
48.608559
 20
142.844789
 30
0.0
 10
50.176763
 20
144.498471
 30
0.0
 10
51.325026
 20
146.025535
 30
0.0
  0
SPLINE
  5
250
100
AcDbEntity
  8
Layer_1
 62
7
100
AcDbSpline
 70
8
 71
3
 72
8
 73
4
 74
0
 40
0
 40
0
 40
0
 40
0
 40
1
 40
1
 40
1
 40
1
 10
51.325026
 20
146.025535
 30
0.0
 10
52.267152
 20
147.278464
 30
0.0
 10
54.184369
 20
150.241727
 30
0.0
 10
54.212360
 20
150.488217
 30
0.0
  0
SPLINE
  5
251
100
AcDbEntity
  8
Layer_1
 62
7
100
AcDbSpline
 70
8
 71
3
 72
8
 73
4
 74
0
 40
0
 40
0
 40
0
 40
0
 40
1
 40
1
 40
1
 40
1
 10
54.212360
 20
150.488217
 30
0.0
 10
54.223085
 20
150.582866
 30
0.0
 10
54.149100
 20
150.627570
 30
0.0
 10
53.733748
 20
150.777331
 30
0.0
  0
SPLINE
  5
252
100
AcDbEntity
  8
Layer_1
 62
7
100
AcDbSpline
 70
8
 71
3
 72
8
 73
4
 74
0
 40
0
 40
0
 40
0
 40
0
 40
1
 40
1
 40
1
 40
1
 10
53.733748
 20
150.777331
 30
0.0
 10
51.598779
 20
151.547137
 30
0.0
 10
50.383742
 20
152.419531
 30
0.0
 10
49.516871
 20
153.805036
 30
0.0
  0
SPLINE
  5
253
100
AcDbEntity
  8
Layer_1
 62
7
100
AcDbSpline
 70
8
 71
3
 72
8
 73
4
 74
0
 40
0
 40
0
 40
0
 40
0
 40
1
 40
1
 40
1
 40
1
 10
49.516871
 20
153.805036
 30
0.0
 10
49.283098
 20
154.178670
 30
0.0
 10
49.259741
 20
154.200020
 30
0.0
 10
49.188336
 20
154.105290
 30
0.0
  0
SPLINE
  5
254
100
AcDbEntity
  8
Layer_1
 62
7
100
AcDbSpline
 70
8
 71
3
 72
8
 73
4
 74
0
 40
0
 40
0
 40
0
 40
0
 40
1
 40
1
 40
1
 40
1
 10
49.188336
 20
154.105290
 30
0.0
 10
48.956889
 20
153.798232
 30
0.0
 10
47.651498
 20
151.913642
 30
0.0
 10
47.026249
 20
150.983886
 30
0.0
  0
SPLINE
  5
255
100
AcDbEntity
  8
Layer_1
 62
7
100
AcDbSpline
 70
8
 71
3
 72
8
 73
4
 74
0
 40
0
 40
0
 40
0
 40
0
 40
1
 40
1
 40
1
 40
1
 10
47.026249
 20
150.983886
 30
0.0
 10
45.385866
 20
148.544612
 30
0.0
 10
44.223265
 20
146.095989
 30
0.0
 10
43.816451
 20
144.223538
 30
0.0
  0
SPLINE
  5
256
100
AcDbEntity
  8
Layer_1
 62
7
100
AcDbSpline
 70
8
 71
3
 72
8
 73
4
 74
0
 40
0
 40
0
 40
0
 40
0
 40
1
 40
1
 40
1
 40
1
 10
43.816451
 20
144.223538
 30
0.0
 10
43.653575
 20
143.473849
 30
0.0
 10
43.650453
 20
142.549788
 30
0.0
 10
43.809339
 20
142.119298
 30
0.0
  0
SPLINE
  5
257
100
AcDbEntity
  8
Layer_1
 62
7
100
AcDbSpline
 70
8
 71
3
 72
8
 73
4
 74
0
 40
0
 40
0
 40
0
 40
0
 40
1
 40
1
 40
1
 40
1
 10
43.809339
 20
142.119298
 30
0.0
 10
44.132968
 20
141.242484
 30
0.0
 10
44.870398
 20
140.875192
 30
0.0
 10
45.813828
 20
141.120925
 30
0.0
  0
LWPOLYLINE
  5
258
100
AcDbEntity
  8
Layer_1
 62
7
100
AcDbPolyline
 90
2
 70
0
 10
79.719311
 20
140.972454
 30
0.0
 10
79.719311
 20
140.972454
 30
0.0
  0
SPLINE
  5
259
100
AcDbEntity
  8
Layer_1
 62
7
100
AcDbSpline
 70
8
 71
3
 72
8
 73
4
 74
0
 40
0
 40
0
 40
0
 40
0
 40
1
 40
1
 40
1
 40
1
 10
55.260861
 20
152.372561
 30
0.0
 10
55.361434
 20
152.411155
 30
0.0
 10
55.754047
 20
153.168117
 30
0.0
 10
56.137130
 20
154.062019
 30
0.0
  0
SPLINE
  5
25a
100
AcDbEntity
  8
Layer_1
 62
7
100
AcDbSpline
 70
8
 71
3
 72
8
 73
4
 74
0
 40
0
 40
0
 40
0
 40
0
 40
1
 40
1
 40
1
 40
1
 10
56.137130
 20
154.062019
 30
0.0
 10
57.220945
 20
156.591024
 30
0.0
 10
57.366114
 20
158.571501
 30
0.0
 10
56.536745
 20
159.513717
 30
0.0
  0
SPLINE
  5
25b
100
AcDbEntity
  8
Layer_1
 62
7
100
AcDbSpline
 70
8
 71
3
 72
8
 73
4
 74
0
 40
0
 40
0
 40
0
 40
0
 40
1
 40
1
 40
1
 40
1
 10
56.536745
 20
159.513717
 30
0.0
 10
56.124362
 20
159.982209
 30
0.0
 10
55.649726
 20
160.114605
 30
0.0
 10
54.944803
 20
159.957774
 30
0.0
  0
SPLINE
  5
25c
100
AcDbEntity
  8
Layer_1
 62
7
100
AcDbSpline
 70
8
 71
3
 72
8
 73
4
 74
0
 40
0
 40
0
 40
0
 40
0
 40
1
 40
1
 40
1
 40
1
 10
54.944803
 20
159.957774
 30
0.0
 10
53.953545
 20
159.737240
 30
0.0
 10
52.777901
 20
158.921118
 30
0.0
 10
52.071710
 20
157.963298
 30
0.0
  0
SPLINE
  5
25d
100
AcDbEntity
  8
Layer_1
 62
7
100
AcDbSpline
 70
8
 71
3
 72
8
 73
4
 74
0
 40
0
 40
0
 40
0
 40
0
 40
1
 40
1
 40
1
 40
1
 10
52.071710
 20
157.963298
 30
0.0
 10
51.169855
 20
156.740097
 30
0.0
 10
50.994728
 20
155.510581
 30
0.0
 10
51.562429
 20
154.387780
 30
0.0
  0
SPLINE
  5
25e
100
AcDbEntity
  8
Layer_1
 62
7
100
AcDbSpline
 70
8
 71
3
 72
8
 73
4
 74
0
 40
0
 40
0
 40
0
 40
0
 40
1
 40
1
 40
1
 40
1
 10
51.562429
 20
154.387780
 30
0.0
 10
51.743712
 20
154.029239
 30
0.0
 10
52.440349
 20
153.338433
 30
0.0
 10
52.876679
 20
153.084531
 30
0.0
  0
SPLINE
  5
25f
100
AcDbEntity
  8
Layer_1
 62
7
100
AcDbSpline
 70
8
 71
3
 72
8
 73
4
 74
0
 40
0
 40
0
 40
0
 40
0
 40
1
 40
1
 40
1
 40
1
 10
52.876679
 20
153.084531
 30
0.0
 10
53.751977
 20
152.575199
 30
0.0
 10
54.897491
 20
152.233123
 30
0.0
 10
55.260861
 20
152.372561
 30
0.0
  0
LWPOLYLINE
  5
260
100
AcDbEntity
  8
Layer_1
 62
7
100
AcDbPolyline
 90
2
 70
0
 10
45.813828
 20
141.120925
 30
0.0
 10
45.813839
 20
141.120925
 30
0.0
  0
SPLINE
  5
261
100
AcDbEntity
  8
Layer_1
 62
7
100
AcDbSpline
 70
8
 71
3
 72
8
 73
4
 74
0
 40
0
 40
0
 40
0
 40
0
 40
1
 40
1
 40
1
 40
1
 10
100.506270
 20
157.182734
 30
0.0
 10
100.518349
 20
157.205537
 30
0.0
 10
101.173955
 20
158.274415
 30
0.0
 10
101.963149
 20
159.557995
 30
0.0
  0
LWPOLYLINE
  5
262
100
AcDbEntity
  8
Layer_1
 62
7
100
AcDbPolyline
 90
2
 70
0
 10
55.260861
 20
152.372561
 30
0.0
 10
55.260861
 20
152.372561
 30
0.0
  0
SPLINE
  5
263
100
AcDbEntity
  8
Layer_1
 62
7
100
AcDbSpline
 70
8
 71
3
 72
8
 73
4
 74
0
 40
0
 40
0
 40
0
 40
0
 40
1
 40
1
 40
1
 40
1
 10
105.984503
 20
161.891784
 30
0.0
 10
107.407041
 20
161.891784
 30
0.0
 10
108.570522
 20
161.873355
 30
0.0
 10
108.570028
 20
161.850839
 30
0.0
  0
SPLINE
  5
264
100
AcDbEntity
  8
Layer_1
 62
7
100
AcDbSpline
 70
8
 71
3
 72
8
 73
4
 74
0
 40
0
 40
0
 40
0
 40
0
 40
1
 40
1
 40
1
 40
1
 10
108.570028
 20
161.850839
 30
0.0
 10
108.568335
 20
161.828318
 30
0.0
 10
107.924103
 20
160.765833
 30
0.0
 10
107.135763
 20
159.489757
 30
0.0
  0
LWPOLYLINE
  5
265
100
AcDbEntity
  8
Layer_1
 62
7
100
AcDbPolyline
 90
3
 70
0
 10
101.963149
 20
159.557995
 30
0.0
 10
103.398055
 20
161.891784
 30
0.0
 10
105.984503
 20
161.891784
 30
0.0
  0
SPLINE
  5
266
100
AcDbEntity
  8
Layer_1
 62
7
100
AcDbSpline
 70
8
 71
3
 72
8
 73
4
 74
0
 40
0
 40
0
 40
0
 40
0
 40
1
 40
1
 40
1
 40
1
 10
103.093337
 20
157.155449
 30
0.0
 10
101.658358
 20
157.147659
 30
0.0
 10
100.494174
 20
157.159936
 30
0.0
 10
100.506270
 20
157.182739
 30
0.0
  0
LWPOLYLINE
  5
267
100
AcDbEntity
  8
Layer_1
 62
7
100
AcDbPolyline
 90
3
 70
0
 10
107.135763
 20
159.489757
 30
0.0
 10
105.702388
 20
157.169616
 30
0.0
 10
103.093337
 20
157.155449
 30
0.0
  0
SPLINE
  5
268
100
AcDbEntity
  8
Layer_1
 62
7
100
AcDbSpline
 70
8
 71
3
 72
8
 73
4
 74
0
 40
0
 40
0
 40
0
 40
0
 40
1
 40
1
 40
1
 40
1
 10
168.403239
 20
161.350707
 30
0.0
 10
167.624983
 20
161.436754
 30
0.0
 10
166.765503
 20
161.584489
 30
0.0
 10
166.765503
 20
161.632221
 30
0.0
  0
SPLINE
  5
269
100
AcDbEntity
  8
Layer_1
 62
7
100
AcDbSpline
 70
8
 71
3
 72
8
 73
4
 74
0
 40
0
 40
0
 40
0
 40
0
 40
1
 40
1
 40
1
 40
1
 10
166.765503
 20
161.632221
 30
0.0
 10
166.765503
 20
161.734465
 30
0.0
 10
168.807438
 20
164.087732
 30
0.0
 10
170.113111
 20
165.490253
 30
0.0
  0
LWPOLYLINE
  5
26a
100
AcDbEntity
  8
Layer_1
 62
7
100
AcDbPolyline
 90
2
 70
0
 10
100.506270
 20
157.182739
 30
0.0
 10
100.506270
 20
157.182734
 30
0.0
  0
SPLINE
  5
26b
100
AcDbEntity
  8
Layer_1
 62
7
100
AcDbSpline
 70
8
 71
3
 72
8
 73
4
 74
0
 40
0
 40
0
 40
0
 40
0
 40
1
 40
1
 40
1
 40
1
 10
172.016699
 20
166.156077
 30
0.0
 10
173.848689
 20
166.138805
 30
0.0
 10
175.075791
 20
166.293000
 30
0.0
 10
176.946811
 20
166.775589
 30
0.0
  0
SPLINE
  5
26c
100
AcDbEntity
  8
Layer_1
 62
7
100
AcDbSpline
 70
8
 71
3
 72
8
 73
4
 74
0
 40
0
 40
0
 40
0
 40
0
 40
1
 40
1
 40
1
 40
1
 10
176.946811
 20
166.775589
 30
0.0
 10
181.554992
 20
167.964153
 30
0.0
 10
186.460409
 20
170.846932
 30
0.0
 10
190.361483
 20
174.658992
 30
0.0
  0
SPLINE
  5
26d
100
AcDbEntity
  8
Layer_1
 62
7
100
AcDbSpline
 70
8
 71
3
 72
8
 73
4
 74
0
 40
0
 40
0
 40
0
 40
0
 40
1
 40
1
 40
1
 40
1
 10
190.361483
 20
174.658992
 30
0.0
 10
190.865052
 20
175.151097
 30
0.0
 10
191.277096
 20
175.541272
 30
0.0
 10
191.277096
 20
175.526047
 30
0.0
  0
SPLINE
  5
26e
100
AcDbEntity
  8
Layer_1
 62
7
100
AcDbSpline
 70
8
 71
3
 72
8
 73
4
 74
0
 40
0
 40
0
 40
0
 40
0
 40
1
 40
1
 40
1
 40
1
 10
191.277096
 20
175.526047
 30
0.0
 10
191.277096
 20
175.469467
 30
0.0
 10
190.762577
 20
174.570925
 30
0.0
 10
190.348754
 20
173.904765
 30
0.0
  0
SPLINE
  5
26f
100
AcDbEntity
  8
Layer_1
 62
7
100
AcDbSpline
 70
8
 71
3
 72
8
 73
4
 74
0
 40
0
 40
0
 40
0
 40
0
 40
1
 40
1
 40
1
 40
1
 10
190.348754
 20
173.904765
 30
0.0
 10
188.505617
 20
170.937861
 30
0.0
 10
186.012636
 20
168.207313
 30
0.0
 10
183.239069
 20
166.117491
 30
0.0
  0
SPLINE
  5
270
100
AcDbEntity
  8
Layer_1
 62
7
100
AcDbSpline
 70
8
 71
3
 72
8
 73
4
 74
0
 40
0
 40
0
 40
0
 40
0
 40
1
 40
1
 40
1
 40
1
 10
183.239069
 20
166.117491
 30
0.0
 10
179.522879
 20
163.317446
 30
0.0
 10
175.745984
 20
161.743211
 30
0.0
 10
171.795776
 20
161.347863
 30
0.0
  0
SPLINE
  5
271
100
AcDbEntity
  8
Layer_1
 62
7
100
AcDbSpline
 70
8
 71
3
 72
8
 73
4
 74
0
 40
0
 40
0
 40
0
 40
0
 40
1
 40
1
 40
1
 40
1
 10
171.795776
 20
161.347863
 30
0.0
 10
171.142206
 20
161.282452
 30
0.0
 10
169.004429
 20
161.284250
 30
0.0
 10
168.403239
 20
161.350713
 30
0.0
  0
LWPOLYLINE
  5
272
100
AcDbEntity
  8
Layer_1
 62
7
100
AcDbPolyline
 90
3
 70
0
 10
170.113111
 20
165.490253
 30
0.0
 10
170.744159
 20
166.168071
 30
0.0
 10
172.016699
 20
166.156077
 30
0.0
  0
LWPOLYLINE
  5
273
100
AcDbEntity
  8
Layer_1
 62
7
100
AcDbPolyline
 90
2
 70
0
 10
168.403239
 20
161.350713
 30
0.0
 10
168.403239
 20
161.350707
 30
0.0
  0
ENDSEC
  0
SECTION
  2
OBJECTS
  0
DICTIONARY
  5
C
330
0
100
AcDbDictionary
  3
ACAD_GROUP
350
D
  3
ACAD_MLINESTYLE
350
17
  0
DICTIONARY
  5
D
330
C
100
AcDbDictionary
  0
DICTIONARY
  5
1A
330
C
100
AcDbDictionary
  0
DICTIONARY
  5
17
330
C
100
AcDbDictionary
  3
STANDARD
350
18
  0
DICTIONARY
  5
19
330
C
100
AcDbDictionary
  0
ENDSEC
  0
EOF
