  0
SECTION
  2
HEADER
  9
$ACADVER
  1
AC1009
  9
$DWGCODEPAGE
  3
ansi_1252
  9
$INSBASE
 10
0.0
 20
0.0
 30
0.0
  9
$EXTMIN
 10
9.751366000000001
 20
0.274007
 30
0.0
  9
$EXTMAX
 10
159.080734
 20
131.028532
 30
0.0
  9
$LIMMIN
 10
0.0
 20
0.0
  9
$LIMMAX
 10
12.0
 20
9.0
  9
$ORTHOMODE
 70
     0
  9
$REGENMODE
 70
     1
  9
$FILLMODE
 70
     1
  9
$QTEXTMODE
 70
     0
  9
$MIRRTEXT
 70
     1
  9
$DRAGMODE
 70
     2
  9
$LTSCALE
 40
1.0
  9
$OSMODE
 70
    37
  9
$ATTMODE
 70
     1
  9
$TEXTSIZE
 40
0.2
  9
$TRACEWID
 40
0.05
  9
$TEXTSTYLE
  7
STANDARD
  9
$CLAYER
  8
0
  9
$CELTYPE
  6
BYBLOCK
  9
$CECOLOR
 62
   256
  9
$DIMSCALE
 40
1.0
  9
$DIMASZ
 40
0.18
  9
$DIMEXO
 40
0.0625
  9
$DIMDLI
 40
0.38
  9
$DIMRND
 40
0.0
  9
$DIMDLE
 40
0.0
  9
$DIMEXE
 40
0.18
  9
$DIMTP
 40
0.0
  9
$DIMTM
 40
0.0
  9
$DIMTXT
 40
0.18
  9
$DIMCEN
 40
0.09
  9
$DIMTSZ
 40
0.0
  9
$DIMTOL
 70
     0
  9
$DIMLIM
 70
     0
  9
$DIMTIH
 70
     1
  9
$DIMTOH
 70
     1
  9
$DIMSE1
 70
     0
  9
$DIMSE2
 70
     0
  9
$DIMTAD
 70
     0
  9
$DIMZIN
 70
     0
  9
$DIMBLK
  1

  9
$DIMASO
 70
     1
  9
$DIMSHO
 70
     1
  9
$DIMPOST
  1

  9
$DIMAPOST
  1

  9
$DIMALT
 70
     0
  9
$DIMALTD
 70
     2
  9
$DIMALTF
 40
25.4
  9
$DIMLFAC
 40
1.0
  9
$DIMTOFL
 70
     0
  9
$DIMTVP
 40
0.0
  9
$DIMTIX
 70
     0
  9
$DIMSOXD
 70
     0
  9
$DIMSAH
 70
     0
  9
$DIMBLK1
  1

  9
$DIMBLK2
  1

  9
$DIMSTYLE
  2
STANDARD
  9
$DIMCLRD
 70
     0
  9
$DIMCLRE
 70
     0
  9
$DIMCLRT
 70
     0
  9
$DIMTFAC
 40
1.0
  9
$DIMGAP
 40
0.09
  9
$LUNITS
 70
     2
  9
$LUPREC
 70
     4
  9
$SKETCHINC
 40
0.1
  9
$FILLETRAD
 40
0.5
  9
$AUNITS
 70
     0
  9
$AUPREC
 70
     0
  9
$MENU
  1
.
  9
$ELEVATION
 40
0.0
  9
$PELEVATION
 40
0.0
  9
$THICKNESS
 40
0.0
  9
$LIMCHECK
 70
     0
  9
$CHAMFERA
 40
0.5
  9
$CHAMFERB
 40
0.5
  9
$SKPOLY
 70
     0
  9
$TDCREATE
 40
2453353.508792488
  9
$TDUPDATE
 40
4910477.855715555
  9
$TDINDWG
 40
4895786.051922963
  9
$TDUSRTIMER
 40
4895786.051922963
  9
$USRTIMER
 70
     1
  9
$ANGBASE
 50
0.0
  9
$ANGDIR
 70
     0
  9
$PDMODE
 70
     0
  9
$PDSIZE
 40
0.0
  9
$PLINEWID
 40
0.0
  9
$COORDS
 70
     1
  9
$SPLFRAME
 70
     0
  9
$SPLINETYPE
 70
     6
  9
$SPLINESEGS
 70
     8
  9
$ATTDIA
 70
     0
  9
$ATTREQ
 70
     1
  9
$HANDLING
 70
     1
  9
$HANDSEED
  5
27C
  9
$SURFTAB1
 70
     6
  9
$SURFTAB2
 70
     6
  9
$SURFTYPE
 70
     6
  9
$SURFU
 70
     6
  9
$SURFV
 70
     6
  9
$UCSNAME
  2

  9
$UCSORG
 10
0.0
 20
0.0
 30
0.0
  9
$UCSXDIR
 10
1.0
 20
0.0
 30
0.0
  9
$UCSYDIR
 10
0.0
 20
1.0
 30
0.0
  9
$PUCSNAME
  2

  9
$PUCSORG
 10
0.0
 20
0.0
 30
0.0
  9
$PUCSXDIR
 10
1.0
 20
0.0
 30
0.0
  9
$PUCSYDIR
 10
0.0
 20
1.0
 30
0.0
  9
$USERI1
 70
     0
  9
$USERI2
 70
     0
  9
$USERI3
 70
     0
  9
$USERI4
 70
     0
  9
$USERI5
 70
     0
  9
$USERR1
 40
0.0
  9
$USERR2
 40
0.0
  9
$USERR3
 40
0.0
  9
$USERR4
 40
0.0
  9
$USERR5
 40
0.0
  9
$WORLDVIEW
 70
     1
  9
$SHADEDGE
 70
     3
  9
$SHADEDIF
 70
    70
  9
$TILEMODE
 70
     1
  9
$MAXACTVP
 70
    64
  9
$PLIMCHECK
 70
     0
  9
$PEXTMIN
 10
0.0
 20
0.0
 30
0.0
  9
$PEXTMAX
 10
0.0
 20
0.0
 30
0.0
  9
$PLIMMIN
 10
0.0
 20
0.0
  9
$PLIMMAX
 10
0.0
 20
0.0
  9
$UNITMODE
 70
     0
  9
$VISRETAIN
 70
     1
  9
$PLINEGEN
 70
     0
  9
$PSLTSCALE
 70
     1
  0
ENDSEC
  0
SECTION
  2
TABLES
  0
TABLE
  2
VPORT
 70
     1
  0
VPORT
  2
*ACTIVE
 70
     0
 10
0.0
 20
0.0
 11
1.0
 21
1.0
 12
83.95868109064057
 22
61.20475669851314
 13
0.0
 23
0.0
 14
0.5
 24
0.5
 15
0.5
 25
0.5
 16
0.0
 26
0.0
 36
1.0
 17
0.0
 27
0.0
 37
0.0
 40
153.2252287723165
 41
1.972972972850329
 42
50.0
 43
0.0
 44
0.0
 50
0.0
 51
0.0
 71
    16
 72
   100
 73
     1
 74
     3
 75
     0
 76
     0
 77
     0
 78
     0
  0
ENDTAB
  0
TABLE
  2
LTYPE
 70
     1
  0
LTYPE
  2
CONTINUOUS
 70
     0
  3
Solid line
 72
    65
 73
     0
 40
0.0
  0
ENDTAB
  0
TABLE
  2
LAYER
 70
     2
  0
LAYER
  2
0
 70
     0
 62
     7
  6
CONTINUOUS
  0
LAYER
  2
LAYER_1
 70
     0
 62
     7
  6
CONTINUOUS
  0
ENDTAB
  0
TABLE
  2
STYLE
 70
     1
  0
STYLE
  2
STANDARD
 70
     0
 40
0.0
 41
1.0
 50
0.0
 71
     0
 42
0.2
  3
txt
  4

  0
ENDTAB
  0
TABLE
  2
VIEW
 70
     0
  0
ENDTAB
  0
TABLE
  2
UCS
 70
     0
  0
ENDTAB
  0
TABLE
  2
APPID
 70
     1
  0
APPID
  2
ACAD
 70
     0
  0
ENDTAB
  0
TABLE
  2
DIMSTYLE
 70
     1
  0
DIMSTYLE
  2
STANDARD
 70
     0
  3

  4

  5

  6

  7

 40
1.0
 41
0.18
 42
0.0625
 43
0.38
 44
0.18
 45
0.0
 46
0.0
 47
0.0
 48
0.0
140
0.18
141
0.09
142
0.0
143
25.4
144
1.0
145
0.0
146
1.0
147
0.09
 71
     0
 72
     0
 73
     1
 74
     1
 75
     0
 76
     0
 77
     0
 78
     0
170
     0
171
     2
172
     0
173
     0
174
     0
175
     0
176
     0
177
     0
178
     0
  0
ENDTAB
  0
ENDSEC
  0
SECTION
  2
BLOCKS
  0
BLOCK
  8
0
  2
$MODEL_SPACE
 70
     0
 10
0.0
 20
0.0
 30
0.0
  3
$MODEL_SPACE
  1

  0
ENDBLK
  5
21
  8
0
  0
BLOCK
 67
     1
  8
0
  2
$PAPER_SPACE
 70
     0
 10
0.0
 20
0.0
 30
0.0
  3
$PAPER_SPACE
  1

  0
ENDBLK
  5
76
 67
     1
  8
0
  0
ENDSEC
  0
SECTION
  2
ENTITIES
  0
LINE
  5
265
  8
LAYER_1
 10
78.38845600000001
 20
1.52067
 30
0.0
 11
77.513492
 21
3.983535
 31
0.0
  0
LINE
  5
266
  8
LAYER_1
 10
77.513492
 20
3.983535
 30
0.0
 11
76.352138
 21
6.168266
 31
0.0
  0
LINE
  5
23
  8
LAYER_1
 10
76.352138
 20
6.168266
 30
0.0
 11
76.037295
 21
6.716394
 31
0.0
  0
LINE
  5
24
  8
LAYER_1
 10
76.037295
 20
6.716394
 30
0.0
 11
76.017346
 21
6.944377
 31
0.0
  0
LINE
  5
25
  8
LAYER_1
 10
76.017346
 20
6.944377
 30
0.0
 11
75.392381
 21
7.714575
 31
0.0
  0
LINE
  5
26
  8
LAYER_1
 10
75.392381
 20
7.714575
 30
0.0
 11
73.622919
 21
9.566329
 31
0.0
  0
LINE
  5
267
  8
LAYER_1
 10
73.622919
 20
9.566329
 30
0.0
 11
71.85441400000001
 21
11.261495
 31
0.0
  0
LINE
  5
28
  8
LAYER_1
 10
71.85441400000001
 20
11.261495
 30
0.0
 11
69.980244
 21
12.829775
 31
0.0
  0
LINE
  5
29
  8
LAYER_1
 10
69.980244
 20
12.829775
 30
0.0
 11
67.874214
 21
14.345
 31
0.0
  0
LINE
  5
2A
  8
LAYER_1
 10
67.874214
 20
14.345
 30
0.0
 11
65.41012600000001
 21
15.881005
 31
0.0
  0
LINE
  5
2B
  8
LAYER_1
 10
65.41012600000001
 20
15.881005
 30
0.0
 11
58.902993
 21
19.310685
 31
0.0
  0
LINE
  5
2C
  8
LAYER_1
 10
58.902993
 20
19.310685
 30
0.0
 11
49.449273
 21
23.709478
 31
0.0
  0
LINE
  5
2D
  8
LAYER_1
 10
49.449273
 20
23.709478
 30
0.0
 11
44.209166
 21
26.121558
 31
0.0
  0
LINE
  5
2E
  8
LAYER_1
 10
44.209166
 20
26.121558
 30
0.0
 11
38.776995
 21
28.813814
 31
0.0
  0
LINE
  5
2F
  8
LAYER_1
 10
38.776995
 20
28.813814
 30
0.0
 11
32.692602
 21
32.044988
 31
0.0
  0
LINE
  5
30
  8
LAYER_1
 10
32.692602
 20
32.044988
 30
0.0
 11
27.375161
 21
35.408753
 31
0.0
  0
LINE
  5
31
  8
LAYER_1
 10
27.375161
 20
35.408753
 30
0.0
 11
22.800276
 21
38.931621
 31
0.0
  0
LINE
  5
32
  8
LAYER_1
 10
22.800276
 20
38.931621
 30
0.0
 11
20.783669
 21
40.761005
 31
0.0
  0
LINE
  5
33
  8
LAYER_1
 10
20.783669
 20
40.761005
 30
0.0
 11
18.943553
 21
42.640107
 31
0.0
  0
LINE
  5
34
  8
LAYER_1
 10
18.943553
 20
42.640107
 30
0.0
 11
17.276878
 21
44.572242
 31
0.0
  0
LINE
  5
35
  8
LAYER_1
 10
17.276878
 20
44.572242
 30
0.0
 11
15.780595
 21
46.560724
 31
0.0
  0
LINE
  5
36
  8
LAYER_1
 10
15.780595
 20
46.560724
 30
0.0
 11
14.451655
 21
48.608866
 31
0.0
  0
LINE
  5
37
  8
LAYER_1
 10
14.451655
 20
48.608866
 30
0.0
 11
13.287009
 21
50.719983
 31
0.0
  0
LINE
  5
38
  8
LAYER_1
 10
13.287009
 20
50.719983
 30
0.0
 11
12.283606
 21
52.89739
 31
0.0
  0
LINE
  5
39
  8
LAYER_1
 10
12.283606
 20
52.89739
 30
0.0
 11
11.438398
 21
55.144399
 31
0.0
  0
LINE
  5
3A
  8
LAYER_1
 10
11.438398
 20
55.144399
 30
0.0
 11
10.748335
 21
57.464326
 31
0.0
  0
LINE
  5
3B
  8
LAYER_1
 10
10.748335
 20
57.464326
 30
0.0
 11
10.210368
 21
59.860485
 31
0.0
  0
LINE
  5
3C
  8
LAYER_1
 10
10.210368
 20
59.860485
 30
0.0
 11
9.817859
 21
62.858645
 31
0.0
  0
LINE
  5
3D
  8
LAYER_1
 10
9.817859
 20
62.858645
 30
0.0
 11
9.751366000000001
 21
65.967974
 31
0.0
  0
LINE
  5
3E
  8
LAYER_1
 10
9.751366000000001
 20
65.967974
 30
0.0
 11
10.004708
 21
69.160507
 31
0.0
  0
LINE
  5
3F
  8
LAYER_1
 10
10.004708
 20
69.160507
 30
0.0
 11
10.571706
 21
72.408278
 31
0.0
  0
LINE
  5
40
  8
LAYER_1
 10
10.571706
 20
72.408278
 30
0.0
 11
11.44618
 21
75.683325
 31
0.0
  0
LINE
  5
41
  8
LAYER_1
 10
11.44618
 20
75.683325
 30
0.0
 11
12.621949
 21
78.95768099999999
 31
0.0
  0
LINE
  5
42
  8
LAYER_1
 10
12.621949
 20
78.95768099999999
 30
0.0
 11
14.092834
 21
82.20338200000001
 31
0.0
  0
LINE
  5
43
  8
LAYER_1
 10
14.092834
 20
82.20338200000001
 30
0.0
 11
15.852655
 21
85.39246300000001
 31
0.0
  0
LINE
  5
44
  8
LAYER_1
 10
15.852655
 20
85.39246300000001
 30
0.0
 11
17.605097
 21
88.075019
 31
0.0
  0
LINE
  5
45
  8
LAYER_1
 10
17.605097
 20
88.075019
 30
0.0
 11
19.520602
 21
90.50679599999999
 31
0.0
  0
LINE
  5
46
  8
LAYER_1
 10
19.520602
 20
90.50679599999999
 30
0.0
 11
22.130416
 21
93.465485
 31
0.0
  0
LINE
  5
47
  8
LAYER_1
 10
22.130416
 20
93.465485
 30
0.0
 11
25.546538
 21
96.742464
 31
0.0
  0
LINE
  5
48
  8
LAYER_1
 10
25.546538
 20
96.742464
 30
0.0
 11
29.349277
 21
99.960146
 31
0.0
  0
LINE
  5
49
  8
LAYER_1
 10
29.349277
 20
99.960146
 30
0.0
 11
33.118944
 21
102.740945
 31
0.0
  0
LINE
  5
4A
  8
LAYER_1
 10
33.118944
 20
102.740945
 30
0.0
 11
36.529415
 21
104.987711
 31
0.0
  0
LINE
  5
4B
  8
LAYER_1
 10
36.529415
 20
104.987711
 30
0.0
 11
39.459888
 21
106.692361
 31
0.0
  0
LINE
  5
4C
  8
LAYER_1
 10
39.459888
 20
106.692361
 30
0.0
 11
42.21784
 21
108.268643
 31
0.0
  0
LINE
  5
4D
  8
LAYER_1
 10
42.21784
 20
108.268643
 30
0.0
 11
48.699028
 21
111.513304
 31
0.0
  0
LINE
  5
4E
  8
LAYER_1
 10
48.699028
 20
111.513304
 30
0.0
 11
53.249647
 21
113.630532
 31
0.0
  0
LINE
  5
4F
  8
LAYER_1
 10
53.249647
 20
113.630532
 30
0.0
 11
56.272986
 21
114.871486
 31
0.0
  0
LINE
  5
50
  8
LAYER_1
 10
56.272986
 20
114.871486
 30
0.0
 11
58.8271
 21
115.882155
 31
0.0
  0
LINE
  5
51
  8
LAYER_1
 10
58.8271
 20
115.882155
 30
0.0
 11
60.216483
 21
116.417398
 31
0.0
  0
LINE
  5
52
  8
LAYER_1
 10
60.216483
 20
116.417398
 30
0.0
 11
63.591968
 21
117.732897
 31
0.0
  0
LINE
  5
53
  8
LAYER_1
 10
63.591968
 20
117.732897
 30
0.0
 11
65.41365500000001
 21
118.482179
 31
0.0
  0
LINE
  5
54
  8
LAYER_1
 10
65.41365500000001
 20
118.482179
 30
0.0
 11
66.695165
 21
119.187963
 31
0.0
  0
LINE
  5
55
  8
LAYER_1
 10
66.695165
 20
119.187963
 30
0.0
 11
67.591999
 21
119.862773
 31
0.0
  0
LINE
  5
56
  8
LAYER_1
 10
67.591999
 20
119.862773
 30
0.0
 11
67.416307
 21
122.201732
 31
0.0
  0
LINE
  5
57
  8
LAYER_1
 10
67.416307
 20
122.201732
 30
0.0
 11
67.324163
 21
124.596363
 31
0.0
  0
LINE
  5
58
  8
LAYER_1
 10
67.324163
 20
124.596363
 30
0.0
 11
67.47393200000001
 21
126.414598
 31
0.0
  0
LINE
  5
268
  8
LAYER_1
 10
67.47393200000001
 20
126.414598
 30
0.0
 11
67.889994
 21
127.794224
 31
0.0
  0
LINE
  5
269
  8
LAYER_1
 10
67.889994
 20
127.794224
 30
0.0
 11
68.59672999999999
 21
128.873029
 31
0.0
  0
LINE
  5
5B
  8
LAYER_1
 10
68.59672999999999
 20
128.873029
 30
0.0
 11
69.716515
 21
129.925772
 31
0.0
  0
LINE
  5
5C
  8
LAYER_1
 10
69.716515
 20
129.925772
 30
0.0
 11
70.90794099999999
 21
130.635632
 31
0.0
  0
LINE
  5
5D
  8
LAYER_1
 10
70.90794099999999
 20
130.635632
 30
0.0
 11
72.15546500000001
 21
130.995789
 31
0.0
  0
LINE
  5
26A
  8
LAYER_1
 10
72.15546500000001
 20
130.995789
 30
0.0
 11
73.443544
 21
130.999422
 31
0.0
  0
LINE
  5
5F
  8
LAYER_1
 10
73.443544
 20
130.999422
 30
0.0
 11
74.549662
 21
130.780251
 31
0.0
  0
LINE
  5
60
  8
LAYER_1
 10
74.549662
 20
130.780251
 30
0.0
 11
75.492677
 21
130.441127
 31
0.0
  0
LINE
  5
61
  8
LAYER_1
 10
75.492677
 20
130.441127
 30
0.0
 11
76.291151
 21
129.97345
 31
0.0
  0
LINE
  5
62
  8
LAYER_1
 10
76.291151
 20
129.97345
 30
0.0
 11
76.96364800000001
 21
129.36862
 31
0.0
  0
LINE
  5
63
  8
LAYER_1
 10
76.96364800000001
 20
129.36862
 30
0.0
 11
77.526854
 21
128.750004
 31
0.0
  0
LINE
  5
64
  8
LAYER_1
 10
77.526854
 20
128.750004
 30
0.0
 11
79.066568
 21
129.285565
 31
0.0
  0
LINE
  5
65
  8
LAYER_1
 10
79.066568
 20
129.285565
 30
0.0
 11
81.098468
 21
129.713177
 31
0.0
  0
LINE
  5
66
  8
LAYER_1
 10
81.098468
 20
129.713177
 30
0.0
 11
84.647809
 21
129.807972
 31
0.0
  0
LINE
  5
67
  8
LAYER_1
 10
84.647809
 20
129.807972
 30
0.0
 11
88.22832
 21
129.693508
 31
0.0
  0
LINE
  5
68
  8
LAYER_1
 10
88.22832
 20
129.693508
 30
0.0
 11
89.133
 21
129.500416
 31
0.0
  0
LINE
  5
69
  8
LAYER_1
 10
89.133
 20
129.500416
 30
0.0
 11
89.904127
 21
129.160476
 31
0.0
  0
LINE
  5
6A
  8
LAYER_1
 10
89.904127
 20
129.160476
 30
0.0
 11
90.957296
 21
128.705947
 31
0.0
  0
LINE
  5
26B
  8
LAYER_1
 10
90.957296
 20
128.705947
 30
0.0
 11
91.195297
 21
128.754807
 31
0.0
  0
LINE
  5
26C
  8
LAYER_1
 10
91.195297
 20
128.754807
 30
0.0
 11
91.36276100000001
 21
128.972005
 31
0.0
  0
LINE
  5
6D
  8
LAYER_1
 10
91.36276100000001
 20
128.972005
 30
0.0
 11
91.987399
 21
129.624989
 31
0.0
  0
LINE
  5
6E
  8
LAYER_1
 10
91.987399
 20
129.624989
 30
0.0
 11
93.032935
 21
130.244379
 31
0.0
  0
LINE
  5
6F
  8
LAYER_1
 10
93.032935
 20
130.244379
 30
0.0
 11
94.30457199999999
 21
130.736717
 31
0.0
  0
LINE
  5
70
  8
LAYER_1
 10
94.30457199999999
 20
130.736717
 30
0.0
 11
95.607513
 21
131.008543
 31
0.0
  0
LINE
  5
71
  8
LAYER_1
 10
95.607513
 20
131.008543
 30
0.0
 11
97.142017
 21
131.028532
 31
0.0
  0
LINE
  5
72
  8
LAYER_1
 10
97.142017
 20
131.028532
 30
0.0
 11
98.285461
 21
130.444653
 31
0.0
  0
LINE
  5
26D
  8
LAYER_1
 10
98.285461
 20
130.444653
 30
0.0
 11
99.526539
 21
129.700759
 31
0.0
  0
LINE
  5
26E
  8
LAYER_1
 10
99.526539
 20
129.700759
 30
0.0
 11
100.462548
 21
128.689887
 31
0.0
  0
LINE
  5
26F
  8
LAYER_1
 10
100.462548
 20
128.689887
 30
0.0
 11
101.027585
 21
127.621714
 31
0.0
  0
LINE
  5
270
  8
LAYER_1
 10
101.027585
 20
127.621714
 30
0.0
 11
101.369484
 21
126.217114
 31
0.0
  0
LINE
  5
77
  8
LAYER_1
 10
101.369484
 20
126.217114
 30
0.0
 11
101.495454
 21
124.426862
 31
0.0
  0
LINE
  5
78
  8
LAYER_1
 10
101.495454
 20
124.426862
 30
0.0
 11
101.412703
 21
122.201732
 31
0.0
  0
LINE
  5
79
  8
LAYER_1
 10
101.412703
 20
122.201732
 30
0.0
 11
101.237011
 21
119.862773
 31
0.0
  0
LINE
  5
7A
  8
LAYER_1
 10
101.237011
 20
119.862773
 30
0.0
 11
102.133843
 21
119.177394
 31
0.0
  0
LINE
  5
7B
  8
LAYER_1
 10
102.133843
 20
119.177394
 30
0.0
 11
103.091293
 21
118.589286
 31
0.0
  0
LINE
  5
7C
  8
LAYER_1
 10
103.091293
 20
118.589286
 30
0.0
 11
104.133859
 21
118.137774
 31
0.0
  0
LINE
  5
7D
  8
LAYER_1
 10
104.133859
 20
118.137774
 30
0.0
 11
114.51067
 21
114.032273
 31
0.0
  0
LINE
  5
7E
  8
LAYER_1
 10
114.51067
 20
114.032273
 30
0.0
 11
116.241452
 21
113.342155
 31
0.0
  0
LINE
  5
7F
  8
LAYER_1
 10
116.241452
 20
113.342155
 30
0.0
 11
121.25317
 21
110.993178
 31
0.0
  0
LINE
  5
80
  8
LAYER_1
 10
121.25317
 20
110.993178
 30
0.0
 11
126.611168
 21
108.272868
 31
0.0
  0
LINE
  5
81
  8
LAYER_1
 10
126.611168
 20
108.272868
 30
0.0
 11
129.782816
 21
106.416193
 31
0.0
  0
LINE
  5
82
  8
LAYER_1
 10
129.782816
 20
106.416193
 30
0.0
 11
134.489805
 21
103.605179
 31
0.0
  0
LINE
  5
83
  8
LAYER_1
 10
134.489805
 20
103.605179
 30
0.0
 11
137.336598
 21
101.606502
 31
0.0
  0
LINE
  5
84
  8
LAYER_1
 10
137.336598
 20
101.606502
 30
0.0
 11
139.052029
 21
100.336502
 31
0.0
  0
LINE
  5
85
  8
LAYER_1
 10
139.052029
 20
100.336502
 30
0.0
 11
141.997699
 21
97.96757100000001
 31
0.0
  0
LINE
  5
86
  8
LAYER_1
 10
141.997699
 20
97.96757100000001
 30
0.0
 11
146.18738
 21
93.86220899999999
 31
0.0
  0
LINE
  5
87
  8
LAYER_1
 10
146.18738
 20
93.86220899999999
 30
0.0
 11
148.753535
 21
91.06117
 31
0.0
  0
LINE
  5
88
  8
LAYER_1
 10
148.753535
 20
91.06117
 30
0.0
 11
151.023298
 21
88.211613
 31
0.0
  0
LINE
  5
89
  8
LAYER_1
 10
151.023298
 20
88.211613
 30
0.0
 11
153.002541
 21
85.302133
 31
0.0
  0
LINE
  5
8A
  8
LAYER_1
 10
153.002541
 20
85.302133
 30
0.0
 11
154.697134
 21
82.321321
 31
0.0
  0
LINE
  5
8B
  8
LAYER_1
 10
154.697134
 20
82.321321
 30
0.0
 11
156.112947
 21
79.257769
 31
0.0
  0
LINE
  5
8C
  8
LAYER_1
 10
156.112947
 20
79.257769
 30
0.0
 11
157.25585
 21
76.10006900000001
 31
0.0
  0
LINE
  5
8D
  8
LAYER_1
 10
157.25585
 20
76.10006900000001
 30
0.0
 11
158.131714
 21
72.836816
 31
0.0
  0
LINE
  5
8E
  8
LAYER_1
 10
158.131714
 20
72.836816
 30
0.0
 11
158.74641
 21
69.456599
 31
0.0
  0
LINE
  5
8F
  8
LAYER_1
 10
158.74641
 20
69.456599
 30
0.0
 11
159.080734
 21
65.822712
 31
0.0
  0
LINE
  5
90
  8
LAYER_1
 10
159.080734
 20
65.822712
 30
0.0
 11
159.008636
 21
62.410019
 31
0.0
  0
LINE
  5
91
  8
LAYER_1
 10
159.008636
 20
62.410019
 30
0.0
 11
158.520282
 21
59.100588
 31
0.0
  0
LINE
  5
271
  8
LAYER_1
 10
158.520282
 20
59.100588
 30
0.0
 11
157.60584
 21
55.776487
 31
0.0
  0
LINE
  5
272
  8
LAYER_1
 10
157.60584
 20
55.776487
 30
0.0
 11
155.869482
 21
51.456819
 31
0.0
  0
LINE
  5
94
  8
LAYER_1
 10
155.869482
 20
51.456819
 30
0.0
 11
154.819294
 21
49.418082
 31
0.0
  0
LINE
  5
95
  8
LAYER_1
 10
154.819294
 20
49.418082
 30
0.0
 11
153.638492
 21
47.451466
 31
0.0
  0
LINE
  5
96
  8
LAYER_1
 10
153.638492
 20
47.451466
 30
0.0
 11
152.32012
 21
45.550513
 31
0.0
  0
LINE
  5
273
  8
LAYER_1
 10
152.32012
 20
45.550513
 30
0.0
 11
150.857223
 21
43.708762
 31
0.0
  0
LINE
  5
274
  8
LAYER_1
 10
150.857223
 20
43.708762
 30
0.0
 11
147.470029
 21
40.177041
 31
0.0
  0
LINE
  5
99
  8
LAYER_1
 10
147.470029
 20
40.177041
 30
0.0
 11
143.421262
 21
36.804634
 31
0.0
  0
LINE
  5
9A
  8
LAYER_1
 10
143.421262
 20
36.804634
 30
0.0
 11
138.655278
 21
33.539876
 31
0.0
  0
LINE
  5
9B
  8
LAYER_1
 10
138.655278
 20
33.539876
 30
0.0
 11
133.116429
 21
30.331101
 31
0.0
  0
LINE
  5
9C
  8
LAYER_1
 10
133.116429
 20
30.331101
 30
0.0
 11
126.749068
 21
27.126641
 31
0.0
  0
LINE
  5
9D
  8
LAYER_1
 10
126.749068
 20
27.126641
 30
0.0
 11
123.102627
 21
25.392674
 31
0.0
  0
LINE
  5
9E
  8
LAYER_1
 10
123.102627
 20
25.392674
 30
0.0
 11
120.971262
 21
24.442155
 31
0.0
  0
LINE
  5
9F
  8
LAYER_1
 10
120.971262
 20
24.442155
 30
0.0
 11
118.826003
 21
23.489753
 31
0.0
  0
LINE
  5
A0
  8
LAYER_1
 10
118.826003
 20
23.489753
 30
0.0
 11
113.027855
 21
20.806591
 31
0.0
  0
LINE
  5
A1
  8
LAYER_1
 10
113.027855
 20
20.806591
 30
0.0
 11
106.159429
 21
17.433979
 31
0.0
  0
LINE
  5
A2
  8
LAYER_1
 10
106.159429
 20
17.433979
 30
0.0
 11
103.300864
 21
15.821978
 31
0.0
  0
LINE
  5
A3
  8
LAYER_1
 10
103.300864
 20
15.821978
 30
0.0
 11
100.786129
 21
14.232616
 31
0.0
  0
LINE
  5
A4
  8
LAYER_1
 10
100.786129
 20
14.232616
 30
0.0
 11
98.58527599999999
 21
12.64572
 31
0.0
  0
LINE
  5
A5
  8
LAYER_1
 10
98.58527599999999
 20
12.64572
 30
0.0
 11
96.668352
 21
11.041115
 31
0.0
  0
LINE
  5
A6
  8
LAYER_1
 10
96.668352
 20
11.041115
 30
0.0
 11
95.005408
 21
9.398629
 31
0.0
  0
LINE
  5
A7
  8
LAYER_1
 10
95.005408
 20
9.398629
 30
0.0
 11
93.56649400000001
 21
7.698088
 31
0.0
  0
LINE
  5
A8
  8
LAYER_1
 10
93.56649400000001
 20
7.698088
 30
0.0
 11
92.55091400000001
 21
6.305358
 31
0.0
  0
LINE
  5
A9
  8
LAYER_1
 10
92.55091400000001
 20
6.305358
 30
0.0
 11
91.80633899999999
 21
5.062273
 31
0.0
  0
LINE
  5
AA
  8
LAYER_1
 10
91.80633899999999
 20
5.062273
 30
0.0
 11
89.98392994197722
 21
0.5745205480809468
 31
0.0
  0
LINE
  5
AE
  8
LAYER_1
 10
89.98392994197722
 20
0.5745205480809468
 30
0.0
 11
90.34049899999999
 21
4.263266
 31
0.0
  0
LINE
  5
AF
  8
LAYER_1
 10
90.34049899999999
 20
4.263266
 30
0.0
 11
90.73909
 21
6.979023
 31
0.0
  0
LINE
  5
B0
  8
LAYER_1
 10
90.73909
 20
6.979023
 30
0.0
 11
91.270089
 21
9.532311
 31
0.0
  0
LINE
  5
B1
  8
LAYER_1
 10
91.270089
 20
9.532311
 30
0.0
 11
91.943495
 21
11.948037
 31
0.0
  0
LINE
  5
B2
  8
LAYER_1
 10
91.943495
 20
11.948037
 30
0.0
 11
92.76930900000001
 21
14.251112
 31
0.0
  0
LINE
  5
B3
  8
LAYER_1
 10
92.76930900000001
 20
14.251112
 30
0.0
 11
93.757532
 21
16.466444
 31
0.0
  0
LINE
  5
B4
  8
LAYER_1
 10
93.757532
 20
16.466444
 30
0.0
 11
94.91816300000001
 21
18.618942
 31
0.0
  0
LINE
  5
B5
  8
LAYER_1
 10
94.91816300000001
 20
18.618942
 30
0.0
 11
96.261203
 21
20.733516
 31
0.0
  0
LINE
  5
B6
  8
LAYER_1
 10
96.261203
 20
20.733516
 30
0.0
 11
97.796652
 21
22.835074
 31
0.0
  0
LINE
  5
B7
  8
LAYER_1
 10
97.796652
 20
22.835074
 30
0.0
 11
100.66484
 21
26.201468
 31
0.0
  0
LINE
  5
B8
  8
LAYER_1
 10
100.66484
 20
26.201468
 30
0.0
 11
104.09749
 21
29.383922
 31
0.0
  0
LINE
  5
B9
  8
LAYER_1
 10
104.09749
 20
29.383922
 30
0.0
 11
108.963296
 21
33.105122
 31
0.0
  0
LINE
  5
BA
  8
LAYER_1
 10
108.963296
 20
33.105122
 30
0.0
 11
116.130953
 21
38.087754
 31
0.0
  0
LINE
  5
BB
  8
LAYER_1
 10
116.130953
 20
38.087754
 30
0.0
 11
119.617256
 21
40.579724
 31
0.0
  0
LINE
  5
BC
  8
LAYER_1
 10
119.617256
 20
40.579724
 30
0.0
 11
122.648232
 21
43.003563
 31
0.0
  0
LINE
  5
BD
  8
LAYER_1
 10
122.648232
 20
43.003563
 30
0.0
 11
125.219827
 21
45.355816
 31
0.0
  0
LINE
  5
BE
  8
LAYER_1
 10
125.219827
 20
45.355816
 30
0.0
 11
127.327987
 21
47.633026
 31
0.0
  0
LINE
  5
BF
  8
LAYER_1
 10
127.327987
 20
47.633026
 30
0.0
 11
129.76074
 21
50.660359
 31
0.0
  0
LINE
  5
C0
  8
LAYER_1
 10
129.76074
 20
50.660359
 30
0.0
 11
131.446831
 21
53.12951
 31
0.0
  0
LINE
  5
C1
  8
LAYER_1
 10
131.446831
 20
53.12951
 30
0.0
 11
132.66172
 21
55.500025
 31
0.0
  0
LINE
  5
C2
  8
LAYER_1
 10
132.66172
 20
55.500025
 30
0.0
 11
133.680869
 21
58.231447
 31
0.0
  0
LINE
  5
C3
  8
LAYER_1
 10
133.680869
 20
58.231447
 30
0.0
 11
134.078001
 21
59.563493
 31
0.0
  0
LINE
  5
C4
  8
LAYER_1
 10
134.078001
 20
59.563493
 30
0.0
 11
134.299224
 21
60.86697
 31
0.0
  0
LINE
  5
C5
  8
LAYER_1
 10
134.299224
 20
60.86697
 30
0.0
 11
134.432813
 21
65.505488
 31
0.0
  0
LINE
  5
C6
  8
LAYER_1
 10
134.432813
 20
65.505488
 30
0.0
 11
134.459559
 21
70.585488
 31
0.0
  0
LINE
  5
C7
  8
LAYER_1
 10
134.459559
 20
70.585488
 30
0.0
 11
133.562022
 21
72.68799799999999
 31
0.0
  0
LINE
  5
C8
  8
LAYER_1
 10
133.562022
 20
72.68799799999999
 30
0.0
 11
131.823369
 21
76.358245
 31
0.0
  0
LINE
  5
C9
  8
LAYER_1
 10
131.823369
 20
76.358245
 30
0.0
 11
129.873842
 21
79.633796
 31
0.0
  0
LINE
  5
CA
  8
LAYER_1
 10
129.873842
 20
79.633796
 30
0.0
 11
127.565287
 21
82.736577
 31
0.0
  0
LINE
  5
CB
  8
LAYER_1
 10
127.565287
 20
82.736577
 30
0.0
 11
124.749552
 21
85.88851099999999
 31
0.0
  0
LINE
  5
CC
  8
LAYER_1
 10
124.749552
 20
85.88851099999999
 30
0.0
 11
121.646854
 21
88.944569
 31
0.0
  0
LINE
  5
CD
  8
LAYER_1
 10
121.646854
 20
88.944569
 30
0.0
 11
121.026318
 21
89.36189899999999
 31
0.0
  0
LINE
  5
CE
  8
LAYER_1
 10
121.026318
 20
89.36189899999999
 30
0.0
 11
119.622058
 21
90.487326
 31
0.0
  0
LINE
  5
CF
  8
LAYER_1
 10
119.622058
 20
90.487326
 30
0.0
 11
117.508713
 21
91.929457
 31
0.0
  0
LINE
  5
D0
  8
LAYER_1
 10
117.508713
 20
91.929457
 30
0.0
 11
112.68351
 21
94.772407
 31
0.0
  0
LINE
  5
D1
  8
LAYER_1
 10
112.68351
 20
94.772407
 30
0.0
 11
107.869315
 21
97.026089
 31
0.0
  0
LINE
  5
D2
  8
LAYER_1
 10
107.869315
 20
97.026089
 30
0.0
 11
101.927499
 21
99.184697
 31
0.0
  0
LINE
  5
D3
  8
LAYER_1
 10
101.927499
 20
99.184697
 30
0.0
 11
99.231123
 21
100.200435
 31
0.0
  0
LINE
  5
D4
  8
LAYER_1
 10
99.231123
 20
100.200435
 30
0.0
 11
98.595884
 21
100.583378
 31
0.0
  0
LINE
  5
D5
  8
LAYER_1
 10
98.595884
 20
100.583378
 30
0.0
 11
98.27727899999999
 21
100.960216
 31
0.0
  0
LINE
  5
D6
  8
LAYER_1
 10
98.27727899999999
 20
100.960216
 30
0.0
 11
98.025583
 21
101.885621
 31
0.0
  0
LINE
  5
D7
  8
LAYER_1
 10
98.025583
 20
101.885621
 30
0.0
 11
97.951742
 21
103.301685
 31
0.0
  0
LINE
  5
D8
  8
LAYER_1
 10
97.951742
 20
103.301685
 30
0.0
 11
98.33650900000001
 21
107.482378
 31
0.0
  0
LINE
  5
D9
  8
LAYER_1
 10
98.33650900000001
 20
107.482378
 30
0.0
 11
98.567538
 21
109.287023
 31
0.0
  0
LINE
  5
DA
  8
LAYER_1
 10
98.567538
 20
109.287023
 30
0.0
 11
98.586589
 21
110.375804
 31
0.0
  0
LINE
  5
DB
  8
LAYER_1
 10
98.586589
 20
110.375804
 30
0.0
 11
98.368911
 21
110.956794
 31
0.0
  0
LINE
  5
DC
  8
LAYER_1
 10
98.368911
 20
110.956794
 30
0.0
 11
97.889754
 21
111.238061
 31
0.0
  0
LINE
  5
DD
  8
LAYER_1
 10
97.889754
 20
111.238061
 30
0.0
 11
97.36868699999999
 21
111.273597
 31
0.0
  0
LINE
  5
DE
  8
LAYER_1
 10
97.36868699999999
 20
111.273597
 30
0.0
 11
96.935872
 21
111.023662
 31
0.0
  0
LINE
  5
DF
  8
LAYER_1
 10
96.935872
 20
111.023662
 30
0.0
 11
96.603207
 21
110.500278
 31
0.0
  0
LINE
  5
E0
  8
LAYER_1
 10
96.603207
 20
110.500278
 30
0.0
 11
96.382592
 21
109.715464
 31
0.0
  0
LINE
  5
E1
  8
LAYER_1
 10
96.382592
 20
109.715464
 30
0.0
 11
95.93558299999999
 21
108.160405
 31
0.0
  0
LINE
  5
E2
  8
LAYER_1
 10
95.93558299999999
 20
108.160405
 30
0.0
 11
95.101849
 21
105.503603
 31
0.0
  0
LINE
  5
E3
  8
LAYER_1
 10
95.101849
 20
105.503603
 30
0.0
 11
94.348114
 21
101.896181
 31
0.0
  0
LINE
  5
E4
  8
LAYER_1
 10
94.348114
 20
101.896181
 30
0.0
 11
93.813462
 21
99.391627
 31
0.0
  0
LINE
  5
E5
  8
LAYER_1
 10
93.813462
 20
99.391627
 30
0.0
 11
93.061235
 21
97.44805599999999
 31
0.0
  0
LINE
  5
E6
  8
LAYER_1
 10
93.061235
 20
97.44805599999999
 30
0.0
 11
92.09868299999999
 21
96.079476
 31
0.0
  0
LINE
  5
E7
  8
LAYER_1
 10
92.09868299999999
 20
96.079476
 30
0.0
 11
91.540803
 21
95.61518599999999
 31
0.0
  0
LINE
  5
E8
  8
LAYER_1
 10
91.540803
 20
95.61518599999999
 30
0.0
 11
90.933061
 21
95.299897
 31
0.0
  0
LINE
  5
E9
  8
LAYER_1
 10
90.933061
 20
95.299897
 30
0.0
 11
89.639647
 21
95.19255
 31
0.0
  0
LINE
  5
EA
  8
LAYER_1
 10
89.639647
 20
95.19255
 30
0.0
 11
87.356998
 21
95.248611
 31
0.0
  0
LINE
  5
EB
  8
LAYER_1
 10
87.356998
 20
95.248611
 30
0.0
 11
81.289502
 21
95.232799
 31
0.0
  0
LINE
  5
EC
  8
LAYER_1
 10
81.289502
 20
95.232799
 30
0.0
 11
78.672898
 21
95.164174
 31
0.0
  0
LINE
  5
ED
  8
LAYER_1
 10
78.672898
 20
95.164174
 30
0.0
 11
78.004723
 21
95.26853800000001
 31
0.0
  0
LINE
  5
EE
  8
LAYER_1
 10
78.004723
 20
95.26853800000001
 30
0.0
 11
77.54572899999999
 21
95.47970100000001
 31
0.0
  0
LINE
  5
EF
  8
LAYER_1
 10
77.54572899999999
 20
95.47970100000001
 30
0.0
 11
76.426374
 21
96.446259
 31
0.0
  0
LINE
  5
F0
  8
LAYER_1
 10
76.426374
 20
96.446259
 30
0.0
 11
75.58165
 21
97.752009
 31
0.0
  0
LINE
  5
F1
  8
LAYER_1
 10
75.58165
 20
97.752009
 30
0.0
 11
74.954179
 21
99.51662
 31
0.0
  0
LINE
  5
F2
  8
LAYER_1
 10
74.954179
 20
99.51662
 30
0.0
 11
74.48657799999999
 21
101.859763
 31
0.0
  0
LINE
  5
F3
  8
LAYER_1
 10
74.48657799999999
 20
101.859763
 30
0.0
 11
73.841239
 21
105.13476
 31
0.0
  0
LINE
  5
F4
  8
LAYER_1
 10
73.841239
 20
105.13476
 30
0.0
 11
73.045074
 21
107.69771
 31
0.0
  0
LINE
  5
F5
  8
LAYER_1
 10
73.045074
 20
107.69771
 30
0.0
 11
72.45339300000001
 21
109.715464
 31
0.0
  0
LINE
  5
F6
  8
LAYER_1
 10
72.45339300000001
 20
109.715464
 30
0.0
 11
72.207832
 21
110.575515
 31
0.0
  0
LINE
  5
F7
  8
LAYER_1
 10
72.207832
 20
110.575515
 30
0.0
 11
71.84566
 21
111.095911
 31
0.0
  0
LINE
  5
F8
  8
LAYER_1
 10
71.84566
 20
111.095911
 30
0.0
 11
71.36262499999999
 21
111.280198
 31
0.0
  0
LINE
  5
F9
  8
LAYER_1
 10
71.36262499999999
 20
111.280198
 30
0.0
 11
70.754474
 21
111.13192
 31
0.0
  0
LINE
  5
FA
  8
LAYER_1
 10
70.754474
 20
111.13192
 30
0.0
 11
70.303652
 21
110.880595
 31
0.0
  0
LINE
  5
FB
  8
LAYER_1
 10
70.303652
 20
110.880595
 30
0.0
 11
70.12699000000001
 21
110.430371
 31
0.0
  0
LINE
  5
FC
  8
LAYER_1
 10
70.12699000000001
 20
110.430371
 30
0.0
 11
70.486846
 21
107.415488
 31
0.0
  0
LINE
  5
FD
  8
LAYER_1
 10
70.486846
 20
107.415488
 30
0.0
 11
70.877754
 21
103.391347
 31
0.0
  0
LINE
  5
FE
  8
LAYER_1
 10
70.877754
 20
103.391347
 30
0.0
 11
70.816405
 21
102.020894
 31
0.0
  0
LINE
  5
FF
  8
LAYER_1
 10
70.816405
 20
102.020894
 30
0.0
 11
70.583733
 21
101.086082
 31
0.0
  0
LINE
  5
100
  8
LAYER_1
 10
70.583733
 20
101.086082
 30
0.0
 11
70.25711200000001
 21
100.599389
 31
0.0
  0
LINE
  5
101
  8
LAYER_1
 10
70.25711200000001
 20
100.599389
 30
0.0
 11
69.54095700000001
 21
100.150748
 31
0.0
  0
LINE
  5
102
  8
LAYER_1
 10
69.54095700000001
 20
100.150748
 30
0.0
 11
65.522531
 21
98.69908
 31
0.0
  0
LINE
  5
103
  8
LAYER_1
 10
65.522531
 20
98.69908
 30
0.0
 11
60.717157
 21
96.940619
 31
0.0
  0
LINE
  5
104
  8
LAYER_1
 10
60.717157
 20
96.940619
 30
0.0
 11
56.489089
 21
94.963892
 31
0.0
  0
LINE
  5
105
  8
LAYER_1
 10
56.489089
 20
94.963892
 30
0.0
 11
51.577675
 21
92.080516
 31
0.0
  0
LINE
  5
106
  8
LAYER_1
 10
51.577675
 20
92.080516
 30
0.0
 11
49.309273
 21
90.562429
 31
0.0
  0
LINE
  5
107
  8
LAYER_1
 10
49.309273
 20
90.562429
 30
0.0
 11
47.87164
 21
89.445454
 31
0.0
  0
LINE
  5
108
  8
LAYER_1
 10
47.87164
 20
89.445454
 30
0.0
 11
45.965446
 21
87.79682200000001
 31
0.0
  0
LINE
  5
109
  8
LAYER_1
 10
45.965446
 20
87.79682200000001
 30
0.0
 11
43.649976
 21
85.552565
 31
0.0
  0
LINE
  5
10A
  8
LAYER_1
 10
43.649976
 20
85.552565
 30
0.0
 11
41.184012
 21
82.627769
 31
0.0
  0
LINE
  5
10B
  8
LAYER_1
 10
41.184012
 20
82.627769
 30
0.0
 11
38.858126
 21
79.395777
 31
0.0
  0
LINE
  5
10C
  8
LAYER_1
 10
38.858126
 20
79.395777
 30
0.0
 11
36.962893
 21
76.22993200000001
 31
0.0
  0
LINE
  5
10D
  8
LAYER_1
 10
36.962893
 20
76.22993200000001
 30
0.0
 11
35.693745
 21
73.669067
 31
0.0
  0
LINE
  5
10E
  8
LAYER_1
 10
35.693745
 20
73.669067
 30
0.0
 11
34.909577
 21
71.611699
 31
0.0
  0
LINE
  5
10F
  8
LAYER_1
 10
34.909577
 20
71.611699
 30
0.0
 11
34.484762
 21
69.63906
 31
0.0
  0
LINE
  5
110
  8
LAYER_1
 10
34.484762
 20
69.63906
 30
0.0
 11
34.293669
 21
67.33238
 31
0.0
  0
LINE
  5
111
  8
LAYER_1
 10
34.293669
 20
67.33238
 30
0.0
 11
34.268892
 21
64.62193600000001
 31
0.0
  0
LINE
  5
112
  8
LAYER_1
 10
34.268892
 20
64.62193600000001
 30
0.0
 11
34.447317
 21
62.0789
 31
0.0
  0
LINE
  5
113
  8
LAYER_1
 10
34.447317
 20
62.0789
 30
0.0
 11
34.83483
 21
59.685049
 31
0.0
  0
LINE
  5
114
  8
LAYER_1
 10
34.83483
 20
59.685049
 30
0.0
 11
35.437319
 21
57.42216
 31
0.0
  0
LINE
  5
115
  8
LAYER_1
 10
35.437319
 20
57.42216
 30
0.0
 11
36.260672
 21
55.272011
 31
0.0
  0
LINE
  5
116
  8
LAYER_1
 10
36.260672
 20
55.272011
 30
0.0
 11
37.310776
 21
53.216381
 31
0.0
  0
LINE
  5
117
  8
LAYER_1
 10
37.310776
 20
53.216381
 30
0.0
 11
38.59352
 21
51.237045
 31
0.0
  0
LINE
  5
118
  8
LAYER_1
 10
38.59352
 20
51.237045
 30
0.0
 11
40.11479
 21
49.315782
 31
0.0
  0
LINE
  5
119
  8
LAYER_1
 10
40.11479
 20
49.315782
 30
0.0
 11
42.321153
 21
46.627567
 31
0.0
  0
LINE
  5
11A
  8
LAYER_1
 10
42.321153
 20
46.627567
 30
0.0
 11
43.590279
 21
45.296752
 31
0.0
  0
LINE
  5
11B
  8
LAYER_1
 10
43.590279
 20
45.296752
 30
0.0
 11
45.786467
 21
43.337816
 31
0.0
  0
LINE
  5
11C
  8
LAYER_1
 10
45.786467
 20
43.337816
 30
0.0
 11
48.327107
 21
41.248656
 31
0.0
  0
LINE
  5
11D
  8
LAYER_1
 10
48.327107
 20
41.248656
 30
0.0
 11
50.629591
 21
39.52717
 31
0.0
  0
LINE
  5
11E
  8
LAYER_1
 10
50.629591
 20
39.52717
 30
0.0
 11
59.620112
 21
33.250233
 31
0.0
  0
LINE
  5
11F
  8
LAYER_1
 10
59.620112
 20
33.250233
 30
0.0
 11
64.239182
 21
29.738763
 31
0.0
  0
LINE
  5
120
  8
LAYER_1
 10
64.239182
 20
29.738763
 30
0.0
 11
67.310289
 21
27.01855
 31
0.0
  0
LINE
  5
121
  8
LAYER_1
 10
67.310289
 20
27.01855
 30
0.0
 11
70.006394
 21
24.155549
 31
0.0
  0
LINE
  5
122
  8
LAYER_1
 10
70.006394
 20
24.155549
 30
0.0
 11
72.33275399999999
 21
21.140135
 31
0.0
  0
LINE
  5
123
  8
LAYER_1
 10
72.33275399999999
 20
21.140135
 30
0.0
 11
74.29462700000001
 21
17.96268
 31
0.0
  0
LINE
  5
124
  8
LAYER_1
 10
74.29462700000001
 20
17.96268
 30
0.0
 11
75.897271
 21
14.613559
 31
0.0
  0
LINE
  5
125
  8
LAYER_1
 10
75.897271
 20
14.613559
 30
0.0
 11
77.14594099999999
 21
11.083145
 31
0.0
  0
LINE
  5
126
  8
LAYER_1
 10
77.14594099999999
 20
11.083145
 30
0.0
 11
78.045895
 21
7.361813
 31
0.0
  0
LINE
  5
127
  8
LAYER_1
 10
78.045895
 20
7.361813
 30
0.0
 11
78.602391
 21
3.439936
 31
0.0
  0
LINE
  5
128
  8
LAYER_1
 10
78.602391
 20
3.439936
 30
0.0
 11
78.81535599999999
 21
0.274007
 31
0.0
  0
LINE
  5
129
  8
LAYER_1
 10
78.81535599999999
 20
0.274007
 30
0.0
 11
78.38845600000001
 21
1.52067
 31
0.0
  0
LINE
  5
12A
  8
LAYER_1
 10
78.38845600000001
 20
1.52067
 30
0.0
 11
78.38845600000001
 21
1.52067
 31
0.0
  0
LINE
  5
12B
  8
LAYER_1
 10
89.560993
 20
99.053749
 30
0.0
 11
90.11747699999999
 21
99.37825700000001
 31
0.0
  0
LINE
  5
12C
  8
LAYER_1
 10
90.11747699999999
 20
99.37825700000001
 30
0.0
 11
90.579369
 21
99.965056
 31
0.0
  0
LINE
  5
12D
  8
LAYER_1
 10
90.579369
 20
99.965056
 30
0.0
 11
90.965108
 21
100.84608
 31
0.0
  0
LINE
  5
12E
  8
LAYER_1
 10
90.965108
 20
100.84608
 30
0.0
 11
91.293137
 21
102.053266
 31
0.0
  0
LINE
  5
12F
  8
LAYER_1
 10
91.293137
 20
102.053266
 30
0.0
 11
92.142234
 21
105.439932
 31
0.0
  0
LINE
  5
130
  8
LAYER_1
 10
92.142234
 20
105.439932
 30
0.0
 11
93.103669
 21
108.921954
 31
0.0
  0
LINE
  5
131
  8
LAYER_1
 10
93.103669
 20
108.921954
 30
0.0
 11
93.422682
 21
110.709239
 31
0.0
  0
LINE
  5
132
  8
LAYER_1
 10
93.422682
 20
110.709239
 30
0.0
 11
92.464541
 21
109.518729
 31
0.0
  0
LINE
  5
133
  8
LAYER_1
 10
92.464541
 20
109.518729
 30
0.0
 11
91.03244599999999
 21
107.124181
 31
0.0
  0
LINE
  5
134
  8
LAYER_1
 10
91.03244599999999
 20
107.124181
 30
0.0
 11
89.966548
 21
105.483437
 31
0.0
  0
LINE
  5
135
  8
LAYER_1
 10
89.966548
 20
105.483437
 30
0.0
 11
89.186303
 21
104.696192
 31
0.0
  0
LINE
  5
136
  8
LAYER_1
 10
89.186303
 20
104.696192
 30
0.0
 11
89.529731
 21
105.903316
 31
0.0
  0
LINE
  5
137
  8
LAYER_1
 10
89.529731
 20
105.903316
 30
0.0
 11
90.71052
 21
109.243785
 31
0.0
  0
LINE
  5
138
  8
LAYER_1
 10
90.71052
 20
109.243785
 30
0.0
 11
91.575823
 21
112.829898
 31
0.0
  0
LINE
  5
139
  8
LAYER_1
 10
91.575823
 20
112.829898
 30
0.0
 11
92.08115700000001
 21
116.428493
 31
0.0
  0
LINE
  5
13A
  8
LAYER_1
 10
92.08115700000001
 20
116.428493
 30
0.0
 11
92.182041
 21
119.806409
 31
0.0
  0
LINE
  5
13B
  8
LAYER_1
 10
92.182041
 20
119.806409
 30
0.0
 11
91.94768000000001
 21
121.013132
 31
0.0
  0
LINE
  5
13C
  8
LAYER_1
 10
91.94768000000001
 20
121.013132
 30
0.0
 11
91.063177
 21
122.094632
 31
0.0
  0
LINE
  5
13D
  8
LAYER_1
 10
91.063177
 20
122.094632
 30
0.0
 11
89.663318
 21
123.037907
 31
0.0
  0
LINE
  5
13E
  8
LAYER_1
 10
89.663318
 20
123.037907
 30
0.0
 11
87.831744
 21
123.675319
 31
0.0
  0
LINE
  5
13F
  8
LAYER_1
 10
87.831744
 20
123.675319
 30
0.0
 11
85.734668
 21
124.014133
 31
0.0
  0
LINE
  5
140
  8
LAYER_1
 10
85.734668
 20
124.014133
 30
0.0
 11
83.538301
 21
124.061617
 31
0.0
  0
LINE
  5
141
  8
LAYER_1
 10
83.538301
 20
124.061617
 30
0.0
 11
81.408857
 21
123.825035
 31
0.0
  0
LINE
  5
142
  8
LAYER_1
 10
81.408857
 20
123.825035
 30
0.0
 11
79.512547
 21
123.311653
 31
0.0
  0
LINE
  5
143
  8
LAYER_1
 10
79.512547
 20
123.311653
 30
0.0
 11
78.015584
 21
122.528738
 31
0.0
  0
LINE
  5
144
  8
LAYER_1
 10
78.015584
 20
122.528738
 30
0.0
 11
77.46879800000001
 21
122.038476
 31
0.0
  0
LINE
  5
145
  8
LAYER_1
 10
77.46879800000001
 20
122.038476
 30
0.0
 11
77.08418
 21
121.483555
 31
0.0
  0
LINE
  5
146
  8
LAYER_1
 10
77.08418
 20
121.483555
 30
0.0
 11
76.77368800000001
 21
120.540402
 31
0.0
  0
LINE
  5
147
  8
LAYER_1
 10
76.77368800000001
 20
120.540402
 30
0.0
 11
76.616691
 21
119.28201
 31
0.0
  0
LINE
  5
148
  8
LAYER_1
 10
76.616691
 20
119.28201
 30
0.0
 11
76.74219100000001
 21
116.008937
 31
0.0
  0
LINE
  5
149
  8
LAYER_1
 10
76.74219100000001
 20
116.008937
 30
0.0
 11
77.41870299999999
 21
112.043198
 31
0.0
  0
LINE
  5
14A
  8
LAYER_1
 10
77.41870299999999
 20
112.043198
 30
0.0
 11
78.60425100000001
 21
107.763654
 31
0.0
  0
LINE
  5
14B
  8
LAYER_1
 10
78.60425100000001
 20
107.763654
 30
0.0
 11
79.43923599999999
 21
105.058841
 31
0.0
  0
LINE
  5
14C
  8
LAYER_1
 10
79.43923599999999
 20
105.058841
 30
0.0
 11
79.366449
 21
104.906951
 31
0.0
  0
LINE
  5
14D
  8
LAYER_1
 10
79.366449
 20
104.906951
 30
0.0
 11
79.008938
 21
105.298821
 31
0.0
  0
LINE
  5
14E
  8
LAYER_1
 10
79.008938
 20
105.298821
 30
0.0
 11
77.87942
 21
106.992155
 31
0.0
  0
LINE
  5
14F
  8
LAYER_1
 10
77.87942
 20
106.992155
 30
0.0
 11
76.379136
 21
109.527616
 31
0.0
  0
LINE
  5
150
  8
LAYER_1
 10
76.379136
 20
109.527616
 30
0.0
 11
75.73847600000001
 21
110.427958
 31
0.0
  0
LINE
  5
151
  8
LAYER_1
 10
75.73847600000001
 20
110.427958
 30
0.0
 11
75.413588
 21
110.716667
 31
0.0
  0
LINE
  5
152
  8
LAYER_1
 10
75.413588
 20
110.716667
 30
0.0
 11
75.512325
 21
109.771549
 31
0.0
  0
LINE
  5
153
  8
LAYER_1
 10
75.512325
 20
109.771549
 30
0.0
 11
76.570843
 21
105.863266
 31
0.0
  0
LINE
  5
154
  8
LAYER_1
 10
76.570843
 20
105.863266
 30
0.0
 11
77.42267099999999
 21
102.476599
 31
0.0
  0
LINE
  5
155
  8
LAYER_1
 10
77.42267099999999
 20
102.476599
 30
0.0
 11
77.78554200000001
 21
101.073382
 31
0.0
  0
LINE
  5
156
  8
LAYER_1
 10
77.78554200000001
 20
101.073382
 30
0.0
 11
78.16896199999999
 21
100.110738
 31
0.0
  0
LINE
  5
157
  8
LAYER_1
 10
78.16896199999999
 20
100.110738
 30
0.0
 11
78.624617
 21
99.491204
 31
0.0
  0
LINE
  5
158
  8
LAYER_1
 10
78.624617
 20
99.491204
 30
0.0
 11
79.204196
 21
99.11731399999999
 31
0.0
  0
LINE
  5
159
  8
LAYER_1
 10
79.204196
 20
99.11731399999999
 30
0.0
 11
81.01816100000001
 21
98.916843
 31
0.0
  0
LINE
  5
15A
  8
LAYER_1
 10
81.01816100000001
 20
98.916843
 30
0.0
 11
84.30950799999999
 21
98.833529
 31
0.0
  0
LINE
  5
15B
  8
LAYER_1
 10
84.30950799999999
 20
98.833529
 30
0.0
 11
87.637399
 21
98.876217
 31
0.0
  0
LINE
  5
15C
  8
LAYER_1
 10
87.637399
 20
98.876217
 30
0.0
 11
89.560993
 21
99.053749
 31
0.0
  0
LINE
  5
15D
  8
LAYER_1
 10
89.560993
 20
99.053749
 30
0.0
 11
89.560993
 21
99.053749
 31
0.0
  0
LINE
  5
15E
  8
LAYER_1
 10
75.03746700000001
 20
113.344477
 30
0.0
 11
74.347979
 21
116.615055
 31
0.0
  0
LINE
  5
15F
  8
LAYER_1
 10
74.347979
 20
116.615055
 30
0.0
 11
73.86908099999999
 21
118.853736
 31
0.0
  0
LINE
  5
160
  8
LAYER_1
 10
73.86908099999999
 20
118.853736
 30
0.0
 11
73.70152400000001
 21
120.289753
 31
0.0
  0
LINE
  5
161
  8
LAYER_1
 10
73.70152400000001
 20
120.289753
 30
0.0
 11
73.84138299999999
 21
121.264624
 31
0.0
  0
LINE
  5
162
  8
LAYER_1
 10
73.84138299999999
 20
121.264624
 30
0.0
 11
74.284736
 21
122.119864
 31
0.0
  0
LINE
  5
163
  8
LAYER_1
 10
74.284736
 20
122.119864
 30
0.0
 11
75.35293900000001
 21
123.257568
 31
0.0
  0
LINE
  5
164
  8
LAYER_1
 10
75.35293900000001
 20
123.257568
 30
0.0
 11
76.93239199999999
 21
124.18158
 31
0.0
  0
LINE
  5
165
  8
LAYER_1
 10
76.93239199999999
 20
124.18158
 30
0.0
 11
79.02382400000001
 21
124.892223
 31
0.0
  0
LINE
  5
166
  8
LAYER_1
 10
79.02382400000001
 20
124.892223
 30
0.0
 11
81.62796299999999
 21
125.389822
 31
0.0
  0
LINE
  5
167
  8
LAYER_1
 10
81.62796299999999
 20
125.389822
 30
0.0
 11
84.850516
 21
125.697557
 31
0.0
  0
LINE
  5
168
  8
LAYER_1
 10
84.850516
 20
125.697557
 30
0.0
 11
87.797781
 21
125.417
 31
0.0
  0
LINE
  5
169
  8
LAYER_1
 10
87.797781
 20
125.417
 30
0.0
 11
90.171747
 21
124.94228
 31
0.0
  0
LINE
  5
16A
  8
LAYER_1
 10
90.171747
 20
124.94228
 30
0.0
 11
92.079027
 21
124.28274
 31
0.0
  0
LINE
  5
16B
  8
LAYER_1
 10
92.079027
 20
124.28274
 30
0.0
 11
93.52100900000001
 21
123.437757
 31
0.0
  0
LINE
  5
16C
  8
LAYER_1
 10
93.52100900000001
 20
123.437757
 30
0.0
 11
94.49908000000001
 21
122.406707
 31
0.0
  0
LINE
  5
16D
  8
LAYER_1
 10
94.49908000000001
 20
122.406707
 30
0.0
 11
94.972836
 21
121.485438
 31
0.0
  0
LINE
  5
16E
  8
LAYER_1
 10
94.972836
 20
121.485438
 30
0.0
 11
95.128429
 21
120.424989
 31
0.0
  0
LINE
  5
16F
  8
LAYER_1
 10
95.128429
 20
120.424989
 30
0.0
 11
94.964923
 21
118.922784
 31
0.0
  0
LINE
  5
170
  8
LAYER_1
 10
94.964923
 20
118.922784
 30
0.0
 11
94.481382
 21
116.676246
 31
0.0
  0
LINE
  5
171
  8
LAYER_1
 10
94.481382
 20
116.676246
 30
0.0
 11
93.837587
 21
113.56298
 31
0.0
  0
LINE
  5
172
  8
LAYER_1
 10
93.837587
 20
113.56298
 30
0.0
 11
93.93664800000001
 21
113.135566
 31
0.0
  0
LINE
  5
173
  8
LAYER_1
 10
93.93664800000001
 20
113.135566
 30
0.0
 11
94.295762
 21
113.059932
 31
0.0
  0
LINE
  5
174
  8
LAYER_1
 10
94.295762
 20
113.059932
 30
0.0
 11
94.587407
 21
113.194057
 31
0.0
  0
LINE
  5
175
  8
LAYER_1
 10
94.587407
 20
113.194057
 30
0.0
 11
94.921429
 21
113.635143
 31
0.0
  0
LINE
  5
176
  8
LAYER_1
 10
94.921429
 20
113.635143
 30
0.0
 11
95.855375
 21
115.670488
 31
0.0
  0
LINE
  5
177
  8
LAYER_1
 10
95.855375
 20
115.670488
 30
0.0
 11
96.63684000000001
 21
118.062383
 31
0.0
  0
LINE
  5
178
  8
LAYER_1
 10
96.63684000000001
 20
118.062383
 30
0.0
 11
97.061199
 21
120.360858
 31
0.0
  0
LINE
  5
179
  8
LAYER_1
 10
97.061199
 20
120.360858
 30
0.0
 11
97.099754
 21
122.303025
 31
0.0
  0
LINE
  5
17A
  8
LAYER_1
 10
97.099754
 20
122.303025
 30
0.0
 11
96.965388
 21
123.058342
 31
0.0
  0
LINE
  5
17B
  8
LAYER_1
 10
96.965388
 20
123.058342
 30
0.0
 11
96.72381
 21
123.625999
 31
0.0
  0
LINE
  5
17C
  8
LAYER_1
 10
96.72381
 20
123.625999
 30
0.0
 11
96.02858500000001
 21
124.373226
 31
0.0
  0
LINE
  5
17D
  8
LAYER_1
 10
96.02858500000001
 20
124.373226
 30
0.0
 11
94.934133
 21
125.09647
 31
0.0
  0
LINE
  5
17E
  8
LAYER_1
 10
94.934133
 20
125.09647
 30
0.0
 11
93.484336
 21
125.771611
 31
0.0
  0
LINE
  5
17F
  8
LAYER_1
 10
93.484336
 20
125.771611
 30
0.0
 11
91.723077
 21
126.374531
 31
0.0
  0
LINE
  5
180
  8
LAYER_1
 10
91.723077
 20
126.374531
 30
0.0
 11
90.38295599999999
 21
126.718819
 31
0.0
  0
LINE
  5
181
  8
LAYER_1
 10
90.38295599999999
 20
126.718819
 30
0.0
 11
88.98763
 21
126.915098
 31
0.0
  0
LINE
  5
182
  8
LAYER_1
 10
88.98763
 20
126.915098
 30
0.0
 11
84.13870799999999
 21
127.026263
 31
0.0
  0
LINE
  5
183
  8
LAYER_1
 10
84.13870799999999
 20
127.026263
 30
0.0
 11
79.177617
 21
126.917162
 31
0.0
  0
LINE
  5
184
  8
LAYER_1
 10
79.177617
 20
126.917162
 30
0.0
 11
77.811624
 21
126.679717
 31
0.0
  0
LINE
  5
185
  8
LAYER_1
 10
77.811624
 20
126.679717
 30
0.0
 11
76.338763
 21
126.234018
 31
0.0
  0
LINE
  5
186
  8
LAYER_1
 10
76.338763
 20
126.234018
 30
0.0
 11
74.209188
 21
125.378754
 31
0.0
  0
LINE
  5
187
  8
LAYER_1
 10
74.209188
 20
125.378754
 30
0.0
 11
72.822373
 21
124.372716
 31
0.0
  0
LINE
  5
188
  8
LAYER_1
 10
72.822373
 20
124.372716
 30
0.0
 11
72.193867
 21
123.725526
 31
0.0
  0
LINE
  5
189
  8
LAYER_1
 10
72.193867
 20
123.725526
 30
0.0
 11
71.869142
 21
123.175845
 31
0.0
  0
LINE
  5
18A
  8
LAYER_1
 10
71.869142
 20
123.175845
 30
0.0
 11
71.748874
 21
122.4358
 31
0.0
  0
LINE
  5
18B
  8
LAYER_1
 10
71.748874
 20
122.4358
 30
0.0
 11
71.73374
 21
121.21752
 31
0.0
  0
LINE
  5
18C
  8
LAYER_1
 10
71.73374
 20
121.21752
 30
0.0
 11
72.035111
 21
118.708217
 31
0.0
  0
LINE
  5
18D
  8
LAYER_1
 10
72.035111
 20
118.708217
 30
0.0
 11
72.76505400000001
 21
116.041233
 31
0.0
  0
LINE
  5
18E
  8
LAYER_1
 10
72.76505400000001
 20
116.041233
 30
0.0
 11
73.680643
 21
113.922995
 31
0.0
  0
LINE
  5
18F
  8
LAYER_1
 10
73.680643
 20
113.922995
 30
0.0
 11
74.132142
 21
113.290415
 31
0.0
  0
LINE
  5
190
  8
LAYER_1
 10
74.132142
 20
113.290415
 30
0.0
 11
74.538956
 21
113.059932
 31
0.0
  0
LINE
  5
191
  8
LAYER_1
 10
74.538956
 20
113.059932
 30
0.0
 11
74.89103
 21
113.143517
 31
0.0
  0
LINE
  5
192
  8
LAYER_1
 10
74.89103
 20
113.143517
 30
0.0
 11
75.03746700000001
 21
113.344477
 31
0.0
  0
LINE
  5
193
  8
LAYER_1
 10
75.03746700000001
 20
113.344477
 30
0.0
 11
75.03746700000001
 21
113.344477
 31
0.0
  0
LINE
  5
194
  8
LAYER_1
 10
74.828248
 20
23.68898
 30
0.0
 11
72.00146700000001
 21
26.932605
 31
0.0
  0
LINE
  5
195
  8
LAYER_1
 10
72.00146700000001
 20
26.932605
 30
0.0
 11
69.7976
 21
29.239932
 31
0.0
  0
LINE
  5
196
  8
LAYER_1
 10
69.7976
 20
29.239932
 30
0.0
 11
71.548772
 21
29.239932
 31
0.0
  0
LINE
  5
197
  8
LAYER_1
 10
71.548772
 20
29.239932
 30
0.0
 11
73.299944
 21
29.239932
 31
0.0
  0
LINE
  5
198
  8
LAYER_1
 10
73.299944
 20
29.239932
 30
0.0
 11
74.06956700000001
 21
27.334932
 31
0.0
  0
LINE
  5
199
  8
LAYER_1
 10
74.06956700000001
 20
27.334932
 30
0.0
 11
75.489912
 21
24.250788
 31
0.0
  0
LINE
  5
19A
  8
LAYER_1
 10
75.489912
 20
24.250788
 30
0.0
 11
76.10042799999999
 21
22.991507
 31
0.0
  0
LINE
  5
19B
  8
LAYER_1
 10
76.10042799999999
 20
22.991507
 30
0.0
 11
76.05242800000001
 21
22.793415
 31
0.0
  0
LINE
  5
19C
  8
LAYER_1
 10
76.05242800000001
 20
22.793415
 30
0.0
 11
75.795903
 21
22.750749
 31
0.0
  0
LINE
  5
19D
  8
LAYER_1
 10
75.795903
 20
22.750749
 30
0.0
 11
75.369449
 21
23.02715
 31
0.0
  0
LINE
  5
19E
  8
LAYER_1
 10
75.369449
 20
23.02715
 30
0.0
 11
74.828248
 21
23.68898
 31
0.0
  0
LINE
  5
19F
  8
LAYER_1
 10
74.828248
 20
23.68898
 30
0.0
 11
74.828248
 21
23.68898
 31
0.0
  0
LINE
  5
1A0
  8
LAYER_1
 10
93.010121
 20
22.984147
 30
0.0
 11
94.467361
 21
26.229702
 31
0.0
  0
LINE
  5
1A1
  8
LAYER_1
 10
94.467361
 20
26.229702
 30
0.0
 11
95.832668
 21
29.239932
 31
0.0
  0
LINE
  5
1A2
  8
LAYER_1
 10
95.832668
 20
29.239932
 30
0.0
 11
97.47414000000001
 21
29.239932
 31
0.0
  0
LINE
  5
1A3
  8
LAYER_1
 10
97.47414000000001
 20
29.239932
 30
0.0
 11
99.11561500000001
 21
29.239932
 31
0.0
  0
LINE
  5
1A4
  8
LAYER_1
 10
99.11561500000001
 20
29.239932
 30
0.0
 11
97.618242
 21
27.617155
 31
0.0
  0
LINE
  5
1A5
  8
LAYER_1
 10
97.618242
 20
27.617155
 30
0.0
 11
94.765709
 21
24.371599
 31
0.0
  0
LINE
  5
1A6
  8
LAYER_1
 10
94.765709
 20
24.371599
 30
0.0
 11
93.33902500000001
 21
22.880711
 31
0.0
  0
LINE
  5
1A7
  8
LAYER_1
 10
93.33902500000001
 20
22.880711
 30
0.0
 11
93.00159100000001
 21
22.704877
 31
0.0
  0
LINE
  5
1A8
  8
LAYER_1
 10
93.00159100000001
 20
22.704877
 30
0.0
 11
93.010121
 21
22.984147
 31
0.0
  0
LINE
  5
1A9
  8
LAYER_1
 10
93.010121
 20
22.984147
 30
0.0
 11
93.010121
 21
22.984147
 31
0.0
  0
LINE
  5
1AA
  8
LAYER_1
 10
66.074324
 20
32.344041
 30
0.0
 11
62.127968
 21
35.357836
 31
0.0
  0
LINE
  5
1AB
  8
LAYER_1
 10
62.127968
 20
35.357836
 30
0.0
 11
58.084412
 21
38.32707
 31
0.0
  0
LINE
  5
1AC
  8
LAYER_1
 10
58.084412
 20
38.32707
 30
0.0
 11
59.703512
 21
38.47232
 31
0.0
  0
LINE
  5
1AD
  8
LAYER_1
 10
59.703512
 20
38.47232
 30
0.0
 11
63.971799
 21
38.488276
 31
0.0
  0
LINE
  5
1AE
  8
LAYER_1
 10
63.971799
 20
38.488276
 30
0.0
 11
70.126626
 21
38.412155
 31
0.0
  0
LINE
  5
1AF
  8
LAYER_1
 10
70.126626
 20
38.412155
 30
0.0
 11
71.14212600000001
 21
35.237155
 31
0.0
  0
LINE
  5
1B0
  8
LAYER_1
 10
71.14212600000001
 20
35.237155
 30
0.0
 11
72.157624
 21
32.062155
 31
0.0
  0
LINE
  5
1B1
  8
LAYER_1
 10
72.157624
 20
32.062155
 30
0.0
 11
69.20110099999999
 21
32.062155
 31
0.0
  0
LINE
  5
1B2
  8
LAYER_1
 10
69.20110099999999
 20
32.062155
 30
0.0
 11
67.04710900000001
 21
32.143347
 31
0.0
  0
LINE
  5
1B3
  8
LAYER_1
 10
67.04710900000001
 20
32.143347
 30
0.0
 11
66.074324
 21
32.344041
 31
0.0
  0
LINE
  5
1B4
  8
LAYER_1
 10
66.074324
 20
32.344041
 30
0.0
 11
66.074324
 21
32.344041
 31
0.0
  0
LINE
  5
1B5
  8
LAYER_1
 10
97.490909
 20
33.967155
 30
0.0
 11
98.465784
 21
37.08652
 31
0.0
  0
LINE
  5
1B6
  8
LAYER_1
 10
98.465784
 20
37.08652
 30
0.0
 11
98.79119
 21
37.982936
 31
0.0
  0
LINE
  5
1B7
  8
LAYER_1
 10
98.79119
 20
37.982936
 30
0.0
 11
99.122857
 21
38.432873
 31
0.0
  0
LINE
  5
1B8
  8
LAYER_1
 10
99.122857
 20
38.432873
 30
0.0
 11
105.369476
 21
38.488507
 31
0.0
  0
LINE
  5
1B9
  8
LAYER_1
 10
105.369476
 20
38.488507
 30
0.0
 11
111.279968
 21
38.412155
 31
0.0
  0
LINE
  5
1BA
  8
LAYER_1
 10
111.279968
 20
38.412155
 30
0.0
 11
109.378386
 21
37.144726
 31
0.0
  0
LINE
  5
1BB
  8
LAYER_1
 10
109.378386
 20
37.144726
 30
0.0
 11
104.99105
 21
33.969726
 31
0.0
  0
LINE
  5
1BC
  8
LAYER_1
 10
104.99105
 20
33.969726
 30
0.0
 11
102.505301
 21
32.062155
 31
0.0
  0
LINE
  5
1BD
  8
LAYER_1
 10
102.505301
 20
32.062155
 30
0.0
 11
99.671144
 21
32.062155
 31
0.0
  0
LINE
  5
1BE
  8
LAYER_1
 10
99.671144
 20
32.062155
 30
0.0
 11
96.836984
 21
32.062155
 31
0.0
  0
LINE
  5
1BF
  8
LAYER_1
 10
96.836984
 20
32.062155
 30
0.0
 11
97.490909
 21
33.967155
 31
0.0
  0
LINE
  5
1C0
  8
LAYER_1
 10
97.490909
 20
33.967155
 30
0.0
 11
97.490909
 21
33.967155
 31
0.0
  0
LINE
  5
1C1
  8
LAYER_1
 10
54.486971
 20
41.372779
 30
0.0
 11
53.302105
 21
41.830303
 31
0.0
  0
LINE
  5
1C2
  8
LAYER_1
 10
53.302105
 20
41.830303
 30
0.0
 11
51.667624
 21
42.855016
 31
0.0
  0
LINE
  5
1C3
  8
LAYER_1
 10
51.667624
 20
42.855016
 30
0.0
 11
49.75451
 21
44.326604
 31
0.0
  0
LINE
  5
1C4
  8
LAYER_1
 10
49.75451
 20
44.326604
 30
0.0
 11
47.733743
 21
46.124755
 31
0.0
  0
LINE
  5
1C5
  8
LAYER_1
 10
47.733743
 20
46.124755
 30
0.0
 11
46.216869
 21
47.56925
 31
0.0
  0
LINE
  5
1C6
  8
LAYER_1
 10
46.216869
 20
47.56925
 30
0.0
 11
56.903933
 21
47.576813
 31
0.0
  0
LINE
  5
1C7
  8
LAYER_1
 10
56.903933
 20
47.576813
 30
0.0
 11
67.797844
 21
47.618102
 31
0.0
  0
LINE
  5
1C8
  8
LAYER_1
 10
67.797844
 20
47.618102
 30
0.0
 11
67.997692
 21
47.404031
 31
0.0
  0
LINE
  5
1C9
  8
LAYER_1
 10
67.997692
 20
47.404031
 30
0.0
 11
68.18771700000001
 21
46.841991
 31
0.0
  0
LINE
  5
1CA
  8
LAYER_1
 10
68.18771700000001
 20
46.841991
 30
0.0
 11
68.992797
 21
42.982905
 31
0.0
  0
LINE
  5
1CB
  8
LAYER_1
 10
68.992797
 20
42.982905
 30
0.0
 11
69.148788
 21
41.464397
 31
0.0
  0
LINE
  5
1CC
  8
LAYER_1
 10
69.148788
 20
41.464397
 30
0.0
 11
66.963273
 21
41.331153
 31
0.0
  0
LINE
  5
1CD
  8
LAYER_1
 10
66.963273
 20
41.331153
 30
0.0
 11
62.255703
 21
41.261875
 31
0.0
  0
LINE
  5
1CE
  8
LAYER_1
 10
62.255703
 20
41.261875
 30
0.0
 11
54.486971
 21
41.372779
 31
0.0
  0
LINE
  5
1CF
  8
LAYER_1
 10
54.486971
 20
41.372779
 30
0.0
 11
54.486971
 21
41.372779
 31
0.0
  0
LINE
  5
1D0
  8
LAYER_1
 10
104.655087
 20
41.311147
 30
0.0
 11
99.660411
 21
41.387917
 31
0.0
  0
LINE
  5
1D1
  8
LAYER_1
 10
99.660411
 20
41.387917
 30
0.0
 11
100.203804
 21
43.851147
 31
0.0
  0
LINE
  5
1D2
  8
LAYER_1
 10
100.203804
 20
43.851147
 30
0.0
 11
100.85996
 21
46.949377
 31
0.0
  0
LINE
  5
1D3
  8
LAYER_1
 10
100.85996
 20
46.949377
 30
0.0
 11
100.972724
 21
47.584377
 31
0.0
  0
LINE
  5
1D4
  8
LAYER_1
 10
100.972724
 20
47.584377
 30
0.0
 11
111.86138
 21
47.584377
 31
0.0
  0
LINE
  5
1D5
  8
LAYER_1
 10
111.86138
 20
47.584377
 30
0.0
 11
122.750038
 21
47.459163
 31
0.0
  0
LINE
  5
1D6
  8
LAYER_1
 10
122.750038
 20
47.459163
 30
0.0
 11
119.945295
 21
44.993968
 31
0.0
  0
LINE
  5
1D7
  8
LAYER_1
 10
119.945295
 20
44.993968
 30
0.0
 11
116.26885
 21
42.025514
 31
0.0
  0
LINE
  5
1D8
  8
LAYER_1
 10
116.26885
 20
42.025514
 30
0.0
 11
115.190748
 21
41.607022
 31
0.0
  0
LINE
  5
1D9
  8
LAYER_1
 10
115.190748
 20
41.607022
 30
0.0
 11
113.152604
 21
41.364263
 31
0.0
  0
LINE
  5
1DA
  8
LAYER_1
 10
113.152604
 20
41.364263
 30
0.0
 11
104.655087
 21
41.311147
 31
0.0
  0
LINE
  5
1DB
  8
LAYER_1
 10
104.655087
 20
41.311147
 30
0.0
 11
104.655087
 21
41.311147
 31
0.0
  0
LINE
  5
1DC
  8
LAYER_1
 10
43.424994
 20
50.790388
 30
0.0
 11
41.540819
 21
53.308766
 31
0.0
  0
LINE
  5
1DD
  8
LAYER_1
 10
41.540819
 20
53.308766
 30
0.0
 11
40.043069
 21
55.698266
 31
0.0
  0
LINE
  5
1DE
  8
LAYER_1
 10
40.043069
 20
55.698266
 30
0.0
 11
39.448675
 21
56.89771
 31
0.0
  0
LINE
  5
1DF
  8
LAYER_1
 10
39.448675
 20
56.89771
 30
0.0
 11
53.208417
 21
56.89771
 31
0.0
  0
LINE
  5
1E0
  8
LAYER_1
 10
53.208417
 20
56.89771
 30
0.0
 11
66.968158
 21
56.89771
 31
0.0
  0
LINE
  5
1E1
  8
LAYER_1
 10
66.968158
 20
56.89771
 30
0.0
 11
67.14683599999999
 21
55.133821
 31
0.0
  0
LINE
  5
1E2
  8
LAYER_1
 10
67.14683599999999
 20
55.133821
 30
0.0
 11
67.490032
 21
51.888266
 31
0.0
  0
LINE
  5
1E3
  8
LAYER_1
 10
67.490032
 20
51.888266
 30
0.0
 11
67.654551
 21
50.406599
 31
0.0
  0
LINE
  5
1E4
  8
LAYER_1
 10
67.654551
 20
50.406599
 30
0.0
 11
55.694634
 21
50.417335
 31
0.0
  0
LINE
  5
1E5
  8
LAYER_1
 10
55.694634
 20
50.417335
 30
0.0
 11
46.133137
 21
50.500449
 31
0.0
  0
LINE
  5
1E6
  8
LAYER_1
 10
46.133137
 20
50.500449
 30
0.0
 11
44.125444
 21
50.613392
 31
0.0
  0
LINE
  5
1E7
  8
LAYER_1
 10
44.125444
 20
50.613392
 30
0.0
 11
43.424994
 21
50.790388
 31
0.0
  0
LINE
  5
1E8
  8
LAYER_1
 10
43.424994
 20
50.790388
 30
0.0
 11
43.424994
 21
50.790388
 31
0.0
  0
LINE
  5
1E9
  8
LAYER_1
 10
101.684884
 20
53.581599
 30
0.0
 11
101.922185
 21
56.829791
 31
0.0
  0
LINE
  5
1EA
  8
LAYER_1
 10
101.922185
 20
56.829791
 30
0.0
 11
115.808258
 21
56.829791
 31
0.0
  0
LINE
  5
1EB
  8
LAYER_1
 10
115.808258
 20
56.829791
 30
0.0
 11
129.6379
 21
56.756599
 31
0.0
  0
LINE
  5
1EC
  8
LAYER_1
 10
129.6379
 20
56.756599
 30
0.0
 11
128.56317
 21
54.920329
 31
0.0
  0
LINE
  5
1ED
  8
LAYER_1
 10
128.56317
 20
54.920329
 30
0.0
 11
126.336877
 21
51.745329
 31
0.0
  0
LINE
  5
1EE
  8
LAYER_1
 10
126.336877
 20
51.745329
 30
0.0
 11
125.185314
 21
50.406599
 31
0.0
  0
LINE
  5
1EF
  8
LAYER_1
 10
125.185314
 20
50.406599
 30
0.0
 11
113.344664
 21
50.406599
 31
0.0
  0
LINE
  5
1F0
  8
LAYER_1
 10
113.344664
 20
50.406599
 30
0.0
 11
101.504016
 21
50.406599
 31
0.0
  0
LINE
  5
1F1
  8
LAYER_1
 10
101.504016
 20
50.406599
 30
0.0
 11
101.684884
 21
53.581599
 31
0.0
  0
LINE
  5
1F2
  8
LAYER_1
 10
101.684884
 20
53.581599
 30
0.0
 11
101.684884
 21
53.581599
 31
0.0
  0
LINE
  5
1F3
  8
LAYER_1
 10
38.114436
 20
61.848128
 30
0.0
 11
37.805117
 21
65.093683
 31
0.0
  0
LINE
  5
1F4
  8
LAYER_1
 10
37.805117
 20
65.093683
 30
0.0
 11
37.805117
 21
66.211044
 31
0.0
  0
LINE
  5
1F5
  8
LAYER_1
 10
37.805117
 20
66.211044
 30
0.0
 11
52.422261
 21
66.211044
 31
0.0
  0
LINE
  5
1F6
  8
LAYER_1
 10
52.422261
 20
66.211044
 30
0.0
 11
67.039405
 21
66.211044
 31
0.0
  0
LINE
  5
1F7
  8
LAYER_1
 10
67.039405
 20
66.211044
 30
0.0
 11
67.039405
 21
62.965488
 31
0.0
  0
LINE
  5
1F8
  8
LAYER_1
 10
67.039405
 20
62.965488
 30
0.0
 11
67.039405
 21
59.719932
 31
0.0
  0
LINE
  5
1F9
  8
LAYER_1
 10
67.039405
 20
59.719932
 30
0.0
 11
52.73158
 21
59.719932
 31
0.0
  0
LINE
  5
1FA
  8
LAYER_1
 10
52.73158
 20
59.719932
 30
0.0
 11
38.423757
 21
59.719932
 31
0.0
  0
LINE
  5
1FB
  8
LAYER_1
 10
38.423757
 20
59.719932
 30
0.0
 11
38.114436
 21
61.848128
 31
0.0
  0
LINE
  5
1FC
  8
LAYER_1
 10
38.114436
 20
61.848128
 30
0.0
 11
38.114436
 21
61.848128
 31
0.0
  0
LINE
  5
1FD
  8
LAYER_1
 10
102.063
 20
61.483821
 30
0.0
 11
101.886396
 21
64.731869
 31
0.0
  0
LINE
  5
1FE
  8
LAYER_1
 10
101.886396
 20
64.731869
 30
0.0
 11
101.712195
 21
66.21603
 31
0.0
  0
LINE
  5
1FF
  8
LAYER_1
 10
101.712195
 20
66.21603
 30
0.0
 11
116.436992
 21
66.14297999999999
 31
0.0
  0
LINE
  5
200
  8
LAYER_1
 10
116.436992
 20
66.14297999999999
 30
0.0
 11
131.16179
 21
66.06993199999999
 31
0.0
  0
LINE
  5
201
  8
LAYER_1
 10
131.16179
 20
66.06993199999999
 30
0.0
 11
131.107499
 21
64.039123
 31
0.0
  0
LINE
  5
202
  8
LAYER_1
 10
131.107499
 20
64.039123
 30
0.0
 11
130.752125
 21
60.864123
 31
0.0
  0
LINE
  5
203
  8
LAYER_1
 10
130.752125
 20
60.864123
 30
0.0
 11
130.451042
 21
59.719932
 31
0.0
  0
LINE
  5
204
  8
LAYER_1
 10
130.451042
 20
59.719932
 30
0.0
 11
116.258219
 21
59.719932
 31
0.0
  0
LINE
  5
205
  8
LAYER_1
 10
116.258219
 20
59.719932
 30
0.0
 11
102.065396
 21
59.719932
 31
0.0
  0
LINE
  5
206
  8
LAYER_1
 10
102.065396
 20
59.719932
 30
0.0
 11
102.063
 21
61.483821
 31
0.0
  0
LINE
  5
207
  8
LAYER_1
 10
102.063
 20
61.483821
 30
0.0
 11
102.063
 21
61.483821
 31
0.0
  0
LINE
  5
208
  8
LAYER_1
 10
38.176307
 20
69.874127
 30
0.0
 11
39.20338
 21
72.604974
 31
0.0
  0
LINE
  5
209
  8
LAYER_1
 10
39.20338
 20
72.604974
 30
0.0
 11
40.499798
 21
75.032156
 31
0.0
  0
LINE
  5
20A
  8
LAYER_1
 10
40.499798
 20
75.032156
 30
0.0
 11
41.081744
 21
75.303291
 31
0.0
  0
LINE
  5
20B
  8
LAYER_1
 10
41.081744
 20
75.303291
 30
0.0
 11
42.923225
 21
75.448984
 31
0.0
  0
LINE
  5
20C
  8
LAYER_1
 10
42.923225
 20
75.448984
 30
0.0
 11
54.534943
 21
75.503388
 31
0.0
  0
LINE
  5
20D
  8
LAYER_1
 10
54.534943
 20
75.503388
 30
0.0
 11
66.032685
 21
75.409796
 31
0.0
  0
LINE
  5
20E
  8
LAYER_1
 10
66.032685
 20
75.409796
 30
0.0
 11
67.774697
 21
75.265016
 31
0.0
  0
LINE
  5
20F
  8
LAYER_1
 10
67.774697
 20
75.265016
 30
0.0
 11
68.06802399999999
 21
75.152682
 31
0.0
  0
LINE
  5
210
  8
LAYER_1
 10
68.06802399999999
 20
75.152682
 30
0.0
 11
68.13776900000001
 21
75.007834
 31
0.0
  0
LINE
  5
211
  8
LAYER_1
 10
68.13776900000001
 20
75.007834
 30
0.0
 11
67.725129
 21
71.996599
 31
0.0
  0
LINE
  5
212
  8
LAYER_1
 10
67.725129
 20
71.996599
 30
0.0
 11
67.31625099999999
 21
69.24493200000001
 31
0.0
  0
LINE
  5
213
  8
LAYER_1
 10
67.31625099999999
 20
69.24493200000001
 30
0.0
 11
63.011596
 21
69.095443
 31
0.0
  0
LINE
  5
214
  8
LAYER_1
 10
63.011596
 20
69.095443
 30
0.0
 11
52.663581
 21
69.033266
 31
0.0
  0
LINE
  5
215
  8
LAYER_1
 10
52.663581
 20
69.033266
 30
0.0
 11
38.011964
 21
69.033266
 31
0.0
  0
LINE
  5
216
  8
LAYER_1
 10
38.011964
 20
69.033266
 30
0.0
 11
38.176307
 21
69.874127
 31
0.0
  0
LINE
  5
217
  8
LAYER_1
 10
38.176307
 20
69.874127
 30
0.0
 11
38.176307
 21
69.874127
 31
0.0
  0
LINE
  5
218
  8
LAYER_1
 10
101.413835
 20
70.938266
 30
0.0
 11
101.06301
 21
74.17623500000001
 31
0.0
  0
LINE
  5
219
  8
LAYER_1
 10
101.06301
 20
74.17623500000001
 30
0.0
 11
100.89215
 21
75.50920499999999
 31
0.0
  0
LINE
  5
21A
  8
LAYER_1
 10
100.89215
 20
75.50920499999999
 30
0.0
 11
114.647997
 21
75.446235
 31
0.0
  0
LINE
  5
21B
  8
LAYER_1
 10
114.647997
 20
75.446235
 30
0.0
 11
128.403838
 21
75.38326600000001
 31
0.0
  0
LINE
  5
21C
  8
LAYER_1
 10
128.403838
 20
75.38326600000001
 30
0.0
 11
129.712593
 21
72.70215500000001
 31
0.0
  0
LINE
  5
21D
  8
LAYER_1
 10
129.712593
 20
72.70215500000001
 30
0.0
 11
130.637275
 21
70.66354
 31
0.0
  0
LINE
  5
21E
  8
LAYER_1
 10
130.637275
 20
70.66354
 30
0.0
 11
131.022621
 21
69.52715499999999
 31
0.0
  0
LINE
  5
21F
  8
LAYER_1
 10
131.022621
 20
69.52715499999999
 30
0.0
 11
130.958016
 21
69.372652
 31
0.0
  0
LINE
  5
220
  8
LAYER_1
 10
130.958016
 20
69.372652
 30
0.0
 11
130.669075
 21
69.254143
 31
0.0
  0
LINE
  5
221
  8
LAYER_1
 10
130.669075
 20
69.254143
 30
0.0
 11
128.852789
 21
69.106129
 31
0.0
  0
LINE
  5
222
  8
LAYER_1
 10
128.852789
 20
69.106129
 30
0.0
 11
116.308852
 21
69.033266
 31
0.0
  0
LINE
  5
223
  8
LAYER_1
 10
116.308852
 20
69.033266
 30
0.0
 11
101.593805
 21
69.033266
 31
0.0
  0
LINE
  5
224
  8
LAYER_1
 10
101.593805
 20
69.033266
 30
0.0
 11
101.413835
 21
70.938266
 31
0.0
  0
LINE
  5
225
  8
LAYER_1
 10
101.413835
 20
70.938266
 30
0.0
 11
101.413835
 21
70.938266
 31
0.0
  0
LINE
  5
226
  8
LAYER_1
 10
42.645386
 20
78.84048799999999
 30
0.0
 11
44.740748
 21
81.62410199999999
 31
0.0
  0
LINE
  5
227
  8
LAYER_1
 10
44.740748
 20
81.62410199999999
 30
0.0
 11
46.837513
 21
84.073515
 31
0.0
  0
LINE
  5
228
  8
LAYER_1
 10
46.837513
 20
84.073515
 30
0.0
 11
47.429482
 21
84.350126
 31
0.0
  0
LINE
  5
229
  8
LAYER_1
 10
47.429482
 20
84.350126
 30
0.0
 11
49.016031
 21
84.49978
 31
0.0
  0
LINE
  5
22A
  8
LAYER_1
 10
49.016031
 20
84.49978
 30
0.0
 11
58.644734
 21
84.56179299999999
 31
0.0
  0
LINE
  5
22B
  8
LAYER_1
 10
58.644734
 20
84.56179299999999
 30
0.0
 11
70.014191
 21
84.42767499999999
 31
0.0
  0
LINE
  5
22C
  8
LAYER_1
 10
70.014191
 20
84.42767499999999
 30
0.0
 11
69.84761500000001
 21
83.37495199999999
 31
0.0
  0
LINE
  5
22D
  8
LAYER_1
 10
69.84761500000001
 20
83.37495199999999
 30
0.0
 11
69.111828
 21
80.251599
 31
0.0
  0
LINE
  5
22E
  8
LAYER_1
 10
69.111828
 20
80.251599
 30
0.0
 11
68.656553
 21
78.06437699999999
 31
0.0
  0
LINE
  5
22F
  8
LAYER_1
 10
68.656553
 20
78.06437699999999
 30
0.0
 11
55.405477
 21
78.06437699999999
 31
0.0
  0
LINE
  5
230
  8
LAYER_1
 10
55.405477
 20
78.06437699999999
 30
0.0
 11
42.154399
 21
78.06437699999999
 31
0.0
  0
LINE
  5
231
  8
LAYER_1
 10
42.154399
 20
78.06437699999999
 30
0.0
 11
42.645386
 21
78.84048799999999
 31
0.0
  0
LINE
  5
232
  8
LAYER_1
 10
42.645386
 20
78.84048799999999
 30
0.0
 11
42.645386
 21
78.84048799999999
 31
0.0
  0
LINE
  5
233
  8
LAYER_1
 10
100.278534
 20
78.699377
 30
0.0
 11
99.111014
 21
84.448551
 31
0.0
  0
LINE
  5
234
  8
LAYER_1
 10
99.111014
 20
84.448551
 30
0.0
 11
110.451508
 21
84.561739
 31
0.0
  0
LINE
  5
235
  8
LAYER_1
 10
110.451508
 20
84.561739
 30
0.0
 11
119.409168
 21
84.501085
 31
0.0
  0
LINE
  5
236
  8
LAYER_1
 10
119.409168
 20
84.501085
 30
0.0
 11
121.375925
 21
84.394811
 31
0.0
  0
LINE
  5
237
  8
LAYER_1
 10
121.375925
 20
84.394811
 30
0.0
 11
122.117465
 21
84.22492699999999
 31
0.0
  0
LINE
  5
238
  8
LAYER_1
 10
122.117465
 20
84.22492699999999
 30
0.0
 11
124.049027
 21
81.951015
 31
0.0
  0
LINE
  5
239
  8
LAYER_1
 10
124.049027
 20
81.951015
 30
0.0
 11
126.300162
 21
78.981599
 31
0.0
  0
LINE
  5
23A
  8
LAYER_1
 10
126.300162
 20
78.981599
 30
0.0
 11
126.924525
 21
78.06437699999999
 31
0.0
  0
LINE
  5
23B
  8
LAYER_1
 10
126.924525
 20
78.06437699999999
 30
0.0
 11
113.672829
 21
78.06437699999999
 31
0.0
  0
LINE
  5
23C
  8
LAYER_1
 10
113.672829
 20
78.06437699999999
 30
0.0
 11
100.421132
 21
78.06437699999999
 31
0.0
  0
LINE
  5
23D
  8
LAYER_1
 10
100.421132
 20
78.06437699999999
 30
0.0
 11
100.278534
 21
78.699377
 31
0.0
  0
LINE
  5
23E
  8
LAYER_1
 10
100.278534
 20
78.699377
 30
0.0
 11
100.278534
 21
78.699377
 31
0.0
  0
LINE
  5
23F
  8
LAYER_1
 10
50.917785
 20
87.73048799999999
 30
0.0
 11
51.718864
 21
88.45372399999999
 31
0.0
  0
LINE
  5
240
  8
LAYER_1
 10
51.718864
 20
88.45372399999999
 30
0.0
 11
53.536265
 21
89.710371
 31
0.0
  0
LINE
  5
241
  8
LAYER_1
 10
53.536265
 20
89.710371
 30
0.0
 11
58.29473
 21
92.562736
 31
0.0
  0
LINE
  5
242
  8
LAYER_1
 10
58.29473
 20
92.562736
 30
0.0
 11
60.719761
 21
93.868821
 31
0.0
  0
LINE
  5
243
  8
LAYER_1
 10
60.719761
 20
93.868821
 30
0.0
 11
66.775432
 21
93.868821
 31
0.0
  0
LINE
  5
244
  8
LAYER_1
 10
66.775432
 20
93.868821
 30
0.0
 11
72.831108
 21
93.752822
 31
0.0
  0
LINE
  5
245
  8
LAYER_1
 10
72.831108
 20
93.752822
 30
0.0
 11
72.29409
 21
92.130045
 31
0.0
  0
LINE
  5
246
  8
LAYER_1
 10
72.29409
 20
92.130045
 30
0.0
 11
71.321106
 21
89.000488
 31
0.0
  0
LINE
  5
247
  8
LAYER_1
 10
71.321106
 20
89.000488
 30
0.0
 11
70.885132
 21
87.37770999999999
 31
0.0
  0
LINE
  5
248
  8
LAYER_1
 10
70.885132
 20
87.37770999999999
 30
0.0
 11
60.834967
 21
87.37770999999999
 31
0.0
  0
LINE
  5
249
  8
LAYER_1
 10
60.834967
 20
87.37770999999999
 30
0.0
 11
52.864343
 21
87.449753
 31
0.0
  0
LINE
  5
24A
  8
LAYER_1
 10
52.864343
 20
87.449753
 30
0.0
 11
51.30833
 21
87.55797699999999
 31
0.0
  0
LINE
  5
24B
  8
LAYER_1
 10
51.30833
 20
87.55797699999999
 30
0.0
 11
50.917785
 21
87.73048799999999
 31
0.0
  0
LINE
  5
24C
  8
LAYER_1
 10
50.917785
 20
87.73048799999999
 30
0.0
 11
50.917785
 21
87.73048799999999
 31
0.0
  0
LINE
  5
24D
  8
LAYER_1
 10
97.32549899999999
 20
90.270488
 30
0.0
 11
96.32815100000001
 21
93.51604399999999
 31
0.0
  0
LINE
  5
24E
  8
LAYER_1
 10
96.32815100000001
 20
93.51604399999999
 30
0.0
 11
96.56468700000001
 21
93.686938
 31
0.0
  0
LINE
  5
24F
  8
LAYER_1
 10
96.56468700000001
 20
93.686938
 30
0.0
 11
97.508792
 21
93.79534200000001
 31
0.0
  0
LINE
  5
250
  8
LAYER_1
 10
97.508792
 20
93.79534200000001
 30
0.0
 11
102.26228
 21
93.868821
 31
0.0
  0
LINE
  5
251
  8
LAYER_1
 10
102.26228
 20
93.868821
 30
0.0
 11
108.291311
 21
93.868821
 31
0.0
  0
LINE
  5
252
  8
LAYER_1
 10
108.291311
 20
93.868821
 30
0.0
 11
110.487412
 21
92.71230300000001
 31
0.0
  0
LINE
  5
253
  8
LAYER_1
 10
110.487412
 20
92.71230300000001
 30
0.0
 11
115.078255
 21
89.91629399999999
 31
0.0
  0
LINE
  5
254
  8
LAYER_1
 10
115.078255
 20
89.91629399999999
 30
0.0
 11
117.195092
 21
88.472178
 31
0.0
  0
LINE
  5
255
  8
LAYER_1
 10
117.195092
 20
88.472178
 30
0.0
 11
118.209847
 21
87.642658
 31
0.0
  0
LINE
  5
256
  8
LAYER_1
 10
118.209847
 20
87.642658
 30
0.0
 11
115.618597
 21
87.44895800000001
 31
0.0
  0
LINE
  5
257
  8
LAYER_1
 10
115.618597
 20
87.44895800000001
 30
0.0
 11
108.298909
 21
87.37770999999999
 31
0.0
  0
LINE
  5
258
  8
LAYER_1
 10
108.298909
 20
87.37770999999999
 30
0.0
 11
98.227952
 21
87.37770999999999
 31
0.0
  0
LINE
  5
259
  8
LAYER_1
 10
98.227952
 20
87.37770999999999
 30
0.0
 11
97.32549899999999
 21
90.270488
 31
0.0
  0
LINE
  5
25A
  8
LAYER_1
 10
97.32549899999999
 20
90.270488
 30
0.0
 11
97.32549899999999
 21
90.270488
 31
0.0
  0
ENDSEC
  0
EOF
